  0
SECTION
  2
HEADER
  9
$ACADVER
  1
AC1015
  9
$ACADMAINTVER
 70
     6
  9
$DWGCODEPAGE
  3
ANSI_1252
  9
$INSBASE
 10
0.0
 20
0.0
 30
0.0
  9
$EXTMIN
 10
-0.5
 20
-0.5
 30
-0.5
  9
$EXTMAX
 10
5.0
 20
5.0
 30
5.0
  9
$LIMMIN
 10
-0.5
 20
-0.5
  9
$LIMMAX
 10
5.0
 20
5.0
  9
$ORTHOMODE
 70
     0
  9
$REGENMODE
 70
     1
  9
$FILLMODE
 70
     1
  9
$QTEXTMODE
 70
     0
  9
$MIRRTEXT
 70
     1
  9
$LTSCALE
 40
1.0
  9
$ATTMODE
 70
     1
  9
$TEXTSIZE
 40
0.2
  9
$TRACEWID
 40
0.05
  9
$TEXTSTYLE
  7
Standard
  9
$CLAYER
  8
0
  9
$CELTYPE
  6
ByLayer
  9
$CECOLOR
 62
   256
  9
$CELTSCALE
 40
1.0
  9
$DISPSILH
 70
     0
  9
$DIMSCALE
 40
1.0
  9
$DIMASZ
 40
0.18
  9
$DIMEXO
 40
0.0625
  9
$DIMDLI
 40
0.38
  9
$DIMRND
 40
0.0
  9
$DIMDLE
 40
0.0
  9
$DIMEXE
 40
0.18
  9
$DIMTP
 40
0.0
  9
$DIMTM
 40
0.0
  9
$DIMTXT
 40
0.18
  9
$DIMCEN
 40
0.09
  9
$DIMTSZ
 40
0.0
  9
$DIMTOL
 70
     0
  9
$DIMLIM
 70
     0
  9
$DIMTIH
 70
     1
  9
$DIMTOH
 70
     1
  9
$DIMSE1
 70
     0
  9
$DIMSE2
 70
     0
  9
$DIMTAD
 70
     0
  9
$DIMZIN
 70
     0
  9
$DIMBLK
  1

  9
$DIMASO
 70
     1
  9
$DIMSHO
 70
     1
  9
$DIMPOST
  1

  9
$DIMAPOST
  1

  9
$DIMALT
 70
     0
  9
$DIMALTD
 70
     2
  9
$DIMALTF
 40
25.4
  9
$DIMLFAC
 40
1.0
  9
$DIMTOFL
 70
     0
  9
$DIMTVP
 40
0.0
  9
$DIMTIX
 70
     0
  9
$DIMSOXD
 70
     0
  9
$DIMSAH
 70
     0
  9
$DIMBLK1
  1

  9
$DIMBLK2
  1

  9
$DIMSTYLE
  2
Standard
  9
$DIMCLRD
 70
     0
  9
$DIMCLRE
 70
     0
  9
$DIMCLRT
 70
     0
  9
$DIMTFAC
 40
1.0
  9
$DIMGAP
 40
0.09
  9
$DIMJUST
 70
     0
  9
$DIMSD1
 70
     0
  9
$DIMSD2
 70
     0
  9
$DIMTOLJ
 70
     1
  9
$DIMTZIN
 70
     0
  9
$DIMALTZ
 70
     0
  9
$DIMALTTZ
 70
     0
  9
$DIMUPT
 70
     0
  9
$DIMDEC
 70
     4
  9
$DIMTDEC
 70
     4
  9
$DIMALTU
 70
     2
  9
$DIMALTTD
 70
     2
  9
$DIMTXSTY
  7
Standard
  9
$DIMAUNIT
 70
     0
  9
$DIMADEC
 70
     0
  9
$DIMALTRND
 40
0.0
  9
$DIMAZIN
 70
     0
  9
$DIMDSEP
 70
    46
  9
$DIMATFIT
 70
     3
  9
$DIMFRAC
 70
     0
  9
$DIMLDRBLK
  1

  9
$DIMLUNIT
 70
     2
  9
$DIMLWD
 70
    -2
  9
$DIMLWE
 70
    -2
  9
$DIMTMOVE
 70
     0
  9
$LUNITS
 70
     2
  9
$LUPREC
 70
     4
  9
$SKETCHINC
 40
0.1
  9
$FILLETRAD
 40
0.5
  9
$AUNITS
 70
     0
  9
$AUPREC
 70
     0
  9
$MENU
  1
.
  9
$ELEVATION
 40
0.0
  9
$PELEVATION
 40
0.0
  9
$THICKNESS
 40
0.0
  9
$LIMCHECK
 70
     0
  9
$CHAMFERA
 40
0.5
  9
$CHAMFERB
 40
0.5
  9
$CHAMFERC
 40
1.0
  9
$CHAMFERD
 40
0.0
  9
$SKPOLY
 70
     0
  9
$TDCREATE
 40
2456896.650901458
  9
$TDUCREATE
 40
2456896.859234792
  9
$TDUPDATE
 40
2456896.65090147
  9
$TDUUPDATE
 40
2456896.859234803
  9
$TDINDWG
 40
0.0000000116
  9
$TDUSRTIMER
 40
0.0000000116
  9
$USRTIMER
 70
     1
  9
$ANGBASE
 50
0.0
  9
$ANGDIR
 70
     0
  9
$PDMODE
 70
     0
  9
$PDSIZE
 40
0.0
  9
$PLINEWID
 40
0.0
  9
$SPLFRAME
 70
     0
  9
$SPLINETYPE
 70
     6
  9
$SPLINESEGS
 70
     8
  9
$HANDSEED
  5
4A6
  9
$SURFTAB1
 70
     6
  9
$SURFTAB2
 70
     6
  9
$SURFTYPE
 70
     6
  9
$SURFU
 70
     6
  9
$SURFV
 70
     6
  9
$UCSBASE
  2

  9
$UCSNAME
  2

  9
$UCSORG
 10
0.0
 20
0.0
 30
0.0
  9
$UCSXDIR
 10
1.0
 20
0.0
 30
0.0
  9
$UCSYDIR
 10
0.0
 20
1.0
 30
0.0
  9
$UCSORTHOREF
  2

  9
$UCSORTHOVIEW
 70
     0
  9
$UCSORGTOP
 10
0.0
 20
0.0
 30
0.0
  9
$UCSORGBOTTOM
 10
0.0
 20
0.0
 30
0.0
  9
$UCSORGLEFT
 10
0.0
 20
0.0
 30
0.0
  9
$UCSORGRIGHT
 10
0.0
 20
0.0
 30
0.0
  9
$UCSORGFRONT
 10
0.0
 20
0.0
 30
0.0
  9
$UCSORGBACK
 10
0.0
 20
0.0
 30
0.0
  9
$PUCSBASE
  2

  9
$PUCSNAME
  2

  9
$PUCSORG
 10
0.0
 20
0.0
 30
0.0
  9
$PUCSXDIR
 10
1.0
 20
0.0
 30
0.0
  9
$PUCSYDIR
 10
0.0
 20
1.0
 30
0.0
  9
$PUCSORTHOREF
  2

  9
$PUCSORTHOVIEW
 70
     0
  9
$PUCSORGTOP
 10
0.0
 20
0.0
 30
0.0
  9
$PUCSORGBOTTOM
 10
0.0
 20
0.0
 30
0.0
  9
$PUCSORGLEFT
 10
0.0
 20
0.0
 30
0.0
  9
$PUCSORGRIGHT
 10
0.0
 20
0.0
 30
0.0
  9
$PUCSORGFRONT
 10
0.0
 20
0.0
 30
0.0
  9
$PUCSORGBACK
 10
0.0
 20
0.0
 30
0.0
  9
$USERI1
 70
     0
  9
$USERI2
 70
     0
  9
$USERI3
 70
     0
  9
$USERI4
 70
     0
  9
$USERI5
 70
     0
  9
$USERR1
 40
0.0
  9
$USERR2
 40
0.0
  9
$USERR3
 40
0.0
  9
$USERR4
 40
0.0
  9
$USERR5
 40
0.0
  9
$WORLDVIEW
 70
     1
  9
$SHADEDGE
 70
     3
  9
$SHADEDIF
 70
    70
  9
$TILEMODE
 70
     0
  9
$MAXACTVP
 70
    64
  9
$PINSBASE
 10
0.0
 20
0.0
 30
0.0
  9
$PLIMCHECK
 70
     0
  9
$PEXTMIN
 10
0.0
 20
0.0
 30
0.0
  9
$PEXTMAX
 10
11.0
 20
8.5
 30
0.0
  9
$PLIMMIN
 10
0.0
 20
0.0
  9
$PLIMMAX
 10
11.0
 20
8.5
  9
$UNITMODE
 70
     0
  9
$VISRETAIN
 70
     1
  9
$PLINEGEN
 70
     0
  9
$PSLTSCALE
 70
     1
  9
$TREEDEPTH
 70
  3020
  9
$CMLSTYLE
  2
Standard
  9
$CMLJUST
 70
     0
  9
$CMLSCALE
 40
1.0
  9
$PROXYGRAPHICS
 70
     1
  9
$MEASUREMENT
 70
     0
  9
$CELWEIGHT
370
    -1
  9
$ENDCAPS
280
     0
  9
$JOINSTYLE
280
     0
  9
$LWDISPLAY
290
     0
  9
$INSUNITS
 70
     1
  9
$HYPERLINKBASE
  1

  9
$STYLESHEET
  1

  9
$XEDIT
290
     1
  9
$CEPSNTYPE
380
     0
  9
$PSTYLEMODE
290
     1
  9
$FINGERPRINTGUID
  2
{48DFE469-B774-469F-99EA-2EA3FA75FEF7}
  9
$VERSIONGUID
  2
{FAEB1C32-E019-11D5-929B-00C0DF256EC4}
  9
$EXTNAMES
290
     1
  9
$PSVPSCALE
 40
0.0
  9
$OLESTARTUP
290
     0
  0
ENDSEC
  0
SECTION
  2
CLASSES
  0
CLASS
  1
ACDBDICTIONARYWDFLT
  2
AcDbDictionaryWithDefault
  3
ObjectDBX Classes
 90
        0
280
     0
281
     0
  0
CLASS
  1
VISUALSTYLE
  2
AcDbVisualStyle
  3
ObjectDBX Classes
 90
     4095
280
     0
281
     0
  0
CLASS
  1
MATERIAL
  2
AcDbMaterial
  3
ObjectDBX Classes
 90
     1153
280
     0
281
     0
  0
CLASS
  1
DICTIONARYVAR
  2
AcDbDictionaryVar
  3
ObjectDBX Classes
 90
        0
280
     0
281
     0
  0
CLASS
  1
ACDBPLACEHOLDER
  2
AcDbPlaceHolder
  3
ObjectDBX Classes
 90
        0
280
     0
281
     0
  0
CLASS
  1
LAYOUT
  2
AcDbLayout
  3
ObjectDBX Classes
 90
        0
280
     0
281
     0
  0
ENDSEC
  0
SECTION
  2
TABLES
  0
TABLE
  2
VPORT
  5
8
330
0
100
AcDbSymbolTable
 70
    17
  0
VPORT
  5
29
330
8
100
AcDbSymbolTableRecord
100
AcDbViewportTableRecord
  2
DUMMY
 70
     0
 10
0.0
 20
0.0
 11
1.0
 21
1.0
 12
10.429907
 22
4.5
 13
0.0
 23
0.0
 14
0.5
 24
0.5
 15
0.5
 25
0.5
 16
0.0
 26
0.0
 36
1.0
 17
0.0
 27
0.0
 37
0.0
 40
9.0
 41
1.972973
 42
50.0
 43
0.0
 44
0.0
 50
0.0
 51
0.0
 71
     0
 72
   100
 73
     1
 74
     3
 75
     0
 76
     0
 77
     0
 78
     0
281
     0
 65
     1
110
0.0
120
0.0
130
0.0
111
1.0
121
0.0
131
0.0
112
0.0
122
1.0
132
0.0
 79
     0
146
0.0
  0
VPORT
  5
46B
330
8
100
AcDbSymbolTableRecord
100
AcDbViewportTableRecord
  2
*ACTIVE
 70
     0
 10
0.0
 20
0.0
 11
1.0
 21
1.0
 12
-6.834472
 22
-6.834472
 13
0.0
 23
0.0
 14
0.5
 24
0.5
 15
0.5
 25
0.5
 16
0.7188730927569434
 26
-0.5850486126764431
 36
0.3754192287502549
 17
0.0
 27
0.0
 37
0.0
 40
61.350868
 41
0.28943
 42
50.0
 43
482.07238
 44
-482.07238
 50
0.0
 51
0.0
 71
     0
 72
   100
 73
     1
 74
     3
 75
     0
 76
     0
 77
     0
 78
     0
281
     0
 65
     1
110
0.0
120
0.0
130
0.0
111
1.0
121
0.0
131
0.0
112
0.0
122
1.0
132
0.0
 79
     0
146
0.0
  0
VPORT
  5
46C
330
8
100
AcDbSymbolTableRecord
100
AcDbViewportTableRecord
  2
L1
 70
     0
 10
0.0
 20
0.0
 11
1.0
 21
1.0
 12
-6.834472
 22
-6.834472
 13
0.0
 23
0.0
 14
0.5
 24
0.5
 15
0.5
 25
0.5
 16
0.7188730927569434
 26
-0.5850486126764431
 36
0.3754192287502549
 17
0.0
 27
0.0
 37
0.0
 40
61.350868
 41
0.28943
 42
50.0
 43
482.07238
 44
-482.07238
 50
0.0
 51
0.0
 71
     0
 72
   100
 73
     1
 74
     3
 75
     0
 76
     0
 77
     0
 78
     0
281
     0
 65
     1
110
0.0
120
0.0
130
0.0
111
1.0
121
0.0
131
0.0
112
0.0
122
1.0
132
0.0
 79
     0
146
0.0
  0
VPORT
  5
46D
330
8
100
AcDbSymbolTableRecord
100
AcDbViewportTableRecord
  2
L2
 70
     0
 10
0.0
 20
0.0
 11
0.5
 21
1.0
 12
0.0
 22
0.0
 13
0.0
 23
0.0
 14
0.5
 24
0.5
 15
0.5
 25
0.5
 16
0.0
 26
-1.0
 36
0.0
 17
0.0
 27
0.0
 37
0.0
 40
59.28775
 41
0.299501
 42
50.0
 43
30.446227
 44
-30.446227
 50
0.0
 51
0.0
 71
     0
 72
   100
 73
     1
 74
     3
 75
     0
 76
     0
 77
     0
 78
     0
281
     0
 65
     1
110
0.0
120
0.0
130
0.0
111
1.0
121
0.0
131
0.0
112
0.0
122
1.0
132
0.0
 79
     0
146
0.0
  0
VPORT
  5
46E
330
8
100
AcDbSymbolTableRecord
100
AcDbViewportTableRecord
  2
L2
 70
     0
 10
0.5
 20
0.0
 11
1.0
 21
1.0
 12
0.0
 22
0.0
 13
0.0
 23
0.0
 14
0.5
 24
0.5
 15
0.5
 25
0.5
 16
1.0
 26
0.0
 36
0.0
 17
0.0
 27
0.0
 37
0.0
 40
59.28775
 41
0.299501
 42
50.0
 43
30.05782
 44
-30.05782
 50
0.0
 51
0.0
 71
     0
 72
   100
 73
     1
 74
     3
 75
     0
 76
     0
 77
     0
 78
     0
281
     0
 65
     1
110
0.0
120
0.0
130
0.0
111
1.0
121
0.0
131
0.0
112
0.0
122
1.0
132
0.0
 79
     0
146
0.0
  0
VPORT
  5
46F
330
8
100
AcDbSymbolTableRecord
100
AcDbViewportTableRecord
  2
L3
 70
     0
 10
0.0
 20
0.5
 11
1.0
 21
1.0
 12
0.0
 22
0.0
 13
0.0
 23
0.0
 14
0.5
 24
0.5
 15
0.5
 25
0.5
 16
0.0
 26
0.0
 36
1.0
 17
0.0
 27
0.0
 37
0.0
 40
9.942483
 41
1.785948
 42
50.0
 43
29.643875
 44
-29.643875
 50
0.0
 51
0.0
 71
     0
 72
   100
 73
     1
 74
     3
 75
     0
 76
     0
 77
     0
 78
     0
281
     0
 65
     1
110
0.0
120
0.0
130
0.0
111
1.0
121
0.0
131
0.0
112
0.0
122
1.0
132
0.0
 79
     0
146
0.0
  0
VPORT
  5
470
330
8
100
AcDbSymbolTableRecord
100
AcDbViewportTableRecord
  2
L3
 70
     0
 10
0.0
 20
0.0
 11
1.0
 21
0.5
 12
0.0
 22
0.0
 13
0.0
 23
0.0
 14
0.5
 24
0.5
 15
0.5
 25
0.5
 16
0.0
 26
-1.0
 36
0.0
 17
0.0
 27
0.0
 37
0.0
 40
59.28775
 41
0.299501
 42
50.0
 43
30.446227
 44
-30.446227
 50
0.0
 51
0.0
 71
     0
 72
   100
 73
     1
 74
     3
 75
     0
 76
     0
 77
     0
 78
     0
281
     0
 65
     1
110
0.0
120
0.0
130
0.0
111
1.0
121
0.0
131
0.0
112
0.0
122
1.0
132
0.0
 79
     0
146
0.0
  0
VPORT
  5
471
330
8
100
AcDbSymbolTableRecord
100
AcDbViewportTableRecord
  2
L4
 70
     0
 10
0.0
 20
0.5
 11
0.5
 21
1.0
 12
0.0
 22
0.0
 13
0.0
 23
0.0
 14
0.5
 24
0.5
 15
0.5
 25
0.5
 16
0.0
 26
0.0
 36
1.0
 17
0.0
 27
0.0
 37
0.0
 40
9.942483
 41
1.785948
 42
50.0
 43
29.643875
 44
-29.643875
 50
0.0
 51
0.0
 71
     0
 72
   100
 73
     1
 74
     3
 75
     0
 76
     0
 77
     0
 78
     0
281
     0
 65
     1
110
0.0
120
0.0
130
0.0
111
1.0
121
0.0
131
0.0
112
0.0
122
1.0
132
0.0
 79
     0
146
0.0
  0
VPORT
  5
472
330
8
100
AcDbSymbolTableRecord
100
AcDbViewportTableRecord
  2
L4
 70
     0
 10
0.0
 20
0.0
 11
0.5
 21
0.5
 12
0.0
 22
0.0
 13
0.0
 23
0.0
 14
0.5
 24
0.5
 15
0.5
 25
0.5
 16
0.0
 26
-1.0
 36
0.0
 17
0.0
 27
0.0
 37
0.0
 40
59.28775
 41
0.299501
 42
50.0
 43
30.446227
 44
-30.446227
 50
0.0
 51
0.0
 71
     0
 72
   100
 73
     1
 74
     3
 75
     0
 76
     0
 77
     0
 78
     0
281
     0
 65
     1
110
0.0
120
0.0
130
0.0
111
1.0
121
0.0
131
0.0
112
0.0
122
1.0
132
0.0
 79
     0
146
0.0
  0
VPORT
  5
473
330
8
100
AcDbSymbolTableRecord
100
AcDbViewportTableRecord
  2
L4
 70
     0
 10
0.5
 20
0.0
 11
1.0
 21
0.5
 12
0.0
 22
0.0
 13
0.0
 23
0.0
 14
0.5
 24
0.5
 15
0.5
 25
0.5
 16
1.0
 26
0.0
 36
0.0
 17
0.0
 27
0.0
 37
0.0
 40
59.28775
 41
0.299501
 42
50.0
 43
30.05782
 44
-30.05782
 50
0.0
 51
0.0
 71
     0
 72
   100
 73
     1
 74
     3
 75
     0
 76
     0
 77
     0
 78
     0
281
     0
 65
     1
110
0.0
120
0.0
130
0.0
111
1.0
121
0.0
131
0.0
112
0.0
122
1.0
132
0.0
 79
     0
146
0.0
  0
VPORT
  5
474
330
8
100
AcDbSymbolTableRecord
100
AcDbViewportTableRecord
  2
L4
 70
     0
 10
0.5
 20
0.5
 11
1.0
 21
1.0
 12
0.0
 22
0.0
 13
0.0
 23
0.0
 14
0.5
 24
0.5
 15
0.5
 25
0.5
 16
0.5773502691896258
 26
-0.5773502691896258
 36
0.5773502691896258
 17
0.0
 27
0.0
 37
0.0
 40
58.136664
 41
0.305431
 42
50.0
 43
30.264658
 44
-30.264658
 50
0.0
 51
0.0
 71
     0
 72
   100
 73
     1
 74
     3
 75
     0
 76
     0
 77
     0
 78
     0
281
     0
 65
     1
110
0.0
120
0.0
130
0.0
111
1.0
121
0.0
131
0.0
112
0.0
122
1.0
132
0.0
 79
     0
146
0.0
  0
VPORT
  5
475
330
8
100
AcDbSymbolTableRecord
100
AcDbViewportTableRecord
  2
L6
 70
     0
 10
0.0
 20
0.5
 11
0.333333
 21
1.0
 12
-6.834472
 22
-6.834472
 13
0.0
 23
0.0
 14
0.5
 24
0.5
 15
0.5
 25
0.5
 16
0.7188730927569434
 26
-0.5850486126764431
 36
0.3754192287502549
 17
0.0
 27
0.0
 37
0.0
 40
61.350868
 41
0.28943
 42
50.0
 43
482.07238
 44
-482.07238
 50
0.0
 51
0.0
 71
     0
 72
   100
 73
     1
 74
     3
 75
     0
 76
     0
 77
     0
 78
     0
281
     0
 65
     1
110
0.0
120
0.0
130
0.0
111
1.0
121
0.0
131
0.0
112
0.0
122
1.0
132
0.0
 79
     0
146
0.0
  0
VPORT
  5
476
330
8
100
AcDbSymbolTableRecord
100
AcDbViewportTableRecord
  2
L6
 70
     0
 10
0.0
 20
0.0
 11
0.333333
 21
0.5
 12
0.0
 22
0.0
 13
0.0
 23
0.0
 14
0.5
 24
0.5
 15
0.5
 25
0.5
 16
-1.0
 26
0.0
 36
0.0
 17
0.0
 27
0.0
 37
0.0
 40
59.28775
 41
0.299501
 42
50.0
 43
30.05782
 44
-30.05782
 50
0.0
 51
0.0
 71
     0
 72
   100
 73
     1
 74
     3
 75
     0
 76
     0
 77
     0
 78
     0
281
     0
 65
     1
110
0.0
120
0.0
130
0.0
111
1.0
121
0.0
131
0.0
112
0.0
122
1.0
132
0.0
 79
     0
146
0.0
  0
VPORT
  5
477
330
8
100
AcDbSymbolTableRecord
100
AcDbViewportTableRecord
  2
L6
 70
     0
 10
0.333333
 20
0.5
 11
0.666667
 21
1.0
 12
0.0
 22
0.0
 13
0.0
 23
0.0
 14
0.5
 24
0.5
 15
0.5
 25
0.5
 16
0.0
 26
0.0
 36
1.0
 17
0.0
 27
0.0
 37
0.0
 40
9.942483
 41
1.785948
 42
50.0
 43
29.643875
 44
-29.643875
 50
0.0
 51
0.0
 71
     0
 72
   100
 73
     1
 74
     3
 75
     0
 76
     0
 77
     0
 78
     0
281
     0
 65
     1
110
0.0
120
0.0
130
0.0
111
1.0
121
0.0
131
0.0
112
0.0
122
1.0
132
0.0
 79
     0
146
0.0
  0
VPORT
  5
478
330
8
100
AcDbSymbolTableRecord
100
AcDbViewportTableRecord
  2
L6
 70
     0
 10
0.333333
 20
0.0
 11
0.666667
 21
0.5
 12
0.0
 22
0.0
 13
0.0
 23
0.0
 14
0.5
 24
0.5
 15
0.5
 25
0.5
 16
0.0
 26
-1.0
 36
0.0
 17
0.0
 27
0.0
 37
0.0
 40
59.28775
 41
0.299501
 42
50.0
 43
30.446227
 44
-30.446227
 50
0.0
 51
0.0
 71
     0
 72
   100
 73
     1
 74
     3
 75
     0
 76
     0
 77
     0
 78
     0
281
     0
 65
     1
110
0.0
120
0.0
130
0.0
111
1.0
121
0.0
131
0.0
112
0.0
122
1.0
132
0.0
 79
     0
146
0.0
  0
VPORT
  5
479
330
8
100
AcDbSymbolTableRecord
100
AcDbViewportTableRecord
  2
L6
 70
     0
 10
0.666667
 20
0.5
 11
1.0
 21
1.0
 12
0.0
 22
0.0
 13
0.0
 23
0.0
 14
0.5
 24
0.5
 15
0.5
 25
0.5
 16
0.5773502691896258
 26
-0.5773502691896258
 36
0.5773502691896258
 17
0.0
 27
0.0
 37
0.0
 40
58.136664
 41
0.305431
 42
50.0
 43
30.264658
 44
-30.264658
 50
0.0
 51
0.0
 71
     0
 72
   100
 73
     1
 74
     3
 75
     0
 76
     0
 77
     0
 78
     0
281
     0
 65
     1
110
0.0
120
0.0
130
0.0
111
1.0
121
0.0
131
0.0
112
0.0
122
1.0
132
0.0
 79
     0
146
0.0
  0
VPORT
  5
47A
330
8
100
AcDbSymbolTableRecord
100
AcDbViewportTableRecord
  2
L6
 70
     0
 10
0.666667
 20
0.0
 11
1.0
 21
0.5
 12
0.0
 22
0.0
 13
0.0
 23
0.0
 14
0.5
 24
0.5
 15
0.5
 25
0.5
 16
1.0
 26
0.0
 36
0.0
 17
0.0
 27
0.0
 37
0.0
 40
59.28775
 41
0.299501
 42
50.0
 43
30.05782
 44
-30.05782
 50
0.0
 51
0.0
 71
     0
 72
   100
 73
     1
 74
     3
 75
     0
 76
     0
 77
     0
 78
     0
281
     0
 65
     1
110
0.0
120
0.0
130
0.0
111
1.0
121
0.0
131
0.0
112
0.0
122
1.0
132
0.0
 79
     0
146
0.0
  0
ENDTAB
  0
TABLE
  2
LTYPE
  5
5
330
0
100
AcDbSymbolTable
 70
     7
  0
LTYPE
  5
14
330
5
100
AcDbSymbolTableRecord
100
AcDbLinetypeTableRecord
  2
BYBLOCK
 70
     0
  3

 72
    65
 73
     0
 40
0.0
  0
LTYPE
  5
15
330
5
100
AcDbSymbolTableRecord
100
AcDbLinetypeTableRecord
  2
BYLAYER
 70
     0
  3

 72
    65
 73
     0
 40
0.0
  0
LTYPE
  5
16
330
5
100
AcDbSymbolTableRecord
100
AcDbLinetypeTableRecord
  2
CONTINUOUS
 70
     0
  3
Solid line
 72
    65
 73
     0
 40
0.0
  0
LTYPE
  5
40
330
5
100
AcDbSymbolTableRecord
100
AcDbLinetypeTableRecord
  2
DASHED
 70
     0
  3
__ __ __ __ __ __ __ __ __
 72
    65
 73
     2
 40
25.72
 49
12.86
 74
     4
 75
     0
340
0
 46
0.0
 50
0.0
 44
0.0
 45
0.0
 49
-12.86
 74
     4
 75
     0
340
0
 46
0.0
 50
0.0
 44
0.0
 45
0.0
  0
LTYPE
  5
41
330
5
100
AcDbSymbolTableRecord
100
AcDbLinetypeTableRecord
  2
HIDDEN
 70
     0
  3
_ _ _ _ _ _ _ _ _ _ _ _ _ _ _
 72
    65
 73
     2
 40
0.5
 49
0.25
 74
     4
 75
     0
340
0
 46
0.0
 50
0.0
 44
0.0
 45
0.0
 49
-0.25
 74
     4
 75
     0
340
0
 46
0.0
 50
0.0
 44
0.0
 45
0.0
  0
LTYPE
  5
42
330
5
100
AcDbSymbolTableRecord
100
AcDbLinetypeTableRecord
  2
PHANTOM
 70
     0
  3
____ _ _ ____ _ _ _____ _ _ ____
 72
    65
 73
     6
 40
50.5
 49
18.0
 74
     4
 75
     0
340
0
 46
0.0
 50
0.0
 44
0.0
 45
0.0
 49
-6.5
 74
     4
 75
     0
340
0
 46
0.0
 50
0.0
 44
0.0
 45
0.0
 49
6.5
 74
     4
 75
     0
340
0
 46
0.0
 50
0.0
 44
0.0
 45
0.0
 49
-6.5
 74
     4
 75
     0
340
0
 46
0.0
 50
0.0
 44
0.0
 45
0.0
 49
6.5
 74
     4
 75
     0
340
0
 46
0.0
 50
0.0
 44
0.0
 45
0.0
 49
-6.5
 74
     4
 75
     0
340
0
 46
0.0
 50
0.0
 44
0.0
 45
0.0
  0
LTYPE
  5
43
330
5
100
AcDbSymbolTableRecord
100
AcDbLinetypeTableRecord
  2
CENTER
 70
     0
  3
____ _ ____ _ ____ _ ____
 72
    65
 73
     4
 40
47.4
 49
22.0
 74
     4
 75
     0
340
0
 46
0.0
 50
0.0
 44
0.0
 45
0.0
 49
-8.5
 74
     4
 75
     0
340
0
 46
0.0
 50
0.0
 44
0.0
 45
0.0
 49
8.5
 74
     4
 75
     0
340
0
 46
0.0
 50
0.0
 44
0.0
 45
0.0
 49
-8.5
 74
     4
 75
     0
340
0
 46
0.0
 50
0.0
 44
0.0
 45
0.0
  0
LTYPE
  5
44
330
5
100
AcDbSymbolTableRecord
100
AcDbLinetypeTableRecord
  2
DOT
 70
     0
  3
.........................
 72
    65
 73
     2
 40
10.0
 49
0.0
 74
     4
 75
     0
340
0
 46
0.0
 50
0.0
 44
0.0
 45
0.0
 49
-10.0
 74
     4
 75
     0
340
0
 46
0.0
 50
0.0
 44
0.0
 45
0.0
  0
LTYPE
  5
45
330
5
100
AcDbSymbolTableRecord
100
AcDbLinetypeTableRecord
  2
DASHDOT
 70
     0
  3
_._._._._._._._._._._._._._._._.
 72
    65
 73
     4
 40
70.0
 49
31.0
 74
     4
 75
     0
340
0
 46
0.0
 50
0.0
 44
0.0
 45
0.0
 49
-13.0
 74
     4
 75
     0
340
0
 46
0.0
 50
0.0
 44
0.0
 45
0.0
 49
13.0
 74
     4
 75
     0
340
0
 46
0.0
 50
0.0
 44
0.0
 45
0.0
 49
-13.0
 74
     4
 75
     0
340
0
 46
0.0
 50
0.0
 44
0.0
 45
0.0
  0
ENDTAB
  0
TABLE
  2
LAYER
  5
2
330
0
100
AcDbSymbolTable
 70
     2
  0
LAYER
  5
10
330
2
100
AcDbSymbolTableRecord
100
AcDbLayerTableRecord
  2
0
 70
     0
 62
     7
  6
CONTINUOUS
370
    -3
390
F
  0
LAYER
  5
53
330
2
100
AcDbSymbolTableRecord
100
AcDbLayerTableRecord
  2
1
 70
     0
 62
     7
  6
CONTINUOUS
370
    -3
390
F
  0
ENDTAB
  0
TABLE
  2
STYLE
  5
3
330
0
100
AcDbSymbolTable
 70
     1
  0
STYLE
  5
11
330
3
100
AcDbSymbolTableRecord
100
AcDbTextStyleTableRecord
  2
Standard
 70
     0
 40
0.0
 41
1.0
 50
0.0
 71
     0
 42
0.2
  3
txt
  4

  0
ENDTAB
  0
TABLE
  2
VIEW
  5
6
330
0
100
AcDbSymbolTable
 70
     8
  0
VIEW
  5
46
330
6
100
AcDbSymbolTableRecord
100
AcDbViewTableRecord
  2
TOP
 70
     0
 40
9.942483
 10
0.0
 20
0.0
 41
13.88718
 11
0.0
 21
0.0
 31
1.0
 12
0.0
 22
0.0
 32
0.0
 42
50.0
 43
29.643875
 44
-29.643875
 50
0.0
 71
     0
281
     0
 72
     0
  0
VIEW
  5
47
330
6
100
AcDbSymbolTableRecord
100
AcDbViewTableRecord
  2
FRONT
 70
     0
 40
59.28775
 10
0.0
 20
0.0
 41
13.88718
 11
0.0
 21
-1.0
 31
0.0
 12
0.0
 22
0.0
 32
0.0
 42
50.0
 43
30.446227
 44
-30.446227
 50
0.0
 71
     0
281
     0
 72
     0
  0
VIEW
  5
48
330
6
100
AcDbSymbolTableRecord
100
AcDbViewTableRecord
  2
RIGHT
 70
     0
 40
59.28775
 10
0.0
 20
0.0
 41
9.942483
 11
1.0
 21
0.0
 31
0.0
 12
0.0
 22
0.0
 32
0.0
 42
50.0
 43
30.05782
 44
-30.05782
 50
0.0
 71
     0
281
     0
 72
     0
  0
VIEW
  5
49
330
6
100
AcDbSymbolTableRecord
100
AcDbViewTableRecord
  2
BACK
 70
     0
 40
59.28775
 10
0.0
 20
0.0
 41
13.88718
 11
0.0
 21
1.0
 31
0.0
 12
0.0
 22
0.0
 32
0.0
 42
50.0
 43
30.446227
 44
-30.446227
 50
0.0
 71
     0
281
     0
 72
     0
  0
VIEW
  5
4A
330
6
100
AcDbSymbolTableRecord
100
AcDbViewTableRecord
  2
BOTTOM
 70
     0
 40
9.942483
 10
0.0
 20
0.0
 41
13.88718
 11
0.0
 21
0.0
 31
-1.0
 12
0.0
 22
0.0
 32
0.0
 42
50.0
 43
29.643875
 44
-29.643875
 50
180.0
 71
     0
281
     0
 72
     0
  0
VIEW
  5
4B
330
6
100
AcDbSymbolTableRecord
100
AcDbViewTableRecord
  2
LEFT
 70
     0
 40
59.28775
 10
0.0
 20
0.0
 41
9.942483
 11
-1.0
 21
0.0
 31
0.0
 12
0.0
 22
0.0
 32
0.0
 42
50.0
 43
30.05782
 44
-30.05782
 50
0.0
 71
     0
281
     0
 72
     0
  0
VIEW
  5
4C
330
6
100
AcDbSymbolTableRecord
100
AcDbViewTableRecord
  2
TFR-ISO
 70
     0
 40
58.136664
 10
0.0
 20
0.0
 41
16.850116
 11
0.5773502691896258
 21
-0.5773502691896258
 31
0.5773502691896258
 12
0.0
 22
0.0
 32
0.0
 42
50.0
 43
30.264658
 44
-30.264658
 50
0.0
 71
     0
281
     0
 72
     0
  0
VIEW
  5
4D
330
6
100
AcDbSymbolTableRecord
100
AcDbViewTableRecord
  2
TFR-TRI
 70
     0
 40
61.350868
 10
0.0
 20
0.0
 41
16.477288
 11
0.7188730927569434
 21
-0.5850486126764431
 31
0.3754192287502549
 12
0.0
 22
0.0
 32
0.0
 42
50.0
 43
31.762517
 44
-31.762517
 50
0.0
 71
     0
281
     0
 72
     0
  0
ENDTAB
  0
TABLE
  2
UCS
  5
7
330
0
100
AcDbSymbolTable
 70
     0
  0
ENDTAB
  0
TABLE
  2
APPID
  5
9
330
0
100
AcDbSymbolTable
 70
     1
  0
APPID
  5
12
330
9
100
AcDbSymbolTableRecord
100
AcDbRegAppTableRecord
  2
ACAD
 70
     0
  0
ENDTAB
  0
TABLE
  2
DIMSTYLE
  5
A
330
0
100
AcDbSymbolTable
 70
     1
100
AcDbDimStyleTable
  0
DIMSTYLE
105
27
330
A
100
AcDbSymbolTableRecord
100
AcDbDimStyleTableRecord
  2
Standard
 70
     0
178
     0
340
11
  0
ENDTAB
  0
TABLE
  2
BLOCK_RECORD
  5
1
330
0
100
AcDbSymbolTable
 70
     2
  0
BLOCK_RECORD
  5
1F
330
1
100
AcDbSymbolTableRecord
100
AcDbBlockTableRecord
  2
*Model_Space
340
22
  0
BLOCK_RECORD
  5
4E
330
1
100
AcDbSymbolTableRecord
100
AcDbBlockTableRecord
  2
*PAPER_SPACE
340
46A
  0
ENDTAB
  0
ENDSEC
  0
SECTION
  2
BLOCKS
  0
BLOCK
  5
20
330
1F
100
AcDbEntity
  8
0
100
AcDbBlockBegin
  2
*Model_Space
 70
     0
 10
0.0
 20
0.0
 30
0.0
  3
*Model_Space
  1

  0
ENDBLK
  5
21
330
1F
100
AcDbEntity
  8
0
100
AcDbBlockEnd
  0
BLOCK
  5
4F
330
4E
100
AcDbEntity
 67
     1
  8
0
100
AcDbBlockBegin
  2
*PAPER_SPACE
 70
     0
 10
0.0
 20
0.0
 30
0.0
  3
*PAPER_SPACE
  1

  0
ENDBLK
  5
50
330
4E
100
AcDbEntity
 67
     1
  8
0
100
AcDbBlockEnd
  0
ENDSEC
  0
SECTION
  2
ENTITIES
  0
VIEWPORT
  5
51
330
4E
100
AcDbEntity
 67
     1
  8
0
100
AcDbViewport
 10
5.5
 20
4.25
 30
0.0
 40
11.0
 41
8.5
 68
     1
 69
     1
 12
5.5
 22
4.25
 13
0.0
 23
0.0
 14
1.0
 24
1.0
 15
1.0
 25
1.0
 16
0.0
 26
0.0
 36
1.0
 17
0.0
 27
0.0
 37
0.0
 42
43.280727
 43
0.0
 44
0.0
 45
8.5
 50
0.0
 51
0.0
 72
   100
 90
   557152
  1

281
     0
 71
     1
 74
     0
110
0.0
120
0.0
130
0.0
111
1.0
121
0.0
131
0.0
112
0.0
122
1.0
132
0.0
 79
     0
146
0.0
  0
LINE
  5
52
330
4E
100
AcDbEntity
 67
     1
  8
1
  6
CONTINUOUS
 62
    18
100
AcDbLine
 10
2.821668
 20
4.73082
 30
0.0
 11
2.646668
 21
4.73082
 31
0.0
  0
LINE
  5
54
330
4E
100
AcDbEntity
 67
     1
  8
1
  6
CONTINUOUS
 62
    18
100
AcDbLine
 10
2.186668
 20
4.73082
 30
0.0
 11
2.011668
 21
4.73082
 31
0.0
  0
LINE
  5
55
330
4E
100
AcDbEntity
 67
     1
  8
1
  6
CONTINUOUS
 62
    18
100
AcDbLine
 10
1.785668
 20
4.64359
 30
0.0
 11
1.786668
 21
4.673102
 31
0.0
  0
LINE
  5
56
330
4E
100
AcDbEntity
 67
     1
  8
1
  6
CONTINUOUS
 62
    18
100
AcDbLine
 10
1.786668
 20
4.673102
 30
0.0
 11
1.786668
 21
5.21274
 31
0.0
  0
LINE
  5
57
330
4E
100
AcDbEntity
 67
     1
  8
1
  6
CONTINUOUS
 62
    18
100
AcDbLine
 10
1.785768
 20
5.287598
 30
0.0
 11
1.785768
 21
5.212748
 31
0.0
  0
LINE
  5
58
330
4E
100
AcDbEntity
 67
     1
  8
1
  6
CONTINUOUS
 62
    18
100
AcDbLine
 10
1.794667
 20
4.666175
 30
0.0
 11
1.78634
 21
4.420463
 31
0.0
  0
LINE
  5
59
330
4E
100
AcDbEntity
 67
     1
  8
1
  6
CONTINUOUS
 62
    18
100
AcDbLine
 10
1.794547
 20
4.666174
 30
0.0
 11
1.794667
 21
4.666175
 31
0.0
  0
LINE
  5
5A
330
4E
100
AcDbEntity
 67
     1
  8
1
  6
CONTINUOUS
 62
    18
100
AcDbLine
 10
1.786669
 20
4.672997
 30
0.0
 11
1.789006
 21
4.668073
 31
0.0
  0
LINE
  5
5B
330
4E
100
AcDbEntity
 67
     1
  8
1
  6
CONTINUOUS
 62
    18
100
AcDbLine
 10
1.789006
 20
4.668073
 30
0.0
 11
1.794547
 21
4.666174
 31
0.0
  0
LINE
  5
5C
330
4E
100
AcDbEntity
 67
     1
  8
1
  6
CONTINUOUS
 62
    18
100
AcDbLine
 10
1.786668
 20
4.673102
 30
0.0
 11
1.786669
 21
4.672997
 31
0.0
  0
LINE
  5
5D
330
4E
100
AcDbEntity
 67
     1
  8
1
  6
CONTINUOUS
 62
    18
100
AcDbLine
 10
1.787241
 20
4.680565
 30
0.0
 11
2.011668
 21
4.680565
 31
0.0
  0
LINE
  5
5E
330
4E
100
AcDbEntity
 67
     1
  8
1
  6
CONTINUOUS
 62
    18
100
AcDbLine
 10
2.186668
 20
4.680565
 30
0.0
 11
2.646668
 21
4.680565
 31
0.0
  0
LINE
  5
5F
330
4E
100
AcDbEntity
 67
     1
  8
1
  6
CONTINUOUS
 62
    18
100
AcDbLine
 10
2.821668
 20
4.680565
 30
0.0
 11
3.046095
 21
4.680565
 31
0.0
  0
LINE
  5
60
330
4E
100
AcDbEntity
 67
     1
  8
1
  6
CONTINUOUS
 62
    18
100
AcDbLine
 10
3.046668
 20
4.673102
 30
0.0
 11
3.047668
 21
4.64359
 31
0.0
  0
LINE
  5
61
330
4E
100
AcDbEntity
 67
     1
  8
1
  6
CONTINUOUS
 62
    18
100
AcDbLine
 10
3.047568
 20
5.212748
 30
0.0
 11
3.047568
 21
5.287598
 31
0.0
  0
LINE
  5
62
330
4E
100
AcDbEntity
 67
     1
  8
1
  6
CONTINUOUS
 62
    18
100
AcDbLine
 10
3.046668
 20
4.673102
 30
0.0
 11
3.046668
 21
5.21274
 31
0.0
  0
LINE
  5
63
330
4E
100
AcDbEntity
 67
     1
  8
1
  6
CONTINUOUS
 62
    18
100
AcDbLine
 10
3.046995
 20
4.420463
 30
0.0
 11
3.038669
 21
4.666175
 31
0.0
  0
LINE
  5
64
330
4E
100
AcDbEntity
 67
     1
  8
1
  6
CONTINUOUS
 62
    18
100
AcDbLine
 10
2.821668
 20
4.666175
 30
0.0
 11
3.038669
 21
4.666175
 31
0.0
  0
LINE
  5
65
330
4E
100
AcDbEntity
 67
     1
  8
1
  6
CONTINUOUS
 62
    18
100
AcDbLine
 10
2.821668
 20
4.666175
 30
0.0
 11
2.646668
 21
4.666175
 31
0.0
  0
LINE
  5
66
330
4E
100
AcDbEntity
 67
     1
  8
1
  6
CONTINUOUS
 62
    18
100
AcDbLine
 10
2.186668
 20
4.666175
 30
0.0
 11
2.646668
 21
4.666175
 31
0.0
  0
LINE
  5
67
330
4E
100
AcDbEntity
 67
     1
  8
1
  6
CONTINUOUS
 62
    18
100
AcDbLine
 10
2.186668
 20
4.666175
 30
0.0
 11
2.011668
 21
4.666175
 31
0.0
  0
LINE
  5
68
330
4E
100
AcDbEntity
 67
     1
  8
1
  6
CONTINUOUS
 62
    18
100
AcDbLine
 10
1.794667
 20
4.666175
 30
0.0
 11
2.011668
 21
4.666175
 31
0.0
  0
LINE
  5
69
330
4E
100
AcDbEntity
 67
     1
  8
1
  6
CONTINUOUS
 62
    18
100
AcDbLine
 10
3.046667
 20
4.672997
 30
0.0
 11
3.046668
 21
4.673102
 31
0.0
  0
LINE
  5
6A
330
4E
100
AcDbEntity
 67
     1
  8
1
  6
CONTINUOUS
 62
    18
100
AcDbLine
 10
3.038789
 20
4.666174
 30
0.0
 11
3.04433
 21
4.668073
 31
0.0
  0
LINE
  5
6B
330
4E
100
AcDbEntity
 67
     1
  8
1
  6
CONTINUOUS
 62
    18
100
AcDbLine
 10
3.04433
 20
4.668073
 30
0.0
 11
3.046667
 21
4.672997
 31
0.0
  0
LINE
  5
6C
330
4E
100
AcDbEntity
 67
     1
  8
1
  6
CONTINUOUS
 62
    18
100
AcDbLine
 10
3.038669
 20
4.666175
 30
0.0
 11
3.038789
 21
4.666174
 31
0.0
  0
LINE
  5
6D
330
4E
100
AcDbEntity
 67
     1
  8
1
  6
CONTINUOUS
 62
    18
100
AcDbLine
 10
1.785768
 20
5.212748
 30
0.0
 11
1.853268
 21
5.212748
 31
0.0
  0
LINE
  5
6E
330
4E
100
AcDbEntity
 67
     1
  8
1
  6
CONTINUOUS
 62
    18
100
AcDbLine
 10
1.853268
 20
5.212748
 30
0.0
 11
1.853268
 21
5.269684
 31
0.0
  0
LINE
  5
6F
330
4E
100
AcDbEntity
 67
     1
  8
1
  6
CONTINUOUS
 62
    18
100
AcDbLine
 10
1.853268
 20
5.269684
 30
0.0
 11
2.345068
 21
5.269684
 31
0.0
  0
LINE
  5
70
330
4E
100
AcDbEntity
 67
     1
  8
1
  6
CONTINUOUS
 62
    18
100
AcDbLine
 10
2.345068
 20
5.269684
 30
0.0
 11
2.345068
 21
5.212748
 31
0.0
  0
LINE
  5
71
330
4E
100
AcDbEntity
 67
     1
  8
1
  6
CONTINUOUS
 62
    18
100
AcDbLine
 10
2.345068
 20
5.212748
 30
0.0
 11
2.488268
 21
5.212748
 31
0.0
  0
LINE
  5
72
330
4E
100
AcDbEntity
 67
     1
  8
1
  6
CONTINUOUS
 62
    18
100
AcDbLine
 10
2.488268
 20
5.212748
 30
0.0
 11
2.488268
 21
5.269684
 31
0.0
  0
LINE
  5
73
330
4E
100
AcDbEntity
 67
     1
  8
1
  6
CONTINUOUS
 62
    18
100
AcDbLine
 10
2.488268
 20
5.269684
 30
0.0
 11
2.980068
 21
5.269684
 31
0.0
  0
LINE
  5
74
330
4E
100
AcDbEntity
 67
     1
  8
1
  6
CONTINUOUS
 62
    18
100
AcDbLine
 10
2.980068
 20
5.269684
 30
0.0
 11
2.980068
 21
5.212748
 31
0.0
  0
LINE
  5
75
330
4E
100
AcDbEntity
 67
     1
  8
1
  6
CONTINUOUS
 62
    18
100
AcDbLine
 10
2.980068
 20
5.212748
 30
0.0
 11
3.047568
 21
5.212748
 31
0.0
  0
LINE
  5
76
330
4E
100
AcDbEntity
 67
     1
  8
1
  6
CONTINUOUS
 62
    18
100
AcDbLine
 10
1.854168
 20
5.237752
 30
0.0
 11
1.853268
 21
5.212748
 31
0.0
  0
LINE
  5
77
330
4E
100
AcDbEntity
 67
     1
  8
1
  6
CONTINUOUS
 62
    18
100
AcDbLine
 10
1.854168
 20
5.237752
 30
0.0
 11
1.854168
 21
5.269684
 31
0.0
  0
LINE
  5
78
330
4E
100
AcDbEntity
 67
     1
  8
1
  6
CONTINUOUS
 62
    18
100
AcDbLine
 10
2.344168
 20
5.269684
 30
0.0
 11
2.344168
 21
5.237752
 31
0.0
  0
LINE
  5
79
330
4E
100
AcDbEntity
 67
     1
  8
1
  6
CONTINUOUS
 62
    18
100
AcDbLine
 10
2.345068
 20
5.212748
 30
0.0
 11
2.344168
 21
5.237752
 31
0.0
  0
LINE
  5
7A
330
4E
100
AcDbEntity
 67
     1
  8
1
  6
CONTINUOUS
 62
    18
100
AcDbLine
 10
2.489168
 20
5.237752
 30
0.0
 11
2.488268
 21
5.212748
 31
0.0
  0
LINE
  5
7B
330
4E
100
AcDbEntity
 67
     1
  8
1
  6
CONTINUOUS
 62
    18
100
AcDbLine
 10
2.489168
 20
5.237752
 30
0.0
 11
2.489168
 21
5.269684
 31
0.0
  0
LINE
  5
7C
330
4E
100
AcDbEntity
 67
     1
  8
1
  6
CONTINUOUS
 62
    18
100
AcDbLine
 10
2.979168
 20
5.269684
 30
0.0
 11
2.979168
 21
5.237752
 31
0.0
  0
LINE
  5
7D
330
4E
100
AcDbEntity
 67
     1
  8
1
  6
CONTINUOUS
 62
    18
100
AcDbLine
 10
2.980068
 20
5.212748
 30
0.0
 11
2.979168
 21
5.237752
 31
0.0
  0
LINE
  5
7E
330
4E
100
AcDbEntity
 67
     1
  8
1
  6
CONTINUOUS
 62
    18
100
AcDbLine
 10
2.186668
 20
4.666175
 30
0.0
 11
2.186668
 21
4.699694
 31
0.0
  0
LINE
  5
7F
330
4E
100
AcDbEntity
 67
     1
  8
1
  6
CONTINUOUS
 62
    18
100
AcDbLine
 10
2.186668
 20
4.73082
 30
0.0
 11
2.186668
 21
4.730502
 31
0.0
  0
LINE
  5
80
330
4E
100
AcDbEntity
 67
     1
  8
1
  6
CONTINUOUS
 62
    18
100
AcDbLine
 10
2.186668
 20
4.730502
 30
0.0
 11
2.186668
 21
4.729567
 31
0.0
  0
LINE
  5
81
330
4E
100
AcDbEntity
 67
     1
  8
1
  6
CONTINUOUS
 62
    18
100
AcDbLine
 10
2.186668
 20
4.729567
 30
0.0
 11
2.186668
 21
4.699694
 31
0.0
  0
LINE
  5
82
330
4E
100
AcDbEntity
 67
     1
  8
1
  6
CONTINUOUS
 62
    18
100
AcDbLine
 10
2.186668
 20
4.699694
 30
0.0
 11
2.011668
 21
4.699694
 31
0.0
  0
LINE
  5
83
330
4E
100
AcDbEntity
 67
     1
  8
1
  6
CONTINUOUS
 62
    18
100
AcDbLine
 10
2.011668
 20
4.666175
 30
0.0
 11
2.011668
 21
4.699694
 31
0.0
  0
LINE
  5
84
330
4E
100
AcDbEntity
 67
     1
  8
1
  6
CONTINUOUS
 62
    18
100
AcDbLine
 10
2.011668
 20
4.729567
 30
0.0
 11
2.011668
 21
4.699694
 31
0.0
  0
LINE
  5
85
330
4E
100
AcDbEntity
 67
     1
  8
1
  6
CONTINUOUS
 62
    18
100
AcDbLine
 10
2.011668
 20
4.729567
 30
0.0
 11
2.011668
 21
4.730502
 31
0.0
  0
LINE
  5
86
330
4E
100
AcDbEntity
 67
     1
  8
1
  6
CONTINUOUS
 62
    18
100
AcDbLine
 10
2.011668
 20
4.730502
 30
0.0
 11
2.011668
 21
4.73082
 31
0.0
  0
LINE
  5
87
330
4E
100
AcDbEntity
 67
     1
  8
1
  6
CONTINUOUS
 62
    18
100
AcDbLine
 10
2.186668
 20
4.729567
 30
0.0
 11
2.011668
 21
4.729567
 31
0.0
  0
LINE
  5
88
330
4E
100
AcDbEntity
 67
     1
  8
1
  6
CONTINUOUS
 62
    18
100
AcDbLine
 10
1.787241
 20
4.680565
 30
0.0
 11
1.794547
 21
4.666174
 31
0.0
  0
LINE
  5
89
330
4E
100
AcDbEntity
 67
     1
  8
1
  6
CONTINUOUS
 62
    18
100
AcDbLine
 10
2.821668
 20
4.666175
 30
0.0
 11
2.821668
 21
4.699694
 31
0.0
  0
LINE
  5
8A
330
4E
100
AcDbEntity
 67
     1
  8
1
  6
CONTINUOUS
 62
    18
100
AcDbLine
 10
2.821668
 20
4.73082
 30
0.0
 11
2.821668
 21
4.730502
 31
0.0
  0
LINE
  5
8B
330
4E
100
AcDbEntity
 67
     1
  8
1
  6
CONTINUOUS
 62
    18
100
AcDbLine
 10
2.821668
 20
4.730502
 30
0.0
 11
2.821668
 21
4.729567
 31
0.0
  0
LINE
  5
8C
330
4E
100
AcDbEntity
 67
     1
  8
1
  6
CONTINUOUS
 62
    18
100
AcDbLine
 10
2.821668
 20
4.729567
 30
0.0
 11
2.821668
 21
4.699694
 31
0.0
  0
LINE
  5
8D
330
4E
100
AcDbEntity
 67
     1
  8
1
  6
CONTINUOUS
 62
    18
100
AcDbLine
 10
2.821668
 20
4.699694
 30
0.0
 11
2.646668
 21
4.699694
 31
0.0
  0
LINE
  5
8E
330
4E
100
AcDbEntity
 67
     1
  8
1
  6
CONTINUOUS
 62
    18
100
AcDbLine
 10
2.646668
 20
4.666175
 30
0.0
 11
2.646668
 21
4.699694
 31
0.0
  0
LINE
  5
8F
330
4E
100
AcDbEntity
 67
     1
  8
1
  6
CONTINUOUS
 62
    18
100
AcDbLine
 10
2.646668
 20
4.729567
 30
0.0
 11
2.646668
 21
4.699694
 31
0.0
  0
LINE
  5
90
330
4E
100
AcDbEntity
 67
     1
  8
1
  6
CONTINUOUS
 62
    18
100
AcDbLine
 10
2.646668
 20
4.729567
 30
0.0
 11
2.646668
 21
4.730502
 31
0.0
  0
LINE
  5
91
330
4E
100
AcDbEntity
 67
     1
  8
1
  6
CONTINUOUS
 62
    18
100
AcDbLine
 10
2.646668
 20
4.730502
 30
0.0
 11
2.646668
 21
4.73082
 31
0.0
  0
LINE
  5
92
330
4E
100
AcDbEntity
 67
     1
  8
1
  6
CONTINUOUS
 62
    18
100
AcDbLine
 10
2.821668
 20
4.729567
 30
0.0
 11
2.646668
 21
4.729567
 31
0.0
  0
LINE
  5
93
330
4E
100
AcDbEntity
 67
     1
  8
1
  6
CONTINUOUS
 62
    18
100
AcDbLine
 10
3.038789
 20
4.666174
 30
0.0
 11
3.046095
 21
4.680565
 31
0.0
  0
LINE
  5
94
330
4E
100
AcDbEntity
 67
     1
  8
1
  6
CONTINUOUS
 62
    18
100
AcDbLine
 10
2.929662
 20
3.11697
 30
0.0
 11
2.981442
 21
3.11697
 31
0.0
  0
LINE
  5
95
330
4E
100
AcDbEntity
 67
     1
  8
1
  6
CONTINUOUS
 62
    18
100
AcDbLine
 10
2.921668
 20
3.108966
 30
0.0
 11
2.924009
 21
3.114626
 31
0.0
  0
LINE
  5
96
330
4E
100
AcDbEntity
 67
     1
  8
1
  6
CONTINUOUS
 62
    18
100
AcDbLine
 10
2.924009
 20
3.114626
 30
0.0
 11
2.929662
 21
3.11697
 31
0.0
  0
LINE
  5
97
330
4E
100
AcDbEntity
 67
     1
  8
1
  6
CONTINUOUS
 62
    18
100
AcDbLine
 10
3.173674
 20
3.11697
 30
0.0
 11
3.179327
 21
3.114626
 31
0.0
  0
LINE
  5
98
330
4E
100
AcDbEntity
 67
     1
  8
1
  6
CONTINUOUS
 62
    18
100
AcDbLine
 10
3.179327
 20
3.114626
 30
0.0
 11
3.181668
 21
3.108966
 31
0.0
  0
LINE
  5
99
330
4E
100
AcDbEntity
 67
     1
  8
1
  6
CONTINUOUS
 62
    18
100
AcDbLine
 10
3.121893
 20
3.11697
 30
0.0
 11
3.173674
 21
3.11697
 31
0.0
  0
LINE
  5
9A
330
4E
100
AcDbEntity
 67
     1
  8
1
  6
CONTINUOUS
 62
    18
100
AcDbLine
 10
2.493868
 20
3.592793
 30
0.0
 11
2.493868
 21
3.620244
 31
0.0
  0
LINE
  5
9B
330
4E
100
AcDbEntity
 67
     1
  8
1
  6
CONTINUOUS
 62
    18
100
AcDbLine
 10
2.493868
 20
6.420443
 30
0.0
 11
2.493868
 21
6.450095
 31
0.0
  0
LINE
  5
9C
330
4E
100
AcDbEntity
 67
     1
  8
1
  6
CONTINUOUS
 62
    18
100
AcDbLine
 10
2.339468
 20
6.450095
 30
0.0
 11
2.339468
 21
6.420443
 31
0.0
  0
LINE
  5
9D
330
4E
100
AcDbEntity
 67
     1
  8
1
  6
CONTINUOUS
 62
    18
100
AcDbLine
 10
2.339468
 20
3.620244
 30
0.0
 11
2.339468
 21
3.592793
 31
0.0
  0
LINE
  5
9E
330
4E
100
AcDbEntity
 67
     1
  8
1
  6
CONTINUOUS
 62
    18
100
AcDbLine
 10
2.849662
 20
6.923717
 30
0.0
 11
2.901442
 21
6.923717
 31
0.0
  0
LINE
  5
9F
330
4E
100
AcDbEntity
 67
     1
  8
1
  6
CONTINUOUS
 62
    18
100
AcDbLine
 10
3.041893
 20
6.923717
 30
0.0
 11
3.093674
 21
6.923717
 31
0.0
  0
LINE
  5
A0
330
4E
100
AcDbEntity
 67
     1
  8
1
  6
CONTINUOUS
 62
    18
100
AcDbLine
 10
3.093674
 20
6.923717
 30
0.0
 11
3.099327
 21
6.926061
 31
0.0
  0
LINE
  5
A1
330
4E
100
AcDbEntity
 67
     1
  8
1
  6
CONTINUOUS
 62
    18
100
AcDbLine
 10
3.099327
 20
6.926061
 30
0.0
 11
3.101668
 21
6.931721
 31
0.0
  0
LINE
  5
A2
330
4E
100
AcDbEntity
 67
     1
  8
1
  6
CONTINUOUS
 62
    18
100
AcDbLine
 10
2.841668
 20
6.931721
 30
0.0
 11
2.844009
 21
6.926061
 31
0.0
  0
LINE
  5
A3
330
4E
100
AcDbEntity
 67
     1
  8
1
  6
CONTINUOUS
 62
    18
100
AcDbLine
 10
2.844009
 20
6.926061
 30
0.0
 11
2.849662
 21
6.923717
 31
0.0
  0
LINE
  5
A4
330
4E
100
AcDbEntity
 67
     1
  8
1
  6
CONTINUOUS
 62
    18
100
AcDbLine
 10
1.731668
 20
6.931721
 30
0.0
 11
1.734009
 21
6.926061
 31
0.0
  0
LINE
  5
A5
330
4E
100
AcDbEntity
 67
     1
  8
1
  6
CONTINUOUS
 62
    18
100
AcDbLine
 10
1.734009
 20
6.926061
 30
0.0
 11
1.739662
 21
6.923717
 31
0.0
  0
LINE
  5
A6
330
4E
100
AcDbEntity
 67
     1
  8
1
  6
CONTINUOUS
 62
    18
100
AcDbLine
 10
1.739662
 20
6.923717
 30
0.0
 11
1.791442
 21
6.923717
 31
0.0
  0
LINE
  5
A7
330
4E
100
AcDbEntity
 67
     1
  8
1
  6
CONTINUOUS
 62
    18
100
AcDbLine
 10
1.931893
 20
6.923717
 30
0.0
 11
1.983674
 21
6.923717
 31
0.0
  0
LINE
  5
A8
330
4E
100
AcDbEntity
 67
     1
  8
1
  6
CONTINUOUS
 62
    18
100
AcDbLine
 10
1.983674
 20
6.923717
 30
0.0
 11
1.989327
 21
6.926061
 31
0.0
  0
LINE
  5
A9
330
4E
100
AcDbEntity
 67
     1
  8
1
  6
CONTINUOUS
 62
    18
100
AcDbLine
 10
1.989327
 20
6.926061
 30
0.0
 11
1.991668
 21
6.931721
 31
0.0
  0
LINE
  5
AA
330
4E
100
AcDbEntity
 67
     1
  8
1
  6
CONTINUOUS
 62
    18
100
AcDbLine
 10
1.659662
 20
3.11697
 30
0.0
 11
1.711442
 21
3.11697
 31
0.0
  0
LINE
  5
AB
330
4E
100
AcDbEntity
 67
     1
  8
1
  6
CONTINUOUS
 62
    18
100
AcDbLine
 10
1.651668
 20
3.108966
 30
0.0
 11
1.654009
 21
3.114626
 31
0.0
  0
LINE
  5
AC
330
4E
100
AcDbEntity
 67
     1
  8
1
  6
CONTINUOUS
 62
    18
100
AcDbLine
 10
1.654009
 20
3.114626
 30
0.0
 11
1.659662
 21
3.11697
 31
0.0
  0
LINE
  5
AD
330
4E
100
AcDbEntity
 67
     1
  8
1
  6
CONTINUOUS
 62
    18
100
AcDbLine
 10
1.903674
 20
3.11697
 30
0.0
 11
1.909327
 21
3.114626
 31
0.0
  0
LINE
  5
AE
330
4E
100
AcDbEntity
 67
     1
  8
1
  6
CONTINUOUS
 62
    18
100
AcDbLine
 10
1.909327
 20
3.114626
 30
0.0
 11
1.911668
 21
3.108966
 31
0.0
  0
LINE
  5
AF
330
4E
100
AcDbEntity
 67
     1
  8
1
  6
CONTINUOUS
 62
    18
100
AcDbLine
 10
1.851893
 20
3.11697
 30
0.0
 11
1.903674
 21
3.11697
 31
0.0
  0
LINE
  5
B0
330
4E
100
AcDbEntity
 67
     1
  8
1
  6
CONTINUOUS
 62
    18
100
AcDbLine
 10
2.336919
 20
3.530298
 30
0.0
 11
2.336919
 21
3.584796
 31
0.0
  0
LINE
  5
B1
330
4E
100
AcDbEntity
 67
     1
  8
1
  6
CONTINUOUS
 62
    18
100
AcDbLine
 10
1.529679
 20
3.584796
 30
0.0
 11
2.336919
 21
3.584796
 31
0.0
  0
LINE
  5
B2
330
4E
100
AcDbEntity
 67
     1
  8
1
  6
CONTINUOUS
 62
    18
100
AcDbLine
 10
1.529691
 20
3.584343
 30
0.0
 11
1.529691
 21
3.175344
 31
0.0
  0
LINE
  5
B3
330
4E
100
AcDbEntity
 67
     1
  8
1
  6
CONTINUOUS
 62
    18
100
AcDbLine
 10
1.529679
 20
3.174891
 30
0.0
 11
3.303656
 21
3.174891
 31
0.0
  0
LINE
  5
B4
330
4E
100
AcDbEntity
 67
     1
  8
1
  6
CONTINUOUS
 62
    18
100
AcDbLine
 10
3.303644
 20
3.175344
 30
0.0
 11
3.303644
 21
3.584796
 31
0.0
  0
LINE
  5
B5
330
4E
100
AcDbEntity
 67
     1
  8
1
  6
CONTINUOUS
 62
    18
100
AcDbLine
 10
2.496417
 20
3.584796
 30
0.0
 11
3.303644
 21
3.584796
 31
0.0
  0
LINE
  5
B6
330
4E
100
AcDbEntity
 67
     1
  8
1
  6
CONTINUOUS
 62
    18
100
AcDbLine
 10
2.496417
 20
3.584796
 30
0.0
 11
2.496417
 21
3.530298
 31
0.0
  0
LINE
  5
B7
330
4E
100
AcDbEntity
 67
     1
  8
1
  6
CONTINUOUS
 62
    18
100
AcDbLine
 10
2.476668
 20
3.228098
 30
0.0
 11
2.356668
 21
3.228098
 31
0.0
  0
LINE
  5
B8
330
4E
100
AcDbEntity
 67
     1
  8
1
  6
CONTINUOUS
 62
    18
100
AcDbLine
 10
1.479168
 20
3.575844
 30
0.0
 11
1.479168
 21
3.183844
 31
0.0
  0
LINE
  5
B9
330
4E
100
AcDbEntity
 67
     1
  8
1
  6
CONTINUOUS
 62
    18
100
AcDbLine
 10
1.479168
 20
3.183844
 30
0.0
 11
1.479692
 21
3.183844
 31
0.0
  0
LINE
  5
BA
330
4E
100
AcDbEntity
 67
     1
  8
1
  6
CONTINUOUS
 62
    18
100
AcDbLine
 10
1.479692
 20
3.183844
 30
0.0
 11
1.479692
 21
3.575844
 31
0.0
  0
LINE
  5
BB
330
4E
100
AcDbEntity
 67
     1
  8
1
  6
CONTINUOUS
 62
    18
100
AcDbLine
 10
1.479168
 20
3.575844
 30
0.0
 11
1.479692
 21
3.575844
 31
0.0
  0
LINE
  5
BC
330
4E
100
AcDbEntity
 67
     1
  8
1
  6
CONTINUOUS
 62
    18
100
AcDbLine
 10
1.489168
 20
3.173844
 30
0.0
 11
1.489168
 21
3.174367
 31
0.0
  0
LINE
  5
BD
330
4E
100
AcDbEntity
 67
     1
  8
1
  6
CONTINUOUS
 62
    18
100
AcDbLine
 10
1.489168
 20
3.173844
 30
0.0
 11
3.344168
 21
3.173844
 31
0.0
  0
LINE
  5
BE
330
4E
100
AcDbEntity
 67
     1
  8
1
  6
CONTINUOUS
 62
    18
100
AcDbLine
 10
3.344168
 20
3.173844
 30
0.0
 11
3.344168
 21
3.174367
 31
0.0
  0
LINE
  5
BF
330
4E
100
AcDbEntity
 67
     1
  8
1
  6
CONTINUOUS
 62
    18
100
AcDbLine
 10
3.304228
 20
3.174367
 30
0.0
 11
3.344168
 21
3.174367
 31
0.0
  0
LINE
  5
C0
330
4E
100
AcDbEntity
 67
     1
  8
1
  6
CONTINUOUS
 62
    18
100
AcDbLine
 10
3.303656
 20
3.174891
 30
0.0
 11
3.30397
 21
3.174598
 31
0.0
  0
LINE
  5
C1
330
4E
100
AcDbEntity
 67
     1
  8
1
  6
CONTINUOUS
 62
    18
100
AcDbLine
 10
3.30397
 20
3.174598
 30
0.0
 11
3.304228
 21
3.174367
 31
0.0
  0
LINE
  5
C2
330
4E
100
AcDbEntity
 67
     1
  8
1
  6
CONTINUOUS
 62
    18
100
AcDbLine
 10
1.529108
 20
3.174367
 30
0.0
 11
1.529412
 21
3.174642
 31
0.0
  0
LINE
  5
C3
330
4E
100
AcDbEntity
 67
     1
  8
1
  6
CONTINUOUS
 62
    18
100
AcDbLine
 10
1.529412
 20
3.174642
 30
0.0
 11
1.529679
 21
3.174891
 31
0.0
  0
LINE
  5
C4
330
4E
100
AcDbEntity
 67
     1
  8
1
  6
CONTINUOUS
 62
    18
100
AcDbLine
 10
1.489168
 20
3.174367
 30
0.0
 11
1.529108
 21
3.174367
 31
0.0
  0
LINE
  5
C5
330
4E
100
AcDbEntity
 67
     1
  8
1
  6
CONTINUOUS
 62
    18
100
AcDbLine
 10
3.354168
 20
3.183844
 30
0.0
 11
3.353644
 21
3.183844
 31
0.0
  0
LINE
  5
C6
330
4E
100
AcDbEntity
 67
     1
  8
1
  6
CONTINUOUS
 62
    18
100
AcDbLine
 10
3.353644
 20
3.575844
 30
0.0
 11
3.353644
 21
3.183844
 31
0.0
  0
LINE
  5
C7
330
4E
100
AcDbEntity
 67
     1
  8
1
  6
CONTINUOUS
 62
    18
100
AcDbLine
 10
3.354168
 20
3.575844
 30
0.0
 11
3.354168
 21
3.183844
 31
0.0
  0
LINE
  5
C8
330
4E
100
AcDbEntity
 67
     1
  8
1
  6
CONTINUOUS
 62
    18
100
AcDbLine
 10
3.354168
 20
3.575844
 30
0.0
 11
3.353644
 21
3.575844
 31
0.0
  0
LINE
  5
C9
330
4E
100
AcDbEntity
 67
     1
  8
1
  6
CONTINUOUS
 62
    18
100
AcDbLine
 10
1.396171
 20
3.163842
 30
0.0
 11
1.400189
 21
3.148844
 31
0.0
  0
LINE
  5
CA
330
4E
100
AcDbEntity
 67
     1
  8
1
  6
CONTINUOUS
 62
    18
100
AcDbLine
 10
1.400189
 20
3.148844
 30
0.0
 11
1.411168
 21
3.137865
 31
0.0
  0
LINE
  5
CB
330
4E
100
AcDbEntity
 67
     1
  8
1
  6
CONTINUOUS
 62
    18
100
AcDbLine
 10
1.411168
 20
3.137865
 30
0.0
 11
1.426166
 21
3.133847
 31
0.0
  0
LINE
  5
CC
330
4E
100
AcDbEntity
 67
     1
  8
1
  6
CONTINUOUS
 62
    18
100
AcDbLine
 10
1.426166
 20
3.133847
 30
0.0
 11
1.426865
 21
3.134545
 31
0.0
  0
LINE
  5
CD
330
4E
100
AcDbEntity
 67
     1
  8
1
  6
CONTINUOUS
 62
    18
100
AcDbLine
 10
1.426865
 20
3.134545
 30
0.0
 11
1.411866
 21
3.138563
 31
0.0
  0
LINE
  5
CE
330
4E
100
AcDbEntity
 67
     1
  8
1
  6
CONTINUOUS
 62
    18
100
AcDbLine
 10
1.411866
 20
3.138563
 30
0.0
 11
1.400887
 21
3.149542
 31
0.0
  0
LINE
  5
CF
330
4E
100
AcDbEntity
 67
     1
  8
1
  6
CONTINUOUS
 62
    18
100
AcDbLine
 10
1.400887
 20
3.149542
 30
0.0
 11
1.396869
 21
3.16454
 31
0.0
  0
LINE
  5
D0
330
4E
100
AcDbEntity
 67
     1
  8
1
  6
CONTINUOUS
 62
    18
100
AcDbLine
 10
1.396869
 20
3.16454
 30
0.0
 11
1.396171
 21
3.163842
 31
0.0
  0
LINE
  5
D1
330
4E
100
AcDbEntity
 67
     1
  8
1
  6
CONTINUOUS
 62
    18
100
AcDbLine
 10
1.426166
 20
3.133847
 30
0.0
 11
3.407169
 21
3.133847
 31
0.0
  0
LINE
  5
D2
330
4E
100
AcDbEntity
 67
     1
  8
1
  6
CONTINUOUS
 62
    18
100
AcDbLine
 10
3.406471
 20
3.134545
 30
0.0
 11
3.407169
 21
3.133847
 31
0.0
  0
LINE
  5
D3
330
4E
100
AcDbEntity
 67
     1
  8
1
  6
CONTINUOUS
 62
    18
100
AcDbLine
 10
1.426865
 20
3.134545
 30
0.0
 11
3.406471
 21
3.134545
 31
0.0
  0
LINE
  5
D4
330
4E
100
AcDbEntity
 67
     1
  8
1
  6
CONTINUOUS
 62
    18
100
AcDbLine
 10
3.407169
 20
3.133847
 30
0.0
 11
3.422168
 21
3.137865
 31
0.0
  0
LINE
  5
D5
330
4E
100
AcDbEntity
 67
     1
  8
1
  6
CONTINUOUS
 62
    18
100
AcDbLine
 10
3.422168
 20
3.137865
 30
0.0
 11
3.433146
 21
3.148844
 31
0.0
  0
LINE
  5
D6
330
4E
100
AcDbEntity
 67
     1
  8
1
  6
CONTINUOUS
 62
    18
100
AcDbLine
 10
3.433146
 20
3.148844
 30
0.0
 11
3.437165
 21
3.163842
 31
0.0
  0
LINE
  5
D7
330
4E
100
AcDbEntity
 67
     1
  8
1
  6
CONTINUOUS
 62
    18
100
AcDbLine
 10
3.437165
 20
3.163842
 30
0.0
 11
3.436466
 21
3.16454
 31
0.0
  0
LINE
  5
D8
330
4E
100
AcDbEntity
 67
     1
  8
1
  6
CONTINUOUS
 62
    18
100
AcDbLine
 10
3.436466
 20
3.16454
 30
0.0
 11
3.432448
 21
3.149542
 31
0.0
  0
LINE
  5
D9
330
4E
100
AcDbEntity
 67
     1
  8
1
  6
CONTINUOUS
 62
    18
100
AcDbLine
 10
3.432448
 20
3.149542
 30
0.0
 11
3.421469
 21
3.138563
 31
0.0
  0
LINE
  5
DA
330
4E
100
AcDbEntity
 67
     1
  8
1
  6
CONTINUOUS
 62
    18
100
AcDbLine
 10
3.421469
 20
3.138563
 30
0.0
 11
3.406471
 21
3.134545
 31
0.0
  0
LINE
  5
DB
330
4E
100
AcDbEntity
 67
     1
  8
1
  6
CONTINUOUS
 62
    18
100
AcDbLine
 10
3.175155
 20
3.075357
 30
0.0
 11
3.175155
 21
3.072966
 31
0.0
  0
LINE
  5
DC
330
4E
100
AcDbEntity
 67
     1
  8
1
  6
CONTINUOUS
 62
    18
100
AcDbLine
 10
3.175155
 20
3.072966
 30
0.0
 11
3.175155
 21
3.067359
 31
0.0
  0
LINE
  5
DD
330
4E
100
AcDbEntity
 67
     1
  8
1
  6
CONTINUOUS
 62
    18
100
AcDbLine
 10
3.175155
 20
3.075357
 30
0.0
 11
3.174167
 21
3.075357
 31
0.0
  0
LINE
  5
DE
330
4E
100
AcDbEntity
 67
     1
  8
1
  6
CONTINUOUS
 62
    18
100
AcDbLine
 10
3.174168
 20
3.067359
 30
0.0
 11
3.175155
 21
3.067359
 31
0.0
  0
LINE
  5
DF
330
4E
100
AcDbEntity
 67
     1
  8
1
  6
CONTINUOUS
 62
    18
100
AcDbLine
 10
3.183154
 20
3.083356
 30
0.0
 11
3.185545
 21
3.083356
 31
0.0
  0
LINE
  5
E0
330
4E
100
AcDbEntity
 67
     1
  8
1
  6
CONTINUOUS
 62
    18
100
AcDbLine
 10
3.185545
 20
3.083356
 30
0.0
 11
3.191153
 21
3.083356
 31
0.0
  0
LINE
  5
E1
330
4E
100
AcDbEntity
 67
     1
  8
1
  6
CONTINUOUS
 62
    18
100
AcDbLine
 10
3.183154
 20
3.083356
 30
0.0
 11
3.180812
 21
3.077699
 31
0.0
  0
LINE
  5
E2
330
4E
100
AcDbEntity
 67
     1
  8
1
  6
CONTINUOUS
 62
    18
100
AcDbLine
 10
3.180812
 20
3.077699
 30
0.0
 11
3.175155
 21
3.075357
 31
0.0
  0
LINE
  5
E3
330
4E
100
AcDbEntity
 67
     1
  8
1
  6
CONTINUOUS
 62
    18
100
AcDbLine
 10
3.175155
 20
3.067359
 30
0.0
 11
3.186467
 21
3.072044
 31
0.0
  0
LINE
  5
E4
330
4E
100
AcDbEntity
 67
     1
  8
1
  6
CONTINUOUS
 62
    18
100
AcDbLine
 10
3.186467
 20
3.072044
 30
0.0
 11
3.191153
 21
3.083356
 31
0.0
  0
LINE
  5
E5
330
4E
100
AcDbEntity
 67
     1
  8
1
  6
CONTINUOUS
 62
    18
100
AcDbLine
 10
3.191153
 20
3.083356
 30
0.0
 11
3.191153
 21
3.113428
 31
0.0
  0
LINE
  5
E6
330
4E
100
AcDbEntity
 67
     1
  8
1
  6
CONTINUOUS
 62
    18
100
AcDbLine
 10
3.191153
 20
3.113428
 30
0.0
 11
3.185545
 21
3.113428
 31
0.0
  0
LINE
  5
E7
330
4E
100
AcDbEntity
 67
     1
  8
1
  6
CONTINUOUS
 62
    18
100
AcDbLine
 10
3.185545
 20
3.113428
 30
0.0
 11
3.183154
 21
3.113428
 31
0.0
  0
LINE
  5
E8
330
4E
100
AcDbEntity
 67
     1
  8
1
  6
CONTINUOUS
 62
    18
100
AcDbLine
 10
3.183154
 20
3.113428
 30
0.0
 11
3.183154
 21
3.083356
 31
0.0
  0
LINE
  5
E9
330
4E
100
AcDbEntity
 67
     1
  8
1
  6
CONTINUOUS
 62
    18
100
AcDbLine
 10
3.191153
 20
3.113428
 30
0.0
 11
3.186471
 21
3.124748
 31
0.0
  0
LINE
  5
EA
330
4E
100
AcDbEntity
 67
     1
  8
1
  6
CONTINUOUS
 62
    18
100
AcDbLine
 10
3.186471
 20
3.124748
 30
0.0
 11
3.175165
 21
3.129435
 31
0.0
  0
LINE
  5
EB
330
4E
100
AcDbEntity
 67
     1
  8
1
  6
CONTINUOUS
 62
    18
100
AcDbLine
 10
3.175165
 20
3.129435
 30
0.0
 11
3.175165
 21
3.123928
 31
0.0
  0
LINE
  5
EC
330
4E
100
AcDbEntity
 67
     1
  8
1
  6
CONTINUOUS
 62
    18
100
AcDbLine
 10
3.175165
 20
3.123928
 30
0.0
 11
3.175165
 21
3.121446
 31
0.0
  0
LINE
  5
ED
330
4E
100
AcDbEntity
 67
     1
  8
1
  6
CONTINUOUS
 62
    18
100
AcDbLine
 10
3.175165
 20
3.121446
 30
0.0
 11
3.180817
 21
3.119101
 31
0.0
  0
LINE
  5
EE
330
4E
100
AcDbEntity
 67
     1
  8
1
  6
CONTINUOUS
 62
    18
100
AcDbLine
 10
3.180817
 20
3.119101
 30
0.0
 11
3.183154
 21
3.113428
 31
0.0
  0
LINE
  5
EF
330
4E
100
AcDbEntity
 67
     1
  8
1
  6
CONTINUOUS
 62
    18
100
AcDbLine
 10
3.175165
 20
3.129435
 30
0.0
 11
2.928171
 21
3.129435
 31
0.0
  0
LINE
  5
F0
330
4E
100
AcDbEntity
 67
     1
  8
1
  6
CONTINUOUS
 62
    18
100
AcDbLine
 10
2.928171
 20
3.129435
 30
0.0
 11
2.928171
 21
3.123928
 31
0.0
  0
LINE
  5
F1
330
4E
100
AcDbEntity
 67
     1
  8
1
  6
CONTINUOUS
 62
    18
100
AcDbLine
 10
2.928171
 20
3.123928
 30
0.0
 11
2.928171
 21
3.121446
 31
0.0
  0
LINE
  5
F2
330
4E
100
AcDbEntity
 67
     1
  8
1
  6
CONTINUOUS
 62
    18
100
AcDbLine
 10
2.928171
 20
3.121446
 30
0.0
 11
3.175165
 21
3.121446
 31
0.0
  0
LINE
  5
F3
330
4E
100
AcDbEntity
 67
     1
  8
1
  6
CONTINUOUS
 62
    18
100
AcDbLine
 10
2.928171
 20
3.129435
 30
0.0
 11
2.916865
 21
3.124748
 31
0.0
  0
LINE
  5
F4
330
4E
100
AcDbEntity
 67
     1
  8
1
  6
CONTINUOUS
 62
    18
100
AcDbLine
 10
2.916865
 20
3.124748
 30
0.0
 11
2.912183
 21
3.113428
 31
0.0
  0
LINE
  5
F5
330
4E
100
AcDbEntity
 67
     1
  8
1
  6
CONTINUOUS
 62
    18
100
AcDbLine
 10
2.912183
 20
3.113428
 30
0.0
 11
2.91779
 21
3.113428
 31
0.0
  0
LINE
  5
F6
330
4E
100
AcDbEntity
 67
     1
  8
1
  6
CONTINUOUS
 62
    18
100
AcDbLine
 10
2.91779
 20
3.113428
 30
0.0
 11
2.920182
 21
3.113428
 31
0.0
  0
LINE
  5
F7
330
4E
100
AcDbEntity
 67
     1
  8
1
  6
CONTINUOUS
 62
    18
100
AcDbLine
 10
2.920182
 20
3.113428
 30
0.0
 11
2.922518
 21
3.119101
 31
0.0
  0
LINE
  5
F8
330
4E
100
AcDbEntity
 67
     1
  8
1
  6
CONTINUOUS
 62
    18
100
AcDbLine
 10
2.922518
 20
3.119101
 30
0.0
 11
2.928171
 21
3.121446
 31
0.0
  0
LINE
  5
F9
330
4E
100
AcDbEntity
 67
     1
  8
1
  6
CONTINUOUS
 62
    18
100
AcDbLine
 10
2.912183
 20
3.113428
 30
0.0
 11
2.912183
 21
3.083356
 31
0.0
  0
LINE
  5
FA
330
4E
100
AcDbEntity
 67
     1
  8
1
  6
CONTINUOUS
 62
    18
100
AcDbLine
 10
2.912183
 20
3.083356
 30
0.0
 11
2.91779
 21
3.083356
 31
0.0
  0
LINE
  5
FB
330
4E
100
AcDbEntity
 67
     1
  8
1
  6
CONTINUOUS
 62
    18
100
AcDbLine
 10
2.91779
 20
3.083356
 30
0.0
 11
2.920182
 21
3.083356
 31
0.0
  0
LINE
  5
FC
330
4E
100
AcDbEntity
 67
     1
  8
1
  6
CONTINUOUS
 62
    18
100
AcDbLine
 10
2.920182
 20
3.083356
 30
0.0
 11
2.920182
 21
3.113428
 31
0.0
  0
LINE
  5
FD
330
4E
100
AcDbEntity
 67
     1
  8
1
  6
CONTINUOUS
 62
    18
100
AcDbLine
 10
2.912183
 20
3.083356
 30
0.0
 11
2.916868
 21
3.072044
 31
0.0
  0
LINE
  5
FE
330
4E
100
AcDbEntity
 67
     1
  8
1
  6
CONTINUOUS
 62
    18
100
AcDbLine
 10
2.916868
 20
3.072044
 30
0.0
 11
2.92818
 21
3.067359
 31
0.0
  0
LINE
  5
FF
330
4E
100
AcDbEntity
 67
     1
  8
1
  6
CONTINUOUS
 62
    18
100
AcDbLine
 10
2.92818
 20
3.067359
 30
0.0
 11
2.92818
 21
3.072966
 31
0.0
  0
LINE
  5
100
330
4E
100
AcDbEntity
 67
     1
  8
1
  6
CONTINUOUS
 62
    18
100
AcDbLine
 10
2.92818
 20
3.072966
 30
0.0
 11
2.92818
 21
3.075357
 31
0.0
  0
LINE
  5
101
330
4E
100
AcDbEntity
 67
     1
  8
1
  6
CONTINUOUS
 62
    18
100
AcDbLine
 10
2.92818
 20
3.075357
 30
0.0
 11
2.922523
 21
3.077699
 31
0.0
  0
LINE
  5
102
330
4E
100
AcDbEntity
 67
     1
  8
1
  6
CONTINUOUS
 62
    18
100
AcDbLine
 10
2.922523
 20
3.077699
 30
0.0
 11
2.920182
 21
3.083356
 31
0.0
  0
LINE
  5
103
330
4E
100
AcDbEntity
 67
     1
  8
1
  6
CONTINUOUS
 62
    18
100
AcDbLine
 10
2.92818
 20
3.067359
 30
0.0
 11
2.929168
 21
3.067359
 31
0.0
  0
LINE
  5
104
330
4E
100
AcDbEntity
 67
     1
  8
1
  6
CONTINUOUS
 62
    18
100
AcDbLine
 10
2.929168
 20
3.075357
 30
0.0
 11
2.92818
 21
3.075357
 31
0.0
  0
LINE
  5
105
330
4E
100
AcDbEntity
 67
     1
  8
1
  6
CONTINUOUS
 62
    18
100
AcDbLine
 10
1.905155
 20
3.075357
 30
0.0
 11
1.905155
 21
3.072966
 31
0.0
  0
LINE
  5
106
330
4E
100
AcDbEntity
 67
     1
  8
1
  6
CONTINUOUS
 62
    18
100
AcDbLine
 10
1.905155
 20
3.072966
 30
0.0
 11
1.905155
 21
3.067359
 31
0.0
  0
LINE
  5
107
330
4E
100
AcDbEntity
 67
     1
  8
1
  6
CONTINUOUS
 62
    18
100
AcDbLine
 10
1.905155
 20
3.075357
 30
0.0
 11
1.904167
 21
3.075357
 31
0.0
  0
LINE
  5
108
330
4E
100
AcDbEntity
 67
     1
  8
1
  6
CONTINUOUS
 62
    18
100
AcDbLine
 10
1.904168
 20
3.067359
 30
0.0
 11
1.905155
 21
3.067359
 31
0.0
  0
LINE
  5
109
330
4E
100
AcDbEntity
 67
     1
  8
1
  6
CONTINUOUS
 62
    18
100
AcDbLine
 10
1.913154
 20
3.083356
 30
0.0
 11
1.915545
 21
3.083356
 31
0.0
  0
LINE
  5
10A
330
4E
100
AcDbEntity
 67
     1
  8
1
  6
CONTINUOUS
 62
    18
100
AcDbLine
 10
1.915545
 20
3.083356
 30
0.0
 11
1.921153
 21
3.083356
 31
0.0
  0
LINE
  5
10B
330
4E
100
AcDbEntity
 67
     1
  8
1
  6
CONTINUOUS
 62
    18
100
AcDbLine
 10
1.913154
 20
3.083356
 30
0.0
 11
1.910812
 21
3.077699
 31
0.0
  0
LINE
  5
10C
330
4E
100
AcDbEntity
 67
     1
  8
1
  6
CONTINUOUS
 62
    18
100
AcDbLine
 10
1.910812
 20
3.077699
 30
0.0
 11
1.905155
 21
3.075357
 31
0.0
  0
LINE
  5
10D
330
4E
100
AcDbEntity
 67
     1
  8
1
  6
CONTINUOUS
 62
    18
100
AcDbLine
 10
1.905155
 20
3.067359
 30
0.0
 11
1.916467
 21
3.072044
 31
0.0
  0
LINE
  5
10E
330
4E
100
AcDbEntity
 67
     1
  8
1
  6
CONTINUOUS
 62
    18
100
AcDbLine
 10
1.916467
 20
3.072044
 30
0.0
 11
1.921153
 21
3.083356
 31
0.0
  0
LINE
  5
10F
330
4E
100
AcDbEntity
 67
     1
  8
1
  6
CONTINUOUS
 62
    18
100
AcDbLine
 10
1.913154
 20
3.113428
 30
0.0
 11
1.915545
 21
3.113428
 31
0.0
  0
LINE
  5
110
330
4E
100
AcDbEntity
 67
     1
  8
1
  6
CONTINUOUS
 62
    18
100
AcDbLine
 10
1.915545
 20
3.113428
 30
0.0
 11
1.921153
 21
3.113428
 31
0.0
  0
LINE
  5
111
330
4E
100
AcDbEntity
 67
     1
  8
1
  6
CONTINUOUS
 62
    18
100
AcDbLine
 10
1.913154
 20
3.113428
 30
0.0
 11
1.913154
 21
3.083356
 31
0.0
  0
LINE
  5
112
330
4E
100
AcDbEntity
 67
     1
  8
1
  6
CONTINUOUS
 62
    18
100
AcDbLine
 10
1.921153
 20
3.083356
 30
0.0
 11
1.921153
 21
3.113428
 31
0.0
  0
LINE
  5
113
330
4E
100
AcDbEntity
 67
     1
  8
1
  6
CONTINUOUS
 62
    18
100
AcDbLine
 10
1.905165
 20
3.121446
 30
0.0
 11
1.905165
 21
3.123928
 31
0.0
  0
LINE
  5
114
330
4E
100
AcDbEntity
 67
     1
  8
1
  6
CONTINUOUS
 62
    18
100
AcDbLine
 10
1.905165
 20
3.123928
 30
0.0
 11
1.905165
 21
3.129435
 31
0.0
  0
LINE
  5
115
330
4E
100
AcDbEntity
 67
     1
  8
1
  6
CONTINUOUS
 62
    18
100
AcDbLine
 10
1.905165
 20
3.121446
 30
0.0
 11
1.910818
 21
3.119101
 31
0.0
  0
LINE
  5
116
330
4E
100
AcDbEntity
 67
     1
  8
1
  6
CONTINUOUS
 62
    18
100
AcDbLine
 10
1.910818
 20
3.119101
 30
0.0
 11
1.913154
 21
3.113428
 31
0.0
  0
LINE
  5
117
330
4E
100
AcDbEntity
 67
     1
  8
1
  6
CONTINUOUS
 62
    18
100
AcDbLine
 10
1.921153
 20
3.113428
 30
0.0
 11
1.916471
 21
3.124748
 31
0.0
  0
LINE
  5
118
330
4E
100
AcDbEntity
 67
     1
  8
1
  6
CONTINUOUS
 62
    18
100
AcDbLine
 10
1.916471
 20
3.124748
 30
0.0
 11
1.905165
 21
3.129435
 31
0.0
  0
LINE
  5
119
330
4E
100
AcDbEntity
 67
     1
  8
1
  6
CONTINUOUS
 62
    18
100
AcDbLine
 10
1.658171
 20
3.121446
 30
0.0
 11
1.658171
 21
3.123928
 31
0.0
  0
LINE
  5
11A
330
4E
100
AcDbEntity
 67
     1
  8
1
  6
CONTINUOUS
 62
    18
100
AcDbLine
 10
1.658171
 20
3.123928
 30
0.0
 11
1.658171
 21
3.129435
 31
0.0
  0
LINE
  5
11B
330
4E
100
AcDbEntity
 67
     1
  8
1
  6
CONTINUOUS
 62
    18
100
AcDbLine
 10
1.658171
 20
3.121446
 30
0.0
 11
1.905165
 21
3.121446
 31
0.0
  0
LINE
  5
11C
330
4E
100
AcDbEntity
 67
     1
  8
1
  6
CONTINUOUS
 62
    18
100
AcDbLine
 10
1.905165
 20
3.129435
 30
0.0
 11
1.658171
 21
3.129435
 31
0.0
  0
LINE
  5
11D
330
4E
100
AcDbEntity
 67
     1
  8
1
  6
CONTINUOUS
 62
    18
100
AcDbLine
 10
1.650182
 20
3.113428
 30
0.0
 11
1.64779
 21
3.113428
 31
0.0
  0
LINE
  5
11E
330
4E
100
AcDbEntity
 67
     1
  8
1
  6
CONTINUOUS
 62
    18
100
AcDbLine
 10
1.64779
 20
3.113428
 30
0.0
 11
1.642183
 21
3.113428
 31
0.0
  0
LINE
  5
11F
330
4E
100
AcDbEntity
 67
     1
  8
1
  6
CONTINUOUS
 62
    18
100
AcDbLine
 10
1.650182
 20
3.113428
 30
0.0
 11
1.652518
 21
3.119101
 31
0.0
  0
LINE
  5
120
330
4E
100
AcDbEntity
 67
     1
  8
1
  6
CONTINUOUS
 62
    18
100
AcDbLine
 10
1.652518
 20
3.119101
 30
0.0
 11
1.658171
 21
3.121446
 31
0.0
  0
LINE
  5
121
330
4E
100
AcDbEntity
 67
     1
  8
1
  6
CONTINUOUS
 62
    18
100
AcDbLine
 10
1.658171
 20
3.129435
 30
0.0
 11
1.646865
 21
3.124748
 31
0.0
  0
LINE
  5
122
330
4E
100
AcDbEntity
 67
     1
  8
1
  6
CONTINUOUS
 62
    18
100
AcDbLine
 10
1.646865
 20
3.124748
 30
0.0
 11
1.642183
 21
3.113428
 31
0.0
  0
LINE
  5
123
330
4E
100
AcDbEntity
 67
     1
  8
1
  6
CONTINUOUS
 62
    18
100
AcDbLine
 10
1.642183
 20
3.113428
 30
0.0
 11
1.642183
 21
3.083356
 31
0.0
  0
LINE
  5
124
330
4E
100
AcDbEntity
 67
     1
  8
1
  6
CONTINUOUS
 62
    18
100
AcDbLine
 10
1.642183
 20
3.083356
 30
0.0
 11
1.64779
 21
3.083356
 31
0.0
  0
LINE
  5
125
330
4E
100
AcDbEntity
 67
     1
  8
1
  6
CONTINUOUS
 62
    18
100
AcDbLine
 10
1.64779
 20
3.083356
 30
0.0
 11
1.650182
 21
3.083356
 31
0.0
  0
LINE
  5
126
330
4E
100
AcDbEntity
 67
     1
  8
1
  6
CONTINUOUS
 62
    18
100
AcDbLine
 10
1.650182
 20
3.083356
 30
0.0
 11
1.650182
 21
3.113428
 31
0.0
  0
LINE
  5
127
330
4E
100
AcDbEntity
 67
     1
  8
1
  6
CONTINUOUS
 62
    18
100
AcDbLine
 10
1.642183
 20
3.083356
 30
0.0
 11
1.646868
 21
3.072044
 31
0.0
  0
LINE
  5
128
330
4E
100
AcDbEntity
 67
     1
  8
1
  6
CONTINUOUS
 62
    18
100
AcDbLine
 10
1.646868
 20
3.072044
 30
0.0
 11
1.65818
 21
3.067359
 31
0.0
  0
LINE
  5
129
330
4E
100
AcDbEntity
 67
     1
  8
1
  6
CONTINUOUS
 62
    18
100
AcDbLine
 10
1.65818
 20
3.067359
 30
0.0
 11
1.65818
 21
3.072966
 31
0.0
  0
LINE
  5
12A
330
4E
100
AcDbEntity
 67
     1
  8
1
  6
CONTINUOUS
 62
    18
100
AcDbLine
 10
1.65818
 20
3.072966
 30
0.0
 11
1.65818
 21
3.075357
 31
0.0
  0
LINE
  5
12B
330
4E
100
AcDbEntity
 67
     1
  8
1
  6
CONTINUOUS
 62
    18
100
AcDbLine
 10
1.65818
 20
3.075357
 30
0.0
 11
1.652523
 21
3.077699
 31
0.0
  0
LINE
  5
12C
330
4E
100
AcDbEntity
 67
     1
  8
1
  6
CONTINUOUS
 62
    18
100
AcDbLine
 10
1.652523
 20
3.077699
 30
0.0
 11
1.650182
 21
3.083356
 31
0.0
  0
LINE
  5
12D
330
4E
100
AcDbEntity
 67
     1
  8
1
  6
CONTINUOUS
 62
    18
100
AcDbLine
 10
1.65818
 20
3.067359
 30
0.0
 11
1.659168
 21
3.067359
 31
0.0
  0
LINE
  5
12E
330
4E
100
AcDbEntity
 67
     1
  8
1
  6
CONTINUOUS
 62
    18
100
AcDbLine
 10
1.659168
 20
3.075357
 30
0.0
 11
1.65818
 21
3.075357
 31
0.0
  0
LINE
  5
12F
330
4E
100
AcDbEntity
 67
     1
  8
1
  6
CONTINUOUS
 62
    18
100
AcDbLine
 10
3.303644
 20
3.584796
 30
0.0
 11
3.304168
 21
3.58532
 31
0.0
  0
LINE
  5
130
330
4E
100
AcDbEntity
 67
     1
  8
1
  6
CONTINUOUS
 62
    18
100
AcDbLine
 10
2.498512
 20
3.585844
 30
0.0
 11
2.496417
 21
3.584796
 31
0.0
  0
LINE
  5
131
330
4E
100
AcDbEntity
 67
     1
  8
1
  6
CONTINUOUS
 62
    18
100
AcDbLine
 10
2.498512
 20
3.585844
 30
0.0
 11
2.498512
 21
3.625142
 31
0.0
  0
LINE
  5
132
330
4E
100
AcDbEntity
 67
     1
  8
1
  6
CONTINUOUS
 62
    18
100
AcDbLine
 10
2.497115
 20
3.62584
 30
0.0
 11
2.498512
 21
3.625142
 31
0.0
  0
LINE
  5
133
330
4E
100
AcDbEntity
 67
     1
  8
1
  6
CONTINUOUS
 62
    18
100
AcDbLine
 10
2.497115
 20
3.630243
 30
0.0
 11
2.497115
 21
3.62584
 31
0.0
  0
LINE
  5
134
330
4E
100
AcDbEntity
 67
     1
  8
1
  6
CONTINUOUS
 62
    18
100
AcDbLine
 10
2.497115
 20
3.630243
 30
0.0
 11
2.497011
 21
3.62311
 31
0.0
  0
LINE
  5
135
330
4E
100
AcDbEntity
 67
     1
  8
1
  6
CONTINUOUS
 62
    18
100
AcDbLine
 10
2.497011
 20
3.62311
 30
0.0
 11
2.49676
 21
3.620244
 31
0.0
  0
LINE
  5
136
330
4E
100
AcDbEntity
 67
     1
  8
1
  6
CONTINUOUS
 62
    18
100
AcDbLine
 10
2.493868
 20
3.592793
 30
0.0
 11
2.493768
 21
3.585784
 31
0.0
  0
LINE
  5
137
330
4E
100
AcDbEntity
 67
     1
  8
1
  6
CONTINUOUS
 62
    18
100
AcDbLine
 10
2.493768
 20
3.585784
 30
0.0
 11
2.493525
 21
3.582794
 31
0.0
  0
LINE
  5
138
330
4E
100
AcDbEntity
 67
     1
  8
1
  6
CONTINUOUS
 62
    18
100
AcDbLine
 10
2.491668
 20
3.581866
 30
0.0
 11
2.493525
 21
3.582794
 31
0.0
  0
LINE
  5
139
330
4E
100
AcDbEntity
 67
     1
  8
1
  6
CONTINUOUS
 62
    18
100
AcDbLine
 10
2.491668
 20
3.454813
 30
0.0
 11
2.491668
 21
3.581866
 31
0.0
  0
LINE
  5
13A
330
4E
100
AcDbEntity
 67
     1
  8
1
  6
CONTINUOUS
 62
    18
100
AcDbLine
 10
2.492925
 20
3.455837
 30
0.0
 11
2.491668
 21
3.454813
 31
0.0
  0
LINE
  5
13B
330
4E
100
AcDbEntity
 67
     1
  8
1
  6
CONTINUOUS
 62
    18
100
AcDbLine
 10
2.492925
 20
3.52896
 30
0.0
 11
2.492925
 21
3.455837
 31
0.0
  0
LINE
  5
13C
330
4E
100
AcDbEntity
 67
     1
  8
1
  6
CONTINUOUS
 62
    18
100
AcDbLine
 10
2.496417
 20
3.530298
 30
0.0
 11
2.492925
 21
3.52896
 31
0.0
  0
LINE
  5
13D
330
4E
100
AcDbEntity
 67
     1
  8
1
  6
CONTINUOUS
 62
    18
100
AcDbLine
 10
2.476668
 20
3.228098
 30
0.0
 11
2.476668
 21
3.229844
 31
0.0
  0
LINE
  5
13E
330
4E
100
AcDbEntity
 67
     1
  8
1
  6
CONTINUOUS
 62
    18
100
AcDbLine
 10
2.476668
 20
3.229844
 30
0.0
 11
2.356668
 21
3.229844
 31
0.0
  0
LINE
  5
13F
330
4E
100
AcDbEntity
 67
     1
  8
1
  6
CONTINUOUS
 62
    18
100
AcDbLine
 10
2.356668
 20
3.229844
 30
0.0
 11
2.356668
 21
3.228098
 31
0.0
  0
LINE
  5
140
330
4E
100
AcDbEntity
 67
     1
  8
1
  6
CONTINUOUS
 62
    18
100
AcDbLine
 10
2.340411
 20
3.52896
 30
0.0
 11
2.336919
 21
3.530298
 31
0.0
  0
LINE
  5
141
330
4E
100
AcDbEntity
 67
     1
  8
1
  6
CONTINUOUS
 62
    18
100
AcDbLine
 10
2.336576
 20
3.620244
 30
0.0
 11
2.336325
 21
3.62311
 31
0.0
  0
LINE
  5
142
330
4E
100
AcDbEntity
 67
     1
  8
1
  6
CONTINUOUS
 62
    18
100
AcDbLine
 10
2.336325
 20
3.62311
 30
0.0
 11
2.33622
 21
3.630243
 31
0.0
  0
LINE
  5
143
330
4E
100
AcDbEntity
 67
     1
  8
1
  6
CONTINUOUS
 62
    18
100
AcDbLine
 10
2.33622
 20
3.62584
 30
0.0
 11
2.33622
 21
3.630243
 31
0.0
  0
LINE
  5
144
330
4E
100
AcDbEntity
 67
     1
  8
1
  6
CONTINUOUS
 62
    18
100
AcDbLine
 10
2.33622
 20
3.62584
 30
0.0
 11
2.334823
 21
3.625142
 31
0.0
  0
LINE
  5
145
330
4E
100
AcDbEntity
 67
     1
  8
1
  6
CONTINUOUS
 62
    18
100
AcDbLine
 10
2.334823
 20
3.585844
 30
0.0
 11
2.334823
 21
3.625142
 31
0.0
  0
LINE
  5
146
330
4E
100
AcDbEntity
 67
     1
  8
1
  6
CONTINUOUS
 62
    18
100
AcDbLine
 10
2.336919
 20
3.584796
 30
0.0
 11
2.334823
 21
3.585844
 31
0.0
  0
LINE
  5
147
330
4E
100
AcDbEntity
 67
     1
  8
1
  6
CONTINUOUS
 62
    18
100
AcDbLine
 10
2.340411
 20
3.455837
 30
0.0
 11
2.340411
 21
3.52896
 31
0.0
  0
LINE
  5
148
330
4E
100
AcDbEntity
 67
     1
  8
1
  6
CONTINUOUS
 62
    18
100
AcDbLine
 10
2.341668
 20
3.454813
 30
0.0
 11
2.340411
 21
3.455837
 31
0.0
  0
LINE
  5
149
330
4E
100
AcDbEntity
 67
     1
  8
1
  6
CONTINUOUS
 62
    18
100
AcDbLine
 10
2.341668
 20
3.454813
 30
0.0
 11
2.341668
 21
3.581866
 31
0.0
  0
LINE
  5
14A
330
4E
100
AcDbEntity
 67
     1
  8
1
  6
CONTINUOUS
 62
    18
100
AcDbLine
 10
2.339811
 20
3.582794
 30
0.0
 11
2.341668
 21
3.581866
 31
0.0
  0
LINE
  5
14B
330
4E
100
AcDbEntity
 67
     1
  8
1
  6
CONTINUOUS
 62
    18
100
AcDbLine
 10
2.339811
 20
3.582794
 30
0.0
 11
2.339568
 21
3.585784
 31
0.0
  0
LINE
  5
14C
330
4E
100
AcDbEntity
 67
     1
  8
1
  6
CONTINUOUS
 62
    18
100
AcDbLine
 10
2.339568
 20
3.585784
 30
0.0
 11
2.339468
 21
3.592793
 31
0.0
  0
LINE
  5
14D
330
4E
100
AcDbEntity
 67
     1
  8
1
  6
CONTINUOUS
 62
    18
100
AcDbLine
 10
1.659662
 20
3.11697
 30
0.0
 11
1.658171
 21
3.121446
 31
0.0
  0
LINE
  5
14E
330
4E
100
AcDbEntity
 67
     1
  8
1
  6
CONTINUOUS
 62
    18
100
AcDbLine
 10
1.719437
 20
3.116565
 30
0.0
 11
1.717
 21
3.116852
 31
0.0
  0
LINE
  5
14F
330
4E
100
AcDbEntity
 67
     1
  8
1
  6
CONTINUOUS
 62
    18
100
AcDbLine
 10
1.717
 20
3.116852
 30
0.0
 11
1.711442
 21
3.11697
 31
0.0
  0
LINE
  5
150
330
4E
100
AcDbEntity
 67
     1
  8
1
  6
CONTINUOUS
 62
    18
100
AcDbLine
 10
1.719437
 20
3.116565
 30
0.0
 11
1.720543
 21
3.114907
 31
0.0
  0
LINE
  5
151
330
4E
100
AcDbEntity
 67
     1
  8
1
  6
CONTINUOUS
 62
    18
100
AcDbLine
 10
1.843898
 20
3.116565
 30
0.0
 11
1.842793
 21
3.114907
 31
0.0
  0
LINE
  5
152
330
4E
100
AcDbEntity
 67
     1
  8
1
  6
CONTINUOUS
 62
    18
100
AcDbLine
 10
1.851893
 20
3.11697
 30
0.0
 11
1.846336
 21
3.116852
 31
0.0
  0
LINE
  5
153
330
4E
100
AcDbEntity
 67
     1
  8
1
  6
CONTINUOUS
 62
    18
100
AcDbLine
 10
1.846336
 20
3.116852
 30
0.0
 11
1.843898
 21
3.116565
 31
0.0
  0
LINE
  5
154
330
4E
100
AcDbEntity
 67
     1
  8
1
  6
CONTINUOUS
 62
    18
100
AcDbLine
 10
1.905165
 20
3.121446
 30
0.0
 11
1.903674
 21
3.11697
 31
0.0
  0
LINE
  5
155
330
4E
100
AcDbEntity
 67
     1
  8
1
  6
CONTINUOUS
 62
    18
100
AcDbLine
 10
1.911668
 20
3.108966
 30
0.0
 11
1.913154
 21
3.113428
 31
0.0
  0
LINE
  5
156
330
4E
100
AcDbEntity
 67
     1
  8
1
  6
CONTINUOUS
 62
    18
100
AcDbLine
 10
1.911668
 20
3.108966
 30
0.0
 11
1.911668
 21
3.084842
 31
0.0
  0
LINE
  5
157
330
4E
100
AcDbEntity
 67
     1
  8
1
  6
CONTINUOUS
 62
    18
100
AcDbLine
 10
1.913154
 20
3.083356
 30
0.0
 11
1.911668
 21
3.084842
 31
0.0
  0
LINE
  5
158
330
4E
100
AcDbEntity
 67
     1
  8
1
  6
CONTINUOUS
 62
    18
100
AcDbLine
 10
1.903669
 20
3.076844
 30
0.0
 11
1.909325
 21
3.079186
 31
0.0
  0
LINE
  5
159
330
4E
100
AcDbEntity
 67
     1
  8
1
  6
CONTINUOUS
 62
    18
100
AcDbLine
 10
1.909325
 20
3.079186
 30
0.0
 11
1.911668
 21
3.084842
 31
0.0
  0
LINE
  5
15A
330
4E
100
AcDbEntity
 67
     1
  8
1
  6
CONTINUOUS
 62
    18
100
AcDbLine
 10
1.904168
 20
3.076345
 30
0.0
 11
1.905155
 21
3.075357
 31
0.0
  0
LINE
  5
15B
330
4E
100
AcDbEntity
 67
     1
  8
1
  6
CONTINUOUS
 62
    18
100
AcDbLine
 10
1.65818
 20
3.075357
 30
0.0
 11
1.659168
 21
3.076345
 31
0.0
  0
LINE
  5
15C
330
4E
100
AcDbEntity
 67
     1
  8
1
  6
CONTINUOUS
 62
    18
100
AcDbLine
 10
1.651668
 20
3.084842
 30
0.0
 11
1.65401
 21
3.079186
 31
0.0
  0
LINE
  5
15D
330
4E
100
AcDbEntity
 67
     1
  8
1
  6
CONTINUOUS
 62
    18
100
AcDbLine
 10
1.65401
 20
3.079186
 30
0.0
 11
1.659667
 21
3.076844
 31
0.0
  0
LINE
  5
15E
330
4E
100
AcDbEntity
 67
     1
  8
1
  6
CONTINUOUS
 62
    18
100
AcDbLine
 10
1.651668
 20
3.084842
 30
0.0
 11
1.650182
 21
3.083356
 31
0.0
  0
LINE
  5
15F
330
4E
100
AcDbEntity
 67
     1
  8
1
  6
CONTINUOUS
 62
    18
100
AcDbLine
 10
1.651668
 20
3.084842
 30
0.0
 11
1.651668
 21
3.108966
 31
0.0
  0
LINE
  5
160
330
4E
100
AcDbEntity
 67
     1
  8
1
  6
CONTINUOUS
 62
    18
100
AcDbLine
 10
1.650182
 20
3.113428
 30
0.0
 11
1.651668
 21
3.108966
 31
0.0
  0
LINE
  5
161
330
4E
100
AcDbEntity
 67
     1
  8
1
  6
CONTINUOUS
 62
    18
100
AcDbLine
 10
2.929662
 20
3.11697
 30
0.0
 11
2.928171
 21
3.121446
 31
0.0
  0
LINE
  5
162
330
4E
100
AcDbEntity
 67
     1
  8
1
  6
CONTINUOUS
 62
    18
100
AcDbLine
 10
2.989437
 20
3.116565
 30
0.0
 11
2.987
 21
3.116852
 31
0.0
  0
LINE
  5
163
330
4E
100
AcDbEntity
 67
     1
  8
1
  6
CONTINUOUS
 62
    18
100
AcDbLine
 10
2.987
 20
3.116852
 30
0.0
 11
2.981442
 21
3.11697
 31
0.0
  0
LINE
  5
164
330
4E
100
AcDbEntity
 67
     1
  8
1
  6
CONTINUOUS
 62
    18
100
AcDbLine
 10
2.989437
 20
3.116565
 30
0.0
 11
2.990542
 21
3.114907
 31
0.0
  0
LINE
  5
165
330
4E
100
AcDbEntity
 67
     1
  8
1
  6
CONTINUOUS
 62
    18
100
AcDbLine
 10
3.113898
 20
3.116565
 30
0.0
 11
3.112793
 21
3.114907
 31
0.0
  0
LINE
  5
166
330
4E
100
AcDbEntity
 67
     1
  8
1
  6
CONTINUOUS
 62
    18
100
AcDbLine
 10
3.121893
 20
3.11697
 30
0.0
 11
3.116336
 21
3.116852
 31
0.0
  0
LINE
  5
167
330
4E
100
AcDbEntity
 67
     1
  8
1
  6
CONTINUOUS
 62
    18
100
AcDbLine
 10
3.116336
 20
3.116852
 30
0.0
 11
3.113898
 21
3.116565
 31
0.0
  0
LINE
  5
168
330
4E
100
AcDbEntity
 67
     1
  8
1
  6
CONTINUOUS
 62
    18
100
AcDbLine
 10
3.175165
 20
3.121446
 30
0.0
 11
3.173674
 21
3.11697
 31
0.0
  0
LINE
  5
169
330
4E
100
AcDbEntity
 67
     1
  8
1
  6
CONTINUOUS
 62
    18
100
AcDbLine
 10
3.181668
 20
3.108966
 30
0.0
 11
3.183154
 21
3.113428
 31
0.0
  0
LINE
  5
16A
330
4E
100
AcDbEntity
 67
     1
  8
1
  6
CONTINUOUS
 62
    18
100
AcDbLine
 10
3.181668
 20
3.108966
 30
0.0
 11
3.181668
 21
3.084842
 31
0.0
  0
LINE
  5
16B
330
4E
100
AcDbEntity
 67
     1
  8
1
  6
CONTINUOUS
 62
    18
100
AcDbLine
 10
3.183154
 20
3.083356
 30
0.0
 11
3.181668
 21
3.084842
 31
0.0
  0
LINE
  5
16C
330
4E
100
AcDbEntity
 67
     1
  8
1
  6
CONTINUOUS
 62
    18
100
AcDbLine
 10
3.173669
 20
3.076844
 30
0.0
 11
3.179325
 21
3.079186
 31
0.0
  0
LINE
  5
16D
330
4E
100
AcDbEntity
 67
     1
  8
1
  6
CONTINUOUS
 62
    18
100
AcDbLine
 10
3.179325
 20
3.079186
 30
0.0
 11
3.181668
 21
3.084842
 31
0.0
  0
LINE
  5
16E
330
4E
100
AcDbEntity
 67
     1
  8
1
  6
CONTINUOUS
 62
    18
100
AcDbLine
 10
3.174168
 20
3.076345
 30
0.0
 11
3.175155
 21
3.075357
 31
0.0
  0
LINE
  5
16F
330
4E
100
AcDbEntity
 67
     1
  8
1
  6
CONTINUOUS
 62
    18
100
AcDbLine
 10
2.92818
 20
3.075357
 30
0.0
 11
2.929168
 21
3.076345
 31
0.0
  0
LINE
  5
170
330
4E
100
AcDbEntity
 67
     1
  8
1
  6
CONTINUOUS
 62
    18
100
AcDbLine
 10
2.921668
 20
3.084842
 30
0.0
 11
2.924011
 21
3.079186
 31
0.0
  0
LINE
  5
171
330
4E
100
AcDbEntity
 67
     1
  8
1
  6
CONTINUOUS
 62
    18
100
AcDbLine
 10
2.924011
 20
3.079186
 30
0.0
 11
2.929667
 21
3.076844
 31
0.0
  0
LINE
  5
172
330
4E
100
AcDbEntity
 67
     1
  8
1
  6
CONTINUOUS
 62
    18
100
AcDbLine
 10
2.921668
 20
3.084842
 30
0.0
 11
2.920182
 21
3.083356
 31
0.0
  0
LINE
  5
173
330
4E
100
AcDbEntity
 67
     1
  8
1
  6
CONTINUOUS
 62
    18
100
AcDbLine
 10
2.921668
 20
3.084842
 30
0.0
 11
2.921668
 21
3.108966
 31
0.0
  0
LINE
  5
174
330
4E
100
AcDbEntity
 67
     1
  8
1
  6
CONTINUOUS
 62
    18
100
AcDbLine
 10
2.920182
 20
3.113428
 30
0.0
 11
2.921668
 21
3.108966
 31
0.0
  0
LINE
  5
175
330
4E
100
AcDbEntity
 67
     1
  8
1
  6
CONTINUOUS
 62
    18
100
AcDbLine
 10
3.437165
 20
3.595845
 30
0.0
 11
3.437165
 21
3.163842
 31
0.0
  0
LINE
  5
176
330
4E
100
AcDbEntity
 67
     1
  8
1
  6
CONTINUOUS
 62
    18
100
AcDbLine
 10
3.437165
 20
3.595845
 30
0.0
 11
3.436466
 21
3.595147
 31
0.0
  0
LINE
  5
177
330
4E
100
AcDbEntity
 67
     1
  8
1
  6
CONTINUOUS
 62
    18
100
AcDbLine
 10
3.436466
 20
3.595147
 30
0.0
 11
3.436466
 21
3.16454
 31
0.0
  0
LINE
  5
178
330
4E
100
AcDbEntity
 67
     1
  8
1
  6
CONTINUOUS
 62
    18
100
AcDbLine
 10
3.344168
 20
3.585844
 30
0.0
 11
3.344168
 21
3.58532
 31
0.0
  0
LINE
  5
179
330
4E
100
AcDbEntity
 67
     1
  8
1
  6
CONTINUOUS
 62
    18
100
AcDbLine
 10
3.304168
 20
3.58532
 30
0.0
 11
3.344168
 21
3.58532
 31
0.0
  0
LINE
  5
17A
330
4E
100
AcDbEntity
 67
     1
  8
1
  6
CONTINUOUS
 62
    18
100
AcDbLine
 10
1.489168
 20
3.58532
 30
0.0
 11
1.529108
 21
3.58532
 31
0.0
  0
LINE
  5
17B
330
4E
100
AcDbEntity
 67
     1
  8
1
  6
CONTINUOUS
 62
    18
100
AcDbLine
 10
1.489168
 20
3.585844
 30
0.0
 11
1.489168
 21
3.58532
 31
0.0
  0
LINE
  5
17C
330
4E
100
AcDbEntity
 67
     1
  8
1
  6
CONTINUOUS
 62
    18
100
AcDbLine
 10
3.436466
 20
3.595147
 30
0.0
 11
3.432448
 21
3.610145
 31
0.0
  0
LINE
  5
17D
330
4E
100
AcDbEntity
 67
     1
  8
1
  6
CONTINUOUS
 62
    18
100
AcDbLine
 10
3.432448
 20
3.610145
 30
0.0
 11
3.421469
 21
3.621124
 31
0.0
  0
LINE
  5
17E
330
4E
100
AcDbEntity
 67
     1
  8
1
  6
CONTINUOUS
 62
    18
100
AcDbLine
 10
3.421469
 20
3.621124
 30
0.0
 11
3.406471
 21
3.625142
 31
0.0
  0
LINE
  5
17F
330
4E
100
AcDbEntity
 67
     1
  8
1
  6
CONTINUOUS
 62
    18
100
AcDbLine
 10
2.498512
 20
3.625142
 30
0.0
 11
3.406471
 21
3.625142
 31
0.0
  0
LINE
  5
180
330
4E
100
AcDbEntity
 67
     1
  8
1
  6
CONTINUOUS
 62
    18
100
AcDbLine
 10
2.498512
 20
3.585844
 30
0.0
 11
3.344168
 21
3.585844
 31
0.0
  0
LINE
  5
181
330
4E
100
AcDbEntity
 67
     1
  8
1
  6
CONTINUOUS
 62
    18
100
AcDbLine
 10
1.489168
 20
3.585844
 30
0.0
 11
2.334823
 21
3.585844
 31
0.0
  0
LINE
  5
182
330
4E
100
AcDbEntity
 67
     1
  8
1
  6
CONTINUOUS
 62
    18
100
AcDbLine
 10
1.426865
 20
3.625142
 30
0.0
 11
2.334823
 21
3.625142
 31
0.0
  0
LINE
  5
183
330
4E
100
AcDbEntity
 67
     1
  8
1
  6
CONTINUOUS
 62
    18
100
AcDbLine
 10
1.426865
 20
3.625142
 30
0.0
 11
1.411866
 21
3.621124
 31
0.0
  0
LINE
  5
184
330
4E
100
AcDbEntity
 67
     1
  8
1
  6
CONTINUOUS
 62
    18
100
AcDbLine
 10
1.411866
 20
3.621124
 30
0.0
 11
1.400887
 21
3.610145
 31
0.0
  0
LINE
  5
185
330
4E
100
AcDbEntity
 67
     1
  8
1
  6
CONTINUOUS
 62
    18
100
AcDbLine
 10
1.400887
 20
3.610145
 30
0.0
 11
1.396869
 21
3.595147
 31
0.0
  0
LINE
  5
186
330
4E
100
AcDbEntity
 67
     1
  8
1
  6
CONTINUOUS
 62
    18
100
AcDbLine
 10
1.396869
 20
3.16454
 30
0.0
 11
1.396869
 21
3.595147
 31
0.0
  0
LINE
  5
187
330
4E
100
AcDbEntity
 67
     1
  8
1
  6
CONTINUOUS
 62
    18
100
AcDbLine
 10
1.396869
 20
3.595147
 30
0.0
 11
1.396171
 21
3.595845
 31
0.0
  0
LINE
  5
188
330
4E
100
AcDbEntity
 67
     1
  8
1
  6
CONTINUOUS
 62
    18
100
AcDbLine
 10
1.396171
 20
3.163842
 30
0.0
 11
1.396171
 21
3.595845
 31
0.0
  0
LINE
  5
189
330
4E
100
AcDbEntity
 67
     1
  8
1
  6
CONTINUOUS
 62
    18
100
AcDbLine
 10
3.407169
 20
3.62584
 30
0.0
 11
3.422168
 21
3.621822
 31
0.0
  0
LINE
  5
18A
330
4E
100
AcDbEntity
 67
     1
  8
1
  6
CONTINUOUS
 62
    18
100
AcDbLine
 10
3.422168
 20
3.621822
 30
0.0
 11
3.433146
 21
3.610843
 31
0.0
  0
LINE
  5
18B
330
4E
100
AcDbEntity
 67
     1
  8
1
  6
CONTINUOUS
 62
    18
100
AcDbLine
 10
3.433146
 20
3.610843
 30
0.0
 11
3.437165
 21
3.595845
 31
0.0
  0
LINE
  5
18C
330
4E
100
AcDbEntity
 67
     1
  8
1
  6
CONTINUOUS
 62
    18
100
AcDbLine
 10
1.396171
 20
3.595845
 30
0.0
 11
1.400189
 21
3.610843
 31
0.0
  0
LINE
  5
18D
330
4E
100
AcDbEntity
 67
     1
  8
1
  6
CONTINUOUS
 62
    18
100
AcDbLine
 10
1.400189
 20
3.610843
 30
0.0
 11
1.411168
 21
3.621822
 31
0.0
  0
LINE
  5
18E
330
4E
100
AcDbEntity
 67
     1
  8
1
  6
CONTINUOUS
 62
    18
100
AcDbLine
 10
1.411168
 20
3.621822
 30
0.0
 11
1.426166
 21
3.62584
 31
0.0
  0
LINE
  5
18F
330
4E
100
AcDbEntity
 67
     1
  8
1
  6
CONTINUOUS
 62
    18
100
AcDbLine
 10
1.426166
 20
3.62584
 30
0.0
 11
2.33622
 21
3.62584
 31
0.0
  0
LINE
  5
190
330
4E
100
AcDbEntity
 67
     1
  8
1
  6
CONTINUOUS
 62
    18
100
AcDbLine
 10
2.33622
 20
3.630243
 30
0.0
 11
2.34601
 21
3.630243
 31
0.0
  0
LINE
  5
191
330
4E
100
AcDbEntity
 67
     1
  8
1
  6
CONTINUOUS
 62
    18
100
AcDbLine
 10
2.487155
 20
3.630243
 30
0.0
 11
2.497115
 21
3.630243
 31
0.0
  0
LINE
  5
192
330
4E
100
AcDbEntity
 67
     1
  8
1
  6
CONTINUOUS
 62
    18
100
AcDbLine
 10
2.497115
 20
3.62584
 30
0.0
 11
3.407169
 21
3.62584
 31
0.0
  0
LINE
  5
193
330
4E
100
AcDbEntity
 67
     1
  8
1
  6
CONTINUOUS
 62
    18
100
AcDbLine
 10
2.848181
 20
6.973329
 30
0.0
 11
2.849168
 21
6.973329
 31
0.0
  0
LINE
  5
194
330
4E
100
AcDbEntity
 67
     1
  8
1
  6
CONTINUOUS
 62
    18
100
AcDbLine
 10
3.094168
 20
6.973329
 30
0.0
 11
3.095155
 21
6.973329
 31
0.0
  0
LINE
  5
195
330
4E
100
AcDbEntity
 67
     1
  8
1
  6
CONTINUOUS
 62
    18
100
AcDbLine
 10
3.095155
 20
6.973329
 30
0.0
 11
3.106467
 21
6.968643
 31
0.0
  0
LINE
  5
196
330
4E
100
AcDbEntity
 67
     1
  8
1
  6
CONTINUOUS
 62
    18
100
AcDbLine
 10
3.106467
 20
6.968643
 30
0.0
 11
3.111153
 21
6.957331
 31
0.0
  0
LINE
  5
197
330
4E
100
AcDbEntity
 67
     1
  8
1
  6
CONTINUOUS
 62
    18
100
AcDbLine
 10
3.111153
 20
6.957331
 30
0.0
 11
3.111153
 21
6.927259
 31
0.0
  0
LINE
  5
198
330
4E
100
AcDbEntity
 67
     1
  8
1
  6
CONTINUOUS
 62
    18
100
AcDbLine
 10
3.111153
 20
6.927259
 30
0.0
 11
3.106471
 21
6.915939
 31
0.0
  0
LINE
  5
199
330
4E
100
AcDbEntity
 67
     1
  8
1
  6
CONTINUOUS
 62
    18
100
AcDbLine
 10
3.106471
 20
6.915939
 30
0.0
 11
3.095165
 21
6.911252
 31
0.0
  0
LINE
  5
19A
330
4E
100
AcDbEntity
 67
     1
  8
1
  6
CONTINUOUS
 62
    18
100
AcDbLine
 10
3.095165
 20
6.911252
 30
0.0
 11
2.848171
 21
6.911252
 31
0.0
  0
LINE
  5
19B
330
4E
100
AcDbEntity
 67
     1
  8
1
  6
CONTINUOUS
 62
    18
100
AcDbLine
 10
2.848171
 20
6.911252
 30
0.0
 11
2.836865
 21
6.915939
 31
0.0
  0
LINE
  5
19C
330
4E
100
AcDbEntity
 67
     1
  8
1
  6
CONTINUOUS
 62
    18
100
AcDbLine
 10
2.836865
 20
6.915939
 30
0.0
 11
2.832183
 21
6.927259
 31
0.0
  0
LINE
  5
19D
330
4E
100
AcDbEntity
 67
     1
  8
1
  6
CONTINUOUS
 62
    18
100
AcDbLine
 10
2.832183
 20
6.927259
 30
0.0
 11
2.832183
 21
6.957331
 31
0.0
  0
LINE
  5
19E
330
4E
100
AcDbEntity
 67
     1
  8
1
  6
CONTINUOUS
 62
    18
100
AcDbLine
 10
2.832183
 20
6.957331
 30
0.0
 11
2.836868
 21
6.968643
 31
0.0
  0
LINE
  5
19F
330
4E
100
AcDbEntity
 67
     1
  8
1
  6
CONTINUOUS
 62
    18
100
AcDbLine
 10
2.836868
 20
6.968643
 30
0.0
 11
2.848181
 21
6.973329
 31
0.0
  0
LINE
  5
1A0
330
4E
100
AcDbEntity
 67
     1
  8
1
  6
CONTINUOUS
 62
    18
100
AcDbLine
 10
1.984168
 20
6.973329
 30
0.0
 11
1.985155
 21
6.973329
 31
0.0
  0
LINE
  5
1A1
330
4E
100
AcDbEntity
 67
     1
  8
1
  6
CONTINUOUS
 62
    18
100
AcDbLine
 10
1.985155
 20
6.973329
 30
0.0
 11
1.996467
 21
6.968643
 31
0.0
  0
LINE
  5
1A2
330
4E
100
AcDbEntity
 67
     1
  8
1
  6
CONTINUOUS
 62
    18
100
AcDbLine
 10
1.996467
 20
6.968643
 30
0.0
 11
2.001153
 21
6.957331
 31
0.0
  0
LINE
  5
1A3
330
4E
100
AcDbEntity
 67
     1
  8
1
  6
CONTINUOUS
 62
    18
100
AcDbLine
 10
2.001153
 20
6.957331
 30
0.0
 11
2.001153
 21
6.927259
 31
0.0
  0
LINE
  5
1A4
330
4E
100
AcDbEntity
 67
     1
  8
1
  6
CONTINUOUS
 62
    18
100
AcDbLine
 10
2.001153
 20
6.927259
 30
0.0
 11
1.996471
 21
6.915939
 31
0.0
  0
LINE
  5
1A5
330
4E
100
AcDbEntity
 67
     1
  8
1
  6
CONTINUOUS
 62
    18
100
AcDbLine
 10
1.996471
 20
6.915939
 30
0.0
 11
1.985165
 21
6.911252
 31
0.0
  0
LINE
  5
1A6
330
4E
100
AcDbEntity
 67
     1
  8
1
  6
CONTINUOUS
 62
    18
100
AcDbLine
 10
1.985165
 20
6.911252
 30
0.0
 11
1.738171
 21
6.911252
 31
0.0
  0
LINE
  5
1A7
330
4E
100
AcDbEntity
 67
     1
  8
1
  6
CONTINUOUS
 62
    18
100
AcDbLine
 10
1.738171
 20
6.911252
 30
0.0
 11
1.726865
 21
6.915939
 31
0.0
  0
LINE
  5
1A8
330
4E
100
AcDbEntity
 67
     1
  8
1
  6
CONTINUOUS
 62
    18
100
AcDbLine
 10
1.726865
 20
6.915939
 30
0.0
 11
1.722183
 21
6.927259
 31
0.0
  0
LINE
  5
1A9
330
4E
100
AcDbEntity
 67
     1
  8
1
  6
CONTINUOUS
 62
    18
100
AcDbLine
 10
1.722183
 20
6.927259
 30
0.0
 11
1.722183
 21
6.957331
 31
0.0
  0
LINE
  5
1AA
330
4E
100
AcDbEntity
 67
     1
  8
1
  6
CONTINUOUS
 62
    18
100
AcDbLine
 10
1.722183
 20
6.957331
 30
0.0
 11
1.726868
 21
6.968643
 31
0.0
  0
LINE
  5
1AB
330
4E
100
AcDbEntity
 67
     1
  8
1
  6
CONTINUOUS
 62
    18
100
AcDbLine
 10
1.726868
 20
6.968643
 30
0.0
 11
1.738181
 21
6.973329
 31
0.0
  0
LINE
  5
1AC
330
4E
100
AcDbEntity
 67
     1
  8
1
  6
CONTINUOUS
 62
    18
100
AcDbLine
 10
1.738181
 20
6.973329
 30
0.0
 11
1.739168
 21
6.973329
 31
0.0
  0
LINE
  5
1AD
330
4E
100
AcDbEntity
 67
     1
  8
1
  6
CONTINUOUS
 62
    18
100
AcDbLine
 10
3.407169
 20
6.90684
 30
0.0
 11
3.422168
 21
6.902822
 31
0.0
  0
LINE
  5
1AE
330
4E
100
AcDbEntity
 67
     1
  8
1
  6
CONTINUOUS
 62
    18
100
AcDbLine
 10
3.422168
 20
6.902822
 30
0.0
 11
3.433146
 21
6.891843
 31
0.0
  0
LINE
  5
1AF
330
4E
100
AcDbEntity
 67
     1
  8
1
  6
CONTINUOUS
 62
    18
100
AcDbLine
 10
3.433146
 20
6.891843
 30
0.0
 11
3.437165
 21
6.876845
 31
0.0
  0
LINE
  5
1B0
330
4E
100
AcDbEntity
 67
     1
  8
1
  6
CONTINUOUS
 62
    18
100
AcDbLine
 10
3.437165
 20
6.876845
 30
0.0
 11
3.437165
 21
6.444842
 31
0.0
  0
LINE
  5
1B1
330
4E
100
AcDbEntity
 67
     1
  8
1
  6
CONTINUOUS
 62
    18
100
AcDbLine
 10
3.437165
 20
6.444842
 30
0.0
 11
3.433146
 21
6.429843
 31
0.0
  0
LINE
  5
1B2
330
4E
100
AcDbEntity
 67
     1
  8
1
  6
CONTINUOUS
 62
    18
100
AcDbLine
 10
3.433146
 20
6.429843
 30
0.0
 11
3.422168
 21
6.418865
 31
0.0
  0
LINE
  5
1B3
330
4E
100
AcDbEntity
 67
     1
  8
1
  6
CONTINUOUS
 62
    18
100
AcDbLine
 10
3.422168
 20
6.418865
 30
0.0
 11
3.407169
 21
6.414846
 31
0.0
  0
LINE
  5
1B4
330
4E
100
AcDbEntity
 67
     1
  8
1
  6
CONTINUOUS
 62
    18
100
AcDbLine
 10
2.497115
 20
6.414846
 30
0.0
 11
3.407169
 21
6.414846
 31
0.0
  0
LINE
  5
1B5
330
4E
100
AcDbEntity
 67
     1
  8
1
  6
CONTINUOUS
 62
    18
100
AcDbLine
 10
2.497115
 20
6.414846
 30
0.0
 11
2.497115
 21
6.410444
 31
0.0
  0
LINE
  5
1B6
330
4E
100
AcDbEntity
 67
     1
  8
1
  6
CONTINUOUS
 62
    18
100
AcDbLine
 10
2.497115
 20
6.410444
 30
0.0
 11
2.487155
 21
6.410444
 31
0.0
  0
LINE
  5
1B7
330
4E
100
AcDbEntity
 67
     1
  8
1
  6
CONTINUOUS
 62
    18
100
AcDbLine
 10
2.34601
 20
6.410444
 30
0.0
 11
2.33622
 21
6.410444
 31
0.0
  0
LINE
  5
1B8
330
4E
100
AcDbEntity
 67
     1
  8
1
  6
CONTINUOUS
 62
    18
100
AcDbLine
 10
2.33622
 20
6.410444
 30
0.0
 11
2.33622
 21
6.414846
 31
0.0
  0
LINE
  5
1B9
330
4E
100
AcDbEntity
 67
     1
  8
1
  6
CONTINUOUS
 62
    18
100
AcDbLine
 10
1.426166
 20
6.414846
 30
0.0
 11
2.33622
 21
6.414846
 31
0.0
  0
LINE
  5
1BA
330
4E
100
AcDbEntity
 67
     1
  8
1
  6
CONTINUOUS
 62
    18
100
AcDbLine
 10
1.426166
 20
6.414846
 30
0.0
 11
1.411168
 21
6.418865
 31
0.0
  0
LINE
  5
1BB
330
4E
100
AcDbEntity
 67
     1
  8
1
  6
CONTINUOUS
 62
    18
100
AcDbLine
 10
1.411168
 20
6.418865
 30
0.0
 11
1.400189
 21
6.429843
 31
0.0
  0
LINE
  5
1BC
330
4E
100
AcDbEntity
 67
     1
  8
1
  6
CONTINUOUS
 62
    18
100
AcDbLine
 10
1.400189
 20
6.429843
 30
0.0
 11
1.396171
 21
6.444842
 31
0.0
  0
LINE
  5
1BD
330
4E
100
AcDbEntity
 67
     1
  8
1
  6
CONTINUOUS
 62
    18
100
AcDbLine
 10
1.396171
 20
6.444842
 30
0.0
 11
1.396171
 21
6.876845
 31
0.0
  0
LINE
  5
1BE
330
4E
100
AcDbEntity
 67
     1
  8
1
  6
CONTINUOUS
 62
    18
100
AcDbLine
 10
1.396171
 20
6.876845
 30
0.0
 11
1.400189
 21
6.891843
 31
0.0
  0
LINE
  5
1BF
330
4E
100
AcDbEntity
 67
     1
  8
1
  6
CONTINUOUS
 62
    18
100
AcDbLine
 10
1.400189
 20
6.891843
 30
0.0
 11
1.411168
 21
6.902822
 31
0.0
  0
LINE
  5
1C0
330
4E
100
AcDbEntity
 67
     1
  8
1
  6
CONTINUOUS
 62
    18
100
AcDbLine
 10
1.411168
 20
6.902822
 30
0.0
 11
1.426166
 21
6.90684
 31
0.0
  0
LINE
  5
1C1
330
4E
100
AcDbEntity
 67
     1
  8
1
  6
CONTINUOUS
 62
    18
100
AcDbLine
 10
1.426166
 20
6.90684
 30
0.0
 11
3.407169
 21
6.90684
 31
0.0
  0
LINE
  5
1C2
330
4E
100
AcDbEntity
 67
     1
  8
1
  6
CONTINUOUS
 62
    18
100
AcDbLine
 10
3.344168
 20
6.455367
 30
0.0
 11
3.304228
 21
6.455367
 31
0.0
  0
LINE
  5
1C3
330
4E
100
AcDbEntity
 67
     1
  8
1
  6
CONTINUOUS
 62
    18
100
AcDbLine
 10
3.353644
 20
6.856843
 30
0.0
 11
3.353644
 21
6.464844
 31
0.0
  0
LINE
  5
1C4
330
4E
100
AcDbEntity
 67
     1
  8
1
  6
CONTINUOUS
 62
    18
100
AcDbLine
 10
3.304228
 20
6.86632
 30
0.0
 11
3.344168
 21
6.86632
 31
0.0
  0
LINE
  5
1C5
330
4E
100
AcDbEntity
 67
     1
  8
1
  6
CONTINUOUS
 62
    18
100
AcDbLine
 10
3.354168
 20
6.464844
 30
0.0
 11
3.353644
 21
6.464844
 31
0.0
  0
LINE
  5
1C6
330
4E
100
AcDbEntity
 67
     1
  8
1
  6
CONTINUOUS
 62
    18
100
AcDbLine
 10
3.344168
 20
6.454844
 30
0.0
 11
3.344168
 21
6.455367
 31
0.0
  0
LINE
  5
1C7
330
4E
100
AcDbEntity
 67
     1
  8
1
  6
CONTINUOUS
 62
    18
100
AcDbLine
 10
3.354168
 20
6.856843
 30
0.0
 11
3.354168
 21
6.464844
 31
0.0
  0
LINE
  5
1C8
330
4E
100
AcDbEntity
 67
     1
  8
1
  6
CONTINUOUS
 62
    18
100
AcDbLine
 10
3.354168
 20
6.856843
 30
0.0
 11
3.353644
 21
6.856843
 31
0.0
  0
LINE
  5
1C9
330
4E
100
AcDbEntity
 67
     1
  8
1
  6
CONTINUOUS
 62
    18
100
AcDbLine
 10
3.344168
 20
6.866844
 30
0.0
 11
3.344168
 21
6.86632
 31
0.0
  0
LINE
  5
1CA
330
4E
100
AcDbEntity
 67
     1
  8
1
  6
CONTINUOUS
 62
    18
100
AcDbLine
 10
1.479168
 20
6.856843
 30
0.0
 11
1.479692
 21
6.856843
 31
0.0
  0
LINE
  5
1CB
330
4E
100
AcDbEntity
 67
     1
  8
1
  6
CONTINUOUS
 62
    18
100
AcDbLine
 10
1.489168
 20
6.866844
 30
0.0
 11
1.489168
 21
6.86632
 31
0.0
  0
LINE
  5
1CC
330
4E
100
AcDbEntity
 67
     1
  8
1
  6
CONTINUOUS
 62
    18
100
AcDbLine
 10
1.479168
 20
6.856843
 30
0.0
 11
1.479168
 21
6.464844
 31
0.0
  0
LINE
  5
1CD
330
4E
100
AcDbEntity
 67
     1
  8
1
  6
CONTINUOUS
 62
    18
100
AcDbLine
 10
1.479168
 20
6.464844
 30
0.0
 11
1.479692
 21
6.464844
 31
0.0
  0
LINE
  5
1CE
330
4E
100
AcDbEntity
 67
     1
  8
1
  6
CONTINUOUS
 62
    18
100
AcDbLine
 10
1.479692
 20
6.464844
 30
0.0
 11
1.479692
 21
6.856843
 31
0.0
  0
LINE
  5
1CF
330
4E
100
AcDbEntity
 67
     1
  8
1
  6
CONTINUOUS
 62
    18
100
AcDbLine
 10
1.489168
 20
6.454844
 30
0.0
 11
1.489168
 21
6.455367
 31
0.0
  0
LINE
  5
1D0
330
4E
100
AcDbEntity
 67
     1
  8
1
  6
CONTINUOUS
 62
    18
100
AcDbLine
 10
1.529108
 20
6.455367
 30
0.0
 11
1.489168
 21
6.455367
 31
0.0
  0
LINE
  5
1D1
330
4E
100
AcDbEntity
 67
     1
  8
1
  6
CONTINUOUS
 62
    18
100
AcDbLine
 10
1.489168
 20
6.86632
 30
0.0
 11
1.529108
 21
6.86632
 31
0.0
  0
LINE
  5
1D2
330
4E
100
AcDbEntity
 67
     1
  8
1
  6
CONTINUOUS
 62
    18
100
AcDbLine
 10
1.489168
 20
6.866844
 30
0.0
 11
3.344168
 21
6.866844
 31
0.0
  0
LINE
  5
1D3
330
4E
100
AcDbEntity
 67
     1
  8
1
  6
CONTINUOUS
 62
    18
100
AcDbLine
 10
1.529108
 20
6.86632
 30
0.0
 11
1.529412
 21
6.866045
 31
0.0
  0
LINE
  5
1D4
330
4E
100
AcDbEntity
 67
     1
  8
1
  6
CONTINUOUS
 62
    18
100
AcDbLine
 10
1.529412
 20
6.866045
 30
0.0
 11
1.529679
 21
6.865796
 31
0.0
  0
LINE
  5
1D5
330
4E
100
AcDbEntity
 67
     1
  8
1
  6
CONTINUOUS
 62
    18
100
AcDbLine
 10
1.529679
 20
6.865796
 30
0.0
 11
3.303656
 21
6.865796
 31
0.0
  0
LINE
  5
1D6
330
4E
100
AcDbEntity
 67
     1
  8
1
  6
CONTINUOUS
 62
    18
100
AcDbLine
 10
3.303656
 20
6.865796
 30
0.0
 11
3.30397
 21
6.866088
 31
0.0
  0
LINE
  5
1D7
330
4E
100
AcDbEntity
 67
     1
  8
1
  6
CONTINUOUS
 62
    18
100
AcDbLine
 10
3.30397
 20
6.866088
 30
0.0
 11
3.304228
 21
6.86632
 31
0.0
  0
LINE
  5
1D8
330
4E
100
AcDbEntity
 67
     1
  8
1
  6
CONTINUOUS
 62
    18
100
AcDbLine
 10
1.426166
 20
6.90684
 30
0.0
 11
1.426865
 21
6.906142
 31
0.0
  0
LINE
  5
1D9
330
4E
100
AcDbEntity
 67
     1
  8
1
  6
CONTINUOUS
 62
    18
100
AcDbLine
 10
1.426865
 20
6.906142
 30
0.0
 11
3.406471
 21
6.906142
 31
0.0
  0
LINE
  5
1DA
330
4E
100
AcDbEntity
 67
     1
  8
1
  6
CONTINUOUS
 62
    18
100
AcDbLine
 10
3.406471
 20
6.906142
 30
0.0
 11
3.407169
 21
6.90684
 31
0.0
  0
LINE
  5
1DB
330
4E
100
AcDbEntity
 67
     1
  8
1
  6
CONTINUOUS
 62
    18
100
AcDbLine
 10
1.396869
 20
6.876147
 30
0.0
 11
1.396171
 21
6.876845
 31
0.0
  0
LINE
  5
1DC
330
4E
100
AcDbEntity
 67
     1
  8
1
  6
CONTINUOUS
 62
    18
100
AcDbLine
 10
1.426865
 20
6.906142
 30
0.0
 11
1.411866
 21
6.902124
 31
0.0
  0
LINE
  5
1DD
330
4E
100
AcDbEntity
 67
     1
  8
1
  6
CONTINUOUS
 62
    18
100
AcDbLine
 10
1.411866
 20
6.902124
 30
0.0
 11
1.400887
 21
6.891145
 31
0.0
  0
LINE
  5
1DE
330
4E
100
AcDbEntity
 67
     1
  8
1
  6
CONTINUOUS
 62
    18
100
AcDbLine
 10
1.400887
 20
6.891145
 30
0.0
 11
1.396869
 21
6.876147
 31
0.0
  0
LINE
  5
1DF
330
4E
100
AcDbEntity
 67
     1
  8
1
  6
CONTINUOUS
 62
    18
100
AcDbLine
 10
1.396171
 20
6.444842
 30
0.0
 11
1.396869
 21
6.44554
 31
0.0
  0
LINE
  5
1E0
330
4E
100
AcDbEntity
 67
     1
  8
1
  6
CONTINUOUS
 62
    18
100
AcDbLine
 10
1.396869
 20
6.44554
 30
0.0
 11
1.396869
 21
6.876147
 31
0.0
  0
LINE
  5
1E1
330
4E
100
AcDbEntity
 67
     1
  8
1
  6
CONTINUOUS
 62
    18
100
AcDbLine
 10
1.426865
 20
6.415545
 30
0.0
 11
1.426166
 21
6.414846
 31
0.0
  0
LINE
  5
1E2
330
4E
100
AcDbEntity
 67
     1
  8
1
  6
CONTINUOUS
 62
    18
100
AcDbLine
 10
1.396869
 20
6.44554
 30
0.0
 11
1.400887
 21
6.430542
 31
0.0
  0
LINE
  5
1E3
330
4E
100
AcDbEntity
 67
     1
  8
1
  6
CONTINUOUS
 62
    18
100
AcDbLine
 10
1.400887
 20
6.430542
 30
0.0
 11
1.411866
 21
6.419563
 31
0.0
  0
LINE
  5
1E4
330
4E
100
AcDbEntity
 67
     1
  8
1
  6
CONTINUOUS
 62
    18
100
AcDbLine
 10
1.411866
 20
6.419563
 30
0.0
 11
1.426865
 21
6.415545
 31
0.0
  0
LINE
  5
1E5
330
4E
100
AcDbEntity
 67
     1
  8
1
  6
CONTINUOUS
 62
    18
100
AcDbLine
 10
3.436466
 20
6.44554
 30
0.0
 11
3.437165
 21
6.444842
 31
0.0
  0
LINE
  5
1E6
330
4E
100
AcDbEntity
 67
     1
  8
1
  6
CONTINUOUS
 62
    18
100
AcDbLine
 10
3.406471
 20
6.415545
 30
0.0
 11
3.421469
 21
6.419563
 31
0.0
  0
LINE
  5
1E7
330
4E
100
AcDbEntity
 67
     1
  8
1
  6
CONTINUOUS
 62
    18
100
AcDbLine
 10
3.421469
 20
6.419563
 30
0.0
 11
3.432448
 21
6.430542
 31
0.0
  0
LINE
  5
1E8
330
4E
100
AcDbEntity
 67
     1
  8
1
  6
CONTINUOUS
 62
    18
100
AcDbLine
 10
3.432448
 20
6.430542
 30
0.0
 11
3.436466
 21
6.44554
 31
0.0
  0
LINE
  5
1E9
330
4E
100
AcDbEntity
 67
     1
  8
1
  6
CONTINUOUS
 62
    18
100
AcDbLine
 10
3.407169
 20
6.414846
 30
0.0
 11
3.406471
 21
6.415545
 31
0.0
  0
LINE
  5
1EA
330
4E
100
AcDbEntity
 67
     1
  8
1
  6
CONTINUOUS
 62
    18
100
AcDbLine
 10
3.436466
 20
6.876147
 30
0.0
 11
3.436466
 21
6.44554
 31
0.0
  0
LINE
  5
1EB
330
4E
100
AcDbEntity
 67
     1
  8
1
  6
CONTINUOUS
 62
    18
100
AcDbLine
 10
3.437165
 20
6.876845
 30
0.0
 11
3.436466
 21
6.876147
 31
0.0
  0
LINE
  5
1EC
330
4E
100
AcDbEntity
 67
     1
  8
1
  6
CONTINUOUS
 62
    18
100
AcDbLine
 10
3.436466
 20
6.876147
 30
0.0
 11
3.432448
 21
6.891145
 31
0.0
  0
LINE
  5
1ED
330
4E
100
AcDbEntity
 67
     1
  8
1
  6
CONTINUOUS
 62
    18
100
AcDbLine
 10
3.432448
 20
6.891145
 30
0.0
 11
3.421469
 21
6.902124
 31
0.0
  0
LINE
  5
1EE
330
4E
100
AcDbEntity
 67
     1
  8
1
  6
CONTINUOUS
 62
    18
100
AcDbLine
 10
3.421469
 20
6.902124
 30
0.0
 11
3.406471
 21
6.906142
 31
0.0
  0
LINE
  5
1EF
330
4E
100
AcDbEntity
 67
     1
  8
1
  6
CONTINUOUS
 62
    18
100
AcDbLine
 10
1.738181
 20
6.973329
 30
0.0
 11
1.738181
 21
6.967721
 31
0.0
  0
LINE
  5
1F0
330
4E
100
AcDbEntity
 67
     1
  8
1
  6
CONTINUOUS
 62
    18
100
AcDbLine
 10
1.738181
 20
6.967721
 30
0.0
 11
1.738181
 21
6.96533
 31
0.0
  0
LINE
  5
1F1
330
4E
100
AcDbEntity
 67
     1
  8
1
  6
CONTINUOUS
 62
    18
100
AcDbLine
 10
1.739168
 20
6.96533
 30
0.0
 11
1.738181
 21
6.96533
 31
0.0
  0
LINE
  5
1F2
330
4E
100
AcDbEntity
 67
     1
  8
1
  6
CONTINUOUS
 62
    18
100
AcDbLine
 10
1.722183
 20
6.957331
 30
0.0
 11
1.72779
 21
6.957331
 31
0.0
  0
LINE
  5
1F3
330
4E
100
AcDbEntity
 67
     1
  8
1
  6
CONTINUOUS
 62
    18
100
AcDbLine
 10
1.72779
 20
6.957331
 30
0.0
 11
1.730182
 21
6.957331
 31
0.0
  0
LINE
  5
1F4
330
4E
100
AcDbEntity
 67
     1
  8
1
  6
CONTINUOUS
 62
    18
100
AcDbLine
 10
1.738181
 20
6.96533
 30
0.0
 11
1.732523
 21
6.962988
 31
0.0
  0
LINE
  5
1F5
330
4E
100
AcDbEntity
 67
     1
  8
1
  6
CONTINUOUS
 62
    18
100
AcDbLine
 10
1.732523
 20
6.962988
 30
0.0
 11
1.730182
 21
6.957331
 31
0.0
  0
LINE
  5
1F6
330
4E
100
AcDbEntity
 67
     1
  8
1
  6
CONTINUOUS
 62
    18
100
AcDbLine
 10
1.730182
 20
6.927259
 30
0.0
 11
1.72779
 21
6.927259
 31
0.0
  0
LINE
  5
1F7
330
4E
100
AcDbEntity
 67
     1
  8
1
  6
CONTINUOUS
 62
    18
100
AcDbLine
 10
1.72779
 20
6.927259
 30
0.0
 11
1.722183
 21
6.927259
 31
0.0
  0
LINE
  5
1F8
330
4E
100
AcDbEntity
 67
     1
  8
1
  6
CONTINUOUS
 62
    18
100
AcDbLine
 10
1.730182
 20
6.957331
 30
0.0
 11
1.730182
 21
6.927259
 31
0.0
  0
LINE
  5
1F9
330
4E
100
AcDbEntity
 67
     1
  8
1
  6
CONTINUOUS
 62
    18
100
AcDbLine
 10
1.738171
 20
6.919241
 30
0.0
 11
1.738171
 21
6.916759
 31
0.0
  0
LINE
  5
1FA
330
4E
100
AcDbEntity
 67
     1
  8
1
  6
CONTINUOUS
 62
    18
100
AcDbLine
 10
1.738171
 20
6.916759
 30
0.0
 11
1.738171
 21
6.911252
 31
0.0
  0
LINE
  5
1FB
330
4E
100
AcDbEntity
 67
     1
  8
1
  6
CONTINUOUS
 62
    18
100
AcDbLine
 10
1.730182
 20
6.927259
 30
0.0
 11
1.732518
 21
6.921586
 31
0.0
  0
LINE
  5
1FC
330
4E
100
AcDbEntity
 67
     1
  8
1
  6
CONTINUOUS
 62
    18
100
AcDbLine
 10
1.732518
 20
6.921586
 30
0.0
 11
1.738171
 21
6.919241
 31
0.0
  0
LINE
  5
1FD
330
4E
100
AcDbEntity
 67
     1
  8
1
  6
CONTINUOUS
 62
    18
100
AcDbLine
 10
1.985165
 20
6.919241
 30
0.0
 11
1.985165
 21
6.916759
 31
0.0
  0
LINE
  5
1FE
330
4E
100
AcDbEntity
 67
     1
  8
1
  6
CONTINUOUS
 62
    18
100
AcDbLine
 10
1.985165
 20
6.916759
 30
0.0
 11
1.985165
 21
6.911252
 31
0.0
  0
LINE
  5
1FF
330
4E
100
AcDbEntity
 67
     1
  8
1
  6
CONTINUOUS
 62
    18
100
AcDbLine
 10
1.738171
 20
6.919241
 30
0.0
 11
1.985165
 21
6.919241
 31
0.0
  0
LINE
  5
200
330
4E
100
AcDbEntity
 67
     1
  8
1
  6
CONTINUOUS
 62
    18
100
AcDbLine
 10
1.993154
 20
6.927259
 30
0.0
 11
1.995545
 21
6.927259
 31
0.0
  0
LINE
  5
201
330
4E
100
AcDbEntity
 67
     1
  8
1
  6
CONTINUOUS
 62
    18
100
AcDbLine
 10
1.995545
 20
6.927259
 30
0.0
 11
2.001153
 21
6.927259
 31
0.0
  0
LINE
  5
202
330
4E
100
AcDbEntity
 67
     1
  8
1
  6
CONTINUOUS
 62
    18
100
AcDbLine
 10
1.985165
 20
6.919241
 30
0.0
 11
1.990817
 21
6.921586
 31
0.0
  0
LINE
  5
203
330
4E
100
AcDbEntity
 67
     1
  8
1
  6
CONTINUOUS
 62
    18
100
AcDbLine
 10
1.990817
 20
6.921586
 30
0.0
 11
1.993154
 21
6.927259
 31
0.0
  0
LINE
  5
204
330
4E
100
AcDbEntity
 67
     1
  8
1
  6
CONTINUOUS
 62
    18
100
AcDbLine
 10
1.993154
 20
6.957331
 30
0.0
 11
1.995545
 21
6.957331
 31
0.0
  0
LINE
  5
205
330
4E
100
AcDbEntity
 67
     1
  8
1
  6
CONTINUOUS
 62
    18
100
AcDbLine
 10
1.995545
 20
6.957331
 30
0.0
 11
2.001153
 21
6.957331
 31
0.0
  0
LINE
  5
206
330
4E
100
AcDbEntity
 67
     1
  8
1
  6
CONTINUOUS
 62
    18
100
AcDbLine
 10
1.993154
 20
6.927259
 30
0.0
 11
1.993154
 21
6.957331
 31
0.0
  0
LINE
  5
207
330
4E
100
AcDbEntity
 67
     1
  8
1
  6
CONTINUOUS
 62
    18
100
AcDbLine
 10
1.985155
 20
6.96533
 30
0.0
 11
1.985155
 21
6.967721
 31
0.0
  0
LINE
  5
208
330
4E
100
AcDbEntity
 67
     1
  8
1
  6
CONTINUOUS
 62
    18
100
AcDbLine
 10
1.985155
 20
6.967721
 30
0.0
 11
1.985155
 21
6.973329
 31
0.0
  0
LINE
  5
209
330
4E
100
AcDbEntity
 67
     1
  8
1
  6
CONTINUOUS
 62
    18
100
AcDbLine
 10
1.993154
 20
6.957331
 30
0.0
 11
1.990812
 21
6.962988
 31
0.0
  0
LINE
  5
20A
330
4E
100
AcDbEntity
 67
     1
  8
1
  6
CONTINUOUS
 62
    18
100
AcDbLine
 10
1.990812
 20
6.962988
 30
0.0
 11
1.985155
 21
6.96533
 31
0.0
  0
LINE
  5
20B
330
4E
100
AcDbEntity
 67
     1
  8
1
  6
CONTINUOUS
 62
    18
100
AcDbLine
 10
1.985155
 20
6.96533
 30
0.0
 11
1.984167
 21
6.96533
 31
0.0
  0
LINE
  5
20C
330
4E
100
AcDbEntity
 67
     1
  8
1
  6
CONTINUOUS
 62
    18
100
AcDbLine
 10
2.832183
 20
6.957331
 30
0.0
 11
2.83779
 21
6.957331
 31
0.0
  0
LINE
  5
20D
330
4E
100
AcDbEntity
 67
     1
  8
1
  6
CONTINUOUS
 62
    18
100
AcDbLine
 10
2.83779
 20
6.957331
 30
0.0
 11
2.840182
 21
6.957331
 31
0.0
  0
LINE
  5
20E
330
4E
100
AcDbEntity
 67
     1
  8
1
  6
CONTINUOUS
 62
    18
100
AcDbLine
 10
2.848181
 20
6.96533
 30
0.0
 11
2.842523
 21
6.962988
 31
0.0
  0
LINE
  5
20F
330
4E
100
AcDbEntity
 67
     1
  8
1
  6
CONTINUOUS
 62
    18
100
AcDbLine
 10
2.842523
 20
6.962988
 30
0.0
 11
2.840182
 21
6.957331
 31
0.0
  0
LINE
  5
210
330
4E
100
AcDbEntity
 67
     1
  8
1
  6
CONTINUOUS
 62
    18
100
AcDbLine
 10
2.848181
 20
6.973329
 30
0.0
 11
2.848181
 21
6.967721
 31
0.0
  0
LINE
  5
211
330
4E
100
AcDbEntity
 67
     1
  8
1
  6
CONTINUOUS
 62
    18
100
AcDbLine
 10
2.848181
 20
6.967721
 30
0.0
 11
2.848181
 21
6.96533
 31
0.0
  0
LINE
  5
212
330
4E
100
AcDbEntity
 67
     1
  8
1
  6
CONTINUOUS
 62
    18
100
AcDbLine
 10
2.832183
 20
6.927259
 30
0.0
 11
2.83779
 21
6.927259
 31
0.0
  0
LINE
  5
213
330
4E
100
AcDbEntity
 67
     1
  8
1
  6
CONTINUOUS
 62
    18
100
AcDbLine
 10
2.83779
 20
6.927259
 30
0.0
 11
2.840182
 21
6.927259
 31
0.0
  0
LINE
  5
214
330
4E
100
AcDbEntity
 67
     1
  8
1
  6
CONTINUOUS
 62
    18
100
AcDbLine
 10
2.840182
 20
6.957331
 30
0.0
 11
2.840182
 21
6.927259
 31
0.0
  0
LINE
  5
215
330
4E
100
AcDbEntity
 67
     1
  8
1
  6
CONTINUOUS
 62
    18
100
AcDbLine
 10
2.848171
 20
6.911252
 30
0.0
 11
2.848171
 21
6.916759
 31
0.0
  0
LINE
  5
216
330
4E
100
AcDbEntity
 67
     1
  8
1
  6
CONTINUOUS
 62
    18
100
AcDbLine
 10
2.848171
 20
6.916759
 30
0.0
 11
2.848171
 21
6.919241
 31
0.0
  0
LINE
  5
217
330
4E
100
AcDbEntity
 67
     1
  8
1
  6
CONTINUOUS
 62
    18
100
AcDbLine
 10
2.840182
 20
6.927259
 30
0.0
 11
2.842518
 21
6.921586
 31
0.0
  0
LINE
  5
218
330
4E
100
AcDbEntity
 67
     1
  8
1
  6
CONTINUOUS
 62
    18
100
AcDbLine
 10
2.842518
 20
6.921586
 30
0.0
 11
2.848171
 21
6.919241
 31
0.0
  0
LINE
  5
219
330
4E
100
AcDbEntity
 67
     1
  8
1
  6
CONTINUOUS
 62
    18
100
AcDbLine
 10
3.095165
 20
6.911252
 30
0.0
 11
3.095165
 21
6.916759
 31
0.0
  0
LINE
  5
21A
330
4E
100
AcDbEntity
 67
     1
  8
1
  6
CONTINUOUS
 62
    18
100
AcDbLine
 10
3.095165
 20
6.916759
 30
0.0
 11
3.095165
 21
6.919241
 31
0.0
  0
LINE
  5
21B
330
4E
100
AcDbEntity
 67
     1
  8
1
  6
CONTINUOUS
 62
    18
100
AcDbLine
 10
2.848171
 20
6.919241
 30
0.0
 11
3.095165
 21
6.919241
 31
0.0
  0
LINE
  5
21C
330
4E
100
AcDbEntity
 67
     1
  8
1
  6
CONTINUOUS
 62
    18
100
AcDbLine
 10
3.111153
 20
6.927259
 30
0.0
 11
3.105546
 21
6.927259
 31
0.0
  0
LINE
  5
21D
330
4E
100
AcDbEntity
 67
     1
  8
1
  6
CONTINUOUS
 62
    18
100
AcDbLine
 10
3.105546
 20
6.927259
 30
0.0
 11
3.103154
 21
6.927259
 31
0.0
  0
LINE
  5
21E
330
4E
100
AcDbEntity
 67
     1
  8
1
  6
CONTINUOUS
 62
    18
100
AcDbLine
 10
3.095165
 20
6.919241
 30
0.0
 11
3.100817
 21
6.921586
 31
0.0
  0
LINE
  5
21F
330
4E
100
AcDbEntity
 67
     1
  8
1
  6
CONTINUOUS
 62
    18
100
AcDbLine
 10
3.100817
 20
6.921586
 30
0.0
 11
3.103154
 21
6.927259
 31
0.0
  0
LINE
  5
220
330
4E
100
AcDbEntity
 67
     1
  8
1
  6
CONTINUOUS
 62
    18
100
AcDbLine
 10
3.103154
 20
6.957331
 30
0.0
 11
3.105546
 21
6.957331
 31
0.0
  0
LINE
  5
221
330
4E
100
AcDbEntity
 67
     1
  8
1
  6
CONTINUOUS
 62
    18
100
AcDbLine
 10
3.105546
 20
6.957331
 30
0.0
 11
3.111153
 21
6.957331
 31
0.0
  0
LINE
  5
222
330
4E
100
AcDbEntity
 67
     1
  8
1
  6
CONTINUOUS
 62
    18
100
AcDbLine
 10
3.103154
 20
6.927259
 30
0.0
 11
3.103154
 21
6.957331
 31
0.0
  0
LINE
  5
223
330
4E
100
AcDbEntity
 67
     1
  8
1
  6
CONTINUOUS
 62
    18
100
AcDbLine
 10
3.095155
 20
6.96533
 30
0.0
 11
3.095155
 21
6.967721
 31
0.0
  0
LINE
  5
224
330
4E
100
AcDbEntity
 67
     1
  8
1
  6
CONTINUOUS
 62
    18
100
AcDbLine
 10
3.095155
 20
6.967721
 30
0.0
 11
3.095155
 21
6.973329
 31
0.0
  0
LINE
  5
225
330
4E
100
AcDbEntity
 67
     1
  8
1
  6
CONTINUOUS
 62
    18
100
AcDbLine
 10
3.103154
 20
6.957331
 30
0.0
 11
3.100812
 21
6.962988
 31
0.0
  0
LINE
  5
226
330
4E
100
AcDbEntity
 67
     1
  8
1
  6
CONTINUOUS
 62
    18
100
AcDbLine
 10
3.100812
 20
6.962988
 30
0.0
 11
3.095155
 21
6.96533
 31
0.0
  0
LINE
  5
227
330
4E
100
AcDbEntity
 67
     1
  8
1
  6
CONTINUOUS
 62
    18
100
AcDbLine
 10
3.095155
 20
6.96533
 30
0.0
 11
3.094167
 21
6.96533
 31
0.0
  0
LINE
  5
228
330
4E
100
AcDbEntity
 67
     1
  8
1
  6
CONTINUOUS
 62
    18
100
AcDbLine
 10
2.849168
 20
6.96533
 30
0.0
 11
2.848181
 21
6.96533
 31
0.0
  0
LINE
  5
229
330
4E
100
AcDbEntity
 67
     1
  8
1
  6
CONTINUOUS
 62
    18
100
AcDbLine
 10
3.406471
 20
3.625142
 30
0.0
 11
3.407169
 21
3.62584
 31
0.0
  0
LINE
  5
22A
330
4E
100
AcDbEntity
 67
     1
  8
1
  6
CONTINUOUS
 62
    18
100
AcDbLine
 10
1.426166
 20
3.62584
 30
0.0
 11
1.426865
 21
3.625142
 31
0.0
  0
LINE
  5
22B
330
4E
100
AcDbEntity
 67
     1
  8
1
  6
CONTINUOUS
 62
    18
100
AcDbLine
 10
1.529108
 20
3.58532
 30
0.0
 11
1.529412
 21
3.585046
 31
0.0
  0
LINE
  5
22C
330
4E
100
AcDbEntity
 67
     1
  8
1
  6
CONTINUOUS
 62
    18
100
AcDbLine
 10
1.529412
 20
3.585046
 30
0.0
 11
1.529679
 21
3.584796
 31
0.0
  0
LINE
  5
22D
330
4E
100
AcDbEntity
 67
     1
  8
1
  6
CONTINUOUS
 62
    18
100
AcDbLine
 10
2.49676
 20
3.620244
 30
0.0
 11
2.486666
 21
3.620244
 31
0.0
  0
LINE
  5
22E
330
4E
100
AcDbEntity
 67
     1
  8
1
  6
CONTINUOUS
 62
    18
100
AcDbLine
 10
2.34667
 20
3.620244
 30
0.0
 11
2.336576
 21
3.620244
 31
0.0
  0
LINE
  5
22F
330
4E
100
AcDbEntity
 67
     1
  8
1
  6
CONTINUOUS
 62
    18
100
AcDbLine
 10
3.304228
 20
6.455367
 30
0.0
 11
3.303923
 21
6.455642
 31
0.0
  0
LINE
  5
230
330
4E
100
AcDbEntity
 67
     1
  8
1
  6
CONTINUOUS
 62
    18
100
AcDbLine
 10
3.303923
 20
6.455642
 30
0.0
 11
3.303656
 21
6.455891
 31
0.0
  0
LINE
  5
231
330
4E
100
AcDbEntity
 67
     1
  8
1
  6
CONTINUOUS
 62
    18
100
AcDbLine
 10
3.303644
 20
6.456344
 30
0.0
 11
3.303644
 21
6.865344
 31
0.0
  0
LINE
  5
232
330
4E
100
AcDbEntity
 67
     1
  8
1
  6
CONTINUOUS
 62
    18
100
AcDbLine
 10
1.529691
 20
6.865344
 30
0.0
 11
1.529691
 21
6.456344
 31
0.0
  0
LINE
  5
233
330
4E
100
AcDbEntity
 67
     1
  8
1
  6
CONTINUOUS
 62
    18
100
AcDbLine
 10
1.529679
 20
6.455891
 30
0.0
 11
1.529365
 21
6.455598
 31
0.0
  0
LINE
  5
234
330
4E
100
AcDbEntity
 67
     1
  8
1
  6
CONTINUOUS
 62
    18
100
AcDbLine
 10
1.529365
 20
6.455598
 30
0.0
 11
1.529108
 21
6.455367
 31
0.0
  0
LINE
  5
235
330
4E
100
AcDbEntity
 67
     1
  8
1
  6
CONTINUOUS
 62
    18
100
AcDbLine
 10
1.739662
 20
6.923717
 30
0.0
 11
1.738171
 21
6.919241
 31
0.0
  0
LINE
  5
236
330
4E
100
AcDbEntity
 67
     1
  8
1
  6
CONTINUOUS
 62
    18
100
AcDbLine
 10
1.985165
 20
6.919241
 30
0.0
 11
1.983674
 21
6.923717
 31
0.0
  0
LINE
  5
237
330
4E
100
AcDbEntity
 67
     1
  8
1
  6
CONTINUOUS
 62
    18
100
AcDbLine
 10
1.931893
 20
6.923717
 30
0.0
 11
1.926336
 21
6.923835
 31
0.0
  0
LINE
  5
238
330
4E
100
AcDbEntity
 67
     1
  8
1
  6
CONTINUOUS
 62
    18
100
AcDbLine
 10
1.926336
 20
6.923835
 30
0.0
 11
1.923898
 21
6.924122
 31
0.0
  0
LINE
  5
239
330
4E
100
AcDbEntity
 67
     1
  8
1
  6
CONTINUOUS
 62
    18
100
AcDbLine
 10
1.923898
 20
6.924122
 30
0.0
 11
1.922793
 21
6.925781
 31
0.0
  0
LINE
  5
23A
330
4E
100
AcDbEntity
 67
     1
  8
1
  6
CONTINUOUS
 62
    18
100
AcDbLine
 10
1.799437
 20
6.924122
 30
0.0
 11
1.800542
 21
6.925781
 31
0.0
  0
LINE
  5
23B
330
4E
100
AcDbEntity
 67
     1
  8
1
  6
CONTINUOUS
 62
    18
100
AcDbLine
 10
1.799437
 20
6.924122
 30
0.0
 11
1.797
 21
6.923835
 31
0.0
  0
LINE
  5
23C
330
4E
100
AcDbEntity
 67
     1
  8
1
  6
CONTINUOUS
 62
    18
100
AcDbLine
 10
1.797
 20
6.923835
 30
0.0
 11
1.791442
 21
6.923717
 31
0.0
  0
LINE
  5
23D
330
4E
100
AcDbEntity
 67
     1
  8
1
  6
CONTINUOUS
 62
    18
100
AcDbLine
 10
1.730182
 20
6.927259
 30
0.0
 11
1.731668
 21
6.931721
 31
0.0
  0
LINE
  5
23E
330
4E
100
AcDbEntity
 67
     1
  8
1
  6
CONTINUOUS
 62
    18
100
AcDbLine
 10
1.731668
 20
6.955845
 30
0.0
 11
1.730182
 21
6.957331
 31
0.0
  0
LINE
  5
23F
330
4E
100
AcDbEntity
 67
     1
  8
1
  6
CONTINUOUS
 62
    18
100
AcDbLine
 10
1.731668
 20
6.955845
 30
0.0
 11
1.731668
 21
6.931721
 31
0.0
  0
LINE
  5
240
330
4E
100
AcDbEntity
 67
     1
  8
1
  6
CONTINUOUS
 62
    18
100
AcDbLine
 10
1.738181
 20
6.96533
 30
0.0
 11
1.739168
 21
6.964342
 31
0.0
  0
LINE
  5
241
330
4E
100
AcDbEntity
 67
     1
  8
1
  6
CONTINUOUS
 62
    18
100
AcDbLine
 10
1.739666
 20
6.963843
 30
0.0
 11
1.73401
 21
6.961501
 31
0.0
  0
LINE
  5
242
330
4E
100
AcDbEntity
 67
     1
  8
1
  6
CONTINUOUS
 62
    18
100
AcDbLine
 10
1.73401
 20
6.961501
 30
0.0
 11
1.731668
 21
6.955845
 31
0.0
  0
LINE
  5
243
330
4E
100
AcDbEntity
 67
     1
  8
1
  6
CONTINUOUS
 62
    18
100
AcDbLine
 10
1.984168
 20
6.964342
 30
0.0
 11
1.985155
 21
6.96533
 31
0.0
  0
LINE
  5
244
330
4E
100
AcDbEntity
 67
     1
  8
1
  6
CONTINUOUS
 62
    18
100
AcDbLine
 10
1.993154
 20
6.957331
 30
0.0
 11
1.991668
 21
6.955845
 31
0.0
  0
LINE
  5
245
330
4E
100
AcDbEntity
 67
     1
  8
1
  6
CONTINUOUS
 62
    18
100
AcDbLine
 10
1.991668
 20
6.955845
 30
0.0
 11
1.989325
 21
6.961501
 31
0.0
  0
LINE
  5
246
330
4E
100
AcDbEntity
 67
     1
  8
1
  6
CONTINUOUS
 62
    18
100
AcDbLine
 10
1.989325
 20
6.961501
 30
0.0
 11
1.983669
 21
6.963843
 31
0.0
  0
LINE
  5
247
330
4E
100
AcDbEntity
 67
     1
  8
1
  6
CONTINUOUS
 62
    18
100
AcDbLine
 10
1.991668
 20
6.931721
 30
0.0
 11
1.993154
 21
6.927259
 31
0.0
  0
LINE
  5
248
330
4E
100
AcDbEntity
 67
     1
  8
1
  6
CONTINUOUS
 62
    18
100
AcDbLine
 10
1.991668
 20
6.931721
 30
0.0
 11
1.991668
 21
6.955845
 31
0.0
  0
LINE
  5
249
330
4E
100
AcDbEntity
 67
     1
  8
1
  6
CONTINUOUS
 62
    18
100
AcDbLine
 10
2.849662
 20
6.923717
 30
0.0
 11
2.848171
 21
6.919241
 31
0.0
  0
LINE
  5
24A
330
4E
100
AcDbEntity
 67
     1
  8
1
  6
CONTINUOUS
 62
    18
100
AcDbLine
 10
3.095165
 20
6.919241
 30
0.0
 11
3.093674
 21
6.923717
 31
0.0
  0
LINE
  5
24B
330
4E
100
AcDbEntity
 67
     1
  8
1
  6
CONTINUOUS
 62
    18
100
AcDbLine
 10
3.041893
 20
6.923717
 30
0.0
 11
3.036336
 21
6.923835
 31
0.0
  0
LINE
  5
24C
330
4E
100
AcDbEntity
 67
     1
  8
1
  6
CONTINUOUS
 62
    18
100
AcDbLine
 10
3.036336
 20
6.923835
 30
0.0
 11
3.033898
 21
6.924122
 31
0.0
  0
LINE
  5
24D
330
4E
100
AcDbEntity
 67
     1
  8
1
  6
CONTINUOUS
 62
    18
100
AcDbLine
 10
3.033898
 20
6.924122
 30
0.0
 11
3.032793
 21
6.925781
 31
0.0
  0
LINE
  5
24E
330
4E
100
AcDbEntity
 67
     1
  8
1
  6
CONTINUOUS
 62
    18
100
AcDbLine
 10
2.909437
 20
6.924122
 30
0.0
 11
2.910542
 21
6.925781
 31
0.0
  0
LINE
  5
24F
330
4E
100
AcDbEntity
 67
     1
  8
1
  6
CONTINUOUS
 62
    18
100
AcDbLine
 10
2.909437
 20
6.924122
 30
0.0
 11
2.907
 21
6.923835
 31
0.0
  0
LINE
  5
250
330
4E
100
AcDbEntity
 67
     1
  8
1
  6
CONTINUOUS
 62
    18
100
AcDbLine
 10
2.907
 20
6.923835
 30
0.0
 11
2.901442
 21
6.923717
 31
0.0
  0
LINE
  5
251
330
4E
100
AcDbEntity
 67
     1
  8
1
  6
CONTINUOUS
 62
    18
100
AcDbLine
 10
2.840182
 20
6.927259
 30
0.0
 11
2.841668
 21
6.931721
 31
0.0
  0
LINE
  5
252
330
4E
100
AcDbEntity
 67
     1
  8
1
  6
CONTINUOUS
 62
    18
100
AcDbLine
 10
2.841668
 20
6.955845
 30
0.0
 11
2.840182
 21
6.957331
 31
0.0
  0
LINE
  5
253
330
4E
100
AcDbEntity
 67
     1
  8
1
  6
CONTINUOUS
 62
    18
100
AcDbLine
 10
2.841668
 20
6.955845
 30
0.0
 11
2.841668
 21
6.931721
 31
0.0
  0
LINE
  5
254
330
4E
100
AcDbEntity
 67
     1
  8
1
  6
CONTINUOUS
 62
    18
100
AcDbLine
 10
2.848181
 20
6.96533
 30
0.0
 11
2.849168
 21
6.964342
 31
0.0
  0
LINE
  5
255
330
4E
100
AcDbEntity
 67
     1
  8
1
  6
CONTINUOUS
 62
    18
100
AcDbLine
 10
2.849667
 20
6.963843
 30
0.0
 11
2.84401
 21
6.961501
 31
0.0
  0
LINE
  5
256
330
4E
100
AcDbEntity
 67
     1
  8
1
  6
CONTINUOUS
 62
    18
100
AcDbLine
 10
2.84401
 20
6.961501
 30
0.0
 11
2.841668
 21
6.955845
 31
0.0
  0
LINE
  5
257
330
4E
100
AcDbEntity
 67
     1
  8
1
  6
CONTINUOUS
 62
    18
100
AcDbLine
 10
3.094168
 20
6.964342
 30
0.0
 11
3.095155
 21
6.96533
 31
0.0
  0
LINE
  5
258
330
4E
100
AcDbEntity
 67
     1
  8
1
  6
CONTINUOUS
 62
    18
100
AcDbLine
 10
3.103154
 20
6.957331
 30
0.0
 11
3.101668
 21
6.955845
 31
0.0
  0
LINE
  5
259
330
4E
100
AcDbEntity
 67
     1
  8
1
  6
CONTINUOUS
 62
    18
100
AcDbLine
 10
3.101668
 20
6.955845
 30
0.0
 11
3.099325
 21
6.961501
 31
0.0
  0
LINE
  5
25A
330
4E
100
AcDbEntity
 67
     1
  8
1
  6
CONTINUOUS
 62
    18
100
AcDbLine
 10
3.099325
 20
6.961501
 30
0.0
 11
3.093669
 21
6.963843
 31
0.0
  0
LINE
  5
25B
330
4E
100
AcDbEntity
 67
     1
  8
1
  6
CONTINUOUS
 62
    18
100
AcDbLine
 10
3.101668
 20
6.931721
 30
0.0
 11
3.103154
 21
6.927259
 31
0.0
  0
LINE
  5
25C
330
4E
100
AcDbEntity
 67
     1
  8
1
  6
CONTINUOUS
 62
    18
100
AcDbLine
 10
3.101668
 20
6.931721
 30
0.0
 11
3.101668
 21
6.955845
 31
0.0
  0
LINE
  5
25D
330
4E
100
AcDbEntity
 67
     1
  8
1
  6
CONTINUOUS
 62
    18
100
AcDbLine
 10
2.498512
 20
6.454844
 30
0.0
 11
3.344168
 21
6.454844
 31
0.0
  0
LINE
  5
25E
330
4E
100
AcDbEntity
 67
     1
  8
1
  6
CONTINUOUS
 62
    18
100
AcDbLine
 10
2.496417
 20
6.455891
 30
0.0
 11
3.303656
 21
6.455891
 31
0.0
  0
LINE
  5
25F
330
4E
100
AcDbEntity
 67
     1
  8
1
  6
CONTINUOUS
 62
    18
100
AcDbLine
 10
2.496417
 20
6.455891
 30
0.0
 11
2.498512
 21
6.454844
 31
0.0
  0
LINE
  5
260
330
4E
100
AcDbEntity
 67
     1
  8
1
  6
CONTINUOUS
 62
    18
100
AcDbLine
 10
3.406471
 20
6.415545
 30
0.0
 11
2.498512
 21
6.415545
 31
0.0
  0
LINE
  5
261
330
4E
100
AcDbEntity
 67
     1
  8
1
  6
CONTINUOUS
 62
    18
100
AcDbLine
 10
2.497115
 20
6.414846
 30
0.0
 11
2.498512
 21
6.415545
 31
0.0
  0
LINE
  5
262
330
4E
100
AcDbEntity
 67
     1
  8
1
  6
CONTINUOUS
 62
    18
100
AcDbLine
 10
2.49676
 20
6.420443
 30
0.0
 11
2.497011
 21
6.417577
 31
0.0
  0
LINE
  5
263
330
4E
100
AcDbEntity
 67
     1
  8
1
  6
CONTINUOUS
 62
    18
100
AcDbLine
 10
2.497011
 20
6.417577
 30
0.0
 11
2.497115
 21
6.410444
 31
0.0
  0
LINE
  5
264
330
4E
100
AcDbEntity
 67
     1
  8
1
  6
CONTINUOUS
 62
    18
100
AcDbLine
 10
2.336576
 20
6.420443
 30
0.0
 11
2.34667
 21
6.420443
 31
0.0
  0
LINE
  5
265
330
4E
100
AcDbEntity
 67
     1
  8
1
  6
CONTINUOUS
 62
    18
100
AcDbLine
 10
2.486666
 20
6.420443
 30
0.0
 11
2.49676
 21
6.420443
 31
0.0
  0
LINE
  5
266
330
4E
100
AcDbEntity
 67
     1
  8
1
  6
CONTINUOUS
 62
    18
100
AcDbLine
 10
2.33622
 20
6.410444
 30
0.0
 11
2.336325
 21
6.417577
 31
0.0
  0
LINE
  5
267
330
4E
100
AcDbEntity
 67
     1
  8
1
  6
CONTINUOUS
 62
    18
100
AcDbLine
 10
2.336325
 20
6.417577
 30
0.0
 11
2.336576
 21
6.420443
 31
0.0
  0
LINE
  5
268
330
4E
100
AcDbEntity
 67
     1
  8
1
  6
CONTINUOUS
 62
    18
100
AcDbLine
 10
2.33622
 20
6.414846
 30
0.0
 11
2.334823
 21
6.415545
 31
0.0
  0
LINE
  5
269
330
4E
100
AcDbEntity
 67
     1
  8
1
  6
CONTINUOUS
 62
    18
100
AcDbLine
 10
2.334823
 20
6.415545
 30
0.0
 11
1.426865
 21
6.415545
 31
0.0
  0
LINE
  5
26A
330
4E
100
AcDbEntity
 67
     1
  8
1
  6
CONTINUOUS
 62
    18
100
AcDbLine
 10
2.334823
 20
6.454844
 30
0.0
 11
2.334823
 21
6.415545
 31
0.0
  0
LINE
  5
26B
330
4E
100
AcDbEntity
 67
     1
  8
1
  6
CONTINUOUS
 62
    18
100
AcDbLine
 10
1.489168
 20
6.454844
 30
0.0
 11
2.334823
 21
6.454844
 31
0.0
  0
LINE
  5
26C
330
4E
100
AcDbEntity
 67
     1
  8
1
  6
CONTINUOUS
 62
    18
100
AcDbLine
 10
2.498512
 20
6.454844
 30
0.0
 11
2.498512
 21
6.415545
 31
0.0
  0
LINE
  5
26D
330
4E
100
AcDbEntity
 67
     1
  8
1
  6
CONTINUOUS
 62
    18
100
AcDbLine
 10
1.529679
 20
6.455891
 30
0.0
 11
2.336919
 21
6.455891
 31
0.0
  0
LINE
  5
26E
330
4E
100
AcDbEntity
 67
     1
  8
1
  6
CONTINUOUS
 62
    18
100
AcDbLine
 10
2.334823
 20
6.454844
 30
0.0
 11
2.336919
 21
6.455891
 31
0.0
  0
LINE
  5
26F
330
4E
100
AcDbEntity
 67
     1
  8
1
  6
CONTINUOUS
 62
    18
100
AcDbLine
 10
2.336919
 20
6.455891
 30
0.0
 11
2.336919
 21
6.510389
 31
0.0
  0
LINE
  5
270
330
4E
100
AcDbEntity
 67
     1
  8
1
  6
CONTINUOUS
 62
    18
100
AcDbLine
 10
2.476668
 20
6.812589
 30
0.0
 11
2.356668
 21
6.812589
 31
0.0
  0
LINE
  5
271
330
4E
100
AcDbEntity
 67
     1
  8
1
  6
CONTINUOUS
 62
    18
100
AcDbLine
 10
2.496417
 20
6.510389
 30
0.0
 11
2.496417
 21
6.455891
 31
0.0
  0
LINE
  5
272
330
4E
100
AcDbEntity
 67
     1
  8
1
  6
CONTINUOUS
 62
    18
100
AcDbLine
 10
2.339468
 20
6.450095
 30
0.0
 11
2.33957
 21
6.457166
 31
0.0
  0
LINE
  5
273
330
4E
100
AcDbEntity
 67
     1
  8
1
  6
CONTINUOUS
 62
    18
100
AcDbLine
 10
2.33957
 20
6.457166
 30
0.0
 11
2.339817
 21
6.460095
 31
0.0
  0
LINE
  5
274
330
4E
100
AcDbEntity
 67
     1
  8
1
  6
CONTINUOUS
 62
    18
100
AcDbLine
 10
2.339817
 20
6.460095
 30
0.0
 11
2.341668
 21
6.460095
 31
0.0
  0
LINE
  5
275
330
4E
100
AcDbEntity
 67
     1
  8
1
  6
CONTINUOUS
 62
    18
100
AcDbLine
 10
2.341668
 20
6.585874
 30
0.0
 11
2.341668
 21
6.460095
 31
0.0
  0
LINE
  5
276
330
4E
100
AcDbEntity
 67
     1
  8
1
  6
CONTINUOUS
 62
    18
100
AcDbLine
 10
2.340411
 20
6.584851
 30
0.0
 11
2.341668
 21
6.585874
 31
0.0
  0
LINE
  5
277
330
4E
100
AcDbEntity
 67
     1
  8
1
  6
CONTINUOUS
 62
    18
100
AcDbLine
 10
2.340411
 20
6.511727
 30
0.0
 11
2.340411
 21
6.584851
 31
0.0
  0
LINE
  5
278
330
4E
100
AcDbEntity
 67
     1
  8
1
  6
CONTINUOUS
 62
    18
100
AcDbLine
 10
2.336919
 20
6.510389
 30
0.0
 11
2.340411
 21
6.511727
 31
0.0
  0
LINE
  5
279
330
4E
100
AcDbEntity
 67
     1
  8
1
  6
CONTINUOUS
 62
    18
100
AcDbLine
 10
2.356668
 20
6.810843
 30
0.0
 11
2.356668
 21
6.812589
 31
0.0
  0
LINE
  5
27A
330
4E
100
AcDbEntity
 67
     1
  8
1
  6
CONTINUOUS
 62
    18
100
AcDbLine
 10
2.492925
 20
6.511727
 30
0.0
 11
2.496417
 21
6.510389
 31
0.0
  0
LINE
  5
27B
330
4E
100
AcDbEntity
 67
     1
  8
1
  6
CONTINUOUS
 62
    18
100
AcDbLine
 10
2.492925
 20
6.584851
 30
0.0
 11
2.492925
 21
6.511727
 31
0.0
  0
LINE
  5
27C
330
4E
100
AcDbEntity
 67
     1
  8
1
  6
CONTINUOUS
 62
    18
100
AcDbLine
 10
2.491668
 20
6.585874
 30
0.0
 11
2.492925
 21
6.584851
 31
0.0
  0
LINE
  5
27D
330
4E
100
AcDbEntity
 67
     1
  8
1
  6
CONTINUOUS
 62
    18
100
AcDbLine
 10
2.491668
 20
6.585874
 30
0.0
 11
2.491668
 21
6.460095
 31
0.0
  0
LINE
  5
27E
330
4E
100
AcDbEntity
 67
     1
  8
1
  6
CONTINUOUS
 62
    18
100
AcDbLine
 10
2.491668
 20
6.460095
 30
0.0
 11
2.493519
 21
6.460095
 31
0.0
  0
LINE
  5
27F
330
4E
100
AcDbEntity
 67
     1
  8
1
  6
CONTINUOUS
 62
    18
100
AcDbLine
 10
2.493519
 20
6.460095
 30
0.0
 11
2.493766
 21
6.457166
 31
0.0
  0
LINE
  5
280
330
4E
100
AcDbEntity
 67
     1
  8
1
  6
CONTINUOUS
 62
    18
100
AcDbLine
 10
2.493766
 20
6.457166
 30
0.0
 11
2.493868
 21
6.450095
 31
0.0
  0
LINE
  5
281
330
4E
100
AcDbEntity
 67
     1
  8
1
  6
CONTINUOUS
 62
    18
100
AcDbLine
 10
2.476668
 20
6.812589
 30
0.0
 11
2.476668
 21
6.810843
 31
0.0
  0
LINE
  5
282
330
4E
100
AcDbEntity
 67
     1
  8
1
  6
CONTINUOUS
 62
    18
100
AcDbLine
 10
2.476668
 20
6.810843
 30
0.0
 11
2.356668
 21
6.810843
 31
0.0
  0
LINE
  5
283
330
4E
100
AcDbEntity
 67
     1
  8
1
  6
CONTINUOUS
 62
    18
100
AcDbLine
 10
2.341668
 20
3.581866
 30
0.0
 11
2.346669
 21
3.581866
 31
0.0
  0
LINE
  5
284
330
4E
100
AcDbEntity
 67
     1
  8
1
  6
CONTINUOUS
 62
    18
100
AcDbLine
 10
2.486666
 20
3.581866
 30
0.0
 11
2.491668
 21
3.581866
 31
0.0
  0
LINE
  5
285
330
4E
100
AcDbEntity
 67
     1
  8
1
  6
CONTINUOUS
 62
    18
100
AcDbLine
 10
2.476668
 20
3.456299
 30
0.0
 11
2.356668
 21
3.456299
 31
0.0
  0
LINE
  5
286
330
4E
100
AcDbEntity
 67
     1
  8
1
  6
CONTINUOUS
 62
    18
100
AcDbLine
 10
2.476668
 20
3.455542
 30
0.0
 11
2.356668
 21
3.455542
 31
0.0
  0
LINE
  5
287
330
4E
100
AcDbEntity
 67
     1
  8
1
  6
CONTINUOUS
 62
    18
100
AcDbLine
 10
2.476668
 20
3.304145
 30
0.0
 11
2.356668
 21
3.304145
 31
0.0
  0
LINE
  5
288
330
4E
100
AcDbEntity
 67
     1
  8
1
  6
CONTINUOUS
 62
    18
100
AcDbLine
 10
2.476668
 20
3.456299
 30
0.0
 11
2.476668
 21
3.455542
 31
0.0
  0
LINE
  5
289
330
4E
100
AcDbEntity
 67
     1
  8
1
  6
CONTINUOUS
 62
    18
100
AcDbLine
 10
2.356668
 20
3.456299
 30
0.0
 11
2.356668
 21
3.455542
 31
0.0
  0
LINE
  5
28A
330
4E
100
AcDbEntity
 67
     1
  8
1
  6
CONTINUOUS
 62
    18
100
AcDbLine
 10
2.356668
 20
3.302131
 30
0.0
 11
2.356668
 21
3.304145
 31
0.0
  0
LINE
  5
28B
330
4E
100
AcDbEntity
 67
     1
  8
1
  6
CONTINUOUS
 62
    18
100
AcDbLine
 10
2.476668
 20
3.302131
 30
0.0
 11
2.356668
 21
3.302131
 31
0.0
  0
LINE
  5
28C
330
4E
100
AcDbEntity
 67
     1
  8
1
  6
CONTINUOUS
 62
    18
100
AcDbLine
 10
2.476668
 20
3.302131
 30
0.0
 11
2.476668
 21
3.304145
 31
0.0
  0
LINE
  5
28D
330
4E
100
AcDbEntity
 67
     1
  8
1
  6
CONTINUOUS
 62
    18
100
AcDbLine
 10
1.068696
 20
7.273311
 30
0.0
 11
1.071663
 21
7.270344
 31
0.0
  0
LINE
  5
28E
330
4E
100
AcDbEntity
 67
     1
  8
1
  6
CONTINUOUS
 62
    18
100
AcDbLine
 10
1.0387
 20
7.243316
 30
0.0
 11
1.042719
 21
7.258314
 31
0.0
  0
LINE
  5
28F
330
4E
100
AcDbEntity
 67
     1
  8
1
  6
CONTINUOUS
 62
    18
100
AcDbLine
 10
1.042719
 20
7.258314
 30
0.0
 11
1.053697
 21
7.269292
 31
0.0
  0
LINE
  5
290
330
4E
100
AcDbEntity
 67
     1
  8
1
  6
CONTINUOUS
 62
    18
100
AcDbLine
 10
1.053697
 20
7.269292
 30
0.0
 11
1.068696
 21
7.273311
 31
0.0
  0
LINE
  5
291
330
4E
100
AcDbEntity
 67
     1
  8
1
  6
CONTINUOUS
 62
    18
100
AcDbLine
 10
1.041668
 20
7.240348
 30
0.0
 11
1.0387
 21
7.243316
 31
0.0
  0
LINE
  5
292
330
4E
100
AcDbEntity
 67
     1
  8
1
  6
CONTINUOUS
 62
    18
100
AcDbLine
 10
1.068696
 20
7.273311
 30
0.0
 11
3.76464
 21
7.273311
 31
0.0
  0
LINE
  5
293
330
4E
100
AcDbEntity
 67
     1
  8
1
  6
CONTINUOUS
 62
    18
100
AcDbLine
 10
3.761672
 20
7.270344
 30
0.0
 11
3.76464
 21
7.273311
 31
0.0
  0
LINE
  5
294
330
4E
100
AcDbEntity
 67
     1
  8
1
  6
CONTINUOUS
 62
    18
100
AcDbLine
 10
3.794635
 20
7.243316
 30
0.0
 11
3.791668
 21
7.240348
 31
0.0
  0
LINE
  5
295
330
4E
100
AcDbEntity
 67
     1
  8
1
  6
CONTINUOUS
 62
    18
100
AcDbLine
 10
3.76464
 20
7.273311
 30
0.0
 11
3.779638
 21
7.269292
 31
0.0
  0
LINE
  5
296
330
4E
100
AcDbEntity
 67
     1
  8
1
  6
CONTINUOUS
 62
    18
100
AcDbLine
 10
3.779638
 20
7.269292
 30
0.0
 11
3.790617
 21
7.258314
 31
0.0
  0
LINE
  5
297
330
4E
100
AcDbEntity
 67
     1
  8
1
  6
CONTINUOUS
 62
    18
100
AcDbLine
 10
3.790617
 20
7.258314
 30
0.0
 11
3.794635
 21
7.243316
 31
0.0
  0
LINE
  5
298
330
4E
100
AcDbEntity
 67
     1
  8
1
  6
CONTINUOUS
 62
    18
100
AcDbLine
 10
3.794635
 20
2.797372
 30
0.0
 11
3.791668
 21
2.800339
 31
0.0
  0
LINE
  5
299
330
4E
100
AcDbEntity
 67
     1
  8
1
  6
CONTINUOUS
 62
    18
100
AcDbLine
 10
3.794635
 20
7.243316
 30
0.0
 11
3.794635
 21
2.797372
 31
0.0
  0
LINE
  5
29A
330
4E
100
AcDbEntity
 67
     1
  8
1
  6
CONTINUOUS
 62
    18
100
AcDbLine
 10
1.0387
 20
2.797372
 30
0.0
 11
1.042719
 21
2.782373
 31
0.0
  0
LINE
  5
29B
330
4E
100
AcDbEntity
 67
     1
  8
1
  6
CONTINUOUS
 62
    18
100
AcDbLine
 10
1.042719
 20
2.782373
 30
0.0
 11
1.053697
 21
2.771394
 31
0.0
  0
LINE
  5
29C
330
4E
100
AcDbEntity
 67
     1
  8
1
  6
CONTINUOUS
 62
    18
100
AcDbLine
 10
1.053697
 20
2.771394
 30
0.0
 11
1.068696
 21
2.767376
 31
0.0
  0
LINE
  5
29D
330
4E
100
AcDbEntity
 67
     1
  8
1
  6
CONTINUOUS
 62
    18
100
AcDbLine
 10
1.0387
 20
7.243316
 30
0.0
 11
1.0387
 21
2.797372
 31
0.0
  0
LINE
  5
29E
330
4E
100
AcDbEntity
 67
     1
  8
1
  6
CONTINUOUS
 62
    18
100
AcDbLine
 10
3.76464
 20
2.767376
 30
0.0
 11
3.779638
 21
2.771394
 31
0.0
  0
LINE
  5
29F
330
4E
100
AcDbEntity
 67
     1
  8
1
  6
CONTINUOUS
 62
    18
100
AcDbLine
 10
3.779638
 20
2.771394
 30
0.0
 11
3.790617
 21
2.782373
 31
0.0
  0
LINE
  5
2A0
330
4E
100
AcDbEntity
 67
     1
  8
1
  6
CONTINUOUS
 62
    18
100
AcDbLine
 10
3.790617
 20
2.782373
 30
0.0
 11
3.794635
 21
2.797372
 31
0.0
  0
LINE
  5
2A1
330
4E
100
AcDbEntity
 67
     1
  8
1
  6
CONTINUOUS
 62
    18
100
AcDbLine
 10
1.068696
 20
2.767376
 30
0.0
 11
3.76464
 21
2.767376
 31
0.0
  0
LINE
  5
2A2
330
4E
100
AcDbEntity
 67
     1
  8
1
  6
CONTINUOUS
 62
    18
100
AcDbLine
 10
1.041668
 20
2.800339
 30
0.0
 11
1.0387
 21
2.797372
 31
0.0
  0
LINE
  5
2A3
330
4E
100
AcDbEntity
 67
     1
  8
1
  6
CONTINUOUS
 62
    18
100
AcDbLine
 10
1.068696
 20
2.767376
 30
0.0
 11
1.071663
 21
2.770344
 31
0.0
  0
LINE
  5
2A4
330
4E
100
AcDbEntity
 67
     1
  8
1
  6
CONTINUOUS
 62
    18
100
AcDbLine
 10
3.761672
 20
2.770344
 30
0.0
 11
3.76464
 21
2.767376
 31
0.0
  0
LINE
  5
2A5
330
4E
100
AcDbEntity
 67
     1
  8
1
  6
CONTINUOUS
 62
    18
100
AcDbLine
 10
2.476668
 20
6.736542
 30
0.0
 11
2.356668
 21
6.736542
 31
0.0
  0
LINE
  5
2A6
330
4E
100
AcDbEntity
 67
     1
  8
1
  6
CONTINUOUS
 62
    18
100
AcDbLine
 10
2.476668
 20
6.585145
 30
0.0
 11
2.356668
 21
6.585145
 31
0.0
  0
LINE
  5
2A7
330
4E
100
AcDbEntity
 67
     1
  8
1
  6
CONTINUOUS
 62
    18
100
AcDbLine
 10
2.356668
 20
6.738556
 30
0.0
 11
2.356668
 21
6.736542
 31
0.0
  0
LINE
  5
2A8
330
4E
100
AcDbEntity
 67
     1
  8
1
  6
CONTINUOUS
 62
    18
100
AcDbLine
 10
2.476668
 20
6.738556
 30
0.0
 11
2.476668
 21
6.736542
 31
0.0
  0
LINE
  5
2A9
330
4E
100
AcDbEntity
 67
     1
  8
1
  6
CONTINUOUS
 62
    18
100
AcDbLine
 10
2.476668
 20
6.738556
 30
0.0
 11
2.356668
 21
6.738556
 31
0.0
  0
LINE
  5
2AA
330
4E
100
AcDbEntity
 67
     1
  8
1
  6
CONTINUOUS
 62
    18
100
AcDbLine
 10
2.356668
 20
6.585145
 30
0.0
 11
2.356668
 21
6.584388
 31
0.0
  0
LINE
  5
2AB
330
4E
100
AcDbEntity
 67
     1
  8
1
  6
CONTINUOUS
 62
    18
100
AcDbLine
 10
2.356668
 20
6.584388
 30
0.0
 11
2.476668
 21
6.584388
 31
0.0
  0
LINE
  5
2AC
330
4E
100
AcDbEntity
 67
     1
  8
1
  6
CONTINUOUS
 62
    18
100
AcDbLine
 10
2.476668
 20
6.585145
 30
0.0
 11
2.476668
 21
6.584388
 31
0.0
  0
LINE
  5
2AD
330
4E
100
AcDbEntity
 67
     1
  8
1
  6
CONTINUOUS
 62
    18
100
AcDbLine
 10
2.341668
 20
6.460095
 30
0.0
 11
2.346669
 21
6.460095
 31
0.0
  0
LINE
  5
2AE
330
4E
100
AcDbEntity
 67
     1
  8
1
  6
CONTINUOUS
 62
    18
100
AcDbLine
 10
2.486666
 20
6.460095
 30
0.0
 11
2.491668
 21
6.460095
 31
0.0
  0
LINE
  5
2AF
330
4E
100
AcDbEntity
 67
     1
  8
1
  6
CONTINUOUS
 62
    18
100
AcDbLine
 10
3.027668
 20
5.305602
 30
0.0
 11
1.805668
 21
5.305602
 31
0.0
  0
LINE
  5
2B0
330
4E
100
AcDbEntity
 67
     1
  8
1
  6
CONTINUOUS
 62
    18
100
AcDbLine
 10
1.785668
 20
4.425602
 30
0.0
 11
1.785668
 21
5.285602
 31
0.0
  0
LINE
  5
2B1
330
4E
100
AcDbEntity
 67
     1
  8
1
  6
CONTINUOUS
 62
    18
100
AcDbLine
 10
3.047668
 20
4.425602
 30
0.0
 11
3.047668
 21
5.285602
 31
0.0
  0
LINE
  5
2B2
330
4E
100
AcDbEntity
 67
     1
  8
1
  6
CONTINUOUS
 62
    18
100
AcDbLine
 10
3.606302
 20
2.95571
 30
0.0
 11
3.606302
 21
7.084977
 31
0.0
  0
LINE
  5
2B3
330
4E
100
AcDbEntity
 67
     1
  8
1
  6
CONTINUOUS
 62
    18
100
AcDbLine
 10
3.606302
 20
2.95571
 30
0.0
 11
3.640504
 21
2.95571
 31
0.0
  0
LINE
  5
2B4
330
4E
100
AcDbEntity
 67
     1
  8
1
  6
CONTINUOUS
 62
    18
100
AcDbLine
 10
3.640504
 20
2.95571
 30
0.0
 11
3.67058
 21
2.95571
 31
0.0
  0
LINE
  5
2B5
330
4E
100
AcDbEntity
 67
     1
  8
1
  6
CONTINUOUS
 62
    18
100
AcDbLine
 10
3.67058
 20
7.084977
 30
0.0
 11
3.67058
 21
2.95571
 31
0.0
  0
LINE
  5
2B6
330
4E
100
AcDbEntity
 67
     1
  8
1
  6
CONTINUOUS
 62
    18
100
AcDbLine
 10
3.606302
 20
7.084977
 30
0.0
 11
3.640504
 21
7.084977
 31
0.0
  0
LINE
  5
2B7
330
4E
100
AcDbEntity
 67
     1
  8
1
  6
CONTINUOUS
 62
    18
100
AcDbLine
 10
3.640504
 20
7.084977
 30
0.0
 11
3.67058
 21
7.084977
 31
0.0
  0
LINE
  5
2B8
330
4E
100
AcDbEntity
 67
     1
  8
1
  6
CONTINUOUS
 62
    18
100
AcDbLine
 10
1.041668
 20
2.834622
 30
0.0
 11
1.041668
 21
2.800344
 31
0.0
  0
LINE
  5
2B9
330
4E
100
AcDbEntity
 67
     1
  8
1
  6
CONTINUOUS
 62
    18
100
AcDbLine
 10
1.041668
 20
7.206065
 30
0.0
 11
1.041668
 21
2.834622
 31
0.0
  0
LINE
  5
2BA
330
4E
100
AcDbEntity
 67
     1
  8
1
  6
CONTINUOUS
 62
    18
100
AcDbLine
 10
1.041668
 20
7.206065
 30
0.0
 11
1.041668
 21
7.240344
 31
0.0
  0
LINE
  5
2BB
330
4E
100
AcDbEntity
 67
     1
  8
1
  6
CONTINUOUS
 62
    18
100
AcDbLine
 10
1.162755
 20
7.084977
 30
0.0
 11
1.162755
 21
2.95571
 31
0.0
  0
LINE
  5
2BC
330
4E
100
AcDbEntity
 67
     1
  8
1
  6
CONTINUOUS
 62
    18
100
AcDbLine
 10
1.162755
 20
2.95571
 30
0.0
 11
1.192832
 21
2.95571
 31
0.0
  0
LINE
  5
2BD
330
4E
100
AcDbEntity
 67
     1
  8
1
  6
CONTINUOUS
 62
    18
100
AcDbLine
 10
1.192832
 20
2.95571
 30
0.0
 11
1.227034
 21
2.95571
 31
0.0
  0
LINE
  5
2BE
330
4E
100
AcDbEntity
 67
     1
  8
1
  6
CONTINUOUS
 62
    18
100
AcDbLine
 10
1.227034
 20
2.95571
 30
0.0
 11
1.227034
 21
7.084977
 31
0.0
  0
LINE
  5
2BF
330
4E
100
AcDbEntity
 67
     1
  8
1
  6
CONTINUOUS
 62
    18
100
AcDbLine
 10
1.162755
 20
7.084977
 30
0.0
 11
1.192832
 21
7.084977
 31
0.0
  0
LINE
  5
2C0
330
4E
100
AcDbEntity
 67
     1
  8
1
  6
CONTINUOUS
 62
    18
100
AcDbLine
 10
1.192832
 20
7.084977
 30
0.0
 11
1.227034
 21
7.084977
 31
0.0
  0
LINE
  5
2C1
330
4E
100
AcDbEntity
 67
     1
  8
1
  6
CONTINUOUS
 62
    18
100
AcDbLine
 10
1.162755
 20
2.95571
 30
0.0
 11
1.041668
 21
2.834622
 31
0.0
  0
LINE
  5
2C2
330
4E
100
AcDbEntity
 67
     1
  8
1
  6
CONTINUOUS
 62
    18
100
AcDbLine
 10
1.162755
 20
7.084977
 30
0.0
 11
1.041668
 21
7.206065
 31
0.0
  0
LINE
  5
2C3
330
4E
100
AcDbEntity
 67
     1
  8
1
  6
CONTINUOUS
 62
    18
100
AcDbLine
 10
3.791668
 20
7.206065
 30
0.0
 11
3.791668
 21
2.834622
 31
0.0
  0
LINE
  5
2C4
330
4E
100
AcDbEntity
 67
     1
  8
1
  6
CONTINUOUS
 62
    18
100
AcDbLine
 10
3.791668
 20
2.800344
 30
0.0
 11
3.791668
 21
2.834622
 31
0.0
  0
LINE
  5
2C5
330
4E
100
AcDbEntity
 67
     1
  8
1
  6
CONTINUOUS
 62
    18
100
AcDbLine
 10
3.791668
 20
7.240344
 30
0.0
 11
3.791668
 21
7.206065
 31
0.0
  0
LINE
  5
2C6
330
4E
100
AcDbEntity
 67
     1
  8
1
  6
CONTINUOUS
 62
    18
100
AcDbLine
 10
3.791668
 20
2.834622
 30
0.0
 11
3.67058
 21
2.95571
 31
0.0
  0
LINE
  5
2C7
330
4E
100
AcDbEntity
 67
     1
  8
1
  6
CONTINUOUS
 62
    18
100
AcDbLine
 10
3.791668
 20
7.206065
 30
0.0
 11
3.67058
 21
7.084977
 31
0.0
  0
LINE
  5
2C8
330
4E
100
AcDbEntity
 67
     1
  8
1
  6
CONTINUOUS
 62
    18
100
AcDbLine
 10
3.027668
 20
4.405602
 30
0.0
 11
1.805668
 21
4.405602
 31
0.0
  0
LINE
  5
2C9
330
4E
100
AcDbEntity
 67
     1
  8
1
  6
CONTINUOUS
 62
    18
100
AcDbLine
 10
3.606302
 20
2.95571
 30
0.0
 11
1.227034
 21
2.95571
 31
0.0
  0
LINE
  5
2CA
330
4E
100
AcDbEntity
 67
     1
  8
1
  6
CONTINUOUS
 62
    18
100
AcDbLine
 10
3.606302
 20
7.084977
 30
0.0
 11
1.227034
 21
7.084977
 31
0.0
  0
LINE
  5
2CB
330
4E
100
AcDbEntity
 67
     1
  8
1
  6
CONTINUOUS
 62
    18
100
AcDbLine
 10
2.759168
 20
6.916843
 30
0.0
 11
2.074168
 21
6.916843
 31
0.0
  0
LINE
  5
2CC
330
4E
100
AcDbEntity
 67
     1
  8
1
  6
CONTINUOUS
 62
    18
100
AcDbLine
 10
2.789168
 20
6.979781
 30
0.0
 11
2.789168
 21
6.946844
 31
0.0
  0
LINE
  5
2CD
330
4E
100
AcDbEntity
 67
     1
  8
1
  6
CONTINUOUS
 62
    18
100
AcDbLine
 10
3.094168
 20
6.979781
 30
0.0
 11
2.849168
 21
6.979781
 31
0.0
  0
LINE
  5
2CE
330
4E
100
AcDbEntity
 67
     1
  8
1
  6
CONTINUOUS
 62
    18
100
AcDbLine
 10
3.154168
 20
6.946844
 30
0.0
 11
3.154168
 21
6.979781
 31
0.0
  0
LINE
  5
2CF
330
4E
100
AcDbEntity
 67
     1
  8
1
  6
CONTINUOUS
 62
    18
100
AcDbLine
 10
3.417168
 20
6.916843
 30
0.0
 11
3.184168
 21
6.916843
 31
0.0
  0
LINE
  5
2D0
330
4E
100
AcDbEntity
 67
     1
  8
1
  6
CONTINUOUS
 62
    18
100
AcDbLine
 10
3.447168
 20
6.886844
 30
0.0
 11
3.447168
 21
6.434844
 31
0.0
  0
LINE
  5
2D1
330
4E
100
AcDbEntity
 67
     1
  8
1
  6
CONTINUOUS
 62
    18
100
AcDbLine
 10
2.563105
 20
6.404843
 30
0.0
 11
3.417168
 21
6.404843
 31
0.0
  0
LINE
  5
2D2
330
4E
100
AcDbEntity
 67
     1
  8
1
  6
CONTINUOUS
 62
    18
100
AcDbLine
 10
2.516668
 20
6.384843
 30
0.0
 11
2.518384
 21
6.384843
 31
0.0
  0
LINE
  5
2D3
330
4E
100
AcDbEntity
 67
     1
  8
1
  6
CONTINUOUS
 62
    18
100
AcDbLine
 10
2.342649
 20
6.399844
 30
0.0
 11
2.490687
 21
6.399844
 31
0.0
  0
LINE
  5
2D4
330
4E
100
AcDbEntity
 67
     1
  8
1
  6
CONTINUOUS
 62
    18
100
AcDbLine
 10
2.316668
 20
6.384843
 30
0.0
 11
2.314952
 21
6.384843
 31
0.0
  0
LINE
  5
2D5
330
4E
100
AcDbEntity
 67
     1
  8
1
  6
CONTINUOUS
 62
    18
100
AcDbLine
 10
1.416168
 20
6.404843
 30
0.0
 11
2.270231
 21
6.404843
 31
0.0
  0
LINE
  5
2D6
330
4E
100
AcDbEntity
 67
     1
  8
1
  6
CONTINUOUS
 62
    18
100
AcDbLine
 10
1.386168
 20
6.886844
 30
0.0
 11
1.386168
 21
6.434844
 31
0.0
  0
LINE
  5
2D7
330
4E
100
AcDbEntity
 67
     1
  8
1
  6
CONTINUOUS
 62
    18
100
AcDbLine
 10
1.649168
 20
6.916843
 30
0.0
 11
1.416168
 21
6.916843
 31
0.0
  0
LINE
  5
2D8
330
4E
100
AcDbEntity
 67
     1
  8
1
  6
CONTINUOUS
 62
    18
100
AcDbLine
 10
1.679168
 20
6.979781
 30
0.0
 11
1.679168
 21
6.946844
 31
0.0
  0
LINE
  5
2D9
330
4E
100
AcDbEntity
 67
     1
  8
1
  6
CONTINUOUS
 62
    18
100
AcDbLine
 10
1.739168
 20
6.979781
 30
0.0
 11
1.984168
 21
6.979781
 31
0.0
  0
LINE
  5
2DA
330
4E
100
AcDbEntity
 67
     1
  8
1
  6
CONTINUOUS
 62
    18
100
AcDbLine
 10
2.044168
 20
6.946844
 30
0.0
 11
2.044168
 21
6.979781
 31
0.0
  0
LINE
  5
2DB
330
4E
100
AcDbEntity
 67
     1
  8
1
  6
CONTINUOUS
 62
    18
100
AcDbLine
 10
1.964168
 20
3.093843
 30
0.0
 11
1.964168
 21
3.060907
 31
0.0
  0
LINE
  5
2DC
330
4E
100
AcDbEntity
 67
     1
  8
1
  6
CONTINUOUS
 62
    18
100
AcDbLine
 10
1.659168
 20
3.060907
 30
0.0
 11
1.904168
 21
3.060907
 31
0.0
  0
LINE
  5
2DD
330
4E
100
AcDbEntity
 67
     1
  8
1
  6
CONTINUOUS
 62
    18
100
AcDbLine
 10
1.599168
 20
3.060907
 30
0.0
 11
1.599168
 21
3.093843
 31
0.0
  0
LINE
  5
2DE
330
4E
100
AcDbEntity
 67
     1
  8
1
  6
CONTINUOUS
 62
    18
100
AcDbLine
 10
1.569168
 20
3.123843
 30
0.0
 11
1.416168
 21
3.123843
 31
0.0
  0
LINE
  5
2DF
330
4E
100
AcDbEntity
 67
     1
  8
1
  6
CONTINUOUS
 62
    18
100
AcDbLine
 10
1.386168
 20
3.153844
 30
0.0
 11
1.386168
 21
3.605844
 31
0.0
  0
LINE
  5
2E0
330
4E
100
AcDbEntity
 67
     1
  8
1
  6
CONTINUOUS
 62
    18
100
AcDbLine
 10
1.416168
 20
3.635844
 30
0.0
 11
2.270231
 21
3.635844
 31
0.0
  0
LINE
  5
2E1
330
4E
100
AcDbEntity
 67
     1
  8
1
  6
CONTINUOUS
 62
    18
100
AcDbLine
 10
2.316668
 20
3.655843
 30
0.0
 11
2.314952
 21
3.655843
 31
0.0
  0
LINE
  5
2E2
330
4E
100
AcDbEntity
 67
     1
  8
1
  6
CONTINUOUS
 62
    18
100
AcDbLine
 10
2.342649
 20
3.640844
 30
0.0
 11
2.490687
 21
3.640844
 31
0.0
  0
LINE
  5
2E3
330
4E
100
AcDbEntity
 67
     1
  8
1
  6
CONTINUOUS
 62
    18
100
AcDbLine
 10
2.516668
 20
3.655843
 30
0.0
 11
2.518384
 21
3.655843
 31
0.0
  0
LINE
  5
2E4
330
4E
100
AcDbEntity
 67
     1
  8
1
  6
CONTINUOUS
 62
    18
100
AcDbLine
 10
2.563105
 20
3.635844
 30
0.0
 11
3.417168
 21
3.635844
 31
0.0
  0
LINE
  5
2E5
330
4E
100
AcDbEntity
 67
     1
  8
1
  6
CONTINUOUS
 62
    18
100
AcDbLine
 10
3.447168
 20
3.153844
 30
0.0
 11
3.447168
 21
3.605844
 31
0.0
  0
LINE
  5
2E6
330
4E
100
AcDbEntity
 67
     1
  8
1
  6
CONTINUOUS
 62
    18
100
AcDbLine
 10
3.417168
 20
3.123843
 30
0.0
 11
3.264168
 21
3.123843
 31
0.0
  0
LINE
  5
2E7
330
4E
100
AcDbEntity
 67
     1
  8
1
  6
CONTINUOUS
 62
    18
100
AcDbLine
 10
3.234168
 20
3.093843
 30
0.0
 11
3.234168
 21
3.060907
 31
0.0
  0
LINE
  5
2E8
330
4E
100
AcDbEntity
 67
     1
  8
1
  6
CONTINUOUS
 62
    18
100
AcDbLine
 10
3.174168
 20
3.060907
 30
0.0
 11
2.929168
 21
3.060907
 31
0.0
  0
LINE
  5
2E9
330
4E
100
AcDbEntity
 67
     1
  8
1
  6
CONTINUOUS
 62
    18
100
AcDbLine
 10
2.869168
 20
3.060907
 30
0.0
 11
2.869168
 21
3.093843
 31
0.0
  0
LINE
  5
2EA
330
4E
100
AcDbEntity
 67
     1
  8
1
  6
CONTINUOUS
 62
    18
100
AcDbLine
 10
2.839168
 20
3.123843
 30
0.0
 11
1.994168
 21
3.123843
 31
0.0
  0
LINE
  5
2EB
330
4E
100
AcDbEntity
 67
     1
  8
1
  6
CONTINUOUS
 62
    18
100
AcDbLine
 10
2.456668
 20
6.581843
 30
0.0
 11
2.376668
 21
6.581843
 31
0.0
  0
LINE
  5
2EC
330
4E
100
AcDbEntity
 67
     1
  8
1
  6
CONTINUOUS
 62
    18
100
AcDbLine
 10
2.486668
 20
6.471844
 30
0.0
 11
2.486668
 21
6.551844
 31
0.0
  0
LINE
  5
2ED
330
4E
100
AcDbEntity
 67
     1
  8
1
  6
CONTINUOUS
 62
    18
100
AcDbLine
 10
2.346668
 20
6.471844
 30
0.0
 11
2.346668
 21
6.551844
 31
0.0
  0
LINE
  5
2EE
330
4E
100
AcDbEntity
 67
     1
  8
1
  6
CONTINUOUS
 62
    18
100
AcDbLine
 10
2.486668
 20
6.471844
 30
0.0
 11
2.346668
 21
6.471844
 31
0.0
  0
LINE
  5
2EF
330
4E
100
AcDbEntity
 67
     1
  8
1
  6
CONTINUOUS
 62
    18
100
AcDbLine
 10
2.486668
 20
6.453844
 30
0.0
 11
2.486668
 21
6.459116
 31
0.0
  0
LINE
  5
2F0
330
4E
100
AcDbEntity
 67
     1
  8
1
  6
CONTINUOUS
 62
    18
100
AcDbLine
 10
2.486668
 20
6.459116
 30
0.0
 11
2.486668
 21
6.471844
 31
0.0
  0
LINE
  5
2F1
330
4E
100
AcDbEntity
 67
     1
  8
1
  6
CONTINUOUS
 62
    18
100
AcDbLine
 10
2.346668
 20
6.453844
 30
0.0
 11
2.346668
 21
6.459116
 31
0.0
  0
LINE
  5
2F2
330
4E
100
AcDbEntity
 67
     1
  8
1
  6
CONTINUOUS
 62
    18
100
AcDbLine
 10
2.346668
 20
6.459116
 30
0.0
 11
2.346668
 21
6.471844
 31
0.0
  0
LINE
  5
2F3
330
4E
100
AcDbEntity
 67
     1
  8
1
  6
CONTINUOUS
 62
    18
100
AcDbLine
 10
2.486668
 20
6.453844
 30
0.0
 11
2.346668
 21
6.453844
 31
0.0
  0
LINE
  5
2F4
330
4E
100
AcDbEntity
 67
     1
  8
1
  6
CONTINUOUS
 62
    18
100
AcDbLine
 10
2.486668
 20
6.414844
 30
0.0
 11
2.486668
 21
6.435094
 31
0.0
  0
LINE
  5
2F5
330
4E
100
AcDbEntity
 67
     1
  8
1
  6
CONTINUOUS
 62
    18
100
AcDbLine
 10
2.486668
 20
6.435094
 30
0.0
 11
2.486668
 21
6.448933
 31
0.0
  0
LINE
  5
2F6
330
4E
100
AcDbEntity
 67
     1
  8
1
  6
CONTINUOUS
 62
    18
100
AcDbLine
 10
2.486668
 20
6.448933
 30
0.0
 11
2.486668
 21
6.453844
 31
0.0
  0
LINE
  5
2F7
330
4E
100
AcDbEntity
 67
     1
  8
1
  6
CONTINUOUS
 62
    18
100
AcDbLine
 10
2.346668
 20
6.414844
 30
0.0
 11
2.346668
 21
6.435094
 31
0.0
  0
LINE
  5
2F8
330
4E
100
AcDbEntity
 67
     1
  8
1
  6
CONTINUOUS
 62
    18
100
AcDbLine
 10
2.346668
 20
6.435094
 30
0.0
 11
2.346668
 21
6.448933
 31
0.0
  0
LINE
  5
2F9
330
4E
100
AcDbEntity
 67
     1
  8
1
  6
CONTINUOUS
 62
    18
100
AcDbLine
 10
2.346668
 20
6.448933
 30
0.0
 11
2.346668
 21
6.453844
 31
0.0
  0
LINE
  5
2FA
330
4E
100
AcDbEntity
 67
     1
  8
1
  6
CONTINUOUS
 62
    18
100
AcDbLine
 10
2.490687
 20
6.399844
 30
0.0
 11
2.487397
 21
6.40827
 31
0.0
  0
LINE
  5
2FB
330
4E
100
AcDbEntity
 67
     1
  8
1
  6
CONTINUOUS
 62
    18
100
AcDbLine
 10
2.487397
 20
6.40827
 30
0.0
 11
2.486668
 21
6.414844
 31
0.0
  0
LINE
  5
2FC
330
4E
100
AcDbEntity
 67
     1
  8
1
  6
CONTINUOUS
 62
    18
100
AcDbLine
 10
2.346668
 20
6.414844
 30
0.0
 11
2.345349
 21
6.406045
 31
0.0
  0
LINE
  5
2FD
330
4E
100
AcDbEntity
 67
     1
  8
1
  6
CONTINUOUS
 62
    18
100
AcDbLine
 10
2.345349
 20
6.406045
 30
0.0
 11
2.342649
 21
6.399844
 31
0.0
  0
LINE
  5
2FE
330
4E
100
AcDbEntity
 67
     1
  8
1
  6
CONTINUOUS
 62
    18
100
AcDbLine
 10
1.227034
 20
7.149256
 30
0.0
 11
3.606302
 21
7.149256
 31
0.0
  0
LINE
  5
2FF
330
4E
100
AcDbEntity
 67
     1
  8
1
  6
CONTINUOUS
 62
    18
100
AcDbLine
 10
3.606302
 20
7.149256
 30
0.0
 11
3.727389
 21
7.270344
 31
0.0
  0
LINE
  5
300
330
4E
100
AcDbEntity
 67
     1
  8
1
  6
CONTINUOUS
 62
    18
100
AcDbLine
 10
1.105947
 20
7.270344
 30
0.0
 11
3.727389
 21
7.270344
 31
0.0
  0
LINE
  5
301
330
4E
100
AcDbEntity
 67
     1
  8
1
  6
CONTINUOUS
 62
    18
100
AcDbLine
 10
1.105947
 20
7.270344
 30
0.0
 11
1.227034
 21
7.149256
 31
0.0
  0
LINE
  5
302
330
4E
100
AcDbEntity
 67
     1
  8
1
  6
CONTINUOUS
 62
    18
100
AcDbLine
 10
3.606302
 20
7.084977
 30
0.0
 11
3.606302
 21
7.119179
 31
0.0
  0
LINE
  5
303
330
4E
100
AcDbEntity
 67
     1
  8
1
  6
CONTINUOUS
 62
    18
100
AcDbLine
 10
3.606302
 20
7.119179
 30
0.0
 11
3.606302
 21
7.149256
 31
0.0
  0
LINE
  5
304
330
4E
100
AcDbEntity
 67
     1
  8
1
  6
CONTINUOUS
 62
    18
100
AcDbLine
 10
1.227034
 20
7.084977
 30
0.0
 11
1.227034
 21
7.119179
 31
0.0
  0
LINE
  5
305
330
4E
100
AcDbEntity
 67
     1
  8
1
  6
CONTINUOUS
 62
    18
100
AcDbLine
 10
1.227034
 20
7.119179
 30
0.0
 11
1.227034
 21
7.149256
 31
0.0
  0
LINE
  5
306
330
4E
100
AcDbEntity
 67
     1
  8
1
  6
CONTINUOUS
 62
    18
100
AcDbLine
 10
3.791668
 20
7.240344
 30
0.0
 11
3.790117
 21
7.249864
 31
0.0
  0
LINE
  5
307
330
4E
100
AcDbEntity
 67
     1
  8
1
  6
CONTINUOUS
 62
    18
100
AcDbLine
 10
3.790117
 20
7.249864
 30
0.0
 11
3.785546
 21
7.258504
 31
0.0
  0
LINE
  5
308
330
4E
100
AcDbEntity
 67
     1
  8
1
  6
CONTINUOUS
 62
    18
100
AcDbLine
 10
3.785546
 20
7.258504
 30
0.0
 11
3.778442
 21
7.265215
 31
0.0
  0
LINE
  5
309
330
4E
100
AcDbEntity
 67
     1
  8
1
  6
CONTINUOUS
 62
    18
100
AcDbLine
 10
3.778442
 20
7.265215
 30
0.0
 11
3.769589
 21
7.269279
 31
0.0
  0
LINE
  5
30A
330
4E
100
AcDbEntity
 67
     1
  8
1
  6
CONTINUOUS
 62
    18
100
AcDbLine
 10
3.769589
 20
7.269279
 30
0.0
 11
3.761668
 21
7.270344
 31
0.0
  0
LINE
  5
30B
330
4E
100
AcDbEntity
 67
     1
  8
1
  6
CONTINUOUS
 62
    18
100
AcDbLine
 10
3.727389
 20
7.270344
 30
0.0
 11
3.761668
 21
7.270344
 31
0.0
  0
LINE
  5
30C
330
4E
100
AcDbEntity
 67
     1
  8
1
  6
CONTINUOUS
 62
    18
100
AcDbLine
 10
3.67058
 20
7.084977
 30
0.0
 11
3.653013
 21
7.109539
 31
0.0
  0
LINE
  5
30D
330
4E
100
AcDbEntity
 67
     1
  8
1
  6
CONTINUOUS
 62
    18
100
AcDbLine
 10
3.653013
 20
7.109539
 30
0.0
 11
3.630863
 21
7.131689
 31
0.0
  0
LINE
  5
30E
330
4E
100
AcDbEntity
 67
     1
  8
1
  6
CONTINUOUS
 62
    18
100
AcDbLine
 10
3.630863
 20
7.131689
 30
0.0
 11
3.606302
 21
7.149256
 31
0.0
  0
LINE
  5
30F
330
4E
100
AcDbEntity
 67
     1
  8
1
  6
CONTINUOUS
 62
    18
100
AcDbLine
 10
1.071668
 20
7.270344
 30
0.0
 11
1.105947
 21
7.270344
 31
0.0
  0
LINE
  5
310
330
4E
100
AcDbEntity
 67
     1
  8
1
  6
CONTINUOUS
 62
    18
100
AcDbLine
 10
1.071668
 20
7.270344
 30
0.0
 11
1.062147
 21
7.268793
 31
0.0
  0
LINE
  5
311
330
4E
100
AcDbEntity
 67
     1
  8
1
  6
CONTINUOUS
 62
    18
100
AcDbLine
 10
1.062147
 20
7.268793
 30
0.0
 11
1.053507
 21
7.264222
 31
0.0
  0
LINE
  5
312
330
4E
100
AcDbEntity
 67
     1
  8
1
  6
CONTINUOUS
 62
    18
100
AcDbLine
 10
1.053507
 20
7.264222
 30
0.0
 11
1.046796
 21
7.257118
 31
0.0
  0
LINE
  5
313
330
4E
100
AcDbEntity
 67
     1
  8
1
  6
CONTINUOUS
 62
    18
100
AcDbLine
 10
1.046796
 20
7.257118
 30
0.0
 11
1.042732
 21
7.248265
 31
0.0
  0
LINE
  5
314
330
4E
100
AcDbEntity
 67
     1
  8
1
  6
CONTINUOUS
 62
    18
100
AcDbLine
 10
1.042732
 20
7.248265
 30
0.0
 11
1.041668
 21
7.240344
 31
0.0
  0
LINE
  5
315
330
4E
100
AcDbEntity
 67
     1
  8
1
  6
CONTINUOUS
 62
    18
100
AcDbLine
 10
1.162755
 20
7.084977
 30
0.0
 11
1.180322
 21
7.109539
 31
0.0
  0
LINE
  5
316
330
4E
100
AcDbEntity
 67
     1
  8
1
  6
CONTINUOUS
 62
    18
100
AcDbLine
 10
1.180322
 20
7.109539
 30
0.0
 11
1.202473
 21
7.131689
 31
0.0
  0
LINE
  5
317
330
4E
100
AcDbEntity
 67
     1
  8
1
  6
CONTINUOUS
 62
    18
100
AcDbLine
 10
1.202473
 20
7.131689
 30
0.0
 11
1.227034
 21
7.149256
 31
0.0
  0
LINE
  5
318
330
4E
100
AcDbEntity
 67
     1
  8
1
  6
CONTINUOUS
 62
    18
100
AcDbLine
 10
1.984168
 20
6.92578
 30
0.0
 11
1.739168
 21
6.92578
 31
0.0
  0
LINE
  5
319
330
4E
100
AcDbEntity
 67
     1
  8
1
  6
CONTINUOUS
 62
    18
100
AcDbLine
 10
1.739168
 20
6.979781
 30
0.0
 11
1.739168
 21
6.959116
 31
0.0
  0
LINE
  5
31A
330
4E
100
AcDbEntity
 67
     1
  8
1
  6
CONTINUOUS
 62
    18
100
AcDbLine
 10
1.739168
 20
6.959116
 30
0.0
 11
1.739168
 21
6.941597
 31
0.0
  0
LINE
  5
31B
330
4E
100
AcDbEntity
 67
     1
  8
1
  6
CONTINUOUS
 62
    18
100
AcDbLine
 10
1.739168
 20
6.941597
 30
0.0
 11
1.739168
 21
6.929891
 31
0.0
  0
LINE
  5
31C
330
4E
100
AcDbEntity
 67
     1
  8
1
  6
CONTINUOUS
 62
    18
100
AcDbLine
 10
1.739168
 20
6.929891
 30
0.0
 11
1.739168
 21
6.92578
 31
0.0
  0
LINE
  5
31D
330
4E
100
AcDbEntity
 67
     1
  8
1
  6
CONTINUOUS
 62
    18
100
AcDbLine
 10
1.984168
 20
6.979781
 30
0.0
 11
1.984168
 21
6.959116
 31
0.0
  0
LINE
  5
31E
330
4E
100
AcDbEntity
 67
     1
  8
1
  6
CONTINUOUS
 62
    18
100
AcDbLine
 10
1.984168
 20
6.959116
 30
0.0
 11
1.984168
 21
6.941597
 31
0.0
  0
LINE
  5
31F
330
4E
100
AcDbEntity
 67
     1
  8
1
  6
CONTINUOUS
 62
    18
100
AcDbLine
 10
1.984168
 20
6.941597
 30
0.0
 11
1.984168
 21
6.929891
 31
0.0
  0
LINE
  5
320
330
4E
100
AcDbEntity
 67
     1
  8
1
  6
CONTINUOUS
 62
    18
100
AcDbLine
 10
1.984168
 20
6.929891
 30
0.0
 11
1.984168
 21
6.92578
 31
0.0
  0
LINE
  5
321
330
4E
100
AcDbEntity
 67
     1
  8
1
  6
CONTINUOUS
 62
    18
100
AcDbLine
 10
2.849168
 20
6.92578
 30
0.0
 11
3.094168
 21
6.92578
 31
0.0
  0
LINE
  5
322
330
4E
100
AcDbEntity
 67
     1
  8
1
  6
CONTINUOUS
 62
    18
100
AcDbLine
 10
2.849168
 20
6.979781
 30
0.0
 11
2.849168
 21
6.959116
 31
0.0
  0
LINE
  5
323
330
4E
100
AcDbEntity
 67
     1
  8
1
  6
CONTINUOUS
 62
    18
100
AcDbLine
 10
2.849168
 20
6.959116
 30
0.0
 11
2.849168
 21
6.941597
 31
0.0
  0
LINE
  5
324
330
4E
100
AcDbEntity
 67
     1
  8
1
  6
CONTINUOUS
 62
    18
100
AcDbLine
 10
2.849168
 20
6.941597
 30
0.0
 11
2.849168
 21
6.929891
 31
0.0
  0
LINE
  5
325
330
4E
100
AcDbEntity
 67
     1
  8
1
  6
CONTINUOUS
 62
    18
100
AcDbLine
 10
2.849168
 20
6.929891
 30
0.0
 11
2.849168
 21
6.92578
 31
0.0
  0
LINE
  5
326
330
4E
100
AcDbEntity
 67
     1
  8
1
  6
CONTINUOUS
 62
    18
100
AcDbLine
 10
3.094168
 20
6.979781
 30
0.0
 11
3.094168
 21
6.959116
 31
0.0
  0
LINE
  5
327
330
4E
100
AcDbEntity
 67
     1
  8
1
  6
CONTINUOUS
 62
    18
100
AcDbLine
 10
3.094168
 20
6.959116
 30
0.0
 11
3.094168
 21
6.941597
 31
0.0
  0
LINE
  5
328
330
4E
100
AcDbEntity
 67
     1
  8
1
  6
CONTINUOUS
 62
    18
100
AcDbLine
 10
3.094168
 20
6.941597
 30
0.0
 11
3.094168
 21
6.929891
 31
0.0
  0
LINE
  5
329
330
4E
100
AcDbEntity
 67
     1
  8
1
  6
CONTINUOUS
 62
    18
100
AcDbLine
 10
3.094168
 20
6.929891
 30
0.0
 11
3.094168
 21
6.92578
 31
0.0
  0
LINE
  5
32A
330
4E
100
AcDbEntity
 67
     1
  8
1
  6
CONTINUOUS
 62
    18
100
AcDbLine
 10
2.456668
 20
3.458843
 30
0.0
 11
2.376668
 21
3.458843
 31
0.0
  0
LINE
  5
32B
330
4E
100
AcDbEntity
 67
     1
  8
1
  6
CONTINUOUS
 62
    18
100
AcDbLine
 10
2.486668
 20
3.568844
 30
0.0
 11
2.486668
 21
3.488843
 31
0.0
  0
LINE
  5
32C
330
4E
100
AcDbEntity
 67
     1
  8
1
  6
CONTINUOUS
 62
    18
100
AcDbLine
 10
2.346668
 20
3.568844
 30
0.0
 11
2.346668
 21
3.488843
 31
0.0
  0
LINE
  5
32D
330
4E
100
AcDbEntity
 67
     1
  8
1
  6
CONTINUOUS
 62
    18
100
AcDbLine
 10
2.486668
 20
3.568844
 30
0.0
 11
2.346668
 21
3.568844
 31
0.0
  0
LINE
  5
32E
330
4E
100
AcDbEntity
 67
     1
  8
1
  6
CONTINUOUS
 62
    18
100
AcDbLine
 10
2.486668
 20
3.586843
 30
0.0
 11
2.486668
 21
3.581572
 31
0.0
  0
LINE
  5
32F
330
4E
100
AcDbEntity
 67
     1
  8
1
  6
CONTINUOUS
 62
    18
100
AcDbLine
 10
2.486668
 20
3.581572
 30
0.0
 11
2.486668
 21
3.568844
 31
0.0
  0
LINE
  5
330
330
4E
100
AcDbEntity
 67
     1
  8
1
  6
CONTINUOUS
 62
    18
100
AcDbLine
 10
2.346668
 20
3.586843
 30
0.0
 11
2.346668
 21
3.581572
 31
0.0
  0
LINE
  5
331
330
4E
100
AcDbEntity
 67
     1
  8
1
  6
CONTINUOUS
 62
    18
100
AcDbLine
 10
2.346668
 20
3.581572
 30
0.0
 11
2.346668
 21
3.568844
 31
0.0
  0
LINE
  5
332
330
4E
100
AcDbEntity
 67
     1
  8
1
  6
CONTINUOUS
 62
    18
100
AcDbLine
 10
2.486668
 20
3.586843
 30
0.0
 11
2.346668
 21
3.586843
 31
0.0
  0
LINE
  5
333
330
4E
100
AcDbEntity
 67
     1
  8
1
  6
CONTINUOUS
 62
    18
100
AcDbLine
 10
2.486668
 20
3.625844
 30
0.0
 11
2.486668
 21
3.605593
 31
0.0
  0
LINE
  5
334
330
4E
100
AcDbEntity
 67
     1
  8
1
  6
CONTINUOUS
 62
    18
100
AcDbLine
 10
2.486668
 20
3.605593
 30
0.0
 11
2.486668
 21
3.591754
 31
0.0
  0
LINE
  5
335
330
4E
100
AcDbEntity
 67
     1
  8
1
  6
CONTINUOUS
 62
    18
100
AcDbLine
 10
2.486668
 20
3.591754
 30
0.0
 11
2.486668
 21
3.586843
 31
0.0
  0
LINE
  5
336
330
4E
100
AcDbEntity
 67
     1
  8
1
  6
CONTINUOUS
 62
    18
100
AcDbLine
 10
2.346668
 20
3.625844
 30
0.0
 11
2.346668
 21
3.605593
 31
0.0
  0
LINE
  5
337
330
4E
100
AcDbEntity
 67
     1
  8
1
  6
CONTINUOUS
 62
    18
100
AcDbLine
 10
2.346668
 20
3.605593
 30
0.0
 11
2.346668
 21
3.591754
 31
0.0
  0
LINE
  5
338
330
4E
100
AcDbEntity
 67
     1
  8
1
  6
CONTINUOUS
 62
    18
100
AcDbLine
 10
2.346668
 20
3.591754
 30
0.0
 11
2.346668
 21
3.586843
 31
0.0
  0
LINE
  5
339
330
4E
100
AcDbEntity
 67
     1
  8
1
  6
CONTINUOUS
 62
    18
100
AcDbLine
 10
2.346668
 20
3.625844
 30
0.0
 11
2.345349
 21
3.634642
 31
0.0
  0
LINE
  5
33A
330
4E
100
AcDbEntity
 67
     1
  8
1
  6
CONTINUOUS
 62
    18
100
AcDbLine
 10
2.345349
 20
3.634642
 30
0.0
 11
2.342649
 21
3.640844
 31
0.0
  0
LINE
  5
33B
330
4E
100
AcDbEntity
 67
     1
  8
1
  6
CONTINUOUS
 62
    18
100
AcDbLine
 10
2.490687
 20
3.640844
 30
0.0
 11
2.487397
 21
3.632417
 31
0.0
  0
LINE
  5
33C
330
4E
100
AcDbEntity
 67
     1
  8
1
  6
CONTINUOUS
 62
    18
100
AcDbLine
 10
2.487397
 20
3.632417
 30
0.0
 11
2.486668
 21
3.625844
 31
0.0
  0
LINE
  5
33D
330
4E
100
AcDbEntity
 67
     1
  8
1
  6
CONTINUOUS
 62
    18
100
AcDbLine
 10
1.227034
 20
2.891431
 30
0.0
 11
3.606302
 21
2.891431
 31
0.0
  0
LINE
  5
33E
330
4E
100
AcDbEntity
 67
     1
  8
1
  6
CONTINUOUS
 62
    18
100
AcDbLine
 10
1.105947
 20
2.770344
 30
0.0
 11
1.227034
 21
2.891431
 31
0.0
  0
LINE
  5
33F
330
4E
100
AcDbEntity
 67
     1
  8
1
  6
CONTINUOUS
 62
    18
100
AcDbLine
 10
1.105947
 20
2.770344
 30
0.0
 11
3.727389
 21
2.770344
 31
0.0
  0
LINE
  5
340
330
4E
100
AcDbEntity
 67
     1
  8
1
  6
CONTINUOUS
 62
    18
100
AcDbLine
 10
3.606302
 20
2.891431
 30
0.0
 11
3.727389
 21
2.770344
 31
0.0
  0
LINE
  5
341
330
4E
100
AcDbEntity
 67
     1
  8
1
  6
CONTINUOUS
 62
    18
100
AcDbLine
 10
1.227034
 20
2.95571
 30
0.0
 11
1.227034
 21
2.921508
 31
0.0
  0
LINE
  5
342
330
4E
100
AcDbEntity
 67
     1
  8
1
  6
CONTINUOUS
 62
    18
100
AcDbLine
 10
1.227034
 20
2.921508
 30
0.0
 11
1.227034
 21
2.891431
 31
0.0
  0
LINE
  5
343
330
4E
100
AcDbEntity
 67
     1
  8
1
  6
CONTINUOUS
 62
    18
100
AcDbLine
 10
3.606302
 20
2.95571
 30
0.0
 11
3.606302
 21
2.921508
 31
0.0
  0
LINE
  5
344
330
4E
100
AcDbEntity
 67
     1
  8
1
  6
CONTINUOUS
 62
    18
100
AcDbLine
 10
3.606302
 20
2.921508
 30
0.0
 11
3.606302
 21
2.891431
 31
0.0
  0
LINE
  5
345
330
4E
100
AcDbEntity
 67
     1
  8
1
  6
CONTINUOUS
 62
    18
100
AcDbLine
 10
3.67058
 20
2.95571
 30
0.0
 11
3.653013
 21
2.931149
 31
0.0
  0
LINE
  5
346
330
4E
100
AcDbEntity
 67
     1
  8
1
  6
CONTINUOUS
 62
    18
100
AcDbLine
 10
3.653013
 20
2.931149
 30
0.0
 11
3.630863
 21
2.908998
 31
0.0
  0
LINE
  5
347
330
4E
100
AcDbEntity
 67
     1
  8
1
  6
CONTINUOUS
 62
    18
100
AcDbLine
 10
3.630863
 20
2.908998
 30
0.0
 11
3.606302
 21
2.891431
 31
0.0
  0
LINE
  5
348
330
4E
100
AcDbEntity
 67
     1
  8
1
  6
CONTINUOUS
 62
    18
100
AcDbLine
 10
3.727389
 20
2.770344
 30
0.0
 11
3.761668
 21
2.770344
 31
0.0
  0
LINE
  5
349
330
4E
100
AcDbEntity
 67
     1
  8
1
  6
CONTINUOUS
 62
    18
100
AcDbLine
 10
3.791668
 20
2.800344
 30
0.0
 11
3.790117
 21
2.790823
 31
0.0
  0
LINE
  5
34A
330
4E
100
AcDbEntity
 67
     1
  8
1
  6
CONTINUOUS
 62
    18
100
AcDbLine
 10
3.790117
 20
2.790823
 30
0.0
 11
3.785546
 21
2.782183
 31
0.0
  0
LINE
  5
34B
330
4E
100
AcDbEntity
 67
     1
  8
1
  6
CONTINUOUS
 62
    18
100
AcDbLine
 10
3.785546
 20
2.782183
 30
0.0
 11
3.778442
 21
2.775471
 31
0.0
  0
LINE
  5
34C
330
4E
100
AcDbEntity
 67
     1
  8
1
  6
CONTINUOUS
 62
    18
100
AcDbLine
 10
3.778442
 20
2.775471
 30
0.0
 11
3.769589
 21
2.771408
 31
0.0
  0
LINE
  5
34D
330
4E
100
AcDbEntity
 67
     1
  8
1
  6
CONTINUOUS
 62
    18
100
AcDbLine
 10
3.769589
 20
2.771408
 30
0.0
 11
3.761668
 21
2.770344
 31
0.0
  0
LINE
  5
34E
330
4E
100
AcDbEntity
 67
     1
  8
1
  6
CONTINUOUS
 62
    18
100
AcDbLine
 10
1.071668
 20
2.770344
 30
0.0
 11
1.105947
 21
2.770344
 31
0.0
  0
LINE
  5
34F
330
4E
100
AcDbEntity
 67
     1
  8
1
  6
CONTINUOUS
 62
    18
100
AcDbLine
 10
1.071668
 20
2.770344
 30
0.0
 11
1.062147
 21
2.771894
 31
0.0
  0
LINE
  5
350
330
4E
100
AcDbEntity
 67
     1
  8
1
  6
CONTINUOUS
 62
    18
100
AcDbLine
 10
1.062147
 20
2.771894
 30
0.0
 11
1.053507
 21
2.776465
 31
0.0
  0
LINE
  5
351
330
4E
100
AcDbEntity
 67
     1
  8
1
  6
CONTINUOUS
 62
    18
100
AcDbLine
 10
1.053507
 20
2.776465
 30
0.0
 11
1.046796
 21
2.783569
 31
0.0
  0
LINE
  5
352
330
4E
100
AcDbEntity
 67
     1
  8
1
  6
CONTINUOUS
 62
    18
100
AcDbLine
 10
1.046796
 20
2.783569
 30
0.0
 11
1.042732
 21
2.792422
 31
0.0
  0
LINE
  5
353
330
4E
100
AcDbEntity
 67
     1
  8
1
  6
CONTINUOUS
 62
    18
100
AcDbLine
 10
1.042732
 20
2.792422
 30
0.0
 11
1.041668
 21
2.800344
 31
0.0
  0
LINE
  5
354
330
4E
100
AcDbEntity
 67
     1
  8
1
  6
CONTINUOUS
 62
    18
100
AcDbLine
 10
1.162755
 20
2.95571
 30
0.0
 11
1.180322
 21
2.931149
 31
0.0
  0
LINE
  5
355
330
4E
100
AcDbEntity
 67
     1
  8
1
  6
CONTINUOUS
 62
    18
100
AcDbLine
 10
1.180322
 20
2.931149
 30
0.0
 11
1.202473
 21
2.908998
 31
0.0
  0
LINE
  5
356
330
4E
100
AcDbEntity
 67
     1
  8
1
  6
CONTINUOUS
 62
    18
100
AcDbLine
 10
1.202473
 20
2.908998
 30
0.0
 11
1.227034
 21
2.891431
 31
0.0
  0
LINE
  5
357
330
4E
100
AcDbEntity
 67
     1
  8
1
  6
CONTINUOUS
 62
    18
100
AcDbLine
 10
1.904168
 20
3.114907
 30
0.0
 11
1.659168
 21
3.114907
 31
0.0
  0
LINE
  5
358
330
4E
100
AcDbEntity
 67
     1
  8
1
  6
CONTINUOUS
 62
    18
100
AcDbLine
 10
1.904168
 20
3.060907
 30
0.0
 11
1.904168
 21
3.081572
 31
0.0
  0
LINE
  5
359
330
4E
100
AcDbEntity
 67
     1
  8
1
  6
CONTINUOUS
 62
    18
100
AcDbLine
 10
1.904168
 20
3.081572
 30
0.0
 11
1.904168
 21
3.09909
 31
0.0
  0
LINE
  5
35A
330
4E
100
AcDbEntity
 67
     1
  8
1
  6
CONTINUOUS
 62
    18
100
AcDbLine
 10
1.904168
 20
3.09909
 30
0.0
 11
1.904168
 21
3.110796
 31
0.0
  0
LINE
  5
35B
330
4E
100
AcDbEntity
 67
     1
  8
1
  6
CONTINUOUS
 62
    18
100
AcDbLine
 10
1.904168
 20
3.110796
 30
0.0
 11
1.904168
 21
3.114907
 31
0.0
  0
LINE
  5
35C
330
4E
100
AcDbEntity
 67
     1
  8
1
  6
CONTINUOUS
 62
    18
100
AcDbLine
 10
1.659168
 20
3.060907
 30
0.0
 11
1.659168
 21
3.081572
 31
0.0
  0
LINE
  5
35D
330
4E
100
AcDbEntity
 67
     1
  8
1
  6
CONTINUOUS
 62
    18
100
AcDbLine
 10
1.659168
 20
3.081572
 30
0.0
 11
1.659168
 21
3.09909
 31
0.0
  0
LINE
  5
35E
330
4E
100
AcDbEntity
 67
     1
  8
1
  6
CONTINUOUS
 62
    18
100
AcDbLine
 10
1.659168
 20
3.09909
 30
0.0
 11
1.659168
 21
3.110796
 31
0.0
  0
LINE
  5
35F
330
4E
100
AcDbEntity
 67
     1
  8
1
  6
CONTINUOUS
 62
    18
100
AcDbLine
 10
1.659168
 20
3.110796
 30
0.0
 11
1.659168
 21
3.114907
 31
0.0
  0
LINE
  5
360
330
4E
100
AcDbEntity
 67
     1
  8
1
  6
CONTINUOUS
 62
    18
100
AcDbLine
 10
2.929168
 20
3.114907
 30
0.0
 11
3.174168
 21
3.114907
 31
0.0
  0
LINE
  5
361
330
4E
100
AcDbEntity
 67
     1
  8
1
  6
CONTINUOUS
 62
    18
100
AcDbLine
 10
3.174168
 20
3.060907
 30
0.0
 11
3.174168
 21
3.081572
 31
0.0
  0
LINE
  5
362
330
4E
100
AcDbEntity
 67
     1
  8
1
  6
CONTINUOUS
 62
    18
100
AcDbLine
 10
3.174168
 20
3.081572
 30
0.0
 11
3.174168
 21
3.09909
 31
0.0
  0
LINE
  5
363
330
4E
100
AcDbEntity
 67
     1
  8
1
  6
CONTINUOUS
 62
    18
100
AcDbLine
 10
3.174168
 20
3.09909
 30
0.0
 11
3.174168
 21
3.110796
 31
0.0
  0
LINE
  5
364
330
4E
100
AcDbEntity
 67
     1
  8
1
  6
CONTINUOUS
 62
    18
100
AcDbLine
 10
3.174168
 20
3.110796
 30
0.0
 11
3.174168
 21
3.114907
 31
0.0
  0
LINE
  5
365
330
4E
100
AcDbEntity
 67
     1
  8
1
  6
CONTINUOUS
 62
    18
100
AcDbLine
 10
2.929168
 20
3.060907
 30
0.0
 11
2.929168
 21
3.081572
 31
0.0
  0
LINE
  5
366
330
4E
100
AcDbEntity
 67
     1
  8
1
  6
CONTINUOUS
 62
    18
100
AcDbLine
 10
2.929168
 20
3.081572
 30
0.0
 11
2.929168
 21
3.09909
 31
0.0
  0
LINE
  5
367
330
4E
100
AcDbEntity
 67
     1
  8
1
  6
CONTINUOUS
 62
    18
100
AcDbLine
 10
2.929168
 20
3.09909
 30
0.0
 11
2.929168
 21
3.110796
 31
0.0
  0
LINE
  5
368
330
4E
100
AcDbEntity
 67
     1
  8
1
  6
CONTINUOUS
 62
    18
100
AcDbLine
 10
2.929168
 20
3.110796
 30
0.0
 11
2.929168
 21
3.114907
 31
0.0
  0
LINE
  5
369
330
4E
100
AcDbEntity
 67
     1
  8
1
  6
CONTINUOUS
 62
    18
100
AcDbLine
 10
5.059707
 20
4.447139
 30
0.0
 11
5.162632
 21
4.504191
 31
0.0
  0
LINE
  5
36A
330
4E
100
AcDbEntity
 67
     1
  8
1
  6
CONTINUOUS
 62
    18
100
AcDbLine
 10
5.213368
 20
4.532314
 30
0.0
 11
5.308664
 21
4.589574
 31
0.0
  0
LINE
  5
36B
330
4E
100
AcDbEntity
 67
     1
  8
1
  6
CONTINUOUS
 62
    18
100
AcDbLine
 10
5.220362
 20
4.520201
 30
0.0
 11
5.213368
 21
4.532314
 31
0.0
  0
LINE
  5
36C
330
4E
100
AcDbEntity
 67
     1
  8
1
  6
CONTINUOUS
 62
    18
100
AcDbLine
 10
5.220362
 20
4.520201
 30
0.0
 11
5.231843
 21
4.500316
 31
0.0
  0
LINE
  5
36D
330
4E
100
AcDbEntity
 67
     1
  8
1
  6
CONTINUOUS
 62
    18
100
AcDbLine
 10
5.231843
 20
4.500316
 30
0.0
 11
5.241575
 21
4.483459
 31
0.0
  0
LINE
  5
36E
330
4E
100
AcDbEntity
 67
     1
  8
1
  6
CONTINUOUS
 62
    18
100
AcDbLine
 10
5.241575
 20
4.483459
 30
0.0
 11
5.248078
 21
4.472195
 31
0.0
  0
LINE
  5
36F
330
4E
100
AcDbEntity
 67
     1
  8
1
  6
CONTINUOUS
 62
    18
100
AcDbLine
 10
5.248078
 20
4.472195
 30
0.0
 11
5.250362
 21
4.468239
 31
0.0
  0
LINE
  5
370
330
4E
100
AcDbEntity
 67
     1
  8
1
  6
CONTINUOUS
 62
    18
100
AcDbLine
 10
5.170132
 20
4.491201
 30
0.0
 11
5.162632
 21
4.504191
 31
0.0
  0
LINE
  5
371
330
4E
100
AcDbEntity
 67
     1
  8
1
  6
CONTINUOUS
 62
    18
100
AcDbLine
 10
5.170132
 20
4.491201
 30
0.0
 11
5.220362
 21
4.520201
 31
0.0
  0
LINE
  5
372
330
4E
100
AcDbEntity
 67
     1
  8
1
  6
CONTINUOUS
 62
    18
100
AcDbLine
 10
5.328063
 20
5.200463
 30
0.0
 11
5.328063
 21
4.623861
 31
0.0
  0
LINE
  5
373
330
4E
100
AcDbEntity
 67
     1
  8
1
  6
CONTINUOUS
 62
    18
100
AcDbLine
 10
5.059711
 20
5.240463
 30
0.0
 11
5.288063
 21
5.240463
 31
0.0
  0
LINE
  5
374
330
4E
100
AcDbEntity
 67
     1
  8
1
  6
CONTINUOUS
 62
    18
100
AcDbLine
 10
5.059702
 20
5.112186
 30
0.0
 11
5.214708
 21
5.112186
 31
0.0
  0
LINE
  5
375
330
4E
100
AcDbEntity
 67
     1
  8
1
  6
CONTINUOUS
 62
    18
100
AcDbLine
 10
5.146458
 20
5.052186
 30
0.0
 11
5.214708
 21
5.052186
 31
0.0
  0
LINE
  5
376
330
4E
100
AcDbEntity
 67
     1
  8
1
  6
CONTINUOUS
 62
    18
100
AcDbLine
 10
5.146458
 20
5.052186
 30
0.0
 11
5.146458
 21
4.994687
 31
0.0
  0
LINE
  5
377
330
4E
100
AcDbEntity
 67
     1
  8
1
  6
CONTINUOUS
 62
    18
100
AcDbLine
 10
5.146458
 20
4.994687
 30
0.0
 11
5.214708
 21
4.994687
 31
0.0
  0
LINE
  5
378
330
4E
100
AcDbEntity
 67
     1
  8
1
  6
CONTINUOUS
 62
    18
100
AcDbLine
 10
5.146458
 20
4.934687
 30
0.0
 11
5.214708
 21
4.934687
 31
0.0
  0
LINE
  5
379
330
4E
100
AcDbEntity
 67
     1
  8
1
  6
CONTINUOUS
 62
    18
100
AcDbLine
 10
5.146458
 20
4.877186
 30
0.0
 11
5.146458
 21
4.934687
 31
0.0
  0
LINE
  5
37A
330
4E
100
AcDbEntity
 67
     1
  8
1
  6
CONTINUOUS
 62
    18
100
AcDbLine
 10
5.146458
 20
4.877186
 30
0.0
 11
5.214708
 21
4.877186
 31
0.0
  0
LINE
  5
37B
330
4E
100
AcDbEntity
 67
     1
  8
1
  6
CONTINUOUS
 62
    18
100
AcDbLine
 10
5.059702
 20
4.817186
 30
0.0
 11
5.214708
 21
4.817186
 31
0.0
  0
LINE
  5
37C
330
4E
100
AcDbEntity
 67
     1
  8
1
  6
CONTINUOUS
 62
    18
100
AcDbLine
 10
5.059708
 20
4.994687
 30
0.0
 11
5.065708
 21
4.994687
 31
0.0
  0
LINE
  5
37D
330
4E
100
AcDbEntity
 67
     1
  8
1
  6
CONTINUOUS
 62
    18
100
AcDbLine
 10
5.059705
 20
5.052186
 30
0.0
 11
5.065708
 21
5.052186
 31
0.0
  0
LINE
  5
37E
330
4E
100
AcDbEntity
 67
     1
  8
1
  6
CONTINUOUS
 62
    18
100
AcDbLine
 10
5.059705
 20
4.877186
 30
0.0
 11
5.065708
 21
4.877186
 31
0.0
  0
LINE
  5
37F
330
4E
100
AcDbEntity
 67
     1
  8
1
  6
CONTINUOUS
 62
    18
100
AcDbLine
 10
5.059708
 20
4.934687
 30
0.0
 11
5.065708
 21
4.934687
 31
0.0
  0
LINE
  5
380
330
4E
100
AcDbEntity
 67
     1
  8
1
  6
CONTINUOUS
 62
    18
100
AcDbLine
 10
5.059707
 20
5.380636
 30
0.0
 11
5.170302
 21
5.440684
 31
0.0
  0
LINE
  5
381
330
4E
100
AcDbEntity
 67
     1
  8
1
  6
CONTINUOUS
 62
    18
100
AcDbLine
 10
5.359514
 20
5.617852
 30
0.0
 11
5.059712
 21
5.471629
 31
0.0
  0
LINE
  5
382
330
4E
100
AcDbEntity
 67
     1
  8
1
  6
CONTINUOUS
 62
    18
100
AcDbLine
 10
5.170302
 20
5.440684
 30
0.0
 11
5.181531
 21
5.441939
 31
0.0
  0
LINE
  5
383
330
4E
100
AcDbEntity
 67
     1
  8
1
  6
CONTINUOUS
 62
    18
100
AcDbLine
 10
5.181531
 20
5.441939
 30
0.0
 11
5.19045
 21
5.435002
 31
0.0
  0
LINE
  5
384
330
4E
100
AcDbEntity
 67
     1
  8
1
  6
CONTINUOUS
 62
    18
100
AcDbLine
 10
5.19045
 20
5.435002
 30
0.0
 11
5.198265
 21
5.421467
 31
0.0
  0
LINE
  5
385
330
4E
100
AcDbEntity
 67
     1
  8
1
  6
CONTINUOUS
 62
    18
100
AcDbLine
 10
5.198265
 20
5.421467
 30
0.0
 11
5.204135
 21
5.405529
 31
0.0
  0
LINE
  5
386
330
4E
100
AcDbEntity
 67
     1
  8
1
  6
CONTINUOUS
 62
    18
100
AcDbLine
 10
5.204135
 20
5.405529
 30
0.0
 11
5.204331
 21
5.388545
 31
0.0
  0
LINE
  5
387
330
4E
100
AcDbEntity
 67
     1
  8
1
  6
CONTINUOUS
 62
    18
100
AcDbLine
 10
5.204331
 20
5.388545
 30
0.0
 11
5.205302
 21
5.383277
 31
0.0
  0
LINE
  5
388
330
4E
100
AcDbEntity
 67
     1
  8
1
  6
CONTINUOUS
 62
    18
100
AcDbLine
 10
5.205302
 20
5.383277
 30
0.0
 11
5.220126
 21
5.357602
 31
0.0
  0
LINE
  5
389
330
4E
100
AcDbEntity
 67
     1
  8
1
  6
CONTINUOUS
 62
    18
100
AcDbLine
 10
5.220126
 20
5.357602
 30
0.0
 11
5.235619
 21
5.36845
 31
0.0
  0
LINE
  5
38A
330
4E
100
AcDbEntity
 67
     1
  8
1
  6
CONTINUOUS
 62
    18
100
AcDbLine
 10
5.235619
 20
5.36845
 30
0.0
 11
5.260176
 21
5.393007
 31
0.0
  0
LINE
  5
38B
330
4E
100
AcDbEntity
 67
     1
  8
1
  6
CONTINUOUS
 62
    18
100
AcDbLine
 10
5.260176
 20
5.393007
 30
0.0
 11
5.274853
 21
5.424483
 31
0.0
  0
LINE
  5
38C
330
4E
100
AcDbEntity
 67
     1
  8
1
  6
CONTINUOUS
 62
    18
100
AcDbLine
 10
5.292646
 20
5.490889
 30
0.0
 11
5.274853
 21
5.424483
 31
0.0
  0
LINE
  5
38D
330
4E
100
AcDbEntity
 67
     1
  8
1
  6
CONTINUOUS
 62
    18
100
AcDbLine
 10
5.292646
 20
5.490889
 30
0.0
 11
5.301453
 21
5.509774
 31
0.0
  0
LINE
  5
38E
330
4E
100
AcDbEntity
 67
     1
  8
1
  6
CONTINUOUS
 62
    18
100
AcDbLine
 10
5.301453
 20
5.509774
 30
0.0
 11
5.316187
 21
5.524508
 31
0.0
  0
LINE
  5
38F
330
4E
100
AcDbEntity
 67
     1
  8
1
  6
CONTINUOUS
 62
    18
100
AcDbLine
 10
5.385633
 20
5.573135
 30
0.0
 11
5.316187
 21
5.524508
 31
0.0
  0
LINE
  5
390
330
4E
100
AcDbEntity
 67
     1
  8
1
  6
CONTINUOUS
 62
    18
100
AcDbLine
 10
5.385633
 20
5.573135
 30
0.0
 11
5.391674
 21
5.582175
 31
0.0
  0
LINE
  5
391
330
4E
100
AcDbEntity
 67
     1
  8
1
  6
CONTINUOUS
 62
    18
100
AcDbLine
 10
5.391674
 20
5.582175
 30
0.0
 11
5.39002
 21
5.592922
 31
0.0
  0
LINE
  5
392
330
4E
100
AcDbEntity
 67
     1
  8
1
  6
CONTINUOUS
 62
    18
100
AcDbLine
 10
5.39002
 20
5.592922
 30
0.0
 11
5.37908
 21
5.61187
 31
0.0
  0
LINE
  5
393
330
4E
100
AcDbEntity
 67
     1
  8
1
  6
CONTINUOUS
 62
    18
100
AcDbLine
 10
5.37908
 20
5.61187
 30
0.0
 11
5.370475
 21
5.618715
 31
0.0
  0
LINE
  5
394
330
4E
100
AcDbEntity
 67
     1
  8
1
  6
CONTINUOUS
 62
    18
100
AcDbLine
 10
5.370475
 20
5.618715
 30
0.0
 11
5.359514
 21
5.617852
 31
0.0
  0
LINE
  5
395
330
4E
100
AcDbEntity
 67
     1
  8
1
  6
CONTINUOUS
 62
    18
100
AcDbLine
 10
5.065708
 20
5.111132
 30
0.0
 11
5.059707
 21
5.111132
 31
0.0
  0
LINE
  5
396
330
4E
100
AcDbEntity
 67
     1
  8
1
  6
CONTINUOUS
 62
    18
100
AcDbLine
 10
5.065708
 20
5.053241
 30
0.0
 11
5.059707
 21
5.053241
 31
0.0
  0
LINE
  5
397
330
4E
100
AcDbEntity
 67
     1
  8
1
  6
CONTINUOUS
 62
    18
100
AcDbLine
 10
5.214708
 20
5.052313
 30
0.0
 11
5.207208
 21
5.05254
 31
0.0
  0
LINE
  5
398
330
4E
100
AcDbEntity
 67
     1
  8
1
  6
CONTINUOUS
 62
    18
100
AcDbLine
 10
5.214708
 20
5.11206
 30
0.0
 11
5.214708
 21
5.052313
 31
0.0
  0
LINE
  5
399
330
4E
100
AcDbEntity
 67
     1
  8
1
  6
CONTINUOUS
 62
    18
100
AcDbLine
 10
5.207208
 20
5.111833
 30
0.0
 11
5.214708
 21
5.11206
 31
0.0
  0
LINE
  5
39A
330
4E
100
AcDbEntity
 67
     1
  8
1
  6
CONTINUOUS
 62
    18
100
AcDbLine
 10
5.207208
 20
5.05254
 30
0.0
 11
5.207208
 21
5.111833
 31
0.0
  0
LINE
  5
39B
330
4E
100
AcDbEntity
 67
     1
  8
1
  6
CONTINUOUS
 62
    18
100
AcDbLine
 10
5.207208
 20
4.93504
 30
0.0
 11
5.207208
 21
4.994333
 31
0.0
  0
LINE
  5
39C
330
4E
100
AcDbEntity
 67
     1
  8
1
  6
CONTINUOUS
 62
    18
100
AcDbLine
 10
5.214708
 20
4.934813
 30
0.0
 11
5.207208
 21
4.93504
 31
0.0
  0
LINE
  5
39D
330
4E
100
AcDbEntity
 67
     1
  8
1
  6
CONTINUOUS
 62
    18
100
AcDbLine
 10
5.214708
 20
4.99456
 30
0.0
 11
5.214708
 21
4.934813
 31
0.0
  0
LINE
  5
39E
330
4E
100
AcDbEntity
 67
     1
  8
1
  6
CONTINUOUS
 62
    18
100
AcDbLine
 10
5.207208
 20
4.994333
 30
0.0
 11
5.214708
 21
4.99456
 31
0.0
  0
LINE
  5
39F
330
4E
100
AcDbEntity
 67
     1
  8
1
  6
CONTINUOUS
 62
    18
100
AcDbLine
 10
5.065708
 20
4.818241
 30
0.0
 11
5.059707
 21
4.818241
 31
0.0
  0
LINE
  5
3A0
330
4E
100
AcDbEntity
 67
     1
  8
1
  6
CONTINUOUS
 62
    18
100
AcDbLine
 10
5.065708
 20
4.876132
 30
0.0
 11
5.059707
 21
4.876132
 31
0.0
  0
LINE
  5
3A1
330
4E
100
AcDbEntity
 67
     1
  8
1
  6
CONTINUOUS
 62
    18
100
AcDbLine
 10
5.065708
 20
5.110748
 30
0.0
 11
5.065708
 21
4.818625
 31
0.0
  0
LINE
  5
3A2
330
4E
100
AcDbEntity
 67
     1
  8
1
  6
CONTINUOUS
 62
    18
100
AcDbLine
 10
5.099565
 20
4.818625
 30
0.0
 11
5.065708
 21
4.818625
 31
0.0
  0
LINE
  5
3A3
330
4E
100
AcDbEntity
 67
     1
  8
1
  6
CONTINUOUS
 62
    18
100
AcDbLine
 10
5.099565
 20
5.110748
 30
0.0
 11
5.099565
 21
4.818625
 31
0.0
  0
LINE
  5
3A4
330
4E
100
AcDbEntity
 67
     1
  8
1
  6
CONTINUOUS
 62
    18
100
AcDbLine
 10
5.099565
 20
5.110748
 30
0.0
 11
5.065708
 21
5.110748
 31
0.0
  0
LINE
  5
3A5
330
4E
100
AcDbEntity
 67
     1
  8
1
  6
CONTINUOUS
 62
    18
100
AcDbLine
 10
5.207208
 20
4.81754
 30
0.0
 11
5.207208
 21
4.876833
 31
0.0
  0
LINE
  5
3A6
330
4E
100
AcDbEntity
 67
     1
  8
1
  6
CONTINUOUS
 62
    18
100
AcDbLine
 10
5.214708
 20
4.817314
 30
0.0
 11
5.207208
 21
4.81754
 31
0.0
  0
LINE
  5
3A7
330
4E
100
AcDbEntity
 67
     1
  8
1
  6
CONTINUOUS
 62
    18
100
AcDbLine
 10
5.214708
 20
4.877059
 30
0.0
 11
5.214708
 21
4.817314
 31
0.0
  0
LINE
  5
3A8
330
4E
100
AcDbEntity
 67
     1
  8
1
  6
CONTINUOUS
 62
    18
100
AcDbLine
 10
5.207208
 20
4.876833
 30
0.0
 11
5.214708
 21
4.877059
 31
0.0
  0
LINE
  5
3A9
330
4E
100
AcDbEntity
 67
     1
  8
1
  6
CONTINUOUS
 62
    18
100
AcDbLine
 10
5.145483
 20
5.053162
 30
0.0
 11
5.145483
 21
4.993711
 31
0.0
  0
LINE
  5
3AA
330
4E
100
AcDbEntity
 67
     1
  8
1
  6
CONTINUOUS
 62
    18
100
AcDbLine
 10
5.207208
 20
5.05254
 30
0.0
 11
5.145483
 21
5.053162
 31
0.0
  0
LINE
  5
3AB
330
4E
100
AcDbEntity
 67
     1
  8
1
  6
CONTINUOUS
 62
    18
100
AcDbLine
 10
5.207208
 20
5.111833
 30
0.0
 11
5.099565
 21
5.110748
 31
0.0
  0
LINE
  5
3AC
330
4E
100
AcDbEntity
 67
     1
  8
1
  6
CONTINUOUS
 62
    18
100
AcDbLine
 10
5.207208
 20
4.81754
 30
0.0
 11
5.099565
 21
4.818625
 31
0.0
  0
LINE
  5
3AD
330
4E
100
AcDbEntity
 67
     1
  8
1
  6
CONTINUOUS
 62
    18
100
AcDbLine
 10
5.207208
 20
4.876833
 30
0.0
 11
5.145483
 21
4.876211
 31
0.0
  0
LINE
  5
3AE
330
4E
100
AcDbEntity
 67
     1
  8
1
  6
CONTINUOUS
 62
    18
100
AcDbLine
 10
5.145483
 20
4.876211
 30
0.0
 11
5.145483
 21
4.935662
 31
0.0
  0
LINE
  5
3AF
330
4E
100
AcDbEntity
 67
     1
  8
1
  6
CONTINUOUS
 62
    18
100
AcDbLine
 10
5.207208
 20
4.93504
 30
0.0
 11
5.145483
 21
4.935662
 31
0.0
  0
LINE
  5
3B0
330
4E
100
AcDbEntity
 67
     1
  8
1
  6
CONTINUOUS
 62
    18
100
AcDbLine
 10
5.207208
 20
4.994333
 30
0.0
 11
5.145483
 21
4.993711
 31
0.0
  0
LINE
  5
3B1
330
4E
100
AcDbEntity
 67
     1
  8
1
  6
CONTINUOUS
 62
    18
100
AcDbLine
 10
5.065708
 20
4.935741
 30
0.0
 11
5.059708
 21
4.935741
 31
0.0
  0
LINE
  5
3B2
330
4E
100
AcDbEntity
 67
     1
  8
1
  6
CONTINUOUS
 62
    18
100
AcDbLine
 10
5.065708
 20
4.993632
 30
0.0
 11
5.059708
 21
4.993632
 31
0.0
  0
LINE
  5
3B3
330
4E
100
AcDbEntity
 67
     1
  8
1
  6
CONTINUOUS
 62
    18
100
AcDbLine
 10
5.145483
 20
4.876211
 30
0.0
 11
5.146458
 21
4.877186
 31
0.0
  0
LINE
  5
3B4
330
4E
100
AcDbEntity
 67
     1
  8
1
  6
CONTINUOUS
 62
    18
100
AcDbLine
 10
5.145483
 20
4.935662
 30
0.0
 11
5.146458
 21
4.934687
 31
0.0
  0
LINE
  5
3B5
330
4E
100
AcDbEntity
 67
     1
  8
1
  6
CONTINUOUS
 62
    18
100
AcDbLine
 10
5.214708
 20
4.934813
 30
0.0
 11
5.214708
 21
4.934687
 31
0.0
  0
LINE
  5
3B6
330
4E
100
AcDbEntity
 67
     1
  8
1
  6
CONTINUOUS
 62
    18
100
AcDbLine
 10
5.214708
 20
4.877059
 30
0.0
 11
5.214708
 21
4.877186
 31
0.0
  0
LINE
  5
3B7
330
4E
100
AcDbEntity
 67
     1
  8
1
  6
CONTINUOUS
 62
    18
100
AcDbLine
 10
5.214708
 20
4.99456
 30
0.0
 11
5.214708
 21
4.994687
 31
0.0
  0
LINE
  5
3B8
330
4E
100
AcDbEntity
 67
     1
  8
1
  6
CONTINUOUS
 62
    18
100
AcDbLine
 10
5.214708
 20
5.052313
 30
0.0
 11
5.214708
 21
5.052186
 31
0.0
  0
LINE
  5
3B9
330
4E
100
AcDbEntity
 67
     1
  8
1
  6
CONTINUOUS
 62
    18
100
AcDbLine
 10
5.214708
 20
5.11206
 30
0.0
 11
5.214708
 21
5.112186
 31
0.0
  0
LINE
  5
3BA
330
4E
100
AcDbEntity
 67
     1
  8
1
  6
CONTINUOUS
 62
    18
100
AcDbLine
 10
5.065708
 20
5.110748
 30
0.0
 11
5.065708
 21
5.111132
 31
0.0
  0
LINE
  5
3BB
330
4E
100
AcDbEntity
 67
     1
  8
1
  6
CONTINUOUS
 62
    18
100
AcDbLine
 10
5.214708
 20
4.817314
 30
0.0
 11
5.214708
 21
4.817186
 31
0.0
  0
LINE
  5
3BC
330
4E
100
AcDbEntity
 67
     1
  8
1
  6
CONTINUOUS
 62
    18
100
AcDbLine
 10
5.065708
 20
4.818625
 30
0.0
 11
5.065708
 21
4.818241
 31
0.0
  0
LINE
  5
3BD
330
4E
100
AcDbEntity
 67
     1
  8
1
  6
CONTINUOUS
 62
    18
100
AcDbLine
 10
5.145483
 20
5.053162
 30
0.0
 11
5.146458
 21
5.052186
 31
0.0
  0
LINE
  5
3BE
330
4E
100
AcDbEntity
 67
     1
  8
1
  6
CONTINUOUS
 62
    18
100
AcDbLine
 10
5.146458
 20
4.994687
 30
0.0
 11
5.145483
 21
4.993711
 31
0.0
  0
LINE
  5
3BF
330
4E
100
AcDbEntity
 67
     1
  8
1
  6
CONTINUOUS
 62
    18
100
AcDbLine
 10
5.250362
 20
4.468239
 30
0.0
 11
5.200132
 21
4.43924
 31
0.0
  0
LINE
  5
3C0
330
4E
100
AcDbEntity
 67
     1
  8
1
  6
CONTINUOUS
 62
    18
100
AcDbLine
 10
5.200132
 20
4.43924
 30
0.0
 11
5.197849
 21
4.443195
 31
0.0
  0
LINE
  5
3C1
330
4E
100
AcDbEntity
 67
     1
  8
1
  6
CONTINUOUS
 62
    18
100
AcDbLine
 10
5.197849
 20
4.443195
 30
0.0
 11
5.191346
 21
4.454459
 31
0.0
  0
LINE
  5
3C2
330
4E
100
AcDbEntity
 67
     1
  8
1
  6
CONTINUOUS
 62
    18
100
AcDbLine
 10
5.191346
 20
4.454459
 30
0.0
 11
5.181613
 21
4.471316
 31
0.0
  0
LINE
  5
3C3
330
4E
100
AcDbEntity
 67
     1
  8
1
  6
CONTINUOUS
 62
    18
100
AcDbLine
 10
5.181613
 20
4.471316
 30
0.0
 11
5.170132
 21
4.491201
 31
0.0
  0
LINE
  5
3C4
330
4E
100
AcDbEntity
 67
     1
  8
1
  6
CONTINUOUS
 62
    18
100
AcDbLine
 10
5.059708
 20
3.554028
 30
0.0
 11
4.985364
 21
3.552731
 31
0.0
  0
LINE
  5
3C5
330
4E
100
AcDbEntity
 67
     1
  8
1
  6
CONTINUOUS
 62
    18
100
AcDbLine
 10
4.985364
 20
6.343195
 30
0.0
 11
5.059708
 21
6.341897
 31
0.0
  0
LINE
  5
3C6
330
4E
100
AcDbEntity
 67
     1
  8
1
  6
CONTINUOUS
 62
    18
100
AcDbLine
 10
5.059708
 20
4.506812
 30
0.0
 11
5.059708
 21
4.706882
 31
0.0
  0
LINE
  5
3C7
330
4E
100
AcDbEntity
 67
     1
  8
1
  6
CONTINUOUS
 62
    18
100
AcDbLine
 10
5.059708
 20
5.389113
 30
0.0
 11
5.059708
 21
5.189044
 31
0.0
  0
LINE
  5
3C8
330
4E
100
AcDbEntity
 67
     1
  8
1
  6
CONTINUOUS
 62
    18
100
AcDbLine
 10
5.059708
 20
6.070902
 30
0.0
 11
4.985364
 21
6.0722
 31
0.0
  0
LINE
  5
3C9
330
4E
100
AcDbEntity
 67
     1
  8
1
  6
CONTINUOUS
 62
    18
100
AcDbLine
 10
4.985364
 20
5.387815
 30
0.0
 11
5.059708
 21
5.389113
 31
0.0
  0
LINE
  5
3CA
330
4E
100
AcDbEntity
 67
     1
  8
1
  6
CONTINUOUS
 62
    18
100
AcDbLine
 10
5.059708
 20
5.189044
 30
0.0
 11
4.985364
 21
5.190341
 31
0.0
  0
LINE
  5
3CB
330
4E
100
AcDbEntity
 67
     1
  8
1
  6
CONTINUOUS
 62
    18
100
AcDbLine
 10
4.985364
 20
4.705584
 30
0.0
 11
5.059708
 21
4.706882
 31
0.0
  0
LINE
  5
3CC
330
4E
100
AcDbEntity
 67
     1
  8
1
  6
CONTINUOUS
 62
    18
100
AcDbLine
 10
5.059708
 20
4.506812
 30
0.0
 11
4.985364
 21
4.50811
 31
0.0
  0
LINE
  5
3CD
330
4E
100
AcDbEntity
 67
     1
  8
1
  6
CONTINUOUS
 62
    18
100
AcDbLine
 10
5.059708
 20
3.825023
 30
0.0
 11
4.985364
 21
3.823726
 31
0.0
  0
LINE
  5
3CE
330
4E
100
AcDbEntity
 67
     1
  8
1
  6
CONTINUOUS
 62
    18
100
AcDbLine
 10
5.059708
 20
6.341897
 30
0.0
 11
5.059708
 21
6.070902
 31
0.0
  0
LINE
  5
3CF
330
4E
100
AcDbEntity
 67
     1
  8
1
  6
CONTINUOUS
 62
    18
100
AcDbLine
 10
5.059708
 20
3.825023
 30
0.0
 11
5.059708
 21
3.554028
 31
0.0
  0
LINE
  5
3D0
330
4E
100
AcDbEntity
 67
     1
  8
1
  6
CONTINUOUS
 62
    18
100
AcDbLine
 10
5.059708
 20
4.506812
 30
0.0
 11
5.059708
 21
3.825023
 31
0.0
  0
LINE
  5
3D1
330
4E
100
AcDbEntity
 67
     1
  8
1
  6
CONTINUOUS
 62
    18
100
AcDbLine
 10
5.059708
 20
5.189044
 30
0.0
 11
5.059708
 21
4.706882
 31
0.0
  0
LINE
  5
3D2
330
4E
100
AcDbEntity
 67
     1
  8
1
  6
CONTINUOUS
 62
    18
100
AcDbLine
 10
5.059708
 20
6.070902
 30
0.0
 11
5.059708
 21
5.389113
 31
0.0
  0
LINE
  5
3D3
330
4E
100
AcDbEntity
 67
     1
  8
1
  6
CONTINUOUS
 62
    18
100
AcDbLine
 10
4.815362
 20
7.197963
 30
0.0
 11
4.985363
 21
7.20093
 31
0.0
  0
LINE
  5
3D4
330
4E
100
AcDbEntity
 67
     1
  8
1
  6
CONTINUOUS
 62
    18
100
AcDbLine
 10
4.815362
 20
7.167967
 30
0.0
 11
4.815362
 21
7.182966
 31
0.0
  0
LINE
  5
3D5
330
4E
100
AcDbEntity
 67
     1
  8
1
  6
CONTINUOUS
 62
    18
100
AcDbLine
 10
4.815362
 20
7.182966
 30
0.0
 11
4.815362
 21
7.193944
 31
0.0
  0
LINE
  5
3D6
330
4E
100
AcDbEntity
 67
     1
  8
1
  6
CONTINUOUS
 62
    18
100
AcDbLine
 10
4.815362
 20
7.193944
 30
0.0
 11
4.815362
 21
7.197963
 31
0.0
  0
LINE
  5
3D7
330
4E
100
AcDbEntity
 67
     1
  8
1
  6
CONTINUOUS
 62
    18
100
AcDbLine
 10
4.985363
 20
7.170935
 30
0.0
 11
4.815362
 21
7.167967
 31
0.0
  0
LINE
  5
3D8
330
4E
100
AcDbEntity
 67
     1
  8
1
  6
CONTINUOUS
 62
    18
100
AcDbLine
 10
4.985363
 20
7.20093
 30
0.0
 11
4.985363
 21
7.196912
 31
0.0
  0
LINE
  5
3D9
330
4E
100
AcDbEntity
 67
     1
  8
1
  6
CONTINUOUS
 62
    18
100
AcDbLine
 10
4.985363
 20
7.196912
 30
0.0
 11
4.985363
 21
7.185933
 31
0.0
  0
LINE
  5
3DA
330
4E
100
AcDbEntity
 67
     1
  8
1
  6
CONTINUOUS
 62
    18
100
AcDbLine
 10
4.985363
 20
7.185933
 30
0.0
 11
4.985363
 21
7.170935
 31
0.0
  0
LINE
  5
3DB
330
4E
100
AcDbEntity
 67
     1
  8
1
  6
CONTINUOUS
 62
    18
100
AcDbLine
 10
4.815362
 20
2.727958
 30
0.0
 11
4.815362
 21
7.167967
 31
0.0
  0
LINE
  5
3DC
330
4E
100
AcDbEntity
 67
     1
  8
1
  6
CONTINUOUS
 62
    18
100
AcDbLine
 10
4.985363
 20
2.724991
 30
0.0
 11
4.815362
 21
2.727958
 31
0.0
  0
LINE
  5
3DD
330
4E
100
AcDbEntity
 67
     1
  8
1
  6
CONTINUOUS
 62
    18
100
AcDbLine
 10
4.985363
 20
7.170935
 30
0.0
 11
4.985363
 21
2.724991
 31
0.0
  0
LINE
  5
3DE
330
4E
100
AcDbEntity
 67
     1
  8
1
  6
CONTINUOUS
 62
    18
100
AcDbLine
 10
4.985363
 20
2.694995
 30
0.0
 11
4.985363
 21
2.699014
 31
0.0
  0
LINE
  5
3DF
330
4E
100
AcDbEntity
 67
     1
  8
1
  6
CONTINUOUS
 62
    18
100
AcDbLine
 10
4.985363
 20
2.699014
 30
0.0
 11
4.985363
 21
2.709992
 31
0.0
  0
LINE
  5
3E0
330
4E
100
AcDbEntity
 67
     1
  8
1
  6
CONTINUOUS
 62
    18
100
AcDbLine
 10
4.985363
 20
2.709992
 30
0.0
 11
4.985363
 21
2.724991
 31
0.0
  0
LINE
  5
3E1
330
4E
100
AcDbEntity
 67
     1
  8
1
  6
CONTINUOUS
 62
    18
100
AcDbLine
 10
4.815362
 20
2.727958
 30
0.0
 11
4.815362
 21
2.71296
 31
0.0
  0
LINE
  5
3E2
330
4E
100
AcDbEntity
 67
     1
  8
1
  6
CONTINUOUS
 62
    18
100
AcDbLine
 10
4.815362
 20
2.71296
 30
0.0
 11
4.815362
 21
2.701981
 31
0.0
  0
LINE
  5
3E3
330
4E
100
AcDbEntity
 67
     1
  8
1
  6
CONTINUOUS
 62
    18
100
AcDbLine
 10
4.815362
 20
2.701981
 30
0.0
 11
4.815362
 21
2.697963
 31
0.0
  0
LINE
  5
3E4
330
4E
100
AcDbEntity
 67
     1
  8
1
  6
CONTINUOUS
 62
    18
100
AcDbLine
 10
4.815362
 20
2.697963
 30
0.0
 11
4.985363
 21
2.694995
 31
0.0
  0
LINE
  5
3E5
330
4E
100
AcDbEntity
 67
     1
  8
1
  6
CONTINUOUS
 62
    18
100
AcDbLine
 10
4.655363
 20
2.883329
 30
0.0
 11
4.655363
 21
7.012597
 31
0.0
  0
LINE
  5
3E6
330
4E
100
AcDbEntity
 67
     1
  8
1
  6
CONTINUOUS
 62
    18
100
AcDbLine
 10
4.655363
 20
2.883329
 30
0.0
 11
4.661393
 21
2.883329
 31
0.0
  0
LINE
  5
3E7
330
4E
100
AcDbEntity
 67
     1
  8
1
  6
CONTINUOUS
 62
    18
100
AcDbLine
 10
4.661393
 20
2.883329
 30
0.0
 11
4.678758
 21
2.883329
 31
0.0
  0
LINE
  5
3E8
330
4E
100
AcDbEntity
 67
     1
  8
1
  6
CONTINUOUS
 62
    18
100
AcDbLine
 10
4.678758
 20
7.012597
 30
0.0
 11
4.678758
 21
2.883329
 31
0.0
  0
LINE
  5
3E9
330
4E
100
AcDbEntity
 67
     1
  8
1
  6
CONTINUOUS
 62
    18
100
AcDbLine
 10
4.655363
 20
7.012597
 30
0.0
 11
4.661393
 21
7.012597
 31
0.0
  0
LINE
  5
3EA
330
4E
100
AcDbEntity
 67
     1
  8
1
  6
CONTINUOUS
 62
    18
100
AcDbLine
 10
4.661393
 20
7.012597
 30
0.0
 11
4.678758
 21
7.012597
 31
0.0
  0
LINE
  5
3EB
330
4E
100
AcDbEntity
 67
     1
  8
1
  6
CONTINUOUS
 62
    18
100
AcDbLine
 10
4.815362
 20
7.197963
 30
0.0
 11
4.815362
 21
7.193944
 31
0.0
  0
LINE
  5
3EC
330
4E
100
AcDbEntity
 67
     1
  8
1
  6
CONTINUOUS
 62
    18
100
AcDbLine
 10
4.815362
 20
7.193944
 30
0.0
 11
4.815362
 21
7.182963
 31
0.0
  0
LINE
  5
3ED
330
4E
100
AcDbEntity
 67
     1
  8
1
  6
CONTINUOUS
 62
    18
100
AcDbLine
 10
4.815362
 20
7.182963
 30
0.0
 11
4.815362
 21
7.167963
 31
0.0
  0
LINE
  5
3EE
330
4E
100
AcDbEntity
 67
     1
  8
1
  6
CONTINUOUS
 62
    18
100
AcDbLine
 10
4.815362
 20
2.727963
 30
0.0
 11
4.815362
 21
7.167963
 31
0.0
  0
LINE
  5
3EF
330
4E
100
AcDbEntity
 67
     1
  8
1
  6
CONTINUOUS
 62
    18
100
AcDbLine
 10
4.815362
 20
2.697963
 30
0.0
 11
4.815362
 21
2.701982
 31
0.0
  0
LINE
  5
3F0
330
4E
100
AcDbEntity
 67
     1
  8
1
  6
CONTINUOUS
 62
    18
100
AcDbLine
 10
4.815362
 20
2.701982
 30
0.0
 11
4.815362
 21
2.712963
 31
0.0
  0
LINE
  5
3F1
330
4E
100
AcDbEntity
 67
     1
  8
1
  6
CONTINUOUS
 62
    18
100
AcDbLine
 10
4.815362
 20
2.712963
 30
0.0
 11
4.815362
 21
2.727963
 31
0.0
  0
LINE
  5
3F2
330
4E
100
AcDbEntity
 67
     1
  8
1
  6
CONTINUOUS
 62
    18
100
AcDbLine
 10
4.780363
 20
7.133684
 30
0.0
 11
4.780363
 21
2.762241
 31
0.0
  0
LINE
  5
3F3
330
4E
100
AcDbEntity
 67
     1
  8
1
  6
CONTINUOUS
 62
    18
100
AcDbLine
 10
4.784686
 20
2.727963
 30
0.0
 11
4.780363
 21
2.762241
 31
0.0
  0
LINE
  5
3F4
330
4E
100
AcDbEntity
 67
     1
  8
1
  6
CONTINUOUS
 62
    18
100
AcDbLine
 10
4.815362
 20
2.727963
 30
0.0
 11
4.784686
 21
2.727963
 31
0.0
  0
LINE
  5
3F5
330
4E
100
AcDbEntity
 67
     1
  8
1
  6
CONTINUOUS
 62
    18
100
AcDbLine
 10
4.815362
 20
7.167963
 30
0.0
 11
4.784686
 21
7.167963
 31
0.0
  0
LINE
  5
3F6
330
4E
100
AcDbEntity
 67
     1
  8
1
  6
CONTINUOUS
 62
    18
100
AcDbLine
 10
4.784686
 20
7.167963
 30
0.0
 11
4.780363
 21
7.133684
 31
0.0
  0
LINE
  5
3F7
330
4E
100
AcDbEntity
 67
     1
  8
1
  6
CONTINUOUS
 62
    18
100
AcDbLine
 10
4.780363
 20
2.762241
 30
0.0
 11
4.678758
 21
2.883329
 31
0.0
  0
LINE
  5
3F8
330
4E
100
AcDbEntity
 67
     1
  8
1
  6
CONTINUOUS
 62
    18
100
AcDbLine
 10
4.780363
 20
7.133684
 30
0.0
 11
4.678758
 21
7.012597
 31
0.0
  0
LINE
  5
3F9
330
4E
100
AcDbEntity
 67
     1
  8
1
  6
CONTINUOUS
 62
    18
100
AcDbLine
 10
4.678758
 20
7.076875
 30
0.0
 11
4.780363
 21
7.197963
 31
0.0
  0
LINE
  5
3FA
330
4E
100
AcDbEntity
 67
     1
  8
1
  6
CONTINUOUS
 62
    18
100
AcDbLine
 10
4.784686
 20
7.167963
 30
0.0
 11
4.786429
 21
7.177483
 31
0.0
  0
LINE
  5
3FB
330
4E
100
AcDbEntity
 67
     1
  8
1
  6
CONTINUOUS
 62
    18
100
AcDbLine
 10
4.786429
 20
7.177483
 30
0.0
 11
4.787186
 21
7.186123
 31
0.0
  0
LINE
  5
3FC
330
4E
100
AcDbEntity
 67
     1
  8
1
  6
CONTINUOUS
 62
    18
100
AcDbLine
 10
4.787186
 20
7.186123
 30
0.0
 11
4.787117
 21
7.192835
 31
0.0
  0
LINE
  5
3FD
330
4E
100
AcDbEntity
 67
     1
  8
1
  6
CONTINUOUS
 62
    18
100
AcDbLine
 10
4.787117
 20
7.192835
 30
0.0
 11
4.786207
 21
7.196898
 31
0.0
  0
LINE
  5
3FE
330
4E
100
AcDbEntity
 67
     1
  8
1
  6
CONTINUOUS
 62
    18
100
AcDbLine
 10
4.786207
 20
7.196898
 30
0.0
 11
4.784686
 21
7.197963
 31
0.0
  0
LINE
  5
3FF
330
4E
100
AcDbEntity
 67
     1
  8
1
  6
CONTINUOUS
 62
    18
100
AcDbLine
 10
4.780363
 20
7.197963
 30
0.0
 11
4.784686
 21
7.197963
 31
0.0
  0
LINE
  5
400
330
4E
100
AcDbEntity
 67
     1
  8
1
  6
CONTINUOUS
 62
    18
100
AcDbLine
 10
4.678758
 20
7.012597
 30
0.0
 11
4.670423
 21
7.037158
 31
0.0
  0
LINE
  5
401
330
4E
100
AcDbEntity
 67
     1
  8
1
  6
CONTINUOUS
 62
    18
100
AcDbLine
 10
4.670423
 20
7.037158
 30
0.0
 11
4.670423
 21
7.059309
 31
0.0
  0
LINE
  5
402
330
4E
100
AcDbEntity
 67
     1
  8
1
  6
CONTINUOUS
 62
    18
100
AcDbLine
 10
4.670423
 20
7.059309
 30
0.0
 11
4.678758
 21
7.076875
 31
0.0
  0
LINE
  5
403
330
4E
100
AcDbEntity
 67
     1
  8
1
  6
CONTINUOUS
 62
    18
100
AcDbLine
 10
4.784686
 20
7.197963
 30
0.0
 11
4.815362
 21
7.197963
 31
0.0
  0
LINE
  5
404
330
4E
100
AcDbEntity
 67
     1
  8
1
  6
CONTINUOUS
 62
    18
100
AcDbLine
 10
4.678758
 20
2.81905
 30
0.0
 11
4.780363
 21
2.697963
 31
0.0
  0
LINE
  5
405
330
4E
100
AcDbEntity
 67
     1
  8
1
  6
CONTINUOUS
 62
    18
100
AcDbLine
 10
4.678758
 20
2.883329
 30
0.0
 11
4.670423
 21
2.858768
 31
0.0
  0
LINE
  5
406
330
4E
100
AcDbEntity
 67
     1
  8
1
  6
CONTINUOUS
 62
    18
100
AcDbLine
 10
4.670423
 20
2.858768
 30
0.0
 11
4.670423
 21
2.836617
 31
0.0
  0
LINE
  5
407
330
4E
100
AcDbEntity
 67
     1
  8
1
  6
CONTINUOUS
 62
    18
100
AcDbLine
 10
4.670423
 20
2.836617
 30
0.0
 11
4.678758
 21
2.81905
 31
0.0
  0
LINE
  5
408
330
4E
100
AcDbEntity
 67
     1
  8
1
  6
CONTINUOUS
 62
    18
100
AcDbLine
 10
4.780363
 20
2.697963
 30
0.0
 11
4.784686
 21
2.697963
 31
0.0
  0
LINE
  5
409
330
4E
100
AcDbEntity
 67
     1
  8
1
  6
CONTINUOUS
 62
    18
100
AcDbLine
 10
4.784686
 20
2.727963
 30
0.0
 11
4.786429
 21
2.718442
 31
0.0
  0
LINE
  5
40A
330
4E
100
AcDbEntity
 67
     1
  8
1
  6
CONTINUOUS
 62
    18
100
AcDbLine
 10
4.786429
 20
2.718442
 30
0.0
 11
4.787186
 21
2.709802
 31
0.0
  0
LINE
  5
40B
330
4E
100
AcDbEntity
 67
     1
  8
1
  6
CONTINUOUS
 62
    18
100
AcDbLine
 10
4.787186
 20
2.709802
 30
0.0
 11
4.787117
 21
2.703091
 31
0.0
  0
LINE
  5
40C
330
4E
100
AcDbEntity
 67
     1
  8
1
  6
CONTINUOUS
 62
    18
100
AcDbLine
 10
4.787117
 20
2.703091
 30
0.0
 11
4.786207
 21
2.699027
 31
0.0
  0
LINE
  5
40D
330
4E
100
AcDbEntity
 67
     1
  8
1
  6
CONTINUOUS
 62
    18
100
AcDbLine
 10
4.786207
 20
2.699027
 30
0.0
 11
4.784686
 21
2.697963
 31
0.0
  0
LINE
  5
40E
330
4E
100
AcDbEntity
 67
     1
  8
1
  6
CONTINUOUS
 62
    18
100
AcDbLine
 10
4.784686
 20
2.697963
 30
0.0
 11
4.815362
 21
2.697963
 31
0.0
  0
ARC
  5
40F
330
4E
100
AcDbEntity
 67
     1
  8
1
  6
CONTINUOUS
 62
    18
100
AcDbCircle
 10
1.521168
 20
3.584343
 30
0.0
 40
0.0085236523300409
100
AcDbArc
 50
0.0
 51
3.044444
  0
ARC
  5
410
330
4E
100
AcDbEntity
 67
     1
  8
1
  6
CONTINUOUS
 62
    18
100
AcDbCircle
 10
1.521168
 20
3.175344
 30
0.0
 40
0.0085236523300409
100
AcDbArc
 50
356.955556
 51
0.0
  0
ARC
  5
411
330
4E
100
AcDbEntity
 67
     1
  8
1
  6
CONTINUOUS
 62
    18
100
AcDbCircle
 10
3.312168
 20
3.175344
 30
0.0
 40
0.0085236523300409
100
AcDbArc
 50
180.0
 51
183.044444
  0
ARC
  5
412
330
4E
100
AcDbEntity
 67
     1
  8
1
  6
CONTINUOUS
 62
    18
100
AcDbCircle
 10
2.476668
 20
3.379843
 30
0.0
 40
0.1517455130815506
100
AcDbArc
 50
270.0
 51
82.521912
  0
ARC
  5
413
330
4E
100
AcDbEntity
 67
     1
  8
1
  6
CONTINUOUS
 62
    18
100
AcDbCircle
 10
2.356668
 20
3.379843
 30
0.0
 40
0.1517455130815506
100
AcDbArc
 50
97.478088
 51
270.0
  0
ARC
  5
414
330
4E
100
AcDbEntity
 67
     1
  8
1
  6
CONTINUOUS
 62
    18
100
AcDbCircle
 10
1.489168
 20
3.183844
 30
0.0
 40
0.0099999997764826
100
AcDbArc
 50
180.0
 51
270.0
  0
ARC
  5
415
330
4E
100
AcDbEntity
 67
     1
  8
1
  6
CONTINUOUS
 62
    18
100
AcDbCircle
 10
1.489168
 20
3.183844
 30
0.0
 40
0.0094763478264213
100
AcDbArc
 50
180.0
 51
270.0
  0
ARC
  5
416
330
4E
100
AcDbEntity
 67
     1
  8
1
  6
CONTINUOUS
 62
    18
100
AcDbCircle
 10
3.344168
 20
3.183844
 30
0.0
 40
0.0099999997764826
100
AcDbArc
 50
270.0
 51
0.0
  0
ARC
  5
417
330
4E
100
AcDbEntity
 67
     1
  8
1
  6
CONTINUOUS
 62
    18
100
AcDbCircle
 10
3.344168
 20
3.183844
 30
0.0
 40
0.0094763478264213
100
AcDbArc
 50
270.0
 51
0.0
  0
ARC
  5
418
330
4E
100
AcDbEntity
 67
     1
  8
1
  6
CONTINUOUS
 62
    18
100
AcDbCircle
 10
2.476668
 20
3.379843
 30
0.0
 40
0.1500000059604645
100
AcDbArc
 50
270.0
 51
83.778005
  0
ARC
  5
419
330
4E
100
AcDbEntity
 67
     1
  8
1
  6
CONTINUOUS
 62
    18
100
AcDbCircle
 10
2.356668
 20
3.379843
 30
0.0
 40
0.1500000059604645
100
AcDbArc
 50
96.221995
 51
270.0
  0
ARC
  5
41A
330
4E
100
AcDbEntity
 67
     1
  8
1
  6
CONTINUOUS
 62
    18
100
AcDbCircle
 10
3.344168
 20
3.575844
 30
0.0
 40
0.0099999997764826
100
AcDbArc
 50
0.0
 51
90.0
  0
ARC
  5
41B
330
4E
100
AcDbEntity
 67
     1
  8
1
  6
CONTINUOUS
 62
    18
100
AcDbCircle
 10
3.344168
 20
3.575844
 30
0.0
 40
0.0094763478264213
100
AcDbArc
 50
0.0
 51
90.0
  0
ARC
  5
41C
330
4E
100
AcDbEntity
 67
     1
  8
1
  6
CONTINUOUS
 62
    18
100
AcDbCircle
 10
1.489168
 20
3.575844
 30
0.0
 40
0.0094763478264213
100
AcDbArc
 50
90.0
 51
180.0
  0
ARC
  5
41D
330
4E
100
AcDbEntity
 67
     1
  8
1
  6
CONTINUOUS
 62
    18
100
AcDbCircle
 10
1.489168
 20
3.575844
 30
0.0
 40
0.0099999997764826
100
AcDbArc
 50
90.0
 51
180.0
  0
ARC
  5
41E
330
4E
100
AcDbEntity
 67
     1
  8
1
  6
CONTINUOUS
 62
    18
100
AcDbCircle
 10
3.344168
 20
6.464844
 30
0.0
 40
0.0094763478264213
100
AcDbArc
 50
270.0
 51
0.0
  0
ARC
  5
41F
330
4E
100
AcDbEntity
 67
     1
  8
1
  6
CONTINUOUS
 62
    18
100
AcDbCircle
 10
3.344168
 20
6.856843
 30
0.0
 40
0.0094763478264213
100
AcDbArc
 50
0.0
 51
90.0
  0
ARC
  5
420
330
4E
100
AcDbEntity
 67
     1
  8
1
  6
CONTINUOUS
 62
    18
100
AcDbCircle
 10
3.344168
 20
6.464844
 30
0.0
 40
0.0099999997764826
100
AcDbArc
 50
270.0
 51
0.0
  0
ARC
  5
421
330
4E
100
AcDbEntity
 67
     1
  8
1
  6
CONTINUOUS
 62
    18
100
AcDbCircle
 10
3.344168
 20
6.856843
 30
0.0
 40
0.0099999997764826
100
AcDbArc
 50
0.0
 51
90.0
  0
ARC
  5
422
330
4E
100
AcDbEntity
 67
     1
  8
1
  6
CONTINUOUS
 62
    18
100
AcDbCircle
 10
1.489168
 20
6.856843
 30
0.0
 40
0.0094763478264213
100
AcDbArc
 50
90.0
 51
180.0
  0
ARC
  5
423
330
4E
100
AcDbEntity
 67
     1
  8
1
  6
CONTINUOUS
 62
    18
100
AcDbCircle
 10
1.489168
 20
6.856843
 30
0.0
 40
0.0099999997764826
100
AcDbArc
 50
90.0
 51
180.0
  0
ARC
  5
424
330
4E
100
AcDbEntity
 67
     1
  8
1
  6
CONTINUOUS
 62
    18
100
AcDbCircle
 10
1.489168
 20
6.464844
 30
0.0
 40
0.0094763478264213
100
AcDbArc
 50
180.0
 51
270.0
  0
ARC
  5
425
330
4E
100
AcDbEntity
 67
     1
  8
1
  6
CONTINUOUS
 62
    18
100
AcDbCircle
 10
1.489168
 20
6.464844
 30
0.0
 40
0.0099999997764826
100
AcDbArc
 50
180.0
 51
270.0
  0
ARC
  5
426
330
4E
100
AcDbEntity
 67
     1
  8
1
  6
CONTINUOUS
 62
    18
100
AcDbCircle
 10
3.312168
 20
6.456344
 30
0.0
 40
0.0085236523300409
100
AcDbArc
 50
180.0
 51
183.044444
  0
ARC
  5
427
330
4E
100
AcDbEntity
 67
     1
  8
1
  6
CONTINUOUS
 62
    18
100
AcDbCircle
 10
3.312168
 20
6.865344
 30
0.0
 40
0.0085236523300409
100
AcDbArc
 50
176.955556
 51
180.0
  0
ARC
  5
428
330
4E
100
AcDbEntity
 67
     1
  8
1
  6
CONTINUOUS
 62
    18
100
AcDbCircle
 10
1.521168
 20
6.865344
 30
0.0
 40
0.0085236523300409
100
AcDbArc
 50
0.0
 51
3.044444
  0
ARC
  5
429
330
4E
100
AcDbEntity
 67
     1
  8
1
  6
CONTINUOUS
 62
    18
100
AcDbCircle
 10
1.521168
 20
6.456344
 30
0.0
 40
0.0085236523300409
100
AcDbArc
 50
356.955556
 51
0.0
  0
ARC
  5
42A
330
4E
100
AcDbEntity
 67
     1
  8
1
  6
CONTINUOUS
 62
    18
100
AcDbCircle
 10
2.356668
 20
6.660843
 30
0.0
 40
0.1517455130815506
100
AcDbArc
 50
90.0
 51
262.521912
  0
ARC
  5
42B
330
4E
100
AcDbEntity
 67
     1
  8
1
  6
CONTINUOUS
 62
    18
100
AcDbCircle
 10
2.476668
 20
6.660843
 30
0.0
 40
0.1517455130815506
100
AcDbArc
 50
277.478088
 51
90.0
  0
ARC
  5
42C
330
4E
100
AcDbEntity
 67
     1
  8
1
  6
CONTINUOUS
 62
    18
100
AcDbCircle
 10
2.356668
 20
6.660843
 30
0.0
 40
0.1500000059604645
100
AcDbArc
 50
90.0
 51
263.778005
  0
ARC
  5
42D
330
4E
100
AcDbEntity
 67
     1
  8
1
  6
CONTINUOUS
 62
    18
100
AcDbCircle
 10
2.476668
 20
6.660843
 30
0.0
 40
0.1500000059604645
100
AcDbArc
 50
276.221995
 51
90.0
  0
ARC
  5
42E
330
4E
100
AcDbEntity
 67
     1
  8
1
  6
CONTINUOUS
 62
    18
100
AcDbCircle
 10
2.356668
 20
3.379843
 30
0.0
 40
0.076455295085907
100
AcDbArc
 50
90.0
 51
101.314429
  0
ARC
  5
42F
330
4E
100
AcDbEntity
 67
     1
  8
1
  6
CONTINUOUS
 62
    18
100
AcDbCircle
 10
2.476668
 20
3.379843
 30
0.0
 40
0.076455295085907
100
AcDbArc
 50
78.685571
 51
90.0
  0
ARC
  5
430
330
4E
100
AcDbEntity
 67
     1
  8
1
  6
CONTINUOUS
 62
    18
100
AcDbCircle
 10
2.476668
 20
3.379843
 30
0.0
 40
0.0756984129548073
100
AcDbArc
 50
270.0
 51
90.0
  0
ARC
  5
431
330
4E
100
AcDbEntity
 67
     1
  8
1
  6
CONTINUOUS
 62
    18
100
AcDbCircle
 10
2.356668
 20
3.379843
 30
0.0
 40
0.0756984129548073
100
AcDbArc
 50
90.0
 51
270.0
  0
ARC
  5
432
330
4E
100
AcDbEntity
 67
     1
  8
1
  6
CONTINUOUS
 62
    18
100
AcDbCircle
 10
2.476668
 20
3.379843
 30
0.0
 40
0.0777124390006065
100
AcDbArc
 50
270.0
 51
77.924747
  0
ARC
  5
433
330
4E
100
AcDbEntity
 67
     1
  8
1
  6
CONTINUOUS
 62
    18
100
AcDbCircle
 10
2.356668
 20
3.379843
 30
0.0
 40
0.0777124390006065
100
AcDbArc
 50
102.075253
 51
270.0
  0
ARC
  5
434
330
4E
100
AcDbEntity
 67
     1
  8
1
  6
CONTINUOUS
 62
    18
100
AcDbCircle
 10
2.476668
 20
6.660843
 30
0.0
 40
0.0756984129548073
100
AcDbArc
 50
270.0
 51
90.0
  0
ARC
  5
435
330
4E
100
AcDbEntity
 67
     1
  8
1
  6
CONTINUOUS
 62
    18
100
AcDbCircle
 10
2.356668
 20
6.660843
 30
0.0
 40
0.0756984129548073
100
AcDbArc
 50
90.0
 51
270.0
  0
ARC
  5
436
330
4E
100
AcDbEntity
 67
     1
  8
1
  6
CONTINUOUS
 62
    18
100
AcDbCircle
 10
2.476668
 20
6.660843
 30
0.0
 40
0.076455295085907
100
AcDbArc
 50
270.0
 51
281.314429
  0
ARC
  5
437
330
4E
100
AcDbEntity
 67
     1
  8
1
  6
CONTINUOUS
 62
    18
100
AcDbCircle
 10
2.476668
 20
6.660843
 30
0.0
 40
0.0777124390006065
100
AcDbArc
 50
282.075253
 51
90.0
  0
ARC
  5
438
330
4E
100
AcDbEntity
 67
     1
  8
1
  6
CONTINUOUS
 62
    18
100
AcDbCircle
 10
2.356668
 20
6.660843
 30
0.0
 40
0.0777124390006065
100
AcDbArc
 50
90.0
 51
257.924747
  0
ARC
  5
439
330
4E
100
AcDbEntity
 67
     1
  8
1
  6
CONTINUOUS
 62
    18
100
AcDbCircle
 10
2.356668
 20
6.660843
 30
0.0
 40
0.076455295085907
100
AcDbArc
 50
258.685571
 51
270.0
  0
ARC
  5
43A
330
4E
100
AcDbEntity
 67
     1
  8
1
  6
CONTINUOUS
 62
    18
100
AcDbCircle
 10
3.027668
 20
4.425602
 30
0.0
 40
0.0199999995529652
100
AcDbArc
 50
270.0
 51
0.0
  0
ARC
  5
43B
330
4E
100
AcDbEntity
 67
     1
  8
1
  6
CONTINUOUS
 62
    18
100
AcDbCircle
 10
1.805668
 20
4.425602
 30
0.0
 40
0.0199999995529652
100
AcDbArc
 50
180.0
 51
270.0
  0
ARC
  5
43C
330
4E
100
AcDbEntity
 67
     1
  8
1
  6
CONTINUOUS
 62
    18
100
AcDbCircle
 10
1.805668
 20
5.285602
 30
0.0
 40
0.0199999995529652
100
AcDbArc
 50
90.0
 51
180.0
  0
ARC
  5
43D
330
4E
100
AcDbEntity
 67
     1
  8
1
  6
CONTINUOUS
 62
    18
100
AcDbCircle
 10
3.027668
 20
5.285602
 30
0.0
 40
0.0199999995529652
100
AcDbArc
 50
0.0
 51
90.0
  0
ARC
  5
43E
330
4E
100
AcDbEntity
 67
     1
  8
1
  6
CONTINUOUS
 62
    18
100
AcDbCircle
 10
2.074168
 20
6.946844
 30
0.0
 40
0.0299999993294477
100
AcDbArc
 50
180.0
 51
270.0
  0
ARC
  5
43F
330
4E
100
AcDbEntity
 67
     1
  8
1
  6
CONTINUOUS
 62
    18
100
AcDbCircle
 10
2.759168
 20
6.946844
 30
0.0
 40
0.0299999993294477
100
AcDbArc
 50
270.0
 51
0.0
  0
ARC
  5
440
330
4E
100
AcDbEntity
 67
     1
  8
1
  6
CONTINUOUS
 62
    18
100
AcDbCircle
 10
2.819168
 20
6.979781
 30
0.0
 40
0.0299999993294477
100
AcDbArc
 50
0.0
 51
180.0
  0
ARC
  5
441
330
4E
100
AcDbEntity
 67
     1
  8
1
  6
CONTINUOUS
 62
    18
100
AcDbCircle
 10
3.124168
 20
6.979781
 30
0.0
 40
0.0299999993294477
100
AcDbArc
 50
0.0
 51
180.0
  0
ARC
  5
442
330
4E
100
AcDbEntity
 67
     1
  8
1
  6
CONTINUOUS
 62
    18
100
AcDbCircle
 10
3.184168
 20
6.946844
 30
0.0
 40
0.0299999993294477
100
AcDbArc
 50
180.0
 51
270.0
  0
ARC
  5
443
330
4E
100
AcDbEntity
 67
     1
  8
1
  6
CONTINUOUS
 62
    18
100
AcDbCircle
 10
3.417168
 20
6.886844
 30
0.0
 40
0.0299999993294477
100
AcDbArc
 50
0.0
 51
90.0
  0
ARC
  5
444
330
4E
100
AcDbEntity
 67
     1
  8
1
  6
CONTINUOUS
 62
    18
100
AcDbCircle
 10
3.417168
 20
6.434844
 30
0.0
 40
0.0299999993294477
100
AcDbArc
 50
270.0
 51
0.0
  0
ARC
  5
445
330
4E
100
AcDbEntity
 67
     1
  8
1
  6
CONTINUOUS
 62
    18
100
AcDbCircle
 10
2.563105
 20
6.374844
 30
0.0
 40
0.0299999993294477
100
AcDbArc
 50
90.0
 51
138.189687
  0
ARC
  5
446
330
4E
100
AcDbEntity
 67
     1
  8
1
  6
CONTINUOUS
 62
    18
100
AcDbCircle
 10
2.518384
 20
6.414844
 30
0.0
 40
0.0299999993294477
100
AcDbArc
 50
270.0
 51
318.189687
  0
ARC
  5
447
330
4E
100
AcDbEntity
 67
     1
  8
1
  6
CONTINUOUS
 62
    18
100
AcDbCircle
 10
2.516668
 20
6.414844
 30
0.0
 40
0.0299999993294477
100
AcDbArc
 50
210.0
 51
270.0
  0
ARC
  5
448
330
4E
100
AcDbEntity
 67
     1
  8
1
  6
CONTINUOUS
 62
    18
100
AcDbCircle
 10
2.316668
 20
6.414844
 30
0.0
 40
0.0299999993294477
100
AcDbArc
 50
270.0
 51
330.0
  0
ARC
  5
449
330
4E
100
AcDbEntity
 67
     1
  8
1
  6
CONTINUOUS
 62
    18
100
AcDbCircle
 10
2.314952
 20
6.414844
 30
0.0
 40
0.0299999993294477
100
AcDbArc
 50
221.810313
 51
270.0
  0
ARC
  5
44A
330
4E
100
AcDbEntity
 67
     1
  8
1
  6
CONTINUOUS
 62
    18
100
AcDbCircle
 10
2.270231
 20
6.374844
 30
0.0
 40
0.0299999993294477
100
AcDbArc
 50
41.810313
 51
90.0
  0
ARC
  5
44B
330
4E
100
AcDbEntity
 67
     1
  8
1
  6
CONTINUOUS
 62
    18
100
AcDbCircle
 10
1.416168
 20
6.434844
 30
0.0
 40
0.0299999993294477
100
AcDbArc
 50
180.0
 51
270.0
  0
ARC
  5
44C
330
4E
100
AcDbEntity
 67
     1
  8
1
  6
CONTINUOUS
 62
    18
100
AcDbCircle
 10
1.416168
 20
6.886844
 30
0.0
 40
0.0299999993294477
100
AcDbArc
 50
90.0
 51
180.0
  0
ARC
  5
44D
330
4E
100
AcDbEntity
 67
     1
  8
1
  6
CONTINUOUS
 62
    18
100
AcDbCircle
 10
1.649168
 20
6.946844
 30
0.0
 40
0.0299999993294477
100
AcDbArc
 50
270.0
 51
0.0
  0
ARC
  5
44E
330
4E
100
AcDbEntity
 67
     1
  8
1
  6
CONTINUOUS
 62
    18
100
AcDbCircle
 10
1.709168
 20
6.979781
 30
0.0
 40
0.0299999993294477
100
AcDbArc
 50
0.0
 51
180.0
  0
ARC
  5
44F
330
4E
100
AcDbEntity
 67
     1
  8
1
  6
CONTINUOUS
 62
    18
100
AcDbCircle
 10
2.014168
 20
6.979781
 30
0.0
 40
0.0299999993294477
100
AcDbArc
 50
0.0
 51
180.0
  0
ARC
  5
450
330
4E
100
AcDbEntity
 67
     1
  8
1
  6
CONTINUOUS
 62
    18
100
AcDbCircle
 10
1.994168
 20
3.093843
 30
0.0
 40
0.0299999993294477
100
AcDbArc
 50
90.0
 51
180.0
  0
ARC
  5
451
330
4E
100
AcDbEntity
 67
     1
  8
1
  6
CONTINUOUS
 62
    18
100
AcDbCircle
 10
1.934168
 20
3.060907
 30
0.0
 40
0.0299999993294477
100
AcDbArc
 50
180.0
 51
0.0
  0
ARC
  5
452
330
4E
100
AcDbEntity
 67
     1
  8
1
  6
CONTINUOUS
 62
    18
100
AcDbCircle
 10
1.629168
 20
3.060907
 30
0.0
 40
0.0299999993294477
100
AcDbArc
 50
180.0
 51
0.0
  0
ARC
  5
453
330
4E
100
AcDbEntity
 67
     1
  8
1
  6
CONTINUOUS
 62
    18
100
AcDbCircle
 10
1.569168
 20
3.093843
 30
0.0
 40
0.0299999993294477
100
AcDbArc
 50
0.0
 51
90.0
  0
ARC
  5
454
330
4E
100
AcDbEntity
 67
     1
  8
1
  6
CONTINUOUS
 62
    18
100
AcDbCircle
 10
1.416168
 20
3.153844
 30
0.0
 40
0.0299999993294477
100
AcDbArc
 50
180.0
 51
270.0
  0
ARC
  5
455
330
4E
100
AcDbEntity
 67
     1
  8
1
  6
CONTINUOUS
 62
    18
100
AcDbCircle
 10
1.416168
 20
3.605844
 30
0.0
 40
0.0299999993294477
100
AcDbArc
 50
90.0
 51
180.0
  0
ARC
  5
456
330
4E
100
AcDbEntity
 67
     1
  8
1
  6
CONTINUOUS
 62
    18
100
AcDbCircle
 10
2.270231
 20
3.665843
 30
0.0
 40
0.0299999993294477
100
AcDbArc
 50
270.0
 51
318.189687
  0
ARC
  5
457
330
4E
100
AcDbEntity
 67
     1
  8
1
  6
CONTINUOUS
 62
    18
100
AcDbCircle
 10
2.314952
 20
3.625844
 30
0.0
 40
0.0299999993294477
100
AcDbArc
 50
90.0
 51
138.189687
  0
ARC
  5
458
330
4E
100
AcDbEntity
 67
     1
  8
1
  6
CONTINUOUS
 62
    18
100
AcDbCircle
 10
2.316668
 20
3.625844
 30
0.0
 40
0.0299999993294477
100
AcDbArc
 50
30.0
 51
90.0
  0
ARC
  5
459
330
4E
100
AcDbEntity
 67
     1
  8
1
  6
CONTINUOUS
 62
    18
100
AcDbCircle
 10
2.516668
 20
3.625844
 30
0.0
 40
0.0299999993294477
100
AcDbArc
 50
90.0
 51
150.0
  0
ARC
  5
45A
330
4E
100
AcDbEntity
 67
     1
  8
1
  6
CONTINUOUS
 62
    18
100
AcDbCircle
 10
2.518384
 20
3.625844
 30
0.0
 40
0.0299999993294477
100
AcDbArc
 50
41.810313
 51
90.0
  0
ARC
  5
45B
330
4E
100
AcDbEntity
 67
     1
  8
1
  6
CONTINUOUS
 62
    18
100
AcDbCircle
 10
2.563105
 20
3.665843
 30
0.0
 40
0.0299999993294477
100
AcDbArc
 50
221.810313
 51
270.0
  0
ARC
  5
45C
330
4E
100
AcDbEntity
 67
     1
  8
1
  6
CONTINUOUS
 62
    18
100
AcDbCircle
 10
3.417168
 20
3.605844
 30
0.0
 40
0.0299999993294477
100
AcDbArc
 50
0.0
 51
90.0
  0
ARC
  5
45D
330
4E
100
AcDbEntity
 67
     1
  8
1
  6
CONTINUOUS
 62
    18
100
AcDbCircle
 10
3.417168
 20
3.153844
 30
0.0
 40
0.0299999993294477
100
AcDbArc
 50
270.0
 51
0.0
  0
ARC
  5
45E
330
4E
100
AcDbEntity
 67
     1
  8
1
  6
CONTINUOUS
 62
    18
100
AcDbCircle
 10
3.264168
 20
3.093843
 30
0.0
 40
0.0299999993294477
100
AcDbArc
 50
90.0
 51
180.0
  0
ARC
  5
45F
330
4E
100
AcDbEntity
 67
     1
  8
1
  6
CONTINUOUS
 62
    18
100
AcDbCircle
 10
3.204168
 20
3.060907
 30
0.0
 40
0.0299999993294477
100
AcDbArc
 50
180.0
 51
0.0
  0
ARC
  5
460
330
4E
100
AcDbEntity
 67
     1
  8
1
  6
CONTINUOUS
 62
    18
100
AcDbCircle
 10
2.899168
 20
3.060907
 30
0.0
 40
0.0299999993294477
100
AcDbArc
 50
180.0
 51
0.0
  0
ARC
  5
461
330
4E
100
AcDbEntity
 67
     1
  8
1
  6
CONTINUOUS
 62
    18
100
AcDbCircle
 10
2.839168
 20
3.093843
 30
0.0
 40
0.0299999993294477
100
AcDbArc
 50
0.0
 51
90.0
  0
ARC
  5
462
330
4E
100
AcDbEntity
 67
     1
  8
1
  6
CONTINUOUS
 62
    18
100
AcDbCircle
 10
2.376668
 20
6.551844
 30
0.0
 40
0.0299999993294477
100
AcDbArc
 50
90.0
 51
180.0
  0
ARC
  5
463
330
4E
100
AcDbEntity
 67
     1
  8
1
  6
CONTINUOUS
 62
    18
100
AcDbCircle
 10
2.456668
 20
6.551844
 30
0.0
 40
0.0299999993294477
100
AcDbArc
 50
0.0
 51
90.0
  0
ARC
  5
464
330
4E
100
AcDbEntity
 67
     1
  8
1
  6
CONTINUOUS
 62
    18
100
AcDbCircle
 10
2.456668
 20
3.488843
 30
0.0
 40
0.0299999993294477
100
AcDbArc
 50
270.0
 51
0.0
  0
ARC
  5
465
330
4E
100
AcDbEntity
 67
     1
  8
1
  6
CONTINUOUS
 62
    18
100
AcDbCircle
 10
2.376668
 20
3.488843
 30
0.0
 40
0.0299999993294477
100
AcDbArc
 50
180.0
 51
270.0
  0
ARC
  5
466
330
4E
100
AcDbEntity
 67
     1
  8
1
  6
CONTINUOUS
 62
    18
100
AcDbCircle
 10
5.288063
 20
4.623861
 30
0.0
 40
0.0399999991059303
100
AcDbArc
 50
300.999998
 51
0.0
  0
ARC
  5
467
330
4E
100
AcDbEntity
 67
     1
  8
1
  6
CONTINUOUS
 62
    18
100
AcDbCircle
 10
5.288063
 20
5.200463
 30
0.0
 40
0.0399999991059303
100
AcDbArc
 50
0.0
 51
90.0
  0
ARC
  5
468
330
4E
100
AcDbEntity
 67
     1
  8
1
  6
CONTINUOUS
 62
    18
100
AcDbCircle
 10
4.755363
 20
7.012597
 30
0.0
 40
0.1000000014901161
100
AcDbArc
 50
140.0
 51
180.0
  0
ARC
  5
469
330
4E
100
AcDbEntity
 67
     1
  8
1
  6
CONTINUOUS
 62
    18
100
AcDbCircle
 10
4.755363
 20
2.883329
 30
0.0
 40
0.1000000014901161
100
AcDbArc
 50
180.0
 51
220.0
  0
ENDSEC
  0
SECTION
  2
OBJECTS
  0
DICTIONARY
  5
C
330
0
100
AcDbDictionary
281
     1
  3
ACAD_GROUP
350
D
  3
ACAD_LAYOUT
350
1A
  3
ACAD_MATERIAL
350
3B
  3
ACAD_MLEADERSTYLE
350
47D
  3
ACAD_MLINESTYLE
350
17
  3
ACAD_PLOTSETTINGS
350
19
  3
ACAD_PLOTSTYLENAME
350
E
  3
ACAD_VISUALSTYLE
350
2A
  3
AcDbVariableDictionary
350
47B
  0
DICTIONARY
  5
D
102
{ACAD_REACTORS
330
C
102
}
330
C
100
AcDbDictionary
281
     1
  0
DICTIONARY
  5
1A
102
{ACAD_REACTORS
330
C
102
}
330
C
100
AcDbDictionary
281
     1
  3
Model
350
22
  3
Sheet 1
350
46A
  0
DICTIONARY
  5
3B
102
{ACAD_REACTORS
330
C
102
}
330
C
100
AcDbDictionary
281
     1
  3
BYBLOCK
350
3D
  3
BYLAYER
350
3C
  3
Global
350
3E
  0
DICTIONARY
  5
47D
102
{ACAD_REACTORS
330
C
102
}
330
C
100
AcDbDictionary
281
     1
  0
DICTIONARY
  5
17
102
{ACAD_REACTORS
330
C
102
}
330
C
100
AcDbDictionary
281
     1
  3
Standard
350
18
  0
DICTIONARY
  5
19
102
{ACAD_REACTORS
330
C
102
}
330
C
100
AcDbDictionary
281
     1
  0
ACDBDICTIONARYWDFLT
  5
E
102
{ACAD_REACTORS
330
C
102
}
330
C
100
AcDbDictionary
281
     1
  3
Normal
350
F
100
AcDbDictionaryWithDefault
340
F
  0
DICTIONARY
  5
2A
102
{ACAD_REACTORS
330
C
102
}
330
C
100
AcDbDictionary
281
     1
  3
2dWireframe
350
2F
  3
3D Hidden
350
31
  3
3dWireframe
350
30
  3
Basic
350
32
  3
Brighten
350
36
  3
ColorChange
350
3A
  3
Conceptual
350
34
  3
Dim
350
35
  3
Facepattern
350
39
  3
Flat
350
2B
  3
FlatWithEdges
350
2C
  3
Gouraud
350
2D
  3
GouraudWithEdges
350
2E
  3
Linepattern
350
38
  3
Realistic
350
33
  3
Thicken
350
37
  0
DICTIONARY
  5
47B
102
{ACAD_REACTORS
330
C
102
}
330
C
100
AcDbDictionary
281
     1
  3
DIMASSOC
350
47E
  3
HIDETEXT
350
47F
  0
LAYOUT
  5
22
102
{ACAD_REACTORS
330
1A
102
}
330
1A
100
AcDbPlotSettings
  1

  2
none_device
  4

  6

 40
0.0
 41
0.0
 42
0.0
 43
0.0
 44
0.0
 45
0.0
 46
0.0
 47
0.0
 48
0.0
 49
0.0
140
0.0
141
0.0
142
1.0
143
1.0
 70
  1712
 72
     0
 73
     0
 74
     0
  7

 75
     0
147
1.0
148
0.0
149
0.0
100
AcDbLayout
  1
Model
 70
     1
 71
     0
 10
-0.5
 20
-0.5
 11
5.0
 21
5.0
 12
0.0
 22
0.0
 32
0.0
 14
-0.5
 24
-0.5
 34
-0.5
 15
5.0
 25
5.0
 35
5.0
146
0.0
 13
0.0
 23
0.0
 33
0.0
 16
1.0
 26
0.0
 36
0.0
 17
0.0
 27
1.0
 37
0.0
 76
     0
330
1F
331
29
  0
LAYOUT
  5
46A
102
{ACAD_REACTORS
330
1A
102
}
330
1A
100
AcDbPlotSettings
  1

  2
none_device
  4
ISO_B4_(354.00_x_250.00_MM)
  6

 40
7.5
 41
20.0
 42
7.5
 43
20.0
 44
354.0
 45
250.0
 46
35.333333
 47
0.0
 48
0.0
 49
0.0
140
13.0
141
10.5
142
1.0
143
1.088571
 70
   692
 72
     0
 73
     0
 74
     1
  7

 75
     0
147
0.918635
148
12.7
149
12.7
100
AcDbLayout
  1
Sheet 1
 70
     1
 71
     1
 10
0.0
 20
0.0
 11
11.0
 21
8.5
 12
0.0
 22
0.0
 32
0.0
 14
0.0
 24
0.0
 34
0.0
 15
11.0
 25
8.5
 35
0.0
146
0.0
 13
0.0
 23
0.0
 33
0.0
 16
1.0
 26
0.0
 36
0.0
 17
0.0
 27
1.0
 37
0.0
 76
     0
330
4E
331
51
  0
MATERIAL
  5
3D
102
{ACAD_REACTORS
330
3B
102
}
102
{ACAD_XDICTIONARY
360
4A2
102
}
330
3B
100
AcDbMaterial
  1
BYBLOCK
  0
MATERIAL
  5
3C
102
{ACAD_REACTORS
330
3B
102
}
102
{ACAD_XDICTIONARY
360
4A0
102
}
330
3B
100
AcDbMaterial
  1
BYLAYER
  0
MATERIAL
  5
3E
102
{ACAD_REACTORS
330
3B
102
}
102
{ACAD_XDICTIONARY
360
4A4
102
}
330
3B
100
AcDbMaterial
  1
Global
  0
MLINESTYLE
  5
18
102
{ACAD_REACTORS
330
17
102
}
330
17
100
AcDbMlineStyle
  2
Standard
 70
     0
  3

 62
   256
 51
90.0
 52
90.0
 71
     2
 49
0.5
 62
   256
  6
BYLAYER
 49
-0.5
 62
   256
  6
BYLAYER
  0
ACDBPLACEHOLDER
  5
F
102
{ACAD_REACTORS
330
E
102
}
330
E
  0
VISUALSTYLE
  5
2F
102
{ACAD_REACTORS
330
2A
102
}
102
{ACAD_XDICTIONARY
360
488
102
}
330
2A
100
AcDbVisualStyle
  2
2dWireframe
 70
     4
 71
     0
 72
     2
 73
     0
 90
        0
 40
-0.6
 41
-30.0
 62
     5
 63
     7
 74
     1
 91
        4
 64
     7
 65
   257
 75
     1
175
     1
 42
1.0
 92
        0
 66
   257
 43
1.0
 76
     1
 77
     6
 78
     2
 67
     7
 79
     5
170
     0
171
     0
290
     0
174
     0
 93
        1
 44
0.0
173
     0
291
     0
 45
0.0
1001
ACAD
1000
AcDbSavedByObjectVersion
1070
     0
  0
VISUALSTYLE
  5
31
102
{ACAD_REACTORS
330
2A
102
}
102
{ACAD_XDICTIONARY
360
48C
102
}
330
2A
100
AcDbVisualStyle
  2
3D Hidden
 70
     6
 71
     1
 72
     2
 73
     2
 90
        0
 40
-0.6
 41
-30.0
 62
     5
 63
     7
 74
     2
 91
        2
 64
     7
 65
   257
 75
     2
175
     1
 42
40.0
 92
        0
 66
   257
 43
1.0
 76
     1
 77
     6
 78
     2
 67
     7
 79
     3
170
     0
171
     0
290
     0
174
     0
 93
        1
 44
0.0
173
     0
291
     0
 45
0.0
1001
ACAD
1000
AcDbSavedByObjectVersion
1070
     0
  0
VISUALSTYLE
  5
30
102
{ACAD_REACTORS
330
2A
102
}
102
{ACAD_XDICTIONARY
360
48A
102
}
330
2A
100
AcDbVisualStyle
  2
3dWireframe
 70
     5
 71
     0
 72
     2
 73
     0
 90
        0
 40
-0.6
 41
-30.0
 62
     5
 63
     7
 74
     1
 91
        4
 64
     7
 65
   257
 75
     1
175
     1
 42
1.0
 92
        0
 66
   257
 43
1.0
 76
     1
 77
     6
 78
     2
 67
     7
 79
     5
170
     0
171
     0
290
     0
174
     0
 93
        1
 44
0.0
173
     0
291
     0
 45
0.0
1001
ACAD
1000
AcDbSavedByObjectVersion
1070
     0
  0
VISUALSTYLE
  5
32
102
{ACAD_REACTORS
330
2A
102
}
102
{ACAD_XDICTIONARY
360
48E
102
}
330
2A
100
AcDbVisualStyle
  2
Basic
 70
     7
 71
     1
 72
     0
 73
     1
 90
        0
 40
-0.6
 41
-30.0
 62
     5
 63
     7
 74
     0
 91
        4
 64
     7
 65
   257
 75
     1
175
     1
 42
1.0
 92
        8
 66
     7
 43
1.0
 76
     1
 77
     6
 78
     2
 67
     7
 79
     5
170
     0
171
     0
290
     0
174
     0
 93
        1
 44
0.0
173
     0
291
     1
 45
0.0
1001
ACAD
1000
AcDbSavedByObjectVersion
1070
     0
  0
VISUALSTYLE
  5
36
102
{ACAD_REACTORS
330
2A
102
}
102
{ACAD_XDICTIONARY
360
496
102
}
330
2A
100
AcDbVisualStyle
  2
Brighten
 70
    12
 71
     2
 72
     2
 73
     0
 90
        0
 40
-0.6
 41
-30.0
 62
     5
 63
     7
 74
     1
 91
        4
 64
     7
 65
   257
 75
     1
175
     1
 42
1.0
 92
        8
 66
     7
 43
1.0
 76
     1
 77
     6
 78
     2
 67
     7
 79
     5
170
     0
171
     0
290
     0
174
     0
 93
        1
 44
50.0
173
     0
291
     1
 45
0.0
1001
ACAD
1000
AcDbSavedByObjectVersion
1070
     0
  0
VISUALSTYLE
  5
3A
102
{ACAD_REACTORS
330
2A
102
}
102
{ACAD_XDICTIONARY
360
49E
102
}
330
2A
100
AcDbVisualStyle
  2
ColorChange
 70
    16
 71
     2
 72
     2
 73
     3
 90
        0
 40
-0.6
 41
-30.0
 62
     5
 63
     8
 74
     1
 91
        4
 64
     7
 65
   257
 75
     1
175
     1
 42
1.0
 92
        8
 66
     8
 43
1.0
 76
     1
 77
     6
 78
     2
 67
     7
 79
     5
170
     0
171
     0
290
     0
174
     0
 93
        1
 44
0.0
173
     0
291
     1
 45
0.0
1001
ACAD
1000
AcDbSavedByObjectVersion
1070
     0
  0
VISUALSTYLE
  5
34
102
{ACAD_REACTORS
330
2A
102
}
102
{ACAD_XDICTIONARY
360
492
102
}
330
2A
100
AcDbVisualStyle
  2
Conceptual
 70
     9
 71
     3
 72
     2
 73
     0
 90
        0
 40
-0.6
 41
-30.0
 62
     5
 63
     7
 74
     2
 91
        2
 64
     7
 65
   257
 75
     1
175
     1
 42
40.0
 92
        8
 66
     7
 43
1.0
 76
     1
 77
     6
 78
     2
 67
     7
 79
     3
170
     0
171
     0
290
     0
174
     0
 93
        1
 44
0.0
173
     0
291
     0
 45
0.0
1001
ACAD
1000
AcDbSavedByObjectVersion
1070
     0
  0
VISUALSTYLE
  5
35
102
{ACAD_REACTORS
330
2A
102
}
102
{ACAD_XDICTIONARY
360
494
102
}
330
2A
100
AcDbVisualStyle
  2
Dim
 70
    11
 71
     2
 72
     2
 73
     0
 90
        0
 40
-0.6
 41
-30.0
 62
     5
 63
     7
 74
     1
 91
        4
 64
     7
 65
   257
 75
     1
175
     1
 42
1.0
 92
        8
 66
     7
 43
1.0
 76
     1
 77
     6
 78
     2
 67
     7
 79
     5
170
     0
171
     0
290
     0
174
     0
 93
        1
 44
-50.0
173
     0
291
     1
 45
0.0
1001
ACAD
1000
AcDbSavedByObjectVersion
1070
     0
  0
VISUALSTYLE
  5
39
102
{ACAD_REACTORS
330
2A
102
}
102
{ACAD_XDICTIONARY
360
49C
102
}
330
2A
100
AcDbVisualStyle
  2
Facepattern
 70
    15
 71
     2
 72
     2
 73
     0
 90
        0
 40
-0.6
 41
-30.0
 62
     5
 63
     7
 74
     1
 91
        4
 64
     7
 65
   257
 75
     1
175
     1
 42
1.0
 92
        8
 66
     7
 43
1.0
 76
     1
 77
     6
 78
     2
 67
     7
 79
     5
170
     0
171
     0
290
     0
174
     0
 93
        1
 44
0.0
173
     0
291
     1
 45
0.0
1001
ACAD
1000
AcDbSavedByObjectVersion
1070
     0
  0
VISUALSTYLE
  5
2B
102
{ACAD_REACTORS
330
2A
102
}
102
{ACAD_XDICTIONARY
360
480
102
}
330
2A
100
AcDbVisualStyle
  2
Flat
 70
     0
 71
     2
 72
     1
 73
     1
 90
        2
 40
-0.6
 41
30.0
 62
     5
 63
     7
 74
     0
 91
        4
 64
     7
 65
   257
 75
     1
175
     1
 42
1.0
 92
        8
 66
     7
 43
1.0
 76
     1
 77
     6
 78
     2
 67
     7
 79
     5
170
     0
171
     0
290
     0
174
     0
 93
       13
 44
0.0
173
     0
291
     1
 45
0.0
1001
ACAD
1000
AcDbSavedByObjectVersion
1070
     0
  0
VISUALSTYLE
  5
2C
102
{ACAD_REACTORS
330
2A
102
}
102
{ACAD_XDICTIONARY
360
482
102
}
330
2A
100
AcDbVisualStyle
  2
FlatWithEdges
 70
     1
 71
     2
 72
     1
 73
     1
 90
        2
 40
-0.6
 41
30.0
 62
     5
 63
     7
 74
     1
 91
        4
 64
     7
 65
   257
 75
     1
175
     1
 42
1.0
 92
        0
 66
   257
 43
1.0
 76
     1
 77
     6
 78
     2
 67
     7
 79
     5
170
     0
171
     0
290
     0
174
     0
 93
       13
 44
0.0
173
     0
291
     1
 45
0.0
1001
ACAD
1000
AcDbSavedByObjectVersion
1070
     0
  0
VISUALSTYLE
  5
2D
102
{ACAD_REACTORS
330
2A
102
}
102
{ACAD_XDICTIONARY
360
484
102
}
330
2A
100
AcDbVisualStyle
  2
Gouraud
 70
     2
 71
     2
 72
     2
 73
     1
 90
        2
 40
-0.6
 41
30.0
 62
     5
 63
     7
 74
     0
 91
        4
 64
     7
 65
   257
 75
     1
175
     1
 42
1.0
 92
        0
 66
     7
 43
1.0
 76
     1
 77
     6
 78
     2
 67
     7
 79
     5
170
     0
171
     0
290
     0
174
     0
 93
       13
 44
0.0
173
     0
291
     1
 45
0.0
1001
ACAD
1000
AcDbSavedByObjectVersion
1070
     0
  0
VISUALSTYLE
  5
2E
102
{ACAD_REACTORS
330
2A
102
}
102
{ACAD_XDICTIONARY
360
486
102
}
330
2A
100
AcDbVisualStyle
  2
GouraudWithEdges
 70
     3
 71
     2
 72
     2
 73
     1
 90
        2
 40
-0.6
 41
30.0
 62
     5
 63
     7
 74
     1
 91
        4
 64
     7
 65
   257
 75
     1
175
     1
 42
1.0
 92
        0
 66
   257
 43
1.0
 76
     1
 77
     6
 78
     2
 67
     7
 79
     5
170
     0
171
     0
290
     0
174
     0
 93
       13
 44
0.0
173
     0
291
     1
 45
0.0
1001
ACAD
1000
AcDbSavedByObjectVersion
1070
     0
  0
VISUALSTYLE
  5
38
102
{ACAD_REACTORS
330
2A
102
}
102
{ACAD_XDICTIONARY
360
49A
102
}
330
2A
100
AcDbVisualStyle
  2
Linepattern
 70
    14
 71
     2
 72
     2
 73
     0
 90
        0
 40
-0.6
 41
-30.0
 62
     5
 63
     7
 74
     1
 91
        4
 64
     7
 65
   257
 75
     7
175
     7
 42
1.0
 92
        8
 66
     7
 43
1.0
 76
     1
 77
     6
 78
     2
 67
     7
 79
     5
170
     0
171
     0
290
     0
174
     0
 93
        1
 44
0.0
173
     0
291
     1
 45
0.0
1001
ACAD
1000
AcDbSavedByObjectVersion
1070
     0
  0
VISUALSTYLE
  5
33
102
{ACAD_REACTORS
330
2A
102
}
102
{ACAD_XDICTIONARY
360
490
102
}
330
2A
100
AcDbVisualStyle
  2
Realistic
 70
     8
 71
     2
 72
     2
 73
     0
 90
        0
 40
-0.6
 41
-30.0
 62
     5
 63
     7
 74
     1
 91
        0
 64
     7
 65
   257
 75
     1
175
     1
 42
1.0
 92
        8
 66
     8
 43
1.0
 76
     1
 77
     6
 78
     2
 67
     7
 79
     5
170
     0
171
     0
290
     0
174
     0
 93
       13
 44
0.0
173
     0
291
     0
 45
0.0
1001
ACAD
1000
AcDbSavedByObjectVersion
1070
     0
  0
VISUALSTYLE
  5
37
102
{ACAD_REACTORS
330
2A
102
}
102
{ACAD_XDICTIONARY
360
498
102
}
330
2A
100
AcDbVisualStyle
  2
Thicken
 70
    13
 71
     2
 72
     2
 73
     0
 90
        0
 40
-0.6
 41
-30.0
 62
     5
 63
     7
 74
     1
 91
        4
 64
     7
 65
   257
 75
     1
175
     1
 42
1.0
 92
       12
 66
     7
 43
1.0
 76
     1
 77
     6
 78
     2
 67
     7
 79
     5
170
     0
171
     0
290
     0
174
     0
 93
        1
 44
0.0
173
     0
291
     1
 45
0.0
1001
ACAD
1000
AcDbSavedByObjectVersion
1070
     0
  0
DICTIONARYVAR
  5
47E
102
{ACAD_REACTORS
330
47B
102
}
330
47B
100
DictionaryVariables
280
     0
  1
2
  0
DICTIONARYVAR
  5
47F
102
{ACAD_REACTORS
330
47B
102
}
330
47B
100
DictionaryVariables
280
     0
  1
1
  0
DICTIONARY
  5
4A2
330
3D
100
AcDbDictionary
280
     1
281
     1
  3
ACAD_XREC_ROUNDTRIP
360
4A3
  0
DICTIONARY
  5
4A0
330
3C
100
AcDbDictionary
280
     1
281
     1
  3
ACAD_XREC_ROUNDTRIP
360
4A1
  0
DICTIONARY
  5
4A4
330
3E
100
AcDbDictionary
280
     1
281
     1
  3
ACAD_XREC_ROUNDTRIP
360
4A5
  0
DICTIONARY
  5
488
330
2F
100
AcDbDictionary
280
     1
281
     1
  3
ACAD_XREC_ROUNDTRIP
360
489
  0
DICTIONARY
  5
48C
330
31
100
AcDbDictionary
280
     1
281
     1
  3
ACAD_XREC_ROUNDTRIP
360
48D
  0
DICTIONARY
  5
48A
330
30
100
AcDbDictionary
280
     1
281
     1
  3
ACAD_XREC_ROUNDTRIP
360
48B
  0
DICTIONARY
  5
48E
330
32
100
AcDbDictionary
280
     1
281
     1
  3
ACAD_XREC_ROUNDTRIP
360
48F
  0
DICTIONARY
  5
496
330
36
100
AcDbDictionary
280
     1
281
     1
  3
ACAD_XREC_ROUNDTRIP
360
497
  0
DICTIONARY
  5
49E
330
3A
100
AcDbDictionary
280
     1
281
     1
  3
ACAD_XREC_ROUNDTRIP
360
49F
  0
DICTIONARY
  5
492
330
34
100
AcDbDictionary
280
     1
281
     1
  3
ACAD_XREC_ROUNDTRIP
360
493
  0
DICTIONARY
  5
494
330
35
100
AcDbDictionary
280
     1
281
     1
  3
ACAD_XREC_ROUNDTRIP
360
495
  0
DICTIONARY
  5
49C
330
39
100
AcDbDictionary
280
     1
281
     1
  3
ACAD_XREC_ROUNDTRIP
360
49D
  0
DICTIONARY
  5
480
330
2B
100
AcDbDictionary
280
     1
281
     1
  3
ACAD_XREC_ROUNDTRIP
360
481
  0
DICTIONARY
  5
482
330
2C
100
AcDbDictionary
280
     1
281
     1
  3
ACAD_XREC_ROUNDTRIP
360
483
  0
DICTIONARY
  5
484
330
2D
100
AcDbDictionary
280
     1
281
     1
  3
ACAD_XREC_ROUNDTRIP
360
485
  0
DICTIONARY
  5
486
330
2E
100
AcDbDictionary
280
     1
281
     1
  3
ACAD_XREC_ROUNDTRIP
360
487
  0
DICTIONARY
  5
49A
330
38
100
AcDbDictionary
280
     1
281
     1
  3
ACAD_XREC_ROUNDTRIP
360
49B
  0
DICTIONARY
  5
490
330
33
100
AcDbDictionary
280
     1
281
     1
  3
ACAD_XREC_ROUNDTRIP
360
491
  0
DICTIONARY
  5
498
330
37
100
AcDbDictionary
280
     1
281
     1
  3
ACAD_XREC_ROUNDTRIP
360
499
  0
XRECORD
  5
4A3
102
{ACAD_REACTORS
330
4A2
102
}
330
4A2
100
AcDbXrecord
280
     1
102
MATERIAL
148
0.0
149
0.0
149
0.0
 93
        0
 94
      127
282
     0
 72
     1
 77
     1
171
     1
175
     1
179
     1
273
     0
  0
XRECORD
  5
4A1
102
{ACAD_REACTORS
330
4A0
102
}
330
4A0
100
AcDbXrecord
280
     1
102
MATERIAL
148
0.0
149
0.0
149
0.0
 93
        0
 94
      127
282
     0
 72
     1
 77
     1
171
     1
175
     1
179
     1
273
     0
  0
XRECORD
  5
4A5
102
{ACAD_REACTORS
330
4A4
102
}
330
4A4
100
AcDbXrecord
280
     1
102
MATERIAL
148
0.0
149
0.0
149
0.0
 93
        0
 94
      127
282
     0
 72
     1
 77
     1
171
     1
175
     1
179
     1
273
     0
  0
XRECORD
  5
489
102
{ACAD_REACTORS
330
488
102
}
330
488
100
AcDbXrecord
280
     1
102
RTVSPropertyOp0
 70
     1
102
RTVSPropertyOp1
 70
     1
102
RTVSPropertyOp2
 70
     1
102
RTVSPropertyOp3
 70
     1
102
RTVSPropertyOp4
 70
     1
102
RTVSPropertyOp5
 70
     1
102
RTVSPropertyOp6
 70
     1
102
RTVSPropertyOp7
 70
     1
102
RTVSPropertyOp8
 70
     1
102
RTVSPropertyOp9
 70
     1
102
RTVSPropertyOp10
 70
     1
102
RTVSPropertyOp11
 70
     1
102
RTVSPropertyOp12
 70
     1
102
RTVSPropertyOp13
 70
     1
102
RTVSPropertyOp14
 70
     1
102
RTVSPropertyOp15
 70
     1
102
RTVSPropertyOp16
 70
     1
102
RTVSPropertyOp17
 70
     1
102
RTVSPropertyOp18
 70
     1
102
RTVSPropertyOp19
 70
     1
102
RTVSPropertyOp20
 70
     1
102
RTVSPropertyOp21
 70
     1
102
RTVSPropertyOp22
 70
     1
102
RTVSPropertyOp23
 70
     1
102
RTVSPropertyOp24
 70
     1
102
RTVSPropertyOp25
 70
     1
102
RTVSPropertyOp26
 70
     1
102
RTVSPropertyOp27
 70
     1
  0
XRECORD
  5
48D
102
{ACAD_REACTORS
330
48C
102
}
330
48C
100
AcDbXrecord
280
     1
102
RTVSPropertyOp0
 70
     1
102
RTVSPropertyOp1
 70
     1
102
RTVSPropertyOp2
 70
     1
102
RTVSPropertyOp3
 70
     1
102
RTVSPropertyOp4
 70
     1
102
RTVSPropertyOp5
 70
     1
102
RTVSPropertyOp6
 70
     1
102
RTVSPropertyOp7
 70
     1
102
RTVSPropertyOp8
 70
     1
102
RTVSPropertyOp9
 70
     1
102
RTVSPropertyOp10
 70
     1
102
RTVSPropertyOp11
 70
     1
102
RTVSPropertyOp12
 70
     1
102
RTVSPropertyOp13
 70
     1
102
RTVSPropertyOp14
 70
     1
102
RTVSPropertyOp15
 70
     1
102
RTVSPropertyOp16
 70
     1
102
RTVSPropertyOp17
 70
     1
102
RTVSPropertyOp18
 70
     1
102
RTVSPropertyOp19
 70
     1
102
RTVSPropertyOp20
 70
     1
102
RTVSPropertyOp21
 70
     1
102
RTVSPropertyOp22
 70
     1
102
RTVSPropertyOp23
 70
     1
102
RTVSPropertyOp24
 70
     1
102
RTVSPropertyOp25
 70
     1
102
RTVSPropertyOp26
 70
     1
102
RTVSPropertyOp27
 70
     1
  0
XRECORD
  5
48B
102
{ACAD_REACTORS
330
48A
102
}
330
48A
100
AcDbXrecord
280
     1
102
RTVSPropertyOp0
 70
     1
102
RTVSPropertyOp1
 70
     1
102
RTVSPropertyOp2
 70
     1
102
RTVSPropertyOp3
 70
     1
102
RTVSPropertyOp4
 70
     1
102
RTVSPropertyOp5
 70
     1
102
RTVSPropertyOp6
 70
     1
102
RTVSPropertyOp7
 70
     1
102
RTVSPropertyOp8
 70
     1
102
RTVSPropertyOp9
 70
     1
102
RTVSPropertyOp10
 70
     1
102
RTVSPropertyOp11
 70
     1
102
RTVSPropertyOp12
 70
     1
102
RTVSPropertyOp13
 70
     1
102
RTVSPropertyOp14
 70
     1
102
RTVSPropertyOp15
 70
     1
102
RTVSPropertyOp16
 70
     1
102
RTVSPropertyOp17
 70
     1
102
RTVSPropertyOp18
 70
     1
102
RTVSPropertyOp19
 70
     1
102
RTVSPropertyOp20
 70
     1
102
RTVSPropertyOp21
 70
     1
102
RTVSPropertyOp22
 70
     1
102
RTVSPropertyOp23
 70
     1
102
RTVSPropertyOp24
 70
     1
102
RTVSPropertyOp25
 70
     1
102
RTVSPropertyOp26
 70
     1
102
RTVSPropertyOp27
 70
     1
  0
XRECORD
  5
48F
102
{ACAD_REACTORS
330
48E
102
}
330
48E
100
AcDbXrecord
280
     1
102
RTVSPropertyOp0
 70
     1
102
RTVSPropertyOp1
 70
     1
102
RTVSPropertyOp2
 70
     1
102
RTVSPropertyOp3
 70
     1
102
RTVSPropertyOp4
 70
     1
102
RTVSPropertyOp5
 70
     1
102
RTVSPropertyOp6
 70
     1
102
RTVSPropertyOp7
 70
     1
102
RTVSPropertyOp8
 70
     1
102
RTVSPropertyOp9
 70
     1
102
RTVSPropertyOp10
 70
     1
102
RTVSPropertyOp11
 70
     1
102
RTVSPropertyOp12
 70
     1
102
RTVSPropertyOp13
 70
     1
102
RTVSPropertyOp14
 70
     1
102
RTVSPropertyOp15
 70
     1
102
RTVSPropertyOp16
 70
     1
102
RTVSPropertyOp17
 70
     1
102
RTVSPropertyOp18
 70
     1
102
RTVSPropertyOp19
 70
     1
102
RTVSPropertyOp20
 70
     1
102
RTVSPropertyOp21
 70
     1
102
RTVSPropertyOp22
 70
     1
102
RTVSPropertyOp23
 70
     1
102
RTVSPropertyOp24
 70
     1
102
RTVSPropertyOp25
 70
     1
102
RTVSPropertyOp26
 70
     1
102
RTVSPropertyOp27
 70
     1
  0
XRECORD
  5
497
102
{ACAD_REACTORS
330
496
102
}
330
496
100
AcDbXrecord
280
     1
102
RTVSPropertyOp0
 70
     1
102
RTVSPropertyOp1
 70
     1
102
RTVSPropertyOp2
 70
     1
102
RTVSPropertyOp3
 70
     1
102
RTVSPropertyOp4
 70
     1
102
RTVSPropertyOp5
 70
     1
102
RTVSPropertyOp6
 70
     1
102
RTVSPropertyOp7
 70
     1
102
RTVSPropertyOp8
 70
     1
102
RTVSPropertyOp9
 70
     1
102
RTVSPropertyOp10
 70
     1
102
RTVSPropertyOp11
 70
     1
102
RTVSPropertyOp12
 70
     1
102
RTVSPropertyOp13
 70
     1
102
RTVSPropertyOp14
 70
     1
102
RTVSPropertyOp15
 70
     1
102
RTVSPropertyOp16
 70
     1
102
RTVSPropertyOp17
 70
     1
102
RTVSPropertyOp18
 70
     1
102
RTVSPropertyOp19
 70
     1
102
RTVSPropertyOp20
 70
     1
102
RTVSPropertyOp21
 70
     1
102
RTVSPropertyOp22
 70
     1
102
RTVSPropertyOp23
 70
     1
102
RTVSPropertyOp24
 70
     1
102
RTVSPropertyOp25
 70
     1
102
RTVSPropertyOp26
 70
     1
102
RTVSPropertyOp27
 70
     1
  0
XRECORD
  5
49F
102
{ACAD_REACTORS
330
49E
102
}
330
49E
100
AcDbXrecord
280
     1
102
RTVSPropertyOp0
 70
     1
102
RTVSPropertyOp1
 70
     1
102
RTVSPropertyOp2
 70
     1
102
RTVSPropertyOp3
 70
     1
102
RTVSPropertyOp4
 70
     1
102
RTVSPropertyOp5
 70
     1
102
RTVSPropertyOp6
 70
     1
102
RTVSPropertyOp7
 70
     1
102
RTVSPropertyOp8
 70
     1
102
RTVSPropertyOp9
 70
     1
102
RTVSPropertyOp10
 70
     1
102
RTVSPropertyOp11
 70
     1
102
RTVSPropertyOp12
 70
     1
102
RTVSPropertyOp13
 70
     1
102
RTVSPropertyOp14
 70
     1
102
RTVSPropertyOp15
 70
     1
102
RTVSPropertyOp16
 70
     1
102
RTVSPropertyOp17
 70
     1
102
RTVSPropertyOp18
 70
     1
102
RTVSPropertyOp19
 70
     1
102
RTVSPropertyOp20
 70
     1
102
RTVSPropertyOp21
 70
     1
102
RTVSPropertyOp22
 70
     1
102
RTVSPropertyOp23
 70
     1
102
RTVSPropertyOp24
 70
     1
102
RTVSPropertyOp25
 70
     1
102
RTVSPropertyOp26
 70
     1
102
RTVSPropertyOp27
 70
     1
  0
XRECORD
  5
493
102
{ACAD_REACTORS
330
492
102
}
330
492
100
AcDbXrecord
280
     1
102
RTVSPropertyOp0
 70
     1
102
RTVSPropertyOp1
 70
     1
102
RTVSPropertyOp2
 70
     1
102
RTVSPropertyOp3
 70
     1
102
RTVSPropertyOp4
 70
     1
102
RTVSPropertyOp5
 70
     1
102
RTVSPropertyOp6
 70
     1
102
RTVSPropertyOp7
 70
     1
102
RTVSPropertyOp8
 70
     1
102
RTVSPropertyOp9
 70
     1
102
RTVSPropertyOp10
 70
     1
102
RTVSPropertyOp11
 70
     1
102
RTVSPropertyOp12
 70
     1
102
RTVSPropertyOp13
 70
     1
102
RTVSPropertyOp14
 70
     1
102
RTVSPropertyOp15
 70
     1
102
RTVSPropertyOp16
 70
     1
102
RTVSPropertyOp17
 70
     1
102
RTVSPropertyOp18
 70
     1
102
RTVSPropertyOp19
 70
     1
102
RTVSPropertyOp20
 70
     1
102
RTVSPropertyOp21
 70
     1
102
RTVSPropertyOp22
 70
     1
102
RTVSPropertyOp23
 70
     1
102
RTVSPropertyOp24
 70
     1
102
RTVSPropertyOp25
 70
     1
102
RTVSPropertyOp26
 70
     1
102
RTVSPropertyOp27
 70
     1
  0
XRECORD
  5
495
102
{ACAD_REACTORS
330
494
102
}
330
494
100
AcDbXrecord
280
     1
102
RTVSPropertyOp0
 70
     1
102
RTVSPropertyOp1
 70
     1
102
RTVSPropertyOp2
 70
     1
102
RTVSPropertyOp3
 70
     1
102
RTVSPropertyOp4
 70
     1
102
RTVSPropertyOp5
 70
     1
102
RTVSPropertyOp6
 70
     1
102
RTVSPropertyOp7
 70
     1
102
RTVSPropertyOp8
 70
     1
102
RTVSPropertyOp9
 70
     1
102
RTVSPropertyOp10
 70
     1
102
RTVSPropertyOp11
 70
     1
102
RTVSPropertyOp12
 70
     1
102
RTVSPropertyOp13
 70
     1
102
RTVSPropertyOp14
 70
     1
102
RTVSPropertyOp15
 70
     1
102
RTVSPropertyOp16
 70
     1
102
RTVSPropertyOp17
 70
     1
102
RTVSPropertyOp18
 70
     1
102
RTVSPropertyOp19
 70
     1
102
RTVSPropertyOp20
 70
     1
102
RTVSPropertyOp21
 70
     1
102
RTVSPropertyOp22
 70
     1
102
RTVSPropertyOp23
 70
     1
102
RTVSPropertyOp24
 70
     1
102
RTVSPropertyOp25
 70
     1
102
RTVSPropertyOp26
 70
     1
102
RTVSPropertyOp27
 70
     1
  0
XRECORD
  5
49D
102
{ACAD_REACTORS
330
49C
102
}
330
49C
100
AcDbXrecord
280
     1
102
RTVSPropertyOp0
 70
     1
102
RTVSPropertyOp1
 70
     1
102
RTVSPropertyOp2
 70
     1
102
RTVSPropertyOp3
 70
     1
102
RTVSPropertyOp4
 70
     1
102
RTVSPropertyOp5
 70
     1
102
RTVSPropertyOp6
 70
     1
102
RTVSPropertyOp7
 70
     1
102
RTVSPropertyOp8
 70
     1
102
RTVSPropertyOp9
 70
     1
102
RTVSPropertyOp10
 70
     1
102
RTVSPropertyOp11
 70
     1
102
RTVSPropertyOp12
 70
     1
102
RTVSPropertyOp13
 70
     1
102
RTVSPropertyOp14
 70
     1
102
RTVSPropertyOp15
 70
     1
102
RTVSPropertyOp16
 70
     1
102
RTVSPropertyOp17
 70
     1
102
RTVSPropertyOp18
 70
     1
102
RTVSPropertyOp19
 70
     1
102
RTVSPropertyOp20
 70
     1
102
RTVSPropertyOp21
 70
     1
102
RTVSPropertyOp22
 70
     1
102
RTVSPropertyOp23
 70
     1
102
RTVSPropertyOp24
 70
     1
102
RTVSPropertyOp25
 70
     1
102
RTVSPropertyOp26
 70
     1
102
RTVSPropertyOp27
 70
     1
  0
XRECORD
  5
481
102
{ACAD_REACTORS
330
480
102
}
330
480
100
AcDbXrecord
280
     1
102
RTVSPropertyOp0
 70
     1
102
RTVSPropertyOp1
 70
     1
102
RTVSPropertyOp2
 70
     1
102
RTVSPropertyOp3
 70
     1
102
RTVSPropertyOp4
 70
     1
102
RTVSPropertyOp5
 70
     1
102
RTVSPropertyOp6
 70
     1
102
RTVSPropertyOp7
 70
     1
102
RTVSPropertyOp8
 70
     1
102
RTVSPropertyOp9
 70
     1
102
RTVSPropertyOp10
 70
     1
102
RTVSPropertyOp11
 70
     1
102
RTVSPropertyOp12
 70
     1
102
RTVSPropertyOp13
 70
     1
102
RTVSPropertyOp14
 70
     1
102
RTVSPropertyOp15
 70
     1
102
RTVSPropertyOp16
 70
     1
102
RTVSPropertyOp17
 70
     1
102
RTVSPropertyOp18
 70
     1
102
RTVSPropertyOp19
 70
     1
102
RTVSPropertyOp20
 70
     1
102
RTVSPropertyOp21
 70
     1
102
RTVSPropertyOp22
 70
     1
102
RTVSPropertyOp23
 70
     1
102
RTVSPropertyOp24
 70
     1
102
RTVSPropertyOp25
 70
     1
102
RTVSPropertyOp26
 70
     1
102
RTVSPropertyOp27
 70
     1
  0
XRECORD
  5
483
102
{ACAD_REACTORS
330
482
102
}
330
482
100
AcDbXrecord
280
     1
102
RTVSPropertyOp0
 70
     1
102
RTVSPropertyOp1
 70
     1
102
RTVSPropertyOp2
 70
     1
102
RTVSPropertyOp3
 70
     1
102
RTVSPropertyOp4
 70
     1
102
RTVSPropertyOp5
 70
     1
102
RTVSPropertyOp6
 70
     1
102
RTVSPropertyOp7
 70
     1
102
RTVSPropertyOp8
 70
     1
102
RTVSPropertyOp9
 70
     1
102
RTVSPropertyOp10
 70
     1
102
RTVSPropertyOp11
 70
     1
102
RTVSPropertyOp12
 70
     1
102
RTVSPropertyOp13
 70
     1
102
RTVSPropertyOp14
 70
     1
102
RTVSPropertyOp15
 70
     1
102
RTVSPropertyOp16
 70
     1
102
RTVSPropertyOp17
 70
     1
102
RTVSPropertyOp18
 70
     1
102
RTVSPropertyOp19
 70
     1
102
RTVSPropertyOp20
 70
     1
102
RTVSPropertyOp21
 70
     1
102
RTVSPropertyOp22
 70
     1
102
RTVSPropertyOp23
 70
     1
102
RTVSPropertyOp24
 70
     1
102
RTVSPropertyOp25
 70
     1
102
RTVSPropertyOp26
 70
     1
102
RTVSPropertyOp27
 70
     1
  0
XRECORD
  5
485
102
{ACAD_REACTORS
330
484
102
}
330
484
100
AcDbXrecord
280
     1
102
RTVSPropertyOp0
 70
     1
102
RTVSPropertyOp1
 70
     1
102
RTVSPropertyOp2
 70
     1
102
RTVSPropertyOp3
 70
     1
102
RTVSPropertyOp4
 70
     1
102
RTVSPropertyOp5
 70
     1
102
RTVSPropertyOp6
 70
     1
102
RTVSPropertyOp7
 70
     1
102
RTVSPropertyOp8
 70
     1
102
RTVSPropertyOp9
 70
     1
102
RTVSPropertyOp10
 70
     1
102
RTVSPropertyOp11
 70
     1
102
RTVSPropertyOp12
 70
     1
102
RTVSPropertyOp13
 70
     1
102
RTVSPropertyOp14
 70
     1
102
RTVSPropertyOp15
 70
     1
102
RTVSPropertyOp16
 70
     1
102
RTVSPropertyOp17
 70
     1
102
RTVSPropertyOp18
 70
     1
102
RTVSPropertyOp19
 70
     1
102
RTVSPropertyOp20
 70
     1
102
RTVSPropertyOp21
 70
     1
102
RTVSPropertyOp22
 70
     1
102
RTVSPropertyOp23
 70
     1
102
RTVSPropertyOp24
 70
     1
102
RTVSPropertyOp25
 70
     1
102
RTVSPropertyOp26
 70
     1
102
RTVSPropertyOp27
 70
     1
  0
XRECORD
  5
487
102
{ACAD_REACTORS
330
486
102
}
330
486
100
AcDbXrecord
280
     1
102
RTVSPropertyOp0
 70
     1
102
RTVSPropertyOp1
 70
     1
102
RTVSPropertyOp2
 70
     1
102
RTVSPropertyOp3
 70
     1
102
RTVSPropertyOp4
 70
     1
102
RTVSPropertyOp5
 70
     1
102
RTVSPropertyOp6
 70
     1
102
RTVSPropertyOp7
 70
     1
102
RTVSPropertyOp8
 70
     1
102
RTVSPropertyOp9
 70
     1
102
RTVSPropertyOp10
 70
     1
102
RTVSPropertyOp11
 70
     1
102
RTVSPropertyOp12
 70
     1
102
RTVSPropertyOp13
 70
     1
102
RTVSPropertyOp14
 70
     1
102
RTVSPropertyOp15
 70
     1
102
RTVSPropertyOp16
 70
     1
102
RTVSPropertyOp17
 70
     1
102
RTVSPropertyOp18
 70
     1
102
RTVSPropertyOp19
 70
     1
102
RTVSPropertyOp20
 70
     1
102
RTVSPropertyOp21
 70
     1
102
RTVSPropertyOp22
 70
     1
102
RTVSPropertyOp23
 70
     1
102
RTVSPropertyOp24
 70
     1
102
RTVSPropertyOp25
 70
     1
102
RTVSPropertyOp26
 70
     1
102
RTVSPropertyOp27
 70
     1
  0
XRECORD
  5
49B
102
{ACAD_REACTORS
330
49A
102
}
330
49A
100
AcDbXrecord
280
     1
102
RTVSPropertyOp0
 70
     1
102
RTVSPropertyOp1
 70
     1
102
RTVSPropertyOp2
 70
     1
102
RTVSPropertyOp3
 70
     1
102
RTVSPropertyOp4
 70
     1
102
RTVSPropertyOp5
 70
     1
102
RTVSPropertyOp6
 70
     1
102
RTVSPropertyOp7
 70
     1
102
RTVSPropertyOp8
 70
     1
102
RTVSPropertyOp9
 70
     1
102
RTVSPropertyOp10
 70
     1
102
RTVSPropertyOp11
 70
     1
102
RTVSPropertyOp12
 70
     1
102
RTVSPropertyOp13
 70
     1
102
RTVSPropertyOp14
 70
     1
102
RTVSPropertyOp15
 70
     1
102
RTVSPropertyOp16
 70
     1
102
RTVSPropertyOp17
 70
     1
102
RTVSPropertyOp18
 70
     1
102
RTVSPropertyOp19
 70
     1
102
RTVSPropertyOp20
 70
     1
102
RTVSPropertyOp21
 70
     1
102
RTVSPropertyOp22
 70
     1
102
RTVSPropertyOp23
 70
     1
102
RTVSPropertyOp24
 70
     1
102
RTVSPropertyOp25
 70
     1
102
RTVSPropertyOp26
 70
     1
102
RTVSPropertyOp27
 70
     1
  0
XRECORD
  5
491
102
{ACAD_REACTORS
330
490
102
}
330
490
100
AcDbXrecord
280
     1
102
RTVSPropertyOp0
 70
     1
102
RTVSPropertyOp1
 70
     1
102
RTVSPropertyOp2
 70
     1
102
RTVSPropertyOp3
 70
     1
102
RTVSPropertyOp4
 70
     1
102
RTVSPropertyOp5
 70
     1
102
RTVSPropertyOp6
 70
     1
102
RTVSPropertyOp7
 70
     1
102
RTVSPropertyOp8
 70
     1
102
RTVSPropertyOp9
 70
     1
102
RTVSPropertyOp10
 70
     1
102
RTVSPropertyOp11
 70
     1
102
RTVSPropertyOp12
 70
     1
102
RTVSPropertyOp13
 70
     1
102
RTVSPropertyOp14
 70
     1
102
RTVSPropertyOp15
 70
     1
102
RTVSPropertyOp16
 70
     1
102
RTVSPropertyOp17
 70
     1
102
RTVSPropertyOp18
 70
     1
102
RTVSPropertyOp19
 70
     1
102
RTVSPropertyOp20
 70
     1
102
RTVSPropertyOp21
 70
     1
102
RTVSPropertyOp22
 70
     1
102
RTVSPropertyOp23
 70
     1
102
RTVSPropertyOp24
 70
     1
102
RTVSPropertyOp25
 70
     1
102
RTVSPropertyOp26
 70
     1
102
RTVSPropertyOp27
 70
     1
  0
XRECORD
  5
499
102
{ACAD_REACTORS
330
498
102
}
330
498
100
AcDbXrecord
280
     1
102
RTVSPropertyOp0
 70
     1
102
RTVSPropertyOp1
 70
     1
102
RTVSPropertyOp2
 70
     1
102
RTVSPropertyOp3
 70
     1
102
RTVSPropertyOp4
 70
     1
102
RTVSPropertyOp5
 70
     1
102
RTVSPropertyOp6
 70
     1
102
RTVSPropertyOp7
 70
     1
102
RTVSPropertyOp8
 70
     1
102
RTVSPropertyOp9
 70
     1
102
RTVSPropertyOp10
 70
     1
102
RTVSPropertyOp11
 70
     1
102
RTVSPropertyOp12
 70
     1
102
RTVSPropertyOp13
 70
     1
102
RTVSPropertyOp14
 70
     1
102
RTVSPropertyOp15
 70
     1
102
RTVSPropertyOp16
 70
     1
102
RTVSPropertyOp17
 70
     1
102
RTVSPropertyOp18
 70
     1
102
RTVSPropertyOp19
 70
     1
102
RTVSPropertyOp20
 70
     1
102
RTVSPropertyOp21
 70
     1
102
RTVSPropertyOp22
 70
     1
102
RTVSPropertyOp23
 70
     1
102
RTVSPropertyOp24
 70
     1
102
RTVSPropertyOp25
 70
     1
102
RTVSPropertyOp26
 70
     1
102
RTVSPropertyOp27
 70
     1
  0
ENDSEC
  0
EOF
