  0
SECTION
  2
HEADER
  9
$ACADVER
  1
AC1012
  9
$DWGCODEPAGE
  3
ANSI_1252
  9
$INSBASE
 10
0.0
 20
0.0
 30
0.0
  9
$EXTMIN
 10
11.22033695506436
 20
11.74479678755718
 30
-0.0015258207003583
  9
$EXTMAX
 10
17.20330813946587
 20
16.24575808603055
 30
0.0000000349246037
  9
$LIMMIN
 10
0.0
 20
0.0
  9
$LIMMAX
 10
12.0
 20
9.0
  9
$ORTHOMODE
 70
     0
  9
$REGENMODE
 70
     1
  9
$FILLMODE
 70
     1
  9
$QTEXTMODE
 70
     0
  9
$MIRRTEXT
 70
     1
  9
$DRAGMODE
 70
     2
  9
$LTSCALE
 40
1.0
  9
$OSMODE
 70
    33
  9
$ATTMODE
 70
     1
  9
$TEXTSIZE
 40
0.2
  9
$TRACEWID
 40
0.05
  9
$TEXTSTYLE
  7
STANDARD
  9
$CLAYER
  8
0
  9
$CELTYPE
  6
BYLAYER
  9
$CECOLOR
 62
   256
  9
$CELTSCALE
 40
1.0
  9
$DELOBJ
 70
     1
  9
$DISPSILH
 70
     0
  9
$DIMSCALE
 40
1.0
  9
$DIMASZ
 40
0.18
  9
$DIMEXO
 40
0.0625
  9
$DIMDLI
 40
0.38
  9
$DIMRND
 40
0.0
  9
$DIMDLE
 40
0.0
  9
$DIMEXE
 40
0.18
  9
$DIMTP
 40
0.0
  9
$DIMTM
 40
0.0
  9
$DIMTXT
 40
0.18
  9
$DIMCEN
 40
0.09
  9
$DIMTSZ
 40
0.0
  9
$DIMTOL
 70
     0
  9
$DIMLIM
 70
     0
  9
$DIMTIH
 70
     1
  9
$DIMTOH
 70
     1
  9
$DIMSE1
 70
     0
  9
$DIMSE2
 70
     0
  9
$DIMTAD
 70
     0
  9
$DIMZIN
 70
     0
  9
$DIMBLK
  1

  9
$DIMASO
 70
     1
  9
$DIMSHO
 70
     1
  9
$DIMPOST
  1

  9
$DIMAPOST
  1

  9
$DIMALT
 70
     0
  9
$DIMALTD
 70
     2
  9
$DIMALTF
 40
25.4
  9
$DIMLFAC
 40
1.0
  9
$DIMTOFL
 70
     0
  9
$DIMTVP
 40
0.0
  9
$DIMTIX
 70
     0
  9
$DIMSOXD
 70
     0
  9
$DIMSAH
 70
     0
  9
$DIMBLK1
  1

  9
$DIMBLK2
  1

  9
$DIMSTYLE
  2
STANDARD
  9
$DIMCLRD
 70
     0
  9
$DIMCLRE
 70
     0
  9
$DIMCLRT
 70
     0
  9
$DIMTFAC
 40
1.0
  9
$DIMGAP
 40
0.09
  9
$DIMJUST
 70
     0
  9
$DIMSD1
 70
     0
  9
$DIMSD2
 70
     0
  9
$DIMTOLJ
 70
     1
  9
$DIMTZIN
 70
     0
  9
$DIMALTZ
 70
     0
  9
$DIMALTTZ
 70
     0
  9
$DIMFIT
 70
     5
  9
$DIMUPT
 70
     0
  9
$DIMUNIT
 70
     2
  9
$DIMDEC
 70
     4
  9
$DIMTDEC
 70
     4
  9
$DIMALTU
 70
     2
  9
$DIMALTTD
 70
     2
  9
$DIMTXSTY
  7
STANDARD
  9
$DIMAUNIT
 70
     0
  9
$LUNITS
 70
     2
  9
$LUPREC
 70
     4
  9
$SKETCHINC
 40
0.1
  9
$FILLETRAD
 40
0.0
  9
$AUNITS
 70
     0
  9
$AUPREC
 70
     0
  9
$MENU
  1
acad
  9
$ELEVATION
 40
0.0
  9
$PELEVATION
 40
0.0
  9
$THICKNESS
 40
0.0
  9
$LIMCHECK
 70
     0
  9
$BLIPMODE
 70
     0
  9
$CHAMFERA
 40
0.0
  9
$CHAMFERB
 40
0.0
  9
$CHAMFERC
 40
0.0
  9
$CHAMFERD
 40
0.0
  9
$SKPOLY
 70
     0
  9
$TDCREATE
 40
2452489.374120370
  9
$TDUPDATE
 40
2452489.409193449
  9
$TDINDWG
 40
0.0011239468
  9
$TDUSRTIMER
 40
0.0011239468
  9
$USRTIMER
 70
     1
  9
$ANGBASE
 50
0.0
  9
$ANGDIR
 70
     0
  9
$PDMODE
 70
     0
  9
$PDSIZE
 40
0.0
  9
$PLINEWID
 40
0.0
  9
$COORDS
 70
     0
  9
$SPLFRAME
 70
     0
  9
$SPLINETYPE
 70
     6
  9
$SPLINESEGS
 70
     8
  9
$ATTDIA
 70
     0
  9
$ATTREQ
 70
     1
  9
$HANDLING
 70
  4097
  9
$HANDSEED
  5
4A0C
  9
$SURFTAB1
 70
     6
  9
$SURFTAB2
 70
     6
  9
$SURFTYPE
 70
     6
  9
$SURFU
 70
     6
  9
$SURFV
 70
     6
  9
$UCSNAME
  2

  9
$UCSORG
 10
0.0
 20
0.0
 30
0.0
  9
$UCSXDIR
 10
1.0
 20
0.0
 30
0.0
  9
$UCSYDIR
 10
0.0
 20
1.0
 30
0.0
  9
$PUCSNAME
  2

  9
$PUCSORG
 10
0.0
 20
0.0
 30
0.0
  9
$PUCSXDIR
 10
1.0
 20
0.0
 30
0.0
  9
$PUCSYDIR
 10
0.0
 20
1.0
 30
0.0
  9
$USERI1
 70
     0
  9
$USERI2
 70
     0
  9
$USERI3
 70
     0
  9
$USERI4
 70
     0
  9
$USERI5
 70
     0
  9
$USERR1
 40
0.0
  9
$USERR2
 40
0.0
  9
$USERR3
 40
0.0
  9
$USERR4
 40
0.0
  9
$USERR5
 40
0.0
  9
$WORLDVIEW
 70
     1
  9
$SHADEDGE
 70
     3
  9
$SHADEDIF
 70
    70
  9
$TILEMODE
 70
     1
  9
$MAXACTVP
 70
    16
  9
$PINSBASE
 10
0.0
 20
0.0
 30
0.0
  9
$PLIMCHECK
 70
     0
  9
$PEXTMIN
 10
1.000000000000000E+20
 20
1.000000000000000E+20
 30
1.000000000000000E+20
  9
$PEXTMAX
 10
-1.000000000000000E+20
 20
-1.000000000000000E+20
 30
-1.000000000000000E+20
  9
$PLIMMIN
 10
0.0
 20
0.0
  9
$PLIMMAX
 10
12.0
 20
9.0
  9
$UNITMODE
 70
     0
  9
$VISRETAIN
 70
     0
  9
$PLINEGEN
 70
     0
  9
$PSLTSCALE
 70
     1
  9
$TREEDEPTH
 70
  3020
  9
$PICKSTYLE
 70
     1
  9
$CMLSTYLE
  2
STANDARD
  9
$CMLJUST
 70
     0
  9
$CMLSCALE
 40
1.0
  9
$SAVEIMAGES
 70
     1
  0
ENDSEC
  0
SECTION
  2
CLASSES
  0
CLASS
  1
ACDBDICTIONARYWDFLT
  2
AcDbDictionaryWithDefault
  3
AutoCAD 2000
 90
    32768
280
     0
281
     0
  0
CLASS
  1
ACDBPLACEHOLDER
  2
AcDbPlaceHolder
  3
AutoCAD 2000
 90
    32768
280
     0
281
     0
  0
CLASS
  1
LAYOUT
  2
AcDbLayout
  3
AutoCAD 2000
 90
    32768
280
     0
281
     0
  0
CLASS
  1
LONG_TRANSACTION
  2
AcDbLongTransaction
  3
AutoCAD 2000
 90
    32768
280
     0
281
     0
  0
CLASS
  1
LWPOLYLINE
  2
AcDbPolyline
  3
AutoCAD 2000
 90
    32768
280
     0
281
     1
  0
CLASS
  1
HATCH
  2
AcDbHatch
  3
AutoCAD 2000
 90
    32768
280
     0
281
     1
  0
CLASS
  1
XRECORD
  2
AcDbXrecord
  3
AutoCAD 2000
 90
    32768
280
     0
281
     0
  0
ENDSEC
  0
SECTION
  2
TABLES
  0
TABLE
  2
VPORT
  5
8
330
0
100
AcDbSymbolTable
 70
     3
  0
VPORT
  5
4A07
330
8
100
AcDbSymbolTableRecord
100
AcDbViewportTableRecord
  2
*ACTIVE
 70
     0
 10
0.0
 20
0.0
 11
1.0
 21
1.0
 12
14.21182254726512
 22
13.99527743679387
 13
0.0
 23
0.0
 14
1.0
 24
1.0
 15
0.0
 25
0.0
 16
0.0
 26
0.0
 36
1.0
 17
0.0
 27
0.0
 37
0.0
 40
4.536309162073944
 41
1.618610747051113
 42
50.0
 43
0.0
 44
0.0
 50
0.0
 51
0.0
 71
     0
 72
   100
 73
     1
 74
     1
 75
     0
 76
     0
 77
     0
 78
     0
  0
ENDTAB
  0
TABLE
  2
LTYPE
  5
5
330
0
100
AcDbSymbolTable
 70
    25
  0
LTYPE
  5
13
330
5
100
AcDbSymbolTableRecord
100
AcDbLinetypeTableRecord
  2
BYBLOCK
 70
     0
  3

 72
    65
 73
     0
 40
0.0
  0
LTYPE
  5
14
330
5
100
AcDbSymbolTableRecord
100
AcDbLinetypeTableRecord
  2
BYLAYER
 70
     0
  3

 72
    65
 73
     0
 40
0.0
  0
LTYPE
  5
15
330
5
100
AcDbSymbolTableRecord
100
AcDbLinetypeTableRecord
  2
CONTINUOUS
 70
     0
  3
Solid line
 72
    65
 73
     0
 40
0.0
  0
LTYPE
  5
22
330
5
100
AcDbSymbolTableRecord
100
AcDbLinetypeTableRecord
  2
BORDER
 70
     0
  3
__ __ . __ __ . __ __ . __ __ . __ __ . __ __ .
 72
    65
 73
     6
 40
1.75
 49
0.5
 74
     0
 49
-0.25
 74
     0
 49
0.5
 74
     0
 49
-0.25
 74
     0
 49
0.5
 74
     0
 49
-0.25
 74
     0
  0
LTYPE
  5
23
330
5
100
AcDbSymbolTableRecord
100
AcDbLinetypeTableRecord
  2
BORDER2
 70
     0
  3
__.__.__.__.__.__.__.__.__.__.__.__.__.__.__.__
 72
    65
 73
     6
 40
0.875
 49
0.25
 74
     0
 49
-0.125
 74
     0
 49
0.25
 74
     0
 49
-0.125
 74
     0
 49
0.25
 74
     0
 49
-0.125
 74
     0
  0
LTYPE
  5
24
330
5
100
AcDbSymbolTableRecord
100
AcDbLinetypeTableRecord
  2
BORDERX2
 70
     0
  3
____  ____  .  ____  ____  .  
 72
    65
 73
     6
 40
3.5
 49
1.0
 74
     0
 49
-0.5
 74
     0
 49
1.0
 74
     0
 49
-0.5
 74
     0
 49
1.0
 74
     0
 49
-0.5
 74
     0
  0
LTYPE
  5
25
330
5
100
AcDbSymbolTableRecord
100
AcDbLinetypeTableRecord
  2
CENTER
 70
     0
  3
____ _ ____ _ ____ _ ____ _ ____ _ ____ _ ____
 72
    65
 73
     4
 40
2.0
 49
1.25
 74
     0
 49
-0.25
 74
     0
 49
0.25
 74
     0
 49
-0.25
 74
     0
  0
LTYPE
  5
26
330
5
100
AcDbSymbolTableRecord
100
AcDbLinetypeTableRecord
  2
CENTER2
 70
     0
  3
____ _ ____ _ ____ _ ____ _ ____ _ ____ _ ____
 72
    65
 73
     4
 40
1.125
 49
0.75
 74
     0
 49
-0.125
 74
     0
 49
0.125
 74
     0
 49
-0.125
 74
     0
  0
LTYPE
  5
27
330
5
100
AcDbSymbolTableRecord
100
AcDbLinetypeTableRecord
  2
CENTERX2
 70
     0
  3
________  __  ________  __  ________  __  
 72
    65
 73
     4
 40
4.0
 49
2.5
 74
     0
 49
-0.5
 74
     0
 49
0.5
 74
     0
 49
-0.5
 74
     0
  0
LTYPE
  5
28
330
5
100
AcDbSymbolTableRecord
100
AcDbLinetypeTableRecord
  2
DASHDOT
 70
     0
  3
__ . __ . __ . __ . __ . __ . __ . 
 72
    65
 73
     4
 40
1.0
 49
0.5
 74
     0
 49
-0.25
 74
     0
 49
0.0
 74
     0
 49
-0.25
 74
     0
  0
LTYPE
  5
29
330
5
100
AcDbSymbolTableRecord
100
AcDbLinetypeTableRecord
  2
DASHDOT2
 70
     0
  3
_._._._._._._._._._._._._._._._.
 72
    65
 73
     4
 40
0.5
 49
0.25
 74
     0
 49
-0.125
 74
     0
 49
0.0
 74
     0
 49
-0.125
 74
     0
  0
LTYPE
  5
2A
330
5
100
AcDbSymbolTableRecord
100
AcDbLinetypeTableRecord
  2
DASHDOTX2
 70
     0
  3
____  .  ____  .  ____  .  ____  .  
 72
    65
 73
     4
 40
2.0
 49
1.0
 74
     0
 49
-0.5
 74
     0
 49
0.0
 74
     0
 49
-0.5
 74
     0
  0
LTYPE
  5
2B
330
5
100
AcDbSymbolTableRecord
100
AcDbLinetypeTableRecord
  2
DASHED
 70
     0
  3
__ __ __ __ __ __ __ __ __ __ __ __ 
 72
    65
 73
     2
 40
0.75
 49
0.5
 74
     0
 49
-0.25
 74
     0
  0
LTYPE
  5
2C
330
5
100
AcDbSymbolTableRecord
100
AcDbLinetypeTableRecord
  2
DASHED2
 70
     0
  3
_ _ _ _ _ _ _ _ _ _ _ _ _ _ _ _ _ _ 
 72
    65
 73
     2
 40
0.375
 49
0.25
 74
     0
 49
-0.125
 74
     0
  0
LTYPE
  5
2D
330
5
100
AcDbSymbolTableRecord
100
AcDbLinetypeTableRecord
  2
DASHEDX2
 70
     0
  3
____  ____  ____  ____  ____  ____  
 72
    65
 73
     2
 40
1.5
 49
1.0
 74
     0
 49
-0.5
 74
     0
  0
LTYPE
  5
2E
330
5
100
AcDbSymbolTableRecord
100
AcDbLinetypeTableRecord
  2
DIVIDE
 70
     0
  3
____ . . ____ . . ____ . . ____ . . 
 72
    65
 73
     6
 40
1.25
 49
0.5
 74
     0
 49
-0.25
 74
     0
 49
0.0
 74
     0
 49
-0.25
 74
     0
 49
0.0
 74
     0
 49
-0.25
 74
     0
  0
LTYPE
  5
2F
330
5
100
AcDbSymbolTableRecord
100
AcDbLinetypeTableRecord
  2
DIVIDE2
 70
     0
  3
__..__..__..__..__..__..__..__..__..
 72
    65
 73
     6
 40
0.625
 49
0.25
 74
     0
 49
-0.125
 74
     0
 49
0.0
 74
     0
 49
-0.125
 74
     0
 49
0.0
 74
     0
 49
-0.125
 74
     0
  0
LTYPE
  5
30
330
5
100
AcDbSymbolTableRecord
100
AcDbLinetypeTableRecord
  2
DIVIDEX2
 70
     0
  3
________  .  .  ________  .  .  ________  .  . 
 72
    65
 73
     6
 40
2.5
 49
1.0
 74
     0
 49
-0.5
 74
     0
 49
0.0
 74
     0
 49
-0.5
 74
     0
 49
0.0
 74
     0
 49
-0.5
 74
     0
  0
LTYPE
  5
31
330
5
100
AcDbSymbolTableRecord
100
AcDbLinetypeTableRecord
  2
DOT
 70
     0
  3
. . . . . . . . . . . . . . . . . . 
 72
    65
 73
     2
 40
0.25
 49
0.0
 74
     0
 49
-0.25
 74
     0
  0
LTYPE
  5
32
330
5
100
AcDbSymbolTableRecord
100
AcDbLinetypeTableRecord
  2
DOT2
 70
     0
  3
....................................
 72
    65
 73
     2
 40
0.125
 49
0.0
 74
     0
 49
-0.125
 74
     0
  0
LTYPE
  5
33
330
5
100
AcDbSymbolTableRecord
100
AcDbLinetypeTableRecord
  2
DOTX2
 70
     0
  3
.  .  .  .  .  .  .  .  .  .  .  .  .  
 72
    65
 73
     2
 40
0.5
 49
0.0
 74
     0
 49
-0.5
 74
     0
  0
LTYPE
  5
34
330
5
100
AcDbSymbolTableRecord
100
AcDbLinetypeTableRecord
  2
HIDDEN
 70
     0
  3
__ __ __ __ __ __ __ __ __ __ __ __ 
 72
    65
 73
     2
 40
0.375
 49
0.25
 74
     0
 49
-0.125
 74
     0
  0
LTYPE
  5
35
330
5
100
AcDbSymbolTableRecord
100
AcDbLinetypeTableRecord
  2
HIDDEN2
 70
     0
  3
_ _ _ _ _ _ _ _ _ _ _ _ _ _ _ _ _ _ 
 72
    65
 73
     2
 40
0.1875
 49
0.125
 74
     0
 49
-0.0625
 74
     0
  0
LTYPE
  5
36
330
5
100
AcDbSymbolTableRecord
100
AcDbLinetypeTableRecord
  2
HIDDENX2
 70
     0
  3
____ ____ ____ ____ ____ ____ ____ 
 72
    65
 73
     2
 40
0.75
 49
0.5
 74
     0
 49
-0.25
 74
     0
  0
LTYPE
  5
37
330
5
100
AcDbSymbolTableRecord
100
AcDbLinetypeTableRecord
  2
PHANTOM
 70
     0
  3
______  __  __  ______  __  __  
 72
    65
 73
     6
 40
2.5
 49
1.25
 74
     0
 49
-0.25
 74
     0
 49
0.25
 74
     0
 49
-0.25
 74
     0
 49
0.25
 74
     0
 49
-0.25
 74
     0
  0
LTYPE
  5
38
330
5
100
AcDbSymbolTableRecord
100
AcDbLinetypeTableRecord
  2
PHANTOM2
 70
     0
  3
___ _ _ ___ _ _ ___ _ _ ___ _ _ 
 72
    65
 73
     6
 40
1.25
 49
0.625
 74
     0
 49
-0.125
 74
     0
 49
0.125
 74
     0
 49
-0.125
 74
     0
 49
0.125
 74
     0
 49
-0.125
 74
     0
  0
LTYPE
  5
39
330
5
100
AcDbSymbolTableRecord
100
AcDbLinetypeTableRecord
  2
PHANTOMX2
 70
     0
  3
___ _ _ ___ _ _ ___ _ _ ___ _ _ 
 72
    65
 73
     6
 40
5.0
 49
2.5
 74
     0
 49
-0.5
 74
     0
 49
0.5
 74
     0
 49
-0.5
 74
     0
 49
0.5
 74
     0
 49
-0.5
 74
     0
  0
ENDTAB
  0
TABLE
  2
LAYER
  5
2
330
0
100
AcDbSymbolTable
 70
   257
  0
LAYER
  5
10
330
2
100
AcDbSymbolTableRecord
100
AcDbLayerTableRecord
  2
0
 70
     0
 62
     7
  6
CONTINUOUS
  0
LAYER
  5
3A
330
2
100
AcDbSymbolTableRecord
100
AcDbLayerTableRecord
  2
1
 70
     0
 62
     1
  6
CONTINUOUS
  0
LAYER
  5
3B
330
2
100
AcDbSymbolTableRecord
100
AcDbLayerTableRecord
  2
2
 70
     0
 62
     2
  6
CONTINUOUS
  0
LAYER
  5
3C
330
2
100
AcDbSymbolTableRecord
100
AcDbLayerTableRecord
  2
3
 70
     0
 62
     3
  6
CONTINUOUS
  0
LAYER
  5
3D
330
2
100
AcDbSymbolTableRecord
100
AcDbLayerTableRecord
  2
4
 70
     0
 62
     4
  6
CONTINUOUS
  0
LAYER
  5
3E
330
2
100
AcDbSymbolTableRecord
100
AcDbLayerTableRecord
  2
5
 70
     0
 62
     5
  6
CONTINUOUS
  0
LAYER
  5
3F
330
2
100
AcDbSymbolTableRecord
100
AcDbLayerTableRecord
  2
6
 70
     0
 62
     6
  6
CONTINUOUS
  0
LAYER
  5
40
330
2
100
AcDbSymbolTableRecord
100
AcDbLayerTableRecord
  2
7
 70
     0
 62
     7
  6
CONTINUOUS
  0
LAYER
  5
41
330
2
100
AcDbSymbolTableRecord
100
AcDbLayerTableRecord
  2
8
 70
     0
 62
     8
  6
CONTINUOUS
  0
LAYER
  5
42
330
2
100
AcDbSymbolTableRecord
100
AcDbLayerTableRecord
  2
9
 70
     0
 62
     9
  6
CONTINUOUS
  0
LAYER
  5
43
330
2
100
AcDbSymbolTableRecord
100
AcDbLayerTableRecord
  2
10
 70
     0
 62
    10
  6
CONTINUOUS
  0
LAYER
  5
44
330
2
100
AcDbSymbolTableRecord
100
AcDbLayerTableRecord
  2
11
 70
     0
 62
    11
  6
CONTINUOUS
  0
LAYER
  5
45
330
2
100
AcDbSymbolTableRecord
100
AcDbLayerTableRecord
  2
12
 70
     0
 62
    12
  6
CONTINUOUS
  0
LAYER
  5
46
330
2
100
AcDbSymbolTableRecord
100
AcDbLayerTableRecord
  2
13
 70
     0
 62
    13
  6
CONTINUOUS
  0
LAYER
  5
47
330
2
100
AcDbSymbolTableRecord
100
AcDbLayerTableRecord
  2
14
 70
     0
 62
    14
  6
CONTINUOUS
  0
LAYER
  5
48
330
2
100
AcDbSymbolTableRecord
100
AcDbLayerTableRecord
  2
15
 70
     0
 62
    15
  6
CONTINUOUS
  0
LAYER
  5
49
330
2
100
AcDbSymbolTableRecord
100
AcDbLayerTableRecord
  2
16
 70
     0
 62
    16
  6
CONTINUOUS
  0
LAYER
  5
4A
330
2
100
AcDbSymbolTableRecord
100
AcDbLayerTableRecord
  2
17
 70
     0
 62
    17
  6
CONTINUOUS
  0
LAYER
  5
4B
330
2
100
AcDbSymbolTableRecord
100
AcDbLayerTableRecord
  2
18
 70
     0
 62
    18
  6
CONTINUOUS
  0
LAYER
  5
4C
330
2
100
AcDbSymbolTableRecord
100
AcDbLayerTableRecord
  2
19
 70
     0
 62
    19
  6
CONTINUOUS
  0
LAYER
  5
4D
330
2
100
AcDbSymbolTableRecord
100
AcDbLayerTableRecord
  2
20
 70
     0
 62
    20
  6
CONTINUOUS
  0
LAYER
  5
4E
330
2
100
AcDbSymbolTableRecord
100
AcDbLayerTableRecord
  2
21
 70
     0
 62
    21
  6
CONTINUOUS
  0
LAYER
  5
4F
330
2
100
AcDbSymbolTableRecord
100
AcDbLayerTableRecord
  2
22
 70
     0
 62
    22
  6
CONTINUOUS
  0
LAYER
  5
50
330
2
100
AcDbSymbolTableRecord
100
AcDbLayerTableRecord
  2
23
 70
     0
 62
    23
  6
CONTINUOUS
  0
LAYER
  5
51
330
2
100
AcDbSymbolTableRecord
100
AcDbLayerTableRecord
  2
24
 70
     0
 62
    24
  6
CONTINUOUS
  0
LAYER
  5
52
330
2
100
AcDbSymbolTableRecord
100
AcDbLayerTableRecord
  2
25
 70
     0
 62
    25
  6
CONTINUOUS
  0
LAYER
  5
53
330
2
100
AcDbSymbolTableRecord
100
AcDbLayerTableRecord
  2
26
 70
     0
 62
    26
  6
CONTINUOUS
  0
LAYER
  5
54
330
2
100
AcDbSymbolTableRecord
100
AcDbLayerTableRecord
  2
27
 70
     0
 62
    27
  6
CONTINUOUS
  0
LAYER
  5
55
330
2
100
AcDbSymbolTableRecord
100
AcDbLayerTableRecord
  2
28
 70
     0
 62
    28
  6
CONTINUOUS
  0
LAYER
  5
56
330
2
100
AcDbSymbolTableRecord
100
AcDbLayerTableRecord
  2
29
 70
     0
 62
    29
  6
CONTINUOUS
  0
LAYER
  5
57
330
2
100
AcDbSymbolTableRecord
100
AcDbLayerTableRecord
  2
30
 70
     0
 62
    30
  6
CONTINUOUS
  0
LAYER
  5
58
330
2
100
AcDbSymbolTableRecord
100
AcDbLayerTableRecord
  2
31
 70
     0
 62
    31
  6
CONTINUOUS
  0
LAYER
  5
59
330
2
100
AcDbSymbolTableRecord
100
AcDbLayerTableRecord
  2
32
 70
     0
 62
    32
  6
CONTINUOUS
  0
LAYER
  5
5A
330
2
100
AcDbSymbolTableRecord
100
AcDbLayerTableRecord
  2
33
 70
     0
 62
    33
  6
CONTINUOUS
  0
LAYER
  5
5B
330
2
100
AcDbSymbolTableRecord
100
AcDbLayerTableRecord
  2
34
 70
     0
 62
    34
  6
CONTINUOUS
  0
LAYER
  5
5C
330
2
100
AcDbSymbolTableRecord
100
AcDbLayerTableRecord
  2
35
 70
     0
 62
    35
  6
CONTINUOUS
  0
LAYER
  5
5D
330
2
100
AcDbSymbolTableRecord
100
AcDbLayerTableRecord
  2
36
 70
     0
 62
    36
  6
CONTINUOUS
  0
LAYER
  5
5E
330
2
100
AcDbSymbolTableRecord
100
AcDbLayerTableRecord
  2
37
 70
     0
 62
    37
  6
CONTINUOUS
  0
LAYER
  5
5F
330
2
100
AcDbSymbolTableRecord
100
AcDbLayerTableRecord
  2
38
 70
     0
 62
    38
  6
CONTINUOUS
  0
LAYER
  5
60
330
2
100
AcDbSymbolTableRecord
100
AcDbLayerTableRecord
  2
39
 70
     0
 62
    39
  6
CONTINUOUS
  0
LAYER
  5
61
330
2
100
AcDbSymbolTableRecord
100
AcDbLayerTableRecord
  2
40
 70
     0
 62
    40
  6
CONTINUOUS
  0
LAYER
  5
62
330
2
100
AcDbSymbolTableRecord
100
AcDbLayerTableRecord
  2
41
 70
     0
 62
    41
  6
CONTINUOUS
  0
LAYER
  5
63
330
2
100
AcDbSymbolTableRecord
100
AcDbLayerTableRecord
  2
42
 70
     0
 62
    42
  6
CONTINUOUS
  0
LAYER
  5
64
330
2
100
AcDbSymbolTableRecord
100
AcDbLayerTableRecord
  2
43
 70
     0
 62
    43
  6
CONTINUOUS
  0
LAYER
  5
65
330
2
100
AcDbSymbolTableRecord
100
AcDbLayerTableRecord
  2
44
 70
     0
 62
    44
  6
CONTINUOUS
  0
LAYER
  5
66
330
2
100
AcDbSymbolTableRecord
100
AcDbLayerTableRecord
  2
45
 70
     0
 62
    45
  6
CONTINUOUS
  0
LAYER
  5
67
330
2
100
AcDbSymbolTableRecord
100
AcDbLayerTableRecord
  2
46
 70
     0
 62
    46
  6
CONTINUOUS
  0
LAYER
  5
68
330
2
100
AcDbSymbolTableRecord
100
AcDbLayerTableRecord
  2
47
 70
     0
 62
    47
  6
CONTINUOUS
  0
LAYER
  5
69
330
2
100
AcDbSymbolTableRecord
100
AcDbLayerTableRecord
  2
48
 70
     0
 62
    48
  6
CONTINUOUS
  0
LAYER
  5
6A
330
2
100
AcDbSymbolTableRecord
100
AcDbLayerTableRecord
  2
49
 70
     0
 62
    49
  6
CONTINUOUS
  0
LAYER
  5
6B
330
2
100
AcDbSymbolTableRecord
100
AcDbLayerTableRecord
  2
50
 70
     0
 62
    50
  6
CONTINUOUS
  0
LAYER
  5
6C
330
2
100
AcDbSymbolTableRecord
100
AcDbLayerTableRecord
  2
51
 70
     0
 62
    51
  6
CONTINUOUS
  0
LAYER
  5
6D
330
2
100
AcDbSymbolTableRecord
100
AcDbLayerTableRecord
  2
52
 70
     0
 62
    52
  6
CONTINUOUS
  0
LAYER
  5
6E
330
2
100
AcDbSymbolTableRecord
100
AcDbLayerTableRecord
  2
53
 70
     0
 62
    53
  6
CONTINUOUS
  0
LAYER
  5
6F
330
2
100
AcDbSymbolTableRecord
100
AcDbLayerTableRecord
  2
54
 70
     0
 62
    54
  6
CONTINUOUS
  0
LAYER
  5
70
330
2
100
AcDbSymbolTableRecord
100
AcDbLayerTableRecord
  2
55
 70
     0
 62
    55
  6
CONTINUOUS
  0
LAYER
  5
71
330
2
100
AcDbSymbolTableRecord
100
AcDbLayerTableRecord
  2
56
 70
     0
 62
    56
  6
CONTINUOUS
  0
LAYER
  5
72
330
2
100
AcDbSymbolTableRecord
100
AcDbLayerTableRecord
  2
57
 70
     0
 62
    57
  6
CONTINUOUS
  0
LAYER
  5
73
330
2
100
AcDbSymbolTableRecord
100
AcDbLayerTableRecord
  2
58
 70
     0
 62
    58
  6
CONTINUOUS
  0
LAYER
  5
74
330
2
100
AcDbSymbolTableRecord
100
AcDbLayerTableRecord
  2
59
 70
     0
 62
    59
  6
CONTINUOUS
  0
LAYER
  5
75
330
2
100
AcDbSymbolTableRecord
100
AcDbLayerTableRecord
  2
60
 70
     0
 62
    60
  6
CONTINUOUS
  0
LAYER
  5
76
330
2
100
AcDbSymbolTableRecord
100
AcDbLayerTableRecord
  2
61
 70
     0
 62
    61
  6
CONTINUOUS
  0
LAYER
  5
77
330
2
100
AcDbSymbolTableRecord
100
AcDbLayerTableRecord
  2
62
 70
     0
 62
    62
  6
CONTINUOUS
  0
LAYER
  5
78
330
2
100
AcDbSymbolTableRecord
100
AcDbLayerTableRecord
  2
63
 70
     0
 62
    63
  6
CONTINUOUS
  0
LAYER
  5
79
330
2
100
AcDbSymbolTableRecord
100
AcDbLayerTableRecord
  2
64
 70
     0
 62
    64
  6
CONTINUOUS
  0
LAYER
  5
7A
330
2
100
AcDbSymbolTableRecord
100
AcDbLayerTableRecord
  2
65
 70
     0
 62
    65
  6
CONTINUOUS
  0
LAYER
  5
7B
330
2
100
AcDbSymbolTableRecord
100
AcDbLayerTableRecord
  2
66
 70
     0
 62
    66
  6
CONTINUOUS
  0
LAYER
  5
7C
330
2
100
AcDbSymbolTableRecord
100
AcDbLayerTableRecord
  2
67
 70
     0
 62
    67
  6
CONTINUOUS
  0
LAYER
  5
7D
330
2
100
AcDbSymbolTableRecord
100
AcDbLayerTableRecord
  2
68
 70
     0
 62
    68
  6
CONTINUOUS
  0
LAYER
  5
7E
330
2
100
AcDbSymbolTableRecord
100
AcDbLayerTableRecord
  2
69
 70
     0
 62
    69
  6
CONTINUOUS
  0
LAYER
  5
7F
330
2
100
AcDbSymbolTableRecord
100
AcDbLayerTableRecord
  2
70
 70
     0
 62
    70
  6
CONTINUOUS
  0
LAYER
  5
80
330
2
100
AcDbSymbolTableRecord
100
AcDbLayerTableRecord
  2
71
 70
     0
 62
    71
  6
CONTINUOUS
  0
LAYER
  5
81
330
2
100
AcDbSymbolTableRecord
100
AcDbLayerTableRecord
  2
72
 70
     0
 62
    72
  6
CONTINUOUS
  0
LAYER
  5
82
330
2
100
AcDbSymbolTableRecord
100
AcDbLayerTableRecord
  2
73
 70
     0
 62
    73
  6
CONTINUOUS
  0
LAYER
  5
83
330
2
100
AcDbSymbolTableRecord
100
AcDbLayerTableRecord
  2
74
 70
     0
 62
    74
  6
CONTINUOUS
  0
LAYER
  5
84
330
2
100
AcDbSymbolTableRecord
100
AcDbLayerTableRecord
  2
75
 70
     0
 62
    75
  6
CONTINUOUS
  0
LAYER
  5
85
330
2
100
AcDbSymbolTableRecord
100
AcDbLayerTableRecord
  2
76
 70
     0
 62
    76
  6
CONTINUOUS
  0
LAYER
  5
86
330
2
100
AcDbSymbolTableRecord
100
AcDbLayerTableRecord
  2
77
 70
     0
 62
    77
  6
CONTINUOUS
  0
LAYER
  5
87
330
2
100
AcDbSymbolTableRecord
100
AcDbLayerTableRecord
  2
78
 70
     0
 62
    78
  6
CONTINUOUS
  0
LAYER
  5
88
330
2
100
AcDbSymbolTableRecord
100
AcDbLayerTableRecord
  2
79
 70
     0
 62
    79
  6
CONTINUOUS
  0
LAYER
  5
89
330
2
100
AcDbSymbolTableRecord
100
AcDbLayerTableRecord
  2
80
 70
     0
 62
    80
  6
CONTINUOUS
  0
LAYER
  5
8A
330
2
100
AcDbSymbolTableRecord
100
AcDbLayerTableRecord
  2
81
 70
     0
 62
    81
  6
CONTINUOUS
  0
LAYER
  5
8B
330
2
100
AcDbSymbolTableRecord
100
AcDbLayerTableRecord
  2
82
 70
     0
 62
    82
  6
CONTINUOUS
  0
LAYER
  5
8C
330
2
100
AcDbSymbolTableRecord
100
AcDbLayerTableRecord
  2
83
 70
     0
 62
    83
  6
CONTINUOUS
  0
LAYER
  5
8D
330
2
100
AcDbSymbolTableRecord
100
AcDbLayerTableRecord
  2
84
 70
     0
 62
    84
  6
CONTINUOUS
  0
LAYER
  5
8E
330
2
100
AcDbSymbolTableRecord
100
AcDbLayerTableRecord
  2
85
 70
     0
 62
    85
  6
CONTINUOUS
  0
LAYER
  5
8F
330
2
100
AcDbSymbolTableRecord
100
AcDbLayerTableRecord
  2
86
 70
     0
 62
    86
  6
CONTINUOUS
  0
LAYER
  5
90
330
2
100
AcDbSymbolTableRecord
100
AcDbLayerTableRecord
  2
87
 70
     0
 62
    87
  6
CONTINUOUS
  0
LAYER
  5
91
330
2
100
AcDbSymbolTableRecord
100
AcDbLayerTableRecord
  2
88
 70
     0
 62
    88
  6
CONTINUOUS
  0
LAYER
  5
92
330
2
100
AcDbSymbolTableRecord
100
AcDbLayerTableRecord
  2
89
 70
     0
 62
    89
  6
CONTINUOUS
  0
LAYER
  5
93
330
2
100
AcDbSymbolTableRecord
100
AcDbLayerTableRecord
  2
90
 70
     0
 62
    90
  6
CONTINUOUS
  0
LAYER
  5
94
330
2
100
AcDbSymbolTableRecord
100
AcDbLayerTableRecord
  2
91
 70
     0
 62
    91
  6
CONTINUOUS
  0
LAYER
  5
95
330
2
100
AcDbSymbolTableRecord
100
AcDbLayerTableRecord
  2
92
 70
     0
 62
    92
  6
CONTINUOUS
  0
LAYER
  5
96
330
2
100
AcDbSymbolTableRecord
100
AcDbLayerTableRecord
  2
93
 70
     0
 62
    93
  6
CONTINUOUS
  0
LAYER
  5
97
330
2
100
AcDbSymbolTableRecord
100
AcDbLayerTableRecord
  2
94
 70
     0
 62
    94
  6
CONTINUOUS
  0
LAYER
  5
98
330
2
100
AcDbSymbolTableRecord
100
AcDbLayerTableRecord
  2
95
 70
     0
 62
    95
  6
CONTINUOUS
  0
LAYER
  5
99
330
2
100
AcDbSymbolTableRecord
100
AcDbLayerTableRecord
  2
96
 70
     0
 62
    96
  6
CONTINUOUS
  0
LAYER
  5
9A
330
2
100
AcDbSymbolTableRecord
100
AcDbLayerTableRecord
  2
97
 70
     0
 62
    97
  6
CONTINUOUS
  0
LAYER
  5
9B
330
2
100
AcDbSymbolTableRecord
100
AcDbLayerTableRecord
  2
98
 70
     0
 62
    98
  6
CONTINUOUS
  0
LAYER
  5
9C
330
2
100
AcDbSymbolTableRecord
100
AcDbLayerTableRecord
  2
99
 70
     0
 62
    99
  6
CONTINUOUS
  0
LAYER
  5
9D
330
2
100
AcDbSymbolTableRecord
100
AcDbLayerTableRecord
  2
100
 70
     0
 62
   100
  6
CONTINUOUS
  0
LAYER
  5
9E
330
2
100
AcDbSymbolTableRecord
100
AcDbLayerTableRecord
  2
101
 70
     0
 62
   101
  6
CONTINUOUS
  0
LAYER
  5
9F
330
2
100
AcDbSymbolTableRecord
100
AcDbLayerTableRecord
  2
102
 70
     0
 62
   102
  6
CONTINUOUS
  0
LAYER
  5
A0
330
2
100
AcDbSymbolTableRecord
100
AcDbLayerTableRecord
  2
103
 70
     0
 62
   103
  6
CONTINUOUS
  0
LAYER
  5
A1
330
2
100
AcDbSymbolTableRecord
100
AcDbLayerTableRecord
  2
104
 70
     0
 62
   104
  6
CONTINUOUS
  0
LAYER
  5
A2
330
2
100
AcDbSymbolTableRecord
100
AcDbLayerTableRecord
  2
105
 70
     0
 62
   105
  6
CONTINUOUS
  0
LAYER
  5
A3
330
2
100
AcDbSymbolTableRecord
100
AcDbLayerTableRecord
  2
106
 70
     0
 62
   106
  6
CONTINUOUS
  0
LAYER
  5
A4
330
2
100
AcDbSymbolTableRecord
100
AcDbLayerTableRecord
  2
107
 70
     0
 62
   107
  6
CONTINUOUS
  0
LAYER
  5
A5
330
2
100
AcDbSymbolTableRecord
100
AcDbLayerTableRecord
  2
108
 70
     0
 62
   108
  6
CONTINUOUS
  0
LAYER
  5
A6
330
2
100
AcDbSymbolTableRecord
100
AcDbLayerTableRecord
  2
109
 70
     0
 62
   109
  6
CONTINUOUS
  0
LAYER
  5
A7
330
2
100
AcDbSymbolTableRecord
100
AcDbLayerTableRecord
  2
110
 70
     0
 62
   110
  6
CONTINUOUS
  0
LAYER
  5
A8
330
2
100
AcDbSymbolTableRecord
100
AcDbLayerTableRecord
  2
111
 70
     0
 62
   111
  6
CONTINUOUS
  0
LAYER
  5
A9
330
2
100
AcDbSymbolTableRecord
100
AcDbLayerTableRecord
  2
112
 70
     0
 62
   112
  6
CONTINUOUS
  0
LAYER
  5
AA
330
2
100
AcDbSymbolTableRecord
100
AcDbLayerTableRecord
  2
113
 70
     0
 62
   113
  6
CONTINUOUS
  0
LAYER
  5
AB
330
2
100
AcDbSymbolTableRecord
100
AcDbLayerTableRecord
  2
114
 70
     0
 62
   114
  6
CONTINUOUS
  0
LAYER
  5
AC
330
2
100
AcDbSymbolTableRecord
100
AcDbLayerTableRecord
  2
115
 70
     0
 62
   115
  6
CONTINUOUS
  0
LAYER
  5
AD
330
2
100
AcDbSymbolTableRecord
100
AcDbLayerTableRecord
  2
116
 70
     0
 62
   116
  6
CONTINUOUS
  0
LAYER
  5
AE
330
2
100
AcDbSymbolTableRecord
100
AcDbLayerTableRecord
  2
117
 70
     0
 62
   117
  6
CONTINUOUS
  0
LAYER
  5
AF
330
2
100
AcDbSymbolTableRecord
100
AcDbLayerTableRecord
  2
118
 70
     0
 62
   118
  6
CONTINUOUS
  0
LAYER
  5
B0
330
2
100
AcDbSymbolTableRecord
100
AcDbLayerTableRecord
  2
119
 70
     0
 62
   119
  6
CONTINUOUS
  0
LAYER
  5
B1
330
2
100
AcDbSymbolTableRecord
100
AcDbLayerTableRecord
  2
120
 70
     0
 62
   120
  6
CONTINUOUS
  0
LAYER
  5
B2
330
2
100
AcDbSymbolTableRecord
100
AcDbLayerTableRecord
  2
121
 70
     0
 62
   121
  6
CONTINUOUS
  0
LAYER
  5
B3
330
2
100
AcDbSymbolTableRecord
100
AcDbLayerTableRecord
  2
122
 70
     0
 62
   122
  6
CONTINUOUS
  0
LAYER
  5
B4
330
2
100
AcDbSymbolTableRecord
100
AcDbLayerTableRecord
  2
123
 70
     0
 62
   123
  6
CONTINUOUS
  0
LAYER
  5
B5
330
2
100
AcDbSymbolTableRecord
100
AcDbLayerTableRecord
  2
124
 70
     0
 62
   124
  6
CONTINUOUS
  0
LAYER
  5
B6
330
2
100
AcDbSymbolTableRecord
100
AcDbLayerTableRecord
  2
125
 70
     0
 62
   125
  6
CONTINUOUS
  0
LAYER
  5
B7
330
2
100
AcDbSymbolTableRecord
100
AcDbLayerTableRecord
  2
126
 70
     0
 62
   126
  6
CONTINUOUS
  0
LAYER
  5
B8
330
2
100
AcDbSymbolTableRecord
100
AcDbLayerTableRecord
  2
127
 70
     0
 62
   127
  6
CONTINUOUS
  0
LAYER
  5
B9
330
2
100
AcDbSymbolTableRecord
100
AcDbLayerTableRecord
  2
128
 70
     0
 62
   128
  6
CONTINUOUS
  0
LAYER
  5
BA
330
2
100
AcDbSymbolTableRecord
100
AcDbLayerTableRecord
  2
129
 70
     0
 62
   129
  6
CONTINUOUS
  0
LAYER
  5
BB
330
2
100
AcDbSymbolTableRecord
100
AcDbLayerTableRecord
  2
130
 70
     0
 62
   130
  6
CONTINUOUS
  0
LAYER
  5
BC
330
2
100
AcDbSymbolTableRecord
100
AcDbLayerTableRecord
  2
131
 70
     0
 62
   131
  6
CONTINUOUS
  0
LAYER
  5
BD
330
2
100
AcDbSymbolTableRecord
100
AcDbLayerTableRecord
  2
132
 70
     0
 62
   132
  6
CONTINUOUS
  0
LAYER
  5
BE
330
2
100
AcDbSymbolTableRecord
100
AcDbLayerTableRecord
  2
133
 70
     0
 62
   133
  6
CONTINUOUS
  0
LAYER
  5
BF
330
2
100
AcDbSymbolTableRecord
100
AcDbLayerTableRecord
  2
134
 70
     0
 62
   134
  6
CONTINUOUS
  0
LAYER
  5
C0
330
2
100
AcDbSymbolTableRecord
100
AcDbLayerTableRecord
  2
135
 70
     0
 62
   135
  6
CONTINUOUS
  0
LAYER
  5
C1
330
2
100
AcDbSymbolTableRecord
100
AcDbLayerTableRecord
  2
136
 70
     0
 62
   136
  6
CONTINUOUS
  0
LAYER
  5
C2
330
2
100
AcDbSymbolTableRecord
100
AcDbLayerTableRecord
  2
137
 70
     0
 62
   137
  6
CONTINUOUS
  0
LAYER
  5
C3
330
2
100
AcDbSymbolTableRecord
100
AcDbLayerTableRecord
  2
138
 70
     0
 62
   138
  6
CONTINUOUS
  0
LAYER
  5
C4
330
2
100
AcDbSymbolTableRecord
100
AcDbLayerTableRecord
  2
139
 70
     0
 62
   139
  6
CONTINUOUS
  0
LAYER
  5
C5
330
2
100
AcDbSymbolTableRecord
100
AcDbLayerTableRecord
  2
140
 70
     0
 62
   140
  6
CONTINUOUS
  0
LAYER
  5
C6
330
2
100
AcDbSymbolTableRecord
100
AcDbLayerTableRecord
  2
141
 70
     0
 62
   141
  6
CONTINUOUS
  0
LAYER
  5
C7
330
2
100
AcDbSymbolTableRecord
100
AcDbLayerTableRecord
  2
142
 70
     0
 62
   142
  6
CONTINUOUS
  0
LAYER
  5
C8
330
2
100
AcDbSymbolTableRecord
100
AcDbLayerTableRecord
  2
143
 70
     0
 62
   143
  6
CONTINUOUS
  0
LAYER
  5
C9
330
2
100
AcDbSymbolTableRecord
100
AcDbLayerTableRecord
  2
144
 70
     0
 62
   144
  6
CONTINUOUS
  0
LAYER
  5
CA
330
2
100
AcDbSymbolTableRecord
100
AcDbLayerTableRecord
  2
145
 70
     0
 62
   145
  6
CONTINUOUS
  0
LAYER
  5
CB
330
2
100
AcDbSymbolTableRecord
100
AcDbLayerTableRecord
  2
146
 70
     0
 62
   146
  6
CONTINUOUS
  0
LAYER
  5
CC
330
2
100
AcDbSymbolTableRecord
100
AcDbLayerTableRecord
  2
147
 70
     0
 62
   147
  6
CONTINUOUS
  0
LAYER
  5
CD
330
2
100
AcDbSymbolTableRecord
100
AcDbLayerTableRecord
  2
148
 70
     0
 62
   148
  6
CONTINUOUS
  0
LAYER
  5
CE
330
2
100
AcDbSymbolTableRecord
100
AcDbLayerTableRecord
  2
149
 70
     0
 62
   149
  6
CONTINUOUS
  0
LAYER
  5
CF
330
2
100
AcDbSymbolTableRecord
100
AcDbLayerTableRecord
  2
150
 70
     0
 62
   150
  6
CONTINUOUS
  0
LAYER
  5
D0
330
2
100
AcDbSymbolTableRecord
100
AcDbLayerTableRecord
  2
151
 70
     0
 62
   151
  6
CONTINUOUS
  0
LAYER
  5
D1
330
2
100
AcDbSymbolTableRecord
100
AcDbLayerTableRecord
  2
152
 70
     0
 62
   152
  6
CONTINUOUS
  0
LAYER
  5
D2
330
2
100
AcDbSymbolTableRecord
100
AcDbLayerTableRecord
  2
153
 70
     0
 62
   153
  6
CONTINUOUS
  0
LAYER
  5
D3
330
2
100
AcDbSymbolTableRecord
100
AcDbLayerTableRecord
  2
154
 70
     0
 62
   154
  6
CONTINUOUS
  0
LAYER
  5
D4
330
2
100
AcDbSymbolTableRecord
100
AcDbLayerTableRecord
  2
155
 70
     0
 62
   155
  6
CONTINUOUS
  0
LAYER
  5
D5
330
2
100
AcDbSymbolTableRecord
100
AcDbLayerTableRecord
  2
156
 70
     0
 62
   156
  6
CONTINUOUS
  0
LAYER
  5
D6
330
2
100
AcDbSymbolTableRecord
100
AcDbLayerTableRecord
  2
157
 70
     0
 62
   157
  6
CONTINUOUS
  0
LAYER
  5
D7
330
2
100
AcDbSymbolTableRecord
100
AcDbLayerTableRecord
  2
158
 70
     0
 62
   158
  6
CONTINUOUS
  0
LAYER
  5
D8
330
2
100
AcDbSymbolTableRecord
100
AcDbLayerTableRecord
  2
159
 70
     0
 62
   159
  6
CONTINUOUS
  0
LAYER
  5
D9
330
2
100
AcDbSymbolTableRecord
100
AcDbLayerTableRecord
  2
160
 70
     0
 62
   160
  6
CONTINUOUS
  0
LAYER
  5
DA
330
2
100
AcDbSymbolTableRecord
100
AcDbLayerTableRecord
  2
161
 70
     0
 62
   161
  6
CONTINUOUS
  0
LAYER
  5
DB
330
2
100
AcDbSymbolTableRecord
100
AcDbLayerTableRecord
  2
162
 70
     0
 62
   162
  6
CONTINUOUS
  0
LAYER
  5
DC
330
2
100
AcDbSymbolTableRecord
100
AcDbLayerTableRecord
  2
163
 70
     0
 62
   163
  6
CONTINUOUS
  0
LAYER
  5
DD
330
2
100
AcDbSymbolTableRecord
100
AcDbLayerTableRecord
  2
164
 70
     0
 62
   164
  6
CONTINUOUS
  0
LAYER
  5
DE
330
2
100
AcDbSymbolTableRecord
100
AcDbLayerTableRecord
  2
165
 70
     0
 62
   165
  6
CONTINUOUS
  0
LAYER
  5
DF
330
2
100
AcDbSymbolTableRecord
100
AcDbLayerTableRecord
  2
166
 70
     0
 62
   166
  6
CONTINUOUS
  0
LAYER
  5
E0
330
2
100
AcDbSymbolTableRecord
100
AcDbLayerTableRecord
  2
167
 70
     0
 62
   167
  6
CONTINUOUS
  0
LAYER
  5
E1
330
2
100
AcDbSymbolTableRecord
100
AcDbLayerTableRecord
  2
168
 70
     0
 62
   168
  6
CONTINUOUS
  0
LAYER
  5
E2
330
2
100
AcDbSymbolTableRecord
100
AcDbLayerTableRecord
  2
169
 70
     0
 62
   169
  6
CONTINUOUS
  0
LAYER
  5
E3
330
2
100
AcDbSymbolTableRecord
100
AcDbLayerTableRecord
  2
170
 70
     0
 62
   170
  6
CONTINUOUS
  0
LAYER
  5
E4
330
2
100
AcDbSymbolTableRecord
100
AcDbLayerTableRecord
  2
171
 70
     0
 62
   171
  6
CONTINUOUS
  0
LAYER
  5
E5
330
2
100
AcDbSymbolTableRecord
100
AcDbLayerTableRecord
  2
172
 70
     0
 62
   172
  6
CONTINUOUS
  0
LAYER
  5
E6
330
2
100
AcDbSymbolTableRecord
100
AcDbLayerTableRecord
  2
173
 70
     0
 62
   173
  6
CONTINUOUS
  0
LAYER
  5
E7
330
2
100
AcDbSymbolTableRecord
100
AcDbLayerTableRecord
  2
174
 70
     0
 62
   174
  6
CONTINUOUS
  0
LAYER
  5
E8
330
2
100
AcDbSymbolTableRecord
100
AcDbLayerTableRecord
  2
175
 70
     0
 62
   175
  6
CONTINUOUS
  0
LAYER
  5
E9
330
2
100
AcDbSymbolTableRecord
100
AcDbLayerTableRecord
  2
176
 70
     0
 62
   176
  6
CONTINUOUS
  0
LAYER
  5
EA
330
2
100
AcDbSymbolTableRecord
100
AcDbLayerTableRecord
  2
177
 70
     0
 62
   177
  6
CONTINUOUS
  0
LAYER
  5
EB
330
2
100
AcDbSymbolTableRecord
100
AcDbLayerTableRecord
  2
178
 70
     0
 62
   178
  6
CONTINUOUS
  0
LAYER
  5
EC
330
2
100
AcDbSymbolTableRecord
100
AcDbLayerTableRecord
  2
179
 70
     0
 62
   179
  6
CONTINUOUS
  0
LAYER
  5
ED
330
2
100
AcDbSymbolTableRecord
100
AcDbLayerTableRecord
  2
180
 70
     0
 62
   180
  6
CONTINUOUS
  0
LAYER
  5
EE
330
2
100
AcDbSymbolTableRecord
100
AcDbLayerTableRecord
  2
181
 70
     0
 62
   181
  6
CONTINUOUS
  0
LAYER
  5
EF
330
2
100
AcDbSymbolTableRecord
100
AcDbLayerTableRecord
  2
182
 70
     0
 62
   182
  6
CONTINUOUS
  0
LAYER
  5
F0
330
2
100
AcDbSymbolTableRecord
100
AcDbLayerTableRecord
  2
183
 70
     0
 62
   183
  6
CONTINUOUS
  0
LAYER
  5
F1
330
2
100
AcDbSymbolTableRecord
100
AcDbLayerTableRecord
  2
184
 70
     0
 62
   184
  6
CONTINUOUS
  0
LAYER
  5
F2
330
2
100
AcDbSymbolTableRecord
100
AcDbLayerTableRecord
  2
185
 70
     0
 62
   185
  6
CONTINUOUS
  0
LAYER
  5
F3
330
2
100
AcDbSymbolTableRecord
100
AcDbLayerTableRecord
  2
186
 70
     0
 62
   186
  6
CONTINUOUS
  0
LAYER
  5
F4
330
2
100
AcDbSymbolTableRecord
100
AcDbLayerTableRecord
  2
187
 70
     0
 62
   187
  6
CONTINUOUS
  0
LAYER
  5
F5
330
2
100
AcDbSymbolTableRecord
100
AcDbLayerTableRecord
  2
188
 70
     0
 62
   188
  6
CONTINUOUS
  0
LAYER
  5
F6
330
2
100
AcDbSymbolTableRecord
100
AcDbLayerTableRecord
  2
189
 70
     0
 62
   189
  6
CONTINUOUS
  0
LAYER
  5
F7
330
2
100
AcDbSymbolTableRecord
100
AcDbLayerTableRecord
  2
190
 70
     0
 62
   190
  6
CONTINUOUS
  0
LAYER
  5
F8
330
2
100
AcDbSymbolTableRecord
100
AcDbLayerTableRecord
  2
191
 70
     0
 62
   191
  6
CONTINUOUS
  0
LAYER
  5
F9
330
2
100
AcDbSymbolTableRecord
100
AcDbLayerTableRecord
  2
192
 70
     0
 62
   192
  6
CONTINUOUS
  0
LAYER
  5
FA
330
2
100
AcDbSymbolTableRecord
100
AcDbLayerTableRecord
  2
193
 70
     0
 62
   193
  6
CONTINUOUS
  0
LAYER
  5
FB
330
2
100
AcDbSymbolTableRecord
100
AcDbLayerTableRecord
  2
194
 70
     0
 62
   194
  6
CONTINUOUS
  0
LAYER
  5
FC
330
2
100
AcDbSymbolTableRecord
100
AcDbLayerTableRecord
  2
195
 70
     0
 62
   195
  6
CONTINUOUS
  0
LAYER
  5
FD
330
2
100
AcDbSymbolTableRecord
100
AcDbLayerTableRecord
  2
196
 70
     0
 62
   196
  6
CONTINUOUS
  0
LAYER
  5
FE
330
2
100
AcDbSymbolTableRecord
100
AcDbLayerTableRecord
  2
197
 70
     0
 62
   197
  6
CONTINUOUS
  0
LAYER
  5
FF
330
2
100
AcDbSymbolTableRecord
100
AcDbLayerTableRecord
  2
198
 70
     0
 62
   198
  6
CONTINUOUS
  0
LAYER
  5
100
330
2
100
AcDbSymbolTableRecord
100
AcDbLayerTableRecord
  2
199
 70
     0
 62
   199
  6
CONTINUOUS
  0
LAYER
  5
101
330
2
100
AcDbSymbolTableRecord
100
AcDbLayerTableRecord
  2
200
 70
     0
 62
   200
  6
CONTINUOUS
  0
LAYER
  5
102
330
2
100
AcDbSymbolTableRecord
100
AcDbLayerTableRecord
  2
201
 70
     0
 62
   201
  6
CONTINUOUS
  0
LAYER
  5
103
330
2
100
AcDbSymbolTableRecord
100
AcDbLayerTableRecord
  2
202
 70
     0
 62
   202
  6
CONTINUOUS
  0
LAYER
  5
104
330
2
100
AcDbSymbolTableRecord
100
AcDbLayerTableRecord
  2
203
 70
     0
 62
   203
  6
CONTINUOUS
  0
LAYER
  5
105
330
2
100
AcDbSymbolTableRecord
100
AcDbLayerTableRecord
  2
204
 70
     0
 62
   204
  6
CONTINUOUS
  0
LAYER
  5
106
330
2
100
AcDbSymbolTableRecord
100
AcDbLayerTableRecord
  2
205
 70
     0
 62
   205
  6
CONTINUOUS
  0
LAYER
  5
107
330
2
100
AcDbSymbolTableRecord
100
AcDbLayerTableRecord
  2
206
 70
     0
 62
   206
  6
CONTINUOUS
  0
LAYER
  5
108
330
2
100
AcDbSymbolTableRecord
100
AcDbLayerTableRecord
  2
207
 70
     0
 62
   207
  6
CONTINUOUS
  0
LAYER
  5
109
330
2
100
AcDbSymbolTableRecord
100
AcDbLayerTableRecord
  2
208
 70
     0
 62
   208
  6
CONTINUOUS
  0
LAYER
  5
10A
330
2
100
AcDbSymbolTableRecord
100
AcDbLayerTableRecord
  2
209
 70
     0
 62
   209
  6
CONTINUOUS
  0
LAYER
  5
10B
330
2
100
AcDbSymbolTableRecord
100
AcDbLayerTableRecord
  2
210
 70
     0
 62
   210
  6
CONTINUOUS
  0
LAYER
  5
10C
330
2
100
AcDbSymbolTableRecord
100
AcDbLayerTableRecord
  2
211
 70
     0
 62
   211
  6
CONTINUOUS
  0
LAYER
  5
10D
330
2
100
AcDbSymbolTableRecord
100
AcDbLayerTableRecord
  2
212
 70
     0
 62
   212
  6
CONTINUOUS
  0
LAYER
  5
10E
330
2
100
AcDbSymbolTableRecord
100
AcDbLayerTableRecord
  2
213
 70
     0
 62
   213
  6
CONTINUOUS
  0
LAYER
  5
10F
330
2
100
AcDbSymbolTableRecord
100
AcDbLayerTableRecord
  2
214
 70
     0
 62
   214
  6
CONTINUOUS
  0
LAYER
  5
110
330
2
100
AcDbSymbolTableRecord
100
AcDbLayerTableRecord
  2
215
 70
     0
 62
   215
  6
CONTINUOUS
  0
LAYER
  5
111
330
2
100
AcDbSymbolTableRecord
100
AcDbLayerTableRecord
  2
216
 70
     0
 62
   216
  6
CONTINUOUS
  0
LAYER
  5
112
330
2
100
AcDbSymbolTableRecord
100
AcDbLayerTableRecord
  2
217
 70
     0
 62
   217
  6
CONTINUOUS
  0
LAYER
  5
113
330
2
100
AcDbSymbolTableRecord
100
AcDbLayerTableRecord
  2
218
 70
     0
 62
   218
  6
CONTINUOUS
  0
LAYER
  5
114
330
2
100
AcDbSymbolTableRecord
100
AcDbLayerTableRecord
  2
219
 70
     0
 62
   219
  6
CONTINUOUS
  0
LAYER
  5
115
330
2
100
AcDbSymbolTableRecord
100
AcDbLayerTableRecord
  2
220
 70
     0
 62
   220
  6
CONTINUOUS
  0
LAYER
  5
116
330
2
100
AcDbSymbolTableRecord
100
AcDbLayerTableRecord
  2
221
 70
     0
 62
   221
  6
CONTINUOUS
  0
LAYER
  5
117
330
2
100
AcDbSymbolTableRecord
100
AcDbLayerTableRecord
  2
222
 70
     0
 62
   222
  6
CONTINUOUS
  0
LAYER
  5
118
330
2
100
AcDbSymbolTableRecord
100
AcDbLayerTableRecord
  2
223
 70
     0
 62
   223
  6
CONTINUOUS
  0
LAYER
  5
119
330
2
100
AcDbSymbolTableRecord
100
AcDbLayerTableRecord
  2
224
 70
     0
 62
   224
  6
CONTINUOUS
  0
LAYER
  5
11A
330
2
100
AcDbSymbolTableRecord
100
AcDbLayerTableRecord
  2
225
 70
     0
 62
   225
  6
CONTINUOUS
  0
LAYER
  5
11B
330
2
100
AcDbSymbolTableRecord
100
AcDbLayerTableRecord
  2
226
 70
     0
 62
   226
  6
CONTINUOUS
  0
LAYER
  5
11C
330
2
100
AcDbSymbolTableRecord
100
AcDbLayerTableRecord
  2
227
 70
     0
 62
   227
  6
CONTINUOUS
  0
LAYER
  5
11D
330
2
100
AcDbSymbolTableRecord
100
AcDbLayerTableRecord
  2
228
 70
     0
 62
   228
  6
CONTINUOUS
  0
LAYER
  5
11E
330
2
100
AcDbSymbolTableRecord
100
AcDbLayerTableRecord
  2
229
 70
     0
 62
   229
  6
CONTINUOUS
  0
LAYER
  5
11F
330
2
100
AcDbSymbolTableRecord
100
AcDbLayerTableRecord
  2
230
 70
     0
 62
   230
  6
CONTINUOUS
  0
LAYER
  5
120
330
2
100
AcDbSymbolTableRecord
100
AcDbLayerTableRecord
  2
231
 70
     0
 62
   231
  6
CONTINUOUS
  0
LAYER
  5
121
330
2
100
AcDbSymbolTableRecord
100
AcDbLayerTableRecord
  2
232
 70
     0
 62
   232
  6
CONTINUOUS
  0
LAYER
  5
122
330
2
100
AcDbSymbolTableRecord
100
AcDbLayerTableRecord
  2
233
 70
     0
 62
   233
  6
CONTINUOUS
  0
LAYER
  5
123
330
2
100
AcDbSymbolTableRecord
100
AcDbLayerTableRecord
  2
234
 70
     0
 62
   234
  6
CONTINUOUS
  0
LAYER
  5
124
330
2
100
AcDbSymbolTableRecord
100
AcDbLayerTableRecord
  2
235
 70
     0
 62
   235
  6
CONTINUOUS
  0
LAYER
  5
125
330
2
100
AcDbSymbolTableRecord
100
AcDbLayerTableRecord
  2
236
 70
     0
 62
   236
  6
CONTINUOUS
  0
LAYER
  5
126
330
2
100
AcDbSymbolTableRecord
100
AcDbLayerTableRecord
  2
237
 70
     0
 62
   237
  6
CONTINUOUS
  0
LAYER
  5
127
330
2
100
AcDbSymbolTableRecord
100
AcDbLayerTableRecord
  2
238
 70
     0
 62
   238
  6
CONTINUOUS
  0
LAYER
  5
128
330
2
100
AcDbSymbolTableRecord
100
AcDbLayerTableRecord
  2
239
 70
     0
 62
   239
  6
CONTINUOUS
  0
LAYER
  5
129
330
2
100
AcDbSymbolTableRecord
100
AcDbLayerTableRecord
  2
240
 70
     0
 62
   240
  6
CONTINUOUS
  0
LAYER
  5
12A
330
2
100
AcDbSymbolTableRecord
100
AcDbLayerTableRecord
  2
241
 70
     0
 62
   241
  6
CONTINUOUS
  0
LAYER
  5
12B
330
2
100
AcDbSymbolTableRecord
100
AcDbLayerTableRecord
  2
242
 70
     0
 62
   242
  6
CONTINUOUS
  0
LAYER
  5
12C
330
2
100
AcDbSymbolTableRecord
100
AcDbLayerTableRecord
  2
243
 70
     0
 62
   243
  6
CONTINUOUS
  0
LAYER
  5
12D
330
2
100
AcDbSymbolTableRecord
100
AcDbLayerTableRecord
  2
244
 70
     0
 62
   244
  6
CONTINUOUS
  0
LAYER
  5
12E
330
2
100
AcDbSymbolTableRecord
100
AcDbLayerTableRecord
  2
245
 70
     0
 62
   245
  6
CONTINUOUS
  0
LAYER
  5
12F
330
2
100
AcDbSymbolTableRecord
100
AcDbLayerTableRecord
  2
246
 70
     0
 62
   246
  6
CONTINUOUS
  0
LAYER
  5
130
330
2
100
AcDbSymbolTableRecord
100
AcDbLayerTableRecord
  2
247
 70
     0
 62
   247
  6
CONTINUOUS
  0
LAYER
  5
131
330
2
100
AcDbSymbolTableRecord
100
AcDbLayerTableRecord
  2
248
 70
     0
 62
   248
  6
CONTINUOUS
  0
LAYER
  5
132
330
2
100
AcDbSymbolTableRecord
100
AcDbLayerTableRecord
  2
249
 70
     0
 62
   249
  6
CONTINUOUS
  0
LAYER
  5
133
330
2
100
AcDbSymbolTableRecord
100
AcDbLayerTableRecord
  2
250
 70
     0
 62
   250
  6
CONTINUOUS
  0
LAYER
  5
134
330
2
100
AcDbSymbolTableRecord
100
AcDbLayerTableRecord
  2
251
 70
     0
 62
   251
  6
CONTINUOUS
  0
LAYER
  5
135
330
2
100
AcDbSymbolTableRecord
100
AcDbLayerTableRecord
  2
252
 70
     0
 62
   252
  6
CONTINUOUS
  0
LAYER
  5
136
330
2
100
AcDbSymbolTableRecord
100
AcDbLayerTableRecord
  2
253
 70
     0
 62
   253
  6
CONTINUOUS
  0
LAYER
  5
137
330
2
100
AcDbSymbolTableRecord
100
AcDbLayerTableRecord
  2
254
 70
     0
 62
   254
  6
CONTINUOUS
  0
LAYER
  5
138
330
2
100
AcDbSymbolTableRecord
100
AcDbLayerTableRecord
  2
255
 70
     0
 62
   255
  6
CONTINUOUS
  0
LAYER
  5
49C3
330
2
100
AcDbSymbolTableRecord
100
AcDbLayerTableRecord
  2
DEFPOINTS
 70
     0
 62
     7
  6
CONTINUOUS
  0
ENDTAB
  0
TABLE
  2
STYLE
  5
3
330
0
100
AcDbSymbolTable
 70
     1
  0
STYLE
  5
11
330
3
100
AcDbSymbolTableRecord
100
AcDbTextStyleTableRecord
  2
STANDARD
 70
     0
 40
0.0
 41
1.0
 50
0.0
 71
     0
 42
0.2
  3
monotxt
  4

  0
ENDTAB
  0
TABLE
  2
VIEW
  5
6
330
0
100
AcDbSymbolTable
 70
     0
  0
ENDTAB
  0
TABLE
  2
UCS
  5
7
330
0
100
AcDbSymbolTable
 70
     0
  0
ENDTAB
  0
TABLE
  2
APPID
  5
9
330
0
100
AcDbSymbolTable
 70
     1
  0
APPID
  5
12
330
9
100
AcDbSymbolTableRecord
100
AcDbRegAppTableRecord
  2
ACAD
 70
     0
  0
ENDTAB
  0
TABLE
  2
DIMSTYLE
  5
A
330
0
100
AcDbSymbolTable
 70
     1
  0
DIMSTYLE
105
338D
102
{ACAD_REACTORS
330
49C2
102
}
330
A
100
AcDbSymbolTableRecord
100
AcDbDimStyleTableRecord
  2
STANDARD
 70
     0
  3

  4

  5

  6

  7

 40
1.0
 41
0.18
 42
0.0625
 43
0.38
 44
0.18
 45
0.0
 46
0.0
 47
0.0
 48
0.0
140
0.18
141
0.09
142
0.0
143
25.4
144
1.0
145
0.0
146
1.0
147
0.09
 71
     0
 72
     0
 73
     1
 74
     1
 75
     0
 76
     0
 77
     0
 78
     0
170
     0
171
     2
172
     0
173
     0
174
     0
175
     0
176
     0
177
     0
178
     0
270
     2
271
     4
272
     4
273
     2
274
     2
340
11
275
     0
280
     0
281
     0
282
     0
283
     1
284
     0
285
     0
286
     0
287
     3
288
     0
  0
ENDTAB
  0
TABLE
  2
BLOCK_RECORD
  5
1
330
0
100
AcDbSymbolTable
 70
     1
  0
BLOCK_RECORD
  5
1E
102
{ACAD_XDICTIONARY
360
4A0A
102
}
330
1
100
AcDbSymbolTableRecord
100
AcDbBlockTableRecord
  2
*MODEL_SPACE
  0
BLOCK_RECORD
  5
1A
102
{ACAD_XDICTIONARY
360
4A08
102
}
330
1
100
AcDbSymbolTableRecord
100
AcDbBlockTableRecord
  2
*PAPER_SPACE
  0
BLOCK_RECORD
  5
49C4
330
1
100
AcDbSymbolTableRecord
100
AcDbBlockTableRecord
  2
*D0
  0
ENDTAB
  0
ENDSEC
  0
SECTION
  2
BLOCKS
  0
BLOCK
  5
13B
330
1E
100
AcDbEntity
  8
0
100
AcDbBlockBegin
  2
*MODEL_SPACE
 70
     0
 10
0.0
 20
0.0
 30
0.0
  3
*MODEL_SPACE
  1

  0
ENDBLK
  5
13C
330
1E
100
AcDbEntity
  8
0
100
AcDbBlockEnd
  0
BLOCK
  5
139
330
1A
100
AcDbEntity
 67
     1
  8
0
100
AcDbBlockBegin
  2
*PAPER_SPACE
 70
     0
 10
0.0
 20
0.0
 30
0.0
  3
*PAPER_SPACE
  1

  0
ENDBLK
  5
13A
330
1A
100
AcDbEntity
 67
     1
  8
0
100
AcDbBlockEnd
  0
BLOCK
  5
49CF
330
49C4
100
AcDbEntity
  8
0
100
AcDbBlockBegin
  2
*D0
 70
     1
 10
0.0
 20
0.0
 30
0.0
  3
*D0
  1

  0
LINE
  5
49C5
330
49C4
100
AcDbEntity
  8
0
 62
     0
100
AcDbLine
 10
14.00331923350379
 20
16.24526736131742
 30
0.0
 11
14.99775858710018
 21
16.24526736131742
 31
0.0
  0
LINE
  5
49C6
330
49C4
100
AcDbEntity
  8
0
 62
     0
100
AcDbLine
 10
13.9810095222177
 20
11.76626473664551
 30
0.0
 11
14.99775858710018
 21
11.76626473664551
 31
0.0
  0
LINE
  5
49C7
330
49C4
100
AcDbEntity
  8
0
 62
     0
100
AcDbLine
 10
14.81775858710018
 20
16.06526736131742
 30
0.0
 11
14.81775858710018
 21
14.18576604898146
 31
0.0
  0
LINE
  5
49C8
330
49C4
100
AcDbEntity
  8
0
 62
     0
100
AcDbLine
 10
14.81775858710018
 20
11.94626473664551
 30
0.0
 11
14.81775858710018
 21
13.82576604898146
 31
0.0
  0
SOLID
  5
49C9
330
49C4
100
AcDbEntity
  8
0
 62
     0
100
AcDbTrace
 10
14.78775858710018
 20
16.06526736131742
 30
0.0
 11
14.84775858710018
 21
16.06526736131742
 31
0.0
 12
14.81775858710018
 22
16.24526736131742
 32
0.0
 13
14.81775858710018
 23
16.24526736131742
 33
0.0
  0
SOLID
  5
49CA
330
49C4
100
AcDbEntity
  8
0
 62
     0
100
AcDbTrace
 10
14.78775858710018
 20
11.94626473664551
 30
0.0
 11
14.84775858710018
 21
11.94626473664551
 31
0.0
 12
14.81775858710018
 22
11.76626473664551
 32
0.0
 13
14.81775858710018
 23
11.76626473664551
 33
0.0
  0
MTEXT
  5
49CB
330
49C4
100
AcDbEntity
  8
0
 62
     0
100
AcDbMText
 10
14.81775858710018
 20
14.00576604898146
 30
0.0
 40
0.18
 41
0.0
 71
     5
 72
     1
  1
\A1;4.4790
1001
ACAD
1000
MTEXTBEGIN
1070
    73
1070
     1
1070
    44
1040
1.0
1070
    74
1070
     0
1000
MTEXTEND
  0
POINT
  5
49CC
330
49C4
100
AcDbEntity
  8
DEFPOINTS
 62
     0
100
AcDbPoint
 10
13.94081923350379
 20
16.24526736131742
 30
0.0
  0
POINT
  5
49CD
330
49C4
100
AcDbEntity
  8
DEFPOINTS
 62
     0
100
AcDbPoint
 10
13.9185095222177
 20
11.76626473664551
 30
0.0
  0
POINT
  5
49CE
330
49C4
100
AcDbEntity
  8
DEFPOINTS
 62
     0
100
AcDbPoint
 10
14.81775858710018
 20
11.76626473664551
 30
0.0
  0
ENDBLK
  5
49D0
330
49C4
100
AcDbEntity
  8
0
100
AcDbBlockEnd
  0
ENDSEC
  0
SECTION
  2
ENTITIES
  0
LINE
  5
2987
330
1E
100
AcDbEntity
  8
7
100
AcDbLine
 10
13.03793209439618
 20
12.66783953979511
 30
0.0
 11
13.15866700253267
 21
12.66783953979511
 31
0.0
  0
LINE
  5
2988
330
1E
100
AcDbEntity
  8
7
100
AcDbLine
 10
13.15866700253267
 20
12.71245896236729
 30
0.0
 11
13.22559613639093
 21
12.71245896236729
 31
0.0
  0
LINE
  5
2989
330
1E
100
AcDbEntity
  8
7
100
AcDbLine
 10
11.96575361670589
 20
14.2150836342833
 30
0.0
 11
12.03268275056416
 21
14.2150836342833
 31
0.0
  0
LINE
  5
298A
330
1E
100
AcDbEntity
  8
7
100
AcDbLine
 10
12.03268275056416
 20
14.16915187575312
 30
0.0
 11
12.15341765870064
 21
14.16915187575312
 31
0.0
  0
LINE
  5
298B
330
1E
100
AcDbEntity
  8
7
100
AcDbLine
 10
11.96575361670589
 20
12.71245896236729
 30
0.0
 11
12.03268275056416
 21
12.71245896236729
 31
0.0
  0
LINE
  5
298C
330
1E
100
AcDbEntity
  8
7
100
AcDbLine
 10
12.03268275056416
 20
12.66783953979511
 30
0.0
 11
12.15341765870064
 21
12.66783953979511
 31
0.0
  0
LINE
  5
298D
330
1E
100
AcDbEntity
  8
7
100
AcDbLine
 10
13.31614731749329
 20
15.43818074714419
 30
0.0
 11
11.87520243560353
 21
15.43818074714419
 31
0.0
  0
LINE
  5
29A2
330
1E
100
AcDbEntity
  8
7
100
AcDbLine
 10
12.6678533542387
 20
14.12059544530692
 30
0.0
 11
13.15866700253267
 21
14.12059544530692
 31
0.0
  0
LINE
  5
29A3
330
1E
100
AcDbEntity
  8
7
100
AcDbLine
 10
12.6678533542387
 20
14.12059544530692
 30
0.0
 11
12.52349639885812
 21
14.12059544530692
 31
0.0
  0
LINE
  5
29A4
330
1E
100
AcDbEntity
  8
7
100
AcDbLine
 10
12.03268275056416
 20
14.12059544530692
 30
0.0
 11
12.52349639885812
 21
14.12059544530692
 31
0.0
  0
LINE
  5
29AF
330
1E
100
AcDbEntity
  8
7
100
AcDbLine
 10
11.78858826237519
 20
15.28594977601558
 30
0.0
 11
11.78858826237519
 21
14.29513612772162
 31
0.0
  0
LINE
  5
29B9
330
1E
100
AcDbEntity
  8
7
100
AcDbLine
 10
13.31614731749329
 20
13.93686841118619
 30
0.0
 11
11.87520243560353
 21
13.93686841118619
 31
0.0
  0
LINE
  5
29BA
330
1E
100
AcDbEntity
  8
7
100
AcDbLine
 10
13.31614731749329
 20
13.93686841118619
 30
0.0
 11
13.33845702877938
 21
13.93161906735417
 31
0.0
  0
LINE
  5
29CB
330
1E
100
AcDbEntity
  8
7
100
AcDbLine
 10
12.6678533542387
 20
12.61928310934892
 30
0.0
 11
13.15866700253267
 21
12.61928310934892
 31
0.0
  0
LINE
  5
29CC
330
1E
100
AcDbEntity
  8
7
100
AcDbLine
 10
12.6678533542387
 20
12.61928310934892
 30
0.0
 11
12.52349639885812
 21
12.61928310934892
 31
0.0
  0
LINE
  5
29CD
330
1E
100
AcDbEntity
  8
7
100
AcDbLine
 10
12.03268275056416
 20
12.61928310934892
 30
0.0
 11
12.52349639885812
 21
12.61928310934892
 31
0.0
  0
LINE
  5
29DB
330
1E
100
AcDbEntity
  8
7
100
AcDbLine
 10
11.78858826237519
 20
13.78463744005758
 30
0.0
 11
11.78858826237519
 21
12.79382379176362
 31
0.0
  0
LINE
  5
29E5
330
1E
100
AcDbEntity
  8
7
100
AcDbLine
 10
13.59567487654842
 20
12.14815450042504
 30
0.0
 11
13.59567487654842
 21
15.84238022220981
 31
0.0
  0
LINE
  5
29E6
330
1E
100
AcDbEntity
  8
7
100
AcDbLine
 10
11.59567487654841
 20
15.84238022220981
 30
0.0
 11
13.59567487654842
 21
15.84238022220981
 31
0.0
  0
LINE
  5
29E7
330
1E
100
AcDbEntity
  8
7
100
AcDbLine
 10
11.59567487654841
 20
12.14815450042504
 30
0.0
 11
11.59567487654841
 21
15.84238022220981
 31
0.0
  0
LINE
  5
29E8
330
1E
100
AcDbEntity
  8
7
100
AcDbLine
 10
13.59567487654842
 20
12.14815450042504
 30
0.0
 11
11.59567487654841
 21
12.14815450042504
 31
0.0
  0
LINE
  5
29E9
330
1E
100
AcDbEntity
  8
7
100
AcDbLine
 10
12.9171971862597
 20
12.47623848992635
 30
0.0
 11
12.27284023087912
 21
12.47623848992635
 31
0.0
  0
LINE
  5
29EA
330
1E
100
AcDbEntity
  8
7
100
AcDbLine
 10
12.9171971862597
 20
12.42505738756414
 30
0.0
 11
12.9171971862597
 21
12.47623848992635
 31
0.0
  0
LINE
  5
29EB
330
1E
100
AcDbEntity
  8
7
100
AcDbLine
 10
12.9421315694618
 20
12.42505738756414
 30
0.0
 11
12.9171971862597
 21
12.42505738756414
 31
0.0
  0
LINE
  5
29EC
330
1E
100
AcDbEntity
  8
7
100
AcDbLine
 10
12.9421315694618
 20
12.28332510409957
 30
0.0
 11
12.9421315694618
 21
12.42505738756414
 31
0.0
  0
LINE
  5
29ED
330
1E
100
AcDbEntity
  8
7
100
AcDbLine
 10
12.9171971862597
 20
12.28332510409957
 30
0.0
 11
12.9421315694618
 21
12.28332510409957
 31
0.0
  0
LINE
  5
29EE
330
1E
100
AcDbEntity
  8
7
100
AcDbLine
 10
12.9171971862597
 20
12.23214400173737
 30
0.0
 11
12.9171971862597
 21
12.28332510409957
 31
0.0
  0
LINE
  5
29EF
330
1E
100
AcDbEntity
  8
7
100
AcDbLine
 10
12.27284023087912
 20
12.23214400173737
 30
0.0
 11
12.9171971862597
 21
12.23214400173737
 31
0.0
  0
LINE
  5
29F0
330
1E
100
AcDbEntity
  8
7
100
AcDbLine
 10
12.27284023087912
 20
12.28332510409957
 30
0.0
 11
12.27284023087912
 21
12.23214400173737
 31
0.0
  0
LINE
  5
29F1
330
1E
100
AcDbEntity
  8
7
100
AcDbLine
 10
12.24921818363503
 20
12.28332510409957
 30
0.0
 11
12.27284023087912
 21
12.28332510409957
 31
0.0
  0
LINE
  5
29F2
330
1E
100
AcDbEntity
  8
7
100
AcDbLine
 10
12.24921818363503
 20
12.42505738756414
 30
0.0
 11
12.24921818363503
 21
12.28332510409957
 31
0.0
  0
LINE
  5
29F3
330
1E
100
AcDbEntity
  8
7
100
AcDbLine
 10
12.27284023087912
 20
12.42505738756414
 30
0.0
 11
12.24921818363503
 21
12.42505738756414
 31
0.0
  0
LINE
  5
29F4
330
1E
100
AcDbEntity
  8
7
100
AcDbLine
 10
12.27284023087912
 20
12.47623848992635
 30
0.0
 11
12.27284023087912
 21
12.42505738756414
 31
0.0
  0
LINE
  5
2A15
330
1E
100
AcDbEntity
  8
7
100
AcDbLine
 10
13.23215781618096
 20
14.99854820121243
 30
0.0
 11
13.23215781618096
 21
14.9644274663043
 31
0.0
  0
LINE
  5
2A16
330
1E
100
AcDbEntity
  8
7
100
AcDbLine
 10
13.23478248809697
 20
14.99854820121243
 30
0.0
 11
13.23215781618096
 21
14.99854820121243
 31
0.0
  0
LINE
  5
2A17
330
1E
100
AcDbEntity
  8
7
100
AcDbLine
 10
13.25840453534106
 20
15.08385003848277
 30
0.0
 11
13.25840453534106
 21
15.00642221696047
 31
0.0
  0
LINE
  5
2A18
330
1E
100
AcDbEntity
  8
7
100
AcDbLine
 10
13.23215781618096
 20
15.08385003848277
 30
0.0
 11
13.25840453534106
 21
15.08385003848277
 31
0.0
  0
LINE
  5
2A19
330
1E
100
AcDbEntity
  8
7
100
AcDbLine
 10
13.23215781618096
 20
15.12715712509695
 30
0.0
 11
13.23215781618096
 21
15.08385003848277
 31
0.0
  0
LINE
  5
2A1A
330
1E
100
AcDbEntity
  8
7
100
AcDbLine
 10
11.95919193691586
 20
15.12715712509695
 30
0.0
 11
13.23215781618096
 21
15.12715712509695
 31
0.0
  0
LINE
  5
2A1B
330
1E
100
AcDbEntity
  8
7
100
AcDbLine
 10
11.95919193691586
 20
15.08385003848277
 30
0.0
 11
11.95919193691586
 21
15.12715712509695
 31
0.0
  0
LINE
  5
2A1C
330
1E
100
AcDbEntity
  8
7
100
AcDbLine
 10
11.93294521775576
 20
15.08385003848277
 30
0.0
 11
11.95919193691586
 21
15.08385003848277
 31
0.0
  0
LINE
  5
2A1D
330
1E
100
AcDbEntity
  8
7
100
AcDbLine
 10
11.93294521775576
 20
15.00642221696047
 30
0.0
 11
11.93294521775576
 21
15.08385003848277
 31
0.0
  0
LINE
  5
2A1E
330
1E
100
AcDbEntity
  8
7
100
AcDbLine
 10
11.95919193691586
 20
14.99854820121243
 30
0.0
 11
11.95656726499986
 21
14.99854820121243
 31
0.0
  0
LINE
  5
2A1F
330
1E
100
AcDbEntity
  8
7
100
AcDbLine
 10
11.95919193691586
 20
14.9644274663043
 30
0.0
 11
11.95919193691586
 21
14.99854820121243
 31
0.0
  0
LINE
  5
2A31
330
1E
100
AcDbEntity
  8
7
100
AcDbLine
 10
13.23347015213896
 20
14.99592352929642
 30
0.0
 11
13.23478248809697
 21
15.00642221696047
 31
0.0
  0
LINE
  5
2A32
330
1E
100
AcDbEntity
  8
7
100
AcDbLine
 10
13.23347015213896
 20
14.99592352929642
 30
0.0
 11
13.23347015213896
 21
14.9644274663043
 31
0.0
  0
LINE
  5
2A33
330
1E
100
AcDbEntity
  8
7
100
AcDbLine
 10
13.23478248809697
 20
15.00642221696047
 30
0.0
 11
13.23478248809697
 21
14.9644274663043
 31
0.0
  0
LINE
  5
2A34
330
1E
100
AcDbEntity
  8
7
100
AcDbLine
 10
13.25971687129907
 20
15.00642221696047
 30
0.0
 11
13.23478248809697
 21
15.00642221696047
 31
0.0
  0
LINE
  5
2A35
330
1E
100
AcDbEntity
  8
7
100
AcDbLine
 10
11.95656726499986
 20
14.99592352929642
 30
0.0
 11
11.95656726499986
 21
14.9644274663043
 31
0.0
  0
LINE
  5
2A36
330
1E
100
AcDbEntity
  8
7
100
AcDbLine
 10
11.95656726499986
 20
14.99592352929642
 30
0.0
 11
11.95656726499986
 21
15.00642221696047
 31
0.0
  0
LINE
  5
2A3C
330
1E
100
AcDbEntity
  8
7
100
AcDbLine
 10
13.23347015213896
 20
15.15340384425705
 30
0.0
 11
13.23478248809697
 21
15.1652148678791
 31
0.0
  0
LINE
  5
2A42
330
1E
100
AcDbEntity
  8
7
100
AcDbLine
 10
13.23478248809697
 20
15.1652148678791
 30
0.0
 11
13.23478248809697
 21
15.12322011722293
 31
0.0
  0
LINE
  5
2A48
330
1E
100
AcDbEntity
  8
7
100
AcDbLine
 10
13.23478248809697
 20
15.12322011722293
 30
0.0
 11
13.25971687129907
 21
15.12322011722293
 31
0.0
  0
LINE
  5
2A4E
330
1E
100
AcDbEntity
  8
7
100
AcDbLine
 10
11.87520243560353
 20
15.43818074714419
 30
0.0
 11
11.88832579518358
 21
14.889624316698
 31
0.0
  0
LINE
  5
2A4F
330
1E
100
AcDbEntity
  8
7
100
AcDbLine
 10
13.23478248809697
 20
14.9644274663043
 30
0.0
 11
11.95656726499986
 21
14.9644274663043
 31
0.0
  0
LINE
  5
2A57
330
1E
100
AcDbEntity
  8
7
100
AcDbLine
 10
13.25971687129907
 20
15.12322011722293
 30
0.0
 11
13.25971687129907
 21
15.00642221696047
 31
0.0
  0
LINE
  5
2A5D
330
1E
100
AcDbEntity
  8
7
100
AcDbLine
 10
12.99987435161403
 20
14.7662647366455
 30
0.0
 11
13.01562238311009
 21
14.7662647366455
 31
0.0
  0
LINE
  5
2A5E
330
1E
100
AcDbEntity
  8
7
100
AcDbLine
 10
12.81089797366127
 20
14.7662647366455
 30
0.0
 11
12.82533366919933
 21
14.7662647366455
 31
0.0
  0
LINE
  5
2A65
330
1E
100
AcDbEntity
  8
7
100
AcDbLine
 10
12.36601608389749
 20
14.7662647366455
 30
0.0
 11
12.38045177943555
 21
14.7662647366455
 31
0.0
  0
LINE
  5
2A66
330
1E
100
AcDbEntity
  8
7
100
AcDbLine
 10
13.03793209439618
 20
14.16915187575312
 30
0.0
 11
13.15866700253267
 21
14.16915187575312
 31
0.0
  0
LINE
  5
2A67
330
1E
100
AcDbEntity
  8
7
100
AcDbLine
 10
13.15866700253267
 20
14.2150836342833
 30
0.0
 11
13.22559613639093
 21
14.2150836342833
 31
0.0
  0
LINE
  5
2A68
330
1E
100
AcDbEntity
  8
7
100
AcDbLine
 10
12.99987435161403
 20
14.73214400173737
 30
0.0
 11
12.99987435161403
 21
14.7662647366455
 31
0.0
  0
LINE
  5
2A69
330
1E
100
AcDbEntity
  8
7
100
AcDbLine
 10
12.36601608389749
 20
14.73214400173737
 30
0.0
 11
12.36601608389749
 21
14.7662647366455
 31
0.0
  0
LINE
  5
2A6A
330
1E
100
AcDbEntity
  8
7
100
AcDbLine
 10
12.17572736998673
 20
14.7662647366455
 30
0.0
 11
12.19016306552479
 21
14.7662647366455
 31
0.0
  0
LINE
  5
2A70
330
1E
100
AcDbEntity
  8
7
100
AcDbLine
 10
12.40276149072164
 20
14.16915187575312
 30
0.0
 11
12.52349639885812
 21
14.16915187575312
 31
0.0
  0
LINE
  5
2A71
330
1E
100
AcDbEntity
  8
7
100
AcDbLine
 10
12.52349639885812
 20
14.2150836342833
 30
0.0
 11
12.6678533542387
 21
14.2150836342833
 31
0.0
  0
LINE
  5
2A72
330
1E
100
AcDbEntity
  8
7
100
AcDbLine
 10
12.6678533542387
 20
14.16915187575312
 30
0.0
 11
12.78858826237518
 21
14.16915187575312
 31
0.0
  0
LINE
  5
2A79
330
1E
100
AcDbEntity
  8
7
100
AcDbLine
 10
12.03268275056416
 20
14.16783953979511
 30
0.0
 11
12.03268275056416
 21
14.12059544530692
 31
0.0
  0
LINE
  5
2A7A
330
1E
100
AcDbEntity
  8
7
100
AcDbLine
 10
11.96575361670589
 20
14.16783953979511
 30
0.0
 11
12.03268275056416
 21
14.16783953979511
 31
0.0
  0
LINE
  5
2A7B
330
1E
100
AcDbEntity
  8
7
100
AcDbLine
 10
11.96575361670589
 20
14.7400180174854
 30
0.0
 11
11.96575361670589
 21
14.16783953979511
 31
0.0
  0
LINE
  5
2A7C
330
1E
100
AcDbEntity
  8
7
100
AcDbLine
 10
12.17179036211272
 20
14.76888940856152
 30
0.0
 11
12.17310269807072
 21
14.7400180174854
 31
0.0
  0
LINE
  5
2A7D
330
1E
100
AcDbEntity
  8
7
100
AcDbLine
 10
12.38438878730957
 20
14.76888940856152
 30
0.0
 11
12.17179036211272
 21
14.76888940856152
 31
0.0
  0
LINE
  5
2A7E
330
1E
100
AcDbEntity
  8
7
100
AcDbLine
 10
12.38307645135156
 20
14.7400180174854
 30
0.0
 11
12.38438878730957
 21
14.76888940856152
 31
0.0
  0
LINE
  5
2A7F
330
1E
100
AcDbEntity
  8
7
100
AcDbLine
 10
12.80696096578726
 20
14.76888940856152
 30
0.0
 11
12.80827330174526
 21
14.7400180174854
 31
0.0
  0
LINE
  5
2A80
330
1E
100
AcDbEntity
  8
7
100
AcDbLine
 10
13.0182470550261
 20
14.76888940856152
 30
0.0
 11
12.80696096578726
 21
14.76888940856152
 31
0.0
  0
LINE
  5
2A81
330
1E
100
AcDbEntity
  8
7
100
AcDbLine
 10
13.0182470550261
 20
14.7400180174854
 30
0.0
 11
13.0182470550261
 21
14.76888940856152
 31
0.0
  0
LINE
  5
2A82
330
1E
100
AcDbEntity
  8
7
100
AcDbLine
 10
13.22559613639093
 20
14.7400180174854
 30
0.0
 11
13.22559613639093
 21
14.16783953979511
 31
0.0
  0
LINE
  5
2A83
330
1E
100
AcDbEntity
  8
7
100
AcDbLine
 10
13.15866700253267
 20
14.16783953979511
 30
0.0
 11
13.22559613639093
 21
14.16783953979511
 31
0.0
  0
LINE
  5
2A84
330
1E
100
AcDbEntity
  8
7
100
AcDbLine
 10
13.15866700253267
 20
14.12059544530692
 30
0.0
 11
13.15866700253267
 21
14.16783953979511
 31
0.0
  0
LINE
  5
2A93
330
1E
100
AcDbEntity
  8
7
100
AcDbLine
 10
11.95919193691586
 20
13.49723586525443
 30
0.0
 11
11.95919193691586
 21
13.46311513034629
 31
0.0
  0
LINE
  5
2AA3
330
1E
100
AcDbEntity
  8
7
100
AcDbLine
 10
11.95656726499986
 20
13.49723586525443
 30
0.0
 11
11.95919193691586
 21
13.49723586525443
 31
0.0
  0
LINE
  5
2AB2
330
1E
100
AcDbEntity
  8
7
100
AcDbLine
 10
11.95656726499986
 20
13.49461119333842
 30
0.0
 11
11.95656726499986
 21
13.46311513034629
 31
0.0
  0
LINE
  5
2AB8
330
1E
100
AcDbEntity
  8
7
100
AcDbLine
 10
11.93163288179776
 20
13.50510988100246
 30
0.0
 11
11.95656726499986
 21
13.50510988100246
 31
0.0
  0
LINE
  5
2AB9
330
1E
100
AcDbEntity
  8
7
100
AcDbLine
 10
11.95656726499986
 20
13.65077917234104
 30
0.0
 11
11.95656726499986
 21
13.60878442168488
 31
0.0
  0
LINE
  5
2ABF
330
1E
100
AcDbEntity
  8
7
100
AcDbLine
 10
11.95656726499986
 20
13.60878442168488
 30
0.0
 11
11.95656726499986
 21
13.62059544530692
 31
0.0
  0
LINE
  5
2AC0
330
1E
100
AcDbEntity
  8
7
100
AcDbLine
 10
11.95656726499986
 20
13.60878442168488
 30
0.0
 11
11.93163288179776
 21
13.60878442168488
 31
0.0
  0
LINE
  5
2AC1
330
1E
100
AcDbEntity
  8
7
100
AcDbLine
 10
11.95656726499986
 20
13.62059544530692
 30
0.0
 11
11.93163288179776
 21
13.62059544530692
 31
0.0
  0
LINE
  5
2AC2
330
1E
100
AcDbEntity
  8
7
100
AcDbLine
 10
11.93163288179776
 20
13.60878442168488
 30
0.0
 11
11.93163288179776
 21
13.62059544530692
 31
0.0
  0
LINE
  5
2AC3
330
1E
100
AcDbEntity
  8
7
100
AcDbLine
 10
13.25840453534106
 20
13.60878442168488
 30
0.0
 11
13.23347015213896
 21
13.60878442168488
 31
0.0
  0
LINE
  5
2AC9
330
1E
100
AcDbEntity
  8
7
100
AcDbLine
 10
13.23347015213896
 20
13.60878442168488
 30
0.0
 11
13.23478248809697
 21
13.62059544530692
 31
0.0
  0
LINE
  5
2ACA
330
1E
100
AcDbEntity
  8
7
100
AcDbLine
 10
13.23347015213896
 20
13.60878442168488
 30
0.0
 11
13.23347015213896
 21
13.65077917234104
 31
0.0
  0
LINE
  5
2ACB
330
1E
100
AcDbEntity
  8
7
100
AcDbLine
 10
13.23478248809697
 20
13.62059544530692
 30
0.0
 11
13.23478248809697
 21
13.66259019596309
 31
0.0
  0
LINE
  5
2ACC
330
1E
100
AcDbEntity
  8
7
100
AcDbLine
 10
13.23347015213896
 20
13.65077917234104
 30
0.0
 11
13.23478248809697
 21
13.66259019596309
 31
0.0
  0
LINE
  5
2ACD
330
1E
100
AcDbEntity
  8
7
100
AcDbLine
 10
13.23347015213896
 20
13.49461119333842
 30
0.0
 11
13.23347015213896
 21
13.46311513034629
 31
0.0
  0
LINE
  5
2ACE
330
1E
100
AcDbEntity
  8
7
100
AcDbLine
 10
13.23478248809697
 20
13.46311513034629
 30
0.0
 11
13.23478248809697
 21
13.50510988100246
 31
0.0
  0
LINE
  5
2AD4
330
1E
100
AcDbEntity
  8
7
100
AcDbLine
 10
13.30171162195524
 20
13.2911991198476
 30
0.0
 11
11.88832579518358
 21
13.2911991198476
 31
0.0
  0
LINE
  5
2AD5
330
1E
100
AcDbEntity
  8
7
100
AcDbLine
 10
11.88832579518358
 20
13.2911991198476
 30
0.0
 11
11.87520243560353
 21
12.61928310934892
 31
0.0
  0
LINE
  5
2AD6
330
1E
100
AcDbEntity
  8
7
100
AcDbLine
 10
12.03268275056416
 20
12.66652720383711
 30
0.0
 11
12.03268275056416
 21
12.61928310934892
 31
0.0
  0
LINE
  5
2AD7
330
1E
100
AcDbEntity
  8
7
100
AcDbLine
 10
11.96575361670589
 20
12.66652720383711
 30
0.0
 11
12.03268275056416
 21
12.66652720383711
 31
0.0
  0
LINE
  5
2AD8
330
1E
100
AcDbEntity
  8
7
100
AcDbLine
 10
11.96575361670589
 20
13.23739334556939
 30
0.0
 11
11.96575361670589
 21
12.66652720383711
 31
0.0
  0
LINE
  5
2AD9
330
1E
100
AcDbEntity
  8
7
100
AcDbLine
 10
12.17310269807072
 20
13.23739334556939
 30
0.0
 11
11.96575361670589
 21
13.23739334556939
 31
0.0
  0
LINE
  5
2ADA
330
1E
100
AcDbEntity
  8
7
100
AcDbLine
 10
12.17310269807072
 20
13.23739334556939
 30
0.0
 11
12.17179036211272
 21
13.26757707260351
 31
0.0
  0
LINE
  5
2AE0
330
1E
100
AcDbEntity
  8
7
100
AcDbLine
 10
12.80827330174526
 20
13.23739334556939
 30
0.0
 11
12.38307645135156
 21
13.23739334556939
 31
0.0
  0
LINE
  5
2AE7
330
1E
100
AcDbEntity
  8
7
100
AcDbLine
 10
13.22559613639093
 20
13.23739334556939
 30
0.0
 11
13.0182470550261
 21
13.23739334556939
 31
0.0
  0
LINE
  5
2AE8
330
1E
100
AcDbEntity
  8
7
100
AcDbLine
 10
13.22559613639093
 20
13.23739334556939
 30
0.0
 11
13.22559613639093
 21
12.66652720383711
 31
0.0
  0
LINE
  5
2AE9
330
1E
100
AcDbEntity
  8
7
100
AcDbLine
 10
13.15866700253267
 20
12.66652720383711
 30
0.0
 11
13.22559613639093
 21
12.66652720383711
 31
0.0
  0
LINE
  5
2AEA
330
1E
100
AcDbEntity
  8
7
100
AcDbLine
 10
13.15866700253267
 20
12.61928310934892
 30
0.0
 11
13.15866700253267
 21
12.66652720383711
 31
0.0
  0
LINE
  5
2AEB
330
1E
100
AcDbEntity
  8
7
100
AcDbLine
 10
13.31614731749329
 20
12.61928310934892
 30
0.0
 11
13.30171162195524
 21
13.2911991198476
 31
0.0
  0
LINE
  5
2AEC
330
1E
100
AcDbEntity
  8
7
100
AcDbLine
 10
12.80827330174526
 20
13.23739334556939
 30
0.0
 11
12.81089797366127
 21
13.2636400647295
 31
0.0
  0
LINE
  5
2AED
330
1E
100
AcDbEntity
  8
7
100
AcDbLine
 10
12.38045177943555
 20
13.2636400647295
 30
0.0
 11
12.38307645135156
 21
13.23739334556939
 31
0.0
  0
LINE
  5
2AEE
330
1E
100
AcDbEntity
  8
7
100
AcDbLine
 10
12.38045177943555
 20
13.2636400647295
 30
0.0
 11
12.36601608389749
 21
13.2636400647295
 31
0.0
  0
LINE
  5
2AEF
330
1E
100
AcDbEntity
  8
7
100
AcDbLine
 10
12.82533366919933
 20
13.2636400647295
 30
0.0
 11
12.81089797366127
 21
13.2636400647295
 31
0.0
  0
LINE
  5
2AF0
330
1E
100
AcDbEntity
  8
7
100
AcDbLine
 10
13.01562238311009
 20
13.2636400647295
 30
0.0
 11
13.0182470550261
 21
13.23739334556939
 31
0.0
  0
LINE
  5
2AF1
330
1E
100
AcDbEntity
  8
7
100
AcDbLine
 10
13.01562238311009
 20
13.2636400647295
 30
0.0
 11
12.99987435161403
 21
13.2636400647295
 31
0.0
  0
LINE
  5
2AF2
330
1E
100
AcDbEntity
  8
7
100
AcDbLine
 10
12.17310269807072
 20
13.23739334556939
 30
0.0
 11
12.17572736998673
 21
13.2636400647295
 31
0.0
  0
LINE
  5
2AF3
330
1E
100
AcDbEntity
  8
7
100
AcDbLine
 10
12.19016306552479
 20
13.2636400647295
 30
0.0
 11
12.17572736998673
 21
13.2636400647295
 31
0.0
  0
LINE
  5
2AF4
330
1E
100
AcDbEntity
  8
7
100
AcDbLine
 10
12.99987435161403
 20
13.2636400647295
 30
0.0
 11
12.99987435161403
 21
13.23083166577937
 31
0.0
  0
LINE
  5
2AF5
330
1E
100
AcDbEntity
  8
7
100
AcDbLine
 10
12.36601608389749
 20
13.2636400647295
 30
0.0
 11
12.36601608389749
 21
13.23083166577937
 31
0.0
  0
LINE
  5
2AF6
330
1E
100
AcDbEntity
  8
7
100
AcDbLine
 10
12.40276149072164
 20
12.66783953979511
 30
0.0
 11
12.52349639885812
 21
12.66783953979511
 31
0.0
  0
LINE
  5
2AF7
330
1E
100
AcDbEntity
  8
7
100
AcDbLine
 10
12.52349639885812
 20
12.71245896236729
 30
0.0
 11
12.6678533542387
 21
12.71245896236729
 31
0.0
  0
LINE
  5
2AF8
330
1E
100
AcDbEntity
  8
7
100
AcDbLine
 10
12.6678533542387
 20
12.66783953979511
 30
0.0
 11
12.78858826237518
 21
12.66783953979511
 31
0.0
  0
LINE
  5
2AF9
330
1E
100
AcDbEntity
  8
7
100
AcDbLine
 10
12.52349639885812
 20
12.61928310934892
 30
0.0
 11
12.52349639885812
 21
12.66652720383711
 31
0.0
  0
LINE
  5
2AFA
330
1E
100
AcDbEntity
  8
7
100
AcDbLine
 10
12.6678533542387
 20
12.66652720383711
 30
0.0
 11
12.6678533542387
 21
12.61928310934892
 31
0.0
  0
LINE
  5
2AFB
330
1E
100
AcDbEntity
  8
7
100
AcDbLine
 10
12.52349639885812
 20
12.66652720383711
 30
0.0
 11
12.6678533542387
 21
12.66652720383711
 31
0.0
  0
LINE
  5
2AFC
330
1E
100
AcDbEntity
  8
7
100
AcDbLine
 10
12.65604233061665
 20
15.52085791249852
 30
0.0
 11
12.53530742248017
 21
15.52085791249852
 31
0.0
  0
LINE
  5
2B0D
330
1E
100
AcDbEntity
  8
7
100
AcDbLine
 10
12.53530742248017
 20
15.75051670514944
 30
0.0
 11
12.65604233061665
 21
15.75051670514944
 31
0.0
  0
LINE
  5
2B2C
330
1E
100
AcDbEntity
  8
7
100
AcDbLine
 10
12.53530742248017
 20
15.71114662640929
 30
0.0
 11
12.65604233061665
 21
15.71114662640929
 31
0.0
  0
LINE
  5
2B3B
330
1E
100
AcDbEntity
  8
7
100
AcDbLine
 10
12.65604233061665
 20
15.56022799123868
 30
0.0
 11
12.53530742248017
 21
15.56022799123868
 31
0.0
  0
LINE
  5
2B46
330
1E
100
AcDbEntity
  8
7
100
AcDbLine
 10
12.68491372169277
 20
15.70458494661926
 30
0.0
 11
12.65604233061665
 21
15.70983429045128
 31
0.0
  0
LINE
  5
2B47
330
1E
100
AcDbEntity
  8
7
100
AcDbLine
 10
12.65604233061665
 20
15.71114662640929
 30
0.0
 11
12.53530742248017
 21
15.71114662640929
 31
0.0
  0
LINE
  5
2B52
330
1E
100
AcDbEntity
  8
7
100
AcDbLine
 10
12.50643603140406
 20
15.5654773350707
 30
0.0
 11
12.53530742248017
 21
15.56022799123868
 31
0.0
  0
LINE
  5
2B53
330
1E
100
AcDbEntity
  8
7
100
AcDbLine
 10
12.53530742248017
 20
15.56022799123868
 30
0.0
 11
12.65604233061665
 21
15.56022799123868
 31
0.0
  0
LINE
  5
2B54
330
1E
100
AcDbEntity
  8
7
100
AcDbLine
 10
12.91457251434369
 20
15.56810200698671
 30
0.0
 11
12.91457251434369
 21
15.51429623270849
 31
0.0
  0
LINE
  5
2B55
330
1E
100
AcDbEntity
  8
7
100
AcDbLine
 10
12.94081923350379
 20
15.56810200698671
 30
0.0
 11
12.91457251434369
 21
15.56810200698671
 31
0.0
  0
LINE
  5
2B56
330
1E
100
AcDbEntity
  8
7
100
AcDbLine
 10
12.94081923350379
 20
15.70327261066125
 30
0.0
 11
12.94081923350379
 21
15.56810200698671
 31
0.0
  0
LINE
  5
2B57
330
1E
100
AcDbEntity
  8
7
100
AcDbLine
 10
12.91457251434369
 20
15.70327261066125
 30
0.0
 11
12.94081923350379
 21
15.70327261066125
 31
0.0
  0
LINE
  5
2B58
330
1E
100
AcDbEntity
  8
7
100
AcDbLine
 10
12.91457251434369
 20
15.75707838493947
 30
0.0
 11
12.91457251434369
 21
15.70327261066125
 31
0.0
  0
LINE
  5
2B59
330
1E
100
AcDbEntity
  8
7
100
AcDbLine
 10
12.27677723875314
 20
15.75707838493947
 30
0.0
 11
12.91457251434369
 21
15.75707838493947
 31
0.0
  0
LINE
  5
2B5A
330
1E
100
AcDbEntity
  8
7
100
AcDbLine
 10
12.27677723875314
 20
15.70327261066125
 30
0.0
 11
12.27677723875314
 21
15.75707838493947
 31
0.0
  0
LINE
  5
2B5B
330
1E
100
AcDbEntity
  8
7
100
AcDbLine
 10
12.25053051959303
 20
15.70327261066125
 30
0.0
 11
12.27677723875314
 21
15.70327261066125
 31
0.0
  0
LINE
  5
2B5C
330
1E
100
AcDbEntity
  8
7
100
AcDbLine
 10
12.25053051959303
 20
15.56810200698671
 30
0.0
 11
12.25053051959303
 21
15.70327261066125
 31
0.0
  0
LINE
  5
2B5D
330
1E
100
AcDbEntity
  8
7
100
AcDbLine
 10
12.27677723875314
 20
15.56810200698671
 30
0.0
 11
12.25053051959303
 21
15.56810200698671
 31
0.0
  0
LINE
  5
2B5E
330
1E
100
AcDbEntity
  8
7
100
AcDbLine
 10
12.27677723875314
 20
15.51429623270849
 30
0.0
 11
12.27677723875314
 21
15.56810200698671
 31
0.0
  0
LINE
  5
2B5F
330
1E
100
AcDbEntity
  8
7
100
AcDbLine
 10
12.91457251434369
 20
15.51429623270849
 30
0.0
 11
12.27677723875314
 21
15.51429623270849
 31
0.0
  0
LINE
  5
2B60
330
1E
100
AcDbEntity
  8
7
100
AcDbLine
 10
12.65604233061665
 20
15.51823324058251
 30
0.0
 11
12.53530742248017
 21
15.51823324058251
 31
0.0
  0
LINE
  5
2B71
330
1E
100
AcDbEntity
  8
7
100
AcDbLine
 10
12.53530742248017
 20
15.75182904110745
 30
0.0
 11
12.65604233061665
 21
15.75182904110745
 31
0.0
  0
LINE
  5
2B82
330
1E
100
AcDbEntity
  8
7
100
AcDbLine
 10
12.24921818363503
 20
15.70589728257727
 30
0.0
 11
12.24921818363503
 21
15.70720961853527
 31
0.0
  0
LINE
  5
2B83
330
1E
100
AcDbEntity
  8
7
100
AcDbLine
 10
12.27415256683713
 20
15.70589728257727
 30
0.0
 11
12.24921818363503
 21
15.70589728257727
 31
0.0
  0
LINE
  5
2B84
330
1E
100
AcDbEntity
  8
7
100
AcDbLine
 10
12.27415256683713
 20
15.70589728257727
 30
0.0
 11
12.27284023087912
 21
15.70720961853527
 31
0.0
  0
LINE
  5
2B85
330
1E
100
AcDbEntity
  8
7
100
AcDbLine
 10
12.27415256683713
 20
15.75707838493947
 30
0.0
 11
12.27415256683713
 21
15.70589728257727
 31
0.0
  0
LINE
  5
2B86
330
1E
100
AcDbEntity
  8
7
100
AcDbLine
 10
12.27415256683713
 20
15.75707838493947
 30
0.0
 11
12.27284023087912
 21
15.75707838493947
 31
0.0
  0
LINE
  5
2B87
330
1E
100
AcDbEntity
  8
7
100
AcDbLine
 10
12.27415256683713
 20
15.51429623270849
 30
0.0
 11
12.27284023087912
 21
15.51298389675049
 31
0.0
  0
LINE
  5
2B88
330
1E
100
AcDbEntity
  8
7
100
AcDbLine
 10
12.27415256683713
 20
15.5654773350707
 30
0.0
 11
12.27415256683713
 21
15.51429623270849
 31
0.0
  0
LINE
  5
2B89
330
1E
100
AcDbEntity
  8
7
100
AcDbLine
 10
12.27415256683713
 20
15.5654773350707
 30
0.0
 11
12.27284023087912
 21
15.5641649991127
 31
0.0
  0
LINE
  5
2B8A
330
1E
100
AcDbEntity
  8
7
100
AcDbLine
 10
12.24921818363503
 20
15.5654773350707
 30
0.0
 11
12.27415256683713
 21
15.5654773350707
 31
0.0
  0
LINE
  5
2B8B
330
1E
100
AcDbEntity
  8
7
100
AcDbLine
 10
12.24921818363503
 20
15.5654773350707
 30
0.0
 11
12.24921818363503
 21
15.5641649991127
 31
0.0
  0
LINE
  5
2B8C
330
1E
100
AcDbEntity
  8
7
100
AcDbLine
 10
12.91588485030169
 20
15.5654773350707
 30
0.0
 11
12.9171971862597
 21
15.5641649991127
 31
0.0
  0
LINE
  5
2B8D
330
1E
100
AcDbEntity
  8
7
100
AcDbLine
 10
12.91588485030169
 20
15.51429623270849
 30
0.0
 11
12.91588485030169
 21
15.5654773350707
 31
0.0
  0
LINE
  5
2B8E
330
1E
100
AcDbEntity
  8
7
100
AcDbLine
 10
12.91588485030169
 20
15.51429623270849
 30
0.0
 11
12.9171971862597
 21
15.51298389675049
 31
0.0
  0
LINE
  5
2B8F
330
1E
100
AcDbEntity
  8
7
100
AcDbLine
 10
12.94081923350379
 20
15.5654773350707
 30
0.0
 11
12.9421315694618
 21
15.5641649991127
 31
0.0
  0
LINE
  5
2B90
330
1E
100
AcDbEntity
  8
7
100
AcDbLine
 10
12.91588485030169
 20
15.5654773350707
 30
0.0
 11
12.94081923350379
 21
15.5654773350707
 31
0.0
  0
LINE
  5
2B91
330
1E
100
AcDbEntity
  8
7
100
AcDbLine
 10
12.91588485030169
 20
15.75707838493947
 30
0.0
 11
12.9171971862597
 21
15.75707838493947
 31
0.0
  0
LINE
  5
2B92
330
1E
100
AcDbEntity
  8
7
100
AcDbLine
 10
12.91588485030169
 20
15.70589728257727
 30
0.0
 11
12.91588485030169
 21
15.75707838493947
 31
0.0
  0
LINE
  5
2B93
330
1E
100
AcDbEntity
  8
7
100
AcDbLine
 10
12.91588485030169
 20
15.70589728257727
 30
0.0
 11
12.9171971862597
 21
15.70720961853527
 31
0.0
  0
LINE
  5
2B94
330
1E
100
AcDbEntity
  8
7
100
AcDbLine
 10
12.94081923350379
 20
15.70589728257727
 30
0.0
 11
12.91588485030169
 21
15.70589728257727
 31
0.0
  0
LINE
  5
2B95
330
1E
100
AcDbEntity
  8
7
100
AcDbLine
 10
12.94081923350379
 20
15.70589728257727
 30
0.0
 11
12.9421315694618
 21
15.70720961853527
 31
0.0
  0
LINE
  5
2B96
330
1E
100
AcDbEntity
  8
7
100
AcDbLine
 10
12.53530742248017
 20
12.46967681013632
 30
0.0
 11
12.65604233061665
 21
12.46967681013632
 31
0.0
  0
LINE
  5
2BA4
330
1E
100
AcDbEntity
  8
7
100
AcDbLine
 10
12.65604233061665
 20
12.2400180174854
 30
0.0
 11
12.53530742248017
 21
12.2400180174854
 31
0.0
  0
LINE
  5
2BBD
330
1E
100
AcDbEntity
  8
7
100
AcDbLine
 10
12.53530742248017
 20
12.43030673139616
 30
0.0
 11
12.65604233061665
 21
12.43030673139616
 31
0.0
  0
LINE
  5
2BC9
330
1E
100
AcDbEntity
  8
7
100
AcDbLine
 10
12.65604233061665
 20
12.27807576026755
 30
0.0
 11
12.53530742248017
 21
12.27807576026755
 31
0.0
  0
LINE
  5
2BD5
330
1E
100
AcDbEntity
  8
7
100
AcDbLine
 10
12.65604233061665
 20
12.42899439543815
 30
0.0
 11
12.53530742248017
 21
12.42899439543815
 31
0.0
  0
LINE
  5
2BD6
330
1E
100
AcDbEntity
  8
7
100
AcDbLine
 10
12.53530742248017
 20
12.42899439543815
 30
0.0
 11
12.50643603140406
 21
12.42374505160614
 31
0.0
  0
LINE
  5
2BE1
330
1E
100
AcDbEntity
  8
7
100
AcDbLine
 10
12.53530742248017
 20
12.27938809622556
 30
0.0
 11
12.65604233061665
 21
12.27938809622556
 31
0.0
  0
LINE
  5
2C04
330
1E
100
AcDbEntity
  8
7
100
AcDbLine
 10
12.53530742248017
 20
12.47098914609432
 30
0.0
 11
12.65604233061665
 21
12.47098914609432
 31
0.0
  0
LINE
  5
2C05
330
1E
100
AcDbEntity
  8
7
100
AcDbLine
 10
12.65604233061665
 20
12.23870568152739
 30
0.0
 11
12.6914754014828
 21
12.24395502535942
 31
0.0
  0
LINE
  5
2C12
330
1E
100
AcDbEntity
  8
7
100
AcDbLine
 10
12.65604233061665
 20
12.23739334556939
 30
0.0
 11
12.53530742248017
 21
12.23739334556939
 31
0.0
  0
LINE
  5
2C13
330
1E
100
AcDbEntity
  8
7
100
AcDbLine
 10
12.27415256683713
 20
12.47623848992635
 30
0.0
 11
12.27415256683713
 21
12.42505738756414
 31
0.0
  0
LINE
  5
2C14
330
1E
100
AcDbEntity
  8
7
100
AcDbLine
 10
12.27415256683713
 20
12.47623848992635
 30
0.0
 11
12.27284023087912
 21
12.47623848992635
 31
0.0
  0
LINE
  5
2C15
330
1E
100
AcDbEntity
  8
7
100
AcDbLine
 10
12.27415256683713
 20
12.42505738756414
 30
0.0
 11
12.27284023087912
 21
12.42505738756414
 31
0.0
  0
LINE
  5
2C16
330
1E
100
AcDbEntity
  8
7
100
AcDbLine
 10
12.27415256683713
 20
12.42505738756414
 30
0.0
 11
12.24921818363503
 21
12.42505738756414
 31
0.0
  0
LINE
  5
2C17
330
1E
100
AcDbEntity
  8
7
100
AcDbLine
 10
12.91588485030169
 20
12.42505738756414
 30
0.0
 11
12.91588485030169
 21
12.47623848992635
 31
0.0
  0
LINE
  5
2C18
330
1E
100
AcDbEntity
  8
7
100
AcDbLine
 10
12.91588485030169
 20
12.42505738756414
 30
0.0
 11
12.9171971862597
 21
12.42505738756414
 31
0.0
  0
LINE
  5
2C19
330
1E
100
AcDbEntity
  8
7
100
AcDbLine
 10
12.91588485030169
 20
12.47623848992635
 30
0.0
 11
12.9171971862597
 21
12.47623848992635
 31
0.0
  0
LINE
  5
2C1A
330
1E
100
AcDbEntity
  8
7
100
AcDbLine
 10
12.94081923350379
 20
12.42505738756414
 30
0.0
 11
12.91588485030169
 21
12.42505738756414
 31
0.0
  0
LINE
  5
2C1B
330
1E
100
AcDbEntity
  8
7
100
AcDbLine
 10
12.94081923350379
 20
12.42505738756414
 30
0.0
 11
12.9421315694618
 21
12.42505738756414
 31
0.0
  0
LINE
  5
2C1C
330
1E
100
AcDbEntity
  8
7
100
AcDbLine
 10
12.24921818363503
 20
12.28463744005758
 30
0.0
 11
12.27415256683713
 21
12.28463744005758
 31
0.0
  0
LINE
  5
2C1D
330
1E
100
AcDbEntity
  8
7
100
AcDbLine
 10
12.24921818363503
 20
12.28463744005758
 30
0.0
 11
12.24921818363503
 21
12.28332510409957
 31
0.0
  0
LINE
  5
2C1E
330
1E
100
AcDbEntity
  8
7
100
AcDbLine
 10
12.27415256683713
 20
12.28463744005758
 30
0.0
 11
12.27284023087912
 21
12.28332510409957
 31
0.0
  0
LINE
  5
2C2A
330
1E
100
AcDbEntity
  8
7
100
AcDbLine
 10
13.94081923350379
 20
11.74526736131742
 30
0.0
 11
11.25053051959303
 21
11.74526736131742
 31
0.0
  0
LINE
  5
2C2B
330
1E
100
AcDbEntity
  8
7
100
AcDbLine
 10
13.97100296053792
 20
11.77545108835154
 30
0.0
 11
13.97100296053792
 21
16.2150836342833
 31
0.0
  0
LINE
  5
2C31
330
1E
100
AcDbEntity
  8
7
100
AcDbLine
 10
13.95525492904185
 20
11.74920436919144
 30
0.0
 11
13.94081923350379
 21
11.74526736131742
 31
0.0
  0
LINE
  5
2C3C
330
1E
100
AcDbEntity
  8
7
100
AcDbLine
 10
13.94081923350379
 20
16.24526736131742
 30
0.0
 11
11.25053051959303
 21
16.24526736131742
 31
0.0
  0
LINE
  5
2C3D
330
1E
100
AcDbEntity
  8
7
100
AcDbLine
 10
13.94081923350379
 20
16.24526736131742
 30
0.0
 11
13.95525492904185
 21
16.24133035344341
 31
0.0
  0
LINE
  5
2C8C
330
1E
100
AcDbEntity
  8
7
100
AcDbLine
 10
13.97100296053792
 20
16.2150836342833
 30
0.0
 11
13.94869324925182
 21
16.19408625895522
 31
0.0
  0
LINE
  5
2CB8
330
1E
100
AcDbEntity
  8
7
100
AcDbLine
 10
12.27677723875314
 20
12.47492615396834
 30
0.0
 11
12.27415256683713
 21
12.47623848992635
 31
0.0
  0
LINE
  5
2CB9
330
1E
100
AcDbEntity
  8
7
100
AcDbLine
 10
12.91457251434369
 20
12.47492615396834
 30
0.0
 11
12.91588485030169
 21
12.47623848992635
 31
0.0
  0
LINE
  5
2CBA
330
1E
100
AcDbEntity
  8
7
100
AcDbLine
 10
12.25053051959303
 20
12.28726211197359
 30
0.0
 11
12.24921818363503
 21
12.28463744005758
 31
0.0
  0
LINE
  5
2CBB
330
1E
100
AcDbEntity
  8
7
100
AcDbLine
 10
12.25053051959303
 20
12.42243271564813
 30
0.0
 11
12.24921818363503
 21
12.42505738756414
 31
0.0
  0
LINE
  5
2CBC
330
1E
100
AcDbEntity
  8
7
100
AcDbLine
 10
12.91457251434369
 20
12.23345633769538
 30
0.0
 11
12.91588485030169
 21
12.23214400173737
 31
0.0
  0
LINE
  5
2CBD
330
1E
100
AcDbEntity
  8
7
100
AcDbLine
 10
12.27677723875314
 20
12.23345633769538
 30
0.0
 11
12.27415256683713
 21
12.23214400173737
 31
0.0
  0
LINE
  5
2CBE
330
1E
100
AcDbEntity
  8
7
100
AcDbLine
 10
12.91588485030169
 20
12.23214400173737
 30
0.0
 11
12.9171971862597
 21
12.23214400173737
 31
0.0
  0
LINE
  5
2CBF
330
1E
100
AcDbEntity
  8
7
100
AcDbLine
 10
12.91588485030169
 20
12.28463744005758
 30
0.0
 11
12.9171971862597
 21
12.28332510409957
 31
0.0
  0
LINE
  5
2CC0
330
1E
100
AcDbEntity
  8
7
100
AcDbLine
 10
12.91588485030169
 20
12.28463744005758
 30
0.0
 11
12.91588485030169
 21
12.23214400173737
 31
0.0
  0
LINE
  5
2CC1
330
1E
100
AcDbEntity
  8
7
100
AcDbLine
 10
12.94081923350379
 20
12.28463744005758
 30
0.0
 11
12.9421315694618
 21
12.28332510409957
 31
0.0
  0
LINE
  5
2CC2
330
1E
100
AcDbEntity
  8
7
100
AcDbLine
 10
12.94081923350379
 20
12.28463744005758
 30
0.0
 11
12.91588485030169
 21
12.28463744005758
 31
0.0
  0
LINE
  5
2CC3
330
1E
100
AcDbEntity
  8
7
100
AcDbLine
 10
12.94081923350379
 20
12.42243271564813
 30
0.0
 11
12.94081923350379
 21
12.42505738756414
 31
0.0
  0
LINE
  5
2CC4
330
1E
100
AcDbEntity
  8
7
100
AcDbLine
 10
12.94081923350379
 20
12.28726211197359
 30
0.0
 11
12.94081923350379
 21
12.28463744005758
 31
0.0
  0
LINE
  5
2CC5
330
1E
100
AcDbEntity
  8
7
100
AcDbLine
 10
12.65604233061665
 20
12.46967681013632
 30
0.0
 11
12.65604233061665
 21
12.47098914609432
 31
0.0
  0
LINE
  5
2CC6
330
1E
100
AcDbEntity
  8
7
100
AcDbLine
 10
12.53530742248017
 20
12.46967681013632
 30
0.0
 11
12.53530742248017
 21
12.47098914609432
 31
0.0
  0
LINE
  5
2CC7
330
1E
100
AcDbEntity
  8
7
100
AcDbLine
 10
12.65604233061665
 20
12.2400180174854
 30
0.0
 11
12.65604233061665
 21
12.23739334556939
 31
0.0
  0
LINE
  5
2CC8
330
1E
100
AcDbEntity
  8
7
100
AcDbLine
 10
12.53530742248017
 20
12.2400180174854
 30
0.0
 11
12.53530742248017
 21
12.23739334556939
 31
0.0
  0
LINE
  5
2CC9
330
1E
100
AcDbEntity
  8
7
100
AcDbLine
 10
12.65604233061665
 20
12.42899439543815
 30
0.0
 11
12.65604233061665
 21
12.43030673139616
 31
0.0
  0
LINE
  5
2CCA
330
1E
100
AcDbEntity
  8
7
100
AcDbLine
 10
12.53530742248017
 20
12.42899439543815
 30
0.0
 11
12.53530742248017
 21
12.43030673139616
 31
0.0
  0
LINE
  5
2CCB
330
1E
100
AcDbEntity
  8
7
100
AcDbLine
 10
12.65604233061665
 20
12.27938809622556
 30
0.0
 11
12.65604233061665
 21
12.27807576026755
 31
0.0
  0
LINE
  5
2CCC
330
1E
100
AcDbEntity
  8
7
100
AcDbLine
 10
12.53530742248017
 20
12.27938809622556
 30
0.0
 11
12.53530742248017
 21
12.27807576026755
 31
0.0
  0
LINE
  5
2CCD
330
1E
100
AcDbEntity
  8
7
100
AcDbLine
 10
12.27677723875314
 20
15.51429623270849
 30
0.0
 11
12.27415256683713
 21
15.51429623270849
 31
0.0
  0
LINE
  5
2CCE
330
1E
100
AcDbEntity
  8
7
100
AcDbLine
 10
12.91457251434369
 20
15.51429623270849
 30
0.0
 11
12.91588485030169
 21
15.51429623270849
 31
0.0
  0
LINE
  5
2CCF
330
1E
100
AcDbEntity
  8
7
100
AcDbLine
 10
12.25053051959303
 20
15.70327261066125
 30
0.0
 11
12.24921818363503
 21
15.70589728257727
 31
0.0
  0
LINE
  5
2CD0
330
1E
100
AcDbEntity
  8
7
100
AcDbLine
 10
12.25053051959303
 20
15.56810200698671
 30
0.0
 11
12.24921818363503
 21
15.5654773350707
 31
0.0
  0
LINE
  5
2CD1
330
1E
100
AcDbEntity
  8
7
100
AcDbLine
 10
12.91457251434369
 20
15.75707838493947
 30
0.0
 11
12.91588485030169
 21
15.75707838493947
 31
0.0
  0
LINE
  5
2CD2
330
1E
100
AcDbEntity
  8
7
100
AcDbLine
 10
12.27677723875314
 20
15.75707838493947
 30
0.0
 11
12.27415256683713
 21
15.75707838493947
 31
0.0
  0
LINE
  5
2CD3
330
1E
100
AcDbEntity
  8
7
100
AcDbLine
 10
12.94081923350379
 20
15.56810200698671
 30
0.0
 11
12.94081923350379
 21
15.5654773350707
 31
0.0
  0
LINE
  5
2CD4
330
1E
100
AcDbEntity
  8
7
100
AcDbLine
 10
12.94081923350379
 20
15.70327261066125
 30
0.0
 11
12.94081923350379
 21
15.70589728257727
 31
0.0
  0
LINE
  5
2CD5
330
1E
100
AcDbEntity
  8
7
100
AcDbLine
 10
12.53530742248017
 20
15.52085791249852
 30
0.0
 11
12.53530742248017
 21
15.51823324058251
 31
0.0
  0
LINE
  5
2CD6
330
1E
100
AcDbEntity
  8
7
100
AcDbLine
 10
12.65604233061665
 20
15.52085791249852
 30
0.0
 11
12.65604233061665
 21
15.51823324058251
 31
0.0
  0
LINE
  5
2CD7
330
1E
100
AcDbEntity
  8
7
100
AcDbLine
 10
12.53530742248017
 20
15.75051670514944
 30
0.0
 11
12.53530742248017
 21
15.75182904110745
 31
0.0
  0
LINE
  5
2CD8
330
1E
100
AcDbEntity
  8
7
100
AcDbLine
 10
12.65604233061665
 20
15.75051670514944
 30
0.0
 11
12.65604233061665
 21
15.75182904110745
 31
0.0
  0
LINE
  5
2CD9
330
1E
100
AcDbEntity
  8
7
100
AcDbLine
 10
11.93163288179776
 20
13.62059544530692
 30
0.0
 11
11.93163288179776
 21
13.50510988100246
 31
0.0
  0
LINE
  5
2CDA
330
1E
100
AcDbEntity
  8
7
100
AcDbLine
 10
13.23478248809697
 20
13.66259019596309
 30
0.0
 11
11.95656726499986
 21
13.66259019596309
 31
0.0
  0
LINE
  5
2CDB
330
1E
100
AcDbEntity
  8
7
100
AcDbLine
 10
13.25971687129907
 20
13.50510988100246
 30
0.0
 11
13.25971687129907
 21
13.62059544530692
 31
0.0
  0
LINE
  5
2CDC
330
1E
100
AcDbEntity
  8
7
100
AcDbLine
 10
11.95656726499986
 20
13.46311513034629
 30
0.0
 11
13.23478248809697
 21
13.46311513034629
 31
0.0
  0
LINE
  5
2CED
330
1E
100
AcDbEntity
  8
7
100
AcDbLine
 10
13.15866700253267
 20
12.71245896236729
 30
0.0
 11
13.15866700253267
 21
12.66652720383711
 31
0.0
  0
LINE
  5
2CEE
330
1E
100
AcDbEntity
  8
7
100
AcDbLine
 10
13.01955939098411
 20
12.88568730882398
 30
0.0
 11
13.03793209439618
 21
12.66783953979511
 31
0.0
  0
LINE
  5
2CF4
330
1E
100
AcDbEntity
  8
7
100
AcDbLine
 10
12.6678533542387
 20
12.71245896236729
 30
0.0
 11
12.6678533542387
 21
12.66652720383711
 31
0.0
  0
LINE
  5
2CF5
330
1E
100
AcDbEntity
  8
7
100
AcDbLine
 10
12.52349639885812
 20
12.71245896236729
 30
0.0
 11
12.52349639885812
 21
12.66652720383711
 31
0.0
  0
LINE
  5
2CF6
330
1E
100
AcDbEntity
  8
7
100
AcDbLine
 10
12.38438878730957
 20
12.88568730882398
 30
0.0
 11
12.40276149072164
 21
12.66783953979511
 31
0.0
  0
LINE
  5
2CFC
330
1E
100
AcDbEntity
  8
7
100
AcDbLine
 10
12.03268275056416
 20
12.71245896236729
 30
0.0
 11
12.03268275056416
 21
12.66652720383711
 31
0.0
  0
LINE
  5
2D12
330
1E
100
AcDbEntity
  8
7
100
AcDbLine
 10
12.17047802615471
 20
12.94605476289222
 30
0.0
 11
12.17047802615471
 21
12.94474242693422
 31
0.0
  0
LINE
  5
2D13
330
1E
100
AcDbEntity
  8
7
100
AcDbLine
 10
12.17047802615471
 20
12.94605476289222
 30
0.0
 11
12.17047802615471
 21
12.95392877864026
 31
0.0
  0
LINE
  5
2D14
330
1E
100
AcDbEntity
  8
7
100
AcDbLine
 10
12.17179036211272
 20
12.96967681013632
 30
0.0
 11
12.17047802615471
 21
12.95392877864026
 31
0.0
  0
LINE
  5
2D1A
330
1E
100
AcDbEntity
  8
7
100
AcDbLine
 10
12.17179036211272
 20
12.91980804373212
 30
0.0
 11
12.17179036211272
 21
12.90537234819406
 31
0.0
  0
LINE
  5
2D21
330
1E
100
AcDbEntity
  8
7
100
AcDbLine
 10
12.38438878730957
 20
12.96967681013632
 30
0.0
 11
12.17179036211272
 21
12.96967681013632
 31
0.0
  0
LINE
  5
2D22
330
1E
100
AcDbEntity
  8
7
100
AcDbLine
 10
12.17047802615471
 20
12.95392877864026
 30
0.0
 11
12.38570112326757
 21
12.95392877864026
 31
0.0
  0
LINE
  5
2D23
330
1E
100
AcDbEntity
  8
7
100
AcDbLine
 10
12.38570112326757
 20
12.94605476289222
 30
0.0
 11
12.17047802615471
 21
12.94605476289222
 31
0.0
  0
LINE
  5
2D24
330
1E
100
AcDbEntity
  8
7
100
AcDbLine
 10
12.17047802615471
 20
12.94474242693422
 30
0.0
 11
12.38570112326757
 21
12.94474242693422
 31
0.0
  0
LINE
  5
2D25
330
1E
100
AcDbEntity
  8
7
100
AcDbLine
 10
12.38570112326757
 20
12.94211775501821
 30
0.0
 11
12.17047802615471
 21
12.94211775501821
 31
0.0
  0
LINE
  5
2D26
330
1E
100
AcDbEntity
  8
7
100
AcDbLine
 10
12.38438878730957
 20
12.91980804373212
 30
0.0
 11
12.17179036211272
 21
12.91980804373212
 31
0.0
  0
LINE
  5
2D27
330
1E
100
AcDbEntity
  8
7
100
AcDbLine
 10
12.17179036211272
 20
12.90537234819406
 30
0.0
 11
12.38438878730957
 21
12.90537234819406
 31
0.0
  0
LINE
  5
2D3A
330
1E
100
AcDbEntity
  8
7
100
AcDbLine
 10
12.80433629387125
 20
12.94605476289222
 30
0.0
 11
12.80433629387125
 21
12.94474242693422
 31
0.0
  0
LINE
  5
2D3B
330
1E
100
AcDbEntity
  8
7
100
AcDbLine
 10
12.80433629387125
 20
12.94605476289222
 30
0.0
 11
12.80564862982925
 21
12.95392877864026
 31
0.0
  0
LINE
  5
2D3C
330
1E
100
AcDbEntity
  8
7
100
AcDbLine
 10
12.80696096578726
 20
12.96967681013632
 30
0.0
 11
12.80564862982925
 21
12.95392877864026
 31
0.0
  0
LINE
  5
2D42
330
1E
100
AcDbEntity
  8
7
100
AcDbLine
 10
12.80696096578726
 20
12.91980804373212
 30
0.0
 11
12.80696096578726
 21
12.90537234819406
 31
0.0
  0
LINE
  5
2D49
330
1E
100
AcDbEntity
  8
7
100
AcDbLine
 10
13.01955939098411
 20
12.96967681013632
 30
0.0
 11
12.80696096578726
 21
12.96967681013632
 31
0.0
  0
LINE
  5
2D4A
330
1E
100
AcDbEntity
  8
7
100
AcDbLine
 10
12.80564862982925
 20
12.95392877864026
 30
0.0
 11
13.02087172694211
 21
12.95392877864026
 31
0.0
  0
LINE
  5
2D4B
330
1E
100
AcDbEntity
  8
7
100
AcDbLine
 10
13.02087172694211
 20
12.94605476289222
 30
0.0
 11
12.80433629387125
 21
12.94605476289222
 31
0.0
  0
LINE
  5
2D4C
330
1E
100
AcDbEntity
  8
7
100
AcDbLine
 10
12.80433629387125
 20
12.94474242693422
 30
0.0
 11
13.02087172694211
 21
12.94474242693422
 31
0.0
  0
LINE
  5
2D4D
330
1E
100
AcDbEntity
  8
7
100
AcDbLine
 10
13.02087172694211
 20
12.94211775501821
 30
0.0
 11
12.80564862982925
 21
12.94211775501821
 31
0.0
  0
LINE
  5
2D4E
330
1E
100
AcDbEntity
  8
7
100
AcDbLine
 10
13.01955939098411
 20
12.91980804373212
 30
0.0
 11
12.80696096578726
 21
12.91980804373212
 31
0.0
  0
LINE
  5
2D4F
330
1E
100
AcDbEntity
  8
7
100
AcDbLine
 10
12.80696096578726
 20
12.90537234819406
 30
0.0
 11
13.01955939098411
 21
12.90537234819406
 31
0.0
  0
LINE
  5
2D50
330
1E
100
AcDbEntity
  8
7
100
AcDbLine
 10
12.36601608389749
 20
13.23083166577937
 30
0.0
 11
12.19016306552479
 21
13.23083166577937
 31
0.0
  0
LINE
  5
2D56
330
1E
100
AcDbEntity
  8
7
100
AcDbLine
 10
12.99987435161403
 20
13.23083166577937
 30
0.0
 11
12.82533366919933
 21
13.23083166577937
 31
0.0
  0
LINE
  5
2D57
330
1E
100
AcDbEntity
  8
7
100
AcDbLine
 10
12.99987435161403
 20
13.2636400647295
 30
0.0
 11
12.82533366919933
 21
13.2636400647295
 31
0.0
  0
LINE
  5
2D58
330
1E
100
AcDbEntity
  8
7
100
AcDbLine
 10
12.82533366919933
 20
13.2636400647295
 30
0.0
 11
12.82533366919933
 21
13.23083166577937
 31
0.0
  0
LINE
  5
2D59
330
1E
100
AcDbEntity
  8
7
100
AcDbLine
 10
12.17179036211272
 20
13.26757707260351
 30
0.0
 11
12.17572736998673
 21
13.2636400647295
 31
0.0
  0
LINE
  5
2D5A
330
1E
100
AcDbEntity
  8
7
100
AcDbLine
 10
12.38438878730957
 20
13.26757707260351
 30
0.0
 11
12.38045177943555
 21
13.2636400647295
 31
0.0
  0
LINE
  5
2D5B
330
1E
100
AcDbEntity
  8
7
100
AcDbLine
 10
12.80696096578726
 20
13.26757707260351
 30
0.0
 11
12.81089797366127
 21
13.2636400647295
 31
0.0
  0
LINE
  5
2D5C
330
1E
100
AcDbEntity
  8
7
100
AcDbLine
 10
13.0182470550261
 20
13.26757707260351
 30
0.0
 11
13.01562238311009
 21
13.2636400647295
 31
0.0
  0
LINE
  5
2D5D
330
1E
100
AcDbEntity
  8
7
100
AcDbLine
 10
13.25840453534106
 20
13.58122536656677
 30
0.0
 11
13.25840453534106
 21
13.60878442168488
 31
0.0
  0
LINE
  5
2D5E
330
1E
100
AcDbEntity
  8
7
100
AcDbLine
 10
11.95919193691586
 20
13.62584478913895
 30
0.0
 11
11.95656726499986
 21
13.65077917234104
 31
0.0
  0
LINE
  5
2D5F
330
1E
100
AcDbEntity
  8
7
100
AcDbLine
 10
13.23215781618096
 20
13.62584478913895
 30
0.0
 11
13.23347015213896
 21
13.65077917234104
 31
0.0
  0
LINE
  5
2D60
330
1E
100
AcDbEntity
  8
7
100
AcDbLine
 10
11.93294521775576
 20
13.58122536656677
 30
0.0
 11
11.93163288179776
 21
13.60878442168488
 31
0.0
  0
LINE
  5
2D8F
330
1E
100
AcDbEntity
  8
7
100
AcDbLine
 10
13.38438878730957
 20
13.32007051092372
 30
0.0
 11
13.3922628030576
 21
13.33581854241979
 31
0.0
  0
LINE
  5
2D97
330
1E
100
AcDbEntity
  8
7
100
AcDbLine
 10
12.6678533542387
 20
14.16783953979511
 30
0.0
 11
12.6678533542387
 21
14.12059544530692
 31
0.0
  0
LINE
  5
2D98
330
1E
100
AcDbEntity
  8
7
100
AcDbLine
 10
12.52349639885812
 20
14.16783953979511
 30
0.0
 11
12.6678533542387
 21
14.16783953979511
 31
0.0
  0
LINE
  5
2D99
330
1E
100
AcDbEntity
  8
7
100
AcDbLine
 10
12.52349639885812
 20
14.12059544530692
 30
0.0
 11
12.52349639885812
 21
14.16783953979511
 31
0.0
  0
LINE
  5
2DA4
330
1E
100
AcDbEntity
  8
7
100
AcDbLine
 10
12.03268275056416
 20
14.2150836342833
 30
0.0
 11
12.03268275056416
 21
14.16783953979511
 31
0.0
  0
LINE
  5
2DA5
330
1E
100
AcDbEntity
  8
7
100
AcDbLine
 10
12.38438878730957
 20
14.38699964478199
 30
0.0
 11
12.40276149072164
 21
14.16915187575312
 31
0.0
  0
LINE
  5
2DAB
330
1E
100
AcDbEntity
  8
7
100
AcDbLine
 10
12.52349639885812
 20
14.2150836342833
 30
0.0
 11
12.52349639885812
 21
14.16783953979511
 31
0.0
  0
LINE
  5
2DAC
330
1E
100
AcDbEntity
  8
7
100
AcDbLine
 10
12.6678533542387
 20
14.2150836342833
 30
0.0
 11
12.6678533542387
 21
14.16783953979511
 31
0.0
  0
LINE
  5
2DAD
330
1E
100
AcDbEntity
  8
7
100
AcDbLine
 10
13.01955939098411
 20
14.38699964478199
 30
0.0
 11
13.03793209439618
 21
14.16915187575312
 31
0.0
  0
LINE
  5
2DB3
330
1E
100
AcDbEntity
  8
7
100
AcDbLine
 10
13.15866700253267
 20
14.2150836342833
 30
0.0
 11
13.15866700253267
 21
14.16783953979511
 31
0.0
  0
LINE
  5
2DB9
330
1E
100
AcDbEntity
  8
7
100
AcDbLine
 10
12.38438878730957
 20
14.42243271564813
 30
0.0
 11
12.38438878730957
 21
14.40668468415207
 31
0.0
  0
LINE
  5
2DBA
330
1E
100
AcDbEntity
  8
7
100
AcDbLine
 10
12.38438878730957
 20
14.42243271564813
 30
0.0
 11
12.17179036211272
 21
14.42243271564813
 31
0.0
  0
LINE
  5
2DC1
330
1E
100
AcDbEntity
  8
7
100
AcDbLine
 10
12.38438878730957
 20
14.47230148205233
 30
0.0
 11
12.38570112326757
 21
14.45524111459826
 31
0.0
  0
LINE
  5
2DC2
330
1E
100
AcDbEntity
  8
7
100
AcDbLine
 10
12.38570112326757
 20
14.44867943480824
 30
0.0
 11
12.38570112326757
 21
14.44605476289223
 31
0.0
  0
LINE
  5
2DD4
330
1E
100
AcDbEntity
  8
7
100
AcDbLine
 10
12.38570112326757
 20
14.45524111459826
 30
0.0
 11
12.38570112326757
 21
14.44867943480824
 31
0.0
  0
LINE
  5
2DD5
330
1E
100
AcDbEntity
  8
7
100
AcDbLine
 10
12.38570112326757
 20
14.44605476289223
 30
0.0
 11
12.38570112326757
 21
14.44343009097622
 31
0.0
  0
LINE
  5
2DDB
330
1E
100
AcDbEntity
  8
7
100
AcDbLine
 10
12.17047802615471
 20
14.44867943480824
 30
0.0
 11
12.17047802615471
 21
14.45524111459826
 31
0.0
  0
LINE
  5
2DE1
330
1E
100
AcDbEntity
  8
7
100
AcDbLine
 10
12.17047802615471
 20
14.44343009097622
 30
0.0
 11
12.17047802615471
 21
14.44605476289223
 31
0.0
  0
LINE
  5
2DE7
330
1E
100
AcDbEntity
  8
7
100
AcDbLine
 10
13.01955939098411
 20
14.42243271564813
 30
0.0
 11
13.01955939098411
 21
14.40668468415207
 31
0.0
  0
LINE
  5
2DE8
330
1E
100
AcDbEntity
  8
7
100
AcDbLine
 10
13.01955939098411
 20
14.42243271564813
 30
0.0
 11
12.80696096578726
 21
14.42243271564813
 31
0.0
  0
LINE
  5
2DEF
330
1E
100
AcDbEntity
  8
7
100
AcDbLine
 10
13.01955939098411
 20
14.47230148205233
 30
0.0
 11
13.02087172694211
 21
14.45524111459826
 31
0.0
  0
LINE
  5
2DF0
330
1E
100
AcDbEntity
  8
7
100
AcDbLine
 10
13.02087172694211
 20
14.44867943480824
 30
0.0
 11
13.02087172694211
 21
14.44605476289223
 31
0.0
  0
LINE
  5
2E02
330
1E
100
AcDbEntity
  8
7
100
AcDbLine
 10
13.02087172694211
 20
14.45524111459826
 30
0.0
 11
13.02087172694211
 21
14.44867943480824
 31
0.0
  0
LINE
  5
2E03
330
1E
100
AcDbEntity
  8
7
100
AcDbLine
 10
13.02087172694211
 20
14.44605476289223
 30
0.0
 11
13.02087172694211
 21
14.44343009097622
 31
0.0
  0
LINE
  5
2E09
330
1E
100
AcDbEntity
  8
7
100
AcDbLine
 10
12.80433629387125
 20
14.44867943480824
 30
0.0
 11
12.80564862982925
 21
14.45524111459826
 31
0.0
  0
LINE
  5
2E0F
330
1E
100
AcDbEntity
  8
7
100
AcDbLine
 10
12.80564862982925
 20
14.44343009097622
 30
0.0
 11
12.80433629387125
 21
14.44605476289223
 31
0.0
  0
LINE
  5
2E10
330
1E
100
AcDbEntity
  8
7
100
AcDbLine
 10
12.36601608389749
 20
14.73214400173737
 30
0.0
 11
12.19016306552479
 21
14.73214400173737
 31
0.0
  0
LINE
  5
2E11
330
1E
100
AcDbEntity
  8
7
100
AcDbLine
 10
12.36601608389749
 20
14.7662647366455
 30
0.0
 11
12.19016306552479
 21
14.7662647366455
 31
0.0
  0
LINE
  5
2E12
330
1E
100
AcDbEntity
  8
7
100
AcDbLine
 10
12.19016306552479
 20
14.73214400173737
 30
0.0
 11
12.19016306552479
 21
14.7662647366455
 31
0.0
  0
LINE
  5
2E13
330
1E
100
AcDbEntity
  8
7
100
AcDbLine
 10
12.99987435161403
 20
14.73214400173737
 30
0.0
 11
12.82533366919933
 21
14.73214400173737
 31
0.0
  0
LINE
  5
2E14
330
1E
100
AcDbEntity
  8
7
100
AcDbLine
 10
12.99987435161403
 20
14.7662647366455
 30
0.0
 11
12.82533366919933
 21
14.7662647366455
 31
0.0
  0
LINE
  5
2E15
330
1E
100
AcDbEntity
  8
7
100
AcDbLine
 10
12.82533366919933
 20
14.73214400173737
 30
0.0
 11
12.82533366919933
 21
14.7662647366455
 31
0.0
  0
LINE
  5
2E16
330
1E
100
AcDbEntity
  8
7
100
AcDbLine
 10
12.38438878730957
 20
14.76888940856152
 30
0.0
 11
12.38045177943555
 21
14.7662647366455
 31
0.0
  0
LINE
  5
2E17
330
1E
100
AcDbEntity
  8
7
100
AcDbLine
 10
12.17179036211272
 20
14.76888940856152
 30
0.0
 11
12.17572736998673
 21
14.7662647366455
 31
0.0
  0
LINE
  5
2E18
330
1E
100
AcDbEntity
  8
7
100
AcDbLine
 10
13.0182470550261
 20
14.76888940856152
 30
0.0
 11
13.01562238311009
 21
14.7662647366455
 31
0.0
  0
LINE
  5
2E19
330
1E
100
AcDbEntity
  8
7
100
AcDbLine
 10
12.80696096578726
 20
14.76888940856152
 30
0.0
 11
12.81089797366127
 21
14.7662647366455
 31
0.0
  0
LINE
  5
2E1F
330
1E
100
AcDbEntity
  8
7
100
AcDbLine
 10
11.95656726499986
 20
15.11140909360089
 30
0.0
 11
11.93163288179776
 21
15.11140909360089
 31
0.0
  0
LINE
  5
2E20
330
1E
100
AcDbEntity
  8
7
100
AcDbLine
 10
11.95656726499986
 20
15.11140909360089
 30
0.0
 11
11.95656726499986
 21
15.12322011722293
 31
0.0
  0
LINE
  5
2E21
330
1E
100
AcDbEntity
  8
7
100
AcDbLine
 10
11.95656726499986
 20
15.15340384425705
 30
0.0
 11
11.95656726499986
 21
15.11140909360089
 31
0.0
  0
LINE
  5
2E22
330
1E
100
AcDbEntity
  8
7
100
AcDbLine
 10
11.95656726499986
 20
15.15340384425705
 30
0.0
 11
11.95656726499986
 21
15.1652148678791
 31
0.0
  0
LINE
  5
2E23
330
1E
100
AcDbEntity
  8
7
100
AcDbLine
 10
13.23215781618096
 20
15.12715712509695
 30
0.0
 11
13.23347015213896
 21
15.15340384425705
 31
0.0
  0
LINE
  5
2E24
330
1E
100
AcDbEntity
  8
7
100
AcDbLine
 10
11.95919193691586
 20
15.12715712509695
 30
0.0
 11
11.95656726499986
 21
15.15340384425705
 31
0.0
  0
LINE
  5
2E25
330
1E
100
AcDbEntity
  8
7
100
AcDbLine
 10
13.25840453534106
 20
15.08385003848277
 30
0.0
 11
13.25840453534106
 21
15.11140909360089
 31
0.0
  0
LINE
  5
2E2C
330
1E
100
AcDbEntity
  8
7
100
AcDbLine
 10
12.25709219938306
 20
15.03266893612057
 30
0.0
 11
12.243968839803
 21
15.01692090462451
 31
0.0
  0
LINE
  5
2E3A
330
1E
100
AcDbEntity
  8
7
100
AcDbLine
 10
11.88832579518358
 20
14.889624316698
 30
0.0
 11
11.88832579518358
 21
14.85944058966388
 31
0.0
  0
LINE
  5
2E70
330
1E
100
AcDbEntity
  8
7
100
AcDbLine
 10
13.9185095222177
 20
16.22426998598933
 30
0.0
 11
13.9185095222177
 21
16.2163959702413
 31
0.0
  0
LINE
  5
2E71
330
1E
100
AcDbEntity
  8
7
100
AcDbLine
 10
13.9185095222177
 20
16.2163959702413
 30
0.0
 11
13.9185095222177
 21
16.20064793874524
 31
0.0
  0
LINE
  5
2E95
330
1E
100
AcDbEntity
  8
7
100
AcDbLine
 10
13.09829954846442
 20
12.26232772877149
 30
0.0
 11
13.08648852484237
 21
12.26232772877149
 31
0.0
  0
LINE
  5
2E96
330
1E
100
AcDbEntity
  8
7
100
AcDbLine
 10
13.08648852484237
 20
12.30169780751165
 30
0.0
 11
13.08648852484237
 21
12.26232772877149
 31
0.0
  0
LINE
  5
2E97
330
1E
100
AcDbEntity
  8
7
100
AcDbLine
 10
13.09829954846442
 20
12.30169780751165
 30
0.0
 11
13.08648852484237
 21
12.30169780751165
 31
0.0
  0
LINE
  5
2E9D
330
1E
100
AcDbEntity
  8
7
100
AcDbLine
 10
13.10354889229644
 20
12.29644846367963
 30
0.0
 11
13.10354889229644
 21
12.26757707260351
 31
0.0
  0
LINE
  5
2E9E
330
1E
100
AcDbEntity
  8
7
100
AcDbLine
 10
13.09829954846442
 20
12.26232772877149
 30
0.0
 11
13.10223655633844
 21
12.26364006472949
 31
0.0
  0
LINE
  5
2E9F
330
1E
100
AcDbEntity
  8
7
100
AcDbLine
 10
13.10223655633844
 20
12.26364006472949
 30
0.0
 11
13.10354889229644
 21
12.26757707260351
 31
0.0
  0
LINE
  5
2EA0
330
1E
100
AcDbEntity
  8
7
100
AcDbLine
 10
13.16260401040668
 20
12.26364006472949
 30
0.0
 11
13.17310269807072
 21
12.2400180174854
 31
0.0
  0
LINE
  5
2EA1
330
1E
100
AcDbEntity
  8
7
100
AcDbLine
 10
13.15210532274264
 20
12.2400180174854
 30
0.0
 11
13.16260401040668
 21
12.26364006472949
 31
0.0
  0
LINE
  5
2EA2
330
1E
100
AcDbEntity
  8
7
100
AcDbLine
 10
13.17310269807072
 20
12.2400180174854
 30
0.0
 11
13.15210532274264
 21
12.2400180174854
 31
0.0
  0
LINE
  5
2EA3
330
1E
100
AcDbEntity
  8
7
100
AcDbLine
 10
13.17966437786075
 20
12.22033297811532
 30
0.0
 11
13.14554364295261
 21
12.22033297811532
 31
0.0
  0
LINE
  5
2EA4
330
1E
100
AcDbEntity
  8
7
100
AcDbLine
 10
13.18491372169277
 20
12.20852195449327
 30
0.0
 11
13.17966437786075
 21
12.22033297811532
 31
0.0
  0
LINE
  5
2EA5
330
1E
100
AcDbEntity
  8
7
100
AcDbLine
 10
13.18491372169277
 20
12.20852195449327
 30
0.0
 11
13.22428380043293
 21
12.20852195449327
 31
0.0
  0
LINE
  5
2EA6
330
1E
100
AcDbEntity
  8
7
100
AcDbLine
 10
13.22428380043293
 20
12.24526736131742
 30
0.0
 11
13.22428380043293
 21
12.20852195449327
 31
0.0
  0
LINE
  5
2EA7
330
1E
100
AcDbEntity
  8
7
100
AcDbLine
 10
13.24003183192899
 20
12.20852195449327
 30
0.0
 11
13.22428380043293
 21
12.24526736131742
 31
0.0
  0
LINE
  5
2EB2
330
1E
100
AcDbEntity
  8
7
100
AcDbLine
 10
13.17441503402873
 20
12.29513612772162
 30
0.0
 11
13.19934941723083
 21
12.23870568152739
 31
0.0
  0
LINE
  5
2EB3
330
1E
100
AcDbEntity
  8
7
100
AcDbLine
 10
13.17441503402873
 20
12.29513612772162
 30
0.0
 11
13.15210532274264
 21
12.29513612772162
 31
0.0
  0
LINE
  5
2EB9
330
1E
100
AcDbEntity
  8
7
100
AcDbLine
 10
13.03530742248017
 20
12.32138284688173
 30
0.0
 11
13.11404757996049
 21
12.32138284688173
 31
0.0
  0
LINE
  5
2EBA
330
1E
100
AcDbEntity
  8
7
100
AcDbLine
 10
13.03530742248017
 20
12.32138284688173
 30
0.0
 11
13.03530742248017
 21
12.20852195449327
 31
0.0
  0
LINE
  5
2EBB
330
1E
100
AcDbEntity
  8
7
100
AcDbLine
 10
13.08648852484237
 20
12.20852195449327
 30
0.0
 11
13.03530742248017
 21
12.20852195449327
 31
0.0
  0
LINE
  5
2EBC
330
1E
100
AcDbEntity
  8
7
100
AcDbLine
 10
13.08648852484237
 20
12.24395502535942
 30
0.0
 11
13.08648852484237
 21
12.20852195449327
 31
0.0
  0
LINE
  5
2EBD
330
1E
100
AcDbEntity
  8
7
100
AcDbLine
 10
13.08648852484237
 20
12.24395502535942
 30
0.0
 11
13.11404757996049
 21
12.24395502535942
 31
0.0
  0
LINE
  5
2EC3
330
1E
100
AcDbEntity
  8
7
100
AcDbLine
 10
13.1166722518765
 20
12.20852195449327
 30
0.0
 11
13.13110794741455
 21
12.24789203323343
 31
0.0
  0
LINE
  5
2EC4
330
1E
100
AcDbEntity
  8
7
100
AcDbLine
 10
13.14029429912059
 20
12.20852195449327
 30
0.0
 11
13.1166722518765
 21
12.20852195449327
 31
0.0
  0
LINE
  5
2EC5
330
1E
100
AcDbEntity
  8
7
100
AcDbLine
 10
13.14029429912059
 20
12.20852195449327
 30
0.0
 11
13.14554364295261
 21
12.22033297811532
 31
0.0
  0
LINE
  5
2EC6
330
1E
100
AcDbEntity
  8
7
100
AcDbLine
 10
13.35682973219146
 20
12.29513612772162
 30
0.0
 11
13.35682973219146
 21
12.22426998598934
 31
0.0
  0
LINE
  5
2ECC
330
1E
100
AcDbEntity
  8
7
100
AcDbLine
 10
13.40407382667964
 20
12.20852195449327
 30
0.0
 11
13.37257776368752
 21
12.20852195449327
 31
0.0
  0
LINE
  5
2EDD
330
1E
100
AcDbEntity
  8
7
100
AcDbLine
 10
13.39619981093161
 20
12.22820699386335
 30
0.0
 11
13.39095046709959
 21
12.22820699386335
 31
0.0
  0
LINE
  5
2EED
330
1E
100
AcDbEntity
  8
7
100
AcDbLine
 10
13.51562238311009
 20
12.27807576026755
 30
0.0
 11
13.51562238311009
 21
12.20852195449327
 31
0.0
  0
LINE
  5
2EF4
330
1E
100
AcDbEntity
  8
7
100
AcDbLine
 10
13.47100296053792
 20
12.27807576026755
 30
0.0
 11
13.47100296053792
 21
12.29513612772162
 31
0.0
  0
LINE
  5
2EF5
330
1E
100
AcDbEntity
  8
7
100
AcDbLine
 10
13.48937566394999
 20
12.27807576026755
 30
0.0
 11
13.47100296053792
 21
12.27807576026755
 31
0.0
  0
LINE
  5
2EFB
330
1E
100
AcDbEntity
  8
7
100
AcDbLine
 10
13.45656726499986
 20
12.29513612772162
 30
0.0
 11
13.45656726499986
 21
12.20852195449327
 31
0.0
  0
LINE
  5
2EFC
330
1E
100
AcDbEntity
  8
7
100
AcDbLine
 10
13.45656726499986
 20
12.29513612772162
 30
0.0
 11
13.43294521775576
 21
12.29513612772162
 31
0.0
  0
LINE
  5
2EFD
330
1E
100
AcDbEntity
  8
7
100
AcDbLine
 10
13.30564862982925
 20
12.27676342430955
 30
0.0
 11
13.30564862982925
 21
12.22820699386335
 31
0.0
  0
LINE
  5
2EFE
330
1E
100
AcDbEntity
  8
7
100
AcDbLine
 10
13.31483498153529
 20
12.27676342430955
 30
0.0
 11
13.30564862982925
 21
12.27676342430955
 31
0.0
  0
LINE
  5
2F04
330
1E
100
AcDbEntity
  8
7
100
AcDbLine
 10
13.31877198940931
 20
12.23214400173737
 30
0.0
 11
13.31877198940931
 21
12.27282641643554
 31
0.0
  0
LINE
  5
2F0A
330
1E
100
AcDbEntity
  8
7
100
AcDbLine
 10
13.31483498153529
 20
12.22820699386335
 30
0.0
 11
13.30564862982925
 21
12.22820699386335
 31
0.0
  0
LINE
  5
2F15
330
1E
100
AcDbEntity
  8
7
100
AcDbLine
 10
13.3437063726114
 20
12.22426998598934
 30
0.0
 11
13.3437063726114
 21
12.27938809622556
 31
0.0
  0
LINE
  5
2F1B
330
1E
100
AcDbEntity
  8
7
100
AcDbLine
 10
13.32795834111534
 20
12.29513612772162
 30
0.0
 11
13.27940191066915
 21
12.29513612772162
 31
0.0
  0
LINE
  5
2F1C
330
1E
100
AcDbEntity
  8
7
100
AcDbLine
 10
16.12979561145655
 20
14.889624316698
 30
0.0
 11
16.43032054583975
 21
15.31875817496572
 31
0.0
  0
LINE
  5
2F1D
330
1E
100
AcDbEntity
  8
7
100
AcDbLine
 10
16.35026805240143
 20
14.40406001223606
 30
0.0
 11
16.12585860358253
 21
14.79382379176362
 31
0.0
  0
LINE
  5
2F1E
330
1E
100
AcDbEntity
  8
7
100
AcDbLine
 10
16.41457251434369
 20
12.79119911984761
 30
0.0
 11
16.12585860358253
 21
13.2911991198476
 31
0.0
  0
LINE
  5
2F1F
330
1E
100
AcDbEntity
  8
7
100
AcDbLine
 10
16.92244653009172
 20
11.74526736131742
 30
0.0
 11
16.61535991591849
 21
11.76626473664551
 31
0.0
  0
LINE
  5
2F20
330
1E
100
AcDbEntity
  8
7
100
AcDbLine
 10
16.92244653009172
 20
11.77545108835154
 30
0.0
 11
16.92244653009172
 21
16.2150836342833
 31
0.0
  0
LINE
  5
2F2D
330
1E
100
AcDbEntity
  8
7
100
AcDbLine
 10
16.61535991591849
 20
16.22426998598933
 30
0.0
 11
16.92244653009172
 21
16.24526736131742
 31
0.0
  0
LINE
  5
2F5B
330
1E
100
AcDbEntity
  8
7
100
AcDbLine
 10
16.12979561145655
 20
13.38831198073999
 30
0.0
 11
16.34633104452742
 21
13.69671093087123
 31
0.0
  0
LINE
  5
2F61
330
1E
100
AcDbEntity
  8
7
100
AcDbLine
 10
16.94869324925182
 20
12.88568730882398
 30
0.0
 11
16.92244653009172
 21
12.86862694136991
 31
0.0
  0
LINE
  5
2F62
330
1E
100
AcDbEntity
  8
7
100
AcDbLine
 10
16.95394259308384
 20
12.96967681013632
 30
0.0
 11
16.92244653009172
 21
12.95524111459826
 31
0.0
  0
LINE
  5
2F63
330
1E
100
AcDbEntity
  8
7
100
AcDbLine
 10
16.94606857733581
 20
12.91980804373212
 30
0.0
 11
16.92244653009172
 21
12.94080541906021
 31
0.0
  0
LINE
  5
2F95
330
1E
100
AcDbEntity
  8
7
100
AcDbLine
 10
16.94869324925182
 20
14.38699964478199
 30
0.0
 11
16.92244653009172
 21
14.37125161328593
 31
0.0
  0
LINE
  5
2F96
330
1E
100
AcDbEntity
  8
7
100
AcDbLine
 10
16.94606857733581
 20
14.42243271564813
 30
0.0
 11
16.95394259308384
 21
14.40668468415207
 31
0.0
  0
LINE
  5
2F97
330
1E
100
AcDbEntity
  8
7
100
AcDbLine
 10
16.92244653009172
 20
14.27938809622556
 30
0.0
 11
17.10092422038044
 21
14.39881066840404
 31
0.0
  0
LINE
  5
2F98
330
1E
100
AcDbEntity
  8
7
100
AcDbLine
 10
17.1166722518765
 20
14.40406001223606
 30
0.0
 11
17.18885072956678
 21
14.40799702011007
 31
0.0
  0
LINE
  5
2F99
330
1E
100
AcDbEntity
  8
7
100
AcDbLine
 10
17.20328642510484
 20
14.42374505160614
 30
0.0
 11
17.20328642510484
 21
14.44474242693422
 31
0.0
  0
LINE
  5
2F9A
330
1E
100
AcDbEntity
  8
7
100
AcDbLine
 10
17.18885072956678
 20
14.46049045843028
 30
0.0
 11
16.95394259308384
 21
14.47230148205233
 31
0.0
  0
LINE
  5
2F9B
330
1E
100
AcDbEntity
  8
7
100
AcDbLine
 10
16.95394259308384
 20
14.47230148205233
 30
0.0
 11
16.92244653009172
 21
14.45786578651427
 31
0.0
  0
LINE
  5
2F9C
330
1E
100
AcDbEntity
  8
7
100
AcDbLine
 10
16.94606857733581
 20
14.42243271564813
 30
0.0
 11
16.92244653009172
 21
14.44211775501821
 31
0.0
  0
LINE
  5
2FA2
330
1E
100
AcDbEntity
  8
7
100
AcDbLine
 10
17.10092422038044
 20
14.39881066840404
 30
0.0
 11
17.1166722518765
 21
14.40406001223606
 31
0.0
  0
LINE
  5
2FA8
330
1E
100
AcDbEntity
  8
7
100
AcDbLine
 10
17.20328642510484
 20
14.44474242693422
 30
0.0
 11
17.19934941723083
 21
14.45524111459826
 31
0.0
  0
LINE
  5
2FA9
330
1E
100
AcDbEntity
  8
7
100
AcDbLine
 10
17.19934941723083
 20
14.45524111459826
 30
0.0
 11
17.18885072956678
 21
14.46049045843028
 31
0.0
  0
LINE
  5
2FC8
330
1E
100
AcDbEntity
  8
7
100
AcDbLine
 10
16.61535991591849
 20
16.22295765003133
 30
0.0
 11
16.59961188442243
 21
16.2163959702413
 31
0.0
  0
LINE
  5
2FC9
330
1E
100
AcDbEntity
  8
7
100
AcDbLine
 10
16.59961188442243
 20
16.2163959702413
 30
0.0
 11
16.59042553271639
 21
16.20064793874524
 31
0.0
  0
LINE
  5
349D
330
1E
100
AcDbEntity
  8
7
100
AcDbLine
 10
16.59042553271639
 20
11.7898867838896
 30
0.0
 11
16.59961188442243
 21
11.77413875239354
 31
0.0
  0
LINE
  5
349E
330
1E
100
AcDbEntity
  8
7
100
AcDbLine
 10
16.59961188442243
 20
11.77413875239354
 30
0.0
 11
16.61535991591849
 21
11.76757707260351
 31
0.0
  0
LINE
  5
349F
330
1E
100
AcDbEntity
  8
7
100
AcDbLine
 10
16.61535991591849
 20
11.79644846367963
 30
0.0
 11
16.59567487654841
 21
11.79251145580561
 31
0.0
  0
LINE
  5
34A0
330
1E
100
AcDbEntity
  8
7
100
AcDbLine
 10
16.59567487654841
 20
11.79251145580561
 30
0.0
 11
16.58911319675839
 21
11.7898867838896
 31
0.0
  0
LINE
  5
34A1
330
1E
100
AcDbEntity
  8
7
100
AcDbLine
 10
16.61535991591849
 20
16.19408625895522
 30
0.0
 11
16.59567487654841
 21
16.19802326682923
 31
0.0
  0
LINE
  5
34A2
330
1E
100
AcDbEntity
  8
7
100
AcDbLine
 10
16.59567487654841
 20
16.19802326682923
 30
0.0
 11
16.58911319675839
 21
16.20064793874524
 31
0.0
  0
LINE
  5
34A3
330
1E
100
AcDbEntity
  8
7
100
AcDbLine
 10
16.61535991591849
 20
16.22426998598933
 30
0.0
 11
16.61535991591849
 21
16.2150836342833
 31
0.0
  0
LINE
  5
34A4
330
1E
100
AcDbEntity
  8
7
100
AcDbLine
 10
16.61535991591849
 20
16.2150836342833
 30
0.0
 11
16.61535991591849
 21
16.19408625895522
 31
0.0
  0
LINE
  5
34A5
330
1E
100
AcDbEntity
  8
7
100
AcDbLine
 10
16.61535991591849
 20
11.79644846367963
 30
0.0
 11
16.61535991591849
 21
11.77545108835154
 31
0.0
  0
LINE
  5
34A6
330
1E
100
AcDbEntity
  8
7
100
AcDbLine
 10
16.61535991591849
 20
11.77545108835154
 30
0.0
 11
16.61535991591849
 21
11.76626473664551
 31
0.0
  0
LINE
  5
34A7
330
1E
100
AcDbEntity
  8
7
100
AcDbLine
 10
16.12979561145655
 20
14.889624316698
 30
0.0
 11
16.13504495528857
 21
14.88568730882398
 31
0.0
  0
LINE
  5
34A8
330
1E
100
AcDbEntity
  8
7
100
AcDbLine
 10
16.13504495528857
 20
14.88568730882398
 30
0.0
 11
16.15079298678463
 21
14.87387628520194
 31
0.0
  0
LINE
  5
34A9
330
1E
100
AcDbEntity
  8
7
100
AcDbLine
 10
16.15079298678463
 20
14.87387628520194
 30
0.0
 11
16.17310269807072
 21
14.85812825370588
 31
0.0
  0
LINE
  5
34AA
330
1E
100
AcDbEntity
  8
7
100
AcDbLine
 10
16.17310269807072
 20
14.85812825370588
 30
0.0
 11
16.20066175318883
 21
14.83844321433579
 31
0.0
  0
LINE
  5
34AB
330
1E
100
AcDbEntity
  8
7
100
AcDbLine
 10
16.12585860358253
 20
14.79382379176362
 30
0.0
 11
16.13110794741456
 21
14.79776079963763
 31
0.0
  0
LINE
  5
34AC
330
1E
100
AcDbEntity
  8
7
100
AcDbLine
 10
16.13110794741456
 20
14.79776079963763
 30
0.0
 11
16.14685597891061
 21
14.80694715134367
 31
0.0
  0
LINE
  5
34AD
330
1E
100
AcDbEntity
  8
7
100
AcDbLine
 10
16.14685597891061
 20
14.80694715134367
 30
0.0
 11
16.17179036211272
 21
14.82138284688172
 31
0.0
  0
LINE
  5
34AE
330
1E
100
AcDbEntity
  8
7
100
AcDbLine
 10
16.17179036211272
 20
14.82138284688172
 30
0.0
 11
16.20066175318883
 21
14.83844321433579
 31
0.0
  0
LINE
  5
34AF
330
1E
100
AcDbEntity
  8
7
100
AcDbLine
 10
16.12979561145655
 20
14.889624316698
 30
0.0
 11
16.1166722518765
 21
14.85944058966388
 31
0.0
  0
LINE
  5
34B0
330
1E
100
AcDbEntity
  8
7
100
AcDbLine
 10
16.1166722518765
 20
14.85944058966388
 30
0.0
 11
16.11535991591849
 21
14.82531985475574
 31
0.0
  0
LINE
  5
34B1
330
1E
100
AcDbEntity
  8
7
100
AcDbLine
 10
16.11535991591849
 20
14.82531985475574
 30
0.0
 11
16.12585860358253
 21
14.79382379176362
 31
0.0
  0
LINE
  5
34B2
330
1E
100
AcDbEntity
  8
7
100
AcDbLine
 10
17.18885072956678
 20
14.40799702011007
 30
0.0
 11
17.19934941723083
 21
14.4132463639421
 31
0.0
  0
LINE
  5
34B3
330
1E
100
AcDbEntity
  8
7
100
AcDbLine
 10
17.19934941723083
 20
14.4132463639421
 30
0.0
 11
17.20328642510484
 21
14.42374505160614
 31
0.0
  0
LINE
  5
34B4
330
1E
100
AcDbEntity
  8
7
100
AcDbLine
 10
16.95394259308384
 20
14.40668468415207
 30
0.0
 11
16.95525492904185
 21
14.39618599648802
 31
0.0
  0
LINE
  5
34B5
330
1E
100
AcDbEntity
  8
7
100
AcDbLine
 10
16.95525492904185
 20
14.39618599648802
 30
0.0
 11
16.94869324925182
 21
14.38699964478199
 31
0.0
  0
LINE
  5
34B6
330
1E
100
AcDbEntity
  8
7
100
AcDbLine
 10
16.40669849859566
 20
15.13371880488698
 30
0.0
 11
16.20066175318883
 21
14.83844321433579
 31
0.0
  0
LINE
  5
34B7
330
1E
100
AcDbEntity
  8
7
100
AcDbLine
 10
16.20066175318883
 20
14.83844321433579
 30
0.0
 11
16.35814206814946
 21
14.5654773350707
 31
0.0
  0
LINE
  5
34B8
330
1E
100
AcDbEntity
  8
7
100
AcDbLine
 10
16.12979561145655
 20
13.38831198073999
 30
0.0
 11
16.13504495528857
 21
13.38306263690797
 31
0.0
  0
LINE
  5
34B9
330
1E
100
AcDbEntity
  8
7
100
AcDbLine
 10
16.13504495528857
 20
13.38306263690797
 30
0.0
 11
16.15079298678463
 21
13.37256394924393
 31
0.0
  0
LINE
  5
34BA
330
1E
100
AcDbEntity
  8
7
100
AcDbLine
 10
16.15079298678463
 20
13.37256394924393
 30
0.0
 11
16.17310269807072
 21
13.35550358178986
 31
0.0
  0
LINE
  5
34BB
330
1E
100
AcDbEntity
  8
7
100
AcDbLine
 10
16.17310269807072
 20
13.35550358178986
 30
0.0
 11
16.20066175318883
 21
13.33581854241979
 31
0.0
  0
LINE
  5
34BC
330
1E
100
AcDbEntity
  8
7
100
AcDbLine
 10
16.14685597891061
 20
13.30563481538566
 30
0.0
 11
16.17179036211272
 21
13.32007051092372
 31
0.0
  0
LINE
  5
34BD
330
1E
100
AcDbEntity
  8
7
100
AcDbLine
 10
16.17179036211272
 20
13.32007051092372
 30
0.0
 11
16.20066175318883
 21
13.33581854241979
 31
0.0
  0
LINE
  5
34BE
330
1E
100
AcDbEntity
  8
7
100
AcDbLine
 10
16.12585860358253
 20
13.2911991198476
 30
0.0
 11
16.13110794741456
 21
13.29513612772162
 31
0.0
  0
LINE
  5
34BF
330
1E
100
AcDbEntity
  8
7
100
AcDbLine
 10
16.13110794741456
 20
13.29513612772162
 30
0.0
 11
16.14685597891061
 21
13.30563481538566
 31
0.0
  0
LINE
  5
34C0
330
1E
100
AcDbEntity
  8
7
100
AcDbLine
 10
16.12979561145655
 20
13.38699964478199
 30
0.0
 11
16.1166722518765
 21
13.35681591774787
 31
0.0
  0
LINE
  5
34C1
330
1E
100
AcDbEntity
  8
7
100
AcDbLine
 10
16.1166722518765
 20
13.35681591774787
 30
0.0
 11
16.11535991591849
 21
13.32269518283973
 31
0.0
  0
LINE
  5
34C2
330
1E
100
AcDbEntity
  8
7
100
AcDbLine
 10
16.11535991591849
 20
13.32269518283973
 30
0.0
 11
16.12585860358253
 21
13.2911991198476
 31
0.0
  0
LINE
  5
34C3
330
1E
100
AcDbEntity
  8
7
100
AcDbLine
 10
17.19934941723083
 20
12.91062169202608
 30
0.0
 11
17.20328642510484
 21
12.92112037969013
 31
0.0
  0
LINE
  5
34C4
330
1E
100
AcDbEntity
  8
7
100
AcDbLine
 10
17.20328642510484
 20
12.92112037969013
 30
0.0
 11
17.20328642510484
 21
12.94343009097622
 31
0.0
  0
LINE
  5
34C5
330
1E
100
AcDbEntity
  8
7
100
AcDbLine
 10
17.20328642510484
 20
12.94343009097622
 30
0.0
 11
17.19934941723083
 21
12.95261644268225
 31
0.0
  0
LINE
  5
34C6
330
1E
100
AcDbEntity
  8
7
100
AcDbLine
 10
17.19934941723083
 20
12.95261644268225
 30
0.0
 11
17.18885072956678
 21
12.95786578651427
 31
0.0
  0
LINE
  5
34C7
330
1E
100
AcDbEntity
  8
7
100
AcDbLine
 10
17.18885072956678
 20
12.95786578651427
 30
0.0
 11
16.95394259308384
 21
12.96967681013632
 31
0.0
  0
LINE
  5
34C8
330
1E
100
AcDbEntity
  8
7
100
AcDbLine
 10
16.92244653009172
 20
12.77676342430955
 30
0.0
 11
17.10092422038044
 21
12.89749833244603
 31
0.0
  0
LINE
  5
34C9
330
1E
100
AcDbEntity
  8
7
100
AcDbLine
 10
17.10092422038044
 20
12.89749833244603
 30
0.0
 11
17.1166722518765
 21
12.90274767627805
 31
0.0
  0
LINE
  5
34CA
330
1E
100
AcDbEntity
  8
7
100
AcDbLine
 10
17.1166722518765
 20
12.90274767627805
 30
0.0
 11
17.18885072956678
 21
12.90668468415207
 31
0.0
  0
LINE
  5
34CB
330
1E
100
AcDbEntity
  8
7
100
AcDbLine
 10
17.18885072956678
 20
12.90668468415207
 30
0.0
 11
17.19934941723083
 21
12.91062169202608
 31
0.0
  0
LINE
  5
34CC
330
1E
100
AcDbEntity
  8
7
100
AcDbLine
 10
16.94606857733581
 20
12.91980804373212
 30
0.0
 11
16.95394259308384
 21
12.90537234819406
 31
0.0
  0
LINE
  5
34CD
330
1E
100
AcDbEntity
  8
7
100
AcDbLine
 10
16.95394259308384
 20
12.90537234819406
 30
0.0
 11
16.95525492904185
 21
12.89356132457202
 31
0.0
  0
LINE
  5
34CE
330
1E
100
AcDbEntity
  8
7
100
AcDbLine
 10
16.95525492904185
 20
12.89356132457202
 30
0.0
 11
16.94869324925182
 21
12.88568730882398
 31
0.0
  0
LINE
  5
34CF
330
1E
100
AcDbEntity
  8
7
100
AcDbLine
 10
16.35158038835944
 20
13.55235397549065
 30
0.0
 11
16.20066175318883
 21
13.33581854241979
 31
0.0
  0
LINE
  5
34D0
330
1E
100
AcDbEntity
  8
7
100
AcDbLine
 10
16.20066175318883
 20
13.33581854241979
 30
0.0
 11
16.39095046709959
 21
13.00642221696047
 31
0.0
  0
LINE
  5
34D1
330
1E
100
AcDbEntity
  8
7
100
AcDbLine
 10
16.49593734374001
 20
12.41849570777412
 30
0.0
 11
16.55105545397623
 21
12.10615974976887
 31
0.0
  0
LINE
  5
34D2
330
1E
100
AcDbEntity
  8
7
100
AcDbLine
 10
16.55105545397623
 20
12.10615974976887
 30
0.0
 11
16.61535991591849
 21
11.79644846367963
 31
0.0
  0
LINE
  5
34D3
330
1E
100
AcDbEntity
  8
7
100
AcDbLine
 10
16.61535991591849
 20
11.79644846367963
 30
0.0
 11
16.92244653009172
 21
11.77545108835154
 31
0.0
  0
LINE
  5
34D4
330
1E
100
AcDbEntity
  8
7
100
AcDbLine
 10
16.55105545397623
 20
15.88437497286598
 30
0.0
 11
16.49593734374001
 21
15.57203901486073
 31
0.0
  0
LINE
  5
34D5
330
1E
100
AcDbEntity
  8
7
100
AcDbLine
 10
16.49593734374001
 20
15.57203901486073
 30
0.0
 11
16.45000558520983
 21
15.25839072089747
 31
0.0
  0
LINE
  5
34D6
330
1E
100
AcDbEntity
  8
7
100
AcDbLine
 10
16.45000558520983
 20
15.25839072089747
 30
0.0
 11
16.41588485030169
 21
14.94343009097621
 31
0.0
  0
LINE
  5
34D7
330
1E
100
AcDbEntity
  8
7
100
AcDbLine
 10
16.41588485030169
 20
14.94343009097621
 30
0.0
 11
16.39095046709959
 21
14.62846946105496
 31
0.0
  0
LINE
  5
34D8
330
1E
100
AcDbEntity
  8
7
100
AcDbLine
 10
16.39095046709959
 20
14.62846946105496
 30
0.0
 11
16.37520243560353
 21
14.31219649517569
 31
0.0
  0
LINE
  5
34D9
330
1E
100
AcDbEntity
  8
7
100
AcDbLine
 10
16.37520243560353
 20
14.31219649517569
 30
0.0
 11
16.36995309177151
 21
13.99461119333842
 31
0.0
  0
LINE
  5
34DA
330
1E
100
AcDbEntity
  8
7
100
AcDbLine
 10
16.36995309177151
 20
13.99461119333842
 30
0.0
 11
16.37520243560353
 21
13.67833822745915
 31
0.0
  0
LINE
  5
34DB
330
1E
100
AcDbEntity
  8
7
100
AcDbLine
 10
16.37520243560353
 20
13.67833822745915
 30
0.0
 11
16.39095046709959
 21
13.36206526157989
 31
0.0
  0
LINE
  5
34DC
330
1E
100
AcDbEntity
  8
7
100
AcDbLine
 10
16.39095046709959
 20
13.36206526157989
 30
0.0
 11
16.41588485030169
 21
13.04579229570062
 31
0.0
  0
LINE
  5
34DD
330
1E
100
AcDbEntity
  8
7
100
AcDbLine
 10
16.41588485030169
 20
13.04579229570062
 30
0.0
 11
16.45000558520983
 21
12.73214400173737
 31
0.0
  0
LINE
  5
34DE
330
1E
100
AcDbEntity
  8
7
100
AcDbLine
 10
16.45000558520983
 20
12.73214400173737
 30
0.0
 11
16.49593734374001
 21
12.41849570777412
 31
0.0
  0
LINE
  5
34DF
330
1E
100
AcDbEntity
  8
7
100
AcDbLine
 10
16.92244653009172
 20
16.2150836342833
 30
0.0
 11
16.61535991591849
 21
16.19408625895522
 31
0.0
  0
LINE
  5
34E0
330
1E
100
AcDbEntity
  8
7
100
AcDbLine
 10
16.61535991591849
 20
16.19408625895522
 30
0.0
 11
16.55105545397623
 21
15.88437497286598
 31
0.0
  0
LINE
  5
34E1
330
1E
100
AcDbEntity
  8
7
100
AcDbLine
 10
16.36207907602348
 20
13.36075292562188
 30
0.0
 11
16.34764338048542
 21
13.67702589150115
 31
0.0
  0
LINE
  5
34E2
330
1E
100
AcDbEntity
  8
7
100
AcDbLine
 10
16.34764338048542
 20
13.67702589150115
 30
0.0
 11
16.3423940366534
 21
13.99461119333842
 31
0.0
  0
LINE
  5
34E3
330
1E
100
AcDbEntity
  8
7
100
AcDbLine
 10
16.3423940366534
 20
13.99461119333842
 30
0.0
 11
16.34764338048542
 21
14.31219649517569
 31
0.0
  0
LINE
  5
34E4
330
1E
100
AcDbEntity
  8
7
100
AcDbLine
 10
16.34764338048542
 20
14.31219649517569
 30
0.0
 11
16.36207907602348
 21
14.62978179701296
 31
0.0
  0
LINE
  5
34E5
330
1E
100
AcDbEntity
  8
7
100
AcDbLine
 10
16.36207907602348
 20
14.62978179701296
 30
0.0
 11
16.38701345922558
 21
14.94605476289222
 31
0.0
  0
LINE
  5
34E6
330
1E
100
AcDbEntity
  8
7
100
AcDbLine
 10
16.38701345922558
 20
14.94605476289222
 30
0.0
 11
16.42244653009172
 21
15.26232772877149
 31
0.0
  0
LINE
  5
34E7
330
1E
100
AcDbEntity
  8
7
100
AcDbLine
 10
16.42244653009172
 20
15.26232772877149
 30
0.0
 11
16.4683782886219
 21
15.57597602273474
 31
0.0
  0
LINE
  5
34E8
330
1E
100
AcDbEntity
  8
7
100
AcDbLine
 10
16.4683782886219
 20
15.57597602273474
 30
0.0
 11
16.52349639885812
 21
15.889624316698
 31
0.0
  0
LINE
  5
34E9
330
1E
100
AcDbEntity
  8
7
100
AcDbLine
 10
16.52349639885812
 20
15.889624316698
 30
0.0
 11
16.58911319675839
 21
16.20064793874524
 31
0.0
  0
LINE
  5
34EA
330
1E
100
AcDbEntity
  8
7
100
AcDbLine
 10
16.58911319675839
 20
11.7898867838896
 30
0.0
 11
16.52349639885812
 21
12.10091040593685
 31
0.0
  0
LINE
  5
34EB
330
1E
100
AcDbEntity
  8
7
100
AcDbLine
 10
16.52349639885812
 20
12.10091040593685
 30
0.0
 11
16.4683782886219
 21
12.41324636394209
 31
0.0
  0
LINE
  5
34EC
330
1E
100
AcDbEntity
  8
7
100
AcDbLine
 10
16.4683782886219
 20
12.41324636394209
 30
0.0
 11
16.42244653009172
 21
12.72820699386335
 31
0.0
  0
LINE
  5
34ED
330
1E
100
AcDbEntity
  8
7
100
AcDbLine
 10
16.42244653009172
 20
12.72820699386335
 30
0.0
 11
16.38701345922558
 21
13.04316762378461
 31
0.0
  0
LINE
  5
34EE
330
1E
100
AcDbEntity
  8
7
100
AcDbLine
 10
16.38701345922558
 20
13.04316762378461
 30
0.0
 11
16.36207907602348
 21
13.36075292562188
 31
0.0
  0
LINE
  5
34EF
330
1E
100
AcDbEntity
  8
7
100
AcDbLine
 10
16.92244653009172
 20
16.24526736131742
 30
0.0
 11
16.92244653009172
 21
16.24133035344341
 31
0.0
  0
LINE
  5
34F0
330
1E
100
AcDbEntity
  8
7
100
AcDbLine
 10
16.92244653009172
 20
16.24133035344341
 30
0.0
 11
16.92244653009172
 21
16.22951932982136
 31
0.0
  0
LINE
  5
34F1
330
1E
100
AcDbEntity
  8
7
100
AcDbLine
 10
16.92244653009172
 20
16.22951932982136
 30
0.0
 11
16.92244653009172
 21
16.2150836342833
 31
0.0
  0
LINE
  5
34F2
330
1E
100
AcDbEntity
  8
7
100
AcDbLine
 10
16.92244653009172
 20
11.77545108835154
 30
0.0
 11
16.92244653009172
 21
11.75970305685548
 31
0.0
  0
LINE
  5
34F3
330
1E
100
AcDbEntity
  8
7
100
AcDbLine
 10
16.92244653009172
 20
11.75970305685548
 30
0.0
 11
16.92244653009172
 21
11.74920436919144
 31
0.0
  0
LINE
  5
34F4
330
1E
100
AcDbEntity
  8
7
100
AcDbLine
 10
16.92244653009172
 20
11.74920436919144
 30
0.0
 11
16.92244653009172
 21
11.74526736131742
 31
0.0
  0
LINE
  5
34F5
330
1E
100
AcDbEntity
  8
7
100
AcDbLine
 10
13.3423940366534
 20
12.27938809622556
 30
0.0
 11
13.33845702877938
 21
12.2898867838896
 31
0.0
  0
LINE
  5
34F6
330
1E
100
AcDbEntity
  8
7
100
AcDbLine
 10
13.33845702877938
 20
12.2898867838896
 30
0.0
 11
13.32795834111534
 21
12.29382379176362
 31
0.0
  0
LINE
  5
34F7
330
1E
100
AcDbEntity
  8
7
100
AcDbLine
 10
13.32795834111534
 20
12.20983429045128
 30
0.0
 11
13.33845702877938
 21
12.2137712983253
 31
0.0
  0
LINE
  5
34F8
330
1E
100
AcDbEntity
  8
7
100
AcDbLine
 10
13.33845702877938
 20
12.2137712983253
 30
0.0
 11
13.3423940366534
 21
12.22426998598934
 31
0.0
  0
LINE
  5
34F9
330
1E
100
AcDbEntity
  8
7
100
AcDbLine
 10
13.27940191066915
 20
12.29513612772162
 30
0.0
 11
13.27940191066915
 21
12.20852195449327
 31
0.0
  0
LINE
  5
34FA
330
1E
100
AcDbEntity
  8
7
100
AcDbLine
 10
13.27940191066915
 20
12.20852195449327
 30
0.0
 11
13.32795834111534
 21
12.20852195449327
 31
0.0
  0
LINE
  5
34FB
330
1E
100
AcDbEntity
  8
7
100
AcDbLine
 10
13.31483498153529
 20
12.22820699386335
 30
0.0
 11
13.3174596534513
 21
12.22951932982136
 31
0.0
  0
LINE
  5
34FC
330
1E
100
AcDbEntity
  8
7
100
AcDbLine
 10
13.3174596534513
 20
12.22951932982136
 30
0.0
 11
13.31877198940931
 21
12.23214400173737
 31
0.0
  0
LINE
  5
34FD
330
1E
100
AcDbEntity
  8
7
100
AcDbLine
 10
13.31877198940931
 20
12.27282641643554
 30
0.0
 11
13.3174596534513
 21
12.27545108835154
 31
0.0
  0
LINE
  5
34FE
330
1E
100
AcDbEntity
  8
7
100
AcDbLine
 10
13.3174596534513
 20
12.27545108835154
 30
0.0
 11
13.31483498153529
 21
12.27676342430955
 31
0.0
  0
LINE
  5
34FF
330
1E
100
AcDbEntity
  8
7
100
AcDbLine
 10
13.43294521775576
 20
12.29513612772162
 30
0.0
 11
13.43294521775576
 21
12.20852195449327
 31
0.0
  0
LINE
  5
3500
330
1E
100
AcDbEntity
  8
7
100
AcDbLine
 10
13.43294521775576
 20
12.20852195449327
 30
0.0
 11
13.45656726499986
 21
12.20852195449327
 31
0.0
  0
LINE
  5
3501
330
1E
100
AcDbEntity
  8
7
100
AcDbLine
 10
13.51562238311009
 20
12.27807576026755
 30
0.0
 11
13.53530742248017
 21
12.27807576026755
 31
0.0
  0
LINE
  5
3502
330
1E
100
AcDbEntity
  8
7
100
AcDbLine
 10
13.53530742248017
 20
12.27807576026755
 30
0.0
 11
13.53530742248017
 21
12.29513612772162
 31
0.0
  0
LINE
  5
3503
330
1E
100
AcDbEntity
  8
7
100
AcDbLine
 10
13.53530742248017
 20
12.29513612772162
 30
0.0
 11
13.47100296053792
 21
12.29513612772162
 31
0.0
  0
LINE
  5
3504
330
1E
100
AcDbEntity
  8
7
100
AcDbLine
 10
13.48937566394999
 20
12.27807576026755
 30
0.0
 11
13.48937566394999
 21
12.20852195449327
 31
0.0
  0
LINE
  5
3505
330
1E
100
AcDbEntity
  8
7
100
AcDbLine
 10
13.48937566394999
 20
12.20852195449327
 30
0.0
 11
13.51562238311009
 21
12.20852195449327
 31
0.0
  0
LINE
  5
3506
330
1E
100
AcDbEntity
  8
7
100
AcDbLine
 10
13.38570112326757
 20
12.23214400173737
 30
0.0
 11
13.38570112326757
 21
12.29513612772162
 31
0.0
  0
LINE
  5
3507
330
1E
100
AcDbEntity
  8
7
100
AcDbLine
 10
13.38570112326757
 20
12.29513612772162
 30
0.0
 11
13.35682973219146
 21
12.29513612772162
 31
0.0
  0
LINE
  5
3508
330
1E
100
AcDbEntity
  8
7
100
AcDbLine
 10
13.38701345922558
 20
12.23214400173737
 30
0.0
 11
13.38832579518358
 21
12.22951932982136
 31
0.0
  0
LINE
  5
3509
330
1E
100
AcDbEntity
  8
7
100
AcDbLine
 10
13.38832579518358
 20
12.22951932982136
 30
0.0
 11
13.39095046709959
 21
12.22820699386335
 31
0.0
  0
LINE
  5
350A
330
1E
100
AcDbEntity
  8
7
100
AcDbLine
 10
13.39619981093161
 20
12.22820699386335
 30
0.0
 11
13.39882448284762
 21
12.22951932982136
 31
0.0
  0
LINE
  5
350B
330
1E
100
AcDbEntity
  8
7
100
AcDbLine
 10
13.39882448284762
 20
12.22951932982136
 30
0.0
 11
13.40013681880563
 21
12.23214400173737
 31
0.0
  0
LINE
  5
350C
330
1E
100
AcDbEntity
  8
7
100
AcDbLine
 10
13.41982185817571
 20
12.22426998598934
 30
0.0
 11
13.41982185817571
 21
12.29513612772162
 31
0.0
  0
LINE
  5
350D
330
1E
100
AcDbEntity
  8
7
100
AcDbLine
 10
13.41982185817571
 20
12.29513612772162
 30
0.0
 11
13.40144915476364
 21
12.29513612772162
 31
0.0
  0
LINE
  5
350E
330
1E
100
AcDbEntity
  8
7
100
AcDbLine
 10
13.40144915476364
 20
12.29513612772162
 30
0.0
 11
13.40144915476364
 21
12.23214400173737
 31
0.0
  0
LINE
  5
350F
330
1E
100
AcDbEntity
  8
7
100
AcDbLine
 10
13.40407382667964
 20
12.20983429045128
 30
0.0
 11
13.41457251434369
 21
12.2137712983253
 31
0.0
  0
LINE
  5
3510
330
1E
100
AcDbEntity
  8
7
100
AcDbLine
 10
13.41457251434369
 20
12.2137712983253
 30
0.0
 11
13.4185095222177
 21
12.22426998598934
 31
0.0
  0
LINE
  5
3511
330
1E
100
AcDbEntity
  8
7
100
AcDbLine
 10
13.35814206814946
 20
12.22426998598934
 30
0.0
 11
13.36207907602348
 21
12.2137712983253
 31
0.0
  0
LINE
  5
3512
330
1E
100
AcDbEntity
  8
7
100
AcDbLine
 10
13.36207907602348
 20
12.2137712983253
 30
0.0
 11
13.37257776368752
 21
12.20983429045128
 31
0.0
  0
LINE
  5
3513
330
1E
100
AcDbEntity
  8
7
100
AcDbLine
 10
13.11404757996049
 20
12.24526736131742
 30
0.0
 11
13.12323393166652
 21
12.24657969727543
 31
0.0
  0
LINE
  5
3514
330
1E
100
AcDbEntity
  8
7
100
AcDbLine
 10
13.12323393166652
 20
12.24657969727543
 30
0.0
 11
13.13110794741455
 21
12.24920436919144
 31
0.0
  0
LINE
  5
3515
330
1E
100
AcDbEntity
  8
7
100
AcDbLine
 10
13.14948065082663
 20
12.29513612772162
 30
0.0
 11
13.13635729124658
 21
12.3148211670917
 31
0.0
  0
LINE
  5
3516
330
1E
100
AcDbEntity
  8
7
100
AcDbLine
 10
13.13635729124658
 20
12.3148211670917
 30
0.0
 11
13.11404757996049
 21
12.32138284688173
 31
0.0
  0
LINE
  5
3517
330
1E
100
AcDbEntity
  8
7
100
AcDbLine
 10
13.24003183192899
 20
12.20852195449327
 30
0.0
 11
13.2662785510891
 21
12.20852195449327
 31
0.0
  0
LINE
  5
3518
330
1E
100
AcDbEntity
  8
7
100
AcDbLine
 10
13.2662785510891
 20
12.20852195449327
 30
0.0
 11
13.2662785510891
 21
12.29513612772162
 31
0.0
  0
LINE
  5
3519
330
1E
100
AcDbEntity
  8
7
100
AcDbLine
 10
13.2662785510891
 20
12.29513612772162
 30
0.0
 11
13.24396883980301
 21
12.29513612772162
 31
0.0
  0
LINE
  5
351A
330
1E
100
AcDbEntity
  8
7
100
AcDbLine
 10
13.24396883980301
 20
12.29513612772162
 30
0.0
 11
13.24396883980301
 21
12.26232772877149
 31
0.0
  0
LINE
  5
351B
330
1E
100
AcDbEntity
  8
7
100
AcDbLine
 10
13.24396883980301
 20
12.26232772877149
 30
0.0
 11
13.22822080830694
 21
12.29513612772162
 31
0.0
  0
LINE
  5
351C
330
1E
100
AcDbEntity
  8
7
100
AcDbLine
 10
13.22822080830694
 20
12.29513612772162
 30
0.0
 11
13.19934941723083
 21
12.29513612772162
 31
0.0
  0
LINE
  5
351D
330
1E
100
AcDbEntity
  8
7
100
AcDbLine
 10
13.19934941723083
 20
12.29513612772162
 30
0.0
 11
13.19934941723083
 21
12.23870568152739
 31
0.0
  0
LINE
  5
351E
330
1E
100
AcDbEntity
  8
7
100
AcDbLine
 10
13.10354889229644
 20
12.29644846367963
 30
0.0
 11
13.10223655633844
 21
12.30038547155364
 31
0.0
  0
LINE
  5
351F
330
1E
100
AcDbEntity
  8
7
100
AcDbLine
 10
13.10223655633844
 20
12.30038547155364
 30
0.0
 11
13.09829954846442
 21
12.30169780751165
 31
0.0
  0
LINE
  5
3520
330
1E
100
AcDbEntity
  8
7
100
AcDbLine
 10
11.27152789492112
 20
11.7898867838896
 30
0.0
 11
11.27152789492112
 21
11.77413875239354
 31
0.0
  0
LINE
  5
3521
330
1E
100
AcDbEntity
  8
7
100
AcDbLine
 10
11.27152789492112
 20
11.77413875239354
 30
0.0
 11
11.27152789492112
 21
11.76626473664551
 31
0.0
  0
LINE
  5
3522
330
1E
100
AcDbEntity
  8
7
100
AcDbLine
 10
13.9185095222177
 20
11.76626473664551
 30
0.0
 11
13.9185095222177
 21
11.77413875239354
 31
0.0
  0
LINE
  5
3523
330
1E
100
AcDbEntity
  8
7
100
AcDbLine
 10
13.9185095222177
 20
11.77413875239354
 30
0.0
 11
13.9185095222177
 21
11.7898867838896
 31
0.0
  0
LINE
  5
3524
330
1E
100
AcDbEntity
  8
7
100
AcDbLine
 10
11.27152789492112
 20
11.7898867838896
 30
0.0
 11
11.25184285555103
 21
11.79251145580561
 31
0.0
  0
LINE
  5
3525
330
1E
100
AcDbEntity
  8
7
100
AcDbLine
 10
11.25184285555103
 20
11.79251145580561
 30
0.0
 11
11.24134416788699
 21
11.79644846367963
 31
0.0
  0
LINE
  5
3526
330
1E
100
AcDbEntity
  8
7
100
AcDbLine
 10
13.94869324925182
 20
11.79644846367963
 30
0.0
 11
13.93950689754579
 21
11.79251145580561
 31
0.0
  0
LINE
  5
3527
330
1E
100
AcDbEntity
  8
7
100
AcDbLine
 10
13.93950689754579
 20
11.79251145580561
 30
0.0
 11
13.9185095222177
 21
11.7898867838896
 31
0.0
  0
LINE
  5
3528
330
1E
100
AcDbEntity
  8
7
100
AcDbLine
 10
11.27152789492112
 20
16.20064793874524
 30
0.0
 11
11.25184285555103
 21
16.19802326682923
 31
0.0
  0
LINE
  5
3529
330
1E
100
AcDbEntity
  8
7
100
AcDbLine
 10
11.25184285555103
 20
16.19802326682923
 30
0.0
 11
11.24134416788699
 21
16.19408625895522
 31
0.0
  0
LINE
  5
352A
330
1E
100
AcDbEntity
  8
7
100
AcDbLine
 10
13.94869324925182
 20
16.19408625895522
 30
0.0
 11
13.93950689754579
 21
16.19802326682923
 31
0.0
  0
LINE
  5
352B
330
1E
100
AcDbEntity
  8
7
100
AcDbLine
 10
13.93950689754579
 20
16.19802326682923
 30
0.0
 11
13.9185095222177
 21
16.20064793874524
 31
0.0
  0
LINE
  5
352C
330
1E
100
AcDbEntity
  8
7
100
AcDbLine
 10
11.27152789492112
 20
16.20064793874524
 30
0.0
 11
11.27152789492112
 21
16.2163959702413
 31
0.0
  0
LINE
  5
352D
330
1E
100
AcDbEntity
  8
7
100
AcDbLine
 10
11.27152789492112
 20
16.2163959702413
 30
0.0
 11
11.27152789492112
 21
16.22426998598933
 31
0.0
  0
LINE
  5
352E
330
1E
100
AcDbEntity
  8
7
100
AcDbLine
 10
11.27152789492112
 20
11.76626473664551
 30
0.0
 11
11.25053051959303
 21
11.77545108835154
 31
0.0
  0
LINE
  5
352F
330
1E
100
AcDbEntity
  8
7
100
AcDbLine
 10
11.25053051959303
 20
11.77545108835154
 30
0.0
 11
11.24134416788699
 21
11.79644846367963
 31
0.0
  0
LINE
  5
3530
330
1E
100
AcDbEntity
  8
7
100
AcDbLine
 10
13.9185095222177
 20
16.22426998598933
 30
0.0
 11
13.94081923350379
 21
16.2150836342833
 31
0.0
  0
LINE
  5
3531
330
1E
100
AcDbEntity
  8
7
100
AcDbLine
 10
13.94081923350379
 20
16.2150836342833
 30
0.0
 11
13.94869324925182
 21
16.19408625895522
 31
0.0
  0
LINE
  5
3532
330
1E
100
AcDbEntity
  8
7
100
AcDbLine
 10
11.24134416788699
 20
16.19408625895522
 30
0.0
 11
11.25053051959303
 21
16.2150836342833
 31
0.0
  0
LINE
  5
3533
330
1E
100
AcDbEntity
  8
7
100
AcDbLine
 10
11.25053051959303
 20
16.2150836342833
 30
0.0
 11
11.27152789492112
 21
16.22426998598933
 31
0.0
  0
LINE
  5
3534
330
1E
100
AcDbEntity
  8
7
100
AcDbLine
 10
13.94869324925182
 20
11.79644846367963
 30
0.0
 11
13.94081923350379
 21
11.77545108835154
 31
0.0
  0
LINE
  5
3535
330
1E
100
AcDbEntity
  8
7
100
AcDbLine
 10
13.94081923350379
 20
11.77545108835154
 30
0.0
 11
13.9185095222177
 21
11.76626473664551
 31
0.0
  0
LINE
  5
3536
330
1E
100
AcDbEntity
  8
7
100
AcDbLine
 10
11.79908695003923
 20
14.83844321433579
 30
0.0
 11
11.80696096578726
 21
14.85812825370588
 31
0.0
  0
LINE
  5
3537
330
1E
100
AcDbEntity
  8
7
100
AcDbLine
 10
11.80696096578726
 20
14.85812825370588
 30
0.0
 11
11.82664600515734
 21
14.87387628520194
 31
0.0
  0
LINE
  5
3538
330
1E
100
AcDbEntity
  8
7
100
AcDbLine
 10
11.82664600515734
 20
14.87387628520194
 30
0.0
 11
11.85551739623345
 21
14.88568730882398
 31
0.0
  0
LINE
  5
3539
330
1E
100
AcDbEntity
  8
7
100
AcDbLine
 10
11.85551739623345
 20
14.88568730882398
 30
0.0
 11
11.88832579518358
 21
14.889624316698
 31
0.0
  0
LINE
  5
353A
330
1E
100
AcDbEntity
  8
7
100
AcDbLine
 10
11.79908695003923
 20
14.83844321433579
 30
0.0
 11
11.80696096578726
 21
14.82138284688172
 31
0.0
  0
LINE
  5
353B
330
1E
100
AcDbEntity
  8
7
100
AcDbLine
 10
11.80696096578726
 20
14.82138284688172
 30
0.0
 11
11.82664600515734
 21
14.80694715134367
 31
0.0
  0
LINE
  5
353C
330
1E
100
AcDbEntity
  8
7
100
AcDbLine
 10
11.82664600515734
 20
14.80694715134367
 30
0.0
 11
11.85551739623345
 21
14.79776079963763
 31
0.0
  0
LINE
  5
353D
330
1E
100
AcDbEntity
  8
7
100
AcDbLine
 10
11.85551739623345
 20
14.79776079963763
 30
0.0
 11
11.88832579518358
 21
14.79382379176362
 31
0.0
  0
LINE
  5
353E
330
1E
100
AcDbEntity
  8
7
100
AcDbLine
 10
13.30171162195524
 20
14.889624316698
 30
0.0
 11
13.33583235686337
 21
14.88568730882398
 31
0.0
  0
LINE
  5
353F
330
1E
100
AcDbEntity
  8
7
100
AcDbLine
 10
13.33583235686337
 20
14.88568730882398
 30
0.0
 11
13.36470374793949
 21
14.87387628520194
 31
0.0
  0
LINE
  5
3540
330
1E
100
AcDbEntity
  8
7
100
AcDbLine
 10
13.36470374793949
 20
14.87387628520194
 30
0.0
 11
13.38438878730957
 21
14.85812825370588
 31
0.0
  0
LINE
  5
3541
330
1E
100
AcDbEntity
  8
7
100
AcDbLine
 10
13.38438878730957
 20
14.85812825370588
 30
0.0
 11
13.3922628030576
 21
14.83844321433579
 31
0.0
  0
LINE
  5
3542
330
1E
100
AcDbEntity
  8
7
100
AcDbLine
 10
13.30171162195524
 20
14.79382379176362
 30
0.0
 11
13.33583235686337
 21
14.79776079963763
 31
0.0
  0
LINE
  5
3543
330
1E
100
AcDbEntity
  8
7
100
AcDbLine
 10
13.33583235686337
 20
14.79776079963763
 30
0.0
 11
13.36470374793949
 21
14.80694715134367
 31
0.0
  0
LINE
  5
3544
330
1E
100
AcDbEntity
  8
7
100
AcDbLine
 10
13.36470374793949
 20
14.80694715134367
 30
0.0
 11
13.38438878730957
 21
14.82138284688172
 31
0.0
  0
LINE
  5
3545
330
1E
100
AcDbEntity
  8
7
100
AcDbLine
 10
13.38438878730957
 20
14.82138284688172
 30
0.0
 11
13.3922628030576
 21
14.83844321433579
 31
0.0
  0
LINE
  5
3546
330
1E
100
AcDbEntity
  8
7
100
AcDbLine
 10
11.88832579518358
 20
14.85944058966388
 30
0.0
 11
11.88832579518358
 21
14.82531985475574
 31
0.0
  0
LINE
  5
3547
330
1E
100
AcDbEntity
  8
7
100
AcDbLine
 10
11.88832579518358
 20
14.82531985475574
 30
0.0
 11
11.88832579518358
 21
14.79382379176362
 31
0.0
  0
LINE
  5
3548
330
1E
100
AcDbEntity
  8
7
100
AcDbLine
 10
13.30171162195524
 20
14.79382379176362
 30
0.0
 11
13.30171162195524
 21
14.82531985475574
 31
0.0
  0
LINE
  5
3549
330
1E
100
AcDbEntity
  8
7
100
AcDbLine
 10
13.30171162195524
 20
14.82531985475574
 30
0.0
 11
13.30171162195524
 21
14.85944058966388
 31
0.0
  0
LINE
  5
354A
330
1E
100
AcDbEntity
  8
7
100
AcDbLine
 10
13.30171162195524
 20
14.85944058966388
 30
0.0
 11
13.30171162195524
 21
14.889624316698
 31
0.0
  0
LINE
  5
354B
330
1E
100
AcDbEntity
  8
7
100
AcDbLine
 10
12.94738091329382
 20
15.01692090462451
 30
0.0
 11
12.93425755371377
 21
15.03266893612057
 31
0.0
  0
LINE
  5
354C
330
1E
100
AcDbEntity
  8
7
100
AcDbLine
 10
12.93425755371377
 20
15.03266893612057
 30
0.0
 11
12.91326017838568
 21
15.03791827995259
 31
0.0
  0
LINE
  5
354D
330
1E
100
AcDbEntity
  8
7
100
AcDbLine
 10
12.91326017838568
 20
15.03791827995259
 30
0.0
 11
12.8922628030576
 21
15.03266893612057
 31
0.0
  0
LINE
  5
354E
330
1E
100
AcDbEntity
  8
7
100
AcDbLine
 10
12.8922628030576
 20
15.03266893612057
 30
0.0
 11
12.87913944347755
 21
15.01692090462451
 31
0.0
  0
LINE
  5
354F
330
1E
100
AcDbEntity
  8
7
100
AcDbLine
 10
12.31221030961928
 20
15.01692090462451
 30
0.0
 11
12.29908695003923
 21
15.03266893612057
 31
0.0
  0
LINE
  5
3550
330
1E
100
AcDbEntity
  8
7
100
AcDbLine
 10
12.29908695003923
 20
15.03266893612057
 30
0.0
 11
12.27808957471114
 21
15.03791827995259
 31
0.0
  0
LINE
  5
3551
330
1E
100
AcDbEntity
  8
7
100
AcDbLine
 10
12.27808957471114
 20
15.03791827995259
 30
0.0
 11
12.25709219938306
 21
15.03266893612057
 31
0.0
  0
LINE
  5
3552
330
1E
100
AcDbEntity
  8
7
100
AcDbLine
 10
11.93294521775576
 20
15.08385003848277
 30
0.0
 11
11.93163288179776
 21
15.11140909360089
 31
0.0
  0
LINE
  5
3553
330
1E
100
AcDbEntity
  8
7
100
AcDbLine
 10
11.93163288179776
 20
15.11140909360089
 30
0.0
 11
11.93163288179776
 21
15.12322011722293
 31
0.0
  0
LINE
  5
3554
330
1E
100
AcDbEntity
  8
7
100
AcDbLine
 10
12.80696096578726
 20
14.38699964478199
 30
0.0
 11
12.80696096578726
 21
14.39618599648802
 31
0.0
  0
LINE
  5
3555
330
1E
100
AcDbEntity
  8
7
100
AcDbLine
 10
12.80696096578726
 20
14.39618599648802
 30
0.0
 11
12.80696096578726
 21
14.40668468415207
 31
0.0
  0
LINE
  5
3556
330
1E
100
AcDbEntity
  8
7
100
AcDbLine
 10
13.01955939098411
 20
14.40668468415207
 30
0.0
 11
13.01955939098411
 21
14.39618599648802
 31
0.0
  0
LINE
  5
3557
330
1E
100
AcDbEntity
  8
7
100
AcDbLine
 10
13.01955939098411
 20
14.39618599648802
 30
0.0
 11
13.01955939098411
 21
14.38699964478199
 31
0.0
  0
LINE
  5
3558
330
1E
100
AcDbEntity
  8
7
100
AcDbLine
 10
12.80696096578726
 20
14.42243271564813
 30
0.0
 11
12.80564862982925
 21
14.43555607522818
 31
0.0
  0
LINE
  5
3559
330
1E
100
AcDbEntity
  8
7
100
AcDbLine
 10
12.80564862982925
 20
14.43555607522818
 30
0.0
 11
12.80564862982925
 21
14.44343009097622
 31
0.0
  0
LINE
  5
355A
330
1E
100
AcDbEntity
  8
7
100
AcDbLine
 10
13.01955939098411
 20
14.42243271564813
 30
0.0
 11
13.01955939098411
 21
14.43555607522818
 31
0.0
  0
LINE
  5
355B
330
1E
100
AcDbEntity
  8
7
100
AcDbLine
 10
13.01955939098411
 20
14.43555607522818
 30
0.0
 11
13.02087172694211
 21
14.44343009097622
 31
0.0
  0
LINE
  5
355C
330
1E
100
AcDbEntity
  8
7
100
AcDbLine
 10
13.02087172694211
 20
14.44343009097622
 30
0.0
 11
12.80564862982925
 21
14.44343009097622
 31
0.0
  0
LINE
  5
355D
330
1E
100
AcDbEntity
  8
7
100
AcDbLine
 10
13.02087172694211
 20
14.44867943480824
 30
0.0
 11
12.80433629387125
 21
14.44867943480824
 31
0.0
  0
LINE
  5
355E
330
1E
100
AcDbEntity
  8
7
100
AcDbLine
 10
12.80433629387125
 20
14.44867943480824
 30
0.0
 11
12.80433629387125
 21
14.44605476289223
 31
0.0
  0
LINE
  5
355F
330
1E
100
AcDbEntity
  8
7
100
AcDbLine
 10
12.80433629387125
 20
14.44605476289223
 30
0.0
 11
13.02087172694211
 21
14.44605476289223
 31
0.0
  0
LINE
  5
3560
330
1E
100
AcDbEntity
  8
7
100
AcDbLine
 10
13.01955939098411
 20
14.47230148205233
 30
0.0
 11
12.80696096578726
 21
14.47230148205233
 31
0.0
  0
LINE
  5
3561
330
1E
100
AcDbEntity
  8
7
100
AcDbLine
 10
12.80696096578726
 20
14.47230148205233
 30
0.0
 11
12.80564862982925
 21
14.45524111459826
 31
0.0
  0
LINE
  5
3562
330
1E
100
AcDbEntity
  8
7
100
AcDbLine
 10
12.80564862982925
 20
14.45524111459826
 30
0.0
 11
13.02087172694211
 21
14.45524111459826
 31
0.0
  0
LINE
  5
3563
330
1E
100
AcDbEntity
  8
7
100
AcDbLine
 10
12.80696096578726
 20
14.42243271564813
 30
0.0
 11
12.80696096578726
 21
14.40668468415207
 31
0.0
  0
LINE
  5
3564
330
1E
100
AcDbEntity
  8
7
100
AcDbLine
 10
12.80696096578726
 20
14.40668468415207
 30
0.0
 11
13.01955939098411
 21
14.40668468415207
 31
0.0
  0
LINE
  5
3565
330
1E
100
AcDbEntity
  8
7
100
AcDbLine
 10
12.17179036211272
 20
14.38699964478199
 30
0.0
 11
12.17179036211272
 21
14.39618599648802
 31
0.0
  0
LINE
  5
3566
330
1E
100
AcDbEntity
  8
7
100
AcDbLine
 10
12.17179036211272
 20
14.39618599648802
 30
0.0
 11
12.17179036211272
 21
14.40668468415207
 31
0.0
  0
LINE
  5
3567
330
1E
100
AcDbEntity
  8
7
100
AcDbLine
 10
12.38438878730957
 20
14.40668468415207
 30
0.0
 11
12.38438878730957
 21
14.39618599648802
 31
0.0
  0
LINE
  5
3568
330
1E
100
AcDbEntity
  8
7
100
AcDbLine
 10
12.38438878730957
 20
14.39618599648802
 30
0.0
 11
12.38438878730957
 21
14.38699964478199
 31
0.0
  0
LINE
  5
3569
330
1E
100
AcDbEntity
  8
7
100
AcDbLine
 10
12.17179036211272
 20
14.42243271564813
 30
0.0
 11
12.17047802615471
 21
14.43555607522818
 31
0.0
  0
LINE
  5
356A
330
1E
100
AcDbEntity
  8
7
100
AcDbLine
 10
12.17047802615471
 20
14.43555607522818
 30
0.0
 11
12.17047802615471
 21
14.44343009097622
 31
0.0
  0
LINE
  5
356B
330
1E
100
AcDbEntity
  8
7
100
AcDbLine
 10
12.38438878730957
 20
14.42243271564813
 30
0.0
 11
12.38570112326757
 21
14.43555607522818
 31
0.0
  0
LINE
  5
356C
330
1E
100
AcDbEntity
  8
7
100
AcDbLine
 10
12.38570112326757
 20
14.43555607522818
 30
0.0
 11
12.38570112326757
 21
14.44343009097622
 31
0.0
  0
LINE
  5
356D
330
1E
100
AcDbEntity
  8
7
100
AcDbLine
 10
12.38570112326757
 20
14.44343009097622
 30
0.0
 11
12.17047802615471
 21
14.44343009097622
 31
0.0
  0
LINE
  5
356E
330
1E
100
AcDbEntity
  8
7
100
AcDbLine
 10
12.38570112326757
 20
14.44867943480824
 30
0.0
 11
12.17047802615471
 21
14.44867943480824
 31
0.0
  0
LINE
  5
356F
330
1E
100
AcDbEntity
  8
7
100
AcDbLine
 10
12.17047802615471
 20
14.44867943480824
 30
0.0
 11
12.17047802615471
 21
14.44605476289223
 31
0.0
  0
LINE
  5
3570
330
1E
100
AcDbEntity
  8
7
100
AcDbLine
 10
12.17047802615471
 20
14.44605476289223
 30
0.0
 11
12.38570112326757
 21
14.44605476289223
 31
0.0
  0
LINE
  5
3571
330
1E
100
AcDbEntity
  8
7
100
AcDbLine
 10
12.38438878730957
 20
14.47230148205233
 30
0.0
 11
12.17179036211272
 21
14.47230148205233
 31
0.0
  0
LINE
  5
3572
330
1E
100
AcDbEntity
  8
7
100
AcDbLine
 10
12.17179036211272
 20
14.47230148205233
 30
0.0
 11
12.17047802615471
 21
14.45524111459826
 31
0.0
  0
LINE
  5
3573
330
1E
100
AcDbEntity
  8
7
100
AcDbLine
 10
12.17047802615471
 20
14.45524111459826
 30
0.0
 11
12.38570112326757
 21
14.45524111459826
 31
0.0
  0
LINE
  5
3574
330
1E
100
AcDbEntity
  8
7
100
AcDbLine
 10
12.17179036211272
 20
14.42243271564813
 30
0.0
 11
12.17179036211272
 21
14.40668468415207
 31
0.0
  0
LINE
  5
3575
330
1E
100
AcDbEntity
  8
7
100
AcDbLine
 10
12.17179036211272
 20
14.40668468415207
 30
0.0
 11
12.38438878730957
 21
14.40668468415207
 31
0.0
  0
LINE
  5
3576
330
1E
100
AcDbEntity
  8
7
100
AcDbLine
 10
13.01955939098411
 20
14.38699964478199
 30
0.0
 11
12.80696096578726
 21
14.38699964478199
 31
0.0
  0
LINE
  5
3577
330
1E
100
AcDbEntity
  8
7
100
AcDbLine
 10
12.80696096578726
 20
14.38699964478199
 30
0.0
 11
12.78858826237518
 21
14.16915187575312
 31
0.0
  0
LINE
  5
3578
330
1E
100
AcDbEntity
  8
7
100
AcDbLine
 10
12.38438878730957
 20
14.38699964478199
 30
0.0
 11
12.17179036211272
 21
14.38699964478199
 31
0.0
  0
LINE
  5
3579
330
1E
100
AcDbEntity
  8
7
100
AcDbLine
 10
12.17179036211272
 20
14.38699964478199
 30
0.0
 11
12.15341765870064
 21
14.16915187575312
 31
0.0
  0
LINE
  5
357A
330
1E
100
AcDbEntity
  8
7
100
AcDbLine
 10
11.78858826237519
 20
14.29513612772162
 30
0.0
 11
11.79908695003923
 21
14.83844321433579
 31
0.0
  0
LINE
  5
357B
330
1E
100
AcDbEntity
  8
7
100
AcDbLine
 10
11.79908695003923
 20
14.83844321433579
 30
0.0
 11
11.78858826237519
 21
15.28594977601558
 31
0.0
  0
LINE
  5
357C
330
1E
100
AcDbEntity
  8
7
100
AcDbLine
 10
13.40276149072164
 20
15.28594977601558
 30
0.0
 11
13.3922628030576
 21
14.83844321433579
 31
0.0
  0
LINE
  5
357D
330
1E
100
AcDbEntity
  8
7
100
AcDbLine
 10
13.3922628030576
 20
14.83844321433579
 30
0.0
 11
13.40276149072164
 21
14.29513612772162
 31
0.0
  0
LINE
  5
357E
330
1E
100
AcDbEntity
  8
7
100
AcDbLine
 10
13.30171162195524
 20
13.38831198073999
 30
0.0
 11
13.33583235686337
 21
13.38306263690797
 31
0.0
  0
LINE
  5
357F
330
1E
100
AcDbEntity
  8
7
100
AcDbLine
 10
13.33583235686337
 20
13.38306263690797
 30
0.0
 11
13.36470374793949
 21
13.37256394924393
 31
0.0
  0
LINE
  5
3580
330
1E
100
AcDbEntity
  8
7
100
AcDbLine
 10
13.36470374793949
 20
13.37256394924393
 30
0.0
 11
13.38438878730957
 21
13.35550358178986
 31
0.0
  0
LINE
  5
3581
330
1E
100
AcDbEntity
  8
7
100
AcDbLine
 10
13.38438878730957
 20
13.35550358178986
 30
0.0
 11
13.3922628030576
 21
13.33581854241979
 31
0.0
  0
LINE
  5
3582
330
1E
100
AcDbEntity
  8
7
100
AcDbLine
 10
13.30171162195524
 20
13.2911991198476
 30
0.0
 11
13.33583235686337
 21
13.29513612772162
 31
0.0
  0
LINE
  5
3583
330
1E
100
AcDbEntity
  8
7
100
AcDbLine
 10
13.33583235686337
 20
13.29513612772162
 30
0.0
 11
13.36470374793949
 21
13.30563481538566
 31
0.0
  0
LINE
  5
3584
330
1E
100
AcDbEntity
  8
7
100
AcDbLine
 10
13.36470374793949
 20
13.30563481538566
 30
0.0
 11
13.38438878730957
 21
13.32007051092372
 31
0.0
  0
LINE
  5
3585
330
1E
100
AcDbEntity
  8
7
100
AcDbLine
 10
11.79908695003923
 20
13.33581854241979
 30
0.0
 11
11.80696096578726
 21
13.35550358178986
 31
0.0
  0
LINE
  5
3586
330
1E
100
AcDbEntity
  8
7
100
AcDbLine
 10
11.80696096578726
 20
13.35550358178986
 30
0.0
 11
11.82664600515734
 21
13.37256394924393
 31
0.0
  0
LINE
  5
3587
330
1E
100
AcDbEntity
  8
7
100
AcDbLine
 10
11.82664600515734
 20
13.37256394924393
 30
0.0
 11
11.85551739623345
 21
13.38306263690797
 31
0.0
  0
LINE
  5
3588
330
1E
100
AcDbEntity
  8
7
100
AcDbLine
 10
11.85551739623345
 20
13.38306263690797
 30
0.0
 11
11.88832579518358
 21
13.38831198073999
 31
0.0
  0
LINE
  5
3589
330
1E
100
AcDbEntity
  8
7
100
AcDbLine
 10
11.79908695003923
 20
13.33581854241979
 30
0.0
 11
11.80696096578726
 21
13.32007051092372
 31
0.0
  0
LINE
  5
358A
330
1E
100
AcDbEntity
  8
7
100
AcDbLine
 10
11.80696096578726
 20
13.32007051092372
 30
0.0
 11
11.82664600515734
 21
13.30563481538566
 31
0.0
  0
LINE
  5
358B
330
1E
100
AcDbEntity
  8
7
100
AcDbLine
 10
11.82664600515734
 20
13.30563481538566
 30
0.0
 11
11.85551739623345
 21
13.29513612772162
 31
0.0
  0
LINE
  5
358C
330
1E
100
AcDbEntity
  8
7
100
AcDbLine
 10
11.85551739623345
 20
13.29513612772162
 30
0.0
 11
11.88832579518358
 21
13.2911991198476
 31
0.0
  0
LINE
  5
358D
330
1E
100
AcDbEntity
  8
7
100
AcDbLine
 10
13.30171162195524
 20
13.2911991198476
 30
0.0
 11
13.30171162195524
 21
13.32400751879774
 31
0.0
  0
LINE
  5
358E
330
1E
100
AcDbEntity
  8
7
100
AcDbLine
 10
13.30171162195524
 20
13.32400751879774
 30
0.0
 11
13.30171162195524
 21
13.35681591774787
 31
0.0
  0
LINE
  5
358F
330
1E
100
AcDbEntity
  8
7
100
AcDbLine
 10
13.30171162195524
 20
13.35681591774787
 30
0.0
 11
13.30171162195524
 21
13.38831198073999
 31
0.0
  0
LINE
  5
3590
330
1E
100
AcDbEntity
  8
7
100
AcDbLine
 10
11.88832579518358
 20
13.38831198073999
 30
0.0
 11
11.88832579518358
 21
13.35681591774787
 31
0.0
  0
LINE
  5
3591
330
1E
100
AcDbEntity
  8
7
100
AcDbLine
 10
11.88832579518358
 20
13.35681591774787
 30
0.0
 11
11.88832579518358
 21
13.32400751879774
 31
0.0
  0
LINE
  5
3592
330
1E
100
AcDbEntity
  8
7
100
AcDbLine
 10
11.88832579518358
 20
13.32400751879774
 30
0.0
 11
11.88832579518358
 21
13.2911991198476
 31
0.0
  0
LINE
  5
3593
330
1E
100
AcDbEntity
  8
7
100
AcDbLine
 10
12.94738091329382
 20
13.5156085686665
 30
0.0
 11
12.93425755371377
 21
13.53004426420456
 31
0.0
  0
LINE
  5
3594
330
1E
100
AcDbEntity
  8
7
100
AcDbLine
 10
12.93425755371377
 20
13.53004426420456
 30
0.0
 11
12.91326017838568
 21
13.53529360803658
 31
0.0
  0
LINE
  5
3595
330
1E
100
AcDbEntity
  8
7
100
AcDbLine
 10
12.91326017838568
 20
13.53529360803658
 30
0.0
 11
12.8922628030576
 21
13.53004426420456
 31
0.0
  0
LINE
  5
3596
330
1E
100
AcDbEntity
  8
7
100
AcDbLine
 10
12.8922628030576
 20
13.53004426420456
 30
0.0
 11
12.87913944347755
 21
13.5156085686665
 31
0.0
  0
LINE
  5
3597
330
1E
100
AcDbEntity
  8
7
100
AcDbLine
 10
12.31221030961928
 20
13.5156085686665
 30
0.0
 11
12.29908695003923
 21
13.53004426420456
 31
0.0
  0
LINE
  5
3598
330
1E
100
AcDbEntity
  8
7
100
AcDbLine
 10
12.29908695003923
 20
13.53004426420456
 30
0.0
 11
12.27808957471114
 21
13.53529360803658
 31
0.0
  0
LINE
  5
3599
330
1E
100
AcDbEntity
  8
7
100
AcDbLine
 10
12.27808957471114
 20
13.53529360803658
 30
0.0
 11
12.25709219938306
 21
13.53004426420456
 31
0.0
  0
LINE
  5
359A
330
1E
100
AcDbEntity
  8
7
100
AcDbLine
 10
12.25709219938306
 20
13.53004426420456
 30
0.0
 11
12.243968839803
 21
13.5156085686665
 31
0.0
  0
LINE
  5
359B
330
1E
100
AcDbEntity
  8
7
100
AcDbLine
 10
12.36601608389749
 20
13.2636400647295
 30
0.0
 11
12.19016306552479
 21
13.2636400647295
 31
0.0
  0
LINE
  5
359C
330
1E
100
AcDbEntity
  8
7
100
AcDbLine
 10
12.19016306552479
 20
13.2636400647295
 30
0.0
 11
12.19016306552479
 21
13.23083166577937
 31
0.0
  0
LINE
  5
359D
330
1E
100
AcDbEntity
  8
7
100
AcDbLine
 10
12.80696096578726
 20
12.91980804373212
 30
0.0
 11
12.80564862982925
 21
12.93293140331217
 31
0.0
  0
LINE
  5
359E
330
1E
100
AcDbEntity
  8
7
100
AcDbLine
 10
12.80564862982925
 20
12.93293140331217
 30
0.0
 11
12.80564862982925
 21
12.94211775501821
 31
0.0
  0
LINE
  5
359F
330
1E
100
AcDbEntity
  8
7
100
AcDbLine
 10
12.80564862982925
 20
12.94211775501821
 30
0.0
 11
12.80433629387125
 21
12.94474242693422
 31
0.0
  0
LINE
  5
35A0
330
1E
100
AcDbEntity
  8
7
100
AcDbLine
 10
12.80696096578726
 20
12.88568730882398
 30
0.0
 11
12.80696096578726
 21
12.89356132457202
 31
0.0
  0
LINE
  5
35A1
330
1E
100
AcDbEntity
  8
7
100
AcDbLine
 10
12.80696096578726
 20
12.89356132457202
 30
0.0
 11
12.80696096578726
 21
12.90537234819406
 31
0.0
  0
LINE
  5
35A2
330
1E
100
AcDbEntity
  8
7
100
AcDbLine
 10
13.01955939098411
 20
12.91980804373212
 30
0.0
 11
13.01955939098411
 21
12.90537234819406
 31
0.0
  0
LINE
  5
35A3
330
1E
100
AcDbEntity
  8
7
100
AcDbLine
 10
13.01955939098411
 20
12.90537234819406
 30
0.0
 11
13.01955939098411
 21
12.89356132457202
 31
0.0
  0
LINE
  5
35A4
330
1E
100
AcDbEntity
  8
7
100
AcDbLine
 10
13.01955939098411
 20
12.89356132457202
 30
0.0
 11
13.01955939098411
 21
12.88568730882398
 31
0.0
  0
LINE
  5
35A5
330
1E
100
AcDbEntity
  8
7
100
AcDbLine
 10
13.01955939098411
 20
12.91980804373212
 30
0.0
 11
13.01955939098411
 21
12.93293140331217
 31
0.0
  0
LINE
  5
35A6
330
1E
100
AcDbEntity
  8
7
100
AcDbLine
 10
13.01955939098411
 20
12.93293140331217
 30
0.0
 11
13.02087172694211
 21
12.94211775501821
 31
0.0
  0
LINE
  5
35A7
330
1E
100
AcDbEntity
  8
7
100
AcDbLine
 10
13.01955939098411
 20
12.96967681013632
 30
0.0
 11
13.02087172694211
 21
12.95392877864026
 31
0.0
  0
LINE
  5
35A8
330
1E
100
AcDbEntity
  8
7
100
AcDbLine
 10
13.02087172694211
 20
12.95392877864026
 30
0.0
 11
13.02087172694211
 21
12.94605476289222
 31
0.0
  0
LINE
  5
35A9
330
1E
100
AcDbEntity
  8
7
100
AcDbLine
 10
13.02087172694211
 20
12.94605476289222
 30
0.0
 11
13.02087172694211
 21
12.94474242693422
 31
0.0
  0
LINE
  5
35AA
330
1E
100
AcDbEntity
  8
7
100
AcDbLine
 10
13.02087172694211
 20
12.94474242693422
 30
0.0
 11
13.02087172694211
 21
12.94211775501821
 31
0.0
  0
LINE
  5
35AB
330
1E
100
AcDbEntity
  8
7
100
AcDbLine
 10
12.17179036211272
 20
12.91980804373212
 30
0.0
 11
12.17047802615471
 21
12.93293140331217
 31
0.0
  0
LINE
  5
35AC
330
1E
100
AcDbEntity
  8
7
100
AcDbLine
 10
12.17047802615471
 20
12.93293140331217
 30
0.0
 11
12.17047802615471
 21
12.94211775501821
 31
0.0
  0
LINE
  5
35AD
330
1E
100
AcDbEntity
  8
7
100
AcDbLine
 10
12.17047802615471
 20
12.94211775501821
 30
0.0
 11
12.17047802615471
 21
12.94474242693422
 31
0.0
  0
LINE
  5
35AE
330
1E
100
AcDbEntity
  8
7
100
AcDbLine
 10
12.17179036211272
 20
12.88568730882398
 30
0.0
 11
12.17179036211272
 21
12.89356132457202
 31
0.0
  0
LINE
  5
35AF
330
1E
100
AcDbEntity
  8
7
100
AcDbLine
 10
12.17179036211272
 20
12.89356132457202
 30
0.0
 11
12.17179036211272
 21
12.90537234819406
 31
0.0
  0
LINE
  5
35B0
330
1E
100
AcDbEntity
  8
7
100
AcDbLine
 10
12.38438878730957
 20
12.91980804373212
 30
0.0
 11
12.38438878730957
 21
12.90537234819406
 31
0.0
  0
LINE
  5
35B1
330
1E
100
AcDbEntity
  8
7
100
AcDbLine
 10
12.38438878730957
 20
12.90537234819406
 30
0.0
 11
12.38438878730957
 21
12.89356132457202
 31
0.0
  0
LINE
  5
35B2
330
1E
100
AcDbEntity
  8
7
100
AcDbLine
 10
12.38438878730957
 20
12.89356132457202
 30
0.0
 11
12.38438878730957
 21
12.88568730882398
 31
0.0
  0
LINE
  5
35B3
330
1E
100
AcDbEntity
  8
7
100
AcDbLine
 10
12.38438878730957
 20
12.91980804373212
 30
0.0
 11
12.38570112326757
 21
12.93293140331217
 31
0.0
  0
LINE
  5
35B4
330
1E
100
AcDbEntity
  8
7
100
AcDbLine
 10
12.38570112326757
 20
12.93293140331217
 30
0.0
 11
12.38570112326757
 21
12.94211775501821
 31
0.0
  0
LINE
  5
35B5
330
1E
100
AcDbEntity
  8
7
100
AcDbLine
 10
12.38570112326757
 20
12.94605476289222
 30
0.0
 11
12.38570112326757
 21
12.94474242693422
 31
0.0
  0
LINE
  5
35B6
330
1E
100
AcDbEntity
  8
7
100
AcDbLine
 10
12.38570112326757
 20
12.94474242693422
 30
0.0
 11
12.38570112326757
 21
12.94211775501821
 31
0.0
  0
LINE
  5
35B7
330
1E
100
AcDbEntity
  8
7
100
AcDbLine
 10
12.38438878730957
 20
12.96967681013632
 30
0.0
 11
12.38570112326757
 21
12.95392877864026
 31
0.0
  0
LINE
  5
35B8
330
1E
100
AcDbEntity
  8
7
100
AcDbLine
 10
12.38570112326757
 20
12.95392877864026
 30
0.0
 11
12.38570112326757
 21
12.94605476289222
 31
0.0
  0
LINE
  5
35B9
330
1E
100
AcDbEntity
  8
7
100
AcDbLine
 10
12.38438878730957
 20
12.88568730882398
 30
0.0
 11
12.17179036211272
 21
12.88568730882398
 31
0.0
  0
LINE
  5
35BA
330
1E
100
AcDbEntity
  8
7
100
AcDbLine
 10
12.17179036211272
 20
12.88568730882398
 30
0.0
 11
12.15341765870064
 21
12.66783953979511
 31
0.0
  0
LINE
  5
35BB
330
1E
100
AcDbEntity
  8
7
100
AcDbLine
 10
13.01955939098411
 20
12.88568730882398
 30
0.0
 11
12.80696096578726
 21
12.88568730882398
 31
0.0
  0
LINE
  5
35BC
330
1E
100
AcDbEntity
  8
7
100
AcDbLine
 10
12.80696096578726
 20
12.88568730882398
 30
0.0
 11
12.78858826237518
 21
12.66783953979511
 31
0.0
  0
LINE
  5
35BD
330
1E
100
AcDbEntity
  8
7
100
AcDbLine
 10
11.78858826237519
 20
12.79382379176362
 30
0.0
 11
11.79908695003923
 21
13.33581854241979
 31
0.0
  0
LINE
  5
35BE
330
1E
100
AcDbEntity
  8
7
100
AcDbLine
 10
11.79908695003923
 20
13.33581854241979
 30
0.0
 11
11.78858826237519
 21
13.78463744005758
 31
0.0
  0
LINE
  5
35BF
330
1E
100
AcDbEntity
  8
7
100
AcDbLine
 10
13.40276149072164
 20
13.78463744005758
 30
0.0
 11
13.3922628030576
 21
13.33581854241979
 31
0.0
  0
LINE
  5
35C0
330
1E
100
AcDbEntity
  8
7
100
AcDbLine
 10
13.3922628030576
 20
13.33581854241979
 30
0.0
 11
13.40276149072164
 21
12.79382379176362
 31
0.0
  0
LINE
  5
35C1
330
1E
100
AcDbEntity
  8
7
100
AcDbLine
 10
11.87520243560353
 20
13.93686841118619
 30
0.0
 11
11.88832579518358
 21
13.38831198073999
 31
0.0
  0
LINE
  5
35C2
330
1E
100
AcDbEntity
  8
7
100
AcDbLine
 10
11.88832579518358
 20
13.38831198073999
 30
0.0
 11
13.30171162195524
 21
13.38831198073999
 31
0.0
  0
LINE
  5
35C3
330
1E
100
AcDbEntity
  8
7
100
AcDbLine
 10
13.30171162195524
 20
13.38831198073999
 30
0.0
 11
13.31614731749329
 21
13.93686841118619
 31
0.0
  0
LINE
  5
35C4
330
1E
100
AcDbEntity
  8
7
100
AcDbLine
 10
11.25709219938306
 20
14.62846946105496
 30
0.0
 11
11.25577986342505
 21
14.94343009097621
 31
0.0
  0
LINE
  5
35C5
330
1E
100
AcDbEntity
  8
7
100
AcDbLine
 10
11.25577986342505
 20
14.94343009097621
 30
0.0
 11
11.25315519150904
 21
15.25839072089747
 31
0.0
  0
LINE
  5
35C6
330
1E
100
AcDbEntity
  8
7
100
AcDbLine
 10
11.25315519150904
 20
15.25839072089747
 30
0.0
 11
11.25053051959303
 21
15.57203901486073
 31
0.0
  0
LINE
  5
35C7
330
1E
100
AcDbEntity
  8
7
100
AcDbLine
 10
11.25053051959303
 20
15.57203901486073
 30
0.0
 11
11.24659351171902
 21
15.88437497286598
 31
0.0
  0
LINE
  5
35C8
330
1E
100
AcDbEntity
  8
7
100
AcDbLine
 10
11.24659351171902
 20
15.88437497286598
 30
0.0
 11
11.24134416788699
 21
16.19408625895522
 31
0.0
  0
LINE
  5
35C9
330
1E
100
AcDbEntity
  8
7
100
AcDbLine
 10
11.24134416788699
 20
16.19408625895522
 30
0.0
 11
11.22034679255891
 21
16.2150836342833
 31
0.0
  0
LINE
  5
35CA
330
1E
100
AcDbEntity
  8
7
100
AcDbLine
 10
11.22034679255891
 20
11.77545108835154
 30
0.0
 11
11.24134416788699
 21
11.79644846367963
 31
0.0
  0
LINE
  5
35CB
330
1E
100
AcDbEntity
  8
7
100
AcDbLine
 10
11.24134416788699
 20
11.79644846367963
 30
0.0
 11
11.24659351171902
 21
12.10615974976887
 31
0.0
  0
LINE
  5
35CC
330
1E
100
AcDbEntity
  8
7
100
AcDbLine
 10
11.24659351171902
 20
12.10615974976887
 30
0.0
 11
11.25053051959303
 21
12.41849570777412
 31
0.0
  0
LINE
  5
35CD
330
1E
100
AcDbEntity
  8
7
100
AcDbLine
 10
11.25053051959303
 20
12.41849570777412
 30
0.0
 11
11.25315519150904
 21
12.73214400173737
 31
0.0
  0
LINE
  5
35CE
330
1E
100
AcDbEntity
  8
7
100
AcDbLine
 10
11.25315519150904
 20
12.73214400173737
 30
0.0
 11
11.25577986342505
 21
13.04579229570062
 31
0.0
  0
LINE
  5
35CF
330
1E
100
AcDbEntity
  8
7
100
AcDbLine
 10
11.25577986342505
 20
13.04579229570062
 30
0.0
 11
11.25709219938306
 21
13.36206526157989
 31
0.0
  0
LINE
  5
35D0
330
1E
100
AcDbEntity
  8
7
100
AcDbLine
 10
11.25709219938306
 20
13.36206526157989
 30
0.0
 11
11.25840453534106
 21
13.67833822745915
 31
0.0
  0
LINE
  5
35D1
330
1E
100
AcDbEntity
  8
7
100
AcDbLine
 10
11.25840453534106
 20
13.67833822745915
 30
0.0
 11
11.25971687129907
 21
13.99461119333842
 31
0.0
  0
LINE
  5
35D2
330
1E
100
AcDbEntity
  8
7
100
AcDbLine
 10
11.25971687129907
 20
13.99461119333842
 30
0.0
 11
11.25840453534106
 21
14.31219649517569
 31
0.0
  0
LINE
  5
35D3
330
1E
100
AcDbEntity
  8
7
100
AcDbLine
 10
11.25840453534106
 20
14.31219649517569
 30
0.0
 11
11.25709219938306
 21
14.62846946105496
 31
0.0
  0
LINE
  5
35D4
330
1E
100
AcDbEntity
  8
7
100
AcDbLine
 10
13.94081923350379
 20
12.41849570777412
 30
0.0
 11
13.94475624137781
 21
12.10615974976887
 31
0.0
  0
LINE
  5
35D5
330
1E
100
AcDbEntity
  8
7
100
AcDbLine
 10
13.94475624137781
 20
12.10615974976887
 30
0.0
 11
13.94869324925182
 21
11.79644846367963
 31
0.0
  0
LINE
  5
35D6
330
1E
100
AcDbEntity
  8
7
100
AcDbLine
 10
13.94869324925182
 20
11.79644846367963
 30
0.0
 11
13.97100296053792
 21
11.77545108835154
 31
0.0
  0
LINE
  5
35D7
330
1E
100
AcDbEntity
  8
7
100
AcDbLine
 10
13.94869324925182
 20
16.19408625895522
 30
0.0
 11
13.94475624137781
 21
15.88437497286598
 31
0.0
  0
LINE
  5
35D8
330
1E
100
AcDbEntity
  8
7
100
AcDbLine
 10
13.94475624137781
 20
15.88437497286598
 30
0.0
 11
13.94081923350379
 21
15.57203901486073
 31
0.0
  0
LINE
  5
35D9
330
1E
100
AcDbEntity
  8
7
100
AcDbLine
 10
13.94081923350379
 20
15.57203901486073
 30
0.0
 11
13.93688222562978
 21
15.25839072089747
 31
0.0
  0
LINE
  5
35DA
330
1E
100
AcDbEntity
  8
7
100
AcDbLine
 10
13.93688222562978
 20
15.25839072089747
 30
0.0
 11
13.93556988967177
 21
14.94343009097621
 31
0.0
  0
LINE
  5
35DB
330
1E
100
AcDbEntity
  8
7
100
AcDbLine
 10
13.93556988967177
 20
14.94343009097621
 30
0.0
 11
13.93294521775576
 21
14.62846946105496
 31
0.0
  0
LINE
  5
35DC
330
1E
100
AcDbEntity
  8
7
100
AcDbLine
 10
13.93294521775576
 20
14.62846946105496
 30
0.0
 11
13.93163288179776
 21
14.31219649517569
 31
0.0
  0
LINE
  5
35DD
330
1E
100
AcDbEntity
  8
7
100
AcDbLine
 10
13.93163288179776
 20
14.31219649517569
 30
0.0
 11
13.93163288179776
 21
13.99461119333842
 31
0.0
  0
LINE
  5
35DE
330
1E
100
AcDbEntity
  8
7
100
AcDbLine
 10
13.93163288179776
 20
13.99461119333842
 30
0.0
 11
13.93163288179776
 21
13.67833822745915
 31
0.0
  0
LINE
  5
35DF
330
1E
100
AcDbEntity
  8
7
100
AcDbLine
 10
13.93163288179776
 20
13.67833822745915
 30
0.0
 11
13.93294521775576
 21
13.36206526157989
 31
0.0
  0
LINE
  5
35E0
330
1E
100
AcDbEntity
  8
7
100
AcDbLine
 10
13.93294521775576
 20
13.36206526157989
 30
0.0
 11
13.93556988967177
 21
13.04579229570062
 31
0.0
  0
LINE
  5
35E1
330
1E
100
AcDbEntity
  8
7
100
AcDbLine
 10
13.93556988967177
 20
13.04579229570062
 30
0.0
 11
13.93688222562978
 21
12.73214400173737
 31
0.0
  0
LINE
  5
35E2
330
1E
100
AcDbEntity
  8
7
100
AcDbLine
 10
13.93688222562978
 20
12.73214400173737
 30
0.0
 11
13.94081923350379
 21
12.41849570777412
 31
0.0
  0
LINE
  5
35E3
330
1E
100
AcDbEntity
  8
7
100
AcDbLine
 10
11.59567487654841
 20
12.14815450042504
 30
0.0
 11
11.5917378686744
 21
12.48148783375837
 31
0.0
  0
LINE
  5
35E4
330
1E
100
AcDbEntity
  8
7
100
AcDbLine
 10
11.5917378686744
 20
12.48148783375837
 30
0.0
 11
11.58780086080038
 21
12.81613350304971
 31
0.0
  0
LINE
  5
35E5
330
1E
100
AcDbEntity
  8
7
100
AcDbLine
 10
11.58780086080038
 20
12.81613350304971
 30
0.0
 11
11.58648852484237
 21
13.15209150829905
 31
0.0
  0
LINE
  5
35E6
330
1E
100
AcDbEntity
  8
7
100
AcDbLine
 10
11.58648852484237
 20
13.15209150829905
 30
0.0
 11
11.58386385292636
 21
13.4893618495064
 31
0.0
  0
LINE
  5
35E7
330
1E
100
AcDbEntity
  8
7
100
AcDbLine
 10
11.58386385292636
 20
13.4893618495064
 30
0.0
 11
11.58386385292636
 21
13.82663219071375
 31
0.0
  0
LINE
  5
35E8
330
1E
100
AcDbEntity
  8
7
100
AcDbLine
 10
11.58386385292636
 20
13.82663219071375
 30
0.0
 11
11.58386385292636
 21
14.1639025319211
 31
0.0
  0
LINE
  5
35E9
330
1E
100
AcDbEntity
  8
7
100
AcDbLine
 10
11.58386385292636
 20
14.1639025319211
 30
0.0
 11
11.58386385292636
 21
14.50117287312845
 31
0.0
  0
LINE
  5
35EA
330
1E
100
AcDbEntity
  8
7
100
AcDbLine
 10
11.58386385292636
 20
14.50117287312845
 30
0.0
 11
11.58648852484237
 21
14.83844321433579
 31
0.0
  0
LINE
  5
35EB
330
1E
100
AcDbEntity
  8
7
100
AcDbLine
 10
11.58648852484237
 20
14.83844321433579
 30
0.0
 11
11.58780086080038
 21
15.17440121958514
 31
0.0
  0
LINE
  5
35EC
330
1E
100
AcDbEntity
  8
7
100
AcDbLine
 10
11.58780086080038
 20
15.17440121958514
 30
0.0
 11
11.5917378686744
 21
15.50904688887648
 31
0.0
  0
LINE
  5
35ED
330
1E
100
AcDbEntity
  8
7
100
AcDbLine
 10
11.5917378686744
 20
15.50904688887648
 30
0.0
 11
11.59567487654841
 21
15.84238022220981
 31
0.0
  0
LINE
  5
35EE
330
1E
100
AcDbEntity
  8
7
100
AcDbLine
 10
13.59567487654842
 20
15.84238022220981
 30
0.0
 11
13.59961188442243
 21
15.50904688887648
 31
0.0
  0
LINE
  5
35EF
330
1E
100
AcDbEntity
  8
7
100
AcDbLine
 10
13.59961188442243
 20
15.50904688887648
 30
0.0
 11
13.60223655633844
 21
15.17440121958514
 31
0.0
  0
LINE
  5
35F0
330
1E
100
AcDbEntity
  8
7
100
AcDbLine
 10
13.60223655633844
 20
15.17440121958514
 30
0.0
 11
13.60486122825445
 21
14.83844321433579
 31
0.0
  0
LINE
  5
35F1
330
1E
100
AcDbEntity
  8
7
100
AcDbLine
 10
13.60486122825445
 20
14.83844321433579
 30
0.0
 11
13.60617356421245
 21
14.50117287312845
 31
0.0
  0
LINE
  5
35F2
330
1E
100
AcDbEntity
  8
7
100
AcDbLine
 10
13.60617356421245
 20
14.50117287312845
 30
0.0
 11
13.60748590017046
 21
14.1639025319211
 31
0.0
  0
LINE
  5
35F3
330
1E
100
AcDbEntity
  8
7
100
AcDbLine
 10
13.60748590017046
 20
14.1639025319211
 30
0.0
 11
13.60748590017046
 21
13.82663219071375
 31
0.0
  0
LINE
  5
35F4
330
1E
100
AcDbEntity
  8
7
100
AcDbLine
 10
13.60748590017046
 20
13.82663219071375
 30
0.0
 11
13.60617356421245
 21
13.4893618495064
 31
0.0
  0
LINE
  5
35F5
330
1E
100
AcDbEntity
  8
7
100
AcDbLine
 10
13.60617356421245
 20
13.4893618495064
 30
0.0
 11
13.60486122825445
 21
13.15209150829905
 31
0.0
  0
LINE
  5
35F6
330
1E
100
AcDbEntity
  8
7
100
AcDbLine
 10
13.60486122825445
 20
13.15209150829905
 30
0.0
 11
13.60223655633844
 21
12.81613350304971
 31
0.0
  0
LINE
  5
35F7
330
1E
100
AcDbEntity
  8
7
100
AcDbLine
 10
13.60223655633844
 20
12.81613350304971
 30
0.0
 11
13.59961188442243
 21
12.48148783375837
 31
0.0
  0
LINE
  5
35F8
330
1E
100
AcDbEntity
  8
7
100
AcDbLine
 10
13.59961188442243
 20
12.48148783375837
 30
0.0
 11
13.59567487654842
 21
12.14815450042504
 31
0.0
  0
LINE
  5
35F9
330
1E
100
AcDbEntity
  8
7
100
AcDbLine
 10
13.91063550646967
 20
12.41324636394209
 30
0.0
 11
13.90801083455366
 21
12.72820699386335
 31
0.0
  0
LINE
  5
35FA
330
1E
100
AcDbEntity
  8
7
100
AcDbLine
 10
13.90801083455366
 20
12.72820699386335
 30
0.0
 11
13.90538616263765
 21
13.04316762378461
 31
0.0
  0
LINE
  5
35FB
330
1E
100
AcDbEntity
  8
7
100
AcDbLine
 10
13.90538616263765
 20
13.04316762378461
 30
0.0
 11
13.90276149072164
 21
13.36075292562188
 31
0.0
  0
LINE
  5
35FC
330
1E
100
AcDbEntity
  8
7
100
AcDbLine
 10
13.90276149072164
 20
13.36075292562188
 30
0.0
 11
13.90276149072164
 21
13.67702589150115
 31
0.0
  0
LINE
  5
35FD
330
1E
100
AcDbEntity
  8
7
100
AcDbLine
 10
13.90276149072164
 20
13.67702589150115
 30
0.0
 11
13.90144915476364
 21
13.99461119333842
 31
0.0
  0
LINE
  5
35FE
330
1E
100
AcDbEntity
  8
7
100
AcDbLine
 10
13.90144915476364
 20
13.99461119333842
 30
0.0
 11
13.90276149072164
 21
14.31219649517569
 31
0.0
  0
LINE
  5
35FF
330
1E
100
AcDbEntity
  8
7
100
AcDbLine
 10
13.90276149072164
 20
14.31219649517569
 30
0.0
 11
13.90276149072164
 21
14.62978179701296
 31
0.0
  0
LINE
  5
3600
330
1E
100
AcDbEntity
  8
7
100
AcDbLine
 10
13.90276149072164
 20
14.62978179701296
 30
0.0
 11
13.90538616263765
 21
14.94605476289222
 31
0.0
  0
LINE
  5
3601
330
1E
100
AcDbEntity
  8
7
100
AcDbLine
 10
13.90538616263765
 20
14.94605476289222
 30
0.0
 11
13.90801083455366
 21
15.26232772877149
 31
0.0
  0
LINE
  5
3602
330
1E
100
AcDbEntity
  8
7
100
AcDbLine
 10
13.90801083455366
 20
15.26232772877149
 30
0.0
 11
13.91063550646967
 21
15.57597602273474
 31
0.0
  0
LINE
  5
3603
330
1E
100
AcDbEntity
  8
7
100
AcDbLine
 10
13.91063550646967
 20
15.57597602273474
 30
0.0
 11
13.91457251434369
 21
15.889624316698
 31
0.0
  0
LINE
  5
3604
330
1E
100
AcDbEntity
  8
7
100
AcDbLine
 10
13.91457251434369
 20
15.889624316698
 30
0.0
 11
13.9185095222177
 21
16.20064793874524
 31
0.0
  0
LINE
  5
3605
330
1E
100
AcDbEntity
  8
7
100
AcDbLine
 10
13.9185095222177
 20
16.20064793874524
 30
0.0
 11
11.27152789492112
 21
16.20064793874524
 31
0.0
  0
LINE
  5
3606
330
1E
100
AcDbEntity
  8
7
100
AcDbLine
 10
11.28727592641718
 20
14.62978179701296
 30
0.0
 11
11.28858826237518
 21
14.31219649517569
 31
0.0
  0
LINE
  5
3607
330
1E
100
AcDbEntity
  8
7
100
AcDbLine
 10
11.28858826237518
 20
14.31219649517569
 30
0.0
 11
11.28858826237518
 21
13.99461119333842
 31
0.0
  0
LINE
  5
3608
330
1E
100
AcDbEntity
  8
7
100
AcDbLine
 10
11.28858826237518
 20
13.99461119333842
 30
0.0
 11
11.28858826237518
 21
13.67702589150115
 31
0.0
  0
LINE
  5
3609
330
1E
100
AcDbEntity
  8
7
100
AcDbLine
 10
11.28858826237518
 20
13.67702589150115
 30
0.0
 11
11.28727592641718
 21
13.36075292562188
 31
0.0
  0
LINE
  5
360A
330
1E
100
AcDbEntity
  8
7
100
AcDbLine
 10
11.28727592641718
 20
13.36075292562188
 30
0.0
 11
11.28596359045918
 21
13.04316762378461
 31
0.0
  0
LINE
  5
360B
330
1E
100
AcDbEntity
  8
7
100
AcDbLine
 10
11.28596359045918
 20
13.04316762378461
 30
0.0
 11
11.28333891854316
 21
12.72820699386335
 31
0.0
  0
LINE
  5
360C
330
1E
100
AcDbEntity
  8
7
100
AcDbLine
 10
11.28333891854316
 20
12.72820699386335
 30
0.0
 11
11.28071424662715
 21
12.41324636394209
 31
0.0
  0
LINE
  5
360D
330
1E
100
AcDbEntity
  8
7
100
AcDbLine
 10
11.28071424662715
 20
12.41324636394209
 30
0.0
 11
11.27677723875314
 21
12.10091040593685
 31
0.0
  0
LINE
  5
360E
330
1E
100
AcDbEntity
  8
7
100
AcDbLine
 10
11.27677723875314
 20
12.10091040593685
 30
0.0
 11
11.27152789492112
 21
11.7898867838896
 31
0.0
  0
LINE
  5
360F
330
1E
100
AcDbEntity
  8
7
100
AcDbLine
 10
11.27152789492112
 20
11.7898867838896
 30
0.0
 11
13.9185095222177
 21
11.7898867838896
 31
0.0
  0
LINE
  5
3610
330
1E
100
AcDbEntity
  8
7
100
AcDbLine
 10
13.9185095222177
 20
11.7898867838896
 30
0.0
 11
13.91457251434369
 21
12.10091040593685
 31
0.0
  0
LINE
  5
3611
330
1E
100
AcDbEntity
  8
7
100
AcDbLine
 10
13.91457251434369
 20
12.10091040593685
 30
0.0
 11
13.91063550646967
 21
12.41324636394209
 31
0.0
  0
LINE
  5
3612
330
1E
100
AcDbEntity
  8
7
100
AcDbLine
 10
11.27152789492112
 20
16.20064793874524
 30
0.0
 11
11.27677723875314
 21
15.889624316698
 31
0.0
  0
LINE
  5
3613
330
1E
100
AcDbEntity
  8
7
100
AcDbLine
 10
11.27677723875314
 20
15.889624316698
 30
0.0
 11
11.28071424662715
 21
15.57597602273474
 31
0.0
  0
LINE
  5
3614
330
1E
100
AcDbEntity
  8
7
100
AcDbLine
 10
11.28071424662715
 20
15.57597602273474
 30
0.0
 11
11.28333891854316
 21
15.26232772877149
 31
0.0
  0
LINE
  5
3615
330
1E
100
AcDbEntity
  8
7
100
AcDbLine
 10
11.28333891854316
 20
15.26232772877149
 30
0.0
 11
11.28596359045918
 21
14.94605476289222
 31
0.0
  0
LINE
  5
3616
330
1E
100
AcDbEntity
  8
7
100
AcDbLine
 10
11.28596359045918
 20
14.94605476289222
 30
0.0
 11
11.28727592641718
 21
14.62978179701296
 31
0.0
  0
LINE
  5
3617
330
1E
100
AcDbEntity
  8
7
100
AcDbLine
 10
11.25053051959303
 20
16.24526736131742
 30
0.0
 11
11.27152789492112
 21
16.22426998598933
 31
0.0
  0
LINE
  5
3618
330
1E
100
AcDbEntity
  8
7
100
AcDbLine
 10
11.27152789492112
 20
16.22426998598933
 30
0.0
 11
13.9185095222177
 21
16.22426998598933
 31
0.0
  0
LINE
  5
3619
330
1E
100
AcDbEntity
  8
7
100
AcDbLine
 10
13.9185095222177
 20
16.22426998598933
 30
0.0
 11
13.94081923350379
 21
16.24526736131742
 31
0.0
  0
LINE
  5
361A
330
1E
100
AcDbEntity
  8
7
100
AcDbLine
 10
13.95525492904185
 20
16.24133035344341
 30
0.0
 11
13.9670659526639
 21
16.22951932982136
 31
0.0
  0
LINE
  5
361B
330
1E
100
AcDbEntity
  8
7
100
AcDbLine
 10
13.9670659526639
 20
16.22951932982136
 30
0.0
 11
13.97100296053792
 21
16.2150836342833
 31
0.0
  0
LINE
  5
361C
330
1E
100
AcDbEntity
  8
7
100
AcDbLine
 10
11.25053051959303
 20
11.74526736131742
 30
0.0
 11
11.23609482405497
 21
11.74920436919144
 31
0.0
  0
LINE
  5
361D
330
1E
100
AcDbEntity
  8
7
100
AcDbLine
 10
11.23609482405497
 20
11.74920436919144
 30
0.0
 11
11.22428380043293
 21
11.75970305685548
 31
0.0
  0
LINE
  5
361E
330
1E
100
AcDbEntity
  8
7
100
AcDbLine
 10
11.22428380043293
 20
11.75970305685548
 30
0.0
 11
11.22034679255891
 21
11.77545108835154
 31
0.0
  0
LINE
  5
361F
330
1E
100
AcDbEntity
  8
7
100
AcDbLine
 10
11.22034679255891
 20
11.77545108835154
 30
0.0
 11
11.22034679255891
 21
16.2150836342833
 31
0.0
  0
LINE
  5
3620
330
1E
100
AcDbEntity
  8
7
100
AcDbLine
 10
11.22034679255891
 20
16.2150836342833
 30
0.0
 11
11.22428380043293
 21
16.22951932982136
 31
0.0
  0
LINE
  5
3621
330
1E
100
AcDbEntity
  8
7
100
AcDbLine
 10
11.22428380043293
 20
16.22951932982136
 30
0.0
 11
11.23609482405497
 21
16.24133035344341
 31
0.0
  0
LINE
  5
3622
330
1E
100
AcDbEntity
  8
7
100
AcDbLine
 10
11.23609482405497
 20
16.24133035344341
 30
0.0
 11
11.25053051959303
 21
16.24526736131742
 31
0.0
  0
LINE
  5
3623
330
1E
100
AcDbEntity
  8
7
100
AcDbLine
 10
13.97100296053792
 20
11.77545108835154
 30
0.0
 11
13.9670659526639
 21
11.75970305685548
 31
0.0
  0
LINE
  5
3624
330
1E
100
AcDbEntity
  8
7
100
AcDbLine
 10
13.9670659526639
 20
11.75970305685548
 30
0.0
 11
13.95525492904185
 21
11.74920436919144
 31
0.0
  0
LINE
  5
3625
330
1E
100
AcDbEntity
  8
7
100
AcDbLine
 10
13.94081923350379
 20
11.74526736131742
 30
0.0
 11
13.9185095222177
 21
11.76626473664551
 31
0.0
  0
LINE
  5
3626
330
1E
100
AcDbEntity
  8
7
100
AcDbLine
 10
13.9185095222177
 20
11.76626473664551
 30
0.0
 11
11.27152789492112
 21
11.76626473664551
 31
0.0
  0
LINE
  5
3627
330
1E
100
AcDbEntity
  8
7
100
AcDbLine
 10
11.27152789492112
 20
11.76626473664551
 30
0.0
 11
11.25053051959303
 21
11.74526736131742
 31
0.0
  0
LINE
  5
3628
330
1E
100
AcDbEntity
  8
7
100
AcDbLine
 10
12.27415256683713
 20
12.28463744005758
 30
0.0
 11
12.27415256683713
 21
12.23214400173737
 31
0.0
  0
LINE
  5
3629
330
1E
100
AcDbEntity
  8
7
100
AcDbLine
 10
12.27415256683713
 20
12.23214400173737
 30
0.0
 11
12.27284023087912
 21
12.23214400173737
 31
0.0
  0
LINE
  5
362A
330
1E
100
AcDbEntity
  8
7
100
AcDbLine
 10
12.6914754014828
 20
12.24395502535942
 30
0.0
 11
12.72428380043293
 21
12.26101539281349
 31
0.0
  0
LINE
  5
362B
330
1E
100
AcDbEntity
  8
7
100
AcDbLine
 10
12.72428380043293
 20
12.26101539281349
 30
0.0
 11
12.74921818363503
 21
12.28594977601559
 31
0.0
  0
LINE
  5
362C
330
1E
100
AcDbEntity
  8
7
100
AcDbLine
 10
12.74921818363503
 20
12.28594977601559
 30
0.0
 11
12.7662785510891
 21
12.31875817496572
 31
0.0
  0
LINE
  5
362D
330
1E
100
AcDbEntity
  8
7
100
AcDbLine
 10
12.7662785510891
 20
12.31875817496572
 30
0.0
 11
12.77152789492111
 21
12.35419124583186
 31
0.0
  0
LINE
  5
362E
330
1E
100
AcDbEntity
  8
7
100
AcDbLine
 10
12.77152789492111
 20
12.35419124583186
 30
0.0
 11
12.7662785510891
 21
12.389624316698
 31
0.0
  0
LINE
  5
362F
330
1E
100
AcDbEntity
  8
7
100
AcDbLine
 10
12.7662785510891
 20
12.389624316698
 30
0.0
 11
12.74921818363503
 21
12.42243271564813
 31
0.0
  0
LINE
  5
3630
330
1E
100
AcDbEntity
  8
7
100
AcDbLine
 10
12.74921818363503
 20
12.42243271564813
 30
0.0
 11
12.72428380043293
 21
12.44736709885023
 31
0.0
  0
LINE
  5
3631
330
1E
100
AcDbEntity
  8
7
100
AcDbLine
 10
12.72428380043293
 20
12.44736709885023
 30
0.0
 11
12.6914754014828
 21
12.4644274663043
 31
0.0
  0
LINE
  5
3632
330
1E
100
AcDbEntity
  8
7
100
AcDbLine
 10
12.6914754014828
 20
12.4644274663043
 30
0.0
 11
12.65604233061665
 21
12.46967681013632
 31
0.0
  0
LINE
  5
3633
330
1E
100
AcDbEntity
  8
7
100
AcDbLine
 10
12.4670659526639
 20
12.44736709885023
 30
0.0
 11
12.4421315694618
 21
12.42243271564813
 31
0.0
  0
LINE
  5
3634
330
1E
100
AcDbEntity
  8
7
100
AcDbLine
 10
12.4421315694618
 20
12.42243271564813
 30
0.0
 11
12.42507120200773
 21
12.389624316698
 31
0.0
  0
LINE
  5
3635
330
1E
100
AcDbEntity
  8
7
100
AcDbLine
 10
12.42507120200773
 20
12.389624316698
 30
0.0
 11
12.41982185817571
 21
12.35419124583186
 31
0.0
  0
LINE
  5
3636
330
1E
100
AcDbEntity
  8
7
100
AcDbLine
 10
12.41982185817571
 20
12.35419124583186
 30
0.0
 11
12.42507120200773
 21
12.31875817496572
 31
0.0
  0
LINE
  5
3637
330
1E
100
AcDbEntity
  8
7
100
AcDbLine
 10
12.42507120200773
 20
12.31875817496572
 30
0.0
 11
12.4421315694618
 21
12.28594977601559
 31
0.0
  0
LINE
  5
3638
330
1E
100
AcDbEntity
  8
7
100
AcDbLine
 10
12.4421315694618
 20
12.28594977601559
 30
0.0
 11
12.4670659526639
 21
12.26101539281349
 31
0.0
  0
LINE
  5
3639
330
1E
100
AcDbEntity
  8
7
100
AcDbLine
 10
12.4670659526639
 20
12.26101539281349
 30
0.0
 11
12.49987435161403
 21
12.24395502535942
 31
0.0
  0
LINE
  5
363A
330
1E
100
AcDbEntity
  8
7
100
AcDbLine
 10
12.49987435161403
 20
12.24395502535942
 30
0.0
 11
12.53530742248017
 21
12.23870568152739
 31
0.0
  0
LINE
  5
363B
330
1E
100
AcDbEntity
  8
7
100
AcDbLine
 10
12.53530742248017
 20
12.46967681013632
 30
0.0
 11
12.49987435161403
 21
12.4644274663043
 31
0.0
  0
LINE
  5
363C
330
1E
100
AcDbEntity
  8
7
100
AcDbLine
 10
12.49987435161403
 20
12.4644274663043
 30
0.0
 11
12.4670659526639
 21
12.44736709885023
 31
0.0
  0
LINE
  5
363D
330
1E
100
AcDbEntity
  8
7
100
AcDbLine
 10
12.27677723875314
 20
12.47492615396834
 30
0.0
 11
12.27677723875314
 21
12.42243271564813
 31
0.0
  0
LINE
  5
363E
330
1E
100
AcDbEntity
  8
7
100
AcDbLine
 10
12.27677723875314
 20
12.42243271564813
 30
0.0
 11
12.25053051959303
 21
12.42243271564813
 31
0.0
  0
LINE
  5
363F
330
1E
100
AcDbEntity
  8
7
100
AcDbLine
 10
12.25053051959303
 20
12.42243271564813
 30
0.0
 11
12.25053051959303
 21
12.28726211197359
 31
0.0
  0
LINE
  5
3640
330
1E
100
AcDbEntity
  8
7
100
AcDbLine
 10
12.25053051959303
 20
12.28726211197359
 30
0.0
 11
12.27677723875314
 21
12.28726211197359
 31
0.0
  0
LINE
  5
3641
330
1E
100
AcDbEntity
  8
7
100
AcDbLine
 10
12.27677723875314
 20
12.28726211197359
 30
0.0
 11
12.27677723875314
 21
12.23345633769538
 31
0.0
  0
LINE
  5
3642
330
1E
100
AcDbEntity
  8
7
100
AcDbLine
 10
12.27677723875314
 20
12.23345633769538
 30
0.0
 11
12.91457251434369
 21
12.23345633769538
 31
0.0
  0
LINE
  5
3643
330
1E
100
AcDbEntity
  8
7
100
AcDbLine
 10
12.91457251434369
 20
12.23345633769538
 30
0.0
 11
12.91457251434369
 21
12.28726211197359
 31
0.0
  0
LINE
  5
3644
330
1E
100
AcDbEntity
  8
7
100
AcDbLine
 10
12.91457251434369
 20
12.28726211197359
 30
0.0
 11
12.94081923350379
 21
12.28726211197359
 31
0.0
  0
LINE
  5
3645
330
1E
100
AcDbEntity
  8
7
100
AcDbLine
 10
12.94081923350379
 20
12.28726211197359
 30
0.0
 11
12.94081923350379
 21
12.42243271564813
 31
0.0
  0
LINE
  5
3646
330
1E
100
AcDbEntity
  8
7
100
AcDbLine
 10
12.94081923350379
 20
12.42243271564813
 30
0.0
 11
12.91457251434369
 21
12.42243271564813
 31
0.0
  0
LINE
  5
3647
330
1E
100
AcDbEntity
  8
7
100
AcDbLine
 10
12.91457251434369
 20
12.42243271564813
 30
0.0
 11
12.91457251434369
 21
12.47492615396834
 31
0.0
  0
LINE
  5
3648
330
1E
100
AcDbEntity
  8
7
100
AcDbLine
 10
12.91457251434369
 20
12.47492615396834
 30
0.0
 11
12.27677723875314
 21
12.47492615396834
 31
0.0
  0
LINE
  5
3649
330
1E
100
AcDbEntity
  8
7
100
AcDbLine
 10
12.50643603140406
 20
12.42374505160614
 30
0.0
 11
12.48281398415996
 21
12.40668468415207
 31
0.0
  0
LINE
  5
364A
330
1E
100
AcDbEntity
  8
7
100
AcDbLine
 10
12.48281398415996
 20
12.40668468415207
 30
0.0
 11
12.46575361670589
 21
12.38306263690797
 31
0.0
  0
LINE
  5
364B
330
1E
100
AcDbEntity
  8
7
100
AcDbLine
 10
12.46575361670589
 20
12.38306263690797
 30
0.0
 11
12.46050427287387
 21
12.35419124583186
 31
0.0
  0
LINE
  5
364C
330
1E
100
AcDbEntity
  8
7
100
AcDbLine
 10
12.46050427287387
 20
12.35419124583186
 30
0.0
 11
12.46575361670589
 21
12.32531985475574
 31
0.0
  0
LINE
  5
364D
330
1E
100
AcDbEntity
  8
7
100
AcDbLine
 10
12.46575361670589
 20
12.32531985475574
 30
0.0
 11
12.48281398415996
 21
12.30169780751165
 31
0.0
  0
LINE
  5
364E
330
1E
100
AcDbEntity
  8
7
100
AcDbLine
 10
12.48281398415996
 20
12.30169780751165
 30
0.0
 11
12.50643603140406
 21
12.28463744005758
 31
0.0
  0
LINE
  5
364F
330
1E
100
AcDbEntity
  8
7
100
AcDbLine
 10
12.50643603140406
 20
12.28463744005758
 30
0.0
 11
12.53530742248017
 21
12.27938809622556
 31
0.0
  0
LINE
  5
3650
330
1E
100
AcDbEntity
  8
7
100
AcDbLine
 10
12.65604233061665
 20
12.27938809622556
 30
0.0
 11
12.68491372169277
 21
12.28463744005758
 31
0.0
  0
LINE
  5
3651
330
1E
100
AcDbEntity
  8
7
100
AcDbLine
 10
12.68491372169277
 20
12.28463744005758
 30
0.0
 11
12.70853576893686
 21
12.30169780751165
 31
0.0
  0
LINE
  5
3652
330
1E
100
AcDbEntity
  8
7
100
AcDbLine
 10
12.70853576893686
 20
12.30169780751165
 30
0.0
 11
12.72559613639093
 21
12.32531985475574
 31
0.0
  0
LINE
  5
3653
330
1E
100
AcDbEntity
  8
7
100
AcDbLine
 10
12.72559613639093
 20
12.32531985475574
 30
0.0
 11
12.73084548022295
 21
12.35419124583186
 31
0.0
  0
LINE
  5
3654
330
1E
100
AcDbEntity
  8
7
100
AcDbLine
 10
12.73084548022295
 20
12.35419124583186
 30
0.0
 11
12.72559613639093
 21
12.38306263690797
 31
0.0
  0
LINE
  5
3655
330
1E
100
AcDbEntity
  8
7
100
AcDbLine
 10
12.72559613639093
 20
12.38306263690797
 30
0.0
 11
12.70853576893686
 21
12.40668468415207
 31
0.0
  0
LINE
  5
3656
330
1E
100
AcDbEntity
  8
7
100
AcDbLine
 10
12.70853576893686
 20
12.40668468415207
 30
0.0
 11
12.68491372169277
 21
12.42374505160614
 31
0.0
  0
LINE
  5
3657
330
1E
100
AcDbEntity
  8
7
100
AcDbLine
 10
12.68491372169277
 20
12.42374505160614
 30
0.0
 11
12.65604233061665
 21
12.42899439543815
 31
0.0
  0
LINE
  5
3658
330
1E
100
AcDbEntity
  8
7
100
AcDbLine
 10
12.65604233061665
 20
12.27938809622556
 30
0.0
 11
12.68491372169277
 21
12.28463744005758
 31
0.0
  0
LINE
  5
3659
330
1E
100
AcDbEntity
  8
7
100
AcDbLine
 10
12.68491372169277
 20
12.28463744005758
 30
0.0
 11
12.70853576893686
 21
12.30169780751165
 31
0.0
  0
LINE
  5
365A
330
1E
100
AcDbEntity
  8
7
100
AcDbLine
 10
12.70853576893686
 20
12.30169780751165
 30
0.0
 11
12.72559613639093
 21
12.32531985475574
 31
0.0
  0
LINE
  5
365B
330
1E
100
AcDbEntity
  8
7
100
AcDbLine
 10
12.72559613639093
 20
12.32531985475574
 30
0.0
 11
12.73084548022295
 21
12.35419124583186
 31
0.0
  0
LINE
  5
365C
330
1E
100
AcDbEntity
  8
7
100
AcDbLine
 10
12.73084548022295
 20
12.35419124583186
 30
0.0
 11
12.72559613639093
 21
12.38306263690797
 31
0.0
  0
LINE
  5
365D
330
1E
100
AcDbEntity
  8
7
100
AcDbLine
 10
12.72559613639093
 20
12.38306263690797
 30
0.0
 11
12.70853576893686
 21
12.40668468415207
 31
0.0
  0
LINE
  5
365E
330
1E
100
AcDbEntity
  8
7
100
AcDbLine
 10
12.70853576893686
 20
12.40668468415207
 30
0.0
 11
12.68491372169277
 21
12.42374505160614
 31
0.0
  0
LINE
  5
365F
330
1E
100
AcDbEntity
  8
7
100
AcDbLine
 10
12.68491372169277
 20
12.42374505160614
 30
0.0
 11
12.65604233061665
 21
12.42899439543815
 31
0.0
  0
LINE
  5
3660
330
1E
100
AcDbEntity
  8
7
100
AcDbLine
 10
12.53530742248017
 20
12.42899439543815
 30
0.0
 11
12.50643603140406
 21
12.42374505160614
 31
0.0
  0
LINE
  5
3661
330
1E
100
AcDbEntity
  8
7
100
AcDbLine
 10
12.50643603140406
 20
12.42374505160614
 30
0.0
 11
12.48281398415996
 21
12.40668468415207
 31
0.0
  0
LINE
  5
3662
330
1E
100
AcDbEntity
  8
7
100
AcDbLine
 10
12.48281398415996
 20
12.40668468415207
 30
0.0
 11
12.46575361670589
 21
12.38306263690797
 31
0.0
  0
LINE
  5
3663
330
1E
100
AcDbEntity
  8
7
100
AcDbLine
 10
12.46575361670589
 20
12.38306263690797
 30
0.0
 11
12.46050427287387
 21
12.35419124583186
 31
0.0
  0
LINE
  5
3664
330
1E
100
AcDbEntity
  8
7
100
AcDbLine
 10
12.46050427287387
 20
12.35419124583186
 30
0.0
 11
12.46575361670589
 21
12.32531985475574
 31
0.0
  0
LINE
  5
3665
330
1E
100
AcDbEntity
  8
7
100
AcDbLine
 10
12.46575361670589
 20
12.32531985475574
 30
0.0
 11
12.48281398415996
 21
12.30169780751165
 31
0.0
  0
LINE
  5
3666
330
1E
100
AcDbEntity
  8
7
100
AcDbLine
 10
12.48281398415996
 20
12.30169780751165
 30
0.0
 11
12.50643603140406
 21
12.28463744005758
 31
0.0
  0
LINE
  5
3667
330
1E
100
AcDbEntity
  8
7
100
AcDbLine
 10
12.50643603140406
 20
12.28463744005758
 30
0.0
 11
12.53530742248017
 21
12.27938809622556
 31
0.0
  0
LINE
  5
3668
330
1E
100
AcDbEntity
  8
7
100
AcDbLine
 10
12.65604233061665
 20
12.2400180174854
 30
0.0
 11
12.6914754014828
 21
12.24526736131742
 31
0.0
  0
LINE
  5
3669
330
1E
100
AcDbEntity
  8
7
100
AcDbLine
 10
12.6914754014828
 20
12.24526736131742
 30
0.0
 11
12.72297146447492
 21
12.26232772877149
 31
0.0
  0
LINE
  5
366A
330
1E
100
AcDbEntity
  8
7
100
AcDbLine
 10
12.72297146447492
 20
12.26232772877149
 30
0.0
 11
12.74790584767702
 21
12.28726211197359
 31
0.0
  0
LINE
  5
366B
330
1E
100
AcDbEntity
  8
7
100
AcDbLine
 10
12.74790584767702
 20
12.28726211197359
 30
0.0
 11
12.76496621513109
 21
12.31875817496572
 31
0.0
  0
LINE
  5
366C
330
1E
100
AcDbEntity
  8
7
100
AcDbLine
 10
12.76496621513109
 20
12.31875817496572
 30
0.0
 11
12.77021555896311
 21
12.35419124583186
 31
0.0
  0
LINE
  5
366D
330
1E
100
AcDbEntity
  8
7
100
AcDbLine
 10
12.77021555896311
 20
12.35419124583186
 30
0.0
 11
12.76496621513109
 21
12.389624316698
 31
0.0
  0
LINE
  5
366E
330
1E
100
AcDbEntity
  8
7
100
AcDbLine
 10
12.76496621513109
 20
12.389624316698
 30
0.0
 11
12.74790584767702
 21
12.42112037969013
 31
0.0
  0
LINE
  5
366F
330
1E
100
AcDbEntity
  8
7
100
AcDbLine
 10
12.74790584767702
 20
12.42112037969013
 30
0.0
 11
12.72297146447492
 21
12.44605476289223
 31
0.0
  0
LINE
  5
3670
330
1E
100
AcDbEntity
  8
7
100
AcDbLine
 10
12.72297146447492
 20
12.44605476289223
 30
0.0
 11
12.6914754014828
 21
12.4631151303463
 31
0.0
  0
LINE
  5
3671
330
1E
100
AcDbEntity
  8
7
100
AcDbLine
 10
12.6914754014828
 20
12.4631151303463
 30
0.0
 11
12.65604233061665
 21
12.46836447417831
 31
0.0
  0
LINE
  5
3672
330
1E
100
AcDbEntity
  8
7
100
AcDbLine
 10
12.53530742248017
 20
12.46836447417831
 30
0.0
 11
12.49987435161403
 21
12.4631151303463
 31
0.0
  0
LINE
  5
3673
330
1E
100
AcDbEntity
  8
7
100
AcDbLine
 10
12.49987435161403
 20
12.4631151303463
 30
0.0
 11
12.4683782886219
 21
12.44605476289223
 31
0.0
  0
LINE
  5
3674
330
1E
100
AcDbEntity
  8
7
100
AcDbLine
 10
12.4683782886219
 20
12.44605476289223
 30
0.0
 11
12.4434439054198
 21
12.42112037969013
 31
0.0
  0
LINE
  5
3675
330
1E
100
AcDbEntity
  8
7
100
AcDbLine
 10
12.4434439054198
 20
12.42112037969013
 30
0.0
 11
12.42638353796573
 21
12.389624316698
 31
0.0
  0
LINE
  5
3676
330
1E
100
AcDbEntity
  8
7
100
AcDbLine
 10
12.42638353796573
 20
12.389624316698
 30
0.0
 11
12.42113419413372
 21
12.35419124583186
 31
0.0
  0
LINE
  5
3677
330
1E
100
AcDbEntity
  8
7
100
AcDbLine
 10
12.42113419413372
 20
12.35419124583186
 30
0.0
 11
12.42638353796573
 21
12.31875817496572
 31
0.0
  0
LINE
  5
3678
330
1E
100
AcDbEntity
  8
7
100
AcDbLine
 10
12.42638353796573
 20
12.31875817496572
 30
0.0
 11
12.4434439054198
 21
12.28726211197359
 31
0.0
  0
LINE
  5
3679
330
1E
100
AcDbEntity
  8
7
100
AcDbLine
 10
12.4434439054198
 20
12.28726211197359
 30
0.0
 11
12.4683782886219
 21
12.26232772877149
 31
0.0
  0
LINE
  5
367A
330
1E
100
AcDbEntity
  8
7
100
AcDbLine
 10
12.4683782886219
 20
12.26232772877149
 30
0.0
 11
12.49987435161403
 21
12.24526736131742
 31
0.0
  0
LINE
  5
367B
330
1E
100
AcDbEntity
  8
7
100
AcDbLine
 10
12.49987435161403
 20
12.24526736131742
 30
0.0
 11
12.53530742248017
 21
12.2400180174854
 31
0.0
  0
LINE
  5
367C
330
1E
100
AcDbEntity
  8
7
100
AcDbLine
 10
12.72428380043293
 20
15.54185528782661
 30
0.0
 11
12.74921818363503
 21
15.56678967102871
 31
0.0
  0
LINE
  5
367D
330
1E
100
AcDbEntity
  8
7
100
AcDbLine
 10
12.74921818363503
 20
15.56678967102871
 30
0.0
 11
12.7662785510891
 21
15.59959806997884
 31
0.0
  0
LINE
  5
367E
330
1E
100
AcDbEntity
  8
7
100
AcDbLine
 10
12.7662785510891
 20
15.59959806997884
 30
0.0
 11
12.77152789492111
 21
15.63503114084498
 31
0.0
  0
LINE
  5
367F
330
1E
100
AcDbEntity
  8
7
100
AcDbLine
 10
12.77152789492111
 20
15.63503114084498
 30
0.0
 11
12.7662785510891
 21
15.67046421171112
 31
0.0
  0
LINE
  5
3680
330
1E
100
AcDbEntity
  8
7
100
AcDbLine
 10
12.7662785510891
 20
15.67046421171112
 30
0.0
 11
12.74921818363503
 21
15.70327261066125
 31
0.0
  0
LINE
  5
3681
330
1E
100
AcDbEntity
  8
7
100
AcDbLine
 10
12.74921818363503
 20
15.70327261066125
 30
0.0
 11
12.72428380043293
 21
15.72820699386335
 31
0.0
  0
LINE
  5
3682
330
1E
100
AcDbEntity
  8
7
100
AcDbLine
 10
12.72428380043293
 20
15.72820699386335
 30
0.0
 11
12.6914754014828
 21
15.74526736131742
 31
0.0
  0
LINE
  5
3683
330
1E
100
AcDbEntity
  8
7
100
AcDbLine
 10
12.6914754014828
 20
15.74526736131742
 30
0.0
 11
12.65604233061665
 21
15.75051670514944
 31
0.0
  0
LINE
  5
3684
330
1E
100
AcDbEntity
  8
7
100
AcDbLine
 10
12.65604233061665
 20
15.51954557654052
 30
0.0
 11
12.6914754014828
 21
15.52479492037254
 31
0.0
  0
LINE
  5
3685
330
1E
100
AcDbEntity
  8
7
100
AcDbLine
 10
12.6914754014828
 20
15.52479492037254
 30
0.0
 11
12.72428380043293
 21
15.54185528782661
 31
0.0
  0
LINE
  5
3686
330
1E
100
AcDbEntity
  8
7
100
AcDbLine
 10
12.4421315694618
 20
15.70327261066125
 30
0.0
 11
12.42507120200773
 21
15.67046421171112
 31
0.0
  0
LINE
  5
3687
330
1E
100
AcDbEntity
  8
7
100
AcDbLine
 10
12.42507120200773
 20
15.67046421171112
 30
0.0
 11
12.41982185817571
 21
15.63503114084498
 31
0.0
  0
LINE
  5
3688
330
1E
100
AcDbEntity
  8
7
100
AcDbLine
 10
12.41982185817571
 20
15.63503114084498
 30
0.0
 11
12.42507120200773
 21
15.59959806997884
 31
0.0
  0
LINE
  5
3689
330
1E
100
AcDbEntity
  8
7
100
AcDbLine
 10
12.42507120200773
 20
15.59959806997884
 30
0.0
 11
12.4421315694618
 21
15.56678967102871
 31
0.0
  0
LINE
  5
368A
330
1E
100
AcDbEntity
  8
7
100
AcDbLine
 10
12.4421315694618
 20
15.56678967102871
 30
0.0
 11
12.4670659526639
 21
15.54185528782661
 31
0.0
  0
LINE
  5
368B
330
1E
100
AcDbEntity
  8
7
100
AcDbLine
 10
12.4670659526639
 20
15.54185528782661
 30
0.0
 11
12.49987435161403
 21
15.52479492037254
 31
0.0
  0
LINE
  5
368C
330
1E
100
AcDbEntity
  8
7
100
AcDbLine
 10
12.49987435161403
 20
15.52479492037254
 30
0.0
 11
12.53530742248017
 21
15.51954557654052
 31
0.0
  0
LINE
  5
368D
330
1E
100
AcDbEntity
  8
7
100
AcDbLine
 10
12.53530742248017
 20
15.75051670514944
 30
0.0
 11
12.49987435161403
 21
15.74526736131742
 31
0.0
  0
LINE
  5
368E
330
1E
100
AcDbEntity
  8
7
100
AcDbLine
 10
12.49987435161403
 20
15.74526736131742
 30
0.0
 11
12.4670659526639
 21
15.72820699386335
 31
0.0
  0
LINE
  5
368F
330
1E
100
AcDbEntity
  8
7
100
AcDbLine
 10
12.4670659526639
 20
15.72820699386335
 30
0.0
 11
12.4421315694618
 21
15.70327261066125
 31
0.0
  0
LINE
  5
3690
330
1E
100
AcDbEntity
  8
7
100
AcDbLine
 10
12.53530742248017
 20
15.70983429045128
 30
0.0
 11
12.50643603140406
 21
15.70458494661926
 31
0.0
  0
LINE
  5
3691
330
1E
100
AcDbEntity
  8
7
100
AcDbLine
 10
12.50643603140406
 20
15.70458494661926
 30
0.0
 11
12.48281398415996
 21
15.68752457916519
 31
0.0
  0
LINE
  5
3692
330
1E
100
AcDbEntity
  8
7
100
AcDbLine
 10
12.48281398415996
 20
15.68752457916519
 30
0.0
 11
12.46575361670589
 21
15.6639025319211
 31
0.0
  0
LINE
  5
3693
330
1E
100
AcDbEntity
  8
7
100
AcDbLine
 10
12.46575361670589
 20
15.6639025319211
 30
0.0
 11
12.46050427287387
 21
15.63503114084498
 31
0.0
  0
LINE
  5
3694
330
1E
100
AcDbEntity
  8
7
100
AcDbLine
 10
12.46050427287387
 20
15.63503114084498
 30
0.0
 11
12.46575361670589
 21
15.60615974976887
 31
0.0
  0
LINE
  5
3695
330
1E
100
AcDbEntity
  8
7
100
AcDbLine
 10
12.46575361670589
 20
15.60615974976887
 30
0.0
 11
12.48281398415996
 21
15.58253770252477
 31
0.0
  0
LINE
  5
3696
330
1E
100
AcDbEntity
  8
7
100
AcDbLine
 10
12.48281398415996
 20
15.58253770252477
 30
0.0
 11
12.50643603140406
 21
15.5654773350707
 31
0.0
  0
LINE
  5
3697
330
1E
100
AcDbEntity
  8
7
100
AcDbLine
 10
12.65604233061665
 20
15.56022799123868
 30
0.0
 11
12.68491372169277
 21
15.5654773350707
 31
0.0
  0
LINE
  5
3698
330
1E
100
AcDbEntity
  8
7
100
AcDbLine
 10
12.68491372169277
 20
15.5654773350707
 30
0.0
 11
12.70853576893686
 21
15.58253770252477
 31
0.0
  0
LINE
  5
3699
330
1E
100
AcDbEntity
  8
7
100
AcDbLine
 10
12.70853576893686
 20
15.58253770252477
 30
0.0
 11
12.72559613639093
 21
15.60615974976887
 31
0.0
  0
LINE
  5
369A
330
1E
100
AcDbEntity
  8
7
100
AcDbLine
 10
12.72559613639093
 20
15.60615974976887
 30
0.0
 11
12.73084548022295
 21
15.63503114084498
 31
0.0
  0
LINE
  5
369B
330
1E
100
AcDbEntity
  8
7
100
AcDbLine
 10
12.73084548022295
 20
15.63503114084498
 30
0.0
 11
12.72559613639093
 21
15.6639025319211
 31
0.0
  0
LINE
  5
369C
330
1E
100
AcDbEntity
  8
7
100
AcDbLine
 10
12.72559613639093
 20
15.6639025319211
 30
0.0
 11
12.70853576893686
 21
15.68752457916519
 31
0.0
  0
LINE
  5
369D
330
1E
100
AcDbEntity
  8
7
100
AcDbLine
 10
12.70853576893686
 20
15.68752457916519
 30
0.0
 11
12.68491372169277
 21
15.70458494661926
 31
0.0
  0
LINE
  5
369E
330
1E
100
AcDbEntity
  8
7
100
AcDbLine
 10
12.70853576893686
 20
15.68752457916519
 30
0.0
 11
12.68491372169277
 21
15.70458494661926
 31
0.0
  0
LINE
  5
369F
330
1E
100
AcDbEntity
  8
7
100
AcDbLine
 10
12.68491372169277
 20
15.70458494661926
 30
0.0
 11
12.65604233061665
 21
15.70983429045128
 31
0.0
  0
LINE
  5
36A0
330
1E
100
AcDbEntity
  8
7
100
AcDbLine
 10
12.65604233061665
 20
15.56022799123868
 30
0.0
 11
12.68491372169277
 21
15.5654773350707
 31
0.0
  0
LINE
  5
36A1
330
1E
100
AcDbEntity
  8
7
100
AcDbLine
 10
12.68491372169277
 20
15.5654773350707
 30
0.0
 11
12.70853576893686
 21
15.58253770252477
 31
0.0
  0
LINE
  5
36A2
330
1E
100
AcDbEntity
  8
7
100
AcDbLine
 10
12.70853576893686
 20
15.58253770252477
 30
0.0
 11
12.72559613639093
 21
15.60615974976887
 31
0.0
  0
LINE
  5
36A3
330
1E
100
AcDbEntity
  8
7
100
AcDbLine
 10
12.72559613639093
 20
15.60615974976887
 30
0.0
 11
12.73084548022295
 21
15.63503114084498
 31
0.0
  0
LINE
  5
36A4
330
1E
100
AcDbEntity
  8
7
100
AcDbLine
 10
12.73084548022295
 20
15.63503114084498
 30
0.0
 11
12.72559613639093
 21
15.6639025319211
 31
0.0
  0
LINE
  5
36A5
330
1E
100
AcDbEntity
  8
7
100
AcDbLine
 10
12.72559613639093
 20
15.6639025319211
 30
0.0
 11
12.70853576893686
 21
15.68752457916519
 31
0.0
  0
LINE
  5
36A6
330
1E
100
AcDbEntity
  8
7
100
AcDbLine
 10
12.46050427287387
 20
15.63503114084498
 30
0.0
 11
12.46575361670589
 21
15.60615974976887
 31
0.0
  0
LINE
  5
36A7
330
1E
100
AcDbEntity
  8
7
100
AcDbLine
 10
12.46575361670589
 20
15.60615974976887
 30
0.0
 11
12.48281398415996
 21
15.58253770252477
 31
0.0
  0
LINE
  5
36A8
330
1E
100
AcDbEntity
  8
7
100
AcDbLine
 10
12.48281398415996
 20
15.58253770252477
 30
0.0
 11
12.50643603140406
 21
15.5654773350707
 31
0.0
  0
LINE
  5
36A9
330
1E
100
AcDbEntity
  8
7
100
AcDbLine
 10
12.50643603140406
 20
15.5654773350707
 30
0.0
 11
12.53530742248017
 21
15.56022799123868
 31
0.0
  0
LINE
  5
36AA
330
1E
100
AcDbEntity
  8
7
100
AcDbLine
 10
12.53530742248017
 20
15.70983429045128
 30
0.0
 11
12.50643603140406
 21
15.70458494661926
 31
0.0
  0
LINE
  5
36AB
330
1E
100
AcDbEntity
  8
7
100
AcDbLine
 10
12.50643603140406
 20
15.70458494661926
 30
0.0
 11
12.48281398415996
 21
15.68752457916519
 31
0.0
  0
LINE
  5
36AC
330
1E
100
AcDbEntity
  8
7
100
AcDbLine
 10
12.48281398415996
 20
15.68752457916519
 30
0.0
 11
12.46575361670589
 21
15.6639025319211
 31
0.0
  0
LINE
  5
36AD
330
1E
100
AcDbEntity
  8
7
100
AcDbLine
 10
12.46575361670589
 20
15.6639025319211
 30
0.0
 11
12.46050427287387
 21
15.63503114084498
 31
0.0
  0
LINE
  5
36AE
330
1E
100
AcDbEntity
  8
7
100
AcDbLine
 10
12.4434439054198
 20
15.70196027470325
 30
0.0
 11
12.42638353796573
 21
15.67046421171112
 31
0.0
  0
LINE
  5
36AF
330
1E
100
AcDbEntity
  8
7
100
AcDbLine
 10
12.42638353796573
 20
15.67046421171112
 30
0.0
 11
12.42113419413372
 21
15.63503114084498
 31
0.0
  0
LINE
  5
36B0
330
1E
100
AcDbEntity
  8
7
100
AcDbLine
 10
12.42113419413372
 20
15.63503114084498
 30
0.0
 11
12.42638353796573
 21
15.59959806997884
 31
0.0
  0
LINE
  5
36B1
330
1E
100
AcDbEntity
  8
7
100
AcDbLine
 10
12.42638353796573
 20
15.59959806997884
 30
0.0
 11
12.4434439054198
 21
15.56810200698671
 31
0.0
  0
LINE
  5
36B2
330
1E
100
AcDbEntity
  8
7
100
AcDbLine
 10
12.4434439054198
 20
15.56810200698671
 30
0.0
 11
12.4683782886219
 21
15.54316762378461
 31
0.0
  0
LINE
  5
36B3
330
1E
100
AcDbEntity
  8
7
100
AcDbLine
 10
12.4683782886219
 20
15.54316762378461
 30
0.0
 11
12.49987435161403
 21
15.52610725633055
 31
0.0
  0
LINE
  5
36B4
330
1E
100
AcDbEntity
  8
7
100
AcDbLine
 10
12.49987435161403
 20
15.52610725633055
 30
0.0
 11
12.53530742248017
 21
15.52085791249852
 31
0.0
  0
LINE
  5
36B5
330
1E
100
AcDbEntity
  8
7
100
AcDbLine
 10
12.53530742248017
 20
15.74920436919144
 30
0.0
 11
12.49987435161403
 21
15.74395502535941
 31
0.0
  0
LINE
  5
36B6
330
1E
100
AcDbEntity
  8
7
100
AcDbLine
 10
12.49987435161403
 20
15.74395502535941
 30
0.0
 11
12.4683782886219
 21
15.72689465790535
 31
0.0
  0
LINE
  5
36B7
330
1E
100
AcDbEntity
  8
7
100
AcDbLine
 10
12.4683782886219
 20
15.72689465790535
 30
0.0
 11
12.4434439054198
 21
15.70196027470325
 31
0.0
  0
LINE
  5
36B8
330
1E
100
AcDbEntity
  8
7
100
AcDbLine
 10
12.77021555896311
 20
15.63503114084498
 30
0.0
 11
12.76496621513109
 21
15.67046421171112
 31
0.0
  0
LINE
  5
36B9
330
1E
100
AcDbEntity
  8
7
100
AcDbLine
 10
12.76496621513109
 20
15.67046421171112
 30
0.0
 11
12.74790584767702
 21
15.70196027470325
 31
0.0
  0
LINE
  5
36BA
330
1E
100
AcDbEntity
  8
7
100
AcDbLine
 10
12.74790584767702
 20
15.70196027470325
 30
0.0
 11
12.72297146447492
 21
15.72689465790535
 31
0.0
  0
LINE
  5
36BB
330
1E
100
AcDbEntity
  8
7
100
AcDbLine
 10
12.72297146447492
 20
15.72689465790535
 30
0.0
 11
12.6914754014828
 21
15.74395502535941
 31
0.0
  0
LINE
  5
36BC
330
1E
100
AcDbEntity
  8
7
100
AcDbLine
 10
12.6914754014828
 20
15.74395502535941
 30
0.0
 11
12.65604233061665
 21
15.74920436919144
 31
0.0
  0
LINE
  5
36BD
330
1E
100
AcDbEntity
  8
7
100
AcDbLine
 10
12.65604233061665
 20
15.52085791249852
 30
0.0
 11
12.6914754014828
 21
15.52610725633055
 31
0.0
  0
LINE
  5
36BE
330
1E
100
AcDbEntity
  8
7
100
AcDbLine
 10
12.6914754014828
 20
15.52610725633055
 30
0.0
 11
12.72297146447492
 21
15.54316762378461
 31
0.0
  0
LINE
  5
36BF
330
1E
100
AcDbEntity
  8
7
100
AcDbLine
 10
12.72297146447492
 20
15.54316762378461
 30
0.0
 11
12.74790584767702
 21
15.56810200698671
 31
0.0
  0
LINE
  5
36C0
330
1E
100
AcDbEntity
  8
7
100
AcDbLine
 10
12.74790584767702
 20
15.56810200698671
 30
0.0
 11
12.76496621513109
 21
15.59959806997884
 31
0.0
  0
LINE
  5
36C1
330
1E
100
AcDbEntity
  8
7
100
AcDbLine
 10
12.76496621513109
 20
15.59959806997884
 30
0.0
 11
12.77021555896311
 21
15.63503114084498
 31
0.0
  0
LINE
  5
36C2
330
1E
100
AcDbEntity
  8
7
100
AcDbLine
 10
12.80827330174526
 20
13.23739334556939
 30
0.0
 11
12.80696096578726
 21
13.26757707260351
 31
0.0
  0
LINE
  5
36C3
330
1E
100
AcDbEntity
  8
7
100
AcDbLine
 10
12.80696096578726
 20
13.26757707260351
 30
0.0
 11
13.0182470550261
 21
13.26757707260351
 31
0.0
  0
LINE
  5
36C4
330
1E
100
AcDbEntity
  8
7
100
AcDbLine
 10
13.0182470550261
 20
13.26757707260351
 30
0.0
 11
13.0182470550261
 21
13.23739334556939
 31
0.0
  0
LINE
  5
36C5
330
1E
100
AcDbEntity
  8
7
100
AcDbLine
 10
12.17179036211272
 20
13.26757707260351
 30
0.0
 11
12.38438878730957
 21
13.26757707260351
 31
0.0
  0
LINE
  5
36C6
330
1E
100
AcDbEntity
  8
7
100
AcDbLine
 10
12.38438878730957
 20
13.26757707260351
 30
0.0
 11
12.38307645135156
 21
13.23739334556939
 31
0.0
  0
LINE
  5
36C7
330
1E
100
AcDbEntity
  8
7
100
AcDbLine
 10
13.23347015213896
 20
13.49461119333842
 30
0.0
 11
13.23478248809697
 21
13.50510988100246
 31
0.0
  0
LINE
  5
36C8
330
1E
100
AcDbEntity
  8
7
100
AcDbLine
 10
13.23478248809697
 20
13.50510988100246
 30
0.0
 11
13.25971687129907
 21
13.50510988100246
 31
0.0
  0
LINE
  5
36C9
330
1E
100
AcDbEntity
  8
7
100
AcDbLine
 10
13.25840453534106
 20
13.60878442168488
 30
0.0
 11
13.25971687129907
 21
13.62059544530692
 31
0.0
  0
LINE
  5
36CA
330
1E
100
AcDbEntity
  8
7
100
AcDbLine
 10
13.25971687129907
 20
13.62059544530692
 30
0.0
 11
13.23478248809697
 21
13.62059544530692
 31
0.0
  0
LINE
  5
36CB
330
1E
100
AcDbEntity
  8
7
100
AcDbLine
 10
11.95656726499986
 20
13.65077917234104
 30
0.0
 11
11.95656726499986
 21
13.66259019596309
 31
0.0
  0
LINE
  5
36CC
330
1E
100
AcDbEntity
  8
7
100
AcDbLine
 10
11.95656726499986
 20
13.66259019596309
 30
0.0
 11
11.95656726499986
 21
13.62059544530692
 31
0.0
  0
LINE
  5
36CD
330
1E
100
AcDbEntity
  8
7
100
AcDbLine
 10
11.95656726499986
 20
13.49461119333842
 30
0.0
 11
11.95656726499986
 21
13.50510988100246
 31
0.0
  0
LINE
  5
36CE
330
1E
100
AcDbEntity
  8
7
100
AcDbLine
 10
11.95656726499986
 20
13.50510988100246
 30
0.0
 11
11.95656726499986
 21
13.46311513034629
 31
0.0
  0
LINE
  5
36CF
330
1E
100
AcDbEntity
  8
7
100
AcDbLine
 10
12.87651477156154
 20
13.52610725633055
 30
0.0
 11
12.88176411539356
 21
13.54316762378461
 31
0.0
  0
LINE
  5
36D0
330
1E
100
AcDbEntity
  8
7
100
AcDbLine
 10
12.88176411539356
 20
13.54316762378461
 30
0.0
 11
12.89751214688962
 21
13.55366631144865
 31
0.0
  0
LINE
  5
36D1
330
1E
100
AcDbEntity
  8
7
100
AcDbLine
 10
12.89751214688962
 20
13.55366631144865
 30
0.0
 11
12.9185095222177
 21
13.55629098336466
 31
0.0
  0
LINE
  5
36D2
330
1E
100
AcDbEntity
  8
7
100
AcDbLine
 10
12.9185095222177
 20
13.55629098336466
 30
0.0
 11
12.93688222562978
 21
13.54841696761663
 31
0.0
  0
LINE
  5
36D3
330
1E
100
AcDbEntity
  8
7
100
AcDbLine
 10
12.93688222562978
 20
13.54841696761663
 30
0.0
 11
12.94869324925183
 21
13.53529360803658
 31
0.0
  0
LINE
  5
36D4
330
1E
100
AcDbEntity
  8
7
100
AcDbLine
 10
12.94869324925183
 20
13.53529360803658
 30
0.0
 11
12.94869324925183
 21
13.51823324058251
 31
0.0
  0
LINE
  5
36D5
330
1E
100
AcDbEntity
  8
7
100
AcDbLine
 10
12.94869324925183
 20
13.51823324058251
 30
0.0
 11
12.93688222562978
 21
13.50379754504446
 31
0.0
  0
LINE
  5
36D6
330
1E
100
AcDbEntity
  8
7
100
AcDbLine
 10
12.93688222562978
 20
13.50379754504446
 30
0.0
 11
12.9185095222177
 21
13.49723586525443
 31
0.0
  0
LINE
  5
36D7
330
1E
100
AcDbEntity
  8
7
100
AcDbLine
 10
12.9185095222177
 20
13.49723586525443
 30
0.0
 11
12.89751214688962
 21
13.49854820121243
 31
0.0
  0
LINE
  5
36D8
330
1E
100
AcDbEntity
  8
7
100
AcDbLine
 10
12.89751214688962
 20
13.49854820121243
 30
0.0
 11
12.88176411539356
 21
13.51035922483448
 31
0.0
  0
LINE
  5
36D9
330
1E
100
AcDbEntity
  8
7
100
AcDbLine
 10
12.88176411539356
 20
13.51035922483448
 30
0.0
 11
12.87651477156154
 21
13.52610725633055
 31
0.0
  0
LINE
  5
36DA
330
1E
100
AcDbEntity
  8
7
100
AcDbLine
 10
13.25840453534106
 20
13.50510988100246
 30
0.0
 11
13.25840453534106
 21
13.58122536656677
 31
0.0
  0
LINE
  5
36DB
330
1E
100
AcDbEntity
  8
7
100
AcDbLine
 10
13.25840453534106
 20
13.58122536656677
 30
0.0
 11
13.23215781618096
 21
13.58122536656677
 31
0.0
  0
LINE
  5
36DC
330
1E
100
AcDbEntity
  8
7
100
AcDbLine
 10
13.23215781618096
 20
13.58122536656677
 30
0.0
 11
13.23215781618096
 21
13.62584478913895
 31
0.0
  0
LINE
  5
36DD
330
1E
100
AcDbEntity
  8
7
100
AcDbLine
 10
13.23215781618096
 20
13.62584478913895
 30
0.0
 11
11.95919193691586
 21
13.62584478913895
 31
0.0
  0
LINE
  5
36DE
330
1E
100
AcDbEntity
  8
7
100
AcDbLine
 10
11.95919193691586
 20
13.62584478913895
 30
0.0
 11
11.95919193691586
 21
13.58122536656677
 31
0.0
  0
LINE
  5
36DF
330
1E
100
AcDbEntity
  8
7
100
AcDbLine
 10
11.95919193691586
 20
13.58122536656677
 30
0.0
 11
11.93294521775576
 21
13.58122536656677
 31
0.0
  0
LINE
  5
36E0
330
1E
100
AcDbEntity
  8
7
100
AcDbLine
 10
11.93294521775576
 20
13.58122536656677
 30
0.0
 11
11.93294521775576
 21
13.50510988100246
 31
0.0
  0
LINE
  5
36E1
330
1E
100
AcDbEntity
  8
7
100
AcDbLine
 10
13.23215781618096
 20
13.46311513034629
 30
0.0
 11
13.23215781618096
 21
13.49723586525443
 31
0.0
  0
LINE
  5
36E2
330
1E
100
AcDbEntity
  8
7
100
AcDbLine
 10
13.23215781618096
 20
13.49723586525443
 30
0.0
 11
13.23478248809697
 21
13.49723586525443
 31
0.0
  0
LINE
  5
36E3
330
1E
100
AcDbEntity
  8
7
100
AcDbLine
 10
12.24134416788699
 20
13.52610725633055
 30
0.0
 11
12.24659351171902
 21
13.54316762378461
 31
0.0
  0
LINE
  5
36E4
330
1E
100
AcDbEntity
  8
7
100
AcDbLine
 10
12.24659351171902
 20
13.54316762378461
 30
0.0
 11
12.26234154321508
 21
13.55366631144865
 31
0.0
  0
LINE
  5
36E5
330
1E
100
AcDbEntity
  8
7
100
AcDbLine
 10
12.26234154321508
 20
13.55366631144865
 30
0.0
 11
12.28333891854316
 21
13.55629098336466
 31
0.0
  0
LINE
  5
36E6
330
1E
100
AcDbEntity
  8
7
100
AcDbLine
 10
12.28333891854316
 20
13.55629098336466
 30
0.0
 11
12.30171162195524
 21
13.54841696761663
 31
0.0
  0
LINE
  5
36E7
330
1E
100
AcDbEntity
  8
7
100
AcDbLine
 10
12.30171162195524
 20
13.54841696761663
 30
0.0
 11
12.31352264557728
 21
13.53529360803658
 31
0.0
  0
LINE
  5
36E8
330
1E
100
AcDbEntity
  8
7
100
AcDbLine
 10
12.31352264557728
 20
13.53529360803658
 30
0.0
 11
12.31352264557728
 21
13.51823324058251
 31
0.0
  0
LINE
  5
36E9
330
1E
100
AcDbEntity
  8
7
100
AcDbLine
 10
12.31352264557728
 20
13.51823324058251
 30
0.0
 11
12.30171162195524
 21
13.50379754504446
 31
0.0
  0
LINE
  5
36EA
330
1E
100
AcDbEntity
  8
7
100
AcDbLine
 10
12.30171162195524
 20
13.50379754504446
 30
0.0
 11
12.28333891854316
 21
13.49723586525443
 31
0.0
  0
LINE
  5
36EB
330
1E
100
AcDbEntity
  8
7
100
AcDbLine
 10
12.28333891854316
 20
13.49723586525443
 30
0.0
 11
12.26234154321508
 21
13.49854820121243
 31
0.0
  0
LINE
  5
36EC
330
1E
100
AcDbEntity
  8
7
100
AcDbLine
 10
12.26234154321508
 20
13.49854820121243
 30
0.0
 11
12.24659351171902
 21
13.51035922483448
 31
0.0
  0
LINE
  5
36ED
330
1E
100
AcDbEntity
  8
7
100
AcDbLine
 10
12.24659351171902
 20
13.51035922483448
 30
0.0
 11
12.24134416788699
 21
13.52610725633055
 31
0.0
  0
LINE
  5
36EE
330
1E
100
AcDbEntity
  8
7
100
AcDbLine
 10
13.31614731749329
 20
14.12059544530692
 30
0.0
 11
13.30171162195524
 21
14.79382379176362
 31
0.0
  0
LINE
  5
36EF
330
1E
100
AcDbEntity
  8
7
100
AcDbLine
 10
13.30171162195524
 20
14.79382379176362
 30
0.0
 11
11.88832579518358
 21
14.79382379176362
 31
0.0
  0
LINE
  5
36F0
330
1E
100
AcDbEntity
  8
7
100
AcDbLine
 10
11.88832579518358
 20
14.79382379176362
 30
0.0
 11
11.87520243560353
 21
14.12059544530692
 31
0.0
  0
LINE
  5
36F1
330
1E
100
AcDbEntity
  8
7
100
AcDbLine
 10
12.17572736998673
 20
14.7662647366455
 30
0.0
 11
12.17310269807072
 21
14.7400180174854
 31
0.0
  0
LINE
  5
36F2
330
1E
100
AcDbEntity
  8
7
100
AcDbLine
 10
12.17310269807072
 20
14.7400180174854
 30
0.0
 11
11.96575361670589
 21
14.7400180174854
 31
0.0
  0
LINE
  5
36F3
330
1E
100
AcDbEntity
  8
7
100
AcDbLine
 10
12.81089797366127
 20
14.7662647366455
 30
0.0
 11
12.80827330174526
 21
14.7400180174854
 31
0.0
  0
LINE
  5
36F4
330
1E
100
AcDbEntity
  8
7
100
AcDbLine
 10
12.80827330174526
 20
14.7400180174854
 30
0.0
 11
12.38307645135156
 21
14.7400180174854
 31
0.0
  0
LINE
  5
36F5
330
1E
100
AcDbEntity
  8
7
100
AcDbLine
 10
12.38307645135156
 20
14.7400180174854
 30
0.0
 11
12.38045177943555
 21
14.7662647366455
 31
0.0
  0
LINE
  5
36F6
330
1E
100
AcDbEntity
  8
7
100
AcDbLine
 10
13.22559613639093
 20
14.7400180174854
 30
0.0
 11
13.0182470550261
 21
14.7400180174854
 31
0.0
  0
LINE
  5
36F7
330
1E
100
AcDbEntity
  8
7
100
AcDbLine
 10
13.0182470550261
 20
14.7400180174854
 30
0.0
 11
13.01562238311009
 21
14.7662647366455
 31
0.0
  0
LINE
  5
36F8
330
1E
100
AcDbEntity
  8
7
100
AcDbLine
 10
11.93163288179776
 20
15.00642221696047
 30
0.0
 11
11.93163288179776
 21
15.12322011722293
 31
0.0
  0
LINE
  5
36F9
330
1E
100
AcDbEntity
  8
7
100
AcDbLine
 10
11.93163288179776
 20
15.12322011722293
 30
0.0
 11
11.95656726499986
 21
15.12322011722293
 31
0.0
  0
LINE
  5
36FA
330
1E
100
AcDbEntity
  8
7
100
AcDbLine
 10
11.95656726499986
 20
15.12322011722293
 30
0.0
 11
11.95656726499986
 21
15.1652148678791
 31
0.0
  0
LINE
  5
36FB
330
1E
100
AcDbEntity
  8
7
100
AcDbLine
 10
11.95656726499986
 20
15.1652148678791
 30
0.0
 11
13.23478248809697
 21
15.1652148678791
 31
0.0
  0
LINE
  5
36FC
330
1E
100
AcDbEntity
  8
7
100
AcDbLine
 10
11.88832579518358
 20
14.889624316698
 30
0.0
 11
13.30171162195524
 21
14.889624316698
 31
0.0
  0
LINE
  5
36FD
330
1E
100
AcDbEntity
  8
7
100
AcDbLine
 10
13.30171162195524
 20
14.889624316698
 30
0.0
 11
13.31614731749329
 21
15.43818074714419
 31
0.0
  0
LINE
  5
36FE
330
1E
100
AcDbEntity
  8
7
100
AcDbLine
 10
13.23347015213896
 20
15.11140909360089
 30
0.0
 11
13.25840453534106
 21
15.11140909360089
 31
0.0
  0
LINE
  5
36FF
330
1E
100
AcDbEntity
  8
7
100
AcDbLine
 10
13.25840453534106
 20
15.11140909360089
 30
0.0
 11
13.25971687129907
 21
15.12322011722293
 31
0.0
  0
LINE
  5
3700
330
1E
100
AcDbEntity
  8
7
100
AcDbLine
 10
13.23347015213896
 20
15.15340384425705
 30
0.0
 11
13.23347015213896
 21
15.11140909360089
 31
0.0
  0
LINE
  5
3701
330
1E
100
AcDbEntity
  8
7
100
AcDbLine
 10
13.23347015213896
 20
15.11140909360089
 30
0.0
 11
13.23478248809697
 21
15.12322011722293
 31
0.0
  0
LINE
  5
3702
330
1E
100
AcDbEntity
  8
7
100
AcDbLine
 10
11.95656726499986
 20
14.9644274663043
 30
0.0
 11
11.95656726499986
 21
15.00642221696047
 31
0.0
  0
LINE
  5
3703
330
1E
100
AcDbEntity
  8
7
100
AcDbLine
 10
11.95656726499986
 20
15.00642221696047
 30
0.0
 11
11.93163288179776
 21
15.00642221696047
 31
0.0
  0
LINE
  5
3704
330
1E
100
AcDbEntity
  8
7
100
AcDbLine
 10
12.87782710751954
 20
15.01954557654052
 30
0.0
 11
12.88963813114159
 21
15.00510988100246
 31
0.0
  0
LINE
  5
3705
330
1E
100
AcDbEntity
  8
7
100
AcDbLine
 10
12.88963813114159
 20
15.00510988100246
 30
0.0
 11
12.90801083455366
 21
14.99854820121243
 31
0.0
  0
LINE
  5
3706
330
1E
100
AcDbEntity
  8
7
100
AcDbLine
 10
12.90801083455366
 20
14.99854820121243
 30
0.0
 11
12.92769587392374
 21
15.00117287312844
 31
0.0
  0
LINE
  5
3707
330
1E
100
AcDbEntity
  8
7
100
AcDbLine
 10
12.92769587392374
 20
15.00117287312844
 30
0.0
 11
12.9434439054198
 21
15.01167156079248
 31
0.0
  0
LINE
  5
3708
330
1E
100
AcDbEntity
  8
7
100
AcDbLine
 10
12.9434439054198
 20
15.01167156079248
 30
0.0
 11
12.95000558520983
 21
15.02873192824655
 31
0.0
  0
LINE
  5
3709
330
1E
100
AcDbEntity
  8
7
100
AcDbLine
 10
12.95000558520983
 20
15.02873192824655
 30
0.0
 11
12.9434439054198
 21
15.04447995974262
 31
0.0
  0
LINE
  5
370A
330
1E
100
AcDbEntity
  8
7
100
AcDbLine
 10
12.9434439054198
 20
15.04447995974262
 30
0.0
 11
12.92769587392374
 21
15.05497864740666
 31
0.0
  0
LINE
  5
370B
330
1E
100
AcDbEntity
  8
7
100
AcDbLine
 10
12.92769587392374
 20
15.05497864740666
 30
0.0
 11
12.90801083455366
 21
15.05760331932267
 31
0.0
  0
LINE
  5
370C
330
1E
100
AcDbEntity
  8
7
100
AcDbLine
 10
12.90801083455366
 20
15.05760331932267
 30
0.0
 11
12.88963813114159
 21
15.05104163953264
 31
0.0
  0
LINE
  5
370D
330
1E
100
AcDbEntity
  8
7
100
AcDbLine
 10
12.88963813114159
 20
15.05104163953264
 30
0.0
 11
12.87782710751954
 21
15.03660594399458
 31
0.0
  0
LINE
  5
370E
330
1E
100
AcDbEntity
  8
7
100
AcDbLine
 10
12.87782710751954
 20
15.03660594399458
 30
0.0
 11
12.87782710751954
 21
15.01954557654052
 31
0.0
  0
LINE
  5
370F
330
1E
100
AcDbEntity
  8
7
100
AcDbLine
 10
12.2938376062072
 20
15.05497864740666
 30
0.0
 11
12.27284023087912
 21
15.05760331932267
 31
0.0
  0
LINE
  5
3710
330
1E
100
AcDbEntity
  8
7
100
AcDbLine
 10
12.27284023087912
 20
15.05760331932267
 30
0.0
 11
12.25446752746705
 21
15.05104163953264
 31
0.0
  0
LINE
  5
3711
330
1E
100
AcDbEntity
  8
7
100
AcDbLine
 10
12.25446752746705
 20
15.05104163953264
 30
0.0
 11
12.242656503845
 21
15.03660594399458
 31
0.0
  0
LINE
  5
3712
330
1E
100
AcDbEntity
  8
7
100
AcDbLine
 10
12.242656503845
 20
15.03660594399458
 30
0.0
 11
12.242656503845
 21
15.01954557654052
 31
0.0
  0
LINE
  5
3713
330
1E
100
AcDbEntity
  8
7
100
AcDbLine
 10
12.242656503845
 20
15.01954557654052
 30
0.0
 11
12.25446752746705
 21
15.00510988100246
 31
0.0
  0
LINE
  5
3714
330
1E
100
AcDbEntity
  8
7
100
AcDbLine
 10
12.25446752746705
 20
15.00510988100246
 30
0.0
 11
12.27284023087912
 21
14.99854820121243
 31
0.0
  0
LINE
  5
3715
330
1E
100
AcDbEntity
  8
7
100
AcDbLine
 10
12.27284023087912
 20
14.99854820121243
 30
0.0
 11
12.2938376062072
 21
15.00117287312844
 31
0.0
  0
LINE
  5
3716
330
1E
100
AcDbEntity
  8
7
100
AcDbLine
 10
12.2938376062072
 20
15.00117287312844
 30
0.0
 11
12.30827330174526
 21
15.01167156079248
 31
0.0
  0
LINE
  5
3717
330
1E
100
AcDbEntity
  8
7
100
AcDbLine
 10
12.30827330174526
 20
15.01167156079248
 30
0.0
 11
12.31483498153529
 21
15.02873192824655
 31
0.0
  0
LINE
  5
3718
330
1E
100
AcDbEntity
  8
7
100
AcDbLine
 10
12.31483498153529
 20
15.02873192824655
 30
0.0
 11
12.30827330174526
 21
15.04447995974262
 31
0.0
  0
LINE
  5
3719
330
1E
100
AcDbEntity
  8
7
100
AcDbLine
 10
12.30827330174526
 20
15.04447995974262
 30
0.0
 11
12.2938376062072
 21
15.05497864740666
 31
0.0
  0
LINE
  5
371A
330
1E
100
AcDbEntity
  8
7
100
AcDbLine
 10
12.9171971862597
 20
15.5641649991127
 30
0.0
 11
12.9171971862597
 21
15.51298389675049
 31
0.0
  0
LINE
  5
371B
330
1E
100
AcDbEntity
  8
7
100
AcDbLine
 10
12.9171971862597
 20
15.51298389675049
 30
0.0
 11
12.27284023087912
 21
15.51298389675049
 31
0.0
  0
LINE
  5
371C
330
1E
100
AcDbEntity
  8
7
100
AcDbLine
 10
12.27284023087912
 20
15.51298389675049
 30
0.0
 11
12.27284023087912
 21
15.5641649991127
 31
0.0
  0
LINE
  5
371D
330
1E
100
AcDbEntity
  8
7
100
AcDbLine
 10
12.27284023087912
 20
15.5641649991127
 30
0.0
 11
12.24921818363503
 21
15.5641649991127
 31
0.0
  0
LINE
  5
371E
330
1E
100
AcDbEntity
  8
7
100
AcDbLine
 10
12.24921818363503
 20
15.5641649991127
 30
0.0
 11
12.24921818363503
 21
15.70720961853527
 31
0.0
  0
LINE
  5
371F
330
1E
100
AcDbEntity
  8
7
100
AcDbLine
 10
12.24921818363503
 20
15.70720961853527
 30
0.0
 11
12.27284023087912
 21
15.70720961853527
 31
0.0
  0
LINE
  5
3720
330
1E
100
AcDbEntity
  8
7
100
AcDbLine
 10
12.27284023087912
 20
15.70720961853527
 30
0.0
 11
12.27284023087912
 21
15.75707838493947
 31
0.0
  0
LINE
  5
3721
330
1E
100
AcDbEntity
  8
7
100
AcDbLine
 10
12.27284023087912
 20
15.75707838493947
 30
0.0
 11
12.9171971862597
 21
15.75707838493947
 31
0.0
  0
LINE
  5
3722
330
1E
100
AcDbEntity
  8
7
100
AcDbLine
 10
12.9171971862597
 20
15.75707838493947
 30
0.0
 11
12.9171971862597
 21
15.70720961853527
 31
0.0
  0
LINE
  5
3723
330
1E
100
AcDbEntity
  8
7
100
AcDbLine
 10
12.9171971862597
 20
15.70720961853527
 30
0.0
 11
12.9421315694618
 21
15.70720961853527
 31
0.0
  0
LINE
  5
3724
330
1E
100
AcDbEntity
  8
7
100
AcDbLine
 10
12.9421315694618
 20
15.70720961853527
 30
0.0
 11
12.9421315694618
 21
15.5641649991127
 31
0.0
  0
LINE
  5
3725
330
1E
100
AcDbEntity
  8
7
100
AcDbLine
 10
12.9421315694618
 20
15.5641649991127
 30
0.0
 11
12.9171971862597
 21
15.5641649991127
 31
0.0
  0
LINE
  5
3726
330
1E
100
AcDbEntity
  8
7
100
AcDbLine
 10
11.78858826237519
 20
13.78463744005758
 30
0.0
 11
11.79121293429119
 21
13.82400751879774
 31
0.0
  0
LINE
  5
3727
330
1E
100
AcDbEntity
  8
7
100
AcDbLine
 10
11.79121293429119
 20
13.82400751879774
 30
0.0
 11
11.79908695003923
 21
13.86075292562188
 31
0.0
  0
LINE
  5
3728
330
1E
100
AcDbEntity
  8
7
100
AcDbLine
 10
11.79908695003923
 20
13.86075292562188
 30
0.0
 11
11.81352264557728
 21
13.89224898861401
 31
0.0
  0
LINE
  5
3729
330
1E
100
AcDbEntity
  8
7
100
AcDbLine
 10
11.81352264557728
 20
13.89224898861401
 30
0.0
 11
11.83189534898936
 21
13.9158710358581
 31
0.0
  0
LINE
  5
372A
330
1E
100
AcDbEntity
  8
7
100
AcDbLine
 10
11.83189534898936
 20
13.9158710358581
 30
0.0
 11
11.85289272431744
 21
13.93161906735417
 31
0.0
  0
LINE
  5
372B
330
1E
100
AcDbEntity
  8
7
100
AcDbLine
 10
11.85289272431744
 20
13.93161906735417
 30
0.0
 11
11.87520243560353
 21
13.93686841118619
 31
0.0
  0
LINE
  5
372C
330
1E
100
AcDbEntity
  8
7
100
AcDbLine
 10
11.79908695003923
 20
12.70589728257726
 30
0.0
 11
11.79121293429119
 21
12.74789203323343
 31
0.0
  0
LINE
  5
372D
330
1E
100
AcDbEntity
  8
7
100
AcDbLine
 10
11.79121293429119
 20
12.74789203323343
 30
0.0
 11
11.78858826237519
 21
12.79382379176362
 31
0.0
  0
LINE
  5
372E
330
1E
100
AcDbEntity
  8
7
100
AcDbLine
 10
12.03268275056416
 20
12.61928310934892
 30
0.0
 11
11.87520243560353
 21
12.61928310934892
 31
0.0
  0
LINE
  5
372F
330
1E
100
AcDbEntity
  8
7
100
AcDbLine
 10
11.87520243560353
 20
12.61928310934892
 30
0.0
 11
11.85289272431744
 21
12.62453245318094
 31
0.0
  0
LINE
  5
3730
330
1E
100
AcDbEntity
  8
7
100
AcDbLine
 10
11.85289272431744
 20
12.62453245318094
 30
0.0
 11
11.83189534898936
 21
12.64159282063501
 31
0.0
  0
LINE
  5
3731
330
1E
100
AcDbEntity
  8
7
100
AcDbLine
 10
11.83189534898936
 20
12.64159282063501
 30
0.0
 11
11.81352264557728
 21
12.66915187575312
 31
0.0
  0
LINE
  5
3732
330
1E
100
AcDbEntity
  8
7
100
AcDbLine
 10
11.81352264557728
 20
12.66915187575312
 30
0.0
 11
11.79908695003923
 21
12.70589728257726
 31
0.0
  0
LINE
  5
3733
330
1E
100
AcDbEntity
  8
7
100
AcDbLine
 10
13.33845702877938
 20
13.93161906735417
 30
0.0
 11
13.35945440410747
 21
13.9158710358581
 31
0.0
  0
LINE
  5
3734
330
1E
100
AcDbEntity
  8
7
100
AcDbLine
 10
13.35945440410747
 20
13.9158710358581
 30
0.0
 11
13.37782710751954
 21
13.89224898861401
 31
0.0
  0
LINE
  5
3735
330
1E
100
AcDbEntity
  8
7
100
AcDbLine
 10
13.37782710751954
 20
13.89224898861401
 30
0.0
 11
13.39095046709959
 21
13.86075292562188
 31
0.0
  0
LINE
  5
3736
330
1E
100
AcDbEntity
  8
7
100
AcDbLine
 10
13.39095046709959
 20
13.86075292562188
 30
0.0
 11
13.40013681880563
 21
13.82400751879774
 31
0.0
  0
LINE
  5
3737
330
1E
100
AcDbEntity
  8
7
100
AcDbLine
 10
13.40013681880563
 20
13.82400751879774
 30
0.0
 11
13.40276149072164
 21
13.78463744005758
 31
0.0
  0
LINE
  5
3738
330
1E
100
AcDbEntity
  8
7
100
AcDbLine
 10
13.40276149072164
 20
13.78463744005758
 30
0.0
 11
13.40276149072164
 21
12.79382379176362
 31
0.0
  0
LINE
  5
3739
330
1E
100
AcDbEntity
  8
7
100
AcDbLine
 10
13.40276149072164
 20
12.79382379176362
 30
0.0
 11
13.40013681880563
 21
12.74789203323343
 31
0.0
  0
LINE
  5
373A
330
1E
100
AcDbEntity
  8
7
100
AcDbLine
 10
13.40013681880563
 20
12.74789203323343
 30
0.0
 11
13.39095046709959
 21
12.70589728257726
 31
0.0
  0
LINE
  5
373B
330
1E
100
AcDbEntity
  8
7
100
AcDbLine
 10
13.39095046709959
 20
12.70589728257726
 30
0.0
 11
13.37782710751954
 21
12.66915187575312
 31
0.0
  0
LINE
  5
373C
330
1E
100
AcDbEntity
  8
7
100
AcDbLine
 10
13.37782710751954
 20
12.66915187575312
 30
0.0
 11
13.35945440410747
 21
12.64159282063501
 31
0.0
  0
LINE
  5
373D
330
1E
100
AcDbEntity
  8
7
100
AcDbLine
 10
13.35945440410747
 20
12.64159282063501
 30
0.0
 11
13.33845702877938
 21
12.62453245318094
 31
0.0
  0
LINE
  5
373E
330
1E
100
AcDbEntity
  8
7
100
AcDbLine
 10
13.33845702877938
 20
12.62453245318094
 30
0.0
 11
13.31614731749329
 21
12.61928310934892
 31
0.0
  0
LINE
  5
373F
330
1E
100
AcDbEntity
  8
7
100
AcDbLine
 10
13.31614731749329
 20
12.61928310934892
 30
0.0
 11
13.15866700253267
 21
12.61928310934892
 31
0.0
  0
LINE
  5
3740
330
1E
100
AcDbEntity
  8
7
100
AcDbLine
 10
11.78858826237519
 20
15.28594977601558
 30
0.0
 11
11.79121293429119
 21
15.32531985475574
 31
0.0
  0
LINE
  5
3741
330
1E
100
AcDbEntity
  8
7
100
AcDbLine
 10
11.79121293429119
 20
15.32531985475574
 30
0.0
 11
11.79908695003923
 21
15.36206526157989
 31
0.0
  0
LINE
  5
3742
330
1E
100
AcDbEntity
  8
7
100
AcDbLine
 10
11.79908695003923
 20
15.36206526157989
 30
0.0
 11
11.81352264557728
 21
15.39356132457202
 31
0.0
  0
LINE
  5
3743
330
1E
100
AcDbEntity
  8
7
100
AcDbLine
 10
11.81352264557728
 20
15.39356132457202
 30
0.0
 11
11.83189534898936
 21
15.41849570777412
 31
0.0
  0
LINE
  5
3744
330
1E
100
AcDbEntity
  8
7
100
AcDbLine
 10
11.83189534898936
 20
15.41849570777412
 30
0.0
 11
11.85289272431744
 21
15.43293140331217
 31
0.0
  0
LINE
  5
3745
330
1E
100
AcDbEntity
  8
7
100
AcDbLine
 10
11.85289272431744
 20
15.43293140331217
 30
0.0
 11
11.87520243560353
 21
15.43818074714419
 31
0.0
  0
LINE
  5
3746
330
1E
100
AcDbEntity
  8
7
100
AcDbLine
 10
12.03268275056416
 20
14.12059544530692
 30
0.0
 11
11.87520243560353
 21
14.12059544530692
 31
0.0
  0
LINE
  5
3747
330
1E
100
AcDbEntity
  8
7
100
AcDbLine
 10
11.87520243560353
 20
14.12059544530692
 30
0.0
 11
11.85289272431744
 21
14.12715712509695
 31
0.0
  0
LINE
  5
3748
330
1E
100
AcDbEntity
  8
7
100
AcDbLine
 10
11.85289272431744
 20
14.12715712509695
 30
0.0
 11
11.83189534898936
 21
14.14421749255102
 31
0.0
  0
LINE
  5
3749
330
1E
100
AcDbEntity
  8
7
100
AcDbLine
 10
11.83189534898936
 20
14.14421749255102
 30
0.0
 11
11.81352264557728
 21
14.17177654766913
 31
0.0
  0
LINE
  5
374A
330
1E
100
AcDbEntity
  8
7
100
AcDbLine
 10
11.81352264557728
 20
14.17177654766913
 30
0.0
 11
11.79908695003923
 21
14.20720961853527
 31
0.0
  0
LINE
  5
374B
330
1E
100
AcDbEntity
  8
7
100
AcDbLine
 10
11.79908695003923
 20
14.20720961853527
 30
0.0
 11
11.79121293429119
 21
14.24920436919144
 31
0.0
  0
LINE
  5
374C
330
1E
100
AcDbEntity
  8
7
100
AcDbLine
 10
11.79121293429119
 20
14.24920436919144
 30
0.0
 11
11.78858826237519
 21
14.29513612772162
 31
0.0
  0
LINE
  5
374D
330
1E
100
AcDbEntity
  8
7
100
AcDbLine
 10
13.40013681880563
 20
15.32531985475574
 30
0.0
 11
13.40276149072164
 21
15.28594977601558
 31
0.0
  0
LINE
  5
374E
330
1E
100
AcDbEntity
  8
7
100
AcDbLine
 10
13.40276149072164
 20
15.28594977601558
 30
0.0
 11
13.40276149072164
 21
14.29513612772162
 31
0.0
  0
LINE
  5
374F
330
1E
100
AcDbEntity
  8
7
100
AcDbLine
 10
13.40276149072164
 20
14.29513612772162
 30
0.0
 11
13.40013681880563
 21
14.24920436919144
 31
0.0
  0
LINE
  5
3750
330
1E
100
AcDbEntity
  8
7
100
AcDbLine
 10
13.40013681880563
 20
14.24920436919144
 30
0.0
 11
13.39095046709959
 21
14.20720961853527
 31
0.0
  0
LINE
  5
3751
330
1E
100
AcDbEntity
  8
7
100
AcDbLine
 10
13.39095046709959
 20
14.20720961853527
 30
0.0
 11
13.37782710751954
 21
14.17177654766913
 31
0.0
  0
LINE
  5
3752
330
1E
100
AcDbEntity
  8
7
100
AcDbLine
 10
13.37782710751954
 20
14.17177654766913
 30
0.0
 11
13.35945440410747
 21
14.14421749255102
 31
0.0
  0
LINE
  5
3753
330
1E
100
AcDbEntity
  8
7
100
AcDbLine
 10
13.35945440410747
 20
14.14421749255102
 30
0.0
 11
13.33845702877938
 21
14.12715712509695
 31
0.0
  0
LINE
  5
3754
330
1E
100
AcDbEntity
  8
7
100
AcDbLine
 10
13.33845702877938
 20
14.12715712509695
 30
0.0
 11
13.31614731749329
 21
14.12059544530692
 31
0.0
  0
LINE
  5
3755
330
1E
100
AcDbEntity
  8
7
100
AcDbLine
 10
13.31614731749329
 20
14.12059544530692
 30
0.0
 11
13.15866700253267
 21
14.12059544530692
 31
0.0
  0
LINE
  5
3756
330
1E
100
AcDbEntity
  8
7
100
AcDbLine
 10
13.31614731749329
 20
15.43818074714419
 30
0.0
 11
13.33845702877938
 21
15.43293140331217
 31
0.0
  0
LINE
  5
3757
330
1E
100
AcDbEntity
  8
7
100
AcDbLine
 10
13.33845702877938
 20
15.43293140331217
 30
0.0
 11
13.35945440410747
 21
15.41849570777412
 31
0.0
  0
LINE
  5
3758
330
1E
100
AcDbEntity
  8
7
100
AcDbLine
 10
13.35945440410747
 20
15.41849570777412
 30
0.0
 11
13.37782710751954
 21
15.39356132457202
 31
0.0
  0
LINE
  5
3759
330
1E
100
AcDbEntity
  8
7
100
AcDbLine
 10
13.37782710751954
 20
15.39356132457202
 30
0.0
 11
13.39095046709959
 21
15.36206526157989
 31
0.0
  0
LINE
  5
375A
330
1E
100
AcDbEntity
  8
7
100
AcDbLine
 10
13.39095046709959
 20
15.36206526157989
 30
0.0
 11
13.40013681880563
 21
15.32531985475574
 31
0.0
  0
ENDSEC
  0
SECTION
  2
OBJECTS
  0
DICTIONARY
  5
C
330
0
100
AcDbDictionary
  3
ACAD_GROUP
350
D
  3
ACAD_MLINESTYLE
350
16
  3
ACAD_PLOTSETTINGS
350
18
  3
ACAD_LAYOUT
350
19
1001
ACAD
1000
TREAT_AS_HARD
1070
     0
  0
DICTIONARY
  5
4A0A
330
1E
100
AcDbDictionary
  3
ACAD_LAYOUTSELFREF
350
4A0B
  0
DICTIONARY
  5
4A08
330
1A
100
AcDbDictionary
  3
ACAD_LAYOUTSELFREF
350
4A09
  0
DICTIONARY
  5
D
102
{ACAD_REACTORS
330
C
102
}
330
C
100
AcDbDictionary
1001
ACAD
1000
TREAT_AS_HARD
1070
     0
  0
DICTIONARY
  5
16
102
{ACAD_REACTORS
330
C
102
}
330
C
100
AcDbDictionary
  3
STANDARD
350
17
1001
ACAD
1000
TREAT_AS_HARD
1070
     0
  0
DICTIONARY
  5
18
102
{ACAD_REACTORS
330
C
102
}
330
C
100
AcDbDictionary
1001
ACAD
1000
TREAT_AS_HARD
1070
     0
  0
DICTIONARY
  5
19
102
{ACAD_REACTORS
330
C
102
}
330
C
100
AcDbDictionary
1001
ACAD
1000
TREAT_AS_HARD
1070
     0
  0
XRECORD
  5
4A0B
102
{ACAD_REACTORS
330
4A0A
102
}
330
4A0A
100
AcDbXrecord
340
1E
  0
XRECORD
  5
4A09
102
{ACAD_REACTORS
330
4A08
102
}
330
4A08
100
AcDbXrecord
340
1A
  0
MLINESTYLE
  5
17
102
{ACAD_REACTORS
330
16
102
}
330
16
100
AcDbMlineStyle
  2
STANDARD
 70
     0
  3

 62
   256
 51
90.0
 52
90.0
 71
     2
 49
0.5
 62
   256
  6
BYLAYER
 49
-0.5
 62
   256
  6
BYLAYER
  0
ENDSEC
  0
EOF
