  0
SECTION
  2
HEADER
  9
$ACADVER
  1
AC1012
  9
$DWGCODEPAGE
  3
ANSI_1252
  9
$INSBASE
 10
0.0
 20
0.0
 30
0.0
  9
$EXTMIN
 10
1.480957060913738
 20
3.945190455235064
 30
-0.0015258207003583
  9
$EXTMAX
 10
5.966125509196572
 20
5.915863054473724
 30
0.0000000349246037
  9
$LIMMIN
 10
0.0
 20
0.0
  9
$LIMMAX
 10
12.0
 20
9.0
  9
$ORTHOMODE
 70
     0
  9
$REGENMODE
 70
     1
  9
$FILLMODE
 70
     1
  9
$QTEXTMODE
 70
     0
  9
$MIRRTEXT
 70
     1
  9
$DRAGMODE
 70
     2
  9
$LTSCALE
 40
1.0
  9
$OSMODE
 70
   547
  9
$ATTMODE
 70
     1
  9
$TEXTSIZE
 40
0.2
  9
$TRACEWID
 40
0.05
  9
$TEXTSTYLE
  7
STANDARD
  9
$CLAYER
  8
0
  9
$CELTYPE
  6
BYLAYER
  9
$CECOLOR
 62
   256
  9
$CELTSCALE
 40
1.0
  9
$DELOBJ
 70
     1
  9
$DISPSILH
 70
     0
  9
$DIMSCALE
 40
1.0
  9
$DIMASZ
 40
0.18
  9
$DIMEXO
 40
0.0625
  9
$DIMDLI
 40
0.38
  9
$DIMRND
 40
0.0
  9
$DIMDLE
 40
0.0
  9
$DIMEXE
 40
0.18
  9
$DIMTP
 40
0.0
  9
$DIMTM
 40
0.0
  9
$DIMTXT
 40
0.18
  9
$DIMCEN
 40
0.09
  9
$DIMTSZ
 40
0.0
  9
$DIMTOL
 70
     0
  9
$DIMLIM
 70
     0
  9
$DIMTIH
 70
     1
  9
$DIMTOH
 70
     1
  9
$DIMSE1
 70
     0
  9
$DIMSE2
 70
     0
  9
$DIMTAD
 70
     0
  9
$DIMZIN
 70
     0
  9
$DIMBLK
  1

  9
$DIMASO
 70
     1
  9
$DIMSHO
 70
     1
  9
$DIMPOST
  1

  9
$DIMAPOST
  1

  9
$DIMALT
 70
     0
  9
$DIMALTD
 70
     2
  9
$DIMALTF
 40
25.4
  9
$DIMLFAC
 40
1.0
  9
$DIMTOFL
 70
     0
  9
$DIMTVP
 40
0.0
  9
$DIMTIX
 70
     0
  9
$DIMSOXD
 70
     0
  9
$DIMSAH
 70
     0
  9
$DIMBLK1
  1

  9
$DIMBLK2
  1

  9
$DIMSTYLE
  2
STANDARD
  9
$DIMCLRD
 70
     0
  9
$DIMCLRE
 70
     0
  9
$DIMCLRT
 70
     0
  9
$DIMTFAC
 40
1.0
  9
$DIMGAP
 40
0.09
  9
$DIMJUST
 70
     0
  9
$DIMSD1
 70
     0
  9
$DIMSD2
 70
     0
  9
$DIMTOLJ
 70
     1
  9
$DIMTZIN
 70
     0
  9
$DIMALTZ
 70
     0
  9
$DIMALTTZ
 70
     0
  9
$DIMFIT
 70
     5
  9
$DIMUPT
 70
     0
  9
$DIMUNIT
 70
     2
  9
$DIMDEC
 70
     4
  9
$DIMTDEC
 70
     4
  9
$DIMALTU
 70
     2
  9
$DIMALTTD
 70
     2
  9
$DIMTXSTY
  7
STANDARD
  9
$DIMAUNIT
 70
     0
  9
$LUNITS
 70
     2
  9
$LUPREC
 70
     4
  9
$SKETCHINC
 40
0.1
  9
$FILLETRAD
 40
0.0
  9
$AUNITS
 70
     0
  9
$AUPREC
 70
     0
  9
$MENU
  1
acad
  9
$ELEVATION
 40
0.0
  9
$PELEVATION
 40
0.0
  9
$THICKNESS
 40
0.0
  9
$LIMCHECK
 70
     0
  9
$BLIPMODE
 70
     0
  9
$CHAMFERA
 40
0.0
  9
$CHAMFERB
 40
0.0
  9
$CHAMFERC
 40
0.0
  9
$CHAMFERD
 40
0.0
  9
$SKPOLY
 70
     0
  9
$TDCREATE
 40
2454019.484317129
  9
$TDUPDATE
 40
2454019.526085740
  9
$TDINDWG
 40
0.0005546528
  9
$TDUSRTIMER
 40
0.0005546528
  9
$USRTIMER
 70
     1
  9
$ANGBASE
 50
0.0
  9
$ANGDIR
 70
     0
  9
$PDMODE
 70
     0
  9
$PDSIZE
 40
0.0
  9
$PLINEWID
 40
0.0
  9
$COORDS
 70
     1
  9
$SPLFRAME
 70
     0
  9
$SPLINETYPE
 70
     6
  9
$SPLINESEGS
 70
     8
  9
$ATTDIA
 70
     0
  9
$ATTREQ
 70
     1
  9
$HANDLING
 70
  4097
  9
$HANDSEED
  5
2FEF
  9
$SURFTAB1
 70
     6
  9
$SURFTAB2
 70
     6
  9
$SURFTYPE
 70
     6
  9
$SURFU
 70
     6
  9
$SURFV
 70
     6
  9
$UCSNAME
  2

  9
$UCSORG
 10
0.0
 20
0.0
 30
0.0
  9
$UCSXDIR
 10
1.0
 20
0.0
 30
0.0
  9
$UCSYDIR
 10
0.0
 20
1.0
 30
0.0
  9
$PUCSNAME
  2

  9
$PUCSORG
 10
0.0
 20
0.0
 30
0.0
  9
$PUCSXDIR
 10
1.0
 20
0.0
 30
0.0
  9
$PUCSYDIR
 10
0.0
 20
1.0
 30
0.0
  9
$USERI1
 70
     0
  9
$USERI2
 70
     0
  9
$USERI3
 70
     0
  9
$USERI4
 70
     0
  9
$USERI5
 70
     0
  9
$USERR1
 40
0.0
  9
$USERR2
 40
0.0
  9
$USERR3
 40
0.0
  9
$USERR4
 40
0.0
  9
$USERR5
 40
0.0
  9
$WORLDVIEW
 70
     1
  9
$SHADEDGE
 70
     3
  9
$SHADEDIF
 70
    70
  9
$TILEMODE
 70
     1
  9
$MAXACTVP
 70
    16
  9
$PINSBASE
 10
0.0
 20
0.0
 30
0.0
  9
$PLIMCHECK
 70
     0
  9
$PEXTMIN
 10
1.000000000000000E+20
 20
1.000000000000000E+20
 30
1.000000000000000E+20
  9
$PEXTMAX
 10
-1.000000000000000E+20
 20
-1.000000000000000E+20
 30
-1.000000000000000E+20
  9
$PLIMMIN
 10
0.0
 20
0.0
  9
$PLIMMAX
 10
12.0
 20
9.0
  9
$UNITMODE
 70
     0
  9
$VISRETAIN
 70
     0
  9
$PLINEGEN
 70
     0
  9
$PSLTSCALE
 70
     1
  9
$TREEDEPTH
 70
  3020
  9
$PICKSTYLE
 70
     1
  9
$CMLSTYLE
  2
STANDARD
  9
$CMLJUST
 70
     0
  9
$CMLSCALE
 40
1.0
  9
$SAVEIMAGES
 70
     1
  0
ENDSEC
  0
SECTION
  2
CLASSES
  0
CLASS
  1
ACDBDICTIONARYWDFLT
  2
AcDbDictionaryWithDefault
  3
AutoCAD 2000
 90
    32768
280
     0
281
     0
  0
CLASS
  1
ACDBPLACEHOLDER
  2
AcDbPlaceHolder
  3
AutoCAD 2000
 90
    32768
280
     0
281
     0
  0
CLASS
  1
LAYOUT
  2
AcDbLayout
  3
AutoCAD 2000
 90
    32768
280
     0
281
     0
  0
CLASS
  1
LONG_TRANSACTION
  2
AcDbLongTransaction
  3
AutoCAD 2000
 90
    32768
280
     0
281
     0
  0
CLASS
  1
LWPOLYLINE
  2
AcDbPolyline
  3
AutoCAD 2000
 90
    32768
280
     0
281
     1
  0
CLASS
  1
HATCH
  2
AcDbHatch
  3
AutoCAD 2000
 90
    32768
280
     0
281
     1
  0
CLASS
  1
XRECORD
  2
AcDbXrecord
  3
AutoCAD 2000
 90
    32768
280
     0
281
     0
  0
ENDSEC
  0
SECTION
  2
TABLES
  0
TABLE
  2
VPORT
  5
8
330
0
100
AcDbSymbolTable
 70
     6
  0
VPORT
  5
2E18
330
8
100
AcDbSymbolTableRecord
100
AcDbViewportTableRecord
  2
*ACTIVE
 70
     0
 10
0.0
 20
0.0
 11
1.0
 21
1.0
 12
3.723541285055155
 22
4.930526754854394
 13
0.0
 23
0.0
 14
1.0
 24
1.0
 15
0.0
 25
0.0
 16
0.0
 26
0.0
 36
1.0
 17
0.0
 27
0.0
 37
0.0
 40
2.593227898109531
 41
1.740671641791044
 42
50.0
 43
0.0
 44
0.0
 50
0.0
 51
0.0
 71
     0
 72
   100
 73
     1
 74
     1
 75
     0
 76
     0
 77
     0
 78
     0
  0
ENDTAB
  0
TABLE
  2
LTYPE
  5
5
330
0
100
AcDbSymbolTable
 70
    25
  0
LTYPE
  5
13
330
5
100
AcDbSymbolTableRecord
100
AcDbLinetypeTableRecord
  2
BYBLOCK
 70
     0
  3

 72
    65
 73
     0
 40
0.0
  0
LTYPE
  5
14
330
5
100
AcDbSymbolTableRecord
100
AcDbLinetypeTableRecord
  2
BYLAYER
 70
     0
  3

 72
    65
 73
     0
 40
0.0
  0
LTYPE
  5
15
330
5
100
AcDbSymbolTableRecord
100
AcDbLinetypeTableRecord
  2
CONTINUOUS
 70
     0
  3
Solid line
 72
    65
 73
     0
 40
0.0
  0
LTYPE
  5
22
330
5
100
AcDbSymbolTableRecord
100
AcDbLinetypeTableRecord
  2
BORDER
 70
     0
  3
__ __ . __ __ . __ __ . __ __ . __ __ . __ __ .
 72
    65
 73
     6
 40
1.75
 49
0.5
 74
     0
 49
-0.25
 74
     0
 49
0.5
 74
     0
 49
-0.25
 74
     0
 49
0.5
 74
     0
 49
-0.25
 74
     0
  0
LTYPE
  5
23
330
5
100
AcDbSymbolTableRecord
100
AcDbLinetypeTableRecord
  2
BORDER2
 70
     0
  3
__.__.__.__.__.__.__.__.
 72
    65
 73
     6
 40
0.875
 49
0.25
 74
     0
 49
-0.125
 74
     0
 49
0.25
 74
     0
 49
-0.125
 74
     0
 49
0.25
 74
     0
 49
-0.125
 74
     0
  0
LTYPE
  5
24
330
5
100
AcDbSymbolTableRecord
100
AcDbLinetypeTableRecord
  2
BORDERX2
 70
     0
  3
____  ____  .  
 72
    65
 73
     6
 40
3.5
 49
1.0
 74
     0
 49
-0.5
 74
     0
 49
1.0
 74
     0
 49
-0.5
 74
     0
 49
1.0
 74
     0
 49
-0.5
 74
     0
  0
LTYPE
  5
25
330
5
100
AcDbSymbolTableRecord
100
AcDbLinetypeTableRecord
  2
CENTER
 70
     0
  3
____ _ ____ _ ____ _ 
 72
    65
 73
     4
 40
2.0
 49
1.25
 74
     0
 49
-0.25
 74
     0
 49
0.25
 74
     0
 49
-0.25
 74
     0
  0
LTYPE
  5
26
330
5
100
AcDbSymbolTableRecord
100
AcDbLinetypeTableRecord
  2
CENTER2
 70
     0
  3
____ _ ____ _ ____ _ 
 72
    65
 73
     4
 40
1.125
 49
0.75
 74
     0
 49
-0.125
 74
     0
 49
0.125
 74
     0
 49
-0.125
 74
     0
  0
LTYPE
  5
27
330
5
100
AcDbSymbolTableRecord
100
AcDbLinetypeTableRecord
  2
CENTERX2
 70
     0
  3
________  __  
 72
    65
 73
     4
 40
4.0
 49
2.5
 74
     0
 49
-0.5
 74
     0
 49
0.5
 74
     0
 49
-0.5
 74
     0
  0
LTYPE
  5
28
330
5
100
AcDbSymbolTableRecord
100
AcDbLinetypeTableRecord
  2
DASHDOT
 70
     0
  3
__ . __ . __ . __ . 
 72
    65
 73
     4
 40
1.0
 49
0.5
 74
     0
 49
-0.25
 74
     0
 49
0.0
 74
     0
 49
-0.25
 74
     0
  0
LTYPE
  5
29
330
5
100
AcDbSymbolTableRecord
100
AcDbLinetypeTableRecord
  2
DASHDOT2
 70
     0
  3
_._._._._._._._._.
 72
    65
 73
     4
 40
0.5
 49
0.25
 74
     0
 49
-0.125
 74
     0
 49
0.0
 74
     0
 49
-0.125
 74
     0
  0
LTYPE
  5
2A
330
5
100
AcDbSymbolTableRecord
100
AcDbLinetypeTableRecord
  2
DASHDOTX2
 70
     0
  3
____  .  ____  .  
 72
    65
 73
     4
 40
2.0
 49
1.0
 74
     0
 49
-0.5
 74
     0
 49
0.0
 74
     0
 49
-0.5
 74
     0
  0
LTYPE
  5
2B
330
5
100
AcDbSymbolTableRecord
100
AcDbLinetypeTableRecord
  2
DASHED
 70
     0
  3
__ __ __ __ __ __ __ 
 72
    65
 73
     2
 40
0.75
 49
0.5
 74
     0
 49
-0.25
 74
     0
  0
LTYPE
  5
2C
330
5
100
AcDbSymbolTableRecord
100
AcDbLinetypeTableRecord
  2
DASHED2
 70
     0
  3
_ _ _ _ _ _ _ _ _ _ 
 72
    65
 73
     2
 40
0.375
 49
0.25
 74
     0
 49
-0.125
 74
     0
  0
LTYPE
  5
2D
330
5
100
AcDbSymbolTableRecord
100
AcDbLinetypeTableRecord
  2
DASHEDX2
 70
     0
  3
____  ____  ____  
 72
    65
 73
     2
 40
1.5
 49
1.0
 74
     0
 49
-0.5
 74
     0
  0
LTYPE
  5
2E
330
5
100
AcDbSymbolTableRecord
100
AcDbLinetypeTableRecord
  2
DIVIDE
 70
     0
  3
____ . . ____ . . 
 72
    65
 73
     6
 40
1.25
 49
0.5
 74
     0
 49
-0.25
 74
     0
 49
0.0
 74
     0
 49
-0.25
 74
     0
 49
0.0
 74
     0
 49
-0.25
 74
     0
  0
LTYPE
  5
2F
330
5
100
AcDbSymbolTableRecord
100
AcDbLinetypeTableRecord
  2
DIVIDE2
 70
     0
  3
__..__..__..__..__..
 72
    65
 73
     6
 40
0.625
 49
0.25
 74
     0
 49
-0.125
 74
     0
 49
0.0
 74
     0
 49
-0.125
 74
     0
 49
0.0
 74
     0
 49
-0.125
 74
     0
  0
LTYPE
  5
30
330
5
100
AcDbSymbolTableRecord
100
AcDbLinetypeTableRecord
  2
DIVIDEX2
 70
     0
  3
________  .  .  
 72
    65
 73
     6
 40
2.5
 49
1.0
 74
     0
 49
-0.5
 74
     0
 49
0.0
 74
     0
 49
-0.5
 74
     0
 49
0.0
 74
     0
 49
-0.5
 74
     0
  0
LTYPE
  5
31
330
5
100
AcDbSymbolTableRecord
100
AcDbLinetypeTableRecord
  2
DOT
 70
     0
  3
. . . . . . . . . 
 72
    65
 73
     2
 40
0.25
 49
0.0
 74
     0
 49
-0.25
 74
     0
  0
LTYPE
  5
32
330
5
100
AcDbSymbolTableRecord
100
AcDbLinetypeTableRecord
  2
DOT2
 70
     0
  3
..................
 72
    65
 73
     2
 40
0.125
 49
0.0
 74
     0
 49
-0.125
 74
     0
  0
LTYPE
  5
33
330
5
100
AcDbSymbolTableRecord
100
AcDbLinetypeTableRecord
  2
DOTX2
 70
     0
  3
.  .  .  .  .  .  
 72
    65
 73
     2
 40
0.5
 49
0.0
 74
     0
 49
-0.5
 74
     0
  0
LTYPE
  5
34
330
5
100
AcDbSymbolTableRecord
100
AcDbLinetypeTableRecord
  2
HIDDEN
 70
     0
  3
__ __ __ __ __ __ 
 72
    65
 73
     2
 40
0.375
 49
0.25
 74
     0
 49
-0.125
 74
     0
  0
LTYPE
  5
35
330
5
100
AcDbSymbolTableRecord
100
AcDbLinetypeTableRecord
  2
HIDDEN2
 70
     0
  3
_ _ _ _ _ _ _ _ _ 
 72
    65
 73
     2
 40
0.1875
 49
0.125
 74
     0
 49
-0.0625
 74
     0
  0
LTYPE
  5
36
330
5
100
AcDbSymbolTableRecord
100
AcDbLinetypeTableRecord
  2
HIDDENX2
 70
     0
  3
____ ____ ____ ____ 
 72
    65
 73
     2
 40
0.75
 49
0.5
 74
     0
 49
-0.25
 74
     0
  0
LTYPE
  5
37
330
5
100
AcDbSymbolTableRecord
100
AcDbLinetypeTableRecord
  2
PHANTOM
 70
     0
  3
______  __  __  
 72
    65
 73
     6
 40
2.5
 49
1.25
 74
     0
 49
-0.25
 74
     0
 49
0.25
 74
     0
 49
-0.25
 74
     0
 49
0.25
 74
     0
 49
-0.25
 74
     0
  0
LTYPE
  5
38
330
5
100
AcDbSymbolTableRecord
100
AcDbLinetypeTableRecord
  2
PHANTOM2
 70
     0
  3
___ _ _ ___ _ _ 
 72
    65
 73
     6
 40
1.25
 49
0.625
 74
     0
 49
-0.125
 74
     0
 49
0.125
 74
     0
 49
-0.125
 74
     0
 49
0.125
 74
     0
 49
-0.125
 74
     0
  0
LTYPE
  5
39
330
5
100
AcDbSymbolTableRecord
100
AcDbLinetypeTableRecord
  2
PHANTOMX2
 70
     0
  3
___ _ _ ___ _ _ 
 72
    65
 73
     6
 40
5.0
 49
2.5
 74
     0
 49
-0.5
 74
     0
 49
0.5
 74
     0
 49
-0.5
 74
     0
 49
0.5
 74
     0
 49
-0.5
 74
     0
  0
ENDTAB
  0
TABLE
  2
LAYER
  5
2
330
0
100
AcDbSymbolTable
 70
   256
  0
LAYER
  5
10
330
2
100
AcDbSymbolTableRecord
100
AcDbLayerTableRecord
  2
0
 70
     0
 62
     7
  6
CONTINUOUS
  0
LAYER
  5
3A
330
2
100
AcDbSymbolTableRecord
100
AcDbLayerTableRecord
  2
1
 70
     0
 62
     1
  6
CONTINUOUS
  0
LAYER
  5
3B
330
2
100
AcDbSymbolTableRecord
100
AcDbLayerTableRecord
  2
2
 70
     0
 62
     2
  6
CONTINUOUS
  0
LAYER
  5
3C
330
2
100
AcDbSymbolTableRecord
100
AcDbLayerTableRecord
  2
3
 70
     0
 62
     3
  6
CONTINUOUS
  0
LAYER
  5
3D
330
2
100
AcDbSymbolTableRecord
100
AcDbLayerTableRecord
  2
4
 70
     0
 62
     4
  6
CONTINUOUS
  0
LAYER
  5
3E
330
2
100
AcDbSymbolTableRecord
100
AcDbLayerTableRecord
  2
5
 70
     0
 62
     5
  6
CONTINUOUS
  0
LAYER
  5
3F
330
2
100
AcDbSymbolTableRecord
100
AcDbLayerTableRecord
  2
6
 70
     0
 62
     6
  6
CONTINUOUS
  0
LAYER
  5
40
330
2
100
AcDbSymbolTableRecord
100
AcDbLayerTableRecord
  2
7
 70
     0
 62
     7
  6
CONTINUOUS
  0
LAYER
  5
41
330
2
100
AcDbSymbolTableRecord
100
AcDbLayerTableRecord
  2
8
 70
     0
 62
     8
  6
CONTINUOUS
  0
LAYER
  5
42
330
2
100
AcDbSymbolTableRecord
100
AcDbLayerTableRecord
  2
9
 70
     0
 62
     9
  6
CONTINUOUS
  0
LAYER
  5
43
330
2
100
AcDbSymbolTableRecord
100
AcDbLayerTableRecord
  2
10
 70
     0
 62
    10
  6
CONTINUOUS
  0
LAYER
  5
44
330
2
100
AcDbSymbolTableRecord
100
AcDbLayerTableRecord
  2
11
 70
     0
 62
    11
  6
CONTINUOUS
  0
LAYER
  5
45
330
2
100
AcDbSymbolTableRecord
100
AcDbLayerTableRecord
  2
12
 70
     0
 62
    12
  6
CONTINUOUS
  0
LAYER
  5
46
330
2
100
AcDbSymbolTableRecord
100
AcDbLayerTableRecord
  2
13
 70
     0
 62
    13
  6
CONTINUOUS
  0
LAYER
  5
47
330
2
100
AcDbSymbolTableRecord
100
AcDbLayerTableRecord
  2
14
 70
     0
 62
    14
  6
CONTINUOUS
  0
LAYER
  5
48
330
2
100
AcDbSymbolTableRecord
100
AcDbLayerTableRecord
  2
15
 70
     0
 62
    15
  6
CONTINUOUS
  0
LAYER
  5
49
330
2
100
AcDbSymbolTableRecord
100
AcDbLayerTableRecord
  2
16
 70
     0
 62
    16
  6
CONTINUOUS
  0
LAYER
  5
4A
330
2
100
AcDbSymbolTableRecord
100
AcDbLayerTableRecord
  2
17
 70
     0
 62
    17
  6
CONTINUOUS
  0
LAYER
  5
4B
330
2
100
AcDbSymbolTableRecord
100
AcDbLayerTableRecord
  2
18
 70
     0
 62
    18
  6
CONTINUOUS
  0
LAYER
  5
4C
330
2
100
AcDbSymbolTableRecord
100
AcDbLayerTableRecord
  2
19
 70
     0
 62
    19
  6
CONTINUOUS
  0
LAYER
  5
4D
330
2
100
AcDbSymbolTableRecord
100
AcDbLayerTableRecord
  2
20
 70
     0
 62
    20
  6
CONTINUOUS
  0
LAYER
  5
4E
330
2
100
AcDbSymbolTableRecord
100
AcDbLayerTableRecord
  2
21
 70
     0
 62
    21
  6
CONTINUOUS
  0
LAYER
  5
4F
330
2
100
AcDbSymbolTableRecord
100
AcDbLayerTableRecord
  2
22
 70
     0
 62
    22
  6
CONTINUOUS
  0
LAYER
  5
50
330
2
100
AcDbSymbolTableRecord
100
AcDbLayerTableRecord
  2
23
 70
     0
 62
    23
  6
CONTINUOUS
  0
LAYER
  5
51
330
2
100
AcDbSymbolTableRecord
100
AcDbLayerTableRecord
  2
24
 70
     0
 62
    24
  6
CONTINUOUS
  0
LAYER
  5
52
330
2
100
AcDbSymbolTableRecord
100
AcDbLayerTableRecord
  2
25
 70
     0
 62
    25
  6
CONTINUOUS
  0
LAYER
  5
53
330
2
100
AcDbSymbolTableRecord
100
AcDbLayerTableRecord
  2
26
 70
     0
 62
    26
  6
CONTINUOUS
  0
LAYER
  5
54
330
2
100
AcDbSymbolTableRecord
100
AcDbLayerTableRecord
  2
27
 70
     0
 62
    27
  6
CONTINUOUS
  0
LAYER
  5
55
330
2
100
AcDbSymbolTableRecord
100
AcDbLayerTableRecord
  2
28
 70
     0
 62
    28
  6
CONTINUOUS
  0
LAYER
  5
56
330
2
100
AcDbSymbolTableRecord
100
AcDbLayerTableRecord
  2
29
 70
     0
 62
    29
  6
CONTINUOUS
  0
LAYER
  5
57
330
2
100
AcDbSymbolTableRecord
100
AcDbLayerTableRecord
  2
30
 70
     0
 62
    30
  6
CONTINUOUS
  0
LAYER
  5
58
330
2
100
AcDbSymbolTableRecord
100
AcDbLayerTableRecord
  2
31
 70
     0
 62
    31
  6
CONTINUOUS
  0
LAYER
  5
59
330
2
100
AcDbSymbolTableRecord
100
AcDbLayerTableRecord
  2
32
 70
     0
 62
    32
  6
CONTINUOUS
  0
LAYER
  5
5A
330
2
100
AcDbSymbolTableRecord
100
AcDbLayerTableRecord
  2
33
 70
     0
 62
    33
  6
CONTINUOUS
  0
LAYER
  5
5B
330
2
100
AcDbSymbolTableRecord
100
AcDbLayerTableRecord
  2
34
 70
     0
 62
    34
  6
CONTINUOUS
  0
LAYER
  5
5C
330
2
100
AcDbSymbolTableRecord
100
AcDbLayerTableRecord
  2
35
 70
     0
 62
    35
  6
CONTINUOUS
  0
LAYER
  5
5D
330
2
100
AcDbSymbolTableRecord
100
AcDbLayerTableRecord
  2
36
 70
     0
 62
    36
  6
CONTINUOUS
  0
LAYER
  5
5E
330
2
100
AcDbSymbolTableRecord
100
AcDbLayerTableRecord
  2
37
 70
     0
 62
    37
  6
CONTINUOUS
  0
LAYER
  5
5F
330
2
100
AcDbSymbolTableRecord
100
AcDbLayerTableRecord
  2
38
 70
     0
 62
    38
  6
CONTINUOUS
  0
LAYER
  5
60
330
2
100
AcDbSymbolTableRecord
100
AcDbLayerTableRecord
  2
39
 70
     0
 62
    39
  6
CONTINUOUS
  0
LAYER
  5
61
330
2
100
AcDbSymbolTableRecord
100
AcDbLayerTableRecord
  2
40
 70
     0
 62
    40
  6
CONTINUOUS
  0
LAYER
  5
62
330
2
100
AcDbSymbolTableRecord
100
AcDbLayerTableRecord
  2
41
 70
     0
 62
    41
  6
CONTINUOUS
  0
LAYER
  5
63
330
2
100
AcDbSymbolTableRecord
100
AcDbLayerTableRecord
  2
42
 70
     0
 62
    42
  6
CONTINUOUS
  0
LAYER
  5
64
330
2
100
AcDbSymbolTableRecord
100
AcDbLayerTableRecord
  2
43
 70
     0
 62
    43
  6
CONTINUOUS
  0
LAYER
  5
65
330
2
100
AcDbSymbolTableRecord
100
AcDbLayerTableRecord
  2
44
 70
     0
 62
    44
  6
CONTINUOUS
  0
LAYER
  5
66
330
2
100
AcDbSymbolTableRecord
100
AcDbLayerTableRecord
  2
45
 70
     0
 62
    45
  6
CONTINUOUS
  0
LAYER
  5
67
330
2
100
AcDbSymbolTableRecord
100
AcDbLayerTableRecord
  2
46
 70
     0
 62
    46
  6
CONTINUOUS
  0
LAYER
  5
68
330
2
100
AcDbSymbolTableRecord
100
AcDbLayerTableRecord
  2
47
 70
     0
 62
    47
  6
CONTINUOUS
  0
LAYER
  5
69
330
2
100
AcDbSymbolTableRecord
100
AcDbLayerTableRecord
  2
48
 70
     0
 62
    48
  6
CONTINUOUS
  0
LAYER
  5
6A
330
2
100
AcDbSymbolTableRecord
100
AcDbLayerTableRecord
  2
49
 70
     0
 62
    49
  6
CONTINUOUS
  0
LAYER
  5
6B
330
2
100
AcDbSymbolTableRecord
100
AcDbLayerTableRecord
  2
50
 70
     0
 62
    50
  6
CONTINUOUS
  0
LAYER
  5
6C
330
2
100
AcDbSymbolTableRecord
100
AcDbLayerTableRecord
  2
51
 70
     0
 62
    51
  6
CONTINUOUS
  0
LAYER
  5
6D
330
2
100
AcDbSymbolTableRecord
100
AcDbLayerTableRecord
  2
52
 70
     0
 62
    52
  6
CONTINUOUS
  0
LAYER
  5
6E
330
2
100
AcDbSymbolTableRecord
100
AcDbLayerTableRecord
  2
53
 70
     0
 62
    53
  6
CONTINUOUS
  0
LAYER
  5
6F
330
2
100
AcDbSymbolTableRecord
100
AcDbLayerTableRecord
  2
54
 70
     0
 62
    54
  6
CONTINUOUS
  0
LAYER
  5
70
330
2
100
AcDbSymbolTableRecord
100
AcDbLayerTableRecord
  2
55
 70
     0
 62
    55
  6
CONTINUOUS
  0
LAYER
  5
71
330
2
100
AcDbSymbolTableRecord
100
AcDbLayerTableRecord
  2
56
 70
     0
 62
    56
  6
CONTINUOUS
  0
LAYER
  5
72
330
2
100
AcDbSymbolTableRecord
100
AcDbLayerTableRecord
  2
57
 70
     0
 62
    57
  6
CONTINUOUS
  0
LAYER
  5
73
330
2
100
AcDbSymbolTableRecord
100
AcDbLayerTableRecord
  2
58
 70
     0
 62
    58
  6
CONTINUOUS
  0
LAYER
  5
74
330
2
100
AcDbSymbolTableRecord
100
AcDbLayerTableRecord
  2
59
 70
     0
 62
    59
  6
CONTINUOUS
  0
LAYER
  5
75
330
2
100
AcDbSymbolTableRecord
100
AcDbLayerTableRecord
  2
60
 70
     0
 62
    60
  6
CONTINUOUS
  0
LAYER
  5
76
330
2
100
AcDbSymbolTableRecord
100
AcDbLayerTableRecord
  2
61
 70
     0
 62
    61
  6
CONTINUOUS
  0
LAYER
  5
77
330
2
100
AcDbSymbolTableRecord
100
AcDbLayerTableRecord
  2
62
 70
     0
 62
    62
  6
CONTINUOUS
  0
LAYER
  5
78
330
2
100
AcDbSymbolTableRecord
100
AcDbLayerTableRecord
  2
63
 70
     0
 62
    63
  6
CONTINUOUS
  0
LAYER
  5
79
330
2
100
AcDbSymbolTableRecord
100
AcDbLayerTableRecord
  2
64
 70
     0
 62
    64
  6
CONTINUOUS
  0
LAYER
  5
7A
330
2
100
AcDbSymbolTableRecord
100
AcDbLayerTableRecord
  2
65
 70
     0
 62
    65
  6
CONTINUOUS
  0
LAYER
  5
7B
330
2
100
AcDbSymbolTableRecord
100
AcDbLayerTableRecord
  2
66
 70
     0
 62
    66
  6
CONTINUOUS
  0
LAYER
  5
7C
330
2
100
AcDbSymbolTableRecord
100
AcDbLayerTableRecord
  2
67
 70
     0
 62
    67
  6
CONTINUOUS
  0
LAYER
  5
7D
330
2
100
AcDbSymbolTableRecord
100
AcDbLayerTableRecord
  2
68
 70
     0
 62
    68
  6
CONTINUOUS
  0
LAYER
  5
7E
330
2
100
AcDbSymbolTableRecord
100
AcDbLayerTableRecord
  2
69
 70
     0
 62
    69
  6
CONTINUOUS
  0
LAYER
  5
7F
330
2
100
AcDbSymbolTableRecord
100
AcDbLayerTableRecord
  2
70
 70
     0
 62
    70
  6
CONTINUOUS
  0
LAYER
  5
80
330
2
100
AcDbSymbolTableRecord
100
AcDbLayerTableRecord
  2
71
 70
     0
 62
    71
  6
CONTINUOUS
  0
LAYER
  5
81
330
2
100
AcDbSymbolTableRecord
100
AcDbLayerTableRecord
  2
72
 70
     0
 62
    72
  6
CONTINUOUS
  0
LAYER
  5
82
330
2
100
AcDbSymbolTableRecord
100
AcDbLayerTableRecord
  2
73
 70
     0
 62
    73
  6
CONTINUOUS
  0
LAYER
  5
83
330
2
100
AcDbSymbolTableRecord
100
AcDbLayerTableRecord
  2
74
 70
     0
 62
    74
  6
CONTINUOUS
  0
LAYER
  5
84
330
2
100
AcDbSymbolTableRecord
100
AcDbLayerTableRecord
  2
75
 70
     0
 62
    75
  6
CONTINUOUS
  0
LAYER
  5
85
330
2
100
AcDbSymbolTableRecord
100
AcDbLayerTableRecord
  2
76
 70
     0
 62
    76
  6
CONTINUOUS
  0
LAYER
  5
86
330
2
100
AcDbSymbolTableRecord
100
AcDbLayerTableRecord
  2
77
 70
     0
 62
    77
  6
CONTINUOUS
  0
LAYER
  5
87
330
2
100
AcDbSymbolTableRecord
100
AcDbLayerTableRecord
  2
78
 70
     0
 62
    78
  6
CONTINUOUS
  0
LAYER
  5
88
330
2
100
AcDbSymbolTableRecord
100
AcDbLayerTableRecord
  2
79
 70
     0
 62
    79
  6
CONTINUOUS
  0
LAYER
  5
89
330
2
100
AcDbSymbolTableRecord
100
AcDbLayerTableRecord
  2
80
 70
     0
 62
    80
  6
CONTINUOUS
  0
LAYER
  5
8A
330
2
100
AcDbSymbolTableRecord
100
AcDbLayerTableRecord
  2
81
 70
     0
 62
    81
  6
CONTINUOUS
  0
LAYER
  5
8B
330
2
100
AcDbSymbolTableRecord
100
AcDbLayerTableRecord
  2
82
 70
     0
 62
    82
  6
CONTINUOUS
  0
LAYER
  5
8C
330
2
100
AcDbSymbolTableRecord
100
AcDbLayerTableRecord
  2
83
 70
     0
 62
    83
  6
CONTINUOUS
  0
LAYER
  5
8D
330
2
100
AcDbSymbolTableRecord
100
AcDbLayerTableRecord
  2
84
 70
     0
 62
    84
  6
CONTINUOUS
  0
LAYER
  5
8E
330
2
100
AcDbSymbolTableRecord
100
AcDbLayerTableRecord
  2
85
 70
     0
 62
    85
  6
CONTINUOUS
  0
LAYER
  5
8F
330
2
100
AcDbSymbolTableRecord
100
AcDbLayerTableRecord
  2
86
 70
     0
 62
    86
  6
CONTINUOUS
  0
LAYER
  5
90
330
2
100
AcDbSymbolTableRecord
100
AcDbLayerTableRecord
  2
87
 70
     0
 62
    87
  6
CONTINUOUS
  0
LAYER
  5
91
330
2
100
AcDbSymbolTableRecord
100
AcDbLayerTableRecord
  2
88
 70
     0
 62
    88
  6
CONTINUOUS
  0
LAYER
  5
92
330
2
100
AcDbSymbolTableRecord
100
AcDbLayerTableRecord
  2
89
 70
     0
 62
    89
  6
CONTINUOUS
  0
LAYER
  5
93
330
2
100
AcDbSymbolTableRecord
100
AcDbLayerTableRecord
  2
90
 70
     0
 62
    90
  6
CONTINUOUS
  0
LAYER
  5
94
330
2
100
AcDbSymbolTableRecord
100
AcDbLayerTableRecord
  2
91
 70
     0
 62
    91
  6
CONTINUOUS
  0
LAYER
  5
95
330
2
100
AcDbSymbolTableRecord
100
AcDbLayerTableRecord
  2
92
 70
     0
 62
    92
  6
CONTINUOUS
  0
LAYER
  5
96
330
2
100
AcDbSymbolTableRecord
100
AcDbLayerTableRecord
  2
93
 70
     0
 62
    93
  6
CONTINUOUS
  0
LAYER
  5
97
330
2
100
AcDbSymbolTableRecord
100
AcDbLayerTableRecord
  2
94
 70
     0
 62
    94
  6
CONTINUOUS
  0
LAYER
  5
98
330
2
100
AcDbSymbolTableRecord
100
AcDbLayerTableRecord
  2
95
 70
     0
 62
    95
  6
CONTINUOUS
  0
LAYER
  5
99
330
2
100
AcDbSymbolTableRecord
100
AcDbLayerTableRecord
  2
96
 70
     0
 62
    96
  6
CONTINUOUS
  0
LAYER
  5
9A
330
2
100
AcDbSymbolTableRecord
100
AcDbLayerTableRecord
  2
97
 70
     0
 62
    97
  6
CONTINUOUS
  0
LAYER
  5
9B
330
2
100
AcDbSymbolTableRecord
100
AcDbLayerTableRecord
  2
98
 70
     0
 62
    98
  6
CONTINUOUS
  0
LAYER
  5
9C
330
2
100
AcDbSymbolTableRecord
100
AcDbLayerTableRecord
  2
99
 70
     0
 62
    99
  6
CONTINUOUS
  0
LAYER
  5
9D
330
2
100
AcDbSymbolTableRecord
100
AcDbLayerTableRecord
  2
100
 70
     0
 62
   100
  6
CONTINUOUS
  0
LAYER
  5
9E
330
2
100
AcDbSymbolTableRecord
100
AcDbLayerTableRecord
  2
101
 70
     0
 62
   101
  6
CONTINUOUS
  0
LAYER
  5
9F
330
2
100
AcDbSymbolTableRecord
100
AcDbLayerTableRecord
  2
102
 70
     0
 62
   102
  6
CONTINUOUS
  0
LAYER
  5
A0
330
2
100
AcDbSymbolTableRecord
100
AcDbLayerTableRecord
  2
103
 70
     0
 62
   103
  6
CONTINUOUS
  0
LAYER
  5
A1
330
2
100
AcDbSymbolTableRecord
100
AcDbLayerTableRecord
  2
104
 70
     0
 62
   104
  6
CONTINUOUS
  0
LAYER
  5
A2
330
2
100
AcDbSymbolTableRecord
100
AcDbLayerTableRecord
  2
105
 70
     0
 62
   105
  6
CONTINUOUS
  0
LAYER
  5
A3
330
2
100
AcDbSymbolTableRecord
100
AcDbLayerTableRecord
  2
106
 70
     0
 62
   106
  6
CONTINUOUS
  0
LAYER
  5
A4
330
2
100
AcDbSymbolTableRecord
100
AcDbLayerTableRecord
  2
107
 70
     0
 62
   107
  6
CONTINUOUS
  0
LAYER
  5
A5
330
2
100
AcDbSymbolTableRecord
100
AcDbLayerTableRecord
  2
108
 70
     0
 62
   108
  6
CONTINUOUS
  0
LAYER
  5
A6
330
2
100
AcDbSymbolTableRecord
100
AcDbLayerTableRecord
  2
109
 70
     0
 62
   109
  6
CONTINUOUS
  0
LAYER
  5
A7
330
2
100
AcDbSymbolTableRecord
100
AcDbLayerTableRecord
  2
110
 70
     0
 62
   110
  6
CONTINUOUS
  0
LAYER
  5
A8
330
2
100
AcDbSymbolTableRecord
100
AcDbLayerTableRecord
  2
111
 70
     0
 62
   111
  6
CONTINUOUS
  0
LAYER
  5
A9
330
2
100
AcDbSymbolTableRecord
100
AcDbLayerTableRecord
  2
112
 70
     0
 62
   112
  6
CONTINUOUS
  0
LAYER
  5
AA
330
2
100
AcDbSymbolTableRecord
100
AcDbLayerTableRecord
  2
113
 70
     0
 62
   113
  6
CONTINUOUS
  0
LAYER
  5
AB
330
2
100
AcDbSymbolTableRecord
100
AcDbLayerTableRecord
  2
114
 70
     0
 62
   114
  6
CONTINUOUS
  0
LAYER
  5
AC
330
2
100
AcDbSymbolTableRecord
100
AcDbLayerTableRecord
  2
115
 70
     0
 62
   115
  6
CONTINUOUS
  0
LAYER
  5
AD
330
2
100
AcDbSymbolTableRecord
100
AcDbLayerTableRecord
  2
116
 70
     0
 62
   116
  6
CONTINUOUS
  0
LAYER
  5
AE
330
2
100
AcDbSymbolTableRecord
100
AcDbLayerTableRecord
  2
117
 70
     0
 62
   117
  6
CONTINUOUS
  0
LAYER
  5
AF
330
2
100
AcDbSymbolTableRecord
100
AcDbLayerTableRecord
  2
118
 70
     0
 62
   118
  6
CONTINUOUS
  0
LAYER
  5
B0
330
2
100
AcDbSymbolTableRecord
100
AcDbLayerTableRecord
  2
119
 70
     0
 62
   119
  6
CONTINUOUS
  0
LAYER
  5
B1
330
2
100
AcDbSymbolTableRecord
100
AcDbLayerTableRecord
  2
120
 70
     0
 62
   120
  6
CONTINUOUS
  0
LAYER
  5
B2
330
2
100
AcDbSymbolTableRecord
100
AcDbLayerTableRecord
  2
121
 70
     0
 62
   121
  6
CONTINUOUS
  0
LAYER
  5
B3
330
2
100
AcDbSymbolTableRecord
100
AcDbLayerTableRecord
  2
122
 70
     0
 62
   122
  6
CONTINUOUS
  0
LAYER
  5
B4
330
2
100
AcDbSymbolTableRecord
100
AcDbLayerTableRecord
  2
123
 70
     0
 62
   123
  6
CONTINUOUS
  0
LAYER
  5
B5
330
2
100
AcDbSymbolTableRecord
100
AcDbLayerTableRecord
  2
124
 70
     0
 62
   124
  6
CONTINUOUS
  0
LAYER
  5
B6
330
2
100
AcDbSymbolTableRecord
100
AcDbLayerTableRecord
  2
125
 70
     0
 62
   125
  6
CONTINUOUS
  0
LAYER
  5
B7
330
2
100
AcDbSymbolTableRecord
100
AcDbLayerTableRecord
  2
126
 70
     0
 62
   126
  6
CONTINUOUS
  0
LAYER
  5
B8
330
2
100
AcDbSymbolTableRecord
100
AcDbLayerTableRecord
  2
127
 70
     0
 62
   127
  6
CONTINUOUS
  0
LAYER
  5
B9
330
2
100
AcDbSymbolTableRecord
100
AcDbLayerTableRecord
  2
128
 70
     0
 62
   128
  6
CONTINUOUS
  0
LAYER
  5
BA
330
2
100
AcDbSymbolTableRecord
100
AcDbLayerTableRecord
  2
129
 70
     0
 62
   129
  6
CONTINUOUS
  0
LAYER
  5
BB
330
2
100
AcDbSymbolTableRecord
100
AcDbLayerTableRecord
  2
130
 70
     0
 62
   130
  6
CONTINUOUS
  0
LAYER
  5
BC
330
2
100
AcDbSymbolTableRecord
100
AcDbLayerTableRecord
  2
131
 70
     0
 62
   131
  6
CONTINUOUS
  0
LAYER
  5
BD
330
2
100
AcDbSymbolTableRecord
100
AcDbLayerTableRecord
  2
132
 70
     0
 62
   132
  6
CONTINUOUS
  0
LAYER
  5
BE
330
2
100
AcDbSymbolTableRecord
100
AcDbLayerTableRecord
  2
133
 70
     0
 62
   133
  6
CONTINUOUS
  0
LAYER
  5
BF
330
2
100
AcDbSymbolTableRecord
100
AcDbLayerTableRecord
  2
134
 70
     0
 62
   134
  6
CONTINUOUS
  0
LAYER
  5
C0
330
2
100
AcDbSymbolTableRecord
100
AcDbLayerTableRecord
  2
135
 70
     0
 62
   135
  6
CONTINUOUS
  0
LAYER
  5
C1
330
2
100
AcDbSymbolTableRecord
100
AcDbLayerTableRecord
  2
136
 70
     0
 62
   136
  6
CONTINUOUS
  0
LAYER
  5
C2
330
2
100
AcDbSymbolTableRecord
100
AcDbLayerTableRecord
  2
137
 70
     0
 62
   137
  6
CONTINUOUS
  0
LAYER
  5
C3
330
2
100
AcDbSymbolTableRecord
100
AcDbLayerTableRecord
  2
138
 70
     0
 62
   138
  6
CONTINUOUS
  0
LAYER
  5
C4
330
2
100
AcDbSymbolTableRecord
100
AcDbLayerTableRecord
  2
139
 70
     0
 62
   139
  6
CONTINUOUS
  0
LAYER
  5
C5
330
2
100
AcDbSymbolTableRecord
100
AcDbLayerTableRecord
  2
140
 70
     0
 62
   140
  6
CONTINUOUS
  0
LAYER
  5
C6
330
2
100
AcDbSymbolTableRecord
100
AcDbLayerTableRecord
  2
141
 70
     0
 62
   141
  6
CONTINUOUS
  0
LAYER
  5
C7
330
2
100
AcDbSymbolTableRecord
100
AcDbLayerTableRecord
  2
142
 70
     0
 62
   142
  6
CONTINUOUS
  0
LAYER
  5
C8
330
2
100
AcDbSymbolTableRecord
100
AcDbLayerTableRecord
  2
143
 70
     0
 62
   143
  6
CONTINUOUS
  0
LAYER
  5
C9
330
2
100
AcDbSymbolTableRecord
100
AcDbLayerTableRecord
  2
144
 70
     0
 62
   144
  6
CONTINUOUS
  0
LAYER
  5
CA
330
2
100
AcDbSymbolTableRecord
100
AcDbLayerTableRecord
  2
145
 70
     0
 62
   145
  6
CONTINUOUS
  0
LAYER
  5
CB
330
2
100
AcDbSymbolTableRecord
100
AcDbLayerTableRecord
  2
146
 70
     0
 62
   146
  6
CONTINUOUS
  0
LAYER
  5
CC
330
2
100
AcDbSymbolTableRecord
100
AcDbLayerTableRecord
  2
147
 70
     0
 62
   147
  6
CONTINUOUS
  0
LAYER
  5
CD
330
2
100
AcDbSymbolTableRecord
100
AcDbLayerTableRecord
  2
148
 70
     0
 62
   148
  6
CONTINUOUS
  0
LAYER
  5
CE
330
2
100
AcDbSymbolTableRecord
100
AcDbLayerTableRecord
  2
149
 70
     0
 62
   149
  6
CONTINUOUS
  0
LAYER
  5
CF
330
2
100
AcDbSymbolTableRecord
100
AcDbLayerTableRecord
  2
150
 70
     0
 62
   150
  6
CONTINUOUS
  0
LAYER
  5
D0
330
2
100
AcDbSymbolTableRecord
100
AcDbLayerTableRecord
  2
151
 70
     0
 62
   151
  6
CONTINUOUS
  0
LAYER
  5
D1
330
2
100
AcDbSymbolTableRecord
100
AcDbLayerTableRecord
  2
152
 70
     0
 62
   152
  6
CONTINUOUS
  0
LAYER
  5
D2
330
2
100
AcDbSymbolTableRecord
100
AcDbLayerTableRecord
  2
153
 70
     0
 62
   153
  6
CONTINUOUS
  0
LAYER
  5
D3
330
2
100
AcDbSymbolTableRecord
100
AcDbLayerTableRecord
  2
154
 70
     0
 62
   154
  6
CONTINUOUS
  0
LAYER
  5
D4
330
2
100
AcDbSymbolTableRecord
100
AcDbLayerTableRecord
  2
155
 70
     0
 62
   155
  6
CONTINUOUS
  0
LAYER
  5
D5
330
2
100
AcDbSymbolTableRecord
100
AcDbLayerTableRecord
  2
156
 70
     0
 62
   156
  6
CONTINUOUS
  0
LAYER
  5
D6
330
2
100
AcDbSymbolTableRecord
100
AcDbLayerTableRecord
  2
157
 70
     0
 62
   157
  6
CONTINUOUS
  0
LAYER
  5
D7
330
2
100
AcDbSymbolTableRecord
100
AcDbLayerTableRecord
  2
158
 70
     0
 62
   158
  6
CONTINUOUS
  0
LAYER
  5
D8
330
2
100
AcDbSymbolTableRecord
100
AcDbLayerTableRecord
  2
159
 70
     0
 62
   159
  6
CONTINUOUS
  0
LAYER
  5
D9
330
2
100
AcDbSymbolTableRecord
100
AcDbLayerTableRecord
  2
160
 70
     0
 62
   160
  6
CONTINUOUS
  0
LAYER
  5
DA
330
2
100
AcDbSymbolTableRecord
100
AcDbLayerTableRecord
  2
161
 70
     0
 62
   161
  6
CONTINUOUS
  0
LAYER
  5
DB
330
2
100
AcDbSymbolTableRecord
100
AcDbLayerTableRecord
  2
162
 70
     0
 62
   162
  6
CONTINUOUS
  0
LAYER
  5
DC
330
2
100
AcDbSymbolTableRecord
100
AcDbLayerTableRecord
  2
163
 70
     0
 62
   163
  6
CONTINUOUS
  0
LAYER
  5
DD
330
2
100
AcDbSymbolTableRecord
100
AcDbLayerTableRecord
  2
164
 70
     0
 62
   164
  6
CONTINUOUS
  0
LAYER
  5
DE
330
2
100
AcDbSymbolTableRecord
100
AcDbLayerTableRecord
  2
165
 70
     0
 62
   165
  6
CONTINUOUS
  0
LAYER
  5
DF
330
2
100
AcDbSymbolTableRecord
100
AcDbLayerTableRecord
  2
166
 70
     0
 62
   166
  6
CONTINUOUS
  0
LAYER
  5
E0
330
2
100
AcDbSymbolTableRecord
100
AcDbLayerTableRecord
  2
167
 70
     0
 62
   167
  6
CONTINUOUS
  0
LAYER
  5
E1
330
2
100
AcDbSymbolTableRecord
100
AcDbLayerTableRecord
  2
168
 70
     0
 62
   168
  6
CONTINUOUS
  0
LAYER
  5
E2
330
2
100
AcDbSymbolTableRecord
100
AcDbLayerTableRecord
  2
169
 70
     0
 62
   169
  6
CONTINUOUS
  0
LAYER
  5
E3
330
2
100
AcDbSymbolTableRecord
100
AcDbLayerTableRecord
  2
170
 70
     0
 62
   170
  6
CONTINUOUS
  0
LAYER
  5
E4
330
2
100
AcDbSymbolTableRecord
100
AcDbLayerTableRecord
  2
171
 70
     0
 62
   171
  6
CONTINUOUS
  0
LAYER
  5
E5
330
2
100
AcDbSymbolTableRecord
100
AcDbLayerTableRecord
  2
172
 70
     0
 62
   172
  6
CONTINUOUS
  0
LAYER
  5
E6
330
2
100
AcDbSymbolTableRecord
100
AcDbLayerTableRecord
  2
173
 70
     0
 62
   173
  6
CONTINUOUS
  0
LAYER
  5
E7
330
2
100
AcDbSymbolTableRecord
100
AcDbLayerTableRecord
  2
174
 70
     0
 62
   174
  6
CONTINUOUS
  0
LAYER
  5
E8
330
2
100
AcDbSymbolTableRecord
100
AcDbLayerTableRecord
  2
175
 70
     0
 62
   175
  6
CONTINUOUS
  0
LAYER
  5
E9
330
2
100
AcDbSymbolTableRecord
100
AcDbLayerTableRecord
  2
176
 70
     0
 62
   176
  6
CONTINUOUS
  0
LAYER
  5
EA
330
2
100
AcDbSymbolTableRecord
100
AcDbLayerTableRecord
  2
177
 70
     0
 62
   177
  6
CONTINUOUS
  0
LAYER
  5
EB
330
2
100
AcDbSymbolTableRecord
100
AcDbLayerTableRecord
  2
178
 70
     0
 62
   178
  6
CONTINUOUS
  0
LAYER
  5
EC
330
2
100
AcDbSymbolTableRecord
100
AcDbLayerTableRecord
  2
179
 70
     0
 62
   179
  6
CONTINUOUS
  0
LAYER
  5
ED
330
2
100
AcDbSymbolTableRecord
100
AcDbLayerTableRecord
  2
180
 70
     0
 62
   180
  6
CONTINUOUS
  0
LAYER
  5
EE
330
2
100
AcDbSymbolTableRecord
100
AcDbLayerTableRecord
  2
181
 70
     0
 62
   181
  6
CONTINUOUS
  0
LAYER
  5
EF
330
2
100
AcDbSymbolTableRecord
100
AcDbLayerTableRecord
  2
182
 70
     0
 62
   182
  6
CONTINUOUS
  0
LAYER
  5
F0
330
2
100
AcDbSymbolTableRecord
100
AcDbLayerTableRecord
  2
183
 70
     0
 62
   183
  6
CONTINUOUS
  0
LAYER
  5
F1
330
2
100
AcDbSymbolTableRecord
100
AcDbLayerTableRecord
  2
184
 70
     0
 62
   184
  6
CONTINUOUS
  0
LAYER
  5
F2
330
2
100
AcDbSymbolTableRecord
100
AcDbLayerTableRecord
  2
185
 70
     0
 62
   185
  6
CONTINUOUS
  0
LAYER
  5
F3
330
2
100
AcDbSymbolTableRecord
100
AcDbLayerTableRecord
  2
186
 70
     0
 62
   186
  6
CONTINUOUS
  0
LAYER
  5
F4
330
2
100
AcDbSymbolTableRecord
100
AcDbLayerTableRecord
  2
187
 70
     0
 62
   187
  6
CONTINUOUS
  0
LAYER
  5
F5
330
2
100
AcDbSymbolTableRecord
100
AcDbLayerTableRecord
  2
188
 70
     0
 62
   188
  6
CONTINUOUS
  0
LAYER
  5
F6
330
2
100
AcDbSymbolTableRecord
100
AcDbLayerTableRecord
  2
189
 70
     0
 62
   189
  6
CONTINUOUS
  0
LAYER
  5
F7
330
2
100
AcDbSymbolTableRecord
100
AcDbLayerTableRecord
  2
190
 70
     0
 62
   190
  6
CONTINUOUS
  0
LAYER
  5
F8
330
2
100
AcDbSymbolTableRecord
100
AcDbLayerTableRecord
  2
191
 70
     0
 62
   191
  6
CONTINUOUS
  0
LAYER
  5
F9
330
2
100
AcDbSymbolTableRecord
100
AcDbLayerTableRecord
  2
192
 70
     0
 62
   192
  6
CONTINUOUS
  0
LAYER
  5
FA
330
2
100
AcDbSymbolTableRecord
100
AcDbLayerTableRecord
  2
193
 70
     0
 62
   193
  6
CONTINUOUS
  0
LAYER
  5
FB
330
2
100
AcDbSymbolTableRecord
100
AcDbLayerTableRecord
  2
194
 70
     0
 62
   194
  6
CONTINUOUS
  0
LAYER
  5
FC
330
2
100
AcDbSymbolTableRecord
100
AcDbLayerTableRecord
  2
195
 70
     0
 62
   195
  6
CONTINUOUS
  0
LAYER
  5
FD
330
2
100
AcDbSymbolTableRecord
100
AcDbLayerTableRecord
  2
196
 70
     0
 62
   196
  6
CONTINUOUS
  0
LAYER
  5
FE
330
2
100
AcDbSymbolTableRecord
100
AcDbLayerTableRecord
  2
197
 70
     0
 62
   197
  6
CONTINUOUS
  0
LAYER
  5
FF
330
2
100
AcDbSymbolTableRecord
100
AcDbLayerTableRecord
  2
198
 70
     0
 62
   198
  6
CONTINUOUS
  0
LAYER
  5
100
330
2
100
AcDbSymbolTableRecord
100
AcDbLayerTableRecord
  2
199
 70
     0
 62
   199
  6
CONTINUOUS
  0
LAYER
  5
101
330
2
100
AcDbSymbolTableRecord
100
AcDbLayerTableRecord
  2
200
 70
     0
 62
   200
  6
CONTINUOUS
  0
LAYER
  5
102
330
2
100
AcDbSymbolTableRecord
100
AcDbLayerTableRecord
  2
201
 70
     0
 62
   201
  6
CONTINUOUS
  0
LAYER
  5
103
330
2
100
AcDbSymbolTableRecord
100
AcDbLayerTableRecord
  2
202
 70
     0
 62
   202
  6
CONTINUOUS
  0
LAYER
  5
104
330
2
100
AcDbSymbolTableRecord
100
AcDbLayerTableRecord
  2
203
 70
     0
 62
   203
  6
CONTINUOUS
  0
LAYER
  5
105
330
2
100
AcDbSymbolTableRecord
100
AcDbLayerTableRecord
  2
204
 70
     0
 62
   204
  6
CONTINUOUS
  0
LAYER
  5
106
330
2
100
AcDbSymbolTableRecord
100
AcDbLayerTableRecord
  2
205
 70
     0
 62
   205
  6
CONTINUOUS
  0
LAYER
  5
107
330
2
100
AcDbSymbolTableRecord
100
AcDbLayerTableRecord
  2
206
 70
     0
 62
   206
  6
CONTINUOUS
  0
LAYER
  5
108
330
2
100
AcDbSymbolTableRecord
100
AcDbLayerTableRecord
  2
207
 70
     0
 62
   207
  6
CONTINUOUS
  0
LAYER
  5
109
330
2
100
AcDbSymbolTableRecord
100
AcDbLayerTableRecord
  2
208
 70
     0
 62
   208
  6
CONTINUOUS
  0
LAYER
  5
10A
330
2
100
AcDbSymbolTableRecord
100
AcDbLayerTableRecord
  2
209
 70
     0
 62
   209
  6
CONTINUOUS
  0
LAYER
  5
10B
330
2
100
AcDbSymbolTableRecord
100
AcDbLayerTableRecord
  2
210
 70
     0
 62
   210
  6
CONTINUOUS
  0
LAYER
  5
10C
330
2
100
AcDbSymbolTableRecord
100
AcDbLayerTableRecord
  2
211
 70
     0
 62
   211
  6
CONTINUOUS
  0
LAYER
  5
10D
330
2
100
AcDbSymbolTableRecord
100
AcDbLayerTableRecord
  2
212
 70
     0
 62
   212
  6
CONTINUOUS
  0
LAYER
  5
10E
330
2
100
AcDbSymbolTableRecord
100
AcDbLayerTableRecord
  2
213
 70
     0
 62
   213
  6
CONTINUOUS
  0
LAYER
  5
10F
330
2
100
AcDbSymbolTableRecord
100
AcDbLayerTableRecord
  2
214
 70
     0
 62
   214
  6
CONTINUOUS
  0
LAYER
  5
110
330
2
100
AcDbSymbolTableRecord
100
AcDbLayerTableRecord
  2
215
 70
     0
 62
   215
  6
CONTINUOUS
  0
LAYER
  5
111
330
2
100
AcDbSymbolTableRecord
100
AcDbLayerTableRecord
  2
216
 70
     0
 62
   216
  6
CONTINUOUS
  0
LAYER
  5
112
330
2
100
AcDbSymbolTableRecord
100
AcDbLayerTableRecord
  2
217
 70
     0
 62
   217
  6
CONTINUOUS
  0
LAYER
  5
113
330
2
100
AcDbSymbolTableRecord
100
AcDbLayerTableRecord
  2
218
 70
     0
 62
   218
  6
CONTINUOUS
  0
LAYER
  5
114
330
2
100
AcDbSymbolTableRecord
100
AcDbLayerTableRecord
  2
219
 70
     0
 62
   219
  6
CONTINUOUS
  0
LAYER
  5
115
330
2
100
AcDbSymbolTableRecord
100
AcDbLayerTableRecord
  2
220
 70
     0
 62
   220
  6
CONTINUOUS
  0
LAYER
  5
116
330
2
100
AcDbSymbolTableRecord
100
AcDbLayerTableRecord
  2
221
 70
     0
 62
   221
  6
CONTINUOUS
  0
LAYER
  5
117
330
2
100
AcDbSymbolTableRecord
100
AcDbLayerTableRecord
  2
222
 70
     0
 62
   222
  6
CONTINUOUS
  0
LAYER
  5
118
330
2
100
AcDbSymbolTableRecord
100
AcDbLayerTableRecord
  2
223
 70
     0
 62
   223
  6
CONTINUOUS
  0
LAYER
  5
119
330
2
100
AcDbSymbolTableRecord
100
AcDbLayerTableRecord
  2
224
 70
     0
 62
   224
  6
CONTINUOUS
  0
LAYER
  5
11A
330
2
100
AcDbSymbolTableRecord
100
AcDbLayerTableRecord
  2
225
 70
     0
 62
   225
  6
CONTINUOUS
  0
LAYER
  5
11B
330
2
100
AcDbSymbolTableRecord
100
AcDbLayerTableRecord
  2
226
 70
     0
 62
   226
  6
CONTINUOUS
  0
LAYER
  5
11C
330
2
100
AcDbSymbolTableRecord
100
AcDbLayerTableRecord
  2
227
 70
     0
 62
   227
  6
CONTINUOUS
  0
LAYER
  5
11D
330
2
100
AcDbSymbolTableRecord
100
AcDbLayerTableRecord
  2
228
 70
     0
 62
   228
  6
CONTINUOUS
  0
LAYER
  5
11E
330
2
100
AcDbSymbolTableRecord
100
AcDbLayerTableRecord
  2
229
 70
     0
 62
   229
  6
CONTINUOUS
  0
LAYER
  5
11F
330
2
100
AcDbSymbolTableRecord
100
AcDbLayerTableRecord
  2
230
 70
     0
 62
   230
  6
CONTINUOUS
  0
LAYER
  5
120
330
2
100
AcDbSymbolTableRecord
100
AcDbLayerTableRecord
  2
231
 70
     0
 62
   231
  6
CONTINUOUS
  0
LAYER
  5
121
330
2
100
AcDbSymbolTableRecord
100
AcDbLayerTableRecord
  2
232
 70
     0
 62
   232
  6
CONTINUOUS
  0
LAYER
  5
122
330
2
100
AcDbSymbolTableRecord
100
AcDbLayerTableRecord
  2
233
 70
     0
 62
   233
  6
CONTINUOUS
  0
LAYER
  5
123
330
2
100
AcDbSymbolTableRecord
100
AcDbLayerTableRecord
  2
234
 70
     0
 62
   234
  6
CONTINUOUS
  0
LAYER
  5
124
330
2
100
AcDbSymbolTableRecord
100
AcDbLayerTableRecord
  2
235
 70
     0
 62
   235
  6
CONTINUOUS
  0
LAYER
  5
125
330
2
100
AcDbSymbolTableRecord
100
AcDbLayerTableRecord
  2
236
 70
     0
 62
   236
  6
CONTINUOUS
  0
LAYER
  5
126
330
2
100
AcDbSymbolTableRecord
100
AcDbLayerTableRecord
  2
237
 70
     0
 62
   237
  6
CONTINUOUS
  0
LAYER
  5
127
330
2
100
AcDbSymbolTableRecord
100
AcDbLayerTableRecord
  2
238
 70
     0
 62
   238
  6
CONTINUOUS
  0
LAYER
  5
128
330
2
100
AcDbSymbolTableRecord
100
AcDbLayerTableRecord
  2
239
 70
     0
 62
   239
  6
CONTINUOUS
  0
LAYER
  5
129
330
2
100
AcDbSymbolTableRecord
100
AcDbLayerTableRecord
  2
240
 70
     0
 62
   240
  6
CONTINUOUS
  0
LAYER
  5
12A
330
2
100
AcDbSymbolTableRecord
100
AcDbLayerTableRecord
  2
241
 70
     0
 62
   241
  6
CONTINUOUS
  0
LAYER
  5
12B
330
2
100
AcDbSymbolTableRecord
100
AcDbLayerTableRecord
  2
242
 70
     0
 62
   242
  6
CONTINUOUS
  0
LAYER
  5
12C
330
2
100
AcDbSymbolTableRecord
100
AcDbLayerTableRecord
  2
243
 70
     0
 62
   243
  6
CONTINUOUS
  0
LAYER
  5
12D
330
2
100
AcDbSymbolTableRecord
100
AcDbLayerTableRecord
  2
244
 70
     0
 62
   244
  6
CONTINUOUS
  0
LAYER
  5
12E
330
2
100
AcDbSymbolTableRecord
100
AcDbLayerTableRecord
  2
245
 70
     0
 62
   245
  6
CONTINUOUS
  0
LAYER
  5
12F
330
2
100
AcDbSymbolTableRecord
100
AcDbLayerTableRecord
  2
246
 70
     0
 62
   246
  6
CONTINUOUS
  0
LAYER
  5
130
330
2
100
AcDbSymbolTableRecord
100
AcDbLayerTableRecord
  2
247
 70
     0
 62
   247
  6
CONTINUOUS
  0
LAYER
  5
131
330
2
100
AcDbSymbolTableRecord
100
AcDbLayerTableRecord
  2
248
 70
     0
 62
   248
  6
CONTINUOUS
  0
LAYER
  5
132
330
2
100
AcDbSymbolTableRecord
100
AcDbLayerTableRecord
  2
249
 70
     0
 62
   249
  6
CONTINUOUS
  0
LAYER
  5
133
330
2
100
AcDbSymbolTableRecord
100
AcDbLayerTableRecord
  2
250
 70
     0
 62
   250
  6
CONTINUOUS
  0
LAYER
  5
134
330
2
100
AcDbSymbolTableRecord
100
AcDbLayerTableRecord
  2
251
 70
     0
 62
   251
  6
CONTINUOUS
  0
LAYER
  5
135
330
2
100
AcDbSymbolTableRecord
100
AcDbLayerTableRecord
  2
252
 70
     0
 62
   252
  6
CONTINUOUS
  0
LAYER
  5
136
330
2
100
AcDbSymbolTableRecord
100
AcDbLayerTableRecord
  2
253
 70
     0
 62
   253
  6
CONTINUOUS
  0
LAYER
  5
137
330
2
100
AcDbSymbolTableRecord
100
AcDbLayerTableRecord
  2
254
 70
     0
 62
   254
  6
CONTINUOUS
  0
LAYER
  5
138
330
2
100
AcDbSymbolTableRecord
100
AcDbLayerTableRecord
  2
255
 70
     0
 62
   255
  6
CONTINUOUS
  0
ENDTAB
  0
TABLE
  2
STYLE
  5
3
330
0
100
AcDbSymbolTable
 70
     1
  0
STYLE
  5
11
330
3
100
AcDbSymbolTableRecord
100
AcDbTextStyleTableRecord
  2
STANDARD
 70
     0
 40
0.0
 41
1.0
 50
0.0
 71
     0
 42
0.2
  3
txt
  4

  0
ENDTAB
  0
TABLE
  2
VIEW
  5
6
330
0
100
AcDbSymbolTable
 70
     0
  0
ENDTAB
  0
TABLE
  2
UCS
  5
7
330
0
100
AcDbSymbolTable
 70
     0
  0
ENDTAB
  0
TABLE
  2
APPID
  5
9
330
0
100
AcDbSymbolTable
 70
     1
  0
APPID
  5
12
330
9
100
AcDbSymbolTableRecord
100
AcDbRegAppTableRecord
  2
ACAD
 70
     0
  0
ENDTAB
  0
TABLE
  2
DIMSTYLE
  5
A
330
0
100
AcDbSymbolTable
 70
     1
  0
DIMSTYLE
105
2C3B
330
A
100
AcDbSymbolTableRecord
100
AcDbDimStyleTableRecord
  2
STANDARD
 70
     0
  3

  4

  5

  6

  7

 40
1.0
 41
0.18
 42
0.0625
 43
0.38
 44
0.18
 45
0.0
 46
0.0
 47
0.0
 48
0.0
140
0.18
141
0.09
142
0.0
143
25.4
144
1.0
145
0.0
146
1.0
147
0.09
 71
     0
 72
     0
 73
     1
 74
     1
 75
     0
 76
     0
 77
     0
 78
     0
170
     0
171
     2
172
     0
173
     0
174
     0
175
     0
176
     0
177
     0
178
     0
270
     2
271
     4
272
     4
273
     2
274
     2
340
11
275
     0
280
     0
281
     0
282
     0
283
     1
284
     0
285
     0
286
     0
287
     3
288
     0
  0
ENDTAB
  0
TABLE
  2
BLOCK_RECORD
  5
1
330
0
100
AcDbSymbolTable
 70
     0
  0
BLOCK_RECORD
  5
1E
102
{ACAD_XDICTIONARY
360
2E1B
102
}
330
1
100
AcDbSymbolTableRecord
100
AcDbBlockTableRecord
  2
*MODEL_SPACE
  0
BLOCK_RECORD
  5
1A
102
{ACAD_XDICTIONARY
360
2E19
102
}
330
1
100
AcDbSymbolTableRecord
100
AcDbBlockTableRecord
  2
*PAPER_SPACE
  0
ENDTAB
  0
ENDSEC
  0
SECTION
  2
BLOCKS
  0
BLOCK
  5
13B
330
1E
100
AcDbEntity
  8
0
100
AcDbBlockBegin
  2
*MODEL_SPACE
 70
     0
 10
0.0
 20
0.0
 30
0.0
  3
*MODEL_SPACE
  1

  0
ENDBLK
  5
13C
330
1E
100
AcDbEntity
  8
0
100
AcDbBlockEnd
  0
BLOCK
  5
139
330
1A
100
AcDbEntity
 67
     1
  8
0
100
AcDbBlockBegin
  2
*PAPER_SPACE
 70
     0
 10
0.0
 20
0.0
 30
0.0
  3
*PAPER_SPACE
  1

  0
ENDBLK
  5
13A
330
1A
100
AcDbEntity
 67
     1
  8
0
100
AcDbBlockEnd
  0
ENDSEC
  0
SECTION
  2
ENTITIES
  0
LINE
  5
2681
330
1E
100
AcDbEntity
  8
0
100
AcDbLine
 10
3.246062992125984
 20
4.577755905511811
 30
0.0
 11
3.247047244094487
 21
4.575787401574802
 31
0.0
  0
LINE
  5
2682
330
1E
100
AcDbEntity
  8
0
100
AcDbLine
 10
3.247047244094487
 20
4.575787401574802
 30
0.0
 11
3.24507874015748
 21
4.575787401574802
 31
0.0
  0
LINE
  5
2683
330
1E
100
AcDbEntity
  8
0
100
AcDbLine
 10
1.68503937007874
 20
4.577755905511811
 30
0.0
 11
1.684055118110236
 21
4.575787401574802
 31
0.0
  0
LINE
  5
2684
330
1E
100
AcDbEntity
  8
0
100
AcDbLine
 10
1.686023622047243
 20
4.575787401574802
 30
0.0
 11
1.684055118110236
 21
4.575787401574802
 31
0.0
  0
LINE
  5
2685
330
1E
100
AcDbEntity
  8
0
100
AcDbLine
 10
3.112204724409448
 20
5.340551181102362
 30
0.0
 11
1.818897637795275
 21
5.340551181102362
 31
0.0
  0
POLYLINE
  5
2686
330
1E
100
AcDbEntity
  8
0
100
AcDb2dPolyline
 66
     1
 10
0.0
 20
0.0
 30
0.0
  0
VERTEX
  5
2E1D
330
2686
100
AcDbEntity
  8
0
100
AcDbVertex
100
AcDb2dVertex
 10
3.112204724409448
 20
5.340551181102362
 30
0.0
  0
VERTEX
  5
2E1E
330
2686
100
AcDbEntity
  8
0
100
AcDbVertex
100
AcDb2dVertex
 10
3.135826771653543
 20
5.336614173228346
 30
0.0
  0
VERTEX
  5
2E1F
330
2686
100
AcDbEntity
  8
0
100
AcDbVertex
100
AcDb2dVertex
 10
3.15748031496063
 20
5.323818897637795
 30
0.0
  0
VERTEX
  5
2E20
330
2686
100
AcDbEntity
  8
0
100
AcDbVertex
100
AcDb2dVertex
 10
3.1751968503937
 20
5.304133858267716
 30
0.0
  0
VERTEX
  5
2E21
330
2686
100
AcDbEntity
  8
0
100
AcDbVertex
100
AcDb2dVertex
 10
3.189960629921259
 20
5.27755905511811
 30
0.0
  0
VERTEX
  5
2E22
330
2686
100
AcDbEntity
  8
0
100
AcDbVertex
100
AcDb2dVertex
 10
3.198818897637795
 20
5.247047244094487
 30
0.0
  0
VERTEX
  5
2E23
330
2686
100
AcDbEntity
  8
0
100
AcDbVertex
100
AcDb2dVertex
 10
3.201771653543306
 20
5.214566929133858
 30
0.0
  0
SEQEND
  5
2E24
330
2686
100
AcDbEntity
  8
0
  0
LINE
  5
268F
330
1E
100
AcDbEntity
  8
0
100
AcDbLine
 10
3.201771653543306
 20
4.270669291338582
 30
0.0
 11
3.201771653543306
 21
5.214566929133858
 31
0.0
  0
POLYLINE
  5
2690
330
1E
100
AcDbEntity
  8
0
100
AcDb2dPolyline
 66
     1
 10
0.0
 20
0.0
 30
0.0
  0
VERTEX
  5
2E25
330
2690
100
AcDbEntity
  8
0
100
AcDbVertex
100
AcDb2dVertex
 10
3.201771653543306
 20
4.270669291338582
 30
0.0
  0
VERTEX
  5
2E26
330
2690
100
AcDbEntity
  8
0
100
AcDbVertex
100
AcDb2dVertex
 10
3.198818897637795
 20
4.238188976377952
 30
0.0
  0
VERTEX
  5
2E27
330
2690
100
AcDbEntity
  8
0
100
AcDbVertex
100
AcDb2dVertex
 10
3.189960629921259
 20
4.206692913385826
 30
0.0
  0
VERTEX
  5
2E28
330
2690
100
AcDbEntity
  8
0
100
AcDbVertex
100
AcDb2dVertex
 10
3.1751968503937
 20
4.181102362204724
 30
0.0
  0
VERTEX
  5
2E29
330
2690
100
AcDbEntity
  8
0
100
AcDbVertex
100
AcDb2dVertex
 10
3.15748031496063
 20
4.161417322834645
 30
0.0
  0
VERTEX
  5
2E2A
330
2690
100
AcDbEntity
  8
0
100
AcDbVertex
100
AcDb2dVertex
 10
3.135826771653543
 20
4.148622047244094
 30
0.0
  0
VERTEX
  5
2E2B
330
2690
100
AcDbEntity
  8
0
100
AcDbVertex
100
AcDb2dVertex
 10
3.112204724409448
 20
4.144685039370078
 30
0.0
  0
SEQEND
  5
2E2C
330
2690
100
AcDbEntity
  8
0
  0
LINE
  5
2699
330
1E
100
AcDbEntity
  8
0
100
AcDbLine
 10
1.818897637795275
 20
4.144685039370078
 30
0.0
 11
3.112204724409448
 21
4.144685039370078
 31
0.0
  0
POLYLINE
  5
269A
330
1E
100
AcDbEntity
  8
0
100
AcDb2dPolyline
 66
     1
 10
0.0
 20
0.0
 30
0.0
  0
VERTEX
  5
2E2D
330
269A
100
AcDbEntity
  8
0
100
AcDbVertex
100
AcDb2dVertex
 10
1.818897637795275
 20
4.144685039370078
 30
0.0
  0
VERTEX
  5
2E2E
330
269A
100
AcDbEntity
  8
0
100
AcDbVertex
100
AcDb2dVertex
 10
1.795275590551181
 20
4.148622047244094
 30
0.0
  0
VERTEX
  5
2E2F
330
269A
100
AcDbEntity
  8
0
100
AcDbVertex
100
AcDb2dVertex
 10
1.773622047244094
 20
4.161417322834645
 30
0.0
  0
VERTEX
  5
2E30
330
269A
100
AcDbEntity
  8
0
100
AcDbVertex
100
AcDb2dVertex
 10
1.755905511811023
 20
4.181102362204724
 30
0.0
  0
VERTEX
  5
2E31
330
269A
100
AcDbEntity
  8
0
100
AcDbVertex
100
AcDb2dVertex
 10
1.741141732283464
 20
4.206692913385826
 30
0.0
  0
VERTEX
  5
2E32
330
269A
100
AcDbEntity
  8
0
100
AcDbVertex
100
AcDb2dVertex
 10
1.732283464566929
 20
4.238188976377952
 30
0.0
  0
VERTEX
  5
2E33
330
269A
100
AcDbEntity
  8
0
100
AcDbVertex
100
AcDb2dVertex
 10
1.729330708661417
 20
4.270669291338582
 30
0.0
  0
SEQEND
  5
2E34
330
269A
100
AcDbEntity
  8
0
  0
LINE
  5
26A3
330
1E
100
AcDbEntity
  8
0
100
AcDbLine
 10
1.729330708661417
 20
5.214566929133858
 30
0.0
 11
1.729330708661417
 21
4.270669291338582
 31
0.0
  0
POLYLINE
  5
26A4
330
1E
100
AcDbEntity
  8
0
100
AcDb2dPolyline
 66
     1
 10
0.0
 20
0.0
 30
0.0
  0
VERTEX
  5
2E35
330
26A4
100
AcDbEntity
  8
0
100
AcDbVertex
100
AcDb2dVertex
 10
1.729330708661417
 20
5.214566929133858
 30
0.0
  0
VERTEX
  5
2E36
330
26A4
100
AcDbEntity
  8
0
100
AcDbVertex
100
AcDb2dVertex
 10
1.732283464566929
 20
5.247047244094487
 30
0.0
  0
VERTEX
  5
2E37
330
26A4
100
AcDbEntity
  8
0
100
AcDbVertex
100
AcDb2dVertex
 10
1.741141732283464
 20
5.27755905511811
 30
0.0
  0
VERTEX
  5
2E38
330
26A4
100
AcDbEntity
  8
0
100
AcDbVertex
100
AcDb2dVertex
 10
1.755905511811023
 20
5.304133858267716
 30
0.0
  0
VERTEX
  5
2E39
330
26A4
100
AcDbEntity
  8
0
100
AcDbVertex
100
AcDb2dVertex
 10
1.773622047244094
 20
5.323818897637795
 30
0.0
  0
VERTEX
  5
2E3A
330
26A4
100
AcDbEntity
  8
0
100
AcDbVertex
100
AcDb2dVertex
 10
1.795275590551181
 20
5.336614173228346
 30
0.0
  0
VERTEX
  5
2E3B
330
26A4
100
AcDbEntity
  8
0
100
AcDbVertex
100
AcDb2dVertex
 10
1.818897637795275
 20
5.340551181102362
 30
0.0
  0
SEQEND
  5
2E3C
330
26A4
100
AcDbEntity
  8
0
  0
LINE
  5
26AD
330
1E
100
AcDbEntity
  8
0
100
AcDbLine
 10
1.686023622047243
 20
4.575787401574802
 30
0.0
 11
1.686023622047243
 21
4.909448818897637
 31
0.0
  0
LINE
  5
26AE
330
1E
100
AcDbEntity
  8
0
100
AcDbLine
 10
1.684055118110236
 20
4.074803149606299
 30
0.0
 11
1.684055118110236
 21
4.575787401574802
 31
0.0
  0
LINE
  5
26AF
330
1E
100
AcDbEntity
  8
0
100
AcDbLine
 10
3.247047244094487
 20
4.074803149606299
 30
0.0
 11
3.247047244094487
 21
4.575787401574802
 31
0.0
  0
LINE
  5
26B0
330
1E
100
AcDbEntity
  8
0
100
AcDbLine
 10
3.24507874015748
 20
4.909448818897637
 30
0.0
 11
3.24507874015748
 21
4.575787401574802
 31
0.0
  0
LINE
  5
26B1
330
1E
100
AcDbEntity
  8
0
100
AcDbLine
 10
3.247047244094487
 20
4.909448818897637
 30
0.0
 11
3.247047244094487
 21
5.410433070866141
 31
0.0
  0
LINE
  5
26B2
330
1E
100
AcDbEntity
  8
0
100
AcDbLine
 10
1.684055118110236
 20
5.410433070866141
 30
0.0
 11
3.247047244094487
 21
5.410433070866141
 31
0.0
  0
LINE
  5
26B3
330
1E
100
AcDbEntity
  8
0
100
AcDbLine
 10
1.684055118110236
 20
4.909448818897637
 30
0.0
 11
1.684055118110236
 21
5.410433070866141
 31
0.0
  0
LINE
  5
26B4
330
1E
100
AcDbEntity
  8
0
100
AcDbLine
 10
1.849409448818897
 20
4.62007874015748
 30
0.0
 11
1.849409448818897
 21
4.162401574803149
 31
0.0
  0
LINE
  5
26B5
330
1E
100
AcDbEntity
  8
0
100
AcDbLine
 10
2.431102362204724
 20
4.62007874015748
 30
0.0
 11
2.431102362204724
 21
4.162401574803149
 31
0.0
  0
LINE
  5
26B6
330
1E
100
AcDbEntity
  8
0
100
AcDbLine
 10
2.431102362204724
 20
4.198818897637795
 30
0.0
 11
1.849409448818897
 21
4.198818897637795
 31
0.0
  0
LINE
  5
26B7
330
1E
100
AcDbEntity
  8
0
100
AcDbLine
 10
1.849409448818897
 20
4.185039370078739
 30
0.0
 11
2.431102362204724
 21
4.185039370078739
 31
0.0
  0
LINE
  5
26B8
330
1E
100
AcDbEntity
  8
0
100
AcDbLine
 10
3.081692913385826
 20
4.62007874015748
 30
0.0
 11
3.081692913385826
 21
4.162401574803149
 31
0.0
  0
LINE
  5
26B9
330
1E
100
AcDbEntity
  8
0
100
AcDbLine
 10
2.499015748031495
 20
4.62007874015748
 30
0.0
 11
2.499015748031495
 21
4.162401574803149
 31
0.0
  0
LINE
  5
26BA
330
1E
100
AcDbEntity
  8
0
100
AcDbLine
 10
3.081692913385826
 20
4.198818897637795
 30
0.0
 11
2.499015748031495
 21
4.198818897637795
 31
0.0
  0
LINE
  5
26BB
330
1E
100
AcDbEntity
  8
0
100
AcDbLine
 10
2.499015748031495
 20
4.185039370078739
 30
0.0
 11
3.081692913385826
 21
4.185039370078739
 31
0.0
  0
LINE
  5
26BC
330
1E
100
AcDbEntity
  8
0
100
AcDbLine
 10
1.847440944881889
 20
4.808070866141732
 30
0.0
 11
3.083661417322834
 21
4.808070866141732
 31
0.0
  0
LINE
  5
26BD
330
1E
100
AcDbEntity
  8
0
100
AcDbLine
 10
3.083661417322834
 20
4.808070866141732
 30
0.0
 11
3.112204724409448
 21
5.340551181102362
 31
0.0
  0
LINE
  5
26BE
330
1E
100
AcDbEntity
  8
0
100
AcDbLine
 10
1.818897637795275
 20
5.340551181102362
 30
0.0
 11
1.847440944881889
 21
4.808070866141732
 31
0.0
  0
LINE
  5
26BF
330
1E
100
AcDbEntity
  8
0
100
AcDbLine
 10
3.201771653543306
 20
5.214566929133858
 30
0.0
 11
3.177165354330708
 21
4.742125984251968
 31
0.0
  0
LINE
  5
26C0
330
1E
100
AcDbEntity
  8
0
100
AcDbLine
 10
3.177165354330708
 20
4.742125984251968
 30
0.0
 11
3.201771653543306
 21
4.270669291338582
 31
0.0
  0
LINE
  5
26C1
330
1E
100
AcDbEntity
  8
0
100
AcDbLine
 10
1.729330708661417
 20
4.270669291338582
 30
0.0
 11
1.753937007874015
 21
4.742125984251968
 31
0.0
  0
LINE
  5
26C2
330
1E
100
AcDbEntity
  8
0
100
AcDbLine
 10
1.753937007874015
 20
4.742125984251968
 30
0.0
 11
1.729330708661417
 21
5.214566929133858
 31
0.0
  0
LINE
  5
26C3
330
1E
100
AcDbEntity
  8
0
100
AcDbLine
 10
1.849409448818897
 20
4.62007874015748
 30
0.0
 11
2.431102362204724
 21
4.62007874015748
 31
0.0
  0
LINE
  5
26C4
330
1E
100
AcDbEntity
  8
0
100
AcDbLine
 10
1.849409448818897
 20
4.162401574803149
 30
0.0
 11
2.431102362204724
 21
4.162401574803149
 31
0.0
  0
LINE
  5
26C5
330
1E
100
AcDbEntity
  8
0
100
AcDbLine
 10
2.499015748031495
 20
4.62007874015748
 30
0.0
 11
3.081692913385826
 21
4.62007874015748
 31
0.0
  0
LINE
  5
26C6
330
1E
100
AcDbEntity
  8
0
100
AcDbLine
 10
3.112204724409448
 20
4.144685039370078
 30
0.0
 11
3.083661417322834
 21
4.677165354330708
 31
0.0
  0
LINE
  5
26C7
330
1E
100
AcDbEntity
  8
0
100
AcDbLine
 10
3.083661417322834
 20
4.677165354330708
 30
0.0
 11
1.847440944881889
 21
4.677165354330708
 31
0.0
  0
LINE
  5
26C8
330
1E
100
AcDbEntity
  8
0
100
AcDbLine
 10
1.847440944881889
 20
4.677165354330708
 30
0.0
 11
1.818897637795275
 21
4.144685039370078
 31
0.0
  0
LINE
  5
26C9
330
1E
100
AcDbEntity
  8
0
100
AcDbLine
 10
2.499015748031495
 20
4.162401574803149
 30
0.0
 11
3.081692913385826
 21
4.162401574803149
 31
0.0
  0
LINE
  5
26CA
330
1E
100
AcDbEntity
  8
0
100
AcDbLine
 10
2.223425196850393
 20
4.311023622047244
 30
0.0
 11
2.057086614173228
 21
4.311023622047244
 31
0.0
  0
LINE
  5
26CB
330
1E
100
AcDbEntity
  8
0
100
AcDbLine
 10
2.223425196850393
 20
4.311023622047244
 30
0.0
 11
2.223425196850393
 21
4.339566929133858
 31
0.0
  0
LINE
  5
26CC
330
1E
100
AcDbEntity
  8
0
100
AcDbLine
 10
2.223425196850393
 20
4.339566929133858
 30
0.0
 11
2.223425196850393
 21
4.339566929133858
 31
0.0
  0
LINE
  5
26CD
330
1E
100
AcDbEntity
  8
0
100
AcDbLine
 10
2.223425196850393
 20
4.311023622047244
 30
0.0
 11
2.223425196850393
 21
4.339566929133858
 31
0.0
  0
LINE
  5
26CE
330
1E
100
AcDbEntity
  8
0
100
AcDbLine
 10
2.70767716535433
 20
4.311023622047244
 30
0.0
 11
2.70767716535433
 21
4.339566929133858
 31
0.0
  0
LINE
  5
26CF
330
1E
100
AcDbEntity
  8
0
100
AcDbLine
 10
2.70767716535433
 20
4.339566929133858
 30
0.0
 11
2.70767716535433
 21
4.339566929133858
 31
0.0
  0
LINE
  5
26D0
330
1E
100
AcDbEntity
  8
0
100
AcDbLine
 10
2.70767716535433
 20
4.311023622047244
 30
0.0
 11
2.70767716535433
 21
4.339566929133858
 31
0.0
  0
LINE
  5
26D1
330
1E
100
AcDbEntity
  8
0
100
AcDbLine
 10
2.874015748031495
 20
4.311023622047244
 30
0.0
 11
2.70767716535433
 21
4.311023622047244
 31
0.0
  0
LINE
  5
26D2
330
1E
100
AcDbEntity
  8
0
100
AcDbLine
 10
2.058070866141732
 20
4.311023622047244
 30
0.0
 11
2.058070866141732
 21
4.339566929133858
 31
0.0
  0
LINE
  5
26D3
330
1E
100
AcDbEntity
  8
0
100
AcDbLine
 10
2.057086614173228
 20
4.339566929133858
 30
0.0
 11
2.058070866141732
 21
4.339566929133858
 31
0.0
  0
LINE
  5
26D4
330
1E
100
AcDbEntity
  8
0
100
AcDbLine
 10
2.057086614173228
 20
4.311023622047244
 30
0.0
 11
2.057086614173228
 21
4.339566929133858
 31
0.0
  0
LINE
  5
26D5
330
1E
100
AcDbEntity
  8
0
100
AcDbLine
 10
2.874015748031495
 20
4.311023622047244
 30
0.0
 11
2.874015748031495
 21
4.339566929133858
 31
0.0
  0
LINE
  5
26D6
330
1E
100
AcDbEntity
  8
0
100
AcDbLine
 10
2.873031496062992
 20
4.339566929133858
 30
0.0
 11
2.874015748031495
 21
4.339566929133858
 31
0.0
  0
LINE
  5
26D7
330
1E
100
AcDbEntity
  8
0
100
AcDbLine
 10
2.873031496062992
 20
4.311023622047244
 30
0.0
 11
2.873031496062992
 21
4.339566929133858
 31
0.0
  0
LINE
  5
26D8
330
1E
100
AcDbEntity
  8
0
100
AcDbLine
 10
2.873031496062992
 20
4.339566929133858
 30
0.0
 11
2.873031496062992
 21
4.339566929133858
 31
0.0
  0
LINE
  5
26D9
330
1E
100
AcDbEntity
  8
0
100
AcDbLine
 10
2.873031496062992
 20
4.339566929133858
 30
0.0
 11
2.873031496062992
 21
4.311023622047244
 31
0.0
  0
LINE
  5
26DA
330
1E
100
AcDbEntity
  8
0
100
AcDbLine
 10
2.868110236220472
 20
4.339566929133858
 30
0.0
 11
2.873031496062992
 21
4.339566929133858
 31
0.0
  0
LINE
  5
26DB
330
1E
100
AcDbEntity
  8
0
100
AcDbLine
 10
2.868110236220472
 20
4.339566929133858
 30
0.0
 11
2.868110236220472
 21
4.338582677165354
 31
0.0
  0
LINE
  5
26DC
330
1E
100
AcDbEntity
  8
0
100
AcDbLine
 10
2.868110236220472
 20
4.338582677165354
 30
0.0
 11
2.868110236220472
 21
4.311023622047244
 31
0.0
  0
LINE
  5
26DD
330
1E
100
AcDbEntity
  8
0
100
AcDbLine
 10
2.868110236220472
 20
4.338582677165354
 30
0.0
 11
2.71259842519685
 21
4.338582677165354
 31
0.0
  0
LINE
  5
26DE
330
1E
100
AcDbEntity
  8
0
100
AcDbLine
 10
2.71259842519685
 20
4.338582677165354
 30
0.0
 11
2.71259842519685
 21
4.311023622047244
 31
0.0
  0
LINE
  5
26DF
330
1E
100
AcDbEntity
  8
0
100
AcDbLine
 10
2.71259842519685
 20
4.338582677165354
 30
0.0
 11
2.711614173228346
 21
4.339566929133858
 31
0.0
  0
LINE
  5
26E0
330
1E
100
AcDbEntity
  8
0
100
AcDbLine
 10
2.70767716535433
 20
4.339566929133858
 30
0.0
 11
2.711614173228346
 21
4.339566929133858
 31
0.0
  0
LINE
  5
26E1
330
1E
100
AcDbEntity
  8
0
100
AcDbLine
 10
2.218503937007874
 20
4.339566929133858
 30
0.0
 11
2.223425196850393
 21
4.339566929133858
 31
0.0
  0
LINE
  5
26E2
330
1E
100
AcDbEntity
  8
0
100
AcDbLine
 10
2.218503937007874
 20
4.339566929133858
 30
0.0
 11
2.218503937007874
 21
4.338582677165354
 31
0.0
  0
LINE
  5
26E3
330
1E
100
AcDbEntity
  8
0
100
AcDbLine
 10
2.218503937007874
 20
4.311023622047244
 30
0.0
 11
2.218503937007874
 21
4.338582677165354
 31
0.0
  0
LINE
  5
26E4
330
1E
100
AcDbEntity
  8
0
100
AcDbLine
 10
2.218503937007874
 20
4.338582677165354
 30
0.0
 11
2.062992125984251
 21
4.338582677165354
 31
0.0
  0
LINE
  5
26E5
330
1E
100
AcDbEntity
  8
0
100
AcDbLine
 10
2.062992125984251
 20
4.311023622047244
 30
0.0
 11
2.062992125984251
 21
4.338582677165354
 31
0.0
  0
LINE
  5
26E6
330
1E
100
AcDbEntity
  8
0
100
AcDbLine
 10
2.062992125984251
 20
4.338582677165354
 30
0.0
 11
2.062007874015748
 21
4.339566929133858
 31
0.0
  0
LINE
  5
26E7
330
1E
100
AcDbEntity
  8
0
100
AcDbLine
 10
2.058070866141732
 20
4.339566929133858
 30
0.0
 11
2.062007874015748
 21
4.339566929133858
 31
0.0
  0
LINE
  5
26E8
330
1E
100
AcDbEntity
  8
0
100
AcDbLine
 10
2.70767716535433
 20
4.339566929133858
 30
0.0
 11
2.499015748031495
 21
4.339566929133858
 31
0.0
  0
LINE
  5
26E9
330
1E
100
AcDbEntity
  8
0
100
AcDbLine
 10
2.431102362204724
 20
4.339566929133858
 30
0.0
 11
2.223425196850393
 21
4.339566929133858
 31
0.0
  0
LINE
  5
26EA
330
1E
100
AcDbEntity
  8
0
100
AcDbLine
 10
1.849409448818897
 20
4.311023622047244
 30
0.0
 11
2.057086614173228
 21
4.311023622047244
 31
0.0
  0
LINE
  5
26EB
330
1E
100
AcDbEntity
  8
0
100
AcDbLine
 10
2.057086614173228
 20
4.339566929133858
 30
0.0
 11
1.849409448818897
 21
4.339566929133858
 31
0.0
  0
LINE
  5
26EC
330
1E
100
AcDbEntity
  8
0
100
AcDbLine
 10
1.849409448818897
 20
4.248031496062991
 30
0.0
 11
2.431102362204724
 21
4.248031496062991
 31
0.0
  0
LINE
  5
26ED
330
1E
100
AcDbEntity
  8
0
100
AcDbLine
 10
2.431102362204724
 20
4.260826771653543
 30
0.0
 11
1.849409448818897
 21
4.260826771653543
 31
0.0
  0
LINE
  5
26EE
330
1E
100
AcDbEntity
  8
0
100
AcDbLine
 10
2.431102362204724
 20
4.299212598425197
 30
0.0
 11
1.849409448818897
 21
4.299212598425197
 31
0.0
  0
LINE
  5
26EF
330
1E
100
AcDbEntity
  8
0
100
AcDbLine
 10
2.223425196850393
 20
4.311023622047244
 30
0.0
 11
2.431102362204724
 21
4.311023622047244
 31
0.0
  0
LINE
  5
26F0
330
1E
100
AcDbEntity
  8
0
100
AcDbLine
 10
3.081692913385826
 20
4.339566929133858
 30
0.0
 11
2.874015748031495
 21
4.339566929133858
 31
0.0
  0
LINE
  5
26F1
330
1E
100
AcDbEntity
  8
0
100
AcDbLine
 10
2.874015748031495
 20
4.311023622047244
 30
0.0
 11
3.081692913385826
 21
4.311023622047244
 31
0.0
  0
LINE
  5
26F2
330
1E
100
AcDbEntity
  8
0
100
AcDbLine
 10
2.499015748031495
 20
4.311023622047244
 30
0.0
 11
2.70767716535433
 21
4.311023622047244
 31
0.0
  0
LINE
  5
26F3
330
1E
100
AcDbEntity
  8
0
100
AcDbLine
 10
3.081692913385826
 20
4.299212598425197
 30
0.0
 11
2.499015748031495
 21
4.299212598425197
 31
0.0
  0
LINE
  5
26F4
330
1E
100
AcDbEntity
  8
0
100
AcDbLine
 10
3.081692913385826
 20
4.260826771653543
 30
0.0
 11
2.499015748031495
 21
4.260826771653543
 31
0.0
  0
LINE
  5
26F5
330
1E
100
AcDbEntity
  8
0
100
AcDbLine
 10
2.499015748031495
 20
4.248031496062991
 30
0.0
 11
3.081692913385826
 21
4.248031496062991
 31
0.0
  0
POLYLINE
  5
26F6
330
1E
100
AcDbEntity
  8
0
100
AcDb2dPolyline
 66
     1
 10
0.0
 20
0.0
 30
0.0
  0
VERTEX
  5
2E3D
330
26F6
100
AcDbEntity
  8
0
100
AcDbVertex
100
AcDb2dVertex
 10
3.083661417322834
 20
4.677165354330708
 30
0.0
  0
VERTEX
  5
2E3E
330
26F6
100
AcDbEntity
  8
0
100
AcDbVertex
100
AcDb2dVertex
 10
3.083661417322834
 20
4.699803149606299
 30
0.0
  0
VERTEX
  5
2E3F
330
26F6
100
AcDbEntity
  8
0
100
AcDbVertex
100
AcDb2dVertex
 10
3.083661417322834
 20
4.728346456692912
 30
0.0
  0
VERTEX
  5
2E40
330
26F6
100
AcDbEntity
  8
0
100
AcDbVertex
100
AcDb2dVertex
 10
3.083661417322834
 20
4.756889763779527
 30
0.0
  0
VERTEX
  5
2E41
330
26F6
100
AcDbEntity
  8
0
100
AcDbVertex
100
AcDb2dVertex
 10
3.083661417322834
 20
4.784448818897637
 30
0.0
  0
VERTEX
  5
2E42
330
26F6
100
AcDbEntity
  8
0
100
AcDbVertex
100
AcDb2dVertex
 10
3.083661417322834
 20
4.808070866141732
 30
0.0
  0
SEQEND
  5
2E43
330
26F6
100
AcDbEntity
  8
0
  0
POLYLINE
  5
26FE
330
1E
100
AcDbEntity
  8
0
100
AcDb2dPolyline
 66
     1
 10
0.0
 20
0.0
 30
0.0
  0
VERTEX
  5
2E44
330
26FE
100
AcDbEntity
  8
0
100
AcDbVertex
100
AcDb2dVertex
 10
1.847440944881889
 20
4.808070866141732
 30
0.0
  0
VERTEX
  5
2E45
330
26FE
100
AcDbEntity
  8
0
100
AcDbVertex
100
AcDb2dVertex
 10
1.847440944881889
 20
4.784448818897637
 30
0.0
  0
VERTEX
  5
2E46
330
26FE
100
AcDbEntity
  8
0
100
AcDbVertex
100
AcDb2dVertex
 10
1.847440944881889
 20
4.756889763779527
 30
0.0
  0
VERTEX
  5
2E47
330
26FE
100
AcDbEntity
  8
0
100
AcDbVertex
100
AcDb2dVertex
 10
1.847440944881889
 20
4.728346456692912
 30
0.0
  0
VERTEX
  5
2E48
330
26FE
100
AcDbEntity
  8
0
100
AcDbVertex
100
AcDb2dVertex
 10
1.847440944881889
 20
4.699803149606299
 30
0.0
  0
VERTEX
  5
2E49
330
26FE
100
AcDbEntity
  8
0
100
AcDbVertex
100
AcDb2dVertex
 10
1.847440944881889
 20
4.677165354330708
 30
0.0
  0
SEQEND
  5
2E4A
330
26FE
100
AcDbEntity
  8
0
  0
POLYLINE
  5
2706
330
1E
100
AcDbEntity
  8
0
100
AcDb2dPolyline
 66
     1
 10
0.0
 20
0.0
 30
0.0
  0
VERTEX
  5
2E4B
330
2706
100
AcDbEntity
  8
0
100
AcDbVertex
100
AcDb2dVertex
 10
3.177165354330708
 20
4.742125984251968
 30
0.0
  0
VERTEX
  5
2E4C
330
2706
100
AcDbEntity
  8
0
100
AcDbVertex
100
AcDb2dVertex
 10
3.171259842519685
 20
4.76279527559055
 30
0.0
  0
VERTEX
  5
2E4D
330
2706
100
AcDbEntity
  8
0
100
AcDbVertex
100
AcDb2dVertex
 10
3.158464566929133
 20
4.780511811023622
 30
0.0
  0
VERTEX
  5
2E4E
330
2706
100
AcDbEntity
  8
0
100
AcDbVertex
100
AcDb2dVertex
 10
3.13779527559055
 20
4.795275590551181
 30
0.0
  0
VERTEX
  5
2E4F
330
2706
100
AcDbEntity
  8
0
100
AcDbVertex
100
AcDb2dVertex
 10
3.112204724409448
 20
4.804133858267716
 30
0.0
  0
VERTEX
  5
2E50
330
2706
100
AcDbEntity
  8
0
100
AcDbVertex
100
AcDb2dVertex
 10
3.083661417322834
 20
4.808070866141732
 30
0.0
  0
SEQEND
  5
2E51
330
2706
100
AcDbEntity
  8
0
  0
POLYLINE
  5
270E
330
1E
100
AcDbEntity
  8
0
100
AcDb2dPolyline
 66
     1
 10
0.0
 20
0.0
 30
0.0
  0
VERTEX
  5
2E52
330
270E
100
AcDbEntity
  8
0
100
AcDbVertex
100
AcDb2dVertex
 10
3.177165354330708
 20
4.742125984251968
 30
0.0
  0
VERTEX
  5
2E53
330
270E
100
AcDbEntity
  8
0
100
AcDbVertex
100
AcDb2dVertex
 10
3.171259842519685
 20
4.722440944881889
 30
0.0
  0
VERTEX
  5
2E54
330
270E
100
AcDbEntity
  8
0
100
AcDbVertex
100
AcDb2dVertex
 10
3.158464566929133
 20
4.704724409448818
 30
0.0
  0
VERTEX
  5
2E55
330
270E
100
AcDbEntity
  8
0
100
AcDbVertex
100
AcDb2dVertex
 10
3.13779527559055
 20
4.68996062992126
 30
0.0
  0
VERTEX
  5
2E56
330
270E
100
AcDbEntity
  8
0
100
AcDbVertex
100
AcDb2dVertex
 10
3.112204724409448
 20
4.68011811023622
 30
0.0
  0
VERTEX
  5
2E57
330
270E
100
AcDbEntity
  8
0
100
AcDbVertex
100
AcDb2dVertex
 10
3.083661417322834
 20
4.677165354330708
 30
0.0
  0
SEQEND
  5
2E58
330
270E
100
AcDbEntity
  8
0
  0
POLYLINE
  5
2716
330
1E
100
AcDbEntity
  8
0
100
AcDb2dPolyline
 66
     1
 10
0.0
 20
0.0
 30
0.0
  0
VERTEX
  5
2E59
330
2716
100
AcDbEntity
  8
0
100
AcDbVertex
100
AcDb2dVertex
 10
1.753937007874015
 20
4.742125984251968
 30
0.0
  0
VERTEX
  5
2E5A
330
2716
100
AcDbEntity
  8
0
100
AcDbVertex
100
AcDb2dVertex
 10
1.759842519685039
 20
4.722440944881889
 30
0.0
  0
VERTEX
  5
2E5B
330
2716
100
AcDbEntity
  8
0
100
AcDbVertex
100
AcDb2dVertex
 10
1.77263779527559
 20
4.704724409448818
 30
0.0
  0
VERTEX
  5
2E5C
330
2716
100
AcDbEntity
  8
0
100
AcDbVertex
100
AcDb2dVertex
 10
1.793307086614173
 20
4.68996062992126
 30
0.0
  0
VERTEX
  5
2E5D
330
2716
100
AcDbEntity
  8
0
100
AcDbVertex
100
AcDb2dVertex
 10
1.818897637795275
 20
4.68011811023622
 30
0.0
  0
VERTEX
  5
2E5E
330
2716
100
AcDbEntity
  8
0
100
AcDbVertex
100
AcDb2dVertex
 10
1.847440944881889
 20
4.677165354330708
 30
0.0
  0
SEQEND
  5
2E5F
330
2716
100
AcDbEntity
  8
0
  0
POLYLINE
  5
271E
330
1E
100
AcDbEntity
  8
0
100
AcDb2dPolyline
 66
     1
 10
0.0
 20
0.0
 30
0.0
  0
VERTEX
  5
2E60
330
271E
100
AcDbEntity
  8
0
100
AcDbVertex
100
AcDb2dVertex
 10
1.753937007874015
 20
4.742125984251968
 30
0.0
  0
VERTEX
  5
2E61
330
271E
100
AcDbEntity
  8
0
100
AcDbVertex
100
AcDb2dVertex
 10
1.759842519685039
 20
4.76279527559055
 30
0.0
  0
VERTEX
  5
2E62
330
271E
100
AcDbEntity
  8
0
100
AcDbVertex
100
AcDb2dVertex
 10
1.77263779527559
 20
4.780511811023622
 30
0.0
  0
VERTEX
  5
2E63
330
271E
100
AcDbEntity
  8
0
100
AcDbVertex
100
AcDb2dVertex
 10
1.793307086614173
 20
4.795275590551181
 30
0.0
  0
VERTEX
  5
2E64
330
271E
100
AcDbEntity
  8
0
100
AcDbVertex
100
AcDb2dVertex
 10
1.818897637795275
 20
4.804133858267716
 30
0.0
  0
VERTEX
  5
2E65
330
271E
100
AcDbEntity
  8
0
100
AcDbVertex
100
AcDb2dVertex
 10
1.847440944881889
 20
4.808070866141732
 30
0.0
  0
SEQEND
  5
2E66
330
271E
100
AcDbEntity
  8
0
  0
LINE
  5
2726
330
1E
100
AcDbEntity
  8
0
100
AcDbLine
 10
3.449803149606299
 20
5.21751968503937
 30
0.0
 11
3.449803149606299
 21
4.048228346456692
 31
0.0
  0
LINE
  5
2727
330
1E
100
AcDbEntity
  8
0
100
AcDbLine
 10
3.449803149606299
 20
5.81496062992126
 30
0.0
 11
3.449803149606299
 21
5.81496062992126
 31
0.0
  0
LINE
  5
2728
330
1E
100
AcDbEntity
  8
0
100
AcDbLine
 10
3.449803149606299
 20
5.81496062992126
 30
0.0
 11
3.449803149606299
 21
5.45767716535433
 31
0.0
  0
POLYLINE
  5
2729
330
1E
100
AcDbEntity
  8
0
100
AcDb2dPolyline
 66
     1
 10
0.0
 20
0.0
 30
0.0
  0
VERTEX
  5
2E67
330
2729
100
AcDbEntity
  8
0
100
AcDbVertex
100
AcDb2dVertex
 10
3.347440944881889
 20
5.882874015748031
 30
0.0
  0
VERTEX
  5
2E68
330
2729
100
AcDbEntity
  8
0
100
AcDbVertex
100
AcDb2dVertex
 10
3.347440944881889
 20
5.903543307086613
 30
0.0
  0
VERTEX
  5
2E69
330
2729
100
AcDbEntity
  8
0
100
AcDbVertex
100
AcDb2dVertex
 10
3.347440944881889
 20
5.912401574803149
 30
0.0
  0
SEQEND
  5
2E6A
330
2729
100
AcDbEntity
  8
0
  0
POLYLINE
  5
272E
330
1E
100
AcDbEntity
  8
0
100
AcDb2dPolyline
 66
     1
 10
0.0
 20
0.0
 30
0.0
  0
VERTEX
  5
2E6B
330
272E
100
AcDbEntity
  8
0
100
AcDbVertex
100
AcDb2dVertex
 10
3.347440944881889
 20
5.882874015748031
 30
0.0
  0
VERTEX
  5
2E6C
330
272E
100
AcDbEntity
  8
0
100
AcDbVertex
100
AcDb2dVertex
 10
3.369094488188976
 20
5.878937007874015
 30
0.0
  0
VERTEX
  5
2E6D
330
272E
100
AcDbEntity
  8
0
100
AcDbVertex
100
AcDb2dVertex
 10
3.388779527559055
 20
5.869094488188975
 30
0.0
  0
VERTEX
  5
2E6E
330
272E
100
AcDbEntity
  8
0
100
AcDbVertex
100
AcDb2dVertex
 10
3.404527559055118
 20
5.854330708661417
 30
0.0
  0
VERTEX
  5
2E6F
330
272E
100
AcDbEntity
  8
0
100
AcDbVertex
100
AcDb2dVertex
 10
3.414370078740157
 20
5.834645669291338
 30
0.0
  0
VERTEX
  5
2E70
330
272E
100
AcDbEntity
  8
0
100
AcDbVertex
100
AcDb2dVertex
 10
3.417322834645669
 20
5.812992125984251
 30
0.0
  0
SEQEND
  5
2E71
330
272E
100
AcDbEntity
  8
0
  0
POLYLINE
  5
2736
330
1E
100
AcDbEntity
  8
0
100
AcDb2dPolyline
 66
     1
 10
0.0
 20
0.0
 30
0.0
  0
VERTEX
  5
2E72
330
2736
100
AcDbEntity
  8
0
100
AcDbVertex
100
AcDb2dVertex
 10
3.417322834645669
 20
5.812992125984251
 30
0.0
  0
VERTEX
  5
2E73
330
2736
100
AcDbEntity
  8
0
100
AcDbVertex
100
AcDb2dVertex
 10
3.438976377952756
 20
5.812992125984251
 30
0.0
  0
VERTEX
  5
2E74
330
2736
100
AcDbEntity
  8
0
100
AcDbVertex
100
AcDb2dVertex
 10
3.447834645669291
 20
5.812992125984251
 30
0.0
  0
SEQEND
  5
2E75
330
2736
100
AcDbEntity
  8
0
  0
POLYLINE
  5
273B
330
1E
100
AcDbEntity
  8
0
100
AcDb2dPolyline
 66
     1
 10
0.0
 20
0.0
 30
0.0
  0
VERTEX
  5
2E76
330
273B
100
AcDbEntity
  8
0
100
AcDbVertex
100
AcDb2dVertex
 10
3.447834645669291
 20
5.812992125984251
 30
0.0
  0
VERTEX
  5
2E77
330
273B
100
AcDbEntity
  8
0
100
AcDbVertex
100
AcDb2dVertex
 10
3.443897637795275
 20
5.838582677165354
 30
0.0
  0
VERTEX
  5
2E78
330
273B
100
AcDbEntity
  8
0
100
AcDbVertex
100
AcDb2dVertex
 10
3.434055118110236
 20
5.863188976377952
 30
0.0
  0
VERTEX
  5
2E79
330
273B
100
AcDbEntity
  8
0
100
AcDbVertex
100
AcDb2dVertex
 10
3.418307086614173
 20
5.883858267716535
 30
0.0
  0
VERTEX
  5
2E7A
330
273B
100
AcDbEntity
  8
0
100
AcDbVertex
100
AcDb2dVertex
 10
3.39763779527559
 20
5.899606299212598
 30
0.0
  0
VERTEX
  5
2E7B
330
273B
100
AcDbEntity
  8
0
100
AcDbVertex
100
AcDb2dVertex
 10
3.374015748031495
 20
5.909448818897637
 30
0.0
  0
VERTEX
  5
2E7C
330
273B
100
AcDbEntity
  8
0
100
AcDbVertex
100
AcDb2dVertex
 10
3.347440944881889
 20
5.912401574803149
 30
0.0
  0
SEQEND
  5
2E7D
330
273B
100
AcDbEntity
  8
0
  0
LINE
  5
2744
330
1E
100
AcDbEntity
  8
0
100
AcDbLine
 10
3.447834645669291
 20
4.048228346456692
 30
0.0
 11
3.447834645669291
 21
5.812992125984251
 31
0.0
  0
LINE
  5
2745
330
1E
100
AcDbEntity
  8
0
100
AcDbLine
 10
3.417322834645669
 20
5.812992125984251
 30
0.0
 11
3.417322834645669
 21
4.048228346456692
 31
0.0
  0
POLYLINE
  5
2746
330
1E
100
AcDbEntity
  8
0
100
AcDb2dPolyline
 66
     1
 10
0.0
 20
0.0
 30
0.0
  0
VERTEX
  5
2E7E
330
2746
100
AcDbEntity
  8
0
100
AcDbVertex
100
AcDb2dVertex
 10
3.417322834645669
 20
4.048228346456692
 30
0.0
  0
VERTEX
  5
2E7F
330
2746
100
AcDbEntity
  8
0
100
AcDbVertex
100
AcDb2dVertex
 10
3.438976377952756
 20
4.048228346456692
 30
0.0
  0
VERTEX
  5
2E80
330
2746
100
AcDbEntity
  8
0
100
AcDbVertex
100
AcDb2dVertex
 10
3.447834645669291
 20
4.048228346456692
 30
0.0
  0
SEQEND
  5
2E81
330
2746
100
AcDbEntity
  8
0
  0
LINE
  5
274B
330
1E
100
AcDbEntity
  8
0
100
AcDbLine
 10
3.449803149606299
 20
5.45767716535433
 30
0.0
 11
3.449803149606299
 21
5.21751968503937
 31
0.0
  0
LINE
  5
274C
330
1E
100
AcDbEntity
  8
0
100
AcDbLine
 10
3.447834645669291
 20
5.812992125984251
 30
0.0
 11
3.449803149606299
 21
5.81496062992126
 31
0.0
  0
LINE
  5
274D
330
1E
100
AcDbEntity
  8
0
100
AcDbLine
 10
3.449803149606299
 20
4.046259842519685
 30
0.0
 11
3.447834645669291
 21
4.048228346456692
 31
0.0
  0
LINE
  5
274E
330
1E
100
AcDbEntity
  8
0
100
AcDbLine
 10
3.449803149606299
 20
4.048228346456692
 30
0.0
 11
3.449803149606299
 21
4.046259842519685
 31
0.0
  0
POLYLINE
  5
274F
330
1E
100
AcDbEntity
  8
0
100
AcDb2dPolyline
 66
     1
 10
0.0
 20
0.0
 30
0.0
  0
VERTEX
  5
2E82
330
274F
100
AcDbEntity
  8
0
100
AcDbVertex
100
AcDb2dVertex
 10
3.449803149606299
 20
5.81496062992126
 30
0.0
  0
VERTEX
  5
2E83
330
274F
100
AcDbEntity
  8
0
100
AcDbVertex
100
AcDb2dVertex
 10
3.446850393700787
 20
5.840551181102362
 30
0.0
  0
VERTEX
  5
2E84
330
274F
100
AcDbEntity
  8
0
100
AcDbVertex
100
AcDb2dVertex
 10
3.437007874015748
 20
5.86515748031496
 30
0.0
  0
VERTEX
  5
2E85
330
274F
100
AcDbEntity
  8
0
100
AcDbVertex
100
AcDb2dVertex
 10
3.420275590551181
 20
5.885826771653543
 30
0.0
  0
VERTEX
  5
2E86
330
274F
100
AcDbEntity
  8
0
100
AcDbVertex
100
AcDb2dVertex
 10
3.399606299212598
 20
5.901574803149606
 30
0.0
  0
VERTEX
  5
2E87
330
274F
100
AcDbEntity
  8
0
100
AcDbVertex
100
AcDb2dVertex
 10
3.375984251968503
 20
5.911417322834645
 30
0.0
  0
VERTEX
  5
2E88
330
274F
100
AcDbEntity
  8
0
100
AcDbVertex
100
AcDb2dVertex
 10
3.350393700787401
 20
5.915354330708661
 30
0.0
  0
SEQEND
  5
2E89
330
274F
100
AcDbEntity
  8
0
  0
LINE
  5
2758
330
1E
100
AcDbEntity
  8
0
100
AcDbLine
 10
3.350393700787401
 20
5.915354330708661
 30
0.0
 11
3.347440944881889
 21
5.912401574803149
 31
0.0
  0
LINE
  5
2759
330
1E
100
AcDbEntity
  8
0
100
AcDbLine
 10
3.312007874015748
 20
4.818897637795275
 30
0.0
 11
3.314960629921259
 21
4.821850393700787
 31
0.0
  0
LINE
  5
275A
330
1E
100
AcDbEntity
  8
0
100
AcDbLine
 10
3.312007874015748
 20
4.818897637795275
 30
0.0
 11
3.312007874015748
 21
4.666338582677165
 31
0.0
  0
LINE
  5
275B
330
1E
100
AcDbEntity
  8
0
100
AcDbLine
 10
3.314960629921259
 20
4.663385826771653
 30
0.0
 11
3.312007874015748
 21
4.666338582677165
 31
0.0
  0
LINE
  5
275C
330
1E
100
AcDbEntity
  8
0
100
AcDbLine
 10
3.314960629921259
 20
4.821850393700787
 30
0.0
 11
3.314960629921259
 21
4.663385826771653
 31
0.0
  0
POLYLINE
  5
275D
330
1E
100
AcDbEntity
  8
0
100
AcDb2dPolyline
 66
     1
 10
0.0
 20
0.0
 30
0.0
  0
VERTEX
  5
2E8A
330
275D
100
AcDbEntity
  8
0
100
AcDbVertex
100
AcDb2dVertex
 10
3.417322834645669
 20
4.048228346456692
 30
0.0
  0
VERTEX
  5
2E8B
330
275D
100
AcDbEntity
  8
0
100
AcDbVertex
100
AcDb2dVertex
 10
3.414370078740157
 20
4.026574803149606
 30
0.0
  0
VERTEX
  5
2E8C
330
275D
100
AcDbEntity
  8
0
100
AcDbVertex
100
AcDb2dVertex
 10
3.404527559055118
 20
4.006889763779527
 30
0.0
  0
VERTEX
  5
2E8D
330
275D
100
AcDbEntity
  8
0
100
AcDbVertex
100
AcDb2dVertex
 10
3.388779527559055
 20
3.991141732283464
 30
0.0
  0
VERTEX
  5
2E8E
330
275D
100
AcDbEntity
  8
0
100
AcDbVertex
100
AcDb2dVertex
 10
3.369094488188976
 20
3.981299212598425
 30
0.0
  0
VERTEX
  5
2E8F
330
275D
100
AcDbEntity
  8
0
100
AcDbVertex
100
AcDb2dVertex
 10
3.347440944881889
 20
3.978346456692913
 30
0.0
  0
SEQEND
  5
2E90
330
275D
100
AcDbEntity
  8
0
  0
POLYLINE
  5
2765
330
1E
100
AcDbEntity
  8
0
100
AcDb2dPolyline
 66
     1
 10
0.0
 20
0.0
 30
0.0
  0
VERTEX
  5
2E91
330
2765
100
AcDbEntity
  8
0
100
AcDbVertex
100
AcDb2dVertex
 10
3.347440944881889
 20
3.947834645669291
 30
0.0
  0
VERTEX
  5
2E92
330
2765
100
AcDbEntity
  8
0
100
AcDbVertex
100
AcDb2dVertex
 10
3.347440944881889
 20
3.95767716535433
 30
0.0
  0
VERTEX
  5
2E93
330
2765
100
AcDbEntity
  8
0
100
AcDbVertex
100
AcDb2dVertex
 10
3.347440944881889
 20
3.978346456692913
 30
0.0
  0
SEQEND
  5
2E94
330
2765
100
AcDbEntity
  8
0
  0
POLYLINE
  5
276A
330
1E
100
AcDbEntity
  8
0
100
AcDb2dPolyline
 66
     1
 10
0.0
 20
0.0
 30
0.0
  0
VERTEX
  5
2E95
330
276A
100
AcDbEntity
  8
0
100
AcDbVertex
100
AcDb2dVertex
 10
3.347440944881889
 20
3.947834645669291
 30
0.0
  0
VERTEX
  5
2E96
330
276A
100
AcDbEntity
  8
0
100
AcDbVertex
100
AcDb2dVertex
 10
3.374015748031495
 20
3.951771653543307
 30
0.0
  0
VERTEX
  5
2E97
330
276A
100
AcDbEntity
  8
0
100
AcDbVertex
100
AcDb2dVertex
 10
3.39763779527559
 20
3.961614173228346
 30
0.0
  0
VERTEX
  5
2E98
330
276A
100
AcDbEntity
  8
0
100
AcDbVertex
100
AcDb2dVertex
 10
3.418307086614173
 20
3.977362204724409
 30
0.0
  0
VERTEX
  5
2E99
330
276A
100
AcDbEntity
  8
0
100
AcDbVertex
100
AcDb2dVertex
 10
3.434055118110236
 20
3.998031496062992
 30
0.0
  0
VERTEX
  5
2E9A
330
276A
100
AcDbEntity
  8
0
100
AcDbVertex
100
AcDb2dVertex
 10
3.443897637795275
 20
4.02263779527559
 30
0.0
  0
VERTEX
  5
2E9B
330
276A
100
AcDbEntity
  8
0
100
AcDbVertex
100
AcDb2dVertex
 10
3.447834645669291
 20
4.048228346456692
 30
0.0
  0
SEQEND
  5
2E9C
330
276A
100
AcDbEntity
  8
0
  0
POLYLINE
  5
2773
330
1E
100
AcDbEntity
  8
0
100
AcDb2dPolyline
 66
     1
 10
0.0
 20
0.0
 30
0.0
  0
VERTEX
  5
2E9D
330
2773
100
AcDbEntity
  8
0
100
AcDbVertex
100
AcDb2dVertex
 10
3.312007874015748
 20
4.666338582677165
 30
0.0
  0
VERTEX
  5
2E9E
330
2773
100
AcDbEntity
  8
0
100
AcDbVertex
100
AcDb2dVertex
 10
3.309055118110236
 20
4.660433070866141
 30
0.0
  0
VERTEX
  5
2E9F
330
2773
100
AcDbEntity
  8
0
100
AcDbVertex
100
AcDb2dVertex
 10
3.304133858267716
 20
4.658464566929133
 30
0.0
  0
SEQEND
  5
2EA0
330
2773
100
AcDbEntity
  8
0
  0
LINE
  5
2778
330
1E
100
AcDbEntity
  8
0
100
AcDbLine
 10
3.304133858267716
 20
4.658464566929133
 30
0.0
 11
3.307086614173228
 21
4.654527559055117
 31
0.0
  0
POLYLINE
  5
2779
330
1E
100
AcDbEntity
  8
0
100
AcDb2dPolyline
 66
     1
 10
0.0
 20
0.0
 30
0.0
  0
VERTEX
  5
2EA1
330
2779
100
AcDbEntity
  8
0
100
AcDbVertex
100
AcDb2dVertex
 10
3.307086614173228
 20
4.654527559055117
 30
0.0
  0
VERTEX
  5
2EA2
330
2779
100
AcDbEntity
  8
0
100
AcDbVertex
100
AcDb2dVertex
 10
3.312992125984251
 20
4.657480314960629
 30
0.0
  0
VERTEX
  5
2EA3
330
2779
100
AcDbEntity
  8
0
100
AcDbVertex
100
AcDb2dVertex
 10
3.314960629921259
 20
4.663385826771653
 30
0.0
  0
SEQEND
  5
2EA4
330
2779
100
AcDbEntity
  8
0
  0
LINE
  5
277E
330
1E
100
AcDbEntity
  8
0
100
AcDbLine
 10
3.307086614173228
 20
4.829724409448818
 30
0.0
 11
3.304133858267716
 21
4.826771653543307
 31
0.0
  0
POLYLINE
  5
277F
330
1E
100
AcDbEntity
  8
0
100
AcDb2dPolyline
 66
     1
 10
0.0
 20
0.0
 30
0.0
  0
VERTEX
  5
2EA5
330
277F
100
AcDbEntity
  8
0
100
AcDbVertex
100
AcDb2dVertex
 10
3.304133858267716
 20
4.826771653543307
 30
0.0
  0
VERTEX
  5
2EA6
330
277F
100
AcDbEntity
  8
0
100
AcDbVertex
100
AcDb2dVertex
 10
3.309055118110236
 20
4.824803149606299
 30
0.0
  0
VERTEX
  5
2EA7
330
277F
100
AcDbEntity
  8
0
100
AcDbVertex
100
AcDb2dVertex
 10
3.312007874015748
 20
4.818897637795275
 30
0.0
  0
SEQEND
  5
2EA8
330
277F
100
AcDbEntity
  8
0
  0
POLYLINE
  5
2784
330
1E
100
AcDbEntity
  8
0
100
AcDb2dPolyline
 66
     1
 10
0.0
 20
0.0
 30
0.0
  0
VERTEX
  5
2EA9
330
2784
100
AcDbEntity
  8
0
100
AcDbVertex
100
AcDb2dVertex
 10
3.314960629921259
 20
4.821850393700787
 30
0.0
  0
VERTEX
  5
2EAA
330
2784
100
AcDbEntity
  8
0
100
AcDbVertex
100
AcDb2dVertex
 10
3.312992125984251
 20
4.827755905511811
 30
0.0
  0
VERTEX
  5
2EAB
330
2784
100
AcDbEntity
  8
0
100
AcDbVertex
100
AcDb2dVertex
 10
3.307086614173228
 20
4.829724409448818
 30
0.0
  0
SEQEND
  5
2EAC
330
2784
100
AcDbEntity
  8
0
  0
LINE
  5
2789
330
1E
100
AcDbEntity
  8
0
100
AcDbLine
 10
3.347440944881889
 20
3.947834645669291
 30
0.0
 11
3.350393700787401
 21
3.945866141732283
 31
0.0
  0
POLYLINE
  5
278A
330
1E
100
AcDbEntity
  8
0
100
AcDb2dPolyline
 66
     1
 10
0.0
 20
0.0
 30
0.0
  0
VERTEX
  5
2EAD
330
278A
100
AcDbEntity
  8
0
100
AcDbVertex
100
AcDb2dVertex
 10
3.350393700787401
 20
3.945866141732283
 30
0.0
  0
VERTEX
  5
2EAE
330
278A
100
AcDbEntity
  8
0
100
AcDbVertex
100
AcDb2dVertex
 10
3.375984251968503
 20
3.949803149606299
 30
0.0
  0
VERTEX
  5
2EAF
330
278A
100
AcDbEntity
  8
0
100
AcDbVertex
100
AcDb2dVertex
 10
3.399606299212598
 20
3.959645669291338
 30
0.0
  0
VERTEX
  5
2EB0
330
278A
100
AcDbEntity
  8
0
100
AcDbVertex
100
AcDb2dVertex
 10
3.420275590551181
 20
3.975393700787401
 30
0.0
  0
VERTEX
  5
2EB1
330
278A
100
AcDbEntity
  8
0
100
AcDbVertex
100
AcDb2dVertex
 10
3.437007874015748
 20
3.996062992125984
 30
0.0
  0
VERTEX
  5
2EB2
330
278A
100
AcDbEntity
  8
0
100
AcDbVertex
100
AcDb2dVertex
 10
3.446850393700787
 20
4.019685039370078
 30
0.0
  0
VERTEX
  5
2EB3
330
278A
100
AcDbEntity
  8
0
100
AcDbVertex
100
AcDb2dVertex
 10
3.449803149606299
 20
4.046259842519685
 30
0.0
  0
SEQEND
  5
2EB4
330
278A
100
AcDbEntity
  8
0
  0
LINE
  5
2793
330
1E
100
AcDbEntity
  8
0
100
AcDbLine
 10
1.679133858267716
 20
5.406496062992125
 30
0.0
 11
1.676181102362204
 21
5.409448818897637
 31
0.0
  0
POLYLINE
  5
2794
330
1E
100
AcDbEntity
  8
0
100
AcDb2dPolyline
 66
     1
 10
0.0
 20
0.0
 30
0.0
  0
VERTEX
  5
2EB5
330
2794
100
AcDbEntity
  8
0
100
AcDbVertex
100
AcDb2dVertex
 10
1.687007874015747
 20
5.414370078740157
 30
0.0
  0
VERTEX
  5
2EB6
330
2794
100
AcDbEntity
  8
0
100
AcDbVertex
100
AcDb2dVertex
 10
1.681102362204724
 20
5.411417322834645
 30
0.0
  0
VERTEX
  5
2EB7
330
2794
100
AcDbEntity
  8
0
100
AcDbVertex
100
AcDb2dVertex
 10
1.679133858267716
 20
5.406496062992125
 30
0.0
  0
SEQEND
  5
2EB8
330
2794
100
AcDbEntity
  8
0
  0
LINE
  5
2799
330
1E
100
AcDbEntity
  8
0
100
AcDbLine
 10
1.684055118110236
 20
5.417322834645669
 30
0.0
 11
1.687007874015747
 21
5.414370078740157
 31
0.0
  0
POLYLINE
  5
279A
330
1E
100
AcDbEntity
  8
0
100
AcDb2dPolyline
 66
     1
 10
0.0
 20
0.0
 30
0.0
  0
VERTEX
  5
2EB9
330
279A
100
AcDbEntity
  8
0
100
AcDbVertex
100
AcDb2dVertex
 10
1.676181102362204
 20
5.409448818897637
 30
0.0
  0
VERTEX
  5
2EBA
330
279A
100
AcDbEntity
  8
0
100
AcDbVertex
100
AcDb2dVertex
 10
1.678149606299212
 20
5.415354330708661
 30
0.0
  0
VERTEX
  5
2EBB
330
279A
100
AcDbEntity
  8
0
100
AcDbVertex
100
AcDb2dVertex
 10
1.684055118110236
 20
5.417322834645669
 30
0.0
  0
SEQEND
  5
2EBC
330
279A
100
AcDbEntity
  8
0
  0
LINE
  5
279F
330
1E
100
AcDbEntity
  8
0
100
AcDbLine
 10
1.687007874015747
 20
5.414370078740157
 30
0.0
 11
1.739173228346456
 21
5.414370078740157
 31
0.0
  0
LINE
  5
27A0
330
1E
100
AcDbEntity
  8
0
100
AcDbLine
 10
1.742125984251968
 20
5.411417322834645
 30
0.0
 11
1.739173228346456
 21
5.414370078740157
 31
0.0
  0
LINE
  5
27A1
330
1E
100
AcDbEntity
  8
0
100
AcDbLine
 10
1.742125984251968
 20
5.411417322834645
 30
0.0
 11
3.188976377952756
 21
5.411417322834645
 31
0.0
  0
LINE
  5
27A2
330
1E
100
AcDbEntity
  8
0
100
AcDbLine
 10
3.188976377952756
 20
5.411417322834645
 30
0.0
 11
3.191929133858267
 21
5.414370078740157
 31
0.0
  0
LINE
  5
27A3
330
1E
100
AcDbEntity
  8
0
100
AcDbLine
 10
3.244094488188976
 20
5.414370078740157
 30
0.0
 11
3.191929133858267
 21
5.414370078740157
 31
0.0
  0
LINE
  5
27A4
330
1E
100
AcDbEntity
  8
0
100
AcDbLine
 10
3.247047244094487
 20
5.417322834645669
 30
0.0
 11
3.244094488188976
 21
5.414370078740157
 31
0.0
  0
LINE
  5
27A5
330
1E
100
AcDbEntity
  8
0
100
AcDbLine
 10
1.684055118110236
 20
5.417322834645669
 30
0.0
 11
3.247047244094487
 21
5.417322834645669
 31
0.0
  0
POLYLINE
  5
27A6
330
1E
100
AcDbEntity
  8
0
100
AcDb2dPolyline
 66
     1
 10
0.0
 20
0.0
 30
0.0
  0
VERTEX
  5
2EBD
330
27A6
100
AcDbEntity
  8
0
100
AcDbVertex
100
AcDb2dVertex
 10
3.244094488188976
 20
5.414370078740157
 30
0.0
  0
VERTEX
  5
2EBE
330
27A6
100
AcDbEntity
  8
0
100
AcDbVertex
100
AcDb2dVertex
 10
3.249015748031495
 20
5.411417322834645
 30
0.0
  0
VERTEX
  5
2EBF
330
27A6
100
AcDbEntity
  8
0
100
AcDbVertex
100
AcDb2dVertex
 10
3.251968503937007
 20
5.406496062992125
 30
0.0
  0
SEQEND
  5
2EC0
330
27A6
100
AcDbEntity
  8
0
  0
LINE
  5
27AB
330
1E
100
AcDbEntity
  8
0
100
AcDbLine
 10
3.251968503937007
 20
5.406496062992125
 30
0.0
 11
3.254921259842519
 21
5.409448818897637
 31
0.0
  0
POLYLINE
  5
27AC
330
1E
100
AcDbEntity
  8
0
100
AcDb2dPolyline
 66
     1
 10
0.0
 20
0.0
 30
0.0
  0
VERTEX
  5
2EC1
330
27AC
100
AcDbEntity
  8
0
100
AcDbVertex
100
AcDb2dVertex
 10
3.254921259842519
 20
5.409448818897637
 30
0.0
  0
VERTEX
  5
2EC2
330
27AC
100
AcDbEntity
  8
0
100
AcDbVertex
100
AcDb2dVertex
 10
3.252952755905511
 20
5.415354330708661
 30
0.0
  0
VERTEX
  5
2EC3
330
27AC
100
AcDbEntity
  8
0
100
AcDbVertex
100
AcDb2dVertex
 10
3.247047244094487
 20
5.417322834645669
 30
0.0
  0
SEQEND
  5
2EC4
330
27AC
100
AcDbEntity
  8
0
  0
CIRCLE
  5
27B1
330
1E
100
AcDbEntity
  8
0
100
AcDbCircle
 10
2.46505905511811
 20
5.697834645669291
 30
0.0
 40
0.0802165354330709
  0
CIRCLE
  5
27B2
330
1E
100
AcDbEntity
  8
0
100
AcDbCircle
 10
2.465551181102362
 20
5.697834645669291
 30
0.0
 40
0.1200787401574803
  0
CIRCLE
  5
27B3
330
1E
100
AcDbEntity
  8
0
100
AcDbCircle
 10
2.466043307086614
 20
5.697834645669291
 30
0.0
 40
0.0752952755905512
  0
CIRCLE
  5
27B4
330
1E
100
AcDbEntity
  8
0
100
AcDbCircle
 10
2.465551181102362
 20
5.697834645669291
 30
0.0
 40
0.1210629921259842
  0
POLYLINE
  5
27B5
330
1E
100
AcDbEntity
  8
0
100
AcDb2dPolyline
 66
     1
 10
0.0
 20
0.0
 30
0.0
  0
VERTEX
  5
2EC5
330
27B5
100
AcDbEntity
  8
0
100
AcDbVertex
100
AcDb2dVertex
 10
1.756889763779527
 20
5.51771653543307
 30
0.0
  0
VERTEX
  5
2EC6
330
27B5
100
AcDbEntity
  8
0
100
AcDbVertex
100
AcDb2dVertex
 10
1.749015748031496
 20
5.520669291338582
 30
0.0
  0
VERTEX
  5
2EC7
330
27B5
100
AcDbEntity
  8
0
100
AcDbVertex
100
AcDb2dVertex
 10
1.746062992125984
 20
5.528543307086613
 30
0.0
  0
SEQEND
  5
2EC8
330
27B5
100
AcDbEntity
  8
0
  0
LINE
  5
27BA
330
1E
100
AcDbEntity
  8
0
100
AcDbLine
 10
1.746062992125984
 20
5.528543307086613
 30
0.0
 11
1.74507874015748
 21
5.52755905511811
 31
0.0
  0
POLYLINE
  5
27BB
330
1E
100
AcDbEntity
  8
0
100
AcDb2dPolyline
 66
     1
 10
0.0
 20
0.0
 30
0.0
  0
VERTEX
  5
2EC9
330
27BB
100
AcDbEntity
  8
0
100
AcDbVertex
100
AcDb2dVertex
 10
1.74507874015748
 20
5.52755905511811
 30
0.0
  0
VERTEX
  5
2ECA
330
27BB
100
AcDbEntity
  8
0
100
AcDbVertex
100
AcDb2dVertex
 10
1.749015748031496
 20
5.519685039370078
 30
0.0
  0
VERTEX
  5
2ECB
330
27BB
100
AcDbEntity
  8
0
100
AcDbVertex
100
AcDb2dVertex
 10
1.755905511811023
 20
5.516732283464566
 30
0.0
  0
SEQEND
  5
2ECC
330
27BB
100
AcDbEntity
  8
0
  0
LINE
  5
27C0
330
1E
100
AcDbEntity
  8
0
100
AcDbLine
 10
1.755905511811023
 20
5.516732283464566
 30
0.0
 11
1.756889763779527
 21
5.51771653543307
 31
0.0
  0
POLYLINE
  5
27C1
330
1E
100
AcDbEntity
  8
0
100
AcDb2dPolyline
 66
     1
 10
0.0
 20
0.0
 30
0.0
  0
VERTEX
  5
2ECD
330
27C1
100
AcDbEntity
  8
0
100
AcDbVertex
100
AcDb2dVertex
 10
1.746062992125984
 20
5.867125984251968
 30
0.0
  0
VERTEX
  5
2ECE
330
27C1
100
AcDbEntity
  8
0
100
AcDbVertex
100
AcDb2dVertex
 10
1.749015748031496
 20
5.875
 30
0.0
  0
VERTEX
  5
2ECF
330
27C1
100
AcDbEntity
  8
0
100
AcDbVertex
100
AcDb2dVertex
 10
1.756889763779527
 20
5.877952755905512
 30
0.0
  0
SEQEND
  5
2ED0
330
27C1
100
AcDbEntity
  8
0
  0
LINE
  5
27C6
330
1E
100
AcDbEntity
  8
0
100
AcDbLine
 10
1.756889763779527
 20
5.877952755905512
 30
0.0
 11
1.755905511811023
 21
5.878937007874015
 31
0.0
  0
POLYLINE
  5
27C7
330
1E
100
AcDbEntity
  8
0
100
AcDb2dPolyline
 66
     1
 10
0.0
 20
0.0
 30
0.0
  0
VERTEX
  5
2ED1
330
27C7
100
AcDbEntity
  8
0
100
AcDbVertex
100
AcDb2dVertex
 10
1.755905511811023
 20
5.878937007874015
 30
0.0
  0
VERTEX
  5
2ED2
330
27C7
100
AcDbEntity
  8
0
100
AcDbVertex
100
AcDb2dVertex
 10
1.749015748031496
 20
5.875984251968503
 30
0.0
  0
VERTEX
  5
2ED3
330
27C7
100
AcDbEntity
  8
0
100
AcDbVertex
100
AcDb2dVertex
 10
1.74507874015748
 20
5.868110236220472
 30
0.0
  0
SEQEND
  5
2ED4
330
27C7
100
AcDbEntity
  8
0
  0
LINE
  5
27CC
330
1E
100
AcDbEntity
  8
0
100
AcDbLine
 10
1.74507874015748
 20
5.868110236220472
 30
0.0
 11
1.746062992125984
 21
5.867125984251968
 31
0.0
  0
LINE
  5
27CD
330
1E
100
AcDbEntity
  8
0
100
AcDbLine
 10
1.481299212598425
 20
5.81496062992126
 30
0.0
 11
1.481299212598425
 21
5.45767716535433
 31
0.0
  0
LINE
  5
27CE
330
1E
100
AcDbEntity
  8
0
100
AcDbLine
 10
1.481299212598425
 20
5.81496062992126
 30
0.0
 11
1.481299212598425
 21
5.81496062992126
 31
0.0
  0
POLYLINE
  5
27CF
330
1E
100
AcDbEntity
  8
0
100
AcDb2dPolyline
 66
     1
 10
0.0
 20
0.0
 30
0.0
  0
VERTEX
  5
2ED5
330
27CF
100
AcDbEntity
  8
0
100
AcDbVertex
100
AcDb2dVertex
 10
1.58267716535433
 20
5.882874015748031
 30
0.0
  0
VERTEX
  5
2ED6
330
27CF
100
AcDbEntity
  8
0
100
AcDbVertex
100
AcDb2dVertex
 10
1.58267716535433
 20
5.903543307086613
 30
0.0
  0
VERTEX
  5
2ED7
330
27CF
100
AcDbEntity
  8
0
100
AcDbVertex
100
AcDb2dVertex
 10
1.58267716535433
 20
5.912401574803149
 30
0.0
  0
SEQEND
  5
2ED8
330
27CF
100
AcDbEntity
  8
0
  0
POLYLINE
  5
27D4
330
1E
100
AcDbEntity
  8
0
100
AcDb2dPolyline
 66
     1
 10
0.0
 20
0.0
 30
0.0
  0
VERTEX
  5
2ED9
330
27D4
100
AcDbEntity
  8
0
100
AcDbVertex
100
AcDb2dVertex
 10
1.483267716535433
 20
5.812992125984251
 30
0.0
  0
VERTEX
  5
2EDA
330
27D4
100
AcDbEntity
  8
0
100
AcDbVertex
100
AcDb2dVertex
 10
1.486220472440944
 20
5.838582677165354
 30
0.0
  0
VERTEX
  5
2EDB
330
27D4
100
AcDbEntity
  8
0
100
AcDbVertex
100
AcDb2dVertex
 10
1.497047244094488
 20
5.863188976377952
 30
0.0
  0
VERTEX
  5
2EDC
330
27D4
100
AcDbEntity
  8
0
100
AcDbVertex
100
AcDb2dVertex
 10
1.512795275590551
 20
5.883858267716535
 30
0.0
  0
VERTEX
  5
2EDD
330
27D4
100
AcDbEntity
  8
0
100
AcDbVertex
100
AcDb2dVertex
 10
1.533464566929133
 20
5.899606299212598
 30
0.0
  0
VERTEX
  5
2EDE
330
27D4
100
AcDbEntity
  8
0
100
AcDbVertex
100
AcDb2dVertex
 10
1.557086614173228
 20
5.909448818897637
 30
0.0
  0
VERTEX
  5
2EDF
330
27D4
100
AcDbEntity
  8
0
100
AcDbVertex
100
AcDb2dVertex
 10
1.58267716535433
 20
5.912401574803149
 30
0.0
  0
SEQEND
  5
2EE0
330
27D4
100
AcDbEntity
  8
0
  0
POLYLINE
  5
27DD
330
1E
100
AcDbEntity
  8
0
100
AcDb2dPolyline
 66
     1
 10
0.0
 20
0.0
 30
0.0
  0
VERTEX
  5
2EE1
330
27DD
100
AcDbEntity
  8
0
100
AcDbVertex
100
AcDb2dVertex
 10
1.512795275590551
 20
5.812992125984251
 30
0.0
  0
VERTEX
  5
2EE2
330
27DD
100
AcDbEntity
  8
0
100
AcDbVertex
100
AcDb2dVertex
 10
1.492125984251968
 20
5.812992125984251
 30
0.0
  0
VERTEX
  5
2EE3
330
27DD
100
AcDbEntity
  8
0
100
AcDbVertex
100
AcDb2dVertex
 10
1.483267716535433
 20
5.812992125984251
 30
0.0
  0
SEQEND
  5
2EE4
330
27DD
100
AcDbEntity
  8
0
  0
POLYLINE
  5
27E2
330
1E
100
AcDbEntity
  8
0
100
AcDb2dPolyline
 66
     1
 10
0.0
 20
0.0
 30
0.0
  0
VERTEX
  5
2EE5
330
27E2
100
AcDbEntity
  8
0
100
AcDbVertex
100
AcDb2dVertex
 10
1.58267716535433
 20
5.882874015748031
 30
0.0
  0
VERTEX
  5
2EE6
330
27E2
100
AcDbEntity
  8
0
100
AcDbVertex
100
AcDb2dVertex
 10
1.562007874015747
 20
5.878937007874015
 30
0.0
  0
VERTEX
  5
2EE7
330
27E2
100
AcDbEntity
  8
0
100
AcDbVertex
100
AcDb2dVertex
 10
1.542322834645669
 20
5.869094488188975
 30
0.0
  0
VERTEX
  5
2EE8
330
27E2
100
AcDbEntity
  8
0
100
AcDbVertex
100
AcDb2dVertex
 10
1.526574803149606
 20
5.854330708661417
 30
0.0
  0
VERTEX
  5
2EE9
330
27E2
100
AcDbEntity
  8
0
100
AcDbVertex
100
AcDb2dVertex
 10
1.516732283464566
 20
5.834645669291338
 30
0.0
  0
VERTEX
  5
2EEA
330
27E2
100
AcDbEntity
  8
0
100
AcDbVertex
100
AcDb2dVertex
 10
1.512795275590551
 20
5.812992125984251
 30
0.0
  0
SEQEND
  5
2EEB
330
27E2
100
AcDbEntity
  8
0
  0
LINE
  5
27EA
330
1E
100
AcDbEntity
  8
0
100
AcDbLine
 10
1.483267716535433
 20
5.812992125984251
 30
0.0
 11
1.481299212598425
 21
5.81496062992126
 31
0.0
  0
LINE
  5
27EB
330
1E
100
AcDbEntity
  8
0
100
AcDbLine
 10
1.580708661417322
 20
5.915354330708661
 30
0.0
 11
1.58267716535433
 21
5.912401574803149
 31
0.0
  0
POLYLINE
  5
27EC
330
1E
100
AcDbEntity
  8
0
100
AcDb2dPolyline
 66
     1
 10
0.0
 20
0.0
 30
0.0
  0
VERTEX
  5
2EEC
330
27EC
100
AcDbEntity
  8
0
100
AcDbVertex
100
AcDb2dVertex
 10
1.481299212598425
 20
5.81496062992126
 30
0.0
  0
VERTEX
  5
2EED
330
27EC
100
AcDbEntity
  8
0
100
AcDbVertex
100
AcDb2dVertex
 10
1.484251968503937
 20
5.840551181102362
 30
0.0
  0
VERTEX
  5
2EEE
330
27EC
100
AcDbEntity
  8
0
100
AcDbVertex
100
AcDb2dVertex
 10
1.494094488188976
 20
5.86515748031496
 30
0.0
  0
VERTEX
  5
2EEF
330
27EC
100
AcDbEntity
  8
0
100
AcDbVertex
100
AcDb2dVertex
 10
1.509842519685039
 20
5.885826771653543
 30
0.0
  0
VERTEX
  5
2EF0
330
27EC
100
AcDbEntity
  8
0
100
AcDbVertex
100
AcDb2dVertex
 10
1.530511811023622
 20
5.901574803149606
 30
0.0
  0
VERTEX
  5
2EF1
330
27EC
100
AcDbEntity
  8
0
100
AcDbVertex
100
AcDb2dVertex
 10
1.55511811023622
 20
5.911417322834645
 30
0.0
  0
VERTEX
  5
2EF2
330
27EC
100
AcDbEntity
  8
0
100
AcDbVertex
100
AcDb2dVertex
 10
1.580708661417322
 20
5.915354330708661
 30
0.0
  0
SEQEND
  5
2EF3
330
27EC
100
AcDbEntity
  8
0
  0
LINE
  5
27F5
330
1E
100
AcDbEntity
  8
0
100
AcDbLine
 10
1.74507874015748
 20
5.52755905511811
 30
0.0
 11
1.74507874015748
 21
5.868110236220472
 31
0.0
  0
LINE
  5
27F6
330
1E
100
AcDbEntity
  8
0
100
AcDbLine
 10
1.746062992125984
 20
5.528543307086613
 30
0.0
 11
1.746062992125984
 21
5.867125984251968
 31
0.0
  0
LINE
  5
27F7
330
1E
100
AcDbEntity
  8
0
100
AcDbLine
 10
1.8001968503937
 20
5.876968503937007
 30
0.0
 11
1.8001968503937
 21
5.519685039370078
 31
0.0
  0
LINE
  5
27F8
330
1E
100
AcDbEntity
  8
0
100
AcDbLine
 10
1.797244094488188
 20
5.877952755905512
 30
0.0
 11
1.8001968503937
 21
5.876968503937007
 31
0.0
  0
LINE
  5
27F9
330
1E
100
AcDbEntity
  8
0
100
AcDbLine
 10
1.8001968503937
 20
5.519685039370078
 30
0.0
 11
1.797244094488188
 21
5.51771653543307
 31
0.0
  0
LINE
  5
27FA
330
1E
100
AcDbEntity
  8
0
100
AcDbLine
 10
1.756889763779527
 20
5.877952755905512
 30
0.0
 11
1.797244094488188
 21
5.877952755905512
 31
0.0
  0
LINE
  5
27FB
330
1E
100
AcDbEntity
  8
0
100
AcDbLine
 10
1.797244094488188
 20
5.51771653543307
 30
0.0
 11
1.756889763779527
 21
5.51771653543307
 31
0.0
  0
POLYLINE
  5
27FC
330
1E
100
AcDbEntity
  8
0
100
AcDb2dPolyline
 66
     1
 10
0.0
 20
0.0
 30
0.0
  0
VERTEX
  5
2EF4
330
27FC
100
AcDbEntity
  8
0
100
AcDbVertex
100
AcDb2dVertex
 10
3.174212598425196
 20
5.51771653543307
 30
0.0
  0
VERTEX
  5
2EF5
330
27FC
100
AcDbEntity
  8
0
100
AcDbVertex
100
AcDb2dVertex
 10
3.181102362204724
 20
5.520669291338582
 30
0.0
  0
VERTEX
  5
2EF6
330
27FC
100
AcDbEntity
  8
0
100
AcDbVertex
100
AcDb2dVertex
 10
3.18503937007874
 20
5.528543307086613
 30
0.0
  0
SEQEND
  5
2EF7
330
27FC
100
AcDbEntity
  8
0
  0
LINE
  5
2801
330
1E
100
AcDbEntity
  8
0
100
AcDbLine
 10
3.1751968503937
 20
5.516732283464566
 30
0.0
 11
3.174212598425196
 21
5.51771653543307
 31
0.0
  0
POLYLINE
  5
2802
330
1E
100
AcDbEntity
  8
0
100
AcDb2dPolyline
 66
     1
 10
0.0
 20
0.0
 30
0.0
  0
VERTEX
  5
2EF8
330
2802
100
AcDbEntity
  8
0
100
AcDbVertex
100
AcDb2dVertex
 10
3.18503937007874
 20
5.52755905511811
 30
0.0
  0
VERTEX
  5
2EF9
330
2802
100
AcDbEntity
  8
0
100
AcDbVertex
100
AcDb2dVertex
 10
3.182086614173228
 20
5.519685039370078
 30
0.0
  0
VERTEX
  5
2EFA
330
2802
100
AcDbEntity
  8
0
100
AcDbVertex
100
AcDb2dVertex
 10
3.1751968503937
 20
5.516732283464566
 30
0.0
  0
SEQEND
  5
2EFB
330
2802
100
AcDbEntity
  8
0
  0
LINE
  5
2807
330
1E
100
AcDbEntity
  8
0
100
AcDbLine
 10
3.18503937007874
 20
5.528543307086613
 30
0.0
 11
3.18503937007874
 21
5.52755905511811
 31
0.0
  0
POLYLINE
  5
2808
330
1E
100
AcDbEntity
  8
0
100
AcDb2dPolyline
 66
     1
 10
0.0
 20
0.0
 30
0.0
  0
VERTEX
  5
2EFC
330
2808
100
AcDbEntity
  8
0
100
AcDbVertex
100
AcDb2dVertex
 10
3.18503937007874
 20
5.867125984251968
 30
0.0
  0
VERTEX
  5
2EFD
330
2808
100
AcDbEntity
  8
0
100
AcDbVertex
100
AcDb2dVertex
 10
3.181102362204724
 20
5.875
 30
0.0
  0
VERTEX
  5
2EFE
330
2808
100
AcDbEntity
  8
0
100
AcDbVertex
100
AcDb2dVertex
 10
3.174212598425196
 20
5.877952755905512
 30
0.0
  0
SEQEND
  5
2EFF
330
2808
100
AcDbEntity
  8
0
  0
LINE
  5
280D
330
1E
100
AcDbEntity
  8
0
100
AcDbLine
 10
3.18503937007874
 20
5.868110236220472
 30
0.0
 11
3.18503937007874
 21
5.867125984251968
 31
0.0
  0
POLYLINE
  5
280E
330
1E
100
AcDbEntity
  8
0
100
AcDb2dPolyline
 66
     1
 10
0.0
 20
0.0
 30
0.0
  0
VERTEX
  5
2F00
330
280E
100
AcDbEntity
  8
0
100
AcDbVertex
100
AcDb2dVertex
 10
3.1751968503937
 20
5.878937007874015
 30
0.0
  0
VERTEX
  5
2F01
330
280E
100
AcDbEntity
  8
0
100
AcDbVertex
100
AcDb2dVertex
 10
3.182086614173228
 20
5.875984251968503
 30
0.0
  0
VERTEX
  5
2F02
330
280E
100
AcDbEntity
  8
0
100
AcDbVertex
100
AcDb2dVertex
 10
3.18503937007874
 20
5.868110236220472
 30
0.0
  0
SEQEND
  5
2F03
330
280E
100
AcDbEntity
  8
0
  0
LINE
  5
2813
330
1E
100
AcDbEntity
  8
0
100
AcDbLine
 10
3.174212598425196
 20
5.877952755905512
 30
0.0
 11
3.1751968503937
 21
5.878937007874015
 31
0.0
  0
LINE
  5
2814
330
1E
100
AcDbEntity
  8
0
100
AcDbLine
 10
1.58267716535433
 20
5.912401574803149
 30
0.0
 11
3.347440944881889
 21
5.912401574803149
 31
0.0
  0
LINE
  5
2815
330
1E
100
AcDbEntity
  8
0
100
AcDbLine
 10
3.350393700787401
 20
5.915354330708661
 30
0.0
 11
1.580708661417322
 21
5.915354330708661
 31
0.0
  0
LINE
  5
2816
330
1E
100
AcDbEntity
  8
0
100
AcDbLine
 10
3.347440944881889
 20
5.882874015748031
 30
0.0
 11
1.58267716535433
 21
5.882874015748031
 31
0.0
  0
LINE
  5
2817
330
1E
100
AcDbEntity
  8
0
100
AcDbLine
 10
1.8001968503937
 20
5.519685039370078
 30
0.0
 11
3.129921259842519
 21
5.519685039370078
 31
0.0
  0
LINE
  5
2818
330
1E
100
AcDbEntity
  8
0
100
AcDbLine
 10
3.129921259842519
 20
5.876968503937007
 30
0.0
 11
3.129921259842519
 21
5.519685039370078
 31
0.0
  0
LINE
  5
2819
330
1E
100
AcDbEntity
  8
0
100
AcDbLine
 10
3.129921259842519
 20
5.876968503937007
 30
0.0
 11
1.8001968503937
 21
5.876968503937007
 31
0.0
  0
LINE
  5
281A
330
1E
100
AcDbEntity
  8
0
100
AcDbLine
 10
3.1751968503937
 20
5.516732283464566
 30
0.0
 11
1.755905511811023
 21
5.516732283464566
 31
0.0
  0
LINE
  5
281B
330
1E
100
AcDbEntity
  8
0
100
AcDbLine
 10
3.133858267716535
 20
5.51771653543307
 30
0.0
 11
3.174212598425196
 21
5.51771653543307
 31
0.0
  0
LINE
  5
281C
330
1E
100
AcDbEntity
  8
0
100
AcDbLine
 10
3.129921259842519
 20
5.519685039370078
 30
0.0
 11
3.133858267716535
 21
5.51771653543307
 31
0.0
  0
LINE
  5
281D
330
1E
100
AcDbEntity
  8
0
100
AcDbLine
 10
3.18503937007874
 20
5.52755905511811
 30
0.0
 11
3.18503937007874
 21
5.868110236220472
 31
0.0
  0
LINE
  5
281E
330
1E
100
AcDbEntity
  8
0
100
AcDbLine
 10
3.18503937007874
 20
5.528543307086613
 30
0.0
 11
3.18503937007874
 21
5.867125984251968
 31
0.0
  0
LINE
  5
281F
330
1E
100
AcDbEntity
  8
0
100
AcDbLine
 10
3.174212598425196
 20
5.877952755905512
 30
0.0
 11
3.133858267716535
 21
5.877952755905512
 31
0.0
  0
LINE
  5
2820
330
1E
100
AcDbEntity
  8
0
100
AcDbLine
 10
1.755905511811023
 20
5.878937007874015
 30
0.0
 11
3.1751968503937
 21
5.878937007874015
 31
0.0
  0
LINE
  5
2821
330
1E
100
AcDbEntity
  8
0
100
AcDbLine
 10
3.133858267716535
 20
5.877952755905512
 30
0.0
 11
3.129921259842519
 21
5.876968503937007
 31
0.0
  0
LINE
  5
2822
330
1E
100
AcDbEntity
  8
0
100
AcDbLine
 10
3.251968503937007
 20
5.406496062992125
 30
0.0
 11
3.251968503937007
 21
4.936023622047244
 31
0.0
  0
LINE
  5
2823
330
1E
100
AcDbEntity
  8
0
100
AcDbLine
 10
3.191929133858267
 20
5.414370078740157
 30
0.0
 11
3.191929133858267
 21
5.410433070866141
 31
0.0
  0
LINE
  5
2824
330
1E
100
AcDbEntity
  8
0
100
AcDbLine
 10
3.247047244094487
 20
4.936023622047244
 30
0.0
 11
3.251968503937007
 21
4.936023622047244
 31
0.0
  0
LINE
  5
2825
330
1E
100
AcDbEntity
  8
0
100
AcDbLine
 10
3.188976377952756
 20
5.410433070866141
 30
0.0
 11
3.188976377952756
 21
5.411417322834645
 31
0.0
  0
LINE
  5
2826
330
1E
100
AcDbEntity
  8
0
100
AcDbLine
 10
1.742125984251968
 20
5.410433070866141
 30
0.0
 11
1.742125984251968
 21
5.411417322834645
 31
0.0
  0
LINE
  5
2827
330
1E
100
AcDbEntity
  8
0
100
AcDbLine
 10
1.739173228346456
 20
5.414370078740157
 30
0.0
 11
1.739173228346456
 21
5.410433070866141
 31
0.0
  0
LINE
  5
2828
330
1E
100
AcDbEntity
  8
0
100
AcDbLine
 10
1.679133858267716
 20
5.406496062992125
 30
0.0
 11
1.679133858267716
 21
4.936023622047244
 31
0.0
  0
LINE
  5
2829
330
1E
100
AcDbEntity
  8
0
100
AcDbLine
 10
1.684055118110236
 20
4.936023622047244
 30
0.0
 11
1.679133858267716
 21
4.936023622047244
 31
0.0
  0
LINE
  5
282A
330
1E
100
AcDbEntity
  8
0
100
AcDbLine
 10
1.676181102362204
 20
4.83759842519685
 30
0.0
 11
1.676181102362204
 21
5.409448818897637
 31
0.0
  0
LINE
  5
282B
330
1E
100
AcDbEntity
  8
0
100
AcDbLine
 10
1.676181102362204
 20
4.83759842519685
 30
0.0
 11
1.679133858267716
 21
4.834645669291338
 31
0.0
  0
LINE
  5
282C
330
1E
100
AcDbEntity
  8
0
100
AcDbLine
 10
1.679133858267716
 20
4.936023622047244
 30
0.0
 11
1.679133858267716
 21
4.834645669291338
 31
0.0
  0
LINE
  5
282D
330
1E
100
AcDbEntity
  8
0
100
AcDbLine
 10
3.254921259842519
 20
4.83759842519685
 30
0.0
 11
3.254921259842519
 21
5.409448818897637
 31
0.0
  0
LINE
  5
282E
330
1E
100
AcDbEntity
  8
0
100
AcDbLine
 10
3.251968503937007
 20
4.936023622047244
 30
0.0
 11
3.251968503937007
 21
4.834645669291338
 31
0.0
  0
LINE
  5
282F
330
1E
100
AcDbEntity
  8
0
100
AcDbLine
 10
3.254921259842519
 20
4.83759842519685
 30
0.0
 11
3.251968503937007
 21
4.834645669291338
 31
0.0
  0
LINE
  5
2830
330
1E
100
AcDbEntity
  8
0
100
AcDbLine
 10
1.58267716535433
 20
3.978346456692913
 30
0.0
 11
3.347440944881889
 21
3.978346456692913
 31
0.0
  0
LINE
  5
2831
330
1E
100
AcDbEntity
  8
0
100
AcDbLine
 10
1.512795275590551
 20
5.812992125984251
 30
0.0
 11
1.512795275590551
 21
4.048228346456692
 31
0.0
  0
POLYLINE
  5
2832
330
1E
100
AcDbEntity
  8
0
100
AcDb2dPolyline
 66
     1
 10
0.0
 20
0.0
 30
0.0
  0
VERTEX
  5
2F04
330
2832
100
AcDbEntity
  8
0
100
AcDbVertex
100
AcDb2dVertex
 10
1.512795275590551
 20
4.048228346456692
 30
0.0
  0
VERTEX
  5
2F05
330
2832
100
AcDbEntity
  8
0
100
AcDbVertex
100
AcDb2dVertex
 10
1.516732283464566
 20
4.026574803149606
 30
0.0
  0
VERTEX
  5
2F06
330
2832
100
AcDbEntity
  8
0
100
AcDbVertex
100
AcDb2dVertex
 10
1.526574803149606
 20
4.006889763779527
 30
0.0
  0
VERTEX
  5
2F07
330
2832
100
AcDbEntity
  8
0
100
AcDbVertex
100
AcDb2dVertex
 10
1.542322834645669
 20
3.991141732283464
 30
0.0
  0
VERTEX
  5
2F08
330
2832
100
AcDbEntity
  8
0
100
AcDbVertex
100
AcDb2dVertex
 10
1.562007874015747
 20
3.981299212598425
 30
0.0
  0
VERTEX
  5
2F09
330
2832
100
AcDbEntity
  8
0
100
AcDbVertex
100
AcDb2dVertex
 10
1.58267716535433
 20
3.978346456692913
 30
0.0
  0
SEQEND
  5
2F0A
330
2832
100
AcDbEntity
  8
0
  0
LINE
  5
283A
330
1E
100
AcDbEntity
  8
0
100
AcDbLine
 10
3.26279527559055
 20
4.829724409448818
 30
0.0
 11
3.307086614173228
 21
4.829724409448818
 31
0.0
  0
LINE
  5
283B
330
1E
100
AcDbEntity
  8
0
100
AcDbLine
 10
3.26279527559055
 20
4.654527559055117
 30
0.0
 11
3.307086614173228
 21
4.654527559055117
 31
0.0
  0
POLYLINE
  5
283C
330
1E
100
AcDbEntity
  8
0
100
AcDb2dPolyline
 66
     1
 10
0.0
 20
0.0
 30
0.0
  0
VERTEX
  5
2F0B
330
283C
100
AcDbEntity
  8
0
100
AcDbVertex
100
AcDb2dVertex
 10
3.254921259842519
 20
4.646653543307086
 30
0.0
  0
VERTEX
  5
2F0C
330
283C
100
AcDbEntity
  8
0
100
AcDbVertex
100
AcDb2dVertex
 10
3.256889763779527
 20
4.65255905511811
 30
0.0
  0
VERTEX
  5
2F0D
330
283C
100
AcDbEntity
  8
0
100
AcDbVertex
100
AcDb2dVertex
 10
3.26279527559055
 20
4.654527559055117
 30
0.0
  0
SEQEND
  5
2F0E
330
283C
100
AcDbEntity
  8
0
  0
LINE
  5
2841
330
1E
100
AcDbEntity
  8
0
100
AcDbLine
 10
3.254921259842519
 20
4.075787401574802
 30
0.0
 11
3.254921259842519
 21
4.646653543307086
 31
0.0
  0
POLYLINE
  5
2842
330
1E
100
AcDbEntity
  8
0
100
AcDb2dPolyline
 66
     1
 10
0.0
 20
0.0
 30
0.0
  0
VERTEX
  5
2F0F
330
2842
100
AcDbEntity
  8
0
100
AcDbVertex
100
AcDb2dVertex
 10
3.247047244094487
 20
4.067913385826771
 30
0.0
  0
VERTEX
  5
2F10
330
2842
100
AcDbEntity
  8
0
100
AcDbVertex
100
AcDb2dVertex
 10
3.252952755905511
 20
4.069881889763779
 30
0.0
  0
VERTEX
  5
2F11
330
2842
100
AcDbEntity
  8
0
100
AcDbVertex
100
AcDb2dVertex
 10
3.254921259842519
 20
4.075787401574802
 30
0.0
  0
SEQEND
  5
2F12
330
2842
100
AcDbEntity
  8
0
  0
LINE
  5
2847
330
1E
100
AcDbEntity
  8
0
100
AcDbLine
 10
1.684055118110236
 20
4.067913385826771
 30
0.0
 11
3.247047244094487
 21
4.067913385826771
 31
0.0
  0
POLYLINE
  5
2848
330
1E
100
AcDbEntity
  8
0
100
AcDb2dPolyline
 66
     1
 10
0.0
 20
0.0
 30
0.0
  0
VERTEX
  5
2F13
330
2848
100
AcDbEntity
  8
0
100
AcDbVertex
100
AcDb2dVertex
 10
1.684055118110236
 20
4.067913385826771
 30
0.0
  0
VERTEX
  5
2F14
330
2848
100
AcDbEntity
  8
0
100
AcDbVertex
100
AcDb2dVertex
 10
1.678149606299212
 20
4.069881889763779
 30
0.0
  0
VERTEX
  5
2F15
330
2848
100
AcDbEntity
  8
0
100
AcDbVertex
100
AcDb2dVertex
 10
1.676181102362204
 20
4.075787401574802
 30
0.0
  0
SEQEND
  5
2F16
330
2848
100
AcDbEntity
  8
0
  0
LINE
  5
284D
330
1E
100
AcDbEntity
  8
0
100
AcDbLine
 10
1.676181102362204
 20
4.075787401574802
 30
0.0
 11
1.676181102362204
 21
4.646653543307086
 31
0.0
  0
POLYLINE
  5
284E
330
1E
100
AcDbEntity
  8
0
100
AcDb2dPolyline
 66
     1
 10
0.0
 20
0.0
 30
0.0
  0
VERTEX
  5
2F17
330
284E
100
AcDbEntity
  8
0
100
AcDbVertex
100
AcDb2dVertex
 10
1.676181102362204
 20
4.646653543307086
 30
0.0
  0
VERTEX
  5
2F18
330
284E
100
AcDbEntity
  8
0
100
AcDbVertex
100
AcDb2dVertex
 10
1.673228346456692
 20
4.65255905511811
 30
0.0
  0
VERTEX
  5
2F19
330
284E
100
AcDbEntity
  8
0
100
AcDbVertex
100
AcDb2dVertex
 10
1.668307086614173
 20
4.654527559055117
 30
0.0
  0
SEQEND
  5
2F1A
330
284E
100
AcDbEntity
  8
0
  0
LINE
  5
2853
330
1E
100
AcDbEntity
  8
0
100
AcDbLine
 10
1.668307086614173
 20
4.654527559055117
 30
0.0
 11
1.624015748031496
 21
4.654527559055117
 31
0.0
  0
POLYLINE
  5
2854
330
1E
100
AcDbEntity
  8
0
100
AcDb2dPolyline
 66
     1
 10
0.0
 20
0.0
 30
0.0
  0
VERTEX
  5
2F1B
330
2854
100
AcDbEntity
  8
0
100
AcDbVertex
100
AcDb2dVertex
 10
1.624015748031496
 20
4.654527559055117
 30
0.0
  0
VERTEX
  5
2F1C
330
2854
100
AcDbEntity
  8
0
100
AcDbVertex
100
AcDb2dVertex
 10
1.618110236220472
 20
4.657480314960629
 30
0.0
  0
VERTEX
  5
2F1D
330
2854
100
AcDbEntity
  8
0
100
AcDbVertex
100
AcDb2dVertex
 10
1.616141732283464
 20
4.663385826771653
 30
0.0
  0
SEQEND
  5
2F1E
330
2854
100
AcDbEntity
  8
0
  0
LINE
  5
2859
330
1E
100
AcDbEntity
  8
0
100
AcDbLine
 10
1.616141732283464
 20
4.821850393700787
 30
0.0
 11
1.616141732283464
 21
4.663385826771653
 31
0.0
  0
POLYLINE
  5
285A
330
1E
100
AcDbEntity
  8
0
100
AcDb2dPolyline
 66
     1
 10
0.0
 20
0.0
 30
0.0
  0
VERTEX
  5
2F1F
330
285A
100
AcDbEntity
  8
0
100
AcDbVertex
100
AcDb2dVertex
 10
1.616141732283464
 20
4.821850393700787
 30
0.0
  0
VERTEX
  5
2F20
330
285A
100
AcDbEntity
  8
0
100
AcDbVertex
100
AcDb2dVertex
 10
1.618110236220472
 20
4.827755905511811
 30
0.0
  0
VERTEX
  5
2F21
330
285A
100
AcDbEntity
  8
0
100
AcDbVertex
100
AcDb2dVertex
 10
1.624015748031496
 20
4.829724409448818
 30
0.0
  0
SEQEND
  5
2F22
330
285A
100
AcDbEntity
  8
0
  0
LINE
  5
285F
330
1E
100
AcDbEntity
  8
0
100
AcDbLine
 10
1.668307086614173
 20
4.829724409448818
 30
0.0
 11
1.624015748031496
 21
4.829724409448818
 31
0.0
  0
POLYLINE
  5
2860
330
1E
100
AcDbEntity
  8
0
100
AcDb2dPolyline
 66
     1
 10
0.0
 20
0.0
 30
0.0
  0
VERTEX
  5
2F23
330
2860
100
AcDbEntity
  8
0
100
AcDbVertex
100
AcDb2dVertex
 10
1.668307086614173
 20
4.829724409448818
 30
0.0
  0
VERTEX
  5
2F24
330
2860
100
AcDbEntity
  8
0
100
AcDbVertex
100
AcDb2dVertex
 10
1.673228346456692
 20
4.83267716535433
 30
0.0
  0
VERTEX
  5
2F25
330
2860
100
AcDbEntity
  8
0
100
AcDbVertex
100
AcDb2dVertex
 10
1.676181102362204
 20
4.83759842519685
 30
0.0
  0
SEQEND
  5
2F26
330
2860
100
AcDbEntity
  8
0
  0
POLYLINE
  5
2865
330
1E
100
AcDbEntity
  8
0
100
AcDb2dPolyline
 66
     1
 10
0.0
 20
0.0
 30
0.0
  0
VERTEX
  5
2F27
330
2865
100
AcDbEntity
  8
0
100
AcDbVertex
100
AcDb2dVertex
 10
3.26279527559055
 20
4.829724409448818
 30
0.0
  0
VERTEX
  5
2F28
330
2865
100
AcDbEntity
  8
0
100
AcDbVertex
100
AcDb2dVertex
 10
3.256889763779527
 20
4.83267716535433
 30
0.0
  0
VERTEX
  5
2F29
330
2865
100
AcDbEntity
  8
0
100
AcDbVertex
100
AcDb2dVertex
 10
3.254921259842519
 20
4.83759842519685
 30
0.0
  0
SEQEND
  5
2F2A
330
2865
100
AcDbEntity
  8
0
  0
LINE
  5
286A
330
1E
100
AcDbEntity
  8
0
100
AcDbLine
 10
3.350393700787401
 20
3.945866141732283
 30
0.0
 11
1.580708661417322
 21
3.945866141732283
 31
0.0
  0
POLYLINE
  5
286B
330
1E
100
AcDbEntity
  8
0
100
AcDb2dPolyline
 66
     1
 10
0.0
 20
0.0
 30
0.0
  0
VERTEX
  5
2F2B
330
286B
100
AcDbEntity
  8
0
100
AcDbVertex
100
AcDb2dVertex
 10
1.580708661417322
 20
3.945866141732283
 30
0.0
  0
VERTEX
  5
2F2C
330
286B
100
AcDbEntity
  8
0
100
AcDbVertex
100
AcDb2dVertex
 10
1.55511811023622
 20
3.949803149606299
 30
0.0
  0
VERTEX
  5
2F2D
330
286B
100
AcDbEntity
  8
0
100
AcDbVertex
100
AcDb2dVertex
 10
1.530511811023622
 20
3.959645669291338
 30
0.0
  0
VERTEX
  5
2F2E
330
286B
100
AcDbEntity
  8
0
100
AcDbVertex
100
AcDb2dVertex
 10
1.509842519685039
 20
3.975393700787401
 30
0.0
  0
VERTEX
  5
2F2F
330
286B
100
AcDbEntity
  8
0
100
AcDbVertex
100
AcDb2dVertex
 10
1.494094488188976
 20
3.996062992125984
 30
0.0
  0
VERTEX
  5
2F30
330
286B
100
AcDbEntity
  8
0
100
AcDbVertex
100
AcDb2dVertex
 10
1.484251968503937
 20
4.019685039370078
 30
0.0
  0
VERTEX
  5
2F31
330
286B
100
AcDbEntity
  8
0
100
AcDbVertex
100
AcDb2dVertex
 10
1.481299212598425
 20
4.046259842519685
 30
0.0
  0
SEQEND
  5
2F32
330
286B
100
AcDbEntity
  8
0
  0
LINE
  5
2874
330
1E
100
AcDbEntity
  8
0
100
AcDbLine
 10
1.481299212598425
 20
4.048228346456692
 30
0.0
 11
1.481299212598425
 21
4.046259842519685
 31
0.0
  0
LINE
  5
2875
330
1E
100
AcDbEntity
  8
0
100
AcDbLine
 10
1.481299212598425
 20
5.45767716535433
 30
0.0
 11
1.481299212598425
 21
5.21751968503937
 31
0.0
  0
LINE
  5
2876
330
1E
100
AcDbEntity
  8
0
100
AcDbLine
 10
1.677165354330708
 20
4.077755905511811
 30
0.0
 11
1.677165354330708
 21
4.174212598425197
 31
0.0
  0
POLYLINE
  5
2877
330
1E
100
AcDbEntity
  8
0
100
AcDb2dPolyline
 66
     1
 10
0.0
 20
0.0
 30
0.0
  0
VERTEX
  5
2F33
330
2877
100
AcDbEntity
  8
0
100
AcDbVertex
100
AcDb2dVertex
 10
1.686023622047243
 20
4.068897637795275
 30
0.0
  0
VERTEX
  5
2F34
330
2877
100
AcDbEntity
  8
0
100
AcDbVertex
100
AcDb2dVertex
 10
1.68011811023622
 20
4.071850393700787
 30
0.0
  0
VERTEX
  5
2F35
330
2877
100
AcDbEntity
  8
0
100
AcDbVertex
100
AcDb2dVertex
 10
1.677165354330708
 20
4.077755905511811
 30
0.0
  0
SEQEND
  5
2F36
330
2877
100
AcDbEntity
  8
0
  0
LINE
  5
287C
330
1E
100
AcDbEntity
  8
0
100
AcDbLine
 10
1.804133858267716
 20
4.068897637795275
 30
0.0
 11
1.686023622047243
 21
4.068897637795275
 31
0.0
  0
LINE
  5
287D
330
1E
100
AcDbEntity
  8
0
100
AcDbLine
 10
3.125984251968503
 20
4.068897637795275
 30
0.0
 11
3.24507874015748
 21
4.068897637795275
 31
0.0
  0
POLYLINE
  5
287E
330
1E
100
AcDbEntity
  8
0
100
AcDb2dPolyline
 66
     1
 10
0.0
 20
0.0
 30
0.0
  0
VERTEX
  5
2F37
330
287E
100
AcDbEntity
  8
0
100
AcDbVertex
100
AcDb2dVertex
 10
3.24507874015748
 20
4.068897637795275
 30
0.0
  0
VERTEX
  5
2F38
330
287E
100
AcDbEntity
  8
0
100
AcDbVertex
100
AcDb2dVertex
 10
3.250984251968503
 20
4.071850393700787
 30
0.0
  0
VERTEX
  5
2F39
330
287E
100
AcDbEntity
  8
0
100
AcDbVertex
100
AcDb2dVertex
 10
3.252952755905511
 20
4.077755905511811
 30
0.0
  0
SEQEND
  5
2F3A
330
287E
100
AcDbEntity
  8
0
  0
LINE
  5
2883
330
1E
100
AcDbEntity
  8
0
100
AcDbLine
 10
3.252952755905511
 20
4.077755905511811
 30
0.0
 11
3.252952755905511
 21
4.174212598425197
 31
0.0
  0
LINE
  5
2884
330
1E
100
AcDbEntity
  8
0
100
AcDbLine
 10
1.483267716535433
 20
4.048228346456692
 30
0.0
 11
1.483267716535433
 21
5.812992125984251
 31
0.0
  0
LINE
  5
2885
330
1E
100
AcDbEntity
  8
0
100
AcDbLine
 10
1.481299212598425
 20
5.21751968503937
 30
0.0
 11
1.481299212598425
 21
4.048228346456692
 31
0.0
  0
LINE
  5
2886
330
1E
100
AcDbEntity
  8
0
100
AcDbLine
 10
1.481299212598425
 20
4.046259842519685
 30
0.0
 11
1.483267716535433
 21
4.048228346456692
 31
0.0
  0
POLYLINE
  5
2887
330
1E
100
AcDbEntity
  8
0
100
AcDb2dPolyline
 66
     1
 10
0.0
 20
0.0
 30
0.0
  0
VERTEX
  5
2F3B
330
2887
100
AcDbEntity
  8
0
100
AcDbVertex
100
AcDb2dVertex
 10
1.512795275590551
 20
4.048228346456692
 30
0.0
  0
VERTEX
  5
2F3C
330
2887
100
AcDbEntity
  8
0
100
AcDbVertex
100
AcDb2dVertex
 10
1.492125984251968
 20
4.048228346456692
 30
0.0
  0
VERTEX
  5
2F3D
330
2887
100
AcDbEntity
  8
0
100
AcDbVertex
100
AcDb2dVertex
 10
1.483267716535433
 20
4.048228346456692
 30
0.0
  0
SEQEND
  5
2F3E
330
2887
100
AcDbEntity
  8
0
  0
LINE
  5
288C
330
1E
100
AcDbEntity
  8
0
100
AcDbLine
 10
1.679133858267716
 20
4.549212598425197
 30
0.0
 11
1.684055118110236
 21
4.553149606299212
 31
0.0
  0
LINE
  5
288D
330
1E
100
AcDbEntity
  8
0
100
AcDbLine
 10
1.684055118110236
 20
4.549212598425197
 30
0.0
 11
1.679133858267716
 21
4.549212598425197
 31
0.0
  0
LINE
  5
288E
330
1E
100
AcDbEntity
  8
0
100
AcDbLine
 10
1.679133858267716
 20
4.936023622047244
 30
0.0
 11
1.684055118110236
 21
4.932086614173228
 31
0.0
  0
LINE
  5
288F
330
1E
100
AcDbEntity
  8
0
100
AcDbLine
 10
3.251968503937007
 20
4.936023622047244
 30
0.0
 11
3.247047244094487
 21
4.932086614173228
 31
0.0
  0
LINE
  5
2890
330
1E
100
AcDbEntity
  8
0
100
AcDbLine
 10
3.247047244094487
 20
4.549212598425197
 30
0.0
 11
3.251968503937007
 21
4.549212598425197
 31
0.0
  0
LINE
  5
2891
330
1E
100
AcDbEntity
  8
0
100
AcDbLine
 10
3.251968503937007
 20
4.549212598425197
 30
0.0
 11
3.247047244094487
 21
4.553149606299212
 31
0.0
  0
LINE
  5
2892
330
1E
100
AcDbEntity
  8
0
100
AcDbLine
 10
1.671259842519685
 20
4.826771653543307
 30
0.0
 11
1.626968503937007
 21
4.826771653543307
 31
0.0
  0
POLYLINE
  5
2893
330
1E
100
AcDbEntity
  8
0
100
AcDb2dPolyline
 66
     1
 10
0.0
 20
0.0
 30
0.0
  0
VERTEX
  5
2F3F
330
2893
100
AcDbEntity
  8
0
100
AcDbVertex
100
AcDb2dVertex
 10
1.626968503937007
 20
4.826771653543307
 30
0.0
  0
VERTEX
  5
2F40
330
2893
100
AcDbEntity
  8
0
100
AcDbVertex
100
AcDb2dVertex
 10
1.622047244094488
 20
4.824803149606299
 30
0.0
  0
VERTEX
  5
2F41
330
2893
100
AcDbEntity
  8
0
100
AcDbVertex
100
AcDb2dVertex
 10
1.619094488188976
 20
4.818897637795275
 30
0.0
  0
SEQEND
  5
2F42
330
2893
100
AcDbEntity
  8
0
  0
LINE
  5
2898
330
1E
100
AcDbEntity
  8
0
100
AcDbLine
 10
1.619094488188976
 20
4.818897637795275
 30
0.0
 11
1.619094488188976
 21
4.666338582677165
 31
0.0
  0
POLYLINE
  5
2899
330
1E
100
AcDbEntity
  8
0
100
AcDb2dPolyline
 66
     1
 10
0.0
 20
0.0
 30
0.0
  0
VERTEX
  5
2F43
330
2899
100
AcDbEntity
  8
0
100
AcDbVertex
100
AcDb2dVertex
 10
1.619094488188976
 20
4.666338582677165
 30
0.0
  0
VERTEX
  5
2F44
330
2899
100
AcDbEntity
  8
0
100
AcDbVertex
100
AcDb2dVertex
 10
1.622047244094488
 20
4.660433070866141
 30
0.0
  0
VERTEX
  5
2F45
330
2899
100
AcDbEntity
  8
0
100
AcDbVertex
100
AcDb2dVertex
 10
1.626968503937007
 20
4.658464566929133
 30
0.0
  0
SEQEND
  5
2F46
330
2899
100
AcDbEntity
  8
0
  0
LINE
  5
289E
330
1E
100
AcDbEntity
  8
0
100
AcDbLine
 10
1.671259842519685
 20
4.658464566929133
 30
0.0
 11
1.626968503937007
 21
4.658464566929133
 31
0.0
  0
POLYLINE
  5
289F
330
1E
100
AcDbEntity
  8
0
100
AcDb2dPolyline
 66
     1
 10
0.0
 20
0.0
 30
0.0
  0
VERTEX
  5
2F47
330
289F
100
AcDbEntity
  8
0
100
AcDbVertex
100
AcDb2dVertex
 10
1.671259842519685
 20
4.658464566929133
 30
0.0
  0
VERTEX
  5
2F48
330
289F
100
AcDbEntity
  8
0
100
AcDbVertex
100
AcDb2dVertex
 10
1.677165354330708
 20
4.655511811023622
 30
0.0
  0
VERTEX
  5
2F49
330
289F
100
AcDbEntity
  8
0
100
AcDbVertex
100
AcDb2dVertex
 10
1.679133858267716
 20
4.650590551181101
 30
0.0
  0
SEQEND
  5
2F4A
330
289F
100
AcDbEntity
  8
0
  0
LINE
  5
28A4
330
1E
100
AcDbEntity
  8
0
100
AcDbLine
 10
1.679133858267716
 20
4.650590551181101
 30
0.0
 11
1.679133858267716
 21
4.834645669291338
 31
0.0
  0
POLYLINE
  5
28A5
330
1E
100
AcDbEntity
  8
0
100
AcDb2dPolyline
 66
     1
 10
0.0
 20
0.0
 30
0.0
  0
VERTEX
  5
2F4B
330
28A5
100
AcDbEntity
  8
0
100
AcDbVertex
100
AcDb2dVertex
 10
1.679133858267716
 20
4.834645669291338
 30
0.0
  0
VERTEX
  5
2F4C
330
28A5
100
AcDbEntity
  8
0
100
AcDbVertex
100
AcDb2dVertex
 10
1.677165354330708
 20
4.828740157480314
 30
0.0
  0
VERTEX
  5
2F4D
330
28A5
100
AcDbEntity
  8
0
100
AcDbVertex
100
AcDb2dVertex
 10
1.671259842519685
 20
4.826771653543307
 30
0.0
  0
SEQEND
  5
2F4E
330
28A5
100
AcDbEntity
  8
0
  0
LINE
  5
28AA
330
1E
100
AcDbEntity
  8
0
100
AcDbLine
 10
3.259842519685039
 20
4.658464566929133
 30
0.0
 11
3.304133858267716
 21
4.658464566929133
 31
0.0
  0
LINE
  5
28AB
330
1E
100
AcDbEntity
  8
0
100
AcDbLine
 10
3.259842519685039
 20
4.826771653543307
 30
0.0
 11
3.304133858267716
 21
4.826771653543307
 31
0.0
  0
POLYLINE
  5
28AC
330
1E
100
AcDbEntity
  8
0
100
AcDb2dPolyline
 66
     1
 10
0.0
 20
0.0
 30
0.0
  0
VERTEX
  5
2F4F
330
28AC
100
AcDbEntity
  8
0
100
AcDbVertex
100
AcDb2dVertex
 10
3.251968503937007
 20
4.834645669291338
 30
0.0
  0
VERTEX
  5
2F50
330
28AC
100
AcDbEntity
  8
0
100
AcDbVertex
100
AcDb2dVertex
 10
3.253937007874015
 20
4.828740157480314
 30
0.0
  0
VERTEX
  5
2F51
330
28AC
100
AcDbEntity
  8
0
100
AcDbVertex
100
AcDb2dVertex
 10
3.259842519685039
 20
4.826771653543307
 30
0.0
  0
SEQEND
  5
2F52
330
28AC
100
AcDbEntity
  8
0
  0
LINE
  5
28B1
330
1E
100
AcDbEntity
  8
0
100
AcDbLine
 10
3.251968503937007
 20
4.650590551181101
 30
0.0
 11
3.251968503937007
 21
4.834645669291338
 31
0.0
  0
POLYLINE
  5
28B2
330
1E
100
AcDbEntity
  8
0
100
AcDb2dPolyline
 66
     1
 10
0.0
 20
0.0
 30
0.0
  0
VERTEX
  5
2F53
330
28B2
100
AcDbEntity
  8
0
100
AcDbVertex
100
AcDb2dVertex
 10
3.259842519685039
 20
4.658464566929133
 30
0.0
  0
VERTEX
  5
2F54
330
28B2
100
AcDbEntity
  8
0
100
AcDbVertex
100
AcDb2dVertex
 10
3.253937007874015
 20
4.655511811023622
 30
0.0
  0
VERTEX
  5
2F55
330
28B2
100
AcDbEntity
  8
0
100
AcDbVertex
100
AcDb2dVertex
 10
3.251968503937007
 20
4.650590551181101
 30
0.0
  0
SEQEND
  5
2F56
330
28B2
100
AcDbEntity
  8
0
  0
LINE
  5
28B7
330
1E
100
AcDbEntity
  8
0
100
AcDbLine
 10
3.251968503937007
 20
4.549212598425197
 30
0.0
 11
3.251968503937007
 21
4.174212598425197
 31
0.0
  0
LINE
  5
28B8
330
1E
100
AcDbEntity
  8
0
100
AcDbLine
 10
3.251968503937007
 20
4.174212598425197
 30
0.0
 11
3.247047244094487
 21
4.174212598425197
 31
0.0
  0
LINE
  5
28B9
330
1E
100
AcDbEntity
  8
0
100
AcDbLine
 10
3.251968503937007
 20
4.650590551181101
 30
0.0
 11
3.251968503937007
 21
4.549212598425197
 31
0.0
  0
LINE
  5
28BA
330
1E
100
AcDbEntity
  8
0
100
AcDbLine
 10
1.812007874015747
 20
4.072834645669291
 30
0.0
 11
3.119094488188976
 21
4.072834645669291
 31
0.0
  0
LINE
  5
28BB
330
1E
100
AcDbEntity
  8
0
100
AcDbLine
 10
1.679133858267716
 20
4.650590551181101
 30
0.0
 11
1.679133858267716
 21
4.549212598425197
 31
0.0
  0
LINE
  5
28BC
330
1E
100
AcDbEntity
  8
0
100
AcDbLine
 10
1.679133858267716
 20
4.549212598425197
 30
0.0
 11
1.679133858267716
 21
4.174212598425197
 31
0.0
  0
LINE
  5
28BD
330
1E
100
AcDbEntity
  8
0
100
AcDbLine
 10
1.679133858267716
 20
4.174212598425197
 30
0.0
 11
1.684055118110236
 21
4.174212598425197
 31
0.0
  0
LINE
  5
28BE
330
1E
100
AcDbEntity
  8
0
100
AcDbLine
 10
3.347440944881889
 20
3.947834645669291
 30
0.0
 11
1.58267716535433
 21
3.947834645669291
 31
0.0
  0
POLYLINE
  5
28BF
330
1E
100
AcDbEntity
  8
0
100
AcDb2dPolyline
 66
     1
 10
0.0
 20
0.0
 30
0.0
  0
VERTEX
  5
2F57
330
28BF
100
AcDbEntity
  8
0
100
AcDbVertex
100
AcDb2dVertex
 10
1.58267716535433
 20
3.947834645669291
 30
0.0
  0
VERTEX
  5
2F58
330
28BF
100
AcDbEntity
  8
0
100
AcDbVertex
100
AcDb2dVertex
 10
1.58267716535433
 20
3.95767716535433
 30
0.0
  0
VERTEX
  5
2F59
330
28BF
100
AcDbEntity
  8
0
100
AcDbVertex
100
AcDb2dVertex
 10
1.58267716535433
 20
3.978346456692913
 30
0.0
  0
SEQEND
  5
2F5A
330
28BF
100
AcDbEntity
  8
0
  0
POLYLINE
  5
28C4
330
1E
100
AcDbEntity
  8
0
100
AcDb2dPolyline
 66
     1
 10
0.0
 20
0.0
 30
0.0
  0
VERTEX
  5
2F5B
330
28C4
100
AcDbEntity
  8
0
100
AcDbVertex
100
AcDb2dVertex
 10
1.58267716535433
 20
3.947834645669291
 30
0.0
  0
VERTEX
  5
2F5C
330
28C4
100
AcDbEntity
  8
0
100
AcDbVertex
100
AcDb2dVertex
 10
1.557086614173228
 20
3.951771653543307
 30
0.0
  0
VERTEX
  5
2F5D
330
28C4
100
AcDbEntity
  8
0
100
AcDbVertex
100
AcDb2dVertex
 10
1.533464566929133
 20
3.961614173228346
 30
0.0
  0
VERTEX
  5
2F5E
330
28C4
100
AcDbEntity
  8
0
100
AcDbVertex
100
AcDb2dVertex
 10
1.512795275590551
 20
3.977362204724409
 30
0.0
  0
VERTEX
  5
2F5F
330
28C4
100
AcDbEntity
  8
0
100
AcDbVertex
100
AcDb2dVertex
 10
1.497047244094488
 20
3.998031496062992
 30
0.0
  0
VERTEX
  5
2F60
330
28C4
100
AcDbEntity
  8
0
100
AcDbVertex
100
AcDb2dVertex
 10
1.486220472440944
 20
4.02263779527559
 30
0.0
  0
VERTEX
  5
2F61
330
28C4
100
AcDbEntity
  8
0
100
AcDbVertex
100
AcDb2dVertex
 10
1.483267716535433
 20
4.048228346456692
 30
0.0
  0
SEQEND
  5
2F62
330
28C4
100
AcDbEntity
  8
0
  0
LINE
  5
28CD
330
1E
100
AcDbEntity
  8
0
100
AcDbLine
 10
1.671259842519685
 20
4.826771653543307
 30
0.0
 11
1.668307086614173
 21
4.829724409448818
 31
0.0
  0
LINE
  5
28CE
330
1E
100
AcDbEntity
  8
0
100
AcDbLine
 10
1.624015748031496
 20
4.829724409448818
 30
0.0
 11
1.626968503937007
 21
4.826771653543307
 31
0.0
  0
LINE
  5
28CF
330
1E
100
AcDbEntity
  8
0
100
AcDbLine
 10
1.619094488188976
 20
4.818897637795275
 30
0.0
 11
1.616141732283464
 21
4.821850393700787
 31
0.0
  0
LINE
  5
28D0
330
1E
100
AcDbEntity
  8
0
100
AcDbLine
 10
1.616141732283464
 20
4.663385826771653
 30
0.0
 11
1.619094488188976
 21
4.666338582677165
 31
0.0
  0
LINE
  5
28D1
330
1E
100
AcDbEntity
  8
0
100
AcDbLine
 10
1.626968503937007
 20
4.658464566929133
 30
0.0
 11
1.624015748031496
 21
4.654527559055117
 31
0.0
  0
LINE
  5
28D2
330
1E
100
AcDbEntity
  8
0
100
AcDbLine
 10
1.668307086614173
 20
4.654527559055117
 30
0.0
 11
1.671259842519685
 21
4.658464566929133
 31
0.0
  0
LINE
  5
28D3
330
1E
100
AcDbEntity
  8
0
100
AcDbLine
 10
1.679133858267716
 20
4.650590551181101
 30
0.0
 11
1.676181102362204
 21
4.646653543307086
 31
0.0
  0
LINE
  5
28D4
330
1E
100
AcDbEntity
  8
0
100
AcDbLine
 10
3.26279527559055
 20
4.654527559055117
 30
0.0
 11
3.259842519685039
 21
4.658464566929133
 31
0.0
  0
LINE
  5
28D5
330
1E
100
AcDbEntity
  8
0
100
AcDbLine
 10
3.251968503937007
 20
4.650590551181101
 30
0.0
 11
3.254921259842519
 21
4.646653543307086
 31
0.0
  0
LINE
  5
28D6
330
1E
100
AcDbEntity
  8
0
100
AcDbLine
 10
3.259842519685039
 20
4.826771653543307
 30
0.0
 11
3.26279527559055
 21
4.829724409448818
 31
0.0
  0
LINE
  5
28D7
330
1E
100
AcDbEntity
  8
0
100
AcDbLine
 10
3.252952755905511
 20
4.174212598425197
 30
0.0
 11
3.251968503937007
 21
4.174212598425197
 31
0.0
  0
LINE
  5
28D8
330
1E
100
AcDbEntity
  8
0
100
AcDbLine
 10
3.254921259842519
 20
4.075787401574802
 30
0.0
 11
3.252952755905511
 21
4.077755905511811
 31
0.0
  0
LINE
  5
28D9
330
1E
100
AcDbEntity
  8
0
100
AcDbLine
 10
3.24507874015748
 20
4.068897637795275
 30
0.0
 11
3.247047244094487
 21
4.067913385826771
 31
0.0
  0
LINE
  5
28DA
330
1E
100
AcDbEntity
  8
0
100
AcDbLine
 10
3.119094488188976
 20
4.072834645669291
 30
0.0
 11
3.125984251968503
 21
4.068897637795275
 31
0.0
  0
LINE
  5
28DB
330
1E
100
AcDbEntity
  8
0
100
AcDbLine
 10
1.812007874015747
 20
4.072834645669291
 30
0.0
 11
1.804133858267716
 21
4.068897637795275
 31
0.0
  0
LINE
  5
28DC
330
1E
100
AcDbEntity
  8
0
100
AcDbLine
 10
1.686023622047243
 20
4.068897637795275
 30
0.0
 11
1.684055118110236
 21
4.067913385826771
 31
0.0
  0
LINE
  5
28DD
330
1E
100
AcDbEntity
  8
0
100
AcDbLine
 10
1.676181102362204
 20
4.075787401574802
 30
0.0
 11
1.677165354330708
 21
4.077755905511811
 31
0.0
  0
LINE
  5
28DE
330
1E
100
AcDbEntity
  8
0
100
AcDbLine
 10
1.677165354330708
 20
4.174212598425197
 30
0.0
 11
1.679133858267716
 21
4.174212598425197
 31
0.0
  0
LINE
  5
28DF
330
1E
100
AcDbEntity
  8
0
100
AcDbLine
 10
1.58267716535433
 20
3.947834645669291
 30
0.0
 11
1.580708661417322
 21
3.945866141732283
 31
0.0
  0
LINE
  5
2B53
330
1E
100
AcDbEntity
  8
0
100
AcDbLine
 10
5.533464566929133
 20
5.528543307086613
 30
0.0
 11
5.651574803149606
 21
5.539370078740157
 31
0.0
  0
POLYLINE
  5
2B54
330
1E
100
AcDbEntity
  8
0
100
AcDb2dPolyline
 66
     1
 10
0.0
 20
0.0
 30
0.0
  0
VERTEX
  5
2F63
330
2B54
100
AcDbEntity
  8
0
100
AcDbVertex
100
AcDb2dVertex
 10
5.524606299212598
 20
5.518700787401574
 30
0.0
  0
VERTEX
  5
2F64
330
2B54
100
AcDbEntity
  8
0
100
AcDbVertex
100
AcDb2dVertex
 10
5.52755905511811
 20
5.525590551181101
 30
0.0
  0
VERTEX
  5
2F65
330
2B54
100
AcDbEntity
  8
0
100
AcDbVertex
100
AcDb2dVertex
 10
5.533464566929133
 20
5.528543307086613
 30
0.0
  0
SEQEND
  5
2F66
330
2B54
100
AcDbEntity
  8
0
  0
LINE
  5
2B59
330
1E
100
AcDbEntity
  8
0
100
AcDbLine
 10
4.874015748031496
 20
4.808070866141732
 30
0.0
 11
5.406496062992125
 21
5.340551181102362
 31
0.0
  0
LINE
  5
2B5A
330
1E
100
AcDbEntity
  8
0
100
AcDbLine
 10
5.406496062992125
 20
5.214566929133858
 30
0.0
 11
4.935039370078739
 21
4.742125984251968
 31
0.0
  0
LINE
  5
2B5B
330
1E
100
AcDbEntity
  8
0
100
AcDbLine
 10
4.935039370078739
 20
4.742125984251968
 30
0.0
 11
5.406496062992125
 21
4.270669291338582
 31
0.0
  0
LINE
  5
2B5C
330
1E
100
AcDbEntity
  8
0
100
AcDbLine
 10
5.406496062992125
 20
4.144685039370078
 30
0.0
 11
4.874015748031496
 21
4.677165354330708
 31
0.0
  0
LINE
  5
2B5D
330
1E
100
AcDbEntity
  8
0
100
AcDbLine
 10
5.594488188976377
 20
4.156496062992125
 30
0.0
 11
5.594488188976377
 21
4.174212598425197
 31
0.0
  0
LINE
  5
2B5E
330
1E
100
AcDbEntity
  8
0
100
AcDbLine
 10
5.812992125984251
 20
4.275590551181101
 30
0.0
 11
5.812992125984251
 21
4.248031496062991
 31
0.0
  0
POLYLINE
  5
2B5F
330
1E
100
AcDbEntity
  8
0
100
AcDb2dPolyline
 66
     1
 10
0.0
 20
0.0
 30
0.0
  0
VERTEX
  5
2F67
330
2B5F
100
AcDbEntity
  8
0
100
AcDbVertex
100
AcDb2dVertex
 10
5.698818897637795
 20
4.128937007874015
 30
0.0
  0
VERTEX
  5
2F68
330
2B5F
100
AcDbEntity
  8
0
100
AcDbVertex
100
AcDb2dVertex
 10
5.729330708661417
 20
4.133858267716535
 30
0.0
  0
VERTEX
  5
2F69
330
2B5F
100
AcDbEntity
  8
0
100
AcDbVertex
100
AcDb2dVertex
 10
5.756889763779527
 20
4.146653543307086
 30
0.0
  0
VERTEX
  5
2F6A
330
2B5F
100
AcDbEntity
  8
0
100
AcDbVertex
100
AcDb2dVertex
 10
5.779527559055117
 20
4.165354330708661
 30
0.0
  0
VERTEX
  5
2F6B
330
2B5F
100
AcDbEntity
  8
0
100
AcDbVertex
100
AcDb2dVertex
 10
5.798228346456692
 20
4.18996062992126
 30
0.0
  0
VERTEX
  5
2F6C
330
2B5F
100
AcDbEntity
  8
0
100
AcDbVertex
100
AcDb2dVertex
 10
5.809055118110236
 20
4.218503937007874
 30
0.0
  0
VERTEX
  5
2F6D
330
2B5F
100
AcDbEntity
  8
0
100
AcDbVertex
100
AcDb2dVertex
 10
5.812992125984251
 20
4.248031496062991
 30
0.0
  0
SEQEND
  5
2F6E
330
2B5F
100
AcDbEntity
  8
0
  0
LINE
  5
2B68
330
1E
100
AcDbEntity
  8
0
100
AcDbLine
 10
5.524606299212598
 20
4.155511811023622
 30
0.0
 11
5.594488188976377
 21
4.156496062992125
 31
0.0
  0
LINE
  5
2B69
330
1E
100
AcDbEntity
  8
0
100
AcDbLine
 10
5.524606299212598
 20
4.119094488188975
 30
0.0
 11
5.698818897637795
 21
4.128937007874015
 31
0.0
  0
LINE
  5
2B6A
330
1E
100
AcDbEntity
  8
0
100
AcDbLine
 10
5.769685039370078
 20
4.896653543307086
 30
0.0
 11
5.775590551181101
 21
4.895669291338582
 31
0.0
  0
LINE
  5
2B6B
330
1E
100
AcDbEntity
  8
0
100
AcDbLine
 10
5.775590551181101
 20
4.895669291338582
 30
0.0
 11
5.795275590551181
 21
4.895669291338582
 31
0.0
  0
LINE
  5
2B6C
330
1E
100
AcDbEntity
  8
0
100
AcDbLine
 10
5.924212598425197
 20
4.890748031496062
 30
0.0
 11
5.795275590551181
 21
4.895669291338582
 31
0.0
  0
LINE
  5
2B6D
330
1E
100
AcDbEntity
  8
0
100
AcDbLine
 10
5.924212598425197
 20
4.594488188976377
 30
0.0
 11
5.795275590551181
 21
4.589566929133858
 31
0.0
  0
LINE
  5
2B6E
330
1E
100
AcDbEntity
  8
0
100
AcDbLine
 10
5.775590551181101
 20
4.588582677165354
 30
0.0
 11
5.795275590551181
 21
4.589566929133858
 31
0.0
  0
LINE
  5
2B6F
330
1E
100
AcDbEntity
  8
0
100
AcDbLine
 10
5.769685039370078
 20
4.588582677165354
 30
0.0
 11
5.775590551181101
 21
4.588582677165354
 31
0.0
  0
LINE
  5
2B70
330
1E
100
AcDbEntity
  8
0
100
AcDbLine
 10
5.795275590551181
 20
4.589566929133858
 30
0.0
 11
5.795275590551181
 21
4.895669291338582
 31
0.0
  0
LINE
  5
2B71
330
1E
100
AcDbEntity
  8
0
100
AcDbLine
 10
5.775590551181101
 20
4.895669291338582
 30
0.0
 11
5.775590551181101
 21
4.588582677165354
 31
0.0
  0
LINE
  5
2B72
330
1E
100
AcDbEntity
  8
0
100
AcDbLine
 10
5.924212598425197
 20
4.890748031496062
 30
0.0
 11
5.924212598425197
 21
4.594488188976377
 31
0.0
  0
POLYLINE
  5
2B73
330
1E
100
AcDbEntity
  8
0
100
AcDb2dPolyline
 66
     1
 10
0.0
 20
0.0
 30
0.0
  0
VERTEX
  5
2F6F
330
2B73
100
AcDbEntity
  8
0
100
AcDbVertex
100
AcDb2dVertex
 10
4.874015748031496
 20
4.677165354330708
 30
0.0
  0
VERTEX
  5
2F70
330
2B73
100
AcDbEntity
  8
0
100
AcDbVertex
100
AcDb2dVertex
 10
4.857283464566928
 20
4.699803149606299
 30
0.0
  0
VERTEX
  5
2F71
330
2B73
100
AcDbEntity
  8
0
100
AcDbVertex
100
AcDb2dVertex
 10
4.848425196850393
 20
4.728346456692912
 30
0.0
  0
VERTEX
  5
2F72
330
2B73
100
AcDbEntity
  8
0
100
AcDbVertex
100
AcDb2dVertex
 10
4.848425196850393
 20
4.756889763779527
 30
0.0
  0
VERTEX
  5
2F73
330
2B73
100
AcDbEntity
  8
0
100
AcDbVertex
100
AcDb2dVertex
 10
4.857283464566928
 20
4.784448818897637
 30
0.0
  0
VERTEX
  5
2F74
330
2B73
100
AcDbEntity
  8
0
100
AcDbVertex
100
AcDb2dVertex
 10
4.874015748031496
 20
4.808070866141732
 30
0.0
  0
SEQEND
  5
2F75
330
2B73
100
AcDbEntity
  8
0
  0
POLYLINE
  5
2B7B
330
1E
100
AcDbEntity
  8
0
100
AcDb2dPolyline
 66
     1
 10
0.0
 20
0.0
 30
0.0
  0
VERTEX
  5
2F76
330
2B7B
100
AcDbEntity
  8
0
100
AcDbVertex
100
AcDb2dVertex
 10
4.935039370078739
 20
4.742125984251968
 30
0.0
  0
VERTEX
  5
2F77
330
2B7B
100
AcDbEntity
  8
0
100
AcDbVertex
100
AcDb2dVertex
 10
4.915354330708661
 20
4.76279527559055
 30
0.0
  0
VERTEX
  5
2F78
330
2B7B
100
AcDbEntity
  8
0
100
AcDbVertex
100
AcDb2dVertex
 10
4.89763779527559
 20
4.780511811023622
 30
0.0
  0
VERTEX
  5
2F79
330
2B7B
100
AcDbEntity
  8
0
100
AcDbVertex
100
AcDb2dVertex
 10
4.884842519685038
 20
4.795275590551181
 30
0.0
  0
VERTEX
  5
2F7A
330
2B7B
100
AcDbEntity
  8
0
100
AcDbVertex
100
AcDb2dVertex
 10
4.875984251968503
 20
4.804133858267716
 30
0.0
  0
VERTEX
  5
2F7B
330
2B7B
100
AcDbEntity
  8
0
100
AcDbVertex
100
AcDb2dVertex
 10
4.874015748031496
 20
4.808070866141732
 30
0.0
  0
SEQEND
  5
2F7C
330
2B7B
100
AcDbEntity
  8
0
  0
POLYLINE
  5
2B83
330
1E
100
AcDbEntity
  8
0
100
AcDb2dPolyline
 66
     1
 10
0.0
 20
0.0
 30
0.0
  0
VERTEX
  5
2F7D
330
2B83
100
AcDbEntity
  8
0
100
AcDbVertex
100
AcDb2dVertex
 10
4.935039370078739
 20
4.742125984251968
 30
0.0
  0
VERTEX
  5
2F7E
330
2B83
100
AcDbEntity
  8
0
100
AcDbVertex
100
AcDb2dVertex
 10
4.915354330708661
 20
4.722440944881889
 30
0.0
  0
VERTEX
  5
2F7F
330
2B83
100
AcDbEntity
  8
0
100
AcDbVertex
100
AcDb2dVertex
 10
4.89763779527559
 20
4.704724409448818
 30
0.0
  0
VERTEX
  5
2F80
330
2B83
100
AcDbEntity
  8
0
100
AcDbVertex
100
AcDb2dVertex
 10
4.884842519685038
 20
4.68996062992126
 30
0.0
  0
VERTEX
  5
2F81
330
2B83
100
AcDbEntity
  8
0
100
AcDbVertex
100
AcDb2dVertex
 10
4.875984251968503
 20
4.68011811023622
 30
0.0
  0
VERTEX
  5
2F82
330
2B83
100
AcDbEntity
  8
0
100
AcDbVertex
100
AcDb2dVertex
 10
4.874015748031496
 20
4.677165354330708
 30
0.0
  0
SEQEND
  5
2F83
330
2B83
100
AcDbEntity
  8
0
  0
LINE
  5
2B8B
330
1E
100
AcDbEntity
  8
0
100
AcDbLine
 10
5.679133858267716
 20
4.125
 30
0.0
 11
5.679133858267716
 21
4.127952755905512
 31
0.0
  0
LINE
  5
2B8C
330
1E
100
AcDbEntity
  8
0
100
AcDbLine
 10
5.524606299212598
 20
4.086614173228346
 30
0.0
 11
5.643700787401574
 21
4.089566929133858
 31
0.0
  0
LINE
  5
2B8D
330
1E
100
AcDbEntity
  8
0
100
AcDbLine
 10
5.643700787401574
 20
4.089566929133858
 30
0.0
 11
5.679133858267716
 21
4.125
 31
0.0
  0
LINE
  5
2B8E
330
1E
100
AcDbEntity
  8
0
100
AcDbLine
 10
5.690944881889763
 20
4.982283464566928
 30
0.0
 11
5.769685039370078
 21
4.981299212598425
 31
0.0
  0
LINE
  5
2B8F
330
1E
100
AcDbEntity
  8
0
100
AcDbLine
 10
5.690944881889763
 20
4.502952755905512
 30
0.0
 11
5.690944881889763
 21
4.982283464566928
 31
0.0
  0
LINE
  5
2B90
330
1E
100
AcDbEntity
  8
0
100
AcDbLine
 10
5.690944881889763
 20
4.502952755905512
 30
0.0
 11
5.769685039370078
 21
4.503937007874015
 31
0.0
  0
LINE
  5
2B91
330
1E
100
AcDbEntity
  8
0
100
AcDbLine
 10
5.769685039370078
 20
4.981299212598425
 30
0.0
 11
5.769685039370078
 21
4.503937007874015
 31
0.0
  0
LINE
  5
2B92
330
1E
100
AcDbEntity
  8
0
100
AcDbLine
 10
5.690944881889763
 20
4.982283464566928
 30
0.0
 11
5.524606299212598
 21
4.98523622047244
 31
0.0
  0
LINE
  5
2B93
330
1E
100
AcDbEntity
  8
0
100
AcDbLine
 10
5.690944881889763
 20
4.502952755905512
 30
0.0
 11
5.524606299212598
 21
4.5
 31
0.0
  0
LINE
  5
2B94
330
1E
100
AcDbEntity
  8
0
100
AcDbLine
 10
5.679133858267716
 20
4.982283464566928
 30
0.0
 11
5.679133858267716
 21
5.45767716535433
 31
0.0
  0
LINE
  5
2B95
330
1E
100
AcDbEntity
  8
0
100
AcDbLine
 10
5.679133858267716
 20
4.502952755905512
 30
0.0
 11
5.679133858267716
 21
4.174212598425197
 31
0.0
  0
LINE
  5
2B96
330
1E
100
AcDbEntity
  8
0
100
AcDbLine
 10
5.524606299212598
 20
4.0501968503937
 30
0.0
 11
5.524606299212598
 21
5.21751968503937
 31
0.0
  0
LINE
  5
2B97
330
1E
100
AcDbEntity
  8
0
100
AcDbLine
 10
5.524606299212598
 20
5.21751968503937
 30
0.0
 11
5.5
 21
5.21751968503937
 31
0.0
  0
LINE
  5
2B98
330
1E
100
AcDbEntity
  8
0
100
AcDbLine
 10
5.5
 20
5.21751968503937
 30
0.0
 11
5.5
 21
4.048228346456692
 31
0.0
  0
LINE
  5
2B99
330
1E
100
AcDbEntity
  8
0
100
AcDbLine
 10
5.5
 20
4.048228346456692
 30
0.0
 11
5.524606299212598
 21
4.0501968503937
 31
0.0
  0
LINE
  5
2B9A
330
1E
100
AcDbEntity
  8
0
100
AcDbLine
 10
5.524606299212598
 20
5.458661417322834
 30
0.0
 11
5.524606299212598
 21
5.812992125984251
 31
0.0
  0
LINE
  5
2B9B
330
1E
100
AcDbEntity
  8
0
100
AcDbLine
 10
5.524606299212598
 20
5.458661417322834
 30
0.0
 11
5.5
 21
5.45767716535433
 31
0.0
  0
LINE
  5
2B9C
330
1E
100
AcDbEntity
  8
0
100
AcDbLine
 10
5.5
 20
5.81496062992126
 30
0.0
 11
5.524606299212598
 21
5.812992125984251
 31
0.0
  0
LINE
  5
2B9D
330
1E
100
AcDbEntity
  8
0
100
AcDbLine
 10
5.5
 20
5.81496062992126
 30
0.0
 11
5.5
 21
5.81496062992126
 31
0.0
  0
LINE
  5
2B9E
330
1E
100
AcDbEntity
  8
0
100
AcDbLine
 10
5.5
 20
5.81496062992126
 30
0.0
 11
5.5
 21
5.45767716535433
 31
0.0
  0
POLYLINE
  5
2B9F
330
1E
100
AcDbEntity
  8
0
100
AcDb2dPolyline
 66
     1
 10
0.0
 20
0.0
 30
0.0
  0
VERTEX
  5
2F84
330
2B9F
100
AcDbEntity
  8
0
100
AcDbVertex
100
AcDb2dVertex
 10
5.406496062992125
 20
5.882874015748031
 30
0.0
  0
VERTEX
  5
2F85
330
2B9F
100
AcDbEntity
  8
0
100
AcDbVertex
100
AcDb2dVertex
 10
5.415354330708661
 20
5.903543307086613
 30
0.0
  0
VERTEX
  5
2F86
330
2B9F
100
AcDbEntity
  8
0
100
AcDbVertex
100
AcDb2dVertex
 10
5.435039370078739
 20
5.912401574803149
 30
0.0
  0
SEQEND
  5
2F87
330
2B9F
100
AcDbEntity
  8
0
  0
POLYLINE
  5
2BA4
330
1E
100
AcDbEntity
  8
0
100
AcDb2dPolyline
 66
     1
 10
0.0
 20
0.0
 30
0.0
  0
VERTEX
  5
2F88
330
2BA4
100
AcDbEntity
  8
0
100
AcDbVertex
100
AcDb2dVertex
 10
5.406496062992125
 20
5.882874015748031
 30
0.0
  0
VERTEX
  5
2F89
330
2BA4
100
AcDbEntity
  8
0
100
AcDbVertex
100
AcDb2dVertex
 10
5.406496062992125
 20
5.878937007874015
 30
0.0
  0
VERTEX
  5
2F8A
330
2BA4
100
AcDbEntity
  8
0
100
AcDbVertex
100
AcDb2dVertex
 10
5.406496062992125
 20
5.869094488188975
 30
0.0
  0
VERTEX
  5
2F8B
330
2BA4
100
AcDbEntity
  8
0
100
AcDbVertex
100
AcDb2dVertex
 10
5.406496062992125
 20
5.854330708661417
 30
0.0
  0
VERTEX
  5
2F8C
330
2BA4
100
AcDbEntity
  8
0
100
AcDbVertex
100
AcDb2dVertex
 10
5.406496062992125
 20
5.834645669291338
 30
0.0
  0
VERTEX
  5
2F8D
330
2BA4
100
AcDbEntity
  8
0
100
AcDbVertex
100
AcDb2dVertex
 10
5.406496062992125
 20
5.812992125984251
 30
0.0
  0
SEQEND
  5
2F8E
330
2BA4
100
AcDbEntity
  8
0
  0
POLYLINE
  5
2BAC
330
1E
100
AcDbEntity
  8
0
100
AcDb2dPolyline
 66
     1
 10
0.0
 20
0.0
 30
0.0
  0
VERTEX
  5
2F8F
330
2BAC
100
AcDbEntity
  8
0
100
AcDbVertex
100
AcDb2dVertex
 10
5.406496062992125
 20
5.812992125984251
 30
0.0
  0
VERTEX
  5
2F90
330
2BAC
100
AcDbEntity
  8
0
100
AcDbVertex
100
AcDb2dVertex
 10
5.415354330708661
 20
5.812992125984251
 30
0.0
  0
VERTEX
  5
2F91
330
2BAC
100
AcDbEntity
  8
0
100
AcDbVertex
100
AcDb2dVertex
 10
5.435039370078739
 20
5.812992125984251
 30
0.0
  0
SEQEND
  5
2F92
330
2BAC
100
AcDbEntity
  8
0
  0
POLYLINE
  5
2BB1
330
1E
100
AcDbEntity
  8
0
100
AcDb2dPolyline
 66
     1
 10
0.0
 20
0.0
 30
0.0
  0
VERTEX
  5
2F93
330
2BB1
100
AcDbEntity
  8
0
100
AcDbVertex
100
AcDb2dVertex
 10
5.435039370078739
 20
5.812992125984251
 30
0.0
  0
VERTEX
  5
2F94
330
2BB1
100
AcDbEntity
  8
0
100
AcDbVertex
100
AcDb2dVertex
 10
5.435039370078739
 20
5.838582677165354
 30
0.0
  0
VERTEX
  5
2F95
330
2BB1
100
AcDbEntity
  8
0
100
AcDbVertex
100
AcDb2dVertex
 10
5.435039370078739
 20
5.863188976377952
 30
0.0
  0
VERTEX
  5
2F96
330
2BB1
100
AcDbEntity
  8
0
100
AcDbVertex
100
AcDb2dVertex
 10
5.435039370078739
 20
5.883858267716535
 30
0.0
  0
VERTEX
  5
2F97
330
2BB1
100
AcDbEntity
  8
0
100
AcDbVertex
100
AcDb2dVertex
 10
5.435039370078739
 20
5.899606299212598
 30
0.0
  0
VERTEX
  5
2F98
330
2BB1
100
AcDbEntity
  8
0
100
AcDbVertex
100
AcDb2dVertex
 10
5.435039370078739
 20
5.909448818897637
 30
0.0
  0
VERTEX
  5
2F99
330
2BB1
100
AcDbEntity
  8
0
100
AcDbVertex
100
AcDb2dVertex
 10
5.435039370078739
 20
5.912401574803149
 30
0.0
  0
SEQEND
  5
2F9A
330
2BB1
100
AcDbEntity
  8
0
  0
LINE
  5
2BBA
330
1E
100
AcDbEntity
  8
0
100
AcDbLine
 10
5.435039370078739
 20
4.048228346456692
 30
0.0
 11
5.435039370078739
 21
5.812992125984251
 31
0.0
  0
LINE
  5
2BBB
330
1E
100
AcDbEntity
  8
0
100
AcDbLine
 10
5.406496062992125
 20
5.812992125984251
 30
0.0
 11
5.406496062992125
 21
4.048228346456692
 31
0.0
  0
POLYLINE
  5
2BBC
330
1E
100
AcDbEntity
  8
0
100
AcDb2dPolyline
 66
     1
 10
0.0
 20
0.0
 30
0.0
  0
VERTEX
  5
2F9B
330
2BBC
100
AcDbEntity
  8
0
100
AcDbVertex
100
AcDb2dVertex
 10
5.406496062992125
 20
4.048228346456692
 30
0.0
  0
VERTEX
  5
2F9C
330
2BBC
100
AcDbEntity
  8
0
100
AcDbVertex
100
AcDb2dVertex
 10
5.415354330708661
 20
4.048228346456692
 30
0.0
  0
VERTEX
  5
2F9D
330
2BBC
100
AcDbEntity
  8
0
100
AcDbVertex
100
AcDb2dVertex
 10
5.435039370078739
 20
4.048228346456692
 30
0.0
  0
SEQEND
  5
2F9E
330
2BBC
100
AcDbEntity
  8
0
  0
LINE
  5
2BC1
330
1E
100
AcDbEntity
  8
0
100
AcDbLine
 10
5.524606299212598
 20
5.90255905511811
 30
0.0
 11
5.524606299212598
 21
5.812992125984251
 31
0.0
  0
LINE
  5
2BC2
330
1E
100
AcDbEntity
  8
0
100
AcDbLine
 10
5.524606299212598
 20
5.90255905511811
 30
0.0
 11
5.5
 21
5.90255905511811
 31
0.0
  0
LINE
  5
2BC3
330
1E
100
AcDbEntity
  8
0
100
AcDbLine
 10
5.64763779527559
 20
5.673228346456692
 30
0.0
 11
5.524606299212598
 21
5.671259842519685
 31
0.0
  0
LINE
  5
2BC4
330
1E
100
AcDbEntity
  8
0
100
AcDbLine
 10
5.64763779527559
 20
5.673228346456692
 30
0.0
 11
5.64763779527559
 21
5.722440944881889
 31
0.0
  0
LINE
  5
2BC5
330
1E
100
AcDbEntity
  8
0
100
AcDbLine
 10
5.64763779527559
 20
5.722440944881889
 30
0.0
 11
5.524606299212598
 21
5.725393700787401
 31
0.0
  0
LINE
  5
2BC6
330
1E
100
AcDbEntity
  8
0
100
AcDbLine
 10
5.5
 20
5.45767716535433
 30
0.0
 11
5.5
 21
5.21751968503937
 31
0.0
  0
LINE
  5
2BC7
330
1E
100
AcDbEntity
  8
0
100
AcDbLine
 10
5.435039370078739
 20
5.812992125984251
 30
0.0
 11
5.5
 21
5.81496062992126
 31
0.0
  0
LINE
  5
2BC8
330
1E
100
AcDbEntity
  8
0
100
AcDbLine
 10
5.5
 20
4.046259842519685
 30
0.0
 11
5.435039370078739
 21
4.048228346456692
 31
0.0
  0
LINE
  5
2BC9
330
1E
100
AcDbEntity
  8
0
100
AcDbLine
 10
5.5
 20
4.048228346456692
 30
0.0
 11
5.5
 21
4.046259842519685
 31
0.0
  0
POLYLINE
  5
2BCA
330
1E
100
AcDbEntity
  8
0
100
AcDb2dPolyline
 66
     1
 10
0.0
 20
0.0
 30
0.0
  0
VERTEX
  5
2F9F
330
2BCA
100
AcDbEntity
  8
0
100
AcDbVertex
100
AcDb2dVertex
 10
5.5
 20
5.81496062992126
 30
0.0
  0
VERTEX
  5
2FA0
330
2BCA
100
AcDbEntity
  8
0
100
AcDbVertex
100
AcDb2dVertex
 10
5.5
 20
5.840551181102362
 30
0.0
  0
VERTEX
  5
2FA1
330
2BCA
100
AcDbEntity
  8
0
100
AcDbVertex
100
AcDb2dVertex
 10
5.5
 20
5.86515748031496
 30
0.0
  0
VERTEX
  5
2FA2
330
2BCA
100
AcDbEntity
  8
0
100
AcDbVertex
100
AcDb2dVertex
 10
5.5
 20
5.885826771653543
 30
0.0
  0
VERTEX
  5
2FA3
330
2BCA
100
AcDbEntity
  8
0
100
AcDbVertex
100
AcDb2dVertex
 10
5.5
 20
5.901574803149606
 30
0.0
  0
VERTEX
  5
2FA4
330
2BCA
100
AcDbEntity
  8
0
100
AcDbVertex
100
AcDb2dVertex
 10
5.5
 20
5.911417322834645
 30
0.0
  0
VERTEX
  5
2FA5
330
2BCA
100
AcDbEntity
  8
0
100
AcDbVertex
100
AcDb2dVertex
 10
5.5
 20
5.915354330708661
 30
0.0
  0
SEQEND
  5
2FA6
330
2BCA
100
AcDbEntity
  8
0
  0
LINE
  5
2BD3
330
1E
100
AcDbEntity
  8
0
100
AcDbLine
 10
5.5
 20
5.915354330708661
 30
0.0
 11
5.435039370078739
 21
5.912401574803149
 31
0.0
  0
POLYLINE
  5
2BD4
330
1E
100
AcDbEntity
  8
0
100
AcDb2dPolyline
 66
     1
 10
0.0
 20
0.0
 30
0.0
  0
VERTEX
  5
2FA7
330
2BD4
100
AcDbEntity
  8
0
100
AcDbVertex
100
AcDb2dVertex
 10
5.406496062992125
 20
4.048228346456692
 30
0.0
  0
VERTEX
  5
2FA8
330
2BD4
100
AcDbEntity
  8
0
100
AcDbVertex
100
AcDb2dVertex
 10
5.406496062992125
 20
4.026574803149606
 30
0.0
  0
VERTEX
  5
2FA9
330
2BD4
100
AcDbEntity
  8
0
100
AcDbVertex
100
AcDb2dVertex
 10
5.406496062992125
 20
4.006889763779527
 30
0.0
  0
VERTEX
  5
2FAA
330
2BD4
100
AcDbEntity
  8
0
100
AcDbVertex
100
AcDb2dVertex
 10
5.406496062992125
 20
3.991141732283464
 30
0.0
  0
VERTEX
  5
2FAB
330
2BD4
100
AcDbEntity
  8
0
100
AcDbVertex
100
AcDb2dVertex
 10
5.406496062992125
 20
3.981299212598425
 30
0.0
  0
VERTEX
  5
2FAC
330
2BD4
100
AcDbEntity
  8
0
100
AcDbVertex
100
AcDb2dVertex
 10
5.406496062992125
 20
3.978346456692913
 30
0.0
  0
SEQEND
  5
2FAD
330
2BD4
100
AcDbEntity
  8
0
  0
POLYLINE
  5
2BDC
330
1E
100
AcDbEntity
  8
0
100
AcDb2dPolyline
 66
     1
 10
0.0
 20
0.0
 30
0.0
  0
VERTEX
  5
2FAE
330
2BDC
100
AcDbEntity
  8
0
100
AcDbVertex
100
AcDb2dVertex
 10
5.435039370078739
 20
3.947834645669291
 30
0.0
  0
VERTEX
  5
2FAF
330
2BDC
100
AcDbEntity
  8
0
100
AcDbVertex
100
AcDb2dVertex
 10
5.415354330708661
 20
3.95767716535433
 30
0.0
  0
VERTEX
  5
2FB0
330
2BDC
100
AcDbEntity
  8
0
100
AcDbVertex
100
AcDb2dVertex
 10
5.406496062992125
 20
3.978346456692913
 30
0.0
  0
SEQEND
  5
2FB1
330
2BDC
100
AcDbEntity
  8
0
  0
POLYLINE
  5
2BE1
330
1E
100
AcDbEntity
  8
0
100
AcDb2dPolyline
 66
     1
 10
0.0
 20
0.0
 30
0.0
  0
VERTEX
  5
2FB2
330
2BE1
100
AcDbEntity
  8
0
100
AcDbVertex
100
AcDb2dVertex
 10
5.435039370078739
 20
3.947834645669291
 30
0.0
  0
VERTEX
  5
2FB3
330
2BE1
100
AcDbEntity
  8
0
100
AcDbVertex
100
AcDb2dVertex
 10
5.435039370078739
 20
3.951771653543307
 30
0.0
  0
VERTEX
  5
2FB4
330
2BE1
100
AcDbEntity
  8
0
100
AcDbVertex
100
AcDb2dVertex
 10
5.435039370078739
 20
3.961614173228346
 30
0.0
  0
VERTEX
  5
2FB5
330
2BE1
100
AcDbEntity
  8
0
100
AcDbVertex
100
AcDb2dVertex
 10
5.435039370078739
 20
3.977362204724409
 30
0.0
  0
VERTEX
  5
2FB6
330
2BE1
100
AcDbEntity
  8
0
100
AcDbVertex
100
AcDb2dVertex
 10
5.435039370078739
 20
3.998031496062992
 30
0.0
  0
VERTEX
  5
2FB7
330
2BE1
100
AcDbEntity
  8
0
100
AcDbVertex
100
AcDb2dVertex
 10
5.435039370078739
 20
4.02263779527559
 30
0.0
  0
VERTEX
  5
2FB8
330
2BE1
100
AcDbEntity
  8
0
100
AcDbVertex
100
AcDb2dVertex
 10
5.435039370078739
 20
4.048228346456692
 30
0.0
  0
SEQEND
  5
2FB9
330
2BE1
100
AcDbEntity
  8
0
  0
LINE
  5
2BEA
330
1E
100
AcDbEntity
  8
0
100
AcDbLine
 10
5.679133858267716
 20
5.45767716535433
 30
0.0
 11
5.524606299212598
 21
5.460629921259842
 31
0.0
  0
LINE
  5
2BEB
330
1E
100
AcDbEntity
  8
0
100
AcDbLine
 10
5.679133858267716
 20
4.174212598425197
 30
0.0
 11
5.524606299212598
 21
4.174212598425197
 31
0.0
  0
LINE
  5
2BEC
330
1E
100
AcDbEntity
  8
0
100
AcDbLine
 10
5.435039370078739
 20
3.947834645669291
 30
0.0
 11
5.5
 21
3.945866141732283
 31
0.0
  0
POLYLINE
  5
2BED
330
1E
100
AcDbEntity
  8
0
100
AcDb2dPolyline
 66
     1
 10
0.0
 20
0.0
 30
0.0
  0
VERTEX
  5
2FBA
330
2BED
100
AcDbEntity
  8
0
100
AcDbVertex
100
AcDb2dVertex
 10
5.5
 20
3.945866141732283
 30
0.0
  0
VERTEX
  5
2FBB
330
2BED
100
AcDbEntity
  8
0
100
AcDbVertex
100
AcDb2dVertex
 10
5.5
 20
3.949803149606299
 30
0.0
  0
VERTEX
  5
2FBC
330
2BED
100
AcDbEntity
  8
0
100
AcDbVertex
100
AcDb2dVertex
 10
5.5
 20
3.959645669291338
 30
0.0
  0
VERTEX
  5
2FBD
330
2BED
100
AcDbEntity
  8
0
100
AcDbVertex
100
AcDb2dVertex
 10
5.5
 20
3.975393700787401
 30
0.0
  0
VERTEX
  5
2FBE
330
2BED
100
AcDbEntity
  8
0
100
AcDbVertex
100
AcDb2dVertex
 10
5.5
 20
3.996062992125984
 30
0.0
  0
VERTEX
  5
2FBF
330
2BED
100
AcDbEntity
  8
0
100
AcDbVertex
100
AcDb2dVertex
 10
5.5
 20
4.019685039370078
 30
0.0
  0
VERTEX
  5
2FC0
330
2BED
100
AcDbEntity
  8
0
100
AcDbVertex
100
AcDb2dVertex
 10
5.5
 20
4.046259842519685
 30
0.0
  0
SEQEND
  5
2FC1
330
2BED
100
AcDbEntity
  8
0
  0
LINE
  5
2BF6
330
1E
100
AcDbEntity
  8
0
100
AcDbLine
 10
5.769685039370078
 20
4.981299212598425
 30
0.0
 11
5.769685039370078
 21
5.455708661417323
 31
0.0
  0
LINE
  5
2BF7
330
1E
100
AcDbEntity
  8
0
100
AcDbLine
 10
5.769685039370078
 20
5.455708661417323
 30
0.0
 11
5.679133858267716
 21
5.45767716535433
 31
0.0
  0
POLYLINE
  5
2BF8
330
1E
100
AcDbEntity
  8
0
100
AcDb2dPolyline
 66
     1
 10
0.0
 20
0.0
 30
0.0
  0
VERTEX
  5
2FC2
330
2BF8
100
AcDbEntity
  8
0
100
AcDbVertex
100
AcDb2dVertex
 10
5.651574803149606
 20
5.840551181102362
 30
0.0
  0
VERTEX
  5
2FC3
330
2BF8
100
AcDbEntity
  8
0
100
AcDbVertex
100
AcDb2dVertex
 10
5.651574803149606
 20
5.818897637795275
 30
0.0
  0
VERTEX
  5
2FC4
330
2BF8
100
AcDbEntity
  8
0
100
AcDbVertex
100
AcDb2dVertex
 10
5.651574803149606
 20
5.790354330708661
 30
0.0
  0
VERTEX
  5
2FC5
330
2BF8
100
AcDbEntity
  8
0
100
AcDbVertex
100
AcDb2dVertex
 10
5.651574803149606
 20
5.756889763779527
 30
0.0
  0
VERTEX
  5
2FC6
330
2BF8
100
AcDbEntity
  8
0
100
AcDbVertex
100
AcDb2dVertex
 10
5.651574803149606
 20
5.719488188976377
 30
0.0
  0
VERTEX
  5
2FC7
330
2BF8
100
AcDbEntity
  8
0
100
AcDbVertex
100
AcDb2dVertex
 10
5.651574803149606
 20
5.68011811023622
 30
0.0
  0
VERTEX
  5
2FC8
330
2BF8
100
AcDbEntity
  8
0
100
AcDbVertex
100
AcDb2dVertex
 10
5.651574803149606
 20
5.64271653543307
 30
0.0
  0
VERTEX
  5
2FC9
330
2BF8
100
AcDbEntity
  8
0
100
AcDbVertex
100
AcDb2dVertex
 10
5.651574803149606
 20
5.608267716535433
 30
0.0
  0
VERTEX
  5
2FCA
330
2BF8
100
AcDbEntity
  8
0
100
AcDbVertex
100
AcDb2dVertex
 10
5.651574803149606
 20
5.579724409448818
 30
0.0
  0
VERTEX
  5
2FCB
330
2BF8
100
AcDbEntity
  8
0
100
AcDbVertex
100
AcDb2dVertex
 10
5.651574803149606
 20
5.557086614173228
 30
0.0
  0
VERTEX
  5
2FCC
330
2BF8
100
AcDbEntity
  8
0
100
AcDbVertex
100
AcDb2dVertex
 10
5.651574803149606
 20
5.543307086614173
 30
0.0
  0
VERTEX
  5
2FCD
330
2BF8
100
AcDbEntity
  8
0
100
AcDbVertex
100
AcDb2dVertex
 10
5.651574803149606
 20
5.539370078740157
 30
0.0
  0
SEQEND
  5
2FCE
330
2BF8
100
AcDbEntity
  8
0
  0
POLYLINE
  5
2C06
330
1E
100
AcDbEntity
  8
0
100
AcDb2dPolyline
 66
     1
 10
0.0
 20
0.0
 30
0.0
  0
VERTEX
  5
2FCF
330
2C06
100
AcDbEntity
  8
0
100
AcDbVertex
100
AcDb2dVertex
 10
5.533464566929133
 20
5.84251968503937
 30
0.0
  0
VERTEX
  5
2FD0
330
2C06
100
AcDbEntity
  8
0
100
AcDbVertex
100
AcDb2dVertex
 10
5.533464566929133
 20
5.811023622047244
 30
0.0
  0
VERTEX
  5
2FD1
330
2C06
100
AcDbEntity
  8
0
100
AcDbVertex
100
AcDb2dVertex
 10
5.533464566929133
 20
5.770669291338582
 30
0.0
  0
VERTEX
  5
2FD2
330
2C06
100
AcDbEntity
  8
0
100
AcDbVertex
100
AcDb2dVertex
 10
5.533464566929133
 20
5.724409448818897
 30
0.0
  0
SEQEND
  5
2FD3
330
2C06
100
AcDbEntity
  8
0
  0
POLYLINE
  5
2C0C
330
1E
100
AcDbEntity
  8
0
100
AcDb2dPolyline
 66
     1
 10
0.0
 20
0.0
 30
0.0
  0
VERTEX
  5
2FD4
330
2C0C
100
AcDbEntity
  8
0
100
AcDbVertex
100
AcDb2dVertex
 10
5.533464566929133
 20
5.671259842519685
 30
0.0
  0
VERTEX
  5
2FD5
330
2C0C
100
AcDbEntity
  8
0
100
AcDbVertex
100
AcDb2dVertex
 10
5.533464566929133
 20
5.632874015748031
 30
0.0
  0
VERTEX
  5
2FD6
330
2C0C
100
AcDbEntity
  8
0
100
AcDbVertex
100
AcDb2dVertex
 10
5.533464566929133
 20
5.598425196850393
 30
0.0
  0
VERTEX
  5
2FD7
330
2C0C
100
AcDbEntity
  8
0
100
AcDbVertex
100
AcDb2dVertex
 10
5.533464566929133
 20
5.568897637795275
 30
0.0
  0
VERTEX
  5
2FD8
330
2C0C
100
AcDbEntity
  8
0
100
AcDbVertex
100
AcDb2dVertex
 10
5.533464566929133
 20
5.547244094488188
 30
0.0
  0
VERTEX
  5
2FD9
330
2C0C
100
AcDbEntity
  8
0
100
AcDbVertex
100
AcDb2dVertex
 10
5.533464566929133
 20
5.533464566929133
 30
0.0
  0
VERTEX
  5
2FDA
330
2C0C
100
AcDbEntity
  8
0
100
AcDbVertex
100
AcDb2dVertex
 10
5.533464566929133
 20
5.528543307086613
 30
0.0
  0
SEQEND
  5
2FDB
330
2C0C
100
AcDbEntity
  8
0
  0
LINE
  5
2C15
330
1E
100
AcDbEntity
  8
0
100
AcDbLine
 10
5.533464566929133
 20
5.84251968503937
 30
0.0
 11
5.651574803149606
 21
5.840551181102362
 31
0.0
  0
POLYLINE
  5
2C16
330
1E
100
AcDbEntity
  8
0
100
AcDb2dPolyline
 66
     1
 10
0.0
 20
0.0
 30
0.0
  0
VERTEX
  5
2FDC
330
2C16
100
AcDbEntity
  8
0
100
AcDbVertex
100
AcDb2dVertex
 10
5.533464566929133
 20
5.84251968503937
 30
0.0
  0
VERTEX
  5
2FDD
330
2C16
100
AcDbEntity
  8
0
100
AcDbVertex
100
AcDb2dVertex
 10
5.532480314960629
 20
5.84251968503937
 30
0.0
  0
VERTEX
  5
2FDE
330
2C16
100
AcDbEntity
  8
0
100
AcDbVertex
100
AcDb2dVertex
 10
5.530511811023622
 20
5.84251968503937
 30
0.0
  0
VERTEX
  5
2FDF
330
2C16
100
AcDbEntity
  8
0
100
AcDbVertex
100
AcDb2dVertex
 10
5.52755905511811
 20
5.84251968503937
 30
0.0
  0
VERTEX
  5
2FE0
330
2C16
100
AcDbEntity
  8
0
100
AcDbVertex
100
AcDb2dVertex
 10
5.525590551181101
 20
5.84251968503937
 30
0.0
  0
VERTEX
  5
2FE1
330
2C16
100
AcDbEntity
  8
0
100
AcDbVertex
100
AcDb2dVertex
 10
5.524606299212598
 20
5.84251968503937
 30
0.0
  0
SEQEND
  5
2FE2
330
2C16
100
AcDbEntity
  8
0
  0
LINE
  5
2C1E
330
1E
100
AcDbEntity
  8
0
100
AcDbLine
 10
5.965551181102362
 20
4.500984251968503
 30
0.0
 11
5.850393700787401
 21
4.502952755905512
 31
0.0
  0
LINE
  5
2C1F
330
1E
100
AcDbEntity
  8
0
100
AcDbLine
 10
5.850393700787401
 20
4.502952755905512
 30
0.0
 11
5.850393700787401
 21
4.502952755905512
 31
0.0
  0
POLYLINE
  5
2C20
330
1E
100
AcDbEntity
  8
0
100
AcDb2dPolyline
 66
     1
 10
0.0
 20
0.0
 30
0.0
  0
VERTEX
  5
2FE3
330
2C20
100
AcDbEntity
  8
0
100
AcDbVertex
100
AcDb2dVertex
 10
5.709645669291338
 20
4.265748031496062
 30
0.0
  0
VERTEX
  5
2FE4
330
2C20
100
AcDbEntity
  8
0
100
AcDbVertex
100
AcDb2dVertex
 10
5.715551181102362
 20
4.279527559055117
 30
0.0
  0
VERTEX
  5
2FE5
330
2C20
100
AcDbEntity
  8
0
100
AcDbVertex
100
AcDb2dVertex
 10
5.730314960629921
 20
4.284448818897637
 30
0.0
  0
SEQEND
  5
2FE6
330
2C20
100
AcDbEntity
  8
0
  0
LINE
  5
2C25
330
1E
100
AcDbEntity
  8
0
100
AcDbLine
 10
5.730314960629921
 20
4.284448818897637
 30
0.0
 11
5.795275590551181
 21
4.284448818897637
 31
0.0
  0
POLYLINE
  5
2C26
330
1E
100
AcDbEntity
  8
0
100
AcDb2dPolyline
 66
     1
 10
0.0
 20
0.0
 30
0.0
  0
VERTEX
  5
2FE7
330
2C26
100
AcDbEntity
  8
0
100
AcDbVertex
100
AcDb2dVertex
 10
5.795275590551181
 20
4.284448818897637
 30
0.0
  0
VERTEX
  5
2FE8
330
2C26
100
AcDbEntity
  8
0
100
AcDbVertex
100
AcDb2dVertex
 10
5.812007874015748
 20
4.275590551181101
 30
0.0
  0
VERTEX
  5
2FE9
330
2C26
100
AcDbEntity
  8
0
100
AcDbVertex
100
AcDb2dVertex
 10
5.824803149606299
 20
4.261811023622047
 30
0.0
  0
SEQEND
  5
2FEA
330
2C26
100
AcDbEntity
  8
0
  0
LINE
  5
2C2B
330
1E
100
AcDbEntity
  8
0
100
AcDbLine
 10
5.850393700787401
 20
4.222440944881889
 30
0.0
 11
5.824803149606299
 21
4.261811023622047
 31
0.0
  0
LINE
  5
2C2C
330
1E
100
AcDbEntity
  8
0
100
AcDbLine
 10
5.850393700787401
 20
4.222440944881889
 30
0.0
 11
5.859251968503937
 21
4.218503937007874
 31
0.0
  0
LINE
  5
2C2D
330
1E
100
AcDbEntity
  8
0
100
AcDbLine
 10
5.965551181102362
 20
4.218503937007874
 30
0.0
 11
5.859251968503937
 21
4.218503937007874
 31
0.0
  0
LINE
  5
2C2E
330
1E
100
AcDbEntity
  8
0
100
AcDbLine
 10
5.965551181102362
 20
4.218503937007874
 30
0.0
 11
5.965551181102362
 21
4.500984251968503
 31
0.0
  0
LINE
  5
2C2F
330
1E
100
AcDbEntity
  8
0
100
AcDbLine
 10
5.850393700787401
 20
4.502952755905512
 30
0.0
 11
5.769685039370078
 21
4.503937007874015
 31
0.0
  0
LINE
  5
2C30
330
1E
100
AcDbEntity
  8
0
100
AcDbLine
 10
5.679133858267716
 20
4.174212598425197
 30
0.0
 11
5.706692913385826
 21
4.174212598425197
 31
0.0
  0
LINE
  5
2C31
330
1E
100
AcDbEntity
  8
0
100
AcDbLine
 10
5.709645669291338
 20
4.265748031496062
 30
0.0
 11
5.706692913385826
 21
4.174212598425197
 31
0.0
  0
POLYLINE
  5
2C32
330
1E
100
AcDbEntity
  8
0
100
AcDb2dPolyline
 66
     1
 10
0.0
 20
0.0
 30
0.0
  0
VERTEX
  5
2FEB
330
2C32
100
AcDbEntity
  8
0
100
AcDbVertex
100
AcDb2dVertex
 10
5.701771653543307
 20
4.02755905511811
 30
0.0
  0
VERTEX
  5
2FEC
330
2C32
100
AcDbEntity
  8
0
100
AcDbVertex
100
AcDb2dVertex
 10
5.701771653543307
 20
4.030511811023622
 30
0.0
  0
VERTEX
  5
2FED
330
2C32
100
AcDbEntity
  8
0
100
AcDbVertex
100
AcDb2dVertex
 10
5.701771653543307
 20
4.035433070866141
 30
0.0
  0
SEQEND
  5
2FEE
330
2C32
100
AcDbEntity
  8
0
  0
LINE
  5
2C37
330
1E
100
AcDbEntity
  8
0
100
AcDbLine
 10
5.702755905511811
 20
4.072834645669291
 30
0.0
 11
5.701771653543307
 21
4.035433070866141
 31
0.0
  0
LINE
  5
2C38
330
1E
100
AcDbEntity
  8
0
100
AcDbLine
 10
5.5
 20
4.032480314960629
 30
0.0
 11
5.701771653543307
 21
4.035433070866141
 31
0.0
  0
LINE
  5
2C39
330
1E
100
AcDbEntity
  8
0
100
AcDbLine
 10
5.702755905511811
 20
4.072834645669291
 30
0.0
 11
5.524606299212598
 21
4.069881889763779
 31
0.0
  0
LINE
  5
2C3A
330
1E
100
AcDbEntity
  8
0
100
AcDbLine
 10
5.701771653543307
 20
4.02755905511811
 30
0.0
 11
5.5
 21
4.024606299212598
 31
0.0
  0
ENDSEC
  0
SECTION
  2
OBJECTS
  0
DICTIONARY
  5
C
330
0
100
AcDbDictionary
  3
ACAD_GROUP
350
D
  3
ACAD_MLINESTYLE
350
16
  3
ACAD_PLOTSETTINGS
350
18
  3
ACAD_LAYOUT
350
19
1001
ACAD
1000
TREAT_AS_HARD
1070
     0
  0
DICTIONARY
  5
2E1B
330
1E
100
AcDbDictionary
  3
ACAD_LAYOUTSELFREF
350
2E1C
  0
DICTIONARY
  5
2E19
330
1A
100
AcDbDictionary
  3
ACAD_LAYOUTSELFREF
350
2E1A
  0
DICTIONARY
  5
D
102
{ACAD_REACTORS
330
C
102
}
330
C
100
AcDbDictionary
1001
ACAD
1000
TREAT_AS_HARD
1070
     0
  0
DICTIONARY
  5
16
102
{ACAD_REACTORS
330
C
102
}
330
C
100
AcDbDictionary
  3
STANDARD
350
17
1001
ACAD
1000
TREAT_AS_HARD
1070
     0
  0
DICTIONARY
  5
18
102
{ACAD_REACTORS
330
C
102
}
330
C
100
AcDbDictionary
1001
ACAD
1000
TREAT_AS_HARD
1070
     0
  0
DICTIONARY
  5
19
102
{ACAD_REACTORS
330
C
102
}
330
C
100
AcDbDictionary
1001
ACAD
1000
TREAT_AS_HARD
1070
     0
  0
XRECORD
  5
2E1C
102
{ACAD_REACTORS
330
2E1B
102
}
330
2E1B
100
AcDbXrecord
340
1E
  0
XRECORD
  5
2E1A
102
{ACAD_REACTORS
330
2E19
102
}
330
2E19
100
AcDbXrecord
340
1A
  0
MLINESTYLE
  5
17
102
{ACAD_REACTORS
330
16
102
}
330
16
100
AcDbMlineStyle
  2
STANDARD
 70
     0
  3

 62
   256
 51
90.0
 52
90.0
 71
     2
 49
0.5
 62
   256
  6
BYLAYER
 49
-0.5
 62
   256
  6
BYLAYER
  0
ENDSEC
  0
EOF
