  0
SECTION
  2
HEADER
  9
$ACADVER
  1
AC1012
  9
$DWGCODEPAGE
  3
ANSI_1252
  9
$INSBASE
 10
0.0
 20
0.0
 30
0.0
  9
$EXTMIN
 10
5.641810843749205
 20
10.20101618243928
 30
-0.0000000000112498
  9
$EXTMAX
 10
10.12071924684246
 20
14.40520253206528
 30
0.0000000000002956
  9
$LIMMIN
 10
0.0
 20
0.0
  9
$LIMMAX
 10
12.0
 20
9.0
  9
$ORTHOMODE
 70
     0
  9
$REGENMODE
 70
     1
  9
$FILLMODE
 70
     1
  9
$QTEXTMODE
 70
     0
  9
$MIRRTEXT
 70
     1
  9
$DRAGMODE
 70
     2
  9
$LTSCALE
 40
1.0
  9
$OSMODE
 70
    33
  9
$ATTMODE
 70
     1
  9
$TEXTSIZE
 40
0.2
  9
$TRACEWID
 40
0.05
  9
$TEXTSTYLE
  7
STANDARD
  9
$CLAYER
  8
0
  9
$CELTYPE
  6
BYLAYER
  9
$CECOLOR
 62
   256
  9
$CELTSCALE
 40
1.0
  9
$DELOBJ
 70
     1
  9
$DISPSILH
 70
     0
  9
$DIMSCALE
 40
1.0
  9
$DIMASZ
 40
0.18
  9
$DIMEXO
 40
0.0625
  9
$DIMDLI
 40
0.38
  9
$DIMRND
 40
0.0
  9
$DIMDLE
 40
0.0
  9
$DIMEXE
 40
0.18
  9
$DIMTP
 40
0.0
  9
$DIMTM
 40
0.0
  9
$DIMTXT
 40
0.18
  9
$DIMCEN
 40
0.09
  9
$DIMTSZ
 40
0.0
  9
$DIMTOL
 70
     0
  9
$DIMLIM
 70
     0
  9
$DIMTIH
 70
     1
  9
$DIMTOH
 70
     1
  9
$DIMSE1
 70
     0
  9
$DIMSE2
 70
     0
  9
$DIMTAD
 70
     0
  9
$DIMZIN
 70
     0
  9
$DIMBLK
  1

  9
$DIMASO
 70
     1
  9
$DIMSHO
 70
     1
  9
$DIMPOST
  1

  9
$DIMAPOST
  1

  9
$DIMALT
 70
     0
  9
$DIMALTD
 70
     2
  9
$DIMALTF
 40
25.4
  9
$DIMLFAC
 40
1.0
  9
$DIMTOFL
 70
     0
  9
$DIMTVP
 40
0.0
  9
$DIMTIX
 70
     0
  9
$DIMSOXD
 70
     0
  9
$DIMSAH
 70
     0
  9
$DIMBLK1
  1

  9
$DIMBLK2
  1

  9
$DIMSTYLE
  2
STANDARD
  9
$DIMCLRD
 70
     0
  9
$DIMCLRE
 70
     0
  9
$DIMCLRT
 70
     0
  9
$DIMTFAC
 40
1.0
  9
$DIMGAP
 40
0.09
  9
$DIMJUST
 70
     0
  9
$DIMSD1
 70
     0
  9
$DIMSD2
 70
     0
  9
$DIMTOLJ
 70
     1
  9
$DIMTZIN
 70
     0
  9
$DIMALTZ
 70
     0
  9
$DIMALTTZ
 70
     0
  9
$DIMFIT
 70
     5
  9
$DIMUPT
 70
     0
  9
$DIMUNIT
 70
     2
  9
$DIMDEC
 70
     4
  9
$DIMTDEC
 70
     4
  9
$DIMALTU
 70
     2
  9
$DIMALTTD
 70
     2
  9
$DIMTXSTY
  7
STANDARD
  9
$DIMAUNIT
 70
     0
  9
$LUNITS
 70
     2
  9
$LUPREC
 70
     4
  9
$SKETCHINC
 40
0.1
  9
$FILLETRAD
 40
0.0
  9
$AUNITS
 70
     0
  9
$AUPREC
 70
     0
  9
$MENU
  1
acad
  9
$ELEVATION
 40
0.0
  9
$PELEVATION
 40
0.0
  9
$THICKNESS
 40
0.0
  9
$LIMCHECK
 70
     0
  9
$BLIPMODE
 70
     0
  9
$CHAMFERA
 40
0.0
  9
$CHAMFERB
 40
0.0
  9
$CHAMFERC
 40
0.0
  9
$CHAMFERD
 40
0.0
  9
$SKPOLY
 70
     0
  9
$TDCREATE
 40
2451951.502488426
  9
$TDUPDATE
 40
2452339.359110995
  9
$TDINDWG
 40
0.0016916204
  9
$TDUSRTIMER
 40
0.0016914468
  9
$USRTIMER
 70
     1
  9
$ANGBASE
 50
0.0
  9
$ANGDIR
 70
     0
  9
$PDMODE
 70
     0
  9
$PDSIZE
 40
0.0
  9
$PLINEWID
 40
0.0
  9
$COORDS
 70
     2
  9
$SPLFRAME
 70
     0
  9
$SPLINETYPE
 70
     6
  9
$SPLINESEGS
 70
     8
  9
$ATTDIA
 70
     0
  9
$ATTREQ
 70
     1
  9
$HANDLING
 70
  4097
  9
$HANDSEED
  5
247F
  9
$SURFTAB1
 70
     6
  9
$SURFTAB2
 70
     6
  9
$SURFTYPE
 70
     6
  9
$SURFU
 70
     6
  9
$SURFV
 70
     6
  9
$UCSNAME
  2

  9
$UCSORG
 10
0.0
 20
0.0
 30
0.0
  9
$UCSXDIR
 10
1.0
 20
0.0
 30
0.0
  9
$UCSYDIR
 10
0.0
 20
1.0
 30
0.0
  9
$PUCSNAME
  2

  9
$PUCSORG
 10
0.0
 20
0.0
 30
0.0
  9
$PUCSXDIR
 10
1.0
 20
0.0
 30
0.0
  9
$PUCSYDIR
 10
0.0
 20
1.0
 30
0.0
  9
$USERI1
 70
     0
  9
$USERI2
 70
     0
  9
$USERI3
 70
     0
  9
$USERI4
 70
     0
  9
$USERI5
 70
     0
  9
$USERR1
 40
0.0
  9
$USERR2
 40
0.0
  9
$USERR3
 40
0.0
  9
$USERR4
 40
0.0
  9
$USERR5
 40
0.0
  9
$WORLDVIEW
 70
     1
  9
$SHADEDGE
 70
     3
  9
$SHADEDIF
 70
    70
  9
$TILEMODE
 70
     1
  9
$MAXACTVP
 70
    16
  9
$PINSBASE
 10
0.0
 20
0.0
 30
0.0
  9
$PLIMCHECK
 70
     0
  9
$PEXTMIN
 10
1.000000000000000E+20
 20
1.000000000000000E+20
 30
1.000000000000000E+20
  9
$PEXTMAX
 10
-1.000000000000000E+20
 20
-1.000000000000000E+20
 30
-1.000000000000000E+20
  9
$PLIMMIN
 10
0.0
 20
0.0
  9
$PLIMMAX
 10
12.0
 20
9.0
  9
$UNITMODE
 70
     0
  9
$VISRETAIN
 70
     0
  9
$PLINEGEN
 70
     0
  9
$PSLTSCALE
 70
     1
  9
$TREEDEPTH
 70
  3020
  9
$PICKSTYLE
 70
     1
  9
$CMLSTYLE
  2
STANDARD
  9
$CMLJUST
 70
     0
  9
$CMLSCALE
 40
1.0
  9
$SAVEIMAGES
 70
     1
  0
ENDSEC
  0
SECTION
  2
CLASSES
  0
CLASS
  1
ACDBDICTIONARYWDFLT
  2
AcDbDictionaryWithDefault
  3
AutoCAD 2000
 90
    32768
280
     0
281
     0
  0
CLASS
  1
ACDBPLACEHOLDER
  2
AcDbPlaceHolder
  3
AutoCAD 2000
 90
    32768
280
     0
281
     0
  0
CLASS
  1
LAYOUT
  2
AcDbLayout
  3
AutoCAD 2000
 90
    32768
280
     0
281
     0
  0
CLASS
  1
LONG_TRANSACTION
  2
AcDbLongTransaction
  3
AutoCAD 2000
 90
    32768
280
     0
281
     0
  0
CLASS
  1
LWPOLYLINE
  2
AcDbPolyline
  3
AutoCAD 2000
 90
    32768
280
     0
281
     1
  0
CLASS
  1
HATCH
  2
AcDbHatch
  3
AutoCAD 2000
 90
    32768
280
     0
281
     1
  0
CLASS
  1
XRECORD
  2
AcDbXrecord
  3
AutoCAD 2000
 90
    32768
280
     0
281
     0
  0
CLASS
  1
LONG_TRANSACTION
  2
AcDbLongTransaction
  3
AutoCAD 2000
 90
    32768
280
     0
281
     0
  0
CLASS
  1
LWPOLYLINE
  2
AcDbPolyline
  3
AutoCAD 2000
 90
    32768
280
     0
281
     1
  0
CLASS
  1
HATCH
  2
AcDbHatch
  3
AutoCAD 2000
 90
    32768
280
     0
281
     1
  0
CLASS
  1
XRECORD
  2
AcDbXrecord
  3
AutoCAD 2000
 90
    32768
280
     0
281
     0
  0
CLASS
  1
LONG_TRANSACTION
  2
AcDbLongTransaction
  3
AutoCAD 2000
 90
    32768
280
     0
281
     0
  0
CLASS
  1
LWPOLYLINE
  2
AcDbPolyline
  3
AutoCAD 2000
 90
    32768
280
     0
281
     1
  0
CLASS
  1
HATCH
  2
AcDbHatch
  3
AutoCAD 2000
 90
    32768
280
     0
281
     1
  0
CLASS
  1
XRECORD
  2
AcDbXrecord
  3
AutoCAD 2000
 90
    32768
280
     0
281
     0
  0
ENDSEC
  0
SECTION
  2
TABLES
  0
TABLE
  2
VPORT
  5
8
330
0
100
AcDbSymbolTable
 70
     3
  0
VPORT
  5
247C
330
8
100
AcDbSymbolTableRecord
100
AcDbViewportTableRecord
  2
*ACTIVE
 70
     0
 10
0.0
 20
0.0
 11
1.0
 21
1.0
 12
7.881265045295833
 22
12.30310935725228
 13
0.0
 23
0.0
 14
1.0
 24
1.0
 15
0.0
 25
0.0
 16
0.0
 26
0.0
 36
1.0
 17
0.0
 27
0.0
 37
0.0
 40
4.237290179150612
 41
1.601839684625492
 42
50.0
 43
0.0
 44
0.0
 50
0.0
 51
0.0
 71
     0
 72
   100
 73
     1
 74
     1
 75
     0
 76
     0
 77
     0
 78
     1
  0
ENDTAB
  0
TABLE
  2
LTYPE
  5
5
330
0
100
AcDbSymbolTable
 70
    25
  0
LTYPE
  5
13
330
5
100
AcDbSymbolTableRecord
100
AcDbLinetypeTableRecord
  2
BYBLOCK
 70
     0
  3

 72
    65
 73
     0
 40
0.0
  0
LTYPE
  5
14
330
5
100
AcDbSymbolTableRecord
100
AcDbLinetypeTableRecord
  2
BYLAYER
 70
     0
  3

 72
    65
 73
     0
 40
0.0
  0
LTYPE
  5
15
330
5
100
AcDbSymbolTableRecord
100
AcDbLinetypeTableRecord
  2
CONTINUOUS
 70
     0
  3
Solid line
 72
    65
 73
     0
 40
0.0
  0
LTYPE
  5
22
330
5
100
AcDbSymbolTableRecord
100
AcDbLinetypeTableRecord
  2
BORDER
 70
     0
  3
__ __ . __ __ . __ __ . __ __ . __ __ . __ __ .
 72
    65
 73
     6
 40
1.75
 49
0.5
 74
     0
 49
-0.25
 74
     0
 49
0.5
 74
     0
 49
-0.25
 74
     0
 49
0.5
 74
     0
 49
-0.25
 74
     0
  0
LTYPE
  5
23
330
5
100
AcDbSymbolTableRecord
100
AcDbLinetypeTableRecord
  2
BORDER2
 70
     0
  3
__.__.__.__.__.__.__.__.__.__.__.__.__.__.__.__
 72
    65
 73
     6
 40
0.875
 49
0.25
 74
     0
 49
-0.125
 74
     0
 49
0.25
 74
     0
 49
-0.125
 74
     0
 49
0.25
 74
     0
 49
-0.125
 74
     0
  0
LTYPE
  5
24
330
5
100
AcDbSymbolTableRecord
100
AcDbLinetypeTableRecord
  2
BORDERX2
 70
     0
  3
____  ____  .  ____  ____  .  
 72
    65
 73
     6
 40
3.5
 49
1.0
 74
     0
 49
-0.5
 74
     0
 49
1.0
 74
     0
 49
-0.5
 74
     0
 49
1.0
 74
     0
 49
-0.5
 74
     0
  0
LTYPE
  5
25
330
5
100
AcDbSymbolTableRecord
100
AcDbLinetypeTableRecord
  2
CENTER
 70
     0
  3
____ _ ____ _ ____ _ ____ _ ____ _ ____ _ ____
 72
    65
 73
     4
 40
2.0
 49
1.25
 74
     0
 49
-0.25
 74
     0
 49
0.25
 74
     0
 49
-0.25
 74
     0
  0
LTYPE
  5
26
330
5
100
AcDbSymbolTableRecord
100
AcDbLinetypeTableRecord
  2
CENTER2
 70
     0
  3
____ _ ____ _ ____ _ ____ _ ____ _ ____ _ ____
 72
    65
 73
     4
 40
1.125
 49
0.75
 74
     0
 49
-0.125
 74
     0
 49
0.125
 74
     0
 49
-0.125
 74
     0
  0
LTYPE
  5
27
330
5
100
AcDbSymbolTableRecord
100
AcDbLinetypeTableRecord
  2
CENTERX2
 70
     0
  3
________  __  ________  __  ________  __  
 72
    65
 73
     4
 40
4.0
 49
2.5
 74
     0
 49
-0.5
 74
     0
 49
0.5
 74
     0
 49
-0.5
 74
     0
  0
LTYPE
  5
28
330
5
100
AcDbSymbolTableRecord
100
AcDbLinetypeTableRecord
  2
DASHDOT
 70
     0
  3
__ . __ . __ . __ . __ . __ . __ . 
 72
    65
 73
     4
 40
1.0
 49
0.5
 74
     0
 49
-0.25
 74
     0
 49
0.0
 74
     0
 49
-0.25
 74
     0
  0
LTYPE
  5
29
330
5
100
AcDbSymbolTableRecord
100
AcDbLinetypeTableRecord
  2
DASHDOT2
 70
     0
  3
_._._._._._._._._._._._._._._._.
 72
    65
 73
     4
 40
0.5
 49
0.25
 74
     0
 49
-0.125
 74
     0
 49
0.0
 74
     0
 49
-0.125
 74
     0
  0
LTYPE
  5
2A
330
5
100
AcDbSymbolTableRecord
100
AcDbLinetypeTableRecord
  2
DASHDOTX2
 70
     0
  3
____  .  ____  .  ____  .  ____  .  
 72
    65
 73
     4
 40
2.0
 49
1.0
 74
     0
 49
-0.5
 74
     0
 49
0.0
 74
     0
 49
-0.5
 74
     0
  0
LTYPE
  5
2B
330
5
100
AcDbSymbolTableRecord
100
AcDbLinetypeTableRecord
  2
DASHED
 70
     0
  3
__ __ __ __ __ __ __ __ __ __ __ __ 
 72
    65
 73
     2
 40
0.75
 49
0.5
 74
     0
 49
-0.25
 74
     0
  0
LTYPE
  5
2C
330
5
100
AcDbSymbolTableRecord
100
AcDbLinetypeTableRecord
  2
DASHED2
 70
     0
  3
_ _ _ _ _ _ _ _ _ _ _ _ _ _ _ _ _ _ 
 72
    65
 73
     2
 40
0.375
 49
0.25
 74
     0
 49
-0.125
 74
     0
  0
LTYPE
  5
2D
330
5
100
AcDbSymbolTableRecord
100
AcDbLinetypeTableRecord
  2
DASHEDX2
 70
     0
  3
____  ____  ____  ____  ____  ____  
 72
    65
 73
     2
 40
1.5
 49
1.0
 74
     0
 49
-0.5
 74
     0
  0
LTYPE
  5
2E
330
5
100
AcDbSymbolTableRecord
100
AcDbLinetypeTableRecord
  2
DIVIDE
 70
     0
  3
____ . . ____ . . ____ . . ____ . . 
 72
    65
 73
     6
 40
1.25
 49
0.5
 74
     0
 49
-0.25
 74
     0
 49
0.0
 74
     0
 49
-0.25
 74
     0
 49
0.0
 74
     0
 49
-0.25
 74
     0
  0
LTYPE
  5
2F
330
5
100
AcDbSymbolTableRecord
100
AcDbLinetypeTableRecord
  2
DIVIDE2
 70
     0
  3
__..__..__..__..__..__..__..__..__..
 72
    65
 73
     6
 40
0.625
 49
0.25
 74
     0
 49
-0.125
 74
     0
 49
0.0
 74
     0
 49
-0.125
 74
     0
 49
0.0
 74
     0
 49
-0.125
 74
     0
  0
LTYPE
  5
30
330
5
100
AcDbSymbolTableRecord
100
AcDbLinetypeTableRecord
  2
DIVIDEX2
 70
     0
  3
________  .  .  ________  .  .  ________  .  . 
 72
    65
 73
     6
 40
2.5
 49
1.0
 74
     0
 49
-0.5
 74
     0
 49
0.0
 74
     0
 49
-0.5
 74
     0
 49
0.0
 74
     0
 49
-0.5
 74
     0
  0
LTYPE
  5
31
330
5
100
AcDbSymbolTableRecord
100
AcDbLinetypeTableRecord
  2
DOT
 70
     0
  3
. . . . . . . . . . . . . . . . . . 
 72
    65
 73
     2
 40
0.25
 49
0.0
 74
     0
 49
-0.25
 74
     0
  0
LTYPE
  5
32
330
5
100
AcDbSymbolTableRecord
100
AcDbLinetypeTableRecord
  2
DOT2
 70
     0
  3
....................................
 72
    65
 73
     2
 40
0.125
 49
0.0
 74
     0
 49
-0.125
 74
     0
  0
LTYPE
  5
33
330
5
100
AcDbSymbolTableRecord
100
AcDbLinetypeTableRecord
  2
DOTX2
 70
     0
  3
.  .  .  .  .  .  .  .  .  .  .  .  .  
 72
    65
 73
     2
 40
0.5
 49
0.0
 74
     0
 49
-0.5
 74
     0
  0
LTYPE
  5
34
330
5
100
AcDbSymbolTableRecord
100
AcDbLinetypeTableRecord
  2
HIDDEN
 70
     0
  3
__ __ __ __ __ __ __ __ __ __ __ __ 
 72
    65
 73
     2
 40
0.375
 49
0.25
 74
     0
 49
-0.125
 74
     0
  0
LTYPE
  5
35
330
5
100
AcDbSymbolTableRecord
100
AcDbLinetypeTableRecord
  2
HIDDEN2
 70
     0
  3
_ _ _ _ _ _ _ _ _ _ _ _ _ _ _ _ _ _ 
 72
    65
 73
     2
 40
0.1875
 49
0.125
 74
     0
 49
-0.0625
 74
     0
  0
LTYPE
  5
36
330
5
100
AcDbSymbolTableRecord
100
AcDbLinetypeTableRecord
  2
HIDDENX2
 70
     0
  3
____ ____ ____ ____ ____ ____ ____ 
 72
    65
 73
     2
 40
0.75
 49
0.5
 74
     0
 49
-0.25
 74
     0
  0
LTYPE
  5
37
330
5
100
AcDbSymbolTableRecord
100
AcDbLinetypeTableRecord
  2
PHANTOM
 70
     0
  3
______  __  __  ______  __  __  
 72
    65
 73
     6
 40
2.5
 49
1.25
 74
     0
 49
-0.25
 74
     0
 49
0.25
 74
     0
 49
-0.25
 74
     0
 49
0.25
 74
     0
 49
-0.25
 74
     0
  0
LTYPE
  5
38
330
5
100
AcDbSymbolTableRecord
100
AcDbLinetypeTableRecord
  2
PHANTOM2
 70
     0
  3
___ _ _ ___ _ _ ___ _ _ ___ _ _ 
 72
    65
 73
     6
 40
1.25
 49
0.625
 74
     0
 49
-0.125
 74
     0
 49
0.125
 74
     0
 49
-0.125
 74
     0
 49
0.125
 74
     0
 49
-0.125
 74
     0
  0
LTYPE
  5
39
330
5
100
AcDbSymbolTableRecord
100
AcDbLinetypeTableRecord
  2
PHANTOMX2
 70
     0
  3
___ _ _ ___ _ _ ___ _ _ ___ _ _ 
 72
    65
 73
     6
 40
5.0
 49
2.5
 74
     0
 49
-0.5
 74
     0
 49
0.5
 74
     0
 49
-0.5
 74
     0
 49
0.5
 74
     0
 49
-0.5
 74
     0
  0
ENDTAB
  0
TABLE
  2
LAYER
  5
2
330
0
100
AcDbSymbolTable
 70
   257
  0
LAYER
  5
10
330
2
100
AcDbSymbolTableRecord
100
AcDbLayerTableRecord
  2
0
 70
     0
 62
     7
  6
CONTINUOUS
  0
LAYER
  5
3A
330
2
100
AcDbSymbolTableRecord
100
AcDbLayerTableRecord
  2
1
 70
     0
 62
     1
  6
CONTINUOUS
  0
LAYER
  5
3B
330
2
100
AcDbSymbolTableRecord
100
AcDbLayerTableRecord
  2
2
 70
     0
 62
     2
  6
CONTINUOUS
  0
LAYER
  5
3C
330
2
100
AcDbSymbolTableRecord
100
AcDbLayerTableRecord
  2
3
 70
     0
 62
     3
  6
CONTINUOUS
  0
LAYER
  5
3D
330
2
100
AcDbSymbolTableRecord
100
AcDbLayerTableRecord
  2
4
 70
     0
 62
     4
  6
CONTINUOUS
  0
LAYER
  5
3E
330
2
100
AcDbSymbolTableRecord
100
AcDbLayerTableRecord
  2
5
 70
     0
 62
     5
  6
CONTINUOUS
  0
LAYER
  5
3F
330
2
100
AcDbSymbolTableRecord
100
AcDbLayerTableRecord
  2
6
 70
     0
 62
     6
  6
CONTINUOUS
  0
LAYER
  5
40
330
2
100
AcDbSymbolTableRecord
100
AcDbLayerTableRecord
  2
7
 70
     0
 62
     7
  6
CONTINUOUS
  0
LAYER
  5
41
330
2
100
AcDbSymbolTableRecord
100
AcDbLayerTableRecord
  2
8
 70
     0
 62
     8
  6
CONTINUOUS
  0
LAYER
  5
42
330
2
100
AcDbSymbolTableRecord
100
AcDbLayerTableRecord
  2
9
 70
     0
 62
     9
  6
CONTINUOUS
  0
LAYER
  5
43
330
2
100
AcDbSymbolTableRecord
100
AcDbLayerTableRecord
  2
10
 70
     0
 62
    10
  6
CONTINUOUS
  0
LAYER
  5
44
330
2
100
AcDbSymbolTableRecord
100
AcDbLayerTableRecord
  2
11
 70
     0
 62
    11
  6
CONTINUOUS
  0
LAYER
  5
45
330
2
100
AcDbSymbolTableRecord
100
AcDbLayerTableRecord
  2
12
 70
     0
 62
    12
  6
CONTINUOUS
  0
LAYER
  5
46
330
2
100
AcDbSymbolTableRecord
100
AcDbLayerTableRecord
  2
13
 70
     0
 62
    13
  6
CONTINUOUS
  0
LAYER
  5
47
330
2
100
AcDbSymbolTableRecord
100
AcDbLayerTableRecord
  2
14
 70
     0
 62
    14
  6
CONTINUOUS
  0
LAYER
  5
48
330
2
100
AcDbSymbolTableRecord
100
AcDbLayerTableRecord
  2
15
 70
     0
 62
    15
  6
CONTINUOUS
  0
LAYER
  5
49
330
2
100
AcDbSymbolTableRecord
100
AcDbLayerTableRecord
  2
16
 70
     0
 62
    16
  6
CONTINUOUS
  0
LAYER
  5
4A
330
2
100
AcDbSymbolTableRecord
100
AcDbLayerTableRecord
  2
17
 70
     0
 62
    17
  6
CONTINUOUS
  0
LAYER
  5
4B
330
2
100
AcDbSymbolTableRecord
100
AcDbLayerTableRecord
  2
18
 70
     0
 62
    18
  6
CONTINUOUS
  0
LAYER
  5
4C
330
2
100
AcDbSymbolTableRecord
100
AcDbLayerTableRecord
  2
19
 70
     0
 62
    19
  6
CONTINUOUS
  0
LAYER
  5
4D
330
2
100
AcDbSymbolTableRecord
100
AcDbLayerTableRecord
  2
20
 70
     0
 62
    20
  6
CONTINUOUS
  0
LAYER
  5
4E
330
2
100
AcDbSymbolTableRecord
100
AcDbLayerTableRecord
  2
21
 70
     0
 62
    21
  6
CONTINUOUS
  0
LAYER
  5
4F
330
2
100
AcDbSymbolTableRecord
100
AcDbLayerTableRecord
  2
22
 70
     0
 62
    22
  6
CONTINUOUS
  0
LAYER
  5
50
330
2
100
AcDbSymbolTableRecord
100
AcDbLayerTableRecord
  2
23
 70
     0
 62
    23
  6
CONTINUOUS
  0
LAYER
  5
51
330
2
100
AcDbSymbolTableRecord
100
AcDbLayerTableRecord
  2
24
 70
     0
 62
    24
  6
CONTINUOUS
  0
LAYER
  5
52
330
2
100
AcDbSymbolTableRecord
100
AcDbLayerTableRecord
  2
25
 70
     0
 62
    25
  6
CONTINUOUS
  0
LAYER
  5
53
330
2
100
AcDbSymbolTableRecord
100
AcDbLayerTableRecord
  2
26
 70
     0
 62
    26
  6
CONTINUOUS
  0
LAYER
  5
54
330
2
100
AcDbSymbolTableRecord
100
AcDbLayerTableRecord
  2
27
 70
     0
 62
    27
  6
CONTINUOUS
  0
LAYER
  5
55
330
2
100
AcDbSymbolTableRecord
100
AcDbLayerTableRecord
  2
28
 70
     0
 62
    28
  6
CONTINUOUS
  0
LAYER
  5
56
330
2
100
AcDbSymbolTableRecord
100
AcDbLayerTableRecord
  2
29
 70
     0
 62
    29
  6
CONTINUOUS
  0
LAYER
  5
57
330
2
100
AcDbSymbolTableRecord
100
AcDbLayerTableRecord
  2
30
 70
     0
 62
    30
  6
CONTINUOUS
  0
LAYER
  5
58
330
2
100
AcDbSymbolTableRecord
100
AcDbLayerTableRecord
  2
31
 70
     0
 62
    31
  6
CONTINUOUS
  0
LAYER
  5
59
330
2
100
AcDbSymbolTableRecord
100
AcDbLayerTableRecord
  2
32
 70
     0
 62
    32
  6
CONTINUOUS
  0
LAYER
  5
5A
330
2
100
AcDbSymbolTableRecord
100
AcDbLayerTableRecord
  2
33
 70
     0
 62
    33
  6
CONTINUOUS
  0
LAYER
  5
5B
330
2
100
AcDbSymbolTableRecord
100
AcDbLayerTableRecord
  2
34
 70
     0
 62
    34
  6
CONTINUOUS
  0
LAYER
  5
5C
330
2
100
AcDbSymbolTableRecord
100
AcDbLayerTableRecord
  2
35
 70
     0
 62
    35
  6
CONTINUOUS
  0
LAYER
  5
5D
330
2
100
AcDbSymbolTableRecord
100
AcDbLayerTableRecord
  2
36
 70
     0
 62
    36
  6
CONTINUOUS
  0
LAYER
  5
5E
330
2
100
AcDbSymbolTableRecord
100
AcDbLayerTableRecord
  2
37
 70
     0
 62
    37
  6
CONTINUOUS
  0
LAYER
  5
5F
330
2
100
AcDbSymbolTableRecord
100
AcDbLayerTableRecord
  2
38
 70
     0
 62
    38
  6
CONTINUOUS
  0
LAYER
  5
60
330
2
100
AcDbSymbolTableRecord
100
AcDbLayerTableRecord
  2
39
 70
     0
 62
    39
  6
CONTINUOUS
  0
LAYER
  5
61
330
2
100
AcDbSymbolTableRecord
100
AcDbLayerTableRecord
  2
40
 70
     0
 62
    40
  6
CONTINUOUS
  0
LAYER
  5
62
330
2
100
AcDbSymbolTableRecord
100
AcDbLayerTableRecord
  2
41
 70
     0
 62
    41
  6
CONTINUOUS
  0
LAYER
  5
63
330
2
100
AcDbSymbolTableRecord
100
AcDbLayerTableRecord
  2
42
 70
     0
 62
    42
  6
CONTINUOUS
  0
LAYER
  5
64
330
2
100
AcDbSymbolTableRecord
100
AcDbLayerTableRecord
  2
43
 70
     0
 62
    43
  6
CONTINUOUS
  0
LAYER
  5
65
330
2
100
AcDbSymbolTableRecord
100
AcDbLayerTableRecord
  2
44
 70
     0
 62
    44
  6
CONTINUOUS
  0
LAYER
  5
66
330
2
100
AcDbSymbolTableRecord
100
AcDbLayerTableRecord
  2
45
 70
     0
 62
    45
  6
CONTINUOUS
  0
LAYER
  5
67
330
2
100
AcDbSymbolTableRecord
100
AcDbLayerTableRecord
  2
46
 70
     0
 62
    46
  6
CONTINUOUS
  0
LAYER
  5
68
330
2
100
AcDbSymbolTableRecord
100
AcDbLayerTableRecord
  2
47
 70
     0
 62
    47
  6
CONTINUOUS
  0
LAYER
  5
69
330
2
100
AcDbSymbolTableRecord
100
AcDbLayerTableRecord
  2
48
 70
     0
 62
    48
  6
CONTINUOUS
  0
LAYER
  5
6A
330
2
100
AcDbSymbolTableRecord
100
AcDbLayerTableRecord
  2
49
 70
     0
 62
    49
  6
CONTINUOUS
  0
LAYER
  5
6B
330
2
100
AcDbSymbolTableRecord
100
AcDbLayerTableRecord
  2
50
 70
     0
 62
    50
  6
CONTINUOUS
  0
LAYER
  5
6C
330
2
100
AcDbSymbolTableRecord
100
AcDbLayerTableRecord
  2
51
 70
     0
 62
    51
  6
CONTINUOUS
  0
LAYER
  5
6D
330
2
100
AcDbSymbolTableRecord
100
AcDbLayerTableRecord
  2
52
 70
     0
 62
    52
  6
CONTINUOUS
  0
LAYER
  5
6E
330
2
100
AcDbSymbolTableRecord
100
AcDbLayerTableRecord
  2
53
 70
     0
 62
    53
  6
CONTINUOUS
  0
LAYER
  5
6F
330
2
100
AcDbSymbolTableRecord
100
AcDbLayerTableRecord
  2
54
 70
     0
 62
    54
  6
CONTINUOUS
  0
LAYER
  5
70
330
2
100
AcDbSymbolTableRecord
100
AcDbLayerTableRecord
  2
55
 70
     0
 62
    55
  6
CONTINUOUS
  0
LAYER
  5
71
330
2
100
AcDbSymbolTableRecord
100
AcDbLayerTableRecord
  2
56
 70
     0
 62
    56
  6
CONTINUOUS
  0
LAYER
  5
72
330
2
100
AcDbSymbolTableRecord
100
AcDbLayerTableRecord
  2
57
 70
     0
 62
    57
  6
CONTINUOUS
  0
LAYER
  5
73
330
2
100
AcDbSymbolTableRecord
100
AcDbLayerTableRecord
  2
58
 70
     0
 62
    58
  6
CONTINUOUS
  0
LAYER
  5
74
330
2
100
AcDbSymbolTableRecord
100
AcDbLayerTableRecord
  2
59
 70
     0
 62
    59
  6
CONTINUOUS
  0
LAYER
  5
75
330
2
100
AcDbSymbolTableRecord
100
AcDbLayerTableRecord
  2
60
 70
     0
 62
    60
  6
CONTINUOUS
  0
LAYER
  5
76
330
2
100
AcDbSymbolTableRecord
100
AcDbLayerTableRecord
  2
61
 70
     0
 62
    61
  6
CONTINUOUS
  0
LAYER
  5
77
330
2
100
AcDbSymbolTableRecord
100
AcDbLayerTableRecord
  2
62
 70
     0
 62
    62
  6
CONTINUOUS
  0
LAYER
  5
78
330
2
100
AcDbSymbolTableRecord
100
AcDbLayerTableRecord
  2
63
 70
     0
 62
    63
  6
CONTINUOUS
  0
LAYER
  5
79
330
2
100
AcDbSymbolTableRecord
100
AcDbLayerTableRecord
  2
64
 70
     0
 62
    64
  6
CONTINUOUS
  0
LAYER
  5
7A
330
2
100
AcDbSymbolTableRecord
100
AcDbLayerTableRecord
  2
65
 70
     0
 62
    65
  6
CONTINUOUS
  0
LAYER
  5
7B
330
2
100
AcDbSymbolTableRecord
100
AcDbLayerTableRecord
  2
66
 70
     0
 62
    66
  6
CONTINUOUS
  0
LAYER
  5
7C
330
2
100
AcDbSymbolTableRecord
100
AcDbLayerTableRecord
  2
67
 70
     0
 62
    67
  6
CONTINUOUS
  0
LAYER
  5
7D
330
2
100
AcDbSymbolTableRecord
100
AcDbLayerTableRecord
  2
68
 70
     0
 62
    68
  6
CONTINUOUS
  0
LAYER
  5
7E
330
2
100
AcDbSymbolTableRecord
100
AcDbLayerTableRecord
  2
69
 70
     0
 62
    69
  6
CONTINUOUS
  0
LAYER
  5
7F
330
2
100
AcDbSymbolTableRecord
100
AcDbLayerTableRecord
  2
70
 70
     0
 62
    70
  6
CONTINUOUS
  0
LAYER
  5
80
330
2
100
AcDbSymbolTableRecord
100
AcDbLayerTableRecord
  2
71
 70
     0
 62
    71
  6
CONTINUOUS
  0
LAYER
  5
81
330
2
100
AcDbSymbolTableRecord
100
AcDbLayerTableRecord
  2
72
 70
     0
 62
    72
  6
CONTINUOUS
  0
LAYER
  5
82
330
2
100
AcDbSymbolTableRecord
100
AcDbLayerTableRecord
  2
73
 70
     0
 62
    73
  6
CONTINUOUS
  0
LAYER
  5
83
330
2
100
AcDbSymbolTableRecord
100
AcDbLayerTableRecord
  2
74
 70
     0
 62
    74
  6
CONTINUOUS
  0
LAYER
  5
84
330
2
100
AcDbSymbolTableRecord
100
AcDbLayerTableRecord
  2
75
 70
     0
 62
    75
  6
CONTINUOUS
  0
LAYER
  5
85
330
2
100
AcDbSymbolTableRecord
100
AcDbLayerTableRecord
  2
76
 70
     0
 62
    76
  6
CONTINUOUS
  0
LAYER
  5
86
330
2
100
AcDbSymbolTableRecord
100
AcDbLayerTableRecord
  2
77
 70
     0
 62
    77
  6
CONTINUOUS
  0
LAYER
  5
87
330
2
100
AcDbSymbolTableRecord
100
AcDbLayerTableRecord
  2
78
 70
     0
 62
    78
  6
CONTINUOUS
  0
LAYER
  5
88
330
2
100
AcDbSymbolTableRecord
100
AcDbLayerTableRecord
  2
79
 70
     0
 62
    79
  6
CONTINUOUS
  0
LAYER
  5
89
330
2
100
AcDbSymbolTableRecord
100
AcDbLayerTableRecord
  2
80
 70
     0
 62
    80
  6
CONTINUOUS
  0
LAYER
  5
8A
330
2
100
AcDbSymbolTableRecord
100
AcDbLayerTableRecord
  2
81
 70
     0
 62
    81
  6
CONTINUOUS
  0
LAYER
  5
8B
330
2
100
AcDbSymbolTableRecord
100
AcDbLayerTableRecord
  2
82
 70
     0
 62
    82
  6
CONTINUOUS
  0
LAYER
  5
8C
330
2
100
AcDbSymbolTableRecord
100
AcDbLayerTableRecord
  2
83
 70
     0
 62
    83
  6
CONTINUOUS
  0
LAYER
  5
8D
330
2
100
AcDbSymbolTableRecord
100
AcDbLayerTableRecord
  2
84
 70
     0
 62
    84
  6
CONTINUOUS
  0
LAYER
  5
8E
330
2
100
AcDbSymbolTableRecord
100
AcDbLayerTableRecord
  2
85
 70
     0
 62
    85
  6
CONTINUOUS
  0
LAYER
  5
8F
330
2
100
AcDbSymbolTableRecord
100
AcDbLayerTableRecord
  2
86
 70
     0
 62
    86
  6
CONTINUOUS
  0
LAYER
  5
90
330
2
100
AcDbSymbolTableRecord
100
AcDbLayerTableRecord
  2
87
 70
     0
 62
    87
  6
CONTINUOUS
  0
LAYER
  5
91
330
2
100
AcDbSymbolTableRecord
100
AcDbLayerTableRecord
  2
88
 70
     0
 62
    88
  6
CONTINUOUS
  0
LAYER
  5
92
330
2
100
AcDbSymbolTableRecord
100
AcDbLayerTableRecord
  2
89
 70
     0
 62
    89
  6
CONTINUOUS
  0
LAYER
  5
93
330
2
100
AcDbSymbolTableRecord
100
AcDbLayerTableRecord
  2
90
 70
     0
 62
    90
  6
CONTINUOUS
  0
LAYER
  5
94
330
2
100
AcDbSymbolTableRecord
100
AcDbLayerTableRecord
  2
91
 70
     0
 62
    91
  6
CONTINUOUS
  0
LAYER
  5
95
330
2
100
AcDbSymbolTableRecord
100
AcDbLayerTableRecord
  2
92
 70
     0
 62
    92
  6
CONTINUOUS
  0
LAYER
  5
96
330
2
100
AcDbSymbolTableRecord
100
AcDbLayerTableRecord
  2
93
 70
     0
 62
    93
  6
CONTINUOUS
  0
LAYER
  5
97
330
2
100
AcDbSymbolTableRecord
100
AcDbLayerTableRecord
  2
94
 70
     0
 62
    94
  6
CONTINUOUS
  0
LAYER
  5
98
330
2
100
AcDbSymbolTableRecord
100
AcDbLayerTableRecord
  2
95
 70
     0
 62
    95
  6
CONTINUOUS
  0
LAYER
  5
99
330
2
100
AcDbSymbolTableRecord
100
AcDbLayerTableRecord
  2
96
 70
     0
 62
    96
  6
CONTINUOUS
  0
LAYER
  5
9A
330
2
100
AcDbSymbolTableRecord
100
AcDbLayerTableRecord
  2
97
 70
     0
 62
    97
  6
CONTINUOUS
  0
LAYER
  5
9B
330
2
100
AcDbSymbolTableRecord
100
AcDbLayerTableRecord
  2
98
 70
     0
 62
    98
  6
CONTINUOUS
  0
LAYER
  5
9C
330
2
100
AcDbSymbolTableRecord
100
AcDbLayerTableRecord
  2
99
 70
     0
 62
    99
  6
CONTINUOUS
  0
LAYER
  5
9D
330
2
100
AcDbSymbolTableRecord
100
AcDbLayerTableRecord
  2
100
 70
     0
 62
   100
  6
CONTINUOUS
  0
LAYER
  5
9E
330
2
100
AcDbSymbolTableRecord
100
AcDbLayerTableRecord
  2
101
 70
     0
 62
   101
  6
CONTINUOUS
  0
LAYER
  5
9F
330
2
100
AcDbSymbolTableRecord
100
AcDbLayerTableRecord
  2
102
 70
     0
 62
   102
  6
CONTINUOUS
  0
LAYER
  5
A0
330
2
100
AcDbSymbolTableRecord
100
AcDbLayerTableRecord
  2
103
 70
     0
 62
   103
  6
CONTINUOUS
  0
LAYER
  5
A1
330
2
100
AcDbSymbolTableRecord
100
AcDbLayerTableRecord
  2
104
 70
     0
 62
   104
  6
CONTINUOUS
  0
LAYER
  5
A2
330
2
100
AcDbSymbolTableRecord
100
AcDbLayerTableRecord
  2
105
 70
     0
 62
   105
  6
CONTINUOUS
  0
LAYER
  5
A3
330
2
100
AcDbSymbolTableRecord
100
AcDbLayerTableRecord
  2
106
 70
     0
 62
   106
  6
CONTINUOUS
  0
LAYER
  5
A4
330
2
100
AcDbSymbolTableRecord
100
AcDbLayerTableRecord
  2
107
 70
     0
 62
   107
  6
CONTINUOUS
  0
LAYER
  5
A5
330
2
100
AcDbSymbolTableRecord
100
AcDbLayerTableRecord
  2
108
 70
     0
 62
   108
  6
CONTINUOUS
  0
LAYER
  5
A6
330
2
100
AcDbSymbolTableRecord
100
AcDbLayerTableRecord
  2
109
 70
     0
 62
   109
  6
CONTINUOUS
  0
LAYER
  5
A7
330
2
100
AcDbSymbolTableRecord
100
AcDbLayerTableRecord
  2
110
 70
     0
 62
   110
  6
CONTINUOUS
  0
LAYER
  5
A8
330
2
100
AcDbSymbolTableRecord
100
AcDbLayerTableRecord
  2
111
 70
     0
 62
   111
  6
CONTINUOUS
  0
LAYER
  5
A9
330
2
100
AcDbSymbolTableRecord
100
AcDbLayerTableRecord
  2
112
 70
     0
 62
   112
  6
CONTINUOUS
  0
LAYER
  5
AA
330
2
100
AcDbSymbolTableRecord
100
AcDbLayerTableRecord
  2
113
 70
     0
 62
   113
  6
CONTINUOUS
  0
LAYER
  5
AB
330
2
100
AcDbSymbolTableRecord
100
AcDbLayerTableRecord
  2
114
 70
     0
 62
   114
  6
CONTINUOUS
  0
LAYER
  5
AC
330
2
100
AcDbSymbolTableRecord
100
AcDbLayerTableRecord
  2
115
 70
     0
 62
   115
  6
CONTINUOUS
  0
LAYER
  5
AD
330
2
100
AcDbSymbolTableRecord
100
AcDbLayerTableRecord
  2
116
 70
     0
 62
   116
  6
CONTINUOUS
  0
LAYER
  5
AE
330
2
100
AcDbSymbolTableRecord
100
AcDbLayerTableRecord
  2
117
 70
     0
 62
   117
  6
CONTINUOUS
  0
LAYER
  5
AF
330
2
100
AcDbSymbolTableRecord
100
AcDbLayerTableRecord
  2
118
 70
     0
 62
   118
  6
CONTINUOUS
  0
LAYER
  5
B0
330
2
100
AcDbSymbolTableRecord
100
AcDbLayerTableRecord
  2
119
 70
     0
 62
   119
  6
CONTINUOUS
  0
LAYER
  5
B1
330
2
100
AcDbSymbolTableRecord
100
AcDbLayerTableRecord
  2
120
 70
     0
 62
   120
  6
CONTINUOUS
  0
LAYER
  5
B2
330
2
100
AcDbSymbolTableRecord
100
AcDbLayerTableRecord
  2
121
 70
     0
 62
   121
  6
CONTINUOUS
  0
LAYER
  5
B3
330
2
100
AcDbSymbolTableRecord
100
AcDbLayerTableRecord
  2
122
 70
     0
 62
   122
  6
CONTINUOUS
  0
LAYER
  5
B4
330
2
100
AcDbSymbolTableRecord
100
AcDbLayerTableRecord
  2
123
 70
     0
 62
   123
  6
CONTINUOUS
  0
LAYER
  5
B5
330
2
100
AcDbSymbolTableRecord
100
AcDbLayerTableRecord
  2
124
 70
     0
 62
   124
  6
CONTINUOUS
  0
LAYER
  5
B6
330
2
100
AcDbSymbolTableRecord
100
AcDbLayerTableRecord
  2
125
 70
     0
 62
   125
  6
CONTINUOUS
  0
LAYER
  5
B7
330
2
100
AcDbSymbolTableRecord
100
AcDbLayerTableRecord
  2
126
 70
     0
 62
   126
  6
CONTINUOUS
  0
LAYER
  5
B8
330
2
100
AcDbSymbolTableRecord
100
AcDbLayerTableRecord
  2
127
 70
     0
 62
   127
  6
CONTINUOUS
  0
LAYER
  5
B9
330
2
100
AcDbSymbolTableRecord
100
AcDbLayerTableRecord
  2
128
 70
     0
 62
   128
  6
CONTINUOUS
  0
LAYER
  5
BA
330
2
100
AcDbSymbolTableRecord
100
AcDbLayerTableRecord
  2
129
 70
     0
 62
   129
  6
CONTINUOUS
  0
LAYER
  5
BB
330
2
100
AcDbSymbolTableRecord
100
AcDbLayerTableRecord
  2
130
 70
     0
 62
   130
  6
CONTINUOUS
  0
LAYER
  5
BC
330
2
100
AcDbSymbolTableRecord
100
AcDbLayerTableRecord
  2
131
 70
     0
 62
   131
  6
CONTINUOUS
  0
LAYER
  5
BD
330
2
100
AcDbSymbolTableRecord
100
AcDbLayerTableRecord
  2
132
 70
     0
 62
   132
  6
CONTINUOUS
  0
LAYER
  5
BE
330
2
100
AcDbSymbolTableRecord
100
AcDbLayerTableRecord
  2
133
 70
     0
 62
   133
  6
CONTINUOUS
  0
LAYER
  5
BF
330
2
100
AcDbSymbolTableRecord
100
AcDbLayerTableRecord
  2
134
 70
     0
 62
   134
  6
CONTINUOUS
  0
LAYER
  5
C0
330
2
100
AcDbSymbolTableRecord
100
AcDbLayerTableRecord
  2
135
 70
     0
 62
   135
  6
CONTINUOUS
  0
LAYER
  5
C1
330
2
100
AcDbSymbolTableRecord
100
AcDbLayerTableRecord
  2
136
 70
     0
 62
   136
  6
CONTINUOUS
  0
LAYER
  5
C2
330
2
100
AcDbSymbolTableRecord
100
AcDbLayerTableRecord
  2
137
 70
     0
 62
   137
  6
CONTINUOUS
  0
LAYER
  5
C3
330
2
100
AcDbSymbolTableRecord
100
AcDbLayerTableRecord
  2
138
 70
     0
 62
   138
  6
CONTINUOUS
  0
LAYER
  5
C4
330
2
100
AcDbSymbolTableRecord
100
AcDbLayerTableRecord
  2
139
 70
     0
 62
   139
  6
CONTINUOUS
  0
LAYER
  5
C5
330
2
100
AcDbSymbolTableRecord
100
AcDbLayerTableRecord
  2
140
 70
     0
 62
   140
  6
CONTINUOUS
  0
LAYER
  5
C6
330
2
100
AcDbSymbolTableRecord
100
AcDbLayerTableRecord
  2
141
 70
     0
 62
   141
  6
CONTINUOUS
  0
LAYER
  5
C7
330
2
100
AcDbSymbolTableRecord
100
AcDbLayerTableRecord
  2
142
 70
     0
 62
   142
  6
CONTINUOUS
  0
LAYER
  5
C8
330
2
100
AcDbSymbolTableRecord
100
AcDbLayerTableRecord
  2
143
 70
     0
 62
   143
  6
CONTINUOUS
  0
LAYER
  5
C9
330
2
100
AcDbSymbolTableRecord
100
AcDbLayerTableRecord
  2
144
 70
     0
 62
   144
  6
CONTINUOUS
  0
LAYER
  5
CA
330
2
100
AcDbSymbolTableRecord
100
AcDbLayerTableRecord
  2
145
 70
     0
 62
   145
  6
CONTINUOUS
  0
LAYER
  5
CB
330
2
100
AcDbSymbolTableRecord
100
AcDbLayerTableRecord
  2
146
 70
     0
 62
   146
  6
CONTINUOUS
  0
LAYER
  5
CC
330
2
100
AcDbSymbolTableRecord
100
AcDbLayerTableRecord
  2
147
 70
     0
 62
   147
  6
CONTINUOUS
  0
LAYER
  5
CD
330
2
100
AcDbSymbolTableRecord
100
AcDbLayerTableRecord
  2
148
 70
     0
 62
   148
  6
CONTINUOUS
  0
LAYER
  5
CE
330
2
100
AcDbSymbolTableRecord
100
AcDbLayerTableRecord
  2
149
 70
     0
 62
   149
  6
CONTINUOUS
  0
LAYER
  5
CF
330
2
100
AcDbSymbolTableRecord
100
AcDbLayerTableRecord
  2
150
 70
     0
 62
   150
  6
CONTINUOUS
  0
LAYER
  5
D0
330
2
100
AcDbSymbolTableRecord
100
AcDbLayerTableRecord
  2
151
 70
     0
 62
   151
  6
CONTINUOUS
  0
LAYER
  5
D1
330
2
100
AcDbSymbolTableRecord
100
AcDbLayerTableRecord
  2
152
 70
     0
 62
   152
  6
CONTINUOUS
  0
LAYER
  5
D2
330
2
100
AcDbSymbolTableRecord
100
AcDbLayerTableRecord
  2
153
 70
     0
 62
   153
  6
CONTINUOUS
  0
LAYER
  5
D3
330
2
100
AcDbSymbolTableRecord
100
AcDbLayerTableRecord
  2
154
 70
     0
 62
   154
  6
CONTINUOUS
  0
LAYER
  5
D4
330
2
100
AcDbSymbolTableRecord
100
AcDbLayerTableRecord
  2
155
 70
     0
 62
   155
  6
CONTINUOUS
  0
LAYER
  5
D5
330
2
100
AcDbSymbolTableRecord
100
AcDbLayerTableRecord
  2
156
 70
     0
 62
   156
  6
CONTINUOUS
  0
LAYER
  5
D6
330
2
100
AcDbSymbolTableRecord
100
AcDbLayerTableRecord
  2
157
 70
     0
 62
   157
  6
CONTINUOUS
  0
LAYER
  5
D7
330
2
100
AcDbSymbolTableRecord
100
AcDbLayerTableRecord
  2
158
 70
     0
 62
   158
  6
CONTINUOUS
  0
LAYER
  5
D8
330
2
100
AcDbSymbolTableRecord
100
AcDbLayerTableRecord
  2
159
 70
     0
 62
   159
  6
CONTINUOUS
  0
LAYER
  5
D9
330
2
100
AcDbSymbolTableRecord
100
AcDbLayerTableRecord
  2
160
 70
     0
 62
   160
  6
CONTINUOUS
  0
LAYER
  5
DA
330
2
100
AcDbSymbolTableRecord
100
AcDbLayerTableRecord
  2
161
 70
     0
 62
   161
  6
CONTINUOUS
  0
LAYER
  5
DB
330
2
100
AcDbSymbolTableRecord
100
AcDbLayerTableRecord
  2
162
 70
     0
 62
   162
  6
CONTINUOUS
  0
LAYER
  5
DC
330
2
100
AcDbSymbolTableRecord
100
AcDbLayerTableRecord
  2
163
 70
     0
 62
   163
  6
CONTINUOUS
  0
LAYER
  5
DD
330
2
100
AcDbSymbolTableRecord
100
AcDbLayerTableRecord
  2
164
 70
     0
 62
   164
  6
CONTINUOUS
  0
LAYER
  5
DE
330
2
100
AcDbSymbolTableRecord
100
AcDbLayerTableRecord
  2
165
 70
     0
 62
   165
  6
CONTINUOUS
  0
LAYER
  5
DF
330
2
100
AcDbSymbolTableRecord
100
AcDbLayerTableRecord
  2
166
 70
     0
 62
   166
  6
CONTINUOUS
  0
LAYER
  5
E0
330
2
100
AcDbSymbolTableRecord
100
AcDbLayerTableRecord
  2
167
 70
     0
 62
   167
  6
CONTINUOUS
  0
LAYER
  5
E1
330
2
100
AcDbSymbolTableRecord
100
AcDbLayerTableRecord
  2
168
 70
     0
 62
   168
  6
CONTINUOUS
  0
LAYER
  5
E2
330
2
100
AcDbSymbolTableRecord
100
AcDbLayerTableRecord
  2
169
 70
     0
 62
   169
  6
CONTINUOUS
  0
LAYER
  5
E3
330
2
100
AcDbSymbolTableRecord
100
AcDbLayerTableRecord
  2
170
 70
     0
 62
   170
  6
CONTINUOUS
  0
LAYER
  5
E4
330
2
100
AcDbSymbolTableRecord
100
AcDbLayerTableRecord
  2
171
 70
     0
 62
   171
  6
CONTINUOUS
  0
LAYER
  5
E5
330
2
100
AcDbSymbolTableRecord
100
AcDbLayerTableRecord
  2
172
 70
     0
 62
   172
  6
CONTINUOUS
  0
LAYER
  5
E6
330
2
100
AcDbSymbolTableRecord
100
AcDbLayerTableRecord
  2
173
 70
     0
 62
   173
  6
CONTINUOUS
  0
LAYER
  5
E7
330
2
100
AcDbSymbolTableRecord
100
AcDbLayerTableRecord
  2
174
 70
     0
 62
   174
  6
CONTINUOUS
  0
LAYER
  5
E8
330
2
100
AcDbSymbolTableRecord
100
AcDbLayerTableRecord
  2
175
 70
     0
 62
   175
  6
CONTINUOUS
  0
LAYER
  5
E9
330
2
100
AcDbSymbolTableRecord
100
AcDbLayerTableRecord
  2
176
 70
     0
 62
   176
  6
CONTINUOUS
  0
LAYER
  5
EA
330
2
100
AcDbSymbolTableRecord
100
AcDbLayerTableRecord
  2
177
 70
     0
 62
   177
  6
CONTINUOUS
  0
LAYER
  5
EB
330
2
100
AcDbSymbolTableRecord
100
AcDbLayerTableRecord
  2
178
 70
     0
 62
   178
  6
CONTINUOUS
  0
LAYER
  5
EC
330
2
100
AcDbSymbolTableRecord
100
AcDbLayerTableRecord
  2
179
 70
     0
 62
   179
  6
CONTINUOUS
  0
LAYER
  5
ED
330
2
100
AcDbSymbolTableRecord
100
AcDbLayerTableRecord
  2
180
 70
     0
 62
   180
  6
CONTINUOUS
  0
LAYER
  5
EE
330
2
100
AcDbSymbolTableRecord
100
AcDbLayerTableRecord
  2
181
 70
     0
 62
   181
  6
CONTINUOUS
  0
LAYER
  5
EF
330
2
100
AcDbSymbolTableRecord
100
AcDbLayerTableRecord
  2
182
 70
     0
 62
   182
  6
CONTINUOUS
  0
LAYER
  5
F0
330
2
100
AcDbSymbolTableRecord
100
AcDbLayerTableRecord
  2
183
 70
     0
 62
   183
  6
CONTINUOUS
  0
LAYER
  5
F1
330
2
100
AcDbSymbolTableRecord
100
AcDbLayerTableRecord
  2
184
 70
     0
 62
   184
  6
CONTINUOUS
  0
LAYER
  5
F2
330
2
100
AcDbSymbolTableRecord
100
AcDbLayerTableRecord
  2
185
 70
     0
 62
   185
  6
CONTINUOUS
  0
LAYER
  5
F3
330
2
100
AcDbSymbolTableRecord
100
AcDbLayerTableRecord
  2
186
 70
     0
 62
   186
  6
CONTINUOUS
  0
LAYER
  5
F4
330
2
100
AcDbSymbolTableRecord
100
AcDbLayerTableRecord
  2
187
 70
     0
 62
   187
  6
CONTINUOUS
  0
LAYER
  5
F5
330
2
100
AcDbSymbolTableRecord
100
AcDbLayerTableRecord
  2
188
 70
     0
 62
   188
  6
CONTINUOUS
  0
LAYER
  5
F6
330
2
100
AcDbSymbolTableRecord
100
AcDbLayerTableRecord
  2
189
 70
     0
 62
   189
  6
CONTINUOUS
  0
LAYER
  5
F7
330
2
100
AcDbSymbolTableRecord
100
AcDbLayerTableRecord
  2
190
 70
     0
 62
   190
  6
CONTINUOUS
  0
LAYER
  5
F8
330
2
100
AcDbSymbolTableRecord
100
AcDbLayerTableRecord
  2
191
 70
     0
 62
   191
  6
CONTINUOUS
  0
LAYER
  5
F9
330
2
100
AcDbSymbolTableRecord
100
AcDbLayerTableRecord
  2
192
 70
     0
 62
   192
  6
CONTINUOUS
  0
LAYER
  5
FA
330
2
100
AcDbSymbolTableRecord
100
AcDbLayerTableRecord
  2
193
 70
     0
 62
   193
  6
CONTINUOUS
  0
LAYER
  5
FB
330
2
100
AcDbSymbolTableRecord
100
AcDbLayerTableRecord
  2
194
 70
     0
 62
   194
  6
CONTINUOUS
  0
LAYER
  5
FC
330
2
100
AcDbSymbolTableRecord
100
AcDbLayerTableRecord
  2
195
 70
     0
 62
   195
  6
CONTINUOUS
  0
LAYER
  5
FD
330
2
100
AcDbSymbolTableRecord
100
AcDbLayerTableRecord
  2
196
 70
     0
 62
   196
  6
CONTINUOUS
  0
LAYER
  5
FE
330
2
100
AcDbSymbolTableRecord
100
AcDbLayerTableRecord
  2
197
 70
     0
 62
   197
  6
CONTINUOUS
  0
LAYER
  5
FF
330
2
100
AcDbSymbolTableRecord
100
AcDbLayerTableRecord
  2
198
 70
     0
 62
   198
  6
CONTINUOUS
  0
LAYER
  5
100
330
2
100
AcDbSymbolTableRecord
100
AcDbLayerTableRecord
  2
199
 70
     0
 62
   199
  6
CONTINUOUS
  0
LAYER
  5
101
330
2
100
AcDbSymbolTableRecord
100
AcDbLayerTableRecord
  2
200
 70
     0
 62
   200
  6
CONTINUOUS
  0
LAYER
  5
102
330
2
100
AcDbSymbolTableRecord
100
AcDbLayerTableRecord
  2
201
 70
     0
 62
   201
  6
CONTINUOUS
  0
LAYER
  5
103
330
2
100
AcDbSymbolTableRecord
100
AcDbLayerTableRecord
  2
202
 70
     0
 62
   202
  6
CONTINUOUS
  0
LAYER
  5
104
330
2
100
AcDbSymbolTableRecord
100
AcDbLayerTableRecord
  2
203
 70
     0
 62
   203
  6
CONTINUOUS
  0
LAYER
  5
105
330
2
100
AcDbSymbolTableRecord
100
AcDbLayerTableRecord
  2
204
 70
     0
 62
   204
  6
CONTINUOUS
  0
LAYER
  5
106
330
2
100
AcDbSymbolTableRecord
100
AcDbLayerTableRecord
  2
205
 70
     0
 62
   205
  6
CONTINUOUS
  0
LAYER
  5
107
330
2
100
AcDbSymbolTableRecord
100
AcDbLayerTableRecord
  2
206
 70
     0
 62
   206
  6
CONTINUOUS
  0
LAYER
  5
108
330
2
100
AcDbSymbolTableRecord
100
AcDbLayerTableRecord
  2
207
 70
     0
 62
   207
  6
CONTINUOUS
  0
LAYER
  5
109
330
2
100
AcDbSymbolTableRecord
100
AcDbLayerTableRecord
  2
208
 70
     0
 62
   208
  6
CONTINUOUS
  0
LAYER
  5
10A
330
2
100
AcDbSymbolTableRecord
100
AcDbLayerTableRecord
  2
209
 70
     0
 62
   209
  6
CONTINUOUS
  0
LAYER
  5
10B
330
2
100
AcDbSymbolTableRecord
100
AcDbLayerTableRecord
  2
210
 70
     0
 62
   210
  6
CONTINUOUS
  0
LAYER
  5
10C
330
2
100
AcDbSymbolTableRecord
100
AcDbLayerTableRecord
  2
211
 70
     0
 62
   211
  6
CONTINUOUS
  0
LAYER
  5
10D
330
2
100
AcDbSymbolTableRecord
100
AcDbLayerTableRecord
  2
212
 70
     0
 62
   212
  6
CONTINUOUS
  0
LAYER
  5
10E
330
2
100
AcDbSymbolTableRecord
100
AcDbLayerTableRecord
  2
213
 70
     0
 62
   213
  6
CONTINUOUS
  0
LAYER
  5
10F
330
2
100
AcDbSymbolTableRecord
100
AcDbLayerTableRecord
  2
214
 70
     0
 62
   214
  6
CONTINUOUS
  0
LAYER
  5
110
330
2
100
AcDbSymbolTableRecord
100
AcDbLayerTableRecord
  2
215
 70
     0
 62
   215
  6
CONTINUOUS
  0
LAYER
  5
111
330
2
100
AcDbSymbolTableRecord
100
AcDbLayerTableRecord
  2
216
 70
     0
 62
   216
  6
CONTINUOUS
  0
LAYER
  5
112
330
2
100
AcDbSymbolTableRecord
100
AcDbLayerTableRecord
  2
217
 70
     0
 62
   217
  6
CONTINUOUS
  0
LAYER
  5
113
330
2
100
AcDbSymbolTableRecord
100
AcDbLayerTableRecord
  2
218
 70
     0
 62
   218
  6
CONTINUOUS
  0
LAYER
  5
114
330
2
100
AcDbSymbolTableRecord
100
AcDbLayerTableRecord
  2
219
 70
     0
 62
   219
  6
CONTINUOUS
  0
LAYER
  5
115
330
2
100
AcDbSymbolTableRecord
100
AcDbLayerTableRecord
  2
220
 70
     0
 62
   220
  6
CONTINUOUS
  0
LAYER
  5
116
330
2
100
AcDbSymbolTableRecord
100
AcDbLayerTableRecord
  2
221
 70
     0
 62
   221
  6
CONTINUOUS
  0
LAYER
  5
117
330
2
100
AcDbSymbolTableRecord
100
AcDbLayerTableRecord
  2
222
 70
     0
 62
   222
  6
CONTINUOUS
  0
LAYER
  5
118
330
2
100
AcDbSymbolTableRecord
100
AcDbLayerTableRecord
  2
223
 70
     0
 62
   223
  6
CONTINUOUS
  0
LAYER
  5
119
330
2
100
AcDbSymbolTableRecord
100
AcDbLayerTableRecord
  2
224
 70
     0
 62
   224
  6
CONTINUOUS
  0
LAYER
  5
11A
330
2
100
AcDbSymbolTableRecord
100
AcDbLayerTableRecord
  2
225
 70
     0
 62
   225
  6
CONTINUOUS
  0
LAYER
  5
11B
330
2
100
AcDbSymbolTableRecord
100
AcDbLayerTableRecord
  2
226
 70
     0
 62
   226
  6
CONTINUOUS
  0
LAYER
  5
11C
330
2
100
AcDbSymbolTableRecord
100
AcDbLayerTableRecord
  2
227
 70
     0
 62
   227
  6
CONTINUOUS
  0
LAYER
  5
11D
330
2
100
AcDbSymbolTableRecord
100
AcDbLayerTableRecord
  2
228
 70
     0
 62
   228
  6
CONTINUOUS
  0
LAYER
  5
11E
330
2
100
AcDbSymbolTableRecord
100
AcDbLayerTableRecord
  2
229
 70
     0
 62
   229
  6
CONTINUOUS
  0
LAYER
  5
11F
330
2
100
AcDbSymbolTableRecord
100
AcDbLayerTableRecord
  2
230
 70
     0
 62
   230
  6
CONTINUOUS
  0
LAYER
  5
120
330
2
100
AcDbSymbolTableRecord
100
AcDbLayerTableRecord
  2
231
 70
     0
 62
   231
  6
CONTINUOUS
  0
LAYER
  5
121
330
2
100
AcDbSymbolTableRecord
100
AcDbLayerTableRecord
  2
232
 70
     0
 62
   232
  6
CONTINUOUS
  0
LAYER
  5
122
330
2
100
AcDbSymbolTableRecord
100
AcDbLayerTableRecord
  2
233
 70
     0
 62
   233
  6
CONTINUOUS
  0
LAYER
  5
123
330
2
100
AcDbSymbolTableRecord
100
AcDbLayerTableRecord
  2
234
 70
     0
 62
   234
  6
CONTINUOUS
  0
LAYER
  5
124
330
2
100
AcDbSymbolTableRecord
100
AcDbLayerTableRecord
  2
235
 70
     0
 62
   235
  6
CONTINUOUS
  0
LAYER
  5
125
330
2
100
AcDbSymbolTableRecord
100
AcDbLayerTableRecord
  2
236
 70
     0
 62
   236
  6
CONTINUOUS
  0
LAYER
  5
126
330
2
100
AcDbSymbolTableRecord
100
AcDbLayerTableRecord
  2
237
 70
     0
 62
   237
  6
CONTINUOUS
  0
LAYER
  5
127
330
2
100
AcDbSymbolTableRecord
100
AcDbLayerTableRecord
  2
238
 70
     0
 62
   238
  6
CONTINUOUS
  0
LAYER
  5
128
330
2
100
AcDbSymbolTableRecord
100
AcDbLayerTableRecord
  2
239
 70
     0
 62
   239
  6
CONTINUOUS
  0
LAYER
  5
129
330
2
100
AcDbSymbolTableRecord
100
AcDbLayerTableRecord
  2
240
 70
     0
 62
   240
  6
CONTINUOUS
  0
LAYER
  5
12A
330
2
100
AcDbSymbolTableRecord
100
AcDbLayerTableRecord
  2
241
 70
     0
 62
   241
  6
CONTINUOUS
  0
LAYER
  5
12B
330
2
100
AcDbSymbolTableRecord
100
AcDbLayerTableRecord
  2
242
 70
     0
 62
   242
  6
CONTINUOUS
  0
LAYER
  5
12C
330
2
100
AcDbSymbolTableRecord
100
AcDbLayerTableRecord
  2
243
 70
     0
 62
   243
  6
CONTINUOUS
  0
LAYER
  5
12D
330
2
100
AcDbSymbolTableRecord
100
AcDbLayerTableRecord
  2
244
 70
     0
 62
   244
  6
CONTINUOUS
  0
LAYER
  5
12E
330
2
100
AcDbSymbolTableRecord
100
AcDbLayerTableRecord
  2
245
 70
     0
 62
   245
  6
CONTINUOUS
  0
LAYER
  5
12F
330
2
100
AcDbSymbolTableRecord
100
AcDbLayerTableRecord
  2
246
 70
     0
 62
   246
  6
CONTINUOUS
  0
LAYER
  5
130
330
2
100
AcDbSymbolTableRecord
100
AcDbLayerTableRecord
  2
247
 70
     0
 62
   247
  6
CONTINUOUS
  0
LAYER
  5
131
330
2
100
AcDbSymbolTableRecord
100
AcDbLayerTableRecord
  2
248
 70
     0
 62
   248
  6
CONTINUOUS
  0
LAYER
  5
132
330
2
100
AcDbSymbolTableRecord
100
AcDbLayerTableRecord
  2
249
 70
     0
 62
   249
  6
CONTINUOUS
  0
LAYER
  5
133
330
2
100
AcDbSymbolTableRecord
100
AcDbLayerTableRecord
  2
250
 70
     0
 62
   250
  6
CONTINUOUS
  0
LAYER
  5
134
330
2
100
AcDbSymbolTableRecord
100
AcDbLayerTableRecord
  2
251
 70
     0
 62
   251
  6
CONTINUOUS
  0
LAYER
  5
135
330
2
100
AcDbSymbolTableRecord
100
AcDbLayerTableRecord
  2
252
 70
     0
 62
   252
  6
CONTINUOUS
  0
LAYER
  5
136
330
2
100
AcDbSymbolTableRecord
100
AcDbLayerTableRecord
  2
253
 70
     0
 62
   253
  6
CONTINUOUS
  0
LAYER
  5
137
330
2
100
AcDbSymbolTableRecord
100
AcDbLayerTableRecord
  2
254
 70
     0
 62
   254
  6
CONTINUOUS
  0
LAYER
  5
138
330
2
100
AcDbSymbolTableRecord
100
AcDbLayerTableRecord
  2
255
 70
     0
 62
   255
  6
CONTINUOUS
  0
LAYER
  5
2430
330
2
100
AcDbSymbolTableRecord
100
AcDbLayerTableRecord
  2
DEFPOINTS
 70
     0
 62
     7
  6
CONTINUOUS
  0
ENDTAB
  0
TABLE
  2
STYLE
  5
3
330
0
100
AcDbSymbolTable
 70
     1
  0
STYLE
  5
11
330
3
100
AcDbSymbolTableRecord
100
AcDbTextStyleTableRecord
  2
STANDARD
 70
     0
 40
0.0
 41
1.0
 50
0.0
 71
     0
 42
0.2
  3
monotxt
  4

  0
ENDTAB
  0
TABLE
  2
VIEW
  5
6
330
0
100
AcDbSymbolTable
 70
     0
  0
ENDTAB
  0
TABLE
  2
UCS
  5
7
330
0
100
AcDbSymbolTable
 70
     0
  0
ENDTAB
  0
TABLE
  2
APPID
  5
9
330
0
100
AcDbSymbolTable
 70
     1
  0
APPID
  5
12
330
9
100
AcDbSymbolTableRecord
100
AcDbRegAppTableRecord
  2
ACAD
 70
     0
  0
ENDTAB
  0
TABLE
  2
DIMSTYLE
  5
A
330
0
100
AcDbSymbolTable
 70
     1
  0
DIMSTYLE
105
1F99
102
{ACAD_REACTORS
330
242F
102
}
330
A
100
AcDbSymbolTableRecord
100
AcDbDimStyleTableRecord
  2
STANDARD
 70
     0
  3

  4

  5

  6

  7

 40
1.0
 41
0.18
 42
0.0625
 43
0.38
 44
0.18
 45
0.0
 46
0.0
 47
0.0
 48
0.0
140
0.18
141
0.09
142
0.0
143
25.4
144
1.0
145
0.0
146
1.0
147
0.09
 71
     0
 72
     0
 73
     1
 74
     1
 75
     0
 76
     0
 77
     0
 78
     0
170
     0
171
     2
172
     0
173
     0
174
     0
175
     0
176
     0
177
     0
178
     0
270
     2
271
     4
272
     4
273
     2
274
     2
340
11
275
     0
280
     0
281
     0
282
     0
283
     1
284
     0
285
     0
286
     0
287
     3
288
     0
  0
ENDTAB
  0
TABLE
  2
BLOCK_RECORD
  5
1
330
0
100
AcDbSymbolTable
 70
     1
  0
BLOCK_RECORD
  5
1E
102
{ACAD_XDICTIONARY
360
1FA6
102
}
330
1
100
AcDbSymbolTableRecord
100
AcDbBlockTableRecord
  2
*MODEL_SPACE
  0
BLOCK_RECORD
  5
1A
102
{ACAD_XDICTIONARY
360
1FA8
102
}
330
1
100
AcDbSymbolTableRecord
100
AcDbBlockTableRecord
  2
*PAPER_SPACE
  0
BLOCK_RECORD
  5
2431
330
1
100
AcDbSymbolTableRecord
100
AcDbBlockTableRecord
  2
*D0
  0
ENDTAB
  0
ENDSEC
  0
SECTION
  2
BLOCKS
  0
BLOCK
  5
13B
330
1E
100
AcDbEntity
  8
0
100
AcDbBlockBegin
  2
*MODEL_SPACE
 70
     0
 10
0.0
 20
0.0
 30
0.0
  3
*MODEL_SPACE
  1

  0
ENDBLK
  5
13C
330
1E
100
AcDbEntity
  8
0
100
AcDbBlockEnd
  0
BLOCK
  5
139
330
1A
100
AcDbEntity
 67
     1
  8
0
100
AcDbBlockBegin
  2
*PAPER_SPACE
 70
     0
 10
0.0
 20
0.0
 30
0.0
  3
*PAPER_SPACE
  1

  0
ENDBLK
  5
13A
330
1A
100
AcDbEntity
 67
     1
  8
0
100
AcDbBlockEnd
  0
BLOCK
  5
243C
330
2431
100
AcDbEntity
  8
0
100
AcDbBlockBegin
  2
*D0
 70
     1
 10
0.0
 20
0.0
 30
0.0
  3
*D0
  1

  0
LINE
  5
243E
330
2431
100
AcDbEntity
  8
0
 62
     0
100
AcDbLine
 10
7.742845336129903
 20
14.39103336946093
 30
0.0
 11
6.786500491470069
 21
14.39103336946093
 31
0.0
  0
LINE
  5
243F
330
2431
100
AcDbEntity
  8
0
 62
     0
100
AcDbLine
 10
7.742845336129903
 20
10.20108171493337
 30
0.0
 11
6.786500491470068
 21
10.20108171493337
 31
0.0
  0
LINE
  5
2440
330
2431
100
AcDbEntity
  8
0
 62
     0
100
AcDbLine
 10
6.966500491470069
 20
14.21103336946093
 30
0.0
 11
6.966500491470068
 21
12.47605754219715
 31
0.0
  0
LINE
  5
2441
330
2431
100
AcDbEntity
  8
0
 62
     0
100
AcDbLine
 10
6.966500491470068
 20
10.38108171493337
 30
0.0
 11
6.966500491470068
 21
12.11605754219715
 31
0.0
  0
SOLID
  5
2442
330
2431
100
AcDbEntity
  8
0
 62
     0
100
AcDbTrace
 10
6.936500491470068
 20
14.21103336946093
 30
0.0
 11
6.996500491470069
 21
14.21103336946093
 31
0.0
 12
6.966500491470069
 22
14.39103336946093
 32
0.0
 13
6.966500491470069
 23
14.39103336946093
 33
0.0
  0
SOLID
  5
2443
330
2431
100
AcDbEntity
  8
0
 62
     0
100
AcDbTrace
 10
6.936500491470067
 20
10.38108171493337
 30
0.0
 11
6.996500491470068
 21
10.38108171493337
 31
0.0
 12
6.966500491470068
 22
10.20108171493337
 32
0.0
 13
6.966500491470068
 23
10.20108171493337
 33
0.0
  0
MTEXT
  5
2444
330
2431
100
AcDbEntity
  8
0
 62
     0
100
AcDbMText
 10
6.966500491470066
 20
12.29605754219716
 30
0.0
 40
0.18
 41
0.0
 71
     5
 72
     1
  1
\A1;4.1900
1001
ACAD
1000
MTEXTBEGIN
1070
    73
1070
     1
1070
    44
1040
1.0
1070
    74
1070
     0
1000
MTEXTEND
  0
POINT
  5
2445
330
2431
100
AcDbEntity
  8
DEFPOINTS
 62
     0
100
AcDbPoint
 10
7.805345336129903
 20
14.39103336946093
 30
0.0
  0
POINT
  5
2446
330
2431
100
AcDbEntity
  8
DEFPOINTS
 62
     0
100
AcDbPoint
 10
7.805345336129903
 20
10.20108171493337
 30
0.0
  0
POINT
  5
2447
330
2431
100
AcDbEntity
  8
DEFPOINTS
 62
     0
100
AcDbPoint
 10
6.966500491470068
 20
10.20108171493337
 30
0.0
  0
ENDBLK
  5
243D
330
2431
100
AcDbEntity
  8
0
100
AcDbBlockEnd
  0
ENDSEC
  0
SECTION
  2
ENTITIES
  0
LINE
  5
1A34
330
1E
100
AcDbEntity
  8
7
100
AcDbLine
 10
8.930984385637776
 20
13.85513986631134
 30
0.0
 11
8.930984385637776
 21
14.02194985381134
 31
0.0
  0
LINE
  5
1A38
330
1E
100
AcDbEntity
  8
7
100
AcDbLine
 10
8.846922659653525
 20
13.93788812782709
 30
0.0
 11
9.013732647153524
 21
13.93788812782709
 31
0.0
  0
LINE
  5
1A3A
330
1E
100
AcDbEntity
  8
7
100
AcDbLine
 10
8.930984385637776
 20
10.57016523058299
 30
0.0
 11
8.930984385637776
 21
10.73697521808299
 31
0.0
  0
LINE
  5
1A3E
330
1E
100
AcDbEntity
  8
7
100
AcDbLine
 10
8.846922659653525
 20
10.65422695656724
 30
0.0
 11
9.013732647153524
 21
10.65422695656724
 31
0.0
  0
LINE
  5
1DB2
330
1E
100
AcDbEntity
  8
7
100
AcDbLine
 10
9.736138104830684
 20
10.65422695656724
 30
0.0
 11
9.602164729043286
 21
10.65422695656724
 31
0.0
  0
LINE
  5
1DB3
330
1E
100
AcDbEntity
  8
7
100
AcDbLine
 10
9.669151416936987
 20
10.72121364446094
 30
0.0
 11
9.669151416936987
 21
10.58724026867354
 31
0.0
  0
LINE
  5
1DB4
330
1E
100
AcDbEntity
  8
7
100
AcDbLine
 10
9.736138104830684
 20
10.65422695656724
 30
0.0
 11
9.602164729043286
 21
10.65422695656724
 31
0.0
  0
LINE
  5
1DB5
330
1E
100
AcDbEntity
  8
7
100
AcDbLine
 10
9.669151416936987
 20
10.72121364446094
 30
0.0
 11
9.669151416936987
 21
10.58724026867354
 31
0.0
  0
LINE
  5
1DB6
330
1E
100
AcDbEntity
  8
7
100
AcDbLine
 10
9.736138104830684
 20
10.65422695656724
 30
0.0
 11
9.602164729043286
 21
10.65422695656724
 31
0.0
  0
LINE
  5
1DB7
330
1E
100
AcDbEntity
  8
7
100
AcDbLine
 10
9.669151416936987
 20
10.72121364446094
 30
0.0
 11
9.669151416936987
 21
10.58724026867354
 31
0.0
  0
LINE
  5
1DB8
330
1E
100
AcDbEntity
  8
7
100
AcDbLine
 10
9.736138104830684
 20
10.65422695656724
 30
0.0
 11
9.602164729043286
 21
10.65422695656724
 31
0.0
  0
LINE
  5
1DB9
330
1E
100
AcDbEntity
  8
7
100
AcDbLine
 10
9.669151416936987
 20
10.72121364446094
 30
0.0
 11
9.669151416936987
 21
10.58724026867354
 31
0.0
  0
LINE
  5
1DBA
330
1E
100
AcDbEntity
  8
7
100
AcDbLine
 10
9.736138104830684
 20
10.65422695656724
 30
0.0
 11
9.602164729043286
 21
10.65422695656724
 31
0.0
  0
LINE
  5
1DBB
330
1E
100
AcDbEntity
  8
7
100
AcDbLine
 10
9.669151416936987
 20
10.72121364446094
 30
0.0
 11
9.669151416936987
 21
10.58724026867354
 31
0.0
  0
LINE
  5
1DBC
330
1E
100
AcDbEntity
  8
7
100
AcDbLine
 10
5.892941069988166
 20
14.40416801414599
 30
0.0
 11
5.952046971070846
 21
14.40416801414599
 31
0.0
  0
LINE
  5
1DC5
330
1E
100
AcDbEntity
  8
7
100
AcDbLine
 10
5.642069356503917
 20
10.72515403786646
 30
0.0
 11
5.642069356503917
 21
10.86700820046488
 31
0.0
  0
LINE
  5
1DD2
330
1E
100
AcDbEntity
  8
7
100
AcDbLine
 10
5.642069356503917
 20
10.86700820046488
 30
0.0
 11
5.892941069988166
 21
10.86700820046488
 31
0.0
  0
LINE
  5
1DDE
330
1E
100
AcDbEntity
  8
7
100
AcDbLine
 10
5.952046971070846
 20
14.40416801414599
 30
0.0
 11
5.952046971070846
 21
10.21421635961843
 31
0.0
  0
LINE
  5
1DDF
330
1E
100
AcDbEntity
  8
7
100
AcDbLine
 10
5.892941069988166
 20
10.21421635961843
 30
0.0
 11
5.892941069988166
 21
14.40416801414599
 31
0.0
  0
LINE
  5
1DE0
330
1E
100
AcDbEntity
  8
7
100
AcDbLine
 10
5.892941069988166
 20
13.8104820743822
 30
0.0
 11
5.892941069988166
 21
14.40416801414599
 31
0.0
  0
LINE
  5
1DE1
330
1E
100
AcDbEntity
  8
7
100
AcDbLine
 10
5.892941069988166
 20
13.8104820743822
 30
0.0
 11
5.892941069988166
 21
14.40416801414599
 31
0.0
  0
LINE
  5
1DE2
330
1E
100
AcDbEntity
  8
7
100
AcDbLine
 10
5.642069356503917
 20
14.02063638934283
 30
0.0
 11
5.661771323531476
 21
14.02063638934283
 31
0.0
  0
LINE
  5
1DE3
330
1E
100
AcDbEntity
  8
7
100
AcDbLine
 10
5.682786755027537
 20
14.02063638934283
 30
0.0
 11
5.702488722055095
 21
14.02063638934283
 31
0.0
  0
LINE
  5
1DE4
330
1E
100
AcDbEntity
  8
7
100
AcDbLine
 10
5.642069356503917
 20
13.89191687142945
 30
0.0
 11
5.661771323531476
 21
13.89191687142945
 31
0.0
  0
LINE
  5
1DE5
330
1E
100
AcDbEntity
  8
7
100
AcDbLine
 10
5.682786755027537
 20
13.89191687142945
 30
0.0
 11
5.702488722055095
 21
13.89191687142945
 31
0.0
  0
LINE
  5
1DE6
330
1E
100
AcDbEntity
  8
7
100
AcDbLine
 10
5.702488722055095
 20
14.02063638934283
 30
0.0
 11
5.691981006307068
 21
14.02063638934283
 31
0.0
  0
LINE
  5
1DEC
330
1E
100
AcDbEntity
  8
7
100
AcDbLine
 10
5.831208239968482
 20
14.02063638934283
 30
0.0
 11
5.814133201877931
 21
14.02063638934283
 31
0.0
  0
LINE
  5
1DED
330
1E
100
AcDbEntity
  8
7
100
AcDbLine
 10
5.795744699318877
 20
14.02063638934283
 30
0.0
 11
5.778669661228327
 21
14.02063638934283
 31
0.0
  0
LINE
  5
1DEE
330
1E
100
AcDbEntity
  8
7
100
AcDbLine
 10
5.829894775499978
 20
13.88403608461843
 30
0.0
 11
5.811506272940922
 21
13.88403608461843
 31
0.0
  0
LINE
  5
1DEF
330
1E
100
AcDbEntity
  8
7
100
AcDbLine
 10
5.794431234850373
 20
13.88403608461843
 30
0.0
 11
5.777356196759821
 21
13.88403608461843
 31
0.0
  0
LINE
  5
1DF0
330
1E
100
AcDbEntity
  8
7
100
AcDbLine
 10
5.846969813590529
 20
14.05084607211843
 30
0.0
 11
5.828581311031475
 21
14.05084607211843
 31
0.0
  0
LINE
  5
1DF1
330
1E
100
AcDbEntity
  8
7
100
AcDbLine
 10
5.810192808472419
 20
14.05084607211843
 30
0.0
 11
5.791804305913368
 21
14.05084607211843
 31
0.0
  0
LINE
  5
1DF2
330
1E
100
AcDbEntity
  8
7
100
AcDbLine
 10
5.844342884653524
 20
13.85382640184283
 30
0.0
 11
5.827267846562972
 21
13.85382640184283
 31
0.0
  0
LINE
  5
1DF3
330
1E
100
AcDbEntity
  8
7
100
AcDbLine
 10
5.808879344003917
 20
13.85382640184283
 30
0.0
 11
5.791804305913368
 21
13.85382640184283
 31
0.0
  0
LINE
  5
1DF4
330
1E
100
AcDbEntity
  8
7
100
AcDbLine
 10
5.701175257586593
 20
10.72515403786646
 30
0.0
 11
5.681473290559034
 21
10.72515403786646
 31
0.0
  0
LINE
  5
1DF5
330
1E
100
AcDbEntity
  8
7
100
AcDbLine
 10
5.663084787999978
 20
10.72515403786646
 30
0.0
 11
5.643382820972419
 21
10.72515403786646
 31
0.0
  0
LINE
  5
1DF6
330
1E
100
AcDbEntity
  8
7
100
AcDbLine
 10
5.703802186523601
 20
10.6056287712326
 30
0.0
 11
5.684100219496042
 21
10.6056287712326
 31
0.0
  0
LINE
  5
1DF7
330
1E
100
AcDbEntity
  8
7
100
AcDbLine
 10
5.663084787999978
 20
10.6056287712326
 30
0.0
 11
5.643382820972419
 21
10.6056287712326
 31
0.0
  0
LINE
  5
1DF8
330
1E
100
AcDbEntity
  8
7
100
AcDbLine
 10
5.642069356503917
 20
10.52419397418536
 30
0.0
 11
5.642069356503917
 21
10.72515403786646
 31
0.0
  0
LINE
  5
1DF9
330
1E
100
AcDbEntity
  8
7
100
AcDbLine
 10
5.825954382094466
 20
10.72515403786646
 30
0.0
 11
5.808879344003917
 21
10.72515403786646
 31
0.0
  0
LINE
  5
1DFA
330
1E
100
AcDbEntity
  8
7
100
AcDbLine
 10
5.791804305913368
 20
10.72515403786646
 30
0.0
 11
5.774729267822815
 21
10.72515403786646
 31
0.0
  0
LINE
  5
1DFB
330
1E
100
AcDbEntity
  8
7
100
AcDbLine
 10
5.825954382094466
 20
10.6056287712326
 30
0.0
 11
5.808879344003917
 21
10.6056287712326
 31
0.0
  0
LINE
  5
1DFC
330
1E
100
AcDbEntity
  8
7
100
AcDbLine
 10
5.793117770381869
 20
10.6056287712326
 30
0.0
 11
5.776042732291318
 21
10.6056287712326
 31
0.0
  0
LINE
  5
1DFD
330
1E
100
AcDbEntity
  8
7
100
AcDbLine
 10
5.950733506602341
 20
10.72515403786646
 30
0.0
 11
5.931031539574782
 21
10.72515403786646
 31
0.0
  0
LINE
  5
1DFE
330
1E
100
AcDbEntity
  8
7
100
AcDbLine
 10
5.911329572547223
 20
10.72515403786646
 30
0.0
 11
5.891627605519664
 21
10.72515403786646
 31
0.0
  0
LINE
  5
1DFF
330
1E
100
AcDbEntity
  8
7
100
AcDbLine
 10
5.950733506602341
 20
10.6056287712326
 30
0.0
 11
5.931031539574782
 21
10.6056287712326
 31
0.0
  0
LINE
  5
1E00
330
1E
100
AcDbEntity
  8
7
100
AcDbLine
 10
5.911329572547223
 20
10.6056287712326
 30
0.0
 11
5.891627605519664
 21
10.6056287712326
 31
0.0
  0
LINE
  5
1E01
330
1E
100
AcDbEntity
  8
7
100
AcDbLine
 10
5.891627605519664
 20
14.01538253146882
 30
0.0
 11
5.911329572547223
 21
14.01538253146882
 31
0.0
  0
LINE
  5
1E02
330
1E
100
AcDbEntity
  8
7
100
AcDbLine
 10
5.931031539574782
 20
14.01538253146882
 30
0.0
 11
5.952046971070846
 21
14.01538253146882
 31
0.0
  0
LINE
  5
1E03
330
1E
100
AcDbEntity
  8
7
100
AcDbLine
 10
5.949420042133837
 20
14.01538253146882
 30
0.0
 11
5.950733506602341
 21
14.01538253146882
 31
0.0
  0
LINE
  5
1E04
330
1E
100
AcDbEntity
  8
7
100
AcDbLine
 10
5.891627605519664
 20
13.88928994249244
 30
0.0
 11
5.911329572547223
 21
13.88928994249244
 31
0.0
  0
LINE
  5
1E05
330
1E
100
AcDbEntity
  8
7
100
AcDbLine
 10
5.931031539574782
 20
13.88928994249244
 30
0.0
 11
5.952046971070846
 21
13.88928994249244
 31
0.0
  0
LINE
  5
1E06
330
1E
100
AcDbEntity
  8
7
100
AcDbLine
 10
5.841715955716514
 20
10.75536372064205
 30
0.0
 11
5.824640917625965
 21
10.75536372064205
 31
0.0
  0
LINE
  5
1E07
330
1E
100
AcDbEntity
  8
7
100
AcDbLine
 10
5.808879344003917
 20
10.75536372064205
 30
0.0
 11
5.791804305913368
 21
10.75536372064205
 31
0.0
  0
LINE
  5
1E08
330
1E
100
AcDbEntity
  8
7
100
AcDbLine
 10
5.841715955716514
 20
10.57541908845701
 30
0.0
 11
5.824640917625965
 21
10.57541908845701
 31
0.0
  0
LINE
  5
1E09
330
1E
100
AcDbEntity
  8
7
100
AcDbLine
 10
5.808879344003917
 20
10.57541908845701
 30
0.0
 11
5.791804305913368
 21
10.57541908845701
 31
0.0
  0
LINE
  5
1E10
330
1E
100
AcDbEntity
  8
7
100
AcDbLine
 10
7.930124460637779
 20
13.68438948540583
 30
0.0
 11
7.930124460637779
 21
13.10252472585858
 31
0.0
  0
LINE
  5
1E11
330
1E
100
AcDbEntity
  8
7
100
AcDbLine
 10
7.968214930224385
 20
13.04473228924441
 30
0.0
 11
7.968214930224385
 21
10.85650048471685
 31
0.0
  0
LINE
  5
1E18
330
1E
100
AcDbEntity
  8
7
100
AcDbLine
 10
9.931844310637776
 20
10.90641213452
 30
0.0
 11
9.931844310637776
 21
11.48433650066173
 31
0.0
  0
LINE
  5
1E19
330
1E
100
AcDbEntity
  8
7
100
AcDbLine
 10
9.893753841051161
 20
11.5408154728074
 30
0.0
 11
9.893753841051161
 21
13.73430113520897
 31
0.0
  0
LINE
  5
1E1A
330
1E
100
AcDbEntity
  8
7
100
AcDbLine
 10
7.805345336129903
 20
10.20108171493337
 30
0.0
 11
10.05662343514565
 21
10.20108171493337
 31
0.0
  0
LINE
  5
1E1B
330
1E
100
AcDbEntity
  8
7
100
AcDbLine
 10
10.11966972963384
 20
10.26281454495307
 30
0.0
 11
10.11966972963384
 21
11.48302303619323
 31
0.0
  0
LINE
  5
1E1C
330
1E
100
AcDbEntity
  8
7
100
AcDbLine
 10
10.05662343514565
 20
14.39103336946094
 30
0.0
 11
7.805345336129903
 21
14.39103336946094
 31
0.0
  0
LINE
  5
1E1D
330
1E
100
AcDbEntity
  8
7
100
AcDbLine
 10
7.742299041641712
 20
14.32930053944126
 30
0.0
 11
7.742299041641712
 21
10.26281454495307
 31
0.0
  0
LINE
  5
1E1E
330
1E
100
AcDbEntity
  8
7
100
AcDbLine
 10
9.793930541444863
 20
10.79476765469716
 30
0.0
 11
9.793930541444863
 21
10.81052922831921
 31
0.0
  0
LINE
  5
1E1F
330
1E
100
AcDbEntity
  8
7
100
AcDbLine
 10
9.793930541444863
 20
10.82760426640976
 30
0.0
 11
9.793930541444863
 21
10.84467930450032
 31
0.0
  0
LINE
  5
1E20
330
1E
100
AcDbEntity
  8
7
100
AcDbLine
 10
8.317596478846436
 20
13.74743577989401
 30
0.0
 11
8.317596478846436
 21
13.80391475203969
 31
0.0
  0
LINE
  5
1E21
330
1E
100
AcDbEntity
  8
7
100
AcDbLine
 10
8.317596478846436
 20
13.86170718865386
 30
0.0
 11
8.317596478846436
 21
13.9759785974137
 31
0.0
  0
LINE
  5
1E2C
330
1E
100
AcDbEntity
  8
7
100
AcDbLine
 10
8.068038229830685
 20
13.9759785974137
 30
0.0
 11
8.068038229830685
 21
13.86170718865386
 31
0.0
  0
LINE
  5
1E2D
330
1E
100
AcDbEntity
  8
7
100
AcDbLine
 10
8.068038229830685
 20
13.80391475203969
 30
0.0
 11
8.068038229830685
 21
13.74743577989401
 31
0.0
  0
LINE
  5
1E2E
330
1E
100
AcDbEntity
  8
7
100
AcDbLine
 10
9.544372292429113
 20
10.79476765469716
 30
0.0
 11
9.627120553944864
 21
10.79476765469716
 31
0.0
  0
LINE
  5
1E2F
330
1E
100
AcDbEntity
  8
7
100
AcDbLine
 10
9.711182279929113
 20
10.79476765469716
 30
0.0
 11
9.793930541444863
 21
10.79476765469716
 31
0.0
  0
LINE
  5
1E30
330
1E
100
AcDbEntity
  8
7
100
AcDbLine
 10
8.317596478846436
 20
13.79734742969716
 30
0.0
 11
8.234848217330686
 21
13.79734742969716
 31
0.0
  0
LINE
  5
1E31
330
1E
100
AcDbEntity
  8
7
100
AcDbLine
 10
8.150786491346435
 20
13.79734742969716
 30
0.0
 11
8.068038229830685
 21
13.79734742969716
 31
0.0
  0
LINE
  5
1E32
330
1E
100
AcDbEntity
  8
7
100
AcDbLine
 10
9.544372292429113
 20
10.84467930450032
 30
0.0
 11
9.544372292429113
 21
10.78688686788614
 31
0.0
  0
LINE
  5
1E33
330
1E
100
AcDbEntity
  8
7
100
AcDbLine
 10
9.544372292429113
 20
10.73040789574047
 30
0.0
 11
9.544372292429113
 21
10.61613648698063
 31
0.0
  0
LINE
  5
1E3E
330
1E
100
AcDbEntity
  8
7
100
AcDbLine
 10
9.793930541444863
 20
10.61613648698063
 30
0.0
 11
9.793930541444863
 21
10.73040789574047
 31
0.0
  0
LINE
  5
1E3F
330
1E
100
AcDbEntity
  8
7
100
AcDbLine
 10
9.793930541444863
 20
10.78688686788614
 30
0.0
 11
9.793930541444863
 21
10.84467930450032
 31
0.0
  0
LINE
  5
1E40
330
1E
100
AcDbEntity
  8
7
100
AcDbLine
 10
10.11966972963384
 20
14.32930053944126
 30
0.0
 11
10.11966972963384
 21
11.48302303619323
 31
0.0
  0
LINE
  5
1E57
330
1E
100
AcDbEntity
  8
7
100
AcDbLine
 10
5.892941069988166
 20
14.15329630066173
 30
0.0
 11
5.850910206996042
 21
14.12571354682315
 31
0.0
  0
LINE
  5
1F7F
330
1E
100
AcDbEntity
  8
7
100
AcDbLine
 10
9.868798016149588
 20
10.84467930450032
 30
0.0
 11
9.899007698925176
 21
10.85256009131134
 31
0.0
  0
LINE
  5
1FDC
330
1E
100
AcDbEntity
  8
7
100
AcDbLine
 10
9.895067305519665
 20
11.5408154728074
 30
0.0
 11
9.900321163393677
 21
11.52374043471685
 31
0.0
  0
LINE
  5
1FDD
330
1E
100
AcDbEntity
  8
7
100
AcDbLine
 10
9.900321163393677
 20
11.52374043471685
 30
0.0
 11
9.913455808078721
 21
11.51323271896882
 31
0.0
  0
LINE
  5
1FDE
330
1E
100
AcDbEntity
  8
7
100
AcDbLine
 10
9.930530846169272
 20
11.48433650066173
 30
0.0
 11
9.925276988295253
 21
11.50141153875227
 31
0.0
  0
LINE
  5
1FDF
330
1E
100
AcDbEntity
  8
7
100
AcDbLine
 10
9.925276988295253
 20
11.50141153875227
 30
0.0
 11
9.912142343610216
 21
11.51191925450032
 31
0.0
  0
LINE
  5
1FE0
330
1E
100
AcDbEntity
  8
7
100
AcDbLine
 10
7.931437925106281
 20
13.10252472585858
 30
0.0
 11
7.936691782980295
 21
13.08544968776803
 31
0.0
  0
LINE
  5
1FE1
330
1E
100
AcDbEntity
  8
7
100
AcDbLine
 10
7.936691782980295
 20
13.08544968776803
 30
0.0
 11
7.949826427665336
 21
13.07494197202
 31
0.0
  0
LINE
  5
1FE2
330
1E
100
AcDbEntity
  8
7
100
AcDbLine
 10
7.966901465755881
 20
13.04473228924441
 30
0.0
 11
7.961647607881866
 21
13.06180732733496
 31
0.0
  0
LINE
  5
1FE3
330
1E
100
AcDbEntity
  8
7
100
AcDbLine
 10
7.961647607881866
 20
13.06180732733496
 30
0.0
 11
7.948512963196828
 21
13.07231504308299
 31
0.0
  0
LINE
  5
1FE4
330
1E
100
AcDbEntity
  8
7
100
AcDbLine
 10
9.899007698925176
 20
10.85256009131134
 30
0.0
 11
9.922650059358247
 21
10.8748889872759
 31
0.0
  0
LINE
  5
1FE5
330
1E
100
AcDbEntity
  8
7
100
AcDbLine
 10
9.922650059358247
 20
10.8748889872759
 30
0.0
 11
9.930530846169272
 21
10.90641213452
 31
0.0
  0
LINE
  5
1FE6
330
1E
100
AcDbEntity
  8
7
100
AcDbLine
 10
10.05662343514565
 20
10.20108171493337
 30
0.0
 11
10.08683311792123
 21
10.20896250174441
 31
0.0
  0
LINE
  5
1FE7
330
1E
100
AcDbEntity
  8
7
100
AcDbLine
 10
10.08683311792123
 20
10.20896250174441
 30
0.0
 11
10.11047547835431
 21
10.23129139770897
 31
0.0
  0
LINE
  5
1FE8
330
1E
100
AcDbEntity
  8
7
100
AcDbLine
 10
10.11047547835431
 20
10.23129139770897
 30
0.0
 11
10.11835626516533
 21
10.26281454495307
 31
0.0
  0
LINE
  5
1FE9
330
1E
100
AcDbEntity
  8
7
100
AcDbLine
 10
7.743612506110218
 20
10.26281454495307
 30
0.0
 11
7.751493292921241
 21
10.23260486217748
 31
0.0
  0
LINE
  5
1FEA
330
1E
100
AcDbEntity
  8
7
100
AcDbLine
 10
7.751493292921241
 20
10.23260486217748
 30
0.0
 11
7.773822188885806
 21
10.20896250174441
 31
0.0
  0
LINE
  5
1FEB
330
1E
100
AcDbEntity
  8
7
100
AcDbLine
 10
7.773822188885806
 20
10.20896250174441
 30
0.0
 11
7.805345336129903
 21
10.20108171493337
 31
0.0
  0
LINE
  5
1FEC
330
1E
100
AcDbEntity
  8
7
100
AcDbLine
 10
7.968214930224385
 20
10.85650048471685
 30
0.0
 11
7.976095717035411
 21
10.82629080194126
 31
0.0
  0
LINE
  5
1FED
330
1E
100
AcDbEntity
  8
7
100
AcDbLine
 10
7.976095717035411
 20
10.82629080194126
 30
0.0
 11
7.998424612999977
 21
10.80264844150819
 31
0.0
  0
LINE
  5
1FEE
330
1E
100
AcDbEntity
  8
7
100
AcDbLine
 10
7.998424612999977
 20
10.80264844150819
 30
0.0
 11
8.029947760244072
 21
10.79476765469716
 31
0.0
  0
LINE
  5
1FEF
330
1E
100
AcDbEntity
  8
7
100
AcDbLine
 10
7.993170755125966
 20
13.74612231542551
 30
0.0
 11
7.96296107235037
 21
13.73824152861449
 31
0.0
  0
LINE
  5
1FF0
330
1E
100
AcDbEntity
  8
7
100
AcDbLine
 10
7.96296107235037
 20
13.73824152861449
 30
0.0
 11
7.9393187119173
 21
13.71591263264992
 31
0.0
  0
LINE
  5
1FF1
330
1E
100
AcDbEntity
  8
7
100
AcDbLine
 10
7.9393187119173
 20
13.71591263264992
 30
0.0
 11
7.931437925106281
 21
13.68438948540583
 31
0.0
  0
LINE
  5
1FF2
330
1E
100
AcDbEntity
  8
7
100
AcDbLine
 10
7.805345336129903
 20
14.39103336946094
 30
0.0
 11
7.775135653354311
 21
14.38315258264992
 31
0.0
  0
LINE
  5
1FF3
330
1E
100
AcDbEntity
  8
7
100
AcDbLine
 10
7.775135653354311
 20
14.38315258264992
 30
0.0
 11
7.751493292921241
 21
14.36082368668535
 31
0.0
  0
LINE
  5
1FF4
330
1E
100
AcDbEntity
  8
7
100
AcDbLine
 10
7.751493292921241
 20
14.36082368668535
 30
0.0
 11
7.743612506110218
 21
14.32930053944126
 31
0.0
  0
LINE
  5
1FF5
330
1E
100
AcDbEntity
  8
7
100
AcDbLine
 10
9.893753841051161
 20
13.73430113520897
 30
0.0
 11
9.885873054240132
 21
13.76451081798457
 31
0.0
  0
LINE
  5
1FF6
330
1E
100
AcDbEntity
  8
7
100
AcDbLine
 10
9.885873054240132
 20
13.76451081798457
 30
0.0
 11
9.863544158275566
 21
13.78815317841764
 31
0.0
  0
LINE
  5
1FF7
330
1E
100
AcDbEntity
  8
7
100
AcDbLine
 10
9.863544158275566
 20
13.78815317841764
 30
0.0
 11
9.832021011031477
 21
13.79603396522866
 31
0.0
  0
LINE
  5
1FF8
330
1E
100
AcDbEntity
  8
7
100
AcDbLine
 10
10.11835626516533
 20
14.32930053944126
 30
0.0
 11
10.11047547835431
 21
14.35951022221685
 31
0.0
  0
LINE
  5
1FF9
330
1E
100
AcDbEntity
  8
7
100
AcDbLine
 10
10.11047547835431
 20
14.35951022221685
 30
0.0
 11
10.08814658238973
 21
14.38315258264992
 31
0.0
  0
LINE
  5
1FFA
330
1E
100
AcDbEntity
  8
7
100
AcDbLine
 10
10.08814658238973
 20
14.38315258264992
 30
0.0
 11
10.05662343514565
 21
14.39103336946094
 31
0.0
  0
LINE
  5
1FFB
330
1E
100
AcDbEntity
  8
7
100
AcDbLine
 10
9.071525083767692
 20
10.4782227177877
 30
0.0
 11
9.106988624417299
 21
10.51368625843732
 31
0.0
  0
LINE
  5
1FFC
330
1E
100
AcDbEntity
  8
7
100
AcDbLine
 10
9.106988624417299
 20
10.51368625843732
 30
0.0
 11
9.13325791378738
 21
10.55703058589795
 31
0.0
  0
LINE
  5
1FFD
330
1E
100
AcDbEntity
  8
7
100
AcDbLine
 10
9.13325791378738
 20
10.55703058589795
 30
0.0
 11
9.150332951877929
 21
10.60431530676409
 31
0.0
  0
LINE
  5
1FFE
330
1E
100
AcDbEntity
  8
7
100
AcDbLine
 10
9.150332951877929
 20
10.60431530676409
 30
0.0
 11
9.155586809751946
 21
10.65422695656724
 31
0.0
  0
LINE
  5
1FFF
330
1E
100
AcDbEntity
  8
7
100
AcDbLine
 10
9.155586809751946
 20
10.65422695656724
 30
0.0
 11
9.150332951877929
 21
10.70413860637039
 31
0.0
  0
LINE
  5
2000
330
1E
100
AcDbEntity
  8
7
100
AcDbLine
 10
9.150332951877929
 20
10.70413860637039
 30
0.0
 11
9.13325791378738
 21
10.75142332723653
 31
0.0
  0
LINE
  5
2001
330
1E
100
AcDbEntity
  8
7
100
AcDbLine
 10
9.13325791378738
 20
10.75142332723653
 30
0.0
 11
9.106988624417299
 21
10.79345419022866
 31
0.0
  0
LINE
  5
2002
330
1E
100
AcDbEntity
  8
7
100
AcDbLine
 10
8.754980146858246
 20
10.79345419022866
 30
0.0
 11
8.728710857488167
 21
10.75142332723653
 31
0.0
  0
LINE
  5
2003
330
1E
100
AcDbEntity
  8
7
100
AcDbLine
 10
8.728710857488167
 20
10.75142332723653
 30
0.0
 11
8.711635819397617
 21
10.70413860637039
 31
0.0
  0
LINE
  5
2004
330
1E
100
AcDbEntity
  8
7
100
AcDbLine
 10
8.711635819397617
 20
10.70413860637039
 30
0.0
 11
8.706381961523602
 21
10.65422695656724
 31
0.0
  0
LINE
  5
2005
330
1E
100
AcDbEntity
  8
7
100
AcDbLine
 10
8.706381961523602
 20
10.65422695656724
 30
0.0
 11
8.711635819397617
 21
10.60431530676409
 31
0.0
  0
LINE
  5
2006
330
1E
100
AcDbEntity
  8
7
100
AcDbLine
 10
8.711635819397617
 20
10.60431530676409
 30
0.0
 11
8.728710857488167
 21
10.55703058589795
 31
0.0
  0
LINE
  5
2007
330
1E
100
AcDbEntity
  8
7
100
AcDbLine
 10
8.728710857488167
 20
10.55703058589795
 30
0.0
 11
8.754980146858246
 21
10.51368625843732
 31
0.0
  0
LINE
  5
2008
330
1E
100
AcDbEntity
  8
7
100
AcDbLine
 10
8.754980146858246
 20
10.51368625843732
 30
0.0
 11
8.790443687507854
 21
10.4782227177877
 31
0.0
  0
LINE
  5
2009
330
1E
100
AcDbEntity
  8
7
100
AcDbLine
 10
8.790443687507854
 20
10.4782227177877
 30
0.0
 11
8.833788014968481
 21
10.45195342841764
 31
0.0
  0
LINE
  5
200A
330
1E
100
AcDbEntity
  8
7
100
AcDbLine
 10
8.833788014968481
 20
10.45195342841764
 30
0.0
 11
8.881072735834624
 21
10.43487839032708
 31
0.0
  0
LINE
  5
200B
330
1E
100
AcDbEntity
  8
7
100
AcDbLine
 10
8.881072735834624
 20
10.43487839032708
 30
0.0
 11
8.930984385637776
 21
10.42962453245307
 31
0.0
  0
LINE
  5
200C
330
1E
100
AcDbEntity
  8
7
100
AcDbLine
 10
8.930984385637776
 20
10.42962453245307
 30
0.0
 11
8.980896035440924
 21
10.43487839032708
 31
0.0
  0
LINE
  5
200D
330
1E
100
AcDbEntity
  8
7
100
AcDbLine
 10
8.980896035440924
 20
10.43487839032708
 30
0.0
 11
9.028180756307065
 21
10.45195342841764
 31
0.0
  0
LINE
  5
200E
330
1E
100
AcDbEntity
  8
7
100
AcDbLine
 10
9.028180756307065
 20
10.45195342841764
 30
0.0
 11
9.071525083767692
 21
10.4782227177877
 31
0.0
  0
LINE
  5
200F
330
1E
100
AcDbEntity
  8
7
100
AcDbLine
 10
8.930984385637776
 20
14.16249055194126
 30
0.0
 11
8.881072735834624
 21
14.15723669406725
 31
0.0
  0
LINE
  5
2010
330
1E
100
AcDbEntity
  8
7
100
AcDbLine
 10
8.881072735834624
 20
14.15723669406725
 30
0.0
 11
8.833788014968481
 21
14.14016165597669
 31
0.0
  0
LINE
  5
2011
330
1E
100
AcDbEntity
  8
7
100
AcDbLine
 10
8.833788014968481
 20
14.14016165597669
 30
0.0
 11
8.790443687507854
 21
14.11389236660662
 31
0.0
  0
LINE
  5
2012
330
1E
100
AcDbEntity
  8
7
100
AcDbLine
 10
8.790443687507854
 20
14.11389236660662
 30
0.0
 11
8.754980146858246
 21
14.0771153614885
 31
0.0
  0
LINE
  5
2013
330
1E
100
AcDbEntity
  8
7
100
AcDbLine
 10
8.754980146858246
 20
14.0771153614885
 30
0.0
 11
8.728710857488167
 21
14.03508449849638
 31
0.0
  0
LINE
  5
2014
330
1E
100
AcDbEntity
  8
7
100
AcDbLine
 10
8.728710857488167
 20
14.03508449849638
 30
0.0
 11
8.711635819397617
 21
13.98779977763024
 31
0.0
  0
LINE
  5
2015
330
1E
100
AcDbEntity
  8
7
100
AcDbLine
 10
8.711635819397617
 20
13.98779977763024
 30
0.0
 11
8.706381961523602
 21
13.93788812782709
 31
0.0
  0
LINE
  5
2016
330
1E
100
AcDbEntity
  8
7
100
AcDbLine
 10
8.706381961523602
 20
13.93788812782709
 30
0.0
 11
8.711635819397617
 21
13.88666301355543
 31
0.0
  0
LINE
  5
2017
330
1E
100
AcDbEntity
  8
7
100
AcDbLine
 10
8.711635819397617
 20
13.88666301355543
 30
0.0
 11
8.728710857488167
 21
13.83937829268929
 31
0.0
  0
LINE
  5
2018
330
1E
100
AcDbEntity
  8
7
100
AcDbLine
 10
8.728710857488167
 20
13.83937829268929
 30
0.0
 11
8.75629361132675
 21
13.79734742969716
 31
0.0
  0
LINE
  5
2019
330
1E
100
AcDbEntity
  8
7
100
AcDbLine
 10
9.105675159948798
 20
13.79734742969716
 30
0.0
 11
9.13325791378738
 21
13.83937829268929
 31
0.0
  0
LINE
  5
201A
330
1E
100
AcDbEntity
  8
7
100
AcDbLine
 10
9.13325791378738
 20
13.83937829268929
 30
0.0
 11
9.150332951877929
 21
13.88666301355543
 31
0.0
  0
LINE
  5
201B
330
1E
100
AcDbEntity
  8
7
100
AcDbLine
 10
9.150332951877929
 20
13.88666301355543
 30
0.0
 11
9.155586809751946
 21
13.93788812782709
 31
0.0
  0
LINE
  5
201C
330
1E
100
AcDbEntity
  8
7
100
AcDbLine
 10
9.155586809751946
 20
13.93788812782709
 30
0.0
 11
9.150332951877929
 21
13.98779977763024
 31
0.0
  0
LINE
  5
201D
330
1E
100
AcDbEntity
  8
7
100
AcDbLine
 10
9.150332951877929
 20
13.98779977763024
 30
0.0
 11
9.13325791378738
 21
14.03508449849638
 31
0.0
  0
LINE
  5
201E
330
1E
100
AcDbEntity
  8
7
100
AcDbLine
 10
9.13325791378738
 20
14.03508449849638
 30
0.0
 11
9.106988624417299
 21
14.0771153614885
 31
0.0
  0
LINE
  5
201F
330
1E
100
AcDbEntity
  8
7
100
AcDbLine
 10
9.106988624417299
 20
14.0771153614885
 30
0.0
 11
9.071525083767692
 21
14.11389236660662
 31
0.0
  0
LINE
  5
2020
330
1E
100
AcDbEntity
  8
7
100
AcDbLine
 10
9.071525083767692
 20
14.11389236660662
 30
0.0
 11
9.028180756307065
 21
14.14016165597669
 31
0.0
  0
LINE
  5
2021
330
1E
100
AcDbEntity
  8
7
100
AcDbLine
 10
9.028180756307065
 20
14.14016165597669
 30
0.0
 11
8.980896035440924
 21
14.15723669406725
 31
0.0
  0
LINE
  5
2022
330
1E
100
AcDbEntity
  8
7
100
AcDbLine
 10
8.980896035440924
 20
14.15723669406725
 30
0.0
 11
8.930984385637776
 21
14.16249055194126
 31
0.0
  0
LINE
  5
2023
330
1E
100
AcDbEntity
  8
7
100
AcDbLine
 10
9.577208904141713
 20
10.76061757851606
 30
0.0
 11
9.550939614771627
 21
10.73040789574047
 31
0.0
  0
LINE
  5
2024
330
1E
100
AcDbEntity
  8
7
100
AcDbLine
 10
9.550939614771627
 20
10.73040789574047
 30
0.0
 11
9.533864576681079
 21
10.69363089062236
 31
0.0
  0
LINE
  5
2025
330
1E
100
AcDbEntity
  8
7
100
AcDbLine
 10
9.533864576681079
 20
10.69363089062236
 30
0.0
 11
9.528610718807067
 21
10.65422695656724
 31
0.0
  0
LINE
  5
2026
330
1E
100
AcDbEntity
  8
7
100
AcDbLine
 10
9.528610718807067
 20
10.65422695656724
 30
0.0
 11
9.533864576681079
 21
10.61482302251213
 31
0.0
  0
LINE
  5
2027
330
1E
100
AcDbEntity
  8
7
100
AcDbLine
 10
9.533864576681079
 20
10.61482302251213
 30
0.0
 11
9.550939614771627
 21
10.57804601739401
 31
0.0
  0
LINE
  5
2028
330
1E
100
AcDbEntity
  8
7
100
AcDbLine
 10
9.550939614771627
 20
10.57804601739401
 30
0.0
 11
9.577208904141713
 21
10.54783633461843
 31
0.0
  0
LINE
  5
2029
330
1E
100
AcDbEntity
  8
7
100
AcDbLine
 10
9.577208904141713
 20
10.54783633461843
 30
0.0
 11
9.611358980322815
 21
10.52682090312236
 31
0.0
  0
LINE
  5
202A
330
1E
100
AcDbEntity
  8
7
100
AcDbLine
 10
9.611358980322815
 20
10.52682090312236
 30
0.0
 11
9.649449449909429
 21
10.51499972290583
 31
0.0
  0
LINE
  5
202B
330
1E
100
AcDbEntity
  8
7
100
AcDbLine
 10
9.649449449909429
 20
10.51499972290583
 30
0.0
 11
9.688853383964547
 21
10.51499972290583
 31
0.0
  0
LINE
  5
202C
330
1E
100
AcDbEntity
  8
7
100
AcDbLine
 10
9.688853383964547
 20
10.51499972290583
 30
0.0
 11
9.726943853551162
 21
10.52682090312236
 31
0.0
  0
LINE
  5
202D
330
1E
100
AcDbEntity
  8
7
100
AcDbLine
 10
9.726943853551162
 20
10.52682090312236
 30
0.0
 11
9.761093929732263
 21
10.54783633461843
 31
0.0
  0
LINE
  5
202E
330
1E
100
AcDbEntity
  8
7
100
AcDbLine
 10
9.761093929732263
 20
10.54783633461843
 30
0.0
 11
9.787363219102344
 21
10.57804601739401
 31
0.0
  0
LINE
  5
202F
330
1E
100
AcDbEntity
  8
7
100
AcDbLine
 10
9.787363219102344
 20
10.57804601739401
 30
0.0
 11
9.80443825719289
 21
10.61482302251213
 31
0.0
  0
LINE
  5
2030
330
1E
100
AcDbEntity
  8
7
100
AcDbLine
 10
9.80443825719289
 20
10.61482302251213
 30
0.0
 11
9.80969211506691
 21
10.65422695656724
 31
0.0
  0
LINE
  5
2031
330
1E
100
AcDbEntity
  8
7
100
AcDbLine
 10
9.80969211506691
 20
10.65422695656724
 30
0.0
 11
9.80443825719289
 21
10.69363089062236
 31
0.0
  0
LINE
  5
2032
330
1E
100
AcDbEntity
  8
7
100
AcDbLine
 10
9.80443825719289
 20
10.69363089062236
 30
0.0
 11
9.787363219102344
 21
10.73040789574047
 31
0.0
  0
LINE
  5
2033
330
1E
100
AcDbEntity
  8
7
100
AcDbLine
 10
9.787363219102344
 20
10.73040789574047
 30
0.0
 11
9.761093929732263
 21
10.76061757851606
 31
0.0
  0
LINE
  5
2034
330
1E
100
AcDbEntity
  8
7
100
AcDbLine
 10
9.761093929732263
 20
10.76061757851606
 30
0.0
 11
9.726943853551162
 21
10.78163301001212
 31
0.0
  0
LINE
  5
2035
330
1E
100
AcDbEntity
  8
7
100
AcDbLine
 10
9.726943853551162
 20
10.78163301001212
 30
0.0
 11
9.688853383964547
 21
10.79345419022866
 31
0.0
  0
LINE
  5
2036
330
1E
100
AcDbEntity
  8
7
100
AcDbLine
 10
9.688853383964547
 20
10.79345419022866
 30
0.0
 11
9.649449449909429
 21
10.79345419022866
 31
0.0
  0
LINE
  5
2037
330
1E
100
AcDbEntity
  8
7
100
AcDbLine
 10
9.649449449909429
 20
10.79345419022866
 30
0.0
 11
9.611358980322815
 21
10.78163301001212
 31
0.0
  0
LINE
  5
2038
330
1E
100
AcDbEntity
  8
7
100
AcDbLine
 10
9.611358980322815
 20
10.78163301001212
 30
0.0
 11
9.577208904141713
 21
10.76061757851606
 31
0.0
  0
LINE
  5
2039
330
1E
100
AcDbEntity
  8
7
100
AcDbLine
 10
9.684912990559034
 20
10.56359790824047
 30
0.0
 11
9.715122673334624
 21
10.5741056239885
 31
0.0
  0
LINE
  5
203A
330
1E
100
AcDbEntity
  8
7
100
AcDbLine
 10
9.715122673334624
 20
10.5741056239885
 30
0.0
 11
9.740078498236197
 21
10.59512105548457
 31
0.0
  0
LINE
  5
203B
330
1E
100
AcDbEntity
  8
7
100
AcDbLine
 10
9.740078498236197
 20
10.59512105548457
 30
0.0
 11
9.755840071858246
 21
10.62270380932315
 31
0.0
  0
LINE
  5
203C
330
1E
100
AcDbEntity
  8
7
100
AcDbLine
 10
9.755840071858246
 20
10.62270380932315
 30
0.0
 11
9.761093929732263
 21
10.65422695656724
 31
0.0
  0
LINE
  5
203D
330
1E
100
AcDbEntity
  8
7
100
AcDbLine
 10
9.761093929732263
 20
10.65422695656724
 30
0.0
 11
9.755840071858246
 21
10.68575010381134
 31
0.0
  0
LINE
  5
203E
330
1E
100
AcDbEntity
  8
7
100
AcDbLine
 10
9.755840071858246
 20
10.68575010381134
 30
0.0
 11
9.740078498236197
 21
10.71333285764992
 31
0.0
  0
LINE
  5
203F
330
1E
100
AcDbEntity
  8
7
100
AcDbLine
 10
9.740078498236197
 20
10.71333285764992
 30
0.0
 11
9.715122673334624
 21
10.73434828914599
 31
0.0
  0
LINE
  5
2040
330
1E
100
AcDbEntity
  8
7
100
AcDbLine
 10
9.715122673334624
 20
10.73434828914599
 30
0.0
 11
9.684912990559034
 21
10.74485600489402
 31
0.0
  0
LINE
  5
2041
330
1E
100
AcDbEntity
  8
7
100
AcDbLine
 10
9.684912990559034
 20
10.74485600489402
 30
0.0
 11
9.653389843314936
 21
10.74485600489402
 31
0.0
  0
LINE
  5
2042
330
1E
100
AcDbEntity
  8
7
100
AcDbLine
 10
9.653389843314936
 20
10.74485600489402
 30
0.0
 11
9.62318016053935
 21
10.73434828914599
 31
0.0
  0
LINE
  5
2043
330
1E
100
AcDbEntity
  8
7
100
AcDbLine
 10
9.62318016053935
 20
10.73434828914599
 30
0.0
 11
9.598224335637777
 21
10.71333285764992
 31
0.0
  0
LINE
  5
2044
330
1E
100
AcDbEntity
  8
7
100
AcDbLine
 10
9.598224335637777
 20
10.71333285764992
 30
0.0
 11
9.582462762015726
 21
10.68575010381134
 31
0.0
  0
LINE
  5
2045
330
1E
100
AcDbEntity
  8
7
100
AcDbLine
 10
9.582462762015726
 20
10.68575010381134
 30
0.0
 11
9.577208904141713
 21
10.65422695656724
 31
0.0
  0
LINE
  5
2046
330
1E
100
AcDbEntity
  8
7
100
AcDbLine
 10
9.577208904141713
 20
10.65422695656724
 30
0.0
 11
9.582462762015726
 21
10.62270380932315
 31
0.0
  0
LINE
  5
2047
330
1E
100
AcDbEntity
  8
7
100
AcDbLine
 10
9.582462762015726
 20
10.62270380932315
 30
0.0
 11
9.598224335637777
 21
10.59512105548457
 31
0.0
  0
LINE
  5
2048
330
1E
100
AcDbEntity
  8
7
100
AcDbLine
 10
9.598224335637777
 20
10.59512105548457
 30
0.0
 11
9.62318016053935
 21
10.5741056239885
 31
0.0
  0
LINE
  5
2049
330
1E
100
AcDbEntity
  8
7
100
AcDbLine
 10
9.62318016053935
 20
10.5741056239885
 30
0.0
 11
9.653389843314936
 21
10.56359790824047
 31
0.0
  0
LINE
  5
204A
330
1E
100
AcDbEntity
  8
7
100
AcDbLine
 10
9.653389843314936
 20
10.56359790824047
 30
0.0
 11
9.684912990559034
 21
10.56359790824047
 31
0.0
  0
LINE
  5
204B
330
1E
100
AcDbEntity
  8
7
100
AcDbLine
 10
8.121890273039351
 20
13.99699402890975
 30
0.0
 11
8.1061286994173
 21
13.96941127507118
 31
0.0
  0
LINE
  5
204C
330
1E
100
AcDbEntity
  8
7
100
AcDbLine
 10
8.1061286994173
 20
13.96941127507118
 30
0.0
 11
8.100874841543285
 21
13.93788812782709
 31
0.0
  0
LINE
  5
204D
330
1E
100
AcDbEntity
  8
7
100
AcDbLine
 10
8.100874841543285
 20
13.93788812782709
 30
0.0
 11
8.1061286994173
 21
13.90636498058299
 31
0.0
  0
LINE
  5
204E
330
1E
100
AcDbEntity
  8
7
100
AcDbLine
 10
8.1061286994173
 20
13.90636498058299
 30
0.0
 11
8.121890273039351
 21
13.87878222674441
 31
0.0
  0
LINE
  5
204F
330
1E
100
AcDbEntity
  8
7
100
AcDbLine
 10
8.121890273039351
 20
13.87878222674441
 30
0.0
 11
8.146846097940924
 21
13.85776679524834
 31
0.0
  0
LINE
  5
2050
330
1E
100
AcDbEntity
  8
7
100
AcDbLine
 10
8.146846097940924
 20
13.85776679524834
 30
0.0
 11
8.177055780716512
 21
13.84725907950032
 31
0.0
  0
LINE
  5
2051
330
1E
100
AcDbEntity
  8
7
100
AcDbLine
 10
8.177055780716512
 20
13.84725907950032
 30
0.0
 11
8.208578927960607
 21
13.84725907950032
 31
0.0
  0
LINE
  5
2052
330
1E
100
AcDbEntity
  8
7
100
AcDbLine
 10
8.208578927960607
 20
13.84725907950032
 30
0.0
 11
8.238788610736198
 21
13.85776679524834
 31
0.0
  0
LINE
  5
2053
330
1E
100
AcDbEntity
  8
7
100
AcDbLine
 10
8.238788610736198
 20
13.85776679524834
 30
0.0
 11
8.263744435637779
 21
13.87878222674441
 31
0.0
  0
LINE
  5
2054
330
1E
100
AcDbEntity
  8
7
100
AcDbLine
 10
8.263744435637779
 20
13.87878222674441
 30
0.0
 11
8.279506009259819
 21
13.90636498058299
 31
0.0
  0
LINE
  5
2055
330
1E
100
AcDbEntity
  8
7
100
AcDbLine
 10
8.279506009259819
 20
13.90636498058299
 30
0.0
 11
8.284759867133839
 21
13.93788812782709
 31
0.0
  0
LINE
  5
2056
330
1E
100
AcDbEntity
  8
7
100
AcDbLine
 10
8.284759867133839
 20
13.93788812782709
 30
0.0
 11
8.279506009259819
 21
13.96941127507118
 31
0.0
  0
LINE
  5
2057
330
1E
100
AcDbEntity
  8
7
100
AcDbLine
 10
8.279506009259819
 20
13.96941127507118
 30
0.0
 11
8.263744435637779
 21
13.99699402890975
 31
0.0
  0
LINE
  5
2058
330
1E
100
AcDbEntity
  8
7
100
AcDbLine
 10
8.263744435637779
 20
13.99699402890975
 30
0.0
 11
8.238788610736198
 21
14.01800946040583
 31
0.0
  0
LINE
  5
2059
330
1E
100
AcDbEntity
  8
7
100
AcDbLine
 10
8.238788610736198
 20
14.01800946040583
 30
0.0
 11
8.208578927960607
 21
14.02851717615386
 31
0.0
  0
LINE
  5
205A
330
1E
100
AcDbEntity
  8
7
100
AcDbLine
 10
8.208578927960607
 20
14.02851717615386
 30
0.0
 11
8.177055780716512
 21
14.02851717615386
 31
0.0
  0
LINE
  5
205B
330
1E
100
AcDbEntity
  8
7
100
AcDbLine
 10
8.177055780716512
 20
14.02851717615386
 30
0.0
 11
8.146846097940924
 21
14.01800946040583
 31
0.0
  0
LINE
  5
205C
330
1E
100
AcDbEntity
  8
7
100
AcDbLine
 10
8.146846097940924
 20
14.01800946040583
 30
0.0
 11
8.121890273039351
 21
13.99699402890975
 31
0.0
  0
LINE
  5
205D
330
1E
100
AcDbEntity
  8
7
100
AcDbLine
 10
8.212519321366121
 20
13.79866089416567
 30
0.0
 11
8.250609790952736
 21
13.8104820743822
 31
0.0
  0
LINE
  5
205E
330
1E
100
AcDbEntity
  8
7
100
AcDbLine
 10
8.250609790952736
 20
13.8104820743822
 30
0.0
 11
8.284759867133839
 21
13.83149750587827
 31
0.0
  0
LINE
  5
205F
330
1E
100
AcDbEntity
  8
7
100
AcDbLine
 10
8.284759867133839
 20
13.83149750587827
 30
0.0
 11
8.311029156503916
 21
13.86170718865386
 31
0.0
  0
LINE
  5
2060
330
1E
100
AcDbEntity
  8
7
100
AcDbLine
 10
8.311029156503916
 20
13.86170718865386
 30
0.0
 11
8.328104194594466
 21
13.89848419377197
 31
0.0
  0
LINE
  5
2061
330
1E
100
AcDbEntity
  8
7
100
AcDbLine
 10
8.328104194594466
 20
13.89848419377197
 30
0.0
 11
8.333358052468481
 21
13.93788812782709
 31
0.0
  0
LINE
  5
2062
330
1E
100
AcDbEntity
  8
7
100
AcDbLine
 10
8.284759867133839
 20
14.0442787497759
 30
0.0
 11
8.250609790952736
 21
14.06529418127197
 31
0.0
  0
LINE
  5
2063
330
1E
100
AcDbEntity
  8
7
100
AcDbLine
 10
8.250609790952736
 20
14.06529418127197
 30
0.0
 11
8.212519321366121
 21
14.0771153614885
 31
0.0
  0
LINE
  5
2064
330
1E
100
AcDbEntity
  8
7
100
AcDbLine
 10
8.212519321366121
 20
14.0771153614885
 30
0.0
 11
8.173115387311
 21
14.0771153614885
 31
0.0
  0
LINE
  5
2065
330
1E
100
AcDbEntity
  8
7
100
AcDbLine
 10
8.173115387311
 20
14.0771153614885
 30
0.0
 11
8.135024917724384
 21
14.06529418127197
 31
0.0
  0
LINE
  5
2066
330
1E
100
AcDbEntity
  8
7
100
AcDbLine
 10
8.135024917724384
 20
14.06529418127197
 30
0.0
 11
8.100874841543285
 21
14.0442787497759
 31
0.0
  0
LINE
  5
2067
330
1E
100
AcDbEntity
  8
7
100
AcDbLine
 10
8.100874841543285
 20
14.0442787497759
 30
0.0
 11
8.07460555217321
 21
14.01406906700032
 31
0.0
  0
LINE
  5
2068
330
1E
100
AcDbEntity
  8
7
100
AcDbLine
 10
8.07460555217321
 20
14.01406906700032
 30
0.0
 11
8.057530514082657
 21
13.9772920618822
 31
0.0
  0
LINE
  5
2069
330
1E
100
AcDbEntity
  8
7
100
AcDbLine
 10
8.057530514082657
 20
13.9772920618822
 30
0.0
 11
8.05227665620864
 21
13.93788812782709
 31
0.0
  0
LINE
  5
206A
330
1E
100
AcDbEntity
  8
7
100
AcDbLine
 10
8.05227665620864
 20
13.93788812782709
 30
0.0
 11
8.057530514082657
 21
13.89848419377197
 31
0.0
  0
LINE
  5
206B
330
1E
100
AcDbEntity
  8
7
100
AcDbLine
 10
8.057530514082657
 20
13.89848419377197
 30
0.0
 11
8.07460555217321
 21
13.86170718865386
 31
0.0
  0
LINE
  5
206C
330
1E
100
AcDbEntity
  8
7
100
AcDbLine
 10
8.07460555217321
 20
13.86170718865386
 30
0.0
 11
8.100874841543285
 21
13.83149750587827
 31
0.0
  0
LINE
  5
206D
330
1E
100
AcDbEntity
  8
7
100
AcDbLine
 10
8.100874841543285
 20
13.83149750587827
 30
0.0
 11
8.135024917724384
 21
13.8104820743822
 31
0.0
  0
LINE
  5
206E
330
1E
100
AcDbEntity
  8
7
100
AcDbLine
 10
8.135024917724384
 20
13.8104820743822
 30
0.0
 11
8.173115387311
 21
13.79866089416567
 31
0.0
  0
LINE
  5
206F
330
1E
100
AcDbEntity
  8
7
100
AcDbLine
 10
8.173115387311
 20
13.79866089416567
 30
0.0
 11
8.212519321366121
 21
13.79866089416567
 31
0.0
  0
LINE
  5
2070
330
1E
100
AcDbEntity
  8
7
100
AcDbLine
 10
8.333358052468481
 20
13.93788812782709
 30
0.0
 11
8.328104194594466
 21
13.9772920618822
 31
0.0
  0
LINE
  5
2071
330
1E
100
AcDbEntity
  8
7
100
AcDbLine
 10
8.328104194594466
 20
13.9772920618822
 30
0.0
 11
8.311029156503916
 21
14.01406906700032
 31
0.0
  0
LINE
  5
2072
330
1E
100
AcDbEntity
  8
7
100
AcDbLine
 10
8.311029156503916
 20
14.01406906700032
 30
0.0
 11
8.284759867133839
 21
14.0442787497759
 31
0.0
  0
LINE
  5
2073
330
1E
100
AcDbEntity
  8
7
100
AcDbLine
 10
8.883699664771631
 20
10.67655585253181
 30
0.0
 11
8.878445806897614
 21
10.65422695656724
 31
0.0
  0
LINE
  5
2074
330
1E
100
AcDbEntity
  8
7
100
AcDbLine
 10
8.878445806897614
 20
10.65422695656724
 30
0.0
 11
8.883699664771631
 21
10.63189806060268
 31
0.0
  0
LINE
  5
2075
330
1E
100
AcDbEntity
  8
7
100
AcDbLine
 10
8.883699664771631
 20
10.63189806060268
 30
0.0
 11
8.898147773925176
 21
10.61350955804362
 31
0.0
  0
LINE
  5
2076
330
1E
100
AcDbEntity
  8
7
100
AcDbLine
 10
8.898147773925176
 20
10.61350955804362
 30
0.0
 11
8.91916320542124
 21
10.60300184229559
 31
0.0
  0
LINE
  5
2077
330
1E
100
AcDbEntity
  8
7
100
AcDbLine
 10
8.91916320542124
 20
10.60300184229559
 30
0.0
 11
8.942805565854309
 21
10.60300184229559
 31
0.0
  0
LINE
  5
2078
330
1E
100
AcDbEntity
  8
7
100
AcDbLine
 10
8.942805565854309
 20
10.60300184229559
 30
0.0
 11
8.963820997350371
 21
10.61350955804362
 31
0.0
  0
LINE
  5
2079
330
1E
100
AcDbEntity
  8
7
100
AcDbLine
 10
8.963820997350371
 20
10.61350955804362
 30
0.0
 11
8.978269106503917
 21
10.63189806060268
 31
0.0
  0
LINE
  5
207A
330
1E
100
AcDbEntity
  8
7
100
AcDbLine
 10
8.978269106503917
 20
10.63189806060268
 30
0.0
 11
8.983522964377932
 21
10.65422695656724
 31
0.0
  0
LINE
  5
207B
330
1E
100
AcDbEntity
  8
7
100
AcDbLine
 10
8.983522964377932
 20
10.65422695656724
 30
0.0
 11
8.978269106503917
 21
10.67655585253181
 31
0.0
  0
LINE
  5
207C
330
1E
100
AcDbEntity
  8
7
100
AcDbLine
 10
8.978269106503917
 20
10.67655585253181
 30
0.0
 11
8.963820997350371
 21
10.69494435509087
 31
0.0
  0
LINE
  5
207D
330
1E
100
AcDbEntity
  8
7
100
AcDbLine
 10
8.963820997350371
 20
10.69494435509087
 30
0.0
 11
8.942805565854309
 21
10.7054520708389
 31
0.0
  0
LINE
  5
207E
330
1E
100
AcDbEntity
  8
7
100
AcDbLine
 10
8.942805565854309
 20
10.7054520708389
 30
0.0
 11
8.91916320542124
 21
10.7054520708389
 31
0.0
  0
LINE
  5
207F
330
1E
100
AcDbEntity
  8
7
100
AcDbLine
 10
8.91916320542124
 20
10.7054520708389
 30
0.0
 11
8.898147773925176
 21
10.69494435509087
 31
0.0
  0
LINE
  5
2080
330
1E
100
AcDbEntity
  8
7
100
AcDbLine
 10
8.898147773925176
 20
10.69494435509087
 30
0.0
 11
8.883699664771631
 21
10.67655585253181
 31
0.0
  0
LINE
  5
2081
330
1E
100
AcDbEntity
  8
7
100
AcDbLine
 10
8.898147773925176
 20
13.89717072930346
 30
0.0
 11
8.91916320542124
 21
13.88666301355543
 31
0.0
  0
LINE
  5
2082
330
1E
100
AcDbEntity
  8
7
100
AcDbLine
 10
8.91916320542124
 20
13.88666301355543
 30
0.0
 11
8.942805565854309
 21
13.88666301355543
 31
0.0
  0
LINE
  5
2083
330
1E
100
AcDbEntity
  8
7
100
AcDbLine
 10
8.942805565854309
 20
13.88666301355543
 30
0.0
 11
8.963820997350371
 21
13.89717072930346
 31
0.0
  0
LINE
  5
2084
330
1E
100
AcDbEntity
  8
7
100
AcDbLine
 10
8.963820997350371
 20
13.89717072930346
 30
0.0
 11
8.978269106503917
 21
13.91555923186252
 31
0.0
  0
LINE
  5
2085
330
1E
100
AcDbEntity
  8
7
100
AcDbLine
 10
8.978269106503917
 20
13.91555923186252
 30
0.0
 11
8.983522964377932
 21
13.93788812782709
 31
0.0
  0
LINE
  5
2086
330
1E
100
AcDbEntity
  8
7
100
AcDbLine
 10
8.983522964377932
 20
13.93788812782709
 30
0.0
 11
8.978269106503917
 21
13.96021702379165
 31
0.0
  0
LINE
  5
2087
330
1E
100
AcDbEntity
  8
7
100
AcDbLine
 10
8.978269106503917
 20
13.96021702379165
 30
0.0
 11
8.963820997350371
 21
13.97860552635071
 31
0.0
  0
LINE
  5
2088
330
1E
100
AcDbEntity
  8
7
100
AcDbLine
 10
8.963820997350371
 20
13.97860552635071
 30
0.0
 11
8.942805565854309
 21
13.98911324209874
 31
0.0
  0
LINE
  5
2089
330
1E
100
AcDbEntity
  8
7
100
AcDbLine
 10
8.942805565854309
 20
13.98911324209874
 30
0.0
 11
8.91916320542124
 21
13.98911324209874
 31
0.0
  0
LINE
  5
208A
330
1E
100
AcDbEntity
  8
7
100
AcDbLine
 10
8.91916320542124
 20
13.98911324209874
 30
0.0
 11
8.898147773925176
 21
13.97860552635071
 31
0.0
  0
LINE
  5
208B
330
1E
100
AcDbEntity
  8
7
100
AcDbLine
 10
8.898147773925176
 20
13.97860552635071
 30
0.0
 11
8.883699664771631
 21
13.96021702379165
 31
0.0
  0
LINE
  5
208C
330
1E
100
AcDbEntity
  8
7
100
AcDbLine
 10
8.883699664771631
 20
13.96021702379165
 30
0.0
 11
8.878445806897614
 21
13.93788812782709
 31
0.0
  0
LINE
  5
208D
330
1E
100
AcDbEntity
  8
7
100
AcDbLine
 10
8.878445806897614
 20
13.93788812782709
 30
0.0
 11
8.883699664771631
 21
13.91555923186252
 31
0.0
  0
LINE
  5
208E
330
1E
100
AcDbEntity
  8
7
100
AcDbLine
 10
8.883699664771631
 20
13.91555923186252
 30
0.0
 11
8.898147773925176
 21
13.89717072930346
 31
0.0
  0
LINE
  5
208F
330
1E
100
AcDbEntity
  8
7
100
AcDbLine
 10
5.890314141051161
 20
10.52419397418536
 30
0.0
 11
5.903448785736198
 21
10.51499972290583
 31
0.0
  0
LINE
  5
2090
330
1E
100
AcDbEntity
  8
7
100
AcDbLine
 10
5.903448785736198
 20
10.51499972290583
 30
0.0
 11
5.946793113196829
 21
10.49661122034677
 31
0.0
  0
LINE
  5
2091
330
1E
100
AcDbEntity
  8
7
100
AcDbLine
 10
5.820700524220452
 20
10.69100396168535
 30
0.0
 11
5.818073595283443
 21
10.67524238806331
 31
0.0
  0
LINE
  5
2092
330
1E
100
AcDbEntity
  8
7
100
AcDbLine
 10
5.818073595283443
 20
10.67524238806331
 30
0.0
 11
5.822013988688958
 21
10.62795766719716
 31
0.0
  0
LINE
  5
2093
330
1E
100
AcDbEntity
  8
7
100
AcDbLine
 10
5.822013988688958
 20
10.62795766719716
 30
0.0
 11
5.837775562311002
 21
10.58329987526803
 31
0.0
  0
LINE
  5
2094
330
1E
100
AcDbEntity
  8
7
100
AcDbLine
 10
5.837775562311002
 20
10.58329987526803
 30
0.0
 11
5.846969813590529
 21
10.57016523058299
 31
0.0
  0
LINE
  5
2095
330
1E
100
AcDbEntity
  8
7
100
AcDbLine
 10
5.879806425303129
 20
10.80002151257118
 30
0.0
 11
5.848283278059033
 21
10.76455797192157
 31
0.0
  0
LINE
  5
2096
330
1E
100
AcDbEntity
  8
7
100
AcDbLine
 10
5.848283278059033
 20
10.76455797192157
 30
0.0
 11
5.84040249124801
 21
10.75010986276803
 31
0.0
  0
LINE
  5
2097
330
1E
100
AcDbEntity
  8
7
100
AcDbLine
 10
5.84040249124801
 20
13.86696104652787
 30
0.0
 11
5.848283278059033
 21
13.85382640184283
 31
0.0
  0
LINE
  5
2098
330
1E
100
AcDbEntity
  8
7
100
AcDbLine
 10
5.848283278059033
 20
13.85382640184283
 30
0.0
 11
5.879806425303129
 21
13.81836286119323
 31
0.0
  0
LINE
  5
2099
330
1E
100
AcDbEntity
  8
7
100
AcDbLine
 10
5.846969813590529
 20
14.04821914318142
 30
0.0
 11
5.837775562311002
 21
14.03508449849638
 31
0.0
  0
LINE
  5
209A
330
1E
100
AcDbEntity
  8
7
100
AcDbLine
 10
5.837775562311002
 20
14.03508449849638
 30
0.0
 11
5.822013988688958
 21
13.99042670656725
 31
0.0
  0
LINE
  5
209B
330
1E
100
AcDbEntity
  8
7
100
AcDbLine
 10
5.822013988688958
 20
13.99042670656725
 30
0.0
 11
5.818073595283443
 21
13.9431419857011
 31
0.0
  0
LINE
  5
209C
330
1E
100
AcDbEntity
  8
7
100
AcDbLine
 10
5.818073595283443
 20
13.9431419857011
 30
0.0
 11
5.820700524220452
 21
13.92738041207906
 31
0.0
  0
LINE
  5
209D
330
1E
100
AcDbEntity
  8
7
100
AcDbLine
 10
5.946793113196829
 20
14.12177315341764
 30
0.0
 11
5.903448785736198
 21
14.10338465085858
 31
0.0
  0
LINE
  5
209E
330
1E
100
AcDbEntity
  8
7
100
AcDbLine
 10
5.903448785736198
 20
14.10338465085858
 30
0.0
 11
5.890314141051161
 21
14.09287693511055
 31
0.0
  0
LINE
  5
209F
330
1E
100
AcDbEntity
  8
7
100
AcDbLine
 10
5.890314141051161
 20
13.8104820743822
 30
0.0
 11
5.891627605519664
 21
13.8104820743822
 31
0.0
  0
LINE
  5
20A0
330
1E
100
AcDbEntity
  8
7
100
AcDbLine
 10
5.891627605519664
 20
13.8104820743822
 30
0.0
 11
5.892941069988166
 21
13.8091686099137
 31
0.0
  0
LINE
  5
20A1
330
1E
100
AcDbEntity
  8
7
100
AcDbLine
 10
5.890314141051161
 20
13.8104820743822
 30
0.0
 11
5.891627605519664
 21
13.8104820743822
 31
0.0
  0
LINE
  5
20A2
330
1E
100
AcDbEntity
  8
7
100
AcDbLine
 10
5.891627605519664
 20
13.8104820743822
 30
0.0
 11
5.892941069988166
 21
13.8091686099137
 31
0.0
  0
LINE
  5
20A3
330
1E
100
AcDbEntity
  8
7
100
AcDbLine
 10
5.850910206996042
 20
14.12571354682315
 30
0.0
 11
5.815446666346437
 21
14.09025000617355
 31
0.0
  0
LINE
  5
20A4
330
1E
100
AcDbEntity
  8
7
100
AcDbLine
 10
5.815446666346437
 20
14.09025000617355
 30
0.0
 11
5.789177376976358
 21
14.04821914318142
 31
0.0
  0
LINE
  5
20A5
330
1E
100
AcDbEntity
  8
7
100
AcDbLine
 10
5.789177376976358
 20
14.04821914318142
 30
0.0
 11
5.773415803354311
 21
13.99962095784677
 31
0.0
  0
LINE
  5
20A6
330
1E
100
AcDbEntity
  8
7
100
AcDbLine
 10
5.773415803354311
 20
13.99962095784677
 30
0.0
 11
5.768161945480292
 21
13.95102277251213
 31
0.0
  0
LINE
  5
20A7
330
1E
100
AcDbEntity
  8
7
100
AcDbLine
 10
5.768161945480292
 20
13.95102277251213
 30
0.0
 11
5.774729267822815
 21
13.90111112270897
 31
0.0
  0
LINE
  5
20A8
330
1E
100
AcDbEntity
  8
7
100
AcDbLine
 10
5.774729267822815
 20
13.90111112270897
 30
0.0
 11
5.79049084144486
 21
13.85382640184283
 31
0.0
  0
LINE
  5
20A9
330
1E
100
AcDbEntity
  8
7
100
AcDbLine
 10
5.79049084144486
 20
13.85382640184283
 30
0.0
 11
5.818073595283443
 21
13.8104820743822
 31
0.0
  0
LINE
  5
20AA
330
1E
100
AcDbEntity
  8
7
100
AcDbLine
 10
5.892941069988166
 20
14.15329630066173
 30
0.0
 11
5.850910206996042
 21
14.12571354682315
 31
0.0
  0
LINE
  5
20AB
330
1E
100
AcDbEntity
  8
7
100
AcDbLine
 10
5.850910206996042
 20
14.12571354682315
 30
0.0
 11
5.815446666346437
 21
14.09025000617355
 31
0.0
  0
LINE
  5
20AC
330
1E
100
AcDbEntity
  8
7
100
AcDbLine
 10
5.815446666346437
 20
14.09025000617355
 30
0.0
 11
5.789177376976358
 21
14.04821914318142
 31
0.0
  0
LINE
  5
20AD
330
1E
100
AcDbEntity
  8
7
100
AcDbLine
 10
5.789177376976358
 20
14.04821914318142
 30
0.0
 11
5.773415803354311
 21
13.99962095784677
 31
0.0
  0
LINE
  5
20AE
330
1E
100
AcDbEntity
  8
7
100
AcDbLine
 10
5.773415803354311
 20
13.99962095784677
 30
0.0
 11
5.768161945480292
 21
13.95102277251213
 31
0.0
  0
LINE
  5
20AF
330
1E
100
AcDbEntity
  8
7
100
AcDbLine
 10
5.768161945480292
 20
13.95102277251213
 30
0.0
 11
5.774729267822815
 21
13.90111112270897
 31
0.0
  0
LINE
  5
20B0
330
1E
100
AcDbEntity
  8
7
100
AcDbLine
 10
5.774729267822815
 20
13.90111112270897
 30
0.0
 11
5.79049084144486
 21
13.85382640184283
 31
0.0
  0
LINE
  5
20B1
330
1E
100
AcDbEntity
  8
7
100
AcDbLine
 10
5.79049084144486
 20
13.85382640184283
 30
0.0
 11
5.818073595283443
 21
13.8104820743822
 31
0.0
  0
LINE
  5
20B2
330
1E
100
AcDbEntity
  8
7
100
AcDbLine
 10
5.818073595283443
 20
10.80790229938219
 30
0.0
 11
5.79049084144486
 21
10.76455797192157
 31
0.0
  0
LINE
  5
20B3
330
1E
100
AcDbEntity
  8
7
100
AcDbLine
 10
5.79049084144486
 20
10.76455797192157
 30
0.0
 11
5.774729267822815
 21
10.71727325105543
 31
0.0
  0
LINE
  5
20B4
330
1E
100
AcDbEntity
  8
7
100
AcDbLine
 10
5.774729267822815
 20
10.71727325105543
 30
0.0
 11
5.768161945480292
 21
10.66736160125228
 31
0.0
  0
LINE
  5
20B5
330
1E
100
AcDbEntity
  8
7
100
AcDbLine
 10
5.768161945480292
 20
10.66736160125228
 30
0.0
 11
5.773415803354311
 21
10.61876341591764
 31
0.0
  0
LINE
  5
20B6
330
1E
100
AcDbEntity
  8
7
100
AcDbLine
 10
5.773415803354311
 20
10.61876341591764
 30
0.0
 11
5.789177376976358
 21
10.57016523058299
 31
0.0
  0
LINE
  5
20B7
330
1E
100
AcDbEntity
  8
7
100
AcDbLine
 10
5.789177376976358
 20
10.57016523058299
 30
0.0
 11
5.815446666346437
 21
10.52813436759087
 31
0.0
  0
LINE
  5
20B8
330
1E
100
AcDbEntity
  8
7
100
AcDbLine
 10
5.815446666346437
 20
10.52813436759087
 30
0.0
 11
5.850910206996042
 21
10.49267082694126
 31
0.0
  0
LINE
  5
20B9
330
1E
100
AcDbEntity
  8
7
100
AcDbLine
 10
5.850910206996042
 20
10.49267082694126
 30
0.0
 11
5.892941069988166
 21
10.46508807310268
 31
0.0
  0
LINE
  5
20BA
330
1E
100
AcDbEntity
  8
7
100
AcDbLine
 10
9.711182279929113
 20
10.50055161375228
 30
0.0
 11
9.793930541444863
 21
10.50055161375228
 31
0.0
  0
LINE
  5
20BB
330
1E
100
AcDbEntity
  8
7
100
AcDbLine
 10
9.793930541444863
 20
10.50055161375228
 30
0.0
 11
9.793930541444863
 21
10.55834405036646
 31
0.0
  0
LINE
  5
20BC
330
1E
100
AcDbEntity
  8
7
100
AcDbLine
 10
9.544372292429113
 20
10.55834405036646
 30
0.0
 11
9.544372292429113
 21
10.50055161375228
 31
0.0
  0
LINE
  5
20BD
330
1E
100
AcDbEntity
  8
7
100
AcDbLine
 10
9.544372292429113
 20
10.50055161375228
 30
0.0
 11
9.627120553944864
 21
10.50055161375228
 31
0.0
  0
LINE
  5
20BE
330
1E
100
AcDbEntity
  8
7
100
AcDbLine
 10
8.150786491346435
 20
14.09025000617355
 30
0.0
 11
8.068038229830685
 21
14.09025000617355
 31
0.0
  0
LINE
  5
20BF
330
1E
100
AcDbEntity
  8
7
100
AcDbLine
 10
8.068038229830685
 20
14.09025000617355
 30
0.0
 11
8.068038229830685
 21
14.03245756955937
 31
0.0
  0
LINE
  5
20C0
330
1E
100
AcDbEntity
  8
7
100
AcDbLine
 10
8.317596478846436
 20
14.03245756955937
 30
0.0
 11
8.317596478846436
 21
14.09025000617355
 31
0.0
  0
LINE
  5
20C1
330
1E
100
AcDbEntity
  8
7
100
AcDbLine
 10
8.317596478846436
 20
14.09025000617355
 30
0.0
 11
8.234848217330686
 21
14.09025000617355
 31
0.0
  0
LINE
  5
20C2
330
1E
100
AcDbEntity
  8
7
100
AcDbLine
 10
8.029947760244072
 20
10.79476765469716
 30
0.0
 11
9.544372292429113
 21
10.79476765469716
 31
0.0
  0
LINE
  5
20C3
330
1E
100
AcDbEntity
  8
7
100
AcDbLine
 10
9.544372292429113
 20
10.79476765469716
 30
0.0
 11
9.544372292429113
 21
10.84467930450032
 31
0.0
  0
LINE
  5
20C4
330
1E
100
AcDbEntity
  8
7
100
AcDbLine
 10
9.544372292429113
 20
10.84467930450032
 30
0.0
 11
9.868798016149588
 21
10.84467930450032
 31
0.0
  0
LINE
  5
20C5
330
1E
100
AcDbEntity
  8
7
100
AcDbLine
 10
9.832021011031477
 20
13.79734742969716
 30
0.0
 11
8.317596478846436
 21
13.79734742969716
 31
0.0
  0
LINE
  5
20C6
330
1E
100
AcDbEntity
  8
7
100
AcDbLine
 10
8.317596478846436
 20
13.79734742969716
 30
0.0
 11
8.317596478846436
 21
13.74743577989401
 31
0.0
  0
LINE
  5
20C7
330
1E
100
AcDbEntity
  8
7
100
AcDbLine
 10
8.317596478846436
 20
13.74743577989401
 30
0.0
 11
7.993170755125966
 21
13.74743577989401
 31
0.0
  0
LINE
  5
20C8
330
1E
100
AcDbEntity
  8
7
100
AcDbLine
 10
5.702488722055095
 20
14.09419039957905
 30
0.0
 11
5.702488722055095
 21
14.02063638934283
 31
0.0
  0
LINE
  5
20C9
330
1E
100
AcDbEntity
  8
7
100
AcDbLine
 10
5.702488722055095
 20
14.02063638934283
 30
0.0
 11
5.702488722055095
 21
13.88403608461843
 31
0.0
  0
LINE
  5
20CA
330
1E
100
AcDbEntity
  8
7
100
AcDbLine
 10
5.892941069988166
 20
13.8104820743822
 30
0.0
 11
5.892941069988166
 21
13.75006270883102
 31
0.0
  0
LINE
  5
20CB
330
1E
100
AcDbEntity
  8
7
100
AcDbLine
 10
5.892941069988166
 20
13.75006270883102
 30
0.0
 11
5.892941069988166
 21
13.69095680774834
 31
0.0
  0
LINE
  5
20CC
330
1E
100
AcDbEntity
  8
7
100
AcDbLine
 10
5.892941069988166
 20
13.75006270883102
 30
0.0
 11
5.892941069988166
 21
10.86700820046488
 31
0.0
  0
LINE
  5
20CD
330
1E
100
AcDbEntity
  8
7
100
AcDbLine
 10
5.892941069988166
 20
10.86700820046488
 30
0.0
 11
5.892941069988166
 21
10.8065888349137
 31
0.0
  0
LINE
  5
20CE
330
1E
100
AcDbEntity
  8
7
100
AcDbLine
 10
5.892941069988166
 20
10.8065888349137
 30
0.0
 11
5.892941069988166
 21
10.74748293383102
 31
0.0
  0
LINE
  5
20CF
330
1E
100
AcDbEntity
  8
7
100
AcDbLine
 10
5.702488722055095
 20
14.09419039957905
 30
0.0
 11
5.642069356503917
 21
14.09419039957905
 31
0.0
  0
LINE
  5
20D0
330
1E
100
AcDbEntity
  8
7
100
AcDbLine
 10
5.642069356503917
 20
14.09419039957905
 30
0.0
 11
5.642069356503917
 21
13.75006270883102
 31
0.0
  0
LINE
  5
20D1
330
1E
100
AcDbEntity
  8
7
100
AcDbLine
 10
5.642069356503917
 20
13.75006270883102
 30
0.0
 11
5.892941069988166
 21
13.75006270883102
 31
0.0
  0
LINE
  5
20D2
330
1E
100
AcDbEntity
  8
7
100
AcDbLine
 10
5.892941069988166
 20
14.40416801414599
 30
0.0
 11
5.892941069988166
 21
13.8104820743822
 31
0.0
  0
LINE
  5
20D3
330
1E
100
AcDbEntity
  8
7
100
AcDbLine
 10
5.892941069988166
 20
13.8104820743822
 30
0.0
 11
5.702488722055095
 21
13.8104820743822
 31
0.0
  0
LINE
  5
20D4
330
1E
100
AcDbEntity
  8
7
100
AcDbLine
 10
5.702488722055095
 20
13.8104820743822
 30
0.0
 11
5.702488722055095
 21
13.88403608461843
 31
0.0
  0
LINE
  5
20D5
330
1E
100
AcDbEntity
  8
7
100
AcDbLine
 10
5.952046971070846
 20
10.21421635961843
 30
0.0
 11
5.892941069988166
 21
10.21421635961843
 31
0.0
  0
LINE
  5
20D6
330
1E
100
AcDbEntity
  8
7
100
AcDbLine
 10
5.892941069988166
 20
10.21421635961843
 30
0.0
 11
5.892941069988166
 21
10.8065888349137
 31
0.0
  0
LINE
  5
20D7
330
1E
100
AcDbEntity
  8
7
100
AcDbLine
 10
5.892941069988166
 20
10.8065888349137
 30
0.0
 11
5.702488722055095
 21
10.8065888349137
 31
0.0
  0
LINE
  5
20D8
330
1E
100
AcDbEntity
  8
7
100
AcDbLine
 10
5.702488722055095
 20
10.8065888349137
 30
0.0
 11
5.702488722055095
 21
10.52419397418536
 31
0.0
  0
LINE
  5
20D9
330
1E
100
AcDbEntity
  8
7
100
AcDbLine
 10
5.702488722055095
 20
10.52419397418536
 30
0.0
 11
5.642069356503917
 21
10.52419397418536
 31
0.0
  0
ENDSEC
  0
SECTION
  2
OBJECTS
  0
DICTIONARY
  5
C
330
0
100
AcDbDictionary
  3
ACAD_GROUP
350
D
  3
ACAD_LAYOUT
350
19
  3
ACAD_MLINESTYLE
350
16
  3
ACAD_PLOTSETTINGS
350
18
1001
ACAD
1000
TREAT_AS_HARD
1070
     0
  0
DICTIONARY
  5
1FA6
330
1E
100
AcDbDictionary
  3
ACAD_LAYOUTSELFREF
350
247E
1001
ACAD
1000
TREAT_AS_HARD
1070
     1
  0
DICTIONARY
  5
1FA8
330
1A
100
AcDbDictionary
  3
ACAD_LAYOUTSELFREF
350
247D
1001
ACAD
1000
TREAT_AS_HARD
1070
     1
  0
DICTIONARY
  5
D
102
{ACAD_REACTORS
330
C
102
}
330
C
100
AcDbDictionary
1001
ACAD
1000
TREAT_AS_HARD
1070
     0
  0
DICTIONARY
  5
19
102
{ACAD_REACTORS
330
C
102
}
330
C
100
AcDbDictionary
1001
ACAD
1000
TREAT_AS_HARD
1070
     0
  0
DICTIONARY
  5
16
102
{ACAD_REACTORS
330
C
102
}
330
C
100
AcDbDictionary
  3
STANDARD
350
17
1001
ACAD
1000
TREAT_AS_HARD
1070
     0
  0
DICTIONARY
  5
18
102
{ACAD_REACTORS
330
C
102
}
330
C
100
AcDbDictionary
1001
ACAD
1000
TREAT_AS_HARD
1070
     0
  0
XRECORD
  5
247E
102
{ACAD_REACTORS
330
1FA6
102
}
330
1FA6
100
AcDbXrecord
340
1E
  0
XRECORD
  5
247D
102
{ACAD_REACTORS
330
1FA8
102
}
330
1FA8
100
AcDbXrecord
340
1A
  0
MLINESTYLE
  5
17
102
{ACAD_REACTORS
330
16
102
}
330
16
100
AcDbMlineStyle
  2
STANDARD
 70
     0
  3

 62
   256
 51
90.0
 52
90.0
 71
     2
 49
0.5
 62
   256
  6
BYLAYER
 49
-0.5
 62
   256
  6
BYLAYER
  0
ENDSEC
  0
EOF
