  0
SECTION
  2
HEADER
  9
$ACADVER
  1
AC1012
  9
$DWGCODEPAGE
  3
ANSI_1252
  9
$INSBASE
 10
0.0
 20
0.0
 30
0.0
  9
$EXTMIN
 10
-1.415265288419163
 20
-0.8590730995293824
 30
-0.0000000349181948
  9
$EXTMAX
 10
2.468812021130176
 20
3.24982455303002
 30
0.0000000814935746
  9
$LIMMIN
 10
0.0
 20
0.0
  9
$LIMMAX
 10
12.0
 20
9.0
  9
$ORTHOMODE
 70
     0
  9
$REGENMODE
 70
     1
  9
$FILLMODE
 70
     1
  9
$QTEXTMODE
 70
     0
  9
$MIRRTEXT
 70
     1
  9
$DRAGMODE
 70
     2
  9
$LTSCALE
 40
1.0
  9
$OSMODE
 70
    33
  9
$ATTMODE
 70
     1
  9
$TEXTSIZE
 40
0.2
  9
$TRACEWID
 40
0.05
  9
$TEXTSTYLE
  7
STANDARD
  9
$CLAYER
  8
0
  9
$CELTYPE
  6
BYLAYER
  9
$CECOLOR
 62
   256
  9
$CELTSCALE
 40
1.0
  9
$DELOBJ
 70
     1
  9
$DISPSILH
 70
     0
  9
$DIMSCALE
 40
1.0
  9
$DIMASZ
 40
0.18
  9
$DIMEXO
 40
0.0625
  9
$DIMDLI
 40
0.38
  9
$DIMRND
 40
0.0
  9
$DIMDLE
 40
0.0
  9
$DIMEXE
 40
0.18
  9
$DIMTP
 40
0.0
  9
$DIMTM
 40
0.0
  9
$DIMTXT
 40
0.18
  9
$DIMCEN
 40
0.09
  9
$DIMTSZ
 40
0.0
  9
$DIMTOL
 70
     0
  9
$DIMLIM
 70
     0
  9
$DIMTIH
 70
     1
  9
$DIMTOH
 70
     1
  9
$DIMSE1
 70
     0
  9
$DIMSE2
 70
     0
  9
$DIMTAD
 70
     0
  9
$DIMZIN
 70
     0
  9
$DIMBLK
  1

  9
$DIMASO
 70
     1
  9
$DIMSHO
 70
     1
  9
$DIMPOST
  1

  9
$DIMAPOST
  1

  9
$DIMALT
 70
     0
  9
$DIMALTD
 70
     2
  9
$DIMALTF
 40
25.4
  9
$DIMLFAC
 40
1.0
  9
$DIMTOFL
 70
     0
  9
$DIMTVP
 40
0.0
  9
$DIMTIX
 70
     0
  9
$DIMSOXD
 70
     0
  9
$DIMSAH
 70
     0
  9
$DIMBLK1
  1

  9
$DIMBLK2
  1

  9
$DIMSTYLE
  2
STANDARD
  9
$DIMCLRD
 70
     0
  9
$DIMCLRE
 70
     0
  9
$DIMCLRT
 70
     0
  9
$DIMTFAC
 40
1.0
  9
$DIMGAP
 40
0.09
  9
$DIMJUST
 70
     0
  9
$DIMSD1
 70
     0
  9
$DIMSD2
 70
     0
  9
$DIMTOLJ
 70
     1
  9
$DIMTZIN
 70
     0
  9
$DIMALTZ
 70
     0
  9
$DIMALTTZ
 70
     0
  9
$DIMFIT
 70
     5
  9
$DIMUPT
 70
     0
  9
$DIMUNIT
 70
     2
  9
$DIMDEC
 70
     4
  9
$DIMTDEC
 70
     4
  9
$DIMALTU
 70
     2
  9
$DIMALTTD
 70
     2
  9
$DIMTXSTY
  7
STANDARD
  9
$DIMAUNIT
 70
     0
  9
$LUNITS
 70
     2
  9
$LUPREC
 70
     4
  9
$SKETCHINC
 40
0.1
  9
$FILLETRAD
 40
0.0
  9
$AUNITS
 70
     0
  9
$AUPREC
 70
     0
  9
$MENU
  1
acad
  9
$ELEVATION
 40
0.0
  9
$PELEVATION
 40
0.0
  9
$THICKNESS
 40
0.0
  9
$LIMCHECK
 70
     0
  9
$BLIPMODE
 70
     0
  9
$CHAMFERA
 40
0.0
  9
$CHAMFERB
 40
0.0
  9
$CHAMFERC
 40
0.0
  9
$CHAMFERD
 40
0.0
  9
$SKPOLY
 70
     0
  9
$TDCREATE
 40
2452226.552013889
  9
$TDUPDATE
 40
2452340.356312106
  9
$TDINDWG
 40
0.0009114583
  9
$TDUSRTIMER
 40
0.0009114583
  9
$USRTIMER
 70
     1
  9
$ANGBASE
 50
0.0
  9
$ANGDIR
 70
     0
  9
$PDMODE
 70
     0
  9
$PDSIZE
 40
0.0
  9
$PLINEWID
 40
0.0
  9
$COORDS
 70
     2
  9
$SPLFRAME
 70
     0
  9
$SPLINETYPE
 70
     6
  9
$SPLINESEGS
 70
     8
  9
$ATTDIA
 70
     0
  9
$ATTREQ
 70
     1
  9
$HANDLING
 70
  4097
  9
$HANDSEED
  5
36A6
  9
$SURFTAB1
 70
     6
  9
$SURFTAB2
 70
     6
  9
$SURFTYPE
 70
     6
  9
$SURFU
 70
     6
  9
$SURFV
 70
     6
  9
$UCSNAME
  2

  9
$UCSORG
 10
0.0
 20
0.0
 30
0.0
  9
$UCSXDIR
 10
1.0
 20
0.0
 30
0.0
  9
$UCSYDIR
 10
0.0
 20
1.0
 30
0.0
  9
$PUCSNAME
  2

  9
$PUCSORG
 10
0.0
 20
0.0
 30
0.0
  9
$PUCSXDIR
 10
1.0
 20
0.0
 30
0.0
  9
$PUCSYDIR
 10
0.0
 20
1.0
 30
0.0
  9
$USERI1
 70
     0
  9
$USERI2
 70
     0
  9
$USERI3
 70
     0
  9
$USERI4
 70
     0
  9
$USERI5
 70
     0
  9
$USERR1
 40
0.0
  9
$USERR2
 40
0.0
  9
$USERR3
 40
0.0
  9
$USERR4
 40
0.0
  9
$USERR5
 40
0.0
  9
$WORLDVIEW
 70
     1
  9
$SHADEDGE
 70
     3
  9
$SHADEDIF
 70
    70
  9
$TILEMODE
 70
     1
  9
$MAXACTVP
 70
    16
  9
$PINSBASE
 10
0.0
 20
0.0
 30
0.0
  9
$PLIMCHECK
 70
     0
  9
$PEXTMIN
 10
1.000000000000000E+20
 20
1.000000000000000E+20
 30
1.000000000000000E+20
  9
$PEXTMAX
 10
-1.000000000000000E+20
 20
-1.000000000000000E+20
 30
-1.000000000000000E+20
  9
$PLIMMIN
 10
0.0
 20
0.0
  9
$PLIMMAX
 10
12.0
 20
9.0
  9
$UNITMODE
 70
     0
  9
$VISRETAIN
 70
     0
  9
$PLINEGEN
 70
     0
  9
$PSLTSCALE
 70
     1
  9
$TREEDEPTH
 70
  3020
  9
$PICKSTYLE
 70
     1
  9
$CMLSTYLE
  2
STANDARD
  9
$CMLJUST
 70
     0
  9
$CMLSCALE
 40
1.0
  9
$SAVEIMAGES
 70
     1
  0
ENDSEC
  0
SECTION
  2
CLASSES
  0
CLASS
  1
ACDBDICTIONARYWDFLT
  2
AcDbDictionaryWithDefault
  3
AutoCAD 2000
 90
    32768
280
     0
281
     0
  0
CLASS
  1
ACDBPLACEHOLDER
  2
AcDbPlaceHolder
  3
AutoCAD 2000
 90
    32768
280
     0
281
     0
  0
CLASS
  1
LAYOUT
  2
AcDbLayout
  3
AutoCAD 2000
 90
    32768
280
     0
281
     0
  0
CLASS
  1
LONG_TRANSACTION
  2
AcDbLongTransaction
  3
AutoCAD 2000
 90
    32768
280
     0
281
     0
  0
CLASS
  1
LWPOLYLINE
  2
AcDbPolyline
  3
AutoCAD 2000
 90
    32768
280
     0
281
     1
  0
CLASS
  1
HATCH
  2
AcDbHatch
  3
AutoCAD 2000
 90
    32768
280
     0
281
     1
  0
CLASS
  1
XRECORD
  2
AcDbXrecord
  3
AutoCAD 2000
 90
    32768
280
     0
281
     0
  0
CLASS
  1
LONG_TRANSACTION
  2
AcDbLongTransaction
  3
AutoCAD 2000
 90
    32768
280
     0
281
     0
  0
CLASS
  1
LWPOLYLINE
  2
AcDbPolyline
  3
AutoCAD 2000
 90
    32768
280
     0
281
     1
  0
CLASS
  1
HATCH
  2
AcDbHatch
  3
AutoCAD 2000
 90
    32768
280
     0
281
     1
  0
CLASS
  1
XRECORD
  2
AcDbXrecord
  3
AutoCAD 2000
 90
    32768
280
     0
281
     0
  0
ENDSEC
  0
SECTION
  2
TABLES
  0
TABLE
  2
VPORT
  5
8
330
0
100
AcDbSymbolTable
 70
     3
  0
VPORT
  5
36A3
330
8
100
AcDbSymbolTableRecord
100
AcDbViewportTableRecord
  2
*ACTIVE
 70
     0
 10
0.0
 20
0.0
 11
1.0
 21
1.0
 12
0.5267733663555064
 22
1.195375726750318
 13
0.0
 23
0.0
 14
1.0
 24
1.0
 15
0.0
 25
0.0
 16
0.0
 26
0.0
 36
1.0
 17
0.0
 27
0.0
 37
0.0
 40
4.141379056927461
 41
1.608179419525066
 42
50.0
 43
0.0
 44
0.0
 50
0.0
 51
0.0
 71
     0
 72
   100
 73
     1
 74
     1
 75
     0
 76
     0
 77
     0
 78
     0
  0
ENDTAB
  0
TABLE
  2
LTYPE
  5
5
330
0
100
AcDbSymbolTable
 70
    25
  0
LTYPE
  5
13
330
5
100
AcDbSymbolTableRecord
100
AcDbLinetypeTableRecord
  2
BYBLOCK
 70
     0
  3

 72
    65
 73
     0
 40
0.0
  0
LTYPE
  5
14
330
5
100
AcDbSymbolTableRecord
100
AcDbLinetypeTableRecord
  2
BYLAYER
 70
     0
  3

 72
    65
 73
     0
 40
0.0
  0
LTYPE
  5
15
330
5
100
AcDbSymbolTableRecord
100
AcDbLinetypeTableRecord
  2
CONTINUOUS
 70
     0
  3
Solid line
 72
    65
 73
     0
 40
0.0
  0
LTYPE
  5
22
330
5
100
AcDbSymbolTableRecord
100
AcDbLinetypeTableRecord
  2
BORDER
 70
     0
  3
__ __ . __ __ . __ __ . __ __ . __ __ . __ __ .
 72
    65
 73
     6
 40
1.75
 49
0.5
 74
     0
 49
-0.25
 74
     0
 49
0.5
 74
     0
 49
-0.25
 74
     0
 49
0.5
 74
     0
 49
-0.25
 74
     0
  0
LTYPE
  5
23
330
5
100
AcDbSymbolTableRecord
100
AcDbLinetypeTableRecord
  2
BORDER2
 70
     0
  3
__.__.__.__.__.__.__.__.__.__.__.__.__.__.__.__
 72
    65
 73
     6
 40
0.875
 49
0.25
 74
     0
 49
-0.125
 74
     0
 49
0.25
 74
     0
 49
-0.125
 74
     0
 49
0.25
 74
     0
 49
-0.125
 74
     0
  0
LTYPE
  5
24
330
5
100
AcDbSymbolTableRecord
100
AcDbLinetypeTableRecord
  2
BORDERX2
 70
     0
  3
____  ____  .  ____  ____  .  
 72
    65
 73
     6
 40
3.5
 49
1.0
 74
     0
 49
-0.5
 74
     0
 49
1.0
 74
     0
 49
-0.5
 74
     0
 49
1.0
 74
     0
 49
-0.5
 74
     0
  0
LTYPE
  5
25
330
5
100
AcDbSymbolTableRecord
100
AcDbLinetypeTableRecord
  2
CENTER
 70
     0
  3
____ _ ____ _ ____ _ ____ _ ____ _ ____ _ ____
 72
    65
 73
     4
 40
2.0
 49
1.25
 74
     0
 49
-0.25
 74
     0
 49
0.25
 74
     0
 49
-0.25
 74
     0
  0
LTYPE
  5
26
330
5
100
AcDbSymbolTableRecord
100
AcDbLinetypeTableRecord
  2
CENTER2
 70
     0
  3
____ _ ____ _ ____ _ ____ _ ____ _ ____ _ ____
 72
    65
 73
     4
 40
1.125
 49
0.75
 74
     0
 49
-0.125
 74
     0
 49
0.125
 74
     0
 49
-0.125
 74
     0
  0
LTYPE
  5
27
330
5
100
AcDbSymbolTableRecord
100
AcDbLinetypeTableRecord
  2
CENTERX2
 70
     0
  3
________  __  ________  __  ________  __  
 72
    65
 73
     4
 40
4.0
 49
2.5
 74
     0
 49
-0.5
 74
     0
 49
0.5
 74
     0
 49
-0.5
 74
     0
  0
LTYPE
  5
28
330
5
100
AcDbSymbolTableRecord
100
AcDbLinetypeTableRecord
  2
DASHDOT
 70
     0
  3
__ . __ . __ . __ . __ . __ . __ . 
 72
    65
 73
     4
 40
1.0
 49
0.5
 74
     0
 49
-0.25
 74
     0
 49
0.0
 74
     0
 49
-0.25
 74
     0
  0
LTYPE
  5
29
330
5
100
AcDbSymbolTableRecord
100
AcDbLinetypeTableRecord
  2
DASHDOT2
 70
     0
  3
_._._._._._._._._._._._._._._._.
 72
    65
 73
     4
 40
0.5
 49
0.25
 74
     0
 49
-0.125
 74
     0
 49
0.0
 74
     0
 49
-0.125
 74
     0
  0
LTYPE
  5
2A
330
5
100
AcDbSymbolTableRecord
100
AcDbLinetypeTableRecord
  2
DASHDOTX2
 70
     0
  3
____  .  ____  .  ____  .  ____  .  
 72
    65
 73
     4
 40
2.0
 49
1.0
 74
     0
 49
-0.5
 74
     0
 49
0.0
 74
     0
 49
-0.5
 74
     0
  0
LTYPE
  5
2B
330
5
100
AcDbSymbolTableRecord
100
AcDbLinetypeTableRecord
  2
DASHED
 70
     0
  3
__ __ __ __ __ __ __ __ __ __ __ __ 
 72
    65
 73
     2
 40
0.75
 49
0.5
 74
     0
 49
-0.25
 74
     0
  0
LTYPE
  5
2C
330
5
100
AcDbSymbolTableRecord
100
AcDbLinetypeTableRecord
  2
DASHED2
 70
     0
  3
_ _ _ _ _ _ _ _ _ _ _ _ _ _ _ _ _ _ 
 72
    65
 73
     2
 40
0.375
 49
0.25
 74
     0
 49
-0.125
 74
     0
  0
LTYPE
  5
2D
330
5
100
AcDbSymbolTableRecord
100
AcDbLinetypeTableRecord
  2
DASHEDX2
 70
     0
  3
____  ____  ____  ____  ____  ____  
 72
    65
 73
     2
 40
1.5
 49
1.0
 74
     0
 49
-0.5
 74
     0
  0
LTYPE
  5
2E
330
5
100
AcDbSymbolTableRecord
100
AcDbLinetypeTableRecord
  2
DIVIDE
 70
     0
  3
____ . . ____ . . ____ . . ____ . . 
 72
    65
 73
     6
 40
1.25
 49
0.5
 74
     0
 49
-0.25
 74
     0
 49
0.0
 74
     0
 49
-0.25
 74
     0
 49
0.0
 74
     0
 49
-0.25
 74
     0
  0
LTYPE
  5
2F
330
5
100
AcDbSymbolTableRecord
100
AcDbLinetypeTableRecord
  2
DIVIDE2
 70
     0
  3
__..__..__..__..__..__..__..__..__..
 72
    65
 73
     6
 40
0.625
 49
0.25
 74
     0
 49
-0.125
 74
     0
 49
0.0
 74
     0
 49
-0.125
 74
     0
 49
0.0
 74
     0
 49
-0.125
 74
     0
  0
LTYPE
  5
30
330
5
100
AcDbSymbolTableRecord
100
AcDbLinetypeTableRecord
  2
DIVIDEX2
 70
     0
  3
________  .  .  ________  .  .  ________  .  . 
 72
    65
 73
     6
 40
2.5
 49
1.0
 74
     0
 49
-0.5
 74
     0
 49
0.0
 74
     0
 49
-0.5
 74
     0
 49
0.0
 74
     0
 49
-0.5
 74
     0
  0
LTYPE
  5
31
330
5
100
AcDbSymbolTableRecord
100
AcDbLinetypeTableRecord
  2
DOT
 70
     0
  3
. . . . . . . . . . . . . . . . . . 
 72
    65
 73
     2
 40
0.25
 49
0.0
 74
     0
 49
-0.25
 74
     0
  0
LTYPE
  5
32
330
5
100
AcDbSymbolTableRecord
100
AcDbLinetypeTableRecord
  2
DOT2
 70
     0
  3
....................................
 72
    65
 73
     2
 40
0.125
 49
0.0
 74
     0
 49
-0.125
 74
     0
  0
LTYPE
  5
33
330
5
100
AcDbSymbolTableRecord
100
AcDbLinetypeTableRecord
  2
DOTX2
 70
     0
  3
.  .  .  .  .  .  .  .  .  .  .  .  .  
 72
    65
 73
     2
 40
0.5
 49
0.0
 74
     0
 49
-0.5
 74
     0
  0
LTYPE
  5
34
330
5
100
AcDbSymbolTableRecord
100
AcDbLinetypeTableRecord
  2
HIDDEN
 70
     0
  3
__ __ __ __ __ __ __ __ __ __ __ __ 
 72
    65
 73
     2
 40
0.375
 49
0.25
 74
     0
 49
-0.125
 74
     0
  0
LTYPE
  5
35
330
5
100
AcDbSymbolTableRecord
100
AcDbLinetypeTableRecord
  2
HIDDEN2
 70
     0
  3
_ _ _ _ _ _ _ _ _ _ _ _ _ _ _ _ _ _ 
 72
    65
 73
     2
 40
0.1875
 49
0.125
 74
     0
 49
-0.0625
 74
     0
  0
LTYPE
  5
36
330
5
100
AcDbSymbolTableRecord
100
AcDbLinetypeTableRecord
  2
HIDDENX2
 70
     0
  3
____ ____ ____ ____ ____ ____ ____ 
 72
    65
 73
     2
 40
0.75
 49
0.5
 74
     0
 49
-0.25
 74
     0
  0
LTYPE
  5
37
330
5
100
AcDbSymbolTableRecord
100
AcDbLinetypeTableRecord
  2
PHANTOM
 70
     0
  3
______  __  __  ______  __  __  
 72
    65
 73
     6
 40
2.5
 49
1.25
 74
     0
 49
-0.25
 74
     0
 49
0.25
 74
     0
 49
-0.25
 74
     0
 49
0.25
 74
     0
 49
-0.25
 74
     0
  0
LTYPE
  5
38
330
5
100
AcDbSymbolTableRecord
100
AcDbLinetypeTableRecord
  2
PHANTOM2
 70
     0
  3
___ _ _ ___ _ _ ___ _ _ ___ _ _ 
 72
    65
 73
     6
 40
1.25
 49
0.625
 74
     0
 49
-0.125
 74
     0
 49
0.125
 74
     0
 49
-0.125
 74
     0
 49
0.125
 74
     0
 49
-0.125
 74
     0
  0
LTYPE
  5
39
330
5
100
AcDbSymbolTableRecord
100
AcDbLinetypeTableRecord
  2
PHANTOMX2
 70
     0
  3
___ _ _ ___ _ _ ___ _ _ ___ _ _ 
 72
    65
 73
     6
 40
5.0
 49
2.5
 74
     0
 49
-0.5
 74
     0
 49
0.5
 74
     0
 49
-0.5
 74
     0
 49
0.5
 74
     0
 49
-0.5
 74
     0
  0
ENDTAB
  0
TABLE
  2
LAYER
  5
2
330
0
100
AcDbSymbolTable
 70
   256
  0
LAYER
  5
10
330
2
100
AcDbSymbolTableRecord
100
AcDbLayerTableRecord
  2
0
 70
     0
 62
     7
  6
CONTINUOUS
  0
LAYER
  5
3A
330
2
100
AcDbSymbolTableRecord
100
AcDbLayerTableRecord
  2
1
 70
     0
 62
     1
  6
CONTINUOUS
  0
LAYER
  5
3B
330
2
100
AcDbSymbolTableRecord
100
AcDbLayerTableRecord
  2
2
 70
     0
 62
     2
  6
CONTINUOUS
  0
LAYER
  5
3C
330
2
100
AcDbSymbolTableRecord
100
AcDbLayerTableRecord
  2
3
 70
     0
 62
     3
  6
CONTINUOUS
  0
LAYER
  5
3D
330
2
100
AcDbSymbolTableRecord
100
AcDbLayerTableRecord
  2
4
 70
     0
 62
     4
  6
CONTINUOUS
  0
LAYER
  5
3E
330
2
100
AcDbSymbolTableRecord
100
AcDbLayerTableRecord
  2
5
 70
     0
 62
     5
  6
CONTINUOUS
  0
LAYER
  5
3F
330
2
100
AcDbSymbolTableRecord
100
AcDbLayerTableRecord
  2
6
 70
     0
 62
     6
  6
CONTINUOUS
  0
LAYER
  5
40
330
2
100
AcDbSymbolTableRecord
100
AcDbLayerTableRecord
  2
7
 70
     0
 62
     7
  6
CONTINUOUS
  0
LAYER
  5
41
330
2
100
AcDbSymbolTableRecord
100
AcDbLayerTableRecord
  2
8
 70
     0
 62
     8
  6
CONTINUOUS
  0
LAYER
  5
42
330
2
100
AcDbSymbolTableRecord
100
AcDbLayerTableRecord
  2
9
 70
     0
 62
     9
  6
CONTINUOUS
  0
LAYER
  5
43
330
2
100
AcDbSymbolTableRecord
100
AcDbLayerTableRecord
  2
10
 70
     0
 62
    10
  6
CONTINUOUS
  0
LAYER
  5
44
330
2
100
AcDbSymbolTableRecord
100
AcDbLayerTableRecord
  2
11
 70
     0
 62
    11
  6
CONTINUOUS
  0
LAYER
  5
45
330
2
100
AcDbSymbolTableRecord
100
AcDbLayerTableRecord
  2
12
 70
     0
 62
    12
  6
CONTINUOUS
  0
LAYER
  5
46
330
2
100
AcDbSymbolTableRecord
100
AcDbLayerTableRecord
  2
13
 70
     0
 62
    13
  6
CONTINUOUS
  0
LAYER
  5
47
330
2
100
AcDbSymbolTableRecord
100
AcDbLayerTableRecord
  2
14
 70
     0
 62
    14
  6
CONTINUOUS
  0
LAYER
  5
48
330
2
100
AcDbSymbolTableRecord
100
AcDbLayerTableRecord
  2
15
 70
     0
 62
    15
  6
CONTINUOUS
  0
LAYER
  5
49
330
2
100
AcDbSymbolTableRecord
100
AcDbLayerTableRecord
  2
16
 70
     0
 62
    16
  6
CONTINUOUS
  0
LAYER
  5
4A
330
2
100
AcDbSymbolTableRecord
100
AcDbLayerTableRecord
  2
17
 70
     0
 62
    17
  6
CONTINUOUS
  0
LAYER
  5
4B
330
2
100
AcDbSymbolTableRecord
100
AcDbLayerTableRecord
  2
18
 70
     0
 62
    18
  6
CONTINUOUS
  0
LAYER
  5
4C
330
2
100
AcDbSymbolTableRecord
100
AcDbLayerTableRecord
  2
19
 70
     0
 62
    19
  6
CONTINUOUS
  0
LAYER
  5
4D
330
2
100
AcDbSymbolTableRecord
100
AcDbLayerTableRecord
  2
20
 70
     0
 62
    20
  6
CONTINUOUS
  0
LAYER
  5
4E
330
2
100
AcDbSymbolTableRecord
100
AcDbLayerTableRecord
  2
21
 70
     0
 62
    21
  6
CONTINUOUS
  0
LAYER
  5
4F
330
2
100
AcDbSymbolTableRecord
100
AcDbLayerTableRecord
  2
22
 70
     0
 62
    22
  6
CONTINUOUS
  0
LAYER
  5
50
330
2
100
AcDbSymbolTableRecord
100
AcDbLayerTableRecord
  2
23
 70
     0
 62
    23
  6
CONTINUOUS
  0
LAYER
  5
51
330
2
100
AcDbSymbolTableRecord
100
AcDbLayerTableRecord
  2
24
 70
     0
 62
    24
  6
CONTINUOUS
  0
LAYER
  5
52
330
2
100
AcDbSymbolTableRecord
100
AcDbLayerTableRecord
  2
25
 70
     0
 62
    25
  6
CONTINUOUS
  0
LAYER
  5
53
330
2
100
AcDbSymbolTableRecord
100
AcDbLayerTableRecord
  2
26
 70
     0
 62
    26
  6
CONTINUOUS
  0
LAYER
  5
54
330
2
100
AcDbSymbolTableRecord
100
AcDbLayerTableRecord
  2
27
 70
     0
 62
    27
  6
CONTINUOUS
  0
LAYER
  5
55
330
2
100
AcDbSymbolTableRecord
100
AcDbLayerTableRecord
  2
28
 70
     0
 62
    28
  6
CONTINUOUS
  0
LAYER
  5
56
330
2
100
AcDbSymbolTableRecord
100
AcDbLayerTableRecord
  2
29
 70
     0
 62
    29
  6
CONTINUOUS
  0
LAYER
  5
57
330
2
100
AcDbSymbolTableRecord
100
AcDbLayerTableRecord
  2
30
 70
     0
 62
    30
  6
CONTINUOUS
  0
LAYER
  5
58
330
2
100
AcDbSymbolTableRecord
100
AcDbLayerTableRecord
  2
31
 70
     0
 62
    31
  6
CONTINUOUS
  0
LAYER
  5
59
330
2
100
AcDbSymbolTableRecord
100
AcDbLayerTableRecord
  2
32
 70
     0
 62
    32
  6
CONTINUOUS
  0
LAYER
  5
5A
330
2
100
AcDbSymbolTableRecord
100
AcDbLayerTableRecord
  2
33
 70
     0
 62
    33
  6
CONTINUOUS
  0
LAYER
  5
5B
330
2
100
AcDbSymbolTableRecord
100
AcDbLayerTableRecord
  2
34
 70
     0
 62
    34
  6
CONTINUOUS
  0
LAYER
  5
5C
330
2
100
AcDbSymbolTableRecord
100
AcDbLayerTableRecord
  2
35
 70
     0
 62
    35
  6
CONTINUOUS
  0
LAYER
  5
5D
330
2
100
AcDbSymbolTableRecord
100
AcDbLayerTableRecord
  2
36
 70
     0
 62
    36
  6
CONTINUOUS
  0
LAYER
  5
5E
330
2
100
AcDbSymbolTableRecord
100
AcDbLayerTableRecord
  2
37
 70
     0
 62
    37
  6
CONTINUOUS
  0
LAYER
  5
5F
330
2
100
AcDbSymbolTableRecord
100
AcDbLayerTableRecord
  2
38
 70
     0
 62
    38
  6
CONTINUOUS
  0
LAYER
  5
60
330
2
100
AcDbSymbolTableRecord
100
AcDbLayerTableRecord
  2
39
 70
     0
 62
    39
  6
CONTINUOUS
  0
LAYER
  5
61
330
2
100
AcDbSymbolTableRecord
100
AcDbLayerTableRecord
  2
40
 70
     0
 62
    40
  6
CONTINUOUS
  0
LAYER
  5
62
330
2
100
AcDbSymbolTableRecord
100
AcDbLayerTableRecord
  2
41
 70
     0
 62
    41
  6
CONTINUOUS
  0
LAYER
  5
63
330
2
100
AcDbSymbolTableRecord
100
AcDbLayerTableRecord
  2
42
 70
     0
 62
    42
  6
CONTINUOUS
  0
LAYER
  5
64
330
2
100
AcDbSymbolTableRecord
100
AcDbLayerTableRecord
  2
43
 70
     0
 62
    43
  6
CONTINUOUS
  0
LAYER
  5
65
330
2
100
AcDbSymbolTableRecord
100
AcDbLayerTableRecord
  2
44
 70
     0
 62
    44
  6
CONTINUOUS
  0
LAYER
  5
66
330
2
100
AcDbSymbolTableRecord
100
AcDbLayerTableRecord
  2
45
 70
     0
 62
    45
  6
CONTINUOUS
  0
LAYER
  5
67
330
2
100
AcDbSymbolTableRecord
100
AcDbLayerTableRecord
  2
46
 70
     0
 62
    46
  6
CONTINUOUS
  0
LAYER
  5
68
330
2
100
AcDbSymbolTableRecord
100
AcDbLayerTableRecord
  2
47
 70
     0
 62
    47
  6
CONTINUOUS
  0
LAYER
  5
69
330
2
100
AcDbSymbolTableRecord
100
AcDbLayerTableRecord
  2
48
 70
     0
 62
    48
  6
CONTINUOUS
  0
LAYER
  5
6A
330
2
100
AcDbSymbolTableRecord
100
AcDbLayerTableRecord
  2
49
 70
     0
 62
    49
  6
CONTINUOUS
  0
LAYER
  5
6B
330
2
100
AcDbSymbolTableRecord
100
AcDbLayerTableRecord
  2
50
 70
     0
 62
    50
  6
CONTINUOUS
  0
LAYER
  5
6C
330
2
100
AcDbSymbolTableRecord
100
AcDbLayerTableRecord
  2
51
 70
     0
 62
    51
  6
CONTINUOUS
  0
LAYER
  5
6D
330
2
100
AcDbSymbolTableRecord
100
AcDbLayerTableRecord
  2
52
 70
     0
 62
    52
  6
CONTINUOUS
  0
LAYER
  5
6E
330
2
100
AcDbSymbolTableRecord
100
AcDbLayerTableRecord
  2
53
 70
     0
 62
    53
  6
CONTINUOUS
  0
LAYER
  5
6F
330
2
100
AcDbSymbolTableRecord
100
AcDbLayerTableRecord
  2
54
 70
     0
 62
    54
  6
CONTINUOUS
  0
LAYER
  5
70
330
2
100
AcDbSymbolTableRecord
100
AcDbLayerTableRecord
  2
55
 70
     0
 62
    55
  6
CONTINUOUS
  0
LAYER
  5
71
330
2
100
AcDbSymbolTableRecord
100
AcDbLayerTableRecord
  2
56
 70
     0
 62
    56
  6
CONTINUOUS
  0
LAYER
  5
72
330
2
100
AcDbSymbolTableRecord
100
AcDbLayerTableRecord
  2
57
 70
     0
 62
    57
  6
CONTINUOUS
  0
LAYER
  5
73
330
2
100
AcDbSymbolTableRecord
100
AcDbLayerTableRecord
  2
58
 70
     0
 62
    58
  6
CONTINUOUS
  0
LAYER
  5
74
330
2
100
AcDbSymbolTableRecord
100
AcDbLayerTableRecord
  2
59
 70
     0
 62
    59
  6
CONTINUOUS
  0
LAYER
  5
75
330
2
100
AcDbSymbolTableRecord
100
AcDbLayerTableRecord
  2
60
 70
     0
 62
    60
  6
CONTINUOUS
  0
LAYER
  5
76
330
2
100
AcDbSymbolTableRecord
100
AcDbLayerTableRecord
  2
61
 70
     0
 62
    61
  6
CONTINUOUS
  0
LAYER
  5
77
330
2
100
AcDbSymbolTableRecord
100
AcDbLayerTableRecord
  2
62
 70
     0
 62
    62
  6
CONTINUOUS
  0
LAYER
  5
78
330
2
100
AcDbSymbolTableRecord
100
AcDbLayerTableRecord
  2
63
 70
     0
 62
    63
  6
CONTINUOUS
  0
LAYER
  5
79
330
2
100
AcDbSymbolTableRecord
100
AcDbLayerTableRecord
  2
64
 70
     0
 62
    64
  6
CONTINUOUS
  0
LAYER
  5
7A
330
2
100
AcDbSymbolTableRecord
100
AcDbLayerTableRecord
  2
65
 70
     0
 62
    65
  6
CONTINUOUS
  0
LAYER
  5
7B
330
2
100
AcDbSymbolTableRecord
100
AcDbLayerTableRecord
  2
66
 70
     0
 62
    66
  6
CONTINUOUS
  0
LAYER
  5
7C
330
2
100
AcDbSymbolTableRecord
100
AcDbLayerTableRecord
  2
67
 70
     0
 62
    67
  6
CONTINUOUS
  0
LAYER
  5
7D
330
2
100
AcDbSymbolTableRecord
100
AcDbLayerTableRecord
  2
68
 70
     0
 62
    68
  6
CONTINUOUS
  0
LAYER
  5
7E
330
2
100
AcDbSymbolTableRecord
100
AcDbLayerTableRecord
  2
69
 70
     0
 62
    69
  6
CONTINUOUS
  0
LAYER
  5
7F
330
2
100
AcDbSymbolTableRecord
100
AcDbLayerTableRecord
  2
70
 70
     0
 62
    70
  6
CONTINUOUS
  0
LAYER
  5
80
330
2
100
AcDbSymbolTableRecord
100
AcDbLayerTableRecord
  2
71
 70
     0
 62
    71
  6
CONTINUOUS
  0
LAYER
  5
81
330
2
100
AcDbSymbolTableRecord
100
AcDbLayerTableRecord
  2
72
 70
     0
 62
    72
  6
CONTINUOUS
  0
LAYER
  5
82
330
2
100
AcDbSymbolTableRecord
100
AcDbLayerTableRecord
  2
73
 70
     0
 62
    73
  6
CONTINUOUS
  0
LAYER
  5
83
330
2
100
AcDbSymbolTableRecord
100
AcDbLayerTableRecord
  2
74
 70
     0
 62
    74
  6
CONTINUOUS
  0
LAYER
  5
84
330
2
100
AcDbSymbolTableRecord
100
AcDbLayerTableRecord
  2
75
 70
     0
 62
    75
  6
CONTINUOUS
  0
LAYER
  5
85
330
2
100
AcDbSymbolTableRecord
100
AcDbLayerTableRecord
  2
76
 70
     0
 62
    76
  6
CONTINUOUS
  0
LAYER
  5
86
330
2
100
AcDbSymbolTableRecord
100
AcDbLayerTableRecord
  2
77
 70
     0
 62
    77
  6
CONTINUOUS
  0
LAYER
  5
87
330
2
100
AcDbSymbolTableRecord
100
AcDbLayerTableRecord
  2
78
 70
     0
 62
    78
  6
CONTINUOUS
  0
LAYER
  5
88
330
2
100
AcDbSymbolTableRecord
100
AcDbLayerTableRecord
  2
79
 70
     0
 62
    79
  6
CONTINUOUS
  0
LAYER
  5
89
330
2
100
AcDbSymbolTableRecord
100
AcDbLayerTableRecord
  2
80
 70
     0
 62
    80
  6
CONTINUOUS
  0
LAYER
  5
8A
330
2
100
AcDbSymbolTableRecord
100
AcDbLayerTableRecord
  2
81
 70
     0
 62
    81
  6
CONTINUOUS
  0
LAYER
  5
8B
330
2
100
AcDbSymbolTableRecord
100
AcDbLayerTableRecord
  2
82
 70
     0
 62
    82
  6
CONTINUOUS
  0
LAYER
  5
8C
330
2
100
AcDbSymbolTableRecord
100
AcDbLayerTableRecord
  2
83
 70
     0
 62
    83
  6
CONTINUOUS
  0
LAYER
  5
8D
330
2
100
AcDbSymbolTableRecord
100
AcDbLayerTableRecord
  2
84
 70
     0
 62
    84
  6
CONTINUOUS
  0
LAYER
  5
8E
330
2
100
AcDbSymbolTableRecord
100
AcDbLayerTableRecord
  2
85
 70
     0
 62
    85
  6
CONTINUOUS
  0
LAYER
  5
8F
330
2
100
AcDbSymbolTableRecord
100
AcDbLayerTableRecord
  2
86
 70
     0
 62
    86
  6
CONTINUOUS
  0
LAYER
  5
90
330
2
100
AcDbSymbolTableRecord
100
AcDbLayerTableRecord
  2
87
 70
     0
 62
    87
  6
CONTINUOUS
  0
LAYER
  5
91
330
2
100
AcDbSymbolTableRecord
100
AcDbLayerTableRecord
  2
88
 70
     0
 62
    88
  6
CONTINUOUS
  0
LAYER
  5
92
330
2
100
AcDbSymbolTableRecord
100
AcDbLayerTableRecord
  2
89
 70
     0
 62
    89
  6
CONTINUOUS
  0
LAYER
  5
93
330
2
100
AcDbSymbolTableRecord
100
AcDbLayerTableRecord
  2
90
 70
     0
 62
    90
  6
CONTINUOUS
  0
LAYER
  5
94
330
2
100
AcDbSymbolTableRecord
100
AcDbLayerTableRecord
  2
91
 70
     0
 62
    91
  6
CONTINUOUS
  0
LAYER
  5
95
330
2
100
AcDbSymbolTableRecord
100
AcDbLayerTableRecord
  2
92
 70
     0
 62
    92
  6
CONTINUOUS
  0
LAYER
  5
96
330
2
100
AcDbSymbolTableRecord
100
AcDbLayerTableRecord
  2
93
 70
     0
 62
    93
  6
CONTINUOUS
  0
LAYER
  5
97
330
2
100
AcDbSymbolTableRecord
100
AcDbLayerTableRecord
  2
94
 70
     0
 62
    94
  6
CONTINUOUS
  0
LAYER
  5
98
330
2
100
AcDbSymbolTableRecord
100
AcDbLayerTableRecord
  2
95
 70
     0
 62
    95
  6
CONTINUOUS
  0
LAYER
  5
99
330
2
100
AcDbSymbolTableRecord
100
AcDbLayerTableRecord
  2
96
 70
     0
 62
    96
  6
CONTINUOUS
  0
LAYER
  5
9A
330
2
100
AcDbSymbolTableRecord
100
AcDbLayerTableRecord
  2
97
 70
     0
 62
    97
  6
CONTINUOUS
  0
LAYER
  5
9B
330
2
100
AcDbSymbolTableRecord
100
AcDbLayerTableRecord
  2
98
 70
     0
 62
    98
  6
CONTINUOUS
  0
LAYER
  5
9C
330
2
100
AcDbSymbolTableRecord
100
AcDbLayerTableRecord
  2
99
 70
     0
 62
    99
  6
CONTINUOUS
  0
LAYER
  5
9D
330
2
100
AcDbSymbolTableRecord
100
AcDbLayerTableRecord
  2
100
 70
     0
 62
   100
  6
CONTINUOUS
  0
LAYER
  5
9E
330
2
100
AcDbSymbolTableRecord
100
AcDbLayerTableRecord
  2
101
 70
     0
 62
   101
  6
CONTINUOUS
  0
LAYER
  5
9F
330
2
100
AcDbSymbolTableRecord
100
AcDbLayerTableRecord
  2
102
 70
     0
 62
   102
  6
CONTINUOUS
  0
LAYER
  5
A0
330
2
100
AcDbSymbolTableRecord
100
AcDbLayerTableRecord
  2
103
 70
     0
 62
   103
  6
CONTINUOUS
  0
LAYER
  5
A1
330
2
100
AcDbSymbolTableRecord
100
AcDbLayerTableRecord
  2
104
 70
     0
 62
   104
  6
CONTINUOUS
  0
LAYER
  5
A2
330
2
100
AcDbSymbolTableRecord
100
AcDbLayerTableRecord
  2
105
 70
     0
 62
   105
  6
CONTINUOUS
  0
LAYER
  5
A3
330
2
100
AcDbSymbolTableRecord
100
AcDbLayerTableRecord
  2
106
 70
     0
 62
   106
  6
CONTINUOUS
  0
LAYER
  5
A4
330
2
100
AcDbSymbolTableRecord
100
AcDbLayerTableRecord
  2
107
 70
     0
 62
   107
  6
CONTINUOUS
  0
LAYER
  5
A5
330
2
100
AcDbSymbolTableRecord
100
AcDbLayerTableRecord
  2
108
 70
     0
 62
   108
  6
CONTINUOUS
  0
LAYER
  5
A6
330
2
100
AcDbSymbolTableRecord
100
AcDbLayerTableRecord
  2
109
 70
     0
 62
   109
  6
CONTINUOUS
  0
LAYER
  5
A7
330
2
100
AcDbSymbolTableRecord
100
AcDbLayerTableRecord
  2
110
 70
     0
 62
   110
  6
CONTINUOUS
  0
LAYER
  5
A8
330
2
100
AcDbSymbolTableRecord
100
AcDbLayerTableRecord
  2
111
 70
     0
 62
   111
  6
CONTINUOUS
  0
LAYER
  5
A9
330
2
100
AcDbSymbolTableRecord
100
AcDbLayerTableRecord
  2
112
 70
     0
 62
   112
  6
CONTINUOUS
  0
LAYER
  5
AA
330
2
100
AcDbSymbolTableRecord
100
AcDbLayerTableRecord
  2
113
 70
     0
 62
   113
  6
CONTINUOUS
  0
LAYER
  5
AB
330
2
100
AcDbSymbolTableRecord
100
AcDbLayerTableRecord
  2
114
 70
     0
 62
   114
  6
CONTINUOUS
  0
LAYER
  5
AC
330
2
100
AcDbSymbolTableRecord
100
AcDbLayerTableRecord
  2
115
 70
     0
 62
   115
  6
CONTINUOUS
  0
LAYER
  5
AD
330
2
100
AcDbSymbolTableRecord
100
AcDbLayerTableRecord
  2
116
 70
     0
 62
   116
  6
CONTINUOUS
  0
LAYER
  5
AE
330
2
100
AcDbSymbolTableRecord
100
AcDbLayerTableRecord
  2
117
 70
     0
 62
   117
  6
CONTINUOUS
  0
LAYER
  5
AF
330
2
100
AcDbSymbolTableRecord
100
AcDbLayerTableRecord
  2
118
 70
     0
 62
   118
  6
CONTINUOUS
  0
LAYER
  5
B0
330
2
100
AcDbSymbolTableRecord
100
AcDbLayerTableRecord
  2
119
 70
     0
 62
   119
  6
CONTINUOUS
  0
LAYER
  5
B1
330
2
100
AcDbSymbolTableRecord
100
AcDbLayerTableRecord
  2
120
 70
     0
 62
   120
  6
CONTINUOUS
  0
LAYER
  5
B2
330
2
100
AcDbSymbolTableRecord
100
AcDbLayerTableRecord
  2
121
 70
     0
 62
   121
  6
CONTINUOUS
  0
LAYER
  5
B3
330
2
100
AcDbSymbolTableRecord
100
AcDbLayerTableRecord
  2
122
 70
     0
 62
   122
  6
CONTINUOUS
  0
LAYER
  5
B4
330
2
100
AcDbSymbolTableRecord
100
AcDbLayerTableRecord
  2
123
 70
     0
 62
   123
  6
CONTINUOUS
  0
LAYER
  5
B5
330
2
100
AcDbSymbolTableRecord
100
AcDbLayerTableRecord
  2
124
 70
     0
 62
   124
  6
CONTINUOUS
  0
LAYER
  5
B6
330
2
100
AcDbSymbolTableRecord
100
AcDbLayerTableRecord
  2
125
 70
     0
 62
   125
  6
CONTINUOUS
  0
LAYER
  5
B7
330
2
100
AcDbSymbolTableRecord
100
AcDbLayerTableRecord
  2
126
 70
     0
 62
   126
  6
CONTINUOUS
  0
LAYER
  5
B8
330
2
100
AcDbSymbolTableRecord
100
AcDbLayerTableRecord
  2
127
 70
     0
 62
   127
  6
CONTINUOUS
  0
LAYER
  5
B9
330
2
100
AcDbSymbolTableRecord
100
AcDbLayerTableRecord
  2
128
 70
     0
 62
   128
  6
CONTINUOUS
  0
LAYER
  5
BA
330
2
100
AcDbSymbolTableRecord
100
AcDbLayerTableRecord
  2
129
 70
     0
 62
   129
  6
CONTINUOUS
  0
LAYER
  5
BB
330
2
100
AcDbSymbolTableRecord
100
AcDbLayerTableRecord
  2
130
 70
     0
 62
   130
  6
CONTINUOUS
  0
LAYER
  5
BC
330
2
100
AcDbSymbolTableRecord
100
AcDbLayerTableRecord
  2
131
 70
     0
 62
   131
  6
CONTINUOUS
  0
LAYER
  5
BD
330
2
100
AcDbSymbolTableRecord
100
AcDbLayerTableRecord
  2
132
 70
     0
 62
   132
  6
CONTINUOUS
  0
LAYER
  5
BE
330
2
100
AcDbSymbolTableRecord
100
AcDbLayerTableRecord
  2
133
 70
     0
 62
   133
  6
CONTINUOUS
  0
LAYER
  5
BF
330
2
100
AcDbSymbolTableRecord
100
AcDbLayerTableRecord
  2
134
 70
     0
 62
   134
  6
CONTINUOUS
  0
LAYER
  5
C0
330
2
100
AcDbSymbolTableRecord
100
AcDbLayerTableRecord
  2
135
 70
     0
 62
   135
  6
CONTINUOUS
  0
LAYER
  5
C1
330
2
100
AcDbSymbolTableRecord
100
AcDbLayerTableRecord
  2
136
 70
     0
 62
   136
  6
CONTINUOUS
  0
LAYER
  5
C2
330
2
100
AcDbSymbolTableRecord
100
AcDbLayerTableRecord
  2
137
 70
     0
 62
   137
  6
CONTINUOUS
  0
LAYER
  5
C3
330
2
100
AcDbSymbolTableRecord
100
AcDbLayerTableRecord
  2
138
 70
     0
 62
   138
  6
CONTINUOUS
  0
LAYER
  5
C4
330
2
100
AcDbSymbolTableRecord
100
AcDbLayerTableRecord
  2
139
 70
     0
 62
   139
  6
CONTINUOUS
  0
LAYER
  5
C5
330
2
100
AcDbSymbolTableRecord
100
AcDbLayerTableRecord
  2
140
 70
     0
 62
   140
  6
CONTINUOUS
  0
LAYER
  5
C6
330
2
100
AcDbSymbolTableRecord
100
AcDbLayerTableRecord
  2
141
 70
     0
 62
   141
  6
CONTINUOUS
  0
LAYER
  5
C7
330
2
100
AcDbSymbolTableRecord
100
AcDbLayerTableRecord
  2
142
 70
     0
 62
   142
  6
CONTINUOUS
  0
LAYER
  5
C8
330
2
100
AcDbSymbolTableRecord
100
AcDbLayerTableRecord
  2
143
 70
     0
 62
   143
  6
CONTINUOUS
  0
LAYER
  5
C9
330
2
100
AcDbSymbolTableRecord
100
AcDbLayerTableRecord
  2
144
 70
     0
 62
   144
  6
CONTINUOUS
  0
LAYER
  5
CA
330
2
100
AcDbSymbolTableRecord
100
AcDbLayerTableRecord
  2
145
 70
     0
 62
   145
  6
CONTINUOUS
  0
LAYER
  5
CB
330
2
100
AcDbSymbolTableRecord
100
AcDbLayerTableRecord
  2
146
 70
     0
 62
   146
  6
CONTINUOUS
  0
LAYER
  5
CC
330
2
100
AcDbSymbolTableRecord
100
AcDbLayerTableRecord
  2
147
 70
     0
 62
   147
  6
CONTINUOUS
  0
LAYER
  5
CD
330
2
100
AcDbSymbolTableRecord
100
AcDbLayerTableRecord
  2
148
 70
     0
 62
   148
  6
CONTINUOUS
  0
LAYER
  5
CE
330
2
100
AcDbSymbolTableRecord
100
AcDbLayerTableRecord
  2
149
 70
     0
 62
   149
  6
CONTINUOUS
  0
LAYER
  5
CF
330
2
100
AcDbSymbolTableRecord
100
AcDbLayerTableRecord
  2
150
 70
     0
 62
   150
  6
CONTINUOUS
  0
LAYER
  5
D0
330
2
100
AcDbSymbolTableRecord
100
AcDbLayerTableRecord
  2
151
 70
     0
 62
   151
  6
CONTINUOUS
  0
LAYER
  5
D1
330
2
100
AcDbSymbolTableRecord
100
AcDbLayerTableRecord
  2
152
 70
     0
 62
   152
  6
CONTINUOUS
  0
LAYER
  5
D2
330
2
100
AcDbSymbolTableRecord
100
AcDbLayerTableRecord
  2
153
 70
     0
 62
   153
  6
CONTINUOUS
  0
LAYER
  5
D3
330
2
100
AcDbSymbolTableRecord
100
AcDbLayerTableRecord
  2
154
 70
     0
 62
   154
  6
CONTINUOUS
  0
LAYER
  5
D4
330
2
100
AcDbSymbolTableRecord
100
AcDbLayerTableRecord
  2
155
 70
     0
 62
   155
  6
CONTINUOUS
  0
LAYER
  5
D5
330
2
100
AcDbSymbolTableRecord
100
AcDbLayerTableRecord
  2
156
 70
     0
 62
   156
  6
CONTINUOUS
  0
LAYER
  5
D6
330
2
100
AcDbSymbolTableRecord
100
AcDbLayerTableRecord
  2
157
 70
     0
 62
   157
  6
CONTINUOUS
  0
LAYER
  5
D7
330
2
100
AcDbSymbolTableRecord
100
AcDbLayerTableRecord
  2
158
 70
     0
 62
   158
  6
CONTINUOUS
  0
LAYER
  5
D8
330
2
100
AcDbSymbolTableRecord
100
AcDbLayerTableRecord
  2
159
 70
     0
 62
   159
  6
CONTINUOUS
  0
LAYER
  5
D9
330
2
100
AcDbSymbolTableRecord
100
AcDbLayerTableRecord
  2
160
 70
     0
 62
   160
  6
CONTINUOUS
  0
LAYER
  5
DA
330
2
100
AcDbSymbolTableRecord
100
AcDbLayerTableRecord
  2
161
 70
     0
 62
   161
  6
CONTINUOUS
  0
LAYER
  5
DB
330
2
100
AcDbSymbolTableRecord
100
AcDbLayerTableRecord
  2
162
 70
     0
 62
   162
  6
CONTINUOUS
  0
LAYER
  5
DC
330
2
100
AcDbSymbolTableRecord
100
AcDbLayerTableRecord
  2
163
 70
     0
 62
   163
  6
CONTINUOUS
  0
LAYER
  5
DD
330
2
100
AcDbSymbolTableRecord
100
AcDbLayerTableRecord
  2
164
 70
     0
 62
   164
  6
CONTINUOUS
  0
LAYER
  5
DE
330
2
100
AcDbSymbolTableRecord
100
AcDbLayerTableRecord
  2
165
 70
     0
 62
   165
  6
CONTINUOUS
  0
LAYER
  5
DF
330
2
100
AcDbSymbolTableRecord
100
AcDbLayerTableRecord
  2
166
 70
     0
 62
   166
  6
CONTINUOUS
  0
LAYER
  5
E0
330
2
100
AcDbSymbolTableRecord
100
AcDbLayerTableRecord
  2
167
 70
     0
 62
   167
  6
CONTINUOUS
  0
LAYER
  5
E1
330
2
100
AcDbSymbolTableRecord
100
AcDbLayerTableRecord
  2
168
 70
     0
 62
   168
  6
CONTINUOUS
  0
LAYER
  5
E2
330
2
100
AcDbSymbolTableRecord
100
AcDbLayerTableRecord
  2
169
 70
     0
 62
   169
  6
CONTINUOUS
  0
LAYER
  5
E3
330
2
100
AcDbSymbolTableRecord
100
AcDbLayerTableRecord
  2
170
 70
     0
 62
   170
  6
CONTINUOUS
  0
LAYER
  5
E4
330
2
100
AcDbSymbolTableRecord
100
AcDbLayerTableRecord
  2
171
 70
     0
 62
   171
  6
CONTINUOUS
  0
LAYER
  5
E5
330
2
100
AcDbSymbolTableRecord
100
AcDbLayerTableRecord
  2
172
 70
     0
 62
   172
  6
CONTINUOUS
  0
LAYER
  5
E6
330
2
100
AcDbSymbolTableRecord
100
AcDbLayerTableRecord
  2
173
 70
     0
 62
   173
  6
CONTINUOUS
  0
LAYER
  5
E7
330
2
100
AcDbSymbolTableRecord
100
AcDbLayerTableRecord
  2
174
 70
     0
 62
   174
  6
CONTINUOUS
  0
LAYER
  5
E8
330
2
100
AcDbSymbolTableRecord
100
AcDbLayerTableRecord
  2
175
 70
     0
 62
   175
  6
CONTINUOUS
  0
LAYER
  5
E9
330
2
100
AcDbSymbolTableRecord
100
AcDbLayerTableRecord
  2
176
 70
     0
 62
   176
  6
CONTINUOUS
  0
LAYER
  5
EA
330
2
100
AcDbSymbolTableRecord
100
AcDbLayerTableRecord
  2
177
 70
     0
 62
   177
  6
CONTINUOUS
  0
LAYER
  5
EB
330
2
100
AcDbSymbolTableRecord
100
AcDbLayerTableRecord
  2
178
 70
     0
 62
   178
  6
CONTINUOUS
  0
LAYER
  5
EC
330
2
100
AcDbSymbolTableRecord
100
AcDbLayerTableRecord
  2
179
 70
     0
 62
   179
  6
CONTINUOUS
  0
LAYER
  5
ED
330
2
100
AcDbSymbolTableRecord
100
AcDbLayerTableRecord
  2
180
 70
     0
 62
   180
  6
CONTINUOUS
  0
LAYER
  5
EE
330
2
100
AcDbSymbolTableRecord
100
AcDbLayerTableRecord
  2
181
 70
     0
 62
   181
  6
CONTINUOUS
  0
LAYER
  5
EF
330
2
100
AcDbSymbolTableRecord
100
AcDbLayerTableRecord
  2
182
 70
     0
 62
   182
  6
CONTINUOUS
  0
LAYER
  5
F0
330
2
100
AcDbSymbolTableRecord
100
AcDbLayerTableRecord
  2
183
 70
     0
 62
   183
  6
CONTINUOUS
  0
LAYER
  5
F1
330
2
100
AcDbSymbolTableRecord
100
AcDbLayerTableRecord
  2
184
 70
     0
 62
   184
  6
CONTINUOUS
  0
LAYER
  5
F2
330
2
100
AcDbSymbolTableRecord
100
AcDbLayerTableRecord
  2
185
 70
     0
 62
   185
  6
CONTINUOUS
  0
LAYER
  5
F3
330
2
100
AcDbSymbolTableRecord
100
AcDbLayerTableRecord
  2
186
 70
     0
 62
   186
  6
CONTINUOUS
  0
LAYER
  5
F4
330
2
100
AcDbSymbolTableRecord
100
AcDbLayerTableRecord
  2
187
 70
     0
 62
   187
  6
CONTINUOUS
  0
LAYER
  5
F5
330
2
100
AcDbSymbolTableRecord
100
AcDbLayerTableRecord
  2
188
 70
     0
 62
   188
  6
CONTINUOUS
  0
LAYER
  5
F6
330
2
100
AcDbSymbolTableRecord
100
AcDbLayerTableRecord
  2
189
 70
     0
 62
   189
  6
CONTINUOUS
  0
LAYER
  5
F7
330
2
100
AcDbSymbolTableRecord
100
AcDbLayerTableRecord
  2
190
 70
     0
 62
   190
  6
CONTINUOUS
  0
LAYER
  5
F8
330
2
100
AcDbSymbolTableRecord
100
AcDbLayerTableRecord
  2
191
 70
     0
 62
   191
  6
CONTINUOUS
  0
LAYER
  5
F9
330
2
100
AcDbSymbolTableRecord
100
AcDbLayerTableRecord
  2
192
 70
     0
 62
   192
  6
CONTINUOUS
  0
LAYER
  5
FA
330
2
100
AcDbSymbolTableRecord
100
AcDbLayerTableRecord
  2
193
 70
     0
 62
   193
  6
CONTINUOUS
  0
LAYER
  5
FB
330
2
100
AcDbSymbolTableRecord
100
AcDbLayerTableRecord
  2
194
 70
     0
 62
   194
  6
CONTINUOUS
  0
LAYER
  5
FC
330
2
100
AcDbSymbolTableRecord
100
AcDbLayerTableRecord
  2
195
 70
     0
 62
   195
  6
CONTINUOUS
  0
LAYER
  5
FD
330
2
100
AcDbSymbolTableRecord
100
AcDbLayerTableRecord
  2
196
 70
     0
 62
   196
  6
CONTINUOUS
  0
LAYER
  5
FE
330
2
100
AcDbSymbolTableRecord
100
AcDbLayerTableRecord
  2
197
 70
     0
 62
   197
  6
CONTINUOUS
  0
LAYER
  5
FF
330
2
100
AcDbSymbolTableRecord
100
AcDbLayerTableRecord
  2
198
 70
     0
 62
   198
  6
CONTINUOUS
  0
LAYER
  5
100
330
2
100
AcDbSymbolTableRecord
100
AcDbLayerTableRecord
  2
199
 70
     0
 62
   199
  6
CONTINUOUS
  0
LAYER
  5
101
330
2
100
AcDbSymbolTableRecord
100
AcDbLayerTableRecord
  2
200
 70
     0
 62
   200
  6
CONTINUOUS
  0
LAYER
  5
102
330
2
100
AcDbSymbolTableRecord
100
AcDbLayerTableRecord
  2
201
 70
     0
 62
   201
  6
CONTINUOUS
  0
LAYER
  5
103
330
2
100
AcDbSymbolTableRecord
100
AcDbLayerTableRecord
  2
202
 70
     0
 62
   202
  6
CONTINUOUS
  0
LAYER
  5
104
330
2
100
AcDbSymbolTableRecord
100
AcDbLayerTableRecord
  2
203
 70
     0
 62
   203
  6
CONTINUOUS
  0
LAYER
  5
105
330
2
100
AcDbSymbolTableRecord
100
AcDbLayerTableRecord
  2
204
 70
     0
 62
   204
  6
CONTINUOUS
  0
LAYER
  5
106
330
2
100
AcDbSymbolTableRecord
100
AcDbLayerTableRecord
  2
205
 70
     0
 62
   205
  6
CONTINUOUS
  0
LAYER
  5
107
330
2
100
AcDbSymbolTableRecord
100
AcDbLayerTableRecord
  2
206
 70
     0
 62
   206
  6
CONTINUOUS
  0
LAYER
  5
108
330
2
100
AcDbSymbolTableRecord
100
AcDbLayerTableRecord
  2
207
 70
     0
 62
   207
  6
CONTINUOUS
  0
LAYER
  5
109
330
2
100
AcDbSymbolTableRecord
100
AcDbLayerTableRecord
  2
208
 70
     0
 62
   208
  6
CONTINUOUS
  0
LAYER
  5
10A
330
2
100
AcDbSymbolTableRecord
100
AcDbLayerTableRecord
  2
209
 70
     0
 62
   209
  6
CONTINUOUS
  0
LAYER
  5
10B
330
2
100
AcDbSymbolTableRecord
100
AcDbLayerTableRecord
  2
210
 70
     0
 62
   210
  6
CONTINUOUS
  0
LAYER
  5
10C
330
2
100
AcDbSymbolTableRecord
100
AcDbLayerTableRecord
  2
211
 70
     0
 62
   211
  6
CONTINUOUS
  0
LAYER
  5
10D
330
2
100
AcDbSymbolTableRecord
100
AcDbLayerTableRecord
  2
212
 70
     0
 62
   212
  6
CONTINUOUS
  0
LAYER
  5
10E
330
2
100
AcDbSymbolTableRecord
100
AcDbLayerTableRecord
  2
213
 70
     0
 62
   213
  6
CONTINUOUS
  0
LAYER
  5
10F
330
2
100
AcDbSymbolTableRecord
100
AcDbLayerTableRecord
  2
214
 70
     0
 62
   214
  6
CONTINUOUS
  0
LAYER
  5
110
330
2
100
AcDbSymbolTableRecord
100
AcDbLayerTableRecord
  2
215
 70
     0
 62
   215
  6
CONTINUOUS
  0
LAYER
  5
111
330
2
100
AcDbSymbolTableRecord
100
AcDbLayerTableRecord
  2
216
 70
     0
 62
   216
  6
CONTINUOUS
  0
LAYER
  5
112
330
2
100
AcDbSymbolTableRecord
100
AcDbLayerTableRecord
  2
217
 70
     0
 62
   217
  6
CONTINUOUS
  0
LAYER
  5
113
330
2
100
AcDbSymbolTableRecord
100
AcDbLayerTableRecord
  2
218
 70
     0
 62
   218
  6
CONTINUOUS
  0
LAYER
  5
114
330
2
100
AcDbSymbolTableRecord
100
AcDbLayerTableRecord
  2
219
 70
     0
 62
   219
  6
CONTINUOUS
  0
LAYER
  5
115
330
2
100
AcDbSymbolTableRecord
100
AcDbLayerTableRecord
  2
220
 70
     0
 62
   220
  6
CONTINUOUS
  0
LAYER
  5
116
330
2
100
AcDbSymbolTableRecord
100
AcDbLayerTableRecord
  2
221
 70
     0
 62
   221
  6
CONTINUOUS
  0
LAYER
  5
117
330
2
100
AcDbSymbolTableRecord
100
AcDbLayerTableRecord
  2
222
 70
     0
 62
   222
  6
CONTINUOUS
  0
LAYER
  5
118
330
2
100
AcDbSymbolTableRecord
100
AcDbLayerTableRecord
  2
223
 70
     0
 62
   223
  6
CONTINUOUS
  0
LAYER
  5
119
330
2
100
AcDbSymbolTableRecord
100
AcDbLayerTableRecord
  2
224
 70
     0
 62
   224
  6
CONTINUOUS
  0
LAYER
  5
11A
330
2
100
AcDbSymbolTableRecord
100
AcDbLayerTableRecord
  2
225
 70
     0
 62
   225
  6
CONTINUOUS
  0
LAYER
  5
11B
330
2
100
AcDbSymbolTableRecord
100
AcDbLayerTableRecord
  2
226
 70
     0
 62
   226
  6
CONTINUOUS
  0
LAYER
  5
11C
330
2
100
AcDbSymbolTableRecord
100
AcDbLayerTableRecord
  2
227
 70
     0
 62
   227
  6
CONTINUOUS
  0
LAYER
  5
11D
330
2
100
AcDbSymbolTableRecord
100
AcDbLayerTableRecord
  2
228
 70
     0
 62
   228
  6
CONTINUOUS
  0
LAYER
  5
11E
330
2
100
AcDbSymbolTableRecord
100
AcDbLayerTableRecord
  2
229
 70
     0
 62
   229
  6
CONTINUOUS
  0
LAYER
  5
11F
330
2
100
AcDbSymbolTableRecord
100
AcDbLayerTableRecord
  2
230
 70
     0
 62
   230
  6
CONTINUOUS
  0
LAYER
  5
120
330
2
100
AcDbSymbolTableRecord
100
AcDbLayerTableRecord
  2
231
 70
     0
 62
   231
  6
CONTINUOUS
  0
LAYER
  5
121
330
2
100
AcDbSymbolTableRecord
100
AcDbLayerTableRecord
  2
232
 70
     0
 62
   232
  6
CONTINUOUS
  0
LAYER
  5
122
330
2
100
AcDbSymbolTableRecord
100
AcDbLayerTableRecord
  2
233
 70
     0
 62
   233
  6
CONTINUOUS
  0
LAYER
  5
123
330
2
100
AcDbSymbolTableRecord
100
AcDbLayerTableRecord
  2
234
 70
     0
 62
   234
  6
CONTINUOUS
  0
LAYER
  5
124
330
2
100
AcDbSymbolTableRecord
100
AcDbLayerTableRecord
  2
235
 70
     0
 62
   235
  6
CONTINUOUS
  0
LAYER
  5
125
330
2
100
AcDbSymbolTableRecord
100
AcDbLayerTableRecord
  2
236
 70
     0
 62
   236
  6
CONTINUOUS
  0
LAYER
  5
126
330
2
100
AcDbSymbolTableRecord
100
AcDbLayerTableRecord
  2
237
 70
     0
 62
   237
  6
CONTINUOUS
  0
LAYER
  5
127
330
2
100
AcDbSymbolTableRecord
100
AcDbLayerTableRecord
  2
238
 70
     0
 62
   238
  6
CONTINUOUS
  0
LAYER
  5
128
330
2
100
AcDbSymbolTableRecord
100
AcDbLayerTableRecord
  2
239
 70
     0
 62
   239
  6
CONTINUOUS
  0
LAYER
  5
129
330
2
100
AcDbSymbolTableRecord
100
AcDbLayerTableRecord
  2
240
 70
     0
 62
   240
  6
CONTINUOUS
  0
LAYER
  5
12A
330
2
100
AcDbSymbolTableRecord
100
AcDbLayerTableRecord
  2
241
 70
     0
 62
   241
  6
CONTINUOUS
  0
LAYER
  5
12B
330
2
100
AcDbSymbolTableRecord
100
AcDbLayerTableRecord
  2
242
 70
     0
 62
   242
  6
CONTINUOUS
  0
LAYER
  5
12C
330
2
100
AcDbSymbolTableRecord
100
AcDbLayerTableRecord
  2
243
 70
     0
 62
   243
  6
CONTINUOUS
  0
LAYER
  5
12D
330
2
100
AcDbSymbolTableRecord
100
AcDbLayerTableRecord
  2
244
 70
     0
 62
   244
  6
CONTINUOUS
  0
LAYER
  5
12E
330
2
100
AcDbSymbolTableRecord
100
AcDbLayerTableRecord
  2
245
 70
     0
 62
   245
  6
CONTINUOUS
  0
LAYER
  5
12F
330
2
100
AcDbSymbolTableRecord
100
AcDbLayerTableRecord
  2
246
 70
     0
 62
   246
  6
CONTINUOUS
  0
LAYER
  5
130
330
2
100
AcDbSymbolTableRecord
100
AcDbLayerTableRecord
  2
247
 70
     0
 62
   247
  6
CONTINUOUS
  0
LAYER
  5
131
330
2
100
AcDbSymbolTableRecord
100
AcDbLayerTableRecord
  2
248
 70
     0
 62
   248
  6
CONTINUOUS
  0
LAYER
  5
132
330
2
100
AcDbSymbolTableRecord
100
AcDbLayerTableRecord
  2
249
 70
     0
 62
   249
  6
CONTINUOUS
  0
LAYER
  5
133
330
2
100
AcDbSymbolTableRecord
100
AcDbLayerTableRecord
  2
250
 70
     0
 62
   250
  6
CONTINUOUS
  0
LAYER
  5
134
330
2
100
AcDbSymbolTableRecord
100
AcDbLayerTableRecord
  2
251
 70
     0
 62
   251
  6
CONTINUOUS
  0
LAYER
  5
135
330
2
100
AcDbSymbolTableRecord
100
AcDbLayerTableRecord
  2
252
 70
     0
 62
   252
  6
CONTINUOUS
  0
LAYER
  5
136
330
2
100
AcDbSymbolTableRecord
100
AcDbLayerTableRecord
  2
253
 70
     0
 62
   253
  6
CONTINUOUS
  0
LAYER
  5
137
330
2
100
AcDbSymbolTableRecord
100
AcDbLayerTableRecord
  2
254
 70
     0
 62
   254
  6
CONTINUOUS
  0
LAYER
  5
138
330
2
100
AcDbSymbolTableRecord
100
AcDbLayerTableRecord
  2
255
 70
     0
 62
   255
  6
CONTINUOUS
  0
ENDTAB
  0
TABLE
  2
STYLE
  5
3
330
0
100
AcDbSymbolTable
 70
     1
  0
STYLE
  5
11
330
3
100
AcDbSymbolTableRecord
100
AcDbTextStyleTableRecord
  2
STANDARD
 70
     0
 40
0.0
 41
1.0
 50
0.0
 71
     0
 42
0.2
  3
monotxt
  4

  0
ENDTAB
  0
TABLE
  2
VIEW
  5
6
330
0
100
AcDbSymbolTable
 70
     0
  0
ENDTAB
  0
TABLE
  2
UCS
  5
7
330
0
100
AcDbSymbolTable
 70
     0
  0
ENDTAB
  0
TABLE
  2
APPID
  5
9
330
0
100
AcDbSymbolTable
 70
     1
  0
APPID
  5
12
330
9
100
AcDbSymbolTableRecord
100
AcDbRegAppTableRecord
  2
ACAD
 70
     0
  0
ENDTAB
  0
TABLE
  2
DIMSTYLE
  5
A
330
0
100
AcDbSymbolTable
 70
     1
  0
DIMSTYLE
105
243C
330
A
100
AcDbSymbolTableRecord
100
AcDbDimStyleTableRecord
  2
STANDARD
 70
     0
  3

  4

  5

  6

  7

 40
1.0
 41
0.18
 42
0.0625
 43
0.38
 44
0.18
 45
0.0
 46
0.0
 47
0.0
 48
0.0
140
0.18
141
0.09
142
0.0
143
25.4
144
1.0
145
0.0
146
1.0
147
0.09
 71
     0
 72
     0
 73
     1
 74
     1
 75
     0
 76
     0
 77
     0
 78
     0
170
     0
171
     2
172
     0
173
     0
174
     0
175
     0
176
     0
177
     0
178
     0
270
     2
271
     4
272
     4
273
     2
274
     2
340
11
275
     0
280
     0
281
     0
282
     0
283
     1
284
     0
285
     0
286
     0
287
     3
288
     0
  0
ENDTAB
  0
TABLE
  2
BLOCK_RECORD
  5
1
330
0
100
AcDbSymbolTable
 70
     0
  0
BLOCK_RECORD
  5
1E
102
{ACAD_XDICTIONARY
360
363B
102
}
330
1
100
AcDbSymbolTableRecord
100
AcDbBlockTableRecord
  2
*MODEL_SPACE
  0
BLOCK_RECORD
  5
1A
102
{ACAD_XDICTIONARY
360
363D
102
}
330
1
100
AcDbSymbolTableRecord
100
AcDbBlockTableRecord
  2
*PAPER_SPACE
  0
ENDTAB
  0
ENDSEC
  0
SECTION
  2
BLOCKS
  0
BLOCK
  5
13B
330
1E
100
AcDbEntity
  8
0
100
AcDbBlockBegin
  2
*MODEL_SPACE
 70
     0
 10
0.0
 20
0.0
 30
0.0
  3
*MODEL_SPACE
  1

  0
ENDBLK
  5
13C
330
1E
100
AcDbEntity
  8
0
100
AcDbBlockEnd
  0
BLOCK
  5
139
330
1A
100
AcDbEntity
 67
     1
  8
0
100
AcDbBlockBegin
  2
*PAPER_SPACE
 70
     0
 10
0.0
 20
0.0
 30
0.0
  3
*PAPER_SPACE
  1

  0
ENDBLK
  5
13A
330
1A
100
AcDbEntity
 67
     1
  8
0
100
AcDbBlockEnd
  0
ENDSEC
  0
SECTION
  2
ENTITIES
  0
LINE
  5
1FC7
330
1E
100
AcDbEntity
  8
7
100
AcDbLine
 10
0.1092519685039366
 20
2.645669291338583
 30
0.0
 11
0.106299212598425
 21
2.776574803149606
 31
0.0
  0
LINE
  5
1FC8
330
1E
100
AcDbEntity
  8
7
100
AcDbLine
 10
-0.4114173228346459
 20
2.487204724409449
 30
0.0
 11
-0.4143700787401579
 21
2.617125984251968
 31
0.0
  0
LINE
  5
1FC9
330
1E
100
AcDbEntity
  8
7
100
AcDbLine
 10
0.5600393700787399
 20
2.340551181102362
 30
0.0
 11
0.5600393700787399
 21
2.318897637795275
 31
0.0
  0
LINE
  5
1FCA
330
1E
100
AcDbEntity
  8
7
100
AcDbLine
 10
1.336614173228345
 20
2.577755905511811
 30
0.0
 11
1.336614173228345
 21
2.556102362204724
 31
0.0
  0
LINE
  5
1FCB
330
1E
100
AcDbEntity
  8
7
100
AcDbLine
 10
0.6309055118110237
 20
2.805118110236221
 30
0.0
 11
0.6269685039370079
 21
2.936023622047244
 31
0.0
  0
LINE
  5
1FCC
330
1E
100
AcDbEntity
  8
7
100
AcDbLine
 10
1.156496062992125
 20
3.247047244094488
 30
0.0
 11
-1.288385826771653
 21
2.5
 31
0.0
  0
LINE
  5
1FCD
330
1E
100
AcDbEntity
  8
7
100
AcDbLine
 10
2.363188976377952
 20
2.703740157480315
 30
0.0
 11
1.189960629921259
 21
3.24507874015748
 31
0.0
  0
LINE
  5
1FFA
330
1E
100
AcDbEntity
  8
7
100
AcDbLine
 10
0.96259842519685
 20
2.760826771653543
 30
0.0
 11
1.349409448818897
 21
2.582677165354331
 31
0.0
  0
LINE
  5
1FFB
330
1E
100
AcDbEntity
  8
7
100
AcDbLine
 10
0.8011811023622046
 20
2.711614173228347
 30
0.0
 11
0.96259842519685
 21
2.760826771653543
 31
0.0
  0
LINE
  5
1FFC
330
1E
100
AcDbEntity
  8
7
100
AcDbLine
 10
0.781496062992126
 20
2.720472440944882
 30
0.0
 11
0.8011811023622046
 21
2.711614173228347
 31
0.0
  0
LINE
  5
1FFD
330
1E
100
AcDbEntity
  8
7
100
AcDbLine
 10
0.781496062992126
 20
2.720472440944882
 30
0.0
 11
0.4773622047244093
 21
2.627952755905512
 31
0.0
  0
LINE
  5
1FFE
330
1E
100
AcDbEntity
  8
7
100
AcDbLine
 10
0.2805118110236218
 20
2.552165354330709
 30
0.0
 11
0.478346456692913
 21
2.612204724409449
 31
0.0
  0
LINE
  5
1FFF
330
1E
100
AcDbEntity
  8
7
100
AcDbLine
 10
0.2608267716535431
 20
2.561023622047244
 30
0.0
 11
0.2805118110236218
 21
2.552165354330709
 31
0.0
  0
LINE
  5
2000
330
1E
100
AcDbEntity
  8
7
100
AcDbLine
 10
0.2608267716535431
 20
2.561023622047244
 30
0.0
 11
0.0895669291338579
 21
2.508858267716536
 31
0.0
  0
LINE
  5
2001
330
1E
100
AcDbEntity
  8
7
100
AcDbLine
 10
-0.1082677165354333
 20
2.433070866141732
 30
0.0
 11
0.0895669291338579
 21
2.494094488188976
 31
0.0
  0
LINE
  5
2002
330
1E
100
AcDbEntity
  8
7
100
AcDbLine
 10
-0.127952755905512
 20
2.442913385826772
 30
0.0
 11
-0.1082677165354333
 21
2.433070866141732
 31
0.0
  0
LINE
  5
2003
330
1E
100
AcDbEntity
  8
7
100
AcDbLine
 10
-0.2864173228346458
 20
2.393700787401574
 30
0.0
 11
-0.127952755905512
 21
2.442913385826772
 31
0.0
  0
LINE
  5
2004
330
1E
100
AcDbEntity
  8
7
100
AcDbLine
 10
0.125
 20
2.207677165354331
 30
0.0
 11
0.4635826771653542
 21
2.311023622047244
 31
0.0
  0
LINE
  5
2005
330
1E
100
AcDbEntity
  8
7
100
AcDbLine
 10
0.4714566929133857
 20
2.311023622047244
 30
0.0
 11
0.4921259842519686
 21
2.301181102362205
 31
0.0
  0
LINE
  5
2006
330
1E
100
AcDbEntity
  8
7
100
AcDbLine
 10
0.5009842519685038
 20
2.301181102362205
 30
0.0
 11
0.5816929133858264
 21
2.325787401574803
 31
0.0
  0
LINE
  5
200D
330
1E
100
AcDbEntity
  8
7
100
AcDbLine
 10
0.5629921259842519
 20
2.341535433070866
 30
0.0
 11
1.24015748031496
 21
2.548228346456693
 31
0.0
  0
LINE
  5
200E
330
1E
100
AcDbEntity
  8
7
100
AcDbLine
 10
1.248031496062992
 20
2.548228346456693
 30
0.0
 11
1.268700787401574
 21
2.538385826771653
 31
0.0
  0
LINE
  5
200F
330
1E
100
AcDbEntity
  8
7
100
AcDbLine
 10
1.277559055118109
 20
2.538385826771653
 30
0.0
 11
1.358267716535432
 21
2.562992125984252
 31
0.0
  0
LINE
  5
2010
330
1E
100
AcDbEntity
  8
7
100
AcDbLine
 10
1.359251968503936
 20
2.562992125984252
 30
0.0
 11
1.359251968503936
 21
2.565944881889763
 31
0.0
  0
LINE
  5
2016
330
1E
100
AcDbEntity
  8
7
100
AcDbLine
 10
1.339566929133857
 20
2.578740157480315
 30
0.0
 11
1.678149606299212
 21
2.682086614173228
 31
0.0
  0
LINE
  5
2020
330
1E
100
AcDbEntity
  8
7
100
AcDbLine
 10
-0.6240157480314963
 20
2.549212598425197
 30
0.0
 11
0.1161417322834644
 21
2.208661417322835
 31
0.0
  0
LINE
  5
2021
330
1E
100
AcDbEntity
  8
7
100
AcDbLine
 10
0.7746062992125982
 20
2.848425196850394
 30
0.0
 11
0.9350393700787398
 21
2.896653543307087
 31
0.0
  0
LINE
  5
2022
330
1E
100
AcDbEntity
  8
7
100
AcDbLine
 10
0.8031496062992125
 20
2.835629921259842
 30
0.0
 11
0.7746062992125982
 21
2.848425196850394
 31
0.0
  0
LINE
  5
2023
330
1E
100
AcDbEntity
  8
7
100
AcDbLine
 10
0.963582677165354
 20
2.883858267716536
 30
0.0
 11
0.8031496062992125
 21
2.835629921259842
 31
0.0
  0
LINE
  5
2024
330
1E
100
AcDbEntity
  8
7
100
AcDbLine
 10
0.6978346456692912
 20
2.841535433070866
 30
0.0
 11
0.7155511811023621
 21
2.832677165354331
 31
0.0
  0
LINE
  5
2025
330
1E
100
AcDbEntity
  8
7
100
AcDbLine
 10
0.6978346456692912
 20
2.841535433070866
 30
0.0
 11
0.6299212598425195
 21
2.820866141732284
 31
0.0
  0
LINE
  5
2026
330
1E
100
AcDbEntity
  8
7
100
AcDbLine
 10
0.6309055118110237
 20
2.805118110236221
 30
0.0
 11
0.6279527559055116
 21
2.803149606299212
 31
0.0
  0
LINE
  5
2027
330
1E
100
AcDbEntity
  8
7
100
AcDbLine
 10
0.7244094488188973
 20
2.832677165354331
 30
0.0
 11
0.6279527559055116
 21
2.803149606299212
 31
0.0
  0
LINE
  5
2028
330
1E
100
AcDbEntity
  8
7
100
AcDbLine
 10
0.7244094488188973
 20
2.832677165354331
 30
0.0
 11
0.7155511811023621
 21
2.832677165354331
 31
0.0
  0
LINE
  5
2029
330
1E
100
AcDbEntity
  8
7
100
AcDbLine
 10
0.2539370078740157
 20
2.688976377952756
 30
0.0
 11
0.2824803149606296
 21
2.676181102362205
 31
0.0
  0
LINE
  5
202A
330
1E
100
AcDbEntity
  8
7
100
AcDbLine
 10
0.4734251968503936
 20
2.734251968503937
 30
0.0
 11
0.2824803149606296
 21
2.676181102362205
 31
0.0
  0
LINE
  5
202B
330
1E
100
AcDbEntity
  8
7
100
AcDbLine
 10
0.4448818897637792
 20
2.747047244094488
 30
0.0
 11
0.4734251968503936
 21
2.734251968503937
 31
0.0
  0
LINE
  5
202C
330
1E
100
AcDbEntity
  8
7
100
AcDbLine
 10
0.2539370078740157
 20
2.688976377952756
 30
0.0
 11
0.4448818897637792
 21
2.747047244094488
 31
0.0
  0
LINE
  5
2032
330
1E
100
AcDbEntity
  8
7
100
AcDbLine
 10
0.1092519685039366
 20
2.645669291338583
 30
0.0
 11
0.1072834645669287
 21
2.644685039370078
 31
0.0
  0
LINE
  5
2033
330
1E
100
AcDbEntity
  8
7
100
AcDbLine
 10
0.2027559055118107
 20
2.673228346456693
 30
0.0
 11
0.1072834645669287
 21
2.644685039370078
 31
0.0
  0
LINE
  5
2034
330
1E
100
AcDbEntity
  8
7
100
AcDbLine
 10
0.2027559055118107
 20
2.673228346456693
 30
0.0
 11
0.1948818897637792
 21
2.674212598425197
 31
0.0
  0
LINE
  5
2035
330
1E
100
AcDbEntity
  8
7
100
AcDbLine
 10
0.0846456692913385
 20
2.616141732283464
 30
0.0
 11
0.0561023622047241
 21
2.628937007874015
 31
0.0
  0
LINE
  5
2036
330
1E
100
AcDbEntity
  8
7
100
AcDbLine
 10
-0.1338582677165356
 20
2.570866141732284
 30
0.0
 11
0.0561023622047241
 21
2.628937007874015
 31
0.0
  0
LINE
  5
2037
330
1E
100
AcDbEntity
  8
7
100
AcDbLine
 10
-0.1338582677165356
 20
2.570866141732284
 30
0.0
 11
-0.1062992125984254
 21
2.557086614173228
 31
0.0
  0
LINE
  5
2038
330
1E
100
AcDbEntity
  8
7
100
AcDbLine
 10
0.0846456692913385
 20
2.616141732283464
 30
0.0
 11
-0.1062992125984254
 21
2.557086614173228
 31
0.0
  0
LINE
  5
203E
330
1E
100
AcDbEntity
  8
7
100
AcDbLine
 10
-0.4114173228346459
 20
2.487204724409449
 30
0.0
 11
-0.4133858267716537
 21
2.485236220472441
 31
0.0
  0
LINE
  5
203F
330
1E
100
AcDbEntity
  8
7
100
AcDbLine
 10
-0.3179133858267717
 20
2.514763779527559
 30
0.0
 11
-0.4133858267716537
 21
2.485236220472441
 31
0.0
  0
LINE
  5
2040
330
1E
100
AcDbEntity
  8
7
100
AcDbLine
 10
-0.3179133858267717
 20
2.514763779527559
 30
0.0
 11
-0.3257874015748032
 21
2.514763779527559
 31
0.0
  0
LINE
  5
2046
330
1E
100
AcDbEntity
  8
7
100
AcDbLine
 10
-0.4133858267716537
 20
2.485236220472441
 30
0.0
 11
-0.4557086614173232
 21
2.472440944881889
 31
0.0
  0
LINE
  5
2047
330
1E
100
AcDbEntity
  8
7
100
AcDbLine
 10
-0.1082677165354333
 20
2.433070866141732
 30
0.0
 11
-0.1062992125984254
 21
2.557086614173228
 31
0.0
  0
LINE
  5
2048
330
1E
100
AcDbEntity
  8
7
100
AcDbLine
 10
0.0846456692913385
 20
2.616141732283464
 30
0.0
 11
0.0895669291338579
 21
2.494094488188976
 31
0.0
  0
LINE
  5
2049
330
1E
100
AcDbEntity
  8
7
100
AcDbLine
 10
0.2608267716535431
 20
2.561023622047244
 30
0.0
 11
0.2539370078740157
 21
2.688976377952756
 31
0.0
  0
LINE
  5
204A
330
1E
100
AcDbEntity
  8
7
100
AcDbLine
 10
0.2027559055118107
 20
2.673228346456693
 30
0.0
 11
0.2539370078740157
 21
2.688976377952756
 31
0.0
  0
LINE
  5
204B
330
1E
100
AcDbEntity
  8
7
100
AcDbLine
 10
0.0561023622047241
 20
2.628937007874015
 30
0.0
 11
0.1072834645669287
 21
2.644685039370078
 31
0.0
  0
LINE
  5
204C
330
1E
100
AcDbEntity
  8
7
100
AcDbLine
 10
0.2805118110236218
 20
2.552165354330709
 30
0.0
 11
0.2824803149606296
 21
2.676181102362205
 31
0.0
  0
LINE
  5
204D
330
1E
100
AcDbEntity
  8
7
100
AcDbLine
 10
0.4734251968503936
 20
2.734251968503937
 30
0.0
 11
0.478346456692913
 21
2.612204724409449
 31
0.0
  0
LINE
  5
204E
330
1E
100
AcDbEntity
  8
7
100
AcDbLine
 10
0.7746062992125982
 20
2.848425196850394
 30
0.0
 11
0.781496062992126
 21
2.720472440944882
 31
0.0
  0
LINE
  5
204F
330
1E
100
AcDbEntity
  8
7
100
AcDbLine
 10
0.7244094488188973
 20
2.832677165354331
 30
0.0
 11
0.7746062992125982
 21
2.848425196850394
 31
0.0
  0
LINE
  5
2050
330
1E
100
AcDbEntity
  8
7
100
AcDbLine
 10
0.4448818897637792
 20
2.747047244094488
 30
0.0
 11
0.6279527559055116
 21
2.803149606299212
 31
0.0
  0
LINE
  5
2051
330
1E
100
AcDbEntity
  8
7
100
AcDbLine
 10
0.8011811023622046
 20
2.711614173228347
 30
0.0
 11
0.8031496062992125
 21
2.835629921259842
 31
0.0
  0
LINE
  5
2052
330
1E
100
AcDbEntity
  8
7
100
AcDbLine
 10
0.7244094488188973
 20
2.964566929133858
 30
0.0
 11
0.9301181102362203
 21
3.02755905511811
 31
0.0
  0
LINE
  5
2053
330
1E
100
AcDbEntity
  8
7
100
AcDbLine
 10
0.7244094488188973
 20
2.964566929133858
 30
0.0
 11
0.7244094488188973
 21
2.832677165354331
 31
0.0
  0
LINE
  5
2063
330
1E
100
AcDbEntity
  8
7
100
AcDbLine
 10
0.606299212598425
 20
2.949803149606299
 30
0.0
 11
0.606299212598425
 21
2.946850393700787
 31
0.0
  0
LINE
  5
206A
330
1E
100
AcDbEntity
  8
7
100
AcDbLine
 10
0.6053149606299209
 20
2.946850393700787
 30
0.0
 11
0.6259842519685038
 21
2.937007874015748
 31
0.0
  0
LINE
  5
206B
330
1E
100
AcDbEntity
  8
7
100
AcDbLine
 10
0.6279527559055116
 20
2.803149606299212
 30
0.0
 11
0.625
 21
2.934055118110237
 31
0.0
  0
LINE
  5
206C
330
1E
100
AcDbEntity
  8
7
100
AcDbLine
 10
0.2037401574803148
 20
2.805118110236221
 30
0.0
 11
0.625
 21
2.934055118110237
 31
0.0
  0
LINE
  5
206D
330
1E
100
AcDbEntity
  8
7
100
AcDbLine
 10
0.2037401574803148
 20
2.805118110236221
 30
0.0
 11
0.2027559055118107
 21
2.673228346456693
 31
0.0
  0
LINE
  5
2073
330
1E
100
AcDbEntity
  8
7
100
AcDbLine
 10
0.1948818897637792
 20
2.674212598425197
 30
0.0
 11
0.1948818897637792
 21
2.806102362204724
 31
0.0
  0
LINE
  5
2074
330
1E
100
AcDbEntity
  8
7
100
AcDbLine
 10
0.1742125984251968
 20
2.81496062992126
 30
0.0
 11
0.1948818897637792
 21
2.806102362204724
 31
0.0
  0
LINE
  5
2075
330
1E
100
AcDbEntity
  8
7
100
AcDbLine
 10
0.0846456692913385
 20
2.791338582677165
 30
0.0
 11
0.0846456692913385
 21
2.787401574803149
 31
0.0
  0
LINE
  5
207B
330
1E
100
AcDbEntity
  8
7
100
AcDbLine
 10
0.0846456692913385
 20
2.791338582677165
 30
0.0
 11
0.1653543307086611
 21
2.815944881889763
 31
0.0
  0
LINE
  5
207C
330
1E
100
AcDbEntity
  8
7
100
AcDbLine
 10
0.1053149606299208
 20
2.778543307086614
 30
0.0
 11
0.0836614173228343
 21
2.787401574803149
 31
0.0
  0
LINE
  5
207D
330
1E
100
AcDbEntity
  8
7
100
AcDbLine
 10
-0.3179133858267717
 20
2.645669291338583
 30
0.0
 11
0.1043307086614171
 21
2.774606299212599
 31
0.0
  0
LINE
  5
207E
330
1E
100
AcDbEntity
  8
7
100
AcDbLine
 10
-0.3179133858267717
 20
2.645669291338583
 30
0.0
 11
-0.3179133858267717
 21
2.514763779527559
 31
0.0
  0
LINE
  5
207F
330
1E
100
AcDbEntity
  8
7
100
AcDbLine
 10
0.1072834645669287
 20
2.644685039370078
 30
0.0
 11
0.1043307086614171
 21
2.774606299212599
 31
0.0
  0
LINE
  5
2085
330
1E
100
AcDbEntity
  8
7
100
AcDbLine
 10
-0.3257874015748032
 20
2.514763779527559
 30
0.0
 11
-0.3257874015748032
 21
2.646653543307087
 31
0.0
  0
LINE
  5
2086
330
1E
100
AcDbEntity
  8
7
100
AcDbLine
 10
-0.3464566929133861
 20
2.656496062992125
 30
0.0
 11
-0.3257874015748032
 21
2.646653543307087
 31
0.0
  0
LINE
  5
2087
330
1E
100
AcDbEntity
  8
7
100
AcDbLine
 10
-0.4360236220472445
 20
2.631889763779527
 30
0.0
 11
-0.4360236220472445
 21
2.627952755905512
 31
0.0
  0
LINE
  5
208D
330
1E
100
AcDbEntity
  8
7
100
AcDbLine
 10
-0.4360236220472445
 20
2.631889763779527
 30
0.0
 11
-0.3553149606299213
 21
2.656496062992125
 31
0.0
  0
LINE
  5
208E
330
1E
100
AcDbEntity
  8
7
100
AcDbLine
 10
-0.4163385826771658
 20
2.619094488188976
 30
0.0
 11
-0.4370078740157482
 21
2.628937007874015
 31
0.0
  0
LINE
  5
208F
330
1E
100
AcDbEntity
  8
7
100
AcDbLine
 10
-0.4133858267716537
 20
2.485236220472441
 30
0.0
 11
-0.4173228346456695
 21
2.616141732283464
 31
0.0
  0
LINE
  5
2090
330
1E
100
AcDbEntity
  8
7
100
AcDbLine
 10
-0.6230314960629922
 20
2.553149606299212
 30
0.0
 11
-0.4173228346456695
 21
2.616141732283464
 31
0.0
  0
LINE
  5
20B0
330
1E
100
AcDbEntity
  8
7
100
AcDbLine
 10
0.1948818897637792
 20
2.806102362204724
 30
0.0
 11
0.2037401574803148
 21
2.805118110236221
 31
0.0
  0
LINE
  5
20B7
330
1E
100
AcDbEntity
  8
7
100
AcDbLine
 10
0.1653543307086611
 20
2.815944881889763
 30
0.0
 11
0.1742125984251968
 21
2.81496062992126
 31
0.0
  0
LINE
  5
20B8
330
1E
100
AcDbEntity
  8
7
100
AcDbLine
 10
0.1043307086614171
 20
2.774606299212599
 30
0.0
 11
0.1053149606299208
 21
2.778543307086614
 31
0.0
  0
LINE
  5
20B9
330
1E
100
AcDbEntity
  8
7
100
AcDbLine
 10
0.0836614173228343
 20
2.787401574803149
 30
0.0
 11
0.0846456692913385
 21
2.791338582677165
 31
0.0
  0
LINE
  5
20BA
330
1E
100
AcDbEntity
  8
7
100
AcDbLine
 10
-0.3257874015748032
 20
2.646653543307087
 30
0.0
 11
-0.3179133858267717
 21
2.645669291338583
 31
0.0
  0
LINE
  5
20C1
330
1E
100
AcDbEntity
  8
7
100
AcDbLine
 10
-0.3553149606299213
 20
2.656496062992125
 30
0.0
 11
-0.3464566929133861
 21
2.656496062992125
 31
0.0
  0
LINE
  5
20C2
330
1E
100
AcDbEntity
  8
7
100
AcDbLine
 10
-0.4173228346456695
 20
2.616141732283464
 30
0.0
 11
-0.4163385826771658
 21
2.619094488188976
 31
0.0
  0
LINE
  5
20C3
330
1E
100
AcDbEntity
  8
7
100
AcDbLine
 10
-0.4370078740157482
 20
2.628937007874015
 30
0.0
 11
-0.4360236220472445
 21
2.631889763779527
 31
0.0
  0
LINE
  5
20C4
330
1E
100
AcDbEntity
  8
7
100
AcDbLine
 10
0.5826771653543306
 20
2.328740157480315
 30
0.0
 11
0.5816929133858264
 21
2.325787401574803
 31
0.0
  0
LINE
  5
20C5
330
1E
100
AcDbEntity
  8
7
100
AcDbLine
 10
0.5629921259842519
 20
2.341535433070866
 30
0.0
 11
0.5620078740157477
 21
2.338582677165354
 31
0.0
  0
LINE
  5
20C6
330
1E
100
AcDbEntity
  8
7
100
AcDbLine
 10
0.5009842519685038
 20
2.301181102362205
 30
0.0
 11
0.4921259842519686
 21
2.301181102362205
 31
0.0
  0
LINE
  5
20C7
330
1E
100
AcDbEntity
  8
7
100
AcDbLine
 10
0.4714566929133857
 20
2.311023622047244
 30
0.0
 11
0.4635826771653542
 21
2.311023622047244
 31
0.0
  0
LINE
  5
20C8
330
1E
100
AcDbEntity
  8
7
100
AcDbLine
 10
1.359251968503936
 20
2.565944881889763
 30
0.0
 11
1.358267716535432
 21
2.562992125984252
 31
0.0
  0
LINE
  5
20C9
330
1E
100
AcDbEntity
  8
7
100
AcDbLine
 10
1.339566929133857
 20
2.578740157480315
 30
0.0
 11
1.338582677165354
 21
2.575787401574803
 31
0.0
  0
LINE
  5
20CA
330
1E
100
AcDbEntity
  8
7
100
AcDbLine
 10
1.277559055118109
 20
2.538385826771653
 30
0.0
 11
1.268700787401574
 21
2.538385826771653
 31
0.0
  0
LINE
  5
20CB
330
1E
100
AcDbEntity
  8
7
100
AcDbLine
 10
1.248031496062992
 20
2.548228346456693
 30
0.0
 11
1.24015748031496
 21
2.548228346456693
 31
0.0
  0
LINE
  5
20CC
330
1E
100
AcDbEntity
  8
7
100
AcDbLine
 10
0.7155511811023621
 20
2.964566929133858
 30
0.0
 11
0.7244094488188973
 21
2.964566929133858
 31
0.0
  0
LINE
  5
20D3
330
1E
100
AcDbEntity
  8
7
100
AcDbLine
 10
0.6870078740157477
 20
2.974409448818898
 30
0.0
 11
0.6948818897637792
 21
2.974409448818898
 31
0.0
  0
LINE
  5
20D4
330
1E
100
AcDbEntity
  8
7
100
AcDbLine
 10
0.625
 20
2.934055118110237
 30
0.0
 11
0.6259842519685038
 21
2.937007874015748
 31
0.0
  0
LINE
  5
20D5
330
1E
100
AcDbEntity
  8
7
100
AcDbLine
 10
0.6053149606299209
 20
2.946850393700787
 30
0.0
 11
0.606299212598425
 21
2.949803149606299
 31
0.0
  0
LINE
  5
2119
330
1E
100
AcDbEntity
  8
7
100
AcDbLine
 10
1.388779527559055
 20
2.934055118110237
 30
0.0
 11
1.410433070866141
 21
2.941929133858268
 31
0.0
  0
LINE
  5
211A
330
1E
100
AcDbEntity
  8
7
100
AcDbLine
 10
-0.095472440944882
 20
1.771653543307087
 30
0.0
 11
2.45275590551181
 21
2.5501968503937
 31
0.0
  0
LINE
  5
2121
330
1E
100
AcDbEntity
  8
7
100
AcDbLine
 10
-1.403543307086614
 20
2.348425196850394
 30
0.0
 11
-0.1584645669291342
 21
1.774606299212599
 31
0.0
  0
LINE
  5
2169
330
1E
100
AcDbEntity
  8
7
100
AcDbLine
 10
2.45275590551181
 20
2.5501968503937
 30
0.0
 11
2.448818897637794
 21
2.580708661417323
 31
0.0
  0
LINE
  5
2197
330
1E
100
AcDbEntity
  8
3
100
AcDbLine
 10
1.190944881889763
 20
-0.1732283464566926
 30
0.0
 11
0.792322834645669
 21
0.165354330708662
 31
0.0
  0
LINE
  5
2198
330
1E
100
AcDbEntity
  8
3
100
AcDbLine
 10
-0.2145669291338583
 20
0.5472440944881898
 30
0.0
 11
-0.5846456692913389
 21
-0.0078740157480315
 31
0.0
  0
LINE
  5
2199
330
1E
100
AcDbEntity
  8
3
100
AcDbLine
 10
0.7706692913385825
 20
0.1791338582677167
 30
0.0
 11
-0.098425196850394
 21
0.5797244094488195
 31
0.0
  0
LINE
  5
219A
330
1E
100
AcDbEntity
  8
3
100
AcDbLine
 10
-0.5078740157480315
 20
-0.0108267716535426
 30
0.0
 11
-0.5354330708661422
 21
-0.0521653543307084
 31
0.0
  0
LINE
  5
219B
330
1E
100
AcDbEntity
  8
3
100
AcDbLine
 10
0.2883858267716533
 20
-0.3779527559055116
 30
0.0
 11
0.2608267716535431
 21
-0.4192913385826769
 31
0.0
  0
LINE
  5
219C
330
1E
100
AcDbEntity
  8
3
100
AcDbLine
 10
-0.5354330708661422
 20
-0.0521653543307084
 30
0.0
 11
-0.5442913385826773
 21
-0.0541338582677158
 31
0.0
  0
LINE
  5
219D
330
1E
100
AcDbEntity
  8
3
100
AcDbLine
 10
0.2608267716535431
 20
-0.4192913385826769
 30
0.0
 11
0.2519685039370079
 21
-0.4212598425196848
 31
0.0
  0
LINE
  5
219E
330
1E
100
AcDbEntity
  8
3
100
AcDbLine
 10
-0.5442913385826773
 20
-0.0541338582677158
 30
0.0
 11
0.2519685039370079
 21
-0.4212598425196848
 31
0.0
  0
LINE
  5
219F
330
1E
100
AcDbEntity
  8
3
100
AcDbLine
 10
-0.1879921259842523
 20
0.5413385826771658
 30
0.0
 11
-0.5718503937007875
 21
-0.0354330708661417
 31
0.0
  0
LINE
  5
21A0
330
1E
100
AcDbEntity
  8
3
100
AcDbLine
 10
0.6811023622047241
 20
0.1397637795275592
 30
0.0
 11
-0.1879921259842523
 21
0.5413385826771658
 31
0.0
  0
LINE
  5
21A6
330
1E
100
AcDbEntity
  8
3
100
AcDbLine
 10
0.2972440944881889
 20
-0.4360236220472436
 30
0.0
 11
0.6811023622047241
 21
0.1397637795275592
 31
0.0
  0
LINE
  5
21A7
330
1E
100
AcDbEntity
  8
3
100
AcDbLine
 10
-0.7824803149606301
 20
-0.228346456692913
 30
0.0
 11
-0.7824803149606301
 21
-0.0541338582677158
 31
0.0
  0
LINE
  5
21A8
330
1E
100
AcDbEntity
  8
3
100
AcDbLine
 10
-0.7824803149606301
 20
-0.228346456692913
 30
0.0
 11
0.2037401574803148
 21
-0.683070866141732
 31
0.0
  0
LINE
  5
21A9
330
1E
100
AcDbEntity
  8
3
100
AcDbLine
 10
0.2037401574803148
 20
-0.5098425196850389
 30
0.0
 11
-0.0167322834645671
 21
-0.4074803149606297
 31
0.0
  0
LINE
  5
21AA
330
1E
100
AcDbEntity
  8
3
100
AcDbLine
 10
-0.7824803149606301
 20
-0.0541338582677158
 30
0.0
 11
-0.5728346456692917
 21
0.0098425196850398
 31
0.0
  0
LINE
  5
21AB
330
1E
100
AcDbEntity
  8
3
100
AcDbLine
 10
0.2037401574803148
 20
-0.683070866141732
 30
0.0
 11
0.5954724409448815
 21
-0.5639763779527556
 31
0.0
  0
LINE
  5
21AC
330
1E
100
AcDbEntity
  8
3
100
AcDbLine
 10
0.2037401574803148
 20
-0.683070866141732
 30
0.0
 11
0.2037401574803148
 21
-0.5098425196850389
 31
0.0
  0
LINE
  5
21AD
330
1E
100
AcDbEntity
  8
3
100
AcDbLine
 10
0.8474409448818892
 20
-0.4862204724409445
 30
0.0
 11
1.239173228346456
 21
-0.3671259842519681
 31
0.0
  0
LINE
  5
21AE
330
1E
100
AcDbEntity
  8
3
100
AcDbLine
 10
1.239173228346456
 20
-0.3129921259842514
 30
0.0
 11
1.239173228346456
 21
-0.3671259842519681
 31
0.0
  0
LINE
  5
21AF
330
1E
100
AcDbEntity
  8
3
100
AcDbLine
 10
0.1820866141732282
 20
0.021653543307087
 30
0.0
 11
-0.079724409448819
 21
-0.0590551181102361
 31
0.0
  0
LINE
  5
21B0
330
1E
100
AcDbEntity
  8
3
100
AcDbLine
 10
-0.332677165354331
 20
-0.1358267716535426
 30
0.0
 11
-0.3533464566929134
 21
-0.1427165354330704
 31
0.0
  0
LINE
  5
21B1
330
1E
100
AcDbEntity
  8
3
100
AcDbLine
 10
-0.5718503937007875
 20
-0.0354330708661417
 30
0.0
 11
-0.5354330708661422
 21
-0.0521653543307084
 31
0.0
  0
LINE
  5
21B2
330
1E
100
AcDbEntity
  8
3
100
AcDbLine
 10
0.4576771653543306
 20
-0.4320866141732278
 30
0.0
 11
0.2037401574803148
 21
-0.5098425196850389
 31
0.0
  0
LINE
  5
21B3
330
1E
100
AcDbEntity
  8
3
100
AcDbLine
 10
0.2972440944881889
 20
-0.4360236220472436
 30
0.0
 11
0.2608267716535431
 21
-0.4192913385826769
 31
0.0
  0
LINE
  5
21B9
330
1E
100
AcDbEntity
  8
3
100
AcDbLine
 10
0.6171259842519681
 20
-0.7598425196850389
 30
0.0
 11
0.8690944881889762
 21
-0.683070866141732
 31
0.0
  0
LINE
  5
21BA
330
1E
100
AcDbEntity
  8
3
100
AcDbLine
 10
0.6171259842519681
 20
-0.7421259842519681
 30
0.0
 11
0.5954724409448815
 21
-0.7322834645669288
 31
0.0
  0
LINE
  5
21BB
330
1E
100
AcDbEntity
  8
3
100
AcDbLine
 10
0.6171259842519681
 20
-0.7421259842519681
 30
0.0
 11
0.8690944881889762
 21
-0.6653543307086612
 31
0.0
  0
LINE
  5
21BC
330
1E
100
AcDbEntity
  8
3
100
AcDbLine
 10
0.5954724409448815
 20
-0.7322834645669288
 30
0.0
 11
0.8474409448818892
 21
-0.6555118110236218
 31
0.0
  0
LINE
  5
21BD
330
1E
100
AcDbEntity
  8
3
100
AcDbLine
 10
0.5698818897637792
 20
-0.8582677165354324
 30
0.0
 11
0.821850393700787
 21
-0.7814960629921255
 31
0.0
  0
LINE
  5
21BE
330
1E
100
AcDbEntity
  8
3
100
AcDbLine
 10
0.5570866141732283
 20
-0.8523622047244089
 30
0.0
 11
0.5698818897637792
 21
-0.8582677165354324
 31
0.0
  0
LINE
  5
21BF
330
1E
100
AcDbEntity
  8
3
100
AcDbLine
 10
0.5364173228346454
 20
-0.7047244094488186
 30
0.0
 11
0.5364173228346454
 21
-0.5816929133858264
 31
0.0
  0
LINE
  5
21C0
330
1E
100
AcDbEntity
  8
3
100
AcDbLine
 10
0.5954724409448815
 20
-0.5639763779527556
 30
0.0
 11
0.5954724409448815
 21
-0.7322834645669288
 31
0.0
  0
LINE
  5
21C1
330
1E
100
AcDbEntity
  8
3
100
AcDbLine
 10
0.8474409448818892
 20
-0.6555118110236218
 30
0.0
 11
0.8474409448818892
 21
-0.4862204724409445
 31
0.0
  0
LINE
  5
21C2
330
1E
100
AcDbEntity
  8
3
100
AcDbLine
 10
0.8474409448818892
 20
-0.6555118110236218
 30
0.0
 11
0.8690944881889762
 21
-0.6653543307086612
 31
0.0
  0
LINE
  5
21C3
330
1E
100
AcDbEntity
  8
3
100
AcDbLine
 10
0.8690944881889762
 20
-0.683070866141732
 30
0.0
 11
0.8690944881889762
 21
-0.6653543307086612
 31
0.0
  0
LINE
  5
21C4
330
1E
100
AcDbEntity
  8
3
100
AcDbLine
 10
0.8690944881889762
 20
-0.683070866141732
 30
0.0
 11
0.821850393700787
 21
-0.7814960629921255
 31
0.0
  0
LINE
  5
21C5
330
1E
100
AcDbEntity
  8
3
100
AcDbLine
 10
-0.332677165354331
 20
-0.1525590551181102
 30
0.0
 11
-0.332677165354331
 21
-0.1358267716535426
 31
0.0
  0
LINE
  5
21C6
330
1E
100
AcDbEntity
  8
3
100
AcDbLine
 10
-0.079724409448819
 20
-0.2273622047244093
 30
0.0
 11
-0.079724409448819
 21
-0.0590551181102361
 31
0.0
  0
LINE
  5
21C7
330
1E
100
AcDbEntity
  8
3
100
AcDbLine
 10
0.4104330708661417
 20
0.0482283464566935
 30
0.0
 11
0.433070866141732
 21
0.0816929133858269
 31
0.0
  0
LINE
  5
21C8
330
1E
100
AcDbEntity
  8
3
100
AcDbLine
 10
0.2618110236220472
 20
0.1525590551181111
 30
0.0
 11
0.3887795275590551
 21
0.0413385826771657
 31
0.0
  0
LINE
  5
21C9
330
1E
100
AcDbEntity
  8
3
100
AcDbLine
 10
0.3690944881889764
 20
0.0501968503937009
 30
0.0
 11
0.2578740157480315
 21
0.146653543307087
 31
0.0
  0
LINE
  5
21CA
330
1E
100
AcDbEntity
  8
3
100
AcDbLine
 10
0.3690944881889764
 20
0.0501968503937009
 30
0.0
 11
0.3887795275590551
 21
0.0413385826771657
 31
0.0
  0
LINE
  5
21CB
330
1E
100
AcDbEntity
  8
3
100
AcDbLine
 10
0.1870078740157477
 20
0.1515748031496065
 30
0.0
 11
0.1899606299212597
 21
0.1564960629921268
 31
0.0
  0
LINE
  5
21CC
330
1E
100
AcDbEntity
  8
3
100
AcDbLine
 10
-0.1013779527559055
 20
0.3671259842519685
 30
0.0
 11
0.1456692913385824
 21
0.1535433070866148
 31
0.0
  0
LINE
  5
21CD
330
1E
100
AcDbEntity
  8
3
100
AcDbLine
 10
0.1653543307086611
 20
0.1446850393700796
 30
0.0
 11
-0.0777559055118111
 21
0.3562992125984259
 31
0.0
  0
LINE
  5
21CE
330
1E
100
AcDbEntity
  8
3
100
AcDbLine
 10
0.1456692913385824
 20
0.1535433070866148
 30
0.0
 11
0.1653543307086611
 21
0.1446850393700796
 31
0.0
  0
LINE
  5
21D4
330
1E
100
AcDbEntity
  8
3
100
AcDbLine
 10
-0.1998031496062995
 20
0.3366141732283472
 30
0.0
 11
-0.4803149606299213
 21
-0.0836614173228343
 31
0.0
  0
LINE
  5
21D5
330
1E
100
AcDbEntity
  8
3
100
AcDbLine
 10
-0.5088582677165357
 20
-0.0108267716535426
 30
0.0
 11
-0.2470472440944884
 21
0.380905511811024
 31
0.0
  0
LINE
  5
21D6
330
1E
100
AcDbEntity
  8
3
100
AcDbLine
 10
-0.204724409448819
 20
0.3612204724409453
 30
0.0
 11
-0.2470472440944884
 21
0.380905511811024
 31
0.0
  0
LINE
  5
21D7
330
1E
100
AcDbEntity
  8
3
100
AcDbLine
 10
-0.1712598425196852
 20
0.3307086614173231
 30
0.0
 11
-0.204724409448819
 21
0.3612204724409453
 31
0.0
  0
LINE
  5
21D8
330
1E
100
AcDbEntity
  8
3
100
AcDbLine
 10
-0.1692913385826773
 20
0.4153543307086621
 30
0.0
 11
-0.204724409448819
 21
0.3612204724409453
 31
0.0
  0
LINE
  5
21D9
330
1E
100
AcDbEntity
  8
3
100
AcDbLine
 10
-0.1535433070866143
 20
0.3159448818897639
 30
0.0
 11
-0.1151574803149606
 21
0.3740157480314963
 31
0.0
  0
LINE
  5
21DF
330
1E
100
AcDbEntity
  8
3
100
AcDbLine
 10
-0.1692913385826773
 20
0.4153543307086621
 30
0.0
 11
-0.1358267716535435
 21
0.3848425196850398
 31
0.0
  0
LINE
  5
21E5
330
1E
100
AcDbEntity
  8
3
100
AcDbLine
 10
0.1377952755905509
 20
0.1879921259842527
 30
0.0
 11
0.106299212598425
 21
0.2185039370078741
 31
0.0
  0
LINE
  5
21E6
330
1E
100
AcDbEntity
  8
3
100
AcDbLine
 10
0.1564960629921259
 20
0.1722440944881898
 30
0.0
 11
0.1377952755905509
 21
0.1879921259842527
 31
0.0
  0
LINE
  5
21E7
330
1E
100
AcDbEntity
  8
3
100
AcDbLine
 10
0.1564960629921259
 20
0.1722440944881898
 30
0.0
 11
0.247047244094488
 21
0.1309055118110241
 31
0.0
  0
LINE
  5
21E8
330
1E
100
AcDbEntity
  8
3
100
AcDbLine
 10
0.1958661417322833
 20
0.1761811023622055
 30
0.0
 11
0.106299212598425
 21
0.2185039370078741
 31
0.0
  0
LINE
  5
21E9
330
1E
100
AcDbEntity
  8
3
100
AcDbLine
 10
0.247047244094488
 20
0.1309055118110241
 30
0.0
 11
0.2854330708661417
 21
0.1889763779527564
 31
0.0
  0
LINE
  5
21EF
330
1E
100
AcDbEntity
  8
3
100
AcDbLine
 10
0.2322834645669287
 20
0.2303149606299213
 30
0.0
 11
0.1958661417322833
 21
0.1761811023622055
 31
0.0
  0
LINE
  5
21F0
330
1E
100
AcDbEntity
  8
3
100
AcDbLine
 10
0.2322834645669287
 20
0.2303149606299213
 30
0.0
 11
0.542322834645669
 21
0.0866141732283472
 31
0.0
  0
LINE
  5
21F6
330
1E
100
AcDbEntity
  8
3
100
AcDbLine
 10
0.542322834645669
 20
0.0866141732283472
 30
0.0
 11
0.5068897637795274
 21
0.0334645669291343
 31
0.0
  0
LINE
  5
21F7
330
1E
100
AcDbEntity
  8
3
100
AcDbLine
 10
0.5492125984251968
 20
0.0137795275590556
 30
0.0
 11
0.2883858267716533
 21
-0.3779527559055116
 31
0.0
  0
LINE
  5
21F8
330
1E
100
AcDbEntity
  8
3
100
AcDbLine
 10
0.5413385826771653
 20
0.0019685039370083
 30
0.0
 11
0.5383858267716533
 21
0.002952755905512
 31
0.0
  0
LINE
  5
21F9
330
1E
100
AcDbEntity
  8
3
100
AcDbLine
 10
0.2854330708661417
 20
0.1889763779527564
 30
0.0
 11
0.3553149606299208
 21
0.1564960629921268
 31
0.0
  0
LINE
  5
21FA
330
1E
100
AcDbEntity
  8
3
100
AcDbLine
 10
0.321850393700787
 20
0.1889763779527564
 30
0.0
 11
0.531496062992126
 21
-0.0137795275590547
 31
0.0
  0
LINE
  5
21FB
330
1E
100
AcDbEntity
  8
3
100
AcDbLine
 10
0.5236220472440945
 20
0.0580708661417324
 30
0.0
 11
0.4527559055118107
 21
0.1289370078740157
 31
0.0
  0
LINE
  5
21FC
330
1E
100
AcDbEntity
  8
3
100
AcDbLine
 10
0.4212598425196848
 20
-0.015748031496063
 30
0.0
 11
0.451771653543307
 21
-0.0452755905511806
 31
0.0
  0
LINE
  5
21FD
330
1E
100
AcDbEntity
  8
3
100
AcDbLine
 10
0.4202755905511811
 20
-0.0925196850393695
 30
0.0
 11
0.3061023622047241
 21
-0.0403543307086611
 31
0.0
  0
LINE
  5
21FE
330
1E
100
AcDbEntity
  8
3
100
AcDbLine
 10
0.1535433070866139
 20
0.040354330708662
 30
0.0
 11
0.1791338582677162
 21
0.0226377952755907
 31
0.0
  0
LINE
  5
21FF
330
1E
100
AcDbEntity
  8
3
100
AcDbLine
 10
0.2726377952755903
 20
-0.0147637795275584
 30
0.0
 11
0.3129921259842519
 21
-0.0433070866141732
 31
0.0
  0
LINE
  5
2200
330
1E
100
AcDbEntity
  8
3
100
AcDbLine
 10
0.3090551181102361
 20
0.0177165354330713
 30
0.0
 11
0.3208661417322833
 21
0.0354330708661426
 31
0.0
  0
LINE
  5
2201
330
1E
100
AcDbEntity
  8
3
100
AcDbLine
 10
0.1899606299212597
 20
0.0728346456692917
 30
0.0
 11
0.2017716535433069
 21
0.0895669291338584
 31
0.0
  0
LINE
  5
2202
330
1E
100
AcDbEntity
  8
3
100
AcDbLine
 10
0.1535433070866139
 20
0.040354330708662
 30
0.0
 11
0.1584645669291338
 21
0.0482283464566935
 31
0.0
  0
LINE
  5
2203
330
1E
100
AcDbEntity
  8
3
100
AcDbLine
 10
0.1899606299212597
 20
0.0728346456692917
 30
0.0
 11
0.3090551181102361
 21
0.0177165354330713
 31
0.0
  0
LINE
  5
2204
330
1E
100
AcDbEntity
  8
3
100
AcDbLine
 10
0.2972440944881889
 20
-0.0324803149606297
 30
0.0
 11
0.1791338582677162
 21
0.0226377952755907
 31
0.0
  0
LINE
  5
2205
330
1E
100
AcDbEntity
  8
3
100
AcDbLine
 10
0.2726377952755903
 20
-0.0147637795275584
 30
0.0
 11
0.1535433070866139
 21
0.040354330708662
 31
0.0
  0
LINE
  5
2206
330
1E
100
AcDbEntity
  8
3
100
AcDbLine
 10
0.1584645669291338
 20
0.0482283464566935
 30
0.0
 11
0.2775590551181102
 21
-0.0068897637795269
 31
0.0
  0
LINE
  5
2207
330
1E
100
AcDbEntity
  8
3
100
AcDbLine
 10
0.1614173228346454
 20
0.0501968503937009
 30
0.0
 11
0.2805118110236218
 21
-0.0039370078740157
 31
0.0
  0
LINE
  5
2208
330
1E
100
AcDbEntity
  8
3
100
AcDbLine
 10
0.2726377952755903
 20
-0.0147637795275584
 30
0.0
 11
0.2775590551181102
 21
-0.0068897637795269
 31
0.0
  0
LINE
  5
2209
330
1E
100
AcDbEntity
  8
3
100
AcDbLine
 10
0.4005905511811024
 20
0.040354330708662
 30
0.0
 11
0.4163385826771653
 21
-0.0068897637795269
 31
0.0
  0
LINE
  5
220A
330
1E
100
AcDbEntity
  8
3
100
AcDbLine
 10
0.4370078740157477
 20
-0.08759842519685
 30
0.0
 11
0.451771653543307
 21
-0.0639763779527556
 31
0.0
  0
LINE
  5
220B
330
1E
100
AcDbEntity
  8
3
100
AcDbLine
 10
0.0836614173228343
 20
0.2834645669291342
 30
0.0
 11
0.1318897637795273
 21
0.2578740157480315
 31
0.0
  0
LINE
  5
2211
330
1E
100
AcDbEntity
  8
3
100
AcDbLine
 10
0.2017716535433069
 20
0.0895669291338584
 30
0.0
 11
0.3208661417322833
 21
0.0354330708661426
 31
0.0
  0
LINE
  5
2212
330
1E
100
AcDbEntity
  8
3
100
AcDbLine
 10
0.2017716535433069
 20
0.1023622047244101
 30
0.0
 11
-0.0452755905511815
 21
0.3415354330708666
 31
0.0
  0
LINE
  5
2213
330
1E
100
AcDbEntity
  8
3
100
AcDbLine
 10
0.0836614173228343
 20
0.2834645669291342
 30
0.0
 11
0.0511811023622046
 21
0.3139763779527565
 31
0.0
  0
LINE
  5
2214
330
1E
100
AcDbEntity
  8
3
100
AcDbLine
 10
-0.4557086614173232
 20
-0.0482283464566926
 30
0.0
 11
-0.5078740157480315
 21
-0.0108267716535426
 31
0.0
  0
LINE
  5
2215
330
1E
100
AcDbEntity
  8
3
100
AcDbLine
 10
-0.5088582677165357
 20
-0.0108267716535426
 30
0.0
 11
-0.4744094488188977
 21
-0.0344488188976371
 31
0.0
  0
LINE
  5
2216
330
1E
100
AcDbEntity
  8
3
100
AcDbLine
 10
-0.4714566929133861
 20
-0.0354330708661417
 30
0.0
 11
-0.4744094488188977
 21
-0.0344488188976371
 31
0.0
  0
LINE
  5
2217
330
1E
100
AcDbEntity
  8
3
100
AcDbLine
 10
-0.4557086614173232
 20
-0.0482283464566926
 30
0.0
 11
-0.4714566929133861
 21
-0.0354330708661417
 31
0.0
  0
LINE
  5
2218
330
1E
100
AcDbEntity
  8
3
100
AcDbLine
 10
-0.5088582677165357
 20
-0.0108267716535426
 30
0.0
 11
-0.5078740157480315
 21
-0.0108267716535426
 31
0.0
  0
LINE
  5
2219
330
1E
100
AcDbEntity
  8
3
100
AcDbLine
 10
-0.079724409448819
 20
-0.2273622047244093
 30
0.0
 11
-0.0866141732283468
 21
-0.265748031496063
 31
0.0
  0
LINE
  5
221A
330
1E
100
AcDbEntity
  8
3
100
AcDbLine
 10
0.5364173228346454
 20
-0.7047244094488186
 30
0.0
 11
0.5570866141732283
 21
-0.8523622047244089
 31
0.0
  0
LINE
  5
221B
330
1E
100
AcDbEntity
  8
3
100
AcDbLine
 10
-0.454724409448819
 20
-0.1761811023622046
 30
0.0
 11
-0.4911417322834648
 21
-0.1368110236220472
 31
0.0
  0
LINE
  5
221C
330
1E
100
AcDbEntity
  8
3
100
AcDbLine
 10
-0.3543307086614176
 20
-0.2007874015748028
 30
0.0
 11
-0.4911417322834648
 21
-0.1368110236220472
 31
0.0
  0
LINE
  5
221D
330
1E
100
AcDbEntity
  8
3
100
AcDbLine
 10
-0.5610236220472445
 20
-0.1712598425196843
 30
0.0
 11
-0.4183070866141736
 21
-0.2372047244094482
 31
0.0
  0
LINE
  5
221E
330
1E
100
AcDbEntity
  8
3
100
AcDbLine
 10
-0.7824803149606301
 20
-0.0541338582677158
 30
0.0
 11
-0.5620078740157482
 21
-0.1564960629921259
 31
0.0
  0
LINE
  5
2229
330
1E
100
AcDbEntity
  8
3
100
AcDbLine
 10
-0.0905511811023625
 20
-0.321850393700787
 30
0.0
 11
0.0472440944881889
 21
-0.3858267716535431
 31
0.0
  0
LINE
  5
222A
330
1E
100
AcDbEntity
  8
3
100
AcDbLine
 10
-0.0905511811023625
 20
-0.321850393700787
 30
0.0
 11
-0.0541338582677167
 21
-0.3612204724409445
 31
0.0
  0
LINE
  5
2236
330
1E
100
AcDbEntity
  8
3
100
AcDbLine
 10
-0.454724409448819
 20
-0.1761811023622046
 30
0.0
 11
-0.3809055118110236
 21
-0.209645669291338
 31
0.0
  0
LINE
  5
2237
330
1E
100
AcDbEntity
  8
3
100
AcDbLine
 10
0.0196850393700787
 20
-0.3946850393700783
 30
0.0
 11
-0.0541338582677167
 21
-0.3612204724409445
 31
0.0
  0
LINE
  5
2238
330
1E
100
AcDbEntity
  8
3
100
AcDbLine
 10
0.3248031496062991
 20
0.140748031496063
 30
0.0
 11
0.3690944881889764
 21
0.1545275590551185
 31
0.0
  0
LINE
  5
2239
330
1E
100
AcDbEntity
  8
3
100
AcDbLine
 10
0.5344488188976376
 20
0.0738188976377954
 30
0.0
 11
0.4872047244094487
 21
0.0954724409448824
 31
0.0
  0
LINE
  5
223A
330
1E
100
AcDbEntity
  8
3
100
AcDbLine
 10
0.2322834645669287
 20
0.2303149606299213
 30
0.0
 11
0.2854330708661417
 21
0.1889763779527564
 31
0.0
  0
LINE
  5
223B
330
1E
100
AcDbEntity
  8
3
100
AcDbLine
 10
-0.1614173228346458
 20
-0.3415354330708658
 30
0.0
 11
-0.4183070866141736
 21
-0.2224409448818889
 31
0.0
  0
LINE
  5
223C
330
1E
100
AcDbEntity
  8
3
100
AcDbLine
 10
-0.5147637795275593
 20
-0.1919291338582676
 30
0.0
 11
-0.454724409448819
 21
-0.1761811023622046
 31
0.0
  0
LINE
  5
223D
330
1E
100
AcDbEntity
  8
3
100
AcDbLine
 10
-0.1141732283464569
 20
-0.3769685039370074
 30
0.0
 11
-0.0541338582677167
 21
-0.3612204724409445
 31
0.0
  0
LINE
  5
223E
330
1E
100
AcDbEntity
  8
3
100
AcDbLine
 10
-0.723425196850394
 20
-0.209645669291338
 30
0.0
 11
-0.5098425196850394
 21
-0.308070866141732
 31
0.0
  0
LINE
  5
223F
330
1E
100
AcDbEntity
  8
3
100
AcDbLine
 10
-0.7244094488188977
 20
-0.1446850393700787
 30
0.0
 11
-0.723425196850394
 21
-0.209645669291338
 31
0.0
  0
LINE
  5
2240
330
1E
100
AcDbEntity
  8
3
100
AcDbLine
 10
-0.7244094488188977
 20
-0.1446850393700787
 30
0.0
 11
-0.5088582677165357
 21
-0.2440944881889759
 31
0.0
  0
LINE
  5
2241
330
1E
100
AcDbEntity
  8
3
100
AcDbLine
 10
-0.5098425196850394
 20
-0.308070866141732
 30
0.0
 11
-0.5088582677165357
 21
-0.2440944881889759
 31
0.0
  0
LINE
  5
2242
330
1E
100
AcDbEntity
  8
3
100
AcDbLine
 10
-0.6840551181102366
 20
-0.1820866141732278
 30
0.0
 11
-0.5088582677165357
 21
-0.2627952755905509
 31
0.0
  0
LINE
  5
2243
330
1E
100
AcDbEntity
  8
3
100
AcDbLine
 10
-0.470472440944882
 20
-0.3257874015748028
 30
0.0
 11
-0.3090551181102366
 21
-0.4005905511811019
 31
0.0
  0
LINE
  5
2244
330
1E
100
AcDbEntity
  8
3
100
AcDbLine
 10
-0.470472440944882
 20
-0.3257874015748028
 30
0.0
 11
-0.4714566929133861
 21
-0.2618110236220472
 31
0.0
  0
LINE
  5
2245
330
1E
100
AcDbEntity
  8
3
100
AcDbLine
 10
-0.3080708661417324
 20
-0.3366141732283459
 30
0.0
 11
-0.4714566929133861
 21
-0.2618110236220472
 31
0.0
  0
LINE
  5
2246
330
1E
100
AcDbEntity
  8
3
100
AcDbLine
 10
-0.3090551181102366
 20
-0.4005905511811019
 30
0.0
 11
-0.3080708661417324
 21
-0.3366141732283459
 31
0.0
  0
LINE
  5
2247
330
1E
100
AcDbEntity
  8
3
100
AcDbLine
 10
-0.4311023622047246
 20
-0.2982283464566926
 30
0.0
 11
-0.3090551181102366
 21
-0.3553149606299208
 31
0.0
  0
LINE
  5
224D
330
1E
100
AcDbEntity
  8
3
100
AcDbLine
 10
-0.1082677165354333
 20
-0.4931102362204723
 30
0.0
 11
-0.2696850393700791
 21
-0.4183070866141727
 31
0.0
  0
LINE
  5
224E
330
1E
100
AcDbEntity
  8
3
100
AcDbLine
 10
-0.1082677165354333
 20
-0.4931102362204723
 30
0.0
 11
-0.1082677165354333
 21
-0.4291338582677163
 31
0.0
  0
LINE
  5
224F
330
1E
100
AcDbEntity
  8
3
100
AcDbLine
 10
-0.1082677165354333
 20
-0.4478346456692908
 30
0.0
 11
-0.2303149606299213
 21
-0.3907480314960625
 31
0.0
  0
LINE
  5
2255
330
1E
100
AcDbEntity
  8
3
100
AcDbLine
 10
0.1446850393700787
 20
-0.5452755905511806
 30
0.0
 11
-0.0698818897637796
 21
-0.4468503937007871
 31
0.0
  0
LINE
  5
2256
330
1E
100
AcDbEntity
  8
3
100
AcDbLine
 10
0.1446850393700787
 20
-0.5452755905511806
 30
0.0
 11
0.1446850393700787
 21
-0.6092519685039366
 31
0.0
  0
LINE
  5
2257
330
1E
100
AcDbEntity
  8
3
100
AcDbLine
 10
0.1446850393700787
 20
-0.5639763779527556
 30
0.0
 11
-0.0305118110236222
 21
-0.4832677165354325
 31
0.0
  0
LINE
  5
2258
330
1E
100
AcDbEntity
  8
3
100
AcDbLine
 10
-0.6840551181102366
 20
-0.1820866141732278
 30
0.0
 11
-0.7244094488188977
 21
-0.1446850393700787
 31
0.0
  0
LINE
  5
2259
330
1E
100
AcDbEntity
  8
3
100
AcDbLine
 10
-0.4714566929133861
 20
-0.2618110236220472
 30
0.0
 11
-0.4311023622047246
 21
-0.2982283464566926
 31
0.0
  0
LINE
  5
225A
330
1E
100
AcDbEntity
  8
3
100
AcDbLine
 10
-0.4360236220472445
 20
-0.3159448818897634
 30
0.0
 11
-0.470472440944882
 21
-0.3257874015748028
 31
0.0
  0
LINE
  5
225B
330
1E
100
AcDbEntity
  8
3
100
AcDbLine
 10
-0.723425196850394
 20
-0.209645669291338
 30
0.0
 11
-0.6889763779527561
 21
-0.1988188976377945
 31
0.0
  0
LINE
  5
225C
330
1E
100
AcDbEntity
  8
3
100
AcDbLine
 10
-0.2362204724409449
 20
-0.4084645669291334
 30
0.0
 11
-0.2696850393700791
 21
-0.4183070866141727
 31
0.0
  0
LINE
  5
225D
330
1E
100
AcDbEntity
  8
3
100
AcDbLine
 10
-0.2706692913385829
 20
-0.3543307086614167
 30
0.0
 11
-0.2303149606299213
 21
-0.3907480314960625
 31
0.0
  0
LINE
  5
225E
330
1E
100
AcDbEntity
  8
3
100
AcDbLine
 10
-0.0354330708661421
 20
-0.5009842519685038
 30
0.0
 11
-0.0698818897637796
 21
-0.5108267716535431
 31
0.0
  0
LINE
  5
225F
330
1E
100
AcDbEntity
  8
3
100
AcDbLine
 10
-0.0698818897637796
 20
-0.4468503937007871
 30
0.0
 11
-0.0305118110236222
 21
-0.4832677165354325
 31
0.0
  0
LINE
  5
2260
330
1E
100
AcDbEntity
  8
3
100
AcDbLine
 10
1.190944881889763
 20
-0.1732283464566926
 30
0.0
 11
0.792322834645669
 21
0.165354330708662
 31
0.0
  0
LINE
  5
2261
330
1E
100
AcDbEntity
  8
3
100
AcDbLine
 10
-0.2145669291338583
 20
0.5472440944881898
 30
0.0
 11
-0.5846456692913389
 21
-0.0078740157480315
 31
0.0
  0
LINE
  5
2262
330
1E
100
AcDbEntity
  8
3
100
AcDbLine
 10
0.7706692913385825
 20
0.1791338582677167
 30
0.0
 11
-0.098425196850394
 21
0.5797244094488195
 31
0.0
  0
LINE
  5
2263
330
1E
100
AcDbEntity
  8
3
100
AcDbLine
 10
-0.5078740157480315
 20
-0.0108267716535426
 30
0.0
 11
-0.5354330708661422
 21
-0.0521653543307084
 31
0.0
  0
LINE
  5
2264
330
1E
100
AcDbEntity
  8
3
100
AcDbLine
 10
0.2883858267716533
 20
-0.3779527559055116
 30
0.0
 11
0.2608267716535431
 21
-0.4192913385826769
 31
0.0
  0
LINE
  5
2265
330
1E
100
AcDbEntity
  8
3
100
AcDbLine
 10
-0.5354330708661422
 20
-0.0521653543307084
 30
0.0
 11
-0.5442913385826773
 21
-0.0541338582677158
 31
0.0
  0
LINE
  5
2266
330
1E
100
AcDbEntity
  8
3
100
AcDbLine
 10
0.2608267716535431
 20
-0.4192913385826769
 30
0.0
 11
0.2519685039370079
 21
-0.4212598425196848
 31
0.0
  0
LINE
  5
2267
330
1E
100
AcDbEntity
  8
3
100
AcDbLine
 10
-0.5442913385826773
 20
-0.0541338582677158
 30
0.0
 11
0.2519685039370079
 21
-0.4212598425196848
 31
0.0
  0
LINE
  5
2268
330
1E
100
AcDbEntity
  8
3
100
AcDbLine
 10
-0.1879921259842523
 20
0.5413385826771658
 30
0.0
 11
-0.5718503937007875
 21
-0.0354330708661417
 31
0.0
  0
LINE
  5
2269
330
1E
100
AcDbEntity
  8
3
100
AcDbLine
 10
0.6811023622047241
 20
0.1397637795275592
 30
0.0
 11
-0.1879921259842523
 21
0.5413385826771658
 31
0.0
  0
LINE
  5
226A
330
1E
100
AcDbEntity
  8
3
100
AcDbLine
 10
1.239173228346456
 20
-0.3129921259842514
 30
0.0
 11
0.7903543307086612
 21
0.0679133858267722
 31
0.0
  0
LINE
  5
226B
330
1E
100
AcDbEntity
  8
3
100
AcDbLine
 10
0.7903543307086612
 20
0.0679133858267722
 30
0.0
 11
0.4576771653543306
 21
-0.4320866141732278
 31
0.0
  0
LINE
  5
226C
330
1E
100
AcDbEntity
  8
3
100
AcDbLine
 10
0.2972440944881889
 20
-0.4360236220472436
 30
0.0
 11
0.6811023622047241
 21
0.1397637795275592
 31
0.0
  0
LINE
  5
226D
330
1E
100
AcDbEntity
  8
3
100
AcDbLine
 10
-0.7824803149606301
 20
-0.228346456692913
 30
0.0
 11
-0.7824803149606301
 21
-0.0541338582677158
 31
0.0
  0
LINE
  5
226E
330
1E
100
AcDbEntity
  8
3
100
AcDbLine
 10
-0.7824803149606301
 20
-0.228346456692913
 30
0.0
 11
0.2037401574803148
 21
-0.683070866141732
 31
0.0
  0
LINE
  5
226F
330
1E
100
AcDbEntity
  8
3
100
AcDbLine
 10
0.2037401574803148
 20
-0.5098425196850389
 30
0.0
 11
-0.0167322834645671
 21
-0.4074803149606297
 31
0.0
  0
LINE
  5
2270
330
1E
100
AcDbEntity
  8
3
100
AcDbLine
 10
-0.7824803149606301
 20
-0.0541338582677158
 30
0.0
 11
-0.5728346456692917
 21
0.0098425196850398
 31
0.0
  0
LINE
  5
2271
330
1E
100
AcDbEntity
  8
3
100
AcDbLine
 10
0.2037401574803148
 20
-0.683070866141732
 30
0.0
 11
0.5954724409448815
 21
-0.5639763779527556
 31
0.0
  0
LINE
  5
2272
330
1E
100
AcDbEntity
  8
3
100
AcDbLine
 10
0.2037401574803148
 20
-0.683070866141732
 30
0.0
 11
0.2037401574803148
 21
-0.5098425196850389
 31
0.0
  0
LINE
  5
2273
330
1E
100
AcDbEntity
  8
3
100
AcDbLine
 10
0.8474409448818892
 20
-0.4862204724409445
 30
0.0
 11
1.239173228346456
 21
-0.3671259842519681
 31
0.0
  0
LINE
  5
2274
330
1E
100
AcDbEntity
  8
3
100
AcDbLine
 10
1.239173228346456
 20
-0.3129921259842514
 30
0.0
 11
1.239173228346456
 21
-0.3671259842519681
 31
0.0
  0
LINE
  5
2275
330
1E
100
AcDbEntity
  8
3
100
AcDbLine
 10
0.1820866141732282
 20
0.021653543307087
 30
0.0
 11
-0.079724409448819
 21
-0.0590551181102361
 31
0.0
  0
LINE
  5
2276
330
1E
100
AcDbEntity
  8
3
100
AcDbLine
 10
-0.332677165354331
 20
-0.1358267716535426
 30
0.0
 11
-0.3533464566929134
 21
-0.1427165354330704
 31
0.0
  0
LINE
  5
2277
330
1E
100
AcDbEntity
  8
3
100
AcDbLine
 10
-0.5718503937007875
 20
-0.0354330708661417
 30
0.0
 11
-0.5354330708661422
 21
-0.0521653543307084
 31
0.0
  0
LINE
  5
2278
330
1E
100
AcDbEntity
  8
3
100
AcDbLine
 10
0.4576771653543306
 20
-0.4320866141732278
 30
0.0
 11
0.2037401574803148
 21
-0.5098425196850389
 31
0.0
  0
LINE
  5
2279
330
1E
100
AcDbEntity
  8
3
100
AcDbLine
 10
0.2972440944881889
 20
-0.4360236220472436
 30
0.0
 11
0.2608267716535431
 21
-0.4192913385826769
 31
0.0
  0
LINE
  5
227F
330
1E
100
AcDbEntity
  8
3
100
AcDbLine
 10
0.6171259842519681
 20
-0.7598425196850389
 30
0.0
 11
0.8690944881889762
 21
-0.683070866141732
 31
0.0
  0
LINE
  5
2280
330
1E
100
AcDbEntity
  8
3
100
AcDbLine
 10
0.6171259842519681
 20
-0.7421259842519681
 30
0.0
 11
0.5954724409448815
 21
-0.7322834645669288
 31
0.0
  0
LINE
  5
2281
330
1E
100
AcDbEntity
  8
3
100
AcDbLine
 10
0.6171259842519681
 20
-0.7421259842519681
 30
0.0
 11
0.8690944881889762
 21
-0.6653543307086612
 31
0.0
  0
LINE
  5
2282
330
1E
100
AcDbEntity
  8
3
100
AcDbLine
 10
0.5954724409448815
 20
-0.7322834645669288
 30
0.0
 11
0.8474409448818892
 21
-0.6555118110236218
 31
0.0
  0
LINE
  5
2283
330
1E
100
AcDbEntity
  8
3
100
AcDbLine
 10
0.5698818897637792
 20
-0.8582677165354324
 30
0.0
 11
0.821850393700787
 21
-0.7814960629921255
 31
0.0
  0
LINE
  5
2284
330
1E
100
AcDbEntity
  8
3
100
AcDbLine
 10
0.5570866141732283
 20
-0.8523622047244089
 30
0.0
 11
0.5698818897637792
 21
-0.8582677165354324
 31
0.0
  0
LINE
  5
2285
330
1E
100
AcDbEntity
  8
3
100
AcDbLine
 10
0.5364173228346454
 20
-0.7047244094488186
 30
0.0
 11
0.5364173228346454
 21
-0.5816929133858264
 31
0.0
  0
LINE
  5
2286
330
1E
100
AcDbEntity
  8
3
100
AcDbLine
 10
0.5954724409448815
 20
-0.5639763779527556
 30
0.0
 11
0.5954724409448815
 21
-0.7322834645669288
 31
0.0
  0
LINE
  5
2287
330
1E
100
AcDbEntity
  8
3
100
AcDbLine
 10
0.8474409448818892
 20
-0.6555118110236218
 30
0.0
 11
0.8474409448818892
 21
-0.4862204724409445
 31
0.0
  0
LINE
  5
2288
330
1E
100
AcDbEntity
  8
3
100
AcDbLine
 10
0.8474409448818892
 20
-0.6555118110236218
 30
0.0
 11
0.8690944881889762
 21
-0.6653543307086612
 31
0.0
  0
LINE
  5
2289
330
1E
100
AcDbEntity
  8
3
100
AcDbLine
 10
0.8690944881889762
 20
-0.683070866141732
 30
0.0
 11
0.8690944881889762
 21
-0.6653543307086612
 31
0.0
  0
LINE
  5
228A
330
1E
100
AcDbEntity
  8
3
100
AcDbLine
 10
0.8690944881889762
 20
-0.683070866141732
 30
0.0
 11
0.821850393700787
 21
-0.7814960629921255
 31
0.0
  0
LINE
  5
228B
330
1E
100
AcDbEntity
  8
3
100
AcDbLine
 10
-0.332677165354331
 20
-0.1525590551181102
 30
0.0
 11
-0.332677165354331
 21
-0.1358267716535426
 31
0.0
  0
LINE
  5
228C
330
1E
100
AcDbEntity
  8
3
100
AcDbLine
 10
-0.079724409448819
 20
-0.2273622047244093
 30
0.0
 11
-0.079724409448819
 21
-0.0590551181102361
 31
0.0
  0
LINE
  5
228D
330
1E
100
AcDbEntity
  8
3
100
AcDbLine
 10
0.4104330708661417
 20
0.0482283464566935
 30
0.0
 11
0.433070866141732
 21
0.0816929133858269
 31
0.0
  0
LINE
  5
228E
330
1E
100
AcDbEntity
  8
3
100
AcDbLine
 10
0.2618110236220472
 20
0.1525590551181111
 30
0.0
 11
0.3887795275590551
 21
0.0413385826771657
 31
0.0
  0
LINE
  5
228F
330
1E
100
AcDbEntity
  8
3
100
AcDbLine
 10
0.3690944881889764
 20
0.0501968503937009
 30
0.0
 11
0.2578740157480315
 21
0.146653543307087
 31
0.0
  0
LINE
  5
2290
330
1E
100
AcDbEntity
  8
3
100
AcDbLine
 10
0.3690944881889764
 20
0.0501968503937009
 30
0.0
 11
0.3887795275590551
 21
0.0413385826771657
 31
0.0
  0
LINE
  5
2291
330
1E
100
AcDbEntity
  8
3
100
AcDbLine
 10
0.1870078740157477
 20
0.1515748031496065
 30
0.0
 11
0.1899606299212597
 21
0.1564960629921268
 31
0.0
  0
LINE
  5
2292
330
1E
100
AcDbEntity
  8
3
100
AcDbLine
 10
-0.1013779527559055
 20
0.3671259842519685
 30
0.0
 11
0.1456692913385824
 21
0.1535433070866148
 31
0.0
  0
LINE
  5
2293
330
1E
100
AcDbEntity
  8
3
100
AcDbLine
 10
0.1653543307086611
 20
0.1446850393700796
 30
0.0
 11
-0.0777559055118111
 21
0.3562992125984259
 31
0.0
  0
LINE
  5
2294
330
1E
100
AcDbEntity
  8
3
100
AcDbLine
 10
0.1456692913385824
 20
0.1535433070866148
 30
0.0
 11
0.1653543307086611
 21
0.1446850393700796
 31
0.0
  0
LINE
  5
229A
330
1E
100
AcDbEntity
  8
3
100
AcDbLine
 10
-0.1998031496062995
 20
0.3366141732283472
 30
0.0
 11
-0.4803149606299213
 21
-0.0836614173228343
 31
0.0
  0
LINE
  5
229B
330
1E
100
AcDbEntity
  8
3
100
AcDbLine
 10
-0.5088582677165357
 20
-0.0108267716535426
 30
0.0
 11
-0.2470472440944884
 21
0.380905511811024
 31
0.0
  0
LINE
  5
229C
330
1E
100
AcDbEntity
  8
3
100
AcDbLine
 10
-0.204724409448819
 20
0.3612204724409453
 30
0.0
 11
-0.2470472440944884
 21
0.380905511811024
 31
0.0
  0
LINE
  5
229D
330
1E
100
AcDbEntity
  8
3
100
AcDbLine
 10
-0.1712598425196852
 20
0.3307086614173231
 30
0.0
 11
-0.204724409448819
 21
0.3612204724409453
 31
0.0
  0
LINE
  5
229E
330
1E
100
AcDbEntity
  8
3
100
AcDbLine
 10
-0.1692913385826773
 20
0.4153543307086621
 30
0.0
 11
-0.204724409448819
 21
0.3612204724409453
 31
0.0
  0
LINE
  5
229F
330
1E
100
AcDbEntity
  8
3
100
AcDbLine
 10
-0.1535433070866143
 20
0.3159448818897639
 30
0.0
 11
-0.1151574803149606
 21
0.3740157480314963
 31
0.0
  0
LINE
  5
22A5
330
1E
100
AcDbEntity
  8
3
100
AcDbLine
 10
-0.1692913385826773
 20
0.4153543307086621
 30
0.0
 11
-0.1358267716535435
 21
0.3848425196850398
 31
0.0
  0
LINE
  5
22AB
330
1E
100
AcDbEntity
  8
3
100
AcDbLine
 10
0.1377952755905509
 20
0.1879921259842527
 30
0.0
 11
0.106299212598425
 21
0.2185039370078741
 31
0.0
  0
LINE
  5
22AC
330
1E
100
AcDbEntity
  8
3
100
AcDbLine
 10
0.1564960629921259
 20
0.1722440944881898
 30
0.0
 11
0.1377952755905509
 21
0.1879921259842527
 31
0.0
  0
LINE
  5
22AD
330
1E
100
AcDbEntity
  8
3
100
AcDbLine
 10
0.1564960629921259
 20
0.1722440944881898
 30
0.0
 11
0.247047244094488
 21
0.1309055118110241
 31
0.0
  0
LINE
  5
22AE
330
1E
100
AcDbEntity
  8
3
100
AcDbLine
 10
0.1958661417322833
 20
0.1761811023622055
 30
0.0
 11
0.106299212598425
 21
0.2185039370078741
 31
0.0
  0
LINE
  5
22AF
330
1E
100
AcDbEntity
  8
3
100
AcDbLine
 10
0.247047244094488
 20
0.1309055118110241
 30
0.0
 11
0.2854330708661417
 21
0.1889763779527564
 31
0.0
  0
LINE
  5
22B5
330
1E
100
AcDbEntity
  8
3
100
AcDbLine
 10
0.2322834645669287
 20
0.2303149606299213
 30
0.0
 11
0.1958661417322833
 21
0.1761811023622055
 31
0.0
  0
LINE
  5
22B6
330
1E
100
AcDbEntity
  8
3
100
AcDbLine
 10
0.2322834645669287
 20
0.2303149606299213
 30
0.0
 11
0.542322834645669
 21
0.0866141732283472
 31
0.0
  0
LINE
  5
22BC
330
1E
100
AcDbEntity
  8
3
100
AcDbLine
 10
0.542322834645669
 20
0.0866141732283472
 30
0.0
 11
0.5068897637795274
 21
0.0334645669291343
 31
0.0
  0
LINE
  5
22BD
330
1E
100
AcDbEntity
  8
3
100
AcDbLine
 10
0.5492125984251968
 20
0.0137795275590556
 30
0.0
 11
0.2883858267716533
 21
-0.3779527559055116
 31
0.0
  0
LINE
  5
22BE
330
1E
100
AcDbEntity
  8
3
100
AcDbLine
 10
0.5413385826771653
 20
0.0019685039370083
 30
0.0
 11
0.5383858267716533
 21
0.002952755905512
 31
0.0
  0
LINE
  5
22BF
330
1E
100
AcDbEntity
  8
3
100
AcDbLine
 10
0.2854330708661417
 20
0.1889763779527564
 30
0.0
 11
0.3553149606299208
 21
0.1564960629921268
 31
0.0
  0
LINE
  5
22C0
330
1E
100
AcDbEntity
  8
3
100
AcDbLine
 10
0.321850393700787
 20
0.1889763779527564
 30
0.0
 11
0.531496062992126
 21
-0.0137795275590547
 31
0.0
  0
LINE
  5
22C1
330
1E
100
AcDbEntity
  8
3
100
AcDbLine
 10
0.5236220472440945
 20
0.0580708661417324
 30
0.0
 11
0.4527559055118107
 21
0.1289370078740157
 31
0.0
  0
LINE
  5
22C2
330
1E
100
AcDbEntity
  8
3
100
AcDbLine
 10
0.4212598425196848
 20
-0.015748031496063
 30
0.0
 11
0.451771653543307
 21
-0.0452755905511806
 31
0.0
  0
LINE
  5
22C3
330
1E
100
AcDbEntity
  8
3
100
AcDbLine
 10
0.4202755905511811
 20
-0.0925196850393695
 30
0.0
 11
0.3061023622047241
 21
-0.0403543307086611
 31
0.0
  0
LINE
  5
22C4
330
1E
100
AcDbEntity
  8
3
100
AcDbLine
 10
0.1535433070866139
 20
0.040354330708662
 30
0.0
 11
0.1791338582677162
 21
0.0226377952755907
 31
0.0
  0
LINE
  5
22C5
330
1E
100
AcDbEntity
  8
3
100
AcDbLine
 10
0.2726377952755903
 20
-0.0147637795275584
 30
0.0
 11
0.3129921259842519
 21
-0.0433070866141732
 31
0.0
  0
LINE
  5
22C6
330
1E
100
AcDbEntity
  8
3
100
AcDbLine
 10
0.3090551181102361
 20
0.0177165354330713
 30
0.0
 11
0.3208661417322833
 21
0.0354330708661426
 31
0.0
  0
LINE
  5
22C7
330
1E
100
AcDbEntity
  8
3
100
AcDbLine
 10
0.1899606299212597
 20
0.0728346456692917
 30
0.0
 11
0.2017716535433069
 21
0.0895669291338584
 31
0.0
  0
LINE
  5
22C8
330
1E
100
AcDbEntity
  8
3
100
AcDbLine
 10
0.1535433070866139
 20
0.040354330708662
 30
0.0
 11
0.1584645669291338
 21
0.0482283464566935
 31
0.0
  0
LINE
  5
22C9
330
1E
100
AcDbEntity
  8
3
100
AcDbLine
 10
0.1899606299212597
 20
0.0728346456692917
 30
0.0
 11
0.3090551181102361
 21
0.0177165354330713
 31
0.0
  0
LINE
  5
22CA
330
1E
100
AcDbEntity
  8
3
100
AcDbLine
 10
0.2972440944881889
 20
-0.0324803149606297
 30
0.0
 11
0.1791338582677162
 21
0.0226377952755907
 31
0.0
  0
LINE
  5
22CB
330
1E
100
AcDbEntity
  8
3
100
AcDbLine
 10
0.2726377952755903
 20
-0.0147637795275584
 30
0.0
 11
0.1535433070866139
 21
0.040354330708662
 31
0.0
  0
LINE
  5
22CC
330
1E
100
AcDbEntity
  8
3
100
AcDbLine
 10
0.1584645669291338
 20
0.0482283464566935
 30
0.0
 11
0.2775590551181102
 21
-0.0068897637795269
 31
0.0
  0
LINE
  5
22CD
330
1E
100
AcDbEntity
  8
3
100
AcDbLine
 10
0.1614173228346454
 20
0.0501968503937009
 30
0.0
 11
0.2805118110236218
 21
-0.0039370078740157
 31
0.0
  0
LINE
  5
22CE
330
1E
100
AcDbEntity
  8
3
100
AcDbLine
 10
0.2726377952755903
 20
-0.0147637795275584
 30
0.0
 11
0.2775590551181102
 21
-0.0068897637795269
 31
0.0
  0
LINE
  5
22CF
330
1E
100
AcDbEntity
  8
3
100
AcDbLine
 10
0.4005905511811024
 20
0.040354330708662
 30
0.0
 11
0.4163385826771653
 21
-0.0068897637795269
 31
0.0
  0
LINE
  5
22D0
330
1E
100
AcDbEntity
  8
3
100
AcDbLine
 10
0.4370078740157477
 20
-0.08759842519685
 30
0.0
 11
0.451771653543307
 21
-0.0639763779527556
 31
0.0
  0
LINE
  5
22D1
330
1E
100
AcDbEntity
  8
3
100
AcDbLine
 10
0.0836614173228343
 20
0.2834645669291342
 30
0.0
 11
0.1318897637795273
 21
0.2578740157480315
 31
0.0
  0
LINE
  5
22D7
330
1E
100
AcDbEntity
  8
3
100
AcDbLine
 10
0.2017716535433069
 20
0.0895669291338584
 30
0.0
 11
0.3208661417322833
 21
0.0354330708661426
 31
0.0
  0
LINE
  5
22D8
330
1E
100
AcDbEntity
  8
3
100
AcDbLine
 10
0.2017716535433069
 20
0.1023622047244101
 30
0.0
 11
-0.0452755905511815
 21
0.3415354330708666
 31
0.0
  0
LINE
  5
22D9
330
1E
100
AcDbEntity
  8
3
100
AcDbLine
 10
0.0836614173228343
 20
0.2834645669291342
 30
0.0
 11
0.0511811023622046
 21
0.3139763779527565
 31
0.0
  0
LINE
  5
22DA
330
1E
100
AcDbEntity
  8
3
100
AcDbLine
 10
-0.4557086614173232
 20
-0.0482283464566926
 30
0.0
 11
-0.5078740157480315
 21
-0.0108267716535426
 31
0.0
  0
LINE
  5
22DB
330
1E
100
AcDbEntity
  8
3
100
AcDbLine
 10
-0.5088582677165357
 20
-0.0108267716535426
 30
0.0
 11
-0.4744094488188977
 21
-0.0344488188976371
 31
0.0
  0
LINE
  5
22DC
330
1E
100
AcDbEntity
  8
3
100
AcDbLine
 10
-0.4714566929133861
 20
-0.0354330708661417
 30
0.0
 11
-0.4744094488188977
 21
-0.0344488188976371
 31
0.0
  0
LINE
  5
22DD
330
1E
100
AcDbEntity
  8
3
100
AcDbLine
 10
-0.4557086614173232
 20
-0.0482283464566926
 30
0.0
 11
-0.4714566929133861
 21
-0.0354330708661417
 31
0.0
  0
LINE
  5
22DE
330
1E
100
AcDbEntity
  8
3
100
AcDbLine
 10
-0.5088582677165357
 20
-0.0108267716535426
 30
0.0
 11
-0.5078740157480315
 21
-0.0108267716535426
 31
0.0
  0
LINE
  5
22DF
330
1E
100
AcDbEntity
  8
3
100
AcDbLine
 10
-0.079724409448819
 20
-0.2273622047244093
 30
0.0
 11
-0.0866141732283468
 21
-0.265748031496063
 31
0.0
  0
LINE
  5
22E0
330
1E
100
AcDbEntity
  8
3
100
AcDbLine
 10
0.5364173228346454
 20
-0.7047244094488186
 30
0.0
 11
0.5570866141732283
 21
-0.8523622047244089
 31
0.0
  0
LINE
  5
22E1
330
1E
100
AcDbEntity
  8
3
100
AcDbLine
 10
-0.454724409448819
 20
-0.1761811023622046
 30
0.0
 11
-0.4911417322834648
 21
-0.1368110236220472
 31
0.0
  0
LINE
  5
22E2
330
1E
100
AcDbEntity
  8
3
100
AcDbLine
 10
-0.3543307086614176
 20
-0.2007874015748028
 30
0.0
 11
-0.4911417322834648
 21
-0.1368110236220472
 31
0.0
  0
LINE
  5
22E3
330
1E
100
AcDbEntity
  8
3
100
AcDbLine
 10
-0.5610236220472445
 20
-0.1712598425196843
 30
0.0
 11
-0.4183070866141736
 21
-0.2372047244094482
 31
0.0
  0
LINE
  5
22E4
330
1E
100
AcDbEntity
  8
3
100
AcDbLine
 10
-0.7824803149606301
 20
-0.0541338582677158
 30
0.0
 11
-0.5620078740157482
 21
-0.1564960629921259
 31
0.0
  0
LINE
  5
22EF
330
1E
100
AcDbEntity
  8
3
100
AcDbLine
 10
-0.0905511811023625
 20
-0.321850393700787
 30
0.0
 11
0.0472440944881889
 21
-0.3858267716535431
 31
0.0
  0
LINE
  5
22F0
330
1E
100
AcDbEntity
  8
3
100
AcDbLine
 10
-0.0905511811023625
 20
-0.321850393700787
 30
0.0
 11
-0.0541338582677167
 21
-0.3612204724409445
 31
0.0
  0
LINE
  5
22FC
330
1E
100
AcDbEntity
  8
3
100
AcDbLine
 10
-0.454724409448819
 20
-0.1761811023622046
 30
0.0
 11
-0.3809055118110236
 21
-0.209645669291338
 31
0.0
  0
LINE
  5
22FD
330
1E
100
AcDbEntity
  8
3
100
AcDbLine
 10
0.0196850393700787
 20
-0.3946850393700783
 30
0.0
 11
-0.0541338582677167
 21
-0.3612204724409445
 31
0.0
  0
LINE
  5
22FE
330
1E
100
AcDbEntity
  8
3
100
AcDbLine
 10
0.5344488188976376
 20
0.0738188976377954
 30
0.0
 11
0.4872047244094487
 21
0.0954724409448824
 31
0.0
  0
LINE
  5
22FF
330
1E
100
AcDbEntity
  8
3
100
AcDbLine
 10
0.2322834645669287
 20
0.2303149606299213
 30
0.0
 11
0.2854330708661417
 21
0.1889763779527564
 31
0.0
  0
LINE
  5
2300
330
1E
100
AcDbEntity
  8
3
100
AcDbLine
 10
-0.1614173228346458
 20
-0.3415354330708658
 30
0.0
 11
-0.4183070866141736
 21
-0.2224409448818889
 31
0.0
  0
LINE
  5
2301
330
1E
100
AcDbEntity
  8
3
100
AcDbLine
 10
-0.5147637795275593
 20
-0.1919291338582676
 30
0.0
 11
-0.454724409448819
 21
-0.1761811023622046
 31
0.0
  0
LINE
  5
2302
330
1E
100
AcDbEntity
  8
3
100
AcDbLine
 10
-0.1141732283464569
 20
-0.3769685039370074
 30
0.0
 11
-0.0541338582677167
 21
-0.3612204724409445
 31
0.0
  0
LINE
  5
2303
330
1E
100
AcDbEntity
  8
3
100
AcDbLine
 10
-0.723425196850394
 20
-0.209645669291338
 30
0.0
 11
-0.5098425196850394
 21
-0.308070866141732
 31
0.0
  0
LINE
  5
2304
330
1E
100
AcDbEntity
  8
3
100
AcDbLine
 10
-0.7244094488188977
 20
-0.1446850393700787
 30
0.0
 11
-0.723425196850394
 21
-0.209645669291338
 31
0.0
  0
LINE
  5
2305
330
1E
100
AcDbEntity
  8
3
100
AcDbLine
 10
-0.7244094488188977
 20
-0.1446850393700787
 30
0.0
 11
-0.5088582677165357
 21
-0.2440944881889759
 31
0.0
  0
LINE
  5
2306
330
1E
100
AcDbEntity
  8
3
100
AcDbLine
 10
-0.5098425196850394
 20
-0.308070866141732
 30
0.0
 11
-0.5088582677165357
 21
-0.2440944881889759
 31
0.0
  0
LINE
  5
2307
330
1E
100
AcDbEntity
  8
3
100
AcDbLine
 10
-0.6840551181102366
 20
-0.1820866141732278
 30
0.0
 11
-0.5088582677165357
 21
-0.2627952755905509
 31
0.0
  0
LINE
  5
2308
330
1E
100
AcDbEntity
  8
3
100
AcDbLine
 10
-0.470472440944882
 20
-0.3257874015748028
 30
0.0
 11
-0.3090551181102366
 21
-0.4005905511811019
 31
0.0
  0
LINE
  5
2309
330
1E
100
AcDbEntity
  8
3
100
AcDbLine
 10
-0.470472440944882
 20
-0.3257874015748028
 30
0.0
 11
-0.4714566929133861
 21
-0.2618110236220472
 31
0.0
  0
LINE
  5
230A
330
1E
100
AcDbEntity
  8
3
100
AcDbLine
 10
-0.3080708661417324
 20
-0.3366141732283459
 30
0.0
 11
-0.4714566929133861
 21
-0.2618110236220472
 31
0.0
  0
LINE
  5
230B
330
1E
100
AcDbEntity
  8
3
100
AcDbLine
 10
-0.3090551181102366
 20
-0.4005905511811019
 30
0.0
 11
-0.3080708661417324
 21
-0.3366141732283459
 31
0.0
  0
LINE
  5
230C
330
1E
100
AcDbEntity
  8
3
100
AcDbLine
 10
-0.4311023622047246
 20
-0.2982283464566926
 30
0.0
 11
-0.3090551181102366
 21
-0.3553149606299208
 31
0.0
  0
LINE
  5
2312
330
1E
100
AcDbEntity
  8
3
100
AcDbLine
 10
-0.1082677165354333
 20
-0.4931102362204723
 30
0.0
 11
-0.2696850393700791
 21
-0.4183070866141727
 31
0.0
  0
LINE
  5
2313
330
1E
100
AcDbEntity
  8
3
100
AcDbLine
 10
-0.1082677165354333
 20
-0.4931102362204723
 30
0.0
 11
-0.1082677165354333
 21
-0.4291338582677163
 31
0.0
  0
LINE
  5
2314
330
1E
100
AcDbEntity
  8
3
100
AcDbLine
 10
-0.1082677165354333
 20
-0.4478346456692908
 30
0.0
 11
-0.2303149606299213
 21
-0.3907480314960625
 31
0.0
  0
LINE
  5
231A
330
1E
100
AcDbEntity
  8
3
100
AcDbLine
 10
0.1446850393700787
 20
-0.5452755905511806
 30
0.0
 11
-0.0698818897637796
 21
-0.4468503937007871
 31
0.0
  0
LINE
  5
231B
330
1E
100
AcDbEntity
  8
3
100
AcDbLine
 10
0.1446850393700787
 20
-0.5452755905511806
 30
0.0
 11
0.1446850393700787
 21
-0.6092519685039366
 31
0.0
  0
LINE
  5
231C
330
1E
100
AcDbEntity
  8
3
100
AcDbLine
 10
0.1446850393700787
 20
-0.5639763779527556
 30
0.0
 11
-0.0305118110236222
 21
-0.4832677165354325
 31
0.0
  0
LINE
  5
231D
330
1E
100
AcDbEntity
  8
3
100
AcDbLine
 10
-0.6840551181102366
 20
-0.1820866141732278
 30
0.0
 11
-0.7244094488188977
 21
-0.1446850393700787
 31
0.0
  0
LINE
  5
231E
330
1E
100
AcDbEntity
  8
3
100
AcDbLine
 10
-0.4714566929133861
 20
-0.2618110236220472
 30
0.0
 11
-0.4311023622047246
 21
-0.2982283464566926
 31
0.0
  0
LINE
  5
231F
330
1E
100
AcDbEntity
  8
3
100
AcDbLine
 10
-0.4360236220472445
 20
-0.3159448818897634
 30
0.0
 11
-0.470472440944882
 21
-0.3257874015748028
 31
0.0
  0
LINE
  5
2320
330
1E
100
AcDbEntity
  8
3
100
AcDbLine
 10
-0.723425196850394
 20
-0.209645669291338
 30
0.0
 11
-0.6889763779527561
 21
-0.1988188976377945
 31
0.0
  0
LINE
  5
2321
330
1E
100
AcDbEntity
  8
3
100
AcDbLine
 10
-0.2362204724409449
 20
-0.4084645669291334
 30
0.0
 11
-0.2696850393700791
 21
-0.4183070866141727
 31
0.0
  0
LINE
  5
2322
330
1E
100
AcDbEntity
  8
3
100
AcDbLine
 10
-0.2706692913385829
 20
-0.3543307086614167
 30
0.0
 11
-0.2303149606299213
 21
-0.3907480314960625
 31
0.0
  0
LINE
  5
2323
330
1E
100
AcDbEntity
  8
3
100
AcDbLine
 10
-0.0354330708661421
 20
-0.5009842519685038
 30
0.0
 11
-0.0698818897637796
 21
-0.5108267716535431
 31
0.0
  0
LINE
  5
2324
330
1E
100
AcDbEntity
  8
3
100
AcDbLine
 10
-0.0698818897637796
 20
-0.4468503937007871
 30
0.0
 11
-0.0305118110236222
 21
-0.4832677165354325
 31
0.0
  0
LINE
  5
2325
330
1E
100
AcDbEntity
  8
3
100
AcDbLine
 10
0.3248031496062991
 20
0.140748031496063
 30
0.0
 11
0.3690944881889764
 21
0.1545275590551185
 31
0.0
  0
LINE
  5
2326
330
1E
100
AcDbEntity
  8
3
100
AcDbLine
 10
0.3356299212598421
 20
0.0807086614173232
 30
0.0
 11
0.1289370078740157
 21
0.1761811023622055
 31
0.0
  0
LINE
  5
237D
330
1E
100
AcDbEntity
  8
3
100
AcDbLine
 10
0.2972440944881889
 20
-0.4360236220472436
 30
0.0
 11
0.3159448818897634
 21
-0.4419291338582672
 31
0.0
  0
LINE
  5
239A
330
1E
100
AcDbEntity
  8
3
100
AcDbLine
 10
0.4163385826771653
 20
-0.0068897637795269
 30
0.0
 11
0.4212598425196848
 21
-0.015748031496063
 31
0.0
  0
LINE
  5
239B
330
1E
100
AcDbEntity
  8
3
100
AcDbLine
 10
0.1614173228346454
 20
0.0501968503937009
 30
0.0
 11
0.1584645669291338
 21
0.0482283464566935
 31
0.0
  0
LINE
  5
239C
330
1E
100
AcDbEntity
  8
3
100
AcDbLine
 10
0.2805118110236218
 20
-0.0039370078740157
 30
0.0
 11
0.2775590551181102
 21
-0.0068897637795269
 31
0.0
  0
LINE
  5
2401
330
1E
100
AcDbEntity
  8
3
100
AcDbLine
 10
0.4163385826771653
 20
-0.0068897637795269
 30
0.0
 11
0.4212598425196848
 21
-0.015748031496063
 31
0.0
  0
LINE
  5
2402
330
1E
100
AcDbEntity
  8
3
100
AcDbLine
 10
0.1614173228346454
 20
0.0501968503937009
 30
0.0
 11
0.1584645669291338
 21
0.0482283464566935
 31
0.0
  0
LINE
  5
2403
330
1E
100
AcDbEntity
  8
3
100
AcDbLine
 10
0.2805118110236218
 20
-0.0039370078740157
 30
0.0
 11
0.2775590551181102
 21
-0.0068897637795269
 31
0.0
  0
LINE
  5
2423
330
1E
100
AcDbEntity
  8
3
100
AcDbLine
 10
-0.4311023622047246
 20
-0.3120078740157477
 30
0.0
 11
-0.4360236220472445
 21
-0.3159448818897634
 31
0.0
  0
LINE
  5
243F
330
1E
100
AcDbEntity
  8
3
100
AcDbLine
 10
0.2992125984251968
 20
0.125
 30
0.0
 11
0.2982283464566926
 21
0.1141732283464574
 31
0.0
  0
LINE
  5
2440
330
1E
100
AcDbEntity
  8
3
100
AcDbLine
 10
0.2982283464566926
 20
0.1141732283464574
 30
0.0
 11
0.3041338582677162
 21
0.1023622047244101
 31
0.0
  0
LINE
  5
2441
330
1E
100
AcDbEntity
  8
3
100
AcDbLine
 10
0.3041338582677162
 20
0.1023622047244101
 30
0.0
 11
0.3169291338582676
 21
0.0915354330708667
 31
0.0
  0
LINE
  5
2442
330
1E
100
AcDbEntity
  8
3
100
AcDbLine
 10
0.3169291338582676
 20
0.0915354330708667
 30
0.0
 11
0.3356299212598421
 21
0.0807086614173232
 31
0.0
  0
LINE
  5
2443
330
1E
100
AcDbEntity
  8
3
100
AcDbLine
 10
0.3248031496062991
 20
0.140748031496063
 30
0.0
 11
0.3090551181102361
 21
0.1338582677165361
 31
0.0
  0
LINE
  5
2444
330
1E
100
AcDbEntity
  8
3
100
AcDbLine
 10
0.3090551181102361
 20
0.1338582677165361
 30
0.0
 11
0.2992125984251968
 21
0.125
 31
0.0
  0
LINE
  5
2445
330
1E
100
AcDbEntity
  8
3
100
AcDbLine
 10
-0.0305118110236222
 20
-0.4832677165354325
 30
0.0
 11
-0.0275590551181106
 21
-0.4891732283464565
 31
0.0
  0
LINE
  5
2446
330
1E
100
AcDbEntity
  8
3
100
AcDbLine
 10
-0.0275590551181106
 20
-0.4891732283464565
 30
0.0
 11
-0.0305118110236222
 21
-0.4960629921259839
 31
0.0
  0
LINE
  5
2447
330
1E
100
AcDbEntity
  8
3
100
AcDbLine
 10
-0.0305118110236222
 20
-0.4960629921259839
 30
0.0
 11
-0.0354330708661421
 21
-0.5009842519685038
 31
0.0
  0
LINE
  5
2448
330
1E
100
AcDbEntity
  8
3
100
AcDbLine
 10
-0.6840551181102366
 20
-0.1820866141732278
 30
0.0
 11
-0.6820866141732287
 21
-0.1879921259842518
 31
0.0
  0
LINE
  5
2449
330
1E
100
AcDbEntity
  8
3
100
AcDbLine
 10
-0.6820866141732287
 20
-0.1879921259842518
 30
0.0
 11
-0.6840551181102366
 21
-0.1948818897637787
 31
0.0
  0
LINE
  5
244A
330
1E
100
AcDbEntity
  8
3
100
AcDbLine
 10
-0.6840551181102366
 20
-0.1948818897637787
 30
0.0
 11
-0.6889763779527561
 21
-0.1988188976377945
 31
0.0
  0
LINE
  5
244B
330
1E
100
AcDbEntity
  8
3
100
AcDbLine
 10
-0.4311023622047246
 20
-0.2982283464566926
 30
0.0
 11
-0.4291338582677167
 21
-0.3041338582677162
 31
0.0
  0
LINE
  5
244C
330
1E
100
AcDbEntity
  8
3
100
AcDbLine
 10
-0.4291338582677167
 20
-0.3041338582677162
 30
0.0
 11
-0.4311023622047246
 21
-0.3120078740157477
 31
0.0
  0
LINE
  5
244D
330
1E
100
AcDbEntity
  8
3
100
AcDbLine
 10
-0.2303149606299213
 20
-0.3907480314960625
 30
0.0
 11
-0.2283464566929134
 21
-0.3966535433070861
 31
0.0
  0
LINE
  5
244E
330
1E
100
AcDbEntity
  8
3
100
AcDbLine
 10
-0.2283464566929134
 20
-0.3966535433070861
 30
0.0
 11
-0.2303149606299213
 21
-0.4045275590551177
 31
0.0
  0
LINE
  5
244F
330
1E
100
AcDbEntity
  8
3
100
AcDbLine
 10
-0.2303149606299213
 20
-0.4045275590551177
 30
0.0
 11
-0.2362204724409449
 21
-0.4084645669291334
 31
0.0
  0
LINE
  5
2450
330
1E
100
AcDbEntity
  8
3
100
AcDbLine
 10
0.2017716535433069
 20
0.0895669291338584
 30
0.0
 11
0.2037401574803148
 21
0.0964566929133861
 31
0.0
  0
LINE
  5
2451
330
1E
100
AcDbEntity
  8
3
100
AcDbLine
 10
0.2037401574803148
 20
0.0964566929133861
 30
0.0
 11
0.2017716535433069
 21
0.1023622047244101
 31
0.0
  0
LINE
  5
2452
330
1E
100
AcDbEntity
  8
3
100
AcDbLine
 10
0.3208661417322833
 20
0.0354330708661426
 30
0.0
 11
0.3228346456692912
 21
0.0423228346456695
 31
0.0
  0
LINE
  5
2453
330
1E
100
AcDbEntity
  8
3
100
AcDbLine
 10
0.3228346456692912
 20
0.0423228346456695
 30
0.0
 11
0.3208661417322833
 21
0.0482283464566935
 31
0.0
  0
LINE
  5
2454
330
1E
100
AcDbEntity
  8
3
100
AcDbLine
 10
0.1614173228346454
 20
0.0501968503937009
 30
0.0
 11
0.1771653543307083
 21
0.0580708661417324
 31
0.0
  0
LINE
  5
2455
330
1E
100
AcDbEntity
  8
3
100
AcDbLine
 10
0.1771653543307083
 20
0.0580708661417324
 30
0.0
 11
0.1899606299212597
 21
0.0728346456692917
 31
0.0
  0
LINE
  5
2456
330
1E
100
AcDbEntity
  8
3
100
AcDbLine
 10
0.4202755905511811
 20
-0.0925196850393695
 30
0.0
 11
0.4281496062992125
 21
-0.0935039370078732
 31
0.0
  0
LINE
  5
2457
330
1E
100
AcDbEntity
  8
3
100
AcDbLine
 10
0.4281496062992125
 20
-0.0935039370078732
 30
0.0
 11
0.4370078740157477
 21
-0.08759842519685
 31
0.0
  0
LINE
  5
2458
330
1E
100
AcDbEntity
  8
3
100
AcDbLine
 10
0.451771653543307
 20
-0.0639763779527556
 30
0.0
 11
0.4557086614173227
 21
-0.0531496062992121
 31
0.0
  0
LINE
  5
2459
330
1E
100
AcDbEntity
  8
3
100
AcDbLine
 10
0.4557086614173227
 20
-0.0531496062992121
 30
0.0
 11
0.451771653543307
 21
-0.0452755905511806
 31
0.0
  0
LINE
  5
245A
330
1E
100
AcDbEntity
  8
3
100
AcDbLine
 10
0.2805118110236218
 20
-0.0039370078740157
 30
0.0
 11
0.2962598425196847
 21
0.0039370078740157
 31
0.0
  0
LINE
  5
245B
330
1E
100
AcDbEntity
  8
3
100
AcDbLine
 10
0.2962598425196847
 20
0.0039370078740157
 30
0.0
 11
0.3090551181102361
 21
0.0177165354330713
 31
0.0
  0
LINE
  5
245C
330
1E
100
AcDbEntity
  8
3
100
AcDbLine
 10
0.1653543307086611
 20
0.1446850393700796
 30
0.0
 11
0.1761811023622046
 21
0.1427165354330713
 31
0.0
  0
LINE
  5
245D
330
1E
100
AcDbEntity
  8
3
100
AcDbLine
 10
0.1761811023622046
 20
0.1427165354330713
 30
0.0
 11
0.1870078740157477
 21
0.1515748031496065
 31
0.0
  0
LINE
  5
245E
330
1E
100
AcDbEntity
  8
3
100
AcDbLine
 10
0.3887795275590551
 20
0.0413385826771657
 30
0.0
 11
0.3996062992125981
 21
0.0393700787401583
 31
0.0
  0
LINE
  5
245F
330
1E
100
AcDbEntity
  8
3
100
AcDbLine
 10
0.3996062992125981
 20
0.0393700787401583
 30
0.0
 11
0.4104330708661417
 21
0.0482283464566935
 31
0.0
  0
LINE
  5
2460
330
1E
100
AcDbEntity
  8
3
100
AcDbLine
 10
0.2972440944881889
 20
-0.4360236220472436
 30
0.0
 11
0.3159448818897634
 21
-0.4419291338582672
 31
0.0
  0
LINE
  5
2461
330
1E
100
AcDbEntity
  8
3
100
AcDbLine
 10
0.3159448818897634
 20
-0.4419291338582672
 30
0.0
 11
0.3395669291338579
 21
-0.4448818897637792
 31
0.0
  0
LINE
  5
2462
330
1E
100
AcDbEntity
  8
3
100
AcDbLine
 10
0.3395669291338579
 20
-0.4448818897637792
 30
0.0
 11
0.3681102362204722
 21
-0.4458661417322829
 31
0.0
  0
LINE
  5
2463
330
1E
100
AcDbEntity
  8
3
100
AcDbLine
 10
0.3681102362204722
 20
-0.4458661417322829
 30
0.0
 11
0.3986220472440944
 21
-0.4438976377952751
 31
0.0
  0
LINE
  5
2464
330
1E
100
AcDbEntity
  8
3
100
AcDbLine
 10
0.3986220472440944
 20
-0.4438976377952751
 30
0.0
 11
0.4291338582677163
 21
-0.4389763779527556
 31
0.0
  0
LINE
  5
2465
330
1E
100
AcDbEntity
  8
3
100
AcDbLine
 10
0.4291338582677163
 20
-0.4389763779527556
 30
0.0
 11
0.4576771653543306
 21
-0.4320866141732278
 31
0.0
  0
LINE
  5
2466
330
1E
100
AcDbEntity
  8
3
100
AcDbLine
 10
1.239173228346456
 20
-0.3129921259842514
 30
0.0
 11
1.237204724409448
 21
-0.2805118110236218
 31
0.0
  0
LINE
  5
2467
330
1E
100
AcDbEntity
  8
3
100
AcDbLine
 10
1.237204724409448
 20
-0.2805118110236218
 30
0.0
 11
1.231299212598424
 21
-0.2490157480314954
 31
0.0
  0
LINE
  5
2468
330
1E
100
AcDbEntity
  8
3
100
AcDbLine
 10
1.231299212598424
 20
-0.2490157480314954
 30
0.0
 11
1.221456692913385
 21
-0.2204724409448815
 31
0.0
  0
LINE
  5
2469
330
1E
100
AcDbEntity
  8
3
100
AcDbLine
 10
1.221456692913385
 20
-0.2204724409448815
 30
0.0
 11
1.209645669291338
 21
-0.1958661417322833
 31
0.0
  0
LINE
  5
246A
330
1E
100
AcDbEntity
  8
3
100
AcDbLine
 10
1.209645669291338
 20
-0.1958661417322833
 30
0.0
 11
1.195866141732282
 21
-0.1771653543307083
 31
0.0
  0
LINE
  5
246B
330
1E
100
AcDbEntity
  8
3
100
AcDbLine
 10
1.195866141732282
 20
-0.1771653543307083
 30
0.0
 11
1.180118110236219
 21
-0.1663385826771648
 31
0.0
  0
LINE
  5
246C
330
1E
100
AcDbEntity
  8
3
100
AcDbLine
 10
-0.5846456692913389
 20
-0.0078740157480315
 30
0.0
 11
-0.5875984251968505
 21
-0.0177165354330704
 31
0.0
  0
LINE
  5
246D
330
1E
100
AcDbEntity
  8
3
100
AcDbLine
 10
-0.5875984251968505
 20
-0.0177165354330704
 30
0.0
 11
-0.5836614173228348
 21
-0.0275590551181102
 31
0.0
  0
LINE
  5
246E
330
1E
100
AcDbEntity
  8
3
100
AcDbLine
 10
-0.5836614173228348
 20
-0.0275590551181102
 30
0.0
 11
-0.5718503937007875
 21
-0.0354330708661417
 31
0.0
  0
LINE
  5
246F
330
1E
100
AcDbEntity
  8
3
100
AcDbLine
 10
-0.0305118110236222
 20
-0.4832677165354325
 30
0.0
 11
-0.0275590551181106
 21
-0.4891732283464565
 31
0.0
  0
LINE
  5
2470
330
1E
100
AcDbEntity
  8
3
100
AcDbLine
 10
-0.0275590551181106
 20
-0.4891732283464565
 30
0.0
 11
-0.0305118110236222
 21
-0.4960629921259839
 31
0.0
  0
LINE
  5
2471
330
1E
100
AcDbEntity
  8
3
100
AcDbLine
 10
-0.0305118110236222
 20
-0.4960629921259839
 30
0.0
 11
-0.0354330708661421
 21
-0.5009842519685038
 31
0.0
  0
LINE
  5
2472
330
1E
100
AcDbEntity
  8
3
100
AcDbLine
 10
-0.6840551181102366
 20
-0.1820866141732278
 30
0.0
 11
-0.6820866141732287
 21
-0.1879921259842518
 31
0.0
  0
LINE
  5
2473
330
1E
100
AcDbEntity
  8
3
100
AcDbLine
 10
-0.6820866141732287
 20
-0.1879921259842518
 30
0.0
 11
-0.6840551181102366
 21
-0.1948818897637787
 31
0.0
  0
LINE
  5
2474
330
1E
100
AcDbEntity
  8
3
100
AcDbLine
 10
-0.6840551181102366
 20
-0.1948818897637787
 30
0.0
 11
-0.6889763779527561
 21
-0.1988188976377945
 31
0.0
  0
LINE
  5
2475
330
1E
100
AcDbEntity
  8
3
100
AcDbLine
 10
-0.4311023622047246
 20
-0.2982283464566926
 30
0.0
 11
-0.4291338582677167
 21
-0.3041338582677162
 31
0.0
  0
LINE
  5
2476
330
1E
100
AcDbEntity
  8
3
100
AcDbLine
 10
-0.4291338582677167
 20
-0.3041338582677162
 30
0.0
 11
-0.4311023622047246
 21
-0.3120078740157477
 31
0.0
  0
LINE
  5
2477
330
1E
100
AcDbEntity
  8
3
100
AcDbLine
 10
-0.4311023622047246
 20
-0.3120078740157477
 30
0.0
 11
-0.4360236220472445
 21
-0.3159448818897634
 31
0.0
  0
LINE
  5
2478
330
1E
100
AcDbEntity
  8
3
100
AcDbLine
 10
-0.2303149606299213
 20
-0.3907480314960625
 30
0.0
 11
-0.2283464566929134
 21
-0.3966535433070861
 31
0.0
  0
LINE
  5
2479
330
1E
100
AcDbEntity
  8
3
100
AcDbLine
 10
-0.2283464566929134
 20
-0.3966535433070861
 30
0.0
 11
-0.2303149606299213
 21
-0.4045275590551177
 31
0.0
  0
LINE
  5
247A
330
1E
100
AcDbEntity
  8
3
100
AcDbLine
 10
-0.2303149606299213
 20
-0.4045275590551177
 30
0.0
 11
-0.2362204724409449
 21
-0.4084645669291334
 31
0.0
  0
LINE
  5
247B
330
1E
100
AcDbEntity
  8
3
100
AcDbLine
 10
0.2982283464566926
 20
0.1141732283464574
 30
0.0
 11
0.3041338582677162
 21
0.1023622047244101
 31
0.0
  0
LINE
  5
247C
330
1E
100
AcDbEntity
  8
3
100
AcDbLine
 10
0.3041338582677162
 20
0.1023622047244101
 30
0.0
 11
0.3169291338582676
 21
0.0915354330708667
 31
0.0
  0
LINE
  5
247D
330
1E
100
AcDbEntity
  8
3
100
AcDbLine
 10
0.3169291338582676
 20
0.0915354330708667
 30
0.0
 11
0.3356299212598421
 21
0.0807086614173232
 31
0.0
  0
LINE
  5
247E
330
1E
100
AcDbEntity
  8
3
100
AcDbLine
 10
0.3248031496062991
 20
0.140748031496063
 30
0.0
 11
0.3090551181102361
 21
0.1338582677165361
 31
0.0
  0
LINE
  5
247F
330
1E
100
AcDbEntity
  8
3
100
AcDbLine
 10
0.3090551181102361
 20
0.1338582677165361
 30
0.0
 11
0.2992125984251968
 21
0.125
 31
0.0
  0
LINE
  5
2480
330
1E
100
AcDbEntity
  8
3
100
AcDbLine
 10
0.2992125984251968
 20
0.125
 30
0.0
 11
0.2982283464566926
 21
0.1141732283464574
 31
0.0
  0
LINE
  5
2481
330
1E
100
AcDbEntity
  8
3
100
AcDbLine
 10
0.2017716535433069
 20
0.0895669291338584
 30
0.0
 11
0.2037401574803148
 21
0.0964566929133861
 31
0.0
  0
LINE
  5
2482
330
1E
100
AcDbEntity
  8
3
100
AcDbLine
 10
0.2037401574803148
 20
0.0964566929133861
 30
0.0
 11
0.2017716535433069
 21
0.1023622047244101
 31
0.0
  0
LINE
  5
2483
330
1E
100
AcDbEntity
  8
3
100
AcDbLine
 10
0.3208661417322833
 20
0.0354330708661426
 30
0.0
 11
0.3228346456692912
 21
0.0423228346456695
 31
0.0
  0
LINE
  5
2484
330
1E
100
AcDbEntity
  8
3
100
AcDbLine
 10
0.3228346456692912
 20
0.0423228346456695
 30
0.0
 11
0.3208661417322833
 21
0.0482283464566935
 31
0.0
  0
LINE
  5
2485
330
1E
100
AcDbEntity
  8
3
100
AcDbLine
 10
0.1614173228346454
 20
0.0501968503937009
 30
0.0
 11
0.1771653543307083
 21
0.0580708661417324
 31
0.0
  0
LINE
  5
2486
330
1E
100
AcDbEntity
  8
3
100
AcDbLine
 10
0.1771653543307083
 20
0.0580708661417324
 30
0.0
 11
0.1899606299212597
 21
0.0728346456692917
 31
0.0
  0
LINE
  5
2487
330
1E
100
AcDbEntity
  8
3
100
AcDbLine
 10
0.4202755905511811
 20
-0.0925196850393695
 30
0.0
 11
0.4281496062992125
 21
-0.0935039370078732
 31
0.0
  0
LINE
  5
2488
330
1E
100
AcDbEntity
  8
3
100
AcDbLine
 10
0.4281496062992125
 20
-0.0935039370078732
 30
0.0
 11
0.4370078740157477
 21
-0.08759842519685
 31
0.0
  0
LINE
  5
2489
330
1E
100
AcDbEntity
  8
3
100
AcDbLine
 10
0.451771653543307
 20
-0.0639763779527556
 30
0.0
 11
0.4557086614173227
 21
-0.0531496062992121
 31
0.0
  0
LINE
  5
248A
330
1E
100
AcDbEntity
  8
3
100
AcDbLine
 10
0.4557086614173227
 20
-0.0531496062992121
 30
0.0
 11
0.451771653543307
 21
-0.0452755905511806
 31
0.0
  0
LINE
  5
248B
330
1E
100
AcDbEntity
  8
3
100
AcDbLine
 10
0.2805118110236218
 20
-0.0039370078740157
 30
0.0
 11
0.2962598425196847
 21
0.0039370078740157
 31
0.0
  0
LINE
  5
248C
330
1E
100
AcDbEntity
  8
3
100
AcDbLine
 10
0.2962598425196847
 20
0.0039370078740157
 30
0.0
 11
0.3090551181102361
 21
0.0177165354330713
 31
0.0
  0
LINE
  5
248D
330
1E
100
AcDbEntity
  8
3
100
AcDbLine
 10
0.1653543307086611
 20
0.1446850393700796
 30
0.0
 11
0.1761811023622046
 21
0.1427165354330713
 31
0.0
  0
LINE
  5
248E
330
1E
100
AcDbEntity
  8
3
100
AcDbLine
 10
0.1761811023622046
 20
0.1427165354330713
 30
0.0
 11
0.1870078740157477
 21
0.1515748031496065
 31
0.0
  0
LINE
  5
248F
330
1E
100
AcDbEntity
  8
3
100
AcDbLine
 10
0.3887795275590551
 20
0.0413385826771657
 30
0.0
 11
0.3996062992125981
 21
0.0393700787401583
 31
0.0
  0
LINE
  5
2490
330
1E
100
AcDbEntity
  8
3
100
AcDbLine
 10
0.3996062992125981
 20
0.0393700787401583
 30
0.0
 11
0.4104330708661417
 21
0.0482283464566935
 31
0.0
  0
LINE
  5
2491
330
1E
100
AcDbEntity
  8
3
100
AcDbLine
 10
0.3159448818897634
 20
-0.4419291338582672
 30
0.0
 11
0.3395669291338579
 21
-0.4448818897637792
 31
0.0
  0
LINE
  5
2492
330
1E
100
AcDbEntity
  8
3
100
AcDbLine
 10
0.3395669291338579
 20
-0.4448818897637792
 30
0.0
 11
0.3681102362204722
 21
-0.4458661417322829
 31
0.0
  0
LINE
  5
2493
330
1E
100
AcDbEntity
  8
3
100
AcDbLine
 10
0.3681102362204722
 20
-0.4458661417322829
 30
0.0
 11
0.3986220472440944
 21
-0.4438976377952751
 31
0.0
  0
LINE
  5
2494
330
1E
100
AcDbEntity
  8
3
100
AcDbLine
 10
0.3986220472440944
 20
-0.4438976377952751
 30
0.0
 11
0.4291338582677163
 21
-0.4389763779527556
 31
0.0
  0
LINE
  5
2495
330
1E
100
AcDbEntity
  8
3
100
AcDbLine
 10
0.4291338582677163
 20
-0.4389763779527556
 30
0.0
 11
0.4576771653543306
 21
-0.4320866141732278
 31
0.0
  0
LINE
  5
2496
330
1E
100
AcDbEntity
  8
3
100
AcDbLine
 10
1.239173228346456
 20
-0.3129921259842514
 30
0.0
 11
1.237204724409448
 21
-0.2805118110236218
 31
0.0
  0
LINE
  5
2497
330
1E
100
AcDbEntity
  8
3
100
AcDbLine
 10
1.237204724409448
 20
-0.2805118110236218
 30
0.0
 11
1.231299212598424
 21
-0.2490157480314954
 31
0.0
  0
LINE
  5
2498
330
1E
100
AcDbEntity
  8
3
100
AcDbLine
 10
1.231299212598424
 20
-0.2490157480314954
 30
0.0
 11
1.221456692913385
 21
-0.2204724409448815
 31
0.0
  0
LINE
  5
2499
330
1E
100
AcDbEntity
  8
3
100
AcDbLine
 10
1.221456692913385
 20
-0.2204724409448815
 30
0.0
 11
1.209645669291338
 21
-0.1958661417322833
 31
0.0
  0
LINE
  5
249A
330
1E
100
AcDbEntity
  8
3
100
AcDbLine
 10
1.209645669291338
 20
-0.1958661417322833
 30
0.0
 11
1.195866141732282
 21
-0.1771653543307083
 31
0.0
  0
LINE
  5
249B
330
1E
100
AcDbEntity
  8
3
100
AcDbLine
 10
1.195866141732282
 20
-0.1771653543307083
 30
0.0
 11
1.180118110236219
 21
-0.1663385826771648
 31
0.0
  0
LINE
  5
249C
330
1E
100
AcDbEntity
  8
3
100
AcDbLine
 10
-0.5846456692913389
 20
-0.0078740157480315
 30
0.0
 11
-0.5875984251968505
 21
-0.0177165354330704
 31
0.0
  0
LINE
  5
249D
330
1E
100
AcDbEntity
  8
3
100
AcDbLine
 10
-0.5875984251968505
 20
-0.0177165354330704
 30
0.0
 11
-0.5836614173228348
 21
-0.0275590551181102
 31
0.0
  0
LINE
  5
249E
330
1E
100
AcDbEntity
  8
3
100
AcDbLine
 10
-0.5836614173228348
 20
-0.0275590551181102
 30
0.0
 11
-0.5718503937007875
 21
-0.0354330708661417
 31
0.0
  0
LINE
  5
249F
330
1E
100
AcDbEntity
  8
3
100
AcDbLine
 10
0.2608267716535431
 20
0.0620078740157482
 30
0.0
 11
0.2637795275590551
 21
0.0698818897637796
 31
0.0
  0
LINE
  5
24A0
330
1E
100
AcDbEntity
  8
3
100
AcDbLine
 10
0.2637795275590551
 20
0.0698818897637796
 30
0.0
 11
0.2618110236220472
 21
0.0757874015748037
 31
0.0
  0
LINE
  5
24A1
330
1E
100
AcDbEntity
  8
3
100
AcDbLine
 10
0.7637795275590551
 20
0.1820866141732287
 30
0.0
 11
0.7421259842519681
 21
0.1830708661417324
 31
0.0
  0
LINE
  5
24A2
330
1E
100
AcDbEntity
  8
3
100
AcDbLine
 10
0.7421259842519681
 20
0.1830708661417324
 30
0.0
 11
0.7204724409448815
 21
0.1761811023622055
 31
0.0
  0
LINE
  5
24A3
330
1E
100
AcDbEntity
  8
3
100
AcDbLine
 10
0.7204724409448815
 20
0.1761811023622055
 30
0.0
 11
0.698818897637795
 21
0.1614173228346463
 31
0.0
  0
LINE
  5
24A4
330
1E
100
AcDbEntity
  8
3
100
AcDbLine
 10
0.698818897637795
 20
0.1614173228346463
 30
0.0
 11
0.6811023622047241
 21
0.1397637795275592
 31
0.0
  0
LINE
  5
24A5
330
1E
100
AcDbEntity
  8
3
100
AcDbLine
 10
0.6811023622047241
 20
0.1397637795275592
 30
0.0
 11
0.701771653543307
 21
0.1299212598425203
 31
0.0
  0
LINE
  5
24A6
330
1E
100
AcDbEntity
  8
3
100
AcDbLine
 10
0.701771653543307
 20
0.1299212598425203
 30
0.0
 11
0.7253937007874014
 21
0.1151574803149611
 31
0.0
  0
LINE
  5
24A7
330
1E
100
AcDbEntity
  8
3
100
AcDbLine
 10
0.7253937007874014
 20
0.1151574803149611
 30
0.0
 11
0.7490157480314959
 21
0.0994094488188981
 31
0.0
  0
LINE
  5
24A8
330
1E
100
AcDbEntity
  8
3
100
AcDbLine
 10
0.7490157480314959
 20
0.0994094488188981
 30
0.0
 11
0.7716535433070866
 21
0.0826771653543315
 31
0.0
  0
LINE
  5
24A9
330
1E
100
AcDbEntity
  8
3
100
AcDbLine
 10
0.7716535433070866
 20
0.0826771653543315
 30
0.0
 11
0.7903543307086612
 21
0.0679133858267722
 31
0.0
  0
LINE
  5
24AA
330
1E
100
AcDbEntity
  8
3
100
AcDbLine
 10
0.7903543307086612
 20
0.0679133858267722
 30
0.0
 11
0.8031496062992125
 21
0.0925196850393704
 31
0.0
  0
LINE
  5
24AB
330
1E
100
AcDbEntity
  8
3
100
AcDbLine
 10
0.8031496062992125
 20
0.0925196850393704
 30
0.0
 11
0.8090551181102361
 21
0.1181102362204731
 31
0.0
  0
LINE
  5
24AC
330
1E
100
AcDbEntity
  8
3
100
AcDbLine
 10
0.8090551181102361
 20
0.1181102362204731
 30
0.0
 11
0.8070866141732281
 21
0.1417322834645676
 31
0.0
  0
LINE
  5
24AD
330
1E
100
AcDbEntity
  8
3
100
AcDbLine
 10
0.8070866141732281
 20
0.1417322834645676
 30
0.0
 11
0.7972440944881889
 21
0.159448818897638
 31
0.0
  0
LINE
  5
24AE
330
1E
100
AcDbEntity
  8
3
100
AcDbLine
 10
0.7972440944881889
 20
0.159448818897638
 30
0.0
 11
0.781496062992126
 21
0.1722440944881898
 31
0.0
  0
LINE
  5
24AF
330
1E
100
AcDbEntity
  8
3
100
AcDbLine
 10
0.781496062992126
 20
0.1722440944881898
 30
0.0
 11
0.7637795275590551
 21
0.1820866141732287
 31
0.0
  0
LINE
  5
24B0
330
1E
100
AcDbEntity
  8
3
100
AcDbLine
 10
0.2608267716535431
 20
0.0620078740157482
 30
0.0
 11
0.2637795275590551
 21
0.0698818897637796
 31
0.0
  0
LINE
  5
24B1
330
1E
100
AcDbEntity
  8
3
100
AcDbLine
 10
0.2637795275590551
 20
0.0698818897637796
 30
0.0
 11
0.2618110236220472
 21
0.0757874015748037
 31
0.0
  0
LINE
  5
24B2
330
1E
100
AcDbEntity
  8
3
100
AcDbLine
 10
0.7253937007874014
 20
0.1151574803149611
 30
0.0
 11
0.7490157480314959
 21
0.0994094488188981
 31
0.0
  0
LINE
  5
24B3
330
1E
100
AcDbEntity
  8
3
100
AcDbLine
 10
0.7490157480314959
 20
0.0994094488188981
 30
0.0
 11
0.7716535433070866
 21
0.0826771653543315
 31
0.0
  0
LINE
  5
24B4
330
1E
100
AcDbEntity
  8
3
100
AcDbLine
 10
0.7716535433070866
 20
0.0826771653543315
 30
0.0
 11
0.7903543307086612
 21
0.0679133858267722
 31
0.0
  0
LINE
  5
24B5
330
1E
100
AcDbEntity
  8
3
100
AcDbLine
 10
0.7903543307086612
 20
0.0679133858267722
 30
0.0
 11
0.8031496062992125
 21
0.0925196850393704
 31
0.0
  0
LINE
  5
24B6
330
1E
100
AcDbEntity
  8
3
100
AcDbLine
 10
0.8031496062992125
 20
0.0925196850393704
 30
0.0
 11
0.8090551181102361
 21
0.1181102362204731
 31
0.0
  0
LINE
  5
24B7
330
1E
100
AcDbEntity
  8
3
100
AcDbLine
 10
0.8090551181102361
 20
0.1181102362204731
 30
0.0
 11
0.8070866141732281
 21
0.1417322834645676
 31
0.0
  0
LINE
  5
24B8
330
1E
100
AcDbEntity
  8
3
100
AcDbLine
 10
0.8070866141732281
 20
0.1417322834645676
 30
0.0
 11
0.7972440944881889
 21
0.159448818897638
 31
0.0
  0
LINE
  5
24B9
330
1E
100
AcDbEntity
  8
3
100
AcDbLine
 10
0.7972440944881889
 20
0.159448818897638
 30
0.0
 11
0.781496062992126
 21
0.1722440944881898
 31
0.0
  0
LINE
  5
24BA
330
1E
100
AcDbEntity
  8
3
100
AcDbLine
 10
0.781496062992126
 20
0.1722440944881898
 30
0.0
 11
0.7637795275590551
 21
0.1820866141732287
 31
0.0
  0
LINE
  5
24BB
330
1E
100
AcDbEntity
  8
3
100
AcDbLine
 10
0.7637795275590551
 20
0.1820866141732287
 30
0.0
 11
0.7421259842519681
 21
0.1830708661417324
 31
0.0
  0
LINE
  5
24BC
330
1E
100
AcDbEntity
  8
3
100
AcDbLine
 10
0.7421259842519681
 20
0.1830708661417324
 30
0.0
 11
0.7204724409448815
 21
0.1761811023622055
 31
0.0
  0
LINE
  5
24BD
330
1E
100
AcDbEntity
  8
3
100
AcDbLine
 10
0.7204724409448815
 20
0.1761811023622055
 30
0.0
 11
0.698818897637795
 21
0.1614173228346463
 31
0.0
  0
LINE
  5
24BE
330
1E
100
AcDbEntity
  8
3
100
AcDbLine
 10
0.698818897637795
 20
0.1614173228346463
 30
0.0
 11
0.6811023622047241
 21
0.1397637795275592
 31
0.0
  0
LINE
  5
24BF
330
1E
100
AcDbEntity
  8
3
100
AcDbLine
 10
0.6811023622047241
 20
0.1397637795275592
 30
0.0
 11
0.701771653543307
 21
0.1299212598425203
 31
0.0
  0
LINE
  5
24C0
330
1E
100
AcDbEntity
  8
3
100
AcDbLine
 10
0.701771653543307
 20
0.1299212598425203
 30
0.0
 11
0.7253937007874014
 21
0.1151574803149611
 31
0.0
  0
LINE
  5
24C1
330
1E
100
AcDbEntity
  8
3
100
AcDbLine
 10
-0.1171259842519685
 20
0.5846456692913389
 30
0.0
 11
-0.1446850393700791
 21
0.5866141732283472
 31
0.0
  0
LINE
  5
24C2
330
1E
100
AcDbEntity
  8
3
100
AcDbLine
 10
-0.1446850393700791
 20
0.5866141732283472
 30
0.0
 11
-0.1712598425196852
 21
0.5807086614173232
 31
0.0
  0
LINE
  5
24C3
330
1E
100
AcDbEntity
  8
3
100
AcDbLine
 10
-0.1712598425196852
 20
0.5807086614173232
 30
0.0
 11
-0.1958661417322838
 21
0.5669291338582685
 31
0.0
  0
LINE
  5
24C4
330
1E
100
AcDbEntity
  8
3
100
AcDbLine
 10
-0.1958661417322838
 20
0.5669291338582685
 30
0.0
 11
-0.2145669291338583
 21
0.5472440944881898
 31
0.0
  0
LINE
  5
24C5
330
1E
100
AcDbEntity
  8
3
100
AcDbLine
 10
-0.098425196850394
 20
0.5797244094488195
 30
0.0
 11
-0.1200787401574805
 21
0.5846456692913389
 31
0.0
  0
LINE
  5
24C6
330
1E
100
AcDbEntity
  8
3
100
AcDbLine
 10
-0.1200787401574805
 20
0.5846456692913389
 30
0.0
 11
-0.1446850393700791
 21
0.5787401574803157
 31
0.0
  0
LINE
  5
24C7
330
1E
100
AcDbEntity
  8
3
100
AcDbLine
 10
-0.1446850393700791
 20
0.5787401574803157
 30
0.0
 11
-0.1683070866141736
 21
0.5639763779527565
 31
0.0
  0
LINE
  5
24C8
330
1E
100
AcDbEntity
  8
3
100
AcDbLine
 10
-0.1683070866141736
 20
0.5639763779527565
 30
0.0
 11
-0.1879921259842523
 21
0.5413385826771658
 31
0.0
  0
LINE
  5
24C9
330
1E
100
AcDbEntity
  8
3
100
AcDbLine
 10
-0.2145669291338583
 20
0.5472440944881898
 30
0.0
 11
-0.2057086614173231
 21
0.5472440944881898
 31
0.0
  0
LINE
  5
24CA
330
1E
100
AcDbEntity
  8
3
100
AcDbLine
 10
-0.2057086614173231
 20
0.5472440944881898
 30
0.0
 11
-0.1879921259842523
 21
0.5413385826771658
 31
0.0
  0
LINE
  5
24CB
330
1E
100
AcDbEntity
  8
3
100
AcDbLine
 10
0.1446850393700787
 20
-0.6092519685039366
 30
0.0
 11
-0.0698818897637796
 21
-0.5108267716535431
 31
0.0
  0
LINE
  5
24CC
330
1E
100
AcDbEntity
  8
3
100
AcDbLine
 10
-0.0698818897637796
 20
-0.5108267716535431
 30
0.0
 11
-0.0698818897637796
 21
-0.4468503937007871
 31
0.0
  0
LINE
  5
24CD
330
1E
100
AcDbEntity
  8
3
100
AcDbLine
 10
-0.2696850393700791
 20
-0.4183070866141727
 30
0.0
 11
-0.2706692913385829
 21
-0.3543307086614167
 31
0.0
  0
LINE
  5
24CE
330
1E
100
AcDbEntity
  8
3
100
AcDbLine
 10
-0.2706692913385829
 20
-0.3543307086614167
 30
0.0
 11
-0.1082677165354333
 21
-0.4291338582677163
 31
0.0
  0
LINE
  5
24CF
330
1E
100
AcDbEntity
  8
3
100
AcDbLine
 10
-0.0177165354330713
 20
-0.4222440944881885
 30
0.0
 11
-0.0167322834645671
 21
-0.4074803149606297
 31
0.0
  0
LINE
  5
24D0
330
1E
100
AcDbEntity
  8
3
100
AcDbLine
 10
-0.0167322834645671
 20
-0.4074803149606297
 30
0.0
 11
0.0472440944881889
 21
-0.3858267716535431
 31
0.0
  0
LINE
  5
24D1
330
1E
100
AcDbEntity
  8
3
100
AcDbLine
 10
-0.0177165354330713
 20
-0.4222440944881885
 30
0.0
 11
-0.1604330708661421
 21
-0.3562992125984246
 31
0.0
  0
LINE
  5
24D2
330
1E
100
AcDbEntity
  8
3
100
AcDbLine
 10
-0.1604330708661421
 20
-0.3562992125984246
 30
0.0
 11
-0.1614173228346458
 21
-0.3415354330708658
 31
0.0
  0
LINE
  5
24D3
330
1E
100
AcDbEntity
  8
3
100
AcDbLine
 10
-0.1614173228346458
 20
-0.3415354330708658
 30
0.0
 11
-0.0905511811023625
 21
-0.321850393700787
 31
0.0
  0
LINE
  5
24D4
330
1E
100
AcDbEntity
  8
3
100
AcDbLine
 10
-0.5610236220472445
 20
-0.1712598425196843
 30
0.0
 11
-0.5620078740157482
 21
-0.1564960629921259
 31
0.0
  0
LINE
  5
24D5
330
1E
100
AcDbEntity
  8
3
100
AcDbLine
 10
-0.5620078740157482
 20
-0.1564960629921259
 30
0.0
 11
-0.4911417322834648
 21
-0.1368110236220472
 31
0.0
  0
LINE
  5
24D6
330
1E
100
AcDbEntity
  8
3
100
AcDbLine
 10
-0.4183070866141736
 20
-0.2372047244094482
 30
0.0
 11
-0.4183070866141736
 21
-0.2224409448818889
 31
0.0
  0
LINE
  5
24D7
330
1E
100
AcDbEntity
  8
3
100
AcDbLine
 10
-0.4183070866141736
 20
-0.2224409448818889
 30
0.0
 11
-0.3543307086614176
 21
-0.2007874015748028
 31
0.0
  0
LINE
  5
24D8
330
1E
100
AcDbEntity
  8
3
100
AcDbLine
 10
0.228346456692913
 20
0.1397637795275592
 30
0.0
 11
0.3208661417322833
 21
0.0482283464566935
 31
0.0
  0
LINE
  5
24D9
330
1E
100
AcDbEntity
  8
3
100
AcDbLine
 10
0.3208661417322833
 20
0.0482283464566935
 30
0.0
 11
0.2017716535433069
 21
0.1023622047244101
 31
0.0
  0
LINE
  5
24DA
330
1E
100
AcDbEntity
  8
3
100
AcDbLine
 10
0.5383858267716533
 20
0.002952755905512
 30
0.0
 11
0.5068897637795274
 21
0.0334645669291343
 31
0.0
  0
LINE
  5
24DB
330
1E
100
AcDbEntity
  8
3
100
AcDbLine
 10
0.5068897637795274
 20
0.0334645669291343
 30
0.0
 11
0.5492125984251968
 21
0.0137795275590556
 31
0.0
  0
LINE
  5
24DC
330
1E
100
AcDbEntity
  8
3
100
AcDbLine
 10
0.247047244094488
 20
0.1309055118110241
 30
0.0
 11
0.2293307086614171
 21
0.1456692913385833
 31
0.0
  0
LINE
  5
24DD
330
1E
100
AcDbEntity
  8
3
100
AcDbLine
 10
0.2293307086614171
 20
0.1456692913385833
 30
0.0
 11
0.1958661417322833
 21
0.1761811023622055
 31
0.0
  0
LINE
  5
24DE
330
1E
100
AcDbEntity
  8
3
100
AcDbLine
 10
-0.1692913385826773
 20
0.4153543307086621
 30
0.0
 11
0.1417322834645667
 21
0.271653543307087
 31
0.0
  0
LINE
  5
24DF
330
1E
100
AcDbEntity
  8
3
100
AcDbLine
 10
0.1417322834645667
 20
0.271653543307087
 30
0.0
 11
0.106299212598425
 21
0.2185039370078741
 31
0.0
  0
LINE
  5
24E0
330
1E
100
AcDbEntity
  8
3
100
AcDbLine
 10
-0.1358267716535435
 20
0.3848425196850398
 30
0.0
 11
-0.1151574803149606
 21
0.3740157480314963
 31
0.0
  0
LINE
  5
24E1
330
1E
100
AcDbEntity
  8
3
100
AcDbLine
 10
-0.1151574803149606
 20
0.3740157480314963
 30
0.0
 11
-0.0452755905511815
 21
0.3415354330708666
 31
0.0
  0
LINE
  5
24E2
330
1E
100
AcDbEntity
  8
3
100
AcDbLine
 10
-0.1998031496062995
 20
0.3366141732283472
 30
0.0
 11
-0.1535433070866143
 21
0.3159448818897639
 31
0.0
  0
LINE
  5
24E3
330
1E
100
AcDbEntity
  8
3
100
AcDbLine
 10
-0.1535433070866143
 20
0.3159448818897639
 30
0.0
 11
-0.1712598425196852
 21
0.3307086614173231
 31
0.0
  0
LINE
  5
24E4
330
1E
100
AcDbEntity
  8
3
100
AcDbLine
 10
0.5698818897637792
 20
-0.8582677165354324
 30
0.0
 11
0.6171259842519681
 21
-0.7598425196850389
 31
0.0
  0
LINE
  5
24E5
330
1E
100
AcDbEntity
  8
3
100
AcDbLine
 10
0.6171259842519681
 20
-0.7598425196850389
 30
0.0
 11
0.6171259842519681
 21
-0.7421259842519681
 31
0.0
  0
LINE
  5
24E6
330
1E
100
AcDbEntity
  8
3
100
AcDbLine
 10
0.1446850393700787
 20
-0.6092519685039366
 30
0.0
 11
-0.0698818897637796
 21
-0.5108267716535431
 31
0.0
  0
LINE
  5
24E7
330
1E
100
AcDbEntity
  8
3
100
AcDbLine
 10
-0.0698818897637796
 20
-0.5108267716535431
 30
0.0
 11
-0.0698818897637796
 21
-0.4468503937007871
 31
0.0
  0
LINE
  5
24E8
330
1E
100
AcDbEntity
  8
3
100
AcDbLine
 10
-0.2696850393700791
 20
-0.4183070866141727
 30
0.0
 11
-0.2706692913385829
 21
-0.3543307086614167
 31
0.0
  0
LINE
  5
24E9
330
1E
100
AcDbEntity
  8
3
100
AcDbLine
 10
-0.2706692913385829
 20
-0.3543307086614167
 30
0.0
 11
-0.1082677165354333
 21
-0.4291338582677163
 31
0.0
  0
LINE
  5
24EA
330
1E
100
AcDbEntity
  8
3
100
AcDbLine
 10
-0.0177165354330713
 20
-0.4222440944881885
 30
0.0
 11
-0.0167322834645671
 21
-0.4074803149606297
 31
0.0
  0
LINE
  5
24EB
330
1E
100
AcDbEntity
  8
3
100
AcDbLine
 10
-0.0167322834645671
 20
-0.4074803149606297
 30
0.0
 11
0.0472440944881889
 21
-0.3858267716535431
 31
0.0
  0
LINE
  5
24EC
330
1E
100
AcDbEntity
  8
3
100
AcDbLine
 10
-0.0177165354330713
 20
-0.4222440944881885
 30
0.0
 11
-0.1604330708661421
 21
-0.3562992125984246
 31
0.0
  0
LINE
  5
24ED
330
1E
100
AcDbEntity
  8
3
100
AcDbLine
 10
-0.1604330708661421
 20
-0.3562992125984246
 30
0.0
 11
-0.1614173228346458
 21
-0.3415354330708658
 31
0.0
  0
LINE
  5
24EE
330
1E
100
AcDbEntity
  8
3
100
AcDbLine
 10
-0.1614173228346458
 20
-0.3415354330708658
 30
0.0
 11
-0.0905511811023625
 21
-0.321850393700787
 31
0.0
  0
LINE
  5
24EF
330
1E
100
AcDbEntity
  8
3
100
AcDbLine
 10
-0.5610236220472445
 20
-0.1712598425196843
 30
0.0
 11
-0.5620078740157482
 21
-0.1564960629921259
 31
0.0
  0
LINE
  5
24F0
330
1E
100
AcDbEntity
  8
3
100
AcDbLine
 10
-0.5620078740157482
 20
-0.1564960629921259
 30
0.0
 11
-0.4911417322834648
 21
-0.1368110236220472
 31
0.0
  0
LINE
  5
24F1
330
1E
100
AcDbEntity
  8
3
100
AcDbLine
 10
-0.4183070866141736
 20
-0.2372047244094482
 30
0.0
 11
-0.4183070866141736
 21
-0.2224409448818889
 31
0.0
  0
LINE
  5
24F2
330
1E
100
AcDbEntity
  8
3
100
AcDbLine
 10
-0.4183070866141736
 20
-0.2224409448818889
 30
0.0
 11
-0.3543307086614176
 21
-0.2007874015748028
 31
0.0
  0
LINE
  5
24F3
330
1E
100
AcDbEntity
  8
3
100
AcDbLine
 10
0.228346456692913
 20
0.1397637795275592
 30
0.0
 11
0.3208661417322833
 21
0.0482283464566935
 31
0.0
  0
LINE
  5
24F4
330
1E
100
AcDbEntity
  8
3
100
AcDbLine
 10
0.3208661417322833
 20
0.0482283464566935
 30
0.0
 11
0.2017716535433069
 21
0.1023622047244101
 31
0.0
  0
LINE
  5
24F5
330
1E
100
AcDbEntity
  8
3
100
AcDbLine
 10
0.5383858267716533
 20
0.002952755905512
 30
0.0
 11
0.5068897637795274
 21
0.0334645669291343
 31
0.0
  0
LINE
  5
24F6
330
1E
100
AcDbEntity
  8
3
100
AcDbLine
 10
0.5068897637795274
 20
0.0334645669291343
 30
0.0
 11
0.5492125984251968
 21
0.0137795275590556
 31
0.0
  0
LINE
  5
24F7
330
1E
100
AcDbEntity
  8
3
100
AcDbLine
 10
0.247047244094488
 20
0.1309055118110241
 30
0.0
 11
0.2293307086614171
 21
0.1456692913385833
 31
0.0
  0
LINE
  5
24F8
330
1E
100
AcDbEntity
  8
3
100
AcDbLine
 10
0.2293307086614171
 20
0.1456692913385833
 30
0.0
 11
0.1958661417322833
 21
0.1761811023622055
 31
0.0
  0
LINE
  5
24F9
330
1E
100
AcDbEntity
  8
3
100
AcDbLine
 10
-0.1692913385826773
 20
0.4153543307086621
 30
0.0
 11
0.1417322834645667
 21
0.271653543307087
 31
0.0
  0
LINE
  5
24FA
330
1E
100
AcDbEntity
  8
3
100
AcDbLine
 10
0.1417322834645667
 20
0.271653543307087
 30
0.0
 11
0.106299212598425
 21
0.2185039370078741
 31
0.0
  0
LINE
  5
24FB
330
1E
100
AcDbEntity
  8
3
100
AcDbLine
 10
-0.1358267716535435
 20
0.3848425196850398
 30
0.0
 11
-0.1151574803149606
 21
0.3740157480314963
 31
0.0
  0
LINE
  5
24FC
330
1E
100
AcDbEntity
  8
3
100
AcDbLine
 10
-0.1151574803149606
 20
0.3740157480314963
 30
0.0
 11
-0.0452755905511815
 21
0.3415354330708666
 31
0.0
  0
LINE
  5
24FD
330
1E
100
AcDbEntity
  8
3
100
AcDbLine
 10
-0.1998031496062995
 20
0.3366141732283472
 30
0.0
 11
-0.1535433070866143
 21
0.3159448818897639
 31
0.0
  0
LINE
  5
24FE
330
1E
100
AcDbEntity
  8
3
100
AcDbLine
 10
-0.1535433070866143
 20
0.3159448818897639
 30
0.0
 11
-0.1712598425196852
 21
0.3307086614173231
 31
0.0
  0
LINE
  5
24FF
330
1E
100
AcDbEntity
  8
3
100
AcDbLine
 10
0.5698818897637792
 20
-0.8582677165354324
 30
0.0
 11
0.6171259842519681
 21
-0.7598425196850389
 31
0.0
  0
LINE
  5
2500
330
1E
100
AcDbEntity
  8
3
100
AcDbLine
 10
0.6171259842519681
 20
-0.7598425196850389
 30
0.0
 11
0.6171259842519681
 21
-0.7421259842519681
 31
0.0
  0
LINE
  5
2501
330
1E
100
AcDbEntity
  8
3
100
AcDbLine
 10
1.239173228346456
 20
-0.3129921259842514
 30
0.0
 11
0.7903543307086612
 21
0.0679133858267722
 31
0.0
  0
LINE
  5
2502
330
1E
100
AcDbEntity
  8
3
100
AcDbLine
 10
0.7903543307086612
 20
0.0679133858267722
 30
0.0
 11
0.4576771653543306
 21
-0.4320866141732278
 31
0.0
  0
LINE
  5
2503
330
1E
100
AcDbEntity
  8
7
100
AcDbLine
 10
1.369094488188976
 20
2.906496062992125
 30
0.0
 11
1.382874015748031
 21
2.921259842519685
 31
0.0
  0
LINE
  5
2504
330
1E
100
AcDbEntity
  8
7
100
AcDbLine
 10
1.382874015748031
 20
2.921259842519685
 30
0.0
 11
1.410433070866141
 21
2.934055118110237
 31
0.0
  0
LINE
  5
2505
330
1E
100
AcDbEntity
  8
7
100
AcDbLine
 10
1.410433070866141
 20
2.934055118110237
 30
0.0
 11
1.436023622047243
 21
2.93996062992126
 31
0.0
  0
LINE
  5
2506
330
1E
100
AcDbEntity
  8
7
100
AcDbLine
 10
1.436023622047243
 20
2.93996062992126
 30
0.0
 11
1.465551181102361
 21
2.942913385826772
 31
0.0
  0
LINE
  5
2507
330
1E
100
AcDbEntity
  8
7
100
AcDbLine
 10
1.465551181102361
 20
2.942913385826772
 30
0.0
 11
1.49507874015748
 21
2.942913385826772
 31
0.0
  0
LINE
  5
2508
330
1E
100
AcDbEntity
  8
7
100
AcDbLine
 10
1.49507874015748
 20
2.942913385826772
 30
0.0
 11
1.524606299212598
 21
2.93996062992126
 31
0.0
  0
LINE
  5
2509
330
1E
100
AcDbEntity
  8
7
100
AcDbLine
 10
1.524606299212598
 20
2.93996062992126
 30
0.0
 11
1.551181102362204
 21
2.93503937007874
 31
0.0
  0
LINE
  5
250A
330
1E
100
AcDbEntity
  8
7
100
AcDbLine
 10
1.551181102362204
 20
2.93503937007874
 30
0.0
 11
1.572834645669291
 21
2.927165354330709
 31
0.0
  0
LINE
  5
250B
330
1E
100
AcDbEntity
  8
7
100
AcDbLine
 10
1.572834645669291
 20
2.927165354330709
 30
0.0
 11
1.58759842519685
 21
2.916338582677165
 31
0.0
  0
LINE
  5
250C
330
1E
100
AcDbEntity
  8
7
100
AcDbLine
 10
1.58759842519685
 20
2.916338582677165
 30
0.0
 11
1.594488188976377
 21
2.905511811023622
 31
0.0
  0
LINE
  5
250D
330
1E
100
AcDbEntity
  8
7
100
AcDbLine
 10
-0.5393700787401579
 20
2.322834645669291
 30
0.0
 11
-0.5265748031496065
 21
2.338582677165354
 31
0.0
  0
LINE
  5
250E
330
1E
100
AcDbEntity
  8
7
100
AcDbLine
 10
-0.5265748031496065
 20
2.338582677165354
 30
0.0
 11
-0.4990157480314963
 21
2.350393700787401
 31
0.0
  0
LINE
  5
250F
330
1E
100
AcDbEntity
  8
7
100
AcDbLine
 10
-0.3366141732283467
 20
2.343503937007874
 30
0.0
 11
-0.3218503937007875
 21
2.333661417322835
 31
0.0
  0
LINE
  5
2510
330
1E
100
AcDbEntity
  8
7
100
AcDbLine
 10
-0.3218503937007875
 20
2.333661417322835
 30
0.0
 11
-0.313976377952756
 21
2.322834645669291
 31
0.0
  0
LINE
  5
2511
330
1E
100
AcDbEntity
  8
7
100
AcDbLine
 10
-0.4990157480314963
 20
2.350393700787401
 30
0.0
 11
-0.4724409448818899
 21
2.356299212598425
 31
0.0
  0
LINE
  5
2512
330
1E
100
AcDbEntity
  8
7
100
AcDbLine
 10
-0.4724409448818899
 20
2.356299212598425
 30
0.0
 11
-0.443897637795276
 21
2.360236220472441
 31
0.0
  0
LINE
  5
2513
330
1E
100
AcDbEntity
  8
7
100
AcDbLine
 10
-0.443897637795276
 20
2.360236220472441
 30
0.0
 11
-0.4133858267716537
 21
2.360236220472441
 31
0.0
  0
LINE
  5
2514
330
1E
100
AcDbEntity
  8
7
100
AcDbLine
 10
-0.4133858267716537
 20
2.360236220472441
 30
0.0
 11
-0.3838582677165356
 21
2.357283464566929
 31
0.0
  0
LINE
  5
2515
330
1E
100
AcDbEntity
  8
7
100
AcDbLine
 10
-0.3838582677165356
 20
2.357283464566929
 30
0.0
 11
-0.3572834645669292
 21
2.351377952755905
 31
0.0
  0
LINE
  5
2516
330
1E
100
AcDbEntity
  8
7
100
AcDbLine
 10
-0.3572834645669292
 20
2.351377952755905
 30
0.0
 11
-0.3366141732283467
 21
2.343503937007874
 31
0.0
  0
LINE
  5
2517
330
1E
100
AcDbEntity
  8
7
100
AcDbLine
 10
2.448818897637794
 20
2.580708661417323
 30
0.0
 11
2.437007874015747
 21
2.611220472440945
 31
0.0
  0
LINE
  5
2518
330
1E
100
AcDbEntity
  8
7
100
AcDbLine
 10
2.437007874015747
 20
2.611220472440945
 30
0.0
 11
2.418307086614172
 21
2.640748031496062
 31
0.0
  0
LINE
  5
2519
330
1E
100
AcDbEntity
  8
7
100
AcDbLine
 10
2.418307086614172
 20
2.640748031496062
 30
0.0
 11
2.39271653543307
 21
2.666338582677165
 31
0.0
  0
LINE
  5
251A
330
1E
100
AcDbEntity
  8
7
100
AcDbLine
 10
2.39271653543307
 20
2.666338582677165
 30
0.0
 11
2.362204724409448
 21
2.688976377952756
 31
0.0
  0
LINE
  5
251B
330
1E
100
AcDbEntity
  8
7
100
AcDbLine
 10
2.362204724409448
 20
2.688976377952756
 30
0.0
 11
2.32775590551181
 21
2.706692913385826
 31
0.0
  0
LINE
  5
251C
330
1E
100
AcDbEntity
  8
7
100
AcDbLine
 10
2.32775590551181
 20
2.706692913385826
 30
0.0
 11
2.289370078740156
 21
2.719488188976378
 31
0.0
  0
LINE
  5
251D
330
1E
100
AcDbEntity
  8
7
100
AcDbLine
 10
2.289370078740156
 20
2.719488188976378
 30
0.0
 11
2.249999999999999
 21
2.726377952755905
 31
0.0
  0
LINE
  5
251E
330
1E
100
AcDbEntity
  8
7
100
AcDbLine
 10
-0.1062992125984254
 20
2.006889763779527
 30
0.0
 11
-0.1043307086614176
 21
1.988188976377952
 31
0.0
  0
LINE
  5
251F
330
1E
100
AcDbEntity
  8
7
100
AcDbLine
 10
-0.1043307086614176
 20
1.988188976377952
 30
0.0
 11
-0.1023622047244097
 21
1.964566929133858
 31
0.0
  0
LINE
  5
2520
330
1E
100
AcDbEntity
  8
7
100
AcDbLine
 10
-0.1023622047244097
 20
1.964566929133858
 30
0.0
 11
-0.1003937007874018
 21
1.937007874015748
 31
0.0
  0
LINE
  5
2521
330
1E
100
AcDbEntity
  8
7
100
AcDbLine
 10
-0.1003937007874018
 20
1.937007874015748
 30
0.0
 11
-0.098425196850394
 21
1.905511811023622
 31
0.0
  0
LINE
  5
2522
330
1E
100
AcDbEntity
  8
7
100
AcDbLine
 10
-0.098425196850394
 20
1.905511811023622
 30
0.0
 11
-0.0974409448818898
 21
1.872047244094488
 31
0.0
  0
LINE
  5
2523
330
1E
100
AcDbEntity
  8
7
100
AcDbLine
 10
-0.0974409448818898
 20
1.872047244094488
 30
0.0
 11
-0.0964566929133861
 21
1.83759842519685
 31
0.0
  0
LINE
  5
2524
330
1E
100
AcDbEntity
  8
7
100
AcDbLine
 10
-0.0964566929133861
 20
1.83759842519685
 30
0.0
 11
-0.095472440944882
 21
1.804133858267716
 31
0.0
  0
LINE
  5
2525
330
1E
100
AcDbEntity
  8
7
100
AcDbLine
 10
-0.095472440944882
 20
1.804133858267716
 30
0.0
 11
-0.095472440944882
 21
1.771653543307087
 31
0.0
  0
LINE
  5
2526
330
1E
100
AcDbEntity
  8
7
100
AcDbLine
 10
-1.387795275590551
 20
2.408464566929134
 30
0.0
 11
-1.399606299212598
 21
2.378937007874015
 31
0.0
  0
LINE
  5
2527
330
1E
100
AcDbEntity
  8
7
100
AcDbLine
 10
-1.399606299212598
 20
2.378937007874015
 30
0.0
 11
-1.403543307086614
 21
2.348425196850394
 31
0.0
  0
LINE
  5
2528
330
1E
100
AcDbEntity
  8
7
100
AcDbLine
 10
-1.194881889763779
 20
2.508858267716536
 30
0.0
 11
-1.235236220472441
 21
2.50492125984252
 31
0.0
  0
LINE
  5
2529
330
1E
100
AcDbEntity
  8
7
100
AcDbLine
 10
-1.235236220472441
 20
2.50492125984252
 30
0.0
 11
-1.274606299212598
 21
2.49507874015748
 31
0.0
  0
LINE
  5
252A
330
1E
100
AcDbEntity
  8
7
100
AcDbLine
 10
-1.274606299212598
 20
2.49507874015748
 30
0.0
 11
-1.311023622047244
 21
2.480314960629921
 31
0.0
  0
LINE
  5
252B
330
1E
100
AcDbEntity
  8
7
100
AcDbLine
 10
-1.311023622047244
 20
2.480314960629921
 30
0.0
 11
-1.34251968503937
 21
2.460629921259842
 31
0.0
  0
LINE
  5
252C
330
1E
100
AcDbEntity
  8
7
100
AcDbLine
 10
-1.34251968503937
 20
2.460629921259842
 30
0.0
 11
-1.369094488188976
 21
2.436023622047244
 31
0.0
  0
LINE
  5
252D
330
1E
100
AcDbEntity
  8
7
100
AcDbLine
 10
-1.369094488188976
 20
2.436023622047244
 30
0.0
 11
-1.387795275590551
 21
2.408464566929134
 31
0.0
  0
LINE
  5
252E
330
1E
100
AcDbEntity
  8
7
100
AcDbLine
 10
-0.1496062992125986
 20
1.874015748031496
 30
0.0
 11
-0.143700787401575
 21
1.90748031496063
 31
0.0
  0
LINE
  5
252F
330
1E
100
AcDbEntity
  8
7
100
AcDbLine
 10
-0.143700787401575
 20
1.90748031496063
 30
0.0
 11
-0.1358267716535435
 21
1.937992125984252
 31
0.0
  0
LINE
  5
2530
330
1E
100
AcDbEntity
  8
7
100
AcDbLine
 10
-0.1358267716535435
 20
1.937992125984252
 30
0.0
 11
-0.1259842519685042
 21
1.965551181102362
 31
0.0
  0
LINE
  5
2531
330
1E
100
AcDbEntity
  8
7
100
AcDbLine
 10
-0.1259842519685042
 20
1.965551181102362
 30
0.0
 11
-0.1161417322834648
 21
1.989173228346457
 31
0.0
  0
LINE
  5
2532
330
1E
100
AcDbEntity
  8
7
100
AcDbLine
 10
-0.1161417322834648
 20
1.989173228346457
 30
0.0
 11
-0.1062992125984254
 21
2.006889763779527
 31
0.0
  0
LINE
  5
2533
330
1E
100
AcDbEntity
  8
7
100
AcDbLine
 10
-0.1584645669291342
 20
1.774606299212599
 30
0.0
 11
-0.1574803149606301
 21
1.806102362204724
 31
0.0
  0
LINE
  5
2534
330
1E
100
AcDbEntity
  8
7
100
AcDbLine
 10
-0.1574803149606301
 20
1.806102362204724
 30
0.0
 11
-0.1545275590551185
 21
1.839566929133858
 31
0.0
  0
LINE
  5
2535
330
1E
100
AcDbEntity
  8
7
100
AcDbLine
 10
-0.1545275590551185
 20
1.839566929133858
 30
0.0
 11
-0.1496062992125986
 21
1.874015748031496
 31
0.0
  0
LINE
  5
2536
330
1E
100
AcDbEntity
  8
7
100
AcDbLine
 10
1.189960629921259
 20
3.24507874015748
 30
0.0
 11
1.181102362204724
 21
3.246062992125984
 31
0.0
  0
LINE
  5
2537
330
1E
100
AcDbEntity
  8
7
100
AcDbLine
 10
1.181102362204724
 20
3.246062992125984
 30
0.0
 11
1.171259842519684
 21
3.240157480314961
 31
0.0
  0
LINE
  5
2538
330
1E
100
AcDbEntity
  8
7
100
AcDbLine
 10
1.171259842519684
 20
3.240157480314961
 30
0.0
 11
1.161417322834645
 21
3.228346456692913
 31
0.0
  0
LINE
  5
2539
330
1E
100
AcDbEntity
  8
7
100
AcDbLine
 10
2.249999999999999
 20
2.726377952755905
 30
0.0
 11
2.295275590551181
 21
2.723425196850394
 31
0.0
  0
LINE
  5
253A
330
1E
100
AcDbEntity
  8
7
100
AcDbLine
 10
2.295275590551181
 20
2.723425196850394
 30
0.0
 11
2.33759842519685
 21
2.713582677165354
 31
0.0
  0
LINE
  5
253B
330
1E
100
AcDbEntity
  8
7
100
AcDbLine
 10
2.33759842519685
 20
2.713582677165354
 30
0.0
 11
2.375984251968503
 21
2.696850393700787
 31
0.0
  0
LINE
  5
253C
330
1E
100
AcDbEntity
  8
7
100
AcDbLine
 10
-1.288385826771653
 20
2.5
 30
0.0
 11
-1.243110236220472
 21
2.508858267716536
 31
0.0
  0
LINE
  5
253D
330
1E
100
AcDbEntity
  8
7
100
AcDbLine
 10
-1.243110236220472
 20
2.508858267716536
 30
0.0
 11
-1.194881889763779
 21
2.508858267716536
 31
0.0
  0
LINE
  5
253E
330
1E
100
AcDbEntity
  8
7
100
AcDbLine
 10
1.161417322834645
 20
3.228346456692913
 30
0.0
 11
1.158464566929133
 21
3.243110236220473
 31
0.0
  0
LINE
  5
253F
330
1E
100
AcDbEntity
  8
7
100
AcDbLine
 10
1.158464566929133
 20
3.243110236220473
 30
0.0
 11
1.156496062992125
 21
3.247047244094488
 31
0.0
  0
LINE
  5
2540
330
1E
100
AcDbEntity
  8
7
100
AcDbLine
 10
2.468503937007873
 20
2.562992125984252
 30
0.0
 11
2.464566929133857
 21
2.556102362204724
 31
0.0
  0
LINE
  5
2541
330
1E
100
AcDbEntity
  8
7
100
AcDbLine
 10
2.464566929133857
 20
2.556102362204724
 30
0.0
 11
2.45275590551181
 21
2.5501968503937
 31
0.0
  0
LINE
  5
2542
330
1E
100
AcDbEntity
  8
7
100
AcDbLine
 10
-1.403543307086614
 20
2.348425196850394
 30
0.0
 11
-1.411417322834645
 21
2.353346456692913
 31
0.0
  0
LINE
  5
2543
330
1E
100
AcDbEntity
  8
7
100
AcDbLine
 10
-1.411417322834645
 20
2.353346456692913
 30
0.0
 11
-1.414370078740157
 21
2.359251968503937
 31
0.0
  0
LINE
  5
2544
330
1E
100
AcDbEntity
  8
7
100
AcDbLine
 10
-0.095472440944882
 20
1.771653543307087
 30
0.0
 11
-0.1171259842519685
 21
1.767716535433071
 31
0.0
  0
LINE
  5
2545
330
1E
100
AcDbEntity
  8
7
100
AcDbLine
 10
-0.1171259842519685
 20
1.767716535433071
 30
0.0
 11
-0.1397637795275592
 21
1.768700787401574
 31
0.0
  0
LINE
  5
2546
330
1E
100
AcDbEntity
  8
7
100
AcDbLine
 10
-0.1397637795275592
 20
1.768700787401574
 30
0.0
 11
-0.1584645669291342
 21
1.774606299212599
 31
0.0
  0
LINE
  5
2547
330
1E
100
AcDbEntity
  8
7
100
AcDbLine
 10
1.595472440944881
 20
2.912401574803149
 30
0.0
 11
1.593503937007873
 21
2.900590551181102
 31
0.0
  0
LINE
  5
2548
330
1E
100
AcDbEntity
  8
7
100
AcDbLine
 10
1.593503937007873
 20
2.900590551181102
 30
0.0
 11
1.58267716535433
 21
2.889763779527559
 31
0.0
  0
LINE
  5
2549
330
1E
100
AcDbEntity
  8
7
100
AcDbLine
 10
1.58267716535433
 20
2.889763779527559
 30
0.0
 11
1.564960629921259
 21
2.87992125984252
 31
0.0
  0
LINE
  5
254A
330
1E
100
AcDbEntity
  8
7
100
AcDbLine
 10
1.564960629921259
 20
2.87992125984252
 30
0.0
 11
1.541338582677165
 21
2.873031496062992
 31
0.0
  0
LINE
  5
254B
330
1E
100
AcDbEntity
  8
7
100
AcDbLine
 10
1.541338582677165
 20
2.873031496062992
 30
0.0
 11
1.512795275590551
 21
2.868110236220473
 31
0.0
  0
LINE
  5
254C
330
1E
100
AcDbEntity
  8
7
100
AcDbLine
 10
1.512795275590551
 20
2.868110236220473
 30
0.0
 11
1.482283464566929
 21
2.866141732283464
 31
0.0
  0
LINE
  5
254D
330
1E
100
AcDbEntity
  8
7
100
AcDbLine
 10
1.482283464566929
 20
2.866141732283464
 30
0.0
 11
1.450787401574803
 21
2.868110236220473
 31
0.0
  0
LINE
  5
254E
330
1E
100
AcDbEntity
  8
7
100
AcDbLine
 10
1.450787401574803
 20
2.868110236220473
 30
0.0
 11
1.423228346456693
 21
2.873031496062992
 31
0.0
  0
LINE
  5
254F
330
1E
100
AcDbEntity
  8
7
100
AcDbLine
 10
1.423228346456693
 20
2.873031496062992
 30
0.0
 11
1.398622047244094
 21
2.87992125984252
 31
0.0
  0
LINE
  5
2550
330
1E
100
AcDbEntity
  8
7
100
AcDbLine
 10
1.398622047244094
 20
2.87992125984252
 30
0.0
 11
1.380905511811023
 21
2.889763779527559
 31
0.0
  0
LINE
  5
2551
330
1E
100
AcDbEntity
  8
7
100
AcDbLine
 10
1.380905511811023
 20
2.889763779527559
 30
0.0
 11
1.371062992125983
 21
2.900590551181102
 31
0.0
  0
LINE
  5
2552
330
1E
100
AcDbEntity
  8
7
100
AcDbLine
 10
1.371062992125983
 20
2.900590551181102
 30
0.0
 11
1.368110236220471
 21
2.912401574803149
 31
0.0
  0
LINE
  5
2553
330
1E
100
AcDbEntity
  8
7
100
AcDbLine
 10
1.368110236220471
 20
2.912401574803149
 30
0.0
 11
1.374999999999999
 21
2.923228346456693
 31
0.0
  0
LINE
  5
2554
330
1E
100
AcDbEntity
  8
7
100
AcDbLine
 10
1.374999999999999
 20
2.923228346456693
 30
0.0
 11
1.388779527559055
 21
2.934055118110237
 31
0.0
  0
LINE
  5
2555
330
1E
100
AcDbEntity
  8
7
100
AcDbLine
 10
1.410433070866141
 20
2.941929133858268
 30
0.0
 11
1.437007874015747
 21
2.948818897637795
 31
0.0
  0
LINE
  5
2556
330
1E
100
AcDbEntity
  8
7
100
AcDbLine
 10
1.437007874015747
 20
2.948818897637795
 30
0.0
 11
1.466535433070866
 21
2.951771653543307
 31
0.0
  0
LINE
  5
2557
330
1E
100
AcDbEntity
  8
7
100
AcDbLine
 10
1.466535433070866
 20
2.951771653543307
 30
0.0
 11
1.497047244094487
 21
2.951771653543307
 31
0.0
  0
LINE
  5
2558
330
1E
100
AcDbEntity
  8
7
100
AcDbLine
 10
1.497047244094487
 20
2.951771653543307
 30
0.0
 11
1.527559055118109
 21
2.948818897637795
 31
0.0
  0
LINE
  5
2559
330
1E
100
AcDbEntity
  8
7
100
AcDbLine
 10
1.527559055118109
 20
2.948818897637795
 30
0.0
 11
1.553149606299212
 21
2.941929133858268
 31
0.0
  0
LINE
  5
255A
330
1E
100
AcDbEntity
  8
7
100
AcDbLine
 10
1.553149606299212
 20
2.941929133858268
 30
0.0
 11
1.574803149606298
 21
2.934055118110237
 31
0.0
  0
LINE
  5
255B
330
1E
100
AcDbEntity
  8
7
100
AcDbLine
 10
1.574803149606298
 20
2.934055118110237
 30
0.0
 11
1.588582677165354
 21
2.923228346456693
 31
0.0
  0
LINE
  5
255C
330
1E
100
AcDbEntity
  8
7
100
AcDbLine
 10
1.588582677165354
 20
2.923228346456693
 30
0.0
 11
1.595472440944881
 21
2.912401574803149
 31
0.0
  0
LINE
  5
255D
330
1E
100
AcDbEntity
  8
7
100
AcDbLine
 10
-0.5098425196850394
 20
2.297244094488189
 30
0.0
 11
-0.5275590551181107
 21
2.306102362204724
 31
0.0
  0
LINE
  5
255E
330
1E
100
AcDbEntity
  8
7
100
AcDbLine
 10
-0.5275590551181107
 20
2.306102362204724
 30
0.0
 11
-0.5383858267716537
 21
2.316929133858268
 31
0.0
  0
LINE
  5
255F
330
1E
100
AcDbEntity
  8
7
100
AcDbLine
 10
-0.5383858267716537
 20
2.316929133858268
 30
0.0
 11
-0.5403543307086616
 21
2.328740157480315
 31
0.0
  0
LINE
  5
2560
330
1E
100
AcDbEntity
  8
7
100
AcDbLine
 10
-0.5403543307086616
 20
2.328740157480315
 30
0.0
 11
-0.5334645669291343
 21
2.340551181102362
 31
0.0
  0
LINE
  5
2561
330
1E
100
AcDbEntity
  8
7
100
AcDbLine
 10
-0.5334645669291343
 20
2.340551181102362
 30
0.0
 11
-0.5196850393700792
 21
2.350393700787401
 31
0.0
  0
LINE
  5
2562
330
1E
100
AcDbEntity
  8
7
100
AcDbLine
 10
-0.5196850393700792
 20
2.350393700787401
 30
0.0
 11
-0.4990157480314963
 21
2.359251968503937
 31
0.0
  0
LINE
  5
2563
330
1E
100
AcDbEntity
  8
7
100
AcDbLine
 10
-0.4114173228346459
 20
2.368110236220473
 30
0.0
 11
-0.3818897637795278
 21
2.365157480314961
 31
0.0
  0
LINE
  5
2564
330
1E
100
AcDbEntity
  8
7
100
AcDbLine
 10
-0.3818897637795278
 20
2.365157480314961
 30
0.0
 11
-0.3553149606299213
 21
2.359251968503937
 31
0.0
  0
LINE
  5
2565
330
1E
100
AcDbEntity
  8
7
100
AcDbLine
 10
-0.3553149606299213
 20
2.359251968503937
 30
0.0
 11
-0.3336614173228347
 21
2.350393700787401
 31
0.0
  0
LINE
  5
2566
330
1E
100
AcDbEntity
  8
7
100
AcDbLine
 10
-0.3336614173228347
 20
2.350393700787401
 30
0.0
 11
-0.3198818897637796
 21
2.340551181102362
 31
0.0
  0
LINE
  5
2567
330
1E
100
AcDbEntity
  8
7
100
AcDbLine
 10
-0.3198818897637796
 20
2.340551181102362
 30
0.0
 11
-0.313976377952756
 21
2.328740157480315
 31
0.0
  0
LINE
  5
2568
330
1E
100
AcDbEntity
  8
7
100
AcDbLine
 10
-0.313976377952756
 20
2.328740157480315
 30
0.0
 11
-0.3159448818897639
 21
2.316929133858268
 31
0.0
  0
LINE
  5
2569
330
1E
100
AcDbEntity
  8
7
100
AcDbLine
 10
-0.3159448818897639
 20
2.316929133858268
 30
0.0
 11
-0.3257874015748032
 21
2.306102362204724
 31
0.0
  0
LINE
  5
256A
330
1E
100
AcDbEntity
  8
7
100
AcDbLine
 10
-0.3257874015748032
 20
2.306102362204724
 30
0.0
 11
-0.3435039370078741
 21
2.297244094488189
 31
0.0
  0
LINE
  5
256B
330
1E
100
AcDbEntity
  8
7
100
AcDbLine
 10
-0.3435039370078741
 20
2.297244094488189
 30
0.0
 11
-0.3681102362204727
 21
2.289370078740158
 31
0.0
  0
LINE
  5
256C
330
1E
100
AcDbEntity
  8
7
100
AcDbLine
 10
-0.3681102362204727
 20
2.289370078740158
 30
0.0
 11
-0.396653543307087
 21
2.285433070866142
 31
0.0
  0
LINE
  5
256D
330
1E
100
AcDbEntity
  8
7
100
AcDbLine
 10
-0.396653543307087
 20
2.285433070866142
 30
0.0
 11
-0.4271653543307088
 21
2.283464566929134
 31
0.0
  0
LINE
  5
256E
330
1E
100
AcDbEntity
  8
7
100
AcDbLine
 10
-0.4271653543307088
 20
2.283464566929134
 30
0.0
 11
-0.457677165354331
 21
2.285433070866142
 31
0.0
  0
LINE
  5
256F
330
1E
100
AcDbEntity
  8
7
100
AcDbLine
 10
-0.457677165354331
 20
2.285433070866142
 30
0.0
 11
-0.4862204724409449
 21
2.289370078740158
 31
0.0
  0
LINE
  5
2570
330
1E
100
AcDbEntity
  8
7
100
AcDbLine
 10
-0.4862204724409449
 20
2.289370078740158
 30
0.0
 11
-0.5098425196850394
 21
2.297244094488189
 31
0.0
  0
LINE
  5
2571
330
1E
100
AcDbEntity
  8
7
100
AcDbLine
 10
-0.4990157480314963
 20
2.359251968503937
 30
0.0
 11
-0.4724409448818899
 21
2.365157480314961
 31
0.0
  0
LINE
  5
2572
330
1E
100
AcDbEntity
  8
7
100
AcDbLine
 10
-0.4724409448818899
 20
2.365157480314961
 30
0.0
 11
-0.4419291338582681
 21
2.368110236220473
 31
0.0
  0
LINE
  5
2573
330
1E
100
AcDbEntity
  8
7
100
AcDbLine
 10
-0.4419291338582681
 20
2.368110236220473
 30
0.0
 11
-0.4114173228346459
 21
2.368110236220473
 31
0.0
  0
LINE
  5
2574
330
1E
100
AcDbEntity
  8
7
100
AcDbLine
 10
-1.194881889763779
 20
2.508858267716536
 30
0.0
 11
-0.1062992125984254
 21
2.006889763779527
 31
0.0
  0
LINE
  5
2575
330
1E
100
AcDbEntity
  8
7
100
AcDbLine
 10
-0.1062992125984254
 20
2.006889763779527
 30
0.0
 11
2.249999999999999
 21
2.726377952755905
 31
0.0
  0
LINE
  5
2576
330
1E
100
AcDbEntity
  8
7
100
AcDbLine
 10
2.249999999999999
 20
2.726377952755905
 30
0.0
 11
1.161417322834645
 21
3.228346456692913
 31
0.0
  0
LINE
  5
2577
330
1E
100
AcDbEntity
  8
7
100
AcDbLine
 10
1.161417322834645
 20
3.228346456692913
 30
0.0
 11
-1.194881889763779
 21
2.508858267716536
 31
0.0
  0
LINE
  5
2578
330
1E
100
AcDbEntity
  8
7
100
AcDbLine
 10
0.686023622047244
 20
2.877952755905512
 30
0.0
 11
0.6889763779527556
 21
2.875984251968504
 31
0.0
  0
LINE
  5
2579
330
1E
100
AcDbEntity
  8
7
100
AcDbLine
 10
0.6889763779527556
 20
2.875984251968504
 30
0.0
 11
0.6919291338582676
 21
2.868110236220473
 31
0.0
  0
LINE
  5
257A
330
1E
100
AcDbEntity
  8
7
100
AcDbLine
 10
0.6919291338582676
 20
2.868110236220473
 30
0.0
 11
0.6948818897637792
 21
2.857283464566929
 31
0.0
  0
LINE
  5
257B
330
1E
100
AcDbEntity
  8
7
100
AcDbLine
 10
-0.3553149606299213
 20
2.56003937007874
 30
0.0
 11
-0.3523622047244097
 21
2.557086614173228
 31
0.0
  0
LINE
  5
257C
330
1E
100
AcDbEntity
  8
7
100
AcDbLine
 10
-0.3523622047244097
 20
2.557086614173228
 30
0.0
 11
-0.3494094488188977
 21
2.549212598425197
 31
0.0
  0
LINE
  5
257D
330
1E
100
AcDbEntity
  8
7
100
AcDbLine
 10
-0.3494094488188977
 20
2.549212598425197
 30
0.0
 11
-0.3474409448818898
 21
2.538385826771653
 31
0.0
  0
LINE
  5
257E
330
1E
100
AcDbEntity
  8
7
100
AcDbLine
 10
0.1653543307086611
 20
2.718503937007874
 30
0.0
 11
0.1683070866141731
 21
2.716535433070866
 31
0.0
  0
LINE
  5
257F
330
1E
100
AcDbEntity
  8
7
100
AcDbLine
 10
0.1683070866141731
 20
2.716535433070866
 30
0.0
 11
0.1712598425196847
 21
2.708661417322835
 31
0.0
  0
LINE
  5
2580
330
1E
100
AcDbEntity
  8
7
100
AcDbLine
 10
0.1712598425196847
 20
2.708661417322835
 30
0.0
 11
0.1742125984251968
 21
2.697834645669291
 31
0.0
  0
LINE
  5
2581
330
1E
100
AcDbEntity
  8
7
100
AcDbLine
 10
0.125
 20
2.207677165354331
 30
0.0
 11
0.1230314960629921
 21
2.207677165354331
 31
0.0
  0
LINE
  5
2582
330
1E
100
AcDbEntity
  8
7
100
AcDbLine
 10
0.1230314960629921
 20
2.207677165354331
 30
0.0
 11
0.1210629921259843
 21
2.207677165354331
 31
0.0
  0
LINE
  5
2583
330
1E
100
AcDbEntity
  8
7
100
AcDbLine
 10
0.1210629921259843
 20
2.207677165354331
 30
0.0
 11
0.1190944881889764
 21
2.207677165354331
 31
0.0
  0
LINE
  5
2584
330
1E
100
AcDbEntity
  8
7
100
AcDbLine
 10
0.1190944881889764
 20
2.207677165354331
 30
0.0
 11
0.1171259842519685
 21
2.207677165354331
 31
0.0
  0
LINE
  5
2585
330
1E
100
AcDbEntity
  8
7
100
AcDbLine
 10
0.1171259842519685
 20
2.207677165354331
 30
0.0
 11
0.1161417322834644
 21
2.208661417322835
 31
0.0
  0
LINE
  5
2586
330
1E
100
AcDbEntity
  8
7
100
AcDbLine
 10
-0.6240157480314963
 20
2.549212598425197
 30
0.0
 11
-0.625
 21
2.5501968503937
 31
0.0
  0
LINE
  5
2587
330
1E
100
AcDbEntity
  8
7
100
AcDbLine
 10
-0.625
 20
2.5501968503937
 30
0.0
 11
-0.625
 21
2.551181102362205
 31
0.0
  0
LINE
  5
2588
330
1E
100
AcDbEntity
  8
7
100
AcDbLine
 10
-0.625
 20
2.551181102362205
 30
0.0
 11
-0.625
 21
2.552165354330709
 31
0.0
  0
LINE
  5
2589
330
1E
100
AcDbEntity
  8
7
100
AcDbLine
 10
-0.625
 20
2.552165354330709
 30
0.0
 11
-0.6240157480314963
 21
2.552165354330709
 31
0.0
  0
LINE
  5
258A
330
1E
100
AcDbEntity
  8
7
100
AcDbLine
 10
-0.6240157480314963
 20
2.552165354330709
 30
0.0
 11
-0.6230314960629922
 21
2.553149606299212
 31
0.0
  0
LINE
  5
258B
330
1E
100
AcDbEntity
  8
7
100
AcDbLine
 10
1.679133858267716
 20
2.686023622047244
 30
0.0
 11
1.680118110236219
 21
2.68503937007874
 31
0.0
  0
LINE
  5
258C
330
1E
100
AcDbEntity
  8
7
100
AcDbLine
 10
1.680118110236219
 20
2.68503937007874
 30
0.0
 11
1.680118110236219
 21
2.684055118110237
 31
0.0
  0
LINE
  5
258D
330
1E
100
AcDbEntity
  8
7
100
AcDbLine
 10
1.680118110236219
 20
2.684055118110237
 30
0.0
 11
1.679133858267716
 21
2.683070866141732
 31
0.0
  0
LINE
  5
258E
330
1E
100
AcDbEntity
  8
7
100
AcDbLine
 10
1.679133858267716
 20
2.683070866141732
 30
0.0
 11
1.678149606299212
 21
2.682086614173228
 31
0.0
  0
LINE
  5
258F
330
1E
100
AcDbEntity
  8
7
100
AcDbLine
 10
0.9301181102362203
 20
3.02755905511811
 30
0.0
 11
0.9320866141732281
 21
3.02755905511811
 31
0.0
  0
LINE
  5
2590
330
1E
100
AcDbEntity
  8
7
100
AcDbLine
 10
0.9320866141732281
 20
3.02755905511811
 30
0.0
 11
0.9340551181102361
 21
3.02755905511811
 31
0.0
  0
LINE
  5
2591
330
1E
100
AcDbEntity
  8
7
100
AcDbLine
 10
0.9340551181102361
 20
3.02755905511811
 30
0.0
 11
0.936023622047244
 21
3.02755905511811
 31
0.0
  0
LINE
  5
2592
330
1E
100
AcDbEntity
  8
7
100
AcDbLine
 10
0.936023622047244
 20
3.02755905511811
 30
0.0
 11
0.9379921259842518
 21
3.02755905511811
 31
0.0
  0
LINE
  5
2593
330
1E
100
AcDbEntity
  8
7
100
AcDbLine
 10
0.9379921259842518
 20
3.02755905511811
 30
0.0
 11
0.9389763779527555
 21
3.02755905511811
 31
0.0
  0
LINE
  5
2594
330
1E
100
AcDbEntity
  8
7
100
AcDbLine
 10
-0.41240157480315
 20
2.542322834645669
 30
0.0
 11
-0.3553149606299213
 21
2.56003937007874
 31
0.0
  0
LINE
  5
2595
330
1E
100
AcDbEntity
  8
7
100
AcDbLine
 10
-0.3553149606299213
 20
2.56003937007874
 30
0.0
 11
-0.3553149606299213
 21
2.656496062992125
 31
0.0
  0
LINE
  5
2596
330
1E
100
AcDbEntity
  8
7
100
AcDbLine
 10
-0.3464566929133861
 20
2.656496062992125
 30
0.0
 11
-0.3474409448818898
 21
2.538385826771653
 31
0.0
  0
LINE
  5
2597
330
1E
100
AcDbEntity
  8
7
100
AcDbLine
 10
-0.3474409448818898
 20
2.538385826771653
 30
0.0
 11
-0.3444881889763782
 21
2.52263779527559
 31
0.0
  0
LINE
  5
2598
330
1E
100
AcDbEntity
  8
7
100
AcDbLine
 10
0.1082677165354329
 20
2.701771653543307
 30
0.0
 11
0.1653543307086611
 21
2.718503937007874
 31
0.0
  0
LINE
  5
2599
330
1E
100
AcDbEntity
  8
7
100
AcDbLine
 10
0.1653543307086611
 20
2.718503937007874
 30
0.0
 11
0.1653543307086611
 21
2.815944881889763
 31
0.0
  0
LINE
  5
259A
330
1E
100
AcDbEntity
  8
7
100
AcDbLine
 10
0.1742125984251968
 20
2.81496062992126
 30
0.0
 11
0.1742125984251968
 21
2.697834645669291
 31
0.0
  0
LINE
  5
259B
330
1E
100
AcDbEntity
  8
7
100
AcDbLine
 10
0.1742125984251968
 20
2.697834645669291
 30
0.0
 11
0.1761811023622046
 21
2.682086614173228
 31
0.0
  0
LINE
  5
259C
330
1E
100
AcDbEntity
  8
7
100
AcDbLine
 10
0.6289370078740158
 20
2.860236220472441
 30
0.0
 11
0.686023622047244
 21
2.877952755905512
 31
0.0
  0
LINE
  5
259D
330
1E
100
AcDbEntity
  8
7
100
AcDbLine
 10
0.686023622047244
 20
2.877952755905512
 30
0.0
 11
0.6870078740157477
 21
2.974409448818898
 31
0.0
  0
LINE
  5
259E
330
1E
100
AcDbEntity
  8
7
100
AcDbLine
 10
0.6870078740157477
 20
2.974409448818898
 30
0.0
 11
0.606299212598425
 21
2.949803149606299
 31
0.0
  0
LINE
  5
259F
330
1E
100
AcDbEntity
  8
7
100
AcDbLine
 10
0.7155511811023621
 20
2.832677165354331
 30
0.0
 11
0.7155511811023621
 21
2.964566929133858
 31
0.0
  0
LINE
  5
25A0
330
1E
100
AcDbEntity
  8
7
100
AcDbLine
 10
0.7155511811023621
 20
2.964566929133858
 30
0.0
 11
0.6948818897637792
 21
2.974409448818898
 31
0.0
  0
LINE
  5
25A1
330
1E
100
AcDbEntity
  8
7
100
AcDbLine
 10
0.6948818897637792
 20
2.974409448818898
 30
0.0
 11
0.6948818897637792
 21
2.857283464566929
 31
0.0
  0
LINE
  5
25A2
330
1E
100
AcDbEntity
  8
7
100
AcDbLine
 10
0.6948818897637792
 20
2.857283464566929
 30
0.0
 11
0.6978346456692912
 21
2.841535433070866
 31
0.0
  0
LINE
  5
25A3
330
1E
100
AcDbEntity
  8
7
100
AcDbLine
 10
0.9350393700787398
 20
2.896653543307087
 30
0.0
 11
0.9320866141732281
 21
2.970472440944882
 31
0.0
  0
LINE
  5
25A4
330
1E
100
AcDbEntity
  8
7
100
AcDbLine
 10
0.9320866141732281
 20
2.970472440944882
 30
0.0
 11
0.9301181102362203
 21
3.02755905511811
 31
0.0
  0
LINE
  5
25A5
330
1E
100
AcDbEntity
  8
7
100
AcDbLine
 10
-0.127952755905512
 20
2.442913385826772
 30
0.0
 11
-0.1338582677165356
 21
2.570866141732284
 31
0.0
  0
LINE
  5
25A6
330
1E
100
AcDbEntity
  8
7
100
AcDbLine
 10
-0.1338582677165356
 20
2.570866141732284
 30
0.0
 11
-0.3179133858267717
 21
2.514763779527559
 31
0.0
  0
LINE
  5
25A7
330
1E
100
AcDbEntity
  8
7
100
AcDbLine
 10
-0.3257874015748032
 20
2.514763779527559
 30
0.0
 11
-0.3444881889763782
 21
2.52263779527559
 31
0.0
  0
LINE
  5
25A8
330
1E
100
AcDbEntity
  8
7
100
AcDbLine
 10
-0.3444881889763782
 20
2.52263779527559
 30
0.0
 11
-0.4114173228346459
 21
2.502952755905512
 31
0.0
  0
LINE
  5
25A9
330
1E
100
AcDbEntity
  8
7
100
AcDbLine
 10
0.1948818897637792
 20
2.674212598425197
 30
0.0
 11
0.1761811023622046
 21
2.682086614173228
 31
0.0
  0
LINE
  5
25AA
330
1E
100
AcDbEntity
  8
7
100
AcDbLine
 10
0.1761811023622046
 20
2.682086614173228
 30
0.0
 11
0.1092519685039366
 21
2.661417322834646
 31
0.0
  0
LINE
  5
25AB
330
1E
100
AcDbEntity
  8
7
100
AcDbLine
 10
1.679133858267716
 20
2.684055118110237
 30
0.0
 11
1.679133858267716
 21
2.686023622047244
 31
0.0
  0
LINE
  5
25AC
330
1E
100
AcDbEntity
  8
7
100
AcDbLine
 10
1.679133858267716
 20
2.686023622047244
 30
0.0
 11
0.9389763779527555
 21
3.02755905511811
 31
0.0
  0
LINE
  5
25AD
330
1E
100
AcDbEntity
  8
7
100
AcDbLine
 10
0.9389763779527555
 20
3.02755905511811
 30
0.0
 11
0.9370078740157477
 21
2.954724409448819
 31
0.0
  0
LINE
  5
25AE
330
1E
100
AcDbEntity
  8
7
100
AcDbLine
 10
0.9370078740157477
 20
2.954724409448819
 30
0.0
 11
0.9350393700787398
 21
2.896653543307087
 31
0.0
  0
LINE
  5
25AF
330
1E
100
AcDbEntity
  8
7
100
AcDbLine
 10
0.9350393700787398
 20
2.896653543307087
 30
0.0
 11
0.963582677165354
 21
2.883858267716536
 31
0.0
  0
LINE
  5
25B0
330
1E
100
AcDbEntity
  8
7
100
AcDbLine
 10
0.963582677165354
 20
2.883858267716536
 30
0.0
 11
0.96259842519685
 21
2.760826771653543
 31
0.0
  0
LINE
  5
25B1
330
1E
100
AcDbEntity
  8
7
100
AcDbLine
 10
1.359251968503936
 20
2.565944881889763
 30
0.0
 11
1.338582677165354
 21
2.575787401574803
 31
0.0
  0
LINE
  5
25B2
330
1E
100
AcDbEntity
  8
7
100
AcDbLine
 10
1.338582677165354
 20
2.575787401574803
 30
0.0
 11
1.33759842519685
 21
2.557086614173228
 31
0.0
  0
LINE
  5
25B3
330
1E
100
AcDbEntity
  8
7
100
AcDbLine
 10
0.5826771653543306
 20
2.325787401574803
 30
0.0
 11
0.5826771653543306
 21
2.328740157480315
 31
0.0
  0
LINE
  5
25B4
330
1E
100
AcDbEntity
  8
7
100
AcDbLine
 10
0.5826771653543306
 20
2.328740157480315
 30
0.0
 11
0.5620078740157477
 21
2.338582677165354
 31
0.0
  0
LINE
  5
25B5
330
1E
100
AcDbEntity
  8
7
100
AcDbLine
 10
0.5620078740157477
 20
2.338582677165354
 30
0.0
 11
0.561023622047244
 21
2.319881889763779
 31
0.0
  0
LINE
  5
25B6
330
1E
100
AcDbEntity
  8
7
100
AcDbLine
 10
-1.346456692913386
 20
2.473425196850394
 30
0.0
 11
-1.36515748031496
 21
2.459645669291338
 31
0.0
  0
LINE
  5
25B7
330
1E
100
AcDbEntity
  8
7
100
AcDbLine
 10
-1.36515748031496
 20
2.459645669291338
 30
0.0
 11
-1.381889763779527
 21
2.442913385826772
 31
0.0
  0
LINE
  5
25B8
330
1E
100
AcDbEntity
  8
7
100
AcDbLine
 10
-1.381889763779527
 20
2.442913385826772
 30
0.0
 11
-1.395669291338582
 21
2.423228346456693
 31
0.0
  0
LINE
  5
25B9
330
1E
100
AcDbEntity
  8
7
100
AcDbLine
 10
-1.395669291338582
 20
2.423228346456693
 30
0.0
 11
-1.403543307086614
 21
2.408464566929134
 31
0.0
  0
LINE
  5
25BA
330
1E
100
AcDbEntity
  8
7
100
AcDbLine
 10
-1.403543307086614
 20
2.408464566929134
 30
0.0
 11
-1.409448818897637
 21
2.392716535433071
 31
0.0
  0
LINE
  5
25BB
330
1E
100
AcDbEntity
  8
7
100
AcDbLine
 10
-1.409448818897637
 20
2.392716535433071
 30
0.0
 11
-1.412401574803149
 21
2.375984251968504
 31
0.0
  0
LINE
  5
25BC
330
1E
100
AcDbEntity
  8
7
100
AcDbLine
 10
-1.412401574803149
 20
2.375984251968504
 30
0.0
 11
-1.414370078740157
 21
2.359251968503937
 31
0.0
  0
LINE
  5
25BD
330
1E
100
AcDbEntity
  8
7
100
AcDbLine
 10
-1.28248031496063
 20
2.501968503937008
 30
0.0
 11
-1.290354330708661
 21
2.5
 31
0.0
  0
LINE
  5
25BE
330
1E
100
AcDbEntity
  8
7
100
AcDbLine
 10
-1.290354330708661
 20
2.5
 30
0.0
 11
-1.307086614173228
 21
2.494094488188976
 31
0.0
  0
LINE
  5
25BF
330
1E
100
AcDbEntity
  8
7
100
AcDbLine
 10
-1.307086614173228
 20
2.494094488188976
 30
0.0
 11
-1.315944881889763
 21
2.490157480314961
 31
0.0
  0
LINE
  5
25C0
330
1E
100
AcDbEntity
  8
7
100
AcDbLine
 10
-1.315944881889763
 20
2.490157480314961
 30
0.0
 11
-1.321850393700787
 21
2.487204724409449
 31
0.0
  0
LINE
  5
25C1
330
1E
100
AcDbEntity
  8
7
100
AcDbLine
 10
-1.321850393700787
 20
2.487204724409449
 30
0.0
 11
-1.328740157480315
 21
2.484251968503937
 31
0.0
  0
LINE
  5
25C2
330
1E
100
AcDbEntity
  8
7
100
AcDbLine
 10
-1.328740157480315
 20
2.484251968503937
 30
0.0
 11
-1.33759842519685
 21
2.479330708661417
 31
0.0
  0
LINE
  5
25C3
330
1E
100
AcDbEntity
  8
7
100
AcDbLine
 10
-1.33759842519685
 20
2.479330708661417
 30
0.0
 11
-1.346456692913386
 21
2.473425196850394
 31
0.0
  0
LINE
  5
25C4
330
1E
100
AcDbEntity
  8
7
100
AcDbLine
 10
1.188976377952756
 20
3.24507874015748
 30
0.0
 11
1.186023622047243
 21
3.246062992125984
 31
0.0
  0
LINE
  5
25C5
330
1E
100
AcDbEntity
  8
7
100
AcDbLine
 10
1.186023622047243
 20
3.246062992125984
 30
0.0
 11
1.180118110236219
 21
3.248031496062992
 31
0.0
  0
LINE
  5
25C6
330
1E
100
AcDbEntity
  8
7
100
AcDbLine
 10
1.180118110236219
 20
3.248031496062992
 30
0.0
 11
1.1751968503937
 21
3.249015748031496
 31
0.0
  0
LINE
  5
25C7
330
1E
100
AcDbEntity
  8
7
100
AcDbLine
 10
1.1751968503937
 20
3.249015748031496
 30
0.0
 11
1.170275590551181
 21
3.249015748031496
 31
0.0
  0
LINE
  5
25C8
330
1E
100
AcDbEntity
  8
7
100
AcDbLine
 10
1.170275590551181
 20
3.249015748031496
 30
0.0
 11
1.163385826771653
 21
3.249015748031496
 31
0.0
  0
LINE
  5
25C9
330
1E
100
AcDbEntity
  8
7
100
AcDbLine
 10
1.163385826771653
 20
3.249015748031496
 30
0.0
 11
1.156496062992125
 21
3.247047244094488
 31
0.0
  0
LINE
  5
25CA
330
1E
100
AcDbEntity
  8
7
100
AcDbLine
 10
2.468503937007873
 20
2.562992125984252
 30
0.0
 11
2.466535433070866
 21
2.585629921259842
 31
0.0
  0
LINE
  5
25CB
330
1E
100
AcDbEntity
  8
7
100
AcDbLine
 10
2.466535433070866
 20
2.585629921259842
 30
0.0
 11
2.461614173228345
 21
2.604330708661417
 31
0.0
  0
LINE
  5
25CC
330
1E
100
AcDbEntity
  8
7
100
AcDbLine
 10
2.461614173228345
 20
2.604330708661417
 30
0.0
 11
2.454724409448818
 21
2.62007874015748
 31
0.0
  0
LINE
  5
25CD
330
1E
100
AcDbEntity
  8
7
100
AcDbLine
 10
2.454724409448818
 20
2.62007874015748
 30
0.0
 11
2.447834645669291
 21
2.633858267716536
 31
0.0
  0
LINE
  5
25CE
330
1E
100
AcDbEntity
  8
7
100
AcDbLine
 10
2.447834645669291
 20
2.633858267716536
 30
0.0
 11
2.437992125984251
 21
2.646653543307087
 31
0.0
  0
LINE
  5
25CF
330
1E
100
AcDbEntity
  8
7
100
AcDbLine
 10
2.437992125984251
 20
2.646653543307087
 30
0.0
 11
2.429133858267716
 21
2.65748031496063
 31
0.0
  0
LINE
  5
25D0
330
1E
100
AcDbEntity
  8
7
100
AcDbLine
 10
2.429133858267716
 20
2.65748031496063
 30
0.0
 11
2.419291338582677
 21
2.667322834645669
 31
0.0
  0
LINE
  5
25D1
330
1E
100
AcDbEntity
  8
7
100
AcDbLine
 10
2.419291338582677
 20
2.667322834645669
 30
0.0
 11
2.411417322834645
 21
2.674212598425197
 31
0.0
  0
LINE
  5
25D2
330
1E
100
AcDbEntity
  8
7
100
AcDbLine
 10
2.411417322834645
 20
2.674212598425197
 30
0.0
 11
2.403543307086614
 21
2.680118110236221
 31
0.0
  0
LINE
  5
25D3
330
1E
100
AcDbEntity
  8
7
100
AcDbLine
 10
2.403543307086614
 20
2.680118110236221
 30
0.0
 11
2.395669291338582
 21
2.68503937007874
 31
0.0
  0
LINE
  5
25D4
330
1E
100
AcDbEntity
  8
7
100
AcDbLine
 10
2.395669291338582
 20
2.68503937007874
 30
0.0
 11
2.387795275590551
 21
2.68996062992126
 31
0.0
  0
LINE
  5
25D5
330
1E
100
AcDbEntity
  8
7
100
AcDbLine
 10
2.387795275590551
 20
2.68996062992126
 30
0.0
 11
2.376968503937007
 21
2.696850393700787
 31
0.0
  0
ENDSEC
  0
SECTION
  2
OBJECTS
  0
DICTIONARY
  5
C
330
0
100
AcDbDictionary
  3
ACAD_GROUP
350
D
  3
ACAD_LAYOUT
350
19
  3
ACAD_MLINESTYLE
350
16
  3
ACAD_PLOTSETTINGS
350
18
1001
ACAD
1000
TREAT_AS_HARD
1070
     0
  0
DICTIONARY
  5
363B
330
1E
100
AcDbDictionary
  3
ACAD_LAYOUTSELFREF
350
36A5
1001
ACAD
1000
TREAT_AS_HARD
1070
     1
  0
DICTIONARY
  5
363D
330
1A
100
AcDbDictionary
  3
ACAD_LAYOUTSELFREF
350
36A4
1001
ACAD
1000
TREAT_AS_HARD
1070
     1
  0
DICTIONARY
  5
D
102
{ACAD_REACTORS
330
C
102
}
330
C
100
AcDbDictionary
1001
ACAD
1000
TREAT_AS_HARD
1070
     0
  0
DICTIONARY
  5
19
102
{ACAD_REACTORS
330
C
102
}
330
C
100
AcDbDictionary
1001
ACAD
1000
TREAT_AS_HARD
1070
     0
  0
DICTIONARY
  5
16
102
{ACAD_REACTORS
330
C
102
}
330
C
100
AcDbDictionary
  3
STANDARD
350
17
1001
ACAD
1000
TREAT_AS_HARD
1070
     0
  0
DICTIONARY
  5
18
102
{ACAD_REACTORS
330
C
102
}
330
C
100
AcDbDictionary
1001
ACAD
1000
TREAT_AS_HARD
1070
     0
  0
XRECORD
  5
36A5
102
{ACAD_REACTORS
330
363B
102
}
330
363B
100
AcDbXrecord
340
1E
  0
XRECORD
  5
36A4
102
{ACAD_REACTORS
330
363D
102
}
330
363D
100
AcDbXrecord
340
1A
  0
MLINESTYLE
  5
17
102
{ACAD_REACTORS
330
16
102
}
330
16
100
AcDbMlineStyle
  2
STANDARD
 70
     0
  3

 62
   256
 51
90.0
 52
90.0
 71
     2
 49
0.5
 62
   256
  6
BYLAYER
 49
-0.5
 62
   256
  6
BYLAYER
  0
ENDSEC
  0
EOF
