  0
SECTION
  2
HEADER
  9
$ACADVER
  1
AC1012
  9
$DWGCODEPAGE
  3
ANSI_1252
  9
$INSBASE
 10
0.0
 20
0.0
 30
0.0
  9
$EXTMIN
 10
0.7567749311644292
 20
2.951614404273701
 30
-0.0000000349181948
  9
$EXTMAX
 10
6.032959005368127
 20
7.020675677830208
 30
0.0000000814935746
  9
$LIMMIN
 10
0.0
 20
0.0
  9
$LIMMAX
 10
12.0
 20
9.0
  9
$ORTHOMODE
 70
     0
  9
$REGENMODE
 70
     1
  9
$FILLMODE
 70
     1
  9
$QTEXTMODE
 70
     0
  9
$MIRRTEXT
 70
     1
  9
$DRAGMODE
 70
     2
  9
$LTSCALE
 40
1.0
  9
$OSMODE
 70
    33
  9
$ATTMODE
 70
     1
  9
$TEXTSIZE
 40
0.2
  9
$TRACEWID
 40
0.05
  9
$TEXTSTYLE
  7
STANDARD
  9
$CLAYER
  8
0
  9
$CELTYPE
  6
BYLAYER
  9
$CECOLOR
 62
   256
  9
$CELTSCALE
 40
1.0
  9
$DELOBJ
 70
     1
  9
$DISPSILH
 70
     0
  9
$DIMSCALE
 40
1.0
  9
$DIMASZ
 40
0.18
  9
$DIMEXO
 40
0.0625
  9
$DIMDLI
 40
0.38
  9
$DIMRND
 40
0.0
  9
$DIMDLE
 40
0.0
  9
$DIMEXE
 40
0.18
  9
$DIMTP
 40
0.0
  9
$DIMTM
 40
0.0
  9
$DIMTXT
 40
0.18
  9
$DIMCEN
 40
0.09
  9
$DIMTSZ
 40
0.0
  9
$DIMTOL
 70
     0
  9
$DIMLIM
 70
     0
  9
$DIMTIH
 70
     1
  9
$DIMTOH
 70
     1
  9
$DIMSE1
 70
     0
  9
$DIMSE2
 70
     0
  9
$DIMTAD
 70
     0
  9
$DIMZIN
 70
     0
  9
$DIMBLK
  1

  9
$DIMASO
 70
     1
  9
$DIMSHO
 70
     1
  9
$DIMPOST
  1

  9
$DIMAPOST
  1

  9
$DIMALT
 70
     0
  9
$DIMALTD
 70
     2
  9
$DIMALTF
 40
25.4
  9
$DIMLFAC
 40
1.0
  9
$DIMTOFL
 70
     0
  9
$DIMTVP
 40
0.0
  9
$DIMTIX
 70
     0
  9
$DIMSOXD
 70
     0
  9
$DIMSAH
 70
     0
  9
$DIMBLK1
  1

  9
$DIMBLK2
  1

  9
$DIMSTYLE
  2
STANDARD
  9
$DIMCLRD
 70
     0
  9
$DIMCLRE
 70
     0
  9
$DIMCLRT
 70
     0
  9
$DIMTFAC
 40
1.0
  9
$DIMGAP
 40
0.09
  9
$DIMJUST
 70
     0
  9
$DIMSD1
 70
     0
  9
$DIMSD2
 70
     0
  9
$DIMTOLJ
 70
     1
  9
$DIMTZIN
 70
     0
  9
$DIMALTZ
 70
     0
  9
$DIMALTTZ
 70
     0
  9
$DIMFIT
 70
     5
  9
$DIMUPT
 70
     0
  9
$DIMUNIT
 70
     2
  9
$DIMDEC
 70
     4
  9
$DIMTDEC
 70
     4
  9
$DIMALTU
 70
     2
  9
$DIMALTTD
 70
     2
  9
$DIMTXSTY
  7
STANDARD
  9
$DIMAUNIT
 70
     0
  9
$LUNITS
 70
     2
  9
$LUPREC
 70
     4
  9
$SKETCHINC
 40
0.1
  9
$FILLETRAD
 40
0.0
  9
$AUNITS
 70
     0
  9
$AUPREC
 70
     0
  9
$MENU
  1
acad
  9
$ELEVATION
 40
0.0
  9
$PELEVATION
 40
0.0
  9
$THICKNESS
 40
0.0
  9
$LIMCHECK
 70
     0
  9
$BLIPMODE
 70
     0
  9
$CHAMFERA
 40
0.0
  9
$CHAMFERB
 40
0.0
  9
$CHAMFERC
 40
0.0
  9
$CHAMFERD
 40
0.0
  9
$SKPOLY
 70
     0
  9
$TDCREATE
 40
2452221.588599537
  9
$TDUPDATE
 40
2452338.588164652
  9
$TDINDWG
 40
0.0024426852
  9
$TDUSRTIMER
 40
0.0024426852
  9
$USRTIMER
 70
     1
  9
$ANGBASE
 50
0.0
  9
$ANGDIR
 70
     0
  9
$PDMODE
 70
     0
  9
$PDSIZE
 40
0.0
  9
$PLINEWID
 40
0.0
  9
$COORDS
 70
     2
  9
$SPLFRAME
 70
     0
  9
$SPLINETYPE
 70
     6
  9
$SPLINESEGS
 70
     8
  9
$ATTDIA
 70
     0
  9
$ATTREQ
 70
     1
  9
$HANDLING
 70
  4097
  9
$HANDSEED
  5
4721
  9
$SURFTAB1
 70
     6
  9
$SURFTAB2
 70
     6
  9
$SURFTYPE
 70
     6
  9
$SURFU
 70
     6
  9
$SURFV
 70
     6
  9
$UCSNAME
  2

  9
$UCSORG
 10
0.0
 20
0.0
 30
0.0
  9
$UCSXDIR
 10
1.0
 20
0.0
 30
0.0
  9
$UCSYDIR
 10
0.0
 20
1.0
 30
0.0
  9
$PUCSNAME
  2

  9
$PUCSORG
 10
0.0
 20
0.0
 30
0.0
  9
$PUCSXDIR
 10
1.0
 20
0.0
 30
0.0
  9
$PUCSYDIR
 10
0.0
 20
1.0
 30
0.0
  9
$USERI1
 70
     0
  9
$USERI2
 70
     0
  9
$USERI3
 70
     0
  9
$USERI4
 70
     0
  9
$USERI5
 70
     0
  9
$USERR1
 40
0.0
  9
$USERR2
 40
0.0
  9
$USERR3
 40
0.0
  9
$USERR4
 40
0.0
  9
$USERR5
 40
0.0
  9
$WORLDVIEW
 70
     1
  9
$SHADEDGE
 70
     3
  9
$SHADEDIF
 70
    70
  9
$TILEMODE
 70
     1
  9
$MAXACTVP
 70
    16
  9
$PINSBASE
 10
0.0
 20
0.0
 30
0.0
  9
$PLIMCHECK
 70
     0
  9
$PEXTMIN
 10
1.000000000000000E+20
 20
1.000000000000000E+20
 30
1.000000000000000E+20
  9
$PEXTMAX
 10
-1.000000000000000E+20
 20
-1.000000000000000E+20
 30
-1.000000000000000E+20
  9
$PLIMMIN
 10
0.0
 20
0.0
  9
$PLIMMAX
 10
12.0
 20
9.0
  9
$UNITMODE
 70
     0
  9
$VISRETAIN
 70
     0
  9
$PLINEGEN
 70
     0
  9
$PSLTSCALE
 70
     1
  9
$TREEDEPTH
 70
  3020
  9
$PICKSTYLE
 70
     1
  9
$CMLSTYLE
  2
STANDARD
  9
$CMLJUST
 70
     0
  9
$CMLSCALE
 40
1.0
  9
$SAVEIMAGES
 70
     1
  0
ENDSEC
  0
SECTION
  2
CLASSES
  0
CLASS
  1
ACDBDICTIONARYWDFLT
  2
AcDbDictionaryWithDefault
  3
AutoCAD 2000
 90
    32768
280
     0
281
     0
  0
CLASS
  1
ACDBPLACEHOLDER
  2
AcDbPlaceHolder
  3
AutoCAD 2000
 90
    32768
280
     0
281
     0
  0
CLASS
  1
LAYOUT
  2
AcDbLayout
  3
AutoCAD 2000
 90
    32768
280
     0
281
     0
  0
CLASS
  1
LONG_TRANSACTION
  2
AcDbLongTransaction
  3
AutoCAD 2000
 90
    32768
280
     0
281
     0
  0
CLASS
  1
LWPOLYLINE
  2
AcDbPolyline
  3
AutoCAD 2000
 90
    32768
280
     0
281
     1
  0
CLASS
  1
HATCH
  2
AcDbHatch
  3
AutoCAD 2000
 90
    32768
280
     0
281
     1
  0
CLASS
  1
XRECORD
  2
AcDbXrecord
  3
AutoCAD 2000
 90
    32768
280
     0
281
     0
  0
CLASS
  1
LONG_TRANSACTION
  2
AcDbLongTransaction
  3
AutoCAD 2000
 90
    32768
280
     0
281
     0
  0
CLASS
  1
LWPOLYLINE
  2
AcDbPolyline
  3
AutoCAD 2000
 90
    32768
280
     0
281
     1
  0
CLASS
  1
HATCH
  2
AcDbHatch
  3
AutoCAD 2000
 90
    32768
280
     0
281
     1
  0
CLASS
  1
XRECORD
  2
AcDbXrecord
  3
AutoCAD 2000
 90
    32768
280
     0
281
     0
  0
ENDSEC
  0
SECTION
  2
TABLES
  0
TABLE
  2
VPORT
  5
8
330
0
100
AcDbSymbolTable
 70
     3
  0
VPORT
  5
471E
330
8
100
AcDbSymbolTableRecord
100
AcDbViewportTableRecord
  2
*ACTIVE
 70
     0
 10
0.0
 20
0.0
 11
1.0
 21
1.0
 12
3.394866968266278
 22
4.986145041051955
 13
0.0
 23
0.0
 14
1.0
 24
1.0
 15
0.0
 25
0.0
 16
0.0
 26
0.0
 36
1.0
 17
0.0
 27
0.0
 37
0.0
 40
4.101101126104195
 41
1.601839684625492
 42
50.0
 43
0.0
 44
0.0
 50
0.0
 51
0.0
 71
     0
 72
   100
 73
     1
 74
     1
 75
     0
 76
     0
 77
     0
 78
     0
  0
ENDTAB
  0
TABLE
  2
LTYPE
  5
5
330
0
100
AcDbSymbolTable
 70
    25
  0
LTYPE
  5
13
330
5
100
AcDbSymbolTableRecord
100
AcDbLinetypeTableRecord
  2
BYBLOCK
 70
     0
  3

 72
    65
 73
     0
 40
0.0
  0
LTYPE
  5
14
330
5
100
AcDbSymbolTableRecord
100
AcDbLinetypeTableRecord
  2
BYLAYER
 70
     0
  3

 72
    65
 73
     0
 40
0.0
  0
LTYPE
  5
15
330
5
100
AcDbSymbolTableRecord
100
AcDbLinetypeTableRecord
  2
CONTINUOUS
 70
     0
  3
Solid line
 72
    65
 73
     0
 40
0.0
  0
LTYPE
  5
22
330
5
100
AcDbSymbolTableRecord
100
AcDbLinetypeTableRecord
  2
BORDER
 70
     0
  3
__ __ . __ __ . __ __ . __ __ . __ __ . __ __ .
 72
    65
 73
     6
 40
1.75
 49
0.5
 74
     0
 49
-0.25
 74
     0
 49
0.5
 74
     0
 49
-0.25
 74
     0
 49
0.5
 74
     0
 49
-0.25
 74
     0
  0
LTYPE
  5
23
330
5
100
AcDbSymbolTableRecord
100
AcDbLinetypeTableRecord
  2
BORDER2
 70
     0
  3
__.__.__.__.__.__.__.__.__.__.__.__.__.__.__.__
 72
    65
 73
     6
 40
0.875
 49
0.25
 74
     0
 49
-0.125
 74
     0
 49
0.25
 74
     0
 49
-0.125
 74
     0
 49
0.25
 74
     0
 49
-0.125
 74
     0
  0
LTYPE
  5
24
330
5
100
AcDbSymbolTableRecord
100
AcDbLinetypeTableRecord
  2
BORDERX2
 70
     0
  3
____  ____  .  ____  ____  .  
 72
    65
 73
     6
 40
3.5
 49
1.0
 74
     0
 49
-0.5
 74
     0
 49
1.0
 74
     0
 49
-0.5
 74
     0
 49
1.0
 74
     0
 49
-0.5
 74
     0
  0
LTYPE
  5
25
330
5
100
AcDbSymbolTableRecord
100
AcDbLinetypeTableRecord
  2
CENTER
 70
     0
  3
____ _ ____ _ ____ _ ____ _ ____ _ ____ _ ____
 72
    65
 73
     4
 40
2.0
 49
1.25
 74
     0
 49
-0.25
 74
     0
 49
0.25
 74
     0
 49
-0.25
 74
     0
  0
LTYPE
  5
26
330
5
100
AcDbSymbolTableRecord
100
AcDbLinetypeTableRecord
  2
CENTER2
 70
     0
  3
____ _ ____ _ ____ _ ____ _ ____ _ ____ _ ____
 72
    65
 73
     4
 40
1.125
 49
0.75
 74
     0
 49
-0.125
 74
     0
 49
0.125
 74
     0
 49
-0.125
 74
     0
  0
LTYPE
  5
27
330
5
100
AcDbSymbolTableRecord
100
AcDbLinetypeTableRecord
  2
CENTERX2
 70
     0
  3
________  __  ________  __  ________  __  
 72
    65
 73
     4
 40
4.0
 49
2.5
 74
     0
 49
-0.5
 74
     0
 49
0.5
 74
     0
 49
-0.5
 74
     0
  0
LTYPE
  5
28
330
5
100
AcDbSymbolTableRecord
100
AcDbLinetypeTableRecord
  2
DASHDOT
 70
     0
  3
__ . __ . __ . __ . __ . __ . __ . 
 72
    65
 73
     4
 40
1.0
 49
0.5
 74
     0
 49
-0.25
 74
     0
 49
0.0
 74
     0
 49
-0.25
 74
     0
  0
LTYPE
  5
29
330
5
100
AcDbSymbolTableRecord
100
AcDbLinetypeTableRecord
  2
DASHDOT2
 70
     0
  3
_._._._._._._._._._._._._._._._.
 72
    65
 73
     4
 40
0.5
 49
0.25
 74
     0
 49
-0.125
 74
     0
 49
0.0
 74
     0
 49
-0.125
 74
     0
  0
LTYPE
  5
2A
330
5
100
AcDbSymbolTableRecord
100
AcDbLinetypeTableRecord
  2
DASHDOTX2
 70
     0
  3
____  .  ____  .  ____  .  ____  .  
 72
    65
 73
     4
 40
2.0
 49
1.0
 74
     0
 49
-0.5
 74
     0
 49
0.0
 74
     0
 49
-0.5
 74
     0
  0
LTYPE
  5
2B
330
5
100
AcDbSymbolTableRecord
100
AcDbLinetypeTableRecord
  2
DASHED
 70
     0
  3
__ __ __ __ __ __ __ __ __ __ __ __ 
 72
    65
 73
     2
 40
0.75
 49
0.5
 74
     0
 49
-0.25
 74
     0
  0
LTYPE
  5
2C
330
5
100
AcDbSymbolTableRecord
100
AcDbLinetypeTableRecord
  2
DASHED2
 70
     0
  3
_ _ _ _ _ _ _ _ _ _ _ _ _ _ _ _ _ _ 
 72
    65
 73
     2
 40
0.375
 49
0.25
 74
     0
 49
-0.125
 74
     0
  0
LTYPE
  5
2D
330
5
100
AcDbSymbolTableRecord
100
AcDbLinetypeTableRecord
  2
DASHEDX2
 70
     0
  3
____  ____  ____  ____  ____  ____  
 72
    65
 73
     2
 40
1.5
 49
1.0
 74
     0
 49
-0.5
 74
     0
  0
LTYPE
  5
2E
330
5
100
AcDbSymbolTableRecord
100
AcDbLinetypeTableRecord
  2
DIVIDE
 70
     0
  3
____ . . ____ . . ____ . . ____ . . 
 72
    65
 73
     6
 40
1.25
 49
0.5
 74
     0
 49
-0.25
 74
     0
 49
0.0
 74
     0
 49
-0.25
 74
     0
 49
0.0
 74
     0
 49
-0.25
 74
     0
  0
LTYPE
  5
2F
330
5
100
AcDbSymbolTableRecord
100
AcDbLinetypeTableRecord
  2
DIVIDE2
 70
     0
  3
__..__..__..__..__..__..__..__..__..
 72
    65
 73
     6
 40
0.625
 49
0.25
 74
     0
 49
-0.125
 74
     0
 49
0.0
 74
     0
 49
-0.125
 74
     0
 49
0.0
 74
     0
 49
-0.125
 74
     0
  0
LTYPE
  5
30
330
5
100
AcDbSymbolTableRecord
100
AcDbLinetypeTableRecord
  2
DIVIDEX2
 70
     0
  3
________  .  .  ________  .  .  ________  .  . 
 72
    65
 73
     6
 40
2.5
 49
1.0
 74
     0
 49
-0.5
 74
     0
 49
0.0
 74
     0
 49
-0.5
 74
     0
 49
0.0
 74
     0
 49
-0.5
 74
     0
  0
LTYPE
  5
31
330
5
100
AcDbSymbolTableRecord
100
AcDbLinetypeTableRecord
  2
DOT
 70
     0
  3
. . . . . . . . . . . . . . . . . . 
 72
    65
 73
     2
 40
0.25
 49
0.0
 74
     0
 49
-0.25
 74
     0
  0
LTYPE
  5
32
330
5
100
AcDbSymbolTableRecord
100
AcDbLinetypeTableRecord
  2
DOT2
 70
     0
  3
....................................
 72
    65
 73
     2
 40
0.125
 49
0.0
 74
     0
 49
-0.125
 74
     0
  0
LTYPE
  5
33
330
5
100
AcDbSymbolTableRecord
100
AcDbLinetypeTableRecord
  2
DOTX2
 70
     0
  3
.  .  .  .  .  .  .  .  .  .  .  .  .  
 72
    65
 73
     2
 40
0.5
 49
0.0
 74
     0
 49
-0.5
 74
     0
  0
LTYPE
  5
34
330
5
100
AcDbSymbolTableRecord
100
AcDbLinetypeTableRecord
  2
HIDDEN
 70
     0
  3
__ __ __ __ __ __ __ __ __ __ __ __ 
 72
    65
 73
     2
 40
0.375
 49
0.25
 74
     0
 49
-0.125
 74
     0
  0
LTYPE
  5
35
330
5
100
AcDbSymbolTableRecord
100
AcDbLinetypeTableRecord
  2
HIDDEN2
 70
     0
  3
_ _ _ _ _ _ _ _ _ _ _ _ _ _ _ _ _ _ 
 72
    65
 73
     2
 40
0.1875
 49
0.125
 74
     0
 49
-0.0625
 74
     0
  0
LTYPE
  5
36
330
5
100
AcDbSymbolTableRecord
100
AcDbLinetypeTableRecord
  2
HIDDENX2
 70
     0
  3
____ ____ ____ ____ ____ ____ ____ 
 72
    65
 73
     2
 40
0.75
 49
0.5
 74
     0
 49
-0.25
 74
     0
  0
LTYPE
  5
37
330
5
100
AcDbSymbolTableRecord
100
AcDbLinetypeTableRecord
  2
PHANTOM
 70
     0
  3
______  __  __  ______  __  __  
 72
    65
 73
     6
 40
2.5
 49
1.25
 74
     0
 49
-0.25
 74
     0
 49
0.25
 74
     0
 49
-0.25
 74
     0
 49
0.25
 74
     0
 49
-0.25
 74
     0
  0
LTYPE
  5
38
330
5
100
AcDbSymbolTableRecord
100
AcDbLinetypeTableRecord
  2
PHANTOM2
 70
     0
  3
___ _ _ ___ _ _ ___ _ _ ___ _ _ 
 72
    65
 73
     6
 40
1.25
 49
0.625
 74
     0
 49
-0.125
 74
     0
 49
0.125
 74
     0
 49
-0.125
 74
     0
 49
0.125
 74
     0
 49
-0.125
 74
     0
  0
LTYPE
  5
39
330
5
100
AcDbSymbolTableRecord
100
AcDbLinetypeTableRecord
  2
PHANTOMX2
 70
     0
  3
___ _ _ ___ _ _ ___ _ _ ___ _ _ 
 72
    65
 73
     6
 40
5.0
 49
2.5
 74
     0
 49
-0.5
 74
     0
 49
0.5
 74
     0
 49
-0.5
 74
     0
 49
0.5
 74
     0
 49
-0.5
 74
     0
  0
ENDTAB
  0
TABLE
  2
LAYER
  5
2
330
0
100
AcDbSymbolTable
 70
   257
  0
LAYER
  5
10
330
2
100
AcDbSymbolTableRecord
100
AcDbLayerTableRecord
  2
0
 70
     0
 62
     7
  6
CONTINUOUS
  0
LAYER
  5
3A
330
2
100
AcDbSymbolTableRecord
100
AcDbLayerTableRecord
  2
1
 70
     0
 62
     1
  6
CONTINUOUS
  0
LAYER
  5
3B
330
2
100
AcDbSymbolTableRecord
100
AcDbLayerTableRecord
  2
2
 70
     0
 62
     2
  6
CONTINUOUS
  0
LAYER
  5
3C
330
2
100
AcDbSymbolTableRecord
100
AcDbLayerTableRecord
  2
3
 70
     0
 62
     3
  6
CONTINUOUS
  0
LAYER
  5
3D
330
2
100
AcDbSymbolTableRecord
100
AcDbLayerTableRecord
  2
4
 70
     0
 62
     4
  6
CONTINUOUS
  0
LAYER
  5
3E
330
2
100
AcDbSymbolTableRecord
100
AcDbLayerTableRecord
  2
5
 70
     0
 62
     5
  6
CONTINUOUS
  0
LAYER
  5
3F
330
2
100
AcDbSymbolTableRecord
100
AcDbLayerTableRecord
  2
6
 70
     0
 62
     6
  6
CONTINUOUS
  0
LAYER
  5
40
330
2
100
AcDbSymbolTableRecord
100
AcDbLayerTableRecord
  2
7
 70
     0
 62
     7
  6
CONTINUOUS
  0
LAYER
  5
41
330
2
100
AcDbSymbolTableRecord
100
AcDbLayerTableRecord
  2
8
 70
     0
 62
     8
  6
CONTINUOUS
  0
LAYER
  5
42
330
2
100
AcDbSymbolTableRecord
100
AcDbLayerTableRecord
  2
9
 70
     0
 62
     9
  6
CONTINUOUS
  0
LAYER
  5
43
330
2
100
AcDbSymbolTableRecord
100
AcDbLayerTableRecord
  2
10
 70
     0
 62
    10
  6
CONTINUOUS
  0
LAYER
  5
44
330
2
100
AcDbSymbolTableRecord
100
AcDbLayerTableRecord
  2
11
 70
     0
 62
    11
  6
CONTINUOUS
  0
LAYER
  5
45
330
2
100
AcDbSymbolTableRecord
100
AcDbLayerTableRecord
  2
12
 70
     0
 62
    12
  6
CONTINUOUS
  0
LAYER
  5
46
330
2
100
AcDbSymbolTableRecord
100
AcDbLayerTableRecord
  2
13
 70
     0
 62
    13
  6
CONTINUOUS
  0
LAYER
  5
47
330
2
100
AcDbSymbolTableRecord
100
AcDbLayerTableRecord
  2
14
 70
     0
 62
    14
  6
CONTINUOUS
  0
LAYER
  5
48
330
2
100
AcDbSymbolTableRecord
100
AcDbLayerTableRecord
  2
15
 70
     0
 62
    15
  6
CONTINUOUS
  0
LAYER
  5
49
330
2
100
AcDbSymbolTableRecord
100
AcDbLayerTableRecord
  2
16
 70
     0
 62
    16
  6
CONTINUOUS
  0
LAYER
  5
4A
330
2
100
AcDbSymbolTableRecord
100
AcDbLayerTableRecord
  2
17
 70
     0
 62
    17
  6
CONTINUOUS
  0
LAYER
  5
4B
330
2
100
AcDbSymbolTableRecord
100
AcDbLayerTableRecord
  2
18
 70
     0
 62
    18
  6
CONTINUOUS
  0
LAYER
  5
4C
330
2
100
AcDbSymbolTableRecord
100
AcDbLayerTableRecord
  2
19
 70
     0
 62
    19
  6
CONTINUOUS
  0
LAYER
  5
4D
330
2
100
AcDbSymbolTableRecord
100
AcDbLayerTableRecord
  2
20
 70
     0
 62
    20
  6
CONTINUOUS
  0
LAYER
  5
4E
330
2
100
AcDbSymbolTableRecord
100
AcDbLayerTableRecord
  2
21
 70
     0
 62
    21
  6
CONTINUOUS
  0
LAYER
  5
4F
330
2
100
AcDbSymbolTableRecord
100
AcDbLayerTableRecord
  2
22
 70
     0
 62
    22
  6
CONTINUOUS
  0
LAYER
  5
50
330
2
100
AcDbSymbolTableRecord
100
AcDbLayerTableRecord
  2
23
 70
     0
 62
    23
  6
CONTINUOUS
  0
LAYER
  5
51
330
2
100
AcDbSymbolTableRecord
100
AcDbLayerTableRecord
  2
24
 70
     0
 62
    24
  6
CONTINUOUS
  0
LAYER
  5
52
330
2
100
AcDbSymbolTableRecord
100
AcDbLayerTableRecord
  2
25
 70
     0
 62
    25
  6
CONTINUOUS
  0
LAYER
  5
53
330
2
100
AcDbSymbolTableRecord
100
AcDbLayerTableRecord
  2
26
 70
     0
 62
    26
  6
CONTINUOUS
  0
LAYER
  5
54
330
2
100
AcDbSymbolTableRecord
100
AcDbLayerTableRecord
  2
27
 70
     0
 62
    27
  6
CONTINUOUS
  0
LAYER
  5
55
330
2
100
AcDbSymbolTableRecord
100
AcDbLayerTableRecord
  2
28
 70
     0
 62
    28
  6
CONTINUOUS
  0
LAYER
  5
56
330
2
100
AcDbSymbolTableRecord
100
AcDbLayerTableRecord
  2
29
 70
     0
 62
    29
  6
CONTINUOUS
  0
LAYER
  5
57
330
2
100
AcDbSymbolTableRecord
100
AcDbLayerTableRecord
  2
30
 70
     0
 62
    30
  6
CONTINUOUS
  0
LAYER
  5
58
330
2
100
AcDbSymbolTableRecord
100
AcDbLayerTableRecord
  2
31
 70
     0
 62
    31
  6
CONTINUOUS
  0
LAYER
  5
59
330
2
100
AcDbSymbolTableRecord
100
AcDbLayerTableRecord
  2
32
 70
     0
 62
    32
  6
CONTINUOUS
  0
LAYER
  5
5A
330
2
100
AcDbSymbolTableRecord
100
AcDbLayerTableRecord
  2
33
 70
     0
 62
    33
  6
CONTINUOUS
  0
LAYER
  5
5B
330
2
100
AcDbSymbolTableRecord
100
AcDbLayerTableRecord
  2
34
 70
     0
 62
    34
  6
CONTINUOUS
  0
LAYER
  5
5C
330
2
100
AcDbSymbolTableRecord
100
AcDbLayerTableRecord
  2
35
 70
     0
 62
    35
  6
CONTINUOUS
  0
LAYER
  5
5D
330
2
100
AcDbSymbolTableRecord
100
AcDbLayerTableRecord
  2
36
 70
     0
 62
    36
  6
CONTINUOUS
  0
LAYER
  5
5E
330
2
100
AcDbSymbolTableRecord
100
AcDbLayerTableRecord
  2
37
 70
     0
 62
    37
  6
CONTINUOUS
  0
LAYER
  5
5F
330
2
100
AcDbSymbolTableRecord
100
AcDbLayerTableRecord
  2
38
 70
     0
 62
    38
  6
CONTINUOUS
  0
LAYER
  5
60
330
2
100
AcDbSymbolTableRecord
100
AcDbLayerTableRecord
  2
39
 70
     0
 62
    39
  6
CONTINUOUS
  0
LAYER
  5
61
330
2
100
AcDbSymbolTableRecord
100
AcDbLayerTableRecord
  2
40
 70
     0
 62
    40
  6
CONTINUOUS
  0
LAYER
  5
62
330
2
100
AcDbSymbolTableRecord
100
AcDbLayerTableRecord
  2
41
 70
     0
 62
    41
  6
CONTINUOUS
  0
LAYER
  5
63
330
2
100
AcDbSymbolTableRecord
100
AcDbLayerTableRecord
  2
42
 70
     0
 62
    42
  6
CONTINUOUS
  0
LAYER
  5
64
330
2
100
AcDbSymbolTableRecord
100
AcDbLayerTableRecord
  2
43
 70
     0
 62
    43
  6
CONTINUOUS
  0
LAYER
  5
65
330
2
100
AcDbSymbolTableRecord
100
AcDbLayerTableRecord
  2
44
 70
     0
 62
    44
  6
CONTINUOUS
  0
LAYER
  5
66
330
2
100
AcDbSymbolTableRecord
100
AcDbLayerTableRecord
  2
45
 70
     0
 62
    45
  6
CONTINUOUS
  0
LAYER
  5
67
330
2
100
AcDbSymbolTableRecord
100
AcDbLayerTableRecord
  2
46
 70
     0
 62
    46
  6
CONTINUOUS
  0
LAYER
  5
68
330
2
100
AcDbSymbolTableRecord
100
AcDbLayerTableRecord
  2
47
 70
     0
 62
    47
  6
CONTINUOUS
  0
LAYER
  5
69
330
2
100
AcDbSymbolTableRecord
100
AcDbLayerTableRecord
  2
48
 70
     0
 62
    48
  6
CONTINUOUS
  0
LAYER
  5
6A
330
2
100
AcDbSymbolTableRecord
100
AcDbLayerTableRecord
  2
49
 70
     0
 62
    49
  6
CONTINUOUS
  0
LAYER
  5
6B
330
2
100
AcDbSymbolTableRecord
100
AcDbLayerTableRecord
  2
50
 70
     0
 62
    50
  6
CONTINUOUS
  0
LAYER
  5
6C
330
2
100
AcDbSymbolTableRecord
100
AcDbLayerTableRecord
  2
51
 70
     0
 62
    51
  6
CONTINUOUS
  0
LAYER
  5
6D
330
2
100
AcDbSymbolTableRecord
100
AcDbLayerTableRecord
  2
52
 70
     0
 62
    52
  6
CONTINUOUS
  0
LAYER
  5
6E
330
2
100
AcDbSymbolTableRecord
100
AcDbLayerTableRecord
  2
53
 70
     0
 62
    53
  6
CONTINUOUS
  0
LAYER
  5
6F
330
2
100
AcDbSymbolTableRecord
100
AcDbLayerTableRecord
  2
54
 70
     0
 62
    54
  6
CONTINUOUS
  0
LAYER
  5
70
330
2
100
AcDbSymbolTableRecord
100
AcDbLayerTableRecord
  2
55
 70
     0
 62
    55
  6
CONTINUOUS
  0
LAYER
  5
71
330
2
100
AcDbSymbolTableRecord
100
AcDbLayerTableRecord
  2
56
 70
     0
 62
    56
  6
CONTINUOUS
  0
LAYER
  5
72
330
2
100
AcDbSymbolTableRecord
100
AcDbLayerTableRecord
  2
57
 70
     0
 62
    57
  6
CONTINUOUS
  0
LAYER
  5
73
330
2
100
AcDbSymbolTableRecord
100
AcDbLayerTableRecord
  2
58
 70
     0
 62
    58
  6
CONTINUOUS
  0
LAYER
  5
74
330
2
100
AcDbSymbolTableRecord
100
AcDbLayerTableRecord
  2
59
 70
     0
 62
    59
  6
CONTINUOUS
  0
LAYER
  5
75
330
2
100
AcDbSymbolTableRecord
100
AcDbLayerTableRecord
  2
60
 70
     0
 62
    60
  6
CONTINUOUS
  0
LAYER
  5
76
330
2
100
AcDbSymbolTableRecord
100
AcDbLayerTableRecord
  2
61
 70
     0
 62
    61
  6
CONTINUOUS
  0
LAYER
  5
77
330
2
100
AcDbSymbolTableRecord
100
AcDbLayerTableRecord
  2
62
 70
     0
 62
    62
  6
CONTINUOUS
  0
LAYER
  5
78
330
2
100
AcDbSymbolTableRecord
100
AcDbLayerTableRecord
  2
63
 70
     0
 62
    63
  6
CONTINUOUS
  0
LAYER
  5
79
330
2
100
AcDbSymbolTableRecord
100
AcDbLayerTableRecord
  2
64
 70
     0
 62
    64
  6
CONTINUOUS
  0
LAYER
  5
7A
330
2
100
AcDbSymbolTableRecord
100
AcDbLayerTableRecord
  2
65
 70
     0
 62
    65
  6
CONTINUOUS
  0
LAYER
  5
7B
330
2
100
AcDbSymbolTableRecord
100
AcDbLayerTableRecord
  2
66
 70
     0
 62
    66
  6
CONTINUOUS
  0
LAYER
  5
7C
330
2
100
AcDbSymbolTableRecord
100
AcDbLayerTableRecord
  2
67
 70
     0
 62
    67
  6
CONTINUOUS
  0
LAYER
  5
7D
330
2
100
AcDbSymbolTableRecord
100
AcDbLayerTableRecord
  2
68
 70
     0
 62
    68
  6
CONTINUOUS
  0
LAYER
  5
7E
330
2
100
AcDbSymbolTableRecord
100
AcDbLayerTableRecord
  2
69
 70
     0
 62
    69
  6
CONTINUOUS
  0
LAYER
  5
7F
330
2
100
AcDbSymbolTableRecord
100
AcDbLayerTableRecord
  2
70
 70
     0
 62
    70
  6
CONTINUOUS
  0
LAYER
  5
80
330
2
100
AcDbSymbolTableRecord
100
AcDbLayerTableRecord
  2
71
 70
     0
 62
    71
  6
CONTINUOUS
  0
LAYER
  5
81
330
2
100
AcDbSymbolTableRecord
100
AcDbLayerTableRecord
  2
72
 70
     0
 62
    72
  6
CONTINUOUS
  0
LAYER
  5
82
330
2
100
AcDbSymbolTableRecord
100
AcDbLayerTableRecord
  2
73
 70
     0
 62
    73
  6
CONTINUOUS
  0
LAYER
  5
83
330
2
100
AcDbSymbolTableRecord
100
AcDbLayerTableRecord
  2
74
 70
     0
 62
    74
  6
CONTINUOUS
  0
LAYER
  5
84
330
2
100
AcDbSymbolTableRecord
100
AcDbLayerTableRecord
  2
75
 70
     0
 62
    75
  6
CONTINUOUS
  0
LAYER
  5
85
330
2
100
AcDbSymbolTableRecord
100
AcDbLayerTableRecord
  2
76
 70
     0
 62
    76
  6
CONTINUOUS
  0
LAYER
  5
86
330
2
100
AcDbSymbolTableRecord
100
AcDbLayerTableRecord
  2
77
 70
     0
 62
    77
  6
CONTINUOUS
  0
LAYER
  5
87
330
2
100
AcDbSymbolTableRecord
100
AcDbLayerTableRecord
  2
78
 70
     0
 62
    78
  6
CONTINUOUS
  0
LAYER
  5
88
330
2
100
AcDbSymbolTableRecord
100
AcDbLayerTableRecord
  2
79
 70
     0
 62
    79
  6
CONTINUOUS
  0
LAYER
  5
89
330
2
100
AcDbSymbolTableRecord
100
AcDbLayerTableRecord
  2
80
 70
     0
 62
    80
  6
CONTINUOUS
  0
LAYER
  5
8A
330
2
100
AcDbSymbolTableRecord
100
AcDbLayerTableRecord
  2
81
 70
     0
 62
    81
  6
CONTINUOUS
  0
LAYER
  5
8B
330
2
100
AcDbSymbolTableRecord
100
AcDbLayerTableRecord
  2
82
 70
     0
 62
    82
  6
CONTINUOUS
  0
LAYER
  5
8C
330
2
100
AcDbSymbolTableRecord
100
AcDbLayerTableRecord
  2
83
 70
     0
 62
    83
  6
CONTINUOUS
  0
LAYER
  5
8D
330
2
100
AcDbSymbolTableRecord
100
AcDbLayerTableRecord
  2
84
 70
     0
 62
    84
  6
CONTINUOUS
  0
LAYER
  5
8E
330
2
100
AcDbSymbolTableRecord
100
AcDbLayerTableRecord
  2
85
 70
     0
 62
    85
  6
CONTINUOUS
  0
LAYER
  5
8F
330
2
100
AcDbSymbolTableRecord
100
AcDbLayerTableRecord
  2
86
 70
     0
 62
    86
  6
CONTINUOUS
  0
LAYER
  5
90
330
2
100
AcDbSymbolTableRecord
100
AcDbLayerTableRecord
  2
87
 70
     0
 62
    87
  6
CONTINUOUS
  0
LAYER
  5
91
330
2
100
AcDbSymbolTableRecord
100
AcDbLayerTableRecord
  2
88
 70
     0
 62
    88
  6
CONTINUOUS
  0
LAYER
  5
92
330
2
100
AcDbSymbolTableRecord
100
AcDbLayerTableRecord
  2
89
 70
     0
 62
    89
  6
CONTINUOUS
  0
LAYER
  5
93
330
2
100
AcDbSymbolTableRecord
100
AcDbLayerTableRecord
  2
90
 70
     0
 62
    90
  6
CONTINUOUS
  0
LAYER
  5
94
330
2
100
AcDbSymbolTableRecord
100
AcDbLayerTableRecord
  2
91
 70
     0
 62
    91
  6
CONTINUOUS
  0
LAYER
  5
95
330
2
100
AcDbSymbolTableRecord
100
AcDbLayerTableRecord
  2
92
 70
     0
 62
    92
  6
CONTINUOUS
  0
LAYER
  5
96
330
2
100
AcDbSymbolTableRecord
100
AcDbLayerTableRecord
  2
93
 70
     0
 62
    93
  6
CONTINUOUS
  0
LAYER
  5
97
330
2
100
AcDbSymbolTableRecord
100
AcDbLayerTableRecord
  2
94
 70
     0
 62
    94
  6
CONTINUOUS
  0
LAYER
  5
98
330
2
100
AcDbSymbolTableRecord
100
AcDbLayerTableRecord
  2
95
 70
     0
 62
    95
  6
CONTINUOUS
  0
LAYER
  5
99
330
2
100
AcDbSymbolTableRecord
100
AcDbLayerTableRecord
  2
96
 70
     0
 62
    96
  6
CONTINUOUS
  0
LAYER
  5
9A
330
2
100
AcDbSymbolTableRecord
100
AcDbLayerTableRecord
  2
97
 70
     0
 62
    97
  6
CONTINUOUS
  0
LAYER
  5
9B
330
2
100
AcDbSymbolTableRecord
100
AcDbLayerTableRecord
  2
98
 70
     0
 62
    98
  6
CONTINUOUS
  0
LAYER
  5
9C
330
2
100
AcDbSymbolTableRecord
100
AcDbLayerTableRecord
  2
99
 70
     0
 62
    99
  6
CONTINUOUS
  0
LAYER
  5
9D
330
2
100
AcDbSymbolTableRecord
100
AcDbLayerTableRecord
  2
100
 70
     0
 62
   100
  6
CONTINUOUS
  0
LAYER
  5
9E
330
2
100
AcDbSymbolTableRecord
100
AcDbLayerTableRecord
  2
101
 70
     0
 62
   101
  6
CONTINUOUS
  0
LAYER
  5
9F
330
2
100
AcDbSymbolTableRecord
100
AcDbLayerTableRecord
  2
102
 70
     0
 62
   102
  6
CONTINUOUS
  0
LAYER
  5
A0
330
2
100
AcDbSymbolTableRecord
100
AcDbLayerTableRecord
  2
103
 70
     0
 62
   103
  6
CONTINUOUS
  0
LAYER
  5
A1
330
2
100
AcDbSymbolTableRecord
100
AcDbLayerTableRecord
  2
104
 70
     0
 62
   104
  6
CONTINUOUS
  0
LAYER
  5
A2
330
2
100
AcDbSymbolTableRecord
100
AcDbLayerTableRecord
  2
105
 70
     0
 62
   105
  6
CONTINUOUS
  0
LAYER
  5
A3
330
2
100
AcDbSymbolTableRecord
100
AcDbLayerTableRecord
  2
106
 70
     0
 62
   106
  6
CONTINUOUS
  0
LAYER
  5
A4
330
2
100
AcDbSymbolTableRecord
100
AcDbLayerTableRecord
  2
107
 70
     0
 62
   107
  6
CONTINUOUS
  0
LAYER
  5
A5
330
2
100
AcDbSymbolTableRecord
100
AcDbLayerTableRecord
  2
108
 70
     0
 62
   108
  6
CONTINUOUS
  0
LAYER
  5
A6
330
2
100
AcDbSymbolTableRecord
100
AcDbLayerTableRecord
  2
109
 70
     0
 62
   109
  6
CONTINUOUS
  0
LAYER
  5
A7
330
2
100
AcDbSymbolTableRecord
100
AcDbLayerTableRecord
  2
110
 70
     0
 62
   110
  6
CONTINUOUS
  0
LAYER
  5
A8
330
2
100
AcDbSymbolTableRecord
100
AcDbLayerTableRecord
  2
111
 70
     0
 62
   111
  6
CONTINUOUS
  0
LAYER
  5
A9
330
2
100
AcDbSymbolTableRecord
100
AcDbLayerTableRecord
  2
112
 70
     0
 62
   112
  6
CONTINUOUS
  0
LAYER
  5
AA
330
2
100
AcDbSymbolTableRecord
100
AcDbLayerTableRecord
  2
113
 70
     0
 62
   113
  6
CONTINUOUS
  0
LAYER
  5
AB
330
2
100
AcDbSymbolTableRecord
100
AcDbLayerTableRecord
  2
114
 70
     0
 62
   114
  6
CONTINUOUS
  0
LAYER
  5
AC
330
2
100
AcDbSymbolTableRecord
100
AcDbLayerTableRecord
  2
115
 70
     0
 62
   115
  6
CONTINUOUS
  0
LAYER
  5
AD
330
2
100
AcDbSymbolTableRecord
100
AcDbLayerTableRecord
  2
116
 70
     0
 62
   116
  6
CONTINUOUS
  0
LAYER
  5
AE
330
2
100
AcDbSymbolTableRecord
100
AcDbLayerTableRecord
  2
117
 70
     0
 62
   117
  6
CONTINUOUS
  0
LAYER
  5
AF
330
2
100
AcDbSymbolTableRecord
100
AcDbLayerTableRecord
  2
118
 70
     0
 62
   118
  6
CONTINUOUS
  0
LAYER
  5
B0
330
2
100
AcDbSymbolTableRecord
100
AcDbLayerTableRecord
  2
119
 70
     0
 62
   119
  6
CONTINUOUS
  0
LAYER
  5
B1
330
2
100
AcDbSymbolTableRecord
100
AcDbLayerTableRecord
  2
120
 70
     0
 62
   120
  6
CONTINUOUS
  0
LAYER
  5
B2
330
2
100
AcDbSymbolTableRecord
100
AcDbLayerTableRecord
  2
121
 70
     0
 62
   121
  6
CONTINUOUS
  0
LAYER
  5
B3
330
2
100
AcDbSymbolTableRecord
100
AcDbLayerTableRecord
  2
122
 70
     0
 62
   122
  6
CONTINUOUS
  0
LAYER
  5
B4
330
2
100
AcDbSymbolTableRecord
100
AcDbLayerTableRecord
  2
123
 70
     0
 62
   123
  6
CONTINUOUS
  0
LAYER
  5
B5
330
2
100
AcDbSymbolTableRecord
100
AcDbLayerTableRecord
  2
124
 70
     0
 62
   124
  6
CONTINUOUS
  0
LAYER
  5
B6
330
2
100
AcDbSymbolTableRecord
100
AcDbLayerTableRecord
  2
125
 70
     0
 62
   125
  6
CONTINUOUS
  0
LAYER
  5
B7
330
2
100
AcDbSymbolTableRecord
100
AcDbLayerTableRecord
  2
126
 70
     0
 62
   126
  6
CONTINUOUS
  0
LAYER
  5
B8
330
2
100
AcDbSymbolTableRecord
100
AcDbLayerTableRecord
  2
127
 70
     0
 62
   127
  6
CONTINUOUS
  0
LAYER
  5
B9
330
2
100
AcDbSymbolTableRecord
100
AcDbLayerTableRecord
  2
128
 70
     0
 62
   128
  6
CONTINUOUS
  0
LAYER
  5
BA
330
2
100
AcDbSymbolTableRecord
100
AcDbLayerTableRecord
  2
129
 70
     0
 62
   129
  6
CONTINUOUS
  0
LAYER
  5
BB
330
2
100
AcDbSymbolTableRecord
100
AcDbLayerTableRecord
  2
130
 70
     0
 62
   130
  6
CONTINUOUS
  0
LAYER
  5
BC
330
2
100
AcDbSymbolTableRecord
100
AcDbLayerTableRecord
  2
131
 70
     0
 62
   131
  6
CONTINUOUS
  0
LAYER
  5
BD
330
2
100
AcDbSymbolTableRecord
100
AcDbLayerTableRecord
  2
132
 70
     0
 62
   132
  6
CONTINUOUS
  0
LAYER
  5
BE
330
2
100
AcDbSymbolTableRecord
100
AcDbLayerTableRecord
  2
133
 70
     0
 62
   133
  6
CONTINUOUS
  0
LAYER
  5
BF
330
2
100
AcDbSymbolTableRecord
100
AcDbLayerTableRecord
  2
134
 70
     0
 62
   134
  6
CONTINUOUS
  0
LAYER
  5
C0
330
2
100
AcDbSymbolTableRecord
100
AcDbLayerTableRecord
  2
135
 70
     0
 62
   135
  6
CONTINUOUS
  0
LAYER
  5
C1
330
2
100
AcDbSymbolTableRecord
100
AcDbLayerTableRecord
  2
136
 70
     0
 62
   136
  6
CONTINUOUS
  0
LAYER
  5
C2
330
2
100
AcDbSymbolTableRecord
100
AcDbLayerTableRecord
  2
137
 70
     0
 62
   137
  6
CONTINUOUS
  0
LAYER
  5
C3
330
2
100
AcDbSymbolTableRecord
100
AcDbLayerTableRecord
  2
138
 70
     0
 62
   138
  6
CONTINUOUS
  0
LAYER
  5
C4
330
2
100
AcDbSymbolTableRecord
100
AcDbLayerTableRecord
  2
139
 70
     0
 62
   139
  6
CONTINUOUS
  0
LAYER
  5
C5
330
2
100
AcDbSymbolTableRecord
100
AcDbLayerTableRecord
  2
140
 70
     0
 62
   140
  6
CONTINUOUS
  0
LAYER
  5
C6
330
2
100
AcDbSymbolTableRecord
100
AcDbLayerTableRecord
  2
141
 70
     0
 62
   141
  6
CONTINUOUS
  0
LAYER
  5
C7
330
2
100
AcDbSymbolTableRecord
100
AcDbLayerTableRecord
  2
142
 70
     0
 62
   142
  6
CONTINUOUS
  0
LAYER
  5
C8
330
2
100
AcDbSymbolTableRecord
100
AcDbLayerTableRecord
  2
143
 70
     0
 62
   143
  6
CONTINUOUS
  0
LAYER
  5
C9
330
2
100
AcDbSymbolTableRecord
100
AcDbLayerTableRecord
  2
144
 70
     0
 62
   144
  6
CONTINUOUS
  0
LAYER
  5
CA
330
2
100
AcDbSymbolTableRecord
100
AcDbLayerTableRecord
  2
145
 70
     0
 62
   145
  6
CONTINUOUS
  0
LAYER
  5
CB
330
2
100
AcDbSymbolTableRecord
100
AcDbLayerTableRecord
  2
146
 70
     0
 62
   146
  6
CONTINUOUS
  0
LAYER
  5
CC
330
2
100
AcDbSymbolTableRecord
100
AcDbLayerTableRecord
  2
147
 70
     0
 62
   147
  6
CONTINUOUS
  0
LAYER
  5
CD
330
2
100
AcDbSymbolTableRecord
100
AcDbLayerTableRecord
  2
148
 70
     0
 62
   148
  6
CONTINUOUS
  0
LAYER
  5
CE
330
2
100
AcDbSymbolTableRecord
100
AcDbLayerTableRecord
  2
149
 70
     0
 62
   149
  6
CONTINUOUS
  0
LAYER
  5
CF
330
2
100
AcDbSymbolTableRecord
100
AcDbLayerTableRecord
  2
150
 70
     0
 62
   150
  6
CONTINUOUS
  0
LAYER
  5
D0
330
2
100
AcDbSymbolTableRecord
100
AcDbLayerTableRecord
  2
151
 70
     0
 62
   151
  6
CONTINUOUS
  0
LAYER
  5
D1
330
2
100
AcDbSymbolTableRecord
100
AcDbLayerTableRecord
  2
152
 70
     0
 62
   152
  6
CONTINUOUS
  0
LAYER
  5
D2
330
2
100
AcDbSymbolTableRecord
100
AcDbLayerTableRecord
  2
153
 70
     0
 62
   153
  6
CONTINUOUS
  0
LAYER
  5
D3
330
2
100
AcDbSymbolTableRecord
100
AcDbLayerTableRecord
  2
154
 70
     0
 62
   154
  6
CONTINUOUS
  0
LAYER
  5
D4
330
2
100
AcDbSymbolTableRecord
100
AcDbLayerTableRecord
  2
155
 70
     0
 62
   155
  6
CONTINUOUS
  0
LAYER
  5
D5
330
2
100
AcDbSymbolTableRecord
100
AcDbLayerTableRecord
  2
156
 70
     0
 62
   156
  6
CONTINUOUS
  0
LAYER
  5
D6
330
2
100
AcDbSymbolTableRecord
100
AcDbLayerTableRecord
  2
157
 70
     0
 62
   157
  6
CONTINUOUS
  0
LAYER
  5
D7
330
2
100
AcDbSymbolTableRecord
100
AcDbLayerTableRecord
  2
158
 70
     0
 62
   158
  6
CONTINUOUS
  0
LAYER
  5
D8
330
2
100
AcDbSymbolTableRecord
100
AcDbLayerTableRecord
  2
159
 70
     0
 62
   159
  6
CONTINUOUS
  0
LAYER
  5
D9
330
2
100
AcDbSymbolTableRecord
100
AcDbLayerTableRecord
  2
160
 70
     0
 62
   160
  6
CONTINUOUS
  0
LAYER
  5
DA
330
2
100
AcDbSymbolTableRecord
100
AcDbLayerTableRecord
  2
161
 70
     0
 62
   161
  6
CONTINUOUS
  0
LAYER
  5
DB
330
2
100
AcDbSymbolTableRecord
100
AcDbLayerTableRecord
  2
162
 70
     0
 62
   162
  6
CONTINUOUS
  0
LAYER
  5
DC
330
2
100
AcDbSymbolTableRecord
100
AcDbLayerTableRecord
  2
163
 70
     0
 62
   163
  6
CONTINUOUS
  0
LAYER
  5
DD
330
2
100
AcDbSymbolTableRecord
100
AcDbLayerTableRecord
  2
164
 70
     0
 62
   164
  6
CONTINUOUS
  0
LAYER
  5
DE
330
2
100
AcDbSymbolTableRecord
100
AcDbLayerTableRecord
  2
165
 70
     0
 62
   165
  6
CONTINUOUS
  0
LAYER
  5
DF
330
2
100
AcDbSymbolTableRecord
100
AcDbLayerTableRecord
  2
166
 70
     0
 62
   166
  6
CONTINUOUS
  0
LAYER
  5
E0
330
2
100
AcDbSymbolTableRecord
100
AcDbLayerTableRecord
  2
167
 70
     0
 62
   167
  6
CONTINUOUS
  0
LAYER
  5
E1
330
2
100
AcDbSymbolTableRecord
100
AcDbLayerTableRecord
  2
168
 70
     0
 62
   168
  6
CONTINUOUS
  0
LAYER
  5
E2
330
2
100
AcDbSymbolTableRecord
100
AcDbLayerTableRecord
  2
169
 70
     0
 62
   169
  6
CONTINUOUS
  0
LAYER
  5
E3
330
2
100
AcDbSymbolTableRecord
100
AcDbLayerTableRecord
  2
170
 70
     0
 62
   170
  6
CONTINUOUS
  0
LAYER
  5
E4
330
2
100
AcDbSymbolTableRecord
100
AcDbLayerTableRecord
  2
171
 70
     0
 62
   171
  6
CONTINUOUS
  0
LAYER
  5
E5
330
2
100
AcDbSymbolTableRecord
100
AcDbLayerTableRecord
  2
172
 70
     0
 62
   172
  6
CONTINUOUS
  0
LAYER
  5
E6
330
2
100
AcDbSymbolTableRecord
100
AcDbLayerTableRecord
  2
173
 70
     0
 62
   173
  6
CONTINUOUS
  0
LAYER
  5
E7
330
2
100
AcDbSymbolTableRecord
100
AcDbLayerTableRecord
  2
174
 70
     0
 62
   174
  6
CONTINUOUS
  0
LAYER
  5
E8
330
2
100
AcDbSymbolTableRecord
100
AcDbLayerTableRecord
  2
175
 70
     0
 62
   175
  6
CONTINUOUS
  0
LAYER
  5
E9
330
2
100
AcDbSymbolTableRecord
100
AcDbLayerTableRecord
  2
176
 70
     0
 62
   176
  6
CONTINUOUS
  0
LAYER
  5
EA
330
2
100
AcDbSymbolTableRecord
100
AcDbLayerTableRecord
  2
177
 70
     0
 62
   177
  6
CONTINUOUS
  0
LAYER
  5
EB
330
2
100
AcDbSymbolTableRecord
100
AcDbLayerTableRecord
  2
178
 70
     0
 62
   178
  6
CONTINUOUS
  0
LAYER
  5
EC
330
2
100
AcDbSymbolTableRecord
100
AcDbLayerTableRecord
  2
179
 70
     0
 62
   179
  6
CONTINUOUS
  0
LAYER
  5
ED
330
2
100
AcDbSymbolTableRecord
100
AcDbLayerTableRecord
  2
180
 70
     0
 62
   180
  6
CONTINUOUS
  0
LAYER
  5
EE
330
2
100
AcDbSymbolTableRecord
100
AcDbLayerTableRecord
  2
181
 70
     0
 62
   181
  6
CONTINUOUS
  0
LAYER
  5
EF
330
2
100
AcDbSymbolTableRecord
100
AcDbLayerTableRecord
  2
182
 70
     0
 62
   182
  6
CONTINUOUS
  0
LAYER
  5
F0
330
2
100
AcDbSymbolTableRecord
100
AcDbLayerTableRecord
  2
183
 70
     0
 62
   183
  6
CONTINUOUS
  0
LAYER
  5
F1
330
2
100
AcDbSymbolTableRecord
100
AcDbLayerTableRecord
  2
184
 70
     0
 62
   184
  6
CONTINUOUS
  0
LAYER
  5
F2
330
2
100
AcDbSymbolTableRecord
100
AcDbLayerTableRecord
  2
185
 70
     0
 62
   185
  6
CONTINUOUS
  0
LAYER
  5
F3
330
2
100
AcDbSymbolTableRecord
100
AcDbLayerTableRecord
  2
186
 70
     0
 62
   186
  6
CONTINUOUS
  0
LAYER
  5
F4
330
2
100
AcDbSymbolTableRecord
100
AcDbLayerTableRecord
  2
187
 70
     0
 62
   187
  6
CONTINUOUS
  0
LAYER
  5
F5
330
2
100
AcDbSymbolTableRecord
100
AcDbLayerTableRecord
  2
188
 70
     0
 62
   188
  6
CONTINUOUS
  0
LAYER
  5
F6
330
2
100
AcDbSymbolTableRecord
100
AcDbLayerTableRecord
  2
189
 70
     0
 62
   189
  6
CONTINUOUS
  0
LAYER
  5
F7
330
2
100
AcDbSymbolTableRecord
100
AcDbLayerTableRecord
  2
190
 70
     0
 62
   190
  6
CONTINUOUS
  0
LAYER
  5
F8
330
2
100
AcDbSymbolTableRecord
100
AcDbLayerTableRecord
  2
191
 70
     0
 62
   191
  6
CONTINUOUS
  0
LAYER
  5
F9
330
2
100
AcDbSymbolTableRecord
100
AcDbLayerTableRecord
  2
192
 70
     0
 62
   192
  6
CONTINUOUS
  0
LAYER
  5
FA
330
2
100
AcDbSymbolTableRecord
100
AcDbLayerTableRecord
  2
193
 70
     0
 62
   193
  6
CONTINUOUS
  0
LAYER
  5
FB
330
2
100
AcDbSymbolTableRecord
100
AcDbLayerTableRecord
  2
194
 70
     0
 62
   194
  6
CONTINUOUS
  0
LAYER
  5
FC
330
2
100
AcDbSymbolTableRecord
100
AcDbLayerTableRecord
  2
195
 70
     0
 62
   195
  6
CONTINUOUS
  0
LAYER
  5
FD
330
2
100
AcDbSymbolTableRecord
100
AcDbLayerTableRecord
  2
196
 70
     0
 62
   196
  6
CONTINUOUS
  0
LAYER
  5
FE
330
2
100
AcDbSymbolTableRecord
100
AcDbLayerTableRecord
  2
197
 70
     0
 62
   197
  6
CONTINUOUS
  0
LAYER
  5
FF
330
2
100
AcDbSymbolTableRecord
100
AcDbLayerTableRecord
  2
198
 70
     0
 62
   198
  6
CONTINUOUS
  0
LAYER
  5
100
330
2
100
AcDbSymbolTableRecord
100
AcDbLayerTableRecord
  2
199
 70
     0
 62
   199
  6
CONTINUOUS
  0
LAYER
  5
101
330
2
100
AcDbSymbolTableRecord
100
AcDbLayerTableRecord
  2
200
 70
     0
 62
   200
  6
CONTINUOUS
  0
LAYER
  5
102
330
2
100
AcDbSymbolTableRecord
100
AcDbLayerTableRecord
  2
201
 70
     0
 62
   201
  6
CONTINUOUS
  0
LAYER
  5
103
330
2
100
AcDbSymbolTableRecord
100
AcDbLayerTableRecord
  2
202
 70
     0
 62
   202
  6
CONTINUOUS
  0
LAYER
  5
104
330
2
100
AcDbSymbolTableRecord
100
AcDbLayerTableRecord
  2
203
 70
     0
 62
   203
  6
CONTINUOUS
  0
LAYER
  5
105
330
2
100
AcDbSymbolTableRecord
100
AcDbLayerTableRecord
  2
204
 70
     0
 62
   204
  6
CONTINUOUS
  0
LAYER
  5
106
330
2
100
AcDbSymbolTableRecord
100
AcDbLayerTableRecord
  2
205
 70
     0
 62
   205
  6
CONTINUOUS
  0
LAYER
  5
107
330
2
100
AcDbSymbolTableRecord
100
AcDbLayerTableRecord
  2
206
 70
     0
 62
   206
  6
CONTINUOUS
  0
LAYER
  5
108
330
2
100
AcDbSymbolTableRecord
100
AcDbLayerTableRecord
  2
207
 70
     0
 62
   207
  6
CONTINUOUS
  0
LAYER
  5
109
330
2
100
AcDbSymbolTableRecord
100
AcDbLayerTableRecord
  2
208
 70
     0
 62
   208
  6
CONTINUOUS
  0
LAYER
  5
10A
330
2
100
AcDbSymbolTableRecord
100
AcDbLayerTableRecord
  2
209
 70
     0
 62
   209
  6
CONTINUOUS
  0
LAYER
  5
10B
330
2
100
AcDbSymbolTableRecord
100
AcDbLayerTableRecord
  2
210
 70
     0
 62
   210
  6
CONTINUOUS
  0
LAYER
  5
10C
330
2
100
AcDbSymbolTableRecord
100
AcDbLayerTableRecord
  2
211
 70
     0
 62
   211
  6
CONTINUOUS
  0
LAYER
  5
10D
330
2
100
AcDbSymbolTableRecord
100
AcDbLayerTableRecord
  2
212
 70
     0
 62
   212
  6
CONTINUOUS
  0
LAYER
  5
10E
330
2
100
AcDbSymbolTableRecord
100
AcDbLayerTableRecord
  2
213
 70
     0
 62
   213
  6
CONTINUOUS
  0
LAYER
  5
10F
330
2
100
AcDbSymbolTableRecord
100
AcDbLayerTableRecord
  2
214
 70
     0
 62
   214
  6
CONTINUOUS
  0
LAYER
  5
110
330
2
100
AcDbSymbolTableRecord
100
AcDbLayerTableRecord
  2
215
 70
     0
 62
   215
  6
CONTINUOUS
  0
LAYER
  5
111
330
2
100
AcDbSymbolTableRecord
100
AcDbLayerTableRecord
  2
216
 70
     0
 62
   216
  6
CONTINUOUS
  0
LAYER
  5
112
330
2
100
AcDbSymbolTableRecord
100
AcDbLayerTableRecord
  2
217
 70
     0
 62
   217
  6
CONTINUOUS
  0
LAYER
  5
113
330
2
100
AcDbSymbolTableRecord
100
AcDbLayerTableRecord
  2
218
 70
     0
 62
   218
  6
CONTINUOUS
  0
LAYER
  5
114
330
2
100
AcDbSymbolTableRecord
100
AcDbLayerTableRecord
  2
219
 70
     0
 62
   219
  6
CONTINUOUS
  0
LAYER
  5
115
330
2
100
AcDbSymbolTableRecord
100
AcDbLayerTableRecord
  2
220
 70
     0
 62
   220
  6
CONTINUOUS
  0
LAYER
  5
116
330
2
100
AcDbSymbolTableRecord
100
AcDbLayerTableRecord
  2
221
 70
     0
 62
   221
  6
CONTINUOUS
  0
LAYER
  5
117
330
2
100
AcDbSymbolTableRecord
100
AcDbLayerTableRecord
  2
222
 70
     0
 62
   222
  6
CONTINUOUS
  0
LAYER
  5
118
330
2
100
AcDbSymbolTableRecord
100
AcDbLayerTableRecord
  2
223
 70
     0
 62
   223
  6
CONTINUOUS
  0
LAYER
  5
119
330
2
100
AcDbSymbolTableRecord
100
AcDbLayerTableRecord
  2
224
 70
     0
 62
   224
  6
CONTINUOUS
  0
LAYER
  5
11A
330
2
100
AcDbSymbolTableRecord
100
AcDbLayerTableRecord
  2
225
 70
     0
 62
   225
  6
CONTINUOUS
  0
LAYER
  5
11B
330
2
100
AcDbSymbolTableRecord
100
AcDbLayerTableRecord
  2
226
 70
     0
 62
   226
  6
CONTINUOUS
  0
LAYER
  5
11C
330
2
100
AcDbSymbolTableRecord
100
AcDbLayerTableRecord
  2
227
 70
     0
 62
   227
  6
CONTINUOUS
  0
LAYER
  5
11D
330
2
100
AcDbSymbolTableRecord
100
AcDbLayerTableRecord
  2
228
 70
     0
 62
   228
  6
CONTINUOUS
  0
LAYER
  5
11E
330
2
100
AcDbSymbolTableRecord
100
AcDbLayerTableRecord
  2
229
 70
     0
 62
   229
  6
CONTINUOUS
  0
LAYER
  5
11F
330
2
100
AcDbSymbolTableRecord
100
AcDbLayerTableRecord
  2
230
 70
     0
 62
   230
  6
CONTINUOUS
  0
LAYER
  5
120
330
2
100
AcDbSymbolTableRecord
100
AcDbLayerTableRecord
  2
231
 70
     0
 62
   231
  6
CONTINUOUS
  0
LAYER
  5
121
330
2
100
AcDbSymbolTableRecord
100
AcDbLayerTableRecord
  2
232
 70
     0
 62
   232
  6
CONTINUOUS
  0
LAYER
  5
122
330
2
100
AcDbSymbolTableRecord
100
AcDbLayerTableRecord
  2
233
 70
     0
 62
   233
  6
CONTINUOUS
  0
LAYER
  5
123
330
2
100
AcDbSymbolTableRecord
100
AcDbLayerTableRecord
  2
234
 70
     0
 62
   234
  6
CONTINUOUS
  0
LAYER
  5
124
330
2
100
AcDbSymbolTableRecord
100
AcDbLayerTableRecord
  2
235
 70
     0
 62
   235
  6
CONTINUOUS
  0
LAYER
  5
125
330
2
100
AcDbSymbolTableRecord
100
AcDbLayerTableRecord
  2
236
 70
     0
 62
   236
  6
CONTINUOUS
  0
LAYER
  5
126
330
2
100
AcDbSymbolTableRecord
100
AcDbLayerTableRecord
  2
237
 70
     0
 62
   237
  6
CONTINUOUS
  0
LAYER
  5
127
330
2
100
AcDbSymbolTableRecord
100
AcDbLayerTableRecord
  2
238
 70
     0
 62
   238
  6
CONTINUOUS
  0
LAYER
  5
128
330
2
100
AcDbSymbolTableRecord
100
AcDbLayerTableRecord
  2
239
 70
     0
 62
   239
  6
CONTINUOUS
  0
LAYER
  5
129
330
2
100
AcDbSymbolTableRecord
100
AcDbLayerTableRecord
  2
240
 70
     0
 62
   240
  6
CONTINUOUS
  0
LAYER
  5
12A
330
2
100
AcDbSymbolTableRecord
100
AcDbLayerTableRecord
  2
241
 70
     0
 62
   241
  6
CONTINUOUS
  0
LAYER
  5
12B
330
2
100
AcDbSymbolTableRecord
100
AcDbLayerTableRecord
  2
242
 70
     0
 62
   242
  6
CONTINUOUS
  0
LAYER
  5
12C
330
2
100
AcDbSymbolTableRecord
100
AcDbLayerTableRecord
  2
243
 70
     0
 62
   243
  6
CONTINUOUS
  0
LAYER
  5
12D
330
2
100
AcDbSymbolTableRecord
100
AcDbLayerTableRecord
  2
244
 70
     0
 62
   244
  6
CONTINUOUS
  0
LAYER
  5
12E
330
2
100
AcDbSymbolTableRecord
100
AcDbLayerTableRecord
  2
245
 70
     0
 62
   245
  6
CONTINUOUS
  0
LAYER
  5
12F
330
2
100
AcDbSymbolTableRecord
100
AcDbLayerTableRecord
  2
246
 70
     0
 62
   246
  6
CONTINUOUS
  0
LAYER
  5
130
330
2
100
AcDbSymbolTableRecord
100
AcDbLayerTableRecord
  2
247
 70
     0
 62
   247
  6
CONTINUOUS
  0
LAYER
  5
131
330
2
100
AcDbSymbolTableRecord
100
AcDbLayerTableRecord
  2
248
 70
     0
 62
   248
  6
CONTINUOUS
  0
LAYER
  5
132
330
2
100
AcDbSymbolTableRecord
100
AcDbLayerTableRecord
  2
249
 70
     0
 62
   249
  6
CONTINUOUS
  0
LAYER
  5
133
330
2
100
AcDbSymbolTableRecord
100
AcDbLayerTableRecord
  2
250
 70
     0
 62
   250
  6
CONTINUOUS
  0
LAYER
  5
134
330
2
100
AcDbSymbolTableRecord
100
AcDbLayerTableRecord
  2
251
 70
     0
 62
   251
  6
CONTINUOUS
  0
LAYER
  5
135
330
2
100
AcDbSymbolTableRecord
100
AcDbLayerTableRecord
  2
252
 70
     0
 62
   252
  6
CONTINUOUS
  0
LAYER
  5
136
330
2
100
AcDbSymbolTableRecord
100
AcDbLayerTableRecord
  2
253
 70
     0
 62
   253
  6
CONTINUOUS
  0
LAYER
  5
137
330
2
100
AcDbSymbolTableRecord
100
AcDbLayerTableRecord
  2
254
 70
     0
 62
   254
  6
CONTINUOUS
  0
LAYER
  5
138
330
2
100
AcDbSymbolTableRecord
100
AcDbLayerTableRecord
  2
255
 70
     0
 62
   255
  6
CONTINUOUS
  0
LAYER
  5
46D2
330
2
100
AcDbSymbolTableRecord
100
AcDbLayerTableRecord
  2
DEFPOINTS
 70
     0
 62
     7
  6
CONTINUOUS
  0
ENDTAB
  0
TABLE
  2
STYLE
  5
3
330
0
100
AcDbSymbolTable
 70
     1
  0
STYLE
  5
11
330
3
100
AcDbSymbolTableRecord
100
AcDbTextStyleTableRecord
  2
STANDARD
 70
     0
 40
0.0
 41
1.0
 50
0.0
 71
     0
 42
0.2
  3
monotxt
  4

  0
ENDTAB
  0
TABLE
  2
VIEW
  5
6
330
0
100
AcDbSymbolTable
 70
     0
  0
ENDTAB
  0
TABLE
  2
UCS
  5
7
330
0
100
AcDbSymbolTable
 70
     0
  0
ENDTAB
  0
TABLE
  2
APPID
  5
9
330
0
100
AcDbSymbolTable
 70
     1
  0
APPID
  5
12
330
9
100
AcDbSymbolTableRecord
100
AcDbRegAppTableRecord
  2
ACAD
 70
     0
  0
ENDTAB
  0
TABLE
  2
DIMSTYLE
  5
A
330
0
100
AcDbSymbolTable
 70
     1
  0
DIMSTYLE
105
2F3A
102
{ACAD_REACTORS
330
46D1
102
}
330
A
100
AcDbSymbolTableRecord
100
AcDbDimStyleTableRecord
  2
STANDARD
 70
     0
  3

  4

  5

  6

  7

 40
1.0
 41
0.18
 42
0.0625
 43
0.38
 44
0.18
 45
0.0
 46
0.0
 47
0.0
 48
0.0
140
0.18
141
0.09
142
0.0
143
25.4
144
1.0
145
0.0
146
1.0
147
0.09
 71
     0
 72
     0
 73
     1
 74
     1
 75
     0
 76
     0
 77
     0
 78
     0
170
     0
171
     2
172
     0
173
     0
174
     0
175
     0
176
     0
177
     0
178
     0
270
     2
271
     4
272
     4
273
     2
274
     2
340
11
275
     0
280
     0
281
     0
282
     0
283
     1
284
     0
285
     0
286
     0
287
     3
288
     0
  0
ENDTAB
  0
TABLE
  2
BLOCK_RECORD
  5
1
330
0
100
AcDbSymbolTable
 70
     1
  0
BLOCK_RECORD
  5
1E
102
{ACAD_XDICTIONARY
360
469B
102
}
330
1
100
AcDbSymbolTableRecord
100
AcDbBlockTableRecord
  2
*MODEL_SPACE
  0
BLOCK_RECORD
  5
1A
102
{ACAD_XDICTIONARY
360
469D
102
}
330
1
100
AcDbSymbolTableRecord
100
AcDbBlockTableRecord
  2
*PAPER_SPACE
  0
BLOCK_RECORD
  5
46D3
330
1
100
AcDbSymbolTableRecord
100
AcDbBlockTableRecord
  2
*D0
  0
ENDTAB
  0
ENDSEC
  0
SECTION
  2
BLOCKS
  0
BLOCK
  5
13B
330
1E
100
AcDbEntity
  8
0
100
AcDbBlockBegin
  2
*MODEL_SPACE
 70
     0
 10
0.0
 20
0.0
 30
0.0
  3
*MODEL_SPACE
  1

  0
ENDBLK
  5
13C
330
1E
100
AcDbEntity
  8
0
100
AcDbBlockEnd
  0
BLOCK
  5
139
330
1A
100
AcDbEntity
 67
     1
  8
0
100
AcDbBlockBegin
  2
*PAPER_SPACE
 70
     0
 10
0.0
 20
0.0
 30
0.0
  3
*PAPER_SPACE
  1

  0
ENDBLK
  5
13A
330
1A
100
AcDbEntity
 67
     1
  8
0
100
AcDbBlockEnd
  0
BLOCK
  5
46DE
330
46D3
100
AcDbEntity
  8
0
100
AcDbBlockBegin
  2
*D0
 70
     1
 10
0.0
 20
0.0
 30
0.0
  3
*D0
  1

  0
LINE
  5
46E0
330
46D3
100
AcDbEntity
  8
0
 62
     0
100
AcDbLine
 10
5.661283857456187
 20
7.018771391294525
 30
0.0
 11
7.506962094168501
 21
7.018771391294524
 31
0.0
  0
LINE
  5
46E1
330
46D3
100
AcDbEntity
  8
0
 62
     0
100
AcDbLine
 10
5.661283857456187
 20
2.958832411570115
 30
0.0
 11
7.5069620941685
 21
2.958832411570114
 31
0.0
  0
LINE
  5
46E2
330
46D3
100
AcDbEntity
  8
0
 62
     0
100
AcDbLine
 10
7.326962094168501
 20
6.838771391294525
 30
0.0
 11
7.3269620941685
 21
5.168801901432319
 31
0.0
  0
LINE
  5
46E3
330
46D3
100
AcDbEntity
  8
0
 62
     0
100
AcDbLine
 10
7.3269620941685
 20
3.138832411570114
 30
0.0
 11
7.3269620941685
 21
4.808801901432319
 31
0.0
  0
SOLID
  5
46E4
330
46D3
100
AcDbEntity
  8
0
 62
     0
100
AcDbTrace
 10
7.296962094168501
 20
6.838771391294525
 30
0.0
 11
7.356962094168501
 21
6.838771391294525
 31
0.0
 12
7.326962094168501
 22
7.018771391294524
 32
0.0
 13
7.326962094168501
 23
7.018771391294524
 33
0.0
  0
SOLID
  5
46E5
330
46D3
100
AcDbEntity
  8
0
 62
     0
100
AcDbTrace
 10
7.2969620941685
 20
3.138832411570114
 30
0.0
 11
7.3569620941685
 21
3.138832411570114
 31
0.0
 12
7.3269620941685
 22
2.958832411570114
 32
0.0
 13
7.3269620941685
 23
2.958832411570114
 33
0.0
  0
MTEXT
  5
46E6
330
46D3
100
AcDbEntity
  8
0
 62
     0
100
AcDbMText
 10
7.326962094168499
 20
4.98880190143232
 30
0.0
 40
0.18
 41
0.0
 71
     5
 72
     1
  1
\A1;4.0599
1001
ACAD
1000
MTEXTBEGIN
1070
    73
1070
     1
1070
    44
1040
1.0
1070
    74
1070
     0
1000
MTEXTEND
  0
POINT
  5
46E7
330
46D3
100
AcDbEntity
  8
DEFPOINTS
 62
     0
100
AcDbPoint
 10
5.598783857456187
 20
7.018771391294525
 30
0.0
  0
POINT
  5
46E8
330
46D3
100
AcDbEntity
  8
DEFPOINTS
 62
     0
100
AcDbPoint
 10
5.598783857456187
 20
2.958832411570115
 30
0.0
  0
POINT
  5
46E9
330
46D3
100
AcDbEntity
  8
DEFPOINTS
 62
     0
100
AcDbPoint
 10
7.3269620941685
 20
2.958832411570114
 30
0.0
  0
ENDBLK
  5
46DF
330
46D3
100
AcDbEntity
  8
0
100
AcDbBlockEnd
  0
ENDSEC
  0
SECTION
  2
ENTITIES
  0
LINE
  5
29B4
330
1E
100
AcDbEntity
  8
7
100
AcDbLine
 10
1.475757447810517
 20
6.824251815703973
 30
0.0
 11
1.469185840527053
 21
6.825566137160667
 31
0.0
  0
LINE
  5
29BA
330
1E
100
AcDbEntity
  8
7
100
AcDbLine
 10
1.339068016314454
 20
7.020085712751218
 30
0.0
 11
1.597989343282959
 21
7.020085712751218
 31
0.0
  0
LINE
  5
29BB
330
1E
100
AcDbEntity
  8
7
100
AcDbLine
 10
1.169520548401069
 20
6.909682710389013
 30
0.0
 11
1.164263262574297
 21
6.921511603499249
 31
0.0
  0
LINE
  5
29BC
330
1E
100
AcDbEntity
  8
7
100
AcDbLine
 10
1.031516795448312
 20
6.650761383420509
 30
0.0
 11
1.018373580881384
 21
6.648132740507124
 31
0.0
  0
LINE
  5
29DA
330
1E
100
AcDbEntity
  8
7
100
AcDbLine
 10
1.164263262574297
 20
6.921511603499249
 30
0.0
 11
1.169520548401069
 21
6.909682710389013
 31
0.0
  0
LINE
  5
29DB
330
1E
100
AcDbEntity
  8
7
100
AcDbLine
 10
1.018373580881384
 20
6.648132740507124
 30
0.0
 11
1.164263262574297
 21
6.921511603499249
 31
0.0
  0
LINE
  5
29DC
330
1E
100
AcDbEntity
  8
7
100
AcDbLine
 10
1.767536811196344
 20
6.909682710389013
 30
0.0
 11
1.772794097023116
 21
6.921511603499249
 31
0.0
  0
LINE
  5
29F5
330
1E
100
AcDbEntity
  8
7
100
AcDbLine
 10
1.919998100172723
 20
6.648132740507124
 30
0.0
 11
1.906854885605793
 21
6.650761383420509
 31
0.0
  0
LINE
  5
29F6
330
1E
100
AcDbEntity
  8
7
100
AcDbLine
 10
1.767536811196344
 20
6.909682710389013
 30
0.0
 11
1.772794097023116
 21
6.921511603499249
 31
0.0
  0
LINE
  5
29F7
330
1E
100
AcDbEntity
  8
7
100
AcDbLine
 10
1.767536811196344
 20
6.909682710389013
 30
0.0
 11
1.767536811196344
 21
6.908368388932321
 31
0.0
  0
LINE
  5
29F8
330
1E
100
AcDbEntity
  8
7
100
AcDbLine
 10
1.906854885605793
 20
6.650761383420509
 30
0.0
 11
1.767536811196344
 21
6.908368388932321
 31
0.0
  0
LINE
  5
29F9
330
1E
100
AcDbEntity
  8
7
100
AcDbLine
 10
1.919998100172723
 20
6.648132740507124
 30
0.0
 11
1.772794097023116
 21
6.921511603499249
 31
0.0
  0
LINE
  5
29FA
330
1E
100
AcDbEntity
  8
7
100
AcDbLine
 10
1.597989343282959
 20
2.95226080428665
 30
0.0
 11
1.339068016314454
 21
2.95226080428665
 31
0.0
  0
LINE
  5
29FB
330
1E
100
AcDbEntity
  8
7
100
AcDbLine
 10
1.169520548401069
 20
3.062663806648854
 30
0.0
 11
1.164263262574297
 21
3.050834913538619
 31
0.0
  0
LINE
  5
2A14
330
1E
100
AcDbEntity
  8
7
100
AcDbLine
 10
1.031516795448312
 20
3.321585133617359
 30
0.0
 11
1.018373580881384
 21
3.324213776530744
 31
0.0
  0
LINE
  5
2A15
330
1E
100
AcDbEntity
  8
7
100
AcDbLine
 10
1.169520548401069
 20
3.063978128105548
 30
0.0
 11
1.169520548401069
 21
3.062663806648854
 31
0.0
  0
LINE
  5
2A16
330
1E
100
AcDbEntity
  8
7
100
AcDbLine
 10
1.031516795448312
 20
3.321585133617359
 30
0.0
 11
1.169520548401069
 21
3.063978128105548
 31
0.0
  0
LINE
  5
2A1C
330
1E
100
AcDbEntity
  8
7
100
AcDbLine
 10
1.772794097023116
 20
3.050834913538619
 30
0.0
 11
1.767536811196344
 21
3.062663806648854
 31
0.0
  0
LINE
  5
2A1D
330
1E
100
AcDbEntity
  8
7
100
AcDbLine
 10
1.906854885605793
 20
3.321585133617359
 30
0.0
 11
1.919998100172723
 21
3.324213776530744
 31
0.0
  0
LINE
  5
2A36
330
1E
100
AcDbEntity
  8
7
100
AcDbLine
 10
1.906854885605793
 20
3.321585133617359
 30
0.0
 11
1.767536811196344
 21
3.063978128105548
 31
0.0
  0
LINE
  5
2A37
330
1E
100
AcDbEntity
  8
7
100
AcDbLine
 10
1.767536811196344
 20
3.063978128105548
 30
0.0
 11
1.767536811196344
 21
3.062663806648854
 31
0.0
  0
LINE
  5
2A38
330
1E
100
AcDbEntity
  8
7
100
AcDbLine
 10
1.772794097023116
 20
3.050834913538619
 30
0.0
 11
1.767536811196344
 21
3.062663806648854
 31
0.0
  0
LINE
  5
2A39
330
1E
100
AcDbEntity
  8
7
100
AcDbLine
 10
1.919998100172723
 20
3.324213776530744
 30
0.0
 11
1.772794097023116
 21
3.050834913538619
 31
0.0
  0
LINE
  5
2A3A
330
1E
100
AcDbEntity
  8
7
100
AcDbLine
 10
1.5717029141491
 20
4.702936984601612
 30
0.0
 11
1.5717029141491
 21
4.731852056648856
 31
0.0
  0
LINE
  5
2A40
330
1E
100
AcDbEntity
  8
7
100
AcDbLine
 10
1.5717029141491
 20
4.650364126333895
 30
0.0
 11
1.5717029141491
 21
4.666135983814211
 31
0.0
  0
LINE
  5
2A46
330
1E
100
AcDbEntity
  8
7
100
AcDbLine
 10
1.596675021826266
 20
4.622763375743343
 30
0.0
 11
1.5717029141491
 21
4.63459226885358
 31
0.0
  0
LINE
  5
2A51
330
1E
100
AcDbEntity
  8
7
100
AcDbLine
 10
1.365354445448313
 20
4.702936984601612
 30
0.0
 11
1.5717029141491
 21
4.702936984601612
 31
0.0
  0
LINE
  5
2A52
330
1E
100
AcDbEntity
  8
7
100
AcDbLine
 10
1.5717029141491
 20
4.731852056648856
 30
0.0
 11
1.365354445448313
 21
4.731852056648856
 31
0.0
  0
LINE
  5
2A58
330
1E
100
AcDbEntity
  8
7
100
AcDbLine
 10
1.714963952928628
 20
4.62144905428665
 30
0.0
 11
1.222093406668785
 21
4.62144905428665
 31
0.0
  0
LINE
  5
2A5E
330
1E
100
AcDbEntity
  8
7
100
AcDbLine
 10
1.5717029141491
 20
4.63459226885358
 30
0.0
 11
1.365354445448313
 21
4.63459226885358
 31
0.0
  0
LINE
  5
2A5F
330
1E
100
AcDbEntity
  8
7
100
AcDbLine
 10
1.366668766905005
 20
4.650364126333895
 30
0.0
 11
1.5717029141491
 21
4.650364126333895
 31
0.0
  0
LINE
  5
2A60
330
1E
100
AcDbEntity
  8
7
100
AcDbLine
 10
1.5717029141491
 20
4.666135983814211
 30
0.0
 11
1.366668766905005
 21
4.666135983814211
 31
0.0
  0
LINE
  5
2A61
330
1E
100
AcDbEntity
  8
7
100
AcDbLine
 10
1.381126302928628
 20
5.349583141294525
 30
0.0
 11
1.381126302928628
 21
5.31146781905043
 31
0.0
  0
LINE
  5
2A62
330
1E
100
AcDbEntity
  8
7
100
AcDbLine
 10
1.381126302928628
 20
5.349583141294525
 30
0.0
 11
1.555931056668785
 21
5.349583141294525
 31
0.0
  0
LINE
  5
2A63
330
1E
100
AcDbEntity
  8
7
100
AcDbLine
 10
1.381126302928628
 20
5.31146781905043
 30
0.0
 11
1.555931056668785
 21
5.31146781905043
 31
0.0
  0
LINE
  5
2A64
330
1E
100
AcDbEntity
  8
7
100
AcDbLine
 10
1.555931056668785
 20
5.349583141294525
 30
0.0
 11
1.555931056668785
 21
5.31146781905043
 31
0.0
  0
LINE
  5
2A65
330
1E
100
AcDbEntity
  8
7
100
AcDbLine
 10
1.365354445448313
 20
4.69767969877484
 30
0.0
 11
1.5717029141491
 21
4.69767969877484
 31
0.0
  0
LINE
  5
2A66
330
1E
100
AcDbEntity
  8
7
100
AcDbLine
 10
1.781994347219967
 20
5.349583141294525
 30
0.0
 11
1.781994347219967
 21
4.688479448577989
 31
0.0
  0
LINE
  5
2A67
330
1E
100
AcDbEntity
  8
7
100
AcDbLine
 10
1.781994347219967
 20
5.349583141294525
 30
0.0
 11
1.555931056668785
 21
5.349583141294525
 31
0.0
  0
LINE
  5
2A68
330
1E
100
AcDbEntity
  8
7
100
AcDbLine
 10
1.783308668676659
 20
5.350897462751218
 30
0.0
 11
1.781994347219967
 21
5.349583141294525
 31
0.0
  0
LINE
  5
2A69
330
1E
100
AcDbEntity
  8
7
100
AcDbLine
 10
1.155063012377446
 20
5.350897462751218
 30
0.0
 11
1.783308668676659
 21
5.350897462751218
 31
0.0
  0
LINE
  5
2A6A
330
1E
100
AcDbEntity
  8
7
100
AcDbLine
 10
1.155063012377446
 20
5.350897462751218
 30
0.0
 11
1.156377333834139
 21
5.349583141294525
 31
0.0
  0
LINE
  5
2A6B
330
1E
100
AcDbEntity
  8
7
100
AcDbLine
 10
1.381126302928628
 20
5.349583141294525
 30
0.0
 11
1.156377333834139
 21
5.349583141294525
 31
0.0
  0
LINE
  5
2A6C
330
1E
100
AcDbEntity
  8
7
100
AcDbLine
 10
1.781994347219967
 20
4.688479448577989
 30
0.0
 11
1.783308668676659
 21
4.687165127121296
 31
0.0
  0
LINE
  5
2A6D
330
1E
100
AcDbEntity
  8
7
100
AcDbLine
 10
1.783308668676659
 20
5.350897462751218
 30
0.0
 11
1.783308668676659
 21
4.687165127121296
 31
0.0
  0
LINE
  5
2A6E
330
1E
100
AcDbEntity
  8
7
100
AcDbLine
 10
1.781994347219967
 20
4.688479448577989
 30
0.0
 11
1.713649631471934
 21
4.688479448577989
 31
0.0
  0
LINE
  5
2A6F
330
1E
100
AcDbEntity
  8
7
100
AcDbLine
 10
1.223407728125478
 20
4.688479448577989
 30
0.0
 11
1.156377333834139
 21
4.688479448577989
 31
0.0
  0
LINE
  5
2A70
330
1E
100
AcDbEntity
  8
7
100
AcDbLine
 10
1.713649631471934
 20
4.688479448577989
 30
0.0
 11
1.713649631471934
 21
4.622763375743343
 31
0.0
  0
LINE
  5
2A71
330
1E
100
AcDbEntity
  8
7
100
AcDbLine
 10
1.223407728125478
 20
4.622763375743343
 30
0.0
 11
1.223407728125478
 21
4.688479448577989
 31
0.0
  0
LINE
  5
2A72
330
1E
100
AcDbEntity
  8
7
100
AcDbLine
 10
1.713649631471934
 20
4.688479448577989
 30
0.0
 11
1.714963952928628
 21
4.687165127121296
 31
0.0
  0
LINE
  5
2A73
330
1E
100
AcDbEntity
  8
7
100
AcDbLine
 10
1.783308668676659
 20
4.687165127121296
 30
0.0
 11
1.714963952928628
 21
4.687165127121296
 31
0.0
  0
LINE
  5
2A74
330
1E
100
AcDbEntity
  8
7
100
AcDbLine
 10
1.222093406668785
 20
4.687165127121296
 30
0.0
 11
1.155063012377446
 21
4.687165127121296
 31
0.0
  0
LINE
  5
2A75
330
1E
100
AcDbEntity
  8
7
100
AcDbLine
 10
1.222093406668785
 20
4.687165127121296
 30
0.0
 11
1.223407728125478
 21
4.688479448577989
 31
0.0
  0
LINE
  5
2A76
330
1E
100
AcDbEntity
  8
7
100
AcDbLine
 10
1.156377333834139
 20
4.688479448577989
 30
0.0
 11
1.155063012377446
 21
4.687165127121296
 31
0.0
  0
LINE
  5
2A77
330
1E
100
AcDbEntity
  8
7
100
AcDbLine
 10
1.714963952928628
 20
4.687165127121296
 30
0.0
 11
1.714963952928628
 21
4.62144905428665
 31
0.0
  0
LINE
  5
2A78
330
1E
100
AcDbEntity
  8
7
100
AcDbLine
 10
1.222093406668785
 20
4.62144905428665
 30
0.0
 11
1.222093406668785
 21
4.687165127121296
 31
0.0
  0
LINE
  5
2A79
330
1E
100
AcDbEntity
  8
7
100
AcDbLine
 10
1.156377333834139
 20
5.349583141294525
 30
0.0
 11
1.156377333834139
 21
4.688479448577989
 31
0.0
  0
LINE
  5
2A7A
330
1E
100
AcDbEntity
  8
7
100
AcDbLine
 10
1.155063012377446
 20
4.687165127121296
 30
0.0
 11
1.155063012377446
 21
5.350897462751218
 31
0.0
  0
LINE
  5
2A7B
330
1E
100
AcDbEntity
  8
7
100
AcDbLine
 10
2.118460640133352
 20
6.211778016885076
 30
0.0
 11
2.118460640133352
 21
3.760568500152792
 31
0.0
  0
LINE
  5
2A90
330
1E
100
AcDbEntity
  8
7
100
AcDbLine
 10
2.033029745448313
 20
3.676451926924446
 30
0.0
 11
0.9053419356057933
 21
3.676451926924446
 31
0.0
  0
LINE
  5
2A98
330
1E
100
AcDbEntity
  8
7
100
AcDbLine
 10
1.339068016314454
 20
7.020085712751218
 30
0.0
 11
1.318038873007367
 21
7.010885462554368
 31
0.0
  0
LINE
  5
2A99
330
1E
100
AcDbEntity
  8
7
100
AcDbLine
 10
1.223407728125478
 20
6.917568639129171
 30
0.0
 11
1.318038873007367
 21
7.010885462554368
 31
0.0
  0
LINE
  5
2A9F
330
1E
100
AcDbEntity
  8
7
100
AcDbLine
 10
1.030202473991619
 20
6.62841791865673
 30
0.0
 11
1.181349441511305
 21
6.908368388932321
 31
0.0
  0
LINE
  5
2AA0
330
1E
100
AcDbEntity
  8
7
100
AcDbLine
 10
1.030202473991619
 20
6.460184772200038
 30
0.0
 11
1.030202473991619
 21
6.62841791865673
 31
0.0
  0
LINE
  5
2AA1
330
1E
100
AcDbEntity
  8
7
100
AcDbLine
 10
1.030202473991619
 20
6.460184772200038
 30
0.0
 11
0.756823610999494
 21
6.460184772200038
 31
0.0
  0
LINE
  5
2AA2
330
1E
100
AcDbEntity
  8
7
100
AcDbLine
 10
0.756823610999494
 20
6.368182270231533
 30
0.0
 11
0.756823610999494
 21
6.460184772200038
 31
0.0
  0
LINE
  5
2AA3
330
1E
100
AcDbEntity
  8
7
100
AcDbLine
 10
0.756823610999494
 20
6.368182270231533
 30
0.0
 11
2.180233748597919
 21
6.368182270231533
 31
0.0
  0
LINE
  5
2AA4
330
1E
100
AcDbEntity
  8
7
100
AcDbLine
 10
2.180233748597919
 20
6.460184772200038
 30
0.0
 11
2.180233748597919
 21
6.368182270231533
 31
0.0
  0
LINE
  5
2AAB
330
1E
100
AcDbEntity
  8
7
100
AcDbLine
 10
1.734678774779021
 20
6.908368388932321
 30
0.0
 11
1.755707918086108
 21
6.908368388932321
 31
0.0
  0
LINE
  5
2AC6
330
1E
100
AcDbEntity
  8
7
100
AcDbLine
 10
1.513872770054612
 20
6.472013665310273
 30
0.0
 11
1.424498910999494
 21
6.472013665310273
 31
0.0
  0
LINE
  5
2AD6
330
1E
100
AcDbEntity
  8
7
100
AcDbLine
 10
1.513872770054612
 20
6.78613649345988
 30
0.0
 11
1.424498910999494
 21
6.78613649345988
 31
0.0
  0
LINE
  5
2AE9
330
1E
100
AcDbEntity
  8
7
100
AcDbLine
 10
1.031516795448312
 20
6.650761383420509
 30
0.0
 11
1.030202473991619
 21
6.62841791865673
 31
0.0
  0
LINE
  5
2AEA
330
1E
100
AcDbEntity
  8
7
100
AcDbLine
 10
1.906854885605793
 20
6.62841791865673
 30
0.0
 11
1.906854885605793
 21
6.650761383420509
 31
0.0
  0
LINE
  5
2AF0
330
1E
100
AcDbEntity
  8
7
100
AcDbLine
 10
1.597989343282959
 20
2.95226080428665
 30
0.0
 11
1.620332808046738
 21
2.961461054483501
 31
0.0
  0
LINE
  5
2AF1
330
1E
100
AcDbEntity
  8
7
100
AcDbLine
 10
1.713649631471934
 20
3.054777877908698
 30
0.0
 11
1.620332808046738
 21
2.961461054483501
 31
0.0
  0
LINE
  5
2AF7
330
1E
100
AcDbEntity
  8
7
100
AcDbLine
 10
1.906854885605793
 20
3.343928598381138
 30
0.0
 11
1.755707918086108
 21
3.063978128105548
 31
0.0
  0
LINE
  5
2AF8
330
1E
100
AcDbEntity
  8
7
100
AcDbLine
 10
1.906854885605793
 20
3.343928598381138
 30
0.0
 11
1.906854885605793
 21
3.512161744837831
 31
0.0
  0
LINE
  5
2AF9
330
1E
100
AcDbEntity
  8
7
100
AcDbLine
 10
2.180233748597919
 20
3.512161744837831
 30
0.0
 11
1.906854885605793
 21
3.512161744837831
 31
0.0
  0
LINE
  5
2AFA
330
1E
100
AcDbEntity
  8
7
100
AcDbLine
 10
2.180233748597919
 20
3.604164246806336
 30
0.0
 11
2.180233748597919
 21
3.512161744837831
 31
0.0
  0
LINE
  5
2AFB
330
1E
100
AcDbEntity
  8
7
100
AcDbLine
 10
2.180233748597919
 20
3.604164246806336
 30
0.0
 11
0.756823610999494
 21
3.604164246806336
 31
0.0
  0
LINE
  5
2AFC
330
1E
100
AcDbEntity
  8
7
100
AcDbLine
 10
0.756823610999494
 20
3.512161744837831
 30
0.0
 11
0.756823610999494
 21
3.604164246806336
 31
0.0
  0
LINE
  5
2AFD
330
1E
100
AcDbEntity
  8
7
100
AcDbLine
 10
1.030202473991619
 20
3.512161744837831
 30
0.0
 11
0.756823610999494
 21
3.512161744837831
 31
0.0
  0
LINE
  5
2AFE
330
1E
100
AcDbEntity
  8
7
100
AcDbLine
 10
1.030202473991619
 20
3.343928598381138
 30
0.0
 11
1.030202473991619
 21
3.512161744837831
 31
0.0
  0
LINE
  5
2AFF
330
1E
100
AcDbEntity
  8
7
100
AcDbLine
 10
1.030202473991619
 20
3.343928598381138
 30
0.0
 11
1.181349441511305
 21
3.063978128105548
 31
0.0
  0
LINE
  5
2B00
330
1E
100
AcDbEntity
  8
7
100
AcDbLine
 10
1.202378584818391
 20
3.063978128105548
 30
0.0
 11
1.181349441511305
 21
3.063978128105548
 31
0.0
  0
LINE
  5
2B01
330
1E
100
AcDbEntity
  8
7
100
AcDbLine
 10
1.202378584818391
 20
3.063978128105548
 30
0.0
 11
1.223407728125478
 21
3.054777877908698
 31
0.0
  0
LINE
  5
2B02
330
1E
100
AcDbEntity
  8
7
100
AcDbLine
 10
1.513872770054612
 20
3.186210023577989
 30
0.0
 11
1.424498910999494
 21
3.186210023577989
 31
0.0
  0
LINE
  5
2B15
330
1E
100
AcDbEntity
  8
7
100
AcDbLine
 10
1.513872770054612
 20
3.500332851727595
 30
0.0
 11
1.424498910999494
 21
3.500332851727595
 31
0.0
  0
LINE
  5
2B39
330
1E
100
AcDbEntity
  8
7
100
AcDbLine
 10
1.906854885605793
 20
3.321585133617359
 30
0.0
 11
1.906854885605793
 21
3.343928598381138
 31
0.0
  0
LINE
  5
2B40
330
1E
100
AcDbEntity
  8
7
100
AcDbLine
 10
2.180233748597919
 20
3.62387906865673
 30
0.0
 11
2.178919427141226
 21
3.625193390113422
 31
0.0
  0
LINE
  5
2B41
330
1E
100
AcDbEntity
  8
7
100
AcDbLine
 10
2.180233748597919
 20
3.62387906865673
 30
0.0
 11
2.180233748597919
 21
3.618621782829958
 31
0.0
  0
LINE
  5
2B4C
330
1E
100
AcDbEntity
  8
7
100
AcDbLine
 10
0.756823610999494
 20
3.604164246806336
 30
0.0
 11
0.756823610999494
 21
6.368182270231533
 31
0.0
  0
LINE
  5
2B4D
330
1E
100
AcDbEntity
  8
7
100
AcDbLine
 10
1.513872770054612
 20
6.472013665310273
 30
0.0
 11
1.424498910999494
 21
6.472013665310273
 31
0.0
  0
LINE
  5
2B4E
330
1E
100
AcDbEntity
  8
7
100
AcDbLine
 10
1.358782838164848
 20
6.677047812554367
 30
0.0
 11
1.578274521432565
 21
6.677047812554367
 31
0.0
  0
LINE
  5
2B55
330
1E
100
AcDbEntity
  8
7
100
AcDbLine
 10
1.578274521432565
 20
6.581102346215785
 30
0.0
 11
1.358782838164848
 21
6.581102346215785
 31
0.0
  0
LINE
  5
2B56
330
1E
100
AcDbEntity
  8
7
100
AcDbLine
 10
1.360097159621541
 20
6.677047812554367
 30
0.0
 11
1.345639623597919
 21
6.64681841905043
 31
0.0
  0
LINE
  5
2B6E
330
1E
100
AcDbEntity
  8
7
100
AcDbLine
 10
1.513872770054612
 20
6.78613649345988
 30
0.0
 11
1.424498910999494
 21
6.78613649345988
 31
0.0
  0
LINE
  5
2B81
330
1E
100
AcDbEntity
  8
7
100
AcDbLine
 10
1.513872770054612
 20
3.186210023577989
 30
0.0
 11
1.424498910999494
 21
3.186210023577989
 31
0.0
  0
LINE
  5
2B82
330
1E
100
AcDbEntity
  8
7
100
AcDbLine
 10
1.358782838164848
 20
3.391244170822083
 30
0.0
 11
1.578274521432565
 21
3.391244170822083
 31
0.0
  0
LINE
  5
2B89
330
1E
100
AcDbEntity
  8
7
100
AcDbLine
 10
1.578274521432565
 20
3.295298704483501
 30
0.0
 11
1.358782838164848
 21
3.295298704483501
 31
0.0
  0
LINE
  5
2B8A
330
1E
100
AcDbEntity
  8
7
100
AcDbLine
 10
1.360097159621541
 20
3.389929849365391
 30
0.0
 11
1.345639623597919
 21
3.359700455861454
 31
0.0
  0
LINE
  5
2BA2
330
1E
100
AcDbEntity
  8
7
100
AcDbLine
 10
1.513872770054612
 20
3.500332851727595
 30
0.0
 11
1.424498910999494
 21
3.500332851727595
 31
0.0
  0
LINE
  5
2BB5
330
1E
100
AcDbEntity
  8
7
100
AcDbLine
 10
2.119774961590045
 20
6.213092338341769
 30
0.0
 11
2.119774961590045
 21
3.7592541786961
 31
0.0
  0
LINE
  5
2BB6
330
1E
100
AcDbEntity
  8
7
100
AcDbLine
 10
2.119774961590045
 20
6.213092338341769
 30
0.0
 11
2.118460640133352
 21
6.211778016885076
 31
0.0
  0
LINE
  5
2BB7
330
1E
100
AcDbEntity
  8
7
100
AcDbLine
 10
2.118460640133352
 20
3.760568500152792
 30
0.0
 11
2.119774961590045
 21
3.7592541786961
 31
0.0
  0
LINE
  5
2BB8
330
1E
100
AcDbEntity
  8
7
100
AcDbLine
 10
0.9053419356057933
 20
3.676451926924446
 30
0.0
 11
0.9027132926924075
 21
3.67382328401106
 31
0.0
  0
LINE
  5
2BB9
330
1E
100
AcDbEntity
  8
7
100
AcDbLine
 10
2.034344066905005
 20
3.67382328401106
 30
0.0
 11
0.9027132926924075
 21
3.67382328401106
 31
0.0
  0
LINE
  5
2BBA
330
1E
100
AcDbEntity
  8
7
100
AcDbLine
 10
2.034344066905005
 20
3.67382328401106
 30
0.0
 11
2.033029745448313
 21
3.676451926924446
 31
0.0
  0
LINE
  5
2BBB
330
1E
100
AcDbEntity
  8
7
100
AcDbLine
 10
0.8199110409207541
 20
6.211778016885076
 30
0.0
 11
0.8172823980073676
 21
6.213092338341769
 31
0.0
  0
LINE
  5
2BCF
330
1E
100
AcDbEntity
  8
7
100
AcDbLine
 10
0.758137932456187
 20
6.337952876727595
 30
0.0
 11
0.758137932456187
 21
3.634393640310273
 31
0.0
  0
LINE
  5
2BD5
330
1E
100
AcDbEntity
  8
7
100
AcDbLine
 10
0.758137932456187
 20
6.348467448381139
 30
0.0
 11
0.758137932456187
 21
6.347153126924446
 31
0.0
  0
LINE
  5
2BDB
330
1E
100
AcDbEntity
  8
7
100
AcDbLine
 10
1.031516795448312
 20
3.321585133617359
 30
0.0
 11
1.030202473991619
 21
3.343928598381138
 31
0.0
  0
LINE
  5
2BDC
330
1E
100
AcDbEntity
  8
7
100
AcDbLine
 10
0.758137932456187
 20
3.62387906865673
 30
0.0
 11
2.180233748597919
 21
3.62387906865673
 31
0.0
  0
LINE
  5
2BDD
330
1E
100
AcDbEntity
  8
7
100
AcDbLine
 10
2.178919427141226
 20
3.625193390113422
 30
0.0
 11
0.758137932456187
 21
3.625193390113422
 31
0.0
  0
LINE
  5
2BDE
330
1E
100
AcDbEntity
  8
7
100
AcDbLine
 10
2.180233748597919
 20
6.348467448381139
 30
0.0
 11
0.758137932456187
 21
6.348467448381139
 31
0.0
  0
LINE
  5
2BDF
330
1E
100
AcDbEntity
  8
7
100
AcDbLine
 10
0.758137932456187
 20
6.347153126924446
 30
0.0
 11
2.178919427141226
 21
6.347153126924446
 31
0.0
  0
LINE
  5
2BF5
330
1E
100
AcDbEntity
  8
7
100
AcDbLine
 10
0.8172823980073676
 20
6.213092338341769
 30
0.0
 11
0.8238540052908325
 21
6.245950374759092
 31
0.0
  0
LINE
  5
2BFC
330
1E
100
AcDbEntity
  8
7
100
AcDbLine
 10
0.758137932456187
 20
3.634393640310273
 30
0.0
 11
2.178919427141226
 21
3.634393640310273
 31
0.0
  0
LINE
  5
2BFD
330
1E
100
AcDbEntity
  8
7
100
AcDbLine
 10
2.178919427141226
 20
6.337952876727595
 30
0.0
 11
0.758137932456187
 21
6.337952876727595
 31
0.0
  0
LINE
  5
2BFE
330
1E
100
AcDbEntity
  8
7
100
AcDbLine
 10
1.767536811196344
 20
3.063978128105548
 30
0.0
 11
1.755707918086108
 21
3.063978128105548
 31
0.0
  0
LINE
  5
2BFF
330
1E
100
AcDbEntity
  8
7
100
AcDbLine
 10
1.755707918086108
 20
6.908368388932321
 30
0.0
 11
1.767536811196344
 21
6.908368388932321
 31
0.0
  0
LINE
  5
2C00
330
1E
100
AcDbEntity
  8
7
100
AcDbLine
 10
1.169520548401069
 20
6.908368388932321
 30
0.0
 11
1.181349441511305
 21
6.908368388932321
 31
0.0
  0
LINE
  5
2C01
330
1E
100
AcDbEntity
  8
7
100
AcDbLine
 10
1.169520548401069
 20
3.063978128105548
 30
0.0
 11
1.181349441511305
 21
3.063978128105548
 31
0.0
  0
LINE
  5
2E8A
330
1E
100
AcDbEntity
  8
7
100
AcDbLine
 10
5.598783857456187
 20
7.018771391294525
 30
0.0
 11
5.510724319857762
 21
7.020085712751218
 31
0.0
  0
LINE
  5
2E8B
330
1E
100
AcDbEntity
  8
7
100
AcDbLine
 10
5.510724319857762
 20
6.648132740507124
 30
0.0
 11
5.598783857456187
 21
6.649447061963816
 31
0.0
  0
LINE
  5
2E8C
330
1E
100
AcDbEntity
  8
7
100
AcDbLine
 10
5.598783857456187
 20
3.322899455074052
 30
0.0
 11
5.510724319857762
 21
3.324213776530744
 31
0.0
  0
LINE
  5
2E8D
330
1E
100
AcDbEntity
  8
7
100
AcDbLine
 10
5.510724319857762
 20
2.95226080428665
 30
0.0
 11
5.598783857456187
 21
2.953575125743343
 31
0.0
  0
LINE
  5
2EE2
330
1E
100
AcDbEntity
  8
7
100
AcDbLine
 10
5.860333827338077
 20
4.731852056648856
 30
0.0
 11
5.880048649188471
 21
4.730537735192163
 31
0.0
  0
LINE
  5
2EE3
330
1E
100
AcDbEntity
  8
7
100
AcDbLine
 10
5.860333827338077
 20
4.702936984601612
 30
0.0
 11
5.860333827338077
 21
4.731852056648856
 31
0.0
  0
LINE
  5
2EE9
330
1E
100
AcDbEntity
  8
7
100
AcDbLine
 10
5.873477041905006
 20
4.650364126333895
 30
0.0
 11
5.873477041905006
 21
4.666135983814211
 31
0.0
  0
LINE
  5
2EEF
330
1E
100
AcDbEntity
  8
7
100
AcDbLine
 10
5.692100680881384
 20
4.630649304483501
 30
0.0
 11
5.859019505881384
 21
4.63459226885358
 31
0.0
  0
LINE
  5
2EF0
330
1E
100
AcDbEntity
  8
7
100
AcDbLine
 10
5.939193114739651
 20
4.526817909404761
 30
0.0
 11
5.692100680881384
 21
4.51761765920791
 31
0.0
  0
LINE
  5
2EF6
330
1E
100
AcDbEntity
  8
7
100
AcDbLine
 10
5.958907936590046
 20
4.564933231648855
 30
0.0
 11
5.958907936590046
 21
4.546532731255155
 31
0.0
  0
LINE
  5
2EF7
330
1E
100
AcDbEntity
  8
7
100
AcDbLine
 10
5.349062780684533
 20
6.211778016885076
 30
0.0
 11
5.349062780684533
 21
3.760568500152792
 31
0.0
  0
LINE
  5
2F06
330
1E
100
AcDbEntity
  8
7
100
AcDbLine
 10
5.510724319857762
 20
6.460184772200038
 30
0.0
 11
5.510724319857762
 21
6.368182270231533
 31
0.0
  0
LINE
  5
2F0C
330
1E
100
AcDbEntity
  8
7
100
AcDbLine
 10
5.510724319857762
 20
6.62841791865673
 30
0.0
 11
5.534382106078234
 21
6.648132740507124
 31
0.0
  0
LINE
  5
2F0D
330
1E
100
AcDbEntity
  8
7
100
AcDbLine
 10
5.598783857456187
 20
6.458870450743344
 30
0.0
 11
5.598783857456187
 21
6.649447061963816
 31
0.0
  0
LINE
  5
2F0E
330
1E
100
AcDbEntity
  8
7
100
AcDbLine
 10
5.510724319857762
 20
3.343928598381138
 30
0.0
 11
5.510724319857762
 21
3.324213776530744
 31
0.0
  0
LINE
  5
2F0F
330
1E
100
AcDbEntity
  8
7
100
AcDbLine
 10
5.510724319857762
 20
3.343928598381138
 30
0.0
 11
5.510724319857762
 21
3.512161744837831
 31
0.0
  0
LINE
  5
2F10
330
1E
100
AcDbEntity
  8
7
100
AcDbLine
 10
5.510724319857762
 20
3.604164246806336
 30
0.0
 11
5.510724319857762
 21
3.512161744837831
 31
0.0
  0
LINE
  5
2F11
330
1E
100
AcDbEntity
  8
7
100
AcDbLine
 10
5.534382106078234
 20
3.324213776530744
 30
0.0
 11
5.510724319857762
 21
3.343928598381138
 31
0.0
  0
LINE
  5
2F12
330
1E
100
AcDbEntity
  8
7
100
AcDbLine
 10
5.598783857456187
 20
3.322899455074052
 30
0.0
 11
5.598783857456187
 21
3.513476066294525
 31
0.0
  0
LINE
  5
2F19
330
1E
100
AcDbEntity
  8
7
100
AcDbLine
 10
5.491009498007368
 20
3.62387906865673
 30
0.0
 11
5.463408747416817
 21
3.625193390113422
 31
0.0
  0
LINE
  5
2F25
330
1E
100
AcDbEntity
  8
7
100
AcDbLine
 10
5.454208497219966
 20
6.213092338341769
 30
0.0
 11
5.349062780684533
 21
6.211778016885076
 31
0.0
  0
LINE
  5
2F26
330
1E
100
AcDbEntity
  8
7
100
AcDbLine
 10
5.349062780684533
 20
3.760568500152792
 30
0.0
 11
5.454208497219966
 21
3.7592541786961
 31
0.0
  0
LINE
  5
2F27
330
1E
100
AcDbEntity
  8
7
100
AcDbLine
 10
5.454208497219966
 20
3.67382328401106
 30
0.0
 11
5.349062780684533
 21
3.676451926924446
 31
0.0
  0
LINE
  5
2F28
330
1E
100
AcDbEntity
  8
7
100
AcDbLine
 10
5.349062780684533
 20
6.295894590113422
 30
0.0
 11
5.454208497219966
 21
6.298523233026809
 31
0.0
  0
LINE
  5
2F39
330
1E
100
AcDbEntity
  8
7
100
AcDbLine
 10
5.510724319857762
 20
6.460184772200038
 30
0.0
 11
5.607984107653038
 21
6.458870450743344
 31
0.0
  0
LINE
  5
2F3D
330
1E
100
AcDbEntity
  8
7
100
AcDbLine
 10
5.692100680881384
 20
6.373439556058304
 30
0.0
 11
5.68552907359792
 21
6.404983271018934
 31
0.0
  0
LINE
  5
2F3E
330
1E
100
AcDbEntity
  8
7
100
AcDbLine
 10
5.68552907359792
 20
6.404983271018934
 30
0.0
 11
5.667128573204219
 21
6.432584021609486
 31
0.0
  0
LINE
  5
2F3F
330
1E
100
AcDbEntity
  8
7
100
AcDbLine
 10
5.667128573204219
 20
6.432584021609486
 30
0.0
 11
5.640842144070361
 21
6.450984522003187
 31
0.0
  0
LINE
  5
2F40
330
1E
100
AcDbEntity
  8
7
100
AcDbLine
 10
5.640842144070361
 20
6.450984522003187
 30
0.0
 11
5.607984107653038
 21
6.458870450743344
 31
0.0
  0
LINE
  5
2F41
330
1E
100
AcDbEntity
  8
7
100
AcDbLine
 10
5.510724319857762
 20
3.512161744837831
 30
0.0
 11
5.607984107653038
 21
3.513476066294525
 31
0.0
  0
LINE
  5
2F42
330
1E
100
AcDbEntity
  8
7
100
AcDbLine
 10
5.607984107653038
 20
3.513476066294525
 30
0.0
 11
5.640842144070361
 21
3.521361995034682
 31
0.0
  0
LINE
  5
2F43
330
1E
100
AcDbEntity
  8
7
100
AcDbLine
 10
5.640842144070361
 20
3.521361995034682
 30
0.0
 11
5.667128573204219
 21
3.539762495428383
 31
0.0
  0
LINE
  5
2F44
330
1E
100
AcDbEntity
  8
7
100
AcDbLine
 10
5.667128573204219
 20
3.539762495428383
 30
0.0
 11
5.68552907359792
 21
3.567363246018934
 31
0.0
  0
LINE
  5
2F45
330
1E
100
AcDbEntity
  8
7
100
AcDbLine
 10
5.68552907359792
 20
3.567363246018934
 30
0.0
 11
5.692100680881384
 21
3.598906960979564
 31
0.0
  0
LINE
  5
2F46
330
1E
100
AcDbEntity
  8
7
100
AcDbLine
 10
5.692100680881384
 20
3.598906960979564
 30
0.0
 11
5.692100680881384
 21
6.373439556058304
 31
0.0
  0
LINE
  5
2F47
330
1E
100
AcDbEntity
  8
7
100
AcDbLine
 10
5.491009498007368
 20
3.62387906865673
 30
0.0
 11
5.50546703403099
 21
3.618621782829958
 31
0.0
  0
LINE
  5
2F48
330
1E
100
AcDbEntity
  8
7
100
AcDbLine
 10
5.50546703403099
 20
3.618621782829958
 30
0.0
 11
5.510724319857762
 21
3.604164246806336
 31
0.0
  0
LINE
  5
2F49
330
1E
100
AcDbEntity
  8
7
100
AcDbLine
 10
5.510724319857762
 20
3.604164246806336
 30
0.0
 11
5.510724319857762
 21
6.368182270231533
 31
0.0
  0
LINE
  5
2F4A
330
1E
100
AcDbEntity
  8
7
100
AcDbLine
 10
5.510724319857762
 20
6.368182270231533
 30
0.0
 11
5.50546703403099
 21
6.353724734207911
 31
0.0
  0
LINE
  5
2F4B
330
1E
100
AcDbEntity
  8
7
100
AcDbLine
 10
5.50546703403099
 20
6.353724734207911
 30
0.0
 11
5.491009498007368
 21
6.348467448381139
 31
0.0
  0
LINE
  5
2F4C
330
1E
100
AcDbEntity
  8
7
100
AcDbLine
 10
5.491009498007368
 20
6.348467448381139
 30
0.0
 11
5.463408747416817
 21
6.347153126924446
 31
0.0
  0
LINE
  5
2F4D
330
1E
100
AcDbEntity
  8
7
100
AcDbLine
 10
5.463408747416817
 20
6.347153126924446
 30
0.0
 11
5.456837140133353
 21
6.34452448401106
 31
0.0
  0
LINE
  5
2F4E
330
1E
100
AcDbEntity
  8
7
100
AcDbLine
 10
5.456837140133353
 20
6.34452448401106
 30
0.0
 11
5.454208497219966
 21
6.337952876727595
 31
0.0
  0
LINE
  5
2F4F
330
1E
100
AcDbEntity
  8
7
100
AcDbLine
 10
5.454208497219966
 20
6.337952876727595
 30
0.0
 11
5.454208497219966
 21
3.634393640310273
 31
0.0
  0
LINE
  5
2F50
330
1E
100
AcDbEntity
  8
7
100
AcDbLine
 10
5.454208497219966
 20
3.634393640310273
 30
0.0
 11
5.456837140133353
 21
3.627822033026808
 31
0.0
  0
LINE
  5
2F51
330
1E
100
AcDbEntity
  8
7
100
AcDbLine
 10
5.456837140133353
 20
3.627822033026808
 30
0.0
 11
5.463408747416817
 21
3.625193390113422
 31
0.0
  0
LINE
  5
2F52
330
1E
100
AcDbEntity
  8
7
100
AcDbLine
 10
5.510724319857762
 20
6.460184772200038
 30
0.0
 11
5.510724319857762
 21
6.62841791865673
 31
0.0
  0
LINE
  5
2F53
330
1E
100
AcDbEntity
  8
7
100
AcDbLine
 10
5.510724319857762
 20
6.62841791865673
 30
0.0
 11
5.510724319857762
 21
6.648132740507124
 31
0.0
  0
LINE
  5
2F54
330
1E
100
AcDbEntity
  8
7
100
AcDbLine
 10
5.349062780684533
 20
3.676451926924446
 30
0.0
 11
5.349062780684533
 21
3.68302353420791
 31
0.0
  0
LINE
  5
2F55
330
1E
100
AcDbEntity
  8
7
100
AcDbLine
 10
5.349062780684533
 20
3.68302353420791
 30
0.0
 11
5.349062780684533
 21
3.701424034601612
 31
0.0
  0
LINE
  5
2F56
330
1E
100
AcDbEntity
  8
7
100
AcDbLine
 10
5.349062780684533
 20
3.701424034601612
 30
0.0
 11
5.349062780684533
 21
3.729024785192162
 31
0.0
  0
LINE
  5
2F57
330
1E
100
AcDbEntity
  8
7
100
AcDbLine
 10
5.349062780684533
 20
3.729024785192162
 30
0.0
 11
5.349062780684533
 21
3.760568500152792
 31
0.0
  0
LINE
  5
2F58
330
1E
100
AcDbEntity
  8
7
100
AcDbLine
 10
5.349062780684533
 20
6.211778016885076
 30
0.0
 11
5.349062780684533
 21
6.243321731845706
 31
0.0
  0
LINE
  5
2F59
330
1E
100
AcDbEntity
  8
7
100
AcDbLine
 10
5.349062780684533
 20
6.243321731845706
 30
0.0
 11
5.349062780684533
 21
6.270922482436256
 31
0.0
  0
LINE
  5
2F5A
330
1E
100
AcDbEntity
  8
7
100
AcDbLine
 10
5.349062780684533
 20
6.270922482436256
 30
0.0
 11
5.349062780684533
 21
6.289322982829958
 31
0.0
  0
LINE
  5
2F5B
330
1E
100
AcDbEntity
  8
7
100
AcDbLine
 10
5.349062780684533
 20
6.289322982829958
 30
0.0
 11
5.349062780684533
 21
6.295894590113422
 31
0.0
  0
LINE
  5
2F5C
330
1E
100
AcDbEntity
  8
7
100
AcDbLine
 10
5.939193114739651
 20
4.526817909404761
 30
0.0
 11
5.952336329306581
 21
4.533389516688226
 31
0.0
  0
LINE
  5
2F5D
330
1E
100
AcDbEntity
  8
7
100
AcDbLine
 10
5.952336329306581
 20
4.533389516688226
 30
0.0
 11
5.958907936590046
 21
4.546532731255155
 31
0.0
  0
LINE
  5
2F5E
330
1E
100
AcDbEntity
  8
7
100
AcDbLine
 10
5.873477041905006
 20
4.650364126333895
 30
0.0
 11
5.869534077534927
 21
4.639849554680352
 31
0.0
  0
LINE
  5
2F5F
330
1E
100
AcDbEntity
  8
7
100
AcDbLine
 10
5.869534077534927
 20
4.639849554680352
 30
0.0
 11
5.859019505881384
 21
4.63459226885358
 31
0.0
  0
LINE
  5
2F60
330
1E
100
AcDbEntity
  8
7
100
AcDbLine
 10
5.860333827338077
 20
4.702936984601612
 30
0.0
 11
5.862962470251463
 21
4.69767969877484
 31
0.0
  0
LINE
  5
2F61
330
1E
100
AcDbEntity
  8
7
100
AcDbLine
 10
5.862962470251463
 20
4.69767969877484
 30
0.0
 11
5.873477041905006
 21
4.666135983814211
 31
0.0
  0
LINE
  5
2F62
330
1E
100
AcDbEntity
  8
7
100
AcDbLine
 10
6.032509938164849
 20
4.591219660782713
 30
0.0
 11
6.032509938164849
 21
4.605677196806336
 31
0.0
  0
LINE
  5
2F63
330
1E
100
AcDbEntity
  8
7
100
AcDbLine
 10
6.032509938164849
 20
4.605677196806336
 30
0.0
 11
6.025938330881384
 21
4.617506089916572
 31
0.0
  0
LINE
  5
2F64
330
1E
100
AcDbEntity
  8
7
100
AcDbLine
 10
6.025938330881384
 20
4.617506089916572
 30
0.0
 11
5.941821757653038
 21
4.701622663144918
 31
0.0
  0
LINE
  5
2F65
330
1E
100
AcDbEntity
  8
7
100
AcDbLine
 10
5.941821757653038
 20
4.701622663144918
 30
0.0
 11
5.912906685605793
 21
4.721337484995312
 31
0.0
  0
LINE
  5
2F66
330
1E
100
AcDbEntity
  8
7
100
AcDbLine
 10
5.912906685605793
 20
4.721337484995312
 30
0.0
 11
5.880048649188471
 21
4.730537735192163
 31
0.0
  0
LINE
  5
2F67
330
1E
100
AcDbEntity
  8
7
100
AcDbLine
 10
5.692100680881384
 20
4.546532731255155
 30
0.0
 11
5.995708937377447
 21
4.567561874562242
 31
0.0
  0
LINE
  5
2F68
330
1E
100
AcDbEntity
  8
7
100
AcDbLine
 10
5.995708937377447
 20
4.567561874562242
 30
0.0
 11
6.024624009424692
 21
4.580705089129169
 31
0.0
  0
LINE
  5
2F69
330
1E
100
AcDbEntity
  8
7
100
AcDbLine
 10
6.024624009424692
 20
4.580705089129169
 30
0.0
 11
6.032509938164849
 21
4.591219660782713
 31
0.0
  0
LINE
  5
2F6A
330
1E
100
AcDbEntity
  8
7
100
AcDbLine
 10
5.510724319857762
 20
3.303184633223658
 30
0.0
 11
5.510724319857762
 21
3.278212525546494
 31
0.0
  0
LINE
  5
2F6B
330
1E
100
AcDbEntity
  8
7
100
AcDbLine
 10
5.510724319857762
 20
3.278212525546494
 30
0.0
 11
5.510724319857762
 21
3.244040167672477
 31
0.0
  0
LINE
  5
2F6C
330
1E
100
AcDbEntity
  8
7
100
AcDbLine
 10
5.510724319857762
 20
3.244040167672477
 30
0.0
 11
5.510724319857762
 21
3.20461052397169
 31
0.0
  0
LINE
  5
2F6D
330
1E
100
AcDbEntity
  8
7
100
AcDbLine
 10
5.510724319857762
 20
3.20461052397169
 30
0.0
 11
5.510724319857762
 21
3.161237915900824
 31
0.0
  0
LINE
  5
2F6E
330
1E
100
AcDbEntity
  8
7
100
AcDbLine
 10
5.510724319857762
 20
3.161237915900824
 30
0.0
 11
5.510724319857762
 21
3.116550986373265
 31
0.0
  0
LINE
  5
2F6F
330
1E
100
AcDbEntity
  8
7
100
AcDbLine
 10
5.510724319857762
 20
3.116550986373265
 30
0.0
 11
5.510724319857762
 21
3.071864056845705
 31
0.0
  0
LINE
  5
2F70
330
1E
100
AcDbEntity
  8
7
100
AcDbLine
 10
5.510724319857762
 20
3.071864056845705
 30
0.0
 11
5.510724319857762
 21
3.032434413144919
 31
0.0
  0
LINE
  5
2F71
330
1E
100
AcDbEntity
  8
7
100
AcDbLine
 10
5.510724319857762
 20
3.032434413144919
 30
0.0
 11
5.510724319857762
 21
2.999576376727596
 31
0.0
  0
LINE
  5
2F72
330
1E
100
AcDbEntity
  8
7
100
AcDbLine
 10
5.510724319857762
 20
2.999576376727596
 30
0.0
 11
5.510724319857762
 21
2.973289947593737
 31
0.0
  0
LINE
  5
2F73
330
1E
100
AcDbEntity
  8
7
100
AcDbLine
 10
5.510724319857762
 20
2.973289947593737
 30
0.0
 11
5.510724319857762
 21
2.957518090113422
 31
0.0
  0
LINE
  5
2F74
330
1E
100
AcDbEntity
  8
7
100
AcDbLine
 10
5.510724319857762
 20
2.957518090113422
 30
0.0
 11
5.510724319857762
 21
2.95226080428665
 31
0.0
  0
LINE
  5
2F75
330
1E
100
AcDbEntity
  8
7
100
AcDbLine
 10
5.510724319857762
 20
3.324213776530744
 30
0.0
 11
5.510724319857762
 21
3.318956490703973
 31
0.0
  0
LINE
  5
2F76
330
1E
100
AcDbEntity
  8
7
100
AcDbLine
 10
5.510724319857762
 20
3.318956490703973
 30
0.0
 11
5.510724319857762
 21
3.303184633223658
 31
0.0
  0
LINE
  5
2F77
330
1E
100
AcDbEntity
  8
7
100
AcDbLine
 10
5.598783857456187
 20
2.953575125743343
 30
0.0
 11
5.598783857456187
 21
2.958832411570115
 31
0.0
  0
LINE
  5
2F78
330
1E
100
AcDbEntity
  8
7
100
AcDbLine
 10
5.598783857456187
 20
2.958832411570115
 30
0.0
 11
5.598783857456187
 21
2.97460426905043
 31
0.0
  0
LINE
  5
2F79
330
1E
100
AcDbEntity
  8
7
100
AcDbLine
 10
5.598783857456187
 20
2.97460426905043
 30
0.0
 11
5.598783857456187
 21
2.999576376727596
 31
0.0
  0
LINE
  5
2F7A
330
1E
100
AcDbEntity
  8
7
100
AcDbLine
 10
5.598783857456187
 20
2.999576376727596
 30
0.0
 11
5.598783857456187
 21
3.033748734601611
 31
0.0
  0
LINE
  5
2F7B
330
1E
100
AcDbEntity
  8
7
100
AcDbLine
 10
5.598783857456187
 20
3.033748734601611
 30
0.0
 11
5.598783857456187
 21
3.073178378302398
 31
0.0
  0
LINE
  5
2F7C
330
1E
100
AcDbEntity
  8
7
100
AcDbLine
 10
5.598783857456187
 20
3.073178378302398
 30
0.0
 11
5.598783857456187
 21
3.116550986373265
 31
0.0
  0
LINE
  5
2F7D
330
1E
100
AcDbEntity
  8
7
100
AcDbLine
 10
5.598783857456187
 20
3.116550986373265
 30
0.0
 11
5.598783857456187
 21
3.161237915900824
 31
0.0
  0
LINE
  5
2F7E
330
1E
100
AcDbEntity
  8
7
100
AcDbLine
 10
5.598783857456187
 20
3.161237915900824
 30
0.0
 11
5.598783857456187
 21
3.203296202514997
 31
0.0
  0
LINE
  5
2F7F
330
1E
100
AcDbEntity
  8
7
100
AcDbLine
 10
5.598783857456187
 20
3.203296202514997
 30
0.0
 11
5.598783857456187
 21
3.242725846215785
 31
0.0
  0
LINE
  5
2F80
330
1E
100
AcDbEntity
  8
7
100
AcDbLine
 10
5.598783857456187
 20
3.242725846215785
 30
0.0
 11
5.598783857456187
 21
3.2768982040898
 31
0.0
  0
LINE
  5
2F81
330
1E
100
AcDbEntity
  8
7
100
AcDbLine
 10
5.598783857456187
 20
3.2768982040898
 30
0.0
 11
5.598783857456187
 21
3.301870311766965
 31
0.0
  0
LINE
  5
2F82
330
1E
100
AcDbEntity
  8
7
100
AcDbLine
 10
5.598783857456187
 20
3.301870311766965
 30
0.0
 11
5.598783857456187
 21
3.31764216924728
 31
0.0
  0
LINE
  5
2F83
330
1E
100
AcDbEntity
  8
7
100
AcDbLine
 10
5.598783857456187
 20
3.31764216924728
 30
0.0
 11
5.598783857456187
 21
3.322899455074052
 31
0.0
  0
LINE
  5
2F84
330
1E
100
AcDbEntity
  8
7
100
AcDbLine
 10
5.510724319857762
 20
7.020085712751218
 30
0.0
 11
5.510724319857762
 21
7.014828426924446
 31
0.0
  0
LINE
  5
2F85
330
1E
100
AcDbEntity
  8
7
100
AcDbLine
 10
5.510724319857762
 20
7.014828426924446
 30
0.0
 11
5.510724319857762
 21
6.999056569444132
 31
0.0
  0
LINE
  5
2F86
330
1E
100
AcDbEntity
  8
7
100
AcDbLine
 10
5.510724319857762
 20
6.999056569444132
 30
0.0
 11
5.510724319857762
 21
6.972770140310273
 31
0.0
  0
LINE
  5
2F87
330
1E
100
AcDbEntity
  8
7
100
AcDbLine
 10
5.510724319857762
 20
6.972770140310273
 30
0.0
 11
5.510724319857762
 21
6.93991210389295
 31
0.0
  0
LINE
  5
2F88
330
1E
100
AcDbEntity
  8
7
100
AcDbLine
 10
5.510724319857762
 20
6.93991210389295
 30
0.0
 11
5.510724319857762
 21
6.900482460192162
 31
0.0
  0
LINE
  5
2F89
330
1E
100
AcDbEntity
  8
7
100
AcDbLine
 10
5.510724319857762
 20
6.900482460192162
 30
0.0
 11
5.510724319857762
 21
6.855795530664603
 31
0.0
  0
LINE
  5
2F8A
330
1E
100
AcDbEntity
  8
7
100
AcDbLine
 10
5.510724319857762
 20
6.855795530664603
 30
0.0
 11
5.510724319857762
 21
6.811108601137044
 31
0.0
  0
LINE
  5
2F8B
330
1E
100
AcDbEntity
  8
7
100
AcDbLine
 10
5.510724319857762
 20
6.811108601137044
 30
0.0
 11
5.510724319857762
 21
6.767735993066179
 31
0.0
  0
LINE
  5
2F8C
330
1E
100
AcDbEntity
  8
7
100
AcDbLine
 10
5.510724319857762
 20
6.767735993066179
 30
0.0
 11
5.510724319857762
 21
6.728306349365391
 31
0.0
  0
LINE
  5
2F8D
330
1E
100
AcDbEntity
  8
7
100
AcDbLine
 10
5.510724319857762
 20
6.728306349365391
 30
0.0
 11
5.510724319857762
 21
6.694133991491375
 31
0.0
  0
LINE
  5
2F8E
330
1E
100
AcDbEntity
  8
7
100
AcDbLine
 10
5.510724319857762
 20
6.694133991491375
 30
0.0
 11
5.510724319857762
 21
6.669161883814211
 31
0.0
  0
LINE
  5
2F8F
330
1E
100
AcDbEntity
  8
7
100
AcDbLine
 10
5.510724319857762
 20
6.669161883814211
 30
0.0
 11
5.510724319857762
 21
6.653390026333895
 31
0.0
  0
LINE
  5
2F90
330
1E
100
AcDbEntity
  8
7
100
AcDbLine
 10
5.510724319857762
 20
6.653390026333895
 30
0.0
 11
5.510724319857762
 21
6.648132740507124
 31
0.0
  0
LINE
  5
2F91
330
1E
100
AcDbEntity
  8
7
100
AcDbLine
 10
5.598783857456187
 20
6.997742247987439
 30
0.0
 11
5.598783857456187
 21
7.013514105467754
 31
0.0
  0
LINE
  5
2F92
330
1E
100
AcDbEntity
  8
7
100
AcDbLine
 10
5.598783857456187
 20
7.013514105467754
 30
0.0
 11
5.598783857456187
 21
7.018771391294525
 31
0.0
  0
LINE
  5
2F93
330
1E
100
AcDbEntity
  8
7
100
AcDbLine
 10
5.598783857456187
 20
6.649447061963816
 30
0.0
 11
5.598783857456187
 21
6.654704347790588
 31
0.0
  0
LINE
  5
2F94
330
1E
100
AcDbEntity
  8
7
100
AcDbLine
 10
5.598783857456187
 20
6.654704347790588
 30
0.0
 11
5.598783857456187
 21
6.670476205270903
 31
0.0
  0
LINE
  5
2F95
330
1E
100
AcDbEntity
  8
7
100
AcDbLine
 10
5.598783857456187
 20
6.670476205270903
 30
0.0
 11
5.598783857456187
 21
6.695448312948069
 31
0.0
  0
LINE
  5
2F96
330
1E
100
AcDbEntity
  8
7
100
AcDbLine
 10
5.598783857456187
 20
6.695448312948069
 30
0.0
 11
5.598783857456187
 21
6.729620670822083
 31
0.0
  0
LINE
  5
2F97
330
1E
100
AcDbEntity
  8
7
100
AcDbLine
 10
5.598783857456187
 20
6.729620670822083
 30
0.0
 11
5.598783857456187
 21
6.769050314522871
 31
0.0
  0
LINE
  5
2F98
330
1E
100
AcDbEntity
  8
7
100
AcDbLine
 10
5.598783857456187
 20
6.769050314522871
 30
0.0
 11
5.598783857456187
 21
6.811108601137044
 31
0.0
  0
LINE
  5
2F99
330
1E
100
AcDbEntity
  8
7
100
AcDbLine
 10
5.598783857456187
 20
6.811108601137044
 30
0.0
 11
5.598783857456187
 21
6.855795530664603
 31
0.0
  0
LINE
  5
2F9A
330
1E
100
AcDbEntity
  8
7
100
AcDbLine
 10
5.598783857456187
 20
6.855795530664603
 30
0.0
 11
5.598783857456187
 21
6.89916813873547
 31
0.0
  0
LINE
  5
2F9B
330
1E
100
AcDbEntity
  8
7
100
AcDbLine
 10
5.598783857456187
 20
6.89916813873547
 30
0.0
 11
5.598783857456187
 21
6.938597782436257
 31
0.0
  0
LINE
  5
2F9C
330
1E
100
AcDbEntity
  8
7
100
AcDbLine
 10
5.598783857456187
 20
6.938597782436257
 30
0.0
 11
5.598783857456187
 21
6.972770140310273
 31
0.0
  0
LINE
  5
2F9D
330
1E
100
AcDbEntity
  8
7
100
AcDbLine
 10
5.598783857456187
 20
6.972770140310273
 30
0.0
 11
5.598783857456187
 21
6.997742247987439
 31
0.0
  0
LINE
  5
30DA
330
1E
100
AcDbEntity
  8
7
100
AcDbLine
 10
1.410041374975872
 20
3.041634663341769
 30
0.0
 11
1.406098410605793
 21
3.048206270625234
 31
0.0
  0
LINE
  5
30DB
330
1E
100
AcDbEntity
  8
7
100
AcDbLine
 10
1.406098410605793
 20
3.048206270625234
 30
0.0
 11
1.399526803322328
 21
3.075807021215784
 31
0.0
  0
LINE
  5
30DC
330
1E
100
AcDbEntity
  8
7
100
AcDbLine
 10
1.527015984621541
 20
3.041634663341769
 30
0.0
 11
1.524387341708155
 21
3.035063056058304
 31
0.0
  0
LINE
  5
30DD
330
1E
100
AcDbEntity
  8
7
100
AcDbLine
 10
1.524387341708155
 20
3.035063056058304
 30
0.0
 11
1.503358198401069
 21
3.01534823420791
 31
0.0
  0
LINE
  5
30DE
330
1E
100
AcDbEntity
  8
7
100
AcDbLine
 10
1.503358198401069
 20
3.01534823420791
 30
0.0
 11
1.475757447810517
 21
3.007462305467753
 31
0.0
  0
LINE
  5
30DF
330
1E
100
AcDbEntity
  8
7
100
AcDbLine
 10
1.475757447810517
 20
3.007462305467753
 30
0.0
 11
1.469185840527053
 21
3.007462305467753
 31
0.0
  0
LINE
  5
30E0
330
1E
100
AcDbEntity
  8
7
100
AcDbLine
 10
1.469185840527053
 20
3.144151736963816
 30
0.0
 11
1.475757447810517
 21
3.144151736963816
 31
0.0
  0
LINE
  5
30E1
330
1E
100
AcDbEntity
  8
7
100
AcDbLine
 10
1.475757447810517
 20
3.144151736963816
 30
0.0
 11
1.503358198401069
 21
3.134951486766965
 31
0.0
  0
LINE
  5
30E2
330
1E
100
AcDbEntity
  8
7
100
AcDbLine
 10
1.503358198401069
 20
3.134951486766965
 30
0.0
 11
1.524387341708155
 21
3.116550986373265
 31
0.0
  0
LINE
  5
30E3
330
1E
100
AcDbEntity
  8
7
100
AcDbLine
 10
1.524387341708155
 20
3.116550986373265
 30
0.0
 11
1.527015984621541
 21
3.1099793790898
 31
0.0
  0
LINE
  5
30E4
330
1E
100
AcDbEntity
  8
7
100
AcDbLine
 10
1.399526803322328
 20
3.075807021215784
 30
0.0
 11
1.406098410605793
 21
3.103407771806335
 31
0.0
  0
LINE
  5
30E5
330
1E
100
AcDbEntity
  8
7
100
AcDbLine
 10
1.406098410605793
 20
3.103407771806335
 30
0.0
 11
1.410041374975872
 21
3.1099793790898
 31
0.0
  0
LINE
  5
30E6
330
1E
100
AcDbEntity
  8
7
100
AcDbLine
 10
0.8238540052908325
 20
6.245950374759092
 30
0.0
 11
0.8422545056845333
 21
6.273551125349643
 31
0.0
  0
LINE
  5
30E7
330
1E
100
AcDbEntity
  8
7
100
AcDbLine
 10
0.8422545056845333
 20
6.273551125349643
 30
0.0
 11
0.869855256275084
 21
6.291951625743344
 31
0.0
  0
LINE
  5
30E8
330
1E
100
AcDbEntity
  8
7
100
AcDbLine
 10
0.869855256275084
 20
6.291951625743344
 30
0.0
 11
0.9027132926924075
 21
6.298523233026809
 31
0.0
  0
LINE
  5
30E9
330
1E
100
AcDbEntity
  8
7
100
AcDbLine
 10
0.9027132926924075
 20
3.67382328401106
 30
0.0
 11
0.869855256275084
 21
3.680394891294525
 31
0.0
  0
LINE
  5
30EA
330
1E
100
AcDbEntity
  8
7
100
AcDbLine
 10
0.869855256275084
 20
3.680394891294525
 30
0.0
 11
0.8422545056845333
 21
3.698795391688225
 31
0.0
  0
LINE
  5
30EB
330
1E
100
AcDbEntity
  8
7
100
AcDbLine
 10
0.8422545056845333
 20
3.698795391688225
 30
0.0
 11
0.8238540052908325
 21
3.726396142278777
 31
0.0
  0
LINE
  5
30EC
330
1E
100
AcDbEntity
  8
7
100
AcDbLine
 10
0.8238540052908325
 20
3.726396142278777
 30
0.0
 11
0.8172823980073676
 21
3.7592541786961
 31
0.0
  0
LINE
  5
30ED
330
1E
100
AcDbEntity
  8
7
100
AcDbLine
 10
2.119774961590045
 20
3.7592541786961
 30
0.0
 11
2.11320335430658
 21
3.726396142278777
 31
0.0
  0
LINE
  5
30EE
330
1E
100
AcDbEntity
  8
7
100
AcDbLine
 10
2.11320335430658
 20
3.726396142278777
 30
0.0
 11
2.09480285391288
 21
3.698795391688225
 31
0.0
  0
LINE
  5
30EF
330
1E
100
AcDbEntity
  8
7
100
AcDbLine
 10
2.09480285391288
 20
3.698795391688225
 30
0.0
 11
2.067202103322329
 21
3.680394891294525
 31
0.0
  0
LINE
  5
30F0
330
1E
100
AcDbEntity
  8
7
100
AcDbLine
 10
2.067202103322329
 20
3.680394891294525
 30
0.0
 11
2.034344066905005
 21
3.67382328401106
 31
0.0
  0
LINE
  5
30F1
330
1E
100
AcDbEntity
  8
7
100
AcDbLine
 10
2.034344066905005
 20
6.298523233026809
 30
0.0
 11
2.067202103322329
 21
6.291951625743344
 31
0.0
  0
LINE
  5
30F2
330
1E
100
AcDbEntity
  8
7
100
AcDbLine
 10
2.067202103322329
 20
6.291951625743344
 30
0.0
 11
2.09480285391288
 21
6.273551125349643
 31
0.0
  0
LINE
  5
30F3
330
1E
100
AcDbEntity
  8
7
100
AcDbLine
 10
2.09480285391288
 20
6.273551125349643
 30
0.0
 11
2.11320335430658
 21
6.245950374759092
 31
0.0
  0
LINE
  5
30F4
330
1E
100
AcDbEntity
  8
7
100
AcDbLine
 10
2.11320335430658
 20
6.245950374759092
 30
0.0
 11
2.119774961590045
 21
6.213092338341769
 31
0.0
  0
LINE
  5
30F5
330
1E
100
AcDbEntity
  8
7
100
AcDbLine
 10
0.758137932456187
 20
6.348467448381139
 30
0.0
 11
0.756823610999494
 21
6.353724734207911
 31
0.0
  0
LINE
  5
30F6
330
1E
100
AcDbEntity
  8
7
100
AcDbLine
 10
0.756823610999494
 20
6.353724734207911
 30
0.0
 11
0.756823610999494
 21
6.368182270231533
 31
0.0
  0
LINE
  5
30F7
330
1E
100
AcDbEntity
  8
7
100
AcDbLine
 10
0.758137932456187
 20
6.337952876727595
 30
0.0
 11
0.758137932456187
 21
6.34452448401106
 31
0.0
  0
LINE
  5
30F8
330
1E
100
AcDbEntity
  8
7
100
AcDbLine
 10
0.758137932456187
 20
6.34452448401106
 30
0.0
 11
0.758137932456187
 21
6.347153126924446
 31
0.0
  0
LINE
  5
30F9
330
1E
100
AcDbEntity
  8
7
100
AcDbLine
 10
0.756823610999494
 20
3.604164246806336
 30
0.0
 11
0.756823610999494
 21
3.618621782829958
 31
0.0
  0
LINE
  5
30FA
330
1E
100
AcDbEntity
  8
7
100
AcDbLine
 10
0.756823610999494
 20
3.618621782829958
 30
0.0
 11
0.758137932456187
 21
3.62387906865673
 31
0.0
  0
LINE
  5
30FB
330
1E
100
AcDbEntity
  8
7
100
AcDbLine
 10
0.758137932456187
 20
3.62387906865673
 30
0.0
 11
0.758137932456187
 21
3.625193390113422
 31
0.0
  0
LINE
  5
30FC
330
1E
100
AcDbEntity
  8
7
100
AcDbLine
 10
0.758137932456187
 20
3.625193390113422
 30
0.0
 11
0.758137932456187
 21
3.627822033026808
 31
0.0
  0
LINE
  5
30FD
330
1E
100
AcDbEntity
  8
7
100
AcDbLine
 10
0.758137932456187
 20
3.627822033026808
 30
0.0
 11
0.758137932456187
 21
3.634393640310273
 31
0.0
  0
LINE
  5
30FE
330
1E
100
AcDbEntity
  8
7
100
AcDbLine
 10
2.033029745448313
 20
6.295894590113422
 30
0.0
 11
2.034344066905005
 21
6.298523233026809
 31
0.0
  0
LINE
  5
30FF
330
1E
100
AcDbEntity
  8
7
100
AcDbLine
 10
2.034344066905005
 20
6.298523233026809
 30
0.0
 11
0.9027132926924075
 21
6.298523233026809
 31
0.0
  0
LINE
  5
3100
330
1E
100
AcDbEntity
  8
7
100
AcDbLine
 10
0.9027132926924075
 20
6.298523233026809
 30
0.0
 11
0.9053419356057933
 21
6.295894590113422
 31
0.0
  0
LINE
  5
3101
330
1E
100
AcDbEntity
  8
7
100
AcDbLine
 10
0.8172823980073676
 20
6.213092338341769
 30
0.0
 11
0.8172823980073676
 21
3.7592541786961
 31
0.0
  0
LINE
  5
3102
330
1E
100
AcDbEntity
  8
7
100
AcDbLine
 10
0.8172823980073676
 20
3.7592541786961
 30
0.0
 11
0.8199110409207541
 21
3.760568500152792
 31
0.0
  0
LINE
  5
3103
330
1E
100
AcDbEntity
  8
7
100
AcDbLine
 10
1.273351943479808
 20
3.383358242081926
 30
0.0
 11
1.268094657653037
 21
3.342614276924446
 31
0.0
  0
LINE
  5
3104
330
1E
100
AcDbEntity
  8
7
100
AcDbLine
 10
1.268094657653037
 20
3.342614276924446
 30
0.0
 11
1.273351943479808
 21
3.301870311766965
 31
0.0
  0
LINE
  5
3105
330
1E
100
AcDbEntity
  8
7
100
AcDbLine
 10
1.273351943479808
 20
3.301870311766965
 30
0.0
 11
1.289123800960124
 21
3.265069310979564
 31
0.0
  0
LINE
  5
3106
330
1E
100
AcDbEntity
  8
7
100
AcDbLine
 10
1.289123800960124
 20
3.265069310979564
 30
0.0
 11
1.314095908637288
 21
3.232211274562241
 31
0.0
  0
LINE
  5
3107
330
1E
100
AcDbEntity
  8
7
100
AcDbLine
 10
1.314095908637288
 20
3.232211274562241
 30
0.0
 11
1.345639623597919
 21
3.207239166885075
 31
0.0
  0
LINE
  5
3108
330
1E
100
AcDbEntity
  8
7
100
AcDbLine
 10
1.345639623597919
 20
3.207239166885075
 30
0.0
 11
1.383754945842014
 21
3.191467309404761
 31
0.0
  0
LINE
  5
3109
330
1E
100
AcDbEntity
  8
7
100
AcDbLine
 10
1.383754945842014
 20
3.191467309404761
 30
0.0
 11
1.424498910999494
 21
3.186210023577989
 31
0.0
  0
LINE
  5
310A
330
1E
100
AcDbEntity
  8
7
100
AcDbLine
 10
1.424498910999494
 20
3.499018530270903
 30
0.0
 11
1.383754945842014
 21
3.493761244444131
 31
0.0
  0
LINE
  5
310B
330
1E
100
AcDbEntity
  8
7
100
AcDbLine
 10
1.383754945842014
 20
3.493761244444131
 30
0.0
 11
1.346953945054612
 21
3.477989386963816
 31
0.0
  0
LINE
  5
310C
330
1E
100
AcDbEntity
  8
7
100
AcDbLine
 10
1.346953945054612
 20
3.477989386963816
 30
0.0
 11
1.314095908637288
 21
3.45301727928665
 31
0.0
  0
LINE
  5
310D
330
1E
100
AcDbEntity
  8
7
100
AcDbLine
 10
1.314095908637288
 20
3.45301727928665
 30
0.0
 11
1.289123800960124
 21
3.421473564326021
 31
0.0
  0
LINE
  5
310E
330
1E
100
AcDbEntity
  8
7
100
AcDbLine
 10
1.289123800960124
 20
3.421473564326021
 30
0.0
 11
1.273351943479808
 21
3.383358242081926
 31
0.0
  0
LINE
  5
310F
330
1E
100
AcDbEntity
  8
7
100
AcDbLine
 10
1.592732057456187
 20
3.477989386963816
 30
0.0
 11
1.554616735212092
 21
3.493761244444131
 31
0.0
  0
LINE
  5
3110
330
1E
100
AcDbEntity
  8
7
100
AcDbLine
 10
1.554616735212092
 20
3.493761244444131
 30
0.0
 11
1.513872770054612
 21
3.499018530270903
 31
0.0
  0
LINE
  5
3111
330
1E
100
AcDbEntity
  8
7
100
AcDbLine
 10
1.513872770054612
 20
3.186210023577989
 30
0.0
 11
1.554616735212092
 21
3.191467309404761
 31
0.0
  0
LINE
  5
3112
330
1E
100
AcDbEntity
  8
7
100
AcDbLine
 10
1.554616735212092
 20
3.191467309404761
 30
0.0
 11
1.591417735999494
 21
3.207239166885075
 31
0.0
  0
LINE
  5
3113
330
1E
100
AcDbEntity
  8
7
100
AcDbLine
 10
1.591417735999494
 20
3.207239166885075
 30
0.0
 11
1.624275772416817
 21
3.232211274562241
 31
0.0
  0
LINE
  5
3114
330
1E
100
AcDbEntity
  8
7
100
AcDbLine
 10
1.624275772416817
 20
3.232211274562241
 30
0.0
 11
1.649247880093982
 21
3.263754989522871
 31
0.0
  0
LINE
  5
3115
330
1E
100
AcDbEntity
  8
7
100
AcDbLine
 10
1.649247880093982
 20
3.263754989522871
 30
0.0
 11
1.665019737574297
 21
3.301870311766965
 31
0.0
  0
LINE
  5
3116
330
1E
100
AcDbEntity
  8
7
100
AcDbLine
 10
1.665019737574297
 20
3.301870311766965
 30
0.0
 11
1.670277023401069
 21
3.342614276924446
 31
0.0
  0
LINE
  5
3117
330
1E
100
AcDbEntity
  8
7
100
AcDbLine
 10
1.670277023401069
 20
3.342614276924446
 30
0.0
 11
1.665019737574297
 21
3.383358242081926
 31
0.0
  0
LINE
  5
3118
330
1E
100
AcDbEntity
  8
7
100
AcDbLine
 10
1.665019737574297
 20
3.383358242081926
 30
0.0
 11
1.649247880093982
 21
3.420159242869328
 31
0.0
  0
LINE
  5
3119
330
1E
100
AcDbEntity
  8
7
100
AcDbLine
 10
1.649247880093982
 20
3.420159242869328
 30
0.0
 11
1.624275772416817
 21
3.45301727928665
 31
0.0
  0
LINE
  5
311A
330
1E
100
AcDbEntity
  8
7
100
AcDbLine
 10
1.624275772416817
 20
3.45301727928665
 30
0.0
 11
1.592732057456187
 21
3.477989386963816
 31
0.0
  0
LINE
  5
311B
330
1E
100
AcDbEntity
  8
7
100
AcDbLine
 10
1.345639623597919
 20
3.359700455861454
 30
0.0
 11
1.345639623597919
 21
3.325528097987438
 31
0.0
  0
LINE
  5
311C
330
1E
100
AcDbEntity
  8
7
100
AcDbLine
 10
1.345639623597919
 20
3.325528097987438
 30
0.0
 11
1.360097159621541
 21
3.295298704483501
 31
0.0
  0
LINE
  5
311D
330
1E
100
AcDbEntity
  8
7
100
AcDbLine
 10
1.576960199975872
 20
3.295298704483501
 30
0.0
 11
1.591417735999494
 21
3.325528097987438
 31
0.0
  0
LINE
  5
311E
330
1E
100
AcDbEntity
  8
7
100
AcDbLine
 10
1.591417735999494
 20
3.325528097987438
 30
0.0
 11
1.591417735999494
 21
3.359700455861454
 31
0.0
  0
LINE
  5
311F
330
1E
100
AcDbEntity
  8
7
100
AcDbLine
 10
1.591417735999494
 20
3.359700455861454
 30
0.0
 11
1.576960199975872
 21
3.389929849365391
 31
0.0
  0
LINE
  5
3120
330
1E
100
AcDbEntity
  8
7
100
AcDbLine
 10
1.273351943479808
 20
6.670476205270903
 30
0.0
 11
1.268094657653037
 21
6.629732240113423
 31
0.0
  0
LINE
  5
3121
330
1E
100
AcDbEntity
  8
7
100
AcDbLine
 10
1.268094657653037
 20
6.629732240113423
 30
0.0
 11
1.273351943479808
 21
6.588988274955942
 31
0.0
  0
LINE
  5
3122
330
1E
100
AcDbEntity
  8
7
100
AcDbLine
 10
1.273351943479808
 20
6.588988274955942
 30
0.0
 11
1.289123800960124
 21
6.552187274168541
 31
0.0
  0
LINE
  5
3123
330
1E
100
AcDbEntity
  8
7
100
AcDbLine
 10
1.289123800960124
 20
6.552187274168541
 30
0.0
 11
1.314095908637288
 21
6.519329237751218
 31
0.0
  0
LINE
  5
3124
330
1E
100
AcDbEntity
  8
7
100
AcDbLine
 10
1.314095908637288
 20
6.519329237751218
 30
0.0
 11
1.345639623597919
 21
6.494357130074052
 31
0.0
  0
LINE
  5
3125
330
1E
100
AcDbEntity
  8
7
100
AcDbLine
 10
1.345639623597919
 20
6.494357130074052
 30
0.0
 11
1.383754945842014
 21
6.478585272593737
 31
0.0
  0
LINE
  5
3126
330
1E
100
AcDbEntity
  8
7
100
AcDbLine
 10
1.383754945842014
 20
6.478585272593737
 30
0.0
 11
1.424498910999494
 21
6.473327986766966
 31
0.0
  0
LINE
  5
3127
330
1E
100
AcDbEntity
  8
7
100
AcDbLine
 10
1.424498910999494
 20
6.78613649345988
 30
0.0
 11
1.383754945842014
 21
6.780879207633107
 31
0.0
  0
LINE
  5
3128
330
1E
100
AcDbEntity
  8
7
100
AcDbLine
 10
1.383754945842014
 20
6.780879207633107
 30
0.0
 11
1.346953945054612
 21
6.765107350152793
 31
0.0
  0
LINE
  5
3129
330
1E
100
AcDbEntity
  8
7
100
AcDbLine
 10
1.346953945054612
 20
6.765107350152793
 30
0.0
 11
1.314095908637288
 21
6.740135242475627
 31
0.0
  0
LINE
  5
312A
330
1E
100
AcDbEntity
  8
7
100
AcDbLine
 10
1.314095908637288
 20
6.740135242475627
 30
0.0
 11
1.289123800960124
 21
6.708591527514997
 31
0.0
  0
LINE
  5
312B
330
1E
100
AcDbEntity
  8
7
100
AcDbLine
 10
1.289123800960124
 20
6.708591527514997
 30
0.0
 11
1.273351943479808
 21
6.670476205270903
 31
0.0
  0
LINE
  5
312C
330
1E
100
AcDbEntity
  8
7
100
AcDbLine
 10
1.592732057456187
 20
6.765107350152793
 30
0.0
 11
1.554616735212092
 21
6.780879207633107
 31
0.0
  0
LINE
  5
312D
330
1E
100
AcDbEntity
  8
7
100
AcDbLine
 10
1.554616735212092
 20
6.780879207633107
 30
0.0
 11
1.513872770054612
 21
6.78613649345988
 31
0.0
  0
LINE
  5
312E
330
1E
100
AcDbEntity
  8
7
100
AcDbLine
 10
1.513872770054612
 20
6.473327986766966
 30
0.0
 11
1.554616735212092
 21
6.478585272593737
 31
0.0
  0
LINE
  5
312F
330
1E
100
AcDbEntity
  8
7
100
AcDbLine
 10
1.554616735212092
 20
6.478585272593737
 30
0.0
 11
1.591417735999494
 21
6.494357130074052
 31
0.0
  0
LINE
  5
3130
330
1E
100
AcDbEntity
  8
7
100
AcDbLine
 10
1.591417735999494
 20
6.494357130074052
 30
0.0
 11
1.624275772416817
 21
6.519329237751218
 31
0.0
  0
LINE
  5
3131
330
1E
100
AcDbEntity
  8
7
100
AcDbLine
 10
1.624275772416817
 20
6.519329237751218
 30
0.0
 11
1.649247880093982
 21
6.550872952711848
 31
0.0
  0
LINE
  5
3132
330
1E
100
AcDbEntity
  8
7
100
AcDbLine
 10
1.649247880093982
 20
6.550872952711848
 30
0.0
 11
1.665019737574297
 21
6.588988274955942
 31
0.0
  0
LINE
  5
3133
330
1E
100
AcDbEntity
  8
7
100
AcDbLine
 10
1.665019737574297
 20
6.588988274955942
 30
0.0
 11
1.670277023401069
 21
6.629732240113423
 31
0.0
  0
LINE
  5
3134
330
1E
100
AcDbEntity
  8
7
100
AcDbLine
 10
1.670277023401069
 20
6.629732240113423
 30
0.0
 11
1.665019737574297
 21
6.670476205270903
 31
0.0
  0
LINE
  5
3135
330
1E
100
AcDbEntity
  8
7
100
AcDbLine
 10
1.665019737574297
 20
6.670476205270903
 30
0.0
 11
1.649247880093982
 21
6.707277206058305
 31
0.0
  0
LINE
  5
3136
330
1E
100
AcDbEntity
  8
7
100
AcDbLine
 10
1.649247880093982
 20
6.707277206058305
 30
0.0
 11
1.624275772416817
 21
6.740135242475627
 31
0.0
  0
LINE
  5
3137
330
1E
100
AcDbEntity
  8
7
100
AcDbLine
 10
1.624275772416817
 20
6.740135242475627
 30
0.0
 11
1.592732057456187
 21
6.765107350152793
 31
0.0
  0
LINE
  5
3138
330
1E
100
AcDbEntity
  8
7
100
AcDbLine
 10
1.345639623597919
 20
6.64681841905043
 30
0.0
 11
1.345639623597919
 21
6.612646061176415
 31
0.0
  0
LINE
  5
3139
330
1E
100
AcDbEntity
  8
7
100
AcDbLine
 10
1.345639623597919
 20
6.612646061176415
 30
0.0
 11
1.360097159621541
 21
6.582416667672478
 31
0.0
  0
LINE
  5
313A
330
1E
100
AcDbEntity
  8
7
100
AcDbLine
 10
1.576960199975872
 20
6.582416667672478
 30
0.0
 11
1.591417735999494
 21
6.612646061176415
 31
0.0
  0
LINE
  5
313B
330
1E
100
AcDbEntity
  8
7
100
AcDbLine
 10
1.591417735999494
 20
6.612646061176415
 30
0.0
 11
1.591417735999494
 21
6.64681841905043
 31
0.0
  0
LINE
  5
313C
330
1E
100
AcDbEntity
  8
7
100
AcDbLine
 10
1.591417735999494
 20
6.64681841905043
 30
0.0
 11
1.576960199975872
 21
6.677047812554367
 31
0.0
  0
LINE
  5
313D
330
1E
100
AcDbEntity
  8
7
100
AcDbLine
 10
2.180233748597919
 20
3.618621782829958
 30
0.0
 11
2.180233748597919
 21
3.604164246806336
 31
0.0
  0
LINE
  5
313E
330
1E
100
AcDbEntity
  8
7
100
AcDbLine
 10
2.180233748597919
 20
3.604164246806336
 30
0.0
 11
2.180233748597919
 21
6.368182270231533
 31
0.0
  0
LINE
  5
313F
330
1E
100
AcDbEntity
  8
7
100
AcDbLine
 10
2.180233748597919
 20
6.368182270231533
 30
0.0
 11
2.180233748597919
 21
6.353724734207911
 31
0.0
  0
LINE
  5
3140
330
1E
100
AcDbEntity
  8
7
100
AcDbLine
 10
2.180233748597919
 20
6.353724734207911
 30
0.0
 11
2.180233748597919
 21
6.348467448381139
 31
0.0
  0
LINE
  5
3141
330
1E
100
AcDbEntity
  8
7
100
AcDbLine
 10
2.180233748597919
 20
6.348467448381139
 30
0.0
 11
2.178919427141226
 21
6.347153126924446
 31
0.0
  0
LINE
  5
3142
330
1E
100
AcDbEntity
  8
7
100
AcDbLine
 10
2.178919427141226
 20
6.347153126924446
 30
0.0
 11
2.178919427141226
 21
6.34452448401106
 31
0.0
  0
LINE
  5
3143
330
1E
100
AcDbEntity
  8
7
100
AcDbLine
 10
2.178919427141226
 20
6.34452448401106
 30
0.0
 11
2.178919427141226
 21
6.337952876727595
 31
0.0
  0
LINE
  5
3144
330
1E
100
AcDbEntity
  8
7
100
AcDbLine
 10
2.178919427141226
 20
6.337952876727595
 30
0.0
 11
2.178919427141226
 21
3.634393640310273
 31
0.0
  0
LINE
  5
3145
330
1E
100
AcDbEntity
  8
7
100
AcDbLine
 10
2.178919427141226
 20
3.634393640310273
 30
0.0
 11
2.178919427141226
 21
3.627822033026808
 31
0.0
  0
LINE
  5
3146
330
1E
100
AcDbEntity
  8
7
100
AcDbLine
 10
2.178919427141226
 20
3.627822033026808
 30
0.0
 11
2.178919427141226
 21
3.625193390113422
 31
0.0
  0
LINE
  5
3147
330
1E
100
AcDbEntity
  8
7
100
AcDbLine
 10
1.433699161196344
 20
3.120493950743343
 30
0.0
 11
1.417927303716029
 21
3.10077912889295
 31
0.0
  0
LINE
  5
3148
330
1E
100
AcDbEntity
  8
7
100
AcDbLine
 10
1.417927303716029
 20
3.10077912889295
 30
0.0
 11
1.412670017889257
 21
3.075807021215784
 31
0.0
  0
LINE
  5
3149
330
1E
100
AcDbEntity
  8
7
100
AcDbLine
 10
1.412670017889257
 20
3.075807021215784
 30
0.0
 11
1.417927303716029
 21
3.050834913538619
 31
0.0
  0
LINE
  5
314A
330
1E
100
AcDbEntity
  8
7
100
AcDbLine
 10
1.417927303716029
 20
3.050834913538619
 30
0.0
 11
1.433699161196344
 21
3.031120091688225
 31
0.0
  0
LINE
  5
314B
330
1E
100
AcDbEntity
  8
7
100
AcDbLine
 10
1.433699161196344
 20
3.031120091688225
 30
0.0
 11
1.456042625960124
 21
3.020605520034682
 31
0.0
  0
LINE
  5
314C
330
1E
100
AcDbEntity
  8
7
100
AcDbLine
 10
1.456042625960124
 20
3.020605520034682
 30
0.0
 11
1.482329055093982
 21
3.020605520034682
 31
0.0
  0
LINE
  5
314D
330
1E
100
AcDbEntity
  8
7
100
AcDbLine
 10
1.482329055093982
 20
3.020605520034682
 30
0.0
 11
1.504672519857761
 21
3.031120091688225
 31
0.0
  0
LINE
  5
314E
330
1E
100
AcDbEntity
  8
7
100
AcDbLine
 10
1.504672519857761
 20
3.031120091688225
 30
0.0
 11
1.520444377338076
 21
3.050834913538619
 31
0.0
  0
LINE
  5
314F
330
1E
100
AcDbEntity
  8
7
100
AcDbLine
 10
1.520444377338076
 20
3.050834913538619
 30
0.0
 11
1.525701663164848
 21
3.075807021215784
 31
0.0
  0
LINE
  5
3150
330
1E
100
AcDbEntity
  8
7
100
AcDbLine
 10
1.525701663164848
 20
3.075807021215784
 30
0.0
 11
1.520444377338076
 21
3.10077912889295
 31
0.0
  0
LINE
  5
3151
330
1E
100
AcDbEntity
  8
7
100
AcDbLine
 10
1.520444377338076
 20
3.10077912889295
 30
0.0
 11
1.504672519857761
 21
3.120493950743343
 31
0.0
  0
LINE
  5
3152
330
1E
100
AcDbEntity
  8
7
100
AcDbLine
 10
1.504672519857761
 20
3.120493950743343
 30
0.0
 11
1.482329055093982
 21
3.131008522396887
 31
0.0
  0
LINE
  5
3153
330
1E
100
AcDbEntity
  8
7
100
AcDbLine
 10
1.482329055093982
 20
3.131008522396887
 30
0.0
 11
1.456042625960124
 21
3.131008522396887
 31
0.0
  0
LINE
  5
3154
330
1E
100
AcDbEntity
  8
7
100
AcDbLine
 10
1.456042625960124
 20
3.131008522396887
 30
0.0
 11
1.433699161196344
 21
3.120493950743343
 31
0.0
  0
LINE
  5
3155
330
1E
100
AcDbEntity
  8
7
100
AcDbLine
 10
1.513872770054612
 20
3.186210023577989
 30
0.0
 11
1.554616735212092
 21
3.191467309404761
 31
0.0
  0
LINE
  5
3156
330
1E
100
AcDbEntity
  8
7
100
AcDbLine
 10
1.554616735212092
 20
3.191467309404761
 30
0.0
 11
1.591417735999494
 21
3.207239166885075
 31
0.0
  0
LINE
  5
3157
330
1E
100
AcDbEntity
  8
7
100
AcDbLine
 10
1.591417735999494
 20
3.207239166885075
 30
0.0
 11
1.624275772416817
 21
3.232211274562241
 31
0.0
  0
LINE
  5
3158
330
1E
100
AcDbEntity
  8
7
100
AcDbLine
 10
1.624275772416817
 20
3.232211274562241
 30
0.0
 11
1.649247880093982
 21
3.263754989522871
 31
0.0
  0
LINE
  5
3159
330
1E
100
AcDbEntity
  8
7
100
AcDbLine
 10
1.649247880093982
 20
3.263754989522871
 30
0.0
 11
1.665019737574297
 21
3.301870311766965
 31
0.0
  0
LINE
  5
315A
330
1E
100
AcDbEntity
  8
7
100
AcDbLine
 10
1.665019737574297
 20
3.301870311766965
 30
0.0
 11
1.670277023401069
 21
3.342614276924446
 31
0.0
  0
LINE
  5
315B
330
1E
100
AcDbEntity
  8
7
100
AcDbLine
 10
1.670277023401069
 20
3.342614276924446
 30
0.0
 11
1.665019737574297
 21
3.383358242081926
 31
0.0
  0
LINE
  5
315C
330
1E
100
AcDbEntity
  8
7
100
AcDbLine
 10
1.665019737574297
 20
3.383358242081926
 30
0.0
 11
1.649247880093982
 21
3.420159242869328
 31
0.0
  0
LINE
  5
315D
330
1E
100
AcDbEntity
  8
7
100
AcDbLine
 10
1.649247880093982
 20
3.420159242869328
 30
0.0
 11
1.624275772416817
 21
3.45301727928665
 31
0.0
  0
LINE
  5
315E
330
1E
100
AcDbEntity
  8
7
100
AcDbLine
 10
1.624275772416817
 20
3.45301727928665
 30
0.0
 11
1.592732057456187
 21
3.477989386963816
 31
0.0
  0
LINE
  5
315F
330
1E
100
AcDbEntity
  8
7
100
AcDbLine
 10
1.592732057456187
 20
3.477989386963816
 30
0.0
 11
1.554616735212092
 21
3.493761244444131
 31
0.0
  0
LINE
  5
3160
330
1E
100
AcDbEntity
  8
7
100
AcDbLine
 10
1.554616735212092
 20
3.493761244444131
 30
0.0
 11
1.513872770054612
 21
3.499018530270903
 31
0.0
  0
LINE
  5
3161
330
1E
100
AcDbEntity
  8
7
100
AcDbLine
 10
1.346953945054612
 20
3.477989386963816
 30
0.0
 11
1.314095908637288
 21
3.45301727928665
 31
0.0
  0
LINE
  5
3162
330
1E
100
AcDbEntity
  8
7
100
AcDbLine
 10
1.314095908637288
 20
3.45301727928665
 30
0.0
 11
1.289123800960124
 21
3.421473564326021
 31
0.0
  0
LINE
  5
3163
330
1E
100
AcDbEntity
  8
7
100
AcDbLine
 10
1.289123800960124
 20
3.421473564326021
 30
0.0
 11
1.273351943479808
 21
3.383358242081926
 31
0.0
  0
LINE
  5
3164
330
1E
100
AcDbEntity
  8
7
100
AcDbLine
 10
1.273351943479808
 20
3.383358242081926
 30
0.0
 11
1.268094657653037
 21
3.342614276924446
 31
0.0
  0
LINE
  5
3165
330
1E
100
AcDbEntity
  8
7
100
AcDbLine
 10
1.268094657653037
 20
3.342614276924446
 30
0.0
 11
1.273351943479808
 21
3.301870311766965
 31
0.0
  0
LINE
  5
3166
330
1E
100
AcDbEntity
  8
7
100
AcDbLine
 10
1.273351943479808
 20
3.301870311766965
 30
0.0
 11
1.289123800960124
 21
3.265069310979564
 31
0.0
  0
LINE
  5
3167
330
1E
100
AcDbEntity
  8
7
100
AcDbLine
 10
1.289123800960124
 20
3.265069310979564
 30
0.0
 11
1.314095908637288
 21
3.232211274562241
 31
0.0
  0
LINE
  5
3168
330
1E
100
AcDbEntity
  8
7
100
AcDbLine
 10
1.314095908637288
 20
3.232211274562241
 30
0.0
 11
1.345639623597919
 21
3.207239166885075
 31
0.0
  0
LINE
  5
3169
330
1E
100
AcDbEntity
  8
7
100
AcDbLine
 10
1.345639623597919
 20
3.207239166885075
 30
0.0
 11
1.383754945842014
 21
3.191467309404761
 31
0.0
  0
LINE
  5
316A
330
1E
100
AcDbEntity
  8
7
100
AcDbLine
 10
1.383754945842014
 20
3.191467309404761
 30
0.0
 11
1.424498910999494
 21
3.186210023577989
 31
0.0
  0
LINE
  5
316B
330
1E
100
AcDbEntity
  8
7
100
AcDbLine
 10
1.424498910999494
 20
3.499018530270903
 30
0.0
 11
1.383754945842014
 21
3.493761244444131
 31
0.0
  0
LINE
  5
316C
330
1E
100
AcDbEntity
  8
7
100
AcDbLine
 10
1.383754945842014
 20
3.493761244444131
 30
0.0
 11
1.346953945054612
 21
3.477989386963816
 31
0.0
  0
LINE
  5
316D
330
1E
100
AcDbEntity
  8
7
100
AcDbLine
 10
1.713649631471934
 20
3.054777877908698
 30
0.0
 11
1.734678774779021
 21
3.063978128105548
 31
0.0
  0
LINE
  5
316E
330
1E
100
AcDbEntity
  8
7
100
AcDbLine
 10
1.734678774779021
 20
3.063978128105548
 30
0.0
 11
1.755707918086108
 21
3.063978128105548
 31
0.0
  0
LINE
  5
316F
330
1E
100
AcDbEntity
  8
7
100
AcDbLine
 10
1.223407728125478
 20
3.054777877908698
 30
0.0
 11
1.318038873007367
 21
2.961461054483501
 31
0.0
  0
LINE
  5
3170
330
1E
100
AcDbEntity
  8
7
100
AcDbLine
 10
1.318038873007367
 20
2.961461054483501
 30
0.0
 11
1.339068016314454
 21
2.95226080428665
 31
0.0
  0
LINE
  5
3171
330
1E
100
AcDbEntity
  8
7
100
AcDbLine
 10
1.592732057456187
 20
6.765107350152793
 30
0.0
 11
1.554616735212092
 21
6.780879207633107
 31
0.0
  0
LINE
  5
3172
330
1E
100
AcDbEntity
  8
7
100
AcDbLine
 10
1.554616735212092
 20
6.780879207633107
 30
0.0
 11
1.513872770054612
 21
6.78613649345988
 31
0.0
  0
LINE
  5
3173
330
1E
100
AcDbEntity
  8
7
100
AcDbLine
 10
1.513872770054612
 20
6.473327986766966
 30
0.0
 11
1.554616735212092
 21
6.478585272593737
 31
0.0
  0
LINE
  5
3174
330
1E
100
AcDbEntity
  8
7
100
AcDbLine
 10
1.554616735212092
 20
6.478585272593737
 30
0.0
 11
1.591417735999494
 21
6.494357130074052
 31
0.0
  0
LINE
  5
3175
330
1E
100
AcDbEntity
  8
7
100
AcDbLine
 10
1.591417735999494
 20
6.494357130074052
 30
0.0
 11
1.624275772416817
 21
6.519329237751218
 31
0.0
  0
LINE
  5
3176
330
1E
100
AcDbEntity
  8
7
100
AcDbLine
 10
1.624275772416817
 20
6.519329237751218
 30
0.0
 11
1.649247880093982
 21
6.550872952711848
 31
0.0
  0
LINE
  5
3177
330
1E
100
AcDbEntity
  8
7
100
AcDbLine
 10
1.649247880093982
 20
6.550872952711848
 30
0.0
 11
1.665019737574297
 21
6.588988274955942
 31
0.0
  0
LINE
  5
3178
330
1E
100
AcDbEntity
  8
7
100
AcDbLine
 10
1.665019737574297
 20
6.588988274955942
 30
0.0
 11
1.670277023401069
 21
6.629732240113423
 31
0.0
  0
LINE
  5
3179
330
1E
100
AcDbEntity
  8
7
100
AcDbLine
 10
1.670277023401069
 20
6.629732240113423
 30
0.0
 11
1.665019737574297
 21
6.670476205270903
 31
0.0
  0
LINE
  5
317A
330
1E
100
AcDbEntity
  8
7
100
AcDbLine
 10
1.665019737574297
 20
6.670476205270903
 30
0.0
 11
1.649247880093982
 21
6.707277206058305
 31
0.0
  0
LINE
  5
317B
330
1E
100
AcDbEntity
  8
7
100
AcDbLine
 10
1.649247880093982
 20
6.707277206058305
 30
0.0
 11
1.624275772416817
 21
6.740135242475627
 31
0.0
  0
LINE
  5
317C
330
1E
100
AcDbEntity
  8
7
100
AcDbLine
 10
1.624275772416817
 20
6.740135242475627
 30
0.0
 11
1.592732057456187
 21
6.765107350152793
 31
0.0
  0
LINE
  5
317D
330
1E
100
AcDbEntity
  8
7
100
AcDbLine
 10
1.424498910999494
 20
6.78613649345988
 30
0.0
 11
1.383754945842014
 21
6.780879207633107
 31
0.0
  0
LINE
  5
317E
330
1E
100
AcDbEntity
  8
7
100
AcDbLine
 10
1.383754945842014
 20
6.780879207633107
 30
0.0
 11
1.346953945054612
 21
6.765107350152793
 31
0.0
  0
LINE
  5
317F
330
1E
100
AcDbEntity
  8
7
100
AcDbLine
 10
1.346953945054612
 20
6.765107350152793
 30
0.0
 11
1.314095908637288
 21
6.740135242475627
 31
0.0
  0
LINE
  5
3180
330
1E
100
AcDbEntity
  8
7
100
AcDbLine
 10
1.314095908637288
 20
6.740135242475627
 30
0.0
 11
1.289123800960124
 21
6.708591527514997
 31
0.0
  0
LINE
  5
3181
330
1E
100
AcDbEntity
  8
7
100
AcDbLine
 10
1.289123800960124
 20
6.708591527514997
 30
0.0
 11
1.273351943479808
 21
6.670476205270903
 31
0.0
  0
LINE
  5
3182
330
1E
100
AcDbEntity
  8
7
100
AcDbLine
 10
1.273351943479808
 20
6.670476205270903
 30
0.0
 11
1.268094657653037
 21
6.629732240113423
 31
0.0
  0
LINE
  5
3183
330
1E
100
AcDbEntity
  8
7
100
AcDbLine
 10
1.268094657653037
 20
6.629732240113423
 30
0.0
 11
1.273351943479808
 21
6.588988274955942
 31
0.0
  0
LINE
  5
3184
330
1E
100
AcDbEntity
  8
7
100
AcDbLine
 10
1.273351943479808
 20
6.588988274955942
 30
0.0
 11
1.289123800960124
 21
6.552187274168541
 31
0.0
  0
LINE
  5
3185
330
1E
100
AcDbEntity
  8
7
100
AcDbLine
 10
1.289123800960124
 20
6.552187274168541
 30
0.0
 11
1.314095908637288
 21
6.519329237751218
 31
0.0
  0
LINE
  5
3186
330
1E
100
AcDbEntity
  8
7
100
AcDbLine
 10
1.314095908637288
 20
6.519329237751218
 30
0.0
 11
1.345639623597919
 21
6.494357130074052
 31
0.0
  0
LINE
  5
3187
330
1E
100
AcDbEntity
  8
7
100
AcDbLine
 10
1.345639623597919
 20
6.494357130074052
 30
0.0
 11
1.383754945842014
 21
6.478585272593737
 31
0.0
  0
LINE
  5
3188
330
1E
100
AcDbEntity
  8
7
100
AcDbLine
 10
1.383754945842014
 20
6.478585272593737
 30
0.0
 11
1.424498910999494
 21
6.473327986766966
 31
0.0
  0
LINE
  5
3189
330
1E
100
AcDbEntity
  8
7
100
AcDbLine
 10
1.520444377338076
 20
6.868938745231533
 30
0.0
 11
1.525701663164848
 21
6.893910852908699
 31
0.0
  0
LINE
  5
318A
330
1E
100
AcDbEntity
  8
7
100
AcDbLine
 10
1.525701663164848
 20
6.893910852908699
 30
0.0
 11
1.520444377338076
 21
6.918882960585865
 31
0.0
  0
LINE
  5
318B
330
1E
100
AcDbEntity
  8
7
100
AcDbLine
 10
1.520444377338076
 20
6.918882960585865
 30
0.0
 11
1.504672519857761
 21
6.938597782436257
 31
0.0
  0
LINE
  5
318C
330
1E
100
AcDbEntity
  8
7
100
AcDbLine
 10
1.504672519857761
 20
6.938597782436257
 30
0.0
 11
1.482329055093982
 21
6.9491123540898
 31
0.0
  0
LINE
  5
318D
330
1E
100
AcDbEntity
  8
7
100
AcDbLine
 10
1.482329055093982
 20
6.9491123540898
 30
0.0
 11
1.456042625960124
 21
6.9491123540898
 31
0.0
  0
LINE
  5
318E
330
1E
100
AcDbEntity
  8
7
100
AcDbLine
 10
1.456042625960124
 20
6.9491123540898
 30
0.0
 11
1.433699161196344
 21
6.938597782436257
 31
0.0
  0
LINE
  5
318F
330
1E
100
AcDbEntity
  8
7
100
AcDbLine
 10
1.433699161196344
 20
6.938597782436257
 30
0.0
 11
1.417927303716029
 21
6.918882960585865
 31
0.0
  0
LINE
  5
3190
330
1E
100
AcDbEntity
  8
7
100
AcDbLine
 10
1.417927303716029
 20
6.918882960585865
 30
0.0
 11
1.412670017889257
 21
6.893910852908699
 31
0.0
  0
LINE
  5
3191
330
1E
100
AcDbEntity
  8
7
100
AcDbLine
 10
1.412670017889257
 20
6.893910852908699
 30
0.0
 11
1.417927303716029
 21
6.868938745231533
 31
0.0
  0
LINE
  5
3192
330
1E
100
AcDbEntity
  8
7
100
AcDbLine
 10
1.417927303716029
 20
6.868938745231533
 30
0.0
 11
1.433699161196344
 21
6.849223923381138
 31
0.0
  0
LINE
  5
3193
330
1E
100
AcDbEntity
  8
7
100
AcDbLine
 10
1.433699161196344
 20
6.849223923381138
 30
0.0
 11
1.456042625960124
 21
6.838709351727596
 31
0.0
  0
LINE
  5
3194
330
1E
100
AcDbEntity
  8
7
100
AcDbLine
 10
1.456042625960124
 20
6.838709351727596
 30
0.0
 11
1.482329055093982
 21
6.838709351727596
 31
0.0
  0
LINE
  5
3195
330
1E
100
AcDbEntity
  8
7
100
AcDbLine
 10
1.482329055093982
 20
6.838709351727596
 30
0.0
 11
1.504672519857761
 21
6.849223923381138
 31
0.0
  0
LINE
  5
3196
330
1E
100
AcDbEntity
  8
7
100
AcDbLine
 10
1.504672519857761
 20
6.849223923381138
 30
0.0
 11
1.520444377338076
 21
6.868938745231533
 31
0.0
  0
LINE
  5
3197
330
1E
100
AcDbEntity
  8
7
100
AcDbLine
 10
1.734678774779021
 20
6.908368388932321
 30
0.0
 11
1.713649631471934
 21
6.917568639129171
 31
0.0
  0
LINE
  5
3198
330
1E
100
AcDbEntity
  8
7
100
AcDbLine
 10
1.713649631471934
 20
6.917568639129171
 30
0.0
 11
1.620332808046738
 21
7.010885462554368
 31
0.0
  0
LINE
  5
3199
330
1E
100
AcDbEntity
  8
7
100
AcDbLine
 10
1.620332808046738
 20
7.010885462554368
 30
0.0
 11
1.597989343282959
 21
7.020085712751218
 31
0.0
  0
LINE
  5
319A
330
1E
100
AcDbEntity
  8
7
100
AcDbLine
 10
2.180233748597919
 20
6.460184772200038
 30
0.0
 11
1.906854885605793
 21
6.460184772200038
 31
0.0
  0
LINE
  5
319B
330
1E
100
AcDbEntity
  8
7
100
AcDbLine
 10
1.906854885605793
 20
6.460184772200038
 30
0.0
 11
1.906854885605793
 21
6.62841791865673
 31
0.0
  0
LINE
  5
319C
330
1E
100
AcDbEntity
  8
7
100
AcDbLine
 10
1.906854885605793
 20
6.62841791865673
 30
0.0
 11
1.755707918086108
 21
6.908368388932321
 31
0.0
  0
LINE
  5
319D
330
1E
100
AcDbEntity
  8
7
100
AcDbLine
 10
1.223407728125478
 20
6.917568639129171
 30
0.0
 11
1.202378584818391
 21
6.908368388932321
 31
0.0
  0
LINE
  5
319E
330
1E
100
AcDbEntity
  8
7
100
AcDbLine
 10
1.202378584818391
 20
6.908368388932321
 30
0.0
 11
1.181349441511305
 21
6.908368388932321
 31
0.0
  0
LINE
  5
319F
330
1E
100
AcDbEntity
  8
7
100
AcDbLine
 10
2.033029745448313
 20
3.676451926924446
 30
0.0
 11
2.065887781865635
 21
3.68302353420791
 31
0.0
  0
LINE
  5
31A0
330
1E
100
AcDbEntity
  8
7
100
AcDbLine
 10
2.065887781865635
 20
3.68302353420791
 30
0.0
 11
2.093488532456187
 21
3.701424034601612
 31
0.0
  0
LINE
  5
31A1
330
1E
100
AcDbEntity
  8
7
100
AcDbLine
 10
2.093488532456187
 20
3.701424034601612
 30
0.0
 11
2.111889032849887
 21
3.729024785192162
 31
0.0
  0
LINE
  5
31A2
330
1E
100
AcDbEntity
  8
7
100
AcDbLine
 10
2.111889032849887
 20
3.729024785192162
 30
0.0
 11
2.118460640133352
 21
3.760568500152792
 31
0.0
  0
LINE
  5
31A3
330
1E
100
AcDbEntity
  8
7
100
AcDbLine
 10
0.8199110409207541
 20
6.211778016885076
 30
0.0
 11
0.8199110409207541
 21
3.760568500152792
 31
0.0
  0
LINE
  5
31A4
330
1E
100
AcDbEntity
  8
7
100
AcDbLine
 10
0.8199110409207541
 20
3.760568500152792
 30
0.0
 11
0.8264826482042186
 21
3.729024785192162
 31
0.0
  0
LINE
  5
31A5
330
1E
100
AcDbEntity
  8
7
100
AcDbLine
 10
0.8264826482042186
 20
3.729024785192162
 30
0.0
 11
0.8448831485979191
 21
3.701424034601612
 31
0.0
  0
LINE
  5
31A6
330
1E
100
AcDbEntity
  8
7
100
AcDbLine
 10
0.8448831485979191
 20
3.701424034601612
 30
0.0
 11
0.8724838991884706
 21
3.68302353420791
 31
0.0
  0
LINE
  5
31A7
330
1E
100
AcDbEntity
  8
7
100
AcDbLine
 10
0.8724838991884706
 20
3.68302353420791
 30
0.0
 11
0.9053419356057933
 21
3.676451926924446
 31
0.0
  0
LINE
  5
31A8
330
1E
100
AcDbEntity
  8
7
100
AcDbLine
 10
2.118460640133352
 20
6.211778016885076
 30
0.0
 11
2.111889032849887
 21
6.243321731845706
 31
0.0
  0
LINE
  5
31A9
330
1E
100
AcDbEntity
  8
7
100
AcDbLine
 10
2.111889032849887
 20
6.243321731845706
 30
0.0
 11
2.093488532456187
 21
6.270922482436256
 31
0.0
  0
LINE
  5
31AA
330
1E
100
AcDbEntity
  8
7
100
AcDbLine
 10
2.093488532456187
 20
6.270922482436256
 30
0.0
 11
2.065887781865635
 21
6.289322982829958
 31
0.0
  0
LINE
  5
31AB
330
1E
100
AcDbEntity
  8
7
100
AcDbLine
 10
2.065887781865635
 20
6.289322982829958
 30
0.0
 11
2.033029745448313
 21
6.295894590113422
 31
0.0
  0
LINE
  5
31AC
330
1E
100
AcDbEntity
  8
7
100
AcDbLine
 10
2.033029745448313
 20
6.295894590113422
 30
0.0
 11
0.9053419356057933
 21
6.295894590113422
 31
0.0
  0
LINE
  5
31AD
330
1E
100
AcDbEntity
  8
7
100
AcDbLine
 10
0.9053419356057933
 20
6.295894590113422
 30
0.0
 11
0.8724838991884706
 21
6.289322982829958
 31
0.0
  0
LINE
  5
31AE
330
1E
100
AcDbEntity
  8
7
100
AcDbLine
 10
0.8724838991884706
 20
6.289322982829958
 30
0.0
 11
0.8448831485979191
 21
6.270922482436256
 31
0.0
  0
LINE
  5
31AF
330
1E
100
AcDbEntity
  8
7
100
AcDbLine
 10
0.8448831485979191
 20
6.270922482436256
 30
0.0
 11
0.8264826482042186
 21
6.243321731845706
 31
0.0
  0
LINE
  5
31B0
330
1E
100
AcDbEntity
  8
7
100
AcDbLine
 10
0.8264826482042186
 20
6.243321731845706
 30
0.0
 11
0.8199110409207541
 21
6.211778016885076
 31
0.0
  0
LINE
  5
31B1
330
1E
100
AcDbEntity
  8
7
100
AcDbLine
 10
1.714963952928628
 20
4.62144905428665
 30
0.0
 11
1.713649631471934
 21
4.622763375743343
 31
0.0
  0
LINE
  5
31B2
330
1E
100
AcDbEntity
  8
7
100
AcDbLine
 10
1.713649631471934
 20
4.622763375743343
 30
0.0
 11
1.596675021826266
 21
4.622763375743343
 31
0.0
  0
LINE
  5
31B3
330
1E
100
AcDbEntity
  8
7
100
AcDbLine
 10
1.34169665922784
 20
4.622763375743343
 30
0.0
 11
1.223407728125478
 21
4.622763375743343
 31
0.0
  0
LINE
  5
31B4
330
1E
100
AcDbEntity
  8
7
100
AcDbLine
 10
1.223407728125478
 20
4.622763375743343
 30
0.0
 11
1.222093406668785
 21
4.62144905428665
 31
0.0
  0
LINE
  5
31B5
330
1E
100
AcDbEntity
  8
7
100
AcDbLine
 10
1.34169665922784
 20
4.622763375743343
 30
0.0
 11
1.365354445448313
 21
4.63459226885358
 31
0.0
  0
LINE
  5
31B6
330
1E
100
AcDbEntity
  8
7
100
AcDbLine
 10
1.365354445448313
 20
4.63459226885358
 30
0.0
 11
1.366668766905005
 21
4.639849554680352
 31
0.0
  0
LINE
  5
31B7
330
1E
100
AcDbEntity
  8
7
100
AcDbLine
 10
1.366668766905005
 20
4.639849554680352
 30
0.0
 11
1.366668766905005
 21
4.650364126333895
 31
0.0
  0
LINE
  5
31B8
330
1E
100
AcDbEntity
  8
7
100
AcDbLine
 10
1.366668766905005
 20
4.650364126333895
 30
0.0
 11
1.366668766905005
 21
4.666135983814211
 31
0.0
  0
LINE
  5
31B9
330
1E
100
AcDbEntity
  8
7
100
AcDbLine
 10
1.366668766905005
 20
4.666135983814211
 30
0.0
 11
1.365354445448313
 21
4.69767969877484
 31
0.0
  0
LINE
  5
31BA
330
1E
100
AcDbEntity
  8
7
100
AcDbLine
 10
1.365354445448313
 20
4.69767969877484
 30
0.0
 11
1.365354445448313
 21
4.702936984601612
 31
0.0
  0
LINE
  5
31BB
330
1E
100
AcDbEntity
  8
7
100
AcDbLine
 10
1.365354445448313
 20
4.702936984601612
 30
0.0
 11
1.365354445448313
 21
4.731852056648856
 31
0.0
  0
LINE
  5
31BC
330
1E
100
AcDbEntity
  8
7
100
AcDbLine
 10
1.5717029141491
 20
4.650364126333895
 30
0.0
 11
1.5717029141491
 21
4.639849554680352
 31
0.0
  0
LINE
  5
31BD
330
1E
100
AcDbEntity
  8
7
100
AcDbLine
 10
1.5717029141491
 20
4.639849554680352
 30
0.0
 11
1.5717029141491
 21
4.63459226885358
 31
0.0
  0
LINE
  5
31BE
330
1E
100
AcDbEntity
  8
7
100
AcDbLine
 10
1.5717029141491
 20
4.702936984601612
 30
0.0
 11
1.5717029141491
 21
4.69767969877484
 31
0.0
  0
LINE
  5
31BF
330
1E
100
AcDbEntity
  8
7
100
AcDbLine
 10
1.5717029141491
 20
4.69767969877484
 30
0.0
 11
1.5717029141491
 21
4.666135983814211
 31
0.0
  0
LINE
  5
31C0
330
1E
100
AcDbEntity
  8
7
100
AcDbLine
 10
2.075088032062486
 20
3.014033912751218
 30
0.0
 11
2.100060139739651
 21
3.050834913538619
 31
0.0
  0
LINE
  5
31C1
330
1E
100
AcDbEntity
  8
7
100
AcDbLine
 10
2.100060139739651
 20
3.050834913538619
 30
0.0
 11
2.115831997219967
 21
3.0915788786961
 31
0.0
  0
LINE
  5
31C2
330
1E
100
AcDbEntity
  8
7
100
AcDbLine
 10
2.115831997219967
 20
3.0915788786961
 30
0.0
 11
2.122403604503431
 21
3.136265808223658
 31
0.0
  0
LINE
  5
31C3
330
1E
100
AcDbEntity
  8
7
100
AcDbLine
 10
2.122403604503431
 20
3.136265808223658
 30
0.0
 11
2.117146318676659
 21
3.179638416294525
 31
0.0
  0
LINE
  5
31C4
330
1E
100
AcDbEntity
  8
7
100
AcDbLine
 10
2.117146318676659
 20
3.179638416294525
 30
0.0
 11
2.102688782653038
 21
3.221696702908698
 31
0.0
  0
LINE
  5
31C5
330
1E
100
AcDbEntity
  8
7
100
AcDbLine
 10
2.102688782653038
 20
3.221696702908698
 30
0.0
 11
2.077716674975872
 21
3.258497703696099
 31
0.0
  0
LINE
  5
31C6
330
1E
100
AcDbEntity
  8
7
100
AcDbLine
 10
2.077716674975872
 20
3.258497703696099
 30
0.0
 11
2.046172960015242
 21
3.288727097200037
 31
0.0
  0
LINE
  5
31C7
330
1E
100
AcDbEntity
  8
7
100
AcDbLine
 10
2.046172960015242
 20
3.288727097200037
 30
0.0
 11
2.006743316314455
 21
3.311070561963816
 31
0.0
  0
LINE
  5
31C8
330
1E
100
AcDbEntity
  8
7
100
AcDbLine
 10
2.006743316314455
 20
3.311070561963816
 30
0.0
 11
1.964685029700282
 21
3.321585133617359
 31
0.0
  0
LINE
  5
31C9
330
1E
100
AcDbEntity
  8
7
100
AcDbLine
 10
1.964685029700282
 20
3.321585133617359
 30
0.0
 11
1.919998100172723
 21
3.322899455074052
 31
0.0
  0
LINE
  5
31CA
330
1E
100
AcDbEntity
  8
7
100
AcDbLine
 10
1.772794097023116
 20
3.052149234995312
 30
0.0
 11
1.799080526156974
 21
3.01534823420791
 31
0.0
  0
LINE
  5
31CB
330
1E
100
AcDbEntity
  8
7
100
AcDbLine
 10
1.799080526156974
 20
3.01534823420791
 30
0.0
 11
1.831938562574297
 21
2.986433162160667
 31
0.0
  0
LINE
  5
31CC
330
1E
100
AcDbEntity
  8
7
100
AcDbLine
 10
1.831938562574297
 20
2.986433162160667
 30
0.0
 11
1.871368206275084
 21
2.965404018853579
 31
0.0
  0
LINE
  5
31CD
330
1E
100
AcDbEntity
  8
7
100
AcDbLine
 10
1.871368206275084
 20
2.965404018853579
 30
0.0
 11
1.914740814345951
 21
2.954889447200035
 31
0.0
  0
LINE
  5
31CE
330
1E
100
AcDbEntity
  8
7
100
AcDbLine
 10
1.914740814345951
 20
2.954889447200035
 30
0.0
 11
1.958113422416817
 21
2.954889447200035
 31
0.0
  0
LINE
  5
31CF
330
1E
100
AcDbEntity
  8
7
100
AcDbLine
 10
1.958113422416817
 20
2.954889447200035
 30
0.0
 11
2.001486030487683
 21
2.965404018853579
 31
0.0
  0
LINE
  5
31D0
330
1E
100
AcDbEntity
  8
7
100
AcDbLine
 10
2.001486030487683
 20
2.965404018853579
 30
0.0
 11
2.04091567418847
 21
2.985118840703973
 31
0.0
  0
LINE
  5
31D1
330
1E
100
AcDbEntity
  8
7
100
AcDbLine
 10
2.04091567418847
 20
2.985118840703973
 30
0.0
 11
2.075088032062486
 21
3.014033912751218
 31
0.0
  0
LINE
  5
31D2
330
1E
100
AcDbEntity
  8
7
100
AcDbLine
 10
1.018373580881384
 20
3.324213776530744
 30
0.0
 11
1.164263262574297
 21
3.050834913538619
 31
0.0
  0
LINE
  5
31D3
330
1E
100
AcDbEntity
  8
7
100
AcDbLine
 10
1.164263262574297
 20
3.050834913538619
 30
0.0
 11
1.169520548401069
 21
3.062663806648854
 31
0.0
  0
LINE
  5
31D4
330
1E
100
AcDbEntity
  8
7
100
AcDbLine
 10
0.8593406846215408
 20
3.258497703696099
 30
0.0
 11
0.8343685769443759
 21
3.221696702908698
 31
0.0
  0
LINE
  5
31D5
330
1E
100
AcDbEntity
  8
7
100
AcDbLine
 10
0.8343685769443759
 20
3.221696702908698
 30
0.0
 11
0.8199110409207541
 21
3.179638416294525
 31
0.0
  0
LINE
  5
31D6
330
1E
100
AcDbEntity
  8
7
100
AcDbLine
 10
0.8199110409207541
 20
3.179638416294525
 30
0.0
 11
0.8146537550939818
 21
3.136265808223658
 31
0.0
  0
LINE
  5
31D7
330
1E
100
AcDbEntity
  8
7
100
AcDbLine
 10
0.8146537550939818
 20
3.136265808223658
 30
0.0
 11
0.8212253623774468
 21
3.0915788786961
 31
0.0
  0
LINE
  5
31D8
330
1E
100
AcDbEntity
  8
7
100
AcDbLine
 10
0.8212253623774468
 20
3.0915788786961
 30
0.0
 11
0.8369972198577615
 21
3.050834913538619
 31
0.0
  0
LINE
  5
31D9
330
1E
100
AcDbEntity
  8
7
100
AcDbLine
 10
0.8369972198577615
 20
3.050834913538619
 30
0.0
 11
0.8619693275349273
 21
3.014033912751218
 31
0.0
  0
LINE
  5
31DA
330
1E
100
AcDbEntity
  8
7
100
AcDbLine
 10
0.8619693275349273
 20
3.014033912751218
 30
0.0
 11
0.8961416854089424
 21
2.985118840703973
 31
0.0
  0
LINE
  5
31DB
330
1E
100
AcDbEntity
  8
7
100
AcDbLine
 10
0.8961416854089424
 20
2.985118840703973
 30
0.0
 11
0.9355713291097305
 21
2.965404018853579
 31
0.0
  0
LINE
  5
31DC
330
1E
100
AcDbEntity
  8
7
100
AcDbLine
 10
0.9355713291097305
 20
2.965404018853579
 30
0.0
 11
0.9789439371805963
 21
2.954889447200035
 31
0.0
  0
LINE
  5
31DD
330
1E
100
AcDbEntity
  8
7
100
AcDbLine
 10
0.9789439371805963
 20
2.954889447200035
 30
0.0
 11
1.022316545251462
 21
2.954889447200035
 31
0.0
  0
LINE
  5
31DE
330
1E
100
AcDbEntity
  8
7
100
AcDbLine
 10
1.022316545251462
 20
2.954889447200035
 30
0.0
 11
1.065689153322328
 21
2.965404018853579
 31
0.0
  0
LINE
  5
31DF
330
1E
100
AcDbEntity
  8
7
100
AcDbLine
 10
1.065689153322328
 20
2.965404018853579
 30
0.0
 11
1.105118797023115
 21
2.986433162160667
 31
0.0
  0
LINE
  5
31E0
330
1E
100
AcDbEntity
  8
7
100
AcDbLine
 10
1.105118797023115
 20
2.986433162160667
 30
0.0
 11
1.137976833440438
 21
3.01534823420791
 31
0.0
  0
LINE
  5
31E1
330
1E
100
AcDbEntity
  8
7
100
AcDbLine
 10
1.137976833440438
 20
3.01534823420791
 30
0.0
 11
1.164263262574297
 21
3.052149234995312
 31
0.0
  0
LINE
  5
31E2
330
1E
100
AcDbEntity
  8
7
100
AcDbLine
 10
1.01705925942469
 20
3.322899455074052
 30
0.0
 11
0.9723723298971318
 21
3.321585133617359
 31
0.0
  0
LINE
  5
31E3
330
1E
100
AcDbEntity
  8
7
100
AcDbLine
 10
0.9723723298971318
 20
3.321585133617359
 30
0.0
 11
0.9303140432829586
 21
3.311070561963816
 31
0.0
  0
LINE
  5
31E4
330
1E
100
AcDbEntity
  8
7
100
AcDbLine
 10
0.9303140432829586
 20
3.311070561963816
 30
0.0
 11
0.8908843995821706
 21
3.288727097200037
 31
0.0
  0
LINE
  5
31E5
330
1E
100
AcDbEntity
  8
7
100
AcDbLine
 10
0.8908843995821706
 20
3.288727097200037
 30
0.0
 11
0.8593406846215408
 21
3.258497703696099
 31
0.0
  0
LINE
  5
31E6
330
1E
100
AcDbEntity
  8
7
100
AcDbLine
 10
2.117146318676659
 20
6.792708100743343
 30
0.0
 11
2.122403604503431
 21
6.83608070881421
 31
0.0
  0
LINE
  5
31E7
330
1E
100
AcDbEntity
  8
7
100
AcDbLine
 10
2.122403604503431
 20
6.83608070881421
 30
0.0
 11
2.115831997219967
 21
6.880767638341769
 31
0.0
  0
LINE
  5
31E8
330
1E
100
AcDbEntity
  8
7
100
AcDbLine
 10
2.115831997219967
 20
6.880767638341769
 30
0.0
 11
2.100060139739651
 21
6.921511603499249
 31
0.0
  0
LINE
  5
31E9
330
1E
100
AcDbEntity
  8
7
100
AcDbLine
 10
2.100060139739651
 20
6.921511603499249
 30
0.0
 11
2.075088032062486
 21
6.958312604286651
 31
0.0
  0
LINE
  5
31EA
330
1E
100
AcDbEntity
  8
7
100
AcDbLine
 10
2.075088032062486
 20
6.958312604286651
 30
0.0
 11
2.04091567418847
 21
6.987227676333896
 31
0.0
  0
LINE
  5
31EB
330
1E
100
AcDbEntity
  8
7
100
AcDbLine
 10
2.04091567418847
 20
6.987227676333896
 30
0.0
 11
2.001486030487683
 21
7.006942498184288
 31
0.0
  0
LINE
  5
31EC
330
1E
100
AcDbEntity
  8
7
100
AcDbLine
 10
2.001486030487683
 20
7.006942498184288
 30
0.0
 11
1.958113422416817
 21
7.017457069837831
 31
0.0
  0
LINE
  5
31ED
330
1E
100
AcDbEntity
  8
7
100
AcDbLine
 10
1.958113422416817
 20
7.017457069837831
 30
0.0
 11
1.914740814345951
 21
7.017457069837831
 31
0.0
  0
LINE
  5
31EE
330
1E
100
AcDbEntity
  8
7
100
AcDbLine
 10
1.914740814345951
 20
7.017457069837831
 30
0.0
 11
1.871368206275084
 21
7.006942498184288
 31
0.0
  0
LINE
  5
31EF
330
1E
100
AcDbEntity
  8
7
100
AcDbLine
 10
1.871368206275084
 20
7.006942498184288
 30
0.0
 11
1.831938562574297
 21
6.985913354877202
 31
0.0
  0
LINE
  5
31F0
330
1E
100
AcDbEntity
  8
7
100
AcDbLine
 10
1.831938562574297
 20
6.985913354877202
 30
0.0
 11
1.799080526156974
 21
6.956998282829959
 31
0.0
  0
LINE
  5
31F1
330
1E
100
AcDbEntity
  8
7
100
AcDbLine
 10
1.799080526156974
 20
6.956998282829959
 30
0.0
 11
1.772794097023116
 21
6.920197282042557
 31
0.0
  0
LINE
  5
31F2
330
1E
100
AcDbEntity
  8
7
100
AcDbLine
 10
1.919998100172723
 20
6.649447061963816
 30
0.0
 11
1.964685029700282
 21
6.650761383420509
 31
0.0
  0
LINE
  5
31F3
330
1E
100
AcDbEntity
  8
7
100
AcDbLine
 10
1.964685029700282
 20
6.650761383420509
 30
0.0
 11
2.006743316314455
 21
6.661275955074052
 31
0.0
  0
LINE
  5
31F4
330
1E
100
AcDbEntity
  8
7
100
AcDbLine
 10
2.006743316314455
 20
6.661275955074052
 30
0.0
 11
2.046172960015242
 21
6.683619419837832
 31
0.0
  0
LINE
  5
31F5
330
1E
100
AcDbEntity
  8
7
100
AcDbLine
 10
2.046172960015242
 20
6.683619419837832
 30
0.0
 11
2.077716674975872
 21
6.713848813341769
 31
0.0
  0
LINE
  5
31F6
330
1E
100
AcDbEntity
  8
7
100
AcDbLine
 10
2.077716674975872
 20
6.713848813341769
 30
0.0
 11
2.102688782653038
 21
6.75064981412917
 31
0.0
  0
LINE
  5
31F7
330
1E
100
AcDbEntity
  8
7
100
AcDbLine
 10
2.102688782653038
 20
6.75064981412917
 30
0.0
 11
2.117146318676659
 21
6.792708100743343
 31
0.0
  0
LINE
  5
31F8
330
1E
100
AcDbEntity
  8
7
100
AcDbLine
 10
1.031516795448312
 20
6.650761383420509
 30
0.0
 11
1.169520548401069
 21
6.908368388932321
 31
0.0
  0
LINE
  5
31F9
330
1E
100
AcDbEntity
  8
7
100
AcDbLine
 10
1.169520548401069
 20
6.908368388932321
 30
0.0
 11
1.169520548401069
 21
6.909682710389013
 31
0.0
  0
LINE
  5
31FA
330
1E
100
AcDbEntity
  8
7
100
AcDbLine
 10
0.8199110409207541
 20
6.792708100743343
 30
0.0
 11
0.8343685769443759
 21
6.75064981412917
 31
0.0
  0
LINE
  5
31FB
330
1E
100
AcDbEntity
  8
7
100
AcDbLine
 10
0.8343685769443759
 20
6.75064981412917
 30
0.0
 11
0.8593406846215408
 21
6.713848813341769
 31
0.0
  0
LINE
  5
31FC
330
1E
100
AcDbEntity
  8
7
100
AcDbLine
 10
0.8593406846215408
 20
6.713848813341769
 30
0.0
 11
0.8908843995821706
 21
6.683619419837832
 31
0.0
  0
LINE
  5
31FD
330
1E
100
AcDbEntity
  8
7
100
AcDbLine
 10
0.8908843995821706
 20
6.683619419837832
 30
0.0
 11
0.9303140432829586
 21
6.661275955074052
 31
0.0
  0
LINE
  5
31FE
330
1E
100
AcDbEntity
  8
7
100
AcDbLine
 10
0.9303140432829586
 20
6.661275955074052
 30
0.0
 11
0.9723723298971318
 21
6.650761383420509
 31
0.0
  0
LINE
  5
31FF
330
1E
100
AcDbEntity
  8
7
100
AcDbLine
 10
0.9723723298971318
 20
6.650761383420509
 30
0.0
 11
1.01705925942469
 21
6.649447061963816
 31
0.0
  0
LINE
  5
3200
330
1E
100
AcDbEntity
  8
7
100
AcDbLine
 10
1.164263262574297
 20
6.920197282042557
 30
0.0
 11
1.137976833440438
 21
6.956998282829959
 31
0.0
  0
LINE
  5
3201
330
1E
100
AcDbEntity
  8
7
100
AcDbLine
 10
1.137976833440438
 20
6.956998282829959
 30
0.0
 11
1.105118797023115
 21
6.985913354877202
 31
0.0
  0
LINE
  5
3202
330
1E
100
AcDbEntity
  8
7
100
AcDbLine
 10
1.105118797023115
 20
6.985913354877202
 30
0.0
 11
1.065689153322328
 21
7.006942498184288
 31
0.0
  0
LINE
  5
3203
330
1E
100
AcDbEntity
  8
7
100
AcDbLine
 10
1.065689153322328
 20
7.006942498184288
 30
0.0
 11
1.022316545251462
 21
7.017457069837831
 31
0.0
  0
LINE
  5
3204
330
1E
100
AcDbEntity
  8
7
100
AcDbLine
 10
1.022316545251462
 20
7.017457069837831
 30
0.0
 11
0.9789439371805963
 21
7.017457069837831
 31
0.0
  0
LINE
  5
3205
330
1E
100
AcDbEntity
  8
7
100
AcDbLine
 10
0.9789439371805963
 20
7.017457069837831
 30
0.0
 11
0.9355713291097305
 21
7.006942498184288
 31
0.0
  0
LINE
  5
3206
330
1E
100
AcDbEntity
  8
7
100
AcDbLine
 10
0.9355713291097305
 20
7.006942498184288
 30
0.0
 11
0.8961416854089424
 21
6.987227676333896
 31
0.0
  0
LINE
  5
3207
330
1E
100
AcDbEntity
  8
7
100
AcDbLine
 10
0.8961416854089424
 20
6.987227676333896
 30
0.0
 11
0.8619693275349273
 21
6.958312604286651
 31
0.0
  0
LINE
  5
3208
330
1E
100
AcDbEntity
  8
7
100
AcDbLine
 10
0.8619693275349273
 20
6.958312604286651
 30
0.0
 11
0.8369972198577615
 21
6.921511603499249
 31
0.0
  0
LINE
  5
3209
330
1E
100
AcDbEntity
  8
7
100
AcDbLine
 10
0.8369972198577615
 20
6.921511603499249
 30
0.0
 11
0.8212253623774468
 21
6.880767638341769
 31
0.0
  0
LINE
  5
320A
330
1E
100
AcDbEntity
  8
7
100
AcDbLine
 10
0.8212253623774468
 20
6.880767638341769
 30
0.0
 11
0.8146537550939818
 21
6.83608070881421
 31
0.0
  0
LINE
  5
320B
330
1E
100
AcDbEntity
  8
7
100
AcDbLine
 10
0.8146537550939818
 20
6.83608070881421
 30
0.0
 11
0.8199110409207541
 21
6.792708100743343
 31
0.0
  0
LINE
  5
320C
330
1E
100
AcDbEntity
  8
7
100
AcDbLine
 10
1.410041374975872
 20
6.859738495034682
 30
0.0
 11
1.406098410605793
 21
6.864995780861454
 31
0.0
  0
LINE
  5
320D
330
1E
100
AcDbEntity
  8
7
100
AcDbLine
 10
1.406098410605793
 20
6.864995780861454
 30
0.0
 11
1.399526803322328
 21
6.893910852908699
 31
0.0
  0
LINE
  5
320E
330
1E
100
AcDbEntity
  8
7
100
AcDbLine
 10
1.527015984621541
 20
6.859738495034682
 30
0.0
 11
1.524387341708155
 21
6.853166887751218
 31
0.0
  0
LINE
  5
320F
330
1E
100
AcDbEntity
  8
7
100
AcDbLine
 10
1.524387341708155
 20
6.853166887751218
 30
0.0
 11
1.503358198401069
 21
6.833452065900824
 31
0.0
  0
LINE
  5
3210
330
1E
100
AcDbEntity
  8
7
100
AcDbLine
 10
1.503358198401069
 20
6.833452065900824
 30
0.0
 11
1.475757447810517
 21
6.824251815703973
 31
0.0
  0
LINE
  5
3211
330
1E
100
AcDbEntity
  8
7
100
AcDbLine
 10
1.469185840527053
 20
6.960941247200037
 30
0.0
 11
1.475757447810517
 21
6.96225556865673
 31
0.0
  0
LINE
  5
3212
330
1E
100
AcDbEntity
  8
7
100
AcDbLine
 10
1.475757447810517
 20
6.96225556865673
 30
0.0
 11
1.503358198401069
 21
6.953055318459879
 31
0.0
  0
LINE
  5
3213
330
1E
100
AcDbEntity
  8
7
100
AcDbLine
 10
1.503358198401069
 20
6.953055318459879
 30
0.0
 11
1.524387341708155
 21
6.934654818066179
 31
0.0
  0
LINE
  5
3214
330
1E
100
AcDbEntity
  8
7
100
AcDbLine
 10
1.524387341708155
 20
6.934654818066179
 30
0.0
 11
1.527015984621541
 21
6.928083210782713
 31
0.0
  0
LINE
  5
3215
330
1E
100
AcDbEntity
  8
7
100
AcDbLine
 10
1.399526803322328
 20
6.893910852908699
 30
0.0
 11
1.406098410605793
 21
6.921511603499249
 31
0.0
  0
LINE
  5
3216
330
1E
100
AcDbEntity
  8
7
100
AcDbLine
 10
1.406098410605793
 20
6.921511603499249
 30
0.0
 11
1.410041374975872
 21
6.926768889326021
 31
0.0
  0
ENDSEC
  0
SECTION
  2
OBJECTS
  0
DICTIONARY
  5
C
330
0
100
AcDbDictionary
  3
ACAD_GROUP
350
D
  3
ACAD_LAYOUT
350
19
  3
ACAD_MLINESTYLE
350
16
  3
ACAD_PLOTSETTINGS
350
18
1001
ACAD
1000
TREAT_AS_HARD
1070
     0
  0
DICTIONARY
  5
469B
330
1E
100
AcDbDictionary
  3
ACAD_LAYOUTSELFREF
350
4720
1001
ACAD
1000
TREAT_AS_HARD
1070
     1
  0
DICTIONARY
  5
469D
330
1A
100
AcDbDictionary
  3
ACAD_LAYOUTSELFREF
350
471F
1001
ACAD
1000
TREAT_AS_HARD
1070
     1
  0
DICTIONARY
  5
D
102
{ACAD_REACTORS
330
C
102
}
330
C
100
AcDbDictionary
1001
ACAD
1000
TREAT_AS_HARD
1070
     0
  0
DICTIONARY
  5
19
102
{ACAD_REACTORS
330
C
102
}
330
C
100
AcDbDictionary
1001
ACAD
1000
TREAT_AS_HARD
1070
     0
  0
DICTIONARY
  5
16
102
{ACAD_REACTORS
330
C
102
}
330
C
100
AcDbDictionary
  3
STANDARD
350
17
1001
ACAD
1000
TREAT_AS_HARD
1070
     0
  0
DICTIONARY
  5
18
102
{ACAD_REACTORS
330
C
102
}
330
C
100
AcDbDictionary
1001
ACAD
1000
TREAT_AS_HARD
1070
     0
  0
XRECORD
  5
4720
102
{ACAD_REACTORS
330
469B
102
}
330
469B
100
AcDbXrecord
340
1E
  0
XRECORD
  5
471F
102
{ACAD_REACTORS
330
469D
102
}
330
469D
100
AcDbXrecord
340
1A
  0
MLINESTYLE
  5
17
102
{ACAD_REACTORS
330
16
102
}
330
16
100
AcDbMlineStyle
  2
STANDARD
 70
     0
  3

 62
   256
 51
90.0
 52
90.0
 71
     2
 49
0.5
 62
   256
  6
BYLAYER
 49
-0.5
 62
   256
  6
BYLAYER
  0
ENDSEC
  0
EOF
