  0
SECTION
  2
HEADER
  9
$ACADVER
  1
AC1012
  9
$DWGCODEPAGE
  3
ANSI_1252
  9
$INSBASE
 10
0.0
 20
0.0
 30
0.0
  9
$EXTMIN
 10
11.44555668188905
 20
11.66033938999792
 30
-0.0015258207003583
  9
$EXTMAX
 10
17.62811282746041
 20
16.16061404296268
 30
0.0000000349246037
  9
$LIMMIN
 10
0.0
 20
0.0
  9
$LIMMAX
 10
12.0
 20
9.0
  9
$ORTHOMODE
 70
     0
  9
$REGENMODE
 70
     1
  9
$FILLMODE
 70
     1
  9
$QTEXTMODE
 70
     0
  9
$MIRRTEXT
 70
     1
  9
$DRAGMODE
 70
     2
  9
$LTSCALE
 40
1.0
  9
$OSMODE
 70
    33
  9
$ATTMODE
 70
     1
  9
$TEXTSIZE
 40
0.2
  9
$TRACEWID
 40
0.05
  9
$TEXTSTYLE
  7
STANDARD
  9
$CLAYER
  8
0
  9
$CELTYPE
  6
BYLAYER
  9
$CECOLOR
 62
   256
  9
$CELTSCALE
 40
1.0
  9
$DELOBJ
 70
     1
  9
$DISPSILH
 70
     0
  9
$DIMSCALE
 40
1.0
  9
$DIMASZ
 40
0.18
  9
$DIMEXO
 40
0.0625
  9
$DIMDLI
 40
0.38
  9
$DIMRND
 40
0.0
  9
$DIMDLE
 40
0.0
  9
$DIMEXE
 40
0.18
  9
$DIMTP
 40
0.0
  9
$DIMTM
 40
0.0
  9
$DIMTXT
 40
0.18
  9
$DIMCEN
 40
0.09
  9
$DIMTSZ
 40
0.0
  9
$DIMTOL
 70
     0
  9
$DIMLIM
 70
     0
  9
$DIMTIH
 70
     1
  9
$DIMTOH
 70
     1
  9
$DIMSE1
 70
     0
  9
$DIMSE2
 70
     0
  9
$DIMTAD
 70
     0
  9
$DIMZIN
 70
     0
  9
$DIMBLK
  1

  9
$DIMASO
 70
     1
  9
$DIMSHO
 70
     1
  9
$DIMPOST
  1

  9
$DIMAPOST
  1

  9
$DIMALT
 70
     0
  9
$DIMALTD
 70
     2
  9
$DIMALTF
 40
25.4
  9
$DIMLFAC
 40
1.0
  9
$DIMTOFL
 70
     0
  9
$DIMTVP
 40
0.0
  9
$DIMTIX
 70
     0
  9
$DIMSOXD
 70
     0
  9
$DIMSAH
 70
     0
  9
$DIMBLK1
  1

  9
$DIMBLK2
  1

  9
$DIMSTYLE
  2
STANDARD
  9
$DIMCLRD
 70
     0
  9
$DIMCLRE
 70
     0
  9
$DIMCLRT
 70
     0
  9
$DIMTFAC
 40
1.0
  9
$DIMGAP
 40
0.09
  9
$DIMJUST
 70
     0
  9
$DIMSD1
 70
     0
  9
$DIMSD2
 70
     0
  9
$DIMTOLJ
 70
     1
  9
$DIMTZIN
 70
     0
  9
$DIMALTZ
 70
     0
  9
$DIMALTTZ
 70
     0
  9
$DIMFIT
 70
     5
  9
$DIMUPT
 70
     0
  9
$DIMUNIT
 70
     2
  9
$DIMDEC
 70
     4
  9
$DIMTDEC
 70
     4
  9
$DIMALTU
 70
     2
  9
$DIMALTTD
 70
     2
  9
$DIMTXSTY
  7
STANDARD
  9
$DIMAUNIT
 70
     0
  9
$LUNITS
 70
     2
  9
$LUPREC
 70
     4
  9
$SKETCHINC
 40
0.1
  9
$FILLETRAD
 40
0.0
  9
$AUNITS
 70
     0
  9
$AUPREC
 70
     0
  9
$MENU
  1
acad
  9
$ELEVATION
 40
0.0
  9
$PELEVATION
 40
0.0
  9
$THICKNESS
 40
0.0
  9
$LIMCHECK
 70
     0
  9
$BLIPMODE
 70
     0
  9
$CHAMFERA
 40
0.0
  9
$CHAMFERB
 40
0.0
  9
$CHAMFERC
 40
0.0
  9
$CHAMFERD
 40
0.0
  9
$SKPOLY
 70
     0
  9
$TDCREATE
 40
2452489.405532407
  9
$TDUPDATE
 40
2452489.431722199
  9
$TDINDWG
 40
0.0006023843
  9
$TDUSRTIMER
 40
0.0006023843
  9
$USRTIMER
 70
     1
  9
$ANGBASE
 50
0.0
  9
$ANGDIR
 70
     0
  9
$PDMODE
 70
     0
  9
$PDSIZE
 40
0.0
  9
$PLINEWID
 40
0.0
  9
$COORDS
 70
     0
  9
$SPLFRAME
 70
     0
  9
$SPLINETYPE
 70
     6
  9
$SPLINESEGS
 70
     8
  9
$ATTDIA
 70
     0
  9
$ATTREQ
 70
     1
  9
$HANDLING
 70
  4097
  9
$HANDSEED
  5
46B2
  9
$SURFTAB1
 70
     6
  9
$SURFTAB2
 70
     6
  9
$SURFTYPE
 70
     6
  9
$SURFU
 70
     6
  9
$SURFV
 70
     6
  9
$UCSNAME
  2

  9
$UCSORG
 10
0.0
 20
0.0
 30
0.0
  9
$UCSXDIR
 10
1.0
 20
0.0
 30
0.0
  9
$UCSYDIR
 10
0.0
 20
1.0
 30
0.0
  9
$PUCSNAME
  2

  9
$PUCSORG
 10
0.0
 20
0.0
 30
0.0
  9
$PUCSXDIR
 10
1.0
 20
0.0
 30
0.0
  9
$PUCSYDIR
 10
0.0
 20
1.0
 30
0.0
  9
$USERI1
 70
     0
  9
$USERI2
 70
     0
  9
$USERI3
 70
     0
  9
$USERI4
 70
     0
  9
$USERI5
 70
     0
  9
$USERR1
 40
0.0
  9
$USERR2
 40
0.0
  9
$USERR3
 40
0.0
  9
$USERR4
 40
0.0
  9
$USERR5
 40
0.0
  9
$WORLDVIEW
 70
     1
  9
$SHADEDGE
 70
     3
  9
$SHADEDIF
 70
    70
  9
$TILEMODE
 70
     1
  9
$MAXACTVP
 70
    16
  9
$PINSBASE
 10
0.0
 20
0.0
 30
0.0
  9
$PLIMCHECK
 70
     0
  9
$PEXTMIN
 10
1.000000000000000E+20
 20
1.000000000000000E+20
 30
1.000000000000000E+20
  9
$PEXTMAX
 10
-1.000000000000000E+20
 20
-1.000000000000000E+20
 30
-1.000000000000000E+20
  9
$PLIMMIN
 10
0.0
 20
0.0
  9
$PLIMMAX
 10
12.0
 20
9.0
  9
$UNITMODE
 70
     0
  9
$VISRETAIN
 70
     0
  9
$PLINEGEN
 70
     0
  9
$PSLTSCALE
 70
     1
  9
$TREEDEPTH
 70
  3020
  9
$PICKSTYLE
 70
     1
  9
$CMLSTYLE
  2
STANDARD
  9
$CMLJUST
 70
     0
  9
$CMLSCALE
 40
1.0
  9
$SAVEIMAGES
 70
     1
  0
ENDSEC
  0
SECTION
  2
CLASSES
  0
CLASS
  1
ACDBDICTIONARYWDFLT
  2
AcDbDictionaryWithDefault
  3
AutoCAD 2000
 90
    32768
280
     0
281
     0
  0
CLASS
  1
ACDBPLACEHOLDER
  2
AcDbPlaceHolder
  3
AutoCAD 2000
 90
    32768
280
     0
281
     0
  0
CLASS
  1
LAYOUT
  2
AcDbLayout
  3
AutoCAD 2000
 90
    32768
280
     0
281
     0
  0
CLASS
  1
LONG_TRANSACTION
  2
AcDbLongTransaction
  3
AutoCAD 2000
 90
    32768
280
     0
281
     0
  0
CLASS
  1
LWPOLYLINE
  2
AcDbPolyline
  3
AutoCAD 2000
 90
    32768
280
     0
281
     1
  0
CLASS
  1
HATCH
  2
AcDbHatch
  3
AutoCAD 2000
 90
    32768
280
     0
281
     1
  0
CLASS
  1
XRECORD
  2
AcDbXrecord
  3
AutoCAD 2000
 90
    32768
280
     0
281
     0
  0
ENDSEC
  0
SECTION
  2
TABLES
  0
TABLE
  2
VPORT
  5
8
330
0
100
AcDbSymbolTable
 70
     3
  0
VPORT
  5
46AD
330
8
100
AcDbSymbolTableRecord
100
AcDbViewportTableRecord
  2
*ACTIVE
 70
     0
 10
0.0
 20
0.0
 11
1.0
 21
1.0
 12
14.53683475467473
 22
13.9104767164803
 13
0.0
 23
0.0
 14
1.0
 24
1.0
 15
0.0
 25
0.0
 16
0.0
 26
0.0
 36
1.0
 17
0.0
 27
0.0
 37
0.0
 40
4.535617124061337
 41
1.618610747051113
 42
50.0
 43
0.0
 44
0.0
 50
0.0
 51
0.0
 71
     0
 72
   100
 73
     1
 74
     1
 75
     0
 76
     0
 77
     0
 78
     0
  0
ENDTAB
  0
TABLE
  2
LTYPE
  5
5
330
0
100
AcDbSymbolTable
 70
    25
  0
LTYPE
  5
13
330
5
100
AcDbSymbolTableRecord
100
AcDbLinetypeTableRecord
  2
BYBLOCK
 70
     0
  3

 72
    65
 73
     0
 40
0.0
  0
LTYPE
  5
14
330
5
100
AcDbSymbolTableRecord
100
AcDbLinetypeTableRecord
  2
BYLAYER
 70
     0
  3

 72
    65
 73
     0
 40
0.0
  0
LTYPE
  5
15
330
5
100
AcDbSymbolTableRecord
100
AcDbLinetypeTableRecord
  2
CONTINUOUS
 70
     0
  3
Solid line
 72
    65
 73
     0
 40
0.0
  0
LTYPE
  5
22
330
5
100
AcDbSymbolTableRecord
100
AcDbLinetypeTableRecord
  2
BORDER
 70
     0
  3
__ __ . __ __ . __ __ . __ __ . __ __ . __ __ .
 72
    65
 73
     6
 40
1.75
 49
0.5
 74
     0
 49
-0.25
 74
     0
 49
0.5
 74
     0
 49
-0.25
 74
     0
 49
0.5
 74
     0
 49
-0.25
 74
     0
  0
LTYPE
  5
23
330
5
100
AcDbSymbolTableRecord
100
AcDbLinetypeTableRecord
  2
BORDER2
 70
     0
  3
__.__.__.__.__.__.__.__.__.__.__.__.__.__.__.__
 72
    65
 73
     6
 40
0.875
 49
0.25
 74
     0
 49
-0.125
 74
     0
 49
0.25
 74
     0
 49
-0.125
 74
     0
 49
0.25
 74
     0
 49
-0.125
 74
     0
  0
LTYPE
  5
24
330
5
100
AcDbSymbolTableRecord
100
AcDbLinetypeTableRecord
  2
BORDERX2
 70
     0
  3
____  ____  .  ____  ____  .  
 72
    65
 73
     6
 40
3.5
 49
1.0
 74
     0
 49
-0.5
 74
     0
 49
1.0
 74
     0
 49
-0.5
 74
     0
 49
1.0
 74
     0
 49
-0.5
 74
     0
  0
LTYPE
  5
25
330
5
100
AcDbSymbolTableRecord
100
AcDbLinetypeTableRecord
  2
CENTER
 70
     0
  3
____ _ ____ _ ____ _ ____ _ ____ _ ____ _ ____
 72
    65
 73
     4
 40
2.0
 49
1.25
 74
     0
 49
-0.25
 74
     0
 49
0.25
 74
     0
 49
-0.25
 74
     0
  0
LTYPE
  5
26
330
5
100
AcDbSymbolTableRecord
100
AcDbLinetypeTableRecord
  2
CENTER2
 70
     0
  3
____ _ ____ _ ____ _ ____ _ ____ _ ____ _ ____
 72
    65
 73
     4
 40
1.125
 49
0.75
 74
     0
 49
-0.125
 74
     0
 49
0.125
 74
     0
 49
-0.125
 74
     0
  0
LTYPE
  5
27
330
5
100
AcDbSymbolTableRecord
100
AcDbLinetypeTableRecord
  2
CENTERX2
 70
     0
  3
________  __  ________  __  ________  __  
 72
    65
 73
     4
 40
4.0
 49
2.5
 74
     0
 49
-0.5
 74
     0
 49
0.5
 74
     0
 49
-0.5
 74
     0
  0
LTYPE
  5
28
330
5
100
AcDbSymbolTableRecord
100
AcDbLinetypeTableRecord
  2
DASHDOT
 70
     0
  3
__ . __ . __ . __ . __ . __ . __ . 
 72
    65
 73
     4
 40
1.0
 49
0.5
 74
     0
 49
-0.25
 74
     0
 49
0.0
 74
     0
 49
-0.25
 74
     0
  0
LTYPE
  5
29
330
5
100
AcDbSymbolTableRecord
100
AcDbLinetypeTableRecord
  2
DASHDOT2
 70
     0
  3
_._._._._._._._._._._._._._._._.
 72
    65
 73
     4
 40
0.5
 49
0.25
 74
     0
 49
-0.125
 74
     0
 49
0.0
 74
     0
 49
-0.125
 74
     0
  0
LTYPE
  5
2A
330
5
100
AcDbSymbolTableRecord
100
AcDbLinetypeTableRecord
  2
DASHDOTX2
 70
     0
  3
____  .  ____  .  ____  .  ____  .  
 72
    65
 73
     4
 40
2.0
 49
1.0
 74
     0
 49
-0.5
 74
     0
 49
0.0
 74
     0
 49
-0.5
 74
     0
  0
LTYPE
  5
2B
330
5
100
AcDbSymbolTableRecord
100
AcDbLinetypeTableRecord
  2
DASHED
 70
     0
  3
__ __ __ __ __ __ __ __ __ __ __ __ 
 72
    65
 73
     2
 40
0.75
 49
0.5
 74
     0
 49
-0.25
 74
     0
  0
LTYPE
  5
2C
330
5
100
AcDbSymbolTableRecord
100
AcDbLinetypeTableRecord
  2
DASHED2
 70
     0
  3
_ _ _ _ _ _ _ _ _ _ _ _ _ _ _ _ _ _ 
 72
    65
 73
     2
 40
0.375
 49
0.25
 74
     0
 49
-0.125
 74
     0
  0
LTYPE
  5
2D
330
5
100
AcDbSymbolTableRecord
100
AcDbLinetypeTableRecord
  2
DASHEDX2
 70
     0
  3
____  ____  ____  ____  ____  ____  
 72
    65
 73
     2
 40
1.5
 49
1.0
 74
     0
 49
-0.5
 74
     0
  0
LTYPE
  5
2E
330
5
100
AcDbSymbolTableRecord
100
AcDbLinetypeTableRecord
  2
DIVIDE
 70
     0
  3
____ . . ____ . . ____ . . ____ . . 
 72
    65
 73
     6
 40
1.25
 49
0.5
 74
     0
 49
-0.25
 74
     0
 49
0.0
 74
     0
 49
-0.25
 74
     0
 49
0.0
 74
     0
 49
-0.25
 74
     0
  0
LTYPE
  5
2F
330
5
100
AcDbSymbolTableRecord
100
AcDbLinetypeTableRecord
  2
DIVIDE2
 70
     0
  3
__..__..__..__..__..__..__..__..__..
 72
    65
 73
     6
 40
0.625
 49
0.25
 74
     0
 49
-0.125
 74
     0
 49
0.0
 74
     0
 49
-0.125
 74
     0
 49
0.0
 74
     0
 49
-0.125
 74
     0
  0
LTYPE
  5
30
330
5
100
AcDbSymbolTableRecord
100
AcDbLinetypeTableRecord
  2
DIVIDEX2
 70
     0
  3
________  .  .  ________  .  .  ________  .  . 
 72
    65
 73
     6
 40
2.5
 49
1.0
 74
     0
 49
-0.5
 74
     0
 49
0.0
 74
     0
 49
-0.5
 74
     0
 49
0.0
 74
     0
 49
-0.5
 74
     0
  0
LTYPE
  5
31
330
5
100
AcDbSymbolTableRecord
100
AcDbLinetypeTableRecord
  2
DOT
 70
     0
  3
. . . . . . . . . . . . . . . . . . 
 72
    65
 73
     2
 40
0.25
 49
0.0
 74
     0
 49
-0.25
 74
     0
  0
LTYPE
  5
32
330
5
100
AcDbSymbolTableRecord
100
AcDbLinetypeTableRecord
  2
DOT2
 70
     0
  3
....................................
 72
    65
 73
     2
 40
0.125
 49
0.0
 74
     0
 49
-0.125
 74
     0
  0
LTYPE
  5
33
330
5
100
AcDbSymbolTableRecord
100
AcDbLinetypeTableRecord
  2
DOTX2
 70
     0
  3
.  .  .  .  .  .  .  .  .  .  .  .  .  
 72
    65
 73
     2
 40
0.5
 49
0.0
 74
     0
 49
-0.5
 74
     0
  0
LTYPE
  5
34
330
5
100
AcDbSymbolTableRecord
100
AcDbLinetypeTableRecord
  2
HIDDEN
 70
     0
  3
__ __ __ __ __ __ __ __ __ __ __ __ 
 72
    65
 73
     2
 40
0.375
 49
0.25
 74
     0
 49
-0.125
 74
     0
  0
LTYPE
  5
35
330
5
100
AcDbSymbolTableRecord
100
AcDbLinetypeTableRecord
  2
HIDDEN2
 70
     0
  3
_ _ _ _ _ _ _ _ _ _ _ _ _ _ _ _ _ _ 
 72
    65
 73
     2
 40
0.1875
 49
0.125
 74
     0
 49
-0.0625
 74
     0
  0
LTYPE
  5
36
330
5
100
AcDbSymbolTableRecord
100
AcDbLinetypeTableRecord
  2
HIDDENX2
 70
     0
  3
____ ____ ____ ____ ____ ____ ____ 
 72
    65
 73
     2
 40
0.75
 49
0.5
 74
     0
 49
-0.25
 74
     0
  0
LTYPE
  5
37
330
5
100
AcDbSymbolTableRecord
100
AcDbLinetypeTableRecord
  2
PHANTOM
 70
     0
  3
______  __  __  ______  __  __  
 72
    65
 73
     6
 40
2.5
 49
1.25
 74
     0
 49
-0.25
 74
     0
 49
0.25
 74
     0
 49
-0.25
 74
     0
 49
0.25
 74
     0
 49
-0.25
 74
     0
  0
LTYPE
  5
38
330
5
100
AcDbSymbolTableRecord
100
AcDbLinetypeTableRecord
  2
PHANTOM2
 70
     0
  3
___ _ _ ___ _ _ ___ _ _ ___ _ _ 
 72
    65
 73
     6
 40
1.25
 49
0.625
 74
     0
 49
-0.125
 74
     0
 49
0.125
 74
     0
 49
-0.125
 74
     0
 49
0.125
 74
     0
 49
-0.125
 74
     0
  0
LTYPE
  5
39
330
5
100
AcDbSymbolTableRecord
100
AcDbLinetypeTableRecord
  2
PHANTOMX2
 70
     0
  3
___ _ _ ___ _ _ ___ _ _ ___ _ _ 
 72
    65
 73
     6
 40
5.0
 49
2.5
 74
     0
 49
-0.5
 74
     0
 49
0.5
 74
     0
 49
-0.5
 74
     0
 49
0.5
 74
     0
 49
-0.5
 74
     0
  0
ENDTAB
  0
TABLE
  2
LAYER
  5
2
330
0
100
AcDbSymbolTable
 70
   256
  0
LAYER
  5
10
330
2
100
AcDbSymbolTableRecord
100
AcDbLayerTableRecord
  2
0
 70
     0
 62
     7
  6
CONTINUOUS
  0
LAYER
  5
3A
330
2
100
AcDbSymbolTableRecord
100
AcDbLayerTableRecord
  2
1
 70
     0
 62
     1
  6
CONTINUOUS
  0
LAYER
  5
3B
330
2
100
AcDbSymbolTableRecord
100
AcDbLayerTableRecord
  2
2
 70
     0
 62
     2
  6
CONTINUOUS
  0
LAYER
  5
3C
330
2
100
AcDbSymbolTableRecord
100
AcDbLayerTableRecord
  2
3
 70
     0
 62
     3
  6
CONTINUOUS
  0
LAYER
  5
3D
330
2
100
AcDbSymbolTableRecord
100
AcDbLayerTableRecord
  2
4
 70
     0
 62
     4
  6
CONTINUOUS
  0
LAYER
  5
3E
330
2
100
AcDbSymbolTableRecord
100
AcDbLayerTableRecord
  2
5
 70
     0
 62
     5
  6
CONTINUOUS
  0
LAYER
  5
3F
330
2
100
AcDbSymbolTableRecord
100
AcDbLayerTableRecord
  2
6
 70
     0
 62
     6
  6
CONTINUOUS
  0
LAYER
  5
40
330
2
100
AcDbSymbolTableRecord
100
AcDbLayerTableRecord
  2
7
 70
     0
 62
     7
  6
CONTINUOUS
  0
LAYER
  5
41
330
2
100
AcDbSymbolTableRecord
100
AcDbLayerTableRecord
  2
8
 70
     0
 62
     8
  6
CONTINUOUS
  0
LAYER
  5
42
330
2
100
AcDbSymbolTableRecord
100
AcDbLayerTableRecord
  2
9
 70
     0
 62
     9
  6
CONTINUOUS
  0
LAYER
  5
43
330
2
100
AcDbSymbolTableRecord
100
AcDbLayerTableRecord
  2
10
 70
     0
 62
    10
  6
CONTINUOUS
  0
LAYER
  5
44
330
2
100
AcDbSymbolTableRecord
100
AcDbLayerTableRecord
  2
11
 70
     0
 62
    11
  6
CONTINUOUS
  0
LAYER
  5
45
330
2
100
AcDbSymbolTableRecord
100
AcDbLayerTableRecord
  2
12
 70
     0
 62
    12
  6
CONTINUOUS
  0
LAYER
  5
46
330
2
100
AcDbSymbolTableRecord
100
AcDbLayerTableRecord
  2
13
 70
     0
 62
    13
  6
CONTINUOUS
  0
LAYER
  5
47
330
2
100
AcDbSymbolTableRecord
100
AcDbLayerTableRecord
  2
14
 70
     0
 62
    14
  6
CONTINUOUS
  0
LAYER
  5
48
330
2
100
AcDbSymbolTableRecord
100
AcDbLayerTableRecord
  2
15
 70
     0
 62
    15
  6
CONTINUOUS
  0
LAYER
  5
49
330
2
100
AcDbSymbolTableRecord
100
AcDbLayerTableRecord
  2
16
 70
     0
 62
    16
  6
CONTINUOUS
  0
LAYER
  5
4A
330
2
100
AcDbSymbolTableRecord
100
AcDbLayerTableRecord
  2
17
 70
     0
 62
    17
  6
CONTINUOUS
  0
LAYER
  5
4B
330
2
100
AcDbSymbolTableRecord
100
AcDbLayerTableRecord
  2
18
 70
     0
 62
    18
  6
CONTINUOUS
  0
LAYER
  5
4C
330
2
100
AcDbSymbolTableRecord
100
AcDbLayerTableRecord
  2
19
 70
     0
 62
    19
  6
CONTINUOUS
  0
LAYER
  5
4D
330
2
100
AcDbSymbolTableRecord
100
AcDbLayerTableRecord
  2
20
 70
     0
 62
    20
  6
CONTINUOUS
  0
LAYER
  5
4E
330
2
100
AcDbSymbolTableRecord
100
AcDbLayerTableRecord
  2
21
 70
     0
 62
    21
  6
CONTINUOUS
  0
LAYER
  5
4F
330
2
100
AcDbSymbolTableRecord
100
AcDbLayerTableRecord
  2
22
 70
     0
 62
    22
  6
CONTINUOUS
  0
LAYER
  5
50
330
2
100
AcDbSymbolTableRecord
100
AcDbLayerTableRecord
  2
23
 70
     0
 62
    23
  6
CONTINUOUS
  0
LAYER
  5
51
330
2
100
AcDbSymbolTableRecord
100
AcDbLayerTableRecord
  2
24
 70
     0
 62
    24
  6
CONTINUOUS
  0
LAYER
  5
52
330
2
100
AcDbSymbolTableRecord
100
AcDbLayerTableRecord
  2
25
 70
     0
 62
    25
  6
CONTINUOUS
  0
LAYER
  5
53
330
2
100
AcDbSymbolTableRecord
100
AcDbLayerTableRecord
  2
26
 70
     0
 62
    26
  6
CONTINUOUS
  0
LAYER
  5
54
330
2
100
AcDbSymbolTableRecord
100
AcDbLayerTableRecord
  2
27
 70
     0
 62
    27
  6
CONTINUOUS
  0
LAYER
  5
55
330
2
100
AcDbSymbolTableRecord
100
AcDbLayerTableRecord
  2
28
 70
     0
 62
    28
  6
CONTINUOUS
  0
LAYER
  5
56
330
2
100
AcDbSymbolTableRecord
100
AcDbLayerTableRecord
  2
29
 70
     0
 62
    29
  6
CONTINUOUS
  0
LAYER
  5
57
330
2
100
AcDbSymbolTableRecord
100
AcDbLayerTableRecord
  2
30
 70
     0
 62
    30
  6
CONTINUOUS
  0
LAYER
  5
58
330
2
100
AcDbSymbolTableRecord
100
AcDbLayerTableRecord
  2
31
 70
     0
 62
    31
  6
CONTINUOUS
  0
LAYER
  5
59
330
2
100
AcDbSymbolTableRecord
100
AcDbLayerTableRecord
  2
32
 70
     0
 62
    32
  6
CONTINUOUS
  0
LAYER
  5
5A
330
2
100
AcDbSymbolTableRecord
100
AcDbLayerTableRecord
  2
33
 70
     0
 62
    33
  6
CONTINUOUS
  0
LAYER
  5
5B
330
2
100
AcDbSymbolTableRecord
100
AcDbLayerTableRecord
  2
34
 70
     0
 62
    34
  6
CONTINUOUS
  0
LAYER
  5
5C
330
2
100
AcDbSymbolTableRecord
100
AcDbLayerTableRecord
  2
35
 70
     0
 62
    35
  6
CONTINUOUS
  0
LAYER
  5
5D
330
2
100
AcDbSymbolTableRecord
100
AcDbLayerTableRecord
  2
36
 70
     0
 62
    36
  6
CONTINUOUS
  0
LAYER
  5
5E
330
2
100
AcDbSymbolTableRecord
100
AcDbLayerTableRecord
  2
37
 70
     0
 62
    37
  6
CONTINUOUS
  0
LAYER
  5
5F
330
2
100
AcDbSymbolTableRecord
100
AcDbLayerTableRecord
  2
38
 70
     0
 62
    38
  6
CONTINUOUS
  0
LAYER
  5
60
330
2
100
AcDbSymbolTableRecord
100
AcDbLayerTableRecord
  2
39
 70
     0
 62
    39
  6
CONTINUOUS
  0
LAYER
  5
61
330
2
100
AcDbSymbolTableRecord
100
AcDbLayerTableRecord
  2
40
 70
     0
 62
    40
  6
CONTINUOUS
  0
LAYER
  5
62
330
2
100
AcDbSymbolTableRecord
100
AcDbLayerTableRecord
  2
41
 70
     0
 62
    41
  6
CONTINUOUS
  0
LAYER
  5
63
330
2
100
AcDbSymbolTableRecord
100
AcDbLayerTableRecord
  2
42
 70
     0
 62
    42
  6
CONTINUOUS
  0
LAYER
  5
64
330
2
100
AcDbSymbolTableRecord
100
AcDbLayerTableRecord
  2
43
 70
     0
 62
    43
  6
CONTINUOUS
  0
LAYER
  5
65
330
2
100
AcDbSymbolTableRecord
100
AcDbLayerTableRecord
  2
44
 70
     0
 62
    44
  6
CONTINUOUS
  0
LAYER
  5
66
330
2
100
AcDbSymbolTableRecord
100
AcDbLayerTableRecord
  2
45
 70
     0
 62
    45
  6
CONTINUOUS
  0
LAYER
  5
67
330
2
100
AcDbSymbolTableRecord
100
AcDbLayerTableRecord
  2
46
 70
     0
 62
    46
  6
CONTINUOUS
  0
LAYER
  5
68
330
2
100
AcDbSymbolTableRecord
100
AcDbLayerTableRecord
  2
47
 70
     0
 62
    47
  6
CONTINUOUS
  0
LAYER
  5
69
330
2
100
AcDbSymbolTableRecord
100
AcDbLayerTableRecord
  2
48
 70
     0
 62
    48
  6
CONTINUOUS
  0
LAYER
  5
6A
330
2
100
AcDbSymbolTableRecord
100
AcDbLayerTableRecord
  2
49
 70
     0
 62
    49
  6
CONTINUOUS
  0
LAYER
  5
6B
330
2
100
AcDbSymbolTableRecord
100
AcDbLayerTableRecord
  2
50
 70
     0
 62
    50
  6
CONTINUOUS
  0
LAYER
  5
6C
330
2
100
AcDbSymbolTableRecord
100
AcDbLayerTableRecord
  2
51
 70
     0
 62
    51
  6
CONTINUOUS
  0
LAYER
  5
6D
330
2
100
AcDbSymbolTableRecord
100
AcDbLayerTableRecord
  2
52
 70
     0
 62
    52
  6
CONTINUOUS
  0
LAYER
  5
6E
330
2
100
AcDbSymbolTableRecord
100
AcDbLayerTableRecord
  2
53
 70
     0
 62
    53
  6
CONTINUOUS
  0
LAYER
  5
6F
330
2
100
AcDbSymbolTableRecord
100
AcDbLayerTableRecord
  2
54
 70
     0
 62
    54
  6
CONTINUOUS
  0
LAYER
  5
70
330
2
100
AcDbSymbolTableRecord
100
AcDbLayerTableRecord
  2
55
 70
     0
 62
    55
  6
CONTINUOUS
  0
LAYER
  5
71
330
2
100
AcDbSymbolTableRecord
100
AcDbLayerTableRecord
  2
56
 70
     0
 62
    56
  6
CONTINUOUS
  0
LAYER
  5
72
330
2
100
AcDbSymbolTableRecord
100
AcDbLayerTableRecord
  2
57
 70
     0
 62
    57
  6
CONTINUOUS
  0
LAYER
  5
73
330
2
100
AcDbSymbolTableRecord
100
AcDbLayerTableRecord
  2
58
 70
     0
 62
    58
  6
CONTINUOUS
  0
LAYER
  5
74
330
2
100
AcDbSymbolTableRecord
100
AcDbLayerTableRecord
  2
59
 70
     0
 62
    59
  6
CONTINUOUS
  0
LAYER
  5
75
330
2
100
AcDbSymbolTableRecord
100
AcDbLayerTableRecord
  2
60
 70
     0
 62
    60
  6
CONTINUOUS
  0
LAYER
  5
76
330
2
100
AcDbSymbolTableRecord
100
AcDbLayerTableRecord
  2
61
 70
     0
 62
    61
  6
CONTINUOUS
  0
LAYER
  5
77
330
2
100
AcDbSymbolTableRecord
100
AcDbLayerTableRecord
  2
62
 70
     0
 62
    62
  6
CONTINUOUS
  0
LAYER
  5
78
330
2
100
AcDbSymbolTableRecord
100
AcDbLayerTableRecord
  2
63
 70
     0
 62
    63
  6
CONTINUOUS
  0
LAYER
  5
79
330
2
100
AcDbSymbolTableRecord
100
AcDbLayerTableRecord
  2
64
 70
     0
 62
    64
  6
CONTINUOUS
  0
LAYER
  5
7A
330
2
100
AcDbSymbolTableRecord
100
AcDbLayerTableRecord
  2
65
 70
     0
 62
    65
  6
CONTINUOUS
  0
LAYER
  5
7B
330
2
100
AcDbSymbolTableRecord
100
AcDbLayerTableRecord
  2
66
 70
     0
 62
    66
  6
CONTINUOUS
  0
LAYER
  5
7C
330
2
100
AcDbSymbolTableRecord
100
AcDbLayerTableRecord
  2
67
 70
     0
 62
    67
  6
CONTINUOUS
  0
LAYER
  5
7D
330
2
100
AcDbSymbolTableRecord
100
AcDbLayerTableRecord
  2
68
 70
     0
 62
    68
  6
CONTINUOUS
  0
LAYER
  5
7E
330
2
100
AcDbSymbolTableRecord
100
AcDbLayerTableRecord
  2
69
 70
     0
 62
    69
  6
CONTINUOUS
  0
LAYER
  5
7F
330
2
100
AcDbSymbolTableRecord
100
AcDbLayerTableRecord
  2
70
 70
     0
 62
    70
  6
CONTINUOUS
  0
LAYER
  5
80
330
2
100
AcDbSymbolTableRecord
100
AcDbLayerTableRecord
  2
71
 70
     0
 62
    71
  6
CONTINUOUS
  0
LAYER
  5
81
330
2
100
AcDbSymbolTableRecord
100
AcDbLayerTableRecord
  2
72
 70
     0
 62
    72
  6
CONTINUOUS
  0
LAYER
  5
82
330
2
100
AcDbSymbolTableRecord
100
AcDbLayerTableRecord
  2
73
 70
     0
 62
    73
  6
CONTINUOUS
  0
LAYER
  5
83
330
2
100
AcDbSymbolTableRecord
100
AcDbLayerTableRecord
  2
74
 70
     0
 62
    74
  6
CONTINUOUS
  0
LAYER
  5
84
330
2
100
AcDbSymbolTableRecord
100
AcDbLayerTableRecord
  2
75
 70
     0
 62
    75
  6
CONTINUOUS
  0
LAYER
  5
85
330
2
100
AcDbSymbolTableRecord
100
AcDbLayerTableRecord
  2
76
 70
     0
 62
    76
  6
CONTINUOUS
  0
LAYER
  5
86
330
2
100
AcDbSymbolTableRecord
100
AcDbLayerTableRecord
  2
77
 70
     0
 62
    77
  6
CONTINUOUS
  0
LAYER
  5
87
330
2
100
AcDbSymbolTableRecord
100
AcDbLayerTableRecord
  2
78
 70
     0
 62
    78
  6
CONTINUOUS
  0
LAYER
  5
88
330
2
100
AcDbSymbolTableRecord
100
AcDbLayerTableRecord
  2
79
 70
     0
 62
    79
  6
CONTINUOUS
  0
LAYER
  5
89
330
2
100
AcDbSymbolTableRecord
100
AcDbLayerTableRecord
  2
80
 70
     0
 62
    80
  6
CONTINUOUS
  0
LAYER
  5
8A
330
2
100
AcDbSymbolTableRecord
100
AcDbLayerTableRecord
  2
81
 70
     0
 62
    81
  6
CONTINUOUS
  0
LAYER
  5
8B
330
2
100
AcDbSymbolTableRecord
100
AcDbLayerTableRecord
  2
82
 70
     0
 62
    82
  6
CONTINUOUS
  0
LAYER
  5
8C
330
2
100
AcDbSymbolTableRecord
100
AcDbLayerTableRecord
  2
83
 70
     0
 62
    83
  6
CONTINUOUS
  0
LAYER
  5
8D
330
2
100
AcDbSymbolTableRecord
100
AcDbLayerTableRecord
  2
84
 70
     0
 62
    84
  6
CONTINUOUS
  0
LAYER
  5
8E
330
2
100
AcDbSymbolTableRecord
100
AcDbLayerTableRecord
  2
85
 70
     0
 62
    85
  6
CONTINUOUS
  0
LAYER
  5
8F
330
2
100
AcDbSymbolTableRecord
100
AcDbLayerTableRecord
  2
86
 70
     0
 62
    86
  6
CONTINUOUS
  0
LAYER
  5
90
330
2
100
AcDbSymbolTableRecord
100
AcDbLayerTableRecord
  2
87
 70
     0
 62
    87
  6
CONTINUOUS
  0
LAYER
  5
91
330
2
100
AcDbSymbolTableRecord
100
AcDbLayerTableRecord
  2
88
 70
     0
 62
    88
  6
CONTINUOUS
  0
LAYER
  5
92
330
2
100
AcDbSymbolTableRecord
100
AcDbLayerTableRecord
  2
89
 70
     0
 62
    89
  6
CONTINUOUS
  0
LAYER
  5
93
330
2
100
AcDbSymbolTableRecord
100
AcDbLayerTableRecord
  2
90
 70
     0
 62
    90
  6
CONTINUOUS
  0
LAYER
  5
94
330
2
100
AcDbSymbolTableRecord
100
AcDbLayerTableRecord
  2
91
 70
     0
 62
    91
  6
CONTINUOUS
  0
LAYER
  5
95
330
2
100
AcDbSymbolTableRecord
100
AcDbLayerTableRecord
  2
92
 70
     0
 62
    92
  6
CONTINUOUS
  0
LAYER
  5
96
330
2
100
AcDbSymbolTableRecord
100
AcDbLayerTableRecord
  2
93
 70
     0
 62
    93
  6
CONTINUOUS
  0
LAYER
  5
97
330
2
100
AcDbSymbolTableRecord
100
AcDbLayerTableRecord
  2
94
 70
     0
 62
    94
  6
CONTINUOUS
  0
LAYER
  5
98
330
2
100
AcDbSymbolTableRecord
100
AcDbLayerTableRecord
  2
95
 70
     0
 62
    95
  6
CONTINUOUS
  0
LAYER
  5
99
330
2
100
AcDbSymbolTableRecord
100
AcDbLayerTableRecord
  2
96
 70
     0
 62
    96
  6
CONTINUOUS
  0
LAYER
  5
9A
330
2
100
AcDbSymbolTableRecord
100
AcDbLayerTableRecord
  2
97
 70
     0
 62
    97
  6
CONTINUOUS
  0
LAYER
  5
9B
330
2
100
AcDbSymbolTableRecord
100
AcDbLayerTableRecord
  2
98
 70
     0
 62
    98
  6
CONTINUOUS
  0
LAYER
  5
9C
330
2
100
AcDbSymbolTableRecord
100
AcDbLayerTableRecord
  2
99
 70
     0
 62
    99
  6
CONTINUOUS
  0
LAYER
  5
9D
330
2
100
AcDbSymbolTableRecord
100
AcDbLayerTableRecord
  2
100
 70
     0
 62
   100
  6
CONTINUOUS
  0
LAYER
  5
9E
330
2
100
AcDbSymbolTableRecord
100
AcDbLayerTableRecord
  2
101
 70
     0
 62
   101
  6
CONTINUOUS
  0
LAYER
  5
9F
330
2
100
AcDbSymbolTableRecord
100
AcDbLayerTableRecord
  2
102
 70
     0
 62
   102
  6
CONTINUOUS
  0
LAYER
  5
A0
330
2
100
AcDbSymbolTableRecord
100
AcDbLayerTableRecord
  2
103
 70
     0
 62
   103
  6
CONTINUOUS
  0
LAYER
  5
A1
330
2
100
AcDbSymbolTableRecord
100
AcDbLayerTableRecord
  2
104
 70
     0
 62
   104
  6
CONTINUOUS
  0
LAYER
  5
A2
330
2
100
AcDbSymbolTableRecord
100
AcDbLayerTableRecord
  2
105
 70
     0
 62
   105
  6
CONTINUOUS
  0
LAYER
  5
A3
330
2
100
AcDbSymbolTableRecord
100
AcDbLayerTableRecord
  2
106
 70
     0
 62
   106
  6
CONTINUOUS
  0
LAYER
  5
A4
330
2
100
AcDbSymbolTableRecord
100
AcDbLayerTableRecord
  2
107
 70
     0
 62
   107
  6
CONTINUOUS
  0
LAYER
  5
A5
330
2
100
AcDbSymbolTableRecord
100
AcDbLayerTableRecord
  2
108
 70
     0
 62
   108
  6
CONTINUOUS
  0
LAYER
  5
A6
330
2
100
AcDbSymbolTableRecord
100
AcDbLayerTableRecord
  2
109
 70
     0
 62
   109
  6
CONTINUOUS
  0
LAYER
  5
A7
330
2
100
AcDbSymbolTableRecord
100
AcDbLayerTableRecord
  2
110
 70
     0
 62
   110
  6
CONTINUOUS
  0
LAYER
  5
A8
330
2
100
AcDbSymbolTableRecord
100
AcDbLayerTableRecord
  2
111
 70
     0
 62
   111
  6
CONTINUOUS
  0
LAYER
  5
A9
330
2
100
AcDbSymbolTableRecord
100
AcDbLayerTableRecord
  2
112
 70
     0
 62
   112
  6
CONTINUOUS
  0
LAYER
  5
AA
330
2
100
AcDbSymbolTableRecord
100
AcDbLayerTableRecord
  2
113
 70
     0
 62
   113
  6
CONTINUOUS
  0
LAYER
  5
AB
330
2
100
AcDbSymbolTableRecord
100
AcDbLayerTableRecord
  2
114
 70
     0
 62
   114
  6
CONTINUOUS
  0
LAYER
  5
AC
330
2
100
AcDbSymbolTableRecord
100
AcDbLayerTableRecord
  2
115
 70
     0
 62
   115
  6
CONTINUOUS
  0
LAYER
  5
AD
330
2
100
AcDbSymbolTableRecord
100
AcDbLayerTableRecord
  2
116
 70
     0
 62
   116
  6
CONTINUOUS
  0
LAYER
  5
AE
330
2
100
AcDbSymbolTableRecord
100
AcDbLayerTableRecord
  2
117
 70
     0
 62
   117
  6
CONTINUOUS
  0
LAYER
  5
AF
330
2
100
AcDbSymbolTableRecord
100
AcDbLayerTableRecord
  2
118
 70
     0
 62
   118
  6
CONTINUOUS
  0
LAYER
  5
B0
330
2
100
AcDbSymbolTableRecord
100
AcDbLayerTableRecord
  2
119
 70
     0
 62
   119
  6
CONTINUOUS
  0
LAYER
  5
B1
330
2
100
AcDbSymbolTableRecord
100
AcDbLayerTableRecord
  2
120
 70
     0
 62
   120
  6
CONTINUOUS
  0
LAYER
  5
B2
330
2
100
AcDbSymbolTableRecord
100
AcDbLayerTableRecord
  2
121
 70
     0
 62
   121
  6
CONTINUOUS
  0
LAYER
  5
B3
330
2
100
AcDbSymbolTableRecord
100
AcDbLayerTableRecord
  2
122
 70
     0
 62
   122
  6
CONTINUOUS
  0
LAYER
  5
B4
330
2
100
AcDbSymbolTableRecord
100
AcDbLayerTableRecord
  2
123
 70
     0
 62
   123
  6
CONTINUOUS
  0
LAYER
  5
B5
330
2
100
AcDbSymbolTableRecord
100
AcDbLayerTableRecord
  2
124
 70
     0
 62
   124
  6
CONTINUOUS
  0
LAYER
  5
B6
330
2
100
AcDbSymbolTableRecord
100
AcDbLayerTableRecord
  2
125
 70
     0
 62
   125
  6
CONTINUOUS
  0
LAYER
  5
B7
330
2
100
AcDbSymbolTableRecord
100
AcDbLayerTableRecord
  2
126
 70
     0
 62
   126
  6
CONTINUOUS
  0
LAYER
  5
B8
330
2
100
AcDbSymbolTableRecord
100
AcDbLayerTableRecord
  2
127
 70
     0
 62
   127
  6
CONTINUOUS
  0
LAYER
  5
B9
330
2
100
AcDbSymbolTableRecord
100
AcDbLayerTableRecord
  2
128
 70
     0
 62
   128
  6
CONTINUOUS
  0
LAYER
  5
BA
330
2
100
AcDbSymbolTableRecord
100
AcDbLayerTableRecord
  2
129
 70
     0
 62
   129
  6
CONTINUOUS
  0
LAYER
  5
BB
330
2
100
AcDbSymbolTableRecord
100
AcDbLayerTableRecord
  2
130
 70
     0
 62
   130
  6
CONTINUOUS
  0
LAYER
  5
BC
330
2
100
AcDbSymbolTableRecord
100
AcDbLayerTableRecord
  2
131
 70
     0
 62
   131
  6
CONTINUOUS
  0
LAYER
  5
BD
330
2
100
AcDbSymbolTableRecord
100
AcDbLayerTableRecord
  2
132
 70
     0
 62
   132
  6
CONTINUOUS
  0
LAYER
  5
BE
330
2
100
AcDbSymbolTableRecord
100
AcDbLayerTableRecord
  2
133
 70
     0
 62
   133
  6
CONTINUOUS
  0
LAYER
  5
BF
330
2
100
AcDbSymbolTableRecord
100
AcDbLayerTableRecord
  2
134
 70
     0
 62
   134
  6
CONTINUOUS
  0
LAYER
  5
C0
330
2
100
AcDbSymbolTableRecord
100
AcDbLayerTableRecord
  2
135
 70
     0
 62
   135
  6
CONTINUOUS
  0
LAYER
  5
C1
330
2
100
AcDbSymbolTableRecord
100
AcDbLayerTableRecord
  2
136
 70
     0
 62
   136
  6
CONTINUOUS
  0
LAYER
  5
C2
330
2
100
AcDbSymbolTableRecord
100
AcDbLayerTableRecord
  2
137
 70
     0
 62
   137
  6
CONTINUOUS
  0
LAYER
  5
C3
330
2
100
AcDbSymbolTableRecord
100
AcDbLayerTableRecord
  2
138
 70
     0
 62
   138
  6
CONTINUOUS
  0
LAYER
  5
C4
330
2
100
AcDbSymbolTableRecord
100
AcDbLayerTableRecord
  2
139
 70
     0
 62
   139
  6
CONTINUOUS
  0
LAYER
  5
C5
330
2
100
AcDbSymbolTableRecord
100
AcDbLayerTableRecord
  2
140
 70
     0
 62
   140
  6
CONTINUOUS
  0
LAYER
  5
C6
330
2
100
AcDbSymbolTableRecord
100
AcDbLayerTableRecord
  2
141
 70
     0
 62
   141
  6
CONTINUOUS
  0
LAYER
  5
C7
330
2
100
AcDbSymbolTableRecord
100
AcDbLayerTableRecord
  2
142
 70
     0
 62
   142
  6
CONTINUOUS
  0
LAYER
  5
C8
330
2
100
AcDbSymbolTableRecord
100
AcDbLayerTableRecord
  2
143
 70
     0
 62
   143
  6
CONTINUOUS
  0
LAYER
  5
C9
330
2
100
AcDbSymbolTableRecord
100
AcDbLayerTableRecord
  2
144
 70
     0
 62
   144
  6
CONTINUOUS
  0
LAYER
  5
CA
330
2
100
AcDbSymbolTableRecord
100
AcDbLayerTableRecord
  2
145
 70
     0
 62
   145
  6
CONTINUOUS
  0
LAYER
  5
CB
330
2
100
AcDbSymbolTableRecord
100
AcDbLayerTableRecord
  2
146
 70
     0
 62
   146
  6
CONTINUOUS
  0
LAYER
  5
CC
330
2
100
AcDbSymbolTableRecord
100
AcDbLayerTableRecord
  2
147
 70
     0
 62
   147
  6
CONTINUOUS
  0
LAYER
  5
CD
330
2
100
AcDbSymbolTableRecord
100
AcDbLayerTableRecord
  2
148
 70
     0
 62
   148
  6
CONTINUOUS
  0
LAYER
  5
CE
330
2
100
AcDbSymbolTableRecord
100
AcDbLayerTableRecord
  2
149
 70
     0
 62
   149
  6
CONTINUOUS
  0
LAYER
  5
CF
330
2
100
AcDbSymbolTableRecord
100
AcDbLayerTableRecord
  2
150
 70
     0
 62
   150
  6
CONTINUOUS
  0
LAYER
  5
D0
330
2
100
AcDbSymbolTableRecord
100
AcDbLayerTableRecord
  2
151
 70
     0
 62
   151
  6
CONTINUOUS
  0
LAYER
  5
D1
330
2
100
AcDbSymbolTableRecord
100
AcDbLayerTableRecord
  2
152
 70
     0
 62
   152
  6
CONTINUOUS
  0
LAYER
  5
D2
330
2
100
AcDbSymbolTableRecord
100
AcDbLayerTableRecord
  2
153
 70
     0
 62
   153
  6
CONTINUOUS
  0
LAYER
  5
D3
330
2
100
AcDbSymbolTableRecord
100
AcDbLayerTableRecord
  2
154
 70
     0
 62
   154
  6
CONTINUOUS
  0
LAYER
  5
D4
330
2
100
AcDbSymbolTableRecord
100
AcDbLayerTableRecord
  2
155
 70
     0
 62
   155
  6
CONTINUOUS
  0
LAYER
  5
D5
330
2
100
AcDbSymbolTableRecord
100
AcDbLayerTableRecord
  2
156
 70
     0
 62
   156
  6
CONTINUOUS
  0
LAYER
  5
D6
330
2
100
AcDbSymbolTableRecord
100
AcDbLayerTableRecord
  2
157
 70
     0
 62
   157
  6
CONTINUOUS
  0
LAYER
  5
D7
330
2
100
AcDbSymbolTableRecord
100
AcDbLayerTableRecord
  2
158
 70
     0
 62
   158
  6
CONTINUOUS
  0
LAYER
  5
D8
330
2
100
AcDbSymbolTableRecord
100
AcDbLayerTableRecord
  2
159
 70
     0
 62
   159
  6
CONTINUOUS
  0
LAYER
  5
D9
330
2
100
AcDbSymbolTableRecord
100
AcDbLayerTableRecord
  2
160
 70
     0
 62
   160
  6
CONTINUOUS
  0
LAYER
  5
DA
330
2
100
AcDbSymbolTableRecord
100
AcDbLayerTableRecord
  2
161
 70
     0
 62
   161
  6
CONTINUOUS
  0
LAYER
  5
DB
330
2
100
AcDbSymbolTableRecord
100
AcDbLayerTableRecord
  2
162
 70
     0
 62
   162
  6
CONTINUOUS
  0
LAYER
  5
DC
330
2
100
AcDbSymbolTableRecord
100
AcDbLayerTableRecord
  2
163
 70
     0
 62
   163
  6
CONTINUOUS
  0
LAYER
  5
DD
330
2
100
AcDbSymbolTableRecord
100
AcDbLayerTableRecord
  2
164
 70
     0
 62
   164
  6
CONTINUOUS
  0
LAYER
  5
DE
330
2
100
AcDbSymbolTableRecord
100
AcDbLayerTableRecord
  2
165
 70
     0
 62
   165
  6
CONTINUOUS
  0
LAYER
  5
DF
330
2
100
AcDbSymbolTableRecord
100
AcDbLayerTableRecord
  2
166
 70
     0
 62
   166
  6
CONTINUOUS
  0
LAYER
  5
E0
330
2
100
AcDbSymbolTableRecord
100
AcDbLayerTableRecord
  2
167
 70
     0
 62
   167
  6
CONTINUOUS
  0
LAYER
  5
E1
330
2
100
AcDbSymbolTableRecord
100
AcDbLayerTableRecord
  2
168
 70
     0
 62
   168
  6
CONTINUOUS
  0
LAYER
  5
E2
330
2
100
AcDbSymbolTableRecord
100
AcDbLayerTableRecord
  2
169
 70
     0
 62
   169
  6
CONTINUOUS
  0
LAYER
  5
E3
330
2
100
AcDbSymbolTableRecord
100
AcDbLayerTableRecord
  2
170
 70
     0
 62
   170
  6
CONTINUOUS
  0
LAYER
  5
E4
330
2
100
AcDbSymbolTableRecord
100
AcDbLayerTableRecord
  2
171
 70
     0
 62
   171
  6
CONTINUOUS
  0
LAYER
  5
E5
330
2
100
AcDbSymbolTableRecord
100
AcDbLayerTableRecord
  2
172
 70
     0
 62
   172
  6
CONTINUOUS
  0
LAYER
  5
E6
330
2
100
AcDbSymbolTableRecord
100
AcDbLayerTableRecord
  2
173
 70
     0
 62
   173
  6
CONTINUOUS
  0
LAYER
  5
E7
330
2
100
AcDbSymbolTableRecord
100
AcDbLayerTableRecord
  2
174
 70
     0
 62
   174
  6
CONTINUOUS
  0
LAYER
  5
E8
330
2
100
AcDbSymbolTableRecord
100
AcDbLayerTableRecord
  2
175
 70
     0
 62
   175
  6
CONTINUOUS
  0
LAYER
  5
E9
330
2
100
AcDbSymbolTableRecord
100
AcDbLayerTableRecord
  2
176
 70
     0
 62
   176
  6
CONTINUOUS
  0
LAYER
  5
EA
330
2
100
AcDbSymbolTableRecord
100
AcDbLayerTableRecord
  2
177
 70
     0
 62
   177
  6
CONTINUOUS
  0
LAYER
  5
EB
330
2
100
AcDbSymbolTableRecord
100
AcDbLayerTableRecord
  2
178
 70
     0
 62
   178
  6
CONTINUOUS
  0
LAYER
  5
EC
330
2
100
AcDbSymbolTableRecord
100
AcDbLayerTableRecord
  2
179
 70
     0
 62
   179
  6
CONTINUOUS
  0
LAYER
  5
ED
330
2
100
AcDbSymbolTableRecord
100
AcDbLayerTableRecord
  2
180
 70
     0
 62
   180
  6
CONTINUOUS
  0
LAYER
  5
EE
330
2
100
AcDbSymbolTableRecord
100
AcDbLayerTableRecord
  2
181
 70
     0
 62
   181
  6
CONTINUOUS
  0
LAYER
  5
EF
330
2
100
AcDbSymbolTableRecord
100
AcDbLayerTableRecord
  2
182
 70
     0
 62
   182
  6
CONTINUOUS
  0
LAYER
  5
F0
330
2
100
AcDbSymbolTableRecord
100
AcDbLayerTableRecord
  2
183
 70
     0
 62
   183
  6
CONTINUOUS
  0
LAYER
  5
F1
330
2
100
AcDbSymbolTableRecord
100
AcDbLayerTableRecord
  2
184
 70
     0
 62
   184
  6
CONTINUOUS
  0
LAYER
  5
F2
330
2
100
AcDbSymbolTableRecord
100
AcDbLayerTableRecord
  2
185
 70
     0
 62
   185
  6
CONTINUOUS
  0
LAYER
  5
F3
330
2
100
AcDbSymbolTableRecord
100
AcDbLayerTableRecord
  2
186
 70
     0
 62
   186
  6
CONTINUOUS
  0
LAYER
  5
F4
330
2
100
AcDbSymbolTableRecord
100
AcDbLayerTableRecord
  2
187
 70
     0
 62
   187
  6
CONTINUOUS
  0
LAYER
  5
F5
330
2
100
AcDbSymbolTableRecord
100
AcDbLayerTableRecord
  2
188
 70
     0
 62
   188
  6
CONTINUOUS
  0
LAYER
  5
F6
330
2
100
AcDbSymbolTableRecord
100
AcDbLayerTableRecord
  2
189
 70
     0
 62
   189
  6
CONTINUOUS
  0
LAYER
  5
F7
330
2
100
AcDbSymbolTableRecord
100
AcDbLayerTableRecord
  2
190
 70
     0
 62
   190
  6
CONTINUOUS
  0
LAYER
  5
F8
330
2
100
AcDbSymbolTableRecord
100
AcDbLayerTableRecord
  2
191
 70
     0
 62
   191
  6
CONTINUOUS
  0
LAYER
  5
F9
330
2
100
AcDbSymbolTableRecord
100
AcDbLayerTableRecord
  2
192
 70
     0
 62
   192
  6
CONTINUOUS
  0
LAYER
  5
FA
330
2
100
AcDbSymbolTableRecord
100
AcDbLayerTableRecord
  2
193
 70
     0
 62
   193
  6
CONTINUOUS
  0
LAYER
  5
FB
330
2
100
AcDbSymbolTableRecord
100
AcDbLayerTableRecord
  2
194
 70
     0
 62
   194
  6
CONTINUOUS
  0
LAYER
  5
FC
330
2
100
AcDbSymbolTableRecord
100
AcDbLayerTableRecord
  2
195
 70
     0
 62
   195
  6
CONTINUOUS
  0
LAYER
  5
FD
330
2
100
AcDbSymbolTableRecord
100
AcDbLayerTableRecord
  2
196
 70
     0
 62
   196
  6
CONTINUOUS
  0
LAYER
  5
FE
330
2
100
AcDbSymbolTableRecord
100
AcDbLayerTableRecord
  2
197
 70
     0
 62
   197
  6
CONTINUOUS
  0
LAYER
  5
FF
330
2
100
AcDbSymbolTableRecord
100
AcDbLayerTableRecord
  2
198
 70
     0
 62
   198
  6
CONTINUOUS
  0
LAYER
  5
100
330
2
100
AcDbSymbolTableRecord
100
AcDbLayerTableRecord
  2
199
 70
     0
 62
   199
  6
CONTINUOUS
  0
LAYER
  5
101
330
2
100
AcDbSymbolTableRecord
100
AcDbLayerTableRecord
  2
200
 70
     0
 62
   200
  6
CONTINUOUS
  0
LAYER
  5
102
330
2
100
AcDbSymbolTableRecord
100
AcDbLayerTableRecord
  2
201
 70
     0
 62
   201
  6
CONTINUOUS
  0
LAYER
  5
103
330
2
100
AcDbSymbolTableRecord
100
AcDbLayerTableRecord
  2
202
 70
     0
 62
   202
  6
CONTINUOUS
  0
LAYER
  5
104
330
2
100
AcDbSymbolTableRecord
100
AcDbLayerTableRecord
  2
203
 70
     0
 62
   203
  6
CONTINUOUS
  0
LAYER
  5
105
330
2
100
AcDbSymbolTableRecord
100
AcDbLayerTableRecord
  2
204
 70
     0
 62
   204
  6
CONTINUOUS
  0
LAYER
  5
106
330
2
100
AcDbSymbolTableRecord
100
AcDbLayerTableRecord
  2
205
 70
     0
 62
   205
  6
CONTINUOUS
  0
LAYER
  5
107
330
2
100
AcDbSymbolTableRecord
100
AcDbLayerTableRecord
  2
206
 70
     0
 62
   206
  6
CONTINUOUS
  0
LAYER
  5
108
330
2
100
AcDbSymbolTableRecord
100
AcDbLayerTableRecord
  2
207
 70
     0
 62
   207
  6
CONTINUOUS
  0
LAYER
  5
109
330
2
100
AcDbSymbolTableRecord
100
AcDbLayerTableRecord
  2
208
 70
     0
 62
   208
  6
CONTINUOUS
  0
LAYER
  5
10A
330
2
100
AcDbSymbolTableRecord
100
AcDbLayerTableRecord
  2
209
 70
     0
 62
   209
  6
CONTINUOUS
  0
LAYER
  5
10B
330
2
100
AcDbSymbolTableRecord
100
AcDbLayerTableRecord
  2
210
 70
     0
 62
   210
  6
CONTINUOUS
  0
LAYER
  5
10C
330
2
100
AcDbSymbolTableRecord
100
AcDbLayerTableRecord
  2
211
 70
     0
 62
   211
  6
CONTINUOUS
  0
LAYER
  5
10D
330
2
100
AcDbSymbolTableRecord
100
AcDbLayerTableRecord
  2
212
 70
     0
 62
   212
  6
CONTINUOUS
  0
LAYER
  5
10E
330
2
100
AcDbSymbolTableRecord
100
AcDbLayerTableRecord
  2
213
 70
     0
 62
   213
  6
CONTINUOUS
  0
LAYER
  5
10F
330
2
100
AcDbSymbolTableRecord
100
AcDbLayerTableRecord
  2
214
 70
     0
 62
   214
  6
CONTINUOUS
  0
LAYER
  5
110
330
2
100
AcDbSymbolTableRecord
100
AcDbLayerTableRecord
  2
215
 70
     0
 62
   215
  6
CONTINUOUS
  0
LAYER
  5
111
330
2
100
AcDbSymbolTableRecord
100
AcDbLayerTableRecord
  2
216
 70
     0
 62
   216
  6
CONTINUOUS
  0
LAYER
  5
112
330
2
100
AcDbSymbolTableRecord
100
AcDbLayerTableRecord
  2
217
 70
     0
 62
   217
  6
CONTINUOUS
  0
LAYER
  5
113
330
2
100
AcDbSymbolTableRecord
100
AcDbLayerTableRecord
  2
218
 70
     0
 62
   218
  6
CONTINUOUS
  0
LAYER
  5
114
330
2
100
AcDbSymbolTableRecord
100
AcDbLayerTableRecord
  2
219
 70
     0
 62
   219
  6
CONTINUOUS
  0
LAYER
  5
115
330
2
100
AcDbSymbolTableRecord
100
AcDbLayerTableRecord
  2
220
 70
     0
 62
   220
  6
CONTINUOUS
  0
LAYER
  5
116
330
2
100
AcDbSymbolTableRecord
100
AcDbLayerTableRecord
  2
221
 70
     0
 62
   221
  6
CONTINUOUS
  0
LAYER
  5
117
330
2
100
AcDbSymbolTableRecord
100
AcDbLayerTableRecord
  2
222
 70
     0
 62
   222
  6
CONTINUOUS
  0
LAYER
  5
118
330
2
100
AcDbSymbolTableRecord
100
AcDbLayerTableRecord
  2
223
 70
     0
 62
   223
  6
CONTINUOUS
  0
LAYER
  5
119
330
2
100
AcDbSymbolTableRecord
100
AcDbLayerTableRecord
  2
224
 70
     0
 62
   224
  6
CONTINUOUS
  0
LAYER
  5
11A
330
2
100
AcDbSymbolTableRecord
100
AcDbLayerTableRecord
  2
225
 70
     0
 62
   225
  6
CONTINUOUS
  0
LAYER
  5
11B
330
2
100
AcDbSymbolTableRecord
100
AcDbLayerTableRecord
  2
226
 70
     0
 62
   226
  6
CONTINUOUS
  0
LAYER
  5
11C
330
2
100
AcDbSymbolTableRecord
100
AcDbLayerTableRecord
  2
227
 70
     0
 62
   227
  6
CONTINUOUS
  0
LAYER
  5
11D
330
2
100
AcDbSymbolTableRecord
100
AcDbLayerTableRecord
  2
228
 70
     0
 62
   228
  6
CONTINUOUS
  0
LAYER
  5
11E
330
2
100
AcDbSymbolTableRecord
100
AcDbLayerTableRecord
  2
229
 70
     0
 62
   229
  6
CONTINUOUS
  0
LAYER
  5
11F
330
2
100
AcDbSymbolTableRecord
100
AcDbLayerTableRecord
  2
230
 70
     0
 62
   230
  6
CONTINUOUS
  0
LAYER
  5
120
330
2
100
AcDbSymbolTableRecord
100
AcDbLayerTableRecord
  2
231
 70
     0
 62
   231
  6
CONTINUOUS
  0
LAYER
  5
121
330
2
100
AcDbSymbolTableRecord
100
AcDbLayerTableRecord
  2
232
 70
     0
 62
   232
  6
CONTINUOUS
  0
LAYER
  5
122
330
2
100
AcDbSymbolTableRecord
100
AcDbLayerTableRecord
  2
233
 70
     0
 62
   233
  6
CONTINUOUS
  0
LAYER
  5
123
330
2
100
AcDbSymbolTableRecord
100
AcDbLayerTableRecord
  2
234
 70
     0
 62
   234
  6
CONTINUOUS
  0
LAYER
  5
124
330
2
100
AcDbSymbolTableRecord
100
AcDbLayerTableRecord
  2
235
 70
     0
 62
   235
  6
CONTINUOUS
  0
LAYER
  5
125
330
2
100
AcDbSymbolTableRecord
100
AcDbLayerTableRecord
  2
236
 70
     0
 62
   236
  6
CONTINUOUS
  0
LAYER
  5
126
330
2
100
AcDbSymbolTableRecord
100
AcDbLayerTableRecord
  2
237
 70
     0
 62
   237
  6
CONTINUOUS
  0
LAYER
  5
127
330
2
100
AcDbSymbolTableRecord
100
AcDbLayerTableRecord
  2
238
 70
     0
 62
   238
  6
CONTINUOUS
  0
LAYER
  5
128
330
2
100
AcDbSymbolTableRecord
100
AcDbLayerTableRecord
  2
239
 70
     0
 62
   239
  6
CONTINUOUS
  0
LAYER
  5
129
330
2
100
AcDbSymbolTableRecord
100
AcDbLayerTableRecord
  2
240
 70
     0
 62
   240
  6
CONTINUOUS
  0
LAYER
  5
12A
330
2
100
AcDbSymbolTableRecord
100
AcDbLayerTableRecord
  2
241
 70
     0
 62
   241
  6
CONTINUOUS
  0
LAYER
  5
12B
330
2
100
AcDbSymbolTableRecord
100
AcDbLayerTableRecord
  2
242
 70
     0
 62
   242
  6
CONTINUOUS
  0
LAYER
  5
12C
330
2
100
AcDbSymbolTableRecord
100
AcDbLayerTableRecord
  2
243
 70
     0
 62
   243
  6
CONTINUOUS
  0
LAYER
  5
12D
330
2
100
AcDbSymbolTableRecord
100
AcDbLayerTableRecord
  2
244
 70
     0
 62
   244
  6
CONTINUOUS
  0
LAYER
  5
12E
330
2
100
AcDbSymbolTableRecord
100
AcDbLayerTableRecord
  2
245
 70
     0
 62
   245
  6
CONTINUOUS
  0
LAYER
  5
12F
330
2
100
AcDbSymbolTableRecord
100
AcDbLayerTableRecord
  2
246
 70
     0
 62
   246
  6
CONTINUOUS
  0
LAYER
  5
130
330
2
100
AcDbSymbolTableRecord
100
AcDbLayerTableRecord
  2
247
 70
     0
 62
   247
  6
CONTINUOUS
  0
LAYER
  5
131
330
2
100
AcDbSymbolTableRecord
100
AcDbLayerTableRecord
  2
248
 70
     0
 62
   248
  6
CONTINUOUS
  0
LAYER
  5
132
330
2
100
AcDbSymbolTableRecord
100
AcDbLayerTableRecord
  2
249
 70
     0
 62
   249
  6
CONTINUOUS
  0
LAYER
  5
133
330
2
100
AcDbSymbolTableRecord
100
AcDbLayerTableRecord
  2
250
 70
     0
 62
   250
  6
CONTINUOUS
  0
LAYER
  5
134
330
2
100
AcDbSymbolTableRecord
100
AcDbLayerTableRecord
  2
251
 70
     0
 62
   251
  6
CONTINUOUS
  0
LAYER
  5
135
330
2
100
AcDbSymbolTableRecord
100
AcDbLayerTableRecord
  2
252
 70
     0
 62
   252
  6
CONTINUOUS
  0
LAYER
  5
136
330
2
100
AcDbSymbolTableRecord
100
AcDbLayerTableRecord
  2
253
 70
     0
 62
   253
  6
CONTINUOUS
  0
LAYER
  5
137
330
2
100
AcDbSymbolTableRecord
100
AcDbLayerTableRecord
  2
254
 70
     0
 62
   254
  6
CONTINUOUS
  0
LAYER
  5
138
330
2
100
AcDbSymbolTableRecord
100
AcDbLayerTableRecord
  2
255
 70
     0
 62
   255
  6
CONTINUOUS
  0
ENDTAB
  0
TABLE
  2
STYLE
  5
3
330
0
100
AcDbSymbolTable
 70
     1
  0
STYLE
  5
11
330
3
100
AcDbSymbolTableRecord
100
AcDbTextStyleTableRecord
  2
STANDARD
 70
     0
 40
0.0
 41
1.0
 50
0.0
 71
     0
 42
0.2
  3
monotxt
  4

  0
ENDTAB
  0
TABLE
  2
VIEW
  5
6
330
0
100
AcDbSymbolTable
 70
     0
  0
ENDTAB
  0
TABLE
  2
UCS
  5
7
330
0
100
AcDbSymbolTable
 70
     0
  0
ENDTAB
  0
TABLE
  2
APPID
  5
9
330
0
100
AcDbSymbolTable
 70
     1
  0
APPID
  5
12
330
9
100
AcDbSymbolTableRecord
100
AcDbRegAppTableRecord
  2
ACAD
 70
     0
  0
ENDTAB
  0
TABLE
  2
DIMSTYLE
  5
A
330
0
100
AcDbSymbolTable
 70
     1
  0
DIMSTYLE
105
319B
330
A
100
AcDbSymbolTableRecord
100
AcDbDimStyleTableRecord
  2
STANDARD
 70
     0
  3

  4

  5

  6

  7

 40
1.0
 41
0.18
 42
0.0625
 43
0.38
 44
0.18
 45
0.0
 46
0.0
 47
0.0
 48
0.0
140
0.18
141
0.09
142
0.0
143
25.4
144
1.0
145
0.0
146
1.0
147
0.09
 71
     0
 72
     0
 73
     1
 74
     1
 75
     0
 76
     0
 77
     0
 78
     0
170
     0
171
     2
172
     0
173
     0
174
     0
175
     0
176
     0
177
     0
178
     0
270
     2
271
     4
272
     4
273
     2
274
     2
340
11
275
     0
280
     0
281
     0
282
     0
283
     1
284
     0
285
     0
286
     0
287
     3
288
     0
  0
ENDTAB
  0
TABLE
  2
BLOCK_RECORD
  5
1
330
0
100
AcDbSymbolTable
 70
     0
  0
BLOCK_RECORD
  5
1E
102
{ACAD_XDICTIONARY
360
46B0
102
}
330
1
100
AcDbSymbolTableRecord
100
AcDbBlockTableRecord
  2
*MODEL_SPACE
  0
BLOCK_RECORD
  5
1A
102
{ACAD_XDICTIONARY
360
46AE
102
}
330
1
100
AcDbSymbolTableRecord
100
AcDbBlockTableRecord
  2
*PAPER_SPACE
  0
ENDTAB
  0
ENDSEC
  0
SECTION
  2
BLOCKS
  0
BLOCK
  5
13B
330
1E
100
AcDbEntity
  8
0
100
AcDbBlockBegin
  2
*MODEL_SPACE
 70
     0
 10
0.0
 20
0.0
 30
0.0
  3
*MODEL_SPACE
  1

  0
ENDBLK
  5
13C
330
1E
100
AcDbEntity
  8
0
100
AcDbBlockEnd
  0
BLOCK
  5
139
330
1A
100
AcDbEntity
 67
     1
  8
0
100
AcDbBlockBegin
  2
*PAPER_SPACE
 70
     0
 10
0.0
 20
0.0
 30
0.0
  3
*PAPER_SPACE
  1

  0
ENDBLK
  5
13A
330
1A
100
AcDbEntity
 67
     1
  8
0
100
AcDbBlockEnd
  0
ENDSEC
  0
SECTION
  2
ENTITIES
  0
LINE
  5
2905
330
1E
100
AcDbEntity
  8
7
100
AcDbLine
 10
12.88134101626257
 20
12.19473093697844
 30
0.0
 11
12.76060610812609
 21
12.19473093697844
 31
0.0
  0
LINE
  5
2911
330
1E
100
AcDbEntity
  8
7
100
AcDbLine
 10
12.76060610812609
 20
12.34433723619104
 30
0.0
 11
12.88134101626257
 21
12.34433723619104
 31
0.0
  0
LINE
  5
291D
330
1E
100
AcDbEntity
  8
7
100
AcDbLine
 10
12.88134101626257
 20
12.3837073149312
 30
0.0
 11
12.76060610812609
 21
12.3837073149312
 31
0.0
  0
LINE
  5
292B
330
1E
100
AcDbEntity
  8
7
100
AcDbLine
 10
12.76060610812609
 20
12.15667319419629
 30
0.0
 11
12.88134101626257
 21
12.15667319419629
 31
0.0
  0
LINE
  5
2939
330
1E
100
AcDbEntity
  8
7
100
AcDbLine
 10
13.6136244808295
 20
12.07662070075797
 30
0.0
 11
13.60575046508147
 21
12.07662070075797
 31
0.0
  0
LINE
  5
293F
330
1E
100
AcDbEntity
  8
7
100
AcDbLine
 10
13.61887382466152
 20
12.08055770863198
 30
0.0
 11
13.61887382466152
 21
12.12124012333015
 31
0.0
  0
LINE
  5
2945
330
1E
100
AcDbEntity
  8
7
100
AcDbLine
 10
13.6136244808295
 20
12.12517713120417
 30
0.0
 11
13.60575046508147
 21
12.12517713120417
 31
0.0
  0
LINE
  5
2946
330
1E
100
AcDbEntity
  8
7
100
AcDbLine
 10
13.60575046508147
 20
12.12517713120417
 30
0.0
 11
13.60575046508147
 21
12.07662070075797
 31
0.0
  0
LINE
  5
2947
330
1E
100
AcDbEntity
  8
7
100
AcDbLine
 10
13.47320453332294
 20
12.08843172438002
 30
0.0
 11
13.45089482203685
 21
12.08843172438002
 31
0.0
  0
LINE
  5
2948
330
1E
100
AcDbEntity
  8
7
100
AcDbLine
 10
13.4627058456589
 20
12.11205377162411
 30
0.0
 11
13.47320453332294
 21
12.08843172438002
 31
0.0
  0
LINE
  5
2949
330
1E
100
AcDbEntity
  8
7
100
AcDbLine
 10
13.45089482203685
 20
12.08843172438002
 30
0.0
 11
13.4627058456589
 21
12.11205377162411
 31
0.0
  0
LINE
  5
294F
330
1E
100
AcDbEntity
  8
7
100
AcDbLine
 10
13.40365072754866
 20
12.14486217057424
 30
0.0
 11
13.40365072754866
 21
12.11599077949813
 31
0.0
  0
LINE
  5
295A
330
1E
100
AcDbEntity
  8
7
100
AcDbLine
 10
13.39708904775864
 20
12.11074143566611
 30
0.0
 11
13.3865903600946
 21
12.11074143566611
 31
0.0
  0
LINE
  5
295B
330
1E
100
AcDbEntity
  8
7
100
AcDbLine
 10
12.88134101626257
 20
12.15667319419629
 30
0.0
 11
12.88134101626257
 21
12.15536085823829
 31
0.0
  0
LINE
  5
295C
330
1E
100
AcDbEntity
  8
7
100
AcDbLine
 10
12.76060610812609
 20
12.15667319419629
 30
0.0
 11
12.76060610812609
 21
12.15536085823829
 31
0.0
  0
LINE
  5
295D
330
1E
100
AcDbEntity
  8
7
100
AcDbLine
 10
12.88134101626257
 20
12.15536085823829
 30
0.0
 11
12.76060610812609
 21
12.15536085823829
 31
0.0
  0
LINE
  5
295E
330
1E
100
AcDbEntity
  8
7
100
AcDbLine
 10
12.88134101626257
 20
12.3837073149312
 30
0.0
 11
12.88134101626257
 21
12.3850196508892
 31
0.0
  0
LINE
  5
2989
330
1E
100
AcDbEntity
  8
7
100
AcDbLine
 10
13.81572421836231
 20
12.12517713120417
 30
0.0
 11
13.81572421836231
 21
12.05693566138789
 31
0.0
  0
LINE
  5
298F
330
1E
100
AcDbEntity
  8
7
100
AcDbLine
 10
13.83540925773239
 20
12.14354983461624
 30
0.0
 11
13.77110479579013
 21
12.14354983461624
 31
0.0
  0
LINE
  5
2990
330
1E
100
AcDbEntity
  8
7
100
AcDbLine
 10
13.77110479579013
 20
12.12517713120417
 30
0.0
 11
13.77110479579013
 21
12.14354983461624
 31
0.0
  0
LINE
  5
2991
330
1E
100
AcDbEntity
  8
7
100
AcDbLine
 10
13.7881651632442
 20
12.12517713120417
 30
0.0
 11
13.77110479579013
 21
12.12517713120417
 31
0.0
  0
LINE
  5
2992
330
1E
100
AcDbEntity
  8
7
100
AcDbLine
 10
13.65693156744368
 20
12.14354983461624
 30
0.0
 11
13.65693156744368
 21
12.07268369288395
 31
0.0
  0
LINE
  5
2998
330
1E
100
AcDbEntity
  8
7
100
AcDbLine
 10
13.70417566193186
 20
12.05693566138789
 30
0.0
 11
13.67267959893974
 21
12.05693566138789
 31
0.0
  0
LINE
  5
29A9
330
1E
100
AcDbEntity
  8
7
100
AcDbLine
 10
13.69630164618383
 20
12.07662070075797
 30
0.0
 11
13.69105230235181
 21
12.07662070075797
 31
0.0
  0
LINE
  5
29B9
330
1E
100
AcDbEntity
  8
7
100
AcDbLine
 10
13.62806017636756
 20
12.0582479973459
 30
0.0
 11
13.6385588640316
 21
12.06218500521991
 31
0.0
  0
LINE
  5
29BA
330
1E
100
AcDbEntity
  8
7
100
AcDbLine
 10
13.6385588640316
 20
12.06218500521991
 30
0.0
 11
13.64249587190562
 21
12.07268369288395
 31
0.0
  0
LINE
  5
29BB
330
1E
100
AcDbEntity
  8
7
100
AcDbLine
 10
13.64380820786362
 20
12.07268369288395
 30
0.0
 11
13.64380820786362
 21
12.12780180312018
 31
0.0
  0
LINE
  5
29C1
330
1E
100
AcDbEntity
  8
7
100
AcDbLine
 10
13.62806017636756
 20
12.14354983461624
 30
0.0
 11
13.57950374592137
 21
12.14354983461624
 31
0.0
  0
LINE
  5
29C7
330
1E
100
AcDbEntity
  8
7
100
AcDbLine
 10
13.75666910025207
 20
12.14354983461624
 30
0.0
 11
13.75666910025207
 21
12.05693566138789
 31
0.0
  0
LINE
  5
29C8
330
1E
100
AcDbEntity
  8
7
100
AcDbLine
 10
13.75666910025207
 20
12.14354983461624
 30
0.0
 11
13.73304705300798
 21
12.14354983461624
 31
0.0
  0
LINE
  5
29C9
330
1E
100
AcDbEntity
  8
7
100
AcDbLine
 10
13.47451686928095
 20
12.14354983461624
 30
0.0
 11
13.49945125248305
 21
12.08711938842201
 31
0.0
  0
LINE
  5
29CA
330
1E
100
AcDbEntity
  8
7
100
AcDbLine
 10
13.47451686928095
 20
12.14354983461624
 30
0.0
 11
13.45089482203685
 21
12.14354983461624
 31
0.0
  0
LINE
  5
29D0
330
1E
100
AcDbEntity
  8
7
100
AcDbLine
 10
13.33540925773239
 20
12.16979655377634
 30
0.0
 11
13.41414941521271
 21
12.16979655377634
 31
0.0
  0
LINE
  5
29D1
330
1E
100
AcDbEntity
  8
7
100
AcDbLine
 10
13.33540925773239
 20
12.16979655377634
 30
0.0
 11
13.33540925773239
 21
12.05693566138789
 31
0.0
  0
LINE
  5
29D2
330
1E
100
AcDbEntity
  8
7
100
AcDbLine
 10
13.3865903600946
 20
12.05693566138789
 30
0.0
 11
13.33540925773239
 21
12.05693566138789
 31
0.0
  0
LINE
  5
29D3
330
1E
100
AcDbEntity
  8
7
100
AcDbLine
 10
13.3865903600946
 20
12.09236873225403
 30
0.0
 11
13.3865903600946
 21
12.05693566138789
 31
0.0
  0
LINE
  5
29D4
330
1E
100
AcDbEntity
  8
7
100
AcDbLine
 10
13.3865903600946
 20
12.09236873225403
 30
0.0
 11
13.41414941521271
 21
12.09236873225403
 31
0.0
  0
LINE
  5
29DA
330
1E
100
AcDbEntity
  8
7
100
AcDbLine
 10
13.41546175117071
 20
12.05693566138789
 30
0.0
 11
13.43120978266677
 21
12.09630574012805
 31
0.0
  0
LINE
  5
29DB
330
1E
100
AcDbEntity
  8
7
100
AcDbLine
 10
13.44039613437281
 20
12.05693566138789
 30
0.0
 11
13.41546175117071
 21
12.05693566138789
 31
0.0
  0
LINE
  5
29DC
330
1E
100
AcDbEntity
  8
7
100
AcDbLine
 10
13.44039613437281
 20
12.05693566138789
 30
0.0
 11
13.44564547820483
 21
12.06874668500994
 31
0.0
  0
LINE
  5
29DD
330
1E
100
AcDbEntity
  8
7
100
AcDbLine
 10
13.47845387715496
 20
12.06874668500994
 30
0.0
 11
13.44564547820483
 21
12.06874668500994
 31
0.0
  0
LINE
  5
29DE
330
1E
100
AcDbEntity
  8
7
100
AcDbLine
 10
13.48501555694499
 20
12.05693566138789
 30
0.0
 11
13.47845387715496
 21
12.06874668500994
 31
0.0
  0
LINE
  5
29DF
330
1E
100
AcDbEntity
  8
7
100
AcDbLine
 10
13.48501555694499
 20
12.05693566138789
 30
0.0
 11
13.52438563568514
 21
12.05693566138789
 31
0.0
  0
LINE
  5
29E0
330
1E
100
AcDbEntity
  8
7
100
AcDbLine
 10
13.52438563568514
 20
12.09368106821204
 30
0.0
 11
13.52438563568514
 21
12.05693566138789
 31
0.0
  0
LINE
  5
29E1
330
1E
100
AcDbEntity
  8
7
100
AcDbLine
 10
13.54013366718121
 20
12.05693566138789
 30
0.0
 11
13.52438563568514
 21
12.09368106821204
 31
0.0
  0
LINE
  5
29F1
330
1E
100
AcDbEntity
  8
7
100
AcDbLine
 10
12.47582920523895
 20
12.33777555640102
 30
0.0
 11
12.47451686928095
 21
12.34040022831702
 31
0.0
  0
LINE
  5
29F2
330
1E
100
AcDbEntity
  8
7
100
AcDbLine
 10
12.47582920523895
 20
12.33777555640102
 30
0.0
 11
12.50207592439906
 21
12.33777555640102
 31
0.0
  0
LINE
  5
29F3
330
1E
100
AcDbEntity
  8
7
100
AcDbLine
 10
12.47582920523895
 20
12.20260495272647
 30
0.0
 11
12.50207592439906
 21
12.20260495272647
 31
0.0
  0
LINE
  5
29F4
330
1E
100
AcDbEntity
  8
7
100
AcDbLine
 10
12.47451686928095
 20
12.19998028081046
 30
0.0
 11
12.47582920523895
 21
12.20260495272647
 31
0.0
  0
LINE
  5
29F5
330
1E
100
AcDbEntity
  8
7
100
AcDbLine
 10
12.49945125248305
 20
12.19998028081046
 30
0.0
 11
12.47451686928095
 21
12.19998028081046
 31
0.0
  0
LINE
  5
29FB
330
1E
100
AcDbEntity
  8
7
100
AcDbLine
 10
12.50207592439906
 20
12.20260495272647
 30
0.0
 11
12.50207592439906
 21
12.14879917844826
 31
0.0
  0
LINE
  5
29FC
330
1E
100
AcDbEntity
  8
7
100
AcDbLine
 10
13.13987119998961
 20
12.20260495272647
 30
0.0
 11
13.13987119998961
 21
12.14879917844826
 31
0.0
  0
LINE
  5
29FD
330
1E
100
AcDbEntity
  8
7
100
AcDbLine
 10
13.14118353594761
 20
12.14748684249026
 30
0.0
 11
13.13987119998961
 21
12.14879917844826
 31
0.0
  0
LINE
  5
2A08
330
1E
100
AcDbEntity
  8
7
100
AcDbLine
 10
13.16611791914971
 20
12.19998028081046
 30
0.0
 11
13.16611791914971
 21
12.20260495272647
 31
0.0
  0
LINE
  5
2A09
330
1E
100
AcDbEntity
  8
7
100
AcDbLine
 10
13.13987119998961
 20
12.20260495272647
 30
0.0
 11
13.16611791914971
 21
12.20260495272647
 31
0.0
  0
LINE
  5
2A0A
330
1E
100
AcDbEntity
  8
7
100
AcDbLine
 10
13.14118353594761
 20
12.34040022831702
 30
0.0
 11
13.16611791914971
 21
12.34040022831702
 31
0.0
  0
LINE
  5
2A0B
330
1E
100
AcDbEntity
  8
7
100
AcDbLine
 10
13.14118353594761
 20
12.34040022831702
 30
0.0
 11
13.14118353594761
 21
12.39158133067923
 31
0.0
  0
LINE
  5
2A0C
330
1E
100
AcDbEntity
  8
7
100
AcDbLine
 10
12.50207592439906
 20
12.39026899472122
 30
0.0
 11
12.50207592439906
 21
12.33777555640102
 31
0.0
  0
LINE
  5
2A0D
330
1E
100
AcDbEntity
  8
7
100
AcDbLine
 10
12.49945125248305
 20
12.39158133067923
 30
0.0
 11
12.50207592439906
 21
12.39026899472122
 31
0.0
  0
LINE
  5
2A13
330
1E
100
AcDbEntity
  8
7
100
AcDbLine
 10
12.50207592439906
 20
12.14879917844826
 30
0.0
 11
13.13987119998961
 21
12.14879917844826
 31
0.0
  0
LINE
  5
2A14
330
1E
100
AcDbEntity
  8
7
100
AcDbLine
 10
13.16611791914971
 20
12.33777555640102
 30
0.0
 11
13.16611791914971
 21
12.20260495272647
 31
0.0
  0
LINE
  5
2A15
330
1E
100
AcDbEntity
  8
7
100
AcDbLine
 10
13.13987119998961
 20
12.39026899472122
 30
0.0
 11
12.50207592439906
 21
12.39026899472122
 31
0.0
  0
LINE
  5
2A16
330
1E
100
AcDbEntity
  8
7
100
AcDbLine
 10
12.47582920523895
 20
12.33777555640102
 30
0.0
 11
12.47582920523895
 21
12.3102165012829
 31
0.0
  0
LINE
  5
2A17
330
1E
100
AcDbEntity
  8
7
100
AcDbLine
 10
12.47582920523895
 20
12.23016400784459
 30
0.0
 11
12.47582920523895
 21
12.3102165012829
 31
0.0
  0
LINE
  5
2A18
330
1E
100
AcDbEntity
  8
7
100
AcDbLine
 10
12.47582920523895
 20
12.20260495272647
 30
0.0
 11
12.47582920523895
 21
12.23016400784459
 31
0.0
  0
LINE
  5
2A2D
330
1E
100
AcDbEntity
  8
7
100
AcDbLine
 10
11.44564547820483
 20
11.71966532018054
 30
0.0
 11
11.44958248607885
 21
11.72360232805456
 31
0.0
  0
LINE
  5
2A38
330
1E
100
AcDbEntity
  8
7
100
AcDbLine
 10
14.19236463830982
 20
11.72360232805456
 30
0.0
 11
14.19630164618383
 21
11.71966532018054
 31
0.0
  0
LINE
  5
2A60
330
1E
100
AcDbEntity
  8
7
100
AcDbLine
 10
11.67399193489774
 20
11.88895665876322
 30
0.0
 11
13.96795518949092
 21
11.88895665876322
 31
0.0
  0
LINE
  5
2A61
330
1E
100
AcDbEntity
  8
7
100
AcDbLine
 10
12.49813891652504
 20
12.39158133067923
 30
0.0
 11
12.49945125248305
 21
12.39158133067923
 31
0.0
  0
LINE
  5
2A62
330
1E
100
AcDbEntity
  8
7
100
AcDbLine
 10
12.49813891652504
 20
12.34040022831702
 30
0.0
 11
12.49813891652504
 21
12.39158133067923
 31
0.0
  0
LINE
  5
2A63
330
1E
100
AcDbEntity
  8
7
100
AcDbLine
 10
12.49945125248305
 20
12.34040022831702
 30
0.0
 11
12.49813891652504
 21
12.34040022831702
 31
0.0
  0
LINE
  5
2A64
330
1E
100
AcDbEntity
  8
7
100
AcDbLine
 10
12.47451686928095
 20
12.34040022831702
 30
0.0
 11
12.49813891652504
 21
12.34040022831702
 31
0.0
  0
LINE
  5
2A65
330
1E
100
AcDbEntity
  8
7
100
AcDbLine
 10
12.47451686928095
 20
12.19866794485246
 30
0.0
 11
12.47451686928095
 21
12.34040022831702
 31
0.0
  0
LINE
  5
2A66
330
1E
100
AcDbEntity
  8
7
100
AcDbLine
 10
12.47451686928095
 20
12.19866794485246
 30
0.0
 11
12.47451686928095
 21
12.19998028081046
 31
0.0
  0
LINE
  5
2A67
330
1E
100
AcDbEntity
  8
7
100
AcDbLine
 10
12.49813891652504
 20
12.19866794485246
 30
0.0
 11
12.47451686928095
 21
12.19866794485246
 31
0.0
  0
LINE
  5
2A68
330
1E
100
AcDbEntity
  8
7
100
AcDbLine
 10
12.49813891652504
 20
12.19866794485246
 30
0.0
 11
12.49945125248305
 21
12.19998028081046
 31
0.0
  0
LINE
  5
2A69
330
1E
100
AcDbEntity
  8
7
100
AcDbLine
 10
12.49813891652504
 20
12.14748684249026
 30
0.0
 11
12.49945125248305
 21
12.14748684249026
 31
0.0
  0
LINE
  5
2A6A
330
1E
100
AcDbEntity
  8
7
100
AcDbLine
 10
12.49813891652504
 20
12.14748684249026
 30
0.0
 11
12.49813891652504
 21
12.19866794485246
 31
0.0
  0
LINE
  5
2A6B
330
1E
100
AcDbEntity
  8
7
100
AcDbLine
 10
13.14249587190562
 20
12.14748684249026
 30
0.0
 11
12.49813891652504
 21
12.14748684249026
 31
0.0
  0
LINE
  5
2A6C
330
1E
100
AcDbEntity
  8
7
100
AcDbLine
 10
13.14249587190562
 20
12.14748684249026
 30
0.0
 11
13.14118353594761
 21
12.14748684249026
 31
0.0
  0
LINE
  5
2A6D
330
1E
100
AcDbEntity
  8
7
100
AcDbLine
 10
13.14249587190562
 20
12.19866794485246
 30
0.0
 11
13.14249587190562
 21
12.14748684249026
 31
0.0
  0
LINE
  5
2A6E
330
1E
100
AcDbEntity
  8
7
100
AcDbLine
 10
13.14118353594761
 20
12.19998028081046
 30
0.0
 11
13.14249587190562
 21
12.19866794485246
 31
0.0
  0
LINE
  5
2A6F
330
1E
100
AcDbEntity
  8
7
100
AcDbLine
 10
13.16611791914971
 20
12.19998028081046
 30
0.0
 11
13.16743025510772
 21
12.19866794485246
 31
0.0
  0
LINE
  5
2A70
330
1E
100
AcDbEntity
  8
7
100
AcDbLine
 10
13.14249587190562
 20
12.19866794485246
 30
0.0
 11
13.16743025510772
 21
12.19866794485246
 31
0.0
  0
LINE
  5
2A71
330
1E
100
AcDbEntity
  8
7
100
AcDbLine
 10
13.16743025510772
 20
12.34040022831702
 30
0.0
 11
13.16743025510772
 21
12.19866794485246
 31
0.0
  0
LINE
  5
2A72
330
1E
100
AcDbEntity
  8
7
100
AcDbLine
 10
13.16611791914971
 20
12.34040022831702
 30
0.0
 11
13.16743025510772
 21
12.34040022831702
 31
0.0
  0
LINE
  5
2A73
330
1E
100
AcDbEntity
  8
7
100
AcDbLine
 10
13.14249587190562
 20
12.34040022831702
 30
0.0
 11
13.16743025510772
 21
12.34040022831702
 31
0.0
  0
LINE
  5
2A74
330
1E
100
AcDbEntity
  8
7
100
AcDbLine
 10
13.14249587190562
 20
12.34040022831702
 30
0.0
 11
13.14118353594761
 21
12.34040022831702
 31
0.0
  0
LINE
  5
2A75
330
1E
100
AcDbEntity
  8
7
100
AcDbLine
 10
13.14249587190562
 20
12.39158133067923
 30
0.0
 11
13.14118353594761
 21
12.39158133067923
 31
0.0
  0
LINE
  5
2A76
330
1E
100
AcDbEntity
  8
7
100
AcDbLine
 10
13.14249587190562
 20
12.39158133067923
 30
0.0
 11
13.14249587190562
 21
12.34040022831702
 31
0.0
  0
LINE
  5
2A77
330
1E
100
AcDbEntity
  8
7
100
AcDbLine
 10
12.49813891652504
 20
12.39158133067923
 30
0.0
 11
13.14249587190562
 21
12.39158133067923
 31
0.0
  0
LINE
  5
2A97
330
1E
100
AcDbEntity
  8
7
100
AcDbLine
 10
13.03619665930719
 20
12.69735560889445
 30
0.0
 11
13.03619665930719
 21
12.68554458527241
 31
0.0
  0
LINE
  5
2A9E
330
1E
100
AcDbEntity
  8
7
100
AcDbLine
 10
13.03488432334919
 20
12.76690941466873
 30
0.0
 11
13.03488432334919
 21
12.73803802359261
 31
0.0
  0
LINE
  5
2A9F
330
1E
100
AcDbEntity
  8
7
100
AcDbLine
 10
12.39971371967465
 20
12.67110888973435
 30
0.0
 11
12.37609167243055
 21
12.6592978661123
 31
0.0
  0
LINE
  5
2AA5
330
1E
100
AcDbEntity
  8
7
100
AcDbLine
 10
12.40102605563265
 20
12.69735560889445
 30
0.0
 11
12.40102605563265
 21
12.68554458527241
 31
0.0
  0
LINE
  5
2AAB
330
1E
100
AcDbEntity
  8
7
100
AcDbLine
 10
12.39971371967465
 20
12.73803802359261
 30
0.0
 11
12.39971371967465
 21
12.7327886797606
 31
0.0
  0
LINE
  5
2AAC
330
1E
100
AcDbEntity
  8
7
100
AcDbLine
 10
12.39971371967465
 20
12.76690941466873
 30
0.0
 11
12.39971371967465
 21
12.73803802359261
 31
0.0
  0
LINE
  5
2AAD
330
1E
100
AcDbEntity
  8
7
100
AcDbLine
 10
12.60575046508147
 20
12.76690941466873
 30
0.0
 11
12.60575046508147
 21
12.73803802359261
 31
0.0
  0
LINE
  5
2AAE
330
1E
100
AcDbEntity
  8
7
100
AcDbLine
 10
12.60575046508147
 20
12.7327886797606
 30
0.0
 11
12.60575046508147
 21
12.73803802359261
 31
0.0
  0
LINE
  5
2AB4
330
1E
100
AcDbEntity
  8
7
100
AcDbLine
 10
12.60575046508147
 20
12.69735560889445
 30
0.0
 11
12.60575046508147
 21
12.68554458527241
 31
0.0
  0
LINE
  5
2ABA
330
1E
100
AcDbEntity
  8
7
100
AcDbLine
 10
12.63068484828357
 20
12.6592978661123
 30
0.0
 11
12.60706280103948
 21
12.67110888973435
 31
0.0
  0
LINE
  5
2ABB
330
1E
100
AcDbEntity
  8
7
100
AcDbLine
 10
14.19236463830982
 20
16.09761807608605
 30
0.0
 11
14.19236463830982
 21
11.72360232805456
 31
0.0
  0
LINE
  5
2ACD
330
1E
100
AcDbEntity
  8
7
100
AcDbLine
 10
12.89183970392661
 20
12.72360232805456
 30
0.0
 11
12.89183970392661
 21
12.6579855301543
 31
0.0
  0
LINE
  5
2AD6
330
1E
100
AcDbEntity
  8
7
100
AcDbLine
 10
12.18973996639381
 20
13.3850196508892
 30
0.0
 11
12.18973996639381
 21
12.72360232805456
 31
0.0
  0
LINE
  5
2ADC
330
1E
100
AcDbEntity
  8
7
100
AcDbLine
 10
13.38396568817858
 20
12.72360232805456
 30
0.0
 11
13.45220715799486
 21
12.72360232805456
 31
0.0
  0
LINE
  5
2ADD
330
1E
100
AcDbEntity
  8
7
100
AcDbLine
 10
13.38396568817858
 20
12.6579855301543
 30
0.0
 11
13.38396568817858
 21
12.72360232805456
 31
0.0
  0
LINE
  5
2ADE
330
1E
100
AcDbEntity
  8
7
100
AcDbLine
 10
12.89183970392661
 20
12.6579855301543
 30
0.0
 11
13.38396568817858
 21
12.6579855301543
 31
0.0
  0
LINE
  5
2ADF
330
1E
100
AcDbEntity
  8
7
100
AcDbLine
 10
13.46008117374289
 20
13.49394353540364
 30
0.0
 11
13.46008117374289
 21
13.54381230180784
 31
0.0
  0
LINE
  5
2AE0
330
1E
100
AcDbEntity
  8
7
100
AcDbLine
 10
12.18186595064578
 20
13.49394353540364
 30
0.0
 11
13.46008117374289
 21
13.49394353540364
 31
0.0
  0
LINE
  5
2AE7
330
1E
100
AcDbEntity
  8
7
100
AcDbLine
 10
12.18186595064578
 20
13.68685692123041
 30
0.0
 11
12.15693156744368
 21
13.68685692123041
 31
0.0
  0
LINE
  5
2AE8
330
1E
100
AcDbEntity
  8
7
100
AcDbLine
 10
12.18186595064578
 20
13.73803802359262
 30
0.0
 11
12.18186595064578
 21
13.68685692123041
 31
0.0
  0
LINE
  5
2AE9
330
1E
100
AcDbEntity
  8
7
100
AcDbLine
 10
13.46008117374289
 20
13.73803802359262
 30
0.0
 11
12.18186595064578
 21
13.73803802359262
 31
0.0
  0
LINE
  5
2AEF
330
1E
100
AcDbEntity
  8
7
100
AcDbLine
 10
13.48501555694499
 20
13.54381230180784
 30
0.0
 11
13.48501555694499
 21
13.68685692123041
 31
0.0
  0
LINE
  5
2AF0
330
1E
100
AcDbEntity
  8
7
100
AcDbLine
 10
13.46008117374289
 20
13.54381230180784
 30
0.0
 11
13.48501555694499
 21
13.54381230180784
 31
0.0
  0
LINE
  5
2AF1
330
1E
100
AcDbEntity
  8
7
100
AcDbLine
 10
13.14249587190562
 20
15.42832673750337
 30
0.0
 11
13.14249587190562
 21
15.47950783986558
 31
0.0
  0
LINE
  5
2AF2
330
1E
100
AcDbEntity
  8
7
100
AcDbLine
 10
12.49813891652504
 20
15.42832673750337
 30
0.0
 11
13.14249587190562
 21
15.42832673750337
 31
0.0
  0
LINE
  5
2AF3
330
1E
100
AcDbEntity
  8
7
100
AcDbLine
 10
12.49813891652504
 20
15.47950783986558
 30
0.0
 11
12.49813891652504
 21
15.42832673750337
 31
0.0
  0
LINE
  5
2AF4
330
1E
100
AcDbEntity
  8
7
100
AcDbLine
 10
12.47451686928095
 20
15.47950783986558
 30
0.0
 11
12.49813891652504
 21
15.47950783986558
 31
0.0
  0
LINE
  5
2AF5
330
1E
100
AcDbEntity
  8
7
100
AcDbLine
 10
12.47451686928095
 20
15.62255245928815
 30
0.0
 11
12.47451686928095
 21
15.47950783986558
 31
0.0
  0
LINE
  5
2AF6
330
1E
100
AcDbEntity
  8
7
100
AcDbLine
 10
12.49813891652504
 20
15.62255245928815
 30
0.0
 11
12.47451686928095
 21
15.62255245928815
 31
0.0
  0
LINE
  5
2AF7
330
1E
100
AcDbEntity
  8
7
100
AcDbLine
 10
12.49813891652504
 20
15.67242122569235
 30
0.0
 11
12.49813891652504
 21
15.62255245928815
 31
0.0
  0
LINE
  5
2AF8
330
1E
100
AcDbEntity
  8
7
100
AcDbLine
 10
13.14249587190562
 20
15.67242122569235
 30
0.0
 11
12.49813891652504
 21
15.67242122569235
 31
0.0
  0
LINE
  5
2AF9
330
1E
100
AcDbEntity
  8
7
100
AcDbLine
 10
13.14249587190562
 20
15.62255245928815
 30
0.0
 11
13.14249587190562
 21
15.67242122569235
 31
0.0
  0
LINE
  5
2AFA
330
1E
100
AcDbEntity
  8
7
100
AcDbLine
 10
13.14249587190562
 20
15.62255245928815
 30
0.0
 11
13.16743025510772
 21
15.62255245928815
 31
0.0
  0
LINE
  5
2AFB
330
1E
100
AcDbEntity
  8
7
100
AcDbLine
 10
13.16743025510772
 20
15.47950783986558
 30
0.0
 11
13.16743025510772
 21
15.62255245928815
 31
0.0
  0
LINE
  5
2AFC
330
1E
100
AcDbEntity
  8
7
100
AcDbLine
 10
13.14249587190562
 20
15.47950783986558
 30
0.0
 11
13.16743025510772
 21
15.47950783986558
 31
0.0
  0
LINE
  5
2AFD
330
1E
100
AcDbEntity
  8
7
100
AcDbLine
 10
12.89183970392661
 20
14.14879917844826
 30
0.0
 11
12.89183970392661
 21
14.083182380548
 31
0.0
  0
LINE
  5
2B06
330
1E
100
AcDbEntity
  8
7
100
AcDbLine
 10
12.18973996639381
 20
14.8102165012829
 30
0.0
 11
12.18973996639381
 21
14.14879917844826
 31
0.0
  0
LINE
  5
2B0C
330
1E
100
AcDbEntity
  8
7
100
AcDbLine
 10
13.38396568817858
 20
14.14879917844826
 30
0.0
 11
13.45220715799486
 21
14.14879917844826
 31
0.0
  0
LINE
  5
2B0D
330
1E
100
AcDbEntity
  8
7
100
AcDbLine
 10
13.38396568817858
 20
14.083182380548
 30
0.0
 11
13.38396568817858
 21
14.14879917844826
 31
0.0
  0
LINE
  5
2B0E
330
1E
100
AcDbEntity
  8
7
100
AcDbLine
 10
12.89183970392661
 20
14.083182380548
 30
0.0
 11
13.38396568817858
 21
14.083182380548
 31
0.0
  0
LINE
  5
2B0F
330
1E
100
AcDbEntity
  8
7
100
AcDbLine
 10
13.46008117374289
 20
14.97032148815954
 30
0.0
 11
13.46008117374289
 21
14.91914038579734
 31
0.0
  0
LINE
  5
2B10
330
1E
100
AcDbEntity
  8
7
100
AcDbLine
 10
12.18186595064578
 20
14.91914038579734
 30
0.0
 11
13.46008117374289
 21
14.91914038579734
 31
0.0
  0
LINE
  5
2B11
330
1E
100
AcDbEntity
  8
7
100
AcDbLine
 10
12.18186595064578
 20
14.97032148815954
 30
0.0
 11
12.18186595064578
 21
14.91914038579734
 31
0.0
  0
LINE
  5
2B12
330
1E
100
AcDbEntity
  8
7
100
AcDbLine
 10
12.15693156744368
 20
14.97032148815954
 30
0.0
 11
12.18186595064578
 21
14.97032148815954
 31
0.0
  0
LINE
  5
2B13
330
1E
100
AcDbEntity
  8
7
100
AcDbLine
 10
12.15693156744368
 20
14.97032148815954
 30
0.0
 11
12.15693156744368
 21
15.11205377162411
 31
0.0
  0
LINE
  5
2B14
330
1E
100
AcDbEntity
  8
7
100
AcDbLine
 10
12.18186595064578
 20
15.11205377162411
 30
0.0
 11
12.15693156744368
 21
15.11205377162411
 31
0.0
  0
LINE
  5
2B15
330
1E
100
AcDbEntity
  8
7
100
AcDbLine
 10
12.18186595064578
 20
15.16323487398631
 30
0.0
 11
12.18186595064578
 21
15.11205377162411
 31
0.0
  0
LINE
  5
2B16
330
1E
100
AcDbEntity
  8
7
100
AcDbLine
 10
13.46008117374289
 20
15.16323487398631
 30
0.0
 11
12.18186595064578
 21
15.16323487398631
 31
0.0
  0
LINE
  5
2B17
330
1E
100
AcDbEntity
  8
7
100
AcDbLine
 10
13.46008117374289
 20
15.16323487398631
 30
0.0
 11
13.46008117374289
 21
15.11205377162411
 31
0.0
  0
LINE
  5
2B18
330
1E
100
AcDbEntity
  8
7
100
AcDbLine
 10
13.46008117374289
 20
15.11205377162411
 30
0.0
 11
13.48501555694499
 21
15.11205377162411
 31
0.0
  0
LINE
  5
2B19
330
1E
100
AcDbEntity
  8
7
100
AcDbLine
 10
13.48501555694499
 20
14.97032148815954
 30
0.0
 11
13.48501555694499
 21
15.11205377162411
 31
0.0
  0
LINE
  5
2B1A
330
1E
100
AcDbEntity
  8
7
100
AcDbLine
 10
13.48501555694499
 20
14.97032148815954
 30
0.0
 11
13.46008117374289
 21
14.97032148815954
 31
0.0
  0
LINE
  5
2B29
330
1E
100
AcDbEntity
  8
7
100
AcDbLine
 10
11.44958248607885
 20
11.72360232805456
 30
0.0
 11
11.44958248607885
 21
16.09761807608605
 31
0.0
  0
LINE
  5
2B2F
330
1E
100
AcDbEntity
  8
7
100
AcDbLine
 10
11.44564547820483
 20
16.10024274800206
 30
0.0
 11
11.44958248607885
 21
16.09761807608605
 31
0.0
  0
LINE
  5
2B30
330
1E
100
AcDbEntity
  8
7
100
AcDbLine
 10
11.44564547820483
 20
16.10024274800206
 30
0.0
 11
11.44564547820483
 21
11.71966532018054
 31
0.0
  0
LINE
  5
2B38
330
1E
100
AcDbEntity
  8
7
100
AcDbLine
 10
14.13593419211559
 20
16.1606102020703
 30
0.0
 11
11.50601293227307
 21
16.1606102020703
 31
0.0
  0
LINE
  5
2B50
330
1E
100
AcDbEntity
  8
7
100
AcDbLine
 10
12.48370322098698
 20
13.58580705246401
 30
0.0
 11
12.50338826035706
 21
13.58055770863199
 31
0.0
  0
LINE
  5
2B7B
330
1E
100
AcDbEntity
  8
7
100
AcDbLine
 10
12.59131476954342
 20
13.34564957214904
 30
0.0
 11
12.41546175117071
 21
13.34564957214904
 31
0.0
  0
LINE
  5
2B7C
330
1E
100
AcDbEntity
  8
7
100
AcDbLine
 10
12.41546175117071
 20
13.3837073149312
 30
0.0
 11
12.41546175117071
 21
13.34564957214904
 31
0.0
  0
LINE
  5
2B7D
330
1E
100
AcDbEntity
  8
7
100
AcDbLine
 10
13.05063235484525
 20
13.34564957214904
 30
0.0
 11
13.22517303725995
 21
13.34564957214904
 31
0.0
  0
LINE
  5
2B7E
330
1E
100
AcDbEntity
  8
7
100
AcDbLine
 10
13.22517303725995
 20
13.3837073149312
 30
0.0
 11
13.22517303725995
 21
13.34564957214904
 31
0.0
  0
LINE
  5
2B7F
330
1E
100
AcDbEntity
  8
7
100
AcDbLine
 10
12.59131476954342
 20
13.3837073149312
 30
0.0
 11
12.59131476954342
 21
13.34564957214904
 31
0.0
  0
LINE
  5
2B80
330
1E
100
AcDbEntity
  8
7
100
AcDbLine
 10
13.05063235484525
 20
13.3837073149312
 30
0.0
 11
13.05063235484525
 21
13.34564957214904
 31
0.0
  0
LINE
  5
2B81
330
1E
100
AcDbEntity
  8
7
100
AcDbLine
 10
13.03488432334919
 20
12.76690941466873
 30
0.0
 11
13.24092106875601
 21
12.76690941466873
 31
0.0
  0
LINE
  5
2B82
330
1E
100
AcDbEntity
  8
7
100
AcDbLine
 10
13.03488432334919
 20
12.73803802359261
 30
0.0
 11
13.24092106875601
 21
12.73803802359261
 31
0.0
  0
LINE
  5
2B83
330
1E
100
AcDbEntity
  8
7
100
AcDbLine
 10
13.24092106875601
 20
12.7327886797606
 30
0.0
 11
13.03488432334919
 21
12.7327886797606
 31
0.0
  0
LINE
  5
2B84
330
1E
100
AcDbEntity
  8
7
100
AcDbLine
 10
13.03619665930719
 20
12.69735560889445
 30
0.0
 11
13.24092106875601
 21
12.69735560889445
 31
0.0
  0
LINE
  5
2B85
330
1E
100
AcDbEntity
  8
7
100
AcDbLine
 10
13.03619665930719
 20
12.68554458527241
 30
0.0
 11
13.24092106875601
 21
12.68554458527241
 31
0.0
  0
LINE
  5
2B86
330
1E
100
AcDbEntity
  8
7
100
AcDbLine
 10
12.60575046508147
 20
12.76690941466873
 30
0.0
 11
12.39971371967465
 21
12.76690941466873
 31
0.0
  0
LINE
  5
2B87
330
1E
100
AcDbEntity
  8
7
100
AcDbLine
 10
12.60575046508147
 20
12.73803802359261
 30
0.0
 11
12.39971371967465
 21
12.73803802359261
 31
0.0
  0
LINE
  5
2B88
330
1E
100
AcDbEntity
  8
7
100
AcDbLine
 10
12.39971371967465
 20
12.7327886797606
 30
0.0
 11
12.60575046508147
 21
12.7327886797606
 31
0.0
  0
LINE
  5
2B89
330
1E
100
AcDbEntity
  8
7
100
AcDbLine
 10
12.60575046508147
 20
12.69735560889445
 30
0.0
 11
12.40102605563265
 21
12.69735560889445
 31
0.0
  0
LINE
  5
2B8A
330
1E
100
AcDbEntity
  8
7
100
AcDbLine
 10
12.60575046508147
 20
12.68554458527241
 30
0.0
 11
12.40102605563265
 21
12.68554458527241
 31
0.0
  0
LINE
  5
2B8B
330
1E
100
AcDbEntity
  8
7
100
AcDbLine
 10
13.48370322098698
 20
13.54774930968186
 30
0.0
 11
13.48370322098698
 21
13.54512463776584
 31
0.0
  0
LINE
  5
2B8C
330
1E
100
AcDbEntity
  8
7
100
AcDbLine
 10
13.45745650182688
 20
13.54774930968186
 30
0.0
 11
13.48370322098698
 21
13.54774930968186
 31
0.0
  0
LINE
  5
2B92
330
1E
100
AcDbEntity
  8
7
100
AcDbLine
 10
13.45876883778488
 20
13.6855445852724
 30
0.0
 11
13.48370322098698
 21
13.6855445852724
 31
0.0
  0
LINE
  5
2B99
330
1E
100
AcDbEntity
  8
7
100
AcDbLine
 10
12.18449062256178
 20
13.73672568763461
 30
0.0
 11
12.18449062256178
 21
13.68291991335639
 31
0.0
  0
LINE
  5
2B9A
330
1E
100
AcDbEntity
  8
7
100
AcDbLine
 10
12.18186595064578
 20
13.73672568763461
 30
0.0
 11
12.18449062256178
 21
13.73672568763461
 31
0.0
  0
LINE
  5
2B9B
330
1E
100
AcDbEntity
  8
7
100
AcDbLine
 10
12.18186595064578
 20
13.6855445852724
 30
0.0
 11
12.18186595064578
 21
13.73672568763461
 31
0.0
  0
LINE
  5
2B9C
330
1E
100
AcDbEntity
  8
7
100
AcDbLine
 10
12.18186595064578
 20
13.6855445852724
 30
0.0
 11
12.15693156744368
 21
13.6855445852724
 31
0.0
  0
LINE
  5
2B9D
330
1E
100
AcDbEntity
  8
7
100
AcDbLine
 10
12.15824390340168
 20
13.68291991335639
 30
0.0
 11
12.15693156744368
 21
13.6855445852724
 31
0.0
  0
LINE
  5
2B9E
330
1E
100
AcDbEntity
  8
7
100
AcDbLine
 10
12.18449062256178
 20
13.68291991335639
 30
0.0
 11
12.15824390340168
 21
13.68291991335639
 31
0.0
  0
LINE
  5
2BA4
330
1E
100
AcDbEntity
  8
7
100
AcDbLine
 10
12.18186595064578
 20
13.54512463776584
 30
0.0
 11
12.15693156744368
 21
13.54512463776584
 31
0.0
  0
LINE
  5
2BA5
330
1E
100
AcDbEntity
  8
7
100
AcDbLine
 10
12.18186595064578
 20
13.49394353540364
 30
0.0
 11
12.18186595064578
 21
13.54512463776584
 31
0.0
  0
LINE
  5
2BA6
330
1E
100
AcDbEntity
  8
7
100
AcDbLine
 10
13.45745650182688
 20
13.54774930968186
 30
0.0
 11
13.45745650182688
 21
13.49394353540364
 31
0.0
  0
LINE
  5
2BA7
330
1E
100
AcDbEntity
  8
7
100
AcDbLine
 10
13.45876883778488
 20
13.49394353540364
 30
0.0
 11
13.45745650182688
 21
13.49394353540364
 31
0.0
  0
LINE
  5
2BA8
330
1E
100
AcDbEntity
  8
7
100
AcDbLine
 10
12.18186595064578
 20
13.49394353540364
 30
0.0
 11
12.18449062256178
 21
13.49394353540364
 31
0.0
  0
LINE
  5
2BA9
330
1E
100
AcDbEntity
  8
7
100
AcDbLine
 10
12.18449062256178
 20
13.54774930968186
 30
0.0
 11
12.18449062256178
 21
13.49394353540364
 31
0.0
  0
LINE
  5
2BAA
330
1E
100
AcDbEntity
  8
7
100
AcDbLine
 10
13.45745650182688
 20
13.49394353540364
 30
0.0
 11
12.18449062256178
 21
13.49394353540364
 31
0.0
  0
LINE
  5
2BAB
330
1E
100
AcDbEntity
  8
7
100
AcDbLine
 10
13.48370322098698
 20
13.68291991335639
 30
0.0
 11
13.48370322098698
 21
13.54774930968186
 31
0.0
  0
LINE
  5
2BAC
330
1E
100
AcDbEntity
  8
7
100
AcDbLine
 10
12.18449062256178
 20
13.73672568763461
 30
0.0
 11
13.45745650182688
 21
13.73672568763461
 31
0.0
  0
LINE
  5
2BAD
330
1E
100
AcDbEntity
  8
7
100
AcDbLine
 10
12.15824390340168
 20
13.68291991335639
 30
0.0
 11
12.15824390340168
 21
13.54774930968186
 31
0.0
  0
LINE
  5
2BB3
330
1E
100
AcDbEntity
  8
7
100
AcDbLine
 10
13.38396568817858
 20
12.6592978661123
 30
0.0
 11
13.26585545195811
 21
12.6592978661123
 31
0.0
  0
LINE
  5
2BB4
330
1E
100
AcDbEntity
  8
7
100
AcDbLine
 10
13.01126227610509
 20
12.6592978661123
 30
0.0
 11
12.89315203988462
 21
12.6592978661123
 31
0.0
  0
LINE
  5
2BB5
330
1E
100
AcDbEntity
  8
7
100
AcDbLine
 10
13.24092106875601
 20
12.67110888973435
 30
0.0
 11
13.03488432334919
 21
12.67110888973435
 31
0.0
  0
LINE
  5
2BB6
330
1E
100
AcDbEntity
  8
7
100
AcDbLine
 10
13.38396568817858
 20
12.72360232805456
 30
0.0
 11
13.38396568817858
 21
12.6592978661123
 31
0.0
  0
LINE
  5
2BC1
330
1E
100
AcDbEntity
  8
7
100
AcDbLine
 10
13.22517303725995
 20
13.3837073149312
 30
0.0
 11
13.45089482203685
 21
13.3837073149312
 31
0.0
  0
LINE
  5
2BC2
330
1E
100
AcDbEntity
  8
7
100
AcDbLine
 10
13.05063235484525
 20
13.3837073149312
 30
0.0
 11
13.22517303725995
 21
13.3837073149312
 31
0.0
  0
LINE
  5
2BC3
330
1E
100
AcDbEntity
  8
7
100
AcDbLine
 10
13.05063235484525
 20
13.3837073149312
 30
0.0
 11
12.59131476954342
 21
13.3837073149312
 31
0.0
  0
LINE
  5
2BC4
330
1E
100
AcDbEntity
  8
7
100
AcDbLine
 10
12.19105230235181
 20
12.72360232805456
 30
0.0
 11
12.19105230235181
 21
13.3837073149312
 31
0.0
  0
LINE
  5
2BC5
330
1E
100
AcDbEntity
  8
7
100
AcDbLine
 10
12.25798143621008
 20
12.72360232805456
 30
0.0
 11
12.19105230235181
 21
12.72360232805456
 31
0.0
  0
LINE
  5
2BC6
330
1E
100
AcDbEntity
  8
7
100
AcDbLine
 10
12.25798143621008
 20
12.72360232805456
 30
0.0
 11
12.25798143621008
 21
12.6592978661123
 31
0.0
  0
LINE
  5
2BC7
330
1E
100
AcDbEntity
  8
7
100
AcDbLine
 10
12.63068484828357
 20
12.6592978661123
 30
0.0
 11
12.74879508450404
 21
12.6592978661123
 31
0.0
  0
LINE
  5
2BC8
330
1E
100
AcDbEntity
  8
7
100
AcDbLine
 10
12.25798143621008
 20
12.6592978661123
 30
0.0
 11
12.37609167243055
 21
12.6592978661123
 31
0.0
  0
LINE
  5
2BC9
330
1E
100
AcDbEntity
  8
7
100
AcDbLine
 10
12.39971371967465
 20
12.67110888973435
 30
0.0
 11
12.60706280103948
 21
12.67110888973435
 31
0.0
  0
LINE
  5
2BCA
330
1E
100
AcDbEntity
  8
7
100
AcDbLine
 10
12.74879508450404
 20
12.6592978661123
 30
0.0
 11
12.74879508450404
 21
12.72360232805456
 31
0.0
  0
LINE
  5
2BCB
330
1E
100
AcDbEntity
  8
7
100
AcDbLine
 10
12.89315203988462
 20
12.72360232805456
 30
0.0
 11
12.74879508450404
 21
12.72360232805456
 31
0.0
  0
LINE
  5
2BCC
330
1E
100
AcDbEntity
  8
7
100
AcDbLine
 10
12.89315203988462
 20
12.6592978661123
 30
0.0
 11
12.89315203988462
 21
12.72360232805456
 31
0.0
  0
LINE
  5
2BCD
330
1E
100
AcDbEntity
  8
7
100
AcDbLine
 10
13.46008117374289
 20
13.54381230180784
 30
0.0
 11
13.45876883778488
 21
13.54512463776584
 31
0.0
  0
LINE
  5
2BCE
330
1E
100
AcDbEntity
  8
7
100
AcDbLine
 10
13.48370322098698
 20
13.54512463776584
 30
0.0
 11
13.48501555694499
 21
13.54381230180784
 31
0.0
  0
LINE
  5
2BCF
330
1E
100
AcDbEntity
  8
7
100
AcDbLine
 10
13.48501555694499
 20
13.68685692123041
 30
0.0
 11
13.48370322098698
 21
13.6855445852724
 31
0.0
  0
LINE
  5
2BD0
330
1E
100
AcDbEntity
  8
7
100
AcDbLine
 10
13.46008117374289
 20
13.68685692123041
 30
0.0
 11
13.45876883778488
 21
13.6855445852724
 31
0.0
  0
LINE
  5
2BD1
330
1E
100
AcDbEntity
  8
7
100
AcDbLine
 10
13.46008117374289
 20
13.73803802359262
 30
0.0
 11
13.45876883778488
 21
13.73672568763461
 31
0.0
  0
LINE
  5
2BD2
330
1E
100
AcDbEntity
  8
7
100
AcDbLine
 10
12.18186595064578
 20
13.73803802359262
 30
0.0
 11
12.18186595064578
 21
13.73672568763461
 31
0.0
  0
LINE
  5
2BD3
330
1E
100
AcDbEntity
  8
7
100
AcDbLine
 10
12.18186595064578
 20
13.68685692123041
 30
0.0
 11
12.18186595064578
 21
13.6855445852724
 31
0.0
  0
LINE
  5
2BD4
330
1E
100
AcDbEntity
  8
7
100
AcDbLine
 10
12.15693156744368
 20
13.68685692123041
 30
0.0
 11
12.15693156744368
 21
13.6855445852724
 31
0.0
  0
LINE
  5
2BD5
330
1E
100
AcDbEntity
  8
7
100
AcDbLine
 10
12.15693156744368
 20
13.54512463776584
 30
0.0
 11
12.15693156744368
 21
13.54381230180784
 31
0.0
  0
LINE
  5
2BD6
330
1E
100
AcDbEntity
  8
7
100
AcDbLine
 10
12.18186595064578
 20
13.54381230180784
 30
0.0
 11
12.18186595064578
 21
13.54512463776584
 31
0.0
  0
LINE
  5
2BD7
330
1E
100
AcDbEntity
  8
7
100
AcDbLine
 10
13.46008117374289
 20
13.49394353540364
 30
0.0
 11
13.45876883778488
 21
13.49394353540364
 31
0.0
  0
LINE
  5
2BD8
330
1E
100
AcDbEntity
  8
7
100
AcDbLine
 10
12.89315203988462
 20
12.6592978661123
 30
0.0
 11
12.89183970392661
 21
12.6579855301543
 31
0.0
  0
LINE
  5
2BD9
330
1E
100
AcDbEntity
  8
7
100
AcDbLine
 10
13.38396568817858
 20
12.6579855301543
 30
0.0
 11
13.38396568817858
 21
12.6592978661123
 31
0.0
  0
LINE
  5
2BDA
330
1E
100
AcDbEntity
  8
7
100
AcDbLine
 10
13.45089482203685
 20
12.72360232805456
 30
0.0
 11
13.45220715799486
 21
12.72360232805456
 31
0.0
  0
LINE
  5
2BDB
330
1E
100
AcDbEntity
  8
7
100
AcDbLine
 10
13.45220715799486
 20
13.3850196508892
 30
0.0
 11
13.45089482203685
 21
13.3837073149312
 31
0.0
  0
LINE
  5
2BDC
330
1E
100
AcDbEntity
  8
7
100
AcDbLine
 10
12.18973996639381
 20
13.3850196508892
 30
0.0
 11
12.19105230235181
 21
13.3837073149312
 31
0.0
  0
LINE
  5
2BDD
330
1E
100
AcDbEntity
  8
7
100
AcDbLine
 10
12.19105230235181
 20
12.72360232805456
 30
0.0
 11
12.18973996639381
 21
12.72360232805456
 31
0.0
  0
LINE
  5
2BDE
330
1E
100
AcDbEntity
  8
7
100
AcDbLine
 10
12.25798143621008
 20
12.6579855301543
 30
0.0
 11
12.25798143621008
 21
12.6592978661123
 31
0.0
  0
LINE
  5
2BDF
330
1E
100
AcDbEntity
  8
7
100
AcDbLine
 10
12.74879508450404
 20
12.6592978661123
 30
0.0
 11
12.74879508450404
 21
12.6579855301543
 31
0.0
  0
LINE
  5
2BE0
330
1E
100
AcDbEntity
  8
7
100
AcDbLine
 10
12.89183970392661
 20
12.72360232805456
 30
0.0
 11
12.89315203988462
 21
12.72360232805456
 31
0.0
  0
LINE
  5
2BE7
330
1E
100
AcDbEntity
  8
7
100
AcDbLine
 10
13.03619665930719
 20
14.12255245928815
 30
0.0
 11
13.03619665930719
 21
14.11205377162411
 31
0.0
  0
LINE
  5
2BEE
330
1E
100
AcDbEntity
  8
7
100
AcDbLine
 10
13.03488432334919
 20
14.19341860102044
 30
0.0
 11
13.03488432334919
 21
14.16323487398632
 31
0.0
  0
LINE
  5
2BF9
330
1E
100
AcDbEntity
  8
7
100
AcDbLine
 10
13.24092106875601
 20
14.09630574012805
 30
0.0
 11
13.26585545195811
 21
14.084494716506
 31
0.0
  0
LINE
  5
2BFA
330
1E
100
AcDbEntity
  8
7
100
AcDbLine
 10
12.60575046508147
 20
14.19341860102044
 30
0.0
 11
12.60575046508147
 21
14.16323487398632
 31
0.0
  0
LINE
  5
2BFB
330
1E
100
AcDbEntity
  8
7
100
AcDbLine
 10
12.60575046508147
 20
14.1592978661123
 30
0.0
 11
12.60575046508147
 21
14.16323487398632
 31
0.0
  0
LINE
  5
2C01
330
1E
100
AcDbEntity
  8
7
100
AcDbLine
 10
12.60575046508147
 20
14.12255245928815
 30
0.0
 11
12.60575046508147
 21
14.11205377162411
 31
0.0
  0
LINE
  5
2C07
330
1E
100
AcDbEntity
  8
7
100
AcDbLine
 10
12.63068484828357
 20
14.084494716506
 30
0.0
 11
12.60706280103948
 21
14.09630574012805
 31
0.0
  0
LINE
  5
2C08
330
1E
100
AcDbEntity
  8
7
100
AcDbLine
 10
12.39971371967465
 20
14.09630574012805
 30
0.0
 11
12.37609167243055
 21
14.084494716506
 31
0.0
  0
LINE
  5
2C0E
330
1E
100
AcDbEntity
  8
7
100
AcDbLine
 10
12.40102605563265
 20
14.12255245928815
 30
0.0
 11
12.40102605563265
 21
14.11205377162411
 31
0.0
  0
LINE
  5
2C14
330
1E
100
AcDbEntity
  8
7
100
AcDbLine
 10
12.39971371967465
 20
14.16323487398632
 30
0.0
 11
12.39971371967465
 21
14.1592978661123
 31
0.0
  0
LINE
  5
2C15
330
1E
100
AcDbEntity
  8
7
100
AcDbLine
 10
12.39971371967465
 20
14.19341860102044
 30
0.0
 11
12.39971371967465
 21
14.16323487398632
 31
0.0
  0
LINE
  5
2C16
330
1E
100
AcDbEntity
  8
7
100
AcDbLine
 10
12.76060610812609
 20
15.47557083199157
 30
0.0
 11
12.88134101626257
 21
15.47557083199157
 31
0.0
  0
LINE
  5
2C25
330
1E
100
AcDbEntity
  8
7
100
AcDbLine
 10
12.88134101626257
 20
15.62648946716217
 30
0.0
 11
12.76060610812609
 21
15.62648946716217
 31
0.0
  0
LINE
  5
2C34
330
1E
100
AcDbEntity
  8
7
100
AcDbLine
 10
12.88134101626257
 20
15.43751308920941
 30
0.0
 11
12.76060610812609
 21
15.43751308920941
 31
0.0
  0
LINE
  5
2C45
330
1E
100
AcDbEntity
  8
7
100
AcDbLine
 10
12.76060610812609
 20
15.66454720994432
 30
0.0
 11
12.88134101626257
 21
15.66454720994432
 31
0.0
  0
LINE
  5
2C56
330
1E
100
AcDbEntity
  8
7
100
AcDbLine
 10
12.88134101626257
 20
15.43751308920941
 30
0.0
 11
12.88134101626257
 21
15.43620075325141
 31
0.0
  0
LINE
  5
2C5C
330
1E
100
AcDbEntity
  8
7
100
AcDbLine
 10
12.88134101626257
 20
15.66454720994432
 30
0.0
 11
12.88134101626257
 21
15.66585954590232
 31
0.0
  0
LINE
  5
2C6A
330
1E
100
AcDbEntity
  8
7
100
AcDbLine
 10
12.76060610812609
 20
15.66454720994432
 30
0.0
 11
12.76060610812609
 21
15.66585954590232
 31
0.0
  0
LINE
  5
2C6B
330
1E
100
AcDbEntity
  8
7
100
AcDbLine
 10
12.88134101626257
 20
15.66585954590232
 30
0.0
 11
12.76060610812609
 21
15.66585954590232
 31
0.0
  0
LINE
  5
2C78
330
1E
100
AcDbEntity
  8
7
100
AcDbLine
 10
12.72517303725995
 20
15.44145009708343
 30
0.0
 11
12.76060610812609
 21
15.43620075325141
 31
0.0
  0
LINE
  5
2C79
330
1E
100
AcDbEntity
  8
7
100
AcDbLine
 10
12.50207592439906
 20
15.67242122569235
 30
0.0
 11
12.50207592439906
 21
15.61861545141414
 31
0.0
  0
LINE
  5
2C7A
330
1E
100
AcDbEntity
  8
7
100
AcDbLine
 10
12.49945125248305
 20
15.67242122569235
 30
0.0
 11
12.50207592439906
 21
15.67242122569235
 31
0.0
  0
LINE
  5
2C80
330
1E
100
AcDbEntity
  8
7
100
AcDbLine
 10
12.49945125248305
 20
15.42963907346138
 30
0.0
 11
12.50207592439906
 21
15.42963907346138
 31
0.0
  0
LINE
  5
2C81
330
1E
100
AcDbEntity
  8
7
100
AcDbLine
 10
12.50207592439906
 20
15.4834448477396
 30
0.0
 11
12.50207592439906
 21
15.42963907346138
 31
0.0
  0
LINE
  5
2C82
330
1E
100
AcDbEntity
  8
7
100
AcDbLine
 10
13.13987119998961
 20
15.42963907346138
 30
0.0
 11
12.50207592439906
 21
15.42963907346138
 31
0.0
  0
LINE
  5
2C83
330
1E
100
AcDbEntity
  8
7
100
AcDbLine
 10
13.13987119998961
 20
15.4834448477396
 30
0.0
 11
13.13987119998961
 21
15.42963907346138
 31
0.0
  0
LINE
  5
2C84
330
1E
100
AcDbEntity
  8
7
100
AcDbLine
 10
13.16611791914971
 20
15.4834448477396
 30
0.0
 11
13.13987119998961
 21
15.4834448477396
 31
0.0
  0
LINE
  5
2C8A
330
1E
100
AcDbEntity
  8
7
100
AcDbLine
 10
12.50207592439906
 20
15.67242122569235
 30
0.0
 11
13.13987119998961
 21
15.67242122569235
 31
0.0
  0
LINE
  5
2C91
330
1E
100
AcDbEntity
  8
7
100
AcDbLine
 10
12.47582920523895
 20
15.4834448477396
 30
0.0
 11
12.47582920523895
 21
15.5110039028577
 31
0.0
  0
LINE
  5
2C92
330
1E
100
AcDbEntity
  8
7
100
AcDbLine
 10
12.50207592439906
 20
15.4834448477396
 30
0.0
 11
12.47582920523895
 21
15.4834448477396
 31
0.0
  0
LINE
  5
2C93
330
1E
100
AcDbEntity
  8
7
100
AcDbLine
 10
13.14118353594761
 20
15.42963907346138
 30
0.0
 11
13.13987119998961
 21
15.42963907346138
 31
0.0
  0
LINE
  5
2C94
330
1E
100
AcDbEntity
  8
7
100
AcDbLine
 10
13.14118353594761
 20
15.62124012333015
 30
0.0
 11
13.16611791914971
 21
15.62124012333015
 31
0.0
  0
LINE
  5
2C95
330
1E
100
AcDbEntity
  8
7
100
AcDbLine
 10
13.14118353594761
 20
15.62124012333015
 30
0.0
 11
13.14118353594761
 21
15.67242122569235
 31
0.0
  0
LINE
  5
2C96
330
1E
100
AcDbEntity
  8
7
100
AcDbLine
 10
13.16611791914971
 20
15.61861545141414
 30
0.0
 11
13.16611791914971
 21
15.62124012333015
 31
0.0
  0
LINE
  5
2C97
330
1E
100
AcDbEntity
  8
7
100
AcDbLine
 10
13.16611791914971
 20
15.4834448477396
 30
0.0
 11
13.16611791914971
 21
15.48082017582359
 31
0.0
  0
LINE
  5
2C98
330
1E
100
AcDbEntity
  8
7
100
AcDbLine
 10
13.14118353594761
 20
15.48082017582359
 30
0.0
 11
13.14118353594761
 21
15.42963907346138
 31
0.0
  0
LINE
  5
2C99
330
1E
100
AcDbEntity
  8
7
100
AcDbLine
 10
13.14118353594761
 20
15.48082017582359
 30
0.0
 11
13.16611791914971
 21
15.48082017582359
 31
0.0
  0
LINE
  5
2C9A
330
1E
100
AcDbEntity
  8
7
100
AcDbLine
 10
12.49945125248305
 20
15.48082017582359
 30
0.0
 11
12.47451686928095
 21
15.48082017582359
 31
0.0
  0
LINE
  5
2C9B
330
1E
100
AcDbEntity
  8
7
100
AcDbLine
 10
12.49945125248305
 20
15.42963907346138
 30
0.0
 11
12.49945125248305
 21
15.48082017582359
 31
0.0
  0
LINE
  5
2C9C
330
1E
100
AcDbEntity
  8
7
100
AcDbLine
 10
12.47582920523895
 20
15.4834448477396
 30
0.0
 11
12.47451686928095
 21
15.48082017582359
 31
0.0
  0
LINE
  5
2C9D
330
1E
100
AcDbEntity
  8
7
100
AcDbLine
 10
12.47451686928095
 20
15.62124012333015
 30
0.0
 11
12.47582920523895
 21
15.61861545141414
 31
0.0
  0
LINE
  5
2C9E
330
1E
100
AcDbEntity
  8
7
100
AcDbLine
 10
12.49945125248305
 20
15.62124012333015
 30
0.0
 11
12.49945125248305
 21
15.67242122569235
 31
0.0
  0
LINE
  5
2C9F
330
1E
100
AcDbEntity
  8
7
100
AcDbLine
 10
12.49945125248305
 20
15.62124012333015
 30
0.0
 11
12.47451686928095
 21
15.62124012333015
 31
0.0
  0
LINE
  5
2CA0
330
1E
100
AcDbEntity
  8
7
100
AcDbLine
 10
14.19236463830982
 20
16.09761807608605
 30
0.0
 11
14.18449062256178
 21
16.12780180312017
 31
0.0
  0
LINE
  5
2CB1
330
1E
100
AcDbEntity
  8
7
100
AcDbLine
 10
13.16611791914971
 20
15.48082017582359
 30
0.0
 11
13.16743025510772
 21
15.47950783986558
 31
0.0
  0
LINE
  5
2CB2
330
1E
100
AcDbEntity
  8
7
100
AcDbLine
 10
13.14249587190562
 20
15.47950783986558
 30
0.0
 11
13.14118353594761
 21
15.48082017582359
 31
0.0
  0
LINE
  5
2CB3
330
1E
100
AcDbEntity
  8
7
100
AcDbLine
 10
13.16611791914971
 20
15.62124012333015
 30
0.0
 11
13.16743025510772
 21
15.62255245928815
 31
0.0
  0
LINE
  5
2CB4
330
1E
100
AcDbEntity
  8
7
100
AcDbLine
 10
13.14118353594761
 20
15.62124012333015
 30
0.0
 11
13.14249587190562
 21
15.62255245928815
 31
0.0
  0
LINE
  5
2CB5
330
1E
100
AcDbEntity
  8
7
100
AcDbLine
 10
13.14249587190562
 20
15.67242122569235
 30
0.0
 11
13.14118353594761
 21
15.67242122569235
 31
0.0
  0
LINE
  5
2CB6
330
1E
100
AcDbEntity
  8
7
100
AcDbLine
 10
12.49813891652504
 20
15.67242122569235
 30
0.0
 11
12.49945125248305
 21
15.67242122569235
 31
0.0
  0
LINE
  5
2CB7
330
1E
100
AcDbEntity
  8
7
100
AcDbLine
 10
12.49813891652504
 20
15.62255245928815
 30
0.0
 11
12.49945125248305
 21
15.62124012333015
 31
0.0
  0
LINE
  5
2CB8
330
1E
100
AcDbEntity
  8
7
100
AcDbLine
 10
12.47451686928095
 20
15.62255245928815
 30
0.0
 11
12.47451686928095
 21
15.62124012333015
 31
0.0
  0
LINE
  5
2CB9
330
1E
100
AcDbEntity
  8
7
100
AcDbLine
 10
12.47451686928095
 20
15.47950783986558
 30
0.0
 11
12.47451686928095
 21
15.48082017582359
 31
0.0
  0
LINE
  5
2CBA
330
1E
100
AcDbEntity
  8
7
100
AcDbLine
 10
12.49945125248305
 20
15.48082017582359
 30
0.0
 11
12.49813891652504
 21
15.47950783986558
 31
0.0
  0
LINE
  5
2CBB
330
1E
100
AcDbEntity
  8
7
100
AcDbLine
 10
12.49813891652504
 20
15.42832673750337
 30
0.0
 11
12.49945125248305
 21
15.42963907346138
 31
0.0
  0
LINE
  5
2CBC
330
1E
100
AcDbEntity
  8
7
100
AcDbLine
 10
13.14249587190562
 20
15.42832673750337
 30
0.0
 11
13.14118353594761
 21
15.42963907346138
 31
0.0
  0
LINE
  5
2CBD
330
1E
100
AcDbEntity
  8
7
100
AcDbLine
 10
11.50863760418908
 20
16.15667319419629
 30
0.0
 11
14.13330952019958
 21
16.15667319419629
 31
0.0
  0
LINE
  5
2CCF
330
1E
100
AcDbEntity
  8
7
100
AcDbLine
 10
14.13330952019958
 20
16.15667319419629
 30
0.0
 11
14.13593419211559
 21
16.1606102020703
 31
0.0
  0
LINE
  5
2CD0
330
1E
100
AcDbEntity
  8
7
100
AcDbLine
 10
11.50863760418908
 20
16.15667319419629
 30
0.0
 11
11.50601293227307
 21
16.1606102020703
 31
0.0
  0
LINE
  5
2CD1
330
1E
100
AcDbEntity
  8
7
100
AcDbLine
 10
12.18186595064578
 20
14.97163382411755
 30
0.0
 11
12.15693156744368
 21
14.97163382411755
 31
0.0
  0
LINE
  5
2CD2
330
1E
100
AcDbEntity
  8
7
100
AcDbLine
 10
12.18186595064578
 20
14.91914038579734
 30
0.0
 11
12.18186595064578
 21
14.97163382411755
 31
0.0
  0
LINE
  5
2CD8
330
1E
100
AcDbEntity
  8
7
100
AcDbLine
 10
12.18186595064578
 20
14.97163382411755
 30
0.0
 11
12.18186595064578
 21
14.97032148815954
 31
0.0
  0
LINE
  5
2CD9
330
1E
100
AcDbEntity
  8
7
100
AcDbLine
 10
12.15693156744368
 20
14.97032148815954
 30
0.0
 11
12.15693156744368
 21
14.97163382411755
 31
0.0
  0
LINE
  5
2CDA
330
1E
100
AcDbEntity
  8
7
100
AcDbLine
 10
12.18186595064578
 20
15.11074143566611
 30
0.0
 11
12.15693156744368
 21
15.11074143566611
 31
0.0
  0
LINE
  5
2CDB
330
1E
100
AcDbEntity
  8
7
100
AcDbLine
 10
12.15693156744368
 20
15.11205377162411
 30
0.0
 11
12.15693156744368
 21
15.11074143566611
 31
0.0
  0
LINE
  5
2CDC
330
1E
100
AcDbEntity
  8
7
100
AcDbLine
 10
12.15693156744368
 20
14.97163382411755
 30
0.0
 11
12.15824390340168
 21
14.97294616007555
 31
0.0
  0
LINE
  5
2CDD
330
1E
100
AcDbEntity
  8
7
100
AcDbLine
 10
12.15824390340168
 20
15.1094290997081
 30
0.0
 11
12.15824390340168
 21
14.97294616007555
 31
0.0
  0
LINE
  5
2CDE
330
1E
100
AcDbEntity
  8
7
100
AcDbLine
 10
12.15693156744368
 20
15.11074143566611
 30
0.0
 11
12.15824390340168
 21
15.1094290997081
 31
0.0
  0
LINE
  5
2CDF
330
1E
100
AcDbEntity
  8
7
100
AcDbLine
 10
12.39971371967465
 20
14.09630574012805
 30
0.0
 11
12.60706280103948
 21
14.09630574012805
 31
0.0
  0
LINE
  5
2CE0
330
1E
100
AcDbEntity
  8
7
100
AcDbLine
 10
12.25798143621008
 20
14.084494716506
 30
0.0
 11
12.37609167243055
 21
14.084494716506
 31
0.0
  0
LINE
  5
2CE1
330
1E
100
AcDbEntity
  8
7
100
AcDbLine
 10
12.25798143621008
 20
14.083182380548
 30
0.0
 11
12.25798143621008
 21
14.084494716506
 31
0.0
  0
LINE
  5
2CE2
330
1E
100
AcDbEntity
  8
7
100
AcDbLine
 10
12.74879508450404
 20
14.084494716506
 30
0.0
 11
12.74879508450404
 21
14.083182380548
 31
0.0
  0
LINE
  5
2CE3
330
1E
100
AcDbEntity
  8
7
100
AcDbLine
 10
12.63068484828357
 20
14.084494716506
 30
0.0
 11
12.74879508450404
 21
14.084494716506
 31
0.0
  0
LINE
  5
2CE4
330
1E
100
AcDbEntity
  8
7
100
AcDbLine
 10
12.74879508450404
 20
14.14879917844826
 30
0.0
 11
12.74879508450404
 21
14.15011151440626
 31
0.0
  0
LINE
  5
2CE5
330
1E
100
AcDbEntity
  8
7
100
AcDbLine
 10
12.74879508450404
 20
14.084494716506
 30
0.0
 11
12.74879508450404
 21
14.15011151440626
 31
0.0
  0
LINE
  5
2CE6
330
1E
100
AcDbEntity
  8
7
100
AcDbLine
 10
12.89315203988462
 20
14.15011151440626
 30
0.0
 11
12.74879508450404
 21
14.15011151440626
 31
0.0
  0
LINE
  5
2CE7
330
1E
100
AcDbEntity
  8
7
100
AcDbLine
 10
12.89183970392661
 20
14.14879917844826
 30
0.0
 11
12.89315203988462
 21
14.15011151440626
 31
0.0
  0
LINE
  5
2CE8
330
1E
100
AcDbEntity
  8
7
100
AcDbLine
 10
13.05063235484525
 20
14.8102165012829
 30
0.0
 11
12.59131476954342
 21
14.8102165012829
 31
0.0
  0
LINE
  5
2CE9
330
1E
100
AcDbEntity
  8
7
100
AcDbLine
 10
13.05063235484525
 20
14.8102165012829
 30
0.0
 11
13.22517303725995
 21
14.8102165012829
 31
0.0
  0
LINE
  5
2CEA
330
1E
100
AcDbEntity
  8
7
100
AcDbLine
 10
13.22517303725995
 20
14.8102165012829
 30
0.0
 11
13.45089482203685
 21
14.8102165012829
 31
0.0
  0
LINE
  5
2CEB
330
1E
100
AcDbEntity
  8
7
100
AcDbLine
 10
13.45220715799486
 20
14.8102165012829
 30
0.0
 11
13.45089482203685
 21
14.8102165012829
 31
0.0
  0
LINE
  5
2CEC
330
1E
100
AcDbEntity
  8
7
100
AcDbLine
 10
12.18973996639381
 20
14.8102165012829
 30
0.0
 11
12.19105230235181
 21
14.8102165012829
 31
0.0
  0
LINE
  5
2CED
330
1E
100
AcDbEntity
  8
7
100
AcDbLine
 10
12.41546175117071
 20
14.8102165012829
 30
0.0
 11
12.19105230235181
 21
14.8102165012829
 31
0.0
  0
LINE
  5
2CEE
330
1E
100
AcDbEntity
  8
7
100
AcDbLine
 10
12.59131476954342
 20
14.8102165012829
 30
0.0
 11
12.41546175117071
 21
14.8102165012829
 31
0.0
  0
LINE
  5
2CEF
330
1E
100
AcDbEntity
  8
7
100
AcDbLine
 10
12.19105230235181
 20
14.15011151440626
 30
0.0
 11
12.18973996639381
 21
14.14879917844826
 31
0.0
  0
LINE
  5
2CF0
330
1E
100
AcDbEntity
  8
7
100
AcDbLine
 10
12.19105230235181
 20
14.15011151440626
 30
0.0
 11
12.19105230235181
 21
14.8102165012829
 31
0.0
  0
LINE
  5
2CF6
330
1E
100
AcDbEntity
  8
7
100
AcDbLine
 10
12.25798143621008
 20
14.15011151440626
 30
0.0
 11
12.25798143621008
 21
14.084494716506
 31
0.0
  0
LINE
  5
2CF7
330
1E
100
AcDbEntity
  8
7
100
AcDbLine
 10
13.45745650182688
 20
14.92045272175535
 30
0.0
 11
12.18449062256178
 21
14.92045272175535
 31
0.0
  0
LINE
  5
2CF8
330
1E
100
AcDbEntity
  8
7
100
AcDbLine
 10
12.18186595064578
 20
14.91914038579734
 30
0.0
 11
12.18449062256178
 21
14.92045272175535
 31
0.0
  0
LINE
  5
2CF9
330
1E
100
AcDbEntity
  8
7
100
AcDbLine
 10
13.46008117374289
 20
14.91914038579734
 30
0.0
 11
13.45876883778488
 21
14.91914038579734
 31
0.0
  0
LINE
  5
2CFA
330
1E
100
AcDbEntity
  8
7
100
AcDbLine
 10
13.45876883778488
 20
14.91914038579734
 30
0.0
 11
13.45745650182688
 21
14.92045272175535
 31
0.0
  0
LINE
  5
2D00
330
1E
100
AcDbEntity
  8
7
100
AcDbLine
 10
13.45876883778488
 20
15.16323487398631
 30
0.0
 11
13.45745650182688
 21
15.16192253802831
 31
0.0
  0
LINE
  5
2D01
330
1E
100
AcDbEntity
  8
7
100
AcDbLine
 10
13.46008117374289
 20
15.16323487398631
 30
0.0
 11
13.45876883778488
 21
15.16323487398631
 31
0.0
  0
LINE
  5
2D02
330
1E
100
AcDbEntity
  8
7
100
AcDbLine
 10
12.18449062256178
 20
14.97294616007555
 30
0.0
 11
12.18449062256178
 21
14.92045272175535
 31
0.0
  0
LINE
  5
2D03
330
1E
100
AcDbEntity
  8
7
100
AcDbLine
 10
12.18449062256178
 20
15.16192253802831
 30
0.0
 11
12.18449062256178
 21
15.1094290997081
 31
0.0
  0
LINE
  5
2D04
330
1E
100
AcDbEntity
  8
7
100
AcDbLine
 10
12.59131476954342
 20
14.77084642254275
 30
0.0
 11
12.41546175117071
 21
14.77084642254275
 31
0.0
  0
LINE
  5
2D05
330
1E
100
AcDbEntity
  8
7
100
AcDbLine
 10
12.59131476954342
 20
14.8102165012829
 30
0.0
 11
12.59131476954342
 21
14.77084642254275
 31
0.0
  0
LINE
  5
2D06
330
1E
100
AcDbEntity
  8
7
100
AcDbLine
 10
12.41546175117071
 20
14.8102165012829
 30
0.0
 11
12.41546175117071
 21
14.77084642254275
 31
0.0
  0
LINE
  5
2D29
330
1E
100
AcDbEntity
  8
7
100
AcDbLine
 10
13.45745650182688
 20
14.97294616007555
 30
0.0
 11
13.45745650182688
 21
14.92045272175535
 31
0.0
  0
LINE
  5
2D2A
330
1E
100
AcDbEntity
  8
7
100
AcDbLine
 10
13.45745650182688
 20
14.97294616007555
 30
0.0
 11
13.48370322098698
 21
14.97294616007555
 31
0.0
  0
LINE
  5
2D2B
330
1E
100
AcDbEntity
  8
7
100
AcDbLine
 10
13.48370322098698
 20
15.1094290997081
 30
0.0
 11
13.48370322098698
 21
14.97294616007555
 31
0.0
  0
LINE
  5
2D2C
330
1E
100
AcDbEntity
  8
7
100
AcDbLine
 10
13.45745650182688
 20
15.1094290997081
 30
0.0
 11
13.48370322098698
 21
15.1094290997081
 31
0.0
  0
LINE
  5
2D2D
330
1E
100
AcDbEntity
  8
7
100
AcDbLine
 10
13.45745650182688
 20
15.16192253802831
 30
0.0
 11
13.45745650182688
 21
15.1094290997081
 31
0.0
  0
LINE
  5
2D2E
330
1E
100
AcDbEntity
  8
7
100
AcDbLine
 10
12.18449062256178
 20
15.1094290997081
 30
0.0
 11
12.15824390340168
 21
15.1094290997081
 31
0.0
  0
LINE
  5
2D2F
330
1E
100
AcDbEntity
  8
7
100
AcDbLine
 10
12.18449062256178
 20
14.97294616007555
 30
0.0
 11
12.15824390340168
 21
14.97294616007555
 31
0.0
  0
LINE
  5
2D35
330
1E
100
AcDbEntity
  8
7
100
AcDbLine
 10
13.45876883778488
 20
15.11074143566611
 30
0.0
 11
13.45876883778488
 21
15.16323487398631
 31
0.0
  0
LINE
  5
2D36
330
1E
100
AcDbEntity
  8
7
100
AcDbLine
 10
13.46008117374289
 20
15.11205377162411
 30
0.0
 11
13.45876883778488
 21
15.11074143566611
 31
0.0
  0
LINE
  5
2D37
330
1E
100
AcDbEntity
  8
7
100
AcDbLine
 10
13.45876883778488
 20
14.97163382411755
 30
0.0
 11
13.46008117374289
 21
14.97032148815954
 31
0.0
  0
LINE
  5
2D38
330
1E
100
AcDbEntity
  8
7
100
AcDbLine
 10
13.48501555694499
 20
14.97032148815954
 30
0.0
 11
13.48370322098698
 21
14.97163382411755
 31
0.0
  0
LINE
  5
2D39
330
1E
100
AcDbEntity
  8
7
100
AcDbLine
 10
13.45876883778488
 20
15.11074143566611
 30
0.0
 11
13.48370322098698
 21
15.11074143566611
 31
0.0
  0
LINE
  5
2D3F
330
1E
100
AcDbEntity
  8
7
100
AcDbLine
 10
13.48370322098698
 20
14.97163382411755
 30
0.0
 11
13.48370322098698
 21
14.97294616007555
 31
0.0
  0
LINE
  5
2D40
330
1E
100
AcDbEntity
  8
7
100
AcDbLine
 10
13.24092106875601
 20
14.09630574012805
 30
0.0
 11
13.03488432334919
 21
14.09630574012805
 31
0.0
  0
LINE
  5
2D4B
330
1E
100
AcDbEntity
  8
7
100
AcDbLine
 10
12.89315203988462
 20
14.084494716506
 30
0.0
 11
12.89315203988462
 21
14.15011151440626
 31
0.0
  0
LINE
  5
2D4C
330
1E
100
AcDbEntity
  8
7
100
AcDbLine
 10
13.45089482203685
 20
14.15011151440626
 30
0.0
 11
13.45089482203685
 21
14.8102165012829
 31
0.0
  0
LINE
  5
2D4D
330
1E
100
AcDbEntity
  8
7
100
AcDbLine
 10
13.45089482203685
 20
14.15011151440626
 30
0.0
 11
13.45220715799486
 21
14.14879917844826
 31
0.0
  0
LINE
  5
2D4E
330
1E
100
AcDbEntity
  8
7
100
AcDbLine
 10
13.38396568817858
 20
14.15011151440626
 30
0.0
 11
13.45089482203685
 21
14.15011151440626
 31
0.0
  0
LINE
  5
2D54
330
1E
100
AcDbEntity
  8
7
100
AcDbLine
 10
13.05063235484525
 20
14.77084642254275
 30
0.0
 11
13.22517303725995
 21
14.77084642254275
 31
0.0
  0
LINE
  5
2D55
330
1E
100
AcDbEntity
  8
7
100
AcDbLine
 10
13.05063235484525
 20
14.8102165012829
 30
0.0
 11
13.05063235484525
 21
14.77084642254275
 31
0.0
  0
LINE
  5
2D56
330
1E
100
AcDbEntity
  8
7
100
AcDbLine
 10
13.22517303725995
 20
14.8102165012829
 30
0.0
 11
13.22517303725995
 21
14.77084642254275
 31
0.0
  0
LINE
  5
2D75
330
1E
100
AcDbEntity
  8
7
100
AcDbLine
 10
13.15824390340168
 20
15.07137135692595
 30
0.0
 11
13.1385588640316
 21
15.07662070075797
 31
0.0
  0
LINE
  5
2D76
330
1E
100
AcDbEntity
  8
7
100
AcDbLine
 10
12.60575046508147
 20
14.11205377162411
 30
0.0
 11
12.40102605563265
 21
14.11205377162411
 31
0.0
  0
LINE
  5
2D77
330
1E
100
AcDbEntity
  8
7
100
AcDbLine
 10
12.60575046508147
 20
14.12255245928815
 30
0.0
 11
12.40102605563265
 21
14.12255245928815
 31
0.0
  0
LINE
  5
2D78
330
1E
100
AcDbEntity
  8
7
100
AcDbLine
 10
12.39971371967465
 20
14.1592978661123
 30
0.0
 11
12.60575046508147
 21
14.1592978661123
 31
0.0
  0
LINE
  5
2D79
330
1E
100
AcDbEntity
  8
7
100
AcDbLine
 10
12.60575046508147
 20
14.16323487398632
 30
0.0
 11
12.39971371967465
 21
14.16323487398632
 31
0.0
  0
LINE
  5
2D7A
330
1E
100
AcDbEntity
  8
7
100
AcDbLine
 10
12.60575046508147
 20
14.19341860102044
 30
0.0
 11
12.39971371967465
 21
14.19341860102044
 31
0.0
  0
LINE
  5
2D7B
330
1E
100
AcDbEntity
  8
7
100
AcDbLine
 10
13.03488432334919
 20
14.19341860102044
 30
0.0
 11
13.24092106875601
 21
14.19341860102044
 31
0.0
  0
LINE
  5
2D7C
330
1E
100
AcDbEntity
  8
7
100
AcDbLine
 10
13.03488432334919
 20
14.16323487398632
 30
0.0
 11
13.24092106875601
 21
14.16323487398632
 31
0.0
  0
LINE
  5
2D7D
330
1E
100
AcDbEntity
  8
7
100
AcDbLine
 10
13.24092106875601
 20
14.1592978661123
 30
0.0
 11
13.03488432334919
 21
14.1592978661123
 31
0.0
  0
LINE
  5
2D7E
330
1E
100
AcDbEntity
  8
7
100
AcDbLine
 10
13.03619665930719
 20
14.12255245928815
 30
0.0
 11
13.24092106875601
 21
14.12255245928815
 31
0.0
  0
LINE
  5
2D7F
330
1E
100
AcDbEntity
  8
7
100
AcDbLine
 10
13.03619665930719
 20
14.11205377162411
 30
0.0
 11
13.24092106875601
 21
14.11205377162411
 31
0.0
  0
LINE
  5
2D80
330
1E
100
AcDbEntity
  8
7
100
AcDbLine
 10
16.8629683128505
 20
12.12517713120417
 30
0.0
 11
16.8629683128505
 21
12.05693566138789
 31
0.0
  0
LINE
  5
2D87
330
1E
100
AcDbEntity
  8
7
100
AcDbLine
 10
17.14774521573764
 20
11.66061020207031
 30
0.0
 11
17.08606542571139
 21
11.66323487398632
 31
0.0
  0
LINE
  5
2D8F
330
1E
100
AcDbEntity
  8
7
100
AcDbLine
 10
17.08606542571139
 20
11.72360232805456
 30
0.0
 11
17.14774521573764
 21
11.71966532018054
 31
0.0
  0
LINE
  5
2DA4
330
1E
100
AcDbEntity
  8
7
100
AcDbLine
 10
16.8629683128505
 20
12.05693566138789
 30
0.0
 11
16.87215466455653
 21
12.05693566138789
 31
0.0
  0
LINE
  5
2DA5
330
1E
100
AcDbEntity
  8
7
100
AcDbLine
 10
16.8629683128505
 20
12.12517713120417
 30
0.0
 11
16.87215466455653
 21
12.12517713120417
 31
0.0
  0
LINE
  5
2DA6
330
1E
100
AcDbEntity
  8
7
100
AcDbLine
 10
16.8629683128505
 20
12.14354983461624
 30
0.0
 11
16.87215466455653
 21
12.14354983461624
 31
0.0
  0
LINE
  5
2DA7
330
1E
100
AcDbEntity
  8
7
100
AcDbLine
 10
16.8629683128505
 20
12.16979655377634
 30
0.0
 11
16.87215466455653
 21
12.16979655377634
 31
0.0
  0
LINE
  5
2DC7
330
1E
100
AcDbEntity
  8
7
100
AcDbLine
 10
17.38396568817858
 20
12.76690941466873
 30
0.0
 11
17.39315203988462
 21
12.76690941466873
 31
0.0
  0
LINE
  5
2DE1
330
1E
100
AcDbEntity
  8
7
100
AcDbLine
 10
17.08606542571139
 20
16.09761807608605
 30
0.0
 11
17.08606542571139
 21
11.72360232805456
 31
0.0
  0
LINE
  5
2DED
330
1E
100
AcDbEntity
  8
7
100
AcDbLine
 10
16.87215466455653
 20
11.88895665876322
 30
0.0
 11
16.87215466455653
 21
15.93226374537739
 31
0.0
  0
LINE
  5
2E11
330
1E
100
AcDbEntity
  8
7
100
AcDbLine
 10
17.38396568817858
 20
14.19341860102044
 30
0.0
 11
17.39315203988462
 21
14.19210626506243
 31
0.0
  0
LINE
  5
3265
330
1E
100
AcDbEntity
  8
7
100
AcDbLine
 10
16.87215466455653
 20
15.93226374537739
 30
0.0
 11
16.87609167243055
 21
15.97557083199157
 31
0.0
  0
LINE
  5
3266
330
1E
100
AcDbEntity
  8
7
100
AcDbLine
 10
16.87609167243055
 20
15.97557083199157
 30
0.0
 11
16.8892150320106
 21
16.01625324668973
 31
0.0
  0
LINE
  5
3267
330
1E
100
AcDbEntity
  8
7
100
AcDbLine
 10
16.8892150320106
 20
16.01625324668973
 30
0.0
 11
16.90758773542268
 21
16.05431098947188
 31
0.0
  0
LINE
  5
3268
330
1E
100
AcDbEntity
  8
7
100
AcDbLine
 10
16.90758773542268
 20
16.05431098947188
 30
0.0
 11
16.93383445458278
 21
16.08711938842201
 31
0.0
  0
LINE
  5
3269
330
1E
100
AcDbEntity
  8
7
100
AcDbLine
 10
16.93383445458278
 20
16.08711938842201
 30
0.0
 11
16.96664285353291
 21
16.11599077949813
 31
0.0
  0
LINE
  5
326A
330
1E
100
AcDbEntity
  8
7
100
AcDbLine
 10
16.96664285353291
 20
16.11599077949813
 30
0.0
 11
17.00338826035706
 21
16.13698815482621
 31
0.0
  0
LINE
  5
326B
330
1E
100
AcDbEntity
  8
7
100
AcDbLine
 10
17.00338826035706
 20
16.13698815482621
 30
0.0
 11
17.04407067505522
 21
16.15142385036427
 31
0.0
  0
LINE
  5
326C
330
1E
100
AcDbEntity
  8
7
100
AcDbLine
 10
17.04407067505522
 20
16.15142385036427
 30
0.0
 11
17.08606542571139
 21
16.15667319419629
 31
0.0
  0
LINE
  5
326D
330
1E
100
AcDbEntity
  8
7
100
AcDbLine
 10
17.08606542571139
 20
16.15667319419629
 30
0.0
 11
17.14774521573764
 21
16.1606102020703
 31
0.0
  0
LINE
  5
326E
330
1E
100
AcDbEntity
  8
7
100
AcDbLine
 10
17.08606542571139
 20
16.09761807608605
 30
0.0
 11
17.08475308975338
 21
16.12780180312017
 31
0.0
  0
LINE
  5
326F
330
1E
100
AcDbEntity
  8
7
100
AcDbLine
 10
17.08475308975338
 20
16.12780180312017
 30
0.0
 11
17.08475308975338
 21
16.14879917844826
 31
0.0
  0
LINE
  5
3270
330
1E
100
AcDbEntity
  8
7
100
AcDbLine
 10
17.08475308975338
 20
16.14879917844826
 30
0.0
 11
17.08606542571139
 21
16.15667319419629
 31
0.0
  0
LINE
  5
3271
330
1E
100
AcDbEntity
  8
7
100
AcDbLine
 10
17.61493681678751
 20
14.03593828605981
 30
0.0
 11
17.62412316849354
 21
14.04118762989183
 31
0.0
  0
LINE
  5
3272
330
1E
100
AcDbEntity
  8
7
100
AcDbLine
 10
17.62412316849354
 20
14.04118762989183
 30
0.0
 11
17.62806017636756
 21
14.05037398159787
 31
0.0
  0
LINE
  5
3273
330
1E
100
AcDbEntity
  8
7
100
AcDbLine
 10
17.38396568817858
 20
14.19341860102044
 30
0.0
 11
17.38396568817858
 21
14.16323487398632
 31
0.0
  0
LINE
  5
3274
330
1E
100
AcDbEntity
  8
7
100
AcDbLine
 10
17.38396568817858
 20
14.16323487398632
 30
0.0
 11
17.38527802413659
 21
14.1592978661123
 31
0.0
  0
LINE
  5
3275
330
1E
100
AcDbEntity
  8
7
100
AcDbLine
 10
17.38527802413659
 20
14.1592978661123
 30
0.0
 11
17.39446437584262
 21
14.14223749865823
 31
0.0
  0
LINE
  5
3276
330
1E
100
AcDbEntity
  8
7
100
AcDbLine
 10
17.39446437584262
 20
14.14223749865823
 30
0.0
 11
17.39708904775863
 21
14.12255245928815
 31
0.0
  0
LINE
  5
3277
330
1E
100
AcDbEntity
  8
7
100
AcDbLine
 10
17.39708904775863
 20
14.12255245928815
 30
0.0
 11
17.39708904775863
 21
14.11205377162411
 31
0.0
  0
LINE
  5
3278
330
1E
100
AcDbEntity
  8
7
100
AcDbLine
 10
17.39708904775863
 20
14.11205377162411
 30
0.0
 11
17.39183970392661
 21
14.10155508396007
 31
0.0
  0
LINE
  5
3279
330
1E
100
AcDbEntity
  8
7
100
AcDbLine
 10
17.39183970392661
 20
14.10155508396007
 30
0.0
 11
17.38134101626257
 21
14.09630574012805
 31
0.0
  0
LINE
  5
327A
330
1E
100
AcDbEntity
  8
7
100
AcDbLine
 10
17.38134101626257
 20
14.09630574012805
 30
0.0
 11
17.21598668555391
 21
14.09236873225403
 31
0.0
  0
LINE
  5
327B
330
1E
100
AcDbEntity
  8
7
100
AcDbLine
 10
17.62806017636756
 20
14.05037398159787
 30
0.0
 11
17.62806017636756
 21
14.07137135692595
 31
0.0
  0
LINE
  5
327C
330
1E
100
AcDbEntity
  8
7
100
AcDbLine
 10
17.62806017636756
 20
14.07137135692595
 30
0.0
 11
17.62412316849354
 21
14.08187004458999
 31
0.0
  0
LINE
  5
327D
330
1E
100
AcDbEntity
  8
7
100
AcDbLine
 10
17.62412316849354
 20
14.08187004458999
 30
0.0
 11
17.6136244808295
 21
14.08711938842201
 31
0.0
  0
LINE
  5
327E
330
1E
100
AcDbEntity
  8
7
100
AcDbLine
 10
17.6136244808295
 20
14.08711938842201
 30
0.0
 11
17.54013366718121
 21
14.08711938842201
 31
0.0
  0
LINE
  5
327F
330
1E
100
AcDbEntity
  8
7
100
AcDbLine
 10
17.54013366718121
 20
14.08711938842201
 30
0.0
 11
17.5125746120631
 21
14.09499340417004
 31
0.0
  0
LINE
  5
3280
330
1E
100
AcDbEntity
  8
7
100
AcDbLine
 10
17.5125746120631
 20
14.09499340417004
 30
0.0
 11
17.49157723673501
 21
14.11336610758212
 31
0.0
  0
LINE
  5
3281
330
1E
100
AcDbEntity
  8
7
100
AcDbLine
 10
17.49157723673501
 20
14.11336610758212
 30
0.0
 11
17.46533051757491
 21
14.15011151440626
 31
0.0
  0
LINE
  5
3282
330
1E
100
AcDbEntity
  8
7
100
AcDbLine
 10
17.46533051757491
 20
14.15011151440626
 30
0.0
 11
17.44564547820483
 21
14.17110888973435
 31
0.0
  0
LINE
  5
3283
330
1E
100
AcDbEntity
  8
7
100
AcDbLine
 10
17.44564547820483
 20
14.17110888973435
 30
0.0
 11
17.42071109500272
 21
14.1855445852724
 31
0.0
  0
LINE
  5
3284
330
1E
100
AcDbEntity
  8
7
100
AcDbLine
 10
17.42071109500272
 20
14.1855445852724
 30
0.0
 11
17.39315203988462
 21
14.19210626506243
 31
0.0
  0
LINE
  5
3285
330
1E
100
AcDbEntity
  8
7
100
AcDbLine
 10
17.21598668555391
 20
14.0083792309417
 30
0.0
 11
17.21598668555391
 21
14.87058395535115
 31
0.0
  0
LINE
  5
3286
330
1E
100
AcDbEntity
  8
7
100
AcDbLine
 10
17.21598668555391
 20
14.87058395535115
 30
0.0
 11
17.14774521573764
 21
14.87714563514117
 31
0.0
  0
LINE
  5
3287
330
1E
100
AcDbEntity
  8
7
100
AcDbLine
 10
17.61493681678751
 20
14.03593828605981
 30
0.0
 11
17.21598668555391
 21
14.0083792309417
 31
0.0
  0
LINE
  5
3288
330
1E
100
AcDbEntity
  8
7
100
AcDbLine
 10
17.21598668555391
 20
14.0083792309417
 30
0.0
 11
17.14774521573764
 21
14.00312988710968
 31
0.0
  0
LINE
  5
3289
330
1E
100
AcDbEntity
  8
7
100
AcDbLine
 10
17.14774521573764
 20
16.1606102020703
 30
0.0
 11
17.14774521573764
 21
16.15536085823829
 31
0.0
  0
LINE
  5
328A
330
1E
100
AcDbEntity
  8
7
100
AcDbLine
 10
17.14774521573764
 20
16.15536085823829
 30
0.0
 11
17.14774521573764
 21
16.14223749865823
 31
0.0
  0
LINE
  5
328B
330
1E
100
AcDbEntity
  8
7
100
AcDbLine
 10
17.14774521573764
 20
16.14223749865823
 30
0.0
 11
17.14774521573764
 21
16.12386479524616
 31
0.0
  0
LINE
  5
328C
330
1E
100
AcDbEntity
  8
7
100
AcDbLine
 10
17.14774521573764
 20
16.12386479524616
 30
0.0
 11
17.14774521573764
 21
16.10024274800206
 31
0.0
  0
LINE
  5
328D
330
1E
100
AcDbEntity
  8
7
100
AcDbLine
 10
17.14774521573764
 20
11.71966532018054
 30
0.0
 11
17.14774521573764
 21
16.10024274800206
 31
0.0
  0
LINE
  5
328E
330
1E
100
AcDbEntity
  8
7
100
AcDbLine
 10
17.14774521573764
 20
16.10024274800206
 30
0.0
 11
17.08606542571139
 21
16.09761807608605
 31
0.0
  0
LINE
  5
328F
330
1E
100
AcDbEntity
  8
7
100
AcDbLine
 10
17.08606542571139
 20
16.09761807608605
 30
0.0
 11
17.04407067505522
 21
16.09236873225403
 31
0.0
  0
LINE
  5
3290
330
1E
100
AcDbEntity
  8
7
100
AcDbLine
 10
17.04407067505522
 20
16.09236873225403
 30
0.0
 11
17.00338826035706
 21
16.08187004458999
 31
0.0
  0
LINE
  5
3291
330
1E
100
AcDbEntity
  8
7
100
AcDbLine
 10
17.00338826035706
 20
16.08187004458999
 30
0.0
 11
16.96664285353291
 21
16.06612201309393
 31
0.0
  0
LINE
  5
3292
330
1E
100
AcDbEntity
  8
7
100
AcDbLine
 10
16.96664285353291
 20
16.06612201309393
 30
0.0
 11
16.93383445458278
 21
16.04643697372385
 31
0.0
  0
LINE
  5
3293
330
1E
100
AcDbEntity
  8
7
100
AcDbLine
 10
16.93383445458278
 20
16.04643697372385
 30
0.0
 11
16.90758773542268
 21
16.02150259052175
 31
0.0
  0
LINE
  5
3294
330
1E
100
AcDbEntity
  8
7
100
AcDbLine
 10
16.90758773542268
 20
16.02150259052175
 30
0.0
 11
16.8892150320106
 21
15.99394353540364
 31
0.0
  0
LINE
  5
3295
330
1E
100
AcDbEntity
  8
7
100
AcDbLine
 10
16.8892150320106
 20
15.99394353540364
 30
0.0
 11
16.87609167243055
 21
15.96375980836952
 31
0.0
  0
LINE
  5
3296
330
1E
100
AcDbEntity
  8
7
100
AcDbLine
 10
16.87609167243055
 20
15.96375980836952
 30
0.0
 11
16.87215466455653
 21
15.93226374537739
 31
0.0
  0
LINE
  5
3297
330
1E
100
AcDbEntity
  8
7
100
AcDbLine
 10
17.61493681678751
 20
12.6094290997081
 30
0.0
 11
17.62412316849354
 21
12.61467844354012
 31
0.0
  0
LINE
  5
3298
330
1E
100
AcDbEntity
  8
7
100
AcDbLine
 10
17.62412316849354
 20
12.61467844354012
 30
0.0
 11
17.62806017636756
 21
12.62517713120417
 31
0.0
  0
LINE
  5
3299
330
1E
100
AcDbEntity
  8
7
100
AcDbLine
 10
17.62806017636756
 20
12.62517713120417
 30
0.0
 11
17.62806017636756
 21
12.64617450653225
 31
0.0
  0
LINE
  5
329A
330
1E
100
AcDbEntity
  8
7
100
AcDbLine
 10
17.62806017636756
 20
12.64617450653225
 30
0.0
 11
17.62412316849354
 21
12.65667319419629
 31
0.0
  0
LINE
  5
329B
330
1E
100
AcDbEntity
  8
7
100
AcDbLine
 10
17.62412316849354
 20
12.65667319419629
 30
0.0
 11
17.6136244808295
 21
12.66061020207031
 31
0.0
  0
LINE
  5
329C
330
1E
100
AcDbEntity
  8
7
100
AcDbLine
 10
17.6136244808295
 20
12.66061020207031
 30
0.0
 11
17.54013366718121
 21
12.66192253802831
 31
0.0
  0
LINE
  5
329D
330
1E
100
AcDbEntity
  8
7
100
AcDbLine
 10
17.54013366718121
 20
12.66192253802831
 30
0.0
 11
17.5125746120631
 21
12.66848421781834
 31
0.0
  0
LINE
  5
329E
330
1E
100
AcDbEntity
  8
7
100
AcDbLine
 10
17.5125746120631
 20
12.66848421781834
 30
0.0
 11
17.49157723673501
 21
12.68816925718842
 31
0.0
  0
LINE
  5
329F
330
1E
100
AcDbEntity
  8
7
100
AcDbLine
 10
17.39183970392661
 20
12.67504589760836
 30
0.0
 11
17.38134101626257
 21
12.67110888973435
 31
0.0
  0
LINE
  5
32A0
330
1E
100
AcDbEntity
  8
7
100
AcDbLine
 10
17.38134101626257
 20
12.67110888973435
 30
0.0
 11
17.21598668555391
 21
12.66585954590233
 31
0.0
  0
LINE
  5
32A1
330
1E
100
AcDbEntity
  8
7
100
AcDbLine
 10
17.38396568817858
 20
12.76690941466873
 30
0.0
 11
17.38396568817858
 21
12.73803802359261
 31
0.0
  0
LINE
  5
32A2
330
1E
100
AcDbEntity
  8
7
100
AcDbLine
 10
17.38396568817858
 20
12.73803802359261
 30
0.0
 11
17.38527802413659
 21
12.7327886797606
 31
0.0
  0
LINE
  5
32A3
330
1E
100
AcDbEntity
  8
7
100
AcDbLine
 10
17.38527802413659
 20
12.7327886797606
 30
0.0
 11
17.39446437584262
 21
12.71572831230653
 31
0.0
  0
LINE
  5
32A4
330
1E
100
AcDbEntity
  8
7
100
AcDbLine
 10
17.39446437584262
 20
12.71572831230653
 30
0.0
 11
17.39708904775863
 21
12.69735560889445
 31
0.0
  0
LINE
  5
32A5
330
1E
100
AcDbEntity
  8
7
100
AcDbLine
 10
17.39708904775863
 20
12.69735560889445
 30
0.0
 11
17.39708904775863
 21
12.68554458527241
 31
0.0
  0
LINE
  5
32A6
330
1E
100
AcDbEntity
  8
7
100
AcDbLine
 10
17.39708904775863
 20
12.68554458527241
 30
0.0
 11
17.39183970392661
 21
12.67504589760836
 31
0.0
  0
LINE
  5
32A7
330
1E
100
AcDbEntity
  8
7
100
AcDbLine
 10
17.49157723673501
 20
12.68816925718842
 30
0.0
 11
17.46533051757491
 21
12.72491466401256
 31
0.0
  0
LINE
  5
32A8
330
1E
100
AcDbEntity
  8
7
100
AcDbLine
 10
17.46533051757491
 20
12.72491466401256
 30
0.0
 11
17.44564547820483
 21
12.74591203934065
 31
0.0
  0
LINE
  5
32A9
330
1E
100
AcDbEntity
  8
7
100
AcDbLine
 10
17.44564547820483
 20
12.74591203934065
 30
0.0
 11
17.42071109500272
 21
12.7603477348787
 31
0.0
  0
LINE
  5
32AA
330
1E
100
AcDbEntity
  8
7
100
AcDbLine
 10
17.42071109500272
 20
12.7603477348787
 30
0.0
 11
17.39315203988462
 21
12.76690941466873
 31
0.0
  0
LINE
  5
32AB
330
1E
100
AcDbEntity
  8
7
100
AcDbLine
 10
17.21598668555391
 20
12.58187004458999
 30
0.0
 11
17.21598668555391
 21
13.44538710495744
 31
0.0
  0
LINE
  5
32AC
330
1E
100
AcDbEntity
  8
7
100
AcDbLine
 10
17.21598668555391
 20
13.44538710495744
 30
0.0
 11
17.14774521573764
 21
13.45063644878947
 31
0.0
  0
LINE
  5
32AD
330
1E
100
AcDbEntity
  8
7
100
AcDbLine
 10
17.61493681678751
 20
12.6094290997081
 30
0.0
 11
17.21598668555391
 21
12.58187004458999
 31
0.0
  0
LINE
  5
32AE
330
1E
100
AcDbEntity
  8
7
100
AcDbLine
 10
17.21598668555391
 20
12.58187004458999
 30
0.0
 11
17.14774521573764
 21
12.57793303671598
 31
0.0
  0
LINE
  5
32AF
330
1E
100
AcDbEntity
  8
7
100
AcDbLine
 10
16.8892150320106
 20
11.82727686873697
 30
0.0
 11
16.90758773542268
 21
11.79971781361886
 31
0.0
  0
LINE
  5
32B0
330
1E
100
AcDbEntity
  8
7
100
AcDbLine
 10
16.90758773542268
 20
11.79971781361886
 30
0.0
 11
16.93383445458278
 21
11.77478343041676
 31
0.0
  0
LINE
  5
32B1
330
1E
100
AcDbEntity
  8
7
100
AcDbLine
 10
16.93383445458278
 20
11.77478343041676
 30
0.0
 11
16.96664285353291
 21
11.75378605508868
 31
0.0
  0
LINE
  5
32B2
330
1E
100
AcDbEntity
  8
7
100
AcDbLine
 10
16.96664285353291
 20
11.75378605508868
 30
0.0
 11
17.00338826035706
 21
11.73803802359261
 31
0.0
  0
LINE
  5
32B3
330
1E
100
AcDbEntity
  8
7
100
AcDbLine
 10
17.00338826035706
 20
11.73803802359261
 30
0.0
 11
17.04407067505522
 21
11.72753933592857
 31
0.0
  0
LINE
  5
32B4
330
1E
100
AcDbEntity
  8
7
100
AcDbLine
 10
17.04407067505522
 20
11.72753933592857
 30
0.0
 11
17.08606542571139
 21
11.72360232805456
 31
0.0
  0
LINE
  5
32B5
330
1E
100
AcDbEntity
  8
7
100
AcDbLine
 10
16.87215466455653
 20
11.88895665876322
 30
0.0
 11
16.87609167243055
 21
11.85746059577109
 31
0.0
  0
LINE
  5
32B6
330
1E
100
AcDbEntity
  8
7
100
AcDbLine
 10
16.87609167243055
 20
11.85746059577109
 30
0.0
 11
16.8892150320106
 21
11.82727686873697
 31
0.0
  0
LINE
  5
32B7
330
1E
100
AcDbEntity
  8
7
100
AcDbLine
 10
16.8892150320106
 20
11.80496715745088
 30
0.0
 11
16.87609167243055
 21
11.84564957214905
 31
0.0
  0
LINE
  5
32B8
330
1E
100
AcDbEntity
  8
7
100
AcDbLine
 10
16.87609167243055
 20
11.84564957214905
 30
0.0
 11
16.87215466455653
 21
11.88895665876322
 31
0.0
  0
LINE
  5
32B9
330
1E
100
AcDbEntity
  8
7
100
AcDbLine
 10
17.08606542571139
 20
11.66323487398632
 30
0.0
 11
17.04407067505522
 21
11.66979655377634
 31
0.0
  0
LINE
  5
32BA
330
1E
100
AcDbEntity
  8
7
100
AcDbLine
 10
17.04407067505522
 20
11.66979655377634
 30
0.0
 11
17.00338826035706
 21
11.6842322493144
 31
0.0
  0
LINE
  5
32BB
330
1E
100
AcDbEntity
  8
7
100
AcDbLine
 10
17.00338826035706
 20
11.6842322493144
 30
0.0
 11
16.96664285353291
 21
11.70522962464248
 31
0.0
  0
LINE
  5
32BC
330
1E
100
AcDbEntity
  8
7
100
AcDbLine
 10
16.96664285353291
 20
11.70522962464248
 30
0.0
 11
16.93383445458278
 21
11.7341010157186
 31
0.0
  0
LINE
  5
32BD
330
1E
100
AcDbEntity
  8
7
100
AcDbLine
 10
16.93383445458278
 20
11.7341010157186
 30
0.0
 11
16.90758773542268
 21
11.76690941466873
 31
0.0
  0
LINE
  5
32BE
330
1E
100
AcDbEntity
  8
7
100
AcDbLine
 10
16.90758773542268
 20
11.76690941466873
 30
0.0
 11
16.8892150320106
 21
11.80496715745088
 31
0.0
  0
LINE
  5
32BF
330
1E
100
AcDbEntity
  8
7
100
AcDbLine
 10
17.08606542571139
 20
11.66323487398632
 30
0.0
 11
17.08475308975338
 21
11.67110888973435
 31
0.0
  0
LINE
  5
32C0
330
1E
100
AcDbEntity
  8
7
100
AcDbLine
 10
17.08475308975338
 20
11.67110888973435
 30
0.0
 11
17.08475308975338
 21
11.69341860102044
 31
0.0
  0
LINE
  5
32C1
330
1E
100
AcDbEntity
  8
7
100
AcDbLine
 10
17.08475308975338
 20
11.69341860102044
 30
0.0
 11
17.08606542571139
 21
11.72360232805456
 31
0.0
  0
LINE
  5
32C2
330
1E
100
AcDbEntity
  8
7
100
AcDbLine
 10
17.14774521573764
 20
11.71966532018054
 30
0.0
 11
17.14774521573764
 21
11.69735560889445
 31
0.0
  0
LINE
  5
32C3
330
1E
100
AcDbEntity
  8
7
100
AcDbLine
 10
17.14774521573764
 20
11.69735560889445
 30
0.0
 11
17.14774521573764
 21
11.67767056952437
 31
0.0
  0
LINE
  5
32C4
330
1E
100
AcDbEntity
  8
7
100
AcDbLine
 10
17.14774521573764
 20
11.67767056952437
 30
0.0
 11
17.14774521573764
 21
11.66454720994432
 31
0.0
  0
LINE
  5
32C5
330
1E
100
AcDbEntity
  8
7
100
AcDbLine
 10
17.14774521573764
 20
11.66454720994432
 30
0.0
 11
17.14774521573764
 21
11.66061020207031
 31
0.0
  0
LINE
  5
32C6
330
1E
100
AcDbEntity
  8
7
100
AcDbLine
 10
16.8629683128505
 20
12.12517713120417
 30
0.0
 11
16.8629683128505
 21
12.14354983461624
 31
0.0
  0
LINE
  5
32C7
330
1E
100
AcDbEntity
  8
7
100
AcDbLine
 10
16.8629683128505
 20
12.14354983461624
 30
0.0
 11
16.8629683128505
 21
12.16323487398632
 31
0.0
  0
LINE
  5
32C8
330
1E
100
AcDbEntity
  8
7
100
AcDbLine
 10
16.8629683128505
 20
12.16323487398632
 30
0.0
 11
16.8629683128505
 21
12.16979655377634
 31
0.0
  0
LINE
  5
32C9
330
1E
100
AcDbEntity
  8
7
100
AcDbLine
 10
13.1385588640316
 20
15.07662070075797
 30
0.0
 11
13.11887382466152
 21
15.07137135692595
 31
0.0
  0
LINE
  5
32CA
330
1E
100
AcDbEntity
  8
7
100
AcDbLine
 10
13.11887382466152
 20
15.07137135692595
 30
0.0
 11
13.10575046508147
 21
15.05562332542988
 31
0.0
  0
LINE
  5
32CB
330
1E
100
AcDbEntity
  8
7
100
AcDbLine
 10
13.10575046508147
 20
15.05562332542988
 30
0.0
 11
13.10312579316546
 21
15.03593828605981
 31
0.0
  0
LINE
  5
32CC
330
1E
100
AcDbEntity
  8
7
100
AcDbLine
 10
13.10312579316546
 20
15.03593828605981
 30
0.0
 11
13.1123121448715
 21
15.01756558264773
 31
0.0
  0
LINE
  5
32CD
330
1E
100
AcDbEntity
  8
7
100
AcDbLine
 10
13.1123121448715
 20
15.01756558264773
 30
0.0
 11
13.12806017636756
 21
15.00706689498369
 31
0.0
  0
LINE
  5
32CE
330
1E
100
AcDbEntity
  8
7
100
AcDbLine
 10
13.12806017636756
 20
15.00706689498369
 30
0.0
 11
13.14905755169564
 21
15.00706689498369
 31
0.0
  0
LINE
  5
32CF
330
1E
100
AcDbEntity
  8
7
100
AcDbLine
 10
13.14905755169564
 20
15.00706689498369
 30
0.0
 11
13.16480558319171
 21
15.01756558264773
 31
0.0
  0
LINE
  5
32D0
330
1E
100
AcDbEntity
  8
7
100
AcDbLine
 10
13.16480558319171
 20
15.01756558264773
 30
0.0
 11
13.17399193489774
 21
15.03593828605981
 31
0.0
  0
LINE
  5
32D1
330
1E
100
AcDbEntity
  8
7
100
AcDbLine
 10
13.17399193489774
 20
15.03593828605981
 30
0.0
 11
13.17136726298173
 21
15.05562332542988
 31
0.0
  0
LINE
  5
32D2
330
1E
100
AcDbEntity
  8
7
100
AcDbLine
 10
13.17136726298173
 20
15.05562332542988
 30
0.0
 11
13.15824390340168
 21
15.07137135692595
 31
0.0
  0
LINE
  5
32D3
330
1E
100
AcDbEntity
  8
7
100
AcDbLine
 10
12.47057986140693
 20
15.02675193435377
 30
0.0
 11
12.48370322098698
 21
15.0110039028577
 31
0.0
  0
LINE
  5
32D4
330
1E
100
AcDbEntity
  8
7
100
AcDbLine
 10
12.48370322098698
 20
15.0110039028577
 30
0.0
 11
12.50338826035706
 21
15.00575455902569
 31
0.0
  0
LINE
  5
32D5
330
1E
100
AcDbEntity
  8
7
100
AcDbLine
 10
12.50338826035706
 20
15.00575455902569
 30
0.0
 11
12.52307329972714
 21
15.0110039028577
 31
0.0
  0
LINE
  5
32D6
330
1E
100
AcDbEntity
  8
7
100
AcDbLine
 10
12.52307329972714
 20
15.0110039028577
 30
0.0
 11
12.53619665930719
 21
15.02675193435377
 31
0.0
  0
LINE
  5
32D7
330
1E
100
AcDbEntity
  8
7
100
AcDbLine
 10
12.53619665930719
 20
15.02675193435377
 30
0.0
 11
12.5388213312232
 21
15.04643697372385
 31
0.0
  0
LINE
  5
32D8
330
1E
100
AcDbEntity
  8
7
100
AcDbLine
 10
12.5388213312232
 20
15.04643697372385
 30
0.0
 11
12.52963497951717
 21
15.06480967713592
 31
0.0
  0
LINE
  5
32D9
330
1E
100
AcDbEntity
  8
7
100
AcDbLine
 10
12.52963497951717
 20
15.06480967713592
 30
0.0
 11
12.5138869480211
 21
15.07530836479996
 31
0.0
  0
LINE
  5
32DA
330
1E
100
AcDbEntity
  8
7
100
AcDbLine
 10
12.5138869480211
 20
15.07530836479996
 30
0.0
 11
12.49288957269302
 21
15.07530836479996
 31
0.0
  0
LINE
  5
32DB
330
1E
100
AcDbEntity
  8
7
100
AcDbLine
 10
12.49288957269302
 20
15.07530836479996
 30
0.0
 11
12.47714154119696
 21
15.06480967713592
 31
0.0
  0
LINE
  5
32DC
330
1E
100
AcDbEntity
  8
7
100
AcDbLine
 10
12.47714154119696
 20
15.06480967713592
 30
0.0
 11
12.46795518949092
 21
15.04643697372385
 31
0.0
  0
LINE
  5
32DD
330
1E
100
AcDbEntity
  8
7
100
AcDbLine
 10
12.46795518949092
 20
15.04643697372385
 30
0.0
 11
12.47057986140693
 21
15.02675193435377
 31
0.0
  0
LINE
  5
32DE
330
1E
100
AcDbEntity
  8
7
100
AcDbLine
 10
13.38396568817858
 20
14.14879917844826
 30
0.0
 11
13.38396568817858
 21
14.15011151440626
 31
0.0
  0
LINE
  5
32DF
330
1E
100
AcDbEntity
  8
7
100
AcDbLine
 10
13.38396568817858
 20
14.15011151440626
 30
0.0
 11
13.38396568817858
 21
14.084494716506
 31
0.0
  0
LINE
  5
32E0
330
1E
100
AcDbEntity
  8
7
100
AcDbLine
 10
13.38396568817858
 20
14.083182380548
 30
0.0
 11
13.38396568817858
 21
14.084494716506
 31
0.0
  0
LINE
  5
32E1
330
1E
100
AcDbEntity
  8
7
100
AcDbLine
 10
13.38396568817858
 20
14.084494716506
 30
0.0
 11
13.26585545195811
 21
14.084494716506
 31
0.0
  0
LINE
  5
32E2
330
1E
100
AcDbEntity
  8
7
100
AcDbLine
 10
13.01126227610509
 20
14.084494716506
 30
0.0
 11
12.89315203988462
 21
14.084494716506
 31
0.0
  0
LINE
  5
32E3
330
1E
100
AcDbEntity
  8
7
100
AcDbLine
 10
12.89315203988462
 20
14.084494716506
 30
0.0
 11
12.89183970392661
 21
14.083182380548
 31
0.0
  0
LINE
  5
32E4
330
1E
100
AcDbEntity
  8
7
100
AcDbLine
 10
13.48501555694499
 20
15.11205377162411
 30
0.0
 11
13.48370322098698
 21
15.11074143566611
 31
0.0
  0
LINE
  5
32E5
330
1E
100
AcDbEntity
  8
7
100
AcDbLine
 10
13.48370322098698
 20
15.11074143566611
 30
0.0
 11
13.48370322098698
 21
15.1094290997081
 31
0.0
  0
LINE
  5
32E6
330
1E
100
AcDbEntity
  8
7
100
AcDbLine
 10
13.45876883778488
 20
14.91914038579734
 30
0.0
 11
13.45876883778488
 21
14.97163382411755
 31
0.0
  0
LINE
  5
32E7
330
1E
100
AcDbEntity
  8
7
100
AcDbLine
 10
13.45876883778488
 20
14.97163382411755
 30
0.0
 11
13.48370322098698
 21
14.97163382411755
 31
0.0
  0
LINE
  5
32E8
330
1E
100
AcDbEntity
  8
7
100
AcDbLine
 10
12.5138869480211
 20
15.07530836479996
 30
0.0
 11
12.49288957269302
 21
15.07530836479996
 31
0.0
  0
LINE
  5
32E9
330
1E
100
AcDbEntity
  8
7
100
AcDbLine
 10
12.49288957269302
 20
15.07530836479996
 30
0.0
 11
12.47714154119696
 21
15.06480967713592
 31
0.0
  0
LINE
  5
32EA
330
1E
100
AcDbEntity
  8
7
100
AcDbLine
 10
12.47714154119696
 20
15.06480967713592
 30
0.0
 11
12.46795518949092
 21
15.04643697372385
 31
0.0
  0
LINE
  5
32EB
330
1E
100
AcDbEntity
  8
7
100
AcDbLine
 10
12.46795518949092
 20
15.04643697372385
 30
0.0
 11
12.47057986140693
 21
15.02675193435377
 31
0.0
  0
LINE
  5
32EC
330
1E
100
AcDbEntity
  8
7
100
AcDbLine
 10
12.47057986140693
 20
15.02675193435377
 30
0.0
 11
12.48370322098698
 21
15.0110039028577
 31
0.0
  0
LINE
  5
32ED
330
1E
100
AcDbEntity
  8
7
100
AcDbLine
 10
12.48370322098698
 20
15.0110039028577
 30
0.0
 11
12.50338826035706
 21
15.00575455902569
 31
0.0
  0
LINE
  5
32EE
330
1E
100
AcDbEntity
  8
7
100
AcDbLine
 10
12.50338826035706
 20
15.00575455902569
 30
0.0
 11
12.52307329972714
 21
15.0110039028577
 31
0.0
  0
LINE
  5
32EF
330
1E
100
AcDbEntity
  8
7
100
AcDbLine
 10
12.52307329972714
 20
15.0110039028577
 30
0.0
 11
12.53619665930719
 21
15.02675193435377
 31
0.0
  0
LINE
  5
32F0
330
1E
100
AcDbEntity
  8
7
100
AcDbLine
 10
12.53619665930719
 20
15.02675193435377
 30
0.0
 11
12.5388213312232
 21
15.04643697372385
 31
0.0
  0
LINE
  5
32F1
330
1E
100
AcDbEntity
  8
7
100
AcDbLine
 10
12.5388213312232
 20
15.04643697372385
 30
0.0
 11
12.52963497951717
 21
15.06480967713592
 31
0.0
  0
LINE
  5
32F2
330
1E
100
AcDbEntity
  8
7
100
AcDbLine
 10
12.52963497951717
 20
15.06480967713592
 30
0.0
 11
12.5138869480211
 21
15.07530836479996
 31
0.0
  0
LINE
  5
32F3
330
1E
100
AcDbEntity
  8
7
100
AcDbLine
 10
13.16480558319171
 20
15.06480967713592
 30
0.0
 11
13.14905755169564
 21
15.07530836479996
 31
0.0
  0
LINE
  5
32F4
330
1E
100
AcDbEntity
  8
7
100
AcDbLine
 10
13.14905755169564
 20
15.07530836479996
 30
0.0
 11
13.12806017636756
 21
15.07530836479996
 31
0.0
  0
LINE
  5
32F5
330
1E
100
AcDbEntity
  8
7
100
AcDbLine
 10
13.12806017636756
 20
15.07530836479996
 30
0.0
 11
13.1123121448715
 21
15.06480967713592
 31
0.0
  0
LINE
  5
32F6
330
1E
100
AcDbEntity
  8
7
100
AcDbLine
 10
13.1123121448715
 20
15.06480967713592
 30
0.0
 11
13.10312579316546
 21
15.04643697372385
 31
0.0
  0
LINE
  5
32F7
330
1E
100
AcDbEntity
  8
7
100
AcDbLine
 10
13.10312579316546
 20
15.04643697372385
 30
0.0
 11
13.10575046508147
 21
15.02675193435377
 31
0.0
  0
LINE
  5
32F8
330
1E
100
AcDbEntity
  8
7
100
AcDbLine
 10
13.10575046508147
 20
15.02675193435377
 30
0.0
 11
13.11887382466152
 21
15.0110039028577
 31
0.0
  0
LINE
  5
32F9
330
1E
100
AcDbEntity
  8
7
100
AcDbLine
 10
13.11887382466152
 20
15.0110039028577
 30
0.0
 11
13.1385588640316
 21
15.00575455902569
 31
0.0
  0
LINE
  5
32FA
330
1E
100
AcDbEntity
  8
7
100
AcDbLine
 10
13.1385588640316
 20
15.00575455902569
 30
0.0
 11
13.15824390340168
 21
15.0110039028577
 31
0.0
  0
LINE
  5
32FB
330
1E
100
AcDbEntity
  8
7
100
AcDbLine
 10
13.15824390340168
 20
15.0110039028577
 30
0.0
 11
13.17136726298173
 21
15.02675193435377
 31
0.0
  0
LINE
  5
32FC
330
1E
100
AcDbEntity
  8
7
100
AcDbLine
 10
13.17136726298173
 20
15.02675193435377
 30
0.0
 11
13.17399193489774
 21
15.04643697372385
 31
0.0
  0
LINE
  5
32FD
330
1E
100
AcDbEntity
  8
7
100
AcDbLine
 10
13.17399193489774
 20
15.04643697372385
 30
0.0
 11
13.16480558319171
 21
15.06480967713592
 31
0.0
  0
LINE
  5
32FE
330
1E
100
AcDbEntity
  8
7
100
AcDbLine
 10
12.18186595064578
 20
15.16323487398631
 30
0.0
 11
12.18449062256178
 21
15.16192253802831
 31
0.0
  0
LINE
  5
32FF
330
1E
100
AcDbEntity
  8
7
100
AcDbLine
 10
12.18449062256178
 20
15.16192253802831
 30
0.0
 11
13.45745650182688
 21
15.16192253802831
 31
0.0
  0
LINE
  5
3300
330
1E
100
AcDbEntity
  8
7
100
AcDbLine
 10
12.25798143621008
 20
14.14879917844826
 30
0.0
 11
12.25798143621008
 21
14.15011151440626
 31
0.0
  0
LINE
  5
3301
330
1E
100
AcDbEntity
  8
7
100
AcDbLine
 10
12.25798143621008
 20
14.15011151440626
 30
0.0
 11
12.19105230235181
 21
14.15011151440626
 31
0.0
  0
LINE
  5
3302
330
1E
100
AcDbEntity
  8
7
100
AcDbLine
 10
12.18186595064578
 20
15.11205377162411
 30
0.0
 11
12.18186595064578
 21
15.11074143566611
 31
0.0
  0
LINE
  5
3303
330
1E
100
AcDbEntity
  8
7
100
AcDbLine
 10
12.18186595064578
 20
15.11074143566611
 30
0.0
 11
12.18186595064578
 21
15.16323487398631
 31
0.0
  0
LINE
  5
3304
330
1E
100
AcDbEntity
  8
7
100
AcDbLine
 10
11.44958248607885
 20
16.09761807608605
 30
0.0
 11
11.45745650182688
 21
16.12780180312017
 31
0.0
  0
LINE
  5
3305
330
1E
100
AcDbEntity
  8
7
100
AcDbLine
 10
11.45745650182688
 20
16.12780180312017
 30
0.0
 11
11.47845387715496
 21
16.14879917844826
 31
0.0
  0
LINE
  5
3306
330
1E
100
AcDbEntity
  8
7
100
AcDbLine
 10
11.47845387715496
 20
16.14879917844826
 30
0.0
 11
11.50863760418908
 21
16.15667319419629
 31
0.0
  0
LINE
  5
3307
330
1E
100
AcDbEntity
  8
7
100
AcDbLine
 10
11.67399193489774
 20
15.93226374537739
 30
0.0
 11
11.64249587190562
 21
15.97557083199157
 31
0.0
  0
LINE
  5
3308
330
1E
100
AcDbEntity
  8
7
100
AcDbLine
 10
11.64249587190562
 20
15.97557083199157
 30
0.0
 11
11.6123121448715
 21
16.01625324668973
 31
0.0
  0
LINE
  5
3309
330
1E
100
AcDbEntity
  8
7
100
AcDbLine
 10
11.6123121448715
 20
16.01625324668973
 30
0.0
 11
11.58475308975339
 21
16.05431098947188
 31
0.0
  0
LINE
  5
330A
330
1E
100
AcDbEntity
  8
7
100
AcDbLine
 10
11.58475308975339
 20
16.05431098947188
 30
0.0
 11
11.55981870655129
 21
16.08711938842201
 31
0.0
  0
LINE
  5
330B
330
1E
100
AcDbEntity
  8
7
100
AcDbLine
 10
11.55981870655129
 20
16.08711938842201
 30
0.0
 11
11.54013366718121
 21
16.11599077949813
 31
0.0
  0
LINE
  5
330C
330
1E
100
AcDbEntity
  8
7
100
AcDbLine
 10
11.54013366718121
 20
16.11599077949813
 30
0.0
 11
11.52438563568515
 21
16.13698815482621
 31
0.0
  0
LINE
  5
330D
330
1E
100
AcDbEntity
  8
7
100
AcDbLine
 10
11.52438563568515
 20
16.13698815482621
 30
0.0
 11
11.5138869480211
 21
16.15142385036427
 31
0.0
  0
LINE
  5
330E
330
1E
100
AcDbEntity
  8
7
100
AcDbLine
 10
11.5138869480211
 20
16.15142385036427
 30
0.0
 11
11.50863760418908
 21
16.15667319419629
 31
0.0
  0
LINE
  5
330F
330
1E
100
AcDbEntity
  8
7
100
AcDbLine
 10
13.96795518949092
 20
15.93226374537739
 30
0.0
 11
13.99945125248304
 21
15.97557083199157
 31
0.0
  0
LINE
  5
3310
330
1E
100
AcDbEntity
  8
7
100
AcDbLine
 10
13.99945125248304
 20
15.97557083199157
 30
0.0
 11
14.02963497951717
 21
16.01625324668973
 31
0.0
  0
LINE
  5
3311
330
1E
100
AcDbEntity
  8
7
100
AcDbLine
 10
14.02963497951717
 20
16.01625324668973
 30
0.0
 11
14.05719403463528
 21
16.05431098947188
 31
0.0
  0
LINE
  5
3312
330
1E
100
AcDbEntity
  8
7
100
AcDbLine
 10
14.05719403463528
 20
16.05431098947188
 30
0.0
 11
14.08081608187937
 21
16.08711938842201
 31
0.0
  0
LINE
  5
3313
330
1E
100
AcDbEntity
  8
7
100
AcDbLine
 10
14.08081608187937
 20
16.08711938842201
 30
0.0
 11
14.10181345720745
 21
16.11599077949813
 31
0.0
  0
LINE
  5
3314
330
1E
100
AcDbEntity
  8
7
100
AcDbLine
 10
14.10181345720745
 20
16.11599077949813
 30
0.0
 11
14.11756148870352
 21
16.13698815482621
 31
0.0
  0
LINE
  5
3315
330
1E
100
AcDbEntity
  8
7
100
AcDbLine
 10
14.11756148870352
 20
16.13698815482621
 30
0.0
 11
14.12806017636756
 21
16.15142385036427
 31
0.0
  0
LINE
  5
3316
330
1E
100
AcDbEntity
  8
7
100
AcDbLine
 10
14.12806017636756
 20
16.15142385036427
 30
0.0
 11
14.13330952019958
 21
16.15667319419629
 31
0.0
  0
LINE
  5
3317
330
1E
100
AcDbEntity
  8
7
100
AcDbLine
 10
14.18449062256178
 20
16.12780180312017
 30
0.0
 11
14.1621809112757
 21
16.14879917844826
 31
0.0
  0
LINE
  5
3318
330
1E
100
AcDbEntity
  8
7
100
AcDbLine
 10
14.1621809112757
 20
16.14879917844826
 30
0.0
 11
14.13330952019958
 21
16.15667319419629
 31
0.0
  0
LINE
  5
3319
330
1E
100
AcDbEntity
  8
7
100
AcDbLine
 10
12.50207592439906
 20
15.61861545141414
 30
0.0
 11
12.47582920523895
 21
15.61861545141414
 31
0.0
  0
LINE
  5
331A
330
1E
100
AcDbEntity
  8
7
100
AcDbLine
 10
12.47582920523895
 20
15.61861545141414
 30
0.0
 11
12.47582920523895
 21
15.59105639629603
 31
0.0
  0
LINE
  5
331B
330
1E
100
AcDbEntity
  8
7
100
AcDbLine
 10
12.47582920523895
 20
15.59105639629603
 30
0.0
 11
12.47582920523895
 21
15.5110039028577
 31
0.0
  0
LINE
  5
331C
330
1E
100
AcDbEntity
  8
7
100
AcDbLine
 10
13.16611791914971
 20
15.4834448477396
 30
0.0
 11
13.16611791914971
 21
15.61861545141414
 31
0.0
  0
LINE
  5
331D
330
1E
100
AcDbEntity
  8
7
100
AcDbLine
 10
13.16611791914971
 20
15.61861545141414
 30
0.0
 11
13.13987119998961
 21
15.61861545141414
 31
0.0
  0
LINE
  5
331E
330
1E
100
AcDbEntity
  8
7
100
AcDbLine
 10
13.14118353594761
 20
15.67242122569235
 30
0.0
 11
13.13987119998961
 21
15.67242122569235
 31
0.0
  0
LINE
  5
331F
330
1E
100
AcDbEntity
  8
7
100
AcDbLine
 10
13.13987119998961
 20
15.67242122569235
 30
0.0
 11
13.13987119998961
 21
15.61861545141414
 31
0.0
  0
LINE
  5
3320
330
1E
100
AcDbEntity
  8
7
100
AcDbLine
 10
12.76060610812609
 20
15.66454720994432
 30
0.0
 11
12.72517303725995
 21
15.6592978661123
 31
0.0
  0
LINE
  5
3321
330
1E
100
AcDbEntity
  8
7
100
AcDbLine
 10
12.72517303725995
 20
15.6592978661123
 30
0.0
 11
12.69367697426782
 21
15.64223749865823
 31
0.0
  0
LINE
  5
3322
330
1E
100
AcDbEntity
  8
7
100
AcDbLine
 10
12.69367697426782
 20
15.64223749865823
 30
0.0
 11
12.66874259106572
 21
15.61730311545613
 31
0.0
  0
LINE
  5
3323
330
1E
100
AcDbEntity
  8
7
100
AcDbLine
 10
12.66874259106572
 20
15.61730311545613
 30
0.0
 11
12.65168222361165
 21
15.58580705246401
 31
0.0
  0
LINE
  5
3324
330
1E
100
AcDbEntity
  8
7
100
AcDbLine
 10
12.65168222361165
 20
15.58580705246401
 30
0.0
 11
12.64643287977963
 21
15.55037398159786
 31
0.0
  0
LINE
  5
3325
330
1E
100
AcDbEntity
  8
7
100
AcDbLine
 10
12.64643287977963
 20
15.55037398159786
 30
0.0
 11
12.65168222361165
 21
15.51494091073172
 31
0.0
  0
LINE
  5
3326
330
1E
100
AcDbEntity
  8
7
100
AcDbLine
 10
12.65168222361165
 20
15.51494091073172
 30
0.0
 11
12.66874259106572
 21
15.4834448477396
 31
0.0
  0
LINE
  5
3327
330
1E
100
AcDbEntity
  8
7
100
AcDbLine
 10
12.66874259106572
 20
15.4834448477396
 30
0.0
 11
12.69367697426782
 21
15.4585104645375
 31
0.0
  0
LINE
  5
3328
330
1E
100
AcDbEntity
  8
7
100
AcDbLine
 10
12.69367697426782
 20
15.4585104645375
 30
0.0
 11
12.72517303725995
 21
15.44145009708343
 31
0.0
  0
LINE
  5
3329
330
1E
100
AcDbEntity
  8
7
100
AcDbLine
 10
12.88134101626257
 20
15.43620075325141
 30
0.0
 11
12.91677408712872
 21
15.44145009708343
 31
0.0
  0
LINE
  5
332A
330
1E
100
AcDbEntity
  8
7
100
AcDbLine
 10
12.91677408712872
 20
15.44145009708343
 30
0.0
 11
12.94827015012084
 21
15.4585104645375
 31
0.0
  0
LINE
  5
332B
330
1E
100
AcDbEntity
  8
7
100
AcDbLine
 10
12.94827015012084
 20
15.4585104645375
 30
0.0
 11
12.97320453332294
 21
15.4834448477396
 31
0.0
  0
LINE
  5
332C
330
1E
100
AcDbEntity
  8
7
100
AcDbLine
 10
12.97320453332294
 20
15.4834448477396
 30
0.0
 11
12.99026490077701
 21
15.51494091073172
 31
0.0
  0
LINE
  5
332D
330
1E
100
AcDbEntity
  8
7
100
AcDbLine
 10
12.99026490077701
 20
15.51494091073172
 30
0.0
 11
12.99551424460903
 21
15.55037398159786
 31
0.0
  0
LINE
  5
332E
330
1E
100
AcDbEntity
  8
7
100
AcDbLine
 10
12.99551424460903
 20
15.55037398159786
 30
0.0
 11
12.99026490077701
 21
15.58580705246401
 31
0.0
  0
LINE
  5
332F
330
1E
100
AcDbEntity
  8
7
100
AcDbLine
 10
12.99026490077701
 20
15.58580705246401
 30
0.0
 11
12.97320453332294
 21
15.61730311545613
 31
0.0
  0
LINE
  5
3330
330
1E
100
AcDbEntity
  8
7
100
AcDbLine
 10
12.97320453332294
 20
15.61730311545613
 30
0.0
 11
12.94827015012084
 21
15.64223749865823
 31
0.0
  0
LINE
  5
3331
330
1E
100
AcDbEntity
  8
7
100
AcDbLine
 10
12.94827015012084
 20
15.64223749865823
 30
0.0
 11
12.91677408712872
 21
15.6592978661123
 31
0.0
  0
LINE
  5
3332
330
1E
100
AcDbEntity
  8
7
100
AcDbLine
 10
12.91677408712872
 20
15.6592978661123
 30
0.0
 11
12.88134101626257
 21
15.66454720994432
 31
0.0
  0
LINE
  5
3333
330
1E
100
AcDbEntity
  8
7
100
AcDbLine
 10
12.76060610812609
 20
15.43751308920941
 30
0.0
 11
12.76060610812609
 21
15.43620075325141
 31
0.0
  0
LINE
  5
3334
330
1E
100
AcDbEntity
  8
7
100
AcDbLine
 10
12.76060610812609
 20
15.43620075325141
 30
0.0
 11
12.88134101626257
 21
15.43620075325141
 31
0.0
  0
LINE
  5
3335
330
1E
100
AcDbEntity
  8
7
100
AcDbLine
 10
12.65299455956966
 20
15.58580705246401
 30
0.0
 11
12.64774521573764
 21
15.55037398159786
 31
0.0
  0
LINE
  5
3336
330
1E
100
AcDbEntity
  8
7
100
AcDbLine
 10
12.64774521573764
 20
15.55037398159786
 30
0.0
 11
12.65299455956966
 21
15.51494091073172
 31
0.0
  0
LINE
  5
3337
330
1E
100
AcDbEntity
  8
7
100
AcDbLine
 10
12.65299455956966
 20
15.51494091073172
 30
0.0
 11
12.66874259106572
 21
15.4834448477396
 31
0.0
  0
LINE
  5
3338
330
1E
100
AcDbEntity
  8
7
100
AcDbLine
 10
12.66874259106572
 20
15.4834448477396
 30
0.0
 11
12.69367697426782
 21
15.4585104645375
 31
0.0
  0
LINE
  5
3339
330
1E
100
AcDbEntity
  8
7
100
AcDbLine
 10
12.69367697426782
 20
15.4585104645375
 30
0.0
 11
12.72517303725995
 21
15.44276243304143
 31
0.0
  0
LINE
  5
333A
330
1E
100
AcDbEntity
  8
7
100
AcDbLine
 10
12.72517303725995
 20
15.44276243304143
 30
0.0
 11
12.76060610812609
 21
15.43751308920941
 31
0.0
  0
LINE
  5
333B
330
1E
100
AcDbEntity
  8
7
100
AcDbLine
 10
12.76060610812609
 20
15.66323487398632
 30
0.0
 11
12.72517303725995
 21
15.65798553015429
 31
0.0
  0
LINE
  5
333C
330
1E
100
AcDbEntity
  8
7
100
AcDbLine
 10
12.72517303725995
 20
15.65798553015429
 30
0.0
 11
12.69367697426782
 21
15.64223749865823
 31
0.0
  0
LINE
  5
333D
330
1E
100
AcDbEntity
  8
7
100
AcDbLine
 10
12.69367697426782
 20
15.64223749865823
 30
0.0
 11
12.66874259106572
 21
15.61730311545613
 31
0.0
  0
LINE
  5
333E
330
1E
100
AcDbEntity
  8
7
100
AcDbLine
 10
12.66874259106572
 20
15.61730311545613
 30
0.0
 11
12.65299455956966
 21
15.58580705246401
 31
0.0
  0
LINE
  5
333F
330
1E
100
AcDbEntity
  8
7
100
AcDbLine
 10
12.97320453332294
 20
15.61730311545613
 30
0.0
 11
12.94827015012084
 21
15.64223749865823
 31
0.0
  0
LINE
  5
3340
330
1E
100
AcDbEntity
  8
7
100
AcDbLine
 10
12.94827015012084
 20
15.64223749865823
 30
0.0
 11
12.91677408712872
 21
15.65798553015429
 31
0.0
  0
LINE
  5
3341
330
1E
100
AcDbEntity
  8
7
100
AcDbLine
 10
12.91677408712872
 20
15.65798553015429
 30
0.0
 11
12.88134101626257
 21
15.66323487398632
 31
0.0
  0
LINE
  5
3342
330
1E
100
AcDbEntity
  8
7
100
AcDbLine
 10
12.88134101626257
 20
15.43751308920941
 30
0.0
 11
12.91677408712872
 21
15.44276243304143
 31
0.0
  0
LINE
  5
3343
330
1E
100
AcDbEntity
  8
7
100
AcDbLine
 10
12.91677408712872
 20
15.44276243304143
 30
0.0
 11
12.94827015012084
 21
15.4585104645375
 31
0.0
  0
LINE
  5
3344
330
1E
100
AcDbEntity
  8
7
100
AcDbLine
 10
12.94827015012084
 20
15.4585104645375
 30
0.0
 11
12.97320453332294
 21
15.4834448477396
 31
0.0
  0
LINE
  5
3345
330
1E
100
AcDbEntity
  8
7
100
AcDbLine
 10
12.97320453332294
 20
15.4834448477396
 30
0.0
 11
12.988952564819
 21
15.51494091073172
 31
0.0
  0
LINE
  5
3346
330
1E
100
AcDbEntity
  8
7
100
AcDbLine
 10
12.988952564819
 20
15.51494091073172
 30
0.0
 11
12.99420190865102
 21
15.55037398159786
 31
0.0
  0
LINE
  5
3347
330
1E
100
AcDbEntity
  8
7
100
AcDbLine
 10
12.99420190865102
 20
15.55037398159786
 30
0.0
 11
12.988952564819
 21
15.58580705246401
 31
0.0
  0
LINE
  5
3348
330
1E
100
AcDbEntity
  8
7
100
AcDbLine
 10
12.988952564819
 20
15.58580705246401
 30
0.0
 11
12.97320453332294
 21
15.61730311545613
 31
0.0
  0
LINE
  5
3349
330
1E
100
AcDbEntity
  8
7
100
AcDbLine
 10
12.93383445458278
 20
15.60286741991807
 30
0.0
 11
12.91021240733869
 21
15.61992778737214
 31
0.0
  0
LINE
  5
334A
330
1E
100
AcDbEntity
  8
7
100
AcDbLine
 10
12.91021240733869
 20
15.61992778737214
 30
0.0
 11
12.88134101626257
 21
15.62517713120416
 31
0.0
  0
LINE
  5
334B
330
1E
100
AcDbEntity
  8
7
100
AcDbLine
 10
12.88134101626257
 20
15.47557083199157
 30
0.0
 11
12.91021240733869
 21
15.48082017582359
 31
0.0
  0
LINE
  5
334C
330
1E
100
AcDbEntity
  8
7
100
AcDbLine
 10
12.91021240733869
 20
15.48082017582359
 30
0.0
 11
12.93383445458278
 21
15.49788054327765
 31
0.0
  0
LINE
  5
334D
330
1E
100
AcDbEntity
  8
7
100
AcDbLine
 10
12.93383445458278
 20
15.49788054327765
 30
0.0
 11
12.95089482203685
 21
15.52150259052175
 31
0.0
  0
LINE
  5
334E
330
1E
100
AcDbEntity
  8
7
100
AcDbLine
 10
12.95089482203685
 20
15.52150259052175
 30
0.0
 11
12.95614416586887
 21
15.55037398159786
 31
0.0
  0
LINE
  5
334F
330
1E
100
AcDbEntity
  8
7
100
AcDbLine
 10
12.95614416586887
 20
15.55037398159786
 30
0.0
 11
12.95089482203685
 21
15.57924537267398
 31
0.0
  0
LINE
  5
3350
330
1E
100
AcDbEntity
  8
7
100
AcDbLine
 10
12.95089482203685
 20
15.57924537267398
 30
0.0
 11
12.93383445458278
 21
15.60286741991807
 31
0.0
  0
LINE
  5
3351
330
1E
100
AcDbEntity
  8
7
100
AcDbLine
 10
12.69105230235181
 20
15.52150259052175
 30
0.0
 11
12.70811266980588
 21
15.49788054327765
 31
0.0
  0
LINE
  5
3352
330
1E
100
AcDbEntity
  8
7
100
AcDbLine
 10
12.70811266980588
 20
15.49788054327765
 30
0.0
 11
12.73173471704998
 21
15.48082017582359
 31
0.0
  0
LINE
  5
3353
330
1E
100
AcDbEntity
  8
7
100
AcDbLine
 10
12.73173471704998
 20
15.48082017582359
 30
0.0
 11
12.76060610812609
 21
15.47557083199157
 31
0.0
  0
LINE
  5
3354
330
1E
100
AcDbEntity
  8
7
100
AcDbLine
 10
12.76060610812609
 20
15.62517713120416
 30
0.0
 11
12.73173471704998
 21
15.61992778737214
 31
0.0
  0
LINE
  5
3355
330
1E
100
AcDbEntity
  8
7
100
AcDbLine
 10
12.73173471704998
 20
15.61992778737214
 30
0.0
 11
12.70811266980588
 21
15.60286741991807
 31
0.0
  0
LINE
  5
3356
330
1E
100
AcDbEntity
  8
7
100
AcDbLine
 10
12.70811266980588
 20
15.60286741991807
 30
0.0
 11
12.69105230235181
 21
15.57924537267398
 31
0.0
  0
LINE
  5
3357
330
1E
100
AcDbEntity
  8
7
100
AcDbLine
 10
12.69105230235181
 20
15.57924537267398
 30
0.0
 11
12.68580295851979
 21
15.55037398159786
 31
0.0
  0
LINE
  5
3358
330
1E
100
AcDbEntity
  8
7
100
AcDbLine
 10
12.68580295851979
 20
15.55037398159786
 30
0.0
 11
12.69105230235181
 21
15.52150259052175
 31
0.0
  0
LINE
  5
3359
330
1E
100
AcDbEntity
  8
7
100
AcDbLine
 10
12.39971371967465
 20
14.1592978661123
 30
0.0
 11
12.40102605563265
 21
14.14223749865823
 31
0.0
  0
LINE
  5
335A
330
1E
100
AcDbEntity
  8
7
100
AcDbLine
 10
12.40102605563265
 20
14.14223749865823
 30
0.0
 11
12.40102605563265
 21
14.12255245928815
 31
0.0
  0
LINE
  5
335B
330
1E
100
AcDbEntity
  8
7
100
AcDbLine
 10
12.40102605563265
 20
14.11205377162411
 30
0.0
 11
12.40102605563265
 21
14.10155508396007
 31
0.0
  0
LINE
  5
335C
330
1E
100
AcDbEntity
  8
7
100
AcDbLine
 10
12.40102605563265
 20
14.10155508396007
 30
0.0
 11
12.39971371967465
 21
14.09630574012805
 31
0.0
  0
LINE
  5
335D
330
1E
100
AcDbEntity
  8
7
100
AcDbLine
 10
12.60706280103948
 20
14.09630574012805
 30
0.0
 11
12.60575046508147
 21
14.10155508396007
 31
0.0
  0
LINE
  5
335E
330
1E
100
AcDbEntity
  8
7
100
AcDbLine
 10
12.60575046508147
 20
14.10155508396007
 30
0.0
 11
12.60575046508147
 21
14.11205377162411
 31
0.0
  0
LINE
  5
335F
330
1E
100
AcDbEntity
  8
7
100
AcDbLine
 10
12.60575046508147
 20
14.12255245928815
 30
0.0
 11
12.60575046508147
 21
14.14223749865823
 31
0.0
  0
LINE
  5
3360
330
1E
100
AcDbEntity
  8
7
100
AcDbLine
 10
12.60575046508147
 20
14.14223749865823
 30
0.0
 11
12.60575046508147
 21
14.1592978661123
 31
0.0
  0
LINE
  5
3361
330
1E
100
AcDbEntity
  8
7
100
AcDbLine
 10
13.24092106875601
 20
14.19341860102044
 30
0.0
 11
13.24092106875601
 21
14.16323487398632
 31
0.0
  0
LINE
  5
3362
330
1E
100
AcDbEntity
  8
7
100
AcDbLine
 10
13.24092106875601
 20
14.16323487398632
 30
0.0
 11
13.24092106875601
 21
14.1592978661123
 31
0.0
  0
LINE
  5
3363
330
1E
100
AcDbEntity
  8
7
100
AcDbLine
 10
13.24092106875601
 20
14.1592978661123
 30
0.0
 11
13.24092106875601
 21
14.14223749865823
 31
0.0
  0
LINE
  5
3364
330
1E
100
AcDbEntity
  8
7
100
AcDbLine
 10
13.24092106875601
 20
14.14223749865823
 30
0.0
 11
13.24092106875601
 21
14.12255245928815
 31
0.0
  0
LINE
  5
3365
330
1E
100
AcDbEntity
  8
7
100
AcDbLine
 10
13.24092106875601
 20
14.12255245928815
 30
0.0
 11
13.24092106875601
 21
14.11205377162411
 31
0.0
  0
LINE
  5
3366
330
1E
100
AcDbEntity
  8
7
100
AcDbLine
 10
13.24092106875601
 20
14.11205377162411
 30
0.0
 11
13.24092106875601
 21
14.10155508396007
 31
0.0
  0
LINE
  5
3367
330
1E
100
AcDbEntity
  8
7
100
AcDbLine
 10
13.24092106875601
 20
14.10155508396007
 30
0.0
 11
13.24092106875601
 21
14.09630574012805
 31
0.0
  0
LINE
  5
3368
330
1E
100
AcDbEntity
  8
7
100
AcDbLine
 10
13.03619665930719
 20
14.12255245928815
 30
0.0
 11
13.03619665930719
 21
14.14223749865823
 31
0.0
  0
LINE
  5
3369
330
1E
100
AcDbEntity
  8
7
100
AcDbLine
 10
13.03619665930719
 20
14.14223749865823
 30
0.0
 11
13.03488432334919
 21
14.1592978661123
 31
0.0
  0
LINE
  5
336A
330
1E
100
AcDbEntity
  8
7
100
AcDbLine
 10
13.03488432334919
 20
14.1592978661123
 30
0.0
 11
13.03488432334919
 21
14.16323487398632
 31
0.0
  0
LINE
  5
336B
330
1E
100
AcDbEntity
  8
7
100
AcDbLine
 10
13.01126227610509
 20
14.084494716506
 30
0.0
 11
13.03488432334919
 21
14.09630574012805
 31
0.0
  0
LINE
  5
336C
330
1E
100
AcDbEntity
  8
7
100
AcDbLine
 10
13.03488432334919
 20
14.09630574012805
 30
0.0
 11
13.03619665930719
 21
14.10155508396007
 31
0.0
  0
LINE
  5
336D
330
1E
100
AcDbEntity
  8
7
100
AcDbLine
 10
13.03619665930719
 20
14.10155508396007
 30
0.0
 11
13.03619665930719
 21
14.11205377162411
 31
0.0
  0
LINE
  5
336E
330
1E
100
AcDbEntity
  8
7
100
AcDbLine
 10
12.59131476954342
 20
13.3837073149312
 30
0.0
 11
12.41546175117071
 21
13.3837073149312
 31
0.0
  0
LINE
  5
336F
330
1E
100
AcDbEntity
  8
7
100
AcDbLine
 10
12.41546175117071
 20
13.3837073149312
 30
0.0
 11
12.19105230235181
 21
13.3837073149312
 31
0.0
  0
LINE
  5
3370
330
1E
100
AcDbEntity
  8
7
100
AcDbLine
 10
13.38396568817858
 20
12.72360232805456
 30
0.0
 11
13.45089482203685
 21
12.72360232805456
 31
0.0
  0
LINE
  5
3371
330
1E
100
AcDbEntity
  8
7
100
AcDbLine
 10
13.45089482203685
 20
12.72360232805456
 30
0.0
 11
13.45089482203685
 21
13.3837073149312
 31
0.0
  0
LINE
  5
3372
330
1E
100
AcDbEntity
  8
7
100
AcDbLine
 10
13.45876883778488
 20
13.49394353540364
 30
0.0
 11
13.45876883778488
 21
13.54512463776584
 31
0.0
  0
LINE
  5
3373
330
1E
100
AcDbEntity
  8
7
100
AcDbLine
 10
13.45876883778488
 20
13.54512463776584
 30
0.0
 11
13.48370322098698
 21
13.54512463776584
 31
0.0
  0
LINE
  5
3374
330
1E
100
AcDbEntity
  8
7
100
AcDbLine
 10
12.18449062256178
 20
13.54774930968186
 30
0.0
 11
12.15824390340168
 21
13.54774930968186
 31
0.0
  0
LINE
  5
3375
330
1E
100
AcDbEntity
  8
7
100
AcDbLine
 10
12.15824390340168
 20
13.54774930968186
 30
0.0
 11
12.15693156744368
 21
13.54512463776584
 31
0.0
  0
LINE
  5
3376
330
1E
100
AcDbEntity
  8
7
100
AcDbLine
 10
13.45876883778488
 20
13.6855445852724
 30
0.0
 11
13.45876883778488
 21
13.73672568763461
 31
0.0
  0
LINE
  5
3377
330
1E
100
AcDbEntity
  8
7
100
AcDbLine
 10
13.45876883778488
 20
13.73672568763461
 30
0.0
 11
13.45745650182688
 21
13.73672568763461
 31
0.0
  0
LINE
  5
3378
330
1E
100
AcDbEntity
  8
7
100
AcDbLine
 10
13.45745650182688
 20
13.73672568763461
 30
0.0
 11
13.45745650182688
 21
13.68291991335639
 31
0.0
  0
LINE
  5
3379
330
1E
100
AcDbEntity
  8
7
100
AcDbLine
 10
13.45745650182688
 20
13.68291991335639
 30
0.0
 11
13.48370322098698
 21
13.68291991335639
 31
0.0
  0
LINE
  5
337A
330
1E
100
AcDbEntity
  8
7
100
AcDbLine
 10
13.48370322098698
 20
13.68291991335639
 30
0.0
 11
13.48370322098698
 21
13.6855445852724
 31
0.0
  0
LINE
  5
337B
330
1E
100
AcDbEntity
  8
7
100
AcDbLine
 10
13.1385588640316
 20
13.58055770863199
 30
0.0
 11
13.15824390340168
 21
13.58580705246401
 31
0.0
  0
LINE
  5
337C
330
1E
100
AcDbEntity
  8
7
100
AcDbLine
 10
13.15824390340168
 20
13.58580705246401
 30
0.0
 11
13.17136726298173
 21
13.60155508396007
 31
0.0
  0
LINE
  5
337D
330
1E
100
AcDbEntity
  8
7
100
AcDbLine
 10
13.17136726298173
 20
13.60155508396007
 30
0.0
 11
13.17399193489774
 21
13.62124012333015
 31
0.0
  0
LINE
  5
337E
330
1E
100
AcDbEntity
  8
7
100
AcDbLine
 10
13.17399193489774
 20
13.62124012333015
 30
0.0
 11
13.16480558319171
 21
13.63961282674222
 31
0.0
  0
LINE
  5
337F
330
1E
100
AcDbEntity
  8
7
100
AcDbLine
 10
13.16480558319171
 20
13.63961282674222
 30
0.0
 11
13.14905755169564
 21
13.65011151440626
 31
0.0
  0
LINE
  5
3380
330
1E
100
AcDbEntity
  8
7
100
AcDbLine
 10
13.14905755169564
 20
13.65011151440626
 30
0.0
 11
13.12806017636756
 21
13.65011151440626
 31
0.0
  0
LINE
  5
3381
330
1E
100
AcDbEntity
  8
7
100
AcDbLine
 10
13.12806017636756
 20
13.65011151440626
 30
0.0
 11
13.1123121448715
 21
13.63961282674222
 31
0.0
  0
LINE
  5
3382
330
1E
100
AcDbEntity
  8
7
100
AcDbLine
 10
13.1123121448715
 20
13.63961282674222
 30
0.0
 11
13.10312579316546
 21
13.62124012333015
 31
0.0
  0
LINE
  5
3383
330
1E
100
AcDbEntity
  8
7
100
AcDbLine
 10
13.10312579316546
 20
13.62124012333015
 30
0.0
 11
13.10575046508147
 21
13.60155508396007
 31
0.0
  0
LINE
  5
3384
330
1E
100
AcDbEntity
  8
7
100
AcDbLine
 10
13.10575046508147
 20
13.60155508396007
 30
0.0
 11
13.11887382466152
 21
13.58580705246401
 31
0.0
  0
LINE
  5
3385
330
1E
100
AcDbEntity
  8
7
100
AcDbLine
 10
13.11887382466152
 20
13.58580705246401
 30
0.0
 11
13.1385588640316
 21
13.58055770863199
 31
0.0
  0
LINE
  5
3386
330
1E
100
AcDbEntity
  8
7
100
AcDbLine
 10
12.50338826035706
 20
13.58055770863199
 30
0.0
 11
12.52307329972714
 21
13.58580705246401
 31
0.0
  0
LINE
  5
3387
330
1E
100
AcDbEntity
  8
7
100
AcDbLine
 10
12.52307329972714
 20
13.58580705246401
 30
0.0
 11
12.53619665930719
 21
13.60155508396007
 31
0.0
  0
LINE
  5
3388
330
1E
100
AcDbEntity
  8
7
100
AcDbLine
 10
12.53619665930719
 20
13.60155508396007
 30
0.0
 11
12.5388213312232
 21
13.62124012333015
 31
0.0
  0
LINE
  5
3389
330
1E
100
AcDbEntity
  8
7
100
AcDbLine
 10
12.5388213312232
 20
13.62124012333015
 30
0.0
 11
12.52963497951717
 21
13.63961282674222
 31
0.0
  0
LINE
  5
338A
330
1E
100
AcDbEntity
  8
7
100
AcDbLine
 10
12.52963497951717
 20
13.63961282674222
 30
0.0
 11
12.5138869480211
 21
13.65011151440626
 31
0.0
  0
LINE
  5
338B
330
1E
100
AcDbEntity
  8
7
100
AcDbLine
 10
12.5138869480211
 20
13.65011151440626
 30
0.0
 11
12.49288957269302
 21
13.65011151440626
 31
0.0
  0
LINE
  5
338C
330
1E
100
AcDbEntity
  8
7
100
AcDbLine
 10
12.49288957269302
 20
13.65011151440626
 30
0.0
 11
12.47714154119696
 21
13.63961282674222
 31
0.0
  0
LINE
  5
338D
330
1E
100
AcDbEntity
  8
7
100
AcDbLine
 10
12.47714154119696
 20
13.63961282674222
 30
0.0
 11
12.46795518949092
 21
13.62124012333015
 31
0.0
  0
LINE
  5
338E
330
1E
100
AcDbEntity
  8
7
100
AcDbLine
 10
12.46795518949092
 20
13.62124012333015
 30
0.0
 11
12.47057986140693
 21
13.60155508396007
 31
0.0
  0
LINE
  5
338F
330
1E
100
AcDbEntity
  8
7
100
AcDbLine
 10
12.47057986140693
 20
13.60155508396007
 30
0.0
 11
12.48370322098698
 21
13.58580705246401
 31
0.0
  0
LINE
  5
3390
330
1E
100
AcDbEntity
  8
7
100
AcDbLine
 10
12.48370322098698
 20
13.58580705246401
 30
0.0
 11
12.50338826035706
 21
13.58055770863199
 31
0.0
  0
LINE
  5
3391
330
1E
100
AcDbEntity
  8
7
100
AcDbLine
 10
13.1385588640316
 20
13.58055770863199
 30
0.0
 11
13.15824390340168
 21
13.58580705246401
 31
0.0
  0
LINE
  5
3392
330
1E
100
AcDbEntity
  8
7
100
AcDbLine
 10
13.15824390340168
 20
13.58580705246401
 30
0.0
 11
13.17136726298173
 21
13.60155508396007
 31
0.0
  0
LINE
  5
3393
330
1E
100
AcDbEntity
  8
7
100
AcDbLine
 10
13.17136726298173
 20
13.60155508396007
 30
0.0
 11
13.17399193489774
 21
13.62124012333015
 31
0.0
  0
LINE
  5
3394
330
1E
100
AcDbEntity
  8
7
100
AcDbLine
 10
13.17399193489774
 20
13.62124012333015
 30
0.0
 11
13.16480558319171
 21
13.63961282674222
 31
0.0
  0
LINE
  5
3395
330
1E
100
AcDbEntity
  8
7
100
AcDbLine
 10
13.16480558319171
 20
13.63961282674222
 30
0.0
 11
13.14905755169564
 21
13.65011151440626
 31
0.0
  0
LINE
  5
3396
330
1E
100
AcDbEntity
  8
7
100
AcDbLine
 10
13.14905755169564
 20
13.65011151440626
 30
0.0
 11
13.12806017636756
 21
13.65011151440626
 31
0.0
  0
LINE
  5
3397
330
1E
100
AcDbEntity
  8
7
100
AcDbLine
 10
13.12806017636756
 20
13.65011151440626
 30
0.0
 11
13.1123121448715
 21
13.63961282674222
 31
0.0
  0
LINE
  5
3398
330
1E
100
AcDbEntity
  8
7
100
AcDbLine
 10
13.1123121448715
 20
13.63961282674222
 30
0.0
 11
13.10312579316546
 21
13.62124012333015
 31
0.0
  0
LINE
  5
3399
330
1E
100
AcDbEntity
  8
7
100
AcDbLine
 10
13.10312579316546
 20
13.62124012333015
 30
0.0
 11
13.10575046508147
 21
13.60155508396007
 31
0.0
  0
LINE
  5
339A
330
1E
100
AcDbEntity
  8
7
100
AcDbLine
 10
13.10575046508147
 20
13.60155508396007
 30
0.0
 11
13.11887382466152
 21
13.58580705246401
 31
0.0
  0
LINE
  5
339B
330
1E
100
AcDbEntity
  8
7
100
AcDbLine
 10
13.11887382466152
 20
13.58580705246401
 30
0.0
 11
13.1385588640316
 21
13.58055770863199
 31
0.0
  0
LINE
  5
339C
330
1E
100
AcDbEntity
  8
7
100
AcDbLine
 10
12.50338826035706
 20
13.58055770863199
 30
0.0
 11
12.52307329972714
 21
13.58580705246401
 31
0.0
  0
LINE
  5
339D
330
1E
100
AcDbEntity
  8
7
100
AcDbLine
 10
12.52307329972714
 20
13.58580705246401
 30
0.0
 11
12.53619665930719
 21
13.60155508396007
 31
0.0
  0
LINE
  5
339E
330
1E
100
AcDbEntity
  8
7
100
AcDbLine
 10
12.53619665930719
 20
13.60155508396007
 30
0.0
 11
12.5388213312232
 21
13.62124012333015
 31
0.0
  0
LINE
  5
339F
330
1E
100
AcDbEntity
  8
7
100
AcDbLine
 10
12.5388213312232
 20
13.62124012333015
 30
0.0
 11
12.52963497951717
 21
13.63961282674222
 31
0.0
  0
LINE
  5
33A0
330
1E
100
AcDbEntity
  8
7
100
AcDbLine
 10
12.52963497951717
 20
13.63961282674222
 30
0.0
 11
12.5138869480211
 21
13.65011151440626
 31
0.0
  0
LINE
  5
33A1
330
1E
100
AcDbEntity
  8
7
100
AcDbLine
 10
12.5138869480211
 20
13.65011151440626
 30
0.0
 11
12.49288957269302
 21
13.65011151440626
 31
0.0
  0
LINE
  5
33A2
330
1E
100
AcDbEntity
  8
7
100
AcDbLine
 10
12.49288957269302
 20
13.65011151440626
 30
0.0
 11
12.47714154119696
 21
13.63961282674222
 31
0.0
  0
LINE
  5
33A3
330
1E
100
AcDbEntity
  8
7
100
AcDbLine
 10
12.47714154119696
 20
13.63961282674222
 30
0.0
 11
12.46795518949092
 21
13.62124012333015
 31
0.0
  0
LINE
  5
33A4
330
1E
100
AcDbEntity
  8
7
100
AcDbLine
 10
12.46795518949092
 20
13.62124012333015
 30
0.0
 11
12.47057986140693
 21
13.60155508396007
 31
0.0
  0
LINE
  5
33A5
330
1E
100
AcDbEntity
  8
7
100
AcDbLine
 10
12.47057986140693
 20
13.60155508396007
 30
0.0
 11
12.48370322098698
 21
13.58580705246401
 31
0.0
  0
LINE
  5
33A6
330
1E
100
AcDbEntity
  8
7
100
AcDbLine
 10
14.17792894277176
 20
16.14223749865823
 30
0.0
 11
14.19105230235181
 21
16.12386479524616
 31
0.0
  0
LINE
  5
33A7
330
1E
100
AcDbEntity
  8
7
100
AcDbLine
 10
14.19105230235181
 20
16.12386479524616
 30
0.0
 11
14.19630164618383
 21
16.10024274800206
 31
0.0
  0
LINE
  5
33A8
330
1E
100
AcDbEntity
  8
7
100
AcDbLine
 10
14.13593419211559
 20
16.1606102020703
 30
0.0
 11
14.15824390340168
 21
16.15536085823829
 31
0.0
  0
LINE
  5
33A9
330
1E
100
AcDbEntity
  8
7
100
AcDbLine
 10
14.15824390340168
 20
16.15536085823829
 30
0.0
 11
14.17792894277176
 21
16.14223749865823
 31
0.0
  0
LINE
  5
33AA
330
1E
100
AcDbEntity
  8
7
100
AcDbLine
 10
11.50601293227307
 20
16.1606102020703
 30
0.0
 11
11.48239088502898
 21
16.15536085823829
 31
0.0
  0
LINE
  5
33AB
330
1E
100
AcDbEntity
  8
7
100
AcDbLine
 10
11.48239088502898
 20
16.15536085823829
 30
0.0
 11
11.4627058456589
 21
16.14223749865823
 31
0.0
  0
LINE
  5
33AC
330
1E
100
AcDbEntity
  8
7
100
AcDbLine
 10
11.4627058456589
 20
16.14223749865823
 30
0.0
 11
11.45089482203685
 21
16.12386479524616
 31
0.0
  0
LINE
  5
33AD
330
1E
100
AcDbEntity
  8
7
100
AcDbLine
 10
11.45089482203685
 20
16.12386479524616
 30
0.0
 11
11.44564547820483
 21
16.10024274800206
 31
0.0
  0
LINE
  5
33AE
330
1E
100
AcDbEntity
  8
7
100
AcDbLine
 10
14.19630164618383
 20
11.71966532018054
 30
0.0
 11
14.19630164618383
 21
16.10024274800206
 31
0.0
  0
LINE
  5
33AF
330
1E
100
AcDbEntity
  8
7
100
AcDbLine
 10
14.19630164618383
 20
16.10024274800206
 30
0.0
 11
14.19236463830982
 21
16.09761807608605
 31
0.0
  0
LINE
  5
33B0
330
1E
100
AcDbEntity
  8
7
100
AcDbLine
 10
11.59000243358541
 20
15.99394353540364
 30
0.0
 11
11.63068484828357
 21
15.96375980836952
 31
0.0
  0
LINE
  5
33B1
330
1E
100
AcDbEntity
  8
7
100
AcDbLine
 10
11.63068484828357
 20
15.96375980836952
 30
0.0
 11
11.67399193489774
 21
15.93226374537739
 31
0.0
  0
LINE
  5
33B2
330
1E
100
AcDbEntity
  8
7
100
AcDbLine
 10
11.44958248607885
 20
16.09761807608605
 30
0.0
 11
11.45483182991087
 21
16.09236873225403
 31
0.0
  0
LINE
  5
33B3
330
1E
100
AcDbEntity
  8
7
100
AcDbLine
 10
11.45483182991087
 20
16.09236873225403
 30
0.0
 11
11.46926752544893
 21
16.08187004458999
 31
0.0
  0
LINE
  5
33B4
330
1E
100
AcDbEntity
  8
7
100
AcDbLine
 10
11.46926752544893
 20
16.08187004458999
 30
0.0
 11
11.49026490077701
 21
16.06612201309393
 31
0.0
  0
LINE
  5
33B5
330
1E
100
AcDbEntity
  8
7
100
AcDbLine
 10
11.49026490077701
 20
16.06612201309393
 30
0.0
 11
11.51913629185312
 21
16.04643697372385
 31
0.0
  0
LINE
  5
33B6
330
1E
100
AcDbEntity
  8
7
100
AcDbLine
 10
11.51913629185312
 20
16.04643697372385
 30
0.0
 11
11.55194469080326
 21
16.02150259052175
 31
0.0
  0
LINE
  5
33B7
330
1E
100
AcDbEntity
  8
7
100
AcDbLine
 10
11.55194469080326
 20
16.02150259052175
 30
0.0
 11
11.59000243358541
 21
15.99394353540364
 31
0.0
  0
LINE
  5
33B8
330
1E
100
AcDbEntity
  8
7
100
AcDbLine
 10
12.18973996639381
 20
14.8102165012829
 30
0.0
 11
13.45220715799486
 21
14.8102165012829
 31
0.0
  0
LINE
  5
33B9
330
1E
100
AcDbEntity
  8
7
100
AcDbLine
 10
13.45220715799486
 20
14.8102165012829
 30
0.0
 11
13.45220715799486
 21
14.14879917844826
 31
0.0
  0
LINE
  5
33BA
330
1E
100
AcDbEntity
  8
7
100
AcDbLine
 10
12.89183970392661
 20
14.14879917844826
 30
0.0
 11
12.74879508450404
 21
14.14879917844826
 31
0.0
  0
LINE
  5
33BB
330
1E
100
AcDbEntity
  8
7
100
AcDbLine
 10
12.74879508450404
 20
14.14879917844826
 30
0.0
 11
12.74879508450404
 21
14.083182380548
 31
0.0
  0
LINE
  5
33BC
330
1E
100
AcDbEntity
  8
7
100
AcDbLine
 10
12.74879508450404
 20
14.083182380548
 30
0.0
 11
12.25798143621008
 21
14.083182380548
 31
0.0
  0
LINE
  5
33BD
330
1E
100
AcDbEntity
  8
7
100
AcDbLine
 10
12.25798143621008
 20
14.083182380548
 30
0.0
 11
12.25798143621008
 21
14.14879917844826
 31
0.0
  0
LINE
  5
33BE
330
1E
100
AcDbEntity
  8
7
100
AcDbLine
 10
12.25798143621008
 20
14.14879917844826
 30
0.0
 11
12.18973996639381
 21
14.14879917844826
 31
0.0
  0
LINE
  5
33BF
330
1E
100
AcDbEntity
  8
7
100
AcDbLine
 10
13.46008117374289
 20
13.73803802359262
 30
0.0
 11
13.46008117374289
 21
13.68685692123041
 31
0.0
  0
LINE
  5
33C0
330
1E
100
AcDbEntity
  8
7
100
AcDbLine
 10
13.46008117374289
 20
13.68685692123041
 30
0.0
 11
13.48501555694499
 21
13.68685692123041
 31
0.0
  0
LINE
  5
33C1
330
1E
100
AcDbEntity
  8
7
100
AcDbLine
 10
12.18186595064578
 20
13.49394353540364
 30
0.0
 11
12.18186595064578
 21
13.54381230180784
 31
0.0
  0
LINE
  5
33C2
330
1E
100
AcDbEntity
  8
7
100
AcDbLine
 10
12.18186595064578
 20
13.54381230180784
 30
0.0
 11
12.15693156744368
 21
13.54381230180784
 31
0.0
  0
LINE
  5
33C3
330
1E
100
AcDbEntity
  8
7
100
AcDbLine
 10
12.15693156744368
 20
13.54381230180784
 30
0.0
 11
12.15693156744368
 21
13.68685692123041
 31
0.0
  0
LINE
  5
33C4
330
1E
100
AcDbEntity
  8
7
100
AcDbLine
 10
12.18973996639381
 20
13.3850196508892
 30
0.0
 11
13.45220715799486
 21
13.3850196508892
 31
0.0
  0
LINE
  5
33C5
330
1E
100
AcDbEntity
  8
7
100
AcDbLine
 10
13.45220715799486
 20
13.3850196508892
 30
0.0
 11
13.45220715799486
 21
12.72360232805456
 31
0.0
  0
LINE
  5
33C6
330
1E
100
AcDbEntity
  8
7
100
AcDbLine
 10
12.89183970392661
 20
12.72360232805456
 30
0.0
 11
12.74879508450404
 21
12.72360232805456
 31
0.0
  0
LINE
  5
33C7
330
1E
100
AcDbEntity
  8
7
100
AcDbLine
 10
12.74879508450404
 20
12.72360232805456
 30
0.0
 11
12.74879508450404
 21
12.6579855301543
 31
0.0
  0
LINE
  5
33C8
330
1E
100
AcDbEntity
  8
7
100
AcDbLine
 10
12.74879508450404
 20
12.6579855301543
 30
0.0
 11
12.25798143621008
 21
12.6579855301543
 31
0.0
  0
LINE
  5
33C9
330
1E
100
AcDbEntity
  8
7
100
AcDbLine
 10
12.25798143621008
 20
12.6579855301543
 30
0.0
 11
12.25798143621008
 21
12.72360232805456
 31
0.0
  0
LINE
  5
33CA
330
1E
100
AcDbEntity
  8
7
100
AcDbLine
 10
12.25798143621008
 20
12.72360232805456
 30
0.0
 11
12.18973996639381
 21
12.72360232805456
 31
0.0
  0
LINE
  5
33CB
330
1E
100
AcDbEntity
  8
7
100
AcDbLine
 10
13.96795518949092
 20
11.88895665876322
 30
0.0
 11
13.96795518949092
 21
15.93226374537739
 31
0.0
  0
LINE
  5
33CC
330
1E
100
AcDbEntity
  8
7
100
AcDbLine
 10
13.96795518949092
 20
15.93226374537739
 30
0.0
 11
11.67399193489774
 21
15.93226374537739
 31
0.0
  0
LINE
  5
33CD
330
1E
100
AcDbEntity
  8
7
100
AcDbLine
 10
11.67399193489774
 20
15.93226374537739
 30
0.0
 11
11.67399193489774
 21
11.88895665876322
 31
0.0
  0
LINE
  5
33CE
330
1E
100
AcDbEntity
  8
7
100
AcDbLine
 10
14.19236463830982
 20
16.09761807608605
 30
0.0
 11
14.18580295851979
 21
16.09236873225403
 31
0.0
  0
LINE
  5
33CF
330
1E
100
AcDbEntity
  8
7
100
AcDbLine
 10
14.18580295851979
 20
16.09236873225403
 30
0.0
 11
14.17267959893974
 21
16.08187004458999
 31
0.0
  0
LINE
  5
33D0
330
1E
100
AcDbEntity
  8
7
100
AcDbLine
 10
14.17267959893974
 20
16.08187004458999
 30
0.0
 11
14.15036988765365
 21
16.06612201309393
 31
0.0
  0
LINE
  5
33D1
330
1E
100
AcDbEntity
  8
7
100
AcDbLine
 10
14.15036988765365
 20
16.06612201309393
 30
0.0
 11
14.12281083253554
 21
16.04643697372385
 31
0.0
  0
LINE
  5
33D2
330
1E
100
AcDbEntity
  8
7
100
AcDbLine
 10
14.12281083253554
 20
16.04643697372385
 30
0.0
 11
14.0886900976274
 21
16.02150259052175
 31
0.0
  0
LINE
  5
33D3
330
1E
100
AcDbEntity
  8
7
100
AcDbLine
 10
14.0886900976274
 20
16.02150259052175
 30
0.0
 11
14.05063235484525
 21
15.99394353540364
 31
0.0
  0
LINE
  5
33D4
330
1E
100
AcDbEntity
  8
7
100
AcDbLine
 10
14.05063235484525
 20
15.99394353540364
 30
0.0
 11
14.00994994014709
 21
15.96375980836952
 31
0.0
  0
LINE
  5
33D5
330
1E
100
AcDbEntity
  8
7
100
AcDbLine
 10
14.00994994014709
 20
15.96375980836952
 30
0.0
 11
13.96795518949092
 21
15.93226374537739
 31
0.0
  0
LINE
  5
33D6
330
1E
100
AcDbEntity
  8
7
100
AcDbLine
 10
12.60706280103948
 20
12.67110888973435
 30
0.0
 11
12.60575046508147
 21
12.67504589760836
 31
0.0
  0
LINE
  5
33D7
330
1E
100
AcDbEntity
  8
7
100
AcDbLine
 10
12.60575046508147
 20
12.67504589760836
 30
0.0
 11
12.60575046508147
 21
12.68554458527241
 31
0.0
  0
LINE
  5
33D8
330
1E
100
AcDbEntity
  8
7
100
AcDbLine
 10
12.60575046508147
 20
12.69735560889445
 30
0.0
 11
12.60575046508147
 21
12.71572831230653
 31
0.0
  0
LINE
  5
33D9
330
1E
100
AcDbEntity
  8
7
100
AcDbLine
 10
12.60575046508147
 20
12.71572831230653
 30
0.0
 11
12.60575046508147
 21
12.7327886797606
 31
0.0
  0
LINE
  5
33DA
330
1E
100
AcDbEntity
  8
7
100
AcDbLine
 10
12.39971371967465
 20
12.7327886797606
 30
0.0
 11
12.40102605563265
 21
12.71572831230653
 31
0.0
  0
LINE
  5
33DB
330
1E
100
AcDbEntity
  8
7
100
AcDbLine
 10
12.40102605563265
 20
12.71572831230653
 30
0.0
 11
12.40102605563265
 21
12.69735560889445
 31
0.0
  0
LINE
  5
33DC
330
1E
100
AcDbEntity
  8
7
100
AcDbLine
 10
12.40102605563265
 20
12.68554458527241
 30
0.0
 11
12.40102605563265
 21
12.67504589760836
 31
0.0
  0
LINE
  5
33DD
330
1E
100
AcDbEntity
  8
7
100
AcDbLine
 10
12.40102605563265
 20
12.67504589760836
 30
0.0
 11
12.39971371967465
 21
12.67110888973435
 31
0.0
  0
LINE
  5
33DE
330
1E
100
AcDbEntity
  8
7
100
AcDbLine
 10
13.03619665930719
 20
12.69735560889445
 30
0.0
 11
13.03619665930719
 21
12.71572831230653
 31
0.0
  0
LINE
  5
33DF
330
1E
100
AcDbEntity
  8
7
100
AcDbLine
 10
13.03619665930719
 20
12.71572831230653
 30
0.0
 11
13.03488432334919
 21
12.7327886797606
 31
0.0
  0
LINE
  5
33E0
330
1E
100
AcDbEntity
  8
7
100
AcDbLine
 10
13.03488432334919
 20
12.7327886797606
 30
0.0
 11
13.03488432334919
 21
12.73803802359261
 31
0.0
  0
LINE
  5
33E1
330
1E
100
AcDbEntity
  8
7
100
AcDbLine
 10
13.01126227610509
 20
12.6592978661123
 30
0.0
 11
13.03488432334919
 21
12.67110888973435
 31
0.0
  0
LINE
  5
33E2
330
1E
100
AcDbEntity
  8
7
100
AcDbLine
 10
13.03488432334919
 20
12.67110888973435
 30
0.0
 11
13.03619665930719
 21
12.67504589760836
 31
0.0
  0
LINE
  5
33E3
330
1E
100
AcDbEntity
  8
7
100
AcDbLine
 10
13.03619665930719
 20
12.67504589760836
 30
0.0
 11
13.03619665930719
 21
12.68554458527241
 31
0.0
  0
LINE
  5
33E4
330
1E
100
AcDbEntity
  8
7
100
AcDbLine
 10
13.24092106875601
 20
12.76690941466873
 30
0.0
 11
13.24092106875601
 21
12.73803802359261
 31
0.0
  0
LINE
  5
33E5
330
1E
100
AcDbEntity
  8
7
100
AcDbLine
 10
13.24092106875601
 20
12.73803802359261
 30
0.0
 11
13.24092106875601
 21
12.7327886797606
 31
0.0
  0
LINE
  5
33E6
330
1E
100
AcDbEntity
  8
7
100
AcDbLine
 10
13.24092106875601
 20
12.7327886797606
 30
0.0
 11
13.24092106875601
 21
12.71572831230653
 31
0.0
  0
LINE
  5
33E7
330
1E
100
AcDbEntity
  8
7
100
AcDbLine
 10
13.24092106875601
 20
12.71572831230653
 30
0.0
 11
13.24092106875601
 21
12.69735560889445
 31
0.0
  0
LINE
  5
33E8
330
1E
100
AcDbEntity
  8
7
100
AcDbLine
 10
13.24092106875601
 20
12.69735560889445
 30
0.0
 11
13.24092106875601
 21
12.68554458527241
 31
0.0
  0
LINE
  5
33E9
330
1E
100
AcDbEntity
  8
7
100
AcDbLine
 10
13.24092106875601
 20
12.68554458527241
 30
0.0
 11
13.24092106875601
 21
12.67504589760836
 31
0.0
  0
LINE
  5
33EA
330
1E
100
AcDbEntity
  8
7
100
AcDbLine
 10
13.24092106875601
 20
12.67504589760836
 30
0.0
 11
13.24092106875601
 21
12.67110888973435
 31
0.0
  0
LINE
  5
33EB
330
1E
100
AcDbEntity
  8
7
100
AcDbLine
 10
13.24092106875601
 20
12.67110888973435
 30
0.0
 11
13.26585545195811
 21
12.6592978661123
 31
0.0
  0
LINE
  5
33EC
330
1E
100
AcDbEntity
  8
7
100
AcDbLine
 10
14.12281083253554
 20
11.77478343041676
 30
0.0
 11
14.15036988765365
 21
11.75378605508868
 31
0.0
  0
LINE
  5
33ED
330
1E
100
AcDbEntity
  8
7
100
AcDbLine
 10
14.15036988765365
 20
11.75378605508868
 30
0.0
 11
14.17267959893974
 21
11.73803802359261
 31
0.0
  0
LINE
  5
33EE
330
1E
100
AcDbEntity
  8
7
100
AcDbLine
 10
14.17267959893974
 20
11.73803802359261
 30
0.0
 11
14.18580295851979
 21
11.72753933592857
 31
0.0
  0
LINE
  5
33EF
330
1E
100
AcDbEntity
  8
7
100
AcDbLine
 10
14.18580295851979
 20
11.72753933592857
 30
0.0
 11
14.19236463830982
 21
11.72360232805456
 31
0.0
  0
LINE
  5
33F0
330
1E
100
AcDbEntity
  8
7
100
AcDbLine
 10
13.96795518949092
 20
11.88895665876322
 30
0.0
 11
14.00994994014709
 21
11.85746059577109
 31
0.0
  0
LINE
  5
33F1
330
1E
100
AcDbEntity
  8
7
100
AcDbLine
 10
14.00994994014709
 20
11.85746059577109
 30
0.0
 11
14.05063235484525
 21
11.82727686873697
 31
0.0
  0
LINE
  5
33F2
330
1E
100
AcDbEntity
  8
7
100
AcDbLine
 10
14.05063235484525
 20
11.82727686873697
 30
0.0
 11
14.0886900976274
 21
11.79971781361886
 31
0.0
  0
LINE
  5
33F3
330
1E
100
AcDbEntity
  8
7
100
AcDbLine
 10
14.0886900976274
 20
11.79971781361886
 30
0.0
 11
14.12281083253554
 21
11.77478343041676
 31
0.0
  0
LINE
  5
33F4
330
1E
100
AcDbEntity
  8
7
100
AcDbLine
 10
14.13330952019958
 20
11.66323487398632
 30
0.0
 11
14.12806017636756
 21
11.66979655377634
 31
0.0
  0
LINE
  5
33F5
330
1E
100
AcDbEntity
  8
7
100
AcDbLine
 10
14.12806017636756
 20
11.66979655377634
 30
0.0
 11
14.11756148870352
 21
11.6842322493144
 31
0.0
  0
LINE
  5
33F6
330
1E
100
AcDbEntity
  8
7
100
AcDbLine
 10
14.11756148870352
 20
11.6842322493144
 30
0.0
 11
14.10181345720745
 21
11.70522962464248
 31
0.0
  0
LINE
  5
33F7
330
1E
100
AcDbEntity
  8
7
100
AcDbLine
 10
14.10181345720745
 20
11.70522962464248
 30
0.0
 11
14.08081608187937
 21
11.7341010157186
 31
0.0
  0
LINE
  5
33F8
330
1E
100
AcDbEntity
  8
7
100
AcDbLine
 10
14.08081608187937
 20
11.7341010157186
 30
0.0
 11
14.05719403463528
 21
11.76690941466873
 31
0.0
  0
LINE
  5
33F9
330
1E
100
AcDbEntity
  8
7
100
AcDbLine
 10
14.05719403463528
 20
11.76690941466873
 30
0.0
 11
14.02963497951717
 21
11.80496715745088
 31
0.0
  0
LINE
  5
33FA
330
1E
100
AcDbEntity
  8
7
100
AcDbLine
 10
14.02963497951717
 20
11.80496715745088
 30
0.0
 11
13.99945125248304
 21
11.84564957214905
 31
0.0
  0
LINE
  5
33FB
330
1E
100
AcDbEntity
  8
7
100
AcDbLine
 10
13.99945125248304
 20
11.84564957214905
 30
0.0
 11
13.96795518949092
 21
11.88895665876322
 31
0.0
  0
LINE
  5
33FC
330
1E
100
AcDbEntity
  8
7
100
AcDbLine
 10
11.51913629185312
 20
11.77478343041676
 30
0.0
 11
11.55194469080326
 21
11.79971781361886
 31
0.0
  0
LINE
  5
33FD
330
1E
100
AcDbEntity
  8
7
100
AcDbLine
 10
11.55194469080326
 20
11.79971781361886
 30
0.0
 11
11.59000243358541
 21
11.82727686873697
 31
0.0
  0
LINE
  5
33FE
330
1E
100
AcDbEntity
  8
7
100
AcDbLine
 10
11.59000243358541
 20
11.82727686873697
 30
0.0
 11
11.63068484828357
 21
11.85746059577109
 31
0.0
  0
LINE
  5
33FF
330
1E
100
AcDbEntity
  8
7
100
AcDbLine
 10
11.63068484828357
 20
11.85746059577109
 30
0.0
 11
11.67399193489774
 21
11.88895665876322
 31
0.0
  0
LINE
  5
3400
330
1E
100
AcDbEntity
  8
7
100
AcDbLine
 10
11.67399193489774
 20
11.88895665876322
 30
0.0
 11
11.64249587190562
 21
11.84564957214905
 31
0.0
  0
LINE
  5
3401
330
1E
100
AcDbEntity
  8
7
100
AcDbLine
 10
11.64249587190562
 20
11.84564957214905
 30
0.0
 11
11.6123121448715
 21
11.80496715745088
 31
0.0
  0
LINE
  5
3402
330
1E
100
AcDbEntity
  8
7
100
AcDbLine
 10
11.6123121448715
 20
11.80496715745088
 30
0.0
 11
11.58475308975339
 21
11.76690941466873
 31
0.0
  0
LINE
  5
3403
330
1E
100
AcDbEntity
  8
7
100
AcDbLine
 10
11.58475308975339
 20
11.76690941466873
 30
0.0
 11
11.55981870655129
 21
11.7341010157186
 31
0.0
  0
LINE
  5
3404
330
1E
100
AcDbEntity
  8
7
100
AcDbLine
 10
11.55981870655129
 20
11.7341010157186
 30
0.0
 11
11.54013366718121
 21
11.70522962464248
 31
0.0
  0
LINE
  5
3405
330
1E
100
AcDbEntity
  8
7
100
AcDbLine
 10
11.54013366718121
 20
11.70522962464248
 30
0.0
 11
11.52438563568515
 21
11.6842322493144
 31
0.0
  0
LINE
  5
3406
330
1E
100
AcDbEntity
  8
7
100
AcDbLine
 10
11.52438563568515
 20
11.6842322493144
 30
0.0
 11
11.5138869480211
 21
11.66979655377634
 31
0.0
  0
LINE
  5
3407
330
1E
100
AcDbEntity
  8
7
100
AcDbLine
 10
11.5138869480211
 20
11.66979655377634
 30
0.0
 11
11.50863760418908
 21
11.66323487398632
 31
0.0
  0
LINE
  5
3408
330
1E
100
AcDbEntity
  8
7
100
AcDbLine
 10
11.44958248607885
 20
11.72360232805456
 30
0.0
 11
11.45483182991087
 21
11.72753933592857
 31
0.0
  0
LINE
  5
3409
330
1E
100
AcDbEntity
  8
7
100
AcDbLine
 10
11.45483182991087
 20
11.72753933592857
 30
0.0
 11
11.46926752544893
 21
11.73803802359261
 31
0.0
  0
LINE
  5
340A
330
1E
100
AcDbEntity
  8
7
100
AcDbLine
 10
11.46926752544893
 20
11.73803802359261
 30
0.0
 11
11.49026490077701
 21
11.75378605508868
 31
0.0
  0
LINE
  5
340B
330
1E
100
AcDbEntity
  8
7
100
AcDbLine
 10
11.49026490077701
 20
11.75378605508868
 30
0.0
 11
11.51913629185312
 21
11.77478343041676
 31
0.0
  0
LINE
  5
340C
330
1E
100
AcDbEntity
  8
7
100
AcDbLine
 10
14.13330952019958
 20
11.66323487398632
 30
0.0
 11
14.1621809112757
 21
11.67110888973435
 31
0.0
  0
LINE
  5
340D
330
1E
100
AcDbEntity
  8
7
100
AcDbLine
 10
14.1621809112757
 20
11.67110888973435
 30
0.0
 11
14.18449062256178
 21
11.69341860102044
 31
0.0
  0
LINE
  5
340E
330
1E
100
AcDbEntity
  8
7
100
AcDbLine
 10
14.18449062256178
 20
11.69341860102044
 30
0.0
 11
14.19236463830982
 21
11.72360232805456
 31
0.0
  0
LINE
  5
340F
330
1E
100
AcDbEntity
  8
7
100
AcDbLine
 10
14.17792894277176
 20
11.67767056952437
 30
0.0
 11
14.15824390340168
 21
11.66454720994432
 31
0.0
  0
LINE
  5
3410
330
1E
100
AcDbEntity
  8
7
100
AcDbLine
 10
14.15824390340168
 20
11.66454720994432
 30
0.0
 11
14.13593419211559
 21
11.66061020207031
 31
0.0
  0
LINE
  5
3411
330
1E
100
AcDbEntity
  8
7
100
AcDbLine
 10
14.19630164618383
 20
11.71966532018054
 30
0.0
 11
14.19105230235181
 21
11.69735560889445
 31
0.0
  0
LINE
  5
3412
330
1E
100
AcDbEntity
  8
7
100
AcDbLine
 10
14.19105230235181
 20
11.69735560889445
 30
0.0
 11
14.17792894277176
 21
11.67767056952437
 31
0.0
  0
LINE
  5
3413
330
1E
100
AcDbEntity
  8
7
100
AcDbLine
 10
11.44958248607885
 20
11.72360232805456
 30
0.0
 11
11.45745650182688
 21
11.69341860102044
 31
0.0
  0
LINE
  5
3414
330
1E
100
AcDbEntity
  8
7
100
AcDbLine
 10
11.45745650182688
 20
11.69341860102044
 30
0.0
 11
11.47845387715496
 21
11.67110888973435
 31
0.0
  0
LINE
  5
3415
330
1E
100
AcDbEntity
  8
7
100
AcDbLine
 10
11.47845387715496
 20
11.67110888973435
 30
0.0
 11
11.50863760418908
 21
11.66323487398632
 31
0.0
  0
LINE
  5
3416
330
1E
100
AcDbEntity
  8
7
100
AcDbLine
 10
11.50601293227307
 20
11.66061020207031
 30
0.0
 11
11.48239088502898
 21
11.66454720994432
 31
0.0
  0
LINE
  5
3417
330
1E
100
AcDbEntity
  8
7
100
AcDbLine
 10
11.48239088502898
 20
11.66454720994432
 30
0.0
 11
11.4627058456589
 21
11.67767056952437
 31
0.0
  0
LINE
  5
3418
330
1E
100
AcDbEntity
  8
7
100
AcDbLine
 10
11.4627058456589
 20
11.67767056952437
 30
0.0
 11
11.45089482203685
 21
11.69735560889445
 31
0.0
  0
LINE
  5
3419
330
1E
100
AcDbEntity
  8
7
100
AcDbLine
 10
11.45089482203685
 20
11.69735560889445
 30
0.0
 11
11.44564547820483
 21
11.71966532018054
 31
0.0
  0
LINE
  5
341A
330
1E
100
AcDbEntity
  8
7
100
AcDbLine
 10
11.50601293227307
 20
11.66061020207031
 30
0.0
 11
14.13593419211559
 21
11.66061020207031
 31
0.0
  0
LINE
  5
341B
330
1E
100
AcDbEntity
  8
7
100
AcDbLine
 10
14.13593419211559
 20
11.66061020207031
 30
0.0
 11
14.13330952019958
 21
11.66323487398632
 31
0.0
  0
LINE
  5
341C
330
1E
100
AcDbEntity
  8
7
100
AcDbLine
 10
14.13330952019958
 20
11.66323487398632
 30
0.0
 11
11.50863760418908
 21
11.66323487398632
 31
0.0
  0
LINE
  5
341D
330
1E
100
AcDbEntity
  8
7
100
AcDbLine
 10
11.50863760418908
 20
11.66323487398632
 30
0.0
 11
11.50601293227307
 21
11.66061020207031
 31
0.0
  0
LINE
  5
341E
330
1E
100
AcDbEntity
  8
7
100
AcDbLine
 10
13.14118353594761
 20
12.39158133067923
 30
0.0
 11
13.13987119998961
 21
12.39026899472122
 31
0.0
  0
LINE
  5
341F
330
1E
100
AcDbEntity
  8
7
100
AcDbLine
 10
13.13987119998961
 20
12.39026899472122
 30
0.0
 11
13.13987119998961
 21
12.33777555640102
 31
0.0
  0
LINE
  5
3420
330
1E
100
AcDbEntity
  8
7
100
AcDbLine
 10
13.13987119998961
 20
12.33777555640102
 30
0.0
 11
13.16611791914971
 21
12.33777555640102
 31
0.0
  0
LINE
  5
3421
330
1E
100
AcDbEntity
  8
7
100
AcDbLine
 10
13.16611791914971
 20
12.33777555640102
 30
0.0
 11
13.16611791914971
 21
12.34040022831702
 31
0.0
  0
LINE
  5
3422
330
1E
100
AcDbEntity
  8
7
100
AcDbLine
 10
13.14118353594761
 20
12.14748684249026
 30
0.0
 11
13.14118353594761
 21
12.19998028081046
 31
0.0
  0
LINE
  5
3423
330
1E
100
AcDbEntity
  8
7
100
AcDbLine
 10
13.14118353594761
 20
12.19998028081046
 30
0.0
 11
13.16611791914971
 21
12.19998028081046
 31
0.0
  0
LINE
  5
3424
330
1E
100
AcDbEntity
  8
7
100
AcDbLine
 10
12.49945125248305
 20
12.19998028081046
 30
0.0
 11
12.49945125248305
 21
12.14748684249026
 31
0.0
  0
LINE
  5
3425
330
1E
100
AcDbEntity
  8
7
100
AcDbLine
 10
12.49945125248305
 20
12.14748684249026
 30
0.0
 11
12.50207592439906
 21
12.14879917844826
 31
0.0
  0
LINE
  5
3426
330
1E
100
AcDbEntity
  8
7
100
AcDbLine
 10
12.49945125248305
 20
12.39158133067923
 30
0.0
 11
12.49945125248305
 21
12.34040022831702
 31
0.0
  0
LINE
  5
3427
330
1E
100
AcDbEntity
  8
7
100
AcDbLine
 10
12.49945125248305
 20
12.34040022831702
 30
0.0
 11
12.47451686928095
 21
12.34040022831702
 31
0.0
  0
LINE
  5
3428
330
1E
100
AcDbEntity
  8
7
100
AcDbLine
 10
13.54013366718121
 20
12.05693566138789
 30
0.0
 11
13.56638038634131
 21
12.05693566138789
 31
0.0
  0
LINE
  5
3429
330
1E
100
AcDbEntity
  8
7
100
AcDbLine
 10
13.56638038634131
 20
12.05693566138789
 30
0.0
 11
13.56638038634131
 21
12.14354983461624
 31
0.0
  0
LINE
  5
342A
330
1E
100
AcDbEntity
  8
7
100
AcDbLine
 10
13.56638038634131
 20
12.14354983461624
 30
0.0
 11
13.54407067505523
 21
12.14354983461624
 31
0.0
  0
LINE
  5
342B
330
1E
100
AcDbEntity
  8
7
100
AcDbLine
 10
13.54407067505523
 20
12.14354983461624
 30
0.0
 11
13.54407067505523
 21
12.11074143566611
 31
0.0
  0
LINE
  5
342C
330
1E
100
AcDbEntity
  8
7
100
AcDbLine
 10
13.54407067505523
 20
12.11074143566611
 30
0.0
 11
13.52832264355916
 21
12.14354983461624
 31
0.0
  0
LINE
  5
342D
330
1E
100
AcDbEntity
  8
7
100
AcDbLine
 10
13.52832264355916
 20
12.14354983461624
 30
0.0
 11
13.49945125248305
 21
12.14354983461624
 31
0.0
  0
LINE
  5
342E
330
1E
100
AcDbEntity
  8
7
100
AcDbLine
 10
13.49945125248305
 20
12.14354983461624
 30
0.0
 11
13.49945125248305
 21
12.08711938842201
 31
0.0
  0
LINE
  5
342F
330
1E
100
AcDbEntity
  8
7
100
AcDbLine
 10
13.41414941521271
 20
12.09236873225403
 30
0.0
 11
13.42333576691874
 21
12.09368106821204
 31
0.0
  0
LINE
  5
3430
330
1E
100
AcDbEntity
  8
7
100
AcDbLine
 10
13.42333576691874
 20
12.09368106821204
 30
0.0
 11
13.43120978266677
 21
12.09630574012805
 31
0.0
  0
LINE
  5
3431
330
1E
100
AcDbEntity
  8
7
100
AcDbLine
 10
13.44958248607885
 20
12.14223749865823
 30
0.0
 11
13.43645912649879
 21
12.16192253802831
 31
0.0
  0
LINE
  5
3432
330
1E
100
AcDbEntity
  8
7
100
AcDbLine
 10
13.43645912649879
 20
12.16192253802831
 30
0.0
 11
13.41414941521271
 21
12.16848421781834
 31
0.0
  0
LINE
  5
3433
330
1E
100
AcDbEntity
  8
7
100
AcDbLine
 10
13.73304705300798
 20
12.14354983461624
 30
0.0
 11
13.73304705300798
 21
12.05693566138789
 31
0.0
  0
LINE
  5
3434
330
1E
100
AcDbEntity
  8
7
100
AcDbLine
 10
13.73304705300798
 20
12.05693566138789
 30
0.0
 11
13.75666910025207
 21
12.05693566138789
 31
0.0
  0
LINE
  5
3435
330
1E
100
AcDbEntity
  8
7
100
AcDbLine
 10
13.64249587190562
 20
12.12780180312018
 30
0.0
 11
13.6385588640316
 21
12.13830049078421
 31
0.0
  0
LINE
  5
3436
330
1E
100
AcDbEntity
  8
7
100
AcDbLine
 10
13.6385588640316
 20
12.13830049078421
 30
0.0
 11
13.62806017636756
 21
12.14223749865823
 31
0.0
  0
LINE
  5
3437
330
1E
100
AcDbEntity
  8
7
100
AcDbLine
 10
13.57950374592137
 20
12.14354983461624
 30
0.0
 11
13.57950374592137
 21
12.05693566138789
 31
0.0
  0
LINE
  5
3438
330
1E
100
AcDbEntity
  8
7
100
AcDbLine
 10
13.57950374592137
 20
12.05693566138789
 30
0.0
 11
13.62806017636756
 21
12.05693566138789
 31
0.0
  0
LINE
  5
3439
330
1E
100
AcDbEntity
  8
7
100
AcDbLine
 10
13.68580295851979
 20
12.08055770863198
 30
0.0
 11
13.68580295851979
 21
12.14354983461624
 31
0.0
  0
LINE
  5
343A
330
1E
100
AcDbEntity
  8
7
100
AcDbLine
 10
13.68580295851979
 20
12.14354983461624
 30
0.0
 11
13.65693156744368
 21
12.14354983461624
 31
0.0
  0
LINE
  5
343B
330
1E
100
AcDbEntity
  8
7
100
AcDbLine
 10
13.6871152944778
 20
12.08055770863198
 30
0.0
 11
13.6884276304358
 21
12.07793303671597
 31
0.0
  0
LINE
  5
343C
330
1E
100
AcDbEntity
  8
7
100
AcDbLine
 10
13.6884276304358
 20
12.07793303671597
 30
0.0
 11
13.69105230235181
 21
12.07662070075797
 31
0.0
  0
LINE
  5
343D
330
1E
100
AcDbEntity
  8
7
100
AcDbLine
 10
13.69630164618383
 20
12.07662070075797
 30
0.0
 11
13.69892631809984
 21
12.07793303671597
 31
0.0
  0
LINE
  5
343E
330
1E
100
AcDbEntity
  8
7
100
AcDbLine
 10
13.69892631809984
 20
12.07793303671597
 30
0.0
 11
13.70023865405785
 21
12.08055770863198
 31
0.0
  0
LINE
  5
343F
330
1E
100
AcDbEntity
  8
7
100
AcDbLine
 10
13.71992369342793
 20
12.07268369288395
 30
0.0
 11
13.71992369342793
 21
12.14354983461624
 31
0.0
  0
LINE
  5
3440
330
1E
100
AcDbEntity
  8
7
100
AcDbLine
 10
13.71992369342793
 20
12.14354983461624
 30
0.0
 11
13.70155099001586
 21
12.14354983461624
 31
0.0
  0
LINE
  5
3441
330
1E
100
AcDbEntity
  8
7
100
AcDbLine
 10
13.70155099001586
 20
12.14354983461624
 30
0.0
 11
13.70155099001586
 21
12.08055770863198
 31
0.0
  0
LINE
  5
3442
330
1E
100
AcDbEntity
  8
7
100
AcDbLine
 10
13.70417566193186
 20
12.0582479973459
 30
0.0
 11
13.71467434959591
 21
12.06218500521991
 31
0.0
  0
LINE
  5
3443
330
1E
100
AcDbEntity
  8
7
100
AcDbLine
 10
13.71467434959591
 20
12.06218500521991
 30
0.0
 11
13.71861135746992
 21
12.07268369288395
 31
0.0
  0
LINE
  5
3444
330
1E
100
AcDbEntity
  8
7
100
AcDbLine
 10
13.65824390340168
 20
12.07268369288395
 30
0.0
 11
13.6621809112757
 21
12.06218500521991
 31
0.0
  0
LINE
  5
3445
330
1E
100
AcDbEntity
  8
7
100
AcDbLine
 10
13.6621809112757
 20
12.06218500521991
 30
0.0
 11
13.67267959893974
 21
12.0582479973459
 31
0.0
  0
LINE
  5
3446
330
1E
100
AcDbEntity
  8
7
100
AcDbLine
 10
13.81572421836231
 20
12.12517713120417
 30
0.0
 11
13.83540925773239
 21
12.12517713120417
 31
0.0
  0
LINE
  5
3447
330
1E
100
AcDbEntity
  8
7
100
AcDbLine
 10
13.83540925773239
 20
12.12517713120417
 30
0.0
 11
13.83540925773239
 21
12.14354983461624
 31
0.0
  0
LINE
  5
3448
330
1E
100
AcDbEntity
  8
7
100
AcDbLine
 10
13.7881651632442
 20
12.12517713120417
 30
0.0
 11
13.7881651632442
 21
12.05693566138789
 31
0.0
  0
LINE
  5
3449
330
1E
100
AcDbEntity
  8
7
100
AcDbLine
 10
13.7881651632442
 20
12.05693566138789
 30
0.0
 11
13.81572421836231
 21
12.05693566138789
 31
0.0
  0
LINE
  5
344A
330
1E
100
AcDbEntity
  8
7
100
AcDbLine
 10
12.64643287977963
 20
12.26953408658474
 30
0.0
 11
12.65168222361165
 21
12.2341010157186
 31
0.0
  0
LINE
  5
344B
330
1E
100
AcDbEntity
  8
7
100
AcDbLine
 10
12.65168222361165
 20
12.2341010157186
 30
0.0
 11
12.66874259106572
 21
12.20260495272647
 31
0.0
  0
LINE
  5
344C
330
1E
100
AcDbEntity
  8
7
100
AcDbLine
 10
12.66874259106572
 20
12.20260495272647
 30
0.0
 11
12.69367697426782
 21
12.17767056952437
 31
0.0
  0
LINE
  5
344D
330
1E
100
AcDbEntity
  8
7
100
AcDbLine
 10
12.69367697426782
 20
12.17767056952437
 30
0.0
 11
12.72517303725995
 21
12.1606102020703
 31
0.0
  0
LINE
  5
344E
330
1E
100
AcDbEntity
  8
7
100
AcDbLine
 10
12.72517303725995
 20
12.1606102020703
 30
0.0
 11
12.76060610812609
 21
12.15536085823829
 31
0.0
  0
LINE
  5
344F
330
1E
100
AcDbEntity
  8
7
100
AcDbLine
 10
12.76060610812609
 20
12.3837073149312
 30
0.0
 11
12.72517303725995
 21
12.37845797109918
 31
0.0
  0
LINE
  5
3450
330
1E
100
AcDbEntity
  8
7
100
AcDbLine
 10
12.72517303725995
 20
12.37845797109918
 30
0.0
 11
12.69367697426782
 21
12.36139760364511
 31
0.0
  0
LINE
  5
3451
330
1E
100
AcDbEntity
  8
7
100
AcDbLine
 10
12.69367697426782
 20
12.36139760364511
 30
0.0
 11
12.66874259106572
 21
12.33646322044301
 31
0.0
  0
LINE
  5
3452
330
1E
100
AcDbEntity
  8
7
100
AcDbLine
 10
12.66874259106572
 20
12.33646322044301
 30
0.0
 11
12.65168222361165
 21
12.30496715745088
 31
0.0
  0
LINE
  5
3453
330
1E
100
AcDbEntity
  8
7
100
AcDbLine
 10
12.65168222361165
 20
12.30496715745088
 30
0.0
 11
12.64643287977963
 21
12.26953408658474
 31
0.0
  0
LINE
  5
3454
330
1E
100
AcDbEntity
  8
7
100
AcDbLine
 10
12.76060610812609
 20
12.3837073149312
 30
0.0
 11
12.76060610812609
 21
12.3850196508892
 31
0.0
  0
LINE
  5
3455
330
1E
100
AcDbEntity
  8
7
100
AcDbLine
 10
12.76060610812609
 20
12.3850196508892
 30
0.0
 11
12.88134101626257
 21
12.3850196508892
 31
0.0
  0
LINE
  5
3456
330
1E
100
AcDbEntity
  8
7
100
AcDbLine
 10
12.94827015012084
 20
12.36139760364511
 30
0.0
 11
12.91677408712872
 21
12.37845797109918
 31
0.0
  0
LINE
  5
3457
330
1E
100
AcDbEntity
  8
7
100
AcDbLine
 10
12.91677408712872
 20
12.37845797109918
 30
0.0
 11
12.88134101626257
 21
12.3837073149312
 31
0.0
  0
LINE
  5
3458
330
1E
100
AcDbEntity
  8
7
100
AcDbLine
 10
12.88134101626257
 20
12.15536085823829
 30
0.0
 11
12.91677408712872
 21
12.1606102020703
 31
0.0
  0
LINE
  5
3459
330
1E
100
AcDbEntity
  8
7
100
AcDbLine
 10
12.91677408712872
 20
12.1606102020703
 30
0.0
 11
12.94827015012084
 21
12.17767056952437
 31
0.0
  0
LINE
  5
345A
330
1E
100
AcDbEntity
  8
7
100
AcDbLine
 10
12.94827015012084
 20
12.17767056952437
 30
0.0
 11
12.97320453332294
 21
12.20260495272647
 31
0.0
  0
LINE
  5
345B
330
1E
100
AcDbEntity
  8
7
100
AcDbLine
 10
12.97320453332294
 20
12.20260495272647
 30
0.0
 11
12.99026490077701
 21
12.2341010157186
 31
0.0
  0
LINE
  5
345C
330
1E
100
AcDbEntity
  8
7
100
AcDbLine
 10
12.99026490077701
 20
12.2341010157186
 30
0.0
 11
12.99551424460903
 21
12.26953408658474
 31
0.0
  0
LINE
  5
345D
330
1E
100
AcDbEntity
  8
7
100
AcDbLine
 10
12.99551424460903
 20
12.26953408658474
 30
0.0
 11
12.99026490077701
 21
12.30496715745088
 31
0.0
  0
LINE
  5
345E
330
1E
100
AcDbEntity
  8
7
100
AcDbLine
 10
12.99026490077701
 20
12.30496715745088
 30
0.0
 11
12.97320453332294
 21
12.33646322044301
 31
0.0
  0
LINE
  5
345F
330
1E
100
AcDbEntity
  8
7
100
AcDbLine
 10
12.97320453332294
 20
12.33646322044301
 30
0.0
 11
12.94827015012084
 21
12.36139760364511
 31
0.0
  0
LINE
  5
3460
330
1E
100
AcDbEntity
  8
7
100
AcDbLine
 10
13.39708904775864
 20
12.15011151440626
 30
0.0
 11
13.3865903600946
 21
12.15011151440626
 31
0.0
  0
LINE
  5
3461
330
1E
100
AcDbEntity
  8
7
100
AcDbLine
 10
13.3865903600946
 20
12.15011151440626
 30
0.0
 11
13.3865903600946
 21
12.11074143566611
 31
0.0
  0
LINE
  5
3462
330
1E
100
AcDbEntity
  8
7
100
AcDbLine
 10
13.40233839159066
 20
12.14486217057424
 30
0.0
 11
13.40102605563265
 21
12.14879917844826
 31
0.0
  0
LINE
  5
3463
330
1E
100
AcDbEntity
  8
7
100
AcDbLine
 10
13.40102605563265
 20
12.14879917844826
 30
0.0
 11
13.39708904775864
 21
12.15011151440626
 31
0.0
  0
LINE
  5
3464
330
1E
100
AcDbEntity
  8
7
100
AcDbLine
 10
13.39708904775864
 20
12.11074143566611
 30
0.0
 11
13.40102605563265
 21
12.11205377162411
 31
0.0
  0
LINE
  5
3465
330
1E
100
AcDbEntity
  8
7
100
AcDbLine
 10
13.40102605563265
 20
12.11205377162411
 30
0.0
 11
13.40233839159066
 21
12.11599077949813
 31
0.0
  0
LINE
  5
3466
330
1E
100
AcDbEntity
  8
7
100
AcDbLine
 10
13.61756148870352
 20
12.12124012333015
 30
0.0
 11
13.61624915274551
 21
12.12386479524616
 31
0.0
  0
LINE
  5
3467
330
1E
100
AcDbEntity
  8
7
100
AcDbLine
 10
13.61624915274551
 20
12.12386479524616
 30
0.0
 11
13.6136244808295
 21
12.12517713120417
 31
0.0
  0
LINE
  5
3468
330
1E
100
AcDbEntity
  8
7
100
AcDbLine
 10
13.6136244808295
 20
12.07662070075797
 30
0.0
 11
13.61624915274551
 21
12.07793303671597
 31
0.0
  0
LINE
  5
3469
330
1E
100
AcDbEntity
  8
7
100
AcDbLine
 10
13.61624915274551
 20
12.07793303671597
 30
0.0
 11
13.61756148870352
 21
12.08055770863198
 31
0.0
  0
LINE
  5
346A
330
1E
100
AcDbEntity
  8
7
100
AcDbLine
 10
12.88134101626257
 20
12.15667319419629
 30
0.0
 11
12.91677408712872
 21
12.16192253802831
 31
0.0
  0
LINE
  5
346B
330
1E
100
AcDbEntity
  8
7
100
AcDbLine
 10
12.91677408712872
 20
12.16192253802831
 30
0.0
 11
12.94827015012084
 21
12.17767056952437
 31
0.0
  0
LINE
  5
346C
330
1E
100
AcDbEntity
  8
7
100
AcDbLine
 10
12.94827015012084
 20
12.17767056952437
 30
0.0
 11
12.97320453332294
 21
12.20260495272647
 31
0.0
  0
LINE
  5
346D
330
1E
100
AcDbEntity
  8
7
100
AcDbLine
 10
12.97320453332294
 20
12.20260495272647
 30
0.0
 11
12.988952564819
 21
12.2341010157186
 31
0.0
  0
LINE
  5
346E
330
1E
100
AcDbEntity
  8
7
100
AcDbLine
 10
12.988952564819
 20
12.2341010157186
 30
0.0
 11
12.99420190865102
 21
12.26953408658474
 31
0.0
  0
LINE
  5
346F
330
1E
100
AcDbEntity
  8
7
100
AcDbLine
 10
12.99420190865102
 20
12.26953408658474
 30
0.0
 11
12.988952564819
 21
12.30496715745088
 31
0.0
  0
LINE
  5
3470
330
1E
100
AcDbEntity
  8
7
100
AcDbLine
 10
12.988952564819
 20
12.30496715745088
 30
0.0
 11
12.97320453332294
 21
12.33646322044301
 31
0.0
  0
LINE
  5
3471
330
1E
100
AcDbEntity
  8
7
100
AcDbLine
 10
12.97320453332294
 20
12.33646322044301
 30
0.0
 11
12.94827015012084
 21
12.36139760364511
 31
0.0
  0
LINE
  5
3472
330
1E
100
AcDbEntity
  8
7
100
AcDbLine
 10
12.94827015012084
 20
12.36139760364511
 30
0.0
 11
12.91677408712872
 21
12.37714563514117
 31
0.0
  0
LINE
  5
3473
330
1E
100
AcDbEntity
  8
7
100
AcDbLine
 10
12.91677408712872
 20
12.37714563514117
 30
0.0
 11
12.88134101626257
 21
12.38239497897319
 31
0.0
  0
LINE
  5
3474
330
1E
100
AcDbEntity
  8
7
100
AcDbLine
 10
12.76060610812609
 20
12.38239497897319
 30
0.0
 11
12.72517303725995
 21
12.37714563514117
 31
0.0
  0
LINE
  5
3475
330
1E
100
AcDbEntity
  8
7
100
AcDbLine
 10
12.72517303725995
 20
12.37714563514117
 30
0.0
 11
12.69367697426782
 21
12.36139760364511
 31
0.0
  0
LINE
  5
3476
330
1E
100
AcDbEntity
  8
7
100
AcDbLine
 10
12.69367697426782
 20
12.36139760364511
 30
0.0
 11
12.66874259106572
 21
12.33646322044301
 31
0.0
  0
LINE
  5
3477
330
1E
100
AcDbEntity
  8
7
100
AcDbLine
 10
12.66874259106572
 20
12.33646322044301
 30
0.0
 11
12.65299455956966
 21
12.30496715745088
 31
0.0
  0
LINE
  5
3478
330
1E
100
AcDbEntity
  8
7
100
AcDbLine
 10
12.65299455956966
 20
12.30496715745088
 30
0.0
 11
12.64774521573764
 21
12.26953408658474
 31
0.0
  0
LINE
  5
3479
330
1E
100
AcDbEntity
  8
7
100
AcDbLine
 10
12.64774521573764
 20
12.26953408658474
 30
0.0
 11
12.65299455956966
 21
12.2341010157186
 31
0.0
  0
LINE
  5
347A
330
1E
100
AcDbEntity
  8
7
100
AcDbLine
 10
12.65299455956966
 20
12.2341010157186
 30
0.0
 11
12.66874259106572
 21
12.20260495272647
 31
0.0
  0
LINE
  5
347B
330
1E
100
AcDbEntity
  8
7
100
AcDbLine
 10
12.66874259106572
 20
12.20260495272647
 30
0.0
 11
12.69367697426782
 21
12.17767056952437
 31
0.0
  0
LINE
  5
347C
330
1E
100
AcDbEntity
  8
7
100
AcDbLine
 10
12.69367697426782
 20
12.17767056952437
 30
0.0
 11
12.72517303725995
 21
12.16192253802831
 31
0.0
  0
LINE
  5
347D
330
1E
100
AcDbEntity
  8
7
100
AcDbLine
 10
12.72517303725995
 20
12.16192253802831
 30
0.0
 11
12.76060610812609
 21
12.15667319419629
 31
0.0
  0
LINE
  5
347E
330
1E
100
AcDbEntity
  8
7
100
AcDbLine
 10
12.88134101626257
 20
12.19473093697844
 30
0.0
 11
12.91021240733869
 21
12.19998028081046
 31
0.0
  0
LINE
  5
347F
330
1E
100
AcDbEntity
  8
7
100
AcDbLine
 10
12.91021240733869
 20
12.19998028081046
 30
0.0
 11
12.93383445458278
 21
12.21704064826453
 31
0.0
  0
LINE
  5
3480
330
1E
100
AcDbEntity
  8
7
100
AcDbLine
 10
12.93383445458278
 20
12.21704064826453
 30
0.0
 11
12.95089482203685
 21
12.24066269550863
 31
0.0
  0
LINE
  5
3481
330
1E
100
AcDbEntity
  8
7
100
AcDbLine
 10
12.95089482203685
 20
12.24066269550863
 30
0.0
 11
12.95614416586887
 21
12.26953408658474
 31
0.0
  0
LINE
  5
3482
330
1E
100
AcDbEntity
  8
7
100
AcDbLine
 10
12.95614416586887
 20
12.26953408658474
 30
0.0
 11
12.95089482203685
 21
12.29840547766086
 31
0.0
  0
LINE
  5
3483
330
1E
100
AcDbEntity
  8
7
100
AcDbLine
 10
12.95089482203685
 20
12.29840547766086
 30
0.0
 11
12.93383445458278
 21
12.32202752490495
 31
0.0
  0
LINE
  5
3484
330
1E
100
AcDbEntity
  8
7
100
AcDbLine
 10
12.93383445458278
 20
12.32202752490495
 30
0.0
 11
12.91021240733869
 21
12.33908789235902
 31
0.0
  0
LINE
  5
3485
330
1E
100
AcDbEntity
  8
7
100
AcDbLine
 10
12.91021240733869
 20
12.33908789235902
 30
0.0
 11
12.88134101626257
 21
12.34433723619104
 31
0.0
  0
LINE
  5
3486
330
1E
100
AcDbEntity
  8
7
100
AcDbLine
 10
12.76060610812609
 20
12.34433723619104
 30
0.0
 11
12.73173471704998
 21
12.33908789235902
 31
0.0
  0
LINE
  5
3487
330
1E
100
AcDbEntity
  8
7
100
AcDbLine
 10
12.73173471704998
 20
12.33908789235902
 30
0.0
 11
12.70811266980588
 21
12.32202752490495
 31
0.0
  0
LINE
  5
3488
330
1E
100
AcDbEntity
  8
7
100
AcDbLine
 10
12.70811266980588
 20
12.32202752490495
 30
0.0
 11
12.69105230235181
 21
12.29840547766086
 31
0.0
  0
LINE
  5
3489
330
1E
100
AcDbEntity
  8
7
100
AcDbLine
 10
12.69105230235181
 20
12.29840547766086
 30
0.0
 11
12.68580295851979
 21
12.26953408658474
 31
0.0
  0
LINE
  5
348A
330
1E
100
AcDbEntity
  8
7
100
AcDbLine
 10
12.68580295851979
 20
12.26953408658474
 30
0.0
 11
12.69105230235181
 21
12.24066269550863
 31
0.0
  0
LINE
  5
348B
330
1E
100
AcDbEntity
  8
7
100
AcDbLine
 10
12.69105230235181
 20
12.24066269550863
 30
0.0
 11
12.70811266980588
 21
12.21704064826453
 31
0.0
  0
LINE
  5
348C
330
1E
100
AcDbEntity
  8
7
100
AcDbLine
 10
12.70811266980588
 20
12.21704064826453
 30
0.0
 11
12.73173471704998
 21
12.19998028081046
 31
0.0
  0
LINE
  5
348D
330
1E
100
AcDbEntity
  8
7
100
AcDbLine
 10
12.73173471704998
 20
12.19998028081046
 30
0.0
 11
12.76060610812609
 21
12.19473093697844
 31
0.0
  0
ENDSEC
  0
SECTION
  2
OBJECTS
  0
DICTIONARY
  5
C
330
0
100
AcDbDictionary
  3
ACAD_GROUP
350
D
  3
ACAD_MLINESTYLE
350
16
  3
ACAD_PLOTSETTINGS
350
18
  3
ACAD_LAYOUT
350
19
1001
ACAD
1000
TREAT_AS_HARD
1070
     0
  0
DICTIONARY
  5
46B0
330
1E
100
AcDbDictionary
  3
ACAD_LAYOUTSELFREF
350
46B1
  0
DICTIONARY
  5
46AE
330
1A
100
AcDbDictionary
  3
ACAD_LAYOUTSELFREF
350
46AF
  0
DICTIONARY
  5
D
102
{ACAD_REACTORS
330
C
102
}
330
C
100
AcDbDictionary
1001
ACAD
1000
TREAT_AS_HARD
1070
     0
  0
DICTIONARY
  5
16
102
{ACAD_REACTORS
330
C
102
}
330
C
100
AcDbDictionary
  3
STANDARD
350
17
1001
ACAD
1000
TREAT_AS_HARD
1070
     0
  0
DICTIONARY
  5
18
102
{ACAD_REACTORS
330
C
102
}
330
C
100
AcDbDictionary
1001
ACAD
1000
TREAT_AS_HARD
1070
     0
  0
DICTIONARY
  5
19
102
{ACAD_REACTORS
330
C
102
}
330
C
100
AcDbDictionary
1001
ACAD
1000
TREAT_AS_HARD
1070
     0
  0
XRECORD
  5
46B1
102
{ACAD_REACTORS
330
46B0
102
}
330
46B0
100
AcDbXrecord
340
1E
  0
XRECORD
  5
46AF
102
{ACAD_REACTORS
330
46AE
102
}
330
46AE
100
AcDbXrecord
340
1A
  0
MLINESTYLE
  5
17
102
{ACAD_REACTORS
330
16
102
}
330
16
100
AcDbMlineStyle
  2
STANDARD
 70
     0
  3

 62
   256
 51
90.0
 52
90.0
 71
     2
 49
0.5
 62
   256
  6
BYLAYER
 49
-0.5
 62
   256
  6
BYLAYER
  0
ENDSEC
  0
EOF
