  0
SECTION
  2
HEADER
  9
$ACADVER
  1
AC1012
  9
$DWGCODEPAGE
  3
ANSI_1252
  9
$INSBASE
 10
0.0
 20
0.0
 30
0.0
  9
$EXTMIN
 10
-3.508858267716536
 20
1.201771653543306
 30
0.0
  9
$EXTMAX
 10
0.6978346456692908
 20
4.254921259842518
 30
0.0
  9
$LIMMIN
 10
0.0
 20
0.0
  9
$LIMMAX
 10
12.0
 20
9.0
  9
$ORTHOMODE
 70
     0
  9
$REGENMODE
 70
     1
  9
$FILLMODE
 70
     1
  9
$QTEXTMODE
 70
     0
  9
$MIRRTEXT
 70
     1
  9
$DRAGMODE
 70
     2
  9
$LTSCALE
 40
1.0
  9
$OSMODE
 70
    37
  9
$ATTMODE
 70
     1
  9
$TEXTSIZE
 40
0.2
  9
$TRACEWID
 40
0.05
  9
$TEXTSTYLE
  7
STANDARD
  9
$CLAYER
  8
0
  9
$CELTYPE
  6
CONTINUOUS
  9
$CECOLOR
 62
   256
  9
$CELTSCALE
 40
1.0
  9
$DELOBJ
 70
     1
  9
$DISPSILH
 70
     0
  9
$DIMSCALE
 40
1.0
  9
$DIMASZ
 40
0.18
  9
$DIMEXO
 40
0.0625
  9
$DIMDLI
 40
0.38
  9
$DIMRND
 40
0.0
  9
$DIMDLE
 40
0.0
  9
$DIMEXE
 40
0.18
  9
$DIMTP
 40
0.0
  9
$DIMTM
 40
0.0
  9
$DIMTXT
 40
0.18
  9
$DIMCEN
 40
0.09
  9
$DIMTSZ
 40
0.0
  9
$DIMTOL
 70
     0
  9
$DIMLIM
 70
     0
  9
$DIMTIH
 70
     1
  9
$DIMTOH
 70
     1
  9
$DIMSE1
 70
     0
  9
$DIMSE2
 70
     0
  9
$DIMTAD
 70
     0
  9
$DIMZIN
 70
     0
  9
$DIMBLK
  1

  9
$DIMASO
 70
     1
  9
$DIMSHO
 70
     1
  9
$DIMPOST
  1

  9
$DIMAPOST
  1

  9
$DIMALT
 70
     0
  9
$DIMALTD
 70
     2
  9
$DIMALTF
 40
25.4
  9
$DIMLFAC
 40
1.0
  9
$DIMTOFL
 70
     0
  9
$DIMTVP
 40
0.0
  9
$DIMTIX
 70
     0
  9
$DIMSOXD
 70
     0
  9
$DIMSAH
 70
     0
  9
$DIMBLK1
  1

  9
$DIMBLK2
  1

  9
$DIMSTYLE
  2
STANDARD
  9
$DIMCLRD
 70
     0
  9
$DIMCLRE
 70
     0
  9
$DIMCLRT
 70
     0
  9
$DIMTFAC
 40
1.0
  9
$DIMGAP
 40
0.09
  9
$DIMJUST
 70
     0
  9
$DIMSD1
 70
     0
  9
$DIMSD2
 70
     0
  9
$DIMTOLJ
 70
     1
  9
$DIMTZIN
 70
     0
  9
$DIMALTZ
 70
     0
  9
$DIMALTTZ
 70
     0
  9
$DIMFIT
 70
     5
  9
$DIMUPT
 70
     0
  9
$DIMUNIT
 70
     2
  9
$DIMDEC
 70
     4
  9
$DIMTDEC
 70
     4
  9
$DIMALTU
 70
     2
  9
$DIMALTTD
 70
     2
  9
$DIMTXSTY
  7
STANDARD
  9
$DIMAUNIT
 70
     0
  9
$LUNITS
 70
     2
  9
$LUPREC
 70
     4
  9
$SKETCHINC
 40
0.1
  9
$FILLETRAD
 40
0.0
  9
$AUNITS
 70
     0
  9
$AUPREC
 70
     0
  9
$MENU
  1
acad
  9
$ELEVATION
 40
0.0
  9
$PELEVATION
 40
0.0
  9
$THICKNESS
 40
0.0
  9
$LIMCHECK
 70
     0
  9
$BLIPMODE
 70
     0
  9
$CHAMFERA
 40
0.0
  9
$CHAMFERB
 40
0.0
  9
$CHAMFERC
 40
0.0
  9
$CHAMFERD
 40
0.0
  9
$SKPOLY
 70
     0
  9
$TDCREATE
 40
2452360.560821758
  9
$TDUPDATE
 40
2452380.469027361
  9
$TDINDWG
 40
0.0029615278
  9
$TDUSRTIMER
 40
0.0029615278
  9
$USRTIMER
 70
     1
  9
$ANGBASE
 50
0.0
  9
$ANGDIR
 70
     0
  9
$PDMODE
 70
     0
  9
$PDSIZE
 40
0.0
  9
$PLINEWID
 40
0.0
  9
$COORDS
 70
     1
  9
$SPLFRAME
 70
     0
  9
$SPLINETYPE
 70
     6
  9
$SPLINESEGS
 70
     8
  9
$ATTDIA
 70
     0
  9
$ATTREQ
 70
     1
  9
$HANDLING
 70
  4097
  9
$HANDSEED
  5
7D3
  9
$SURFTAB1
 70
     6
  9
$SURFTAB2
 70
     6
  9
$SURFTYPE
 70
     6
  9
$SURFU
 70
     6
  9
$SURFV
 70
     6
  9
$UCSNAME
  2

  9
$UCSORG
 10
0.0
 20
0.0
 30
0.0
  9
$UCSXDIR
 10
1.0
 20
0.0
 30
0.0
  9
$UCSYDIR
 10
0.0
 20
1.0
 30
0.0
  9
$PUCSNAME
  2

  9
$PUCSORG
 10
0.0
 20
0.0
 30
0.0
  9
$PUCSXDIR
 10
1.0
 20
0.0
 30
0.0
  9
$PUCSYDIR
 10
0.0
 20
1.0
 30
0.0
  9
$USERI1
 70
     0
  9
$USERI2
 70
     0
  9
$USERI3
 70
     0
  9
$USERI4
 70
     0
  9
$USERI5
 70
     0
  9
$USERR1
 40
0.0
  9
$USERR2
 40
0.0
  9
$USERR3
 40
0.0
  9
$USERR4
 40
0.0
  9
$USERR5
 40
0.0
  9
$WORLDVIEW
 70
     1
  9
$SHADEDGE
 70
     3
  9
$SHADEDIF
 70
    70
  9
$TILEMODE
 70
     1
  9
$MAXACTVP
 70
    16
  9
$PINSBASE
 10
0.0
 20
0.0
 30
0.0
  9
$PLIMCHECK
 70
     0
  9
$PEXTMIN
 10
1.000000000000000E+20
 20
1.000000000000000E+20
 30
1.000000000000000E+20
  9
$PEXTMAX
 10
-1.000000000000000E+20
 20
-1.000000000000000E+20
 30
-1.000000000000000E+20
  9
$PLIMMIN
 10
0.0
 20
0.0
  9
$PLIMMAX
 10
12.0
 20
9.0
  9
$UNITMODE
 70
     0
  9
$VISRETAIN
 70
     0
  9
$PLINEGEN
 70
     0
  9
$PSLTSCALE
 70
     1
  9
$TREEDEPTH
 70
  3020
  9
$PICKSTYLE
 70
     1
  9
$CMLSTYLE
  2
STANDARD
  9
$CMLJUST
 70
     0
  9
$CMLSCALE
 40
1.0
  9
$SAVEIMAGES
 70
     1
  0
ENDSEC
  0
SECTION
  2
CLASSES
  0
CLASS
  1
ACDBDICTIONARYWDFLT
  2
AcDbDictionaryWithDefault
  3
AutoCAD 2000
 90
    32768
280
     0
281
     0
  0
CLASS
  1
ACDBPLACEHOLDER
  2
AcDbPlaceHolder
  3
AutoCAD 2000
 90
    32768
280
     0
281
     0
  0
CLASS
  1
LAYOUT
  2
AcDbLayout
  3
AutoCAD 2000
 90
    32768
280
     0
281
     0
  0
CLASS
  1
RASTERVARIABLES
  2
AcDbRasterVariables
  3
ISM
 90
    32768
280
     0
281
     0
  0
CLASS
  1
LONG_TRANSACTION
  2
AcDbLongTransaction
  3
AutoCAD 2000
 90
    32768
280
     0
281
     0
  0
CLASS
  1
LWPOLYLINE
  2
AcDbPolyline
  3
AutoCAD 2000
 90
    32768
280
     0
281
     1
  0
CLASS
  1
HATCH
  2
AcDbHatch
  3
AutoCAD 2000
 90
    32768
280
     0
281
     1
  0
CLASS
  1
XRECORD
  2
AcDbXrecord
  3
AutoCAD 2000
 90
    32768
280
     0
281
     0
  0
CLASS
  1
LONG_TRANSACTION
  2
AcDbLongTransaction
  3
AutoCAD 2000
 90
    32768
280
     0
281
     0
  0
CLASS
  1
LWPOLYLINE
  2
AcDbPolyline
  3
AutoCAD 2000
 90
    32768
280
     0
281
     1
  0
CLASS
  1
HATCH
  2
AcDbHatch
  3
AutoCAD 2000
 90
    32768
280
     0
281
     1
  0
CLASS
  1
XRECORD
  2
AcDbXrecord
  3
AutoCAD 2000
 90
    32768
280
     0
281
     0
  0
ENDSEC
  0
SECTION
  2
TABLES
  0
TABLE
  2
VPORT
  5
8
330
0
100
AcDbSymbolTable
 70
     4
  0
VPORT
  5
7D0
330
8
100
AcDbSymbolTableRecord
100
AcDbViewportTableRecord
  2
*ACTIVE
 70
     0
 10
0.0
 20
0.0
 11
1.0
 21
1.0
 12
-1.389278696487949
 22
2.728454608736157
 13
0.0
 23
0.0
 14
1.0
 24
1.0
 15
0.0
 25
0.0
 16
0.0
 26
0.0
 36
1.0
 17
0.0
 27
0.0
 37
0.0
 40
3.077249771917445
 41
1.517766497461928
 42
50.0
 43
0.0
 44
0.0
 50
0.0
 51
0.0
 71
     0
 72
   100
 73
     1
 74
     1
 75
     0
 76
     0
 77
     0
 78
     0
  0
ENDTAB
  0
TABLE
  2
LTYPE
  5
5
330
0
100
AcDbSymbolTable
 70
    25
  0
LTYPE
  5
13
330
5
100
AcDbSymbolTableRecord
100
AcDbLinetypeTableRecord
  2
BYBLOCK
 70
     0
  3

 72
    65
 73
     0
 40
0.0
  0
LTYPE
  5
14
330
5
100
AcDbSymbolTableRecord
100
AcDbLinetypeTableRecord
  2
BYLAYER
 70
     0
  3

 72
    65
 73
     0
 40
0.0
  0
LTYPE
  5
15
330
5
100
AcDbSymbolTableRecord
100
AcDbLinetypeTableRecord
  2
CONTINUOUS
 70
     0
  3
Solid line
 72
    65
 73
     0
 40
0.0
  0
ENDTAB
  0
TABLE
  2
LAYER
  5
2
330
0
100
AcDbSymbolTable
 70
   256
  0
LAYER
  5
10
330
2
100
AcDbSymbolTableRecord
100
AcDbLayerTableRecord
  2
0
 70
     0
 62
     7
  6
CONTINUOUS
  0
LAYER
  5
40
330
2
100
AcDbSymbolTableRecord
100
AcDbLayerTableRecord
  2
7
 70
     0
 62
     7
  6
CONTINUOUS
  0
ENDTAB
  0
TABLE
  2
STYLE
  5
3
330
0
100
AcDbSymbolTable
 70
     1
  0
STYLE
  5
11
330
3
100
AcDbSymbolTableRecord
100
AcDbTextStyleTableRecord
  2
STANDARD
 70
     0
 40
0.0
 41
1.0
 50
0.0
 71
     0
 42
0.2
  3
monotxt
  4

  0
ENDTAB
  0
TABLE
  2
VIEW
  5
6
330
0
100
AcDbSymbolTable
 70
     0
  0
ENDTAB
  0
TABLE
  2
UCS
  5
7
330
0
100
AcDbSymbolTable
 70
     0
  0
ENDTAB
  0
TABLE
  2
APPID
  5
9
330
0
100
AcDbSymbolTable
 70
     1
  0
APPID
  5
12
330
9
100
AcDbSymbolTableRecord
100
AcDbRegAppTableRecord
  2
ACAD
 70
     0
  0
ENDTAB
  0
TABLE
  2
DIMSTYLE
  5
A
330
0
100
AcDbSymbolTable
 70
     1
  0
DIMSTYLE
105
549
330
A
100
AcDbSymbolTableRecord
100
AcDbDimStyleTableRecord
  2
STANDARD
 70
     0
  3

  4

  5

  6

  7

 40
1.0
 41
0.18
 42
0.0625
 43
0.38
 44
0.18
 45
0.0
 46
0.0
 47
0.0
 48
0.0
140
0.18
141
0.09
142
0.0
143
25.4
144
1.0
145
0.0
146
1.0
147
0.09
 71
     0
 72
     0
 73
     1
 74
     1
 75
     0
 76
     0
 77
     0
 78
     0
170
     0
171
     2
172
     0
173
     0
174
     0
175
     0
176
     0
177
     0
178
     0
270
     2
271
     4
272
     4
273
     2
274
     2
340
11
275
     0
280
     0
281
     0
282
     0
283
     1
284
     0
285
     0
286
     0
287
     3
288
     0
  0
ENDTAB
  0
TABLE
  2
BLOCK_RECORD
  5
1
330
0
100
AcDbSymbolTable
 70
     0
  0
BLOCK_RECORD
  5
1E
102
{ACAD_XDICTIONARY
360
767
102
}
330
1
100
AcDbSymbolTableRecord
100
AcDbBlockTableRecord
  2
*MODEL_SPACE
  0
BLOCK_RECORD
  5
1A
102
{ACAD_XDICTIONARY
360
769
102
}
330
1
100
AcDbSymbolTableRecord
100
AcDbBlockTableRecord
  2
*PAPER_SPACE
  0
ENDTAB
  0
ENDSEC
  0
SECTION
  2
BLOCKS
  0
BLOCK
  5
13B
330
1E
100
AcDbEntity
  8
0
100
AcDbBlockBegin
  2
*MODEL_SPACE
 70
     0
 10
0.0
 20
0.0
 30
0.0
  3
*MODEL_SPACE
  1

  0
ENDBLK
  5
13C
330
1E
100
AcDbEntity
  8
0
100
AcDbBlockEnd
  0
BLOCK
  5
139
330
1A
100
AcDbEntity
 67
     1
  8
0
100
AcDbBlockBegin
  2
*PAPER_SPACE
 70
     0
 10
0.0
 20
0.0
 30
0.0
  3
*PAPER_SPACE
  1

  0
ENDBLK
  5
13A
330
1A
100
AcDbEntity
 67
     1
  8
0
100
AcDbBlockEnd
  0
ENDSEC
  0
SECTION
  2
ENTITIES
  0
LINE
  5
13E
330
1E
100
AcDbEntity
  8
7
100
AcDbLine
 10
-0.7647637795275597
 20
3.814960629921259
 30
0.0
 11
-0.6742125984251972
 21
3.814960629921259
 31
0.0
  0
LINE
  5
13F
330
1E
100
AcDbEntity
  8
7
100
AcDbLine
 10
-0.6742125984251972
 20
4.088582677165353
 30
0.0
 11
-1.049212598425197
 21
4.088582677165353
 31
0.0
  0
LINE
  5
140
330
1E
100
AcDbEntity
  8
7
100
AcDbLine
 10
0.106299212598425
 20
4.088582677165353
 30
0.0
 11
-0.1446850393700796
 21
4.088582677165353
 31
0.0
  0
LINE
  5
141
330
1E
100
AcDbEntity
  8
7
100
AcDbLine
 10
-0.1446850393700796
 20
4.222440944881888
 30
0.0
 11
-0.1446850393700796
 21
3.680118110236219
 31
0.0
  0
LINE
  5
142
330
1E
100
AcDbEntity
  8
7
100
AcDbLine
 10
-0.6692913385826778
 20
4.254921259842518
 30
0.0
 11
-0.6742125984251972
 21
4.25
 31
0.0
  0
LINE
  5
143
330
1E
100
AcDbEntity
  8
7
100
AcDbLine
 10
-0.6742125984251972
 20
3.713582677165354
 30
0.0
 11
-0.6742125984251972
 21
4.188976377952755
 31
0.0
  0
LINE
  5
144
330
1E
100
AcDbEntity
  8
7
100
AcDbLine
 10
-0.6692913385826778
 20
3.713582677165354
 30
0.0
 11
-0.6742125984251972
 21
3.713582677165354
 31
0.0
  0
LINE
  5
145
330
1E
100
AcDbEntity
  8
7
100
AcDbLine
 10
-0.6742125984251972
 20
4.188976377952755
 30
0.0
 11
-0.6692913385826778
 21
4.189960629921259
 31
0.0
  0
LINE
  5
146
330
1E
100
AcDbEntity
  8
7
100
AcDbLine
 10
-0.6742125984251972
 20
3.653543307086614
 30
0.0
 11
-0.6692913385826778
 21
3.648622047244094
 31
0.0
  0
LINE
  5
147
330
1E
100
AcDbEntity
  8
7
100
AcDbLine
 10
-0.6742125984251972
 20
4.25
 30
0.0
 11
-0.6742125984251972
 21
4.188976377952755
 31
0.0
  0
LINE
  5
148
330
1E
100
AcDbEntity
  8
7
100
AcDbLine
 10
-0.6742125984251972
 20
3.713582677165354
 30
0.0
 11
-0.6742125984251972
 21
3.653543307086614
 31
0.0
  0
LINE
  5
149
330
1E
100
AcDbEntity
  8
7
100
AcDbLine
 10
-0.5757874015748037
 20
3.711614173228345
 30
0.0
 11
-0.6692913385826778
 21
3.713582677165354
 31
0.0
  0
LINE
  5
14A
330
1E
100
AcDbEntity
  8
7
100
AcDbLine
 10
-0.5757874015748037
 20
3.653543307086614
 30
0.0
 11
-0.5757874015748037
 21
3.711614173228345
 31
0.0
  0
LINE
  5
155
330
1E
100
AcDbEntity
  8
7
100
AcDbLine
 10
-0.5757874015748037
 20
4.190944881889762
 30
0.0
 11
-0.5757874015748037
 21
4.25
 31
0.0
  0
LINE
  5
156
330
1E
100
AcDbEntity
  8
7
100
AcDbLine
 10
-0.6692913385826778
 20
4.189960629921259
 30
0.0
 11
-0.5757874015748037
 21
4.190944881889762
 31
0.0
  0
LINE
  5
157
330
1E
100
AcDbEntity
  8
7
100
AcDbLine
 10
-0.6692913385826778
 20
3.648622047244094
 30
0.0
 11
-0.5757874015748037
 21
3.648622047244094
 31
0.0
  0
LINE
  5
158
330
1E
100
AcDbEntity
  8
7
100
AcDbLine
 10
-0.5757874015748037
 20
4.254921259842518
 30
0.0
 11
-0.1692913385826777
 21
4.248031496062992
 31
0.0
  0
LINE
  5
159
330
1E
100
AcDbEntity
  8
7
100
AcDbLine
 10
-0.6692913385826778
 20
4.254921259842518
 30
0.0
 11
-0.5757874015748037
 21
4.254921259842518
 31
0.0
  0
LINE
  5
15A
330
1E
100
AcDbEntity
  8
7
100
AcDbLine
 10
-0.5757874015748037
 20
4.25
 30
0.0
 11
-0.5757874015748037
 21
4.254921259842518
 31
0.0
  0
LINE
  5
161
330
1E
100
AcDbEntity
  8
7
100
AcDbLine
 10
-0.1692913385826777
 20
4.248031496062992
 30
0.0
 11
0.6879921259842519
 21
4.232283464566929
 31
0.0
  0
LINE
  5
162
330
1E
100
AcDbEntity
  8
7
100
AcDbLine
 10
0.6978346456692908
 20
4.222440944881888
 30
0.0
 11
0.6879921259842519
 21
4.232283464566929
 31
0.0
  0
LINE
  5
163
330
1E
100
AcDbEntity
  8
7
100
AcDbLine
 10
0.6978346456692908
 20
4.080708661417322
 30
0.0
 11
0.106299212598425
 21
4.070866141732283
 31
0.0
  0
LINE
  5
164
330
1E
100
AcDbEntity
  8
7
100
AcDbLine
 10
0.6978346456692908
 20
4.222440944881888
 30
0.0
 11
0.6978346456692908
 21
4.080708661417322
 31
0.0
  0
LINE
  5
165
330
1E
100
AcDbEntity
  8
7
100
AcDbLine
 10
0.6978346456692908
 20
4.062007874015748
 30
0.0
 11
0.6978346456692908
 21
4.080708661417322
 31
0.0
  0
LINE
  5
16B
330
1E
100
AcDbEntity
  8
7
100
AcDbLine
 10
0.6978346456692908
 20
3.856299212598424
 30
0.0
 11
0.6978346456692908
 21
4.046259842519685
 31
0.0
  0
LINE
  5
171
330
1E
100
AcDbEntity
  8
7
100
AcDbLine
 10
0.6978346456692908
 20
3.821850393700787
 30
0.0
 11
0.6978346456692908
 21
3.841535433070866
 31
0.0
  0
LINE
  5
172
330
1E
100
AcDbEntity
  8
7
100
AcDbLine
 10
0.6978346456692908
 20
3.821850393700787
 30
0.0
 11
0.6978346456692908
 21
3.680118110236219
 31
0.0
  0
LINE
  5
179
330
1E
100
AcDbEntity
  8
7
100
AcDbLine
 10
0.6978346456692908
 20
3.821850393700787
 30
0.0
 11
0.106299212598425
 21
3.83267716535433
 31
0.0
  0
LINE
  5
17A
330
1E
100
AcDbEntity
  8
7
100
AcDbLine
 10
-0.1545275590551185
 20
3.660433070866141
 30
0.0
 11
-0.1584645669291342
 21
3.658464566929133
 31
0.0
  0
LINE
  5
180
330
1E
100
AcDbEntity
  8
7
100
AcDbLine
 10
-0.5757874015748037
 20
3.648622047244094
 30
0.0
 11
-0.5757874015748037
 21
3.653543307086614
 31
0.0
  0
LINE
  5
181
330
1E
100
AcDbEntity
  8
7
100
AcDbLine
 10
-0.1692913385826777
 20
3.655511811023621
 30
0.0
 11
-0.5757874015748037
 21
3.648622047244094
 31
0.0
  0
LINE
  5
197
330
1E
100
AcDbEntity
  8
7
100
AcDbLine
 10
-1.049212598425197
 20
3.830708661417322
 30
0.0
 11
-1.009842519685039
 21
3.816929133858267
 31
0.0
  0
LINE
  5
198
330
1E
100
AcDbEntity
  8
7
100
AcDbLine
 10
-0.7795275590551185
 20
3.816929133858267
 30
0.0
 11
-1.009842519685039
 21
3.816929133858267
 31
0.0
  0
LINE
  5
1B1
330
1E
100
AcDbEntity
  8
7
100
AcDbLine
 10
0.0669291338582676
 20
3.816929133858267
 30
0.0
 11
-0.1446850393700796
 21
3.816929133858267
 31
0.0
  0
LINE
  5
1B2
330
1E
100
AcDbEntity
  8
7
100
AcDbLine
 10
0.0669291338582676
 20
3.816929133858267
 30
0.0
 11
0.106299212598425
 21
3.830708661417322
 31
0.0
  0
LINE
  5
1DA
330
1E
100
AcDbEntity
  8
7
100
AcDbLine
 10
-0.3730314960629926
 20
1.759842519685039
 30
0.0
 11
-0.377952755905512
 21
1.759842519685039
 31
0.0
  0
LINE
  5
1DB
330
1E
100
AcDbEntity
  8
7
100
AcDbLine
 10
-0.377952755905512
 20
1.384842519685039
 30
0.0
 11
-0.3730314960629926
 21
1.384842519685039
 31
0.0
  0
LINE
  5
1E1
330
1E
100
AcDbEntity
  8
7
100
AcDbLine
 10
-0.8533464566929138
 20
1.436023622047243
 30
0.0
 11
-0.6742125984251972
 21
1.436023622047243
 31
0.0
  0
LINE
  5
1E2
330
1E
100
AcDbEntity
  8
7
100
AcDbLine
 10
-1.049212598425197
 20
1.436023622047243
 30
0.0
 11
-0.9045275590551185
 21
1.436023622047243
 31
0.0
  0
LINE
  5
1E3
330
1E
100
AcDbEntity
  8
7
100
AcDbLine
 10
-0.9045275590551185
 20
1.709645669291338
 30
0.0
 11
-1.049212598425197
 21
1.709645669291338
 31
0.0
  0
LINE
  5
1E4
330
1E
100
AcDbEntity
  8
7
100
AcDbLine
 10
-0.6742125984251972
 20
1.709645669291338
 30
0.0
 11
-0.8533464566929138
 21
1.709645669291338
 31
0.0
  0
LINE
  5
1E5
330
1E
100
AcDbEntity
  8
7
100
AcDbLine
 10
-0.2647637795275592
 20
1.709645669291338
 30
0.0
 11
-0.2795275590551185
 21
1.709645669291338
 31
0.0
  0
LINE
  5
1E6
330
1E
100
AcDbEntity
  8
7
100
AcDbLine
 10
-0.090551181102363
 20
1.709645669291338
 30
0.0
 11
-0.2352362204724416
 21
1.709645669291338
 31
0.0
  0
LINE
  5
1E7
330
1E
100
AcDbEntity
  8
7
100
AcDbLine
 10
0.106299212598425
 20
1.709645669291338
 30
0.0
 11
-0.0383858267716537
 21
1.709645669291338
 31
0.0
  0
LINE
  5
1E8
330
1E
100
AcDbEntity
  8
7
100
AcDbLine
 10
-0.0383858267716537
 20
1.436023622047243
 30
0.0
 11
0.106299212598425
 21
1.436023622047243
 31
0.0
  0
LINE
  5
1E9
330
1E
100
AcDbEntity
  8
7
100
AcDbLine
 10
-0.2352362204724416
 20
1.436023622047243
 30
0.0
 11
-0.090551181102363
 21
1.436023622047243
 31
0.0
  0
LINE
  5
1EA
330
1E
100
AcDbEntity
  8
7
100
AcDbLine
 10
-0.2795275590551185
 20
1.436023622047243
 30
0.0
 11
-0.2647637795275592
 21
1.436023622047243
 31
0.0
  0
LINE
  5
1EB
330
1E
100
AcDbEntity
  8
7
100
AcDbLine
 10
-0.9045275590551185
 20
1.74015748031496
 30
0.0
 11
-0.9045275590551185
 21
1.709645669291338
 31
0.0
  0
LINE
  5
1EC
330
1E
100
AcDbEntity
  8
7
100
AcDbLine
 10
-0.8533464566929138
 20
1.709645669291338
 30
0.0
 11
-0.8533464566929138
 21
1.74015748031496
 31
0.0
  0
LINE
  5
1ED
330
1E
100
AcDbEntity
  8
7
100
AcDbLine
 10
-0.090551181102363
 20
1.74015748031496
 30
0.0
 11
-0.090551181102363
 21
1.709645669291338
 31
0.0
  0
LINE
  5
1EE
330
1E
100
AcDbEntity
  8
7
100
AcDbLine
 10
-0.0383858267716537
 20
1.709645669291338
 30
0.0
 11
-0.0383858267716537
 21
1.74015748031496
 31
0.0
  0
LINE
  5
1EF
330
1E
100
AcDbEntity
  8
7
100
AcDbLine
 10
-0.8533464566929138
 20
1.404527559055118
 30
0.0
 11
-0.8533464566929138
 21
1.436023622047243
 31
0.0
  0
LINE
  5
1F0
330
1E
100
AcDbEntity
  8
7
100
AcDbLine
 10
-0.9045275590551185
 20
1.436023622047243
 30
0.0
 11
-0.9045275590551185
 21
1.404527559055118
 31
0.0
  0
LINE
  5
1F1
330
1E
100
AcDbEntity
  8
7
100
AcDbLine
 10
-0.0383858267716537
 20
1.404527559055118
 30
0.0
 11
-0.0383858267716537
 21
1.436023622047243
 31
0.0
  0
LINE
  5
1F2
330
1E
100
AcDbEntity
  8
7
100
AcDbLine
 10
-0.090551181102363
 20
1.436023622047243
 30
0.0
 11
-0.090551181102363
 21
1.404527559055118
 31
0.0
  0
LINE
  5
1F3
330
1E
100
AcDbEntity
  8
7
100
AcDbLine
 10
-0.4143700787401579
 20
1.322834645669291
 30
0.0
 11
-0.377952755905512
 21
1.322834645669291
 31
0.0
  0
LINE
  5
1F4
330
1E
100
AcDbEntity
  8
7
100
AcDbLine
 10
-0.377952755905512
 20
1.822834645669291
 30
0.0
 11
-0.4143700787401579
 21
1.822834645669291
 31
0.0
  0
LINE
  5
1FB
330
1E
100
AcDbEntity
  8
7
100
AcDbLine
 10
-0.1446850393700796
 20
1.912401574803149
 30
0.0
 11
-0.1446850393700796
 21
1.851377952755905
 31
0.0
  0
LINE
  5
1FC
330
1E
100
AcDbEntity
  8
7
100
AcDbLine
 10
-0.6692913385826778
 20
1.912401574803149
 30
0.0
 11
-0.6742125984251972
 21
1.907480314960629
 31
0.0
  0
LINE
  5
202
330
1E
100
AcDbEntity
  8
7
100
AcDbLine
 10
-0.6742125984251972
 20
1.851377952755905
 30
0.0
 11
-0.6692913385826778
 21
1.851377952755905
 31
0.0
  0
LINE
  5
203
330
1E
100
AcDbEntity
  8
7
100
AcDbLine
 10
-0.6742125984251972
 20
1.201771653543306
 30
0.0
 11
-0.6742125984251972
 21
1.851377952755905
 31
0.0
  0
LINE
  5
204
330
1E
100
AcDbEntity
  8
7
100
AcDbLine
 10
-0.6742125984251972
 20
1.907480314960629
 30
0.0
 11
-0.6742125984251972
 21
1.851377952755905
 31
0.0
  0
LINE
  5
205
330
1E
100
AcDbEntity
  8
7
100
AcDbLine
 10
-0.5757874015748037
 20
1.912401574803149
 30
0.0
 11
-0.6692913385826778
 21
1.912401574803149
 31
0.0
  0
LINE
  5
211
330
1E
100
AcDbEntity
  8
7
100
AcDbLine
 10
-0.5757874015748037
 20
1.3001968503937
 30
0.0
 11
-0.5757874015748037
 21
1.201771653543306
 31
0.0
  0
LINE
  5
212
330
1E
100
AcDbEntity
  8
7
100
AcDbLine
 10
-0.5757874015748037
 20
1.804133858267716
 30
0.0
 11
-0.5757874015748037
 21
1.3001968503937
 31
0.0
  0
LINE
  5
213
330
1E
100
AcDbEntity
  8
7
100
AcDbLine
 10
-0.5757874015748037
 20
1.804133858267716
 30
0.0
 11
-0.5757874015748037
 21
1.852362204724408
 31
0.0
  0
LINE
  5
214
330
1E
100
AcDbEntity
  8
7
100
AcDbLine
 10
-0.6692913385826778
 20
1.851377952755905
 30
0.0
 11
-0.5757874015748037
 21
1.852362204724408
 31
0.0
  0
LINE
  5
215
330
1E
100
AcDbEntity
  8
7
100
AcDbLine
 10
-0.5757874015748037
 20
1.804133858267716
 30
0.0
 11
-0.5364173228346463
 21
1.845472440944881
 31
0.0
  0
LINE
  5
228
330
1E
100
AcDbEntity
  8
7
100
AcDbLine
 10
-0.4143700787401579
 20
1.297244094488188
 30
0.0
 11
-0.4143700787401579
 21
1.336614173228345
 31
0.0
  0
LINE
  5
229
330
1E
100
AcDbEntity
  8
7
100
AcDbLine
 10
-0.4143700787401579
 20
1.808070866141731
 30
0.0
 11
-0.4143700787401579
 21
1.825787401574803
 31
0.0
  0
LINE
  5
22A
330
1E
100
AcDbEntity
  8
7
100
AcDbLine
 10
-0.4143700787401579
 20
1.808070866141731
 30
0.0
 11
-0.5708661417322838
 21
1.81003937007874
 31
0.0
  0
LINE
  5
22B
330
1E
100
AcDbEntity
  8
7
100
AcDbLine
 10
-0.4143700787401579
 20
1.336614173228345
 30
0.0
 11
-0.5757874015748037
 21
1.334645669291338
 31
0.0
  0
LINE
  5
231
330
1E
100
AcDbEntity
  8
7
100
AcDbLine
 10
0.6732283464566926
 20
1.201771653543306
 30
0.0
 11
0.6879921259842519
 21
1.216535433070866
 31
0.0
  0
LINE
  5
232
330
1E
100
AcDbEntity
  8
7
100
AcDbLine
 10
-0.5757874015748037
 20
1.907480314960629
 30
0.0
 11
-0.5757874015748037
 21
1.912401574803149
 31
0.0
  0
LINE
  5
23E
330
1E
100
AcDbEntity
  8
7
100
AcDbLine
 10
-0.1692913385826777
 20
1.851377952755905
 30
0.0
 11
-0.5364173228346463
 21
1.845472440944881
 31
0.0
  0
LINE
  5
23F
330
1E
100
AcDbEntity
  8
7
100
AcDbLine
 10
-0.5757874015748037
 20
1.852362204724408
 30
0.0
 11
-0.5757874015748037
 21
1.907480314960629
 31
0.0
  0
LINE
  5
247
330
1E
100
AcDbEntity
  8
7
100
AcDbLine
 10
-0.2854330708661425
 20
1.459645669291338
 30
0.0
 11
-0.2795275590551185
 21
1.459645669291338
 31
0.0
  0
LINE
  5
25A
330
1E
100
AcDbEntity
  8
7
100
AcDbLine
 10
-1.009842519685039
 20
1.547244094488188
 30
0.0
 11
-0.7795275590551185
 21
1.547244094488188
 31
0.0
  0
LINE
  5
25B
330
1E
100
AcDbEntity
  8
7
100
AcDbLine
 10
-1.009842519685039
 20
1.547244094488188
 30
0.0
 11
-1.049212598425197
 21
1.507874015748031
 31
0.0
  0
LINE
  5
25C
330
1E
100
AcDbEntity
  8
7
100
AcDbLine
 10
-1.049212598425197
 20
1.636811023622046
 30
0.0
 11
-1.009842519685039
 21
1.597440944881889
 31
0.0
  0
LINE
  5
25D
330
1E
100
AcDbEntity
  8
7
100
AcDbLine
 10
-0.7795275590551185
 20
1.597440944881889
 30
0.0
 11
-1.009842519685039
 21
1.597440944881889
 31
0.0
  0
LINE
  5
265
330
1E
100
AcDbEntity
  8
7
100
AcDbLine
 10
-0.7657480314960634
 20
1.586614173228345
 30
0.0
 11
-0.7647637795275597
 21
1.58267716535433
 31
0.0
  0
LINE
  5
2B7
330
1E
100
AcDbEntity
  8
7
100
AcDbLine
 10
-0.2647637795275592
 20
1.70275590551181
 30
0.0
 11
-0.2352362204724416
 21
1.70275590551181
 31
0.0
  0
LINE
  5
2C2
330
1E
100
AcDbEntity
  8
7
100
AcDbLine
 10
-0.2352362204724416
 20
1.441929133858267
 30
0.0
 11
-0.2647637795275592
 21
1.441929133858267
 31
0.0
  0
LINE
  5
2C8
330
1E
100
AcDbEntity
  8
7
100
AcDbLine
 10
0.106299212598425
 20
1.507874015748031
 30
0.0
 11
0.0669291338582676
 21
1.547244094488188
 31
0.0
  0
LINE
  5
2C9
330
1E
100
AcDbEntity
  8
7
100
AcDbLine
 10
-0.1633858267716537
 20
1.547244094488188
 30
0.0
 11
0.0669291338582676
 21
1.547244094488188
 31
0.0
  0
LINE
  5
2DF
330
1E
100
AcDbEntity
  8
7
100
AcDbLine
 10
0.0669291338582676
 20
1.597440944881889
 30
0.0
 11
-0.1633858267716537
 21
1.597440944881889
 31
0.0
  0
LINE
  5
2E0
330
1E
100
AcDbEntity
  8
7
100
AcDbLine
 10
0.0669291338582676
 20
1.597440944881889
 30
0.0
 11
0.106299212598425
 21
1.636811023622046
 31
0.0
  0
LINE
  5
319
330
1E
100
AcDbEntity
  8
7
100
AcDbLine
 10
-0.0383858267716537
 20
1.404527559055118
 30
0.0
 11
-0.0433070866141741
 21
1.404527559055118
 31
0.0
  0
LINE
  5
321
330
1E
100
AcDbEntity
  8
7
100
AcDbLine
 10
-0.2942913385826777
 20
1.572834645669291
 30
0.0
 11
-0.3690944881889768
 21
1.572834645669291
 31
0.0
  0
LINE
  5
338
330
1E
100
AcDbEntity
  8
7
100
AcDbLine
 10
-0.2942913385826777
 20
1.357283464566929
 30
0.0
 11
-0.3690944881889768
 21
1.357283464566929
 31
0.0
  0
LINE
  5
373
330
1E
100
AcDbEntity
  8
7
100
AcDbLine
 10
-3.231299212598425
 20
1.74015748031496
 30
0.0
 11
-3.231299212598425
 21
1.706692913385826
 31
0.0
  0
LINE
  5
374
330
1E
100
AcDbEntity
  8
7
100
AcDbLine
 10
-3.179133858267716
 20
1.706692913385826
 30
0.0
 11
-3.179133858267716
 21
1.74015748031496
 31
0.0
  0
LINE
  5
375
330
1E
100
AcDbEntity
  8
7
100
AcDbLine
 10
-3.179133858267716
 20
1.404527559055118
 30
0.0
 11
-3.179133858267716
 21
1.437992125984251
 31
0.0
  0
LINE
  5
376
330
1E
100
AcDbEntity
  8
7
100
AcDbLine
 10
-3.231299212598425
 20
1.437992125984251
 30
0.0
 11
-3.231299212598425
 21
1.404527559055118
 31
0.0
  0
LINE
  5
37C
330
1E
100
AcDbEntity
  8
7
100
AcDbLine
 10
-3.508858267716536
 20
1.851377952755905
 30
0.0
 11
-3.503937007874016
 21
1.851377952755905
 31
0.0
  0
LINE
  5
37D
330
1E
100
AcDbEntity
  8
7
100
AcDbLine
 10
-3.508858267716536
 20
1.201771653543306
 30
0.0
 11
-3.508858267716536
 21
1.851377952755905
 31
0.0
  0
LINE
  5
37E
330
1E
100
AcDbEntity
  8
7
100
AcDbLine
 10
-2.96751968503937
 20
1.912401574803149
 30
0.0
 11
-2.96751968503937
 21
1.907480314960629
 31
0.0
  0
LINE
  5
37F
330
1E
100
AcDbEntity
  8
7
100
AcDbLine
 10
-3.442913385826772
 20
1.912401574803149
 30
0.0
 11
-2.96751968503937
 21
1.912401574803149
 31
0.0
  0
LINE
  5
380
330
1E
100
AcDbEntity
  8
7
100
AcDbLine
 10
-3.442913385826772
 20
1.907480314960629
 30
0.0
 11
-3.442913385826772
 21
1.912401574803149
 31
0.0
  0
LINE
  5
386
330
1E
100
AcDbEntity
  8
7
100
AcDbLine
 10
-2.90255905511811
 20
1.851377952755905
 30
0.0
 11
-2.90255905511811
 21
1.201771653543306
 31
0.0
  0
LINE
  5
387
330
1E
100
AcDbEntity
  8
7
100
AcDbLine
 10
-2.90748031496063
 20
1.851377952755905
 30
0.0
 11
-2.90255905511811
 21
1.851377952755905
 31
0.0
  0
LINE
  5
3A9
330
1E
100
AcDbEntity
  8
7
100
AcDbLine
 10
-3.095472440944882
 20
1.281496062992125
 30
0.0
 11
-3.095472440944882
 21
1.378937007874015
 31
0.0
  0
LINE
  5
3AF
330
1E
100
AcDbEntity
  8
7
100
AcDbLine
 10
-3.3001968503937
 20
1.266732283464567
 30
0.0
 11
-3.110236220472441
 21
1.266732283464567
 31
0.0
  0
LINE
  5
3B5
330
1E
100
AcDbEntity
  8
7
100
AcDbLine
 10
-3.31496062992126
 20
1.378937007874015
 30
0.0
 11
-3.31496062992126
 21
1.281496062992125
 31
0.0
  0
LINE
  5
3B6
330
1E
100
AcDbEntity
  8
7
100
AcDbLine
 10
-3.442913385826772
 20
1.851377952755905
 30
0.0
 11
-3.442913385826772
 21
1.907480314960629
 31
0.0
  0
LINE
  5
3B7
330
1E
100
AcDbEntity
  8
7
100
AcDbLine
 10
-3.503937007874016
 20
1.851377952755905
 30
0.0
 11
-3.442913385826772
 21
1.851377952755905
 31
0.0
  0
LINE
  5
3B8
330
1E
100
AcDbEntity
  8
7
100
AcDbLine
 10
-3.503937007874016
 20
1.201771653543306
 30
0.0
 11
-2.90748031496063
 21
1.201771653543306
 31
0.0
  0
LINE
  5
3B9
330
1E
100
AcDbEntity
  8
7
100
AcDbLine
 10
-2.96751968503937
 20
1.851377952755905
 30
0.0
 11
-2.90748031496063
 21
1.851377952755905
 31
0.0
  0
LINE
  5
3BA
330
1E
100
AcDbEntity
  8
7
100
AcDbLine
 10
-2.96751968503937
 20
1.907480314960629
 30
0.0
 11
-2.96751968503937
 21
1.851377952755905
 31
0.0
  0
LINE
  5
3BB
330
1E
100
AcDbEntity
  8
7
100
AcDbLine
 10
-2.965551181102362
 20
1.912401574803149
 30
0.0
 11
-2.96751968503937
 21
1.912401574803149
 31
0.0
  0
LINE
  5
3BC
330
1E
100
AcDbEntity
  8
7
100
AcDbLine
 10
-2.90748031496063
 20
1.912401574803149
 30
0.0
 11
-2.965551181102362
 21
1.912401574803149
 31
0.0
  0
LINE
  5
3BD
330
1E
100
AcDbEntity
  8
7
100
AcDbLine
 10
-3.44488188976378
 20
1.912401574803149
 30
0.0
 11
-3.503937007874016
 21
1.912401574803149
 31
0.0
  0
LINE
  5
3BE
330
1E
100
AcDbEntity
  8
7
100
AcDbLine
 10
-3.442913385826772
 20
1.912401574803149
 30
0.0
 11
-3.44488188976378
 21
1.912401574803149
 31
0.0
  0
LINE
  5
3BF
330
1E
100
AcDbEntity
  8
7
100
AcDbLine
 10
-2.90255905511811
 20
1.851377952755905
 30
0.0
 11
-2.90255905511811
 21
1.852362204724408
 31
0.0
  0
LINE
  5
3C8
330
1E
100
AcDbEntity
  8
7
100
AcDbLine
 10
-3.205708661417323
 20
1.792322834645668
 30
0.0
 11
-3.249015748031496
 21
1.788385826771653
 31
0.0
  0
LINE
  5
3F1
330
1E
100
AcDbEntity
  8
7
100
AcDbLine
 10
-3.508858267716536
 20
1.852362204724408
 30
0.0
 11
-3.508858267716536
 21
1.907480314960629
 31
0.0
  0
LINE
  5
3F2
330
1E
100
AcDbEntity
  8
7
100
AcDbLine
 10
-3.508858267716536
 20
1.851377952755905
 30
0.0
 11
-3.508858267716536
 21
1.852362204724408
 31
0.0
  0
LINE
  5
3F3
330
1E
100
AcDbEntity
  8
7
100
AcDbLine
 10
-3.503937007874016
 20
1.912401574803149
 30
0.0
 11
-3.508858267716536
 21
1.907480314960629
 31
0.0
  0
LINE
  5
3F4
330
1E
100
AcDbEntity
  8
7
100
AcDbLine
 10
-2.90255905511811
 20
1.907480314960629
 30
0.0
 11
-2.90748031496063
 21
1.912401574803149
 31
0.0
  0
LINE
  5
3F5
330
1E
100
AcDbEntity
  8
7
100
AcDbLine
 10
-2.90255905511811
 20
1.852362204724408
 30
0.0
 11
-2.90255905511811
 21
1.907480314960629
 31
0.0
  0
LINE
  5
428
330
1E
100
AcDbEntity
  8
7
100
AcDbLine
 10
-3.249015748031496
 20
1.601377952755905
 30
0.0
 11
-3.256889763779527
 21
1.58267716535433
 31
0.0
  0
LINE
  5
429
330
1E
100
AcDbEntity
  8
7
100
AcDbLine
 10
-3.278543307086614
 20
1.37007874015748
 30
0.0
 11
-3.289370078740157
 21
1.391732283464567
 31
0.0
  0
LINE
  5
42A
330
1E
100
AcDbEntity
  8
7
100
AcDbLine
 10
-3.256889763779527
 20
1.379921259842519
 30
0.0
 11
-3.278543307086614
 21
1.37007874015748
 31
0.0
  0
LINE
  5
42B
330
1E
100
AcDbEntity
  8
7
100
AcDbLine
 10
-3.243110236220473
 20
1.360236220472441
 30
0.0
 11
-3.256889763779527
 21
1.379921259842519
 31
0.0
  0
LINE
  5
42C
330
1E
100
AcDbEntity
  8
7
100
AcDbLine
 10
-3.22244094488189
 20
1.374015748031495
 30
0.0
 11
-3.243110236220473
 21
1.360236220472441
 31
0.0
  0
LINE
  5
42D
330
1E
100
AcDbEntity
  8
7
100
AcDbLine
 10
-3.205708661417323
 20
1.357283464566929
 30
0.0
 11
-3.22244094488189
 21
1.374015748031495
 31
0.0
  0
LINE
  5
42E
330
1E
100
AcDbEntity
  8
7
100
AcDbLine
 10
-3.187992125984252
 20
1.374015748031495
 30
0.0
 11
-3.205708661417323
 21
1.357283464566929
 31
0.0
  0
LINE
  5
42F
330
1E
100
AcDbEntity
  8
7
100
AcDbLine
 10
-3.168307086614173
 20
1.360236220472441
 30
0.0
 11
-3.187992125984252
 21
1.374015748031495
 31
0.0
  0
LINE
  5
430
330
1E
100
AcDbEntity
  8
7
100
AcDbLine
 10
-3.153543307086614
 20
1.379921259842519
 30
0.0
 11
-3.168307086614173
 21
1.360236220472441
 31
0.0
  0
LINE
  5
431
330
1E
100
AcDbEntity
  8
7
100
AcDbLine
 10
-3.131889763779527
 20
1.37007874015748
 30
0.0
 11
-3.153543307086614
 21
1.379921259842519
 31
0.0
  0
LINE
  5
432
330
1E
100
AcDbEntity
  8
7
100
AcDbLine
 10
-3.121062992125984
 20
1.391732283464567
 30
0.0
 11
-3.131889763779527
 21
1.37007874015748
 31
0.0
  0
LINE
  5
433
330
1E
100
AcDbEntity
  8
7
100
AcDbLine
 10
-3.09744094488189
 20
1.385826771653543
 30
0.0
 11
-3.121062992125984
 21
1.391732283464567
 31
0.0
  0
LINE
  5
434
330
1E
100
AcDbEntity
  8
7
100
AcDbLine
 10
-3.091535433070866
 20
1.409448818897637
 30
0.0
 11
-3.09744094488189
 21
1.385826771653543
 31
0.0
  0
LINE
  5
435
330
1E
100
AcDbEntity
  8
7
100
AcDbLine
 10
-3.066929133858268
 20
1.40748031496063
 30
0.0
 11
-3.091535433070866
 21
1.409448818897637
 31
0.0
  0
LINE
  5
436
330
1E
100
AcDbEntity
  8
7
100
AcDbLine
 10
-3.063976377952756
 20
1.431102362204724
 30
0.0
 11
-3.066929133858268
 21
1.40748031496063
 31
0.0
  0
LINE
  5
437
330
1E
100
AcDbEntity
  8
7
100
AcDbLine
 10
-3.040354330708662
 20
1.434055118110235
 30
0.0
 11
-3.063976377952756
 21
1.431102362204724
 31
0.0
  0
LINE
  5
438
330
1E
100
AcDbEntity
  8
7
100
AcDbLine
 10
-3.042322834645669
 20
1.45767716535433
 30
0.0
 11
-3.040354330708662
 21
1.434055118110235
 31
0.0
  0
LINE
  5
439
330
1E
100
AcDbEntity
  8
7
100
AcDbLine
 10
-3.019685039370079
 20
1.464566929133857
 30
0.0
 11
-3.042322834645669
 21
1.45767716535433
 31
0.0
  0
LINE
  5
43A
330
1E
100
AcDbEntity
  8
7
100
AcDbLine
 10
-3.024606299212599
 20
1.488188976377952
 30
0.0
 11
-3.019685039370079
 21
1.464566929133857
 31
0.0
  0
LINE
  5
43B
330
1E
100
AcDbEntity
  8
7
100
AcDbLine
 10
-3.002952755905512
 20
1.499015748031495
 30
0.0
 11
-3.024606299212599
 21
1.488188976377952
 31
0.0
  0
LINE
  5
43C
330
1E
100
AcDbEntity
  8
7
100
AcDbLine
 10
-3.012795275590551
 20
1.520669291338582
 30
0.0
 11
-3.002952755905512
 21
1.499015748031495
 31
0.0
  0
LINE
  5
43D
330
1E
100
AcDbEntity
  8
7
100
AcDbLine
 10
-2.994094488188976
 20
1.535433070866141
 30
0.0
 11
-3.012795275590551
 21
1.520669291338582
 31
0.0
  0
LINE
  5
43E
330
1E
100
AcDbEntity
  8
7
100
AcDbLine
 10
-3.006889763779527
 20
1.555118110236219
 30
0.0
 11
-2.994094488188976
 21
1.535433070866141
 31
0.0
  0
LINE
  5
43F
330
1E
100
AcDbEntity
  8
7
100
AcDbLine
 10
-3.006889763779527
 20
1.555118110236219
 30
0.0
 11
-2.990157480314961
 21
1.572834645669291
 31
0.0
  0
LINE
  5
440
330
1E
100
AcDbEntity
  8
7
100
AcDbLine
 10
-3.006889763779527
 20
1.589566929133857
 30
0.0
 11
-2.990157480314961
 21
1.572834645669291
 31
0.0
  0
LINE
  5
470
330
1E
100
AcDbEntity
  8
7
100
AcDbLine
 10
-3.403543307086614
 20
1.555118110236219
 30
0.0
 11
-3.420275590551181
 21
1.572834645669291
 31
0.0
  0
LINE
  5
471
330
1E
100
AcDbEntity
  8
7
100
AcDbLine
 10
-3.417322834645669
 20
1.535433070866141
 30
0.0
 11
-3.403543307086614
 21
1.555118110236219
 31
0.0
  0
LINE
  5
472
330
1E
100
AcDbEntity
  8
7
100
AcDbLine
 10
-3.39763779527559
 20
1.520669291338582
 30
0.0
 11
-3.417322834645669
 21
1.535433070866141
 31
0.0
  0
LINE
  5
473
330
1E
100
AcDbEntity
  8
7
100
AcDbLine
 10
-3.40748031496063
 20
1.499015748031495
 30
0.0
 11
-3.39763779527559
 21
1.520669291338582
 31
0.0
  0
LINE
  5
474
330
1E
100
AcDbEntity
  8
7
100
AcDbLine
 10
-3.385826771653543
 20
1.488188976377952
 30
0.0
 11
-3.40748031496063
 21
1.499015748031495
 31
0.0
  0
LINE
  5
475
330
1E
100
AcDbEntity
  8
7
100
AcDbLine
 10
-3.391732283464567
 20
1.464566929133857
 30
0.0
 11
-3.385826771653543
 21
1.488188976377952
 31
0.0
  0
LINE
  5
476
330
1E
100
AcDbEntity
  8
7
100
AcDbLine
 10
-3.369094488188976
 20
1.45767716535433
 30
0.0
 11
-3.391732283464567
 21
1.464566929133857
 31
0.0
  0
LINE
  5
477
330
1E
100
AcDbEntity
  8
7
100
AcDbLine
 10
-3.37007874015748
 20
1.434055118110235
 30
0.0
 11
-3.369094488188976
 21
1.45767716535433
 31
0.0
  0
LINE
  5
478
330
1E
100
AcDbEntity
  8
7
100
AcDbLine
 10
-3.346456692913386
 20
1.431102362204724
 30
0.0
 11
-3.37007874015748
 21
1.434055118110235
 31
0.0
  0
LINE
  5
479
330
1E
100
AcDbEntity
  8
7
100
AcDbLine
 10
-3.343503937007874
 20
1.40748031496063
 30
0.0
 11
-3.346456692913386
 21
1.431102362204724
 31
0.0
  0
LINE
  5
47A
330
1E
100
AcDbEntity
  8
7
100
AcDbLine
 10
-3.31988188976378
 20
1.409448818897637
 30
0.0
 11
-3.343503937007874
 21
1.40748031496063
 31
0.0
  0
LINE
  5
47B
330
1E
100
AcDbEntity
  8
7
100
AcDbLine
 10
-3.312992125984252
 20
1.385826771653543
 30
0.0
 11
-3.31988188976378
 21
1.409448818897637
 31
0.0
  0
LINE
  5
47C
330
1E
100
AcDbEntity
  8
7
100
AcDbLine
 10
-3.289370078740157
 20
1.391732283464567
 30
0.0
 11
-3.312992125984252
 21
1.385826771653543
 31
0.0
  0
LINE
  5
47D
330
1E
100
AcDbEntity
  8
7
100
AcDbLine
 10
-3.115157480314961
 20
1.637795275590551
 30
0.0
 11
-3.136811023622047
 21
1.660433070866141
 31
0.0
  0
LINE
  5
495
330
1E
100
AcDbEntity
  8
7
100
AcDbLine
 10
-3.115157480314961
 20
1.636811023622046
 30
0.0
 11
-3.084645669291338
 21
1.636811023622046
 31
0.0
  0
LINE
  5
4B4
330
1E
100
AcDbEntity
  8
7
100
AcDbLine
 10
-3.084645669291338
 20
1.507874015748031
 30
0.0
 11
-3.115157480314961
 21
1.507874015748031
 31
0.0
  0
LINE
  5
4B5
330
1E
100
AcDbEntity
  8
7
100
AcDbLine
 10
-3.070866141732283
 20
1.547244094488188
 30
0.0
 11
-3.084645669291338
 21
1.507874015748031
 31
0.0
  0
LINE
  5
4DD
330
1E
100
AcDbEntity
  8
7
100
AcDbLine
 10
-3.070866141732283
 20
1.597440944881889
 30
0.0
 11
-3.09744094488189
 21
1.597440944881889
 31
0.0
  0
LINE
  5
4DE
330
1E
100
AcDbEntity
  8
7
100
AcDbLine
 10
-3.09744094488189
 20
1.547244094488188
 30
0.0
 11
-3.070866141732283
 21
1.547244094488188
 31
0.0
  0
LINE
  5
4DF
330
1E
100
AcDbEntity
  8
7
100
AcDbLine
 10
-3.068897637795275
 20
1.58267716535433
 30
0.0
 11
-3.094488188976378
 21
1.58267716535433
 31
0.0
  0
LINE
  5
4E5
330
1E
100
AcDbEntity
  8
7
100
AcDbLine
 10
-3.094488188976378
 20
1.562007874015747
 30
0.0
 11
-3.068897637795275
 21
1.562007874015747
 31
0.0
  0
LINE
  5
4E6
330
1E
100
AcDbEntity
  8
7
100
AcDbLine
 10
-3.115157480314961
 20
1.507874015748031
 30
0.0
 11
-3.104330708661417
 21
1.526574803149606
 31
0.0
  0
LINE
  5
4E7
330
1E
100
AcDbEntity
  8
7
100
AcDbLine
 10
-3.104330708661417
 20
1.526574803149606
 30
0.0
 11
-3.09744094488189
 21
1.547244094488188
 31
0.0
  0
LINE
  5
54D
330
1E
100
AcDbEntity
  8
7
100
AcDbLine
 10
-3.226377952755905
 20
1.622047244094488
 30
0.0
 11
-3.243110236220473
 21
1.610236220472441
 31
0.0
  0
LINE
  5
54E
330
1E
100
AcDbEntity
  8
7
100
AcDbLine
 10
-3.243110236220473
 20
1.610236220472441
 30
0.0
 11
-3.25492125984252
 21
1.593503937007873
 31
0.0
  0
LINE
  5
54F
330
1E
100
AcDbEntity
  8
7
100
AcDbLine
 10
-3.25492125984252
 20
1.593503937007873
 30
0.0
 11
-3.258858267716536
 21
1.572834645669291
 31
0.0
  0
LINE
  5
550
330
1E
100
AcDbEntity
  8
7
100
AcDbLine
 10
-3.258858267716536
 20
1.572834645669291
 30
0.0
 11
-3.25492125984252
 21
1.552165354330708
 31
0.0
  0
LINE
  5
551
330
1E
100
AcDbEntity
  8
7
100
AcDbLine
 10
-3.25492125984252
 20
1.552165354330708
 30
0.0
 11
-3.243110236220473
 21
1.535433070866141
 31
0.0
  0
LINE
  5
552
330
1E
100
AcDbEntity
  8
7
100
AcDbLine
 10
-3.243110236220473
 20
1.535433070866141
 30
0.0
 11
-3.226377952755905
 21
1.523622047244094
 31
0.0
  0
LINE
  5
553
330
1E
100
AcDbEntity
  8
7
100
AcDbLine
 10
-3.226377952755905
 20
1.523622047244094
 30
0.0
 11
-3.205708661417323
 21
1.519685039370078
 31
0.0
  0
LINE
  5
554
330
1E
100
AcDbEntity
  8
7
100
AcDbLine
 10
-3.205708661417323
 20
1.519685039370078
 30
0.0
 11
-3.18503937007874
 21
1.523622047244094
 31
0.0
  0
LINE
  5
555
330
1E
100
AcDbEntity
  8
7
100
AcDbLine
 10
-3.18503937007874
 20
1.523622047244094
 30
0.0
 11
-3.168307086614173
 21
1.535433070866141
 31
0.0
  0
LINE
  5
556
330
1E
100
AcDbEntity
  8
7
100
AcDbLine
 10
-3.168307086614173
 20
1.535433070866141
 30
0.0
 11
-3.156496062992126
 21
1.552165354330708
 31
0.0
  0
LINE
  5
557
330
1E
100
AcDbEntity
  8
7
100
AcDbLine
 10
-3.156496062992126
 20
1.552165354330708
 30
0.0
 11
-3.15255905511811
 21
1.572834645669291
 31
0.0
  0
LINE
  5
558
330
1E
100
AcDbEntity
  8
7
100
AcDbLine
 10
-3.15255905511811
 20
1.572834645669291
 30
0.0
 11
-3.156496062992126
 21
1.593503937007873
 31
0.0
  0
LINE
  5
559
330
1E
100
AcDbEntity
  8
7
100
AcDbLine
 10
-3.156496062992126
 20
1.593503937007873
 30
0.0
 11
-3.168307086614173
 21
1.610236220472441
 31
0.0
  0
LINE
  5
55A
330
1E
100
AcDbEntity
  8
7
100
AcDbLine
 10
-3.168307086614173
 20
1.610236220472441
 30
0.0
 11
-3.18503937007874
 21
1.622047244094488
 31
0.0
  0
LINE
  5
55B
330
1E
100
AcDbEntity
  8
7
100
AcDbLine
 10
-3.18503937007874
 20
1.622047244094488
 30
0.0
 11
-3.205708661417323
 21
1.625984251968504
 31
0.0
  0
LINE
  5
55C
330
1E
100
AcDbEntity
  8
7
100
AcDbLine
 10
-3.205708661417323
 20
1.625984251968504
 30
0.0
 11
-3.226377952755905
 21
1.622047244094488
 31
0.0
  0
LINE
  5
55D
330
1E
100
AcDbEntity
  8
7
100
AcDbLine
 10
-3.268700787401574
 20
1.531496062992125
 30
0.0
 11
-3.251968503937008
 21
1.512795275590551
 31
0.0
  0
LINE
  5
55E
330
1E
100
AcDbEntity
  8
7
100
AcDbLine
 10
-3.251968503937008
 20
1.512795275590551
 30
0.0
 11
-3.230314960629921
 21
1.500984251968504
 31
0.0
  0
LINE
  5
55F
330
1E
100
AcDbEntity
  8
7
100
AcDbLine
 10
-3.230314960629921
 20
1.500984251968504
 30
0.0
 11
-3.205708661417323
 21
1.497047244094488
 31
0.0
  0
LINE
  5
560
330
1E
100
AcDbEntity
  8
7
100
AcDbLine
 10
-3.159448818897637
 20
1.512795275590551
 30
0.0
 11
-3.142716535433071
 21
1.531496062992125
 31
0.0
  0
LINE
  5
561
330
1E
100
AcDbEntity
  8
7
100
AcDbLine
 10
-3.142716535433071
 20
1.531496062992125
 30
0.0
 11
-3.131889763779527
 21
1.554133858267716
 31
0.0
  0
LINE
  5
562
330
1E
100
AcDbEntity
  8
7
100
AcDbLine
 10
-3.131889763779527
 20
1.554133858267716
 30
0.0
 11
-3.12992125984252
 21
1.578740157480314
 31
0.0
  0
LINE
  5
563
330
1E
100
AcDbEntity
  8
7
100
AcDbLine
 10
-3.12992125984252
 20
1.578740157480314
 30
0.0
 11
-3.135826771653543
 21
1.603346456692913
 31
0.0
  0
LINE
  5
564
330
1E
100
AcDbEntity
  8
7
100
AcDbLine
 10
-3.135826771653543
 20
1.603346456692913
 30
0.0
 11
-3.149606299212599
 21
1.624015748031495
 31
0.0
  0
LINE
  5
565
330
1E
100
AcDbEntity
  8
7
100
AcDbLine
 10
-3.149606299212599
 20
1.624015748031495
 30
0.0
 11
-3.169291338582677
 21
1.639763779527558
 31
0.0
  0
LINE
  5
566
330
1E
100
AcDbEntity
  8
7
100
AcDbLine
 10
-3.169291338582677
 20
1.639763779527558
 30
0.0
 11
-3.192913385826772
 21
1.64763779527559
 31
0.0
  0
LINE
  5
567
330
1E
100
AcDbEntity
  8
7
100
AcDbLine
 10
-3.192913385826772
 20
1.64763779527559
 30
0.0
 11
-3.218503937007874
 21
1.64763779527559
 31
0.0
  0
LINE
  5
568
330
1E
100
AcDbEntity
  8
7
100
AcDbLine
 10
-3.218503937007874
 20
1.64763779527559
 30
0.0
 11
-3.242125984251968
 21
1.639763779527558
 31
0.0
  0
LINE
  5
569
330
1E
100
AcDbEntity
  8
7
100
AcDbLine
 10
-3.242125984251968
 20
1.639763779527558
 30
0.0
 11
-3.261811023622047
 21
1.624015748031495
 31
0.0
  0
LINE
  5
56A
330
1E
100
AcDbEntity
  8
7
100
AcDbLine
 10
-3.261811023622047
 20
1.624015748031495
 30
0.0
 11
-3.275590551181102
 21
1.603346456692913
 31
0.0
  0
LINE
  5
56B
330
1E
100
AcDbEntity
  8
7
100
AcDbLine
 10
-3.275590551181102
 20
1.603346456692913
 30
0.0
 11
-3.281496062992126
 21
1.578740157480314
 31
0.0
  0
LINE
  5
56C
330
1E
100
AcDbEntity
  8
7
100
AcDbLine
 10
-3.281496062992126
 20
1.578740157480314
 30
0.0
 11
-3.279527559055118
 21
1.554133858267716
 31
0.0
  0
LINE
  5
56D
330
1E
100
AcDbEntity
  8
7
100
AcDbLine
 10
-3.279527559055118
 20
1.554133858267716
 30
0.0
 11
-3.268700787401574
 21
1.531496062992125
 31
0.0
  0
LINE
  5
56E
330
1E
100
AcDbEntity
  8
7
100
AcDbLine
 10
-3.205708661417323
 20
1.497047244094488
 30
0.0
 11
-3.181102362204724
 21
1.500984251968504
 31
0.0
  0
LINE
  5
56F
330
1E
100
AcDbEntity
  8
7
100
AcDbLine
 10
-3.181102362204724
 20
1.500984251968504
 30
0.0
 11
-3.159448818897637
 21
1.512795275590551
 31
0.0
  0
LINE
  5
570
330
1E
100
AcDbEntity
  8
7
100
AcDbLine
 10
-3.205708661417323
 20
1.467519685039369
 30
0.0
 11
-3.176181102362205
 21
1.471456692913385
 31
0.0
  0
LINE
  5
571
330
1E
100
AcDbEntity
  8
7
100
AcDbLine
 10
-3.176181102362205
 20
1.471456692913385
 30
0.0
 11
-3.148622047244094
 21
1.484251968503936
 31
0.0
  0
LINE
  5
572
330
1E
100
AcDbEntity
  8
7
100
AcDbLine
 10
-3.148622047244094
 20
1.484251968503936
 30
0.0
 11
-3.125984251968504
 21
1.503937007874015
 31
0.0
  0
LINE
  5
573
330
1E
100
AcDbEntity
  8
7
100
AcDbLine
 10
-3.125984251968504
 20
1.503937007874015
 30
0.0
 11
-3.110236220472441
 21
1.529527559055118
 31
0.0
  0
LINE
  5
574
330
1E
100
AcDbEntity
  8
7
100
AcDbLine
 10
-3.110236220472441
 20
1.529527559055118
 30
0.0
 11
-3.101377952755905
 21
1.558070866141731
 31
0.0
  0
LINE
  5
575
330
1E
100
AcDbEntity
  8
7
100
AcDbLine
 10
-3.101377952755905
 20
1.558070866141731
 30
0.0
 11
-3.101377952755905
 21
1.58759842519685
 31
0.0
  0
LINE
  5
576
330
1E
100
AcDbEntity
  8
7
100
AcDbLine
 10
-3.101377952755905
 20
1.58759842519685
 30
0.0
 11
-3.110236220472441
 21
1.616141732283464
 31
0.0
  0
LINE
  5
577
330
1E
100
AcDbEntity
  8
7
100
AcDbLine
 10
-3.110236220472441
 20
1.616141732283464
 30
0.0
 11
-3.125984251968504
 21
1.641732283464567
 31
0.0
  0
LINE
  5
578
330
1E
100
AcDbEntity
  8
7
100
AcDbLine
 10
-3.125984251968504
 20
1.641732283464567
 30
0.0
 11
-3.148622047244094
 21
1.661417322834645
 31
0.0
  0
LINE
  5
579
330
1E
100
AcDbEntity
  8
7
100
AcDbLine
 10
-3.148622047244094
 20
1.661417322834645
 30
0.0
 11
-3.176181102362205
 21
1.674212598425196
 31
0.0
  0
LINE
  5
57A
330
1E
100
AcDbEntity
  8
7
100
AcDbLine
 10
-3.176181102362205
 20
1.674212598425196
 30
0.0
 11
-3.205708661417323
 21
1.678149606299212
 31
0.0
  0
LINE
  5
57B
330
1E
100
AcDbEntity
  8
7
100
AcDbLine
 10
-3.205708661417323
 20
1.678149606299212
 30
0.0
 11
-3.235236220472441
 21
1.674212598425196
 31
0.0
  0
LINE
  5
57C
330
1E
100
AcDbEntity
  8
7
100
AcDbLine
 10
-3.235236220472441
 20
1.674212598425196
 30
0.0
 11
-3.262795275590551
 21
1.661417322834645
 31
0.0
  0
LINE
  5
57D
330
1E
100
AcDbEntity
  8
7
100
AcDbLine
 10
-3.262795275590551
 20
1.661417322834645
 30
0.0
 11
-3.285433070866142
 21
1.641732283464567
 31
0.0
  0
LINE
  5
57E
330
1E
100
AcDbEntity
  8
7
100
AcDbLine
 10
-3.285433070866142
 20
1.641732283464567
 30
0.0
 11
-3.301181102362205
 21
1.616141732283464
 31
0.0
  0
LINE
  5
57F
330
1E
100
AcDbEntity
  8
7
100
AcDbLine
 10
-3.301181102362205
 20
1.616141732283464
 30
0.0
 11
-3.31003937007874
 21
1.58759842519685
 31
0.0
  0
LINE
  5
580
330
1E
100
AcDbEntity
  8
7
100
AcDbLine
 10
-3.31003937007874
 20
1.58759842519685
 30
0.0
 11
-3.31003937007874
 21
1.558070866141731
 31
0.0
  0
LINE
  5
581
330
1E
100
AcDbEntity
  8
7
100
AcDbLine
 10
-3.31003937007874
 20
1.558070866141731
 30
0.0
 11
-3.301181102362205
 21
1.529527559055118
 31
0.0
  0
LINE
  5
582
330
1E
100
AcDbEntity
  8
7
100
AcDbLine
 10
-3.301181102362205
 20
1.529527559055118
 30
0.0
 11
-3.285433070866142
 21
1.503937007874015
 31
0.0
  0
LINE
  5
583
330
1E
100
AcDbEntity
  8
7
100
AcDbLine
 10
-3.285433070866142
 20
1.503937007874015
 30
0.0
 11
-3.262795275590551
 21
1.484251968503936
 31
0.0
  0
LINE
  5
584
330
1E
100
AcDbEntity
  8
7
100
AcDbLine
 10
-3.262795275590551
 20
1.484251968503936
 30
0.0
 11
-3.235236220472441
 21
1.471456692913385
 31
0.0
  0
LINE
  5
585
330
1E
100
AcDbEntity
  8
7
100
AcDbLine
 10
-3.235236220472441
 20
1.471456692913385
 30
0.0
 11
-3.205708661417323
 21
1.467519685039369
 31
0.0
  0
LINE
  5
586
330
1E
100
AcDbEntity
  8
7
100
AcDbLine
 10
-3.09744094488189
 20
1.597440944881889
 30
0.0
 11
-3.096456692913386
 21
1.595472440944881
 31
0.0
  0
LINE
  5
587
330
1E
100
AcDbEntity
  8
7
100
AcDbLine
 10
-3.096456692913386
 20
1.595472440944881
 30
0.0
 11
-3.095472440944882
 21
1.592519685039369
 31
0.0
  0
LINE
  5
588
330
1E
100
AcDbEntity
  8
7
100
AcDbLine
 10
-3.095472440944882
 20
1.592519685039369
 30
0.0
 11
-3.095472440944882
 21
1.58759842519685
 31
0.0
  0
LINE
  5
589
330
1E
100
AcDbEntity
  8
7
100
AcDbLine
 10
-3.095472440944882
 20
1.58759842519685
 30
0.0
 11
-3.094488188976378
 21
1.58267716535433
 31
0.0
  0
LINE
  5
58A
330
1E
100
AcDbEntity
  8
7
100
AcDbLine
 10
-3.094488188976378
 20
1.562007874015747
 30
0.0
 11
-3.095472440944882
 21
1.557086614173228
 31
0.0
  0
LINE
  5
58B
330
1E
100
AcDbEntity
  8
7
100
AcDbLine
 10
-3.095472440944882
 20
1.557086614173228
 30
0.0
 11
-3.095472440944882
 21
1.552165354330708
 31
0.0
  0
LINE
  5
58C
330
1E
100
AcDbEntity
  8
7
100
AcDbLine
 10
-3.095472440944882
 20
1.552165354330708
 30
0.0
 11
-3.096456692913386
 21
1.549212598425196
 31
0.0
  0
LINE
  5
58D
330
1E
100
AcDbEntity
  8
7
100
AcDbLine
 10
-3.096456692913386
 20
1.549212598425196
 30
0.0
 11
-3.09744094488189
 21
1.547244094488188
 31
0.0
  0
LINE
  5
58E
330
1E
100
AcDbEntity
  8
7
100
AcDbLine
 10
-3.09744094488189
 20
1.597440944881889
 30
0.0
 11
-3.104330708661417
 21
1.618110236220472
 31
0.0
  0
LINE
  5
58F
330
1E
100
AcDbEntity
  8
7
100
AcDbLine
 10
-3.104330708661417
 20
1.618110236220472
 30
0.0
 11
-3.115157480314961
 21
1.636811023622046
 31
0.0
  0
LINE
  5
590
330
1E
100
AcDbEntity
  8
7
100
AcDbLine
 10
-3.095472440944882
 20
1.562007874015747
 30
0.0
 11
-3.094488188976378
 21
1.572834645669291
 31
0.0
  0
LINE
  5
591
330
1E
100
AcDbEntity
  8
7
100
AcDbLine
 10
-3.094488188976378
 20
1.572834645669291
 30
0.0
 11
-3.095472440944882
 21
1.583661417322834
 31
0.0
  0
LINE
  5
592
330
1E
100
AcDbEntity
  8
7
100
AcDbLine
 10
-3.179133858267716
 20
1.404527559055118
 30
0.0
 11
-3.184055118110236
 21
1.404527559055118
 31
0.0
  0
LINE
  5
593
330
1E
100
AcDbEntity
  8
7
100
AcDbLine
 10
-3.184055118110236
 20
1.404527559055118
 30
0.0
 11
-3.197834645669291
 21
1.404527559055118
 31
0.0
  0
LINE
  5
594
330
1E
100
AcDbEntity
  8
7
100
AcDbLine
 10
-3.197834645669291
 20
1.404527559055118
 30
0.0
 11
-3.213582677165354
 21
1.404527559055118
 31
0.0
  0
LINE
  5
595
330
1E
100
AcDbEntity
  8
7
100
AcDbLine
 10
-3.213582677165354
 20
1.404527559055118
 30
0.0
 11
-3.226377952755905
 21
1.404527559055118
 31
0.0
  0
LINE
  5
596
330
1E
100
AcDbEntity
  8
7
100
AcDbLine
 10
-3.226377952755905
 20
1.404527559055118
 30
0.0
 11
-3.231299212598425
 21
1.404527559055118
 31
0.0
  0
LINE
  5
597
330
1E
100
AcDbEntity
  8
7
100
AcDbLine
 10
-3.231299212598425
 20
1.74015748031496
 30
0.0
 11
-3.226377952755905
 21
1.74015748031496
 31
0.0
  0
LINE
  5
598
330
1E
100
AcDbEntity
  8
7
100
AcDbLine
 10
-3.226377952755905
 20
1.74015748031496
 30
0.0
 11
-3.213582677165354
 21
1.74015748031496
 31
0.0
  0
LINE
  5
599
330
1E
100
AcDbEntity
  8
7
100
AcDbLine
 10
-3.213582677165354
 20
1.74015748031496
 30
0.0
 11
-3.197834645669291
 21
1.74015748031496
 31
0.0
  0
LINE
  5
59A
330
1E
100
AcDbEntity
  8
7
100
AcDbLine
 10
-3.197834645669291
 20
1.74015748031496
 30
0.0
 11
-3.184055118110236
 21
1.74015748031496
 31
0.0
  0
LINE
  5
59B
330
1E
100
AcDbEntity
  8
7
100
AcDbLine
 10
-3.184055118110236
 20
1.74015748031496
 30
0.0
 11
-3.179133858267716
 21
1.74015748031496
 31
0.0
  0
LINE
  5
59C
330
1E
100
AcDbEntity
  8
7
100
AcDbLine
 10
-3.068897637795275
 20
1.562007874015747
 30
0.0
 11
-3.069881889763779
 21
1.557086614173228
 31
0.0
  0
LINE
  5
59D
330
1E
100
AcDbEntity
  8
7
100
AcDbLine
 10
-3.069881889763779
 20
1.557086614173228
 30
0.0
 11
-3.069881889763779
 21
1.552165354330708
 31
0.0
  0
LINE
  5
59E
330
1E
100
AcDbEntity
  8
7
100
AcDbLine
 10
-3.069881889763779
 20
1.552165354330708
 30
0.0
 11
-3.070866141732283
 21
1.549212598425196
 31
0.0
  0
LINE
  5
59F
330
1E
100
AcDbEntity
  8
7
100
AcDbLine
 10
-3.070866141732283
 20
1.549212598425196
 30
0.0
 11
-3.070866141732283
 21
1.547244094488188
 31
0.0
  0
LINE
  5
5A0
330
1E
100
AcDbEntity
  8
7
100
AcDbLine
 10
-3.068897637795275
 20
1.562007874015747
 30
0.0
 11
-3.068897637795275
 21
1.572834645669291
 31
0.0
  0
LINE
  5
5A1
330
1E
100
AcDbEntity
  8
7
100
AcDbLine
 10
-3.068897637795275
 20
1.572834645669291
 30
0.0
 11
-3.068897637795275
 21
1.583661417322834
 31
0.0
  0
LINE
  5
5A2
330
1E
100
AcDbEntity
  8
7
100
AcDbLine
 10
-3.069881889763779
 20
1.590551181102361
 30
0.0
 11
-3.068897637795275
 21
1.586614173228345
 31
0.0
  0
LINE
  5
5A3
330
1E
100
AcDbEntity
  8
7
100
AcDbLine
 10
-3.068897637795275
 20
1.586614173228345
 30
0.0
 11
-3.068897637795275
 21
1.58267716535433
 31
0.0
  0
LINE
  5
5A4
330
1E
100
AcDbEntity
  8
7
100
AcDbLine
 10
-3.084645669291338
 20
1.636811023622046
 30
0.0
 11
-3.070866141732283
 21
1.597440944881889
 31
0.0
  0
LINE
  5
5A5
330
1E
100
AcDbEntity
  8
7
100
AcDbLine
 10
-3.070866141732283
 20
1.597440944881889
 30
0.0
 11
-3.070866141732283
 21
1.594488188976377
 31
0.0
  0
LINE
  5
5A6
330
1E
100
AcDbEntity
  8
7
100
AcDbLine
 10
-3.070866141732283
 20
1.594488188976377
 30
0.0
 11
-3.069881889763779
 21
1.590551181102361
 31
0.0
  0
LINE
  5
5A7
330
1E
100
AcDbEntity
  8
7
100
AcDbLine
 10
-3.196850393700787
 20
1.436023622047243
 30
0.0
 11
-3.162401574803149
 21
1.442913385826771
 31
0.0
  0
LINE
  5
5A8
330
1E
100
AcDbEntity
  8
7
100
AcDbLine
 10
-3.162401574803149
 20
1.442913385826771
 30
0.0
 11
-3.131889763779527
 21
1.45767716535433
 31
0.0
  0
LINE
  5
5A9
330
1E
100
AcDbEntity
  8
7
100
AcDbLine
 10
-3.131889763779527
 20
1.45767716535433
 30
0.0
 11
-3.105314960629921
 21
1.48031496062992
 31
0.0
  0
LINE
  5
5AA
330
1E
100
AcDbEntity
  8
7
100
AcDbLine
 10
-3.105314960629921
 20
1.48031496062992
 30
0.0
 11
-3.085629921259842
 21
1.507874015748031
 31
0.0
  0
LINE
  5
5AB
330
1E
100
AcDbEntity
  8
7
100
AcDbLine
 10
-3.196850393700787
 20
1.709645669291338
 30
0.0
 11
-3.230314960629921
 21
1.70767716535433
 31
0.0
  0
LINE
  5
5AC
330
1E
100
AcDbEntity
  8
7
100
AcDbLine
 10
-3.230314960629921
 20
1.70767716535433
 30
0.0
 11
-3.263779527559055
 21
1.696850393700787
 31
0.0
  0
LINE
  5
5AD
330
1E
100
AcDbEntity
  8
7
100
AcDbLine
 10
-3.263779527559055
 20
1.696850393700787
 30
0.0
 11
-3.292322834645669
 21
1.678149606299212
 31
0.0
  0
LINE
  5
5AE
330
1E
100
AcDbEntity
  8
7
100
AcDbLine
 10
-3.292322834645669
 20
1.678149606299212
 30
0.0
 11
-3.315944881889764
 21
1.653543307086614
 31
0.0
  0
LINE
  5
5AF
330
1E
100
AcDbEntity
  8
7
100
AcDbLine
 10
-3.315944881889764
 20
1.653543307086614
 30
0.0
 11
-3.332677165354331
 21
1.623031496062992
 31
0.0
  0
LINE
  5
5B0
330
1E
100
AcDbEntity
  8
7
100
AcDbLine
 10
-3.332677165354331
 20
1.623031496062992
 30
0.0
 11
-3.341535433070866
 21
1.589566929133857
 31
0.0
  0
LINE
  5
5B1
330
1E
100
AcDbEntity
  8
7
100
AcDbLine
 10
-3.341535433070866
 20
1.589566929133857
 30
0.0
 11
-3.341535433070866
 21
1.556102362204724
 31
0.0
  0
LINE
  5
5B2
330
1E
100
AcDbEntity
  8
7
100
AcDbLine
 10
-3.341535433070866
 20
1.556102362204724
 30
0.0
 11
-3.332677165354331
 21
1.52263779527559
 31
0.0
  0
LINE
  5
5B3
330
1E
100
AcDbEntity
  8
7
100
AcDbLine
 10
-3.332677165354331
 20
1.52263779527559
 30
0.0
 11
-3.315944881889764
 21
1.492125984251968
 31
0.0
  0
LINE
  5
5B4
330
1E
100
AcDbEntity
  8
7
100
AcDbLine
 10
-3.315944881889764
 20
1.492125984251968
 30
0.0
 11
-3.292322834645669
 21
1.467519685039369
 31
0.0
  0
LINE
  5
5B5
330
1E
100
AcDbEntity
  8
7
100
AcDbLine
 10
-3.292322834645669
 20
1.467519685039369
 30
0.0
 11
-3.263779527559055
 21
1.448818897637794
 31
0.0
  0
LINE
  5
5B6
330
1E
100
AcDbEntity
  8
7
100
AcDbLine
 10
-3.263779527559055
 20
1.448818897637794
 30
0.0
 11
-3.230314960629921
 21
1.437992125984251
 31
0.0
  0
LINE
  5
5B7
330
1E
100
AcDbEntity
  8
7
100
AcDbLine
 10
-3.230314960629921
 20
1.437992125984251
 30
0.0
 11
-3.196850393700787
 21
1.436023622047243
 31
0.0
  0
LINE
  5
5B8
330
1E
100
AcDbEntity
  8
7
100
AcDbLine
 10
-3.085629921259842
 20
1.637795275590551
 30
0.0
 11
-3.105314960629921
 21
1.665354330708661
 31
0.0
  0
LINE
  5
5B9
330
1E
100
AcDbEntity
  8
7
100
AcDbLine
 10
-3.105314960629921
 20
1.665354330708661
 30
0.0
 11
-3.131889763779527
 21
1.687992125984251
 31
0.0
  0
LINE
  5
5BA
330
1E
100
AcDbEntity
  8
7
100
AcDbLine
 10
-3.131889763779527
 20
1.687992125984251
 30
0.0
 11
-3.162401574803149
 21
1.70275590551181
 31
0.0
  0
LINE
  5
5BB
330
1E
100
AcDbEntity
  8
7
100
AcDbLine
 10
-3.162401574803149
 20
1.70275590551181
 30
0.0
 11
-3.196850393700787
 21
1.709645669291338
 31
0.0
  0
LINE
  5
5BC
330
1E
100
AcDbEntity
  8
7
100
AcDbLine
 10
-3.224409448818898
 20
1.463582677165354
 30
0.0
 11
-3.193897637795275
 21
1.46259842519685
 31
0.0
  0
LINE
  5
5BD
330
1E
100
AcDbEntity
  8
7
100
AcDbLine
 10
-3.193897637795275
 20
1.46259842519685
 30
0.0
 11
-3.163385826771653
 21
1.469488188976377
 31
0.0
  0
LINE
  5
5BE
330
1E
100
AcDbEntity
  8
7
100
AcDbLine
 10
-3.163385826771653
 20
1.469488188976377
 30
0.0
 11
-3.136811023622047
 21
1.485236220472441
 31
0.0
  0
LINE
  5
5BF
330
1E
100
AcDbEntity
  8
7
100
AcDbLine
 10
-3.136811023622047
 20
1.485236220472441
 30
0.0
 11
-3.115157480314961
 21
1.507874015748031
 31
0.0
  0
LINE
  5
5C0
330
1E
100
AcDbEntity
  8
7
100
AcDbLine
 10
-3.136811023622047
 20
1.660433070866141
 30
0.0
 11
-3.163385826771653
 21
1.676181102362204
 31
0.0
  0
LINE
  5
5C1
330
1E
100
AcDbEntity
  8
7
100
AcDbLine
 10
-3.163385826771653
 20
1.676181102362204
 30
0.0
 11
-3.193897637795275
 21
1.683070866141731
 31
0.0
  0
LINE
  5
5C2
330
1E
100
AcDbEntity
  8
7
100
AcDbLine
 10
-3.193897637795275
 20
1.683070866141731
 30
0.0
 11
-3.224409448818898
 21
1.682086614173228
 31
0.0
  0
LINE
  5
5C3
330
1E
100
AcDbEntity
  8
7
100
AcDbLine
 10
-3.224409448818898
 20
1.682086614173228
 30
0.0
 11
-3.253937007874016
 21
1.673228346456693
 31
0.0
  0
LINE
  5
5C4
330
1E
100
AcDbEntity
  8
7
100
AcDbLine
 10
-3.253937007874016
 20
1.673228346456693
 30
0.0
 11
-3.279527559055118
 21
1.655511811023621
 31
0.0
  0
LINE
  5
5C5
330
1E
100
AcDbEntity
  8
7
100
AcDbLine
 10
-3.279527559055118
 20
1.655511811023621
 30
0.0
 11
-3.3001968503937
 21
1.631889763779527
 31
0.0
  0
LINE
  5
5C6
330
1E
100
AcDbEntity
  8
7
100
AcDbLine
 10
-3.3001968503937
 20
1.631889763779527
 30
0.0
 11
-3.312992125984252
 21
1.603346456692913
 31
0.0
  0
LINE
  5
5C7
330
1E
100
AcDbEntity
  8
7
100
AcDbLine
 10
-3.312992125984252
 20
1.603346456692913
 30
0.0
 11
-3.316929133858268
 21
1.572834645669291
 31
0.0
  0
LINE
  5
5C8
330
1E
100
AcDbEntity
  8
7
100
AcDbLine
 10
-3.316929133858268
 20
1.572834645669291
 30
0.0
 11
-3.312992125984252
 21
1.542322834645668
 31
0.0
  0
LINE
  5
5C9
330
1E
100
AcDbEntity
  8
7
100
AcDbLine
 10
-3.312992125984252
 20
1.542322834645668
 30
0.0
 11
-3.3001968503937
 21
1.513779527559055
 31
0.0
  0
LINE
  5
5CA
330
1E
100
AcDbEntity
  8
7
100
AcDbLine
 10
-3.3001968503937
 20
1.513779527559055
 30
0.0
 11
-3.279527559055118
 21
1.49015748031496
 31
0.0
  0
LINE
  5
5CB
330
1E
100
AcDbEntity
  8
7
100
AcDbLine
 10
-3.279527559055118
 20
1.49015748031496
 30
0.0
 11
-3.253937007874016
 21
1.472440944881889
 31
0.0
  0
LINE
  5
5CC
330
1E
100
AcDbEntity
  8
7
100
AcDbLine
 10
-3.253937007874016
 20
1.472440944881889
 30
0.0
 11
-3.224409448818898
 21
1.463582677165354
 31
0.0
  0
LINE
  5
5CD
330
1E
100
AcDbEntity
  8
7
100
AcDbLine
 10
-3.40748031496063
 20
1.645669291338582
 30
0.0
 11
-3.39763779527559
 21
1.624015748031495
 31
0.0
  0
LINE
  5
5CE
330
1E
100
AcDbEntity
  8
7
100
AcDbLine
 10
-3.39763779527559
 20
1.624015748031495
 30
0.0
 11
-3.417322834645669
 21
1.609251968503936
 31
0.0
  0
LINE
  5
5CF
330
1E
100
AcDbEntity
  8
7
100
AcDbLine
 10
-3.417322834645669
 20
1.609251968503936
 30
0.0
 11
-3.403543307086614
 21
1.589566929133857
 31
0.0
  0
LINE
  5
5D0
330
1E
100
AcDbEntity
  8
7
100
AcDbLine
 10
-3.403543307086614
 20
1.589566929133857
 30
0.0
 11
-3.420275590551181
 21
1.572834645669291
 31
0.0
  0
LINE
  5
5D1
330
1E
100
AcDbEntity
  8
7
100
AcDbLine
 10
-3.22244094488189
 20
1.770669291338582
 30
0.0
 11
-3.243110236220473
 21
1.784448818897637
 31
0.0
  0
LINE
  5
5D2
330
1E
100
AcDbEntity
  8
7
100
AcDbLine
 10
-3.243110236220473
 20
1.784448818897637
 30
0.0
 11
-3.256889763779527
 21
1.764763779527558
 31
0.0
  0
LINE
  5
5D3
330
1E
100
AcDbEntity
  8
7
100
AcDbLine
 10
-3.256889763779527
 20
1.764763779527558
 30
0.0
 11
-3.278543307086614
 21
1.774606299212598
 31
0.0
  0
LINE
  5
5D4
330
1E
100
AcDbEntity
  8
7
100
AcDbLine
 10
-3.278543307086614
 20
1.774606299212598
 30
0.0
 11
-3.289370078740157
 21
1.752952755905511
 31
0.0
  0
LINE
  5
5D5
330
1E
100
AcDbEntity
  8
7
100
AcDbLine
 10
-3.289370078740157
 20
1.752952755905511
 30
0.0
 11
-3.312992125984252
 21
1.758858267716535
 31
0.0
  0
LINE
  5
5D6
330
1E
100
AcDbEntity
  8
7
100
AcDbLine
 10
-3.312992125984252
 20
1.758858267716535
 30
0.0
 11
-3.31988188976378
 21
1.735236220472441
 31
0.0
  0
LINE
  5
5D7
330
1E
100
AcDbEntity
  8
7
100
AcDbLine
 10
-3.31988188976378
 20
1.735236220472441
 30
0.0
 11
-3.343503937007874
 21
1.737204724409448
 31
0.0
  0
LINE
  5
5D8
330
1E
100
AcDbEntity
  8
7
100
AcDbLine
 10
-3.343503937007874
 20
1.737204724409448
 30
0.0
 11
-3.346456692913386
 21
1.713582677165354
 31
0.0
  0
LINE
  5
5D9
330
1E
100
AcDbEntity
  8
7
100
AcDbLine
 10
-3.346456692913386
 20
1.713582677165354
 30
0.0
 11
-3.37007874015748
 21
1.710629921259842
 31
0.0
  0
LINE
  5
5DA
330
1E
100
AcDbEntity
  8
7
100
AcDbLine
 10
-3.37007874015748
 20
1.710629921259842
 30
0.0
 11
-3.369094488188976
 21
1.687007874015747
 31
0.0
  0
LINE
  5
5DB
330
1E
100
AcDbEntity
  8
7
100
AcDbLine
 10
-3.369094488188976
 20
1.687007874015747
 30
0.0
 11
-3.391732283464567
 21
1.680118110236219
 31
0.0
  0
LINE
  5
5DC
330
1E
100
AcDbEntity
  8
7
100
AcDbLine
 10
-3.391732283464567
 20
1.680118110236219
 30
0.0
 11
-3.385826771653543
 21
1.656496062992125
 31
0.0
  0
LINE
  5
5DD
330
1E
100
AcDbEntity
  8
7
100
AcDbLine
 10
-3.385826771653543
 20
1.656496062992125
 30
0.0
 11
-3.40748031496063
 21
1.645669291338582
 31
0.0
  0
LINE
  5
5DE
330
1E
100
AcDbEntity
  8
7
100
AcDbLine
 10
-3.024606299212599
 20
1.656496062992125
 30
0.0
 11
-3.019685039370079
 21
1.680118110236219
 31
0.0
  0
LINE
  5
5DF
330
1E
100
AcDbEntity
  8
7
100
AcDbLine
 10
-3.019685039370079
 20
1.680118110236219
 30
0.0
 11
-3.042322834645669
 21
1.687007874015747
 31
0.0
  0
LINE
  5
5E0
330
1E
100
AcDbEntity
  8
7
100
AcDbLine
 10
-3.042322834645669
 20
1.687007874015747
 30
0.0
 11
-3.040354330708662
 21
1.710629921259842
 31
0.0
  0
LINE
  5
5E1
330
1E
100
AcDbEntity
  8
7
100
AcDbLine
 10
-3.040354330708662
 20
1.710629921259842
 30
0.0
 11
-3.063976377952756
 21
1.713582677165354
 31
0.0
  0
LINE
  5
5E2
330
1E
100
AcDbEntity
  8
7
100
AcDbLine
 10
-3.063976377952756
 20
1.713582677165354
 30
0.0
 11
-3.066929133858268
 21
1.737204724409448
 31
0.0
  0
LINE
  5
5E3
330
1E
100
AcDbEntity
  8
7
100
AcDbLine
 10
-3.066929133858268
 20
1.737204724409448
 30
0.0
 11
-3.091535433070866
 21
1.735236220472441
 31
0.0
  0
LINE
  5
5E4
330
1E
100
AcDbEntity
  8
7
100
AcDbLine
 10
-3.091535433070866
 20
1.735236220472441
 30
0.0
 11
-3.09744094488189
 21
1.758858267716535
 31
0.0
  0
LINE
  5
5E5
330
1E
100
AcDbEntity
  8
7
100
AcDbLine
 10
-3.09744094488189
 20
1.758858267716535
 30
0.0
 11
-3.121062992125984
 21
1.752952755905511
 31
0.0
  0
LINE
  5
5E6
330
1E
100
AcDbEntity
  8
7
100
AcDbLine
 10
-3.121062992125984
 20
1.752952755905511
 30
0.0
 11
-3.131889763779527
 21
1.774606299212598
 31
0.0
  0
LINE
  5
5E7
330
1E
100
AcDbEntity
  8
7
100
AcDbLine
 10
-3.131889763779527
 20
1.774606299212598
 30
0.0
 11
-3.153543307086614
 21
1.764763779527558
 31
0.0
  0
LINE
  5
5E8
330
1E
100
AcDbEntity
  8
7
100
AcDbLine
 10
-3.153543307086614
 20
1.764763779527558
 30
0.0
 11
-3.168307086614173
 21
1.784448818897637
 31
0.0
  0
LINE
  5
5E9
330
1E
100
AcDbEntity
  8
7
100
AcDbLine
 10
-3.168307086614173
 20
1.784448818897637
 30
0.0
 11
-3.187992125984252
 21
1.770669291338582
 31
0.0
  0
LINE
  5
5EA
330
1E
100
AcDbEntity
  8
7
100
AcDbLine
 10
-3.187992125984252
 20
1.770669291338582
 30
0.0
 11
-3.205708661417323
 21
1.787401574803149
 31
0.0
  0
LINE
  5
5EB
330
1E
100
AcDbEntity
  8
7
100
AcDbLine
 10
-3.205708661417323
 20
1.787401574803149
 30
0.0
 11
-3.22244094488189
 21
1.770669291338582
 31
0.0
  0
LINE
  5
5EC
330
1E
100
AcDbEntity
  8
7
100
AcDbLine
 10
-3.006889763779527
 20
1.589566929133857
 30
0.0
 11
-2.994094488188976
 21
1.609251968503936
 31
0.0
  0
LINE
  5
5ED
330
1E
100
AcDbEntity
  8
7
100
AcDbLine
 10
-2.994094488188976
 20
1.609251968503936
 30
0.0
 11
-3.012795275590551
 21
1.624015748031495
 31
0.0
  0
LINE
  5
5EE
330
1E
100
AcDbEntity
  8
7
100
AcDbLine
 10
-3.012795275590551
 20
1.624015748031495
 30
0.0
 11
-3.002952755905512
 21
1.645669291338582
 31
0.0
  0
LINE
  5
5EF
330
1E
100
AcDbEntity
  8
7
100
AcDbLine
 10
-3.002952755905512
 20
1.645669291338582
 30
0.0
 11
-3.024606299212599
 21
1.656496062992125
 31
0.0
  0
LINE
  5
5F0
330
1E
100
AcDbEntity
  8
7
100
AcDbLine
 10
-3.256889763779527
 20
1.562992125984251
 30
0.0
 11
-3.249015748031496
 21
1.544291338582677
 31
0.0
  0
LINE
  5
5F1
330
1E
100
AcDbEntity
  8
7
100
AcDbLine
 10
-3.249015748031496
 20
1.544291338582677
 30
0.0
 11
-3.235236220472441
 21
1.529527559055118
 31
0.0
  0
LINE
  5
5F2
330
1E
100
AcDbEntity
  8
7
100
AcDbLine
 10
-3.235236220472441
 20
1.529527559055118
 30
0.0
 11
-3.216535433070866
 21
1.521653543307086
 31
0.0
  0
LINE
  5
5F3
330
1E
100
AcDbEntity
  8
7
100
AcDbLine
 10
-3.216535433070866
 20
1.521653543307086
 30
0.0
 11
-3.195866141732283
 21
1.521653543307086
 31
0.0
  0
LINE
  5
5F4
330
1E
100
AcDbEntity
  8
7
100
AcDbLine
 10
-3.195866141732283
 20
1.521653543307086
 30
0.0
 11
-3.177165354330709
 21
1.529527559055118
 31
0.0
  0
LINE
  5
5F5
330
1E
100
AcDbEntity
  8
7
100
AcDbLine
 10
-3.177165354330709
 20
1.529527559055118
 30
0.0
 11
-3.162401574803149
 21
1.543307086614172
 31
0.0
  0
LINE
  5
5F6
330
1E
100
AcDbEntity
  8
7
100
AcDbLine
 10
-3.162401574803149
 20
1.543307086614172
 30
0.0
 11
-3.154527559055118
 21
1.562992125984251
 31
0.0
  0
LINE
  5
5F7
330
1E
100
AcDbEntity
  8
7
100
AcDbLine
 10
-3.154527559055118
 20
1.562992125984251
 30
0.0
 11
-3.154527559055118
 21
1.58267716535433
 31
0.0
  0
LINE
  5
5F8
330
1E
100
AcDbEntity
  8
7
100
AcDbLine
 10
-3.154527559055118
 20
1.58267716535433
 30
0.0
 11
-3.162401574803149
 21
1.602362204724408
 31
0.0
  0
LINE
  5
5F9
330
1E
100
AcDbEntity
  8
7
100
AcDbLine
 10
-3.162401574803149
 20
1.602362204724408
 30
0.0
 11
-3.177165354330709
 21
1.616141732283464
 31
0.0
  0
LINE
  5
5FA
330
1E
100
AcDbEntity
  8
7
100
AcDbLine
 10
-3.177165354330709
 20
1.616141732283464
 30
0.0
 11
-3.195866141732283
 21
1.624015748031495
 31
0.0
  0
LINE
  5
5FB
330
1E
100
AcDbEntity
  8
7
100
AcDbLine
 10
-3.195866141732283
 20
1.624015748031495
 30
0.0
 11
-3.216535433070866
 21
1.624015748031495
 31
0.0
  0
LINE
  5
5FC
330
1E
100
AcDbEntity
  8
7
100
AcDbLine
 10
-3.216535433070866
 20
1.624015748031495
 30
0.0
 11
-3.235236220472441
 21
1.616141732283464
 31
0.0
  0
LINE
  5
5FD
330
1E
100
AcDbEntity
  8
7
100
AcDbLine
 10
-3.235236220472441
 20
1.616141732283464
 30
0.0
 11
-3.249015748031496
 21
1.601377952755905
 31
0.0
  0
LINE
  5
5FE
330
1E
100
AcDbEntity
  8
7
100
AcDbLine
 10
-3.253937007874016
 20
1.58267716535433
 30
0.0
 11
-3.25492125984252
 21
1.58267716535433
 31
0.0
  0
LINE
  5
5FF
330
1E
100
AcDbEntity
  8
7
100
AcDbLine
 10
-3.25492125984252
 20
1.58267716535433
 30
0.0
 11
-3.255905511811024
 21
1.58267716535433
 31
0.0
  0
LINE
  5
600
330
1E
100
AcDbEntity
  8
7
100
AcDbLine
 10
-3.255905511811024
 20
1.58267716535433
 30
0.0
 11
-3.256889763779527
 21
1.58267716535433
 31
0.0
  0
LINE
  5
601
330
1E
100
AcDbEntity
  8
7
100
AcDbLine
 10
-3.256889763779527
 20
1.58267716535433
 30
0.0
 11
-3.257874015748031
 21
1.58267716535433
 31
0.0
  0
LINE
  5
602
330
1E
100
AcDbEntity
  8
7
100
AcDbLine
 10
-3.15748031496063
 20
1.572834645669291
 30
0.0
 11
-3.161417322834646
 21
1.592519685039369
 31
0.0
  0
LINE
  5
603
330
1E
100
AcDbEntity
  8
7
100
AcDbLine
 10
-3.161417322834646
 20
1.592519685039369
 30
0.0
 11
-3.173228346456693
 21
1.608267716535432
 31
0.0
  0
LINE
  5
604
330
1E
100
AcDbEntity
  8
7
100
AcDbLine
 10
-3.173228346456693
 20
1.608267716535432
 30
0.0
 11
-3.190944881889763
 21
1.619094488188976
 31
0.0
  0
LINE
  5
605
330
1E
100
AcDbEntity
  8
7
100
AcDbLine
 10
-3.190944881889763
 20
1.619094488188976
 30
0.0
 11
-3.210629921259842
 21
1.621062992125983
 31
0.0
  0
LINE
  5
606
330
1E
100
AcDbEntity
  8
7
100
AcDbLine
 10
-3.210629921259842
 20
1.621062992125983
 30
0.0
 11
-3.230314960629921
 21
1.614173228346456
 31
0.0
  0
LINE
  5
607
330
1E
100
AcDbEntity
  8
7
100
AcDbLine
 10
-3.230314960629921
 20
1.614173228346456
 30
0.0
 11
-3.24507874015748
 21
1.601377952755905
 31
0.0
  0
LINE
  5
608
330
1E
100
AcDbEntity
  8
7
100
AcDbLine
 10
-3.24507874015748
 20
1.601377952755905
 30
0.0
 11
-3.252952755905512
 21
1.58267716535433
 31
0.0
  0
LINE
  5
609
330
1E
100
AcDbEntity
  8
7
100
AcDbLine
 10
-3.252952755905512
 20
1.562992125984251
 30
0.0
 11
-3.24507874015748
 21
1.544291338582677
 31
0.0
  0
LINE
  5
60A
330
1E
100
AcDbEntity
  8
7
100
AcDbLine
 10
-3.24507874015748
 20
1.544291338582677
 30
0.0
 11
-3.230314960629921
 21
1.531496062992125
 31
0.0
  0
LINE
  5
60B
330
1E
100
AcDbEntity
  8
7
100
AcDbLine
 10
-3.230314960629921
 20
1.531496062992125
 30
0.0
 11
-3.210629921259842
 21
1.524606299212598
 31
0.0
  0
LINE
  5
60C
330
1E
100
AcDbEntity
  8
7
100
AcDbLine
 10
-3.210629921259842
 20
1.524606299212598
 30
0.0
 11
-3.190944881889763
 21
1.526574803149606
 31
0.0
  0
LINE
  5
60D
330
1E
100
AcDbEntity
  8
7
100
AcDbLine
 10
-3.190944881889763
 20
1.526574803149606
 30
0.0
 11
-3.173228346456693
 21
1.537401574803149
 31
0.0
  0
LINE
  5
60E
330
1E
100
AcDbEntity
  8
7
100
AcDbLine
 10
-3.173228346456693
 20
1.537401574803149
 30
0.0
 11
-3.161417322834646
 21
1.553149606299212
 31
0.0
  0
LINE
  5
60F
330
1E
100
AcDbEntity
  8
7
100
AcDbLine
 10
-3.161417322834646
 20
1.553149606299212
 30
0.0
 11
-3.15748031496063
 21
1.572834645669291
 31
0.0
  0
LINE
  5
610
330
1E
100
AcDbEntity
  8
7
100
AcDbLine
 10
-3.257874015748031
 20
1.562992125984251
 30
0.0
 11
-3.255905511811024
 21
1.562992125984251
 31
0.0
  0
LINE
  5
611
330
1E
100
AcDbEntity
  8
7
100
AcDbLine
 10
-3.255905511811024
 20
1.562992125984251
 30
0.0
 11
-3.25492125984252
 21
1.562992125984251
 31
0.0
  0
LINE
  5
612
330
1E
100
AcDbEntity
  8
7
100
AcDbLine
 10
-3.25492125984252
 20
1.562992125984251
 30
0.0
 11
-3.253937007874016
 21
1.562992125984251
 31
0.0
  0
LINE
  5
613
330
1E
100
AcDbEntity
  8
7
100
AcDbLine
 10
-3.083661417322835
 20
1.754921259842519
 30
0.0
 11
-3.122047244094488
 21
1.775590551181102
 31
0.0
  0
LINE
  5
614
330
1E
100
AcDbEntity
  8
7
100
AcDbLine
 10
-3.122047244094488
 20
1.775590551181102
 30
0.0
 11
-3.162401574803149
 21
1.788385826771653
 31
0.0
  0
LINE
  5
615
330
1E
100
AcDbEntity
  8
7
100
AcDbLine
 10
-3.162401574803149
 20
1.788385826771653
 30
0.0
 11
-3.205708661417323
 21
1.792322834645668
 31
0.0
  0
LINE
  5
616
330
1E
100
AcDbEntity
  8
7
100
AcDbLine
 10
-3.289370078740157
 20
1.37007874015748
 30
0.0
 11
-3.249015748031496
 21
1.357283464566929
 31
0.0
  0
LINE
  5
617
330
1E
100
AcDbEntity
  8
7
100
AcDbLine
 10
-3.249015748031496
 20
1.357283464566929
 30
0.0
 11
-3.205708661417323
 21
1.353346456692913
 31
0.0
  0
LINE
  5
618
330
1E
100
AcDbEntity
  8
7
100
AcDbLine
 10
-3.205708661417323
 20
1.353346456692913
 30
0.0
 11
-3.162401574803149
 21
1.357283464566929
 31
0.0
  0
LINE
  5
619
330
1E
100
AcDbEntity
  8
7
100
AcDbLine
 10
-3.162401574803149
 20
1.357283464566929
 30
0.0
 11
-3.122047244094488
 21
1.37007874015748
 31
0.0
  0
LINE
  5
61A
330
1E
100
AcDbEntity
  8
7
100
AcDbLine
 10
-3.122047244094488
 20
1.37007874015748
 30
0.0
 11
-3.083661417322835
 21
1.390748031496062
 31
0.0
  0
LINE
  5
61B
330
1E
100
AcDbEntity
  8
7
100
AcDbLine
 10
-3.083661417322835
 20
1.390748031496062
 30
0.0
 11
-3.0501968503937
 21
1.417322834645668
 31
0.0
  0
LINE
  5
61C
330
1E
100
AcDbEntity
  8
7
100
AcDbLine
 10
-3.0501968503937
 20
1.417322834645668
 30
0.0
 11
-3.023622047244094
 21
1.450787401574803
 31
0.0
  0
LINE
  5
61D
330
1E
100
AcDbEntity
  8
7
100
AcDbLine
 10
-3.023622047244094
 20
1.450787401574803
 30
0.0
 11
-3.002952755905512
 21
1.489173228346456
 31
0.0
  0
LINE
  5
61E
330
1E
100
AcDbEntity
  8
7
100
AcDbLine
 10
-3.002952755905512
 20
1.489173228346456
 30
0.0
 11
-2.990157480314961
 21
1.529527559055118
 31
0.0
  0
LINE
  5
61F
330
1E
100
AcDbEntity
  8
7
100
AcDbLine
 10
-2.990157480314961
 20
1.529527559055118
 30
0.0
 11
-2.986220472440945
 21
1.572834645669291
 31
0.0
  0
LINE
  5
620
330
1E
100
AcDbEntity
  8
7
100
AcDbLine
 10
-2.986220472440945
 20
1.572834645669291
 30
0.0
 11
-2.990157480314961
 21
1.616141732283464
 31
0.0
  0
LINE
  5
621
330
1E
100
AcDbEntity
  8
7
100
AcDbLine
 10
-2.990157480314961
 20
1.616141732283464
 30
0.0
 11
-3.002952755905512
 21
1.656496062992125
 31
0.0
  0
LINE
  5
622
330
1E
100
AcDbEntity
  8
7
100
AcDbLine
 10
-3.002952755905512
 20
1.656496062992125
 30
0.0
 11
-3.023622047244094
 21
1.694881889763779
 31
0.0
  0
LINE
  5
623
330
1E
100
AcDbEntity
  8
7
100
AcDbLine
 10
-3.023622047244094
 20
1.694881889763779
 30
0.0
 11
-3.0501968503937
 21
1.728346456692913
 31
0.0
  0
LINE
  5
624
330
1E
100
AcDbEntity
  8
7
100
AcDbLine
 10
-3.0501968503937
 20
1.728346456692913
 30
0.0
 11
-3.083661417322835
 21
1.754921259842519
 31
0.0
  0
LINE
  5
625
330
1E
100
AcDbEntity
  8
7
100
AcDbLine
 10
-3.249015748031496
 20
1.788385826771653
 30
0.0
 11
-3.289370078740157
 21
1.775590551181102
 31
0.0
  0
LINE
  5
626
330
1E
100
AcDbEntity
  8
7
100
AcDbLine
 10
-3.289370078740157
 20
1.775590551181102
 30
0.0
 11
-3.327755905511811
 21
1.754921259842519
 31
0.0
  0
LINE
  5
627
330
1E
100
AcDbEntity
  8
7
100
AcDbLine
 10
-3.327755905511811
 20
1.754921259842519
 30
0.0
 11
-3.361220472440945
 21
1.728346456692913
 31
0.0
  0
LINE
  5
628
330
1E
100
AcDbEntity
  8
7
100
AcDbLine
 10
-3.361220472440945
 20
1.728346456692913
 30
0.0
 11
-3.387795275590551
 21
1.694881889763779
 31
0.0
  0
LINE
  5
629
330
1E
100
AcDbEntity
  8
7
100
AcDbLine
 10
-3.387795275590551
 20
1.694881889763779
 30
0.0
 11
-3.408464566929134
 21
1.656496062992125
 31
0.0
  0
LINE
  5
62A
330
1E
100
AcDbEntity
  8
7
100
AcDbLine
 10
-3.408464566929134
 20
1.656496062992125
 30
0.0
 11
-3.421259842519685
 21
1.616141732283464
 31
0.0
  0
LINE
  5
62B
330
1E
100
AcDbEntity
  8
7
100
AcDbLine
 10
-3.421259842519685
 20
1.616141732283464
 30
0.0
 11
-3.4251968503937
 21
1.572834645669291
 31
0.0
  0
LINE
  5
62C
330
1E
100
AcDbEntity
  8
7
100
AcDbLine
 10
-3.4251968503937
 20
1.572834645669291
 30
0.0
 11
-3.421259842519685
 21
1.529527559055118
 31
0.0
  0
LINE
  5
62D
330
1E
100
AcDbEntity
  8
7
100
AcDbLine
 10
-3.421259842519685
 20
1.529527559055118
 30
0.0
 11
-3.408464566929134
 21
1.489173228346456
 31
0.0
  0
LINE
  5
62E
330
1E
100
AcDbEntity
  8
7
100
AcDbLine
 10
-3.408464566929134
 20
1.489173228346456
 30
0.0
 11
-3.387795275590551
 21
1.450787401574803
 31
0.0
  0
LINE
  5
62F
330
1E
100
AcDbEntity
  8
7
100
AcDbLine
 10
-3.387795275590551
 20
1.450787401574803
 30
0.0
 11
-3.361220472440945
 21
1.417322834645668
 31
0.0
  0
LINE
  5
630
330
1E
100
AcDbEntity
  8
7
100
AcDbLine
 10
-3.361220472440945
 20
1.417322834645668
 30
0.0
 11
-3.327755905511811
 21
1.390748031496062
 31
0.0
  0
LINE
  5
631
330
1E
100
AcDbEntity
  8
7
100
AcDbLine
 10
-3.327755905511811
 20
1.390748031496062
 30
0.0
 11
-3.289370078740157
 21
1.37007874015748
 31
0.0
  0
LINE
  5
632
330
1E
100
AcDbEntity
  8
7
100
AcDbLine
 10
-3.31496062992126
 20
1.380905511811023
 30
0.0
 11
-3.273622047244094
 21
1.362204724409448
 31
0.0
  0
LINE
  5
633
330
1E
100
AcDbEntity
  8
7
100
AcDbLine
 10
-3.273622047244094
 20
1.362204724409448
 30
0.0
 11
-3.228346456692913
 21
1.352362204724408
 31
0.0
  0
LINE
  5
634
330
1E
100
AcDbEntity
  8
7
100
AcDbLine
 10
-3.228346456692913
 20
1.352362204724408
 30
0.0
 11
-3.183070866141732
 21
1.352362204724408
 31
0.0
  0
LINE
  5
635
330
1E
100
AcDbEntity
  8
7
100
AcDbLine
 10
-3.183070866141732
 20
1.352362204724408
 30
0.0
 11
-3.137795275590551
 21
1.362204724409448
 31
0.0
  0
LINE
  5
636
330
1E
100
AcDbEntity
  8
7
100
AcDbLine
 10
-3.137795275590551
 20
1.362204724409448
 30
0.0
 11
-3.096456692913386
 21
1.380905511811023
 31
0.0
  0
LINE
  5
637
330
1E
100
AcDbEntity
  8
7
100
AcDbLine
 10
-3.31496062992126
 20
1.281496062992125
 30
0.0
 11
-3.311023622047244
 21
1.270669291338582
 31
0.0
  0
LINE
  5
638
330
1E
100
AcDbEntity
  8
7
100
AcDbLine
 10
-3.311023622047244
 20
1.270669291338582
 30
0.0
 11
-3.3001968503937
 21
1.266732283464567
 31
0.0
  0
LINE
  5
639
330
1E
100
AcDbEntity
  8
7
100
AcDbLine
 10
-3.110236220472441
 20
1.266732283464567
 30
0.0
 11
-3.099409448818898
 21
1.270669291338582
 31
0.0
  0
LINE
  5
63A
330
1E
100
AcDbEntity
  8
7
100
AcDbLine
 10
-3.099409448818898
 20
1.270669291338582
 30
0.0
 11
-3.095472440944882
 21
1.281496062992125
 31
0.0
  0
LINE
  5
63B
330
1E
100
AcDbEntity
  8
7
100
AcDbLine
 10
-3.269685039370079
 20
1.785433070866141
 30
0.0
 11
-3.309055118110236
 21
1.768700787401574
 31
0.0
  0
LINE
  5
63C
330
1E
100
AcDbEntity
  8
7
100
AcDbLine
 10
-3.309055118110236
 20
1.768700787401574
 30
0.0
 11
-3.345472440944882
 21
1.74507874015748
 31
0.0
  0
LINE
  5
63D
330
1E
100
AcDbEntity
  8
7
100
AcDbLine
 10
-3.345472440944882
 20
1.74507874015748
 30
0.0
 11
-3.375984251968504
 21
1.714566929133857
 31
0.0
  0
LINE
  5
63E
330
1E
100
AcDbEntity
  8
7
100
AcDbLine
 10
-3.375984251968504
 20
1.714566929133857
 30
0.0
 11
-3.399606299212599
 21
1.679133858267716
 31
0.0
  0
LINE
  5
63F
330
1E
100
AcDbEntity
  8
7
100
AcDbLine
 10
-3.399606299212599
 20
1.679133858267716
 30
0.0
 11
-3.416338582677165
 21
1.639763779527558
 31
0.0
  0
LINE
  5
640
330
1E
100
AcDbEntity
  8
7
100
AcDbLine
 10
-3.416338582677165
 20
1.639763779527558
 30
0.0
 11
-3.426181102362205
 21
1.597440944881889
 31
0.0
  0
LINE
  5
641
330
1E
100
AcDbEntity
  8
7
100
AcDbLine
 10
-3.426181102362205
 20
1.597440944881889
 30
0.0
 11
-3.426181102362205
 21
1.555118110236219
 31
0.0
  0
LINE
  5
642
330
1E
100
AcDbEntity
  8
7
100
AcDbLine
 10
-3.426181102362205
 20
1.555118110236219
 30
0.0
 11
-3.419291338582677
 21
1.512795275590551
 31
0.0
  0
LINE
  5
643
330
1E
100
AcDbEntity
  8
7
100
AcDbLine
 10
-3.419291338582677
 20
1.512795275590551
 30
0.0
 11
-3.403543307086614
 21
1.472440944881889
 31
0.0
  0
LINE
  5
644
330
1E
100
AcDbEntity
  8
7
100
AcDbLine
 10
-3.403543307086614
 20
1.472440944881889
 30
0.0
 11
-3.37992125984252
 21
1.436023622047243
 31
0.0
  0
LINE
  5
645
330
1E
100
AcDbEntity
  8
7
100
AcDbLine
 10
-3.37992125984252
 20
1.436023622047243
 30
0.0
 11
-3.350393700787401
 21
1.405511811023621
 31
0.0
  0
LINE
  5
646
330
1E
100
AcDbEntity
  8
7
100
AcDbLine
 10
-3.350393700787401
 20
1.405511811023621
 30
0.0
 11
-3.31496062992126
 21
1.380905511811023
 31
0.0
  0
LINE
  5
647
330
1E
100
AcDbEntity
  8
7
100
AcDbLine
 10
-3.096456692913386
 20
1.380905511811023
 30
0.0
 11
-3.061023622047244
 21
1.405511811023621
 31
0.0
  0
LINE
  5
648
330
1E
100
AcDbEntity
  8
7
100
AcDbLine
 10
-3.061023622047244
 20
1.405511811023621
 30
0.0
 11
-3.031496062992126
 21
1.436023622047243
 31
0.0
  0
LINE
  5
649
330
1E
100
AcDbEntity
  8
7
100
AcDbLine
 10
-3.031496062992126
 20
1.436023622047243
 30
0.0
 11
-3.007874015748031
 21
1.472440944881889
 31
0.0
  0
LINE
  5
64A
330
1E
100
AcDbEntity
  8
7
100
AcDbLine
 10
-3.007874015748031
 20
1.472440944881889
 30
0.0
 11
-2.992125984251968
 21
1.512795275590551
 31
0.0
  0
LINE
  5
64B
330
1E
100
AcDbEntity
  8
7
100
AcDbLine
 10
-2.992125984251968
 20
1.512795275590551
 30
0.0
 11
-2.985236220472441
 21
1.555118110236219
 31
0.0
  0
LINE
  5
64C
330
1E
100
AcDbEntity
  8
7
100
AcDbLine
 10
-2.985236220472441
 20
1.555118110236219
 30
0.0
 11
-2.985236220472441
 21
1.597440944881889
 31
0.0
  0
LINE
  5
64D
330
1E
100
AcDbEntity
  8
7
100
AcDbLine
 10
-2.985236220472441
 20
1.597440944881889
 30
0.0
 11
-2.99507874015748
 21
1.639763779527558
 31
0.0
  0
LINE
  5
64E
330
1E
100
AcDbEntity
  8
7
100
AcDbLine
 10
-2.99507874015748
 20
1.639763779527558
 30
0.0
 11
-3.011811023622047
 21
1.679133858267716
 31
0.0
  0
LINE
  5
64F
330
1E
100
AcDbEntity
  8
7
100
AcDbLine
 10
-3.011811023622047
 20
1.679133858267716
 30
0.0
 11
-3.035433070866142
 21
1.714566929133857
 31
0.0
  0
LINE
  5
650
330
1E
100
AcDbEntity
  8
7
100
AcDbLine
 10
-3.035433070866142
 20
1.714566929133857
 30
0.0
 11
-3.065944881889763
 21
1.74507874015748
 31
0.0
  0
LINE
  5
651
330
1E
100
AcDbEntity
  8
7
100
AcDbLine
 10
-3.065944881889763
 20
1.74507874015748
 30
0.0
 11
-3.10236220472441
 21
1.768700787401574
 31
0.0
  0
LINE
  5
652
330
1E
100
AcDbEntity
  8
7
100
AcDbLine
 10
-3.10236220472441
 20
1.768700787401574
 30
0.0
 11
-3.141732283464567
 21
1.785433070866141
 31
0.0
  0
LINE
  5
653
330
1E
100
AcDbEntity
  8
7
100
AcDbLine
 10
-3.141732283464567
 20
1.785433070866141
 30
0.0
 11
-3.184055118110236
 21
1.793307086614172
 31
0.0
  0
LINE
  5
654
330
1E
100
AcDbEntity
  8
7
100
AcDbLine
 10
-3.184055118110236
 20
1.793307086614172
 30
0.0
 11
-3.22736220472441
 21
1.793307086614172
 31
0.0
  0
LINE
  5
655
330
1E
100
AcDbEntity
  8
7
100
AcDbLine
 10
-3.22736220472441
 20
1.793307086614172
 30
0.0
 11
-3.269685039370079
 21
1.785433070866141
 31
0.0
  0
LINE
  5
656
330
1E
100
AcDbEntity
  8
7
100
AcDbLine
 10
-2.90255905511811
 20
1.201771653543306
 30
0.0
 11
-2.903543307086614
 21
1.201771653543306
 31
0.0
  0
LINE
  5
657
330
1E
100
AcDbEntity
  8
7
100
AcDbLine
 10
-2.903543307086614
 20
1.201771653543306
 30
0.0
 11
-2.90748031496063
 21
1.201771653543306
 31
0.0
  0
LINE
  5
658
330
1E
100
AcDbEntity
  8
7
100
AcDbLine
 10
-3.503937007874016
 20
1.201771653543306
 30
0.0
 11
-3.506889763779527
 21
1.201771653543306
 31
0.0
  0
LINE
  5
659
330
1E
100
AcDbEntity
  8
7
100
AcDbLine
 10
-3.506889763779527
 20
1.201771653543306
 30
0.0
 11
-3.508858267716536
 21
1.201771653543306
 31
0.0
  0
LINE
  5
65A
330
1E
100
AcDbEntity
  8
7
100
AcDbLine
 10
-0.377952755905512
 20
1.460629921259842
 30
0.0
 11
-0.377952755905512
 21
1.421259842519684
 31
0.0
  0
LINE
  5
65B
330
1E
100
AcDbEntity
  8
7
100
AcDbLine
 10
-0.377952755905512
 20
1.421259842519684
 30
0.0
 11
-0.377952755905512
 21
1.387795275590551
 31
0.0
  0
LINE
  5
65C
330
1E
100
AcDbEntity
  8
7
100
AcDbLine
 10
-0.377952755905512
 20
1.387795275590551
 30
0.0
 11
-0.377952755905512
 21
1.360236220472441
 31
0.0
  0
LINE
  5
65D
330
1E
100
AcDbEntity
  8
7
100
AcDbLine
 10
-0.377952755905512
 20
1.360236220472441
 30
0.0
 11
-0.377952755905512
 21
1.339566929133857
 31
0.0
  0
LINE
  5
65E
330
1E
100
AcDbEntity
  8
7
100
AcDbLine
 10
-0.377952755905512
 20
1.339566929133857
 30
0.0
 11
-0.377952755905512
 21
1.326771653543306
 31
0.0
  0
LINE
  5
65F
330
1E
100
AcDbEntity
  8
7
100
AcDbLine
 10
-0.377952755905512
 20
1.326771653543306
 30
0.0
 11
-0.377952755905512
 21
1.322834645669291
 31
0.0
  0
LINE
  5
660
330
1E
100
AcDbEntity
  8
7
100
AcDbLine
 10
-0.377952755905512
 20
1.822834645669291
 30
0.0
 11
-0.377952755905512
 21
1.817913385826771
 31
0.0
  0
LINE
  5
661
330
1E
100
AcDbEntity
  8
7
100
AcDbLine
 10
-0.377952755905512
 20
1.817913385826771
 30
0.0
 11
-0.377952755905512
 21
1.80511811023622
 31
0.0
  0
LINE
  5
662
330
1E
100
AcDbEntity
  8
7
100
AcDbLine
 10
-0.377952755905512
 20
1.80511811023622
 30
0.0
 11
-0.377952755905512
 21
1.784448818897637
 31
0.0
  0
LINE
  5
663
330
1E
100
AcDbEntity
  8
7
100
AcDbLine
 10
-0.377952755905512
 20
1.784448818897637
 30
0.0
 11
-0.377952755905512
 21
1.756889763779527
 31
0.0
  0
LINE
  5
664
330
1E
100
AcDbEntity
  8
7
100
AcDbLine
 10
-0.377952755905512
 20
1.756889763779527
 30
0.0
 11
-0.377952755905512
 21
1.723425196850393
 31
0.0
  0
LINE
  5
665
330
1E
100
AcDbEntity
  8
7
100
AcDbLine
 10
-0.377952755905512
 20
1.723425196850393
 30
0.0
 11
-0.377952755905512
 21
1.684055118110235
 31
0.0
  0
LINE
  5
666
330
1E
100
AcDbEntity
  8
7
100
AcDbLine
 10
-0.377952755905512
 20
1.684055118110235
 30
0.0
 11
-0.377952755905512
 21
1.640748031496062
 31
0.0
  0
LINE
  5
667
330
1E
100
AcDbEntity
  8
7
100
AcDbLine
 10
-0.377952755905512
 20
1.640748031496062
 30
0.0
 11
-0.377952755905512
 21
1.595472440944881
 31
0.0
  0
LINE
  5
668
330
1E
100
AcDbEntity
  8
7
100
AcDbLine
 10
-0.377952755905512
 20
1.595472440944881
 30
0.0
 11
-0.377952755905512
 21
1.549212598425196
 31
0.0
  0
LINE
  5
669
330
1E
100
AcDbEntity
  8
7
100
AcDbLine
 10
-0.377952755905512
 20
1.549212598425196
 30
0.0
 11
-0.377952755905512
 21
1.503937007874015
 31
0.0
  0
LINE
  5
66A
330
1E
100
AcDbEntity
  8
7
100
AcDbLine
 10
-0.377952755905512
 20
1.503937007874015
 30
0.0
 11
-0.377952755905512
 21
1.460629921259842
 31
0.0
  0
LINE
  5
66B
330
1E
100
AcDbEntity
  8
7
100
AcDbLine
 10
-0.2854330708661425
 20
1.5501968503937
 30
0.0
 11
-0.2854330708661425
 21
1.594488188976377
 31
0.0
  0
LINE
  5
66C
330
1E
100
AcDbEntity
  8
7
100
AcDbLine
 10
-0.2854330708661425
 20
1.594488188976377
 30
0.0
 11
-0.2854330708661425
 21
1.638779527559055
 31
0.0
  0
LINE
  5
66D
330
1E
100
AcDbEntity
  8
7
100
AcDbLine
 10
-0.2854330708661425
 20
1.638779527559055
 30
0.0
 11
-0.2854330708661425
 21
1.680118110236219
 31
0.0
  0
LINE
  5
66E
330
1E
100
AcDbEntity
  8
7
100
AcDbLine
 10
-0.2854330708661425
 20
1.464566929133857
 30
0.0
 11
-0.2854330708661425
 21
1.505905511811023
 31
0.0
  0
LINE
  5
66F
330
1E
100
AcDbEntity
  8
7
100
AcDbLine
 10
-0.2854330708661425
 20
1.505905511811023
 30
0.0
 11
-0.2854330708661425
 21
1.5501968503937
 31
0.0
  0
LINE
  5
670
330
1E
100
AcDbEntity
  8
7
100
AcDbLine
 10
-0.3690944881889768
 20
1.357283464566929
 30
0.0
 11
-0.3730314960629926
 21
1.384842519685039
 31
0.0
  0
LINE
  5
671
330
1E
100
AcDbEntity
  8
7
100
AcDbLine
 10
-0.3730314960629926
 20
1.384842519685039
 30
0.0
 11
-0.3769685039370083
 21
1.438976377952756
 31
0.0
  0
LINE
  5
672
330
1E
100
AcDbEntity
  8
7
100
AcDbLine
 10
-0.3769685039370083
 20
1.438976377952756
 30
0.0
 11
-0.377952755905512
 21
1.464566929133857
 31
0.0
  0
LINE
  5
673
330
1E
100
AcDbEntity
  8
7
100
AcDbLine
 10
-0.377952755905512
 20
1.464566929133857
 30
0.0
 11
-0.377952755905512
 21
1.488188976377952
 31
0.0
  0
LINE
  5
674
330
1E
100
AcDbEntity
  8
7
100
AcDbLine
 10
-0.377952755905512
 20
1.488188976377952
 30
0.0
 11
-0.3759842519685042
 21
1.516732283464567
 31
0.0
  0
LINE
  5
675
330
1E
100
AcDbEntity
  8
7
100
AcDbLine
 10
-0.3759842519685042
 20
1.516732283464567
 30
0.0
 11
-0.3690944881889768
 21
1.572834645669291
 31
0.0
  0
LINE
  5
676
330
1E
100
AcDbEntity
  8
7
100
AcDbLine
 10
-0.2854330708661425
 20
1.464566929133857
 30
0.0
 11
-0.2854330708661425
 21
1.488188976377952
 31
0.0
  0
LINE
  5
677
330
1E
100
AcDbEntity
  8
7
100
AcDbLine
 10
-0.2854330708661425
 20
1.488188976377952
 30
0.0
 11
-0.290354330708662
 21
1.544291338582677
 31
0.0
  0
LINE
  5
678
330
1E
100
AcDbEntity
  8
7
100
AcDbLine
 10
-0.290354330708662
 20
1.544291338582677
 30
0.0
 11
-0.2942913385826777
 21
1.572834645669291
 31
0.0
  0
LINE
  5
679
330
1E
100
AcDbEntity
  8
7
100
AcDbLine
 10
-0.2942913385826777
 20
1.357283464566929
 30
0.0
 11
-0.2893700787401583
 21
1.387795275590551
 31
0.0
  0
LINE
  5
67A
330
1E
100
AcDbEntity
  8
7
100
AcDbLine
 10
-0.2893700787401583
 20
1.387795275590551
 30
0.0
 11
-0.2854330708661425
 21
1.441929133858267
 31
0.0
  0
LINE
  5
67B
330
1E
100
AcDbEntity
  8
7
100
AcDbLine
 10
-0.2854330708661425
 20
1.441929133858267
 30
0.0
 11
-0.2854330708661425
 21
1.464566929133857
 31
0.0
  0
LINE
  5
67C
330
1E
100
AcDbEntity
  8
7
100
AcDbLine
 10
-0.3690944881889768
 20
1.572834645669291
 30
0.0
 11
-0.3740157480314963
 21
1.613188976377952
 31
0.0
  0
LINE
  5
67D
330
1E
100
AcDbEntity
  8
7
100
AcDbLine
 10
-0.3740157480314963
 20
1.613188976377952
 30
0.0
 11
-0.3769685039370083
 21
1.653543307086614
 31
0.0
  0
LINE
  5
67E
330
1E
100
AcDbEntity
  8
7
100
AcDbLine
 10
-0.3769685039370083
 20
1.653543307086614
 30
0.0
 11
-0.377952755905512
 21
1.680118110236219
 31
0.0
  0
LINE
  5
67F
330
1E
100
AcDbEntity
  8
7
100
AcDbLine
 10
-0.377952755905512
 20
1.680118110236219
 30
0.0
 11
-0.377952755905512
 21
1.703740157480314
 31
0.0
  0
LINE
  5
680
330
1E
100
AcDbEntity
  8
7
100
AcDbLine
 10
-0.377952755905512
 20
1.703740157480314
 30
0.0
 11
-0.3759842519685042
 21
1.731299212598424
 31
0.0
  0
LINE
  5
681
330
1E
100
AcDbEntity
  8
7
100
AcDbLine
 10
-0.3759842519685042
 20
1.731299212598424
 30
0.0
 11
-0.3690944881889768
 21
1.787401574803149
 31
0.0
  0
LINE
  5
682
330
1E
100
AcDbEntity
  8
7
100
AcDbLine
 10
-0.2942913385826777
 20
1.572834645669291
 30
0.0
 11
-0.2854330708661425
 21
1.653543307086614
 31
0.0
  0
LINE
  5
683
330
1E
100
AcDbEntity
  8
7
100
AcDbLine
 10
-0.2854330708661425
 20
1.653543307086614
 30
0.0
 11
-0.2854330708661425
 21
1.680118110236219
 31
0.0
  0
LINE
  5
684
330
1E
100
AcDbEntity
  8
7
100
AcDbLine
 10
-0.2854330708661425
 20
1.680118110236219
 30
0.0
 11
-0.2854330708661425
 21
1.703740157480314
 31
0.0
  0
LINE
  5
685
330
1E
100
AcDbEntity
  8
7
100
AcDbLine
 10
-0.2854330708661425
 20
1.703740157480314
 30
0.0
 11
-0.28740157480315
 21
1.731299212598424
 31
0.0
  0
LINE
  5
686
330
1E
100
AcDbEntity
  8
7
100
AcDbLine
 10
-0.28740157480315
 20
1.731299212598424
 30
0.0
 11
-0.290354330708662
 21
1.759842519685039
 31
0.0
  0
LINE
  5
687
330
1E
100
AcDbEntity
  8
7
100
AcDbLine
 10
-0.290354330708662
 20
1.759842519685039
 30
0.0
 11
-0.2942913385826777
 21
1.787401574803149
 31
0.0
  0
LINE
  5
688
330
1E
100
AcDbEntity
  8
7
100
AcDbLine
 10
-0.2942913385826777
 20
1.787401574803149
 30
0.0
 11
-0.3690944881889768
 21
1.787401574803149
 31
0.0
  0
LINE
  5
689
330
1E
100
AcDbEntity
  8
7
100
AcDbLine
 10
-0.0433070866141741
 20
1.404527559055118
 30
0.0
 11
-0.0570866141732287
 21
1.404527559055118
 31
0.0
  0
LINE
  5
68A
330
1E
100
AcDbEntity
  8
7
100
AcDbLine
 10
-0.0570866141732287
 20
1.404527559055118
 30
0.0
 11
-0.0728346456692917
 21
1.404527559055118
 31
0.0
  0
LINE
  5
68B
330
1E
100
AcDbEntity
  8
7
100
AcDbLine
 10
-0.0728346456692917
 20
1.404527559055118
 30
0.0
 11
-0.0856299212598426
 21
1.404527559055118
 31
0.0
  0
LINE
  5
68C
330
1E
100
AcDbEntity
  8
7
100
AcDbLine
 10
-0.0856299212598426
 20
1.404527559055118
 30
0.0
 11
-0.090551181102363
 21
1.404527559055118
 31
0.0
  0
LINE
  5
68D
330
1E
100
AcDbEntity
  8
7
100
AcDbLine
 10
-0.090551181102363
 20
1.74015748031496
 30
0.0
 11
-0.0826771653543315
 21
1.74015748031496
 31
0.0
  0
LINE
  5
68E
330
1E
100
AcDbEntity
  8
7
100
AcDbLine
 10
-0.0826771653543315
 20
1.74015748031496
 30
0.0
 11
-0.0649606299212602
 21
1.74015748031496
 31
0.0
  0
LINE
  5
68F
330
1E
100
AcDbEntity
  8
7
100
AcDbLine
 10
-0.0649606299212602
 20
1.74015748031496
 30
0.0
 11
-0.0462598425196852
 21
1.74015748031496
 31
0.0
  0
LINE
  5
690
330
1E
100
AcDbEntity
  8
7
100
AcDbLine
 10
-0.0462598425196852
 20
1.74015748031496
 30
0.0
 11
-0.0383858267716537
 21
1.74015748031496
 31
0.0
  0
LINE
  5
691
330
1E
100
AcDbEntity
  8
7
100
AcDbLine
 10
-0.8533464566929138
 20
1.404527559055118
 30
0.0
 11
-0.8582677165354333
 21
1.404527559055118
 31
0.0
  0
LINE
  5
692
330
1E
100
AcDbEntity
  8
7
100
AcDbLine
 10
-0.8582677165354333
 20
1.404527559055118
 30
0.0
 11
-0.8710629921259847
 21
1.404527559055118
 31
0.0
  0
LINE
  5
693
330
1E
100
AcDbEntity
  8
7
100
AcDbLine
 10
-0.8710629921259847
 20
1.404527559055118
 30
0.0
 11
-0.8868110236220477
 21
1.404527559055118
 31
0.0
  0
LINE
  5
694
330
1E
100
AcDbEntity
  8
7
100
AcDbLine
 10
-0.8868110236220477
 20
1.404527559055118
 30
0.0
 11
-0.899606299212599
 21
1.404527559055118
 31
0.0
  0
LINE
  5
695
330
1E
100
AcDbEntity
  8
7
100
AcDbLine
 10
-0.899606299212599
 20
1.404527559055118
 30
0.0
 11
-0.9045275590551185
 21
1.404527559055118
 31
0.0
  0
LINE
  5
696
330
1E
100
AcDbEntity
  8
7
100
AcDbLine
 10
-0.9045275590551185
 20
1.74015748031496
 30
0.0
 11
-0.897637795275591
 21
1.74015748031496
 31
0.0
  0
LINE
  5
697
330
1E
100
AcDbEntity
  8
7
100
AcDbLine
 10
-0.897637795275591
 20
1.74015748031496
 30
0.0
 11
-0.8789370078740162
 21
1.74015748031496
 31
0.0
  0
LINE
  5
698
330
1E
100
AcDbEntity
  8
7
100
AcDbLine
 10
-0.8789370078740162
 20
1.74015748031496
 30
0.0
 11
-0.8602362204724411
 21
1.74015748031496
 31
0.0
  0
LINE
  5
699
330
1E
100
AcDbEntity
  8
7
100
AcDbLine
 10
-0.8602362204724411
 20
1.74015748031496
 30
0.0
 11
-0.8533464566929138
 21
1.74015748031496
 31
0.0
  0
LINE
  5
69A
330
1E
100
AcDbEntity
  8
7
100
AcDbLine
 10
-0.090551181102363
 20
1.709645669291338
 30
0.0
 11
-0.0895669291338584
 21
1.708661417322834
 31
0.0
  0
LINE
  5
69B
330
1E
100
AcDbEntity
  8
7
100
AcDbLine
 10
-0.0895669291338584
 20
1.708661417322834
 30
0.0
 11
-0.0856299212598426
 21
1.708661417322834
 31
0.0
  0
LINE
  5
69C
330
1E
100
AcDbEntity
  8
7
100
AcDbLine
 10
-0.0856299212598426
 20
1.708661417322834
 30
0.0
 11
-0.0787401574803157
 21
1.70767716535433
 31
0.0
  0
LINE
  5
69D
330
1E
100
AcDbEntity
  8
7
100
AcDbLine
 10
-0.0787401574803157
 20
1.70767716535433
 30
0.0
 11
-0.0708661417322842
 21
1.706692913385826
 31
0.0
  0
LINE
  5
69E
330
1E
100
AcDbEntity
  8
7
100
AcDbLine
 10
-0.0708661417322842
 20
1.706692913385826
 30
0.0
 11
-0.0649606299212602
 21
1.706692913385826
 31
0.0
  0
LINE
  5
69F
330
1E
100
AcDbEntity
  8
7
100
AcDbLine
 10
-0.0649606299212602
 20
1.706692913385826
 30
0.0
 11
-0.056102362204725
 21
1.706692913385826
 31
0.0
  0
LINE
  5
6A0
330
1E
100
AcDbEntity
  8
7
100
AcDbLine
 10
-0.056102362204725
 20
1.706692913385826
 30
0.0
 11
-0.0482283464566935
 21
1.70767716535433
 31
0.0
  0
LINE
  5
6A1
330
1E
100
AcDbEntity
  8
7
100
AcDbLine
 10
-0.0482283464566935
 20
1.70767716535433
 30
0.0
 11
-0.0423228346456695
 21
1.708661417322834
 31
0.0
  0
LINE
  5
6A2
330
1E
100
AcDbEntity
  8
7
100
AcDbLine
 10
-0.0423228346456695
 20
1.708661417322834
 30
0.0
 11
-0.0393700787401583
 21
1.708661417322834
 31
0.0
  0
LINE
  5
6A3
330
1E
100
AcDbEntity
  8
7
100
AcDbLine
 10
-0.0393700787401583
 20
1.436023622047243
 30
0.0
 11
-0.0383858267716537
 21
1.436023622047243
 31
0.0
  0
LINE
  5
6A4
330
1E
100
AcDbEntity
  8
7
100
AcDbLine
 10
-0.0383858267716537
 20
1.436023622047243
 30
0.0
 11
-0.0413385826771657
 21
1.436023622047243
 31
0.0
  0
LINE
  5
6A5
330
1E
100
AcDbEntity
  8
7
100
AcDbLine
 10
-0.0413385826771657
 20
1.436023622047243
 30
0.0
 11
-0.0462598425196852
 21
1.437007874015747
 31
0.0
  0
LINE
  5
6A6
330
1E
100
AcDbEntity
  8
7
100
AcDbLine
 10
-0.0462598425196852
 20
1.437007874015747
 30
0.0
 11
-0.053149606299213
 21
1.437992125984251
 31
0.0
  0
LINE
  5
6A7
330
1E
100
AcDbEntity
  8
7
100
AcDbLine
 10
-0.053149606299213
 20
1.437992125984251
 30
0.0
 11
-0.0610236220472444
 21
1.437992125984251
 31
0.0
  0
LINE
  5
6A8
330
1E
100
AcDbEntity
  8
7
100
AcDbLine
 10
-0.0610236220472444
 20
1.437992125984251
 30
0.0
 11
-0.0698818897637796
 21
1.437992125984251
 31
0.0
  0
LINE
  5
6A9
330
1E
100
AcDbEntity
  8
7
100
AcDbLine
 10
-0.0698818897637796
 20
1.437992125984251
 30
0.0
 11
-0.0777559055118111
 21
1.437007874015747
 31
0.0
  0
LINE
  5
6AA
330
1E
100
AcDbEntity
  8
7
100
AcDbLine
 10
-0.0777559055118111
 20
1.437007874015747
 30
0.0
 11
-0.0846456692913389
 21
1.437007874015747
 31
0.0
  0
LINE
  5
6AB
330
1E
100
AcDbEntity
  8
7
100
AcDbLine
 10
-0.0846456692913389
 20
1.437007874015747
 30
0.0
 11
-0.0885826771653546
 21
1.436023622047243
 31
0.0
  0
LINE
  5
6AC
330
1E
100
AcDbEntity
  8
7
100
AcDbLine
 10
-0.0885826771653546
 20
1.436023622047243
 30
0.0
 11
-0.090551181102363
 21
1.436023622047243
 31
0.0
  0
LINE
  5
6AD
330
1E
100
AcDbEntity
  8
7
100
AcDbLine
 10
-0.1781496062992129
 20
1.58267716535433
 30
0.0
 11
-0.1781496062992129
 21
1.58759842519685
 31
0.0
  0
LINE
  5
6AE
330
1E
100
AcDbEntity
  8
7
100
AcDbLine
 10
-0.1781496062992129
 20
1.58759842519685
 30
0.0
 11
-0.1751968503937009
 21
1.592519685039369
 31
0.0
  0
LINE
  5
6AF
330
1E
100
AcDbEntity
  8
7
100
AcDbLine
 10
-0.1751968503937009
 20
1.592519685039369
 30
0.0
 11
-0.1712598425196852
 21
1.595472440944881
 31
0.0
  0
LINE
  5
6B0
330
1E
100
AcDbEntity
  8
7
100
AcDbLine
 10
-0.1712598425196852
 20
1.595472440944881
 30
0.0
 11
-0.1673228346456694
 21
1.597440944881889
 31
0.0
  0
LINE
  5
6B1
330
1E
100
AcDbEntity
  8
7
100
AcDbLine
 10
-0.1673228346456694
 20
1.597440944881889
 30
0.0
 11
-0.1633858267716537
 21
1.597440944881889
 31
0.0
  0
LINE
  5
6B2
330
1E
100
AcDbEntity
  8
7
100
AcDbLine
 10
-0.1781496062992129
 20
1.58267716535433
 30
0.0
 11
-0.1781496062992129
 21
1.572834645669291
 31
0.0
  0
LINE
  5
6B3
330
1E
100
AcDbEntity
  8
7
100
AcDbLine
 10
-0.1781496062992129
 20
1.572834645669291
 30
0.0
 11
-0.1781496062992129
 21
1.562007874015747
 31
0.0
  0
LINE
  5
6B4
330
1E
100
AcDbEntity
  8
7
100
AcDbLine
 10
-0.1633858267716537
 20
1.547244094488188
 30
0.0
 11
-0.168307086614174
 21
1.547244094488188
 31
0.0
  0
LINE
  5
6B5
330
1E
100
AcDbEntity
  8
7
100
AcDbLine
 10
-0.168307086614174
 20
1.547244094488188
 30
0.0
 11
-0.1732283464566935
 21
1.5501968503937
 31
0.0
  0
LINE
  5
6B6
330
1E
100
AcDbEntity
  8
7
100
AcDbLine
 10
-0.1732283464566935
 20
1.5501968503937
 30
0.0
 11
-0.1761811023622055
 21
1.554133858267716
 31
0.0
  0
LINE
  5
6B7
330
1E
100
AcDbEntity
  8
7
100
AcDbLine
 10
-0.1761811023622055
 20
1.554133858267716
 30
0.0
 11
-0.1781496062992129
 21
1.558070866141731
 31
0.0
  0
LINE
  5
6B8
330
1E
100
AcDbEntity
  8
7
100
AcDbLine
 10
-0.1781496062992129
 20
1.558070866141731
 30
0.0
 11
-0.1781496062992129
 21
1.562007874015747
 31
0.0
  0
LINE
  5
6B9
330
1E
100
AcDbEntity
  8
7
100
AcDbLine
 10
-0.2352362204724416
 20
1.436023622047243
 30
0.0
 11
-0.2352362204724416
 21
1.437007874015747
 31
0.0
  0
LINE
  5
6BA
330
1E
100
AcDbEntity
  8
7
100
AcDbLine
 10
-0.2352362204724416
 20
1.437007874015747
 30
0.0
 11
-0.2352362204724416
 21
1.441929133858267
 31
0.0
  0
LINE
  5
6BB
330
1E
100
AcDbEntity
  8
7
100
AcDbLine
 10
-0.2647637795275592
 20
1.441929133858267
 30
0.0
 11
-0.2647637795275592
 21
1.437007874015747
 31
0.0
  0
LINE
  5
6BC
330
1E
100
AcDbEntity
  8
7
100
AcDbLine
 10
-0.2647637795275592
 20
1.437007874015747
 30
0.0
 11
-0.2647637795275592
 21
1.436023622047243
 31
0.0
  0
LINE
  5
6BD
330
1E
100
AcDbEntity
  8
7
100
AcDbLine
 10
-0.2647637795275592
 20
1.709645669291338
 30
0.0
 11
-0.2647637795275592
 21
1.70767716535433
 31
0.0
  0
LINE
  5
6BE
330
1E
100
AcDbEntity
  8
7
100
AcDbLine
 10
-0.2647637795275592
 20
1.70767716535433
 30
0.0
 11
-0.2647637795275592
 21
1.70275590551181
 31
0.0
  0
LINE
  5
6BF
330
1E
100
AcDbEntity
  8
7
100
AcDbLine
 10
-0.2352362204724416
 20
1.70275590551181
 30
0.0
 11
-0.2352362204724416
 21
1.70767716535433
 31
0.0
  0
LINE
  5
6C0
330
1E
100
AcDbEntity
  8
7
100
AcDbLine
 10
-0.2352362204724416
 20
1.70767716535433
 30
0.0
 11
-0.2352362204724416
 21
1.709645669291338
 31
0.0
  0
LINE
  5
6C1
330
1E
100
AcDbEntity
  8
7
100
AcDbLine
 10
0.106299212598425
 20
1.709645669291338
 30
0.0
 11
0.106299212598425
 21
1.704724409448818
 31
0.0
  0
LINE
  5
6C2
330
1E
100
AcDbEntity
  8
7
100
AcDbLine
 10
0.106299212598425
 20
1.704724409448818
 30
0.0
 11
0.106299212598425
 21
1.689960629921259
 31
0.0
  0
LINE
  5
6C3
330
1E
100
AcDbEntity
  8
7
100
AcDbLine
 10
0.106299212598425
 20
1.689960629921259
 30
0.0
 11
0.106299212598425
 21
1.667322834645668
 31
0.0
  0
LINE
  5
6C4
330
1E
100
AcDbEntity
  8
7
100
AcDbLine
 10
0.106299212598425
 20
1.667322834645668
 30
0.0
 11
0.106299212598425
 21
1.636811023622046
 31
0.0
  0
LINE
  5
6C5
330
1E
100
AcDbEntity
  8
7
100
AcDbLine
 10
0.106299212598425
 20
1.477362204724408
 30
0.0
 11
0.106299212598425
 21
1.454724409448818
 31
0.0
  0
LINE
  5
6C6
330
1E
100
AcDbEntity
  8
7
100
AcDbLine
 10
0.106299212598425
 20
1.454724409448818
 30
0.0
 11
0.106299212598425
 21
1.440944881889763
 31
0.0
  0
LINE
  5
6C7
330
1E
100
AcDbEntity
  8
7
100
AcDbLine
 10
0.106299212598425
 20
1.440944881889763
 30
0.0
 11
0.106299212598425
 21
1.436023622047243
 31
0.0
  0
LINE
  5
6C8
330
1E
100
AcDbEntity
  8
7
100
AcDbLine
 10
0.106299212598425
 20
1.636811023622046
 30
0.0
 11
0.106299212598425
 21
1.606299212598424
 31
0.0
  0
LINE
  5
6C9
330
1E
100
AcDbEntity
  8
7
100
AcDbLine
 10
0.106299212598425
 20
1.606299212598424
 30
0.0
 11
0.106299212598425
 21
1.572834645669291
 31
0.0
  0
LINE
  5
6CA
330
1E
100
AcDbEntity
  8
7
100
AcDbLine
 10
0.106299212598425
 20
1.572834645669291
 30
0.0
 11
0.106299212598425
 21
1.538385826771653
 31
0.0
  0
LINE
  5
6CB
330
1E
100
AcDbEntity
  8
7
100
AcDbLine
 10
0.106299212598425
 20
1.538385826771653
 30
0.0
 11
0.106299212598425
 21
1.507874015748031
 31
0.0
  0
LINE
  5
6CC
330
1E
100
AcDbEntity
  8
7
100
AcDbLine
 10
0.106299212598425
 20
1.507874015748031
 30
0.0
 11
0.106299212598425
 21
1.477362204724408
 31
0.0
  0
LINE
  5
6CD
330
1E
100
AcDbEntity
  8
7
100
AcDbLine
 10
-0.2795275590551185
 20
1.459645669291338
 30
0.0
 11
-0.2795275590551185
 21
1.68503937007874
 31
0.0
  0
LINE
  5
6CE
330
1E
100
AcDbEntity
  8
7
100
AcDbLine
 10
-0.2795275590551185
 20
1.68503937007874
 30
0.0
 11
-0.2854330708661425
 21
1.68503937007874
 31
0.0
  0
LINE
  5
6CF
330
1E
100
AcDbEntity
  8
7
100
AcDbLine
 10
-0.2795275590551185
 20
1.759842519685039
 30
0.0
 11
-0.2795275590551185
 21
1.754921259842519
 31
0.0
  0
LINE
  5
6D0
330
1E
100
AcDbEntity
  8
7
100
AcDbLine
 10
-0.2795275590551185
 20
1.754921259842519
 30
0.0
 11
-0.2795275590551185
 21
1.74015748031496
 31
0.0
  0
LINE
  5
6D1
330
1E
100
AcDbEntity
  8
7
100
AcDbLine
 10
-0.2795275590551185
 20
1.74015748031496
 30
0.0
 11
-0.2795275590551185
 21
1.716535433070866
 31
0.0
  0
LINE
  5
6D2
330
1E
100
AcDbEntity
  8
7
100
AcDbLine
 10
-0.2795275590551185
 20
1.716535433070866
 30
0.0
 11
-0.2795275590551185
 21
1.68503937007874
 31
0.0
  0
LINE
  5
6D3
330
1E
100
AcDbEntity
  8
7
100
AcDbLine
 10
-0.9045275590551185
 20
1.709645669291338
 30
0.0
 11
-0.9035433070866147
 21
1.708661417322834
 31
0.0
  0
LINE
  5
6D4
330
1E
100
AcDbEntity
  8
7
100
AcDbLine
 10
-0.9035433070866147
 20
1.708661417322834
 30
0.0
 11
-0.899606299212599
 21
1.708661417322834
 31
0.0
  0
LINE
  5
6D5
330
1E
100
AcDbEntity
  8
7
100
AcDbLine
 10
-0.899606299212599
 20
1.708661417322834
 30
0.0
 11
-0.8937007874015755
 21
1.70767716535433
 31
0.0
  0
LINE
  5
6D6
330
1E
100
AcDbEntity
  8
7
100
AcDbLine
 10
-0.8937007874015755
 20
1.70767716535433
 30
0.0
 11
-0.8858267716535435
 21
1.706692913385826
 31
0.0
  0
LINE
  5
6D7
330
1E
100
AcDbEntity
  8
7
100
AcDbLine
 10
-0.8858267716535435
 20
1.706692913385826
 30
0.0
 11
-0.8789370078740162
 21
1.706692913385826
 31
0.0
  0
LINE
  5
6D8
330
1E
100
AcDbEntity
  8
7
100
AcDbLine
 10
-0.8789370078740162
 20
1.706692913385826
 30
0.0
 11
-0.8700787401574805
 21
1.706692913385826
 31
0.0
  0
LINE
  5
6D9
330
1E
100
AcDbEntity
  8
7
100
AcDbLine
 10
-0.8700787401574805
 20
1.706692913385826
 30
0.0
 11
-0.8631889763779533
 21
1.70767716535433
 31
0.0
  0
LINE
  5
6DA
330
1E
100
AcDbEntity
  8
7
100
AcDbLine
 10
-0.8631889763779533
 20
1.70767716535433
 30
0.0
 11
-0.8572834645669296
 21
1.708661417322834
 31
0.0
  0
LINE
  5
6DB
330
1E
100
AcDbEntity
  8
7
100
AcDbLine
 10
-0.8572834645669296
 20
1.708661417322834
 30
0.0
 11
-0.8533464566929138
 21
1.708661417322834
 31
0.0
  0
LINE
  5
6DC
330
1E
100
AcDbEntity
  8
7
100
AcDbLine
 10
-0.8671259842519688
 20
1.437992125984251
 30
0.0
 11
-0.875984251968504
 21
1.437992125984251
 31
0.0
  0
LINE
  5
6DD
330
1E
100
AcDbEntity
  8
7
100
AcDbLine
 10
-0.875984251968504
 20
1.437992125984251
 30
0.0
 11
-0.8848425196850397
 21
1.437992125984251
 31
0.0
  0
LINE
  5
6DE
330
1E
100
AcDbEntity
  8
7
100
AcDbLine
 10
-0.8848425196850397
 20
1.437992125984251
 30
0.0
 11
-0.8927165354330712
 21
1.437007874015747
 31
0.0
  0
LINE
  5
6DF
330
1E
100
AcDbEntity
  8
7
100
AcDbLine
 10
-0.8927165354330712
 20
1.437007874015747
 30
0.0
 11
-0.8986220472440948
 21
1.437007874015747
 31
0.0
  0
LINE
  5
6E0
330
1E
100
AcDbEntity
  8
7
100
AcDbLine
 10
-0.8986220472440948
 20
1.437007874015747
 30
0.0
 11
-0.9035433070866147
 21
1.436023622047243
 31
0.0
  0
LINE
  5
6E1
330
1E
100
AcDbEntity
  8
7
100
AcDbLine
 10
-0.9035433070866147
 20
1.436023622047243
 30
0.0
 11
-0.9045275590551185
 21
1.436023622047243
 31
0.0
  0
LINE
  5
6E2
330
1E
100
AcDbEntity
  8
7
100
AcDbLine
 10
-0.8533464566929138
 20
1.436023622047243
 30
0.0
 11
-0.8553149606299218
 21
1.436023622047243
 31
0.0
  0
LINE
  5
6E3
330
1E
100
AcDbEntity
  8
7
100
AcDbLine
 10
-0.8553149606299218
 20
1.436023622047243
 30
0.0
 11
-0.8602362204724411
 21
1.437007874015747
 31
0.0
  0
LINE
  5
6E4
330
1E
100
AcDbEntity
  8
7
100
AcDbLine
 10
-0.8602362204724411
 20
1.437007874015747
 30
0.0
 11
-0.8671259842519688
 21
1.437992125984251
 31
0.0
  0
LINE
  5
6E5
330
1E
100
AcDbEntity
  8
7
100
AcDbLine
 10
-0.7647637795275597
 20
1.562007874015747
 30
0.0
 11
-0.7657480314960634
 21
1.557086614173228
 31
0.0
  0
LINE
  5
6E6
330
1E
100
AcDbEntity
  8
7
100
AcDbLine
 10
-0.7657480314960634
 20
1.557086614173228
 30
0.0
 11
-0.7687007874015755
 21
1.552165354330708
 31
0.0
  0
LINE
  5
6E7
330
1E
100
AcDbEntity
  8
7
100
AcDbLine
 10
-0.7687007874015755
 20
1.552165354330708
 30
0.0
 11
-0.7716535433070871
 21
1.549212598425196
 31
0.0
  0
LINE
  5
6E8
330
1E
100
AcDbEntity
  8
7
100
AcDbLine
 10
-0.7716535433070871
 20
1.549212598425196
 30
0.0
 11
-0.776574803149607
 21
1.547244094488188
 31
0.0
  0
LINE
  5
6E9
330
1E
100
AcDbEntity
  8
7
100
AcDbLine
 10
-0.776574803149607
 20
1.547244094488188
 30
0.0
 11
-0.7795275590551185
 21
1.547244094488188
 31
0.0
  0
LINE
  5
6EA
330
1E
100
AcDbEntity
  8
7
100
AcDbLine
 10
-0.7647637795275597
 20
1.562007874015747
 30
0.0
 11
-0.7647637795275597
 21
1.572834645669291
 31
0.0
  0
LINE
  5
6EB
330
1E
100
AcDbEntity
  8
7
100
AcDbLine
 10
-0.7647637795275597
 20
1.572834645669291
 30
0.0
 11
-0.7647637795275597
 21
1.58267716535433
 31
0.0
  0
LINE
  5
6EC
330
1E
100
AcDbEntity
  8
7
100
AcDbLine
 10
-0.7795275590551185
 20
1.597440944881889
 30
0.0
 11
-0.7746062992125991
 21
1.597440944881889
 31
0.0
  0
LINE
  5
6ED
330
1E
100
AcDbEntity
  8
7
100
AcDbLine
 10
-0.7746062992125991
 20
1.597440944881889
 30
0.0
 11
-0.7706692913385833
 21
1.594488188976377
 31
0.0
  0
LINE
  5
6EE
330
1E
100
AcDbEntity
  8
7
100
AcDbLine
 10
-0.7706692913385833
 20
1.594488188976377
 30
0.0
 11
-0.7677165354330713
 21
1.590551181102361
 31
0.0
  0
LINE
  5
6EF
330
1E
100
AcDbEntity
  8
7
100
AcDbLine
 10
-0.7677165354330713
 20
1.590551181102361
 30
0.0
 11
-0.7657480314960634
 21
1.586614173228345
 31
0.0
  0
LINE
  5
6F0
330
1E
100
AcDbEntity
  8
7
100
AcDbLine
 10
-1.049212598425197
 20
1.436023622047243
 30
0.0
 11
-1.049212598425197
 21
1.440944881889763
 31
0.0
  0
LINE
  5
6F1
330
1E
100
AcDbEntity
  8
7
100
AcDbLine
 10
-1.049212598425197
 20
1.440944881889763
 30
0.0
 11
-1.049212598425197
 21
1.454724409448818
 31
0.0
  0
LINE
  5
6F2
330
1E
100
AcDbEntity
  8
7
100
AcDbLine
 10
-1.049212598425197
 20
1.454724409448818
 30
0.0
 11
-1.049212598425197
 21
1.477362204724408
 31
0.0
  0
LINE
  5
6F3
330
1E
100
AcDbEntity
  8
7
100
AcDbLine
 10
-1.049212598425197
 20
1.477362204724408
 30
0.0
 11
-1.049212598425197
 21
1.507874015748031
 31
0.0
  0
LINE
  5
6F4
330
1E
100
AcDbEntity
  8
7
100
AcDbLine
 10
-1.049212598425197
 20
1.507874015748031
 30
0.0
 11
-1.049212598425197
 21
1.538385826771653
 31
0.0
  0
LINE
  5
6F5
330
1E
100
AcDbEntity
  8
7
100
AcDbLine
 10
-1.049212598425197
 20
1.538385826771653
 30
0.0
 11
-1.049212598425197
 21
1.572834645669291
 31
0.0
  0
LINE
  5
6F6
330
1E
100
AcDbEntity
  8
7
100
AcDbLine
 10
-1.049212598425197
 20
1.572834645669291
 30
0.0
 11
-1.049212598425197
 21
1.606299212598424
 31
0.0
  0
LINE
  5
6F7
330
1E
100
AcDbEntity
  8
7
100
AcDbLine
 10
-1.049212598425197
 20
1.606299212598424
 30
0.0
 11
-1.049212598425197
 21
1.636811023622046
 31
0.0
  0
LINE
  5
6F8
330
1E
100
AcDbEntity
  8
7
100
AcDbLine
 10
-1.049212598425197
 20
1.636811023622046
 30
0.0
 11
-1.049212598425197
 21
1.667322834645668
 31
0.0
  0
LINE
  5
6F9
330
1E
100
AcDbEntity
  8
7
100
AcDbLine
 10
-1.049212598425197
 20
1.667322834645668
 30
0.0
 11
-1.049212598425197
 21
1.689960629921259
 31
0.0
  0
LINE
  5
6FA
330
1E
100
AcDbEntity
  8
7
100
AcDbLine
 10
-1.049212598425197
 20
1.689960629921259
 30
0.0
 11
-1.049212598425197
 21
1.704724409448818
 31
0.0
  0
LINE
  5
6FB
330
1E
100
AcDbEntity
  8
7
100
AcDbLine
 10
-1.049212598425197
 20
1.704724409448818
 30
0.0
 11
-1.049212598425197
 21
1.709645669291338
 31
0.0
  0
LINE
  5
6FC
330
1E
100
AcDbEntity
  8
7
100
AcDbLine
 10
-0.2795275590551185
 20
1.459645669291338
 30
0.0
 11
-0.2795275590551185
 21
1.428149606299212
 31
0.0
  0
LINE
  5
6FD
330
1E
100
AcDbEntity
  8
7
100
AcDbLine
 10
-0.2795275590551185
 20
1.428149606299212
 30
0.0
 11
-0.2795275590551185
 21
1.404527559055118
 31
0.0
  0
LINE
  5
6FE
330
1E
100
AcDbEntity
  8
7
100
AcDbLine
 10
-0.2795275590551185
 20
1.404527559055118
 30
0.0
 11
-0.2795275590551185
 21
1.389763779527558
 31
0.0
  0
LINE
  5
6FF
330
1E
100
AcDbEntity
  8
7
100
AcDbLine
 10
-0.2795275590551185
 20
1.389763779527558
 30
0.0
 11
-0.2795275590551185
 21
1.384842519685039
 31
0.0
  0
LINE
  5
700
330
1E
100
AcDbEntity
  8
7
100
AcDbLine
 10
-0.5757874015748037
 20
1.3001968503937
 30
0.0
 11
0.6879921259842519
 21
1.277559055118109
 31
0.0
  0
LINE
  5
701
330
1E
100
AcDbEntity
  8
7
100
AcDbLine
 10
0.6879921259842519
 20
1.277559055118109
 30
0.0
 11
0.6978346456692908
 21
1.277559055118109
 31
0.0
  0
LINE
  5
702
330
1E
100
AcDbEntity
  8
7
100
AcDbLine
 10
-0.1446850393700796
 20
1.851377952755905
 30
0.0
 11
-0.1486220472440953
 21
1.851377952755905
 31
0.0
  0
LINE
  5
703
330
1E
100
AcDbEntity
  8
7
100
AcDbLine
 10
-0.1486220472440953
 20
1.851377952755905
 30
0.0
 11
-0.1574803149606305
 21
1.851377952755905
 31
0.0
  0
LINE
  5
704
330
1E
100
AcDbEntity
  8
7
100
AcDbLine
 10
-0.1574803149606305
 20
1.851377952755905
 30
0.0
 11
-0.1692913385826777
 21
1.851377952755905
 31
0.0
  0
LINE
  5
705
330
1E
100
AcDbEntity
  8
7
100
AcDbLine
 10
0.6978346456692908
 20
1.277559055118109
 30
0.0
 11
0.6978346456692908
 21
1.226377952755905
 31
0.0
  0
LINE
  5
706
330
1E
100
AcDbEntity
  8
7
100
AcDbLine
 10
0.6978346456692908
 20
1.226377952755905
 30
0.0
 11
0.6879921259842519
 21
1.216535433070866
 31
0.0
  0
LINE
  5
707
330
1E
100
AcDbEntity
  8
7
100
AcDbLine
 10
-0.4143700787401579
 20
1.668307086614172
 30
0.0
 11
-0.4143700787401579
 21
1.711614173228345
 31
0.0
  0
LINE
  5
708
330
1E
100
AcDbEntity
  8
7
100
AcDbLine
 10
-0.4143700787401579
 20
1.711614173228345
 30
0.0
 11
-0.4143700787401579
 21
1.750984251968504
 31
0.0
  0
LINE
  5
709
330
1E
100
AcDbEntity
  8
7
100
AcDbLine
 10
-0.4143700787401579
 20
1.750984251968504
 30
0.0
 11
-0.4143700787401579
 21
1.783464566929133
 31
0.0
  0
LINE
  5
70A
330
1E
100
AcDbEntity
  8
7
100
AcDbLine
 10
-0.4143700787401579
 20
1.783464566929133
 30
0.0
 11
-0.4143700787401579
 21
1.808070866141731
 31
0.0
  0
LINE
  5
70B
330
1E
100
AcDbEntity
  8
7
100
AcDbLine
 10
-0.4143700787401579
 20
1.336614173228345
 30
0.0
 11
-0.4143700787401579
 21
1.361220472440944
 31
0.0
  0
LINE
  5
70C
330
1E
100
AcDbEntity
  8
7
100
AcDbLine
 10
-0.4143700787401579
 20
1.361220472440944
 30
0.0
 11
-0.4143700787401579
 21
1.393700787401574
 31
0.0
  0
LINE
  5
70D
330
1E
100
AcDbEntity
  8
7
100
AcDbLine
 10
-0.4143700787401579
 20
1.393700787401574
 30
0.0
 11
-0.4143700787401579
 21
1.433070866141731
 31
0.0
  0
LINE
  5
70E
330
1E
100
AcDbEntity
  8
7
100
AcDbLine
 10
-0.4143700787401579
 20
1.433070866141731
 30
0.0
 11
-0.4143700787401579
 21
1.476377952755905
 31
0.0
  0
LINE
  5
70F
330
1E
100
AcDbEntity
  8
7
100
AcDbLine
 10
-0.4143700787401579
 20
1.476377952755905
 30
0.0
 11
-0.4143700787401579
 21
1.523622047244094
 31
0.0
  0
LINE
  5
710
330
1E
100
AcDbEntity
  8
7
100
AcDbLine
 10
-0.4143700787401579
 20
1.523622047244094
 30
0.0
 11
-0.4143700787401579
 21
1.572834645669291
 31
0.0
  0
LINE
  5
711
330
1E
100
AcDbEntity
  8
7
100
AcDbLine
 10
-0.4143700787401579
 20
1.572834645669291
 30
0.0
 11
-0.4143700787401579
 21
1.621062992125983
 31
0.0
  0
LINE
  5
712
330
1E
100
AcDbEntity
  8
7
100
AcDbLine
 10
-0.4143700787401579
 20
1.621062992125983
 30
0.0
 11
-0.4143700787401579
 21
1.668307086614172
 31
0.0
  0
LINE
  5
713
330
1E
100
AcDbEntity
  8
7
100
AcDbLine
 10
0.6732283464566926
 20
1.201771653543306
 30
0.0
 11
-0.5757874015748037
 21
1.201771653543306
 31
0.0
  0
LINE
  5
714
330
1E
100
AcDbEntity
  8
7
100
AcDbLine
 10
-0.5757874015748037
 20
1.201771653543306
 30
0.0
 11
-0.6692913385826778
 21
1.201771653543306
 31
0.0
  0
LINE
  5
715
330
1E
100
AcDbEntity
  8
7
100
AcDbLine
 10
-0.5757874015748037
 20
1.912401574803149
 30
0.0
 11
-0.1545275590551185
 21
1.912401574803149
 31
0.0
  0
LINE
  5
716
330
1E
100
AcDbEntity
  8
7
100
AcDbLine
 10
-0.1545275590551185
 20
1.912401574803149
 30
0.0
 11
-0.1476377952755907
 21
1.912401574803149
 31
0.0
  0
LINE
  5
717
330
1E
100
AcDbEntity
  8
7
100
AcDbLine
 10
-0.1476377952755907
 20
1.912401574803149
 30
0.0
 11
-0.1446850393700796
 21
1.912401574803149
 31
0.0
  0
LINE
  5
718
330
1E
100
AcDbEntity
  8
7
100
AcDbLine
 10
-0.6692913385826778
 20
1.201771653543306
 30
0.0
 11
-0.6722440944881894
 21
1.201771653543306
 31
0.0
  0
LINE
  5
719
330
1E
100
AcDbEntity
  8
7
100
AcDbLine
 10
-0.6722440944881894
 20
1.201771653543306
 30
0.0
 11
-0.6742125984251972
 21
1.201771653543306
 31
0.0
  0
LINE
  5
71A
330
1E
100
AcDbEntity
  8
7
100
AcDbLine
 10
-0.5580708661417329
 20
1.822834645669291
 30
0.0
 11
-0.1446850393700796
 21
1.829724409448818
 31
0.0
  0
LINE
  5
71B
330
1E
100
AcDbEntity
  8
7
100
AcDbLine
 10
-0.1446850393700796
 20
1.829724409448818
 30
0.0
 11
-0.1446850393700796
 21
1.835629921259842
 31
0.0
  0
LINE
  5
71C
330
1E
100
AcDbEntity
  8
7
100
AcDbLine
 10
-0.1446850393700796
 20
1.835629921259842
 30
0.0
 11
-0.1446850393700796
 21
1.851377952755905
 31
0.0
  0
LINE
  5
71D
330
1E
100
AcDbEntity
  8
7
100
AcDbLine
 10
-0.290354330708662
 20
1.384842519685039
 30
0.0
 11
-0.2854330708661425
 21
1.384842519685039
 31
0.0
  0
LINE
  5
71E
330
1E
100
AcDbEntity
  8
7
100
AcDbLine
 10
-0.2854330708661425
 20
1.384842519685039
 30
0.0
 11
-0.2795275590551185
 21
1.384842519685039
 31
0.0
  0
LINE
  5
71F
330
1E
100
AcDbEntity
  8
7
100
AcDbLine
 10
-0.2795275590551185
 20
1.759842519685039
 30
0.0
 11
-0.2854330708661425
 21
1.759842519685039
 31
0.0
  0
LINE
  5
720
330
1E
100
AcDbEntity
  8
7
100
AcDbLine
 10
-0.2854330708661425
 20
1.759842519685039
 30
0.0
 11
-0.290354330708662
 21
1.759842519685039
 31
0.0
  0
LINE
  5
721
330
1E
100
AcDbEntity
  8
7
100
AcDbLine
 10
-0.0885826771653546
 20
3.940944881889763
 30
0.0
 11
-0.0787401574803157
 21
3.93011811023622
 31
0.0
  0
LINE
  5
722
330
1E
100
AcDbEntity
  8
7
100
AcDbLine
 10
-0.0787401574803157
 20
3.93011811023622
 30
0.0
 11
-0.0649606299212602
 21
3.926181102362204
 31
0.0
  0
LINE
  5
723
330
1E
100
AcDbEntity
  8
7
100
AcDbLine
 10
-0.0649606299212602
 20
3.926181102362204
 30
0.0
 11
-0.0511811023622055
 21
3.93011811023622
 31
0.0
  0
LINE
  5
724
330
1E
100
AcDbEntity
  8
7
100
AcDbLine
 10
-0.0511811023622055
 20
3.93011811023622
 30
0.0
 11
-0.0413385826771657
 21
3.940944881889763
 31
0.0
  0
LINE
  5
725
330
1E
100
AcDbEntity
  8
7
100
AcDbLine
 10
-0.0413385826771657
 20
3.940944881889763
 30
0.0
 11
-0.0393700787401583
 21
3.955708661417322
 31
0.0
  0
LINE
  5
726
330
1E
100
AcDbEntity
  8
7
100
AcDbLine
 10
-0.0393700787401583
 20
3.955708661417322
 30
0.0
 11
-0.0452755905511815
 21
3.968503937007873
 31
0.0
  0
LINE
  5
727
330
1E
100
AcDbEntity
  8
7
100
AcDbLine
 10
-0.0452755905511815
 20
3.968503937007873
 30
0.0
 11
-0.0580708661417324
 21
3.976377952755905
 31
0.0
  0
LINE
  5
728
330
1E
100
AcDbEntity
  8
7
100
AcDbLine
 10
-0.0580708661417324
 20
3.976377952755905
 30
0.0
 11
-0.071850393700788
 21
3.976377952755905
 31
0.0
  0
LINE
  5
729
330
1E
100
AcDbEntity
  8
7
100
AcDbLine
 10
-0.071850393700788
 20
3.976377952755905
 30
0.0
 11
-0.0846456692913389
 21
3.968503937007873
 31
0.0
  0
LINE
  5
72A
330
1E
100
AcDbEntity
  8
7
100
AcDbLine
 10
-0.0846456692913389
 20
3.968503937007873
 30
0.0
 11
-0.090551181102363
 21
3.955708661417322
 31
0.0
  0
LINE
  5
72B
330
1E
100
AcDbEntity
  8
7
100
AcDbLine
 10
-0.090551181102363
 20
3.955708661417322
 30
0.0
 11
-0.0885826771653546
 21
3.940944881889763
 31
0.0
  0
LINE
  5
72C
330
1E
100
AcDbEntity
  8
7
100
AcDbLine
 10
-0.9045275590551185
 20
3.955708661417322
 30
0.0
 11
-0.9025590551181107
 21
3.940944881889763
 31
0.0
  0
LINE
  5
72D
330
1E
100
AcDbEntity
  8
7
100
AcDbLine
 10
-0.9025590551181107
 20
3.940944881889763
 30
0.0
 11
-0.8927165354330712
 21
3.93011811023622
 31
0.0
  0
LINE
  5
72E
330
1E
100
AcDbEntity
  8
7
100
AcDbLine
 10
-0.8927165354330712
 20
3.93011811023622
 30
0.0
 11
-0.8789370078740162
 21
3.926181102362204
 31
0.0
  0
LINE
  5
72F
330
1E
100
AcDbEntity
  8
7
100
AcDbLine
 10
-0.8789370078740162
 20
3.926181102362204
 30
0.0
 11
-0.865157480314961
 21
3.93011811023622
 31
0.0
  0
LINE
  5
730
330
1E
100
AcDbEntity
  8
7
100
AcDbLine
 10
-0.865157480314961
 20
3.93011811023622
 30
0.0
 11
-0.8553149606299218
 21
3.940944881889763
 31
0.0
  0
LINE
  5
731
330
1E
100
AcDbEntity
  8
7
100
AcDbLine
 10
-0.8553149606299218
 20
3.940944881889763
 30
0.0
 11
-0.8533464566929138
 21
3.955708661417322
 31
0.0
  0
LINE
  5
732
330
1E
100
AcDbEntity
  8
7
100
AcDbLine
 10
-0.8533464566929138
 20
3.955708661417322
 30
0.0
 11
-0.8592519685039373
 21
3.968503937007873
 31
0.0
  0
LINE
  5
733
330
1E
100
AcDbEntity
  8
7
100
AcDbLine
 10
-0.8592519685039373
 20
3.968503937007873
 30
0.0
 11
-0.8720472440944885
 21
3.976377952755905
 31
0.0
  0
LINE
  5
734
330
1E
100
AcDbEntity
  8
7
100
AcDbLine
 10
-0.8720472440944885
 20
3.976377952755905
 30
0.0
 11
-0.8858267716535435
 21
3.976377952755905
 31
0.0
  0
LINE
  5
735
330
1E
100
AcDbEntity
  8
7
100
AcDbLine
 10
-0.8858267716535435
 20
3.976377952755905
 30
0.0
 11
-0.8986220472440948
 21
3.968503937007873
 31
0.0
  0
LINE
  5
736
330
1E
100
AcDbEntity
  8
7
100
AcDbLine
 10
-0.8986220472440948
 20
3.968503937007873
 30
0.0
 11
-0.9045275590551185
 21
3.955708661417322
 31
0.0
  0
LINE
  5
737
330
1E
100
AcDbEntity
  8
7
100
AcDbLine
 10
0.106299212598425
 20
4.088582677165353
 30
0.0
 11
0.106299212598425
 21
4.083661417322835
 31
0.0
  0
LINE
  5
738
330
1E
100
AcDbEntity
  8
7
100
AcDbLine
 10
0.106299212598425
 20
4.083661417322835
 30
0.0
 11
0.106299212598425
 21
4.069881889763779
 31
0.0
  0
LINE
  5
739
330
1E
100
AcDbEntity
  8
7
100
AcDbLine
 10
0.106299212598425
 20
4.069881889763779
 30
0.0
 11
0.106299212598425
 21
4.047244094488188
 31
0.0
  0
LINE
  5
73A
330
1E
100
AcDbEntity
  8
7
100
AcDbLine
 10
0.106299212598425
 20
4.047244094488188
 30
0.0
 11
0.106299212598425
 21
4.018700787401574
 31
0.0
  0
LINE
  5
73B
330
1E
100
AcDbEntity
  8
7
100
AcDbLine
 10
0.106299212598425
 20
4.018700787401574
 30
0.0
 11
0.106299212598425
 21
3.98523622047244
 31
0.0
  0
LINE
  5
73C
330
1E
100
AcDbEntity
  8
7
100
AcDbLine
 10
0.106299212598425
 20
3.98523622047244
 30
0.0
 11
0.106299212598425
 21
3.948818897637794
 31
0.0
  0
LINE
  5
73D
330
1E
100
AcDbEntity
  8
7
100
AcDbLine
 10
0.106299212598425
 20
3.948818897637794
 30
0.0
 11
0.106299212598425
 21
3.913385826771653
 31
0.0
  0
LINE
  5
73E
330
1E
100
AcDbEntity
  8
7
100
AcDbLine
 10
0.106299212598425
 20
3.913385826771653
 30
0.0
 11
0.106299212598425
 21
3.879921259842519
 31
0.0
  0
LINE
  5
73F
330
1E
100
AcDbEntity
  8
7
100
AcDbLine
 10
0.106299212598425
 20
3.879921259842519
 30
0.0
 11
0.106299212598425
 21
3.852362204724408
 31
0.0
  0
LINE
  5
740
330
1E
100
AcDbEntity
  8
7
100
AcDbLine
 10
0.106299212598425
 20
3.852362204724408
 30
0.0
 11
0.106299212598425
 21
3.830708661417322
 31
0.0
  0
LINE
  5
741
330
1E
100
AcDbEntity
  8
7
100
AcDbLine
 10
-0.7706692913385833
 20
3.816929133858267
 30
0.0
 11
-0.7677165354330713
 21
3.815944881889763
 31
0.0
  0
LINE
  5
742
330
1E
100
AcDbEntity
  8
7
100
AcDbLine
 10
-0.7677165354330713
 20
3.815944881889763
 30
0.0
 11
-0.7657480314960634
 21
3.815944881889763
 31
0.0
  0
LINE
  5
743
330
1E
100
AcDbEntity
  8
7
100
AcDbLine
 10
-0.7657480314960634
 20
3.815944881889763
 30
0.0
 11
-0.7647637795275597
 21
3.814960629921259
 31
0.0
  0
LINE
  5
744
330
1E
100
AcDbEntity
  8
7
100
AcDbLine
 10
-0.7795275590551185
 20
3.816929133858267
 30
0.0
 11
-0.7746062992125991
 21
3.816929133858267
 31
0.0
  0
LINE
  5
745
330
1E
100
AcDbEntity
  8
7
100
AcDbLine
 10
-0.7746062992125991
 20
3.816929133858267
 30
0.0
 11
-0.7706692913385833
 21
3.816929133858267
 31
0.0
  0
LINE
  5
746
330
1E
100
AcDbEntity
  8
7
100
AcDbLine
 10
-1.049212598425197
 20
3.879921259842519
 30
0.0
 11
-1.049212598425197
 21
3.913385826771653
 31
0.0
  0
LINE
  5
747
330
1E
100
AcDbEntity
  8
7
100
AcDbLine
 10
-1.049212598425197
 20
3.913385826771653
 30
0.0
 11
-1.049212598425197
 21
3.948818897637794
 31
0.0
  0
LINE
  5
748
330
1E
100
AcDbEntity
  8
7
100
AcDbLine
 10
-1.049212598425197
 20
3.948818897637794
 30
0.0
 11
-1.049212598425197
 21
3.98523622047244
 31
0.0
  0
LINE
  5
749
330
1E
100
AcDbEntity
  8
7
100
AcDbLine
 10
-1.049212598425197
 20
3.98523622047244
 30
0.0
 11
-1.049212598425197
 21
4.018700787401574
 31
0.0
  0
LINE
  5
74A
330
1E
100
AcDbEntity
  8
7
100
AcDbLine
 10
-1.049212598425197
 20
4.018700787401574
 30
0.0
 11
-1.049212598425197
 21
4.047244094488188
 31
0.0
  0
LINE
  5
74B
330
1E
100
AcDbEntity
  8
7
100
AcDbLine
 10
-1.049212598425197
 20
4.047244094488188
 30
0.0
 11
-1.049212598425197
 21
4.069881889763779
 31
0.0
  0
LINE
  5
74C
330
1E
100
AcDbEntity
  8
7
100
AcDbLine
 10
-1.049212598425197
 20
4.069881889763779
 30
0.0
 11
-1.049212598425197
 21
4.083661417322835
 31
0.0
  0
LINE
  5
74D
330
1E
100
AcDbEntity
  8
7
100
AcDbLine
 10
-1.049212598425197
 20
4.083661417322835
 30
0.0
 11
-1.049212598425197
 21
4.088582677165353
 31
0.0
  0
LINE
  5
74E
330
1E
100
AcDbEntity
  8
7
100
AcDbLine
 10
-1.049212598425197
 20
3.830708661417322
 30
0.0
 11
-1.049212598425197
 21
3.852362204724408
 31
0.0
  0
LINE
  5
74F
330
1E
100
AcDbEntity
  8
7
100
AcDbLine
 10
-1.049212598425197
 20
3.852362204724408
 30
0.0
 11
-1.049212598425197
 21
3.879921259842519
 31
0.0
  0
LINE
  5
750
330
1E
100
AcDbEntity
  8
7
100
AcDbLine
 10
-0.1692913385826777
 20
3.655511811023621
 30
0.0
 11
0.6879921259842519
 21
3.670275590551181
 31
0.0
  0
LINE
  5
751
330
1E
100
AcDbEntity
  8
7
100
AcDbLine
 10
0.6879921259842519
 20
3.670275590551181
 30
0.0
 11
0.6978346456692908
 21
3.680118110236219
 31
0.0
  0
LINE
  5
752
330
1E
100
AcDbEntity
  8
7
100
AcDbLine
 10
-0.1584645669291342
 20
3.658464566929133
 30
0.0
 11
-0.165354330708662
 21
3.655511811023621
 31
0.0
  0
LINE
  5
753
330
1E
100
AcDbEntity
  8
7
100
AcDbLine
 10
-0.165354330708662
 20
3.655511811023621
 30
0.0
 11
-0.1692913385826777
 21
3.655511811023621
 31
0.0
  0
LINE
  5
754
330
1E
100
AcDbEntity
  8
7
100
AcDbLine
 10
0.6978346456692908
 20
4.062007874015748
 30
0.0
 11
0.6584645669291334
 21
4.062007874015748
 31
0.0
  0
LINE
  5
755
330
1E
100
AcDbEntity
  8
7
100
AcDbLine
 10
0.6584645669291334
 20
4.062007874015748
 30
0.0
 11
0.6584645669291334
 21
3.841535433070866
 31
0.0
  0
LINE
  5
756
330
1E
100
AcDbEntity
  8
7
100
AcDbLine
 10
0.6584645669291334
 20
3.841535433070866
 30
0.0
 11
0.6978346456692908
 21
3.841535433070866
 31
0.0
  0
LINE
  5
757
330
1E
100
AcDbEntity
  8
7
100
AcDbLine
 10
0.6978346456692908
 20
3.856299212598424
 30
0.0
 11
0.6978346456692908
 21
3.845472440944881
 31
0.0
  0
LINE
  5
758
330
1E
100
AcDbEntity
  8
7
100
AcDbLine
 10
0.6978346456692908
 20
3.845472440944881
 30
0.0
 11
0.6978346456692908
 21
3.841535433070866
 31
0.0
  0
LINE
  5
759
330
1E
100
AcDbEntity
  8
7
100
AcDbLine
 10
0.6978346456692908
 20
4.062007874015748
 30
0.0
 11
0.6978346456692908
 21
4.057086614173227
 31
0.0
  0
LINE
  5
75A
330
1E
100
AcDbEntity
  8
7
100
AcDbLine
 10
0.6978346456692908
 20
4.057086614173227
 30
0.0
 11
0.6978346456692908
 21
4.046259842519685
 31
0.0
  0
LINE
  5
75B
330
1E
100
AcDbEntity
  8
7
100
AcDbLine
 10
-0.1692913385826777
 20
4.248031496062992
 30
0.0
 11
-0.165354330708662
 21
4.247047244094487
 31
0.0
  0
LINE
  5
75C
330
1E
100
AcDbEntity
  8
7
100
AcDbLine
 10
-0.165354330708662
 20
4.247047244094487
 30
0.0
 11
-0.1584645669291342
 21
4.245078740157479
 31
0.0
  0
LINE
  5
75D
330
1E
100
AcDbEntity
  8
7
100
AcDbLine
 10
-0.1584645669291342
 20
4.245078740157479
 30
0.0
 11
-0.1545275590551185
 21
4.242125984251968
 31
0.0
  0
LINE
  5
75E
330
1E
100
AcDbEntity
  8
7
100
AcDbLine
 10
-0.1456692913385833
 20
4.222440944881888
 30
0.0
 11
-0.1486220472440953
 21
4.233267716535433
 31
0.0
  0
LINE
  5
75F
330
1E
100
AcDbEntity
  8
7
100
AcDbLine
 10
-0.1486220472440953
 20
4.233267716535433
 30
0.0
 11
-0.1555118110236222
 21
4.242125984251968
 31
0.0
  0
LINE
  5
760
330
1E
100
AcDbEntity
  8
7
100
AcDbLine
 10
-0.1555118110236222
 20
3.660433070866141
 30
0.0
 11
-0.1486220472440953
 21
3.669291338582677
 31
0.0
  0
LINE
  5
761
330
1E
100
AcDbEntity
  8
7
100
AcDbLine
 10
-0.1486220472440953
 20
3.669291338582677
 30
0.0
 11
-0.1456692913385833
 21
3.680118110236219
 31
0.0
  0
ENDSEC
  0
SECTION
  2
OBJECTS
  0
DICTIONARY
  5
C
330
0
100
AcDbDictionary
  3
ACAD_GROUP
350
D
  3
ACAD_IMAGE_VARS
350
54C
  3
ACAD_LAYOUT
350
19
  3
ACAD_MLINESTYLE
350
16
  3
ACAD_PLOTSETTINGS
350
18
1001
ACAD
1000
TREAT_AS_HARD
1070
     0
  0
DICTIONARY
  5
767
330
1E
100
AcDbDictionary
  3
ACAD_LAYOUTSELFREF
350
7D2
1001
ACAD
1000
TREAT_AS_HARD
1070
     1
  0
DICTIONARY
  5
769
330
1A
100
AcDbDictionary
  3
ACAD_LAYOUTSELFREF
350
7D1
1001
ACAD
1000
TREAT_AS_HARD
1070
     1
  0
DICTIONARY
  5
D
102
{ACAD_REACTORS
330
C
102
}
330
C
100
AcDbDictionary
1001
ACAD
1000
TREAT_AS_HARD
1070
     0
  0
RASTERVARIABLES
  5
54C
102
{ACAD_REACTORS
330
C
102
}
330
C
100
AcDbRasterVariables
 90
        0
 70
     1
 71
     1
 72
     0
  0
DICTIONARY
  5
19
102
{ACAD_REACTORS
330
C
102
}
330
C
100
AcDbDictionary
1001
ACAD
1000
TREAT_AS_HARD
1070
     0
  0
DICTIONARY
  5
16
102
{ACAD_REACTORS
330
C
102
}
330
C
100
AcDbDictionary
  3
STANDARD
350
17
1001
ACAD
1000
TREAT_AS_HARD
1070
     0
  0
DICTIONARY
  5
18
102
{ACAD_REACTORS
330
C
102
}
330
C
100
AcDbDictionary
1001
ACAD
1000
TREAT_AS_HARD
1070
     0
  0
XRECORD
  5
7D2
102
{ACAD_REACTORS
330
767
102
}
330
767
100
AcDbXrecord
340
1E
  0
XRECORD
  5
7D1
102
{ACAD_REACTORS
330
769
102
}
330
769
100
AcDbXrecord
340
1A
  0
MLINESTYLE
  5
17
102
{ACAD_REACTORS
330
16
102
}
330
16
100
AcDbMlineStyle
  2
STANDARD
 70
     0
  3

 62
   256
 51
90.0
 52
90.0
 71
     2
 49
0.5
 62
   256
  6
BYLAYER
 49
-0.5
 62
   256
  6
BYLAYER
  0
ENDSEC
  0
EOF
