  0
SECTION
  2
HEADER
  9
$ACADVER
  1
AC1015
  9
$ACADMAINTVER
 70
    10
  9
$DWGCODEPAGE
  3
ANSI_1252
  9
$INSBASE
 10
0.0
 20
0.0
 30
0.0
  9
$EXTMIN
 10
-6.854919413634249
 20
18.09563681978877
 30
-0.0015258207003583
  9
$EXTMAX
 10
17.61346438994336
 20
29.32989212931667
 30
0.0000000349246037
  9
$LIMMIN
 10
0.0
 20
0.0
  9
$LIMMAX
 10
12.0
 20
9.0
  9
$ORTHOMODE
 70
     0
  9
$REGENMODE
 70
     1
  9
$FILLMODE
 70
     1
  9
$QTEXTMODE
 70
     0
  9
$MIRRTEXT
 70
     1
  9
$LTSCALE
 40
1.0
  9
$ATTMODE
 70
     1
  9
$TEXTSIZE
 40
0.2
  9
$TRACEWID
 40
0.05
  9
$TEXTSTYLE
  7
STANDARD
  9
$CLAYER
  8
0
  9
$CELTYPE
  6
ByLayer
  9
$CECOLOR
 62
   256
  9
$CELTSCALE
 40
1.0
  9
$DISPSILH
 70
     0
  9
$DIMSCALE
 40
1.0
  9
$DIMASZ
 40
0.18
  9
$DIMEXO
 40
0.0625
  9
$DIMDLI
 40
0.38
  9
$DIMRND
 40
0.0
  9
$DIMDLE
 40
0.0
  9
$DIMEXE
 40
0.18
  9
$DIMTP
 40
0.0
  9
$DIMTM
 40
0.0
  9
$DIMTXT
 40
0.18
  9
$DIMCEN
 40
0.09
  9
$DIMTSZ
 40
0.0
  9
$DIMTOL
 70
     0
  9
$DIMLIM
 70
     0
  9
$DIMTIH
 70
     1
  9
$DIMTOH
 70
     1
  9
$DIMSE1
 70
     0
  9
$DIMSE2
 70
     0
  9
$DIMTAD
 70
     0
  9
$DIMZIN
 70
     0
  9
$DIMBLK
  1

  9
$DIMASO
 70
     1
  9
$DIMSHO
 70
     1
  9
$DIMPOST
  1

  9
$DIMAPOST
  1

  9
$DIMALT
 70
     0
  9
$DIMALTD
 70
     2
  9
$DIMALTF
 40
25.4
  9
$DIMLFAC
 40
1.0
  9
$DIMTOFL
 70
     0
  9
$DIMTVP
 40
0.0
  9
$DIMTIX
 70
     0
  9
$DIMSOXD
 70
     0
  9
$DIMSAH
 70
     0
  9
$DIMBLK1
  1

  9
$DIMBLK2
  1

  9
$DIMSTYLE
  2
Standard
  9
$DIMCLRD
 70
     0
  9
$DIMCLRE
 70
     0
  9
$DIMCLRT
 70
     0
  9
$DIMTFAC
 40
1.0
  9
$DIMGAP
 40
0.09
  9
$DIMJUST
 70
     0
  9
$DIMSD1
 70
     0
  9
$DIMSD2
 70
     0
  9
$DIMTOLJ
 70
     1
  9
$DIMTZIN
 70
     0
  9
$DIMALTZ
 70
     0
  9
$DIMALTTZ
 70
     0
  9
$DIMUPT
 70
     0
  9
$DIMDEC
 70
     4
  9
$DIMTDEC
 70
     4
  9
$DIMALTU
 70
     2
  9
$DIMALTTD
 70
     2
  9
$DIMTXSTY
  7
STANDARD
  9
$DIMAUNIT
 70
     0
  9
$DIMADEC
 70
     0
  9
$DIMALTRND
 40
0.0
  9
$DIMAZIN
 70
     0
  9
$DIMDSEP
 70
    46
  9
$DIMATFIT
 70
     3
  9
$DIMFRAC
 70
     0
  9
$DIMLDRBLK
  1

  9
$DIMLUNIT
 70
     2
  9
$DIMLWD
 70
    -2
  9
$DIMLWE
 70
    -2
  9
$DIMTMOVE
 70
     2
  9
$LUNITS
 70
     2
  9
$LUPREC
 70
     4
  9
$SKETCHINC
 40
0.1
  9
$FILLETRAD
 40
0.0
  9
$AUNITS
 70
     0
  9
$AUPREC
 70
     0
  9
$MENU
  1
acad
  9
$ELEVATION
 40
0.0
  9
$PELEVATION
 40
0.0
  9
$THICKNESS
 40
0.0
  9
$LIMCHECK
 70
     0
  9
$CHAMFERA
 40
0.0
  9
$CHAMFERB
 40
0.0
  9
$CHAMFERC
 40
0.0
  9
$CHAMFERD
 40
0.0
  9
$SKPOLY
 70
     0
  9
$TDCREATE
 40
2454083.441180555
  9
$TDUCREATE
 40
2454083.691180555
  9
$TDUPDATE
 40
2454083.449189386
  9
$TDUUPDATE
 40
2454083.699189387
  9
$TDINDWG
 40
0.0060133102
  9
$TDUSRTIMER
 40
0.0060133102
  9
$USRTIMER
 70
     1
  9
$ANGBASE
 50
0.0
  9
$ANGDIR
 70
     0
  9
$PDMODE
 70
     0
  9
$PDSIZE
 40
0.0
  9
$PLINEWID
 40
0.0
  9
$SPLFRAME
 70
     0
  9
$SPLINETYPE
 70
     6
  9
$SPLINESEGS
 70
     8
  9
$HANDSEED
  5
12F0
  9
$SURFTAB1
 70
     6
  9
$SURFTAB2
 70
     6
  9
$SURFTYPE
 70
     6
  9
$SURFU
 70
     6
  9
$SURFV
 70
     6
  9
$UCSBASE
  2

  9
$UCSNAME
  2

  9
$UCSORG
 10
0.0
 20
0.0
 30
0.0
  9
$UCSXDIR
 10
1.0
 20
0.0
 30
0.0
  9
$UCSYDIR
 10
0.0
 20
1.0
 30
0.0
  9
$UCSORTHOREF
  2

  9
$UCSORTHOVIEW
 70
     0
  9
$UCSORGTOP
 10
0.0
 20
0.0
 30
0.0
  9
$UCSORGBOTTOM
 10
0.0
 20
0.0
 30
0.0
  9
$UCSORGLEFT
 10
0.0
 20
0.0
 30
0.0
  9
$UCSORGRIGHT
 10
0.0
 20
0.0
 30
0.0
  9
$UCSORGFRONT
 10
0.0
 20
0.0
 30
0.0
  9
$UCSORGBACK
 10
0.0
 20
0.0
 30
0.0
  9
$PUCSBASE
  2

  9
$PUCSNAME
  2

  9
$PUCSORG
 10
0.0
 20
0.0
 30
0.0
  9
$PUCSXDIR
 10
1.0
 20
0.0
 30
0.0
  9
$PUCSYDIR
 10
0.0
 20
1.0
 30
0.0
  9
$PUCSORTHOREF
  2

  9
$PUCSORTHOVIEW
 70
     0
  9
$PUCSORGTOP
 10
0.0
 20
0.0
 30
0.0
  9
$PUCSORGBOTTOM
 10
0.0
 20
0.0
 30
0.0
  9
$PUCSORGLEFT
 10
0.0
 20
0.0
 30
0.0
  9
$PUCSORGRIGHT
 10
0.0
 20
0.0
 30
0.0
  9
$PUCSORGFRONT
 10
0.0
 20
0.0
 30
0.0
  9
$PUCSORGBACK
 10
0.0
 20
0.0
 30
0.0
  9
$USERI1
 70
     0
  9
$USERI2
 70
     0
  9
$USERI3
 70
     0
  9
$USERI4
 70
     0
  9
$USERI5
 70
     0
  9
$USERR1
 40
0.0
  9
$USERR2
 40
0.0
  9
$USERR3
 40
0.0
  9
$USERR4
 40
0.0
  9
$USERR5
 40
0.0
  9
$WORLDVIEW
 70
     1
  9
$SHADEDGE
 70
     3
  9
$SHADEDIF
 70
    70
  9
$TILEMODE
 70
     1
  9
$MAXACTVP
 70
    16
  9
$PINSBASE
 10
0.0
 20
0.0
 30
0.0
  9
$PLIMCHECK
 70
     0
  9
$PEXTMIN
 10
1.000000000000000E+20
 20
1.000000000000000E+20
 30
1.000000000000000E+20
  9
$PEXTMAX
 10
-1.000000000000000E+20
 20
-1.000000000000000E+20
 30
-1.000000000000000E+20
  9
$PLIMMIN
 10
0.0
 20
0.0
  9
$PLIMMAX
 10
12.0
 20
9.0
  9
$UNITMODE
 70
     0
  9
$VISRETAIN
 70
     0
  9
$PLINEGEN
 70
     0
  9
$PSLTSCALE
 70
     1
  9
$TREEDEPTH
 70
  3020
  9
$CMLSTYLE
  2
Standard
  9
$CMLJUST
 70
     0
  9
$CMLSCALE
 40
1.0
  9
$PROXYGRAPHICS
 70
     1
  9
$MEASUREMENT
 70
     0
  9
$CELWEIGHT
370
    -1
  9
$ENDCAPS
280
     0
  9
$JOINSTYLE
280
     0
  9
$LWDISPLAY
290
     0
  9
$INSUNITS
 70
     0
  9
$HYPERLINKBASE
  1

  9
$STYLESHEET
  1

  9
$XEDIT
290
     1
  9
$CEPSNTYPE
380
     0
  9
$PSTYLEMODE
290
     1
  9
$FINGERPRINTGUID
  2
{27BF8B4F-128E-4E47-8D1B-97A32AB0AFD4}
  9
$VERSIONGUID
  2
{16DC798B-F727-467C-8A8C-EA5E8D349CEA}
  9
$EXTNAMES
290
     1
  9
$PSVPSCALE
 40
0.0
  9
$OLESTARTUP
290
     0
  0
ENDSEC
  0
SECTION
  2
CLASSES
  0
CLASS
  1
ACDBDICTIONARYWDFLT
  2
AcDbDictionaryWithDefault
  3
AutoCAD 2000
 90
        0
280
     0
281
     0
  0
CLASS
  1
ACDBPLACEHOLDER
  2
AcDbPlaceHolder
  3
AutoCAD 2000
 90
        0
280
     0
281
     0
  0
CLASS
  1
LAYOUT
  2
AcDbLayout
  3
AutoCAD 2000
 90
        0
280
     0
281
     0
  0
ENDSEC
  0
SECTION
  2
TABLES
  0
TABLE
  2
VPORT
  5
8
330
0
100
AcDbSymbolTable
 70
     3
  0
VPORT
  5
12EF
330
8
100
AcDbSymbolTableRecord
100
AcDbViewportTableRecord
  2
*Active
 70
     0
 10
0.0
 20
0.0
 11
1.0
 21
1.0
 12
5.379272488154555
 22
23.71276447455272
 13
0.0
 23
0.0
 14
1.0
 24
1.0
 15
0.0
 25
0.0
 16
0.0
 26
0.0
 36
1.0
 17
0.0
 27
0.0
 37
0.0
 40
15.22338673554878
 41
1.615281501340482
 42
50.0
 43
0.0
 44
0.0
 50
0.0
 51
0.0
 71
     0
 72
   100
 73
     1
 74
     1
 75
     0
 76
     0
 77
     0
 78
     0
281
     0
 65
     1
110
0.0
120
0.0
130
0.0
111
1.0
121
0.0
131
0.0
112
0.0
122
1.0
132
0.0
 79
     0
146
0.0
  0
ENDTAB
  0
TABLE
  2
LTYPE
  5
5
330
0
100
AcDbSymbolTable
 70
    25
  0
LTYPE
  5
13
330
5
100
AcDbSymbolTableRecord
100
AcDbLinetypeTableRecord
  2
ByBlock
 70
     0
  3

 72
    65
 73
     0
 40
0.0
  0
LTYPE
  5
14
330
5
100
AcDbSymbolTableRecord
100
AcDbLinetypeTableRecord
  2
ByLayer
 70
     0
  3

 72
    65
 73
     0
 40
0.0
  0
LTYPE
  5
15
330
5
100
AcDbSymbolTableRecord
100
AcDbLinetypeTableRecord
  2
CONTINUOUS
 70
     0
  3
Solid line
 72
    65
 73
     0
 40
0.0
  0
LTYPE
  5
22
330
5
100
AcDbSymbolTableRecord
100
AcDbLinetypeTableRecord
  2
BORDER
 70
     0
  3
__ __ . __ __ . __ __ . __ __ . __ __ . __ __ .
 72
    65
 73
     6
 40
1.75
 49
0.5
 74
     0
 49
-0.25
 74
     0
 49
0.5
 74
     0
 49
-0.25
 74
     0
 49
0.5
 74
     0
 49
-0.25
 74
     0
  0
LTYPE
  5
23
330
5
100
AcDbSymbolTableRecord
100
AcDbLinetypeTableRecord
  2
BORDER2
 70
     0
  3
__.__.__.__.__.__.__.__.
 72
    65
 73
     6
 40
0.875
 49
0.25
 74
     0
 49
-0.125
 74
     0
 49
0.25
 74
     0
 49
-0.125
 74
     0
 49
0.25
 74
     0
 49
-0.125
 74
     0
  0
LTYPE
  5
24
330
5
100
AcDbSymbolTableRecord
100
AcDbLinetypeTableRecord
  2
BORDERX2
 70
     0
  3
____  ____  .  
 72
    65
 73
     6
 40
3.5
 49
1.0
 74
     0
 49
-0.5
 74
     0
 49
1.0
 74
     0
 49
-0.5
 74
     0
 49
1.0
 74
     0
 49
-0.5
 74
     0
  0
LTYPE
  5
25
330
5
100
AcDbSymbolTableRecord
100
AcDbLinetypeTableRecord
  2
CENTER
 70
     0
  3
____ _ ____ _ ____ _ 
 72
    65
 73
     4
 40
2.0
 49
1.25
 74
     0
 49
-0.25
 74
     0
 49
0.25
 74
     0
 49
-0.25
 74
     0
  0
LTYPE
  5
26
330
5
100
AcDbSymbolTableRecord
100
AcDbLinetypeTableRecord
  2
CENTER2
 70
     0
  3
____ _ ____ _ ____ _ 
 72
    65
 73
     4
 40
1.125
 49
0.75
 74
     0
 49
-0.125
 74
     0
 49
0.125
 74
     0
 49
-0.125
 74
     0
  0
LTYPE
  5
27
330
5
100
AcDbSymbolTableRecord
100
AcDbLinetypeTableRecord
  2
CENTERX2
 70
     0
  3
________  __  
 72
    65
 73
     4
 40
4.0
 49
2.5
 74
     0
 49
-0.5
 74
     0
 49
0.5
 74
     0
 49
-0.5
 74
     0
  0
LTYPE
  5
28
330
5
100
AcDbSymbolTableRecord
100
AcDbLinetypeTableRecord
  2
DASHDOT
 70
     0
  3
__ . __ . __ . __ . 
 72
    65
 73
     4
 40
1.0
 49
0.5
 74
     0
 49
-0.25
 74
     0
 49
0.0
 74
     0
 49
-0.25
 74
     0
  0
LTYPE
  5
29
330
5
100
AcDbSymbolTableRecord
100
AcDbLinetypeTableRecord
  2
DASHDOT2
 70
     0
  3
_._._._._._._._._.
 72
    65
 73
     4
 40
0.5
 49
0.25
 74
     0
 49
-0.125
 74
     0
 49
0.0
 74
     0
 49
-0.125
 74
     0
  0
LTYPE
  5
2A
330
5
100
AcDbSymbolTableRecord
100
AcDbLinetypeTableRecord
  2
DASHDOTX2
 70
     0
  3
____  .  ____  .  
 72
    65
 73
     4
 40
2.0
 49
1.0
 74
     0
 49
-0.5
 74
     0
 49
0.0
 74
     0
 49
-0.5
 74
     0
  0
LTYPE
  5
2B
330
5
100
AcDbSymbolTableRecord
100
AcDbLinetypeTableRecord
  2
DASHED
 70
     0
  3
__ __ __ __ __ __ __ 
 72
    65
 73
     2
 40
0.75
 49
0.5
 74
     0
 49
-0.25
 74
     0
  0
LTYPE
  5
2C
330
5
100
AcDbSymbolTableRecord
100
AcDbLinetypeTableRecord
  2
DASHED2
 70
     0
  3
_ _ _ _ _ _ _ _ _ _ 
 72
    65
 73
     2
 40
0.375
 49
0.25
 74
     0
 49
-0.125
 74
     0
  0
LTYPE
  5
2D
330
5
100
AcDbSymbolTableRecord
100
AcDbLinetypeTableRecord
  2
DASHEDX2
 70
     0
  3
____  ____  ____  
 72
    65
 73
     2
 40
1.5
 49
1.0
 74
     0
 49
-0.5
 74
     0
  0
LTYPE
  5
2E
330
5
100
AcDbSymbolTableRecord
100
AcDbLinetypeTableRecord
  2
DIVIDE
 70
     0
  3
____ . . ____ . . 
 72
    65
 73
     6
 40
1.25
 49
0.5
 74
     0
 49
-0.25
 74
     0
 49
0.0
 74
     0
 49
-0.25
 74
     0
 49
0.0
 74
     0
 49
-0.25
 74
     0
  0
LTYPE
  5
2F
330
5
100
AcDbSymbolTableRecord
100
AcDbLinetypeTableRecord
  2
DIVIDE2
 70
     0
  3
__..__..__..__..__..
 72
    65
 73
     6
 40
0.625
 49
0.25
 74
     0
 49
-0.125
 74
     0
 49
0.0
 74
     0
 49
-0.125
 74
     0
 49
0.0
 74
     0
 49
-0.125
 74
     0
  0
LTYPE
  5
30
330
5
100
AcDbSymbolTableRecord
100
AcDbLinetypeTableRecord
  2
DIVIDEX2
 70
     0
  3
________  .  .  
 72
    65
 73
     6
 40
2.5
 49
1.0
 74
     0
 49
-0.5
 74
     0
 49
0.0
 74
     0
 49
-0.5
 74
     0
 49
0.0
 74
     0
 49
-0.5
 74
     0
  0
LTYPE
  5
31
330
5
100
AcDbSymbolTableRecord
100
AcDbLinetypeTableRecord
  2
DOT
 70
     0
  3
. . . . . . . . . 
 72
    65
 73
     2
 40
0.25
 49
0.0
 74
     0
 49
-0.25
 74
     0
  0
LTYPE
  5
32
330
5
100
AcDbSymbolTableRecord
100
AcDbLinetypeTableRecord
  2
DOT2
 70
     0
  3
..................
 72
    65
 73
     2
 40
0.125
 49
0.0
 74
     0
 49
-0.125
 74
     0
  0
LTYPE
  5
33
330
5
100
AcDbSymbolTableRecord
100
AcDbLinetypeTableRecord
  2
DOTX2
 70
     0
  3
.  .  .  .  .  .  
 72
    65
 73
     2
 40
0.5
 49
0.0
 74
     0
 49
-0.5
 74
     0
  0
LTYPE
  5
34
330
5
100
AcDbSymbolTableRecord
100
AcDbLinetypeTableRecord
  2
HIDDEN
 70
     0
  3
__ __ __ __ __ __ 
 72
    65
 73
     2
 40
0.375
 49
0.25
 74
     0
 49
-0.125
 74
     0
  0
LTYPE
  5
35
330
5
100
AcDbSymbolTableRecord
100
AcDbLinetypeTableRecord
  2
HIDDEN2
 70
     0
  3
_ _ _ _ _ _ _ _ _ 
 72
    65
 73
     2
 40
0.1875
 49
0.125
 74
     0
 49
-0.0625
 74
     0
  0
LTYPE
  5
36
330
5
100
AcDbSymbolTableRecord
100
AcDbLinetypeTableRecord
  2
HIDDENX2
 70
     0
  3
____ ____ ____ ____ 
 72
    65
 73
     2
 40
0.75
 49
0.5
 74
     0
 49
-0.25
 74
     0
  0
LTYPE
  5
37
330
5
100
AcDbSymbolTableRecord
100
AcDbLinetypeTableRecord
  2
PHANTOM
 70
     0
  3
______  __  __  
 72
    65
 73
     6
 40
2.5
 49
1.25
 74
     0
 49
-0.25
 74
     0
 49
0.25
 74
     0
 49
-0.25
 74
     0
 49
0.25
 74
     0
 49
-0.25
 74
     0
  0
LTYPE
  5
38
330
5
100
AcDbSymbolTableRecord
100
AcDbLinetypeTableRecord
  2
PHANTOM2
 70
     0
  3
___ _ _ ___ _ _ 
 72
    65
 73
     6
 40
1.25
 49
0.625
 74
     0
 49
-0.125
 74
     0
 49
0.125
 74
     0
 49
-0.125
 74
     0
 49
0.125
 74
     0
 49
-0.125
 74
     0
  0
LTYPE
  5
39
330
5
100
AcDbSymbolTableRecord
100
AcDbLinetypeTableRecord
  2
PHANTOMX2
 70
     0
  3
___ _ _ ___ _ _ 
 72
    65
 73
     6
 40
5.0
 49
2.5
 74
     0
 49
-0.5
 74
     0
 49
0.5
 74
     0
 49
-0.5
 74
     0
 49
0.5
 74
     0
 49
-0.5
 74
     0
  0
ENDTAB
  0
TABLE
  2
LAYER
  5
2
330
0
100
AcDbSymbolTable
 70
   257
  0
LAYER
  5
10
330
2
100
AcDbSymbolTableRecord
100
AcDbLayerTableRecord
  2
0
 70
     0
 62
     7
  6
CONTINUOUS
370
    -3
390
F
  0
LAYER
  5
3A
330
2
100
AcDbSymbolTableRecord
100
AcDbLayerTableRecord
  2
1
 70
     0
 62
     1
  6
CONTINUOUS
370
    -3
390
F
  0
LAYER
  5
3B
330
2
100
AcDbSymbolTableRecord
100
AcDbLayerTableRecord
  2
2
 70
     0
 62
     2
  6
CONTINUOUS
370
    -3
390
F
  0
LAYER
  5
3C
330
2
100
AcDbSymbolTableRecord
100
AcDbLayerTableRecord
  2
3
 70
     0
 62
     3
  6
CONTINUOUS
370
    -3
390
F
  0
LAYER
  5
3D
330
2
100
AcDbSymbolTableRecord
100
AcDbLayerTableRecord
  2
4
 70
     0
 62
     4
  6
CONTINUOUS
370
    -3
390
F
  0
LAYER
  5
3E
330
2
100
AcDbSymbolTableRecord
100
AcDbLayerTableRecord
  2
5
 70
     0
 62
     5
  6
CONTINUOUS
370
    -3
390
F
  0
LAYER
  5
3F
330
2
100
AcDbSymbolTableRecord
100
AcDbLayerTableRecord
  2
6
 70
     0
 62
     6
  6
CONTINUOUS
370
    -3
390
F
  0
LAYER
  5
40
330
2
100
AcDbSymbolTableRecord
100
AcDbLayerTableRecord
  2
7
 70
     0
 62
     7
  6
CONTINUOUS
370
    -3
390
F
  0
LAYER
  5
41
330
2
100
AcDbSymbolTableRecord
100
AcDbLayerTableRecord
  2
8
 70
     0
 62
     8
  6
CONTINUOUS
370
    -3
390
F
  0
LAYER
  5
42
330
2
100
AcDbSymbolTableRecord
100
AcDbLayerTableRecord
  2
9
 70
     0
 62
     9
  6
CONTINUOUS
370
    -3
390
F
  0
LAYER
  5
43
330
2
100
AcDbSymbolTableRecord
100
AcDbLayerTableRecord
  2
10
 70
     0
 62
    10
  6
CONTINUOUS
370
    -3
390
F
  0
LAYER
  5
44
330
2
100
AcDbSymbolTableRecord
100
AcDbLayerTableRecord
  2
11
 70
     0
 62
    11
  6
CONTINUOUS
370
    -3
390
F
  0
LAYER
  5
45
330
2
100
AcDbSymbolTableRecord
100
AcDbLayerTableRecord
  2
12
 70
     0
 62
    12
  6
CONTINUOUS
370
    -3
390
F
  0
LAYER
  5
46
330
2
100
AcDbSymbolTableRecord
100
AcDbLayerTableRecord
  2
13
 70
     0
 62
    13
  6
CONTINUOUS
370
    -3
390
F
  0
LAYER
  5
47
330
2
100
AcDbSymbolTableRecord
100
AcDbLayerTableRecord
  2
14
 70
     0
 62
    14
  6
CONTINUOUS
370
    -3
390
F
  0
LAYER
  5
48
330
2
100
AcDbSymbolTableRecord
100
AcDbLayerTableRecord
  2
15
 70
     0
 62
    15
  6
CONTINUOUS
370
    -3
390
F
  0
LAYER
  5
49
330
2
100
AcDbSymbolTableRecord
100
AcDbLayerTableRecord
  2
16
 70
     0
 62
    16
  6
CONTINUOUS
370
    -3
390
F
  0
LAYER
  5
4A
330
2
100
AcDbSymbolTableRecord
100
AcDbLayerTableRecord
  2
17
 70
     0
 62
    17
  6
CONTINUOUS
370
    -3
390
F
  0
LAYER
  5
4B
330
2
100
AcDbSymbolTableRecord
100
AcDbLayerTableRecord
  2
18
 70
     0
 62
    18
  6
CONTINUOUS
370
    -3
390
F
  0
LAYER
  5
4C
330
2
100
AcDbSymbolTableRecord
100
AcDbLayerTableRecord
  2
19
 70
     0
 62
    19
  6
CONTINUOUS
370
    -3
390
F
  0
LAYER
  5
4D
330
2
100
AcDbSymbolTableRecord
100
AcDbLayerTableRecord
  2
20
 70
     0
 62
    20
  6
CONTINUOUS
370
    -3
390
F
  0
LAYER
  5
4E
330
2
100
AcDbSymbolTableRecord
100
AcDbLayerTableRecord
  2
21
 70
     0
 62
    21
  6
CONTINUOUS
370
    -3
390
F
  0
LAYER
  5
4F
330
2
100
AcDbSymbolTableRecord
100
AcDbLayerTableRecord
  2
22
 70
     0
 62
    22
  6
CONTINUOUS
370
    -3
390
F
  0
LAYER
  5
50
330
2
100
AcDbSymbolTableRecord
100
AcDbLayerTableRecord
  2
23
 70
     0
 62
    23
  6
CONTINUOUS
370
    -3
390
F
  0
LAYER
  5
51
330
2
100
AcDbSymbolTableRecord
100
AcDbLayerTableRecord
  2
24
 70
     0
 62
    24
  6
CONTINUOUS
370
    -3
390
F
  0
LAYER
  5
52
330
2
100
AcDbSymbolTableRecord
100
AcDbLayerTableRecord
  2
25
 70
     0
 62
    25
  6
CONTINUOUS
370
    -3
390
F
  0
LAYER
  5
53
330
2
100
AcDbSymbolTableRecord
100
AcDbLayerTableRecord
  2
26
 70
     0
 62
    26
  6
CONTINUOUS
370
    -3
390
F
  0
LAYER
  5
54
330
2
100
AcDbSymbolTableRecord
100
AcDbLayerTableRecord
  2
27
 70
     0
 62
    27
  6
CONTINUOUS
370
    -3
390
F
  0
LAYER
  5
55
330
2
100
AcDbSymbolTableRecord
100
AcDbLayerTableRecord
  2
28
 70
     0
 62
    28
  6
CONTINUOUS
370
    -3
390
F
  0
LAYER
  5
56
330
2
100
AcDbSymbolTableRecord
100
AcDbLayerTableRecord
  2
29
 70
     0
 62
    29
  6
CONTINUOUS
370
    -3
390
F
  0
LAYER
  5
57
330
2
100
AcDbSymbolTableRecord
100
AcDbLayerTableRecord
  2
30
 70
     0
 62
    30
  6
CONTINUOUS
370
    -3
390
F
  0
LAYER
  5
58
330
2
100
AcDbSymbolTableRecord
100
AcDbLayerTableRecord
  2
31
 70
     0
 62
    31
  6
CONTINUOUS
370
    -3
390
F
  0
LAYER
  5
59
330
2
100
AcDbSymbolTableRecord
100
AcDbLayerTableRecord
  2
32
 70
     0
 62
    32
  6
CONTINUOUS
370
    -3
390
F
  0
LAYER
  5
5A
330
2
100
AcDbSymbolTableRecord
100
AcDbLayerTableRecord
  2
33
 70
     0
 62
    33
  6
CONTINUOUS
370
    -3
390
F
  0
LAYER
  5
5B
330
2
100
AcDbSymbolTableRecord
100
AcDbLayerTableRecord
  2
34
 70
     0
 62
    34
  6
CONTINUOUS
370
    -3
390
F
  0
LAYER
  5
5C
330
2
100
AcDbSymbolTableRecord
100
AcDbLayerTableRecord
  2
35
 70
     0
 62
    35
  6
CONTINUOUS
370
    -3
390
F
  0
LAYER
  5
5D
330
2
100
AcDbSymbolTableRecord
100
AcDbLayerTableRecord
  2
36
 70
     0
 62
    36
  6
CONTINUOUS
370
    -3
390
F
  0
LAYER
  5
5E
330
2
100
AcDbSymbolTableRecord
100
AcDbLayerTableRecord
  2
37
 70
     0
 62
    37
  6
CONTINUOUS
370
    -3
390
F
  0
LAYER
  5
5F
330
2
100
AcDbSymbolTableRecord
100
AcDbLayerTableRecord
  2
38
 70
     0
 62
    38
  6
CONTINUOUS
370
    -3
390
F
  0
LAYER
  5
60
330
2
100
AcDbSymbolTableRecord
100
AcDbLayerTableRecord
  2
39
 70
     0
 62
    39
  6
CONTINUOUS
370
    -3
390
F
  0
LAYER
  5
61
330
2
100
AcDbSymbolTableRecord
100
AcDbLayerTableRecord
  2
40
 70
     0
 62
    40
  6
CONTINUOUS
370
    -3
390
F
  0
LAYER
  5
62
330
2
100
AcDbSymbolTableRecord
100
AcDbLayerTableRecord
  2
41
 70
     0
 62
    41
  6
CONTINUOUS
370
    -3
390
F
  0
LAYER
  5
63
330
2
100
AcDbSymbolTableRecord
100
AcDbLayerTableRecord
  2
42
 70
     0
 62
    42
  6
CONTINUOUS
370
    -3
390
F
  0
LAYER
  5
64
330
2
100
AcDbSymbolTableRecord
100
AcDbLayerTableRecord
  2
43
 70
     0
 62
    43
  6
CONTINUOUS
370
    -3
390
F
  0
LAYER
  5
65
330
2
100
AcDbSymbolTableRecord
100
AcDbLayerTableRecord
  2
44
 70
     0
 62
    44
  6
CONTINUOUS
370
    -3
390
F
  0
LAYER
  5
66
330
2
100
AcDbSymbolTableRecord
100
AcDbLayerTableRecord
  2
45
 70
     0
 62
    45
  6
CONTINUOUS
370
    -3
390
F
  0
LAYER
  5
67
330
2
100
AcDbSymbolTableRecord
100
AcDbLayerTableRecord
  2
46
 70
     0
 62
    46
  6
CONTINUOUS
370
    -3
390
F
  0
LAYER
  5
68
330
2
100
AcDbSymbolTableRecord
100
AcDbLayerTableRecord
  2
47
 70
     0
 62
    47
  6
CONTINUOUS
370
    -3
390
F
  0
LAYER
  5
69
330
2
100
AcDbSymbolTableRecord
100
AcDbLayerTableRecord
  2
48
 70
     0
 62
    48
  6
CONTINUOUS
370
    -3
390
F
  0
LAYER
  5
6A
330
2
100
AcDbSymbolTableRecord
100
AcDbLayerTableRecord
  2
49
 70
     0
 62
    49
  6
CONTINUOUS
370
    -3
390
F
  0
LAYER
  5
6B
330
2
100
AcDbSymbolTableRecord
100
AcDbLayerTableRecord
  2
50
 70
     0
 62
    50
  6
CONTINUOUS
370
    -3
390
F
  0
LAYER
  5
6C
330
2
100
AcDbSymbolTableRecord
100
AcDbLayerTableRecord
  2
51
 70
     0
 62
    51
  6
CONTINUOUS
370
    -3
390
F
  0
LAYER
  5
6D
330
2
100
AcDbSymbolTableRecord
100
AcDbLayerTableRecord
  2
52
 70
     0
 62
    52
  6
CONTINUOUS
370
    -3
390
F
  0
LAYER
  5
6E
330
2
100
AcDbSymbolTableRecord
100
AcDbLayerTableRecord
  2
53
 70
     0
 62
    53
  6
CONTINUOUS
370
    -3
390
F
  0
LAYER
  5
6F
330
2
100
AcDbSymbolTableRecord
100
AcDbLayerTableRecord
  2
54
 70
     0
 62
    54
  6
CONTINUOUS
370
    -3
390
F
  0
LAYER
  5
70
330
2
100
AcDbSymbolTableRecord
100
AcDbLayerTableRecord
  2
55
 70
     0
 62
    55
  6
CONTINUOUS
370
    -3
390
F
  0
LAYER
  5
71
330
2
100
AcDbSymbolTableRecord
100
AcDbLayerTableRecord
  2
56
 70
     0
 62
    56
  6
CONTINUOUS
370
    -3
390
F
  0
LAYER
  5
72
330
2
100
AcDbSymbolTableRecord
100
AcDbLayerTableRecord
  2
57
 70
     0
 62
    57
  6
CONTINUOUS
370
    -3
390
F
  0
LAYER
  5
73
330
2
100
AcDbSymbolTableRecord
100
AcDbLayerTableRecord
  2
58
 70
     0
 62
    58
  6
CONTINUOUS
370
    -3
390
F
  0
LAYER
  5
74
330
2
100
AcDbSymbolTableRecord
100
AcDbLayerTableRecord
  2
59
 70
     0
 62
    59
  6
CONTINUOUS
370
    -3
390
F
  0
LAYER
  5
75
330
2
100
AcDbSymbolTableRecord
100
AcDbLayerTableRecord
  2
60
 70
     0
 62
    60
  6
CONTINUOUS
370
    -3
390
F
  0
LAYER
  5
76
330
2
100
AcDbSymbolTableRecord
100
AcDbLayerTableRecord
  2
61
 70
     0
 62
    61
  6
CONTINUOUS
370
    -3
390
F
  0
LAYER
  5
77
330
2
100
AcDbSymbolTableRecord
100
AcDbLayerTableRecord
  2
62
 70
     0
 62
    62
  6
CONTINUOUS
370
    -3
390
F
  0
LAYER
  5
78
330
2
100
AcDbSymbolTableRecord
100
AcDbLayerTableRecord
  2
63
 70
     0
 62
    63
  6
CONTINUOUS
370
    -3
390
F
  0
LAYER
  5
79
330
2
100
AcDbSymbolTableRecord
100
AcDbLayerTableRecord
  2
64
 70
     0
 62
    64
  6
CONTINUOUS
370
    -3
390
F
  0
LAYER
  5
7A
330
2
100
AcDbSymbolTableRecord
100
AcDbLayerTableRecord
  2
65
 70
     0
 62
    65
  6
CONTINUOUS
370
    -3
390
F
  0
LAYER
  5
7B
330
2
100
AcDbSymbolTableRecord
100
AcDbLayerTableRecord
  2
66
 70
     0
 62
    66
  6
CONTINUOUS
370
    -3
390
F
  0
LAYER
  5
7C
330
2
100
AcDbSymbolTableRecord
100
AcDbLayerTableRecord
  2
67
 70
     0
 62
    67
  6
CONTINUOUS
370
    -3
390
F
  0
LAYER
  5
7D
330
2
100
AcDbSymbolTableRecord
100
AcDbLayerTableRecord
  2
68
 70
     0
 62
    68
  6
CONTINUOUS
370
    -3
390
F
  0
LAYER
  5
7E
330
2
100
AcDbSymbolTableRecord
100
AcDbLayerTableRecord
  2
69
 70
     0
 62
    69
  6
CONTINUOUS
370
    -3
390
F
  0
LAYER
  5
7F
330
2
100
AcDbSymbolTableRecord
100
AcDbLayerTableRecord
  2
70
 70
     0
 62
    70
  6
CONTINUOUS
370
    -3
390
F
  0
LAYER
  5
80
330
2
100
AcDbSymbolTableRecord
100
AcDbLayerTableRecord
  2
71
 70
     0
 62
    71
  6
CONTINUOUS
370
    -3
390
F
  0
LAYER
  5
81
330
2
100
AcDbSymbolTableRecord
100
AcDbLayerTableRecord
  2
72
 70
     0
 62
    72
  6
CONTINUOUS
370
    -3
390
F
  0
LAYER
  5
82
330
2
100
AcDbSymbolTableRecord
100
AcDbLayerTableRecord
  2
73
 70
     0
 62
    73
  6
CONTINUOUS
370
    -3
390
F
  0
LAYER
  5
83
330
2
100
AcDbSymbolTableRecord
100
AcDbLayerTableRecord
  2
74
 70
     0
 62
    74
  6
CONTINUOUS
370
    -3
390
F
  0
LAYER
  5
84
330
2
100
AcDbSymbolTableRecord
100
AcDbLayerTableRecord
  2
75
 70
     0
 62
    75
  6
CONTINUOUS
370
    -3
390
F
  0
LAYER
  5
85
330
2
100
AcDbSymbolTableRecord
100
AcDbLayerTableRecord
  2
76
 70
     0
 62
    76
  6
CONTINUOUS
370
    -3
390
F
  0
LAYER
  5
86
330
2
100
AcDbSymbolTableRecord
100
AcDbLayerTableRecord
  2
77
 70
     0
 62
    77
  6
CONTINUOUS
370
    -3
390
F
  0
LAYER
  5
87
330
2
100
AcDbSymbolTableRecord
100
AcDbLayerTableRecord
  2
78
 70
     0
 62
    78
  6
CONTINUOUS
370
    -3
390
F
  0
LAYER
  5
88
330
2
100
AcDbSymbolTableRecord
100
AcDbLayerTableRecord
  2
79
 70
     0
 62
    79
  6
CONTINUOUS
370
    -3
390
F
  0
LAYER
  5
89
330
2
100
AcDbSymbolTableRecord
100
AcDbLayerTableRecord
  2
80
 70
     0
 62
    80
  6
CONTINUOUS
370
    -3
390
F
  0
LAYER
  5
8A
330
2
100
AcDbSymbolTableRecord
100
AcDbLayerTableRecord
  2
81
 70
     0
 62
    81
  6
CONTINUOUS
370
    -3
390
F
  0
LAYER
  5
8B
330
2
100
AcDbSymbolTableRecord
100
AcDbLayerTableRecord
  2
82
 70
     0
 62
    82
  6
CONTINUOUS
370
    -3
390
F
  0
LAYER
  5
8C
330
2
100
AcDbSymbolTableRecord
100
AcDbLayerTableRecord
  2
83
 70
     0
 62
    83
  6
CONTINUOUS
370
    -3
390
F
  0
LAYER
  5
8D
330
2
100
AcDbSymbolTableRecord
100
AcDbLayerTableRecord
  2
84
 70
     0
 62
    84
  6
CONTINUOUS
370
    -3
390
F
  0
LAYER
  5
8E
330
2
100
AcDbSymbolTableRecord
100
AcDbLayerTableRecord
  2
85
 70
     0
 62
    85
  6
CONTINUOUS
370
    -3
390
F
  0
LAYER
  5
8F
330
2
100
AcDbSymbolTableRecord
100
AcDbLayerTableRecord
  2
86
 70
     0
 62
    86
  6
CONTINUOUS
370
    -3
390
F
  0
LAYER
  5
90
330
2
100
AcDbSymbolTableRecord
100
AcDbLayerTableRecord
  2
87
 70
     0
 62
    87
  6
CONTINUOUS
370
    -3
390
F
  0
LAYER
  5
91
330
2
100
AcDbSymbolTableRecord
100
AcDbLayerTableRecord
  2
88
 70
     0
 62
    88
  6
CONTINUOUS
370
    -3
390
F
  0
LAYER
  5
92
330
2
100
AcDbSymbolTableRecord
100
AcDbLayerTableRecord
  2
89
 70
     0
 62
    89
  6
CONTINUOUS
370
    -3
390
F
  0
LAYER
  5
93
330
2
100
AcDbSymbolTableRecord
100
AcDbLayerTableRecord
  2
90
 70
     0
 62
    90
  6
CONTINUOUS
370
    -3
390
F
  0
LAYER
  5
94
330
2
100
AcDbSymbolTableRecord
100
AcDbLayerTableRecord
  2
91
 70
     0
 62
    91
  6
CONTINUOUS
370
    -3
390
F
  0
LAYER
  5
95
330
2
100
AcDbSymbolTableRecord
100
AcDbLayerTableRecord
  2
92
 70
     0
 62
    92
  6
CONTINUOUS
370
    -3
390
F
  0
LAYER
  5
96
330
2
100
AcDbSymbolTableRecord
100
AcDbLayerTableRecord
  2
93
 70
     0
 62
    93
  6
CONTINUOUS
370
    -3
390
F
  0
LAYER
  5
97
330
2
100
AcDbSymbolTableRecord
100
AcDbLayerTableRecord
  2
94
 70
     0
 62
    94
  6
CONTINUOUS
370
    -3
390
F
  0
LAYER
  5
98
330
2
100
AcDbSymbolTableRecord
100
AcDbLayerTableRecord
  2
95
 70
     0
 62
    95
  6
CONTINUOUS
370
    -3
390
F
  0
LAYER
  5
99
330
2
100
AcDbSymbolTableRecord
100
AcDbLayerTableRecord
  2
96
 70
     0
 62
    96
  6
CONTINUOUS
370
    -3
390
F
  0
LAYER
  5
9A
330
2
100
AcDbSymbolTableRecord
100
AcDbLayerTableRecord
  2
97
 70
     0
 62
    97
  6
CONTINUOUS
370
    -3
390
F
  0
LAYER
  5
9B
330
2
100
AcDbSymbolTableRecord
100
AcDbLayerTableRecord
  2
98
 70
     0
 62
    98
  6
CONTINUOUS
370
    -3
390
F
  0
LAYER
  5
9C
330
2
100
AcDbSymbolTableRecord
100
AcDbLayerTableRecord
  2
99
 70
     0
 62
    99
  6
CONTINUOUS
370
    -3
390
F
  0
LAYER
  5
9D
330
2
100
AcDbSymbolTableRecord
100
AcDbLayerTableRecord
  2
100
 70
     0
 62
   100
  6
CONTINUOUS
370
    -3
390
F
  0
LAYER
  5
9E
330
2
100
AcDbSymbolTableRecord
100
AcDbLayerTableRecord
  2
101
 70
     0
 62
   101
  6
CONTINUOUS
370
    -3
390
F
  0
LAYER
  5
9F
330
2
100
AcDbSymbolTableRecord
100
AcDbLayerTableRecord
  2
102
 70
     0
 62
   102
  6
CONTINUOUS
370
    -3
390
F
  0
LAYER
  5
A0
330
2
100
AcDbSymbolTableRecord
100
AcDbLayerTableRecord
  2
103
 70
     0
 62
   103
  6
CONTINUOUS
370
    -3
390
F
  0
LAYER
  5
A1
330
2
100
AcDbSymbolTableRecord
100
AcDbLayerTableRecord
  2
104
 70
     0
 62
   104
  6
CONTINUOUS
370
    -3
390
F
  0
LAYER
  5
A2
330
2
100
AcDbSymbolTableRecord
100
AcDbLayerTableRecord
  2
105
 70
     0
 62
   105
  6
CONTINUOUS
370
    -3
390
F
  0
LAYER
  5
A3
330
2
100
AcDbSymbolTableRecord
100
AcDbLayerTableRecord
  2
106
 70
     0
 62
   106
  6
CONTINUOUS
370
    -3
390
F
  0
LAYER
  5
A4
330
2
100
AcDbSymbolTableRecord
100
AcDbLayerTableRecord
  2
107
 70
     0
 62
   107
  6
CONTINUOUS
370
    -3
390
F
  0
LAYER
  5
A5
330
2
100
AcDbSymbolTableRecord
100
AcDbLayerTableRecord
  2
108
 70
     0
 62
   108
  6
CONTINUOUS
370
    -3
390
F
  0
LAYER
  5
A6
330
2
100
AcDbSymbolTableRecord
100
AcDbLayerTableRecord
  2
109
 70
     0
 62
   109
  6
CONTINUOUS
370
    -3
390
F
  0
LAYER
  5
A7
330
2
100
AcDbSymbolTableRecord
100
AcDbLayerTableRecord
  2
110
 70
     0
 62
   110
  6
CONTINUOUS
370
    -3
390
F
  0
LAYER
  5
A8
330
2
100
AcDbSymbolTableRecord
100
AcDbLayerTableRecord
  2
111
 70
     0
 62
   111
  6
CONTINUOUS
370
    -3
390
F
  0
LAYER
  5
A9
330
2
100
AcDbSymbolTableRecord
100
AcDbLayerTableRecord
  2
112
 70
     0
 62
   112
  6
CONTINUOUS
370
    -3
390
F
  0
LAYER
  5
AA
330
2
100
AcDbSymbolTableRecord
100
AcDbLayerTableRecord
  2
113
 70
     0
 62
   113
  6
CONTINUOUS
370
    -3
390
F
  0
LAYER
  5
AB
330
2
100
AcDbSymbolTableRecord
100
AcDbLayerTableRecord
  2
114
 70
     0
 62
   114
  6
CONTINUOUS
370
    -3
390
F
  0
LAYER
  5
AC
330
2
100
AcDbSymbolTableRecord
100
AcDbLayerTableRecord
  2
115
 70
     0
 62
   115
  6
CONTINUOUS
370
    -3
390
F
  0
LAYER
  5
AD
330
2
100
AcDbSymbolTableRecord
100
AcDbLayerTableRecord
  2
116
 70
     0
 62
   116
  6
CONTINUOUS
370
    -3
390
F
  0
LAYER
  5
AE
330
2
100
AcDbSymbolTableRecord
100
AcDbLayerTableRecord
  2
117
 70
     0
 62
   117
  6
CONTINUOUS
370
    -3
390
F
  0
LAYER
  5
AF
330
2
100
AcDbSymbolTableRecord
100
AcDbLayerTableRecord
  2
118
 70
     0
 62
   118
  6
CONTINUOUS
370
    -3
390
F
  0
LAYER
  5
B0
330
2
100
AcDbSymbolTableRecord
100
AcDbLayerTableRecord
  2
119
 70
     0
 62
   119
  6
CONTINUOUS
370
    -3
390
F
  0
LAYER
  5
B1
330
2
100
AcDbSymbolTableRecord
100
AcDbLayerTableRecord
  2
120
 70
     0
 62
   120
  6
CONTINUOUS
370
    -3
390
F
  0
LAYER
  5
B2
330
2
100
AcDbSymbolTableRecord
100
AcDbLayerTableRecord
  2
121
 70
     0
 62
   121
  6
CONTINUOUS
370
    -3
390
F
  0
LAYER
  5
B3
330
2
100
AcDbSymbolTableRecord
100
AcDbLayerTableRecord
  2
122
 70
     0
 62
   122
  6
CONTINUOUS
370
    -3
390
F
  0
LAYER
  5
B4
330
2
100
AcDbSymbolTableRecord
100
AcDbLayerTableRecord
  2
123
 70
     0
 62
   123
  6
CONTINUOUS
370
    -3
390
F
  0
LAYER
  5
B5
330
2
100
AcDbSymbolTableRecord
100
AcDbLayerTableRecord
  2
124
 70
     0
 62
   124
  6
CONTINUOUS
370
    -3
390
F
  0
LAYER
  5
B6
330
2
100
AcDbSymbolTableRecord
100
AcDbLayerTableRecord
  2
125
 70
     0
 62
   125
  6
CONTINUOUS
370
    -3
390
F
  0
LAYER
  5
B7
330
2
100
AcDbSymbolTableRecord
100
AcDbLayerTableRecord
  2
126
 70
     0
 62
   126
  6
CONTINUOUS
370
    -3
390
F
  0
LAYER
  5
B8
330
2
100
AcDbSymbolTableRecord
100
AcDbLayerTableRecord
  2
127
 70
     0
 62
   127
  6
CONTINUOUS
370
    -3
390
F
  0
LAYER
  5
B9
330
2
100
AcDbSymbolTableRecord
100
AcDbLayerTableRecord
  2
128
 70
     0
 62
   128
  6
CONTINUOUS
370
    -3
390
F
  0
LAYER
  5
BA
330
2
100
AcDbSymbolTableRecord
100
AcDbLayerTableRecord
  2
129
 70
     0
 62
   129
  6
CONTINUOUS
370
    -3
390
F
  0
LAYER
  5
BB
330
2
100
AcDbSymbolTableRecord
100
AcDbLayerTableRecord
  2
130
 70
     0
 62
   130
  6
CONTINUOUS
370
    -3
390
F
  0
LAYER
  5
BC
330
2
100
AcDbSymbolTableRecord
100
AcDbLayerTableRecord
  2
131
 70
     0
 62
   131
  6
CONTINUOUS
370
    -3
390
F
  0
LAYER
  5
BD
330
2
100
AcDbSymbolTableRecord
100
AcDbLayerTableRecord
  2
132
 70
     0
 62
   132
  6
CONTINUOUS
370
    -3
390
F
  0
LAYER
  5
BE
330
2
100
AcDbSymbolTableRecord
100
AcDbLayerTableRecord
  2
133
 70
     0
 62
   133
  6
CONTINUOUS
370
    -3
390
F
  0
LAYER
  5
BF
330
2
100
AcDbSymbolTableRecord
100
AcDbLayerTableRecord
  2
134
 70
     0
 62
   134
  6
CONTINUOUS
370
    -3
390
F
  0
LAYER
  5
C0
330
2
100
AcDbSymbolTableRecord
100
AcDbLayerTableRecord
  2
135
 70
     0
 62
   135
  6
CONTINUOUS
370
    -3
390
F
  0
LAYER
  5
C1
330
2
100
AcDbSymbolTableRecord
100
AcDbLayerTableRecord
  2
136
 70
     0
 62
   136
  6
CONTINUOUS
370
    -3
390
F
  0
LAYER
  5
C2
330
2
100
AcDbSymbolTableRecord
100
AcDbLayerTableRecord
  2
137
 70
     0
 62
   137
  6
CONTINUOUS
370
    -3
390
F
  0
LAYER
  5
C3
330
2
100
AcDbSymbolTableRecord
100
AcDbLayerTableRecord
  2
138
 70
     0
 62
   138
  6
CONTINUOUS
370
    -3
390
F
  0
LAYER
  5
C4
330
2
100
AcDbSymbolTableRecord
100
AcDbLayerTableRecord
  2
139
 70
     0
 62
   139
  6
CONTINUOUS
370
    -3
390
F
  0
LAYER
  5
C5
330
2
100
AcDbSymbolTableRecord
100
AcDbLayerTableRecord
  2
140
 70
     0
 62
   140
  6
CONTINUOUS
370
    -3
390
F
  0
LAYER
  5
C6
330
2
100
AcDbSymbolTableRecord
100
AcDbLayerTableRecord
  2
141
 70
     0
 62
   141
  6
CONTINUOUS
370
    -3
390
F
  0
LAYER
  5
C7
330
2
100
AcDbSymbolTableRecord
100
AcDbLayerTableRecord
  2
142
 70
     0
 62
   142
  6
CONTINUOUS
370
    -3
390
F
  0
LAYER
  5
C8
330
2
100
AcDbSymbolTableRecord
100
AcDbLayerTableRecord
  2
143
 70
     0
 62
   143
  6
CONTINUOUS
370
    -3
390
F
  0
LAYER
  5
C9
330
2
100
AcDbSymbolTableRecord
100
AcDbLayerTableRecord
  2
144
 70
     0
 62
   144
  6
CONTINUOUS
370
    -3
390
F
  0
LAYER
  5
CA
330
2
100
AcDbSymbolTableRecord
100
AcDbLayerTableRecord
  2
145
 70
     0
 62
   145
  6
CONTINUOUS
370
    -3
390
F
  0
LAYER
  5
CB
330
2
100
AcDbSymbolTableRecord
100
AcDbLayerTableRecord
  2
146
 70
     0
 62
   146
  6
CONTINUOUS
370
    -3
390
F
  0
LAYER
  5
CC
330
2
100
AcDbSymbolTableRecord
100
AcDbLayerTableRecord
  2
147
 70
     0
 62
   147
  6
CONTINUOUS
370
    -3
390
F
  0
LAYER
  5
CD
330
2
100
AcDbSymbolTableRecord
100
AcDbLayerTableRecord
  2
148
 70
     0
 62
   148
  6
CONTINUOUS
370
    -3
390
F
  0
LAYER
  5
CE
330
2
100
AcDbSymbolTableRecord
100
AcDbLayerTableRecord
  2
149
 70
     0
 62
   149
  6
CONTINUOUS
370
    -3
390
F
  0
LAYER
  5
CF
330
2
100
AcDbSymbolTableRecord
100
AcDbLayerTableRecord
  2
150
 70
     0
 62
   150
  6
CONTINUOUS
370
    -3
390
F
  0
LAYER
  5
D0
330
2
100
AcDbSymbolTableRecord
100
AcDbLayerTableRecord
  2
151
 70
     0
 62
   151
  6
CONTINUOUS
370
    -3
390
F
  0
LAYER
  5
D1
330
2
100
AcDbSymbolTableRecord
100
AcDbLayerTableRecord
  2
152
 70
     0
 62
   152
  6
CONTINUOUS
370
    -3
390
F
  0
LAYER
  5
D2
330
2
100
AcDbSymbolTableRecord
100
AcDbLayerTableRecord
  2
153
 70
     0
 62
   153
  6
CONTINUOUS
370
    -3
390
F
  0
LAYER
  5
D3
330
2
100
AcDbSymbolTableRecord
100
AcDbLayerTableRecord
  2
154
 70
     0
 62
   154
  6
CONTINUOUS
370
    -3
390
F
  0
LAYER
  5
D4
330
2
100
AcDbSymbolTableRecord
100
AcDbLayerTableRecord
  2
155
 70
     0
 62
   155
  6
CONTINUOUS
370
    -3
390
F
  0
LAYER
  5
D5
330
2
100
AcDbSymbolTableRecord
100
AcDbLayerTableRecord
  2
156
 70
     0
 62
   156
  6
CONTINUOUS
370
    -3
390
F
  0
LAYER
  5
D6
330
2
100
AcDbSymbolTableRecord
100
AcDbLayerTableRecord
  2
157
 70
     0
 62
   157
  6
CONTINUOUS
370
    -3
390
F
  0
LAYER
  5
D7
330
2
100
AcDbSymbolTableRecord
100
AcDbLayerTableRecord
  2
158
 70
     0
 62
   158
  6
CONTINUOUS
370
    -3
390
F
  0
LAYER
  5
D8
330
2
100
AcDbSymbolTableRecord
100
AcDbLayerTableRecord
  2
159
 70
     0
 62
   159
  6
CONTINUOUS
370
    -3
390
F
  0
LAYER
  5
D9
330
2
100
AcDbSymbolTableRecord
100
AcDbLayerTableRecord
  2
160
 70
     0
 62
   160
  6
CONTINUOUS
370
    -3
390
F
  0
LAYER
  5
DA
330
2
100
AcDbSymbolTableRecord
100
AcDbLayerTableRecord
  2
161
 70
     0
 62
   161
  6
CONTINUOUS
370
    -3
390
F
  0
LAYER
  5
DB
330
2
100
AcDbSymbolTableRecord
100
AcDbLayerTableRecord
  2
162
 70
     0
 62
   162
  6
CONTINUOUS
370
    -3
390
F
  0
LAYER
  5
DC
330
2
100
AcDbSymbolTableRecord
100
AcDbLayerTableRecord
  2
163
 70
     0
 62
   163
  6
CONTINUOUS
370
    -3
390
F
  0
LAYER
  5
DD
330
2
100
AcDbSymbolTableRecord
100
AcDbLayerTableRecord
  2
164
 70
     0
 62
   164
  6
CONTINUOUS
370
    -3
390
F
  0
LAYER
  5
DE
330
2
100
AcDbSymbolTableRecord
100
AcDbLayerTableRecord
  2
165
 70
     0
 62
   165
  6
CONTINUOUS
370
    -3
390
F
  0
LAYER
  5
DF
330
2
100
AcDbSymbolTableRecord
100
AcDbLayerTableRecord
  2
166
 70
     0
 62
   166
  6
CONTINUOUS
370
    -3
390
F
  0
LAYER
  5
E0
330
2
100
AcDbSymbolTableRecord
100
AcDbLayerTableRecord
  2
167
 70
     0
 62
   167
  6
CONTINUOUS
370
    -3
390
F
  0
LAYER
  5
E1
330
2
100
AcDbSymbolTableRecord
100
AcDbLayerTableRecord
  2
168
 70
     0
 62
   168
  6
CONTINUOUS
370
    -3
390
F
  0
LAYER
  5
E2
330
2
100
AcDbSymbolTableRecord
100
AcDbLayerTableRecord
  2
169
 70
     0
 62
   169
  6
CONTINUOUS
370
    -3
390
F
  0
LAYER
  5
E3
330
2
100
AcDbSymbolTableRecord
100
AcDbLayerTableRecord
  2
170
 70
     0
 62
   170
  6
CONTINUOUS
370
    -3
390
F
  0
LAYER
  5
E4
330
2
100
AcDbSymbolTableRecord
100
AcDbLayerTableRecord
  2
171
 70
     0
 62
   171
  6
CONTINUOUS
370
    -3
390
F
  0
LAYER
  5
E5
330
2
100
AcDbSymbolTableRecord
100
AcDbLayerTableRecord
  2
172
 70
     0
 62
   172
  6
CONTINUOUS
370
    -3
390
F
  0
LAYER
  5
E6
330
2
100
AcDbSymbolTableRecord
100
AcDbLayerTableRecord
  2
173
 70
     0
 62
   173
  6
CONTINUOUS
370
    -3
390
F
  0
LAYER
  5
E7
330
2
100
AcDbSymbolTableRecord
100
AcDbLayerTableRecord
  2
174
 70
     0
 62
   174
  6
CONTINUOUS
370
    -3
390
F
  0
LAYER
  5
E8
330
2
100
AcDbSymbolTableRecord
100
AcDbLayerTableRecord
  2
175
 70
     0
 62
   175
  6
CONTINUOUS
370
    -3
390
F
  0
LAYER
  5
E9
330
2
100
AcDbSymbolTableRecord
100
AcDbLayerTableRecord
  2
176
 70
     0
 62
   176
  6
CONTINUOUS
370
    -3
390
F
  0
LAYER
  5
EA
330
2
100
AcDbSymbolTableRecord
100
AcDbLayerTableRecord
  2
177
 70
     0
 62
   177
  6
CONTINUOUS
370
    -3
390
F
  0
LAYER
  5
EB
330
2
100
AcDbSymbolTableRecord
100
AcDbLayerTableRecord
  2
178
 70
     0
 62
   178
  6
CONTINUOUS
370
    -3
390
F
  0
LAYER
  5
EC
330
2
100
AcDbSymbolTableRecord
100
AcDbLayerTableRecord
  2
179
 70
     0
 62
   179
  6
CONTINUOUS
370
    -3
390
F
  0
LAYER
  5
ED
330
2
100
AcDbSymbolTableRecord
100
AcDbLayerTableRecord
  2
180
 70
     0
 62
   180
  6
CONTINUOUS
370
    -3
390
F
  0
LAYER
  5
EE
330
2
100
AcDbSymbolTableRecord
100
AcDbLayerTableRecord
  2
181
 70
     0
 62
   181
  6
CONTINUOUS
370
    -3
390
F
  0
LAYER
  5
EF
330
2
100
AcDbSymbolTableRecord
100
AcDbLayerTableRecord
  2
182
 70
     0
 62
   182
  6
CONTINUOUS
370
    -3
390
F
  0
LAYER
  5
F0
330
2
100
AcDbSymbolTableRecord
100
AcDbLayerTableRecord
  2
183
 70
     0
 62
   183
  6
CONTINUOUS
370
    -3
390
F
  0
LAYER
  5
F1
330
2
100
AcDbSymbolTableRecord
100
AcDbLayerTableRecord
  2
184
 70
     0
 62
   184
  6
CONTINUOUS
370
    -3
390
F
  0
LAYER
  5
F2
330
2
100
AcDbSymbolTableRecord
100
AcDbLayerTableRecord
  2
185
 70
     0
 62
   185
  6
CONTINUOUS
370
    -3
390
F
  0
LAYER
  5
F3
330
2
100
AcDbSymbolTableRecord
100
AcDbLayerTableRecord
  2
186
 70
     0
 62
   186
  6
CONTINUOUS
370
    -3
390
F
  0
LAYER
  5
F4
330
2
100
AcDbSymbolTableRecord
100
AcDbLayerTableRecord
  2
187
 70
     0
 62
   187
  6
CONTINUOUS
370
    -3
390
F
  0
LAYER
  5
F5
330
2
100
AcDbSymbolTableRecord
100
AcDbLayerTableRecord
  2
188
 70
     0
 62
   188
  6
CONTINUOUS
370
    -3
390
F
  0
LAYER
  5
F6
330
2
100
AcDbSymbolTableRecord
100
AcDbLayerTableRecord
  2
189
 70
     0
 62
   189
  6
CONTINUOUS
370
    -3
390
F
  0
LAYER
  5
F7
330
2
100
AcDbSymbolTableRecord
100
AcDbLayerTableRecord
  2
190
 70
     0
 62
   190
  6
CONTINUOUS
370
    -3
390
F
  0
LAYER
  5
F8
330
2
100
AcDbSymbolTableRecord
100
AcDbLayerTableRecord
  2
191
 70
     0
 62
   191
  6
CONTINUOUS
370
    -3
390
F
  0
LAYER
  5
F9
330
2
100
AcDbSymbolTableRecord
100
AcDbLayerTableRecord
  2
192
 70
     0
 62
   192
  6
CONTINUOUS
370
    -3
390
F
  0
LAYER
  5
FA
330
2
100
AcDbSymbolTableRecord
100
AcDbLayerTableRecord
  2
193
 70
     0
 62
   193
  6
CONTINUOUS
370
    -3
390
F
  0
LAYER
  5
FB
330
2
100
AcDbSymbolTableRecord
100
AcDbLayerTableRecord
  2
194
 70
     0
 62
   194
  6
CONTINUOUS
370
    -3
390
F
  0
LAYER
  5
FC
330
2
100
AcDbSymbolTableRecord
100
AcDbLayerTableRecord
  2
195
 70
     0
 62
   195
  6
CONTINUOUS
370
    -3
390
F
  0
LAYER
  5
FD
330
2
100
AcDbSymbolTableRecord
100
AcDbLayerTableRecord
  2
196
 70
     0
 62
   196
  6
CONTINUOUS
370
    -3
390
F
  0
LAYER
  5
FE
330
2
100
AcDbSymbolTableRecord
100
AcDbLayerTableRecord
  2
197
 70
     0
 62
   197
  6
CONTINUOUS
370
    -3
390
F
  0
LAYER
  5
FF
330
2
100
AcDbSymbolTableRecord
100
AcDbLayerTableRecord
  2
198
 70
     0
 62
   198
  6
CONTINUOUS
370
    -3
390
F
  0
LAYER
  5
100
330
2
100
AcDbSymbolTableRecord
100
AcDbLayerTableRecord
  2
199
 70
     0
 62
   199
  6
CONTINUOUS
370
    -3
390
F
  0
LAYER
  5
101
330
2
100
AcDbSymbolTableRecord
100
AcDbLayerTableRecord
  2
200
 70
     0
 62
   200
  6
CONTINUOUS
370
    -3
390
F
  0
LAYER
  5
102
330
2
100
AcDbSymbolTableRecord
100
AcDbLayerTableRecord
  2
201
 70
     0
 62
   201
  6
CONTINUOUS
370
    -3
390
F
  0
LAYER
  5
103
330
2
100
AcDbSymbolTableRecord
100
AcDbLayerTableRecord
  2
202
 70
     0
 62
   202
  6
CONTINUOUS
370
    -3
390
F
  0
LAYER
  5
104
330
2
100
AcDbSymbolTableRecord
100
AcDbLayerTableRecord
  2
203
 70
     0
 62
   203
  6
CONTINUOUS
370
    -3
390
F
  0
LAYER
  5
105
330
2
100
AcDbSymbolTableRecord
100
AcDbLayerTableRecord
  2
204
 70
     0
 62
   204
  6
CONTINUOUS
370
    -3
390
F
  0
LAYER
  5
106
330
2
100
AcDbSymbolTableRecord
100
AcDbLayerTableRecord
  2
205
 70
     0
 62
   205
  6
CONTINUOUS
370
    -3
390
F
  0
LAYER
  5
107
330
2
100
AcDbSymbolTableRecord
100
AcDbLayerTableRecord
  2
206
 70
     0
 62
   206
  6
CONTINUOUS
370
    -3
390
F
  0
LAYER
  5
108
330
2
100
AcDbSymbolTableRecord
100
AcDbLayerTableRecord
  2
207
 70
     0
 62
   207
  6
CONTINUOUS
370
    -3
390
F
  0
LAYER
  5
109
330
2
100
AcDbSymbolTableRecord
100
AcDbLayerTableRecord
  2
208
 70
     0
 62
   208
  6
CONTINUOUS
370
    -3
390
F
  0
LAYER
  5
10A
330
2
100
AcDbSymbolTableRecord
100
AcDbLayerTableRecord
  2
209
 70
     0
 62
   209
  6
CONTINUOUS
370
    -3
390
F
  0
LAYER
  5
10B
330
2
100
AcDbSymbolTableRecord
100
AcDbLayerTableRecord
  2
210
 70
     0
 62
   210
  6
CONTINUOUS
370
    -3
390
F
  0
LAYER
  5
10C
330
2
100
AcDbSymbolTableRecord
100
AcDbLayerTableRecord
  2
211
 70
     0
 62
   211
  6
CONTINUOUS
370
    -3
390
F
  0
LAYER
  5
10D
330
2
100
AcDbSymbolTableRecord
100
AcDbLayerTableRecord
  2
212
 70
     0
 62
   212
  6
CONTINUOUS
370
    -3
390
F
  0
LAYER
  5
10E
330
2
100
AcDbSymbolTableRecord
100
AcDbLayerTableRecord
  2
213
 70
     0
 62
   213
  6
CONTINUOUS
370
    -3
390
F
  0
LAYER
  5
10F
330
2
100
AcDbSymbolTableRecord
100
AcDbLayerTableRecord
  2
214
 70
     0
 62
   214
  6
CONTINUOUS
370
    -3
390
F
  0
LAYER
  5
110
330
2
100
AcDbSymbolTableRecord
100
AcDbLayerTableRecord
  2
215
 70
     0
 62
   215
  6
CONTINUOUS
370
    -3
390
F
  0
LAYER
  5
111
330
2
100
AcDbSymbolTableRecord
100
AcDbLayerTableRecord
  2
216
 70
     0
 62
   216
  6
CONTINUOUS
370
    -3
390
F
  0
LAYER
  5
112
330
2
100
AcDbSymbolTableRecord
100
AcDbLayerTableRecord
  2
217
 70
     0
 62
   217
  6
CONTINUOUS
370
    -3
390
F
  0
LAYER
  5
113
330
2
100
AcDbSymbolTableRecord
100
AcDbLayerTableRecord
  2
218
 70
     0
 62
   218
  6
CONTINUOUS
370
    -3
390
F
  0
LAYER
  5
114
330
2
100
AcDbSymbolTableRecord
100
AcDbLayerTableRecord
  2
219
 70
     0
 62
   219
  6
CONTINUOUS
370
    -3
390
F
  0
LAYER
  5
115
330
2
100
AcDbSymbolTableRecord
100
AcDbLayerTableRecord
  2
220
 70
     0
 62
   220
  6
CONTINUOUS
370
    -3
390
F
  0
LAYER
  5
116
330
2
100
AcDbSymbolTableRecord
100
AcDbLayerTableRecord
  2
221
 70
     0
 62
   221
  6
CONTINUOUS
370
    -3
390
F
  0
LAYER
  5
117
330
2
100
AcDbSymbolTableRecord
100
AcDbLayerTableRecord
  2
222
 70
     0
 62
   222
  6
CONTINUOUS
370
    -3
390
F
  0
LAYER
  5
118
330
2
100
AcDbSymbolTableRecord
100
AcDbLayerTableRecord
  2
223
 70
     0
 62
   223
  6
CONTINUOUS
370
    -3
390
F
  0
LAYER
  5
119
330
2
100
AcDbSymbolTableRecord
100
AcDbLayerTableRecord
  2
224
 70
     0
 62
   224
  6
CONTINUOUS
370
    -3
390
F
  0
LAYER
  5
11A
330
2
100
AcDbSymbolTableRecord
100
AcDbLayerTableRecord
  2
225
 70
     0
 62
   225
  6
CONTINUOUS
370
    -3
390
F
  0
LAYER
  5
11B
330
2
100
AcDbSymbolTableRecord
100
AcDbLayerTableRecord
  2
226
 70
     0
 62
   226
  6
CONTINUOUS
370
    -3
390
F
  0
LAYER
  5
11C
330
2
100
AcDbSymbolTableRecord
100
AcDbLayerTableRecord
  2
227
 70
     0
 62
   227
  6
CONTINUOUS
370
    -3
390
F
  0
LAYER
  5
11D
330
2
100
AcDbSymbolTableRecord
100
AcDbLayerTableRecord
  2
228
 70
     0
 62
   228
  6
CONTINUOUS
370
    -3
390
F
  0
LAYER
  5
11E
330
2
100
AcDbSymbolTableRecord
100
AcDbLayerTableRecord
  2
229
 70
     0
 62
   229
  6
CONTINUOUS
370
    -3
390
F
  0
LAYER
  5
11F
330
2
100
AcDbSymbolTableRecord
100
AcDbLayerTableRecord
  2
230
 70
     0
 62
   230
  6
CONTINUOUS
370
    -3
390
F
  0
LAYER
  5
120
330
2
100
AcDbSymbolTableRecord
100
AcDbLayerTableRecord
  2
231
 70
     0
 62
   231
  6
CONTINUOUS
370
    -3
390
F
  0
LAYER
  5
121
330
2
100
AcDbSymbolTableRecord
100
AcDbLayerTableRecord
  2
232
 70
     0
 62
   232
  6
CONTINUOUS
370
    -3
390
F
  0
LAYER
  5
122
330
2
100
AcDbSymbolTableRecord
100
AcDbLayerTableRecord
  2
233
 70
     0
 62
   233
  6
CONTINUOUS
370
    -3
390
F
  0
LAYER
  5
123
330
2
100
AcDbSymbolTableRecord
100
AcDbLayerTableRecord
  2
234
 70
     0
 62
   234
  6
CONTINUOUS
370
    -3
390
F
  0
LAYER
  5
124
330
2
100
AcDbSymbolTableRecord
100
AcDbLayerTableRecord
  2
235
 70
     0
 62
   235
  6
CONTINUOUS
370
    -3
390
F
  0
LAYER
  5
125
330
2
100
AcDbSymbolTableRecord
100
AcDbLayerTableRecord
  2
236
 70
     0
 62
   236
  6
CONTINUOUS
370
    -3
390
F
  0
LAYER
  5
126
330
2
100
AcDbSymbolTableRecord
100
AcDbLayerTableRecord
  2
237
 70
     0
 62
   237
  6
CONTINUOUS
370
    -3
390
F
  0
LAYER
  5
127
330
2
100
AcDbSymbolTableRecord
100
AcDbLayerTableRecord
  2
238
 70
     0
 62
   238
  6
CONTINUOUS
370
    -3
390
F
  0
LAYER
  5
128
330
2
100
AcDbSymbolTableRecord
100
AcDbLayerTableRecord
  2
239
 70
     0
 62
   239
  6
CONTINUOUS
370
    -3
390
F
  0
LAYER
  5
129
330
2
100
AcDbSymbolTableRecord
100
AcDbLayerTableRecord
  2
240
 70
     0
 62
   240
  6
CONTINUOUS
370
    -3
390
F
  0
LAYER
  5
12A
330
2
100
AcDbSymbolTableRecord
100
AcDbLayerTableRecord
  2
241
 70
     0
 62
   241
  6
CONTINUOUS
370
    -3
390
F
  0
LAYER
  5
12B
330
2
100
AcDbSymbolTableRecord
100
AcDbLayerTableRecord
  2
242
 70
     0
 62
   242
  6
CONTINUOUS
370
    -3
390
F
  0
LAYER
  5
12C
330
2
100
AcDbSymbolTableRecord
100
AcDbLayerTableRecord
  2
243
 70
     0
 62
   243
  6
CONTINUOUS
370
    -3
390
F
  0
LAYER
  5
12D
330
2
100
AcDbSymbolTableRecord
100
AcDbLayerTableRecord
  2
244
 70
     0
 62
   244
  6
CONTINUOUS
370
    -3
390
F
  0
LAYER
  5
12E
330
2
100
AcDbSymbolTableRecord
100
AcDbLayerTableRecord
  2
245
 70
     0
 62
   245
  6
CONTINUOUS
370
    -3
390
F
  0
LAYER
  5
12F
330
2
100
AcDbSymbolTableRecord
100
AcDbLayerTableRecord
  2
246
 70
     0
 62
   246
  6
CONTINUOUS
370
    -3
390
F
  0
LAYER
  5
130
330
2
100
AcDbSymbolTableRecord
100
AcDbLayerTableRecord
  2
247
 70
     0
 62
   247
  6
CONTINUOUS
370
    -3
390
F
  0
LAYER
  5
131
330
2
100
AcDbSymbolTableRecord
100
AcDbLayerTableRecord
  2
248
 70
     0
 62
   248
  6
CONTINUOUS
370
    -3
390
F
  0
LAYER
  5
132
330
2
100
AcDbSymbolTableRecord
100
AcDbLayerTableRecord
  2
249
 70
     0
 62
   249
  6
CONTINUOUS
370
    -3
390
F
  0
LAYER
  5
133
330
2
100
AcDbSymbolTableRecord
100
AcDbLayerTableRecord
  2
250
 70
     0
 62
   250
  6
CONTINUOUS
370
    -3
390
F
  0
LAYER
  5
134
330
2
100
AcDbSymbolTableRecord
100
AcDbLayerTableRecord
  2
251
 70
     0
 62
   251
  6
CONTINUOUS
370
    -3
390
F
  0
LAYER
  5
135
330
2
100
AcDbSymbolTableRecord
100
AcDbLayerTableRecord
  2
252
 70
     0
 62
   252
  6
CONTINUOUS
370
    -3
390
F
  0
LAYER
  5
136
330
2
100
AcDbSymbolTableRecord
100
AcDbLayerTableRecord
  2
253
 70
     0
 62
   253
  6
CONTINUOUS
370
    -3
390
F
  0
LAYER
  5
137
330
2
100
AcDbSymbolTableRecord
100
AcDbLayerTableRecord
  2
254
 70
     0
 62
   254
  6
CONTINUOUS
370
    -3
390
F
  0
LAYER
  5
138
330
2
100
AcDbSymbolTableRecord
100
AcDbLayerTableRecord
  2
255
 70
     0
 62
   255
  6
CONTINUOUS
370
    -3
390
F
  0
LAYER
  5
12B0
330
2
100
AcDbSymbolTableRecord
100
AcDbLayerTableRecord
  2
Defpoints
 70
     0
 62
     7
  6
CONTINUOUS
290
     0
370
    -3
390
F
  0
ENDTAB
  0
TABLE
  2
STYLE
  5
3
330
0
100
AcDbSymbolTable
 70
     1
  0
STYLE
  5
11
330
3
100
AcDbSymbolTableRecord
100
AcDbTextStyleTableRecord
  2
STANDARD
 70
     0
 40
0.0
 41
1.0
 50
0.0
 71
     0
 42
0.2
  3
txt
  4

  0
ENDTAB
  0
TABLE
  2
VIEW
  5
6
330
0
100
AcDbSymbolTable
 70
     0
  0
ENDTAB
  0
TABLE
  2
UCS
  5
7
330
0
100
AcDbSymbolTable
 70
     0
  0
ENDTAB
  0
TABLE
  2
APPID
  5
9
330
0
100
AcDbSymbolTable
 70
     1
  0
APPID
  5
12
330
9
100
AcDbSymbolTableRecord
100
AcDbRegAppTableRecord
  2
ACAD
 70
     0
  0
ENDTAB
  0
TABLE
  2
DIMSTYLE
  5
A
330
0
100
AcDbSymbolTable
 70
     1
100
AcDbDimStyleTable
 71
     1
340
12AC
  0
DIMSTYLE
105
12AC
330
A
100
AcDbSymbolTableRecord
100
AcDbDimStyleTableRecord
  2
Standard
 70
     0
340
11
  0
ENDTAB
  0
TABLE
  2
BLOCK_RECORD
  5
1
330
0
100
AcDbSymbolTable
 70
     3
  0
BLOCK_RECORD
  5
1E
330
1
100
AcDbSymbolTableRecord
100
AcDbBlockTableRecord
  2
*Model_Space
340
21
  0
BLOCK_RECORD
  5
1A
330
1
100
AcDbSymbolTableRecord
100
AcDbBlockTableRecord
  2
*Paper_Space
340
1D
  0
BLOCK_RECORD
  5
12B1
330
1
100
AcDbSymbolTableRecord
100
AcDbBlockTableRecord
  2
*D0
340
0
  0
BLOCK_RECORD
  5
12BF
330
1
100
AcDbSymbolTableRecord
100
AcDbBlockTableRecord
  2
*D1
340
0
  0
BLOCK_RECORD
  5
12E1
330
1
100
AcDbSymbolTableRecord
100
AcDbBlockTableRecord
  2
*D2
340
0
  0
ENDTAB
  0
ENDSEC
  0
SECTION
  2
BLOCKS
  0
BLOCK
  5
13B
330
1E
100
AcDbEntity
  8
0
100
AcDbBlockBegin
  2
*Model_Space
 70
     0
 10
0.0
 20
0.0
 30
0.0
  3
*Model_Space
  1

  0
ENDBLK
  5
13C
330
1E
100
AcDbEntity
  8
0
100
AcDbBlockEnd
  0
BLOCK
  5
139
330
1A
100
AcDbEntity
 67
     1
  8
0
100
AcDbBlockBegin
  2
*Paper_Space
 70
     0
 10
0.0
 20
0.0
 30
0.0
  3
*Paper_Space
  1

  0
ENDBLK
  5
13A
330
1A
100
AcDbEntity
 67
     1
  8
0
100
AcDbBlockEnd
  0
BLOCK
  5
12BC
330
12B1
100
AcDbEntity
  8
0
100
AcDbBlockBegin
  2
*D0
 70
     1
 10
0.0
 20
0.0
 30
0.0
  3
*D0
  1

  0
LINE
  5
12B2
330
12B1
100
AcDbEntity
  8
0
 62
     0
370
    -2
100
AcDbLine
 10
3.110959756260484
 20
26.41645592244629
 30
0.0
 11
3.110959756260484
 21
25.16975632081622
 31
0.0
  0
LINE
  5
12B3
330
12B1
100
AcDbEntity
  8
0
 62
     0
370
    -2
100
AcDbLine
 10
-0.6360874878340042
 20
26.50315682628748
 30
0.0
 11
-0.6360874878340043
 21
25.16975632081622
 31
0.0
  0
LINE
  5
12B4
330
12B1
100
AcDbEntity
  8
0
 62
     0
370
    -2
100
AcDbLine
 10
2.930959756260484
 20
25.34975632081622
 30
0.0
 11
1.76243613421324
 21
25.34975632081622
 31
0.0
  0
LINE
  5
12B5
330
12B1
100
AcDbEntity
  8
0
 62
     0
370
    -2
100
AcDbLine
 10
-0.4560874878340043
 20
25.34975632081622
 30
0.0
 11
0.7124361342132401
 21
25.34975632081622
 31
0.0
  0
SOLID
  5
12B6
330
12B1
100
AcDbEntity
  8
0
 62
     0
100
AcDbTrace
 10
2.930959756260484
 20
25.37975632081622
 30
0.0
 11
2.930959756260484
 21
25.31975632081622
 31
0.0
 12
3.110959756260484
 22
25.34975632081622
 32
0.0
 13
3.110959756260484
 23
25.34975632081622
 33
0.0
  0
SOLID
  5
12B7
330
12B1
100
AcDbEntity
  8
0
 62
     0
100
AcDbTrace
 10
-0.4560874878340043
 20
25.37975632081622
 30
0.0
 11
-0.4560874878340043
 21
25.31975632081622
 31
0.0
 12
-0.6360874878340043
 22
25.34975632081622
 32
0.0
 13
-0.6360874878340043
 23
25.34975632081622
 33
0.0
  0
MTEXT
  5
12B8
330
12B1
100
AcDbEntity
  8
0
 62
     0
100
AcDbMText
 10
1.23743613421324
 20
25.34975632081622
 30
0.0
 40
0.18
 41
0.0
 71
     5
 72
     1
  1
\A1;3.7470
 73
     1
 44
1.0
  0
POINT
  5
12B9
330
12B1
100
AcDbEntity
  8
Defpoints
 62
     0
100
AcDbPoint
 10
3.110959756260484
 20
26.47895592244629
 30
0.0
  0
POINT
  5
12BA
330
12B1
100
AcDbEntity
  8
Defpoints
 62
     0
100
AcDbPoint
 10
-0.6360874878340042
 20
26.56565682628748
 30
0.0
  0
POINT
  5
12BB
330
12B1
100
AcDbEntity
  8
Defpoints
 62
     0
100
AcDbPoint
 10
-0.6360874878340043
 20
25.34975632081622
 30
0.0
  0
ENDBLK
  5
12BD
330
12B1
100
AcDbEntity
  8
0
100
AcDbBlockEnd
  0
BLOCK
  5
12CA
330
12BF
100
AcDbEntity
  8
0
100
AcDbBlockBegin
  2
*D1
 70
     1
 10
0.0
 20
0.0
 30
0.0
  3
*D1
  1

  0
LINE
  5
12D6
330
12BF
100
AcDbEntity
  8
0
 62
     0
370
    -2
100
AcDbLine
 10
3.142061719843056
 20
23.49299910360596
 30
0.0
 11
6.846522699217441
 21
23.49299910360596
 31
0.0
  0
LINE
  5
12D7
330
12BF
100
AcDbEntity
  8
0
 62
     0
370
    -2
100
AcDbLine
 10
3.142061719843056
 20
18.93311575884941
 30
0.0
 11
6.84652269921744
 21
18.93311575884941
 31
0.0
  0
LINE
  5
12D8
330
12BF
100
AcDbEntity
  8
0
 62
     0
370
    -2
100
AcDbLine
 10
6.666522699217441
 20
23.31299910360596
 30
0.0
 11
6.66652269921744
 21
21.39305743122768
 31
0.0
  0
LINE
  5
12D9
330
12BF
100
AcDbEntity
  8
0
 62
     0
370
    -2
100
AcDbLine
 10
6.66652269921744
 20
19.11311575884941
 30
0.0
 11
6.66652269921744
 21
21.03305743122768
 31
0.0
  0
SOLID
  5
12DA
330
12BF
100
AcDbEntity
  8
0
 62
     0
100
AcDbTrace
 10
6.636522699217441
 20
23.31299910360596
 30
0.0
 11
6.696522699217442
 21
23.31299910360596
 31
0.0
 12
6.666522699217441
 22
23.49299910360596
 32
0.0
 13
6.666522699217441
 23
23.49299910360596
 33
0.0
  0
SOLID
  5
12DB
330
12BF
100
AcDbEntity
  8
0
 62
     0
100
AcDbTrace
 10
6.63652269921744
 20
19.11311575884941
 30
0.0
 11
6.696522699217441
 21
19.11311575884941
 31
0.0
 12
6.66652269921744
 22
18.93311575884941
 32
0.0
 13
6.66652269921744
 23
18.93311575884941
 33
0.0
  0
MTEXT
  5
12DC
330
12BF
100
AcDbEntity
  8
0
 62
     0
100
AcDbMText
 10
6.666522699217437
 20
21.21305743122769
 30
0.0
 40
0.18
 41
0.0
 71
     5
 72
     1
  1
\A1;4.56
 73
     1
 44
1.0
  0
POINT
  5
12DD
330
12BF
100
AcDbEntity
  8
Defpoints
 62
     0
100
AcDbPoint
 10
3.079561719843056
 20
23.49299910360596
 30
0.0
  0
POINT
  5
12DE
330
12BF
100
AcDbEntity
  8
Defpoints
 62
     0
100
AcDbPoint
 10
3.079561719843056
 20
18.93311575884941
 30
0.0
  0
POINT
  5
12DF
330
12BF
100
AcDbEntity
  8
Defpoints
 62
     0
100
AcDbPoint
 10
6.66652269921744
 20
18.93311575884941
 30
0.0
  0
ENDBLK
  5
12CB
330
12BF
100
AcDbEntity
  8
0
100
AcDbBlockEnd
  0
BLOCK
  5
12EC
330
12E1
100
AcDbEntity
  8
0
100
AcDbBlockBegin
  2
*D2
 70
     1
 10
0.0
 20
0.0
 30
0.0
  3
*D2
  1

  0
LINE
  5
12E2
330
12E1
100
AcDbEntity
  8
0
 62
     0
370
    -2
100
AcDbLine
 10
-6.854361356342073
 20
21.96364109384418
 30
0.0
 11
-6.854361356342073
 21
24.84785717678889
 31
0.0
  0
LINE
  5
12E3
330
12E1
100
AcDbEntity
  8
0
 62
     0
370
    -2
100
AcDbLine
 10
4.744329256769498
 20
21.82259672089292
 30
0.0
 11
4.744329256769498
 21
24.84785717678889
 31
0.0
  0
LINE
  5
12E4
330
12E1
100
AcDbEntity
  8
0
 62
     0
370
    -2
100
AcDbLine
 10
-6.674361356342073
 20
24.66785717678889
 30
0.0
 11
-1.625016049786287
 21
24.66785717678889
 31
0.0
  0
LINE
  5
12E5
330
12E1
100
AcDbEntity
  8
0
 62
     0
370
    -2
100
AcDbLine
 10
4.564329256769498
 20
24.66785717678889
 30
0.0
 11
-0.4850160497862874
 21
24.66785717678889
 31
0.0
  0
SOLID
  5
12E6
330
12E1
100
AcDbEntity
  8
0
 62
     0
100
AcDbTrace
 10
-6.674361356342073
 20
24.69785717678889
 30
0.0
 11
-6.674361356342073
 21
24.63785717678889
 31
0.0
 12
-6.854361356342073
 22
24.66785717678889
 32
0.0
 13
-6.854361356342073
 23
24.66785717678889
 33
0.0
  0
SOLID
  5
12E7
330
12E1
100
AcDbEntity
  8
0
 62
     0
100
AcDbTrace
 10
4.564329256769498
 20
24.69785717678889
 30
0.0
 11
4.564329256769498
 21
24.63785717678889
 31
0.0
 12
4.744329256769498
 22
24.66785717678889
 32
0.0
 13
4.744329256769498
 23
24.66785717678889
 33
0.0
  0
MTEXT
  5
12E8
330
12E1
100
AcDbEntity
  8
0
 62
     0
100
AcDbMText
 10
-1.055016049786287
 20
24.66785717678889
 30
0.0
 40
0.18
 41
0.0
 71
     5
 72
     1
  1
\A1;11.5987
 73
     1
 44
1.0
  0
POINT
  5
12E9
330
12E1
100
AcDbEntity
  8
Defpoints
 62
     0
100
AcDbPoint
 10
-6.854361356342073
 20
21.90114109384418
 30
0.0
  0
POINT
  5
12EA
330
12E1
100
AcDbEntity
  8
Defpoints
 62
     0
100
AcDbPoint
 10
4.744329256769498
 20
21.76009672089292
 30
0.0
  0
POINT
  5
12EB
330
12E1
100
AcDbEntity
  8
Defpoints
 62
     0
100
AcDbPoint
 10
4.744329256769498
 20
24.66785717678889
 30
0.0
  0
ENDBLK
  5
12ED
330
12E1
100
AcDbEntity
  8
0
100
AcDbBlockEnd
  0
ENDSEC
  0
SECTION
  2
ENTITIES
  0
LINE
  5
182
330
1E
100
AcDbEntity
  8
5
100
AcDbLine
 10
2.566157132725237
 20
27.1475891527346
 30
0.0
 11
2.614763484168345
 21
27.0989828012915
 31
0.0
  0
LINE
  5
183
330
1E
100
AcDbEntity
  8
5
100
AcDbLine
 10
2.763620435462861
 20
27.15974074059539
 30
0.0
 11
2.815264683871163
 21
27.20834709203848
 31
0.0
  0
LINE
  5
184
330
1E
100
AcDbEntity
  8
5
100
AcDbLine
 10
2.763620435462861
 20
27.03822486198761
 30
0.0
 11
2.815264683871163
 21
27.08986911039591
 31
0.0
  0
LINE
  5
185
330
1E
100
AcDbEntity
  8
5
100
AcDbLine
 10
2.566157132725237
 20
27.08986911039591
 30
0.0
 11
2.614763484168345
 21
27.03822486198761
 31
0.0
  0
LINE
  5
186
330
1E
100
AcDbEntity
  8
5
100
AcDbLine
 10
2.763620435462861
 20
27.0989828012915
 30
0.0
 11
2.815264683871163
 21
27.1475891527346
 31
0.0
  0
LINE
  5
187
330
1E
100
AcDbEntity
  8
5
100
AcDbLine
 10
2.566157132725237
 20
27.26910503134237
 30
0.0
 11
2.614763484168345
 21
27.21746078293408
 31
0.0
  0
LINE
  5
188
330
1E
100
AcDbEntity
  8
5
100
AcDbLine
 10
2.566157132725237
 20
27.20834709203848
 30
0.0
 11
2.614763484168345
 21
27.15974074059539
 31
0.0
  0
LINE
  5
189
330
1E
100
AcDbEntity
  8
5
100
AcDbLine
 10
2.763620435462861
 20
27.21746078293408
 30
0.0
 11
2.815264683871163
 21
27.26910503134237
 31
0.0
  0
LINE
  5
18A
330
1E
100
AcDbEntity
  8
5
100
AcDbLine
 10
2.763620435462861
 20
27.08986911039591
 30
0.0
 11
2.763620435462861
 21
27.0989828012915
 31
0.0
  0
LINE
  5
18B
330
1E
100
AcDbEntity
  8
5
100
AcDbLine
 10
2.614763484168345
 20
27.21746078293408
 30
0.0
 11
2.614763484168345
 21
27.20834709203848
 31
0.0
  0
LINE
  5
18C
330
1E
100
AcDbEntity
  8
5
100
AcDbLine
 10
2.614763484168345
 20
27.15974074059539
 30
0.0
 11
2.614763484168345
 21
27.1475891527346
 31
0.0
  0
LINE
  5
18D
330
1E
100
AcDbEntity
  8
5
100
AcDbLine
 10
2.614763484168345
 20
27.28125661920315
 30
0.0
 11
2.614763484168345
 21
27.26910503134237
 31
0.0
  0
LINE
  5
18E
330
1E
100
AcDbEntity
  8
5
100
AcDbLine
 10
2.614763484168345
 20
27.03822486198761
 30
0.0
 11
2.672483526507034
 21
26.9410121591014
 31
0.0
  0
LINE
  5
18F
330
1E
100
AcDbEntity
  8
5
100
AcDbLine
 10
2.708938290089367
 20
26.9410121591014
 30
0.0
 11
2.763620435462861
 21
27.03822486198761
 31
0.0
  0
LINE
  5
190
330
1E
100
AcDbEntity
  8
5
100
AcDbLine
 10
2.763620435462861
 20
27.1475891527346
 30
0.0
 11
2.763620435462861
 21
27.15974074059539
 31
0.0
  0
LINE
  5
191
330
1E
100
AcDbEntity
  8
5
100
AcDbLine
 10
2.763620435462861
 20
27.26910503134237
 30
0.0
 11
2.763620435462861
 21
27.28125661920315
 31
0.0
  0
LINE
  5
192
330
1E
100
AcDbEntity
  8
5
100
AcDbLine
 10
2.763620435462861
 20
27.20834709203848
 30
0.0
 11
2.763620435462861
 21
27.21746078293408
 31
0.0
  0
LINE
  5
193
330
1E
100
AcDbEntity
  8
5
100
AcDbLine
 10
2.614763484168345
 20
27.0989828012915
 30
0.0
 11
2.614763484168345
 21
27.08986911039591
 31
0.0
  0
LINE
  5
194
330
1E
100
AcDbEntity
  8
5
100
AcDbLine
 10
-4.925296783443736
 20
27.1475891527346
 30
0.0
 11
-4.873652535035424
 21
27.0989828012915
 31
0.0
  0
LINE
  5
195
330
1E
100
AcDbEntity
  8
5
100
AcDbLine
 10
-4.925296783443736
 20
27.26910503134237
 30
0.0
 11
-4.873652535035424
 21
27.21746078293408
 31
0.0
  0
LINE
  5
196
330
1E
100
AcDbEntity
  8
5
100
AcDbLine
 10
-4.925296783443736
 20
27.08986911039591
 30
0.0
 11
-4.873652535035424
 21
27.03822486198761
 31
0.0
  0
LINE
  5
197
330
1E
100
AcDbEntity
  8
5
100
AcDbLine
 10
-4.925296783443736
 20
27.20834709203849
 30
0.0
 11
-4.873652535035424
 21
27.15974074059539
 31
0.0
  0
LINE
  5
198
330
1E
100
AcDbEntity
  8
5
100
AcDbLine
 10
-4.724795583740908
 20
27.15974074059539
 30
0.0
 11
-4.673151335332607
 21
27.20834709203849
 31
0.0
  0
LINE
  5
199
330
1E
100
AcDbEntity
  8
5
100
AcDbLine
 10
-4.724795583740908
 20
27.0989828012915
 30
0.0
 11
-4.673151335332607
 21
27.1475891527346
 31
0.0
  0
LINE
  5
19A
330
1E
100
AcDbEntity
  8
5
100
AcDbLine
 10
-4.724795583740908
 20
27.03822486198761
 30
0.0
 11
-4.673151335332607
 21
27.08986911039591
 31
0.0
  0
LINE
  5
19B
330
1E
100
AcDbEntity
  8
5
100
AcDbLine
 10
-4.724795583740908
 20
27.21746078293408
 30
0.0
 11
-4.673151335332607
 21
27.26910503134237
 31
0.0
  0
LINE
  5
19C
330
1E
100
AcDbEntity
  8
5
100
AcDbLine
 10
-4.873652535035424
 20
27.21746078293408
 30
0.0
 11
-4.873652535035424
 21
27.20834709203849
 31
0.0
  0
LINE
  5
19D
330
1E
100
AcDbEntity
  8
5
100
AcDbLine
 10
-4.724795583740908
 20
27.08986911039591
 30
0.0
 11
-4.724795583740908
 21
27.0989828012915
 31
0.0
  0
LINE
  5
19E
330
1E
100
AcDbEntity
  8
5
100
AcDbLine
 10
-4.873652535035424
 20
27.15974074059539
 30
0.0
 11
-4.873652535035424
 21
27.1475891527346
 31
0.0
  0
LINE
  5
19F
330
1E
100
AcDbEntity
  8
5
100
AcDbLine
 10
-4.873652535035424
 20
27.03822486198761
 30
0.0
 11
-4.815932492696736
 21
26.9410121591014
 31
0.0
  0
LINE
  5
1A0
330
1E
100
AcDbEntity
  8
5
100
AcDbLine
 10
-4.782515626079607
 20
26.9410121591014
 30
0.0
 11
-4.724795583740908
 21
27.03822486198761
 31
0.0
  0
LINE
  5
1A1
330
1E
100
AcDbEntity
  8
5
100
AcDbLine
 10
-4.724795583740908
 20
27.26910503134237
 30
0.0
 11
-4.724795583740908
 21
27.28125661920315
 31
0.0
  0
LINE
  5
1A2
330
1E
100
AcDbEntity
  8
5
100
AcDbLine
 10
-4.873652535035424
 20
27.28125661920315
 30
0.0
 11
-4.873652535035424
 21
27.26910503134237
 31
0.0
  0
LINE
  5
1A3
330
1E
100
AcDbEntity
  8
5
100
AcDbLine
 10
-4.724795583740908
 20
27.1475891527346
 30
0.0
 11
-4.724795583740908
 21
27.15974074059539
 31
0.0
  0
LINE
  5
1A4
330
1E
100
AcDbEntity
  8
5
100
AcDbLine
 10
-4.724795583740908
 20
27.20834709203849
 30
0.0
 11
-4.724795583740908
 21
27.21746078293408
 31
0.0
  0
LINE
  5
1A5
330
1E
100
AcDbEntity
  8
5
100
AcDbLine
 10
-4.873652535035424
 20
27.0989828012915
 30
0.0
 11
-4.873652535035424
 21
27.08986911039591
 31
0.0
  0
LWPOLYLINE
  5
1A6
330
1E
100
AcDbEntity
  8
5
100
AcDbPolyline
 90
        3
 70
     0
 43
0.0
 10
2.699824599193775
 20
26.93493636517102
 10
2.702862496158969
 20
26.9379742621362
 10
2.708938290089367
 20
26.94101215910139
  0
LWPOLYLINE
  5
1AB
330
1E
100
AcDbEntity
  8
5
100
AcDbPolyline
 90
        3
 70
     0
 43
0.0
 10
2.672483526507034
 20
26.94101215910139
 10
2.675521423472227
 20
26.9379742621362
 10
2.681597217402615
 20
26.93493636517102
  0
LWPOLYLINE
  5
1B0
330
1E
100
AcDbEntity
  8
5
100
AcDbPolyline
 90
        3
 70
     0
 43
0.0
 10
-4.788591420009995
 20
26.93493636517102
 10
-4.785553523044801
 20
26.9379742621362
 10
-4.782515626079607
 20
26.94101215910139
  0
LWPOLYLINE
  5
1B5
330
1E
100
AcDbEntity
  8
5
100
AcDbPolyline
 90
        3
 70
     0
 43
0.0
 10
-4.815932492696736
 20
26.94101215910139
 10
-4.812894595731543
 20
26.9379742621362
 10
-4.809856698766349
 20
26.93493636517102
  0
LINE
  5
1BA
330
1E
100
AcDbEntity
  8
5
100
AcDbLine
 10
-1.613989091382024
 20
29.32879917374405
 30
0.0
 11
-5.058964249912274
 21
29.32879917374407
 31
0.0
  0
LWPOLYLINE
  5
1BB
330
1E
100
AcDbEntity
  8
5
100
AcDbPolyline
 90
        4
 70
     0
 43
0.0
 10
-0.5537630505292377
 20
28.04984455139729
 10
-0.5537630505292377
 20
28.04680665443209
 10
-0.5537630505292377
 20
28.03465506657132
 10
-0.5537630505292377
 20
28.01946558174534
  0
LINE
  5
1C1
330
1E
100
AcDbEntity
  8
5
100
AcDbLine
 10
3.079561719843055
 20
28.01946558174535
 30
0.0
 11
-0.5537630505292382
 21
28.01946558174535
 31
0.0
  0
LWPOLYLINE
  5
1C2
330
1E
100
AcDbEntity
  8
5
100
AcDbPolyline
 90
        4
 70
     0
 43
0.0
 10
3.079561719843056
 20
28.01946558174534
 10
3.079561719843056
 20
28.03465506657132
 10
3.079561719843056
 20
28.04680665443209
 10
3.079561719843056
 20
28.04984455139729
  0
LINE
  5
1C8
330
1E
100
AcDbEntity
  8
5
100
AcDbLine
 10
-6.386525223702157
 20
27.34505245547222
 30
0.0
 11
-6.386525223702157
 21
27.34505245547222
 31
0.0
  0
LWPOLYLINE
  5
1C9
330
1E
100
AcDbEntity
  8
5
100
AcDbPolyline
 90
        3
 70
     0
 43
0.0
 10
-6.386525223702157
 20
27.32986297064627
 10
-6.386525223702157
 20
27.33897666154184
 10
-6.386525223702157
 20
27.34505245547223
  0
LWPOLYLINE
  5
1CE
330
1E
100
AcDbEntity
  8
5
100
AcDbPolyline
 90
        3
 70
     0
 43
0.0
 10
4.276493124129584
 20
27.32986297064627
 10
4.276493124129584
 20
27.33897666154184
 10
4.276493124129584
 20
27.34505245547223
  0
LINE
  5
1D3
330
1E
100
AcDbEntity
  8
5
100
AcDbLine
 10
4.276493124129583
 20
27.34505245547222
 30
0.0
 11
4.276493124129583
 21
27.34505245547222
 31
0.0
  0
LINE
  5
1D4
330
1E
100
AcDbEntity
  8
5
100
AcDbLine
 10
3.079561719843055
 20
27.31467348582029
 30
0.0
 11
3.179812319694464
 21
27.31467348582029
 31
0.0
  0
LINE
  5
1D5
330
1E
100
AcDbEntity
  8
5
100
AcDbLine
 10
-5.289844419267038
 20
27.31467348582029
 30
0.0
 11
-5.189593819415629
 21
27.31467348582029
 31
0.0
  0
LINE
  5
1D6
330
1E
100
AcDbEntity
  8
5
100
AcDbLine
 10
-5.189593819415629
 20
27.28125661920315
 30
0.0
 11
-5.326299182849371
 21
27.28125661920315
 31
0.0
  0
LINE
  5
1D7
330
1E
100
AcDbEntity
  8
5
100
AcDbLine
 10
3.216267083276797
 20
27.28125661920315
 30
0.0
 11
3.079561719843055
 21
27.28125661920315
 31
0.0
  0
LINE
  5
1D8
330
1E
100
AcDbEntity
  8
5
100
AcDbLine
 10
-5.189593819415629
 20
27.28125661920315
 30
0.0
 11
3.079561719843055
 21
27.28125661920315
 31
0.0
  0
LINE
  5
1D9
330
1E
100
AcDbEntity
  8
5
100
AcDbLine
 10
4.276493124129583
 20
27.34505245547222
 30
0.0
 11
4.276493124129583
 21
28.01946558174535
 31
0.0
  0
LINE
  5
1DA
330
1E
100
AcDbEntity
  8
5
100
AcDbLine
 10
-6.386525223702157
 20
27.34505245547222
 30
0.0
 11
-6.386525223702157
 21
28.01946558174535
 31
0.0
  0
LWPOLYLINE
  5
1DB
330
1E
100
AcDbEntity
  8
5
100
AcDbPolyline
 90
       16
 70
     0
 43
0.0
 10
4.270417330199197
 20
28.08022352104922
 10
4.255227845373229
 20
28.08022352104922
 10
4.23092466965167
 20
28.08022352104922
 10
4.200545699999735
 20
28.08022352104922
 10
4.158015142487013
 20
28.08022352104922
 10
4.109408791043906
 20
28.08022352104922
 10
4.051688748705207
 20
28.08022352104922
 10
3.987892912436131
 20
28.08022352104922
 10
3.914983385271475
 20
28.08022352104922
 10
3.839035961141616
 20
28.08022352104922
 10
3.757012743081367
 20
28.08022352104922
 10
3.668913731090744
 20
28.08022352104922
 10
3.577776822134917
 20
28.08022352104922
 10
3.480564119248701
 20
28.08022352104922
 10
3.383351416362486
 20
28.08022352104922
 10
3.283100816511077
 20
28.08022352104922
  0
LINE
  5
1ED
330
1E
100
AcDbEntity
  8
5
100
AcDbLine
 10
3.155509143972916
 20
27.95263184851108
 30
0.0
 11
3.155509143972916
 21
27.39365880691533
 31
0.0
  0
LWPOLYLINE
  5
1EE
330
1E
100
AcDbEntity
  8
5
100
AcDbPolyline
 90
        6
 70
     0
 43
0.0
 10
3.155509143972916
 20
27.39365880691533
 10
3.161584937903303
 20
27.35112824940261
 10
3.182850216659658
 20
27.3116355888551
 10
3.216267083276798
 20
27.28125661920315
 10
3.255759743824325
 20
27.26606713437718
 10
3.283100816511077
 20
27.26302923741199
  0
LWPOLYLINE
  5
1F6
330
1E
100
AcDbEntity
  8
5
100
AcDbPolyline
 90
       16
 70
     0
 43
0.0
 10
4.270417330199197
 20
27.26302923741199
 10
4.255227845373229
 20
27.26302923741199
 10
4.23092466965167
 20
27.26302923741199
 10
4.200545699999735
 20
27.26302923741199
 10
4.158015142487013
 20
27.26302923741199
 10
4.109408791043906
 20
27.26302923741199
 10
4.051688748705207
 20
27.26302923741199
 10
3.987892912436131
 20
27.26302923741199
 10
3.914983385271475
 20
27.26302923741199
 10
3.839035961141616
 20
27.26302923741199
 10
3.757012743081367
 20
27.26302923741199
 10
3.668913731090744
 20
27.26302923741199
 10
3.577776822134917
 20
27.26302923741199
 10
3.480564119248701
 20
27.26302923741199
 10
3.383351416362486
 20
27.26302923741199
 10
3.283100816511077
 20
27.26302923741199
  0
LWPOLYLINE
  5
208
330
1E
100
AcDbEntity
  8
5
100
AcDbPolyline
 90
        6
 70
     0
 43
0.0
 10
4.270417330199197
 20
27.26302923741199
 10
4.273455227164389
 20
27.26606713437718
 10
4.273455227164389
 20
27.27518082527276
 10
4.276493124129584
 20
27.29037031009873
 10
4.276493124129584
 20
27.30859769188989
 10
4.276493124129584
 20
27.32378717671587
  0
LINE
  5
210
330
1E
100
AcDbEntity
  8
5
100
AcDbLine
 10
4.276493124129583
 20
27.34505245547222
 30
0.0
 11
4.276493124129583
 21
27.32378717671587
 31
0.0
  0
LWPOLYLINE
  5
211
330
1E
100
AcDbEntity
  8
5
100
AcDbPolyline
 90
        6
 70
     0
 43
0.0
 10
4.276493124129584
 20
27.34505245547223
 10
4.276493124129584
 20
27.34809035243741
 10
4.276493124129584
 20
27.35720404333302
 10
4.276493124129584
 20
27.36631773422859
 10
4.276493124129584
 20
27.37239352815898
 10
4.276493124129584
 20
27.37543142512417
  0
LWPOLYLINE
  5
219
330
1E
100
AcDbEntity
  8
5
100
AcDbPolyline
 90
        6
 70
     0
 43
0.0
 10
4.276493124129584
 20
27.37543142512417
 10
4.276493124129584
 20
27.37239352815898
 10
4.276493124129584
 20
27.36935563119379
 10
4.276493124129584
 20
27.3632798372634
 10
4.276493124129584
 20
27.35416614636782
 10
4.276493124129584
 20
27.34505245547223
  0
LWPOLYLINE
  5
221
330
1E
100
AcDbEntity
  8
5
100
AcDbPolyline
 90
       10
 70
     0
 43
0.0
 10
4.276493124129584
 20
28.01946558174534
 10
4.276493124129584
 20
28.01035189084977
 10
4.276493124129584
 20
28.00123819995419
 10
4.276493124129584
 20
27.9951624060238
 10
4.276493124129584
 20
27.98908661209341
 10
4.276493124129584
 20
27.9921245090586
 10
4.276493124129584
 20
27.9951624060238
 10
4.276493124129584
 20
28.00427609691937
 10
4.276493124129584
 20
28.01338978781496
 10
4.276493124129584
 20
28.01946558174534
  0
LINE
  5
22D
330
1E
100
AcDbEntity
  8
5
100
AcDbLine
 10
4.276493124129583
 20
28.02250347871054
 30
0.0
 11
4.276493124129583
 21
28.01946558174535
 31
0.0
  0
LWPOLYLINE
  5
22E
330
1E
100
AcDbEntity
  8
5
100
AcDbPolyline
 90
        6
 70
     0
 43
0.0
 10
4.276493124129584
 20
28.02250347871054
 10
4.276493124129584
 20
28.04073086050172
 10
4.276493124129584
 20
28.05895824229288
 10
4.273455227164389
 20
28.07110983015365
 10
4.273455227164389
 20
28.08022352104922
 10
4.270417330199197
 20
28.08022352104922
  0
LWPOLYLINE
  5
236
330
1E
100
AcDbEntity
  8
5
100
AcDbPolyline
 90
        6
 70
     0
 43
0.0
 10
3.283100816511077
 20
28.08022352104922
 10
3.240570258998357
 20
28.07414772711885
 10
3.204115495416023
 20
28.05288244836249
 10
3.173736525764078
 20
28.02250347871054
 10
3.158547040938109
 20
27.97997292119782
 10
3.155509143972916
 20
27.95263184851108
  0
LWPOLYLINE
  5
23E
330
1E
100
AcDbEntity
  8
5
100
AcDbPolyline
 90
       16
 70
     0
 43
0.0
 10
-6.38044942977177
 20
28.08022352104924
 10
-6.365259944945791
 20
28.08022352104924
 10
-6.340956769224243
 20
28.08022352104924
 10
-6.307539902607103
 20
28.08022352104924
 10
-6.268047242059576
 20
28.08022352104924
 10
-6.216402993651275
 20
28.08022352104924
 10
-6.161720848277781
 20
28.08022352104924
 10
-6.094887115043512
 20
28.08022352104924
 10
-6.025015484844038
 20
28.08022352104924
 10
-5.949068060714189
 20
28.08022352104924
 10
-5.864006945688748
 20
28.08022352104924
 10
-5.778945830663307
 20
28.08022352104924
 10
-5.684771024742286
 20
28.08022352104924
 10
-5.590596218821263
 20
28.08022352104924
 10
-5.493383515935049
 20
28.08022352104924
 10
-5.39313291608364
 20
28.08022352104924
  0
LWPOLYLINE
  5
250
330
1E
100
AcDbEntity
  8
5
100
AcDbPolyline
 90
       16
 70
     0
 43
0.0
 10
-6.38044942977177
 20
27.26302923741199
 10
-6.365259944945791
 20
27.26302923741199
 10
-6.340956769224243
 20
27.26302923741199
 10
-6.307539902607103
 20
27.26302923741199
 10
-6.268047242059576
 20
27.26302923741199
 10
-6.216402993651275
 20
27.26302923741199
 10
-6.161720848277781
 20
27.26302923741199
 10
-6.094887115043512
 20
27.26302923741199
 10
-6.025015484844038
 20
27.26302923741199
 10
-5.949068060714189
 20
27.26302923741199
 10
-5.864006945688748
 20
27.26302923741199
 10
-5.778945830663307
 20
27.26302923741199
 10
-5.684771024742286
 20
27.26302923741199
 10
-5.590596218821263
 20
27.26302923741199
 10
-5.493383515935049
 20
27.26302923741199
 10
-5.39313291608364
 20
27.26302923741199
  0
LWPOLYLINE
  5
262
330
1E
100
AcDbEntity
  8
5
100
AcDbPolyline
 90
        6
 70
     0
 43
0.0
 10
-5.39313291608364
 20
27.26302923741199
 10
-5.350602358570919
 20
27.26910503134238
 10
-5.311109698023403
 20
27.29037031009873
 10
-5.283768625336651
 20
27.32378717671587
 10
-5.26554124354549
 20
27.3632798372634
 10
-5.262503346580285
 20
27.39365880691533
  0
LINE
  5
26A
330
1E
100
AcDbEntity
  8
5
100
AcDbLine
 10
-5.262503346580285
 20
27.39365880691533
 30
0.0
 11
-5.262503346580285
 21
27.95263184851108
 31
0.0
  0
LWPOLYLINE
  5
26B
330
1E
100
AcDbEntity
  8
5
100
AcDbPolyline
 90
        6
 70
     0
 43
0.0
 10
-5.262503346580285
 20
27.95263184851108
 10
-5.271617037475876
 20
27.9951624060238
 10
-5.292882316232232
 20
28.03161716960612
 10
-5.323261285884178
 20
28.06199613925806
 10
-5.365791843396898
 20
28.07718562408404
 10
-5.39313291608364
 20
28.08022352104924
  0
LWPOLYLINE
  5
273
330
1E
100
AcDbEntity
  8
5
100
AcDbPolyline
 90
        6
 70
     0
 43
0.0
 10
-6.38044942977177
 20
28.08022352104924
 10
-6.383487326736964
 20
28.07718562408404
 10
-6.383487326736964
 20
28.06807193318845
 10
-6.383487326736964
 20
28.05288244836249
 10
-6.386525223702157
 20
28.03465506657132
 10
-6.386525223702157
 20
28.02250347871055
  0
LINE
  5
27B
330
1E
100
AcDbEntity
  8
5
100
AcDbLine
 10
-6.386525223702157
 20
28.01946558174535
 30
0.0
 11
-6.386525223702157
 21
28.02250347871055
 31
0.0
  0
LWPOLYLINE
  5
27C
330
1E
100
AcDbEntity
  8
5
100
AcDbPolyline
 90
        6
 70
     0
 43
0.0
 10
-6.386525223702157
 20
28.01946558174534
 10
-6.386525223702157
 20
28.01642768478016
 10
-6.386525223702157
 20
28.00731399388457
 10
-6.386525223702157
 20
27.99820030298899
 10
-6.386525223702157
 20
27.9921245090586
 10
-6.386525223702157
 20
27.98908661209341
  0
LWPOLYLINE
  5
284
330
1E
100
AcDbEntity
  8
5
100
AcDbPolyline
 90
        5
 70
     0
 43
0.0
 10
-6.386525223702157
 20
27.98908661209341
 10
-6.386525223702157
 20
27.9951624060238
 10
-6.386525223702157
 20
28.00123819995419
 10
-6.386525223702157
 20
28.01035189084977
 10
-6.386525223702157
 20
28.01946558174534
  0
LWPOLYLINE
  5
28B
330
1E
100
AcDbEntity
  8
5
100
AcDbPolyline
 90
       10
 70
     0
 43
0.0
 10
-6.386525223702157
 20
27.34505245547223
 10
-6.386525223702157
 20
27.35416614636782
 10
-6.386525223702157
 20
27.3632798372634
 10
-6.386525223702157
 20
27.36935563119379
 10
-6.386525223702157
 20
27.37543142512417
 10
-6.386525223702157
 20
27.37239352815898
 10
-6.386525223702157
 20
27.36935563119379
 10
-6.386525223702157
 20
27.3602419402982
 10
-6.386525223702157
 20
27.35112824940262
 10
-6.386525223702157
 20
27.34505245547223
  0
LINE
  5
297
330
1E
100
AcDbEntity
  8
5
100
AcDbLine
 10
-6.386525223702157
 20
27.32378717671587
 30
0.0
 11
-6.386525223702157
 21
27.34505245547222
 31
0.0
  0
LWPOLYLINE
  5
298
330
1E
100
AcDbEntity
  8
5
100
AcDbPolyline
 90
        5
 70
     0
 43
0.0
 10
-6.386525223702157
 20
27.32378717671587
 10
-6.386525223702157
 20
27.30252189795951
 10
-6.383487326736964
 20
27.28429451616835
 10
-6.383487326736964
 20
27.27214292830758
 10
-6.38044942977177
 20
27.26302923741199
  0
LWPOLYLINE
  5
29F
330
1E
100
AcDbEntity
  8
5
100
AcDbPolyline
 90
        5
 70
     0
 43
0.0
 10
3.079561719843056
 20
27.28125661920315
 10
3.079561719843056
 20
27.28733241313355
 10
3.079561719843056
 20
27.29948400099432
 10
3.079561719843056
 20
27.32074927975068
 10
3.079561719843056
 20
27.34505245547223
  0
LWPOLYLINE
  5
2A6
330
1E
100
AcDbEntity
  8
5
100
AcDbPolyline
 90
        5
 70
     0
 43
0.0
 10
-5.189593819415629
 20
27.28125661920315
 10
-5.189593819415629
 20
27.28733241313355
 10
-5.189593819415629
 20
27.29948400099432
 10
-5.189593819415629
 20
27.32074927975068
 10
-5.189593819415629
 20
27.34505245547223
  0
LINE
  5
2AD
330
1E
100
AcDbEntity
  8
5
100
AcDbLine
 10
3.079561719843055
 20
27.34505245547222
 30
0.0
 11
-5.189593819415629
 21
27.34505245547222
 31
0.0
  0
LINE
  5
2AE
330
1E
100
AcDbEntity
  8
5
100
AcDbLine
 10
3.079561719843055
 20
27.34505245547222
 30
0.0
 11
3.079561719843055
 21
28.01946558174535
 31
0.0
  0
LINE
  5
2AF
330
1E
100
AcDbEntity
  8
5
100
AcDbLine
 10
-5.189593819415629
 20
27.34505245547222
 30
0.0
 11
-5.189593819415629
 21
28.01946558174535
 31
0.0
  0
LINE
  5
2B0
330
1E
100
AcDbEntity
  8
5
100
AcDbLine
 10
-0.5537630505292382
 20
27.93136656975472
 30
0.0
 11
-0.5537630505292382
 21
28.01946558174535
 31
0.0
  0
LINE
  5
2B1
330
1E
100
AcDbEntity
  8
5
100
AcDbLine
 10
-1.553231152078142
 20
27.93136656975472
 30
0.0
 11
-0.5537630505292382
 21
27.93136656975472
 31
0.0
  0
LINE
  5
2B2
330
1E
100
AcDbEntity
  8
5
100
AcDbLine
 10
-1.553231152078142
 20
28.01946558174535
 30
0.0
 11
-1.553231152078142
 21
27.93136656975472
 31
0.0
  0
LINE
  5
2B3
330
1E
100
AcDbEntity
  8
5
100
AcDbLine
 10
-1.553231152078142
 20
28.01946558174535
 30
0.0
 11
-5.189593819415629
 21
28.01946558174535
 31
0.0
  0
LWPOLYLINE
  5
2B4
330
1E
100
AcDbEntity
  8
5
100
AcDbPolyline
 90
        4
 70
     0
 43
0.0
 10
-5.189593819415629
 20
28.01946558174534
 10
-5.189593819415629
 20
28.03465506657132
 10
-5.189593819415629
 20
28.04680665443209
 10
-5.189593819415629
 20
28.04984455139729
  0
LWPOLYLINE
  5
2BA
330
1E
100
AcDbEntity
  8
5
100
AcDbPolyline
 90
        4
 70
     0
 43
0.0
 10
-1.553231152078142
 20
28.01946558174534
 10
-1.553231152078142
 20
28.03465506657132
 10
-1.553231152078142
 20
28.04680665443209
 10
-1.553231152078142
 20
28.04984455139729
  0
LINE
  5
2C0
330
1E
100
AcDbEntity
  8
5
100
AcDbLine
 10
3.079561719843055
 20
28.04984455139729
 30
0.0
 11
-5.189593819415629
 21
28.04984455139729
 31
0.0
  0
LWPOLYLINE
  5
2C1
330
1E
100
AcDbEntity
  8
5
100
AcDbPolyline
 90
        5
 70
     0
 43
0.0
 10
3.079561719843056
 20
28.04984455139729
 10
3.079561719843056
 20
28.05288244836249
 10
3.079561719843056
 20
28.06807193318845
 10
3.079561719843056
 20
28.08933721194481
 10
3.079561719843056
 20
28.11060249070117
  0
LWPOLYLINE
  5
2C8
330
1E
100
AcDbEntity
  8
5
100
AcDbPolyline
 90
        5
 70
     0
 43
0.0
 10
-5.189593819415629
 20
28.04984455139729
 10
-5.189593819415629
 20
28.05288244836249
 10
-5.189593819415629
 20
28.06807193318845
 10
-5.189593819415629
 20
28.08933721194481
 10
-5.189593819415629
 20
28.11060249070117
  0
LINE
  5
2CF
330
1E
100
AcDbEntity
  8
5
100
AcDbLine
 10
3.079561719843055
 20
28.11060249070117
 30
0.0
 11
-5.189593819415629
 21
28.11060249070117
 31
0.0
  0
LINE
  5
2D0
330
1E
100
AcDbEntity
  8
5
100
AcDbLine
 10
3.079561719843055
 20
28.11060249070117
 30
0.0
 11
3.079561719843055
 21
29.2012075012059
 31
0.0
  0
LINE
  5
2D1
330
1E
100
AcDbEntity
  8
5
100
AcDbLine
 10
-5.189593819415629
 20
28.11060249070117
 30
0.0
 11
-5.189593819415629
 21
29.2012075012059
 31
0.0
  0
LINE
  5
2D2
330
1E
100
AcDbEntity
  8
5
100
AcDbLine
 10
-1.492473212774249
 20
28.90956939254726
 30
0.0
 11
-0.6175588867983133
 21
28.90956939254726
 31
0.0
  0
LWPOLYLINE
  5
2D3
330
1E
100
AcDbEntity
  8
5
100
AcDbPolyline
 90
        9
 70
     0
 43
0.0
 10
-0.6175588867983129
 20
28.78501561697429
 10
-0.5932557110767647
 20
28.79109141090467
 10
-0.5719904323203995
 20
28.80324299876546
 10
-0.559838844459625
 20
28.82450827752182
 10
-0.5537630505292377
 20
28.84881145324336
 10
-0.559838844459625
 20
28.87311462896493
 10
-0.5719904323203995
 20
28.89134201075609
 10
-0.5932557110767647
 20
28.90653149558206
 10
-0.6175588867983129
 20
28.90956939254726
  0
LINE
  5
2DE
330
1E
100
AcDbEntity
  8
5
100
AcDbLine
 10
-1.492473212774249
 20
28.78501561697429
 30
0.0
 11
-0.6175588867983133
 21
28.78501561697429
 31
0.0
  0
LWPOLYLINE
  5
2DF
330
1E
100
AcDbEntity
  8
5
100
AcDbPolyline
 90
        9
 70
     0
 43
0.0
 10
-1.492473212774249
 20
28.90956939254726
 10
-1.513738491530615
 20
28.90653149558206
 10
-1.535003770286969
 20
28.89134201075609
 10
-1.550193255112948
 20
28.87311462896493
 10
-1.553231152078142
 20
28.84881145324337
 10
-1.550193255112948
 20
28.82450827752182
 10
-1.535003770286969
 20
28.80324299876546
 10
-1.513738491530615
 20
28.79109141090467
 10
-1.492473212774249
 20
28.78501561697429
  0
LINE
  5
2EA
330
1E
100
AcDbEntity
  8
5
100
AcDbLine
 10
-1.492473212774249
 20
28.51160489010682
 30
0.0
 11
-0.6175588867983133
 21
28.51160489010682
 31
0.0
  0
LWPOLYLINE
  5
2EB
330
1E
100
AcDbEntity
  8
5
100
AcDbPolyline
 90
        9
 70
     0
 43
0.0
 10
-0.6175588867983129
 20
28.38705111453385
 10
-0.5932557110767647
 20
28.39008901149905
 10
-0.5719904323203995
 20
28.40527849632501
 10
-0.559838844459625
 20
28.42654377508138
 10
-0.5537630505292377
 20
28.44780905383773
 10
-0.559838844459625
 20
28.47211222955929
 10
-0.5719904323203995
 20
28.49337750831565
 10
-0.5932557110767647
 20
28.50552909617642
 10
-0.6175588867983129
 20
28.51160489010681
  0
LINE
  5
2F6
330
1E
100
AcDbEntity
  8
5
100
AcDbLine
 10
-1.492473212774249
 20
28.38705111453385
 30
0.0
 11
-0.6175588867983133
 21
28.38705111453385
 31
0.0
  0
LWPOLYLINE
  5
2F7
330
1E
100
AcDbEntity
  8
5
100
AcDbPolyline
 90
        9
 70
     0
 43
0.0
 10
-1.492473212774249
 20
28.51160489010681
 10
-1.513738491530615
 20
28.50552909617643
 10
-1.535003770286969
 20
28.49337750831565
 10
-1.550193255112948
 20
28.47211222955929
 10
-1.553231152078142
 20
28.44780905383773
 10
-1.550193255112948
 20
28.42654377508138
 10
-1.535003770286969
 20
28.40527849632501
 10
-1.513738491530615
 20
28.39008901149905
 10
-1.492473212774249
 20
28.38705111453385
  0
LINE
  5
302
330
1E
100
AcDbEntity
  8
5
100
AcDbLine
 10
-1.553231152078142
 20
29.27107913140536
 30
0.0
 11
-1.553231152078142
 21
29.24070016175343
 31
0.0
  0
LWPOLYLINE
  5
303
330
1E
100
AcDbEntity
  8
5
100
AcDbPolyline
 90
        5
 70
     0
 43
0.0
 10
-1.553231152078142
 20
29.27107913140536
 10
-1.559306946008529
 20
29.29234441016173
 10
-1.571458533869303
 20
29.3136096889181
 10
-1.589685915660464
 20
29.32576127677887
 10
-1.613989091382023
 20
29.32879917374406
  0
LWPOLYLINE
  5
30A
330
1E
100
AcDbEntity
  8
5
100
AcDbPolyline
 90
        7
 70
     0
 43
0.0
 10
-5.058964249912274
 20
29.32879917374406
 10
-5.092381116529414
 20
29.32576127677887
 10
-5.12276008618136
 20
29.3136096889181
 10
-5.150101158868102
 20
29.29234441016173
 10
-5.171366437624468
 20
29.26500333747498
 10
-5.183518025485242
 20
29.23462436782305
 10
-5.189593819415629
 20
29.2012075012059
  0
LWPOLYLINE
  5
313
330
1E
100
AcDbEntity
  8
5
100
AcDbPolyline
 90
        7
 70
     0
 43
0.0
 10
3.079561719843056
 20
29.2012075012059
 10
3.076523822877862
 20
29.23462436782303
 10
3.061334338051894
 20
29.26500333747498
 10
3.043106956260733
 20
29.29234441016173
 10
3.015765883573981
 20
29.3136096889181
 10
2.98234901695684
 20
29.32576127677887
 10
2.948932150339711
 20
29.32879917374406
  0
LINE
  5
31C
330
1E
100
AcDbEntity
  8
5
100
AcDbLine
 10
2.948932150339711
 20
29.32879917374405
 30
0.0
 11
-0.4960430081905498
 21
29.32879917374405
 31
0.0
  0
LWPOLYLINE
  5
31D
330
1E
100
AcDbEntity
  8
5
100
AcDbPolyline
 90
        5
 70
     0
 43
0.0
 10
-0.4960430081905498
 20
29.32879917374406
 10
-0.5173082869469044
 20
29.32576127677887
 10
-0.5385735657032705
 20
29.3136096889181
 10
-0.5507251535640441
 20
29.29234441016173
 10
-0.5537630505292377
 20
29.27107913140536
  0
LINE
  5
324
330
1E
100
AcDbEntity
  8
5
100
AcDbLine
 10
-0.5537630505292382
 20
29.27107913140536
 30
0.0
 11
-0.5537630505292382
 21
29.24070016175343
 31
0.0
  0
LWPOLYLINE
  5
325
330
1E
100
AcDbEntity
  8
5
100
AcDbPolyline
 90
        5
 70
     0
 43
0.0
 10
-0.5537630505292377
 20
29.24070016175343
 10
-0.559838844459625
 20
29.21639698603187
 10
-0.5719904323203995
 20
29.19816960424071
 10
-0.5932557110767647
 20
29.18601801637993
 10
-0.6145209898331192
 20
29.17994222244955
  0
LINE
  5
32C
330
1E
100
AcDbEntity
  8
5
100
AcDbLine
 10
-1.492473212774249
 20
29.17994222244954
 30
0.0
 11
-0.6145209898331197
 21
29.17994222244954
 31
0.0
  0
LWPOLYLINE
  5
32D
330
1E
100
AcDbEntity
  8
5
100
AcDbPolyline
 90
        5
 70
     0
 43
0.0
 10
-1.492473212774249
 20
29.17994222244955
 10
-1.516776388495808
 20
29.18601801637993
 10
-1.535003770286969
 20
29.19816960424071
 10
-1.550193255112948
 20
29.21639698603187
 10
-1.553231152078142
 20
29.24070016175343
  0
LINE
  5
334
330
1E
100
AcDbEntity
  8
5
100
AcDbLine
 10
4.276493124129583
 20
28.01946558174535
 30
0.0
 11
4.276493124129583
 21
28.01946558174535
 31
0.0
  0
LWPOLYLINE
  5
335
330
1E
100
AcDbEntity
  8
5
100
AcDbPolyline
 90
        4
 70
     0
 43
0.0
 10
4.276493124129584
 20
28.01946558174534
 10
4.282568918059971
 20
28.03465506657132
 10
4.291682608955562
 20
28.04680665443209
 10
4.306872093781531
 20
28.04984455139729
  0
LINE
  5
33B
330
1E
100
AcDbEntity
  8
5
100
AcDbLine
 10
4.30687209378153
 20
28.04984455139729
 30
0.0
 11
4.30687209378153
 21
28.08022352104922
 31
0.0
  0
LWPOLYLINE
  5
33C
330
1E
100
AcDbEntity
  8
5
100
AcDbPolyline
 90
        3
 70
     0
 43
0.0
 10
4.273455227164389
 20
28.07110983015365
 10
4.288644711990369
 20
28.08022352104922
 10
4.306872093781531
 20
28.08022352104922
  0
LINE
  5
341
330
1E
100
AcDbEntity
  8
5
100
AcDbLine
 10
4.30687209378153
 20
28.04984455139729
 30
0.0
 11
4.683571317465617
 21
28.04984455139729
 31
0.0
  0
LINE
  5
342
330
1E
100
AcDbEntity
  8
5
100
AcDbLine
 10
4.683571317465617
 20
28.04984455139729
 30
0.0
 11
4.683571317465617
 21
28.08022352104922
 31
0.0
  0
LINE
  5
343
330
1E
100
AcDbEntity
  8
5
100
AcDbLine
 10
4.30687209378153
 20
28.08022352104922
 30
0.0
 11
4.683571317465617
 21
28.08022352104922
 31
0.0
  0
LWPOLYLINE
  5
344
330
1E
100
AcDbEntity
  8
5
100
AcDbPolyline
 90
        5
 70
     0
 43
0.0
 10
4.683571317465616
 20
28.04984455139729
 10
4.70483659622197
 20
28.05288244836249
 10
4.726101874978327
 20
28.06807193318845
 10
4.738253462839112
 20
28.08933721194481
 10
4.744329256769497
 20
28.11060249070117
  0
LINE
  5
34B
330
1E
100
AcDbEntity
  8
5
100
AcDbLine
 10
4.744329256769498
 20
28.11060249070117
 30
0.0
 11
4.710912390152358
 21
28.11060249070117
 31
0.0
  0
LWPOLYLINE
  5
34C
330
1E
100
AcDbEntity
  8
5
100
AcDbPolyline
 90
        4
 70
     0
 43
0.0
 10
4.683571317465616
 20
28.08022352104922
 10
4.698760802291585
 20
28.08629931497963
 10
4.707874493187165
 20
28.0954130058752
 10
4.710912390152357
 20
28.11060249070117
  0
LINE
  5
352
330
1E
100
AcDbEntity
  8
5
100
AcDbLine
 10
4.744329256769498
 20
28.11060249070117
 30
0.0
 11
4.744329256769498
 21
29.2012075012059
 31
0.0
  0
LINE
  5
353
330
1E
100
AcDbEntity
  8
5
100
AcDbLine
 10
4.744329256769498
 20
29.2012075012059
 30
0.0
 11
4.710912390152358
 21
29.2012075012059
 31
0.0
  0
LINE
  5
354
330
1E
100
AcDbEntity
  8
5
100
AcDbLine
 10
4.710912390152358
 20
28.11060249070117
 30
0.0
 11
4.710912390152358
 21
29.2012075012059
 31
0.0
  0
LWPOLYLINE
  5
355
330
1E
100
AcDbEntity
  8
5
100
AcDbPolyline
 90
        7
 70
     0
 43
0.0
 10
4.744329256769497
 20
29.32879917374406
 10
4.744329256769497
 20
29.32576127677887
 10
4.744329256769497
 20
29.3136096889181
 10
4.744329256769497
 20
29.29234441016173
 10
4.744329256769497
 20
29.26500333747498
 10
4.744329256769497
 20
29.23462436782303
 10
4.744329256769497
 20
29.2012075012059
  0
LWPOLYLINE
  5
35E
330
1E
100
AcDbEntity
  8
5
100
AcDbPolyline
 90
        7
 70
     0
 43
0.0
 10
4.710912390152357
 20
29.2012075012059
 10
4.710912390152357
 20
29.23462436782303
 10
4.710912390152357
 20
29.26500333747498
 10
4.710912390152357
 20
29.29234441016173
 10
4.710912390152357
 20
29.3136096889181
 10
4.710912390152357
 20
29.32576127677887
 10
4.710912390152357
 20
29.32879917374406
  0
LINE
  5
367
330
1E
100
AcDbEntity
  8
5
100
AcDbLine
 10
4.710912390152358
 20
29.32879917374405
 30
0.0
 11
4.744329256769498
 21
29.32879917374405
 31
0.0
  0
LINE
  5
368
330
1E
100
AcDbEntity
  8
5
100
AcDbLine
 10
-6.386525223702157
 20
28.01946558174535
 30
0.0
 11
-6.386525223702157
 21
28.01946558174535
 31
0.0
  0
LWPOLYLINE
  5
369
330
1E
100
AcDbEntity
  8
5
100
AcDbPolyline
 90
        3
 70
     0
 43
0.0
 10
-6.383487326736964
 20
28.07110983015365
 10
-6.398676811562931
 20
28.08022352104924
 10
-6.416904193354092
 20
28.08022352104924
  0
LINE
  5
36E
330
1E
100
AcDbEntity
  8
5
100
AcDbLine
 10
-6.416904193354092
 20
28.08022352104924
 30
0.0
 11
-6.416904193354092
 21
28.04984455139729
 31
0.0
  0
LWPOLYLINE
  5
36F
330
1E
100
AcDbEntity
  8
5
100
AcDbPolyline
 90
        4
 70
     0
 43
0.0
 10
-6.386525223702157
 20
28.01946558174534
 10
-6.38956312066735
 20
28.03465506657132
 10
-6.401714708528125
 20
28.04680665443209
 10
-6.416904193354092
 20
28.04984455139729
  0
LINE
  5
375
330
1E
100
AcDbEntity
  8
5
100
AcDbLine
 10
-6.416904193354092
 20
28.08022352104924
 30
0.0
 11
-6.790565520072986
 21
28.08022352104924
 31
0.0
  0
LINE
  5
376
330
1E
100
AcDbEntity
  8
5
100
AcDbLine
 10
-6.790565520072986
 20
28.08022352104924
 30
0.0
 11
-6.790565520072986
 21
28.04984455139729
 31
0.0
  0
LINE
  5
377
330
1E
100
AcDbEntity
  8
5
100
AcDbLine
 10
-6.416904193354092
 20
28.04984455139729
 30
0.0
 11
-6.790565520072986
 21
28.04984455139729
 31
0.0
  0
LWPOLYLINE
  5
378
330
1E
100
AcDbEntity
  8
5
100
AcDbPolyline
 90
        4
 70
     0
 43
0.0
 10
-6.790565520072985
 20
28.08022352104924
 10
-6.805755004898964
 20
28.08629931497963
 10
-6.817906592759738
 20
28.0954130058752
 10
-6.820944489724931
 20
28.11060249070117
  0
LINE
  5
37E
330
1E
100
AcDbEntity
  8
5
100
AcDbLine
 10
-6.820944489724931
 20
28.11060249070117
 30
0.0
 11
-6.854361356342073
 21
28.11060249070117
 31
0.0
  0
LWPOLYLINE
  5
37F
330
1E
100
AcDbEntity
  8
5
100
AcDbPolyline
 90
        5
 70
     0
 43
0.0
 10
-6.790565520072985
 20
28.04984455139729
 10
-6.814868695794545
 20
28.05288244836249
 10
-6.836133974550899
 20
28.06807193318845
 10
-6.848285562411674
 20
28.08933721194481
 10
-6.854361356342072
 20
28.11060249070117
  0
LINE
  5
386
330
1E
100
AcDbEntity
  8
5
100
AcDbLine
 10
-6.820944489724931
 20
28.11060249070117
 30
0.0
 11
-6.820944489724931
 21
29.2012075012059
 31
0.0
  0
LINE
  5
387
330
1E
100
AcDbEntity
  8
5
100
AcDbLine
 10
-6.820944489724931
 20
29.2012075012059
 30
0.0
 11
-6.854361356342073
 21
29.2012075012059
 31
0.0
  0
LINE
  5
388
330
1E
100
AcDbEntity
  8
5
100
AcDbLine
 10
-6.854361356342073
 20
28.11060249070117
 30
0.0
 11
-6.854361356342073
 21
29.2012075012059
 31
0.0
  0
LWPOLYLINE
  5
389
330
1E
100
AcDbEntity
  8
5
100
AcDbPolyline
 90
        7
 70
     0
 43
0.0
 10
-6.854361356342072
 20
29.2012075012059
 10
-6.854361356342072
 20
29.23462436782305
 10
-6.854361356342072
 20
29.26500333747498
 10
-6.854361356342072
 20
29.29234441016173
 10
-6.854361356342072
 20
29.3136096889181
 10
-6.854361356342072
 20
29.32576127677888
 10
-6.854361356342072
 20
29.32879917374406
  0
LWPOLYLINE
  5
392
330
1E
100
AcDbEntity
  8
5
100
AcDbPolyline
 90
        7
 70
     0
 43
0.0
 10
-6.820944489724931
 20
29.32879917374406
 10
-6.820944489724931
 20
29.32576127677888
 10
-6.820944489724931
 20
29.3136096889181
 10
-6.820944489724931
 20
29.29234441016173
 10
-6.820944489724931
 20
29.26500333747498
 10
-6.820944489724931
 20
29.23462436782305
 10
-6.820944489724931
 20
29.2012075012059
  0
LINE
  5
39B
330
1E
100
AcDbEntity
  8
5
100
AcDbLine
 10
-6.854361356342073
 20
29.32879917374407
 30
0.0
 11
-6.820944489724931
 21
29.32879917374407
 31
0.0
  0
LWPOLYLINE
  5
39C
330
1E
100
AcDbEntity
  8
5
100
AcDbPolyline
 90
        4
 70
     0
 43
0.0
 10
-5.262503346580285
 20
27.39365880691533
 10
-5.244275964789124
 20
27.39365880691533
 10
-5.226048582997963
 20
27.39365880691533
 10
-5.216934892102382
 20
27.39365880691533
  0
LWPOLYLINE
  5
3A2
330
1E
100
AcDbEntity
  8
5
100
AcDbPolyline
 90
        4
 70
     0
 43
0.0
 10
-5.262503346580285
 20
27.95263184851108
 10
-5.244275964789124
 20
27.95263184851108
 10
-5.226048582997963
 20
27.95263184851108
 10
-5.216934892102382
 20
27.95263184851108
  0
LINE
  5
3A8
330
1E
100
AcDbEntity
  8
5
100
AcDbLine
 10
-5.216934892102382
 20
27.39365880691533
 30
0.0
 11
-5.216934892102382
 21
27.95263184851108
 31
0.0
  0
LWPOLYLINE
  5
3A9
330
1E
100
AcDbEntity
  8
5
100
AcDbPolyline
 90
        3
 70
     0
 43
0.0
 10
-5.216934892102382
 20
27.95263184851108
 10
-5.213896995137188
 20
27.95263184851108
 10
-5.204783304241597
 20
27.95263184851108
  0
LWPOLYLINE
  5
3AE
330
1E
100
AcDbEntity
  8
5
100
AcDbPolyline
 90
        3
 70
     0
 43
0.0
 10
-5.216934892102382
 20
27.39365880691533
 10
-5.213896995137188
 20
27.39365880691533
 10
-5.204783304241597
 20
27.39365880691533
  0
LINE
  5
3B3
330
1E
100
AcDbEntity
  8
5
100
AcDbLine
 10
-5.204783304241597
 20
27.39365880691533
 30
0.0
 11
-5.204783304241597
 21
27.95263184851108
 31
0.0
  0
LINE
  5
3B4
330
1E
100
AcDbEntity
  8
5
100
AcDbLine
 10
-5.204783304241597
 20
27.95263184851108
 30
0.0
 11
-5.189593819415629
 21
27.95263184851108
 31
0.0
  0
LINE
  5
3B5
330
1E
100
AcDbEntity
  8
5
100
AcDbLine
 10
-5.204783304241597
 20
27.39365880691533
 30
0.0
 11
-5.189593819415629
 21
27.39365880691533
 31
0.0
  0
LWPOLYLINE
  5
3B6
330
1E
100
AcDbEntity
  8
5
100
AcDbPolyline
 90
        4
 70
     0
 43
0.0
 10
3.155509143972916
 20
27.95263184851108
 10
3.134243865216561
 20
27.95263184851108
 10
3.119054380390583
 20
27.95263184851108
 10
3.109940689495002
 20
27.95263184851108
  0
LWPOLYLINE
  5
3BC
330
1E
100
AcDbEntity
  8
5
100
AcDbPolyline
 90
        4
 70
     0
 43
0.0
 10
3.155509143972916
 20
27.39365880691533
 10
3.134243865216561
 20
27.39365880691533
 10
3.119054380390583
 20
27.39365880691533
 10
3.109940689495002
 20
27.39365880691533
  0
LINE
  5
3C2
330
1E
100
AcDbEntity
  8
5
100
AcDbLine
 10
3.109940689495001
 20
27.95263184851108
 30
0.0
 11
3.109940689495001
 21
27.39365880691533
 31
0.0
  0
LWPOLYLINE
  5
3C3
330
1E
100
AcDbEntity
  8
5
100
AcDbPolyline
 90
        3
 70
     0
 43
0.0
 10
3.109940689495002
 20
27.39365880691533
 10
3.103864895564615
 20
27.39365880691533
 10
3.094751204669034
 20
27.39365880691533
  0
LWPOLYLINE
  5
3C8
330
1E
100
AcDbEntity
  8
5
100
AcDbPolyline
 90
        3
 70
     0
 43
0.0
 10
3.109940689495002
 20
27.95263184851108
 10
3.103864895564615
 20
27.95263184851108
 10
3.094751204669034
 20
27.95263184851108
  0
LINE
  5
3CD
330
1E
100
AcDbEntity
  8
5
100
AcDbLine
 10
3.094751204669034
 20
27.95263184851108
 30
0.0
 11
3.094751204669034
 21
27.39365880691533
 31
0.0
  0
LINE
  5
3CE
330
1E
100
AcDbEntity
  8
5
100
AcDbLine
 10
3.094751204669034
 20
27.39365880691533
 30
0.0
 11
3.079561719843055
 21
27.39365880691533
 31
0.0
  0
LINE
  5
3CF
330
1E
100
AcDbEntity
  8
5
100
AcDbLine
 10
3.094751204669034
 20
27.95263184851108
 30
0.0
 11
3.079561719843055
 21
27.95263184851108
 31
0.0
  0
LINE
  5
3D0
330
1E
100
AcDbEntity
  8
5
100
AcDbLine
 10
2.730203568845722
 20
27.27214292830757
 30
0.0
 11
2.730203568845722
 21
27.28125661920315
 31
0.0
  0
LWPOLYLINE
  5
3D1
330
1E
100
AcDbEntity
  8
5
100
AcDbPolyline
 90
        5
 70
     0
 43
0.0
 10
2.651218247750679
 20
27.26910503134238
 10
2.614763484168346
 20
27.26910503134238
 10
2.587422411481592
 20
27.26910503134238
 10
2.572232926655625
 20
27.26910503134238
 10
2.566157132725238
 20
27.26910503134238
  0
LWPOLYLINE
  5
3D8
330
1E
100
AcDbEntity
  8
5
100
AcDbPolyline
 90
        3
 70
     0
 43
0.0
 10
2.730203568845722
 20
27.22049867989927
 10
2.730203568845722
 20
27.26606713437718
 10
2.730203568845722
 20
27.26910503134238
  0
LINE
  5
3DD
330
1E
100
AcDbEntity
  8
5
100
AcDbLine
 10
2.730203568845722
 20
27.21746078293408
 30
0.0
 11
2.730203568845722
 21
27.22049867989927
 31
0.0
  0
LWPOLYLINE
  5
3DE
330
1E
100
AcDbEntity
  8
5
100
AcDbPolyline
 90
        4
 70
     0
 43
0.0
 10
2.730203568845722
 20
27.21746078293407
 10
2.748430950636894
 20
27.21746078293407
 10
2.760582538497668
 20
27.21746078293407
 10
2.763620435462862
 20
27.21746078293407
  0
LWPOLYLINE
  5
3E4
330
1E
100
AcDbEntity
  8
5
100
AcDbPolyline
 90
        5
 70
     0
 43
0.0
 10
2.815264683871163
 20
27.26910503134238
 10
2.809188889940775
 20
27.26910503134238
 10
2.790961508149604
 20
27.26910503134238
 10
2.763620435462862
 20
27.26910503134238
 10
2.730203568845722
 20
27.26910503134238
  0
LINE
  5
3EB
330
1E
100
AcDbEntity
  8
5
100
AcDbLine
 10
2.730203568845722
 20
27.21138498900367
 30
0.0
 11
2.730203568845722
 21
27.21746078293408
 31
0.0
  0
LWPOLYLINE
  5
3EC
330
1E
100
AcDbEntity
  8
5
100
AcDbPolyline
 90
        5
 70
     0
 43
0.0
 10
2.651218247750679
 20
27.20834709203848
 10
2.614763484168346
 20
27.20834709203848
 10
2.587422411481592
 20
27.20834709203848
 10
2.572232926655625
 20
27.20834709203848
 10
2.566157132725238
 20
27.20834709203848
  0
LWPOLYLINE
  5
3F3
330
1E
100
AcDbEntity
  8
5
100
AcDbPolyline
 90
        3
 70
     0
 43
0.0
 10
2.730203568845722
 20
27.15974074059539
 10
2.730203568845722
 20
27.20530919507329
 10
2.730203568845722
 20
27.20834709203848
  0
LINE
  5
3F8
330
1E
100
AcDbEntity
  8
5
100
AcDbLine
 10
2.730203568845722
 20
27.15974074059539
 30
0.0
 11
2.730203568845722
 21
27.15974074059539
 31
0.0
  0
LWPOLYLINE
  5
3F9
330
1E
100
AcDbEntity
  8
5
100
AcDbPolyline
 90
        4
 70
     0
 43
0.0
 10
2.730203568845722
 20
27.15974074059539
 10
2.748430950636894
 20
27.15974074059539
 10
2.760582538497668
 20
27.15974074059539
 10
2.763620435462862
 20
27.15974074059539
  0
LWPOLYLINE
  5
3FF
330
1E
100
AcDbEntity
  8
5
100
AcDbPolyline
 90
        5
 70
     0
 43
0.0
 10
2.815264683871163
 20
27.20834709203848
 10
2.809188889940775
 20
27.20834709203848
 10
2.790961508149604
 20
27.20834709203848
 10
2.763620435462862
 20
27.20834709203848
 10
2.730203568845722
 20
27.20834709203848
  0
LINE
  5
406
330
1E
100
AcDbEntity
  8
5
100
AcDbLine
 10
2.730203568845722
 20
27.15366494666499
 30
0.0
 11
2.730203568845722
 21
27.15974074059539
 31
0.0
  0
LWPOLYLINE
  5
407
330
1E
100
AcDbEntity
  8
5
100
AcDbPolyline
 90
        5
 70
     0
 43
0.0
 10
2.651218247750679
 20
27.1475891527346
 10
2.614763484168346
 20
27.1475891527346
 10
2.587422411481592
 20
27.1475891527346
 10
2.572232926655625
 20
27.1475891527346
 10
2.566157132725238
 20
27.1475891527346
  0
LWPOLYLINE
  5
40E
330
1E
100
AcDbEntity
  8
5
100
AcDbPolyline
 90
        3
 70
     0
 43
0.0
 10
2.730203568845722
 20
27.0989828012915
 10
2.730203568845722
 20
27.1445512557694
 10
2.730203568845722
 20
27.1475891527346
  0
LINE
  5
413
330
1E
100
AcDbEntity
  8
5
100
AcDbLine
 10
2.730203568845722
 20
27.0989828012915
 30
0.0
 11
2.730203568845722
 21
27.0989828012915
 31
0.0
  0
LWPOLYLINE
  5
414
330
1E
100
AcDbEntity
  8
5
100
AcDbPolyline
 90
        4
 70
     0
 43
0.0
 10
2.730203568845722
 20
27.0989828012915
 10
2.748430950636894
 20
27.0989828012915
 10
2.760582538497668
 20
27.0989828012915
 10
2.763620435462862
 20
27.0989828012915
  0
LWPOLYLINE
  5
41A
330
1E
100
AcDbEntity
  8
5
100
AcDbPolyline
 90
        5
 70
     0
 43
0.0
 10
2.815264683871163
 20
27.1475891527346
 10
2.809188889940775
 20
27.1475891527346
 10
2.790961508149604
 20
27.1475891527346
 10
2.763620435462862
 20
27.1475891527346
 10
2.730203568845722
 20
27.1475891527346
  0
LWPOLYLINE
  5
421
330
1E
100
AcDbEntity
  8
5
100
AcDbPolyline
 90
        3
 70
     0
 43
0.0
 10
2.730203568845722
 20
27.03822486198762
 10
2.730203568845722
 20
27.08683121343072
 10
2.730203568845722
 20
27.08986911039591
  0
LINE
  5
426
330
1E
100
AcDbEntity
  8
5
100
AcDbLine
 10
2.730203568845722
 20
27.03822486198761
 30
0.0
 11
2.730203568845722
 21
27.03822486198761
 31
0.0
  0
LWPOLYLINE
  5
427
330
1E
100
AcDbEntity
  8
5
100
AcDbPolyline
 90
        4
 70
     0
 43
0.0
 10
2.730203568845722
 20
27.03822486198762
 10
2.748430950636894
 20
27.03822486198762
 10
2.760582538497668
 20
27.03822486198762
 10
2.763620435462862
 20
27.03822486198762
  0
LWPOLYLINE
  5
42D
330
1E
100
AcDbEntity
  8
5
100
AcDbPolyline
 90
        5
 70
     0
 43
0.0
 10
2.815264683871163
 20
27.08986911039591
 10
2.809188889940775
 20
27.08986911039591
 10
2.790961508149604
 20
27.08986911039591
 10
2.763620435462862
 20
27.08986911039591
 10
2.730203568845722
 20
27.08986911039591
  0
LWPOLYLINE
  5
434
330
1E
100
AcDbEntity
  8
5
100
AcDbPolyline
 90
        5
 70
     0
 43
0.0
 10
2.651218247750679
 20
27.08986911039591
 10
2.614763484168346
 20
27.08986911039591
 10
2.587422411481592
 20
27.08986911039591
 10
2.572232926655625
 20
27.08986911039591
 10
2.566157132725238
 20
27.08986911039591
  0
LINE
  5
43B
330
1E
100
AcDbEntity
  8
5
100
AcDbLine
 10
2.730203568845722
 20
27.09290700736111
 30
0.0
 11
2.730203568845722
 21
27.0989828012915
 31
0.0
  0
LINE
  5
43C
330
1E
100
AcDbEntity
  8
5
100
AcDbLine
 10
2.651218247750679
 20
27.28125661920315
 30
0.0
 11
2.651218247750679
 21
27.27214292830757
 31
0.0
  0
LWPOLYLINE
  5
43D
330
1E
100
AcDbEntity
  8
5
100
AcDbPolyline
 90
        3
 70
     0
 43
0.0
 10
2.651218247750679
 20
27.26910503134238
 10
2.651218247750679
 20
27.26606713437718
 10
2.651218247750679
 20
27.22049867989927
  0
LWPOLYLINE
  5
442
330
1E
100
AcDbEntity
  8
5
100
AcDbPolyline
 90
        4
 70
     0
 43
0.0
 10
2.614763484168346
 20
27.21746078293407
 10
2.620839278098732
 20
27.21746078293407
 10
2.632990865959507
 20
27.21746078293407
 10
2.651218247750679
 20
27.21746078293407
  0
LINE
  5
448
330
1E
100
AcDbEntity
  8
5
100
AcDbLine
 10
2.651218247750679
 20
27.22049867989927
 30
0.0
 11
2.651218247750679
 21
27.21746078293408
 31
0.0
  0
LINE
  5
449
330
1E
100
AcDbEntity
  8
5
100
AcDbLine
 10
2.651218247750679
 20
27.21746078293408
 30
0.0
 11
2.651218247750679
 21
27.21138498900367
 31
0.0
  0
LWPOLYLINE
  5
44A
330
1E
100
AcDbEntity
  8
5
100
AcDbPolyline
 90
        3
 70
     0
 43
0.0
 10
2.651218247750679
 20
27.20834709203848
 10
2.651218247750679
 20
27.20530919507329
 10
2.651218247750679
 20
27.15974074059539
  0
LWPOLYLINE
  5
44F
330
1E
100
AcDbEntity
  8
5
100
AcDbPolyline
 90
        4
 70
     0
 43
0.0
 10
2.614763484168346
 20
27.15974074059539
 10
2.620839278098732
 20
27.15974074059539
 10
2.632990865959507
 20
27.15974074059539
 10
2.651218247750679
 20
27.15974074059539
  0
LINE
  5
455
330
1E
100
AcDbEntity
  8
5
100
AcDbLine
 10
2.651218247750679
 20
27.15974074059539
 30
0.0
 11
2.651218247750679
 21
27.15974074059539
 31
0.0
  0
LINE
  5
456
330
1E
100
AcDbEntity
  8
5
100
AcDbLine
 10
2.651218247750679
 20
27.15974074059539
 30
0.0
 11
2.651218247750679
 21
27.15366494666499
 31
0.0
  0
LWPOLYLINE
  5
457
330
1E
100
AcDbEntity
  8
5
100
AcDbPolyline
 90
        3
 70
     0
 43
0.0
 10
2.651218247750679
 20
27.1475891527346
 10
2.651218247750679
 20
27.1445512557694
 10
2.651218247750679
 20
27.0989828012915
  0
LWPOLYLINE
  5
45C
330
1E
100
AcDbEntity
  8
5
100
AcDbPolyline
 90
        4
 70
     0
 43
0.0
 10
2.614763484168346
 20
27.0989828012915
 10
2.620839278098732
 20
27.0989828012915
 10
2.632990865959507
 20
27.0989828012915
 10
2.651218247750679
 20
27.0989828012915
  0
LINE
  5
462
330
1E
100
AcDbEntity
  8
5
100
AcDbLine
 10
2.651218247750679
 20
27.0989828012915
 30
0.0
 11
2.651218247750679
 21
27.0989828012915
 31
0.0
  0
LWPOLYLINE
  5
463
330
1E
100
AcDbEntity
  8
5
100
AcDbPolyline
 90
        3
 70
     0
 43
0.0
 10
2.690710908298195
 20
26.93493636517102
 10
2.684635114367808
 20
26.93493636517102
 10
2.681597217402615
 20
26.93493636517102
  0
LWPOLYLINE
  5
468
330
1E
100
AcDbEntity
  8
5
100
AcDbPolyline
 90
        3
 70
     0
 43
0.0
 10
2.699824599193775
 20
26.93493636517102
 10
2.696786702228582
 20
26.93493636517102
 10
2.690710908298195
 20
26.93493636517102
  0
LWPOLYLINE
  5
46D
330
1E
100
AcDbEntity
  8
5
100
AcDbPolyline
 90
        5
 70
     0
 43
0.0
 10
2.672483526507034
 20
26.94101215910139
 10
2.678559320437421
 20
26.94101215910139
 10
2.690710908298195
 20
26.94101215910139
 10
2.702862496158969
 20
26.94101215910139
 10
2.708938290089367
 20
26.94101215910139
  0
LWPOLYLINE
  5
474
330
1E
100
AcDbEntity
  8
5
100
AcDbPolyline
 90
        6
 70
     0
 43
0.0
 10
2.651218247750679
 20
27.03822486198762
 10
2.666407732576646
 20
27.02607327412684
 10
2.681597217402615
 20
27.01999748019646
 10
2.696786702228582
 20
27.01999748019646
 10
2.708938290089367
 20
27.02607327412684
 10
2.730203568845722
 20
27.03822486198762
  0
LWPOLYLINE
  5
47C
330
1E
100
AcDbEntity
  8
5
100
AcDbPolyline
 90
        4
 70
     0
 43
0.0
 10
2.614763484168346
 20
27.03822486198762
 10
2.620839278098732
 20
27.03822486198762
 10
2.632990865959507
 20
27.03822486198762
 10
2.651218247750679
 20
27.03822486198762
  0
LWPOLYLINE
  5
482
330
1E
100
AcDbEntity
  8
5
100
AcDbPolyline
 90
        3
 70
     0
 43
0.0
 10
2.651218247750679
 20
27.08986911039591
 10
2.651218247750679
 20
27.08683121343072
 10
2.651218247750679
 20
27.03822486198762
  0
LINE
  5
487
330
1E
100
AcDbEntity
  8
5
100
AcDbLine
 10
2.651218247750679
 20
27.03822486198761
 30
0.0
 11
2.651218247750679
 21
27.03822486198761
 31
0.0
  0
LINE
  5
488
330
1E
100
AcDbEntity
  8
5
100
AcDbLine
 10
2.651218247750679
 20
27.0989828012915
 30
0.0
 11
2.651218247750679
 21
27.09290700736111
 31
0.0
  0
LINE
  5
489
330
1E
100
AcDbEntity
  8
5
100
AcDbLine
 10
-4.761250347323241
 20
27.27214292830757
 30
0.0
 11
-4.761250347323241
 21
27.28125661920315
 31
0.0
  0
LWPOLYLINE
  5
48A
330
1E
100
AcDbEntity
  8
5
100
AcDbPolyline
 90
        5
 70
     0
 43
0.0
 10
-4.840235668418295
 20
27.26910503134238
 10
-4.873652535035424
 20
27.26910503134238
 10
-4.900993607722177
 20
27.26910503134238
 10
-4.919220989513338
 20
27.26910503134238
 10
-4.925296783443736
 20
27.26910503134238
  0
LWPOLYLINE
  5
491
330
1E
100
AcDbEntity
  8
5
100
AcDbPolyline
 90
        3
 70
     0
 43
0.0
 10
-4.758212450358048
 20
27.22049867989927
 10
-4.758212450358048
 20
27.26606713437718
 10
-4.758212450358048
 20
27.26910503134238
  0
LINE
  5
496
330
1E
100
AcDbEntity
  8
5
100
AcDbLine
 10
-4.761250347323241
 20
27.21746078293408
 30
0.0
 11
-4.758212450358048
 21
27.22049867989927
 31
0.0
  0
LWPOLYLINE
  5
497
330
1E
100
AcDbEntity
  8
5
100
AcDbPolyline
 90
        4
 70
     0
 43
0.0
 10
-4.761250347323241
 20
27.21746078293407
 10
-4.739985068566887
 20
27.21746078293407
 10
-4.727833480706112
 20
27.21746078293407
 10
-4.724795583740908
 20
27.21746078293407
  0
LWPOLYLINE
  5
49D
330
1E
100
AcDbEntity
  8
5
100
AcDbPolyline
 90
        5
 70
     0
 43
0.0
 10
-4.673151335332607
 20
27.26910503134238
 10
-4.679227129262994
 20
27.26910503134238
 10
-4.697454511054166
 20
27.26910503134238
 10
-4.724795583740908
 20
27.26910503134238
 10
-4.758212450358048
 20
27.26910503134238
  0
LINE
  5
4A4
330
1E
100
AcDbEntity
  8
5
100
AcDbLine
 10
-4.761250347323241
 20
27.21138498900369
 30
0.0
 11
-4.761250347323241
 21
27.21746078293408
 31
0.0
  0
LWPOLYLINE
  5
4A5
330
1E
100
AcDbEntity
  8
5
100
AcDbPolyline
 90
        5
 70
     0
 43
0.0
 10
-4.840235668418295
 20
27.2083470920385
 10
-4.873652535035424
 20
27.2083470920385
 10
-4.900993607722177
 20
27.2083470920385
 10
-4.919220989513338
 20
27.2083470920385
 10
-4.925296783443736
 20
27.2083470920385
  0
LWPOLYLINE
  5
4AC
330
1E
100
AcDbEntity
  8
5
100
AcDbPolyline
 90
        3
 70
     0
 43
0.0
 10
-4.758212450358048
 20
27.15974074059539
 10
-4.758212450358048
 20
27.20530919507329
 10
-4.758212450358048
 20
27.2083470920385
  0
LINE
  5
4B1
330
1E
100
AcDbEntity
  8
5
100
AcDbLine
 10
-4.761250347323241
 20
27.15974074059539
 30
0.0
 11
-4.758212450358048
 21
27.15974074059539
 31
0.0
  0
LWPOLYLINE
  5
4B2
330
1E
100
AcDbEntity
  8
5
100
AcDbPolyline
 90
        4
 70
     0
 43
0.0
 10
-4.761250347323241
 20
27.15974074059539
 10
-4.739985068566887
 20
27.15974074059539
 10
-4.727833480706112
 20
27.15974074059539
 10
-4.724795583740908
 20
27.15974074059539
  0
LWPOLYLINE
  5
4B8
330
1E
100
AcDbEntity
  8
5
100
AcDbPolyline
 90
        5
 70
     0
 43
0.0
 10
-4.673151335332607
 20
27.2083470920385
 10
-4.679227129262994
 20
27.2083470920385
 10
-4.697454511054166
 20
27.2083470920385
 10
-4.724795583740908
 20
27.2083470920385
 10
-4.758212450358048
 20
27.2083470920385
  0
LINE
  5
4BF
330
1E
100
AcDbEntity
  8
5
100
AcDbLine
 10
-4.761250347323241
 20
27.153664946665
 30
0.0
 11
-4.761250347323241
 21
27.15974074059539
 31
0.0
  0
LWPOLYLINE
  5
4C0
330
1E
100
AcDbEntity
  8
5
100
AcDbPolyline
 90
        5
 70
     0
 43
0.0
 10
-4.840235668418295
 20
27.1475891527346
 10
-4.873652535035424
 20
27.1475891527346
 10
-4.900993607722177
 20
27.1475891527346
 10
-4.919220989513338
 20
27.1475891527346
 10
-4.925296783443736
 20
27.1475891527346
  0
LWPOLYLINE
  5
4C7
330
1E
100
AcDbEntity
  8
5
100
AcDbPolyline
 90
        3
 70
     0
 43
0.0
 10
-4.758212450358048
 20
27.0989828012915
 10
-4.758212450358048
 20
27.1445512557694
 10
-4.758212450358048
 20
27.1475891527346
  0
LINE
  5
4CC
330
1E
100
AcDbEntity
  8
5
100
AcDbLine
 10
-4.761250347323241
 20
27.0989828012915
 30
0.0
 11
-4.758212450358048
 21
27.0989828012915
 31
0.0
  0
LWPOLYLINE
  5
4CD
330
1E
100
AcDbEntity
  8
5
100
AcDbPolyline
 90
        4
 70
     0
 43
0.0
 10
-4.761250347323241
 20
27.0989828012915
 10
-4.739985068566887
 20
27.0989828012915
 10
-4.727833480706112
 20
27.0989828012915
 10
-4.724795583740908
 20
27.0989828012915
  0
LWPOLYLINE
  5
4D3
330
1E
100
AcDbEntity
  8
5
100
AcDbPolyline
 90
        5
 70
     0
 43
0.0
 10
-4.673151335332607
 20
27.1475891527346
 10
-4.679227129262994
 20
27.1475891527346
 10
-4.697454511054166
 20
27.1475891527346
 10
-4.724795583740908
 20
27.1475891527346
 10
-4.758212450358048
 20
27.1475891527346
  0
LWPOLYLINE
  5
4DA
330
1E
100
AcDbEntity
  8
5
100
AcDbPolyline
 90
        3
 70
     0
 43
0.0
 10
-4.758212450358048
 20
27.03822486198762
 10
-4.758212450358048
 20
27.08683121343072
 10
-4.758212450358048
 20
27.08986911039591
  0
LINE
  5
4DF
330
1E
100
AcDbEntity
  8
5
100
AcDbLine
 10
-4.761250347323241
 20
27.03822486198761
 30
0.0
 11
-4.758212450358048
 21
27.03822486198761
 31
0.0
  0
LWPOLYLINE
  5
4E0
330
1E
100
AcDbEntity
  8
5
100
AcDbPolyline
 90
        4
 70
     0
 43
0.0
 10
-4.761250347323241
 20
27.03822486198762
 10
-4.739985068566887
 20
27.03822486198762
 10
-4.727833480706112
 20
27.03822486198762
 10
-4.724795583740908
 20
27.03822486198762
  0
LWPOLYLINE
  5
4E6
330
1E
100
AcDbEntity
  8
5
100
AcDbPolyline
 90
        5
 70
     0
 43
0.0
 10
-4.673151335332607
 20
27.08986911039591
 10
-4.679227129262994
 20
27.08986911039591
 10
-4.697454511054166
 20
27.08986911039591
 10
-4.724795583740908
 20
27.08986911039591
 10
-4.758212450358048
 20
27.08986911039591
  0
LWPOLYLINE
  5
4ED
330
1E
100
AcDbEntity
  8
5
100
AcDbPolyline
 90
        5
 70
     0
 43
0.0
 10
-4.840235668418295
 20
27.08986911039591
 10
-4.873652535035424
 20
27.08986911039591
 10
-4.900993607722177
 20
27.08986911039591
 10
-4.919220989513338
 20
27.08986911039591
 10
-4.925296783443736
 20
27.08986911039591
  0
LINE
  5
4F4
330
1E
100
AcDbEntity
  8
5
100
AcDbLine
 10
-4.761250347323241
 20
27.09290700736111
 30
0.0
 11
-4.761250347323241
 21
27.0989828012915
 31
0.0
  0
LINE
  5
4F5
330
1E
100
AcDbEntity
  8
5
100
AcDbLine
 10
-4.837197771453102
 20
27.28125661920315
 30
0.0
 11
-4.837197771453102
 21
27.27214292830757
 31
0.0
  0
LWPOLYLINE
  5
4F6
330
1E
100
AcDbEntity
  8
5
100
AcDbPolyline
 90
        3
 70
     0
 43
0.0
 10
-4.840235668418295
 20
27.26910503134238
 10
-4.840235668418295
 20
27.26606713437718
 10
-4.840235668418295
 20
27.22049867989927
  0
LWPOLYLINE
  5
4FB
330
1E
100
AcDbEntity
  8
5
100
AcDbPolyline
 90
        4
 70
     0
 43
0.0
 10
-4.873652535035424
 20
27.21746078293407
 10
-4.870614638070231
 20
27.21746078293407
 10
-4.858463050209457
 20
27.21746078293407
 10
-4.837197771453102
 20
27.21746078293407
  0
LINE
  5
501
330
1E
100
AcDbEntity
  8
5
100
AcDbLine
 10
-4.840235668418295
 20
27.22049867989927
 30
0.0
 11
-4.837197771453102
 21
27.21746078293408
 31
0.0
  0
LINE
  5
502
330
1E
100
AcDbEntity
  8
5
100
AcDbLine
 10
-4.837197771453102
 20
27.21746078293408
 30
0.0
 11
-4.837197771453102
 21
27.21138498900369
 31
0.0
  0
LWPOLYLINE
  5
503
330
1E
100
AcDbEntity
  8
5
100
AcDbPolyline
 90
        3
 70
     0
 43
0.0
 10
-4.840235668418295
 20
27.2083470920385
 10
-4.840235668418295
 20
27.20530919507329
 10
-4.840235668418295
 20
27.15974074059539
  0
LWPOLYLINE
  5
508
330
1E
100
AcDbEntity
  8
5
100
AcDbPolyline
 90
        4
 70
     0
 43
0.0
 10
-4.873652535035424
 20
27.15974074059539
 10
-4.870614638070231
 20
27.15974074059539
 10
-4.858463050209457
 20
27.15974074059539
 10
-4.837197771453102
 20
27.15974074059539
  0
LINE
  5
50E
330
1E
100
AcDbEntity
  8
5
100
AcDbLine
 10
-4.840235668418295
 20
27.15974074059539
 30
0.0
 11
-4.837197771453102
 21
27.15974074059539
 31
0.0
  0
LINE
  5
50F
330
1E
100
AcDbEntity
  8
5
100
AcDbLine
 10
-4.837197771453102
 20
27.15974074059539
 30
0.0
 11
-4.837197771453102
 21
27.153664946665
 31
0.0
  0
LWPOLYLINE
  5
510
330
1E
100
AcDbEntity
  8
5
100
AcDbPolyline
 90
        3
 70
     0
 43
0.0
 10
-4.840235668418295
 20
27.1475891527346
 10
-4.840235668418295
 20
27.1445512557694
 10
-4.840235668418295
 20
27.0989828012915
  0
LWPOLYLINE
  5
515
330
1E
100
AcDbEntity
  8
5
100
AcDbPolyline
 90
        4
 70
     0
 43
0.0
 10
-4.873652535035424
 20
27.0989828012915
 10
-4.870614638070231
 20
27.0989828012915
 10
-4.858463050209457
 20
27.0989828012915
 10
-4.837197771453102
 20
27.0989828012915
  0
LINE
  5
51B
330
1E
100
AcDbEntity
  8
5
100
AcDbLine
 10
-4.840235668418295
 20
27.0989828012915
 30
0.0
 11
-4.837197771453102
 21
27.0989828012915
 31
0.0
  0
LWPOLYLINE
  5
51C
330
1E
100
AcDbEntity
  8
5
100
AcDbPolyline
 90
        3
 70
     0
 43
0.0
 10
-4.797705110905575
 20
26.93493636517102
 10
-4.806818801801155
 20
26.93493636517102
 10
-4.809856698766349
 20
26.93493636517102
  0
LWPOLYLINE
  5
521
330
1E
100
AcDbEntity
  8
5
100
AcDbPolyline
 90
        3
 70
     0
 43
0.0
 10
-4.788591420009995
 20
26.93493636517102
 10
-4.791629316975188
 20
26.93493636517102
 10
-4.797705110905575
 20
26.93493636517102
  0
LWPOLYLINE
  5
526
330
1E
100
AcDbEntity
  8
5
100
AcDbPolyline
 90
        5
 70
     0
 43
0.0
 10
-4.815932492696736
 20
26.94101215910139
 10
-4.812894595731543
 20
26.94101215910139
 10
-4.797705110905575
 20
26.94101215910139
 10
-4.785553523044801
 20
26.94101215910139
 10
-4.782515626079607
 20
26.94101215910139
  0
LWPOLYLINE
  5
52D
330
1E
100
AcDbEntity
  8
5
100
AcDbPolyline
 90
        6
 70
     0
 43
0.0
 10
-4.837197771453102
 20
27.03822486198762
 10
-4.822008286627123
 20
27.02607327412684
 10
-4.806818801801155
 20
27.01999748019646
 10
-4.791629316975188
 20
27.01999748019646
 10
-4.779477729114403
 20
27.02607327412684
 10
-4.761250347323241
 20
27.03822486198762
  0
LWPOLYLINE
  5
535
330
1E
100
AcDbEntity
  8
5
100
AcDbPolyline
 90
        4
 70
     0
 43
0.0
 10
-4.873652535035424
 20
27.03822486198762
 10
-4.870614638070231
 20
27.03822486198762
 10
-4.858463050209457
 20
27.03822486198762
 10
-4.837197771453102
 20
27.03822486198762
  0
LWPOLYLINE
  5
53B
330
1E
100
AcDbEntity
  8
5
100
AcDbPolyline
 90
        3
 70
     0
 43
0.0
 10
-4.840235668418295
 20
27.08986911039591
 10
-4.840235668418295
 20
27.08683121343072
 10
-4.840235668418295
 20
27.03822486198762
  0
LINE
  5
540
330
1E
100
AcDbEntity
  8
5
100
AcDbLine
 10
-4.840235668418295
 20
27.03822486198761
 30
0.0
 11
-4.837197771453102
 21
27.03822486198761
 31
0.0
  0
LINE
  5
541
330
1E
100
AcDbEntity
  8
5
100
AcDbLine
 10
-4.837197771453102
 20
27.0989828012915
 30
0.0
 11
-4.837197771453102
 21
27.09290700736111
 31
0.0
  0
LINE
  5
542
330
1E
100
AcDbEntity
  8
5
100
AcDbLine
 10
-5.189593819415629
 20
19.37057292183738
 30
0.0
 11
-1.553231152078142
 21
19.37057292183738
 31
0.0
  0
LWPOLYLINE
  5
543
330
1E
100
AcDbEntity
  8
5
100
AcDbPolyline
 90
        4
 70
     0
 43
0.0
 10
-1.553231152078142
 20
19.37057292183738
 10
-1.553231152078142
 20
19.38576240666335
 10
-1.553231152078142
 20
19.39791399452412
 10
-1.553231152078142
 20
19.40095189148932
  0
LWPOLYLINE
  5
549
330
1E
100
AcDbEntity
  8
5
100
AcDbPolyline
 90
        4
 70
     0
 43
0.0
 10
-5.189593819415629
 20
19.40095189148933
 10
-5.189593819415629
 20
19.39791399452413
 10
-5.189593819415629
 20
19.38576240666335
 10
-5.189593819415629
 20
19.37057292183738
  0
LINE
  5
54F
330
1E
100
AcDbEntity
  8
5
100
AcDbLine
 10
3.079561719843055
 20
23.05554194061798
 30
0.0
 11
-0.5537630505292382
 21
23.05554194061798
 31
0.0
  0
LWPOLYLINE
  5
550
330
1E
100
AcDbEntity
  8
5
100
AcDbPolyline
 90
        4
 70
     0
 43
0.0
 10
-0.5537630505292377
 20
23.05554194061798
 10
-0.5537630505292377
 20
23.04035245579201
 10
-0.5537630505292377
 20
23.02820086793123
 10
-0.5537630505292377
 20
23.02516297096604
  0
LWPOLYLINE
  5
556
330
1E
100
AcDbEntity
  8
5
100
AcDbPolyline
 90
        4
 70
     0
 43
0.0
 10
3.079561719843056
 20
23.02516297096604
 10
3.079561719843056
 20
23.02820086793123
 10
3.079561719843056
 20
23.04035245579201
 10
3.079561719843056
 20
23.05554194061798
  0
LINE
  5
55C
330
1E
100
AcDbEntity
  8
5
100
AcDbLine
 10
-6.18602402399934
 20
21.90114109384418
 30
0.0
 11
-6.325767284398276
 21
21.90114109384418
 31
0.0
  0
LWPOLYLINE
  5
55D
330
1E
100
AcDbEntity
  8
5
100
AcDbPolyline
 90
        5
 70
     0
 43
0.0
 10
-6.325767284398275
 20
21.90114109384418
 10
-6.350070460119823
 20
21.90114109384418
 10
-6.368297841910996
 20
21.90114109384418
 10
-6.383487326736964
 20
21.90114109384418
 10
-6.386525223702157
 20
21.90114109384418
  0
LINE
  5
564
330
1E
100
AcDbEntity
  8
5
100
AcDbLine
 10
-6.18602402399934
 20
20.52497376861118
 30
0.0
 11
-6.325767284398276
 21
20.52497376861118
 31
0.0
  0
LWPOLYLINE
  5
565
330
1E
100
AcDbEntity
  8
5
100
AcDbPolyline
 90
        5
 70
     0
 43
0.0
 10
-6.325767284398275
 20
20.52497376861119
 10
-6.350070460119823
 20
20.52497376861119
 10
-6.368297841910996
 20
20.52497376861119
 10
-6.383487326736964
 20
20.52497376861119
 10
-6.386525223702157
 20
20.52497376861119
  0
LINE
  5
56C
330
1E
100
AcDbEntity
  8
5
100
AcDbLine
 10
4.215735184825701
 20
21.90114109384416
 30
0.0
 11
4.07902982139196
 21
21.90114109384416
 31
0.0
  0
LWPOLYLINE
  5
56D
330
1E
100
AcDbEntity
  8
5
100
AcDbPolyline
 90
        5
 70
     0
 43
0.0
 10
4.215735184825702
 20
21.90114109384416
 10
4.24003836054725
 20
21.90114109384416
 10
4.258265742338422
 20
21.90114109384416
 10
4.273455227164389
 20
21.90114109384416
 10
4.276493124129584
 20
21.90114109384416
  0
LINE
  5
574
330
1E
100
AcDbEntity
  8
5
100
AcDbLine
 10
4.215735184825701
 20
20.52497376861118
 30
0.0
 11
4.07902982139196
 21
20.52497376861118
 31
0.0
  0
LWPOLYLINE
  5
575
330
1E
100
AcDbEntity
  8
5
100
AcDbPolyline
 90
        5
 70
     0
 43
0.0
 10
4.215735184825702
 20
20.52497376861119
 10
4.24003836054725
 20
20.52497376861119
 10
4.258265742338422
 20
20.52497376861119
 10
4.273455227164389
 20
20.52497376861119
 10
4.276493124129584
 20
20.52497376861119
  0
LINE
  5
57C
330
1E
100
AcDbEntity
  8
5
100
AcDbLine
 10
-4.448346959908241
 20
21.28748590687494
 30
0.0
 11
-4.797705110905575
 21
21.28748590687494
 31
0.0
  0
LWPOLYLINE
  5
57D
330
1E
100
AcDbEntity
  8
5
100
AcDbPolyline
 90
       10
 70
     0
 43
0.0
 10
-4.448346959908241
 20
21.28748590687494
 10
-4.424043784186682
 20
21.28444800990974
 10
-4.402778505430327
 20
21.26925852508378
 10
-4.384551123639155
 20
21.25103114329261
 10
-4.375437432743574
 20
21.22672796757105
 10
-4.375437432743574
 20
21.1993868948843
 10
-4.384551123639155
 20
21.17508371916276
 10
-4.402778505430327
 20
21.15685633737158
 10
-4.424043784186682
 20
21.14166685254561
 10
-4.448346959908241
 20
21.13862895558042
  0
LINE
  5
589
330
1E
100
AcDbEntity
  8
5
100
AcDbLine
 10
-4.448346959908241
 20
21.13862895558042
 30
0.0
 11
-4.797705110905575
 21
21.13862895558042
 31
0.0
  0
LWPOLYLINE
  5
58A
330
1E
100
AcDbEntity
  8
5
100
AcDbPolyline
 90
       10
 70
     0
 43
0.0
 10
-4.797705110905575
 20
21.13862895558042
 10
-4.825046183592328
 20
21.14166685254561
 10
-4.846311462348682
 20
21.15685633737158
 10
-4.864538844139843
 20
21.17508371916276
 10
-4.873652535035424
 20
21.1993868948843
 10
-4.873652535035424
 20
21.22672796757105
 10
-4.864538844139843
 20
21.25103114329261
 10
-4.846311462348682
 20
21.26925852508378
 10
-4.825046183592328
 20
21.28444800990974
 10
-4.797705110905575
 20
21.28748590687494
  0
LINE
  5
596
330
1E
100
AcDbEntity
  8
5
100
AcDbLine
 10
2.690710908298195
 20
21.28748590687494
 30
0.0
 11
2.341352757300861
 21
21.28748590687494
 31
0.0
  0
LWPOLYLINE
  5
597
330
1E
100
AcDbEntity
  8
5
100
AcDbPolyline
 90
       10
 70
     0
 43
0.0
 10
2.690710908298195
 20
21.28748590687494
 10
2.715014084019754
 20
21.28444800990974
 10
2.739317259741302
 20
21.26925852508378
 10
2.754506744567281
 20
21.25103114329261
 10
2.763620435462862
 20
21.22672796757105
 10
2.763620435462862
 20
21.1993868948843
 10
2.754506744567281
 20
21.17508371916276
 10
2.739317259741302
 20
21.15685633737158
 10
2.715014084019754
 20
21.14166685254561
 10
2.690710908298195
 20
21.13862895558042
  0
LINE
  5
5A3
330
1E
100
AcDbEntity
  8
5
100
AcDbLine
 10
2.690710908298195
 20
21.13862895558042
 30
0.0
 11
2.341352757300861
 21
21.13862895558042
 31
0.0
  0
LWPOLYLINE
  5
5A4
330
1E
100
AcDbEntity
  8
5
100
AcDbPolyline
 90
       10
 70
     0
 43
0.0
 10
2.341352757300861
 20
21.13862895558042
 10
2.314011684614109
 20
21.14166685254561
 10
2.292746405857753
 20
21.15685633737158
 10
2.274519024066592
 20
21.17508371916276
 10
2.265405333171012
 20
21.1993868948843
 10
2.265405333171012
 20
21.22672796757105
 10
2.274519024066592
 20
21.25103114329261
 10
2.292746405857753
 20
21.26925852508378
 10
2.314011684614109
 20
21.28444800990974
 10
2.341352757300861
 20
21.28748590687494
  0
CIRCLE
  5
5B0
330
1E
100
AcDbEntity
  8
5
100
AcDbCircle
 10
-1.053497101303682
 20
21.21305743122767
 30
0.0
 40
0.1200065433380955
  0
CIRCLE
  5
5B1
330
1E
100
AcDbEntity
  8
5
100
AcDbCircle
 10
-3.55064840669334
 20
19.96448177853284
 30
0.0
 40
0.0987433348966172
  0
CIRCLE
  5
5B2
330
1E
100
AcDbEntity
  8
5
100
AcDbCircle
 10
-3.55064840669334
 20
22.4616330839225
 30
0.0
 40
0.0987433348966172
  0
CIRCLE
  5
5B3
330
1E
100
AcDbEntity
  8
5
100
AcDbCircle
 10
1.440616307120771
 20
19.96448177853284
 30
0.0
 40
0.0987433348966172
  0
CIRCLE
  5
5B4
330
1E
100
AcDbEntity
  8
5
100
AcDbCircle
 10
1.440616307120771
 20
22.4616330839225
 30
0.0
 40
0.0987433348966172
  0
CIRCLE
  5
5B5
330
1E
100
AcDbEntity
  8
5
100
AcDbCircle
 10
-1.053497101303682
 20
19.96448177853284
 30
0.0
 40
0.0987433348966172
  0
CIRCLE
  5
5B6
330
1E
100
AcDbEntity
  8
5
100
AcDbCircle
 10
-1.053497101303682
 20
22.4616330839225
 30
0.0
 40
0.0987433348966172
  0
LWPOLYLINE
  5
5B7
330
1E
100
AcDbEntity
  8
5
100
AcDbPolyline
 90
        3
 70
     0
 43
0.0
 10
-4.797705110905575
 20
20.06321342990165
 10
-4.81897038966193
 20
20.06321342990165
 10
-4.840235668418295
 20
20.05713763597128
  0
LWPOLYLINE
  5
5BC
330
1E
100
AcDbEntity
  8
5
100
AcDbPolyline
 90
        3
 70
     0
 43
0.0
 10
-4.840235668418295
 20
19.87182592109443
 10
-4.797705110905575
 20
19.86575012716404
 10
-4.758212450358048
 20
19.87182592109443
  0
LWPOLYLINE
  5
5C1
330
1E
100
AcDbEntity
  8
5
100
AcDbPolyline
 90
        3
 70
     0
 43
0.0
 10
-4.758212450358048
 20
20.05713763597128
 10
-4.779477729114403
 20
20.06321342990165
 10
-4.797705110905575
 20
20.06321342990165
  0
LWPOLYLINE
  5
5C6
330
1E
100
AcDbEntity
  8
5
100
AcDbPolyline
 90
        3
 70
     0
 43
0.0
 10
-4.797705110905575
 20
22.56036473529132
 10
-4.81897038966193
 20
22.56036473529132
 10
-4.840235668418295
 20
22.55125104439574
  0
LWPOLYLINE
  5
5CB
330
1E
100
AcDbEntity
  8
5
100
AcDbPolyline
 90
        3
 70
     0
 43
0.0
 10
-4.840235668418295
 20
22.36897722648408
 10
-4.797705110905575
 20
22.36290143255369
 10
-4.758212450358048
 20
22.36897722648408
  0
LWPOLYLINE
  5
5D0
330
1E
100
AcDbEntity
  8
5
100
AcDbPolyline
 90
        3
 70
     0
 43
0.0
 10
-4.758212450358048
 20
22.55125104439574
 10
-4.779477729114403
 20
22.56036473529132
 10
-4.797705110905575
 20
22.56036473529132
  0
CIRCLE
  5
5D5
330
1E
100
AcDbEntity
  8
5
100
AcDbCircle
 10
-2.302072753998511
 20
19.96448177853284
 30
0.0
 40
0.0987433348966172
  0
CIRCLE
  5
5D6
330
1E
100
AcDbEntity
  8
5
100
AcDbCircle
 10
-2.302072753998511
 20
22.4616330839225
 30
0.0
 40
0.0987433348966172
  0
LWPOLYLINE
  5
5D7
330
1E
100
AcDbEntity
  8
5
100
AcDbPolyline
 90
        3
 70
     0
 43
0.0
 10
2.690710908298195
 20
20.06321342990165
 10
2.66944562954184
 20
20.06321342990165
 10
2.651218247750679
 20
20.05713763597128
  0
LWPOLYLINE
  5
5DC
330
1E
100
AcDbEntity
  8
5
100
AcDbPolyline
 90
        3
 70
     0
 43
0.0
 10
2.651218247750679
 20
19.87182592109443
 10
2.690710908298195
 20
19.86575012716404
 10
2.730203568845722
 20
19.87182592109443
  0
LWPOLYLINE
  5
5E1
330
1E
100
AcDbEntity
  8
5
100
AcDbPolyline
 90
        3
 70
     0
 43
0.0
 10
2.730203568845722
 20
20.05713763597128
 10
2.711976187054561
 20
20.06321342990165
 10
2.690710908298195
 20
20.06321342990165
  0
LWPOLYLINE
  5
5E6
330
1E
100
AcDbEntity
  8
5
100
AcDbPolyline
 90
        3
 70
     0
 43
0.0
 10
2.690710908298195
 20
22.56036473529132
 10
2.66944562954184
 20
22.56036473529132
 10
2.651218247750679
 20
22.55125104439574
  0
LWPOLYLINE
  5
5EB
330
1E
100
AcDbEntity
  8
5
100
AcDbPolyline
 90
        3
 70
     0
 43
0.0
 10
2.651218247750679
 20
22.36897722648408
 10
2.690710908298195
 20
22.36290143255369
 10
2.730203568845722
 20
22.36897722648408
  0
LWPOLYLINE
  5
5F0
330
1E
100
AcDbEntity
  8
5
100
AcDbPolyline
 90
        3
 70
     0
 43
0.0
 10
2.730203568845722
 20
22.55125104439574
 10
2.711976187054561
 20
22.56036473529132
 10
2.690710908298195
 20
22.56036473529132
  0
CIRCLE
  5
5F5
330
1E
100
AcDbEntity
  8
5
100
AcDbCircle
 10
0.1950785513911364
 20
19.96448177853284
 30
0.0
 40
0.0987433348966172
  0
CIRCLE
  5
5F6
330
1E
100
AcDbEntity
  8
5
100
AcDbCircle
 10
0.1950785513911364
 20
22.4616330839225
 30
0.0
 40
0.0987433348966172
  0
LINE
  5
5F7
330
1E
100
AcDbEntity
  8
5
100
AcDbLine
 10
-5.189593819415629
 20
22.96440503166216
 30
0.0
 11
-5.189593819415629
 21
22.90060919539307
 31
0.0
  0
LINE
  5
5F8
330
1E
100
AcDbEntity
  8
5
100
AcDbLine
 10
-5.189593819415629
 20
22.90060919539307
 30
0.0
 11
-6.18602402399934
 21
21.90114109384418
 31
0.0
  0
LINE
  5
5F9
330
1E
100
AcDbEntity
  8
5
100
AcDbLine
 10
-6.325767284398276
 20
21.90114109384418
 30
0.0
 11
-6.325767284398276
 21
20.52497376861118
 31
0.0
  0
LINE
  5
5FA
330
1E
100
AcDbEntity
  8
5
100
AcDbLine
 10
-6.18602402399934
 20
20.52497376861118
 30
0.0
 11
-5.189593819415629
 21
19.52550566706229
 31
0.0
  0
LINE
  5
5FB
330
1E
100
AcDbEntity
  8
5
100
AcDbLine
 10
-5.189593819415629
 20
19.52550566706229
 30
0.0
 11
-5.189593819415629
 21
19.46170983079321
 31
0.0
  0
LINE
  5
5FC
330
1E
100
AcDbEntity
  8
5
100
AcDbLine
 10
3.079561719843055
 20
19.46170983079321
 30
0.0
 11
-5.189593819415629
 21
19.46170983079321
 31
0.0
  0
LINE
  5
5FD
330
1E
100
AcDbEntity
  8
5
100
AcDbLine
 10
3.079561719843055
 20
19.52550566706228
 30
0.0
 11
3.079561719843055
 21
19.46170983079321
 31
0.0
  0
LINE
  5
5FE
330
1E
100
AcDbEntity
  8
5
100
AcDbLine
 10
3.079561719843055
 20
19.52550566706228
 30
0.0
 11
4.07902982139196
 21
20.52497376861118
 31
0.0
  0
LINE
  5
5FF
330
1E
100
AcDbEntity
  8
5
100
AcDbLine
 10
4.215735184825701
 20
20.52497376861118
 30
0.0
 11
4.215735184825701
 21
21.90114109384416
 31
0.0
  0
LINE
  5
600
330
1E
100
AcDbEntity
  8
5
100
AcDbLine
 10
4.07902982139196
 20
21.90114109384416
 30
0.0
 11
3.079561719843055
 21
22.90060919539307
 31
0.0
  0
LINE
  5
601
330
1E
100
AcDbEntity
  8
5
100
AcDbLine
 10
3.079561719843055
 20
22.96440503166214
 30
0.0
 11
3.079561719843055
 21
22.90060919539307
 31
0.0
  0
LINE
  5
602
330
1E
100
AcDbEntity
  8
5
100
AcDbLine
 10
-5.189593819415629
 20
22.96440503166216
 30
0.0
 11
3.079561719843055
 21
22.96440503166214
 31
0.0
  0
LINE
  5
603
330
1E
100
AcDbEntity
  8
5
100
AcDbLine
 10
4.276493124129583
 20
20.52497376861118
 30
0.0
 11
4.276493124129583
 21
21.90114109384416
 31
0.0
  0
LINE
  5
604
330
1E
100
AcDbEntity
  8
5
100
AcDbLine
 10
-6.386525223702157
 20
21.90114109384418
 30
0.0
 11
-6.386525223702157
 21
20.52497376861118
 31
0.0
  0
LWPOLYLINE
  5
605
330
1E
100
AcDbEntity
  8
5
100
AcDbPolyline
 90
       16
 70
     0
 43
0.0
 10
4.270417330199197
 20
20.40345789000343
 10
4.255227845373229
 20
20.30320729015201
 10
4.23092466965167
 20
20.2059945872658
 10
4.200545699999735
 20
20.11181978134477
 10
4.158015142487013
 20
20.01764497542375
 10
4.109408791043906
 20
19.92954596343312
 10
4.051688748705207
 20
19.84752274537287
 10
3.987892912436131
 20
19.76853742427783
 10
3.914983385271475
 20
19.69866579407836
 10
3.839035961141616
 20
19.63183206084409
 10
3.757012743081367
 20
19.57411201850539
 10
3.668913731090744
 20
19.52550566706228
 10
3.577776822134917
 20
19.48297510954956
 10
3.480564119248701
 20
19.44955824293243
 10
3.383351416362486
 20
19.42525506721087
 10
3.283100816511077
 20
19.40702768541971
  0
LWPOLYLINE
  5
617
330
1E
100
AcDbEntity
  8
5
100
AcDbPolyline
 90
        6
 70
     0
 43
0.0
 10
3.283100816511077
 20
19.40702768541971
 10
3.240570258998357
 20
19.40398978845451
 10
3.204115495416023
 20
19.40095189148932
 10
3.173736525764078
 20
19.40095189148932
 10
3.158547040938109
 20
19.40095189148932
 10
3.155509143972916
 20
19.40095189148932
  0
LWPOLYLINE
  5
61F
330
1E
100
AcDbEntity
  8
5
100
AcDbPolyline
 90
       10
 70
     0
 43
0.0
 10
4.276493124129584
 20
20.46421582930731
 10
4.276493124129584
 20
20.46725372627251
 10
4.276493124129584
 20
20.47332952020288
 10
4.276493124129584
 20
20.48244321109847
 10
4.276493124129584
 20
20.49155690199405
 10
4.276493124129584
 20
20.50067059288964
 10
4.276493124129584
 20
20.50978428378523
 10
4.276493124129584
 20
20.5188979746808
 10
4.276493124129584
 20
20.52193587164599
 10
4.276493124129584
 20
20.52497376861119
  0
LWPOLYLINE
  5
62B
330
1E
100
AcDbEntity
  8
5
100
AcDbPolyline
 90
        6
 70
     0
 43
0.0
 10
4.276493124129584
 20
20.46421582930731
 10
4.276493124129584
 20
20.4611779323421
 10
4.276493124129584
 20
20.45206424144653
 10
4.273455227164389
 20
20.43687475662056
 10
4.273455227164389
 20
20.41864737482939
 10
4.270417330199197
 20
20.40345789000343
  0
LWPOLYLINE
  5
633
330
1E
100
AcDbEntity
  8
5
100
AcDbPolyline
 90
        6
 70
     0
 43
0.0
 10
3.155509143972916
 20
19.43133086114126
 10
3.161584937903303
 20
19.43133086114126
 10
3.182850216659658
 20
19.43436875810646
 10
3.216267083276798
 20
19.43436875810646
 10
3.255759743824325
 20
19.43740665507164
 10
3.283100816511077
 20
19.44044455203686
  0
LWPOLYLINE
  5
63B
330
1E
100
AcDbEntity
  8
5
100
AcDbPolyline
 90
       16
 70
     0
 43
0.0
 10
4.24003836054725
 20
20.40345789000343
 10
4.224848875721282
 20
20.3092830840824
 10
4.200545699999735
 20
20.21207038119619
 10
4.170166730347788
 20
20.12093347224035
 10
4.127636172835067
 20
20.03283446024972
 10
4.082067718357154
 20
19.94777334522428
 10
4.024347676018465
 20
19.86575012716404
 10
3.963589736714584
 20
19.78980270303419
 10
3.89371810651511
 20
19.72296896979991
 10
3.820808579350454
 20
19.65917313353083
 10
3.738785361290207
 20
19.60449098815734
 10
3.656762143229959
 20
19.55588463671423
 10
3.565625234274132
 20
19.51335407920151
 10
3.474488325318303
 20
19.47993721258436
 10
3.380313519397293
 20
19.45563403686282
 10
3.283100816511077
 20
19.44044455203686
  0
LWPOLYLINE
  5
64D
330
1E
100
AcDbEntity
  8
5
100
AcDbPolyline
 90
        6
 70
     0
 43
0.0
 10
4.24003836054725
 20
20.40345789000343
 10
4.24003836054725
 20
20.42472316875977
 10
4.243076257512444
 20
20.44295055055094
 10
4.243076257512444
 20
20.45510213841172
 10
4.243076257512444
 20
20.4611779323421
 10
4.243076257512444
 20
20.46421582930731
  0
LWPOLYLINE
  5
655
330
1E
100
AcDbEntity
  8
5
100
AcDbPolyline
 90
       10
 70
     0
 43
0.0
 10
4.243076257512444
 20
20.46421582930731
 10
4.243076257512444
 20
20.46725372627251
 10
4.246114154477637
 20
20.47332952020288
 10
4.246114154477637
 20
20.48244321109847
 10
4.246114154477637
 20
20.49155690199405
 10
4.246114154477637
 20
20.50067059288964
 10
4.246114154477637
 20
20.50978428378523
 10
4.246114154477637
 20
20.5188979746808
 10
4.246114154477637
 20
20.52193587164599
 10
4.246114154477637
 20
20.52497376861119
  0
LINE
  5
661
330
1E
100
AcDbEntity
  8
5
100
AcDbLine
 10
4.243076257512443
 20
20.4642158293073
 30
0.0
 11
4.276493124129583
 21
20.4642158293073
 31
0.0
  0
LWPOLYLINE
  5
662
330
1E
100
AcDbEntity
  8
5
100
AcDbPolyline
 90
        6
 70
     0
 43
0.0
 10
3.155509143972916
 20
23.02516297096604
 10
3.161584937903303
 20
23.02516297096604
 10
3.182850216659658
 20
23.02516297096604
 10
3.216267083276798
 20
23.02516297096604
 10
3.255759743824325
 20
23.02212507400084
 10
3.283100816511077
 20
23.01908717703565
  0
LWPOLYLINE
  5
66A
330
1E
100
AcDbEntity
  8
5
100
AcDbPolyline
 90
       16
 70
     0
 43
0.0
 10
4.270417330199197
 20
22.02265697245195
 10
4.255227845373229
 20
22.12290757230335
 10
4.23092466965167
 20
22.22012027518956
 10
4.200545699999735
 20
22.31429508111059
 10
4.158015142487013
 20
22.40846988703161
 10
4.109408791043906
 20
22.49656889902224
 10
4.051688748705207
 20
22.57859211708248
 10
3.987892912436131
 20
22.65757743817753
 10
3.914983385271475
 20
22.727449068377
 10
3.839035961141616
 20
22.79428280161128
 10
3.757012743081367
 20
22.85200284394997
 10
3.668913731090744
 20
22.90060919539308
 10
3.577776822134917
 20
22.9431397529058
 10
3.480564119248701
 20
22.97655661952293
 10
3.383351416362486
 20
23.00085979524448
 10
3.283100816511077
 20
23.01908717703565
  0
LWPOLYLINE
  5
67C
330
1E
100
AcDbEntity
  8
5
100
AcDbPolyline
 90
        6
 70
     0
 43
0.0
 10
4.270417330199197
 20
22.02265697245195
 10
4.273455227164389
 20
22.00139169369557
 10
4.273455227164389
 20
21.98316431190442
 10
4.276493124129584
 20
21.97101272404363
 10
4.276493124129584
 20
21.96493693011326
 10
4.276493124129584
 20
21.96189903314806
  0
LWPOLYLINE
  5
684
330
1E
100
AcDbEntity
  8
5
100
AcDbPolyline
 90
        9
 70
     0
 43
0.0
 10
4.276493124129584
 20
21.90114109384416
 10
4.276493124129584
 20
21.90417899080936
 10
4.276493124129584
 20
21.91025478473975
 10
4.276493124129584
 20
21.91936847563534
 10
4.276493124129584
 20
21.92848216653092
 10
4.276493124129584
 20
21.9375958574265
 10
4.276493124129584
 20
21.94670954832209
 10
4.276493124129584
 20
21.95582323921767
 10
4.276493124129584
 20
21.96189903314806
  0
LWPOLYLINE
  5
68F
330
1E
100
AcDbEntity
  8
5
100
AcDbPolyline
 90
       16
 70
     0
 43
0.0
 10
4.24003836054725
 20
22.02265697245195
 10
4.224848875721282
 20
22.11683177837296
 10
4.200545699999735
 20
22.21404448125918
 10
4.170166730347788
 20
22.305181390215
 10
4.127636172835067
 20
22.39328040220564
 10
4.082067718357154
 20
22.47834151723107
 10
4.024347676018465
 20
22.56036473529132
 10
3.963589736714584
 20
22.63631215942119
 10
3.89371810651511
 20
22.70314589265545
 10
3.820808579350454
 20
22.76694172892452
 10
3.738785361290207
 20
22.82162387429803
 10
3.656762143229959
 20
22.87023022574113
 10
3.565625234274132
 20
22.91276078325385
 10
3.474488325318303
 20
22.94617764987098
 10
3.380313519397293
 20
22.97048082559255
 10
3.283100816511077
 20
22.98567031041852
  0
LWPOLYLINE
  5
6A1
330
1E
100
AcDbEntity
  8
5
100
AcDbPolyline
 90
        6
 70
     0
 43
0.0
 10
3.283100816511077
 20
22.98567031041852
 10
3.240570258998357
 20
22.98870820738371
 10
3.204115495416023
 20
22.9917461043489
 10
3.173736525764078
 20
22.99478400131409
 10
3.158547040938109
 20
22.99478400131409
 10
3.155509143972916
 20
22.99478400131409
  0
LWPOLYLINE
  5
6A9
330
1E
100
AcDbEntity
  8
5
100
AcDbPolyline
 90
        9
 70
     0
 43
0.0
 10
4.246114154477637
 20
21.90114109384416
 10
4.246114154477637
 20
21.90417899080936
 10
4.246114154477637
 20
21.91025478473975
 10
4.246114154477637
 20
21.91936847563534
 10
4.246114154477637
 20
21.92848216653092
 10
4.246114154477637
 20
21.9375958574265
 10
4.246114154477637
 20
21.94670954832209
 10
4.246114154477637
 20
21.95582323921767
 10
4.243076257512444
 20
21.96189903314806
  0
LWPOLYLINE
  5
6B4
330
1E
100
AcDbEntity
  8
5
100
AcDbPolyline
 90
        6
 70
     0
 43
0.0
 10
4.243076257512444
 20
21.96189903314806
 10
4.243076257512444
 20
21.96493693011326
 10
4.243076257512444
 20
21.97405062100883
 10
4.243076257512444
 20
21.9892401058348
 10
4.24003836054725
 20
22.00746748762598
 10
4.24003836054725
 20
22.02265697245195
  0
LINE
  5
6BC
330
1E
100
AcDbEntity
  8
5
100
AcDbLine
 10
4.276493124129583
 20
21.96189903314806
 30
0.0
 11
4.243076257512443
 21
21.96189903314806
 31
0.0
  0
LWPOLYLINE
  5
6BD
330
1E
100
AcDbEntity
  8
5
100
AcDbPolyline
 90
        6
 70
     0
 43
0.0
 10
-5.262503346580285
 20
19.40095189148933
 10
-5.271617037475876
 20
19.40095189148933
 10
-5.292882316232232
 20
19.40095189148933
 10
-5.323261285884178
 20
19.40095189148933
 10
-5.365791843396898
 20
19.40398978845451
 10
-5.39313291608364
 20
19.40702768541971
  0
LWPOLYLINE
  5
6C5
330
1E
100
AcDbEntity
  8
5
100
AcDbPolyline
 90
       16
 70
     0
 43
0.0
 10
-6.38044942977177
 20
20.40345789000343
 10
-6.365259944945791
 20
20.30320729015202
 10
-6.340956769224243
 20
20.2059945872658
 10
-6.307539902607103
 20
20.11181978134478
 10
-6.268047242059576
 20
20.01764497542375
 10
-6.216402993651275
 20
19.92954596343312
 10
-6.161720848277781
 20
19.84752274537287
 10
-6.094887115043512
 20
19.76853742427783
 10
-6.025015484844038
 20
19.69866579407836
 10
-5.949068060714189
 20
19.63183206084409
 10
-5.864006945688748
 20
19.57411201850539
 10
-5.778945830663307
 20
19.52550566706229
 10
-5.684771024742286
 20
19.48297510954956
 10
-5.590596218821263
 20
19.44955824293243
 10
-5.493383515935049
 20
19.42525506721087
 10
-5.39313291608364
 20
19.40702768541971
  0
LWPOLYLINE
  5
6D7
330
1E
100
AcDbEntity
  8
5
100
AcDbPolyline
 90
        6
 70
     0
 43
0.0
 10
-6.38044942977177
 20
20.40345789000343
 10
-6.383487326736964
 20
20.42472316875977
 10
-6.383487326736964
 20
20.44295055055094
 10
-6.383487326736964
 20
20.45510213841172
 10
-6.386525223702157
 20
20.46117793234211
 10
-6.386525223702157
 20
20.46421582930731
  0
LWPOLYLINE
  5
6DF
330
1E
100
AcDbEntity
  8
5
100
AcDbPolyline
 90
       10
 70
     0
 43
0.0
 10
-6.386525223702157
 20
20.52497376861119
 10
-6.386525223702157
 20
20.52193587164599
 10
-6.386525223702157
 20
20.51586007771561
 10
-6.386525223702157
 20
20.50978428378523
 10
-6.386525223702157
 20
20.50067059288964
 10
-6.386525223702157
 20
20.49459479895926
 10
-6.386525223702157
 20
20.48548110806366
 10
-6.386525223702157
 20
20.47636741716808
 10
-6.386525223702157
 20
20.46725372627251
 10
-6.386525223702157
 20
20.46421582930731
  0
LWPOLYLINE
  5
6EB
330
1E
100
AcDbEntity
  8
5
100
AcDbPolyline
 90
       10
 70
     0
 43
0.0
 10
-6.35614625405021
 20
20.52497376861119
 10
-6.35614625405021
 20
20.52193587164599
 10
-6.35614625405021
 20
20.51586007771561
 10
-6.35614625405021
 20
20.50978428378523
 10
-6.35614625405021
 20
20.50067059288964
 10
-6.353108357085018
 20
20.49459479895926
 10
-6.353108357085018
 20
20.48548110806366
 10
-6.353108357085018
 20
20.47636741716808
 10
-6.353108357085018
 20
20.46725372627251
 10
-6.353108357085018
 20
20.46421582930731
  0
LWPOLYLINE
  5
6F7
330
1E
100
AcDbEntity
  8
5
100
AcDbPolyline
 90
        6
 70
     0
 43
0.0
 10
-6.353108357085018
 20
20.46421582930731
 10
-6.353108357085018
 20
20.46117793234211
 10
-6.353108357085018
 20
20.45206424144653
 10
-6.350070460119823
 20
20.43687475662056
 10
-6.350070460119823
 20
20.41864737482939
 10
-6.34703256315463
 20
20.40345789000343
  0
LWPOLYLINE
  5
6FF
330
1E
100
AcDbEntity
  8
5
100
AcDbPolyline
 90
       16
 70
     0
 43
0.0
 10
-6.34703256315463
 20
20.40345789000343
 10
-6.331843078328662
 20
20.3092830840824
 10
-6.310577799572296
 20
20.21207038119619
 10
-6.277160932955168
 20
20.12093347224035
 10
-6.237668272407641
 20
20.03283446024972
 10
-6.189061920964533
 20
19.94777334522428
 10
-6.134379775591039
 20
19.86575012716404
 10
-6.073621836287146
 20
19.78980270303419
 10
-6.003750206087683
 20
19.72296896979991
 10
-5.927802781957823
 20
19.65917313353083
 10
-5.848817460862781
 20
19.60449098815734
 10
-5.763756345837339
 20
19.55588463671423
 10
-5.675657333846705
 20
19.51335407920151
 10
-5.584520424890877
 20
19.47993721258436
 10
-5.490345618969855
 20
19.45563403686282
 10
-5.39313291608364
 20
19.44044455203686
  0
LWPOLYLINE
  5
711
330
1E
100
AcDbEntity
  8
5
100
AcDbPolyline
 90
        6
 70
     0
 43
0.0
 10
-5.39313291608364
 20
19.44044455203686
 10
-5.350602358570919
 20
19.43740665507166
 10
-5.311109698023403
 20
19.43436875810646
 10
-5.283768625336651
 20
19.43133086114126
 10
-5.26554124354549
 20
19.43133086114126
 10
-5.262503346580285
 20
19.43133086114126
  0
LWPOLYLINE
  5
719
330
1E
100
AcDbEntity
  8
5
100
AcDbPolyline
 90
       16
 70
     0
 43
0.0
 10
-6.38044942977177
 20
22.02265697245195
 10
-6.365259944945791
 20
22.12290757230335
 10
-6.340956769224243
 20
22.22012027518956
 10
-6.307539902607103
 20
22.31429508111059
 10
-6.268047242059576
 20
22.40846988703161
 10
-6.216402993651275
 20
22.49656889902224
 10
-6.161720848277781
 20
22.5785921170825
 10
-6.094887115043512
 20
22.65757743817753
 10
-6.025015484844038
 20
22.727449068377
 10
-5.949068060714189
 20
22.79428280161128
 10
-5.864006945688748
 20
22.85200284394997
 10
-5.778945830663307
 20
22.90060919539308
 10
-5.684771024742286
 20
22.9431397529058
 10
-5.590596218821263
 20
22.97655661952293
 10
-5.493383515935049
 20
23.00085979524448
 10
-5.39313291608364
 20
23.01908717703565
  0
LWPOLYLINE
  5
72B
330
1E
100
AcDbEntity
  8
5
100
AcDbPolyline
 90
        6
 70
     0
 43
0.0
 10
-5.39313291608364
 20
23.01908717703565
 10
-5.350602358570919
 20
23.02212507400084
 10
-5.311109698023403
 20
23.02516297096604
 10
-5.283768625336651
 20
23.02516297096604
 10
-5.26554124354549
 20
23.02516297096604
 10
-5.262503346580285
 20
23.02516297096604
  0
LWPOLYLINE
  5
733
330
1E
100
AcDbEntity
  8
5
100
AcDbPolyline
 90
       11
 70
     0
 43
0.0
 10
-6.386525223702157
 20
21.96189903314806
 10
-6.386525223702157
 20
21.95886113618287
 10
-6.386525223702157
 20
21.95582323921767
 10
-6.386525223702157
 20
21.94670954832209
 10
-6.386525223702157
 20
21.9375958574265
 10
-6.386525223702157
 20
21.93152006349611
 10
-6.386525223702157
 20
21.92240637260054
 10
-6.386525223702157
 20
21.91329268170495
 10
-6.386525223702157
 20
21.90721688777457
 10
-6.386525223702157
 20
21.90417899080937
 10
-6.386525223702157
 20
21.90114109384418
  0
LWPOLYLINE
  5
740
330
1E
100
AcDbEntity
  8
5
100
AcDbPolyline
 90
        6
 70
     0
 43
0.0
 10
-6.386525223702157
 20
21.96189903314806
 10
-6.386525223702157
 20
21.96493693011326
 10
-6.383487326736964
 20
21.97405062100883
 10
-6.383487326736964
 20
21.9892401058348
 10
-6.38044942977177
 20
22.00746748762598
 10
-6.38044942977177
 20
22.02265697245195
  0
LWPOLYLINE
  5
748
330
1E
100
AcDbEntity
  8
5
100
AcDbPolyline
 90
        6
 70
     0
 43
0.0
 10
-5.262503346580285
 20
22.99478400131409
 10
-5.271617037475876
 20
22.99478400131409
 10
-5.292882316232232
 20
22.9917461043489
 10
-5.323261285884178
 20
22.9917461043489
 10
-5.365791843396898
 20
22.98870820738371
 10
-5.39313291608364
 20
22.98567031041852
  0
LWPOLYLINE
  5
750
330
1E
100
AcDbEntity
  8
5
100
AcDbPolyline
 90
       16
 70
     0
 43
0.0
 10
-6.34703256315463
 20
22.02265697245195
 10
-6.331843078328662
 20
22.11683177837296
 10
-6.310577799572296
 20
22.21404448125918
 10
-6.277160932955168
 20
22.305181390215
 10
-6.237668272407641
 20
22.39328040220564
 10
-6.189061920964533
 20
22.47834151723107
 10
-6.134379775591039
 20
22.56036473529132
 10
-6.073621836287146
 20
22.63631215942119
 10
-6.003750206087683
 20
22.70314589265545
 10
-5.927802781957823
 20
22.76694172892454
 10
-5.848817460862781
 20
22.82162387429803
 10
-5.763756345837339
 20
22.87023022574114
 10
-5.675657333846705
 20
22.91276078325386
 10
-5.584520424890877
 20
22.94617764987098
 10
-5.490345618969855
 20
22.97048082559255
 10
-5.39313291608364
 20
22.98567031041852
  0
LWPOLYLINE
  5
762
330
1E
100
AcDbEntity
  8
5
100
AcDbPolyline
 90
        6
 70
     0
 43
0.0
 10
-6.34703256315463
 20
22.02265697245195
 10
-6.350070460119823
 20
22.00139169369558
 10
-6.353108357085018
 20
21.98316431190442
 10
-6.353108357085018
 20
21.97101272404363
 10
-6.353108357085018
 20
21.96493693011326
 10
-6.353108357085018
 20
21.96189903314806
  0
LWPOLYLINE
  5
76A
330
1E
100
AcDbEntity
  8
5
100
AcDbPolyline
 90
       11
 70
     0
 43
0.0
 10
-6.353108357085018
 20
21.96189903314806
 10
-6.353108357085018
 20
21.95886113618287
 10
-6.353108357085018
 20
21.95582323921767
 10
-6.353108357085018
 20
21.94670954832209
 10
-6.353108357085018
 20
21.9375958574265
 10
-6.353108357085018
 20
21.93152006349611
 10
-6.35614625405021
 20
21.92240637260054
 10
-6.35614625405021
 20
21.91329268170495
 10
-6.35614625405021
 20
21.90721688777457
 10
-6.35614625405021
 20
21.90417899080937
 10
-6.35614625405021
 20
21.90114109384418
  0
LINE
  5
777
330
1E
100
AcDbEntity
  8
5
100
AcDbLine
 10
-6.353108357085018
 20
21.96189903314806
 30
0.0
 11
-6.386525223702157
 21
21.96189903314806
 31
0.0
  0
LINE
  5
778
330
1E
100
AcDbEntity
  8
5
100
AcDbLine
 10
-6.386525223702157
 20
20.4642158293073
 30
0.0
 11
-6.353108357085018
 21
20.4642158293073
 31
0.0
  0
LWPOLYLINE
  5
779
330
1E
100
AcDbEntity
  8
5
100
AcDbPolyline
 90
        5
 70
     0
 43
0.0
 10
-5.189593819415629
 20
19.46170983079321
 10
-5.189593819415629
 20
19.43740665507166
 10
-5.189593819415629
 20
19.41917927328048
 10
-5.189593819415629
 20
19.40398978845451
 10
-5.189593819415629
 20
19.40095189148933
  0
LWPOLYLINE
  5
780
330
1E
100
AcDbEntity
  8
5
100
AcDbPolyline
 90
        5
 70
     0
 43
0.0
 10
3.079561719843056
 20
19.46170983079321
 10
3.079561719843056
 20
19.43740665507164
 10
3.079561719843056
 20
19.41917927328048
 10
3.079561719843056
 20
19.40398978845451
 10
3.079561719843056
 20
19.40095189148932
  0
LINE
  5
787
330
1E
100
AcDbEntity
  8
5
100
AcDbLine
 10
-5.189593819415629
 20
19.40095189148932
 30
0.0
 11
3.079561719843055
 21
19.40095189148931
 31
0.0
  0
LWPOLYLINE
  5
788
330
1E
100
AcDbEntity
  8
5
100
AcDbPolyline
 90
        5
 70
     0
 43
0.0
 10
3.079561719843056
 20
22.96440503166214
 10
3.079561719843056
 20
22.98870820738371
 10
3.079561719843056
 20
23.00693558917486
 10
3.079561719843056
 20
23.02212507400084
 10
3.079561719843056
 20
23.02516297096604
  0
LWPOLYLINE
  5
78F
330
1E
100
AcDbEntity
  8
5
100
AcDbPolyline
 90
        5
 70
     0
 43
0.0
 10
-5.189593819415629
 20
22.96440503166216
 10
-5.189593819415629
 20
22.98870820738371
 10
-5.189593819415629
 20
23.00693558917488
 10
-5.189593819415629
 20
23.02212507400084
 10
-5.189593819415629
 20
23.02516297096604
  0
LINE
  5
796
330
1E
100
AcDbEntity
  8
5
100
AcDbLine
 10
3.079561719843055
 20
23.02516297096603
 30
0.0
 11
-5.189593819415629
 21
23.02516297096603
 31
0.0
  0
LWPOLYLINE
  5
797
330
1E
100
AcDbEntity
  8
5
100
AcDbPolyline
 90
        4
 70
     0
 43
0.0
 10
3.079561719843056
 20
19.40095189148932
 10
3.079561719843056
 20
19.39791399452412
 10
3.079561719843056
 20
19.38576240666335
 10
3.079561719843056
 20
19.37057292183738
  0
LWPOLYLINE
  5
79D
330
1E
100
AcDbEntity
  8
5
100
AcDbPolyline
 90
        4
 70
     0
 43
0.0
 10
-0.5537630505292377
 20
19.40095189148932
 10
-0.5537630505292377
 20
19.39791399452412
 10
-0.5537630505292377
 20
19.38576240666335
 10
-0.5537630505292377
 20
19.37057292183738
  0
LINE
  5
7A3
330
1E
100
AcDbEntity
  8
5
100
AcDbLine
 10
-0.5537630505292382
 20
19.37057292183738
 30
0.0
 11
3.079561719843055
 21
19.37057292183738
 31
0.0
  0
LINE
  5
7A4
330
1E
100
AcDbEntity
  8
5
100
AcDbLine
 10
3.079561719843055
 20
19.37057292183738
 30
0.0
 11
3.079561719843055
 21
18.99691159511849
 31
0.0
  0
LINE
  5
7A5
330
1E
100
AcDbEntity
  8
5
100
AcDbLine
 10
-5.189593819415629
 20
19.37057292183738
 30
0.0
 11
-5.189593819415629
 21
18.99691159511849
 31
0.0
  0
LINE
  5
7A6
330
1E
100
AcDbEntity
  8
5
100
AcDbLine
 10
-1.553231152078142
 20
19.37057292183738
 30
0.0
 11
-1.553231152078142
 21
19.33411815825504
 31
0.0
  0
LINE
  5
7A7
330
1E
100
AcDbEntity
  8
5
100
AcDbLine
 10
-5.189593819415629
 20
18.99691159511849
 30
0.0
 11
3.079561719843055
 21
18.99691159511849
 31
0.0
  0
LINE
  5
7A8
330
1E
100
AcDbEntity
  8
5
100
AcDbLine
 10
-0.5537630505292382
 20
19.33411815825504
 30
0.0
 11
-0.5537630505292382
 21
19.37057292183738
 31
0.0
  0
LINE
  5
7A9
330
1E
100
AcDbEntity
  8
5
100
AcDbLine
 10
-1.553231152078142
 20
19.33411815825504
 30
0.0
 11
-0.5537630505292382
 21
19.33411815825504
 31
0.0
  0
LWPOLYLINE
  5
7AA
330
1E
100
AcDbEntity
  8
5
100
AcDbPolyline
 90
        4
 70
     0
 43
0.0
 10
-5.189593819415629
 20
23.02516297096604
 10
-5.189593819415629
 20
23.02820086793123
 10
-5.189593819415629
 20
23.04035245579201
 10
-5.189593819415629
 20
23.05554194061798
  0
LWPOLYLINE
  5
7B0
330
1E
100
AcDbEntity
  8
5
100
AcDbPolyline
 90
        4
 70
     0
 43
0.0
 10
-1.553231152078142
 20
23.02516297096604
 10
-1.553231152078142
 20
23.02820086793123
 10
-1.553231152078142
 20
23.04035245579201
 10
-1.553231152078142
 20
23.05554194061798
  0
LINE
  5
7B6
330
1E
100
AcDbEntity
  8
5
100
AcDbLine
 10
-1.553231152078142
 20
23.05554194061798
 30
0.0
 11
-5.189593819415629
 21
23.05554194061798
 31
0.0
  0
LINE
  5
7B7
330
1E
100
AcDbEntity
  8
5
100
AcDbLine
 10
-5.189593819415629
 20
23.05554194061798
 30
0.0
 11
-5.189593819415629
 21
23.42920326733687
 31
0.0
  0
LINE
  5
7B8
330
1E
100
AcDbEntity
  8
5
100
AcDbLine
 10
3.079561719843055
 20
23.05554194061798
 30
0.0
 11
3.079561719843055
 21
23.42920326733687
 31
0.0
  0
LINE
  5
7B9
330
1E
100
AcDbEntity
  8
5
100
AcDbLine
 10
-0.5537630505292382
 20
23.05554194061798
 30
0.0
 11
-0.5537630505292382
 21
23.09199670420031
 31
0.0
  0
LINE
  5
7BA
330
1E
100
AcDbEntity
  8
5
100
AcDbLine
 10
3.079561719843055
 20
23.42920326733687
 30
0.0
 11
-5.189593819415629
 21
23.42920326733687
 31
0.0
  0
LINE
  5
7BB
330
1E
100
AcDbEntity
  8
5
100
AcDbLine
 10
-1.553231152078142
 20
23.09199670420031
 30
0.0
 11
-1.553231152078142
 21
23.05554194061798
 31
0.0
  0
LINE
  5
7BC
330
1E
100
AcDbEntity
  8
5
100
AcDbLine
 10
-0.5537630505292382
 20
23.09199670420031
 30
0.0
 11
-1.553231152078142
 21
23.09199670420031
 31
0.0
  0
LWPOLYLINE
  5
7BD
330
1E
100
AcDbEntity
  8
5
100
AcDbPolyline
 90
        5
 70
     0
 43
0.0
 10
-5.189593819415629
 20
18.99691159511849
 10
-5.189593819415629
 20
18.97260841939694
 10
-5.189593819415629
 20
18.95134314064058
 10
-5.189593819415629
 20
18.93919155277979
 10
-5.189593819415629
 20
18.93311575884941
  0
LWPOLYLINE
  5
7C4
330
1E
100
AcDbEntity
  8
5
100
AcDbPolyline
 90
        5
 70
     0
 43
0.0
 10
3.079561719843056
 20
18.99691159511849
 10
3.079561719843056
 20
18.97260841939694
 10
3.079561719843056
 20
18.95134314064058
 10
3.079561719843056
 20
18.93919155277979
 10
3.079561719843056
 20
18.93311575884941
  0
LINE
  5
7CB
330
1E
100
AcDbEntity
  8
5
100
AcDbLine
 10
-5.189593819415629
 20
18.93311575884941
 30
0.0
 11
3.079561719843055
 21
18.93311575884941
 31
0.0
  0
LWPOLYLINE
  5
7CC
330
1E
100
AcDbEntity
  8
5
100
AcDbPolyline
 90
        5
 70
     0
 43
0.0
 10
3.079561719843056
 20
23.42920326733686
 10
3.079561719843056
 20
23.45350644305843
 10
3.079561719843056
 20
23.47477172181478
 10
3.079561719843056
 20
23.48692330967555
 10
3.079561719843056
 20
23.49299910360596
  0
LWPOLYLINE
  5
7D3
330
1E
100
AcDbEntity
  8
5
100
AcDbPolyline
 90
        5
 70
     0
 43
0.0
 10
-5.189593819415629
 20
23.42920326733686
 10
-5.189593819415629
 20
23.45350644305843
 10
-5.189593819415629
 20
23.47477172181478
 10
-5.189593819415629
 20
23.48692330967556
 10
-5.189593819415629
 20
23.49299910360596
  0
LINE
  5
7DA
330
1E
100
AcDbEntity
  8
5
100
AcDbLine
 10
3.079561719843055
 20
23.49299910360595
 30
0.0
 11
-5.189593819415629
 21
23.49299910360595
 31
0.0
  0
LWPOLYLINE
  5
7DB
330
1E
100
AcDbEntity
  8
5
100
AcDbPolyline
 90
        4
 70
     0
 43
0.0
 10
4.276493124129584
 20
21.90114109384416
 10
4.282568918059971
 20
21.90114109384416
 10
4.291682608955562
 20
21.90114109384416
 10
4.306872093781531
 20
21.90114109384416
  0
LWPOLYLINE
  5
7E1
330
1E
100
AcDbEntity
  8
5
100
AcDbPolyline
 90
        4
 70
     0
 43
0.0
 10
4.276493124129584
 20
20.52497376861119
 10
4.282568918059971
 20
20.52497376861119
 10
4.291682608955562
 20
20.52497376861119
 10
4.306872093781531
 20
20.52497376861119
  0
LINE
  5
7E7
330
1E
100
AcDbEntity
  8
5
100
AcDbLine
 10
4.30687209378153
 20
20.52497376861118
 30
0.0
 11
4.30687209378153
 21
21.90114109384416
 31
0.0
  0
LINE
  5
7E8
330
1E
100
AcDbEntity
  8
5
100
AcDbLine
 10
4.30687209378153
 20
21.90114109384416
 30
0.0
 11
4.683571317465617
 21
21.90114109384416
 31
0.0
  0
LINE
  5
7E9
330
1E
100
AcDbEntity
  8
5
100
AcDbLine
 10
4.30687209378153
 20
20.52497376861118
 30
0.0
 11
4.683571317465617
 21
20.52497376861118
 31
0.0
  0
LINE
  5
7EA
330
1E
100
AcDbEntity
  8
5
100
AcDbLine
 10
4.683571317465617
 20
20.52497376861118
 30
0.0
 11
4.683571317465617
 21
21.90114109384416
 31
0.0
  0
LWPOLYLINE
  5
7EB
330
1E
100
AcDbEntity
  8
5
100
AcDbPolyline
 90
        5
 70
     0
 43
0.0
 10
4.683571317465616
 20
20.52497376861119
 10
4.70483659622197
 20
20.52497376861119
 10
4.726101874978327
 20
20.52497376861119
 10
4.738253462839112
 20
20.52497376861119
 10
4.744329256769497
 20
20.52497376861119
  0
LWPOLYLINE
  5
7F2
330
1E
100
AcDbEntity
  8
5
100
AcDbPolyline
 90
        5
 70
     0
 43
0.0
 10
4.683571317465616
 20
21.90114109384416
 10
4.70483659622197
 20
21.90114109384416
 10
4.726101874978327
 20
21.90114109384416
 10
4.738253462839112
 20
21.90114109384416
 10
4.744329256769497
 20
21.90114109384416
  0
LINE
  5
7F9
330
1E
100
AcDbEntity
  8
5
100
AcDbLine
 10
4.744329256769498
 20
20.52497376861118
 30
0.0
 11
4.744329256769498
 21
21.90114109384416
 31
0.0
  0
LWPOLYLINE
  5
7FA
330
1E
100
AcDbEntity
  8
5
100
AcDbPolyline
 90
        4
 70
     0
 43
0.0
 10
-6.386525223702157
 20
20.52497376861119
 10
-6.38956312066735
 20
20.52497376861119
 10
-6.401714708528125
 20
20.52497376861119
 10
-6.416904193354092
 20
20.52497376861119
  0
LWPOLYLINE
  5
800
330
1E
100
AcDbEntity
  8
5
100
AcDbPolyline
 90
        4
 70
     0
 43
0.0
 10
-6.386525223702157
 20
21.90114109384418
 10
-6.38956312066735
 20
21.90114109384418
 10
-6.401714708528125
 20
21.90114109384418
 10
-6.416904193354092
 20
21.90114109384418
  0
LINE
  5
806
330
1E
100
AcDbEntity
  8
5
100
AcDbLine
 10
-6.416904193354092
 20
21.90114109384418
 30
0.0
 11
-6.416904193354092
 21
20.52497376861118
 31
0.0
  0
LINE
  5
807
330
1E
100
AcDbEntity
  8
5
100
AcDbLine
 10
-6.416904193354092
 20
20.52497376861118
 30
0.0
 11
-6.790565520072986
 21
20.52497376861118
 31
0.0
  0
LINE
  5
808
330
1E
100
AcDbEntity
  8
5
100
AcDbLine
 10
-6.416904193354092
 20
21.90114109384418
 30
0.0
 11
-6.790565520072986
 21
21.90114109384418
 31
0.0
  0
LINE
  5
809
330
1E
100
AcDbEntity
  8
5
100
AcDbLine
 10
-6.790565520072986
 20
21.90114109384418
 30
0.0
 11
-6.790565520072986
 21
20.52497376861118
 31
0.0
  0
LWPOLYLINE
  5
80A
330
1E
100
AcDbEntity
  8
5
100
AcDbPolyline
 90
        5
 70
     0
 43
0.0
 10
-6.790565520072985
 20
21.90114109384418
 10
-6.814868695794545
 20
21.90114109384418
 10
-6.836133974550899
 20
21.90114109384418
 10
-6.848285562411674
 20
21.90114109384418
 10
-6.854361356342072
 20
21.90114109384418
  0
LWPOLYLINE
  5
811
330
1E
100
AcDbEntity
  8
5
100
AcDbPolyline
 90
        5
 70
     0
 43
0.0
 10
-6.790565520072985
 20
20.52497376861119
 10
-6.814868695794545
 20
20.52497376861119
 10
-6.836133974550899
 20
20.52497376861119
 10
-6.848285562411674
 20
20.52497376861119
 10
-6.854361356342072
 20
20.52497376861119
  0
LINE
  5
818
330
1E
100
AcDbEntity
  8
5
100
AcDbLine
 10
-6.854361356342073
 20
21.90114109384418
 30
0.0
 11
-6.854361356342073
 21
20.52497376861118
 31
0.0
  0
LINE
  5
819
330
1E
100
AcDbEntity
  8
5
100
AcDbLine
 10
3.283100816511077
 20
19.44044455203685
 30
0.0
 11
3.283100816511077
 21
19.40702768541971
 31
0.0
  0
LINE
  5
81A
330
1E
100
AcDbEntity
  8
5
100
AcDbLine
 10
4.270417330199197
 20
20.40345789000342
 30
0.0
 11
4.24003836054725
 21
20.40345789000342
 31
0.0
  0
LINE
  5
81B
330
1E
100
AcDbEntity
  8
5
100
AcDbLine
 10
3.283100816511077
 20
23.01908717703565
 30
0.0
 11
3.283100816511077
 21
22.98567031041851
 31
0.0
  0
LINE
  5
81C
330
1E
100
AcDbEntity
  8
5
100
AcDbLine
 10
4.24003836054725
 20
22.02265697245194
 30
0.0
 11
4.270417330199197
 21
22.02265697245194
 31
0.0
  0
LINE
  5
81D
330
1E
100
AcDbEntity
  8
5
100
AcDbLine
 10
-5.39313291608364
 20
22.98567031041851
 30
0.0
 11
-5.39313291608364
 21
23.01908717703565
 31
0.0
  0
LINE
  5
81E
330
1E
100
AcDbEntity
  8
5
100
AcDbLine
 10
-6.38044942977177
 20
22.02265697245194
 30
0.0
 11
-6.34703256315463
 21
22.02265697245194
 31
0.0
  0
LINE
  5
81F
330
1E
100
AcDbEntity
  8
5
100
AcDbLine
 10
-5.39313291608364
 20
19.40702768541971
 30
0.0
 11
-5.39313291608364
 21
19.44044455203685
 31
0.0
  0
LINE
  5
820
330
1E
100
AcDbEntity
  8
5
100
AcDbLine
 10
-6.34703256315463
 20
20.40345789000342
 30
0.0
 11
-6.38044942977177
 21
20.40345789000342
 31
0.0
  0
LINE
  5
821
330
1E
100
AcDbEntity
  8
5
100
AcDbLine
 10
3.155509143972916
 20
22.99478400131409
 30
0.0
 11
3.155509143972916
 21
23.02516297096603
 31
0.0
  0
LINE
  5
822
330
1E
100
AcDbEntity
  8
5
100
AcDbLine
 10
3.155509143972916
 20
19.40095189148931
 30
0.0
 11
3.155509143972916
 21
19.43133086114126
 31
0.0
  0
LINE
  5
823
330
1E
100
AcDbEntity
  8
5
100
AcDbLine
 10
-5.262503346580285
 20
19.43133086114127
 30
0.0
 11
-5.262503346580285
 21
19.40095189148932
 31
0.0
  0
LINE
  5
824
330
1E
100
AcDbEntity
  8
5
100
AcDbLine
 10
-5.262503346580285
 20
23.02516297096603
 30
0.0
 11
-5.262503346580285
 21
22.99478400131409
 31
0.0
  0
LWPOLYLINE
  5
825
330
1E
100
AcDbEntity
  8
5
100
AcDbPolyline
 90
        3
 70
     0
 43
0.0
 10
-5.262503346580285
 20
22.99478400131409
 10
-5.253389655684705
 20
22.9917461043489
 10
-5.250351758719511
 20
22.98263241345332
  0
LINE
  5
82A
330
1E
100
AcDbEntity
  8
5
100
AcDbLine
 10
-5.250351758719511
 20
22.98263241345332
 30
0.0
 11
-5.216934892102382
 21
22.9917461043489
 31
0.0
  0
LWPOLYLINE
  5
82B
330
1E
100
AcDbEntity
  8
5
100
AcDbPolyline
 90
        4
 70
     0
 43
0.0
 10
-5.262503346580285
 20
23.02516297096604
 10
-5.244275964789124
 20
23.02212507400084
 10
-5.226048582997963
 20
23.00997348614007
 10
-5.216934892102382
 20
22.9917461043489
  0
LWPOLYLINE
  5
831
330
1E
100
AcDbEntity
  8
5
100
AcDbPolyline
 90
        4
 70
     0
 43
0.0
 10
-5.250351758719511
 20
22.98263241345332
 10
-5.238200170858736
 20
22.96440503166216
 10
-5.223010686032769
 20
22.95225344380137
 10
-5.204783304241597
 20
22.94617764987098
  0
LINE
  5
837
330
1E
100
AcDbEntity
  8
5
100
AcDbLine
 10
-5.204783304241597
 20
22.94617764987098
 30
0.0
 11
-5.204783304241597
 21
22.97959451648812
 31
0.0
  0
LWPOLYLINE
  5
838
330
1E
100
AcDbEntity
  8
5
100
AcDbPolyline
 90
        3
 70
     0
 43
0.0
 10
-5.216934892102382
 20
22.9917461043489
 10
-5.213896995137188
 20
22.98263241345332
 10
-5.204783304241597
 20
22.97959451648812
  0
LINE
  5
83D
330
1E
100
AcDbEntity
  8
5
100
AcDbLine
 10
-5.204783304241597
 20
22.94617764987098
 30
0.0
 11
-5.189593819415629
 21
22.94617764987098
 31
0.0
  0
LINE
  5
83E
330
1E
100
AcDbEntity
  8
5
100
AcDbLine
 10
-5.204783304241597
 20
22.97959451648812
 30
0.0
 11
-5.189593819415629
 21
22.97959451648812
 31
0.0
  0
LWPOLYLINE
  5
83F
330
1E
100
AcDbEntity
  8
5
100
AcDbPolyline
 90
        4
 70
     0
 43
0.0
 10
-5.262503346580285
 20
19.40095189148933
 10
-5.244275964789124
 20
19.40398978845451
 10
-5.226048582997963
 20
19.4161413763153
 10
-5.216934892102382
 20
19.43436875810646
  0
LINE
  5
845
330
1E
100
AcDbEntity
  8
5
100
AcDbLine
 10
-5.216934892102382
 20
19.43436875810647
 30
0.0
 11
-5.250351758719511
 21
19.44348244900204
 31
0.0
  0
LWPOLYLINE
  5
846
330
1E
100
AcDbEntity
  8
5
100
AcDbPolyline
 90
        3
 70
     0
 43
0.0
 10
-5.262503346580285
 20
19.43133086114126
 10
-5.253389655684705
 20
19.43436875810646
 10
-5.250351758719511
 20
19.44348244900205
  0
LWPOLYLINE
  5
84B
330
1E
100
AcDbEntity
  8
5
100
AcDbPolyline
 90
        3
 70
     0
 43
0.0
 10
-5.216934892102382
 20
19.43436875810646
 10
-5.213896995137188
 20
19.44348244900205
 10
-5.204783304241597
 20
19.44652034596725
  0
LINE
  5
850
330
1E
100
AcDbEntity
  8
5
100
AcDbLine
 10
-5.204783304241597
 20
19.44652034596724
 30
0.0
 11
-5.204783304241597
 21
19.47993721258437
 31
0.0
  0
LWPOLYLINE
  5
851
330
1E
100
AcDbEntity
  8
5
100
AcDbPolyline
 90
        4
 70
     0
 43
0.0
 10
-5.250351758719511
 20
19.44348244900205
 10
-5.238200170858736
 20
19.46170983079321
 10
-5.223010686032769
 20
19.47386141865399
 10
-5.204783304241597
 20
19.47993721258436
  0
LINE
  5
857
330
1E
100
AcDbEntity
  8
5
100
AcDbLine
 10
-5.204783304241597
 20
19.44652034596724
 30
0.0
 11
-5.189593819415629
 21
19.44652034596724
 31
0.0
  0
LINE
  5
858
330
1E
100
AcDbEntity
  8
5
100
AcDbLine
 10
-5.204783304241597
 20
19.47993721258437
 30
0.0
 11
-5.189593819415629
 21
19.47993721258437
 31
0.0
  0
LWPOLYLINE
  5
859
330
1E
100
AcDbEntity
  8
5
100
AcDbPolyline
 90
        4
 70
     0
 43
0.0
 10
3.155509143972916
 20
23.02516297096604
 10
3.134243865216561
 20
23.02212507400084
 10
3.119054380390583
 20
23.00997348614006
 10
3.109940689495002
 20
22.9917461043489
  0
LINE
  5
85F
330
1E
100
AcDbEntity
  8
5
100
AcDbLine
 10
3.109940689495001
 20
22.9917461043489
 30
0.0
 11
3.140319659146948
 21
22.98263241345332
 31
0.0
  0
LWPOLYLINE
  5
860
330
1E
100
AcDbEntity
  8
5
100
AcDbPolyline
 90
        3
 70
     0
 43
0.0
 10
3.155509143972916
 20
22.99478400131409
 10
3.146395453077336
 20
22.9917461043489
 10
3.140319659146948
 20
22.98263241345332
  0
LWPOLYLINE
  5
865
330
1E
100
AcDbEntity
  8
5
100
AcDbPolyline
 90
        3
 70
     0
 43
0.0
 10
3.109940689495002
 20
22.9917461043489
 10
3.103864895564615
 20
22.98263241345332
 10
3.094751204669034
 20
22.97959451648812
  0
LINE
  5
86A
330
1E
100
AcDbEntity
  8
5
100
AcDbLine
 10
3.094751204669034
 20
22.97959451648812
 30
0.0
 11
3.094751204669034
 21
22.94617764987098
 31
0.0
  0
LWPOLYLINE
  5
86B
330
1E
100
AcDbEntity
  8
5
100
AcDbPolyline
 90
        4
 70
     0
 43
0.0
 10
3.140319659146948
 20
22.98263241345332
 10
3.131205968251368
 20
22.96440503166214
 10
3.116016483425389
 20
22.95225344380137
 10
3.094751204669034
 20
22.94617764987098
  0
LINE
  5
871
330
1E
100
AcDbEntity
  8
5
100
AcDbLine
 10
3.094751204669034
 20
22.97959451648812
 30
0.0
 11
3.079561719843055
 21
22.97959451648812
 31
0.0
  0
LINE
  5
872
330
1E
100
AcDbEntity
  8
5
100
AcDbLine
 10
3.094751204669034
 20
22.94617764987098
 30
0.0
 11
3.079561719843055
 21
22.94617764987098
 31
0.0
  0
LWPOLYLINE
  5
873
330
1E
100
AcDbEntity
  8
5
100
AcDbPolyline
 90
        3
 70
     0
 43
0.0
 10
3.155509143972916
 20
19.43133086114126
 10
3.146395453077336
 20
19.43436875810646
 10
3.140319659146948
 20
19.44348244900205
  0
LINE
  5
878
330
1E
100
AcDbEntity
  8
5
100
AcDbLine
 10
3.140319659146948
 20
19.44348244900204
 30
0.0
 11
3.109940689495001
 21
19.43436875810645
 31
0.0
  0
LWPOLYLINE
  5
879
330
1E
100
AcDbEntity
  8
5
100
AcDbPolyline
 90
        4
 70
     0
 43
0.0
 10
3.155509143972916
 20
19.40095189148932
 10
3.134243865216561
 20
19.40398978845451
 10
3.119054380390583
 20
19.4161413763153
 10
3.109940689495002
 20
19.43436875810646
  0
LWPOLYLINE
  5
87F
330
1E
100
AcDbEntity
  8
5
100
AcDbPolyline
 90
        4
 70
     0
 43
0.0
 10
3.140319659146948
 20
19.44348244900205
 10
3.131205968251368
 20
19.46170983079321
 10
3.116016483425389
 20
19.47386141865399
 10
3.094751204669034
 20
19.47993721258436
  0
LINE
  5
885
330
1E
100
AcDbEntity
  8
5
100
AcDbLine
 10
3.094751204669034
 20
19.47993721258437
 30
0.0
 11
3.094751204669034
 21
19.44652034596724
 31
0.0
  0
LWPOLYLINE
  5
886
330
1E
100
AcDbEntity
  8
5
100
AcDbPolyline
 90
        3
 70
     0
 43
0.0
 10
3.109940689495002
 20
19.43436875810646
 10
3.103864895564615
 20
19.44348244900205
 10
3.094751204669034
 20
19.44652034596725
  0
LINE
  5
88B
330
1E
100
AcDbEntity
  8
5
100
AcDbLine
 10
3.094751204669034
 20
19.47993721258437
 30
0.0
 11
3.079561719843055
 21
19.47993721258437
 31
0.0
  0
LINE
  5
88C
330
1E
100
AcDbEntity
  8
5
100
AcDbLine
 10
3.094751204669034
 20
19.44652034596724
 30
0.0
 11
3.079561719843055
 21
19.44652034596724
 31
0.0
  0
LWPOLYLINE
  5
88D
330
1E
100
AcDbEntity
  8
5
100
AcDbPolyline
 90
        3
 70
     0
 43
0.0
 10
2.730203568845722
 20
22.52390997170899
 10
2.730203568845722
 20
22.57555422011729
 10
2.730203568845722
 20
22.57859211708248
  0
LINE
  5
892
330
1E
100
AcDbEntity
  8
5
100
AcDbLine
 10
2.730203568845722
 20
22.52390997170898
 30
0.0
 11
2.730203568845722
 21
22.52390997170898
 31
0.0
  0
LWPOLYLINE
  5
893
330
1E
100
AcDbEntity
  8
5
100
AcDbPolyline
 90
        7
 70
     0
 43
0.0
 10
2.730203568845722
 20
22.52390997170899
 10
2.748430950636894
 20
22.50872048688301
 10
2.760582538497668
 20
22.48745520812665
 10
2.763620435462862
 20
22.46011413543991
 10
2.760582538497668
 20
22.43581095971836
 10
2.748430950636894
 20
22.41454568096199
 10
2.730203568845722
 20
22.39631829917083
  0
LINE
  5
89C
330
1E
100
AcDbEntity
  8
5
100
AcDbLine
 10
2.730203568845722
 20
22.39631829917083
 30
0.0
 11
2.730203568845722
 21
22.39631829917083
 31
0.0
  0
LWPOLYLINE
  5
89D
330
1E
100
AcDbEntity
  8
5
100
AcDbPolyline
 90
        3
 70
     0
 43
0.0
 10
2.730203568845722
 20
22.34163615379734
 10
2.730203568845722
 20
22.39024250524044
 10
2.730203568845722
 20
22.39631829917083
  0
LWPOLYLINE
  5
8A2
330
1E
100
AcDbEntity
  8
5
100
AcDbPolyline
 90
       10
 70
     0
 43
0.0
 10
2.730203568845722
 20
22.34163615379734
 10
2.760582538497668
 20
22.35986353558851
 10
2.784885714219217
 20
22.38112881434485
 10
2.803113096010388
 20
22.4115077839968
 10
2.815264683871163
 20
22.44492465061394
 10
2.815264683871163
 20
22.47834151723107
 10
2.803113096010388
 20
22.51175838384821
 10
2.784885714219217
 20
22.54213735350016
 10
2.760582538497668
 20
22.56340263225652
 10
2.730203568845722
 20
22.57859211708248
  0
LWPOLYLINE
  5
8AE
330
1E
100
AcDbEntity
  8
5
100
AcDbPolyline
 90
       10
 70
     0
 43
0.0
 10
2.651218247750679
 20
22.57859211708248
 10
2.620839278098732
 20
22.56340263225652
 10
2.59349820541198
 20
22.54213735350016
 10
2.575270823620819
 20
22.51175838384821
 10
2.566157132725238
 20
22.47834151723107
 10
2.566157132725238
 20
22.44492465061394
 10
2.575270823620819
 20
22.4115077839968
 10
2.59349820541198
 20
22.38112881434485
 10
2.620839278098732
 20
22.35986353558851
 10
2.651218247750679
 20
22.34163615379734
  0
LWPOLYLINE
  5
8BA
330
1E
100
AcDbEntity
  8
5
100
AcDbPolyline
 90
        7
 70
     0
 43
0.0
 10
2.690710908298195
 20
22.46922782633549
 10
2.681597217402615
 20
22.46618992937029
 10
2.681597217402615
 20
22.45707623847472
 10
2.690710908298195
 20
22.45100044454432
 10
2.696786702228582
 20
22.45707623847472
 10
2.696786702228582
 20
22.46618992937029
 10
2.690710908298195
 20
22.46922782633549
  0
LWPOLYLINE
  5
8C3
330
1E
100
AcDbEntity
  8
5
100
AcDbPolyline
 90
       10
 70
     0
 43
0.0
 10
2.690710908298195
 20
22.44492465061394
 10
2.678559320437421
 20
22.44796254757914
 10
2.672483526507034
 20
22.45707623847472
 10
2.675521423472227
 20
22.46922782633549
 10
2.684635114367808
 20
22.47834151723107
 10
2.696786702228582
 20
22.47834151723107
 10
2.705900393124173
 20
22.46922782633549
 10
2.708938290089367
 20
22.45707623847472
 10
2.702862496158969
 20
22.44796254757914
 10
2.690710908298195
 20
22.44492465061394
  0
LWPOLYLINE
  5
8CF
330
1E
100
AcDbEntity
  8
5
100
AcDbPolyline
 90
        6
 70
     0
 43
0.0
 10
2.651218247750679
 20
22.52390997170899
 10
2.666407732576646
 20
22.52390997170899
 10
2.681597217402615
 20
22.52390997170899
 10
2.696786702228582
 20
22.52390997170899
 10
2.708938290089367
 20
22.52390997170899
 10
2.730203568845722
 20
22.52390997170899
  0
LWPOLYLINE
  5
8D7
330
1E
100
AcDbEntity
  8
5
100
AcDbPolyline
 90
        7
 70
     0
 43
0.0
 10
2.651218247750679
 20
22.39631829917083
 10
2.632990865959507
 20
22.41454568096199
 10
2.620839278098732
 20
22.43581095971836
 10
2.614763484168346
 20
22.46011413543991
 10
2.620839278098732
 20
22.48745520812665
 10
2.632990865959507
 20
22.50872048688301
 10
2.651218247750679
 20
22.52390997170899
  0
LWPOLYLINE
  5
8E0
330
1E
100
AcDbEntity
  8
5
100
AcDbPolyline
 90
        6
 70
     0
 43
0.0
 10
2.730203568845722
 20
22.39631829917083
 10
2.708938290089367
 20
22.39631829917083
 10
2.696786702228582
 20
22.39631829917083
 10
2.681597217402615
 20
22.39631829917083
 10
2.666407732576646
 20
22.39631829917083
 10
2.651218247750679
 20
22.39631829917083
  0
LWPOLYLINE
  5
8E8
330
1E
100
AcDbEntity
  8
5
100
AcDbPolyline
 90
        3
 70
     0
 43
0.0
 10
2.651218247750679
 20
22.57859211708248
 10
2.651218247750679
 20
22.57555422011729
 10
2.651218247750679
 20
22.52390997170899
  0
LWPOLYLINE
  5
8ED
330
1E
100
AcDbEntity
  8
5
100
AcDbPolyline
 90
        3
 70
     0
 43
0.0
 10
2.651218247750679
 20
22.39631829917083
 10
2.651218247750679
 20
22.39024250524044
 10
2.651218247750679
 20
22.34163615379734
  0
LINE
  5
8F2
330
1E
100
AcDbEntity
  8
5
100
AcDbLine
 10
2.651218247750679
 20
22.39631829917083
 30
0.0
 11
2.651218247750679
 21
22.39631829917083
 31
0.0
  0
LINE
  5
8F3
330
1E
100
AcDbEntity
  8
5
100
AcDbLine
 10
2.651218247750679
 20
22.52390997170898
 30
0.0
 11
2.651218247750679
 21
22.52390997170898
 31
0.0
  0
LWPOLYLINE
  5
8F4
330
1E
100
AcDbEntity
  8
5
100
AcDbPolyline
 90
        3
 70
     0
 43
0.0
 10
2.730203568845722
 20
20.02979656328454
 10
2.730203568845722
 20
20.07840291472763
 10
2.730203568845722
 20
20.08447870865803
  0
LINE
  5
8F9
330
1E
100
AcDbEntity
  8
5
100
AcDbLine
 10
2.730203568845722
 20
20.02979656328453
 30
0.0
 11
2.730203568845722
 21
20.02979656328453
 31
0.0
  0
LWPOLYLINE
  5
8FA
330
1E
100
AcDbEntity
  8
5
100
AcDbPolyline
 90
        7
 70
     0
 43
0.0
 10
2.730203568845722
 20
20.02979656328454
 10
2.748430950636894
 20
20.01156918149336
 10
2.760582538497668
 20
19.990303902737
 10
2.763620435462862
 20
19.96600072701544
 10
2.760582538497668
 20
19.9386596543287
 10
2.748430950636894
 20
19.91739437557233
 10
2.730203568845722
 20
19.90220489074636
  0
LINE
  5
903
330
1E
100
AcDbEntity
  8
5
100
AcDbLine
 10
2.730203568845722
 20
19.90220489074637
 30
0.0
 11
2.730203568845722
 21
19.90220489074637
 31
0.0
  0
LWPOLYLINE
  5
904
330
1E
100
AcDbEntity
  8
5
100
AcDbPolyline
 90
        3
 70
     0
 43
0.0
 10
2.730203568845722
 20
19.84752274537287
 10
2.730203568845722
 20
19.89309119985079
 10
2.730203568845722
 20
19.90220489074636
  0
LWPOLYLINE
  5
909
330
1E
100
AcDbEntity
  8
5
100
AcDbPolyline
 90
       10
 70
     0
 43
0.0
 10
2.730203568845722
 20
19.84752274537287
 10
2.760582538497668
 20
19.86271223019884
 10
2.784885714219217
 20
19.8839775089552
 10
2.803113096010388
 20
19.91435647860715
 10
2.815264683871163
 20
19.94777334522428
 10
2.815264683871163
 20
19.98119021184143
 10
2.803113096010388
 20
20.01460707845855
 10
2.784885714219217
 20
20.0449860481105
 10
2.760582538497668
 20
20.06625132686685
 10
2.730203568845722
 20
20.08447870865803
  0
LWPOLYLINE
  5
915
330
1E
100
AcDbEntity
  8
5
100
AcDbPolyline
 90
       10
 70
     0
 43
0.0
 10
2.651218247750679
 20
20.08447870865803
 10
2.620839278098732
 20
20.06625132686685
 10
2.59349820541198
 20
20.0449860481105
 10
2.575270823620819
 20
20.01460707845855
 10
2.566157132725238
 20
19.98119021184143
 10
2.566157132725238
 20
19.94777334522428
 10
2.575270823620819
 20
19.91435647860715
 10
2.59349820541198
 20
19.8839775089552
 10
2.620839278098732
 20
19.86271223019884
 10
2.651218247750679
 20
19.84752274537287
  0
LWPOLYLINE
  5
921
330
1E
100
AcDbEntity
  8
5
100
AcDbPolyline
 90
        7
 70
     0
 43
0.0
 10
2.690710908298195
 20
19.97511441791102
 10
2.681597217402615
 20
19.96903862398064
 10
2.681597217402615
 20
19.95992493308505
 10
2.690710908298195
 20
19.95688703611987
 10
2.696786702228582
 20
19.95992493308505
 10
2.696786702228582
 20
19.96903862398064
 10
2.690710908298195
 20
19.97511441791102
  0
LWPOLYLINE
  5
92A
330
1E
100
AcDbEntity
  8
5
100
AcDbPolyline
 90
       10
 70
     0
 43
0.0
 10
2.690710908298195
 20
19.94777334522428
 10
2.678559320437421
 20
19.95081124218948
 10
2.672483526507034
 20
19.96296283005025
 10
2.675521423472227
 20
19.97511441791102
 10
2.684635114367808
 20
19.98119021184143
 10
2.696786702228582
 20
19.98119021184143
 10
2.705900393124173
 20
19.97511441791102
 10
2.708938290089367
 20
19.96296283005025
 10
2.702862496158969
 20
19.95081124218948
 10
2.690710908298195
 20
19.94777334522428
  0
LWPOLYLINE
  5
936
330
1E
100
AcDbEntity
  8
5
100
AcDbPolyline
 90
        6
 70
     0
 43
0.0
 10
2.651218247750679
 20
20.02979656328454
 10
2.666407732576646
 20
20.02979656328454
 10
2.681597217402615
 20
20.02979656328454
 10
2.696786702228582
 20
20.02979656328454
 10
2.708938290089367
 20
20.02979656328454
 10
2.730203568845722
 20
20.02979656328454
  0
LWPOLYLINE
  5
93E
330
1E
100
AcDbEntity
  8
5
100
AcDbPolyline
 90
        7
 70
     0
 43
0.0
 10
2.651218247750679
 20
19.90220489074636
 10
2.632990865959507
 20
19.91739437557233
 10
2.620839278098732
 20
19.9386596543287
 10
2.614763484168346
 20
19.96600072701544
 10
2.620839278098732
 20
19.990303902737
 10
2.632990865959507
 20
20.01156918149336
 10
2.651218247750679
 20
20.02979656328454
  0
LWPOLYLINE
  5
947
330
1E
100
AcDbEntity
  8
5
100
AcDbPolyline
 90
        6
 70
     0
 43
0.0
 10
2.730203568845722
 20
19.90220489074636
 10
2.708938290089367
 20
19.90220489074636
 10
2.696786702228582
 20
19.90220489074636
 10
2.681597217402615
 20
19.90220489074636
 10
2.666407732576646
 20
19.90220489074636
 10
2.651218247750679
 20
19.90220489074636
  0
LWPOLYLINE
  5
94F
330
1E
100
AcDbEntity
  8
5
100
AcDbPolyline
 90
        3
 70
     0
 43
0.0
 10
2.651218247750679
 20
20.08447870865803
 10
2.651218247750679
 20
20.07840291472763
 10
2.651218247750679
 20
20.02979656328454
  0
LWPOLYLINE
  5
954
330
1E
100
AcDbEntity
  8
5
100
AcDbPolyline
 90
        3
 70
     0
 43
0.0
 10
2.651218247750679
 20
19.90220489074636
 10
2.651218247750679
 20
19.89309119985079
 10
2.651218247750679
 20
19.84752274537287
  0
LINE
  5
959
330
1E
100
AcDbEntity
  8
5
100
AcDbLine
 10
2.651218247750679
 20
19.90220489074637
 30
0.0
 11
2.651218247750679
 21
19.90220489074637
 31
0.0
  0
LINE
  5
95A
330
1E
100
AcDbEntity
  8
5
100
AcDbLine
 10
2.651218247750679
 20
20.02979656328453
 30
0.0
 11
2.651218247750679
 21
20.02979656328453
 31
0.0
  0
LWPOLYLINE
  5
95B
330
1E
100
AcDbEntity
  8
5
100
AcDbPolyline
 90
        3
 70
     0
 43
0.0
 10
-4.758212450358048
 20
22.52390997170899
 10
-4.758212450358048
 20
22.5755542201173
 10
-4.758212450358048
 20
22.5785921170825
  0
LINE
  5
960
330
1E
100
AcDbEntity
  8
5
100
AcDbLine
 10
-4.761250347323241
 20
22.523909971709
 30
0.0
 11
-4.758212450358048
 21
22.523909971709
 31
0.0
  0
LWPOLYLINE
  5
961
330
1E
100
AcDbEntity
  8
5
100
AcDbPolyline
 90
        7
 70
     0
 43
0.0
 10
-4.761250347323241
 20
22.52390997170899
 10
-4.739985068566887
 20
22.50872048688301
 10
-4.727833480706112
 20
22.48745520812666
 10
-4.724795583740908
 20
22.46011413543991
 10
-4.727833480706112
 20
22.43581095971836
 10
-4.739985068566887
 20
22.41454568096199
 10
-4.761250347323241
 20
22.39631829917083
  0
LINE
  5
96A
330
1E
100
AcDbEntity
  8
5
100
AcDbLine
 10
-4.758212450358048
 20
22.39631829917083
 30
0.0
 11
-4.761250347323241
 21
22.39631829917083
 31
0.0
  0
LWPOLYLINE
  5
96B
330
1E
100
AcDbEntity
  8
5
100
AcDbPolyline
 90
        3
 70
     0
 43
0.0
 10
-4.758212450358048
 20
22.34163615379734
 10
-4.758212450358048
 20
22.39024250524046
 10
-4.758212450358048
 20
22.39631829917083
  0
LWPOLYLINE
  5
970
330
1E
100
AcDbEntity
  8
5
100
AcDbPolyline
 90
       10
 70
     0
 43
0.0
 10
-4.758212450358048
 20
22.34163615379734
 10
-4.727833480706112
 20
22.35986353558851
 10
-4.703530304984553
 20
22.38112881434486
 10
-4.685302923193392
 20
22.4115077839968
 10
-4.676189232297801
 20
22.44492465061394
 10
-4.676189232297801
 20
22.47834151723107
 10
-4.685302923193392
 20
22.51175838384821
 10
-4.703530304984553
 20
22.54213735350016
 10
-4.727833480706112
 20
22.56340263225652
 10
-4.758212450358048
 20
22.5785921170825
  0
LWPOLYLINE
  5
97C
330
1E
100
AcDbEntity
  8
5
100
AcDbPolyline
 90
       10
 70
     0
 43
0.0
 10
-4.840235668418295
 20
22.5785921170825
 10
-4.870614638070231
 20
22.56340263225652
 10
-4.89491781379179
 20
22.54213735350016
 10
-4.913145195582951
 20
22.51175838384821
 10
-4.922258886478543
 20
22.47834151723107
 10
-4.922258886478543
 20
22.44492465061394
 10
-4.913145195582951
 20
22.4115077839968
 10
-4.89491781379179
 20
22.38112881434486
 10
-4.870614638070231
 20
22.35986353558851
 10
-4.840235668418295
 20
22.34163615379734
  0
LWPOLYLINE
  5
988
330
1E
100
AcDbEntity
  8
5
100
AcDbPolyline
 90
        7
 70
     0
 43
0.0
 10
-4.797705110905575
 20
22.46922782633549
 10
-4.806818801801155
 20
22.46618992937029
 10
-4.806818801801155
 20
22.45707623847472
 10
-4.797705110905575
 20
22.45100044454432
 10
-4.791629316975188
 20
22.45707623847472
 10
-4.791629316975188
 20
22.46618992937029
 10
-4.797705110905575
 20
22.46922782633549
  0
LWPOLYLINE
  5
991
330
1E
100
AcDbEntity
  8
5
100
AcDbPolyline
 90
       10
 70
     0
 43
0.0
 10
-4.797705110905575
 20
22.44492465061394
 10
-4.809856698766349
 20
22.44796254757914
 10
-4.815932492696736
 20
22.45707623847472
 10
-4.815932492696736
 20
22.46922782633549
 10
-4.803780904835962
 20
22.47834151723107
 10
-4.791629316975188
 20
22.47834151723107
 10
-4.782515626079607
 20
22.46922782633549
 10
-4.782515626079607
 20
22.45707623847472
 10
-4.788591420009995
 20
22.44796254757914
 10
-4.797705110905575
 20
22.44492465061394
  0
LWPOLYLINE
  5
99D
330
1E
100
AcDbEntity
  8
5
100
AcDbPolyline
 90
        6
 70
     0
 43
0.0
 10
-4.837197771453102
 20
22.52390997170899
 10
-4.822008286627123
 20
22.52390997170899
 10
-4.806818801801155
 20
22.52390997170899
 10
-4.791629316975188
 20
22.52390997170899
 10
-4.779477729114403
 20
22.52390997170899
 10
-4.761250347323241
 20
22.52390997170899
  0
LWPOLYLINE
  5
9A5
330
1E
100
AcDbEntity
  8
5
100
AcDbPolyline
 90
        7
 70
     0
 43
0.0
 10
-4.837197771453102
 20
22.39631829917083
 10
-4.858463050209457
 20
22.41454568096199
 10
-4.870614638070231
 20
22.43581095971836
 10
-4.873652535035424
 20
22.46011413543991
 10
-4.870614638070231
 20
22.48745520812666
 10
-4.858463050209457
 20
22.50872048688301
 10
-4.837197771453102
 20
22.52390997170899
  0
LWPOLYLINE
  5
9AE
330
1E
100
AcDbEntity
  8
5
100
AcDbPolyline
 90
        6
 70
     0
 43
0.0
 10
-4.761250347323241
 20
22.39631829917083
 10
-4.779477729114403
 20
22.39631829917083
 10
-4.791629316975188
 20
22.39631829917083
 10
-4.806818801801155
 20
22.39631829917083
 10
-4.822008286627123
 20
22.39631829917083
 10
-4.837197771453102
 20
22.39631829917083
  0
LWPOLYLINE
  5
9B6
330
1E
100
AcDbEntity
  8
5
100
AcDbPolyline
 90
        3
 70
     0
 43
0.0
 10
-4.840235668418295
 20
22.5785921170825
 10
-4.840235668418295
 20
22.5755542201173
 10
-4.840235668418295
 20
22.52390997170899
  0
LWPOLYLINE
  5
9BB
330
1E
100
AcDbEntity
  8
5
100
AcDbPolyline
 90
        3
 70
     0
 43
0.0
 10
-4.840235668418295
 20
22.39631829917083
 10
-4.840235668418295
 20
22.39024250524046
 10
-4.840235668418295
 20
22.34163615379734
  0
LINE
  5
9C0
330
1E
100
AcDbEntity
  8
5
100
AcDbLine
 10
-4.837197771453102
 20
22.39631829917083
 30
0.0
 11
-4.840235668418295
 21
22.39631829917083
 31
0.0
  0
LINE
  5
9C1
330
1E
100
AcDbEntity
  8
5
100
AcDbLine
 10
-4.840235668418295
 20
22.523909971709
 30
0.0
 11
-4.837197771453102
 21
22.523909971709
 31
0.0
  0
LWPOLYLINE
  5
9C2
330
1E
100
AcDbEntity
  8
5
100
AcDbPolyline
 90
        3
 70
     0
 43
0.0
 10
-4.758212450358048
 20
20.02979656328454
 10
-4.758212450358048
 20
20.07840291472763
 10
-4.758212450358048
 20
20.08447870865803
  0
LINE
  5
9C7
330
1E
100
AcDbEntity
  8
5
100
AcDbLine
 10
-4.761250347323241
 20
20.02979656328453
 30
0.0
 11
-4.758212450358048
 21
20.02979656328453
 31
0.0
  0
LWPOLYLINE
  5
9C8
330
1E
100
AcDbEntity
  8
5
100
AcDbPolyline
 90
        7
 70
     0
 43
0.0
 10
-4.761250347323241
 20
20.02979656328454
 10
-4.739985068566887
 20
20.01156918149337
 10
-4.727833480706112
 20
19.990303902737
 10
-4.724795583740908
 20
19.96600072701544
 10
-4.727833480706112
 20
19.9386596543287
 10
-4.739985068566887
 20
19.91739437557234
 10
-4.761250347323241
 20
19.90220489074636
  0
LINE
  5
9D1
330
1E
100
AcDbEntity
  8
5
100
AcDbLine
 10
-4.758212450358048
 20
19.90220489074637
 30
0.0
 11
-4.761250347323241
 21
19.90220489074637
 31
0.0
  0
LWPOLYLINE
  5
9D2
330
1E
100
AcDbEntity
  8
5
100
AcDbPolyline
 90
        3
 70
     0
 43
0.0
 10
-4.758212450358048
 20
19.84752274537287
 10
-4.758212450358048
 20
19.89309119985079
 10
-4.758212450358048
 20
19.90220489074636
  0
LWPOLYLINE
  5
9D7
330
1E
100
AcDbEntity
  8
5
100
AcDbPolyline
 90
       10
 70
     0
 43
0.0
 10
-4.758212450358048
 20
19.84752274537287
 10
-4.727833480706112
 20
19.86271223019884
 10
-4.703530304984553
 20
19.88397750895521
 10
-4.685302923193392
 20
19.91435647860715
 10
-4.676189232297801
 20
19.94777334522428
 10
-4.676189232297801
 20
19.98119021184143
 10
-4.685302923193392
 20
20.01460707845855
 10
-4.703530304984553
 20
20.0449860481105
 10
-4.727833480706112
 20
20.06625132686687
 10
-4.758212450358048
 20
20.08447870865803
  0
LWPOLYLINE
  5
9E3
330
1E
100
AcDbEntity
  8
5
100
AcDbPolyline
 90
       10
 70
     0
 43
0.0
 10
-4.840235668418295
 20
20.08447870865803
 10
-4.870614638070231
 20
20.06625132686687
 10
-4.89491781379179
 20
20.0449860481105
 10
-4.913145195582951
 20
20.01460707845855
 10
-4.922258886478543
 20
19.98119021184143
 10
-4.922258886478543
 20
19.94777334522428
 10
-4.913145195582951
 20
19.91435647860715
 10
-4.89491781379179
 20
19.88397750895521
 10
-4.870614638070231
 20
19.86271223019884
 10
-4.840235668418295
 20
19.84752274537287
  0
LWPOLYLINE
  5
9EF
330
1E
100
AcDbEntity
  8
5
100
AcDbPolyline
 90
        7
 70
     0
 43
0.0
 10
-4.797705110905575
 20
19.97511441791103
 10
-4.806818801801155
 20
19.96903862398065
 10
-4.806818801801155
 20
19.95992493308505
 10
-4.797705110905575
 20
19.95688703611987
 10
-4.791629316975188
 20
19.95992493308505
 10
-4.791629316975188
 20
19.96903862398065
 10
-4.797705110905575
 20
19.97511441791103
  0
LWPOLYLINE
  5
9F8
330
1E
100
AcDbEntity
  8
5
100
AcDbPolyline
 90
       10
 70
     0
 43
0.0
 10
-4.797705110905575
 20
19.94777334522428
 10
-4.809856698766349
 20
19.95081124218948
 10
-4.815932492696736
 20
19.96296283005025
 10
-4.815932492696736
 20
19.97511441791103
 10
-4.803780904835962
 20
19.98119021184143
 10
-4.791629316975188
 20
19.98119021184143
 10
-4.782515626079607
 20
19.97511441791103
 10
-4.782515626079607
 20
19.96296283005025
 10
-4.788591420009995
 20
19.95081124218948
 10
-4.797705110905575
 20
19.94777334522428
  0
LWPOLYLINE
  5
A04
330
1E
100
AcDbEntity
  8
5
100
AcDbPolyline
 90
        6
 70
     0
 43
0.0
 10
-4.837197771453102
 20
20.02979656328454
 10
-4.822008286627123
 20
20.02979656328454
 10
-4.806818801801155
 20
20.02979656328454
 10
-4.791629316975188
 20
20.02979656328454
 10
-4.779477729114403
 20
20.02979656328454
 10
-4.761250347323241
 20
20.02979656328454
  0
LWPOLYLINE
  5
A0C
330
1E
100
AcDbEntity
  8
5
100
AcDbPolyline
 90
        7
 70
     0
 43
0.0
 10
-4.837197771453102
 20
19.90220489074636
 10
-4.858463050209457
 20
19.91739437557234
 10
-4.870614638070231
 20
19.9386596543287
 10
-4.873652535035424
 20
19.96600072701544
 10
-4.870614638070231
 20
19.990303902737
 10
-4.858463050209457
 20
20.01156918149337
 10
-4.837197771453102
 20
20.02979656328454
  0
LWPOLYLINE
  5
A15
330
1E
100
AcDbEntity
  8
5
100
AcDbPolyline
 90
        6
 70
     0
 43
0.0
 10
-4.761250347323241
 20
19.90220489074636
 10
-4.779477729114403
 20
19.90220489074636
 10
-4.791629316975188
 20
19.90220489074636
 10
-4.806818801801155
 20
19.90220489074636
 10
-4.822008286627123
 20
19.90220489074636
 10
-4.837197771453102
 20
19.90220489074636
  0
LWPOLYLINE
  5
A1D
330
1E
100
AcDbEntity
  8
5
100
AcDbPolyline
 90
        3
 70
     0
 43
0.0
 10
-4.840235668418295
 20
20.08447870865803
 10
-4.840235668418295
 20
20.07840291472763
 10
-4.840235668418295
 20
20.02979656328454
  0
LWPOLYLINE
  5
A22
330
1E
100
AcDbEntity
  8
5
100
AcDbPolyline
 90
        3
 70
     0
 43
0.0
 10
-4.840235668418295
 20
19.90220489074636
 10
-4.840235668418295
 20
19.89309119985079
 10
-4.840235668418295
 20
19.84752274537287
  0
LINE
  5
A27
330
1E
100
AcDbEntity
  8
5
100
AcDbLine
 10
-4.837197771453102
 20
19.90220489074637
 30
0.0
 11
-4.840235668418295
 21
19.90220489074637
 31
0.0
  0
LINE
  5
A28
330
1E
100
AcDbEntity
  8
5
100
AcDbLine
 10
-4.840235668418295
 20
20.02979656328453
 30
0.0
 11
-4.837197771453102
 21
20.02979656328453
 31
0.0
  0
LINE
  5
A29
330
1E
100
AcDbEntity
  8
5
100
AcDbLine
 10
8.450563554306459
 20
21.60646508822032
 30
0.0
 11
9.425728480133804
 21
21.0444541496594
 31
0.0
  0
LINE
  5
A2A
330
1E
100
AcDbEntity
  8
5
100
AcDbLine
 10
8.487018317888781
 20
22.59681949887365
 30
0.0
 11
8.465753039132426
 21
22.58466791101287
 31
0.0
  0
LINE
  5
A2B
330
1E
100
AcDbEntity
  8
5
100
AcDbLine
 10
11.70111330706427
 20
21.07483311931134
 30
0.0
 11
15.02457258698676
 21
22.99478400131409
 31
0.0
  0
LINE
  5
A2C
330
1E
100
AcDbEntity
  8
5
100
AcDbLine
 10
15.59265931947809
 20
23.32287687355507
 30
0.0
 11
17.54602706809797
 21
24.44993664764213
 31
0.0
  0
LINE
  5
A2D
330
1E
100
AcDbEntity
  8
5
100
AcDbLine
 10
11.30314880462383
 20
21.19331110095392
 30
0.0
 11
11.28188352586747
 21
21.20546268881469
 31
0.0
  0
LINE
  5
A2E
330
1E
100
AcDbEntity
  8
5
100
AcDbLine
 10
9.82065508560905
 20
21.20850058577989
 30
0.0
 11
9.796351909887503
 21
21.19331110095392
 31
0.0
  0
LINE
  5
A2F
330
1E
100
AcDbEntity
  8
5
100
AcDbLine
 10
9.750783455409589
 20
21.22976586453624
 30
0.0
 11
9.434842171029384
 21
21.4120396824479
 31
0.0
  0
LINE
  5
A30
330
1E
100
AcDbEntity
  8
5
100
AcDbLine
 10
11.6919996161687
 20
21.44241865209984
 30
0.0
 11
11.37302043482329
 21
21.26014483418818
 31
0.0
  0
LINE
  5
A31
330
1E
100
AcDbEntity
  8
5
100
AcDbLine
 10
11.34567936213655
 20
20.69509599866206
 30
0.0
 11
11.34567936213655
 21
21.15381844040639
 31
0.0
  0
LINE
  5
A32
330
1E
100
AcDbEntity
  8
5
100
AcDbLine
 10
8.781694323512631
 20
21.17204582219755
 30
0.0
 11
9.753821352374782
 21
20.61003488363663
 31
0.0
  0
LINE
  5
A33
330
1E
100
AcDbEntity
  8
5
100
AcDbLine
 10
11.3699825378581
 20
20.64041385328856
 30
0.0
 11
14.45952375146063
 21
22.42365937185757
 31
0.0
  0
LINE
  5
A34
330
1E
100
AcDbEntity
  8
5
100
AcDbLine
 10
15.59569721644328
 20
23.07984511633953
 30
0.0
 11
17.217934195857
 21
24.01551738161935
 31
0.0
  0
LINE
  5
A35
330
1E
100
AcDbEntity
  8
5
100
AcDbLine
 10
8.438411966445684
 20
21.62773036697669
 30
0.0
 11
8.438411966445684
 21
21.59127560339436
 31
0.0
  0
LINE
  5
A36
330
1E
100
AcDbEntity
  8
5
100
AcDbLine
 10
14.27117413961859
 20
23.55983283684022
 30
0.0
 11
14.24990886086223
 21
23.57502232166619
 31
0.0
  0
LINE
  5
A37
330
1E
100
AcDbEntity
  8
5
100
AcDbLine
 10
8.711822693313157
 20
21.17812161612795
 30
0.0
 11
8.736125869034717
 21
21.19331110095392
 31
0.0
  0
LINE
  5
A38
330
1E
100
AcDbEntity
  8
5
100
AcDbLine
 10
8.763466941721459
 20
22.66061533514272
 30
0.0
 11
8.742201662965104
 21
22.6727669230035
 31
0.0
  0
LINE
  5
A39
330
1E
100
AcDbEntity
  8
5
100
AcDbLine
 10
9.206999898639825
 20
22.78820700768088
 30
0.0
 11
9.182696722918265
 21
22.80035859554166
 31
0.0
  0
LINE
  5
A3A
330
1E
100
AcDbEntity
  8
5
100
AcDbLine
 10
11.07226863526907
 20
25.4099120886435
 30
0.0
 11
11.04796545954752
 21
25.42206367650428
 31
0.0
  0
LINE
  5
A3B
330
1E
100
AcDbEntity
  8
5
100
AcDbLine
 10
17.53387548023719
 20
25.42813947043466
 30
0.0
 11
17.50957230451565
 21
25.44029105829545
 31
0.0
  0
LINE
  5
A3C
330
1E
100
AcDbEntity
  8
5
100
AcDbLine
 10
17.61286080133225
 20
24.4651261324681
 30
0.0
 11
17.61286080133225
 21
25.13346346481082
 31
0.0
  0
LINE
  5
A3D
330
1E
100
AcDbEntity
  8
5
100
AcDbLine
 10
17.28780582605646
 20
24.06716163002765
 30
0.0
 11
17.30907110481283
 21
24.05501004216688
 31
0.0
  0
LINE
  5
A3E
330
1E
100
AcDbEntity
  8
5
100
AcDbLine
 10
17.33945007446476
 20
25.54661745207725
 30
0.0
 11
17.31210900177802
 21
25.53446586421647
 31
0.0
  0
LINE
  5
A3F
330
1E
100
AcDbEntity
  8
5
100
AcDbLine
 10
14.33193207892248
 20
27.27518082527276
 30
0.0
 11
14.31066680016613
 21
27.28733241313354
 31
0.0
  0
LINE
  5
A40
330
1E
100
AcDbEntity
  8
5
100
AcDbLine
 10
16.66503694819164
 20
27.31771138278547
 30
0.0
 11
16.64377166943529
 21
27.3055597949247
 31
0.0
  0
LINE
  5
A41
330
1E
100
AcDbEntity
  8
5
100
AcDbLine
 10
14.36838684250481
 20
25.36738153113078
 30
0.0
 11
14.39269001822636
 21
25.35522994327001
 31
0.0
  0
LINE
  5
A42
330
1E
100
AcDbEntity
  8
5
100
AcDbLine
 10
14.74508606618889
 20
25.55573114297283
 30
0.0
 11
14.74508606618889
 21
26.01141568775195
 31
0.0
  0
LINE
  5
A43
330
1E
100
AcDbEntity
  8
5
100
AcDbLine
 10
14.70559340564137
 20
26.02964306954313
 30
0.0
 11
14.70559340564137
 21
26.00533989382157
 31
0.0
  0
LINE
  5
A44
330
1E
100
AcDbEntity
  8
5
100
AcDbLine
 10
14.74812396315408
 20
25.53446586421647
 30
0.0
 11
14.76938924191045
 21
25.51927637939049
 31
0.0
  0
LINE
  5
A45
330
1E
100
AcDbEntity
  8
5
100
AcDbLine
 10
16.23061768216887
 20
25.51927637939049
 30
0.0
 11
16.25492085789043
 21
25.53446586421647
 31
0.0
  0
LINE
  5
A46
330
1E
100
AcDbEntity
  8
5
100
AcDbLine
 10
14.91217039927458
 20
22.34163615379733
 30
0.0
 11
15.44076447121836
 21
22.64542585031676
 31
0.0
  0
LINE
  5
A47
330
1E
100
AcDbEntity
  8
5
100
AcDbLine
 10
10.80493370233197
 20
26.45798654163551
 30
0.0
 11
10.27330173342299
 21
26.15115894815089
 31
0.0
  0
LWPOLYLINE
  5
A48
330
1E
100
AcDbEntity
  8
5
100
AcDbPolyline
 90
       18
 70
     0
 43
0.0
 10
9.65964654645376
 20
22.13505916016412
 10
9.656608649488568
 20
22.13809705712932
 10
9.64141916466259
 20
22.14721074802491
 10
9.623191782871426
 20
22.1563244389205
 10
9.604964401080266
 20
22.16240023285088
 10
9.586737019289095
 20
22.16847602678126
 10
9.568509637497932
 20
22.17455182071164
 10
9.547244358741568
 20
22.17758971767684
 10
9.525979079985212
 20
22.18062761464204
 10
9.504713801228856
 20
22.18366551160723
 10
9.483448522472492
 20
22.18366551160723
 10
9.462183243716136
 20
22.18062761464204
 10
9.437880067994576
 20
22.17758971767684
 10
9.416614789238224
 20
22.17151392374646
 10
9.395349510481857
 20
22.16847602678126
 10
9.377122128690697
 20
22.15936233588568
 10
9.361932643864729
 20
22.1532865419553
 10
9.343705262073555
 20
22.14417285105971
  0
LWPOLYLINE
  5
A5C
330
1E
100
AcDbEntity
  8
5
100
AcDbPolyline
 90
        3
 70
     0
 43
0.0
 10
9.343705262073555
 20
22.14417285105971
 10
9.340667365108362
 20
22.14113495409453
 10
9.334591571177977
 20
22.13505916016412
  0
LWPOLYLINE
  5
A61
330
1E
100
AcDbEntity
  8
5
100
AcDbPolyline
 90
       19
 70
     0
 43
0.0
 10
14.95470095678729
 20
25.19118350714952
 10
14.95470095678729
 20
25.1942214041147
 10
14.9516630598221
 20
25.1942214041147
 10
14.93647357499613
 20
25.20333509501031
 10
14.91824619320496
 20
25.21244878590588
 10
14.9000188114138
 20
25.21852457983627
 10
14.88179142962263
 20
25.22763827073185
 10
14.86356404783146
 20
25.23067616769704
 10
14.84229876907511
 20
25.23675196162742
 10
14.82103349031875
 20
25.23978985859262
 10
14.7997682115624
 20
25.23978985859262
 10
14.77850293280603
 20
25.23978985859262
 10
14.75723765404966
 20
25.23978985859262
 10
14.73293447832811
 20
25.23675196162742
 10
14.71166919957176
 20
25.23067616769704
 10
14.69344181778059
 20
25.22460037376665
 10
14.67217653902423
 20
25.21852457983627
 10
14.65698705419826
 20
25.20941088894069
 10
14.64179756937229
 20
25.20029719804511
  0
LWPOLYLINE
  5
A76
330
1E
100
AcDbEntity
  8
5
100
AcDbPolyline
 90
        3
 70
     0
 43
0.0
 10
14.64179756937229
 20
25.20029719804511
 10
14.6357217754419
 20
25.1972593010799
 10
14.62964598151152
 20
25.1942214041147
  0
LINE
  5
A7B
330
1E
100
AcDbEntity
  8
5
100
AcDbLine
 10
11.95933454910578
 20
25.96280933630885
 30
0.0
 11
14.24687096389704
 21
27.28125661920315
 31
0.0
  0
LINE
  5
A7C
330
1E
100
AcDbEntity
  8
5
100
AcDbLine
 10
14.26813624265339
 20
27.26910503134237
 30
0.0
 11
11.98363772482734
 21
25.95065774844807
 31
0.0
  0
LINE
  5
A7D
330
1E
100
AcDbEntity
  8
5
100
AcDbLine
 10
14.26813624265339
 20
27.26910503134237
 30
0.0
 11
14.24687096389704
 21
27.28125661920315
 31
0.0
  0
LWPOLYLINE
  5
A7E
330
1E
100
AcDbEntity
  8
5
100
AcDbPolyline
 90
        4
 70
     0
 43
0.0
 10
14.68129022991982
 20
23.12237567385225
 10
14.66913864205903
 20
23.12541357081745
 10
14.66306284812864
 20
23.12237567385225
 10
14.66002495116345
 20
23.11022408599146
  0
LINE
  5
A84
330
1E
100
AcDbEntity
  8
5
100
AcDbLine
 10
14.68129022991982
 20
23.12237567385226
 30
0.0
 11
14.66002495116345
 21
23.11022408599147
 31
0.0
  0
LWPOLYLINE
  5
A85
330
1E
100
AcDbEntity
  8
5
100
AcDbPolyline
 90
        5
 70
     0
 43
0.0
 10
11.3699825378581
 20
24.24639755097411
 10
11.38517202268407
 20
24.23120806614814
 10
11.40036150751005
 20
24.21298068435698
 10
11.40947519840563
 20
24.19171540560062
 10
11.41251309537082
 20
24.17045012684426
  0
LINE
  5
A8C
330
1E
100
AcDbEntity
  8
5
100
AcDbLine
 10
11.3699825378581
 20
24.24639755097411
 30
0.0
 11
8.799921705303791
 21
22.76086593499413
 31
0.0
  0
LWPOLYLINE
  5
A8D
330
1E
100
AcDbEntity
  8
5
100
AcDbPolyline
 90
        5
 70
     0
 43
0.0
 10
8.842452262816514
 20
22.68491851086428
 10
8.839414365851318
 20
22.70618378962064
 10
8.83030067495574
 20
22.7304869653422
 10
8.815111190129758
 20
22.74871434713336
 10
8.799921705303791
 20
22.76086593499413
  0
LINE
  5
A94
330
1E
100
AcDbEntity
  8
5
100
AcDbLine
 10
11.41251309537082
 20
24.17045012684425
 30
0.0
 11
8.842452262816513
 21
22.68491851086428
 31
0.0
  0
LWPOLYLINE
  5
A95
330
1E
100
AcDbEntity
  8
5
100
AcDbPolyline
 90
        4
 70
     0
 43
0.0
 10
8.821186984060158
 20
22.70010799569025
 10
8.818149087094965
 20
22.71225958355103
 10
8.809035396199373
 20
22.727449068377
 10
8.799921705303791
 20
22.73656275927259
  0
LINE
  5
A9B
330
1E
100
AcDbEntity
  8
5
100
AcDbLine
 10
14.24079516996665
 20
23.55679493987501
 30
0.0
 11
11.80440180388088
 21
22.15024864499009
 31
0.0
  0
LINE
  5
A9C
330
1E
100
AcDbEntity
  8
5
100
AcDbLine
 10
14.24079516996665
 20
23.55679493987501
 30
0.0
 11
14.2195298912103
 21
23.571984424701
 31
0.0
  0
LINE
  5
A9D
330
1E
100
AcDbEntity
  8
5
100
AcDbLine
 10
11.78313652512452
 20
22.16543812981607
 30
0.0
 11
14.2195298912103
 21
23.571984424701
 31
0.0
  0
LINE
  5
A9E
330
1E
100
AcDbEntity
  8
5
100
AcDbLine
 10
11.78313652512452
 20
22.16543812981607
 30
0.0
 11
11.80440180388088
 21
22.15024864499009
 31
0.0
  0
LINE
  5
A9F
330
1E
100
AcDbEntity
  8
5
100
AcDbLine
 10
16.1668218458998
 20
25.44940474919103
 30
0.0
 11
16.26403454878601
 21
25.50408689456452
 31
0.0
  0
LWPOLYLINE
  5
AA0
330
1E
100
AcDbEntity
  8
5
100
AcDbPolyline
 90
        4
 70
     0
 43
0.0
 10
16.26403454878601
 20
25.50408689456453
 10
16.27618613664679
 20
25.5132005854601
 10
16.28226193057717
 20
25.52839007028607
 10
16.28529982754237
 20
25.54054165814685
  0
LWPOLYLINE
  5
AA6
330
1E
100
AcDbEntity
  8
5
100
AcDbPolyline
 90
        3
 70
     0
 43
0.0
 10
8.781694323512631
 20
21.17204582219755
 10
8.769542735651846
 20
21.18419741005833
 10
8.766504838686653
 20
21.1993868948843
  0
LWPOLYLINE
  5
AAB
330
1E
100
AcDbEntity
  8
5
100
AcDbPolyline
 90
        3
 70
     0
 43
0.0
 10
9.778124528096331
 20
20.63433805935817
 10
9.769010837200749
 20
20.64041385328857
 10
9.765972940235556
 20
20.64952754418414
  0
LINE
  5
AB0
330
1E
100
AcDbEntity
  8
5
100
AcDbLine
 10
9.765972940235556
 20
20.64952754418414
 30
0.0
 11
9.741669764513996
 21
20.63737595632337
 31
0.0
  0
LWPOLYLINE
  5
AB1
330
1E
100
AcDbEntity
  8
5
100
AcDbPolyline
 90
        5
 70
     0
 43
0.0
 10
9.787238218991923
 20
20.61307278060183
 10
9.769010837200749
 20
20.60699698667144
 10
9.753821352374782
 20
20.61003488363663
 10
9.744707661479193
 20
20.61914857453221
 10
9.741669764513996
 20
20.63737595632337
  0
LINE
  5
AB8
330
1E
100
AcDbEntity
  8
5
100
AcDbLine
 10
15.37393073798411
 20
24.48942930818965
 30
0.0
 11
15.62000039216483
 21
24.63221046555378
 31
0.0
  0
LWPOLYLINE
  5
AB9
330
1E
100
AcDbEntity
  8
5
100
AcDbPolyline
 90
       10
 70
     0
 43
0.0
 10
15.72632678594662
 20
24.56841462928471
 10
15.7415162707726
 20
24.58056621714548
 10
15.74759206470299
 20
24.59575570197145
 10
15.7445541677378
 20
24.61094518679741
 10
15.73544047684221
 20
24.6261346716234
 10
15.71721309505104
 20
24.63524836251898
 10
15.69290991932949
 20
24.64132415644936
 10
15.66556884664275
 20
24.64436205341456
 10
15.64126567092119
 20
24.63828625948417
 10
15.62000039216482
 20
24.63221046555378
  0
LINE
  5
AC5
330
1E
100
AcDbEntity
  8
5
100
AcDbLine
 10
15.4802571317659
 20
24.42563347192057
 30
0.0
 11
15.72632678594662
 21
24.56841462928471
 31
0.0
  0
LWPOLYLINE
  5
AC6
330
1E
100
AcDbEntity
  8
5
100
AcDbPolyline
 90
       10
 70
     0
 43
0.0
 10
15.37393073798411
 20
24.48942930818966
 10
15.35874125315813
 20
24.47423982336369
 10
15.35266545922774
 20
24.46208823550291
 10
15.35266545922774
 20
24.44689875067694
 10
15.36481704708851
 20
24.43170926585096
 10
15.38304442887969
 20
24.42259557495537
 10
15.40734760460123
 20
24.41651978102499
 10
15.43165078032278
 20
24.4134818840598
 10
15.45899185300954
 20
24.41955767799017
 10
15.4802571317659
 20
24.42563347192057
  0
LINE
  5
AD2
330
1E
100
AcDbEntity
  8
5
100
AcDbLine
 10
10.32494598183129
 20
21.5730482216032
 30
0.0
 11
10.57101563601203
 21
21.71582937896732
 31
0.0
  0
LWPOLYLINE
  5
AD3
330
1E
100
AcDbEntity
  8
5
100
AcDbPolyline
 90
       10
 70
     0
 43
0.0
 10
10.67734202979382
 20
21.65507143966344
 10
10.69253151461979
 20
21.6672230275242
 10
10.69860730855018
 20
21.68241251235019
 10
10.69556941158498
 20
21.69760199717615
 10
10.6864557206894
 20
21.70975358503692
 10
10.66822833889824
 20
21.72190517289771
 10
10.64392516317668
 20
21.72798096682809
 10
10.61962198745514
 20
21.72798096682809
 10
10.59228091476838
 20
21.72494306986289
 10
10.57101563601203
 20
21.71582937896732
  0
LINE
  5
ADF
330
1E
100
AcDbEntity
  8
5
100
AcDbLine
 10
10.43127237561309
 20
21.5122902822993
 30
0.0
 11
10.67734202979382
 21
21.65507143966344
 31
0.0
  0
LWPOLYLINE
  5
AE0
330
1E
100
AcDbEntity
  8
5
100
AcDbPolyline
 90
       10
 70
     0
 43
0.0
 10
10.32494598183129
 20
21.57304822160321
 10
10.30975649700532
 20
21.56089663374242
 10
10.30368070307493
 20
21.54570714891645
 10
10.30368070307493
 20
21.53051766409049
 10
10.3158322909357
 20
21.5183660762297
 10
10.33405967272688
 20
21.50621448836891
 10
10.35836284844843
 20
21.50013869443854
 10
10.38266602416998
 20
21.50013869443854
 10
10.41000709685673
 20
21.50317659140373
 10
10.43127237561309
 20
21.51229028229931
  0
LWPOLYLINE
  5
AEC
330
1E
100
AcDbEntity
  8
5
100
AcDbPolyline
 90
       25
 70
     0
 43
0.0
 10
12.94057526886352
 20
23.11933777688707
 10
12.96487844458508
 20
23.13148936474784
 10
12.99525741423702
 20
23.13756515867822
 10
13.02563638388895
 20
23.14060305564341
 10
13.05601535354091
 20
23.13756515867822
 10
13.08639432319284
 20
23.13148936474784
 10
13.11069749891439
 20
23.11933777688707
 10
13.12892488070557
 20
23.10718618902628
 10
13.14107646856634
 20
23.08895880723512
 10
13.14411436553154
 20
23.07073142544394
 10
13.14107646856634
 20
23.05250404365278
 10
13.12892488070557
 20
23.03731455882681
 10
13.11069749891439
 20
23.02212507400084
 10
13.08639432319284
 20
23.00997348614006
 10
13.05601535354091
 20
23.00389769220968
 10
13.02563638388895
 20
23.00085979524448
 10
12.99525741423702
 20
23.00389769220968
 10
12.96487844458508
 20
23.00997348614006
 10
12.94057526886352
 20
23.02212507400084
 10
12.92234788707235
 20
23.03731455882681
 10
12.91019629921158
 20
23.05250404365278
 10
12.90412050528119
 20
23.07073142544394
 10
12.91019629921158
 20
23.08895880723512
 10
12.92234788707235
 20
23.10718618902628
 10
12.94057526886352
 20
23.11933777688707
  0
LWPOLYLINE
  5
B07
330
1E
100
AcDbEntity
  8
5
100
AcDbPolyline
 90
        9
 70
     0
 43
0.0
 10
13.83675487359583
 20
24.64132415644936
 10
13.86409594628257
 20
24.65043784734495
 10
13.8944749159345
 20
24.65651364127534
 10
13.92485388558646
 20
24.65651364127534
 10
13.95523285523839
 20
24.65043784734495
 10
13.97953603095994
 20
24.64132415644936
 10
13.99776341275112
 20
24.6261346716234
 10
14.0068771036467
 20
24.60790728983223
 10
14.0068771036467
 20
24.58967990804107
  0
LWPOLYLINE
  5
B12
330
1E
100
AcDbEntity
  8
5
100
AcDbPolyline
 90
        9
 70
     0
 43
0.0
 10
13.92485388558646
 20
24.54411145356315
 10
13.8944749159345
 20
24.54411145356315
 10
13.86409594628257
 20
24.54714935052835
 10
13.83979277056102
 20
24.55930093838912
 10
13.81852749180465
 20
24.5744904232151
 10
13.80941380090907
 20
24.58967990804107
 10
13.80941380090907
 20
24.60790728983223
 10
13.81852749180465
 20
24.6261346716234
 10
13.83675487359583
 20
24.64132415644936
  0
LWPOLYLINE
  5
B1D
330
1E
100
AcDbEntity
  8
5
100
AcDbPolyline
 90
       23
 70
     0
 43
0.0
 10
10.30671860004012
 20
22.60289529280404
 10
10.33102177576168
 20
22.61200898369961
 10
10.35532495148323
 20
22.61808477763
 10
10.38570392113518
 20
22.61808477763
 10
10.41304499382192
 20
22.61504688066481
 10
10.43734816954348
 20
22.60897108673443
 10
10.45861344829984
 20
22.59681949887365
 10
10.47076503616062
 20
22.58163001404768
 10
10.476840830091
 20
22.56644052922171
 10
10.47380293312581
 20
22.54821314743055
 10
10.46468924223023
 20
22.53302366260457
 10
10.44949975740425
 20
22.52087207474379
 10
10.4251965816827
 20
22.51175838384821
 10
10.39785550899595
 20
22.50568258991783
 10
10.37051443630921
 20
22.50568258991783
 10
10.34317336362246
 20
22.50872048688301
 10
10.3188701879009
 20
22.5147962808134
 10
10.29760490914454
 20
22.52694786867419
 10
10.28545332128377
 20
22.54213735350016
 10
10.27937752735338
 20
22.55732683832612
 10
10.27937752735338
 20
22.57555422011729
 10
10.28849121824896
 20
22.59074370494327
 10
10.30671860004012
 20
22.60289529280404
  0
LWPOLYLINE
  5
B36
330
1E
100
AcDbEntity
  8
5
100
AcDbPolyline
 90
       23
 70
     0
 43
0.0
 10
12.07173673681797
 20
23.6205907761441
 10
12.09603991253952
 20
23.63274236400487
 10
12.12034308826108
 20
23.63578026097007
 10
12.15072205791302
 20
23.63881815793527
 10
12.17806313059977
 20
23.63578026097007
 10
12.20236630632133
 20
23.62666657007449
 10
12.22363158507768
 20
23.61451498221372
 10
12.23578317293846
 20
23.60236339435294
 10
12.24185896686885
 20
23.58413601256177
 10
12.23882106990365
 20
23.56894652773581
 10
12.22970737900807
 20
23.55375704290984
 10
12.2145178941821
 20
23.54160545504905
 10
12.19021471846055
 20
23.52945386718827
 10
12.1628736457738
 20
23.52337807325789
 10
12.13553257308705
 20
23.52337807325789
 10
12.10819150040031
 20
23.52641597022309
 10
12.08388832467875
 20
23.53552966111866
 10
12.06262304592239
 20
23.54768124897943
 10
12.05047145806161
 20
23.55983283684022
 10
12.04439566413122
 20
23.57806021863138
 10
12.04439566413122
 20
23.59324970345735
 10
12.056547251992
 20
23.60843918828333
 10
12.07173673681797
 20
23.6205907761441
  0
LWPOLYLINE
  5
B4F
330
1E
100
AcDbEntity
  8
5
100
AcDbPolyline
 90
       23
 70
     0
 43
0.0
 10
12.95576475368949
 20
24.13095746629672
 10
12.97703003244586
 20
24.14007115719231
 10
13.0043711051326
 20
24.14614695112271
 10
13.03171217781935
 20
24.1491848480879
 10
13.0590532505061
 20
24.14310905415751
 10
13.08639432319284
 20
24.13703326022713
 10
13.10462170498401
 20
24.12488167236634
 10
13.11981118980998
 20
24.10969218754038
 10
13.12588698374036
 20
24.09450270271441
 10
13.12284908677517
 20
24.07931321788844
 10
13.11373539587959
 20
24.06412373306246
 10
13.09550801408843
 20
24.04893424823649
 10
13.07424273533207
 20
24.03982055734091
 10
13.04690166264532
 20
24.03374476341051
 10
13.01956058995856
 20
24.03374476341051
 10
12.98918162030663
 20
24.03678266037573
 10
12.96487844458508
 20
24.0458963512713
 10
12.94665106279391
 20
24.05501004216687
 10
12.93146157796793
 20
24.07019952699284
 10
12.92538578403754
 20
24.08538901181882
 10
12.92842368100274
 20
24.10361639360999
 10
12.93753737189833
 20
24.11880587843596
 10
12.95576475368949
 20
24.13095746629672
  0
LWPOLYLINE
  5
B68
330
1E
100
AcDbEntity
  8
5
100
AcDbPolyline
 90
       23
 70
     0
 43
0.0
 10
11.19074661691164
 20
23.11326198295668
 10
11.21201189566801
 20
23.12237567385225
 10
11.23935296835476
 20
23.12845146778264
 10
11.2666940410415
 20
23.12845146778264
 10
11.29403511372825
 20
23.12541357081745
 10
11.32137618641499
 20
23.11629987992187
 10
11.33960356820617
 20
23.10718618902628
 10
11.35479305303213
 20
23.0919967042003
 10
11.36086884696252
 20
23.07680721937433
 10
11.35783094999733
 20
23.05857983758317
 10
11.34871725910175
 20
23.0433903527572
 10
11.33048987731058
 20
23.03123876489643
 10
11.30922459855422
 20
23.02212507400084
 10
11.28188352586747
 20
23.01604928007045
 10
11.25150455621553
 20
23.01301138310525
 10
11.22416348352878
 20
23.01604928007045
 10
11.19986030780723
 20
23.02516297096604
 10
11.18163292601606
 20
23.03731455882681
 10
11.16644344119009
 20
23.05250404365278
 10
11.1603676472597
 20
23.06769352847874
 10
11.1634055442249
 20
23.08288301330473
 10
11.17251923512048
 20
23.09807249813069
 10
11.19074661691164
 20
23.11326198295668
  0
LINE
  5
B81
330
1E
100
AcDbEntity
  8
5
100
AcDbLine
 10
14.71166919957176
 20
25.47370792491258
 30
0.0
 11
14.75419975708447
 21
25.44940474919103
 31
0.0
  0
LINE
  5
B82
330
1E
100
AcDbEntity
  8
5
100
AcDbLine
 10
9.134090371475158
 20
22.2535371418067
 30
0.0
 11
11.95325875517539
 21
23.8818499151508
 31
0.0
  0
LINE
  5
B83
330
1E
100
AcDbEntity
  8
5
100
AcDbLine
 10
12.5274212815971
 20
24.21298068435698
 30
0.0
 11
14.71166919957176
 21
25.47370792491258
 31
0.0
  0
LINE
  5
B84
330
1E
100
AcDbEntity
  8
5
100
AcDbLine
 10
11.33048987731058
 20
20.6738307199057
 30
0.0
 11
11.33960356820617
 21
20.66775492597531
 31
0.0
  0
LINE
  5
B85
330
1E
100
AcDbEntity
  8
5
100
AcDbLine
 10
11.36086884696252
 20
20.67990651383609
 30
0.0
 11
11.33960356820617
 21
20.66775492597531
 31
0.0
  0
LINE
  5
B86
330
1E
100
AcDbEntity
  8
5
100
AcDbLine
 10
16.91718239630277
 20
25.12738767088044
 30
0.0
 11
16.26403454878601
 21
25.50408689456452
 31
0.0
  0
LINE
  5
B87
330
1E
100
AcDbEntity
  8
5
100
AcDbLine
 10
16.1668218458998
 20
25.44940474919103
 30
0.0
 11
14.75419975708447
 21
25.44940474919103
 31
0.0
  0
LINE
  5
B88
330
1E
100
AcDbEntity
  8
5
100
AcDbLine
 10
15.37393073798411
 20
24.4620882355029
 30
0.0
 11
15.62000039216483
 21
24.60486939286703
 31
0.0
  0
LWPOLYLINE
  5
B89
330
1E
100
AcDbEntity
  8
5
100
AcDbPolyline
 90
        3
 70
     0
 43
0.0
 10
15.37393073798411
 20
24.46208823550291
 10
15.36177915012332
 20
24.45297454460732
 10
15.35570335619293
 20
24.44386085371174
  0
LWPOLYLINE
  5
B8E
330
1E
100
AcDbEntity
  8
5
100
AcDbPolyline
 90
        7
 70
     0
 43
0.0
 10
15.7445541677378
 20
24.58664201107587
 10
15.73240257987702
 20
24.59879359893664
 10
15.71417519808585
 20
24.61094518679741
 10
15.6898720223643
 20
24.6170209807278
 10
15.66556884664275
 20
24.6170209807278
 10
15.64126567092119
 20
24.61398308376261
 10
15.62000039216482
 20
24.60486939286703
  0
LINE
  5
B97
330
1E
100
AcDbEntity
  8
5
100
AcDbLine
 10
10.32494598183129
 20
21.54570714891645
 30
0.0
 11
10.57101563601203
 21
21.68848830628057
 31
0.0
  0
LWPOLYLINE
  5
B98
330
1E
100
AcDbEntity
  8
5
100
AcDbPolyline
 90
        3
 70
     0
 43
0.0
 10
10.32494598183129
 20
21.54570714891645
 10
10.31279439397051
 20
21.53963135498606
 10
10.30671860004012
 20
21.53051766409049
  0
LWPOLYLINE
  5
B9D
330
1E
100
AcDbEntity
  8
5
100
AcDbPolyline
 90
        7
 70
     0
 43
0.0
 10
10.69556941158498
 20
21.67329882145461
 10
10.68341782372421
 20
21.68545040931538
 10
10.66519044193305
 20
21.69456410021096
 10
10.64392516317668
 20
21.70063989414135
 10
10.61658409048994
 20
21.70367779110655
 10
10.59228091476838
 20
21.69760199717615
 10
10.57101563601203
 20
21.68848830628058
  0
LWPOLYLINE
  5
BA6
330
1E
100
AcDbEntity
  8
5
100
AcDbPolyline
 90
        9
 70
     0
 43
0.0
 10
12.94057526886352
 20
23.0950346011655
 10
12.96791634155027
 20
23.10414829206109
 10
12.99525741423702
 20
23.11326198295668
 10
13.02867428085415
 20
23.11326198295668
 10
13.0590532505061
 20
23.11022408599146
 10
13.08943222015804
 20
23.10414829206109
 10
13.11373539587959
 20
23.0919967042003
 10
13.13196277767076
 20
23.07680721937433
 10
13.14411436553154
 20
23.05857983758317
  0
LWPOLYLINE
  5
BB1
330
1E
100
AcDbEntity
  8
5
100
AcDbPolyline
 90
        3
 70
     0
 43
0.0
 10
12.90715840224638
 20
23.05857983758317
 10
12.91930999010716
 20
23.07680721937433
 10
12.94057526886352
 20
23.0950346011655
  0
LWPOLYLINE
  5
BB6
330
1E
100
AcDbEntity
  8
5
100
AcDbPolyline
 90
        8
 70
     0
 43
0.0
 10
13.83675487359583
 20
24.61398308376261
 10
13.86105804931737
 20
24.6261346716234
 10
13.88839912200412
 20
24.63221046555378
 10
13.91877809165606
 20
24.63221046555378
 10
13.94915706130801
 20
24.6261346716234
 10
13.97346023702956
 20
24.61702098072782
 10
13.99168761882072
 20
24.60486939286703
 10
14.0038392066815
 20
24.58967990804107
  0
LWPOLYLINE
  5
BC0
330
1E
100
AcDbEntity
  8
5
100
AcDbPolyline
 90
        3
 70
     0
 43
0.0
 10
13.80941380090907
 20
24.58664201107587
 10
13.82156538876985
 20
24.60183149590184
 10
13.83675487359583
 20
24.61398308376261
  0
LWPOLYLINE
  5
BC5
330
1E
100
AcDbEntity
  8
5
100
AcDbPolyline
 90
        8
 70
     0
 43
0.0
 10
10.30671860004012
 20
22.57555422011729
 10
10.33102177576168
 20
22.58770580797807
 10
10.36140074541363
 20
22.59378160190846
 10
10.38874181810037
 20
22.59378160190846
 10
10.4191207877523
 20
22.58770580797807
 10
10.44342396347387
 20
22.57859211708248
 10
10.46468924223023
 20
22.56644052922171
 10
10.47380293312581
 20
22.54821314743055
  0
LWPOLYLINE
  5
BCF
330
1E
100
AcDbEntity
  8
5
100
AcDbPolyline
 90
        3
 70
     0
 43
0.0
 10
10.27937752735338
 20
22.54821314743055
 10
10.29152911521416
 20
22.56340263225652
 10
10.30671860004012
 20
22.57555422011729
  0
LWPOLYLINE
  5
BD4
330
1E
100
AcDbEntity
  8
5
100
AcDbPolyline
 90
        8
 70
     0
 43
0.0
 10
12.07173673681797
 20
23.59628760042256
 10
12.09603991253952
 20
23.60540129131813
 10
12.12641888219147
 20
23.61147708524853
 10
12.1567978518434
 20
23.61147708524853
 10
12.18413892453016
 20
23.60843918828333
 10
12.20844210025171
 20
23.59628760042256
 10
12.22970737900807
 20
23.58413601256177
 10
12.23882106990365
 20
23.56894652773581
  0
LWPOLYLINE
  5
BDE
330
1E
100
AcDbEntity
  8
5
100
AcDbPolyline
 90
        3
 70
     0
 43
0.0
 10
12.04439566413122
 20
23.56894652773581
 10
12.056547251992
 20
23.58413601256177
 10
12.07173673681797
 20
23.59628760042256
  0
LWPOLYLINE
  5
BE3
330
1E
100
AcDbEntity
  8
5
100
AcDbPolyline
 90
        8
 70
     0
 43
0.0
 10
12.95576475368949
 20
24.10665429057518
 10
12.98006792941105
 20
24.11576798147076
 10
13.00740900209779
 20
24.12184377540115
 10
13.03778797174974
 20
24.12184377540115
 10
13.06816694140168
 20
24.11576798147076
 10
13.09247011712323
 20
24.10665429057518
 10
13.11069749891439
 20
24.09450270271441
 10
13.12284908677517
 20
24.07627532092323
  0
LWPOLYLINE
  5
BED
330
1E
100
AcDbEntity
  8
5
100
AcDbPolyline
 90
        3
 70
     0
 43
0.0
 10
12.92842368100274
 20
24.07627532092323
 10
12.93753737189833
 20
24.09146480574921
 10
12.95576475368949
 20
24.10665429057518
  0
LWPOLYLINE
  5
BF2
330
1E
100
AcDbEntity
  8
5
100
AcDbPolyline
 90
        8
 70
     0
 43
0.0
 10
11.19074661691164
 20
23.08592091026992
 10
11.2150497926332
 20
23.0950346011655
 10
11.24239086531995
 20
23.10111039509589
 10
11.27276983497189
 20
23.10111039509589
 10
11.30314880462383
 20
23.09807249813069
 10
11.32745198034539
 20
23.08895880723512
 10
11.34567936213655
 20
23.07376932240915
 10
11.35783094999733
 20
23.05857983758317
  0
LWPOLYLINE
  5
BFC
330
1E
100
AcDbEntity
  8
5
100
AcDbPolyline
 90
        3
 70
     0
 43
0.0
 10
11.1634055442249
 20
23.05857983758317
 10
11.17251923512048
 20
23.07376932240915
 10
11.19074661691164
 20
23.08592091026992
  0
LINE
  5
C01
330
1E
100
AcDbEntity
  8
5
100
AcDbLine
 10
11.32745198034539
 20
20.64952754418414
 30
0.0
 11
11.33960356820617
 21
20.64345175025376
 31
0.0
  0
LINE
  5
C02
330
1E
100
AcDbEntity
  8
5
100
AcDbLine
 10
9.741669764513996
 20
20.63737595632337
 30
0.0
 11
8.766504838686653
 21
21.19938689488431
 31
0.0
  0
LINE
  5
C03
330
1E
100
AcDbEntity
  8
5
100
AcDbLine
 10
9.741669764513996
 20
20.63737595632337
 30
0.0
 11
9.741669764513996
 21
21.19027320398872
 31
0.0
  0
LINE
  5
C04
330
1E
100
AcDbEntity
  8
5
100
AcDbLine
 10
9.741669764513996
 20
21.19027320398872
 30
0.0
 11
9.720404485757644
 21
21.2024247918495
 31
0.0
  0
LINE
  5
C05
330
1E
100
AcDbEntity
  8
5
100
AcDbLine
 10
8.766504838686653
 20
21.19938689488431
 30
0.0
 11
8.766504838686653
 21
21.42419127030867
 31
0.0
  0
LINE
  5
C06
330
1E
100
AcDbEntity
  8
5
100
AcDbLine
 10
16.95971295381549
 20
25.151690846602
 30
0.0
 11
16.28529982754236
 21
25.54054165814686
 31
0.0
  0
LINE
  5
C07
330
1E
100
AcDbEntity
  8
5
100
AcDbLine
 10
17.26046475336971
 20
25.32788887058325
 30
0.0
 11
17.26046475336971
 21
25.52839007028607
 31
0.0
  0
LINE
  5
C08
330
1E
100
AcDbEntity
  8
5
100
AcDbLine
 10
17.26046475336971
 20
25.52839007028607
 30
0.0
 11
16.28529982754236
 21
26.0934389058122
 31
0.0
  0
LINE
  5
C09
330
1E
100
AcDbEntity
  8
5
100
AcDbLine
 10
16.28529982754236
 20
25.54054165814686
 30
0.0
 11
16.28529982754236
 21
26.0934389058122
 31
0.0
  0
LINE
  5
C0A
330
1E
100
AcDbEntity
  8
5
100
AcDbLine
 10
11.33960356820617
 20
20.64345175025376
 30
0.0
 11
11.33960356820617
 21
20.66775492597531
 31
0.0
  0
LWPOLYLINE
  5
C0B
330
1E
100
AcDbEntity
  8
5
100
AcDbPolyline
 90
       16
 70
     0
 43
0.0
 10
9.832806673469825
 20
21.19331110095392
 10
9.911791994564879
 20
21.15989423433678
 10
9.999891006555515
 20
21.12951526468483
 10
10.09102791551134
 20
21.10217419199809
 10
10.18520272143236
 20
21.08090891324173
 10
10.28241542431857
 20
21.06571942841577
 10
10.37962812720479
 20
21.05660573752018
 10
10.4798787270562
 20
21.05052994358978
 10
10.5831672238728
 20
21.05052994358978
 10
10.68341782372421
 20
21.05356784055498
 10
10.78063052661043
 20
21.06571942841577
 10
10.87784322949664
 20
21.08090891324173
 10
10.97505593238285
 20
21.0991362950329
 10
11.06619284133868
 20
21.12647736771963
 10
11.15125395636412
 20
21.15381844040638
 10
11.23327717442437
 20
21.19027320398873
  0
LINE
  5
C1D
330
1E
100
AcDbEntity
  8
5
100
AcDbLine
 10
11.23327717442437
 20
21.19027320398872
 30
0.0
 11
11.21201189566801
 21
21.2024247918495
 31
0.0
  0
LWPOLYLINE
  5
C1E
330
1E
100
AcDbEntity
  8
5
100
AcDbPolyline
 90
       16
 70
     0
 43
0.0
 10
9.854071952226192
 20
21.2054626888147
 10
9.933057273321235
 20
21.17204582219755
 10
10.01508049138148
 20
21.14470474951081
 10
10.10317950337211
 20
21.12040157378925
 10
10.19431641232794
 20
21.0991362950329
 10
10.28849121824896
 20
21.08394681020693
 10
10.38570392113518
 20
21.07483311931134
 10
10.48291662402139
 20
21.06875732538095
 10
10.58012932690761
 20
21.06875732538095
 10
10.67734202979382
 20
21.07179522234614
 10
10.77455473268004
 20
21.08394681020691
 10
10.86872953860106
 20
21.0960983980677
 10
10.95986644755689
 20
21.11736367682406
 10
11.04796545954752
 20
21.1416668525456
 10
11.13302657457296
 20
21.16900792523235
 10
11.21201189566801
 20
21.2024247918495
  0
LINE
  5
C30
330
1E
100
AcDbEntity
  8
5
100
AcDbLine
 10
9.854071952226192
 20
21.20546268881469
 30
0.0
 11
9.832806673469825
 21
21.19331110095392
 31
0.0
  0
LWPOLYLINE
  5
C31
330
1E
100
AcDbEntity
  8
5
100
AcDbPolyline
 90
       16
 70
     0
 43
0.0
 10
9.832806673469825
 20
20.52497376861119
 10
9.911791994564879
 20
20.48851900502885
 10
9.999891006555515
 20
20.4611779323421
 10
10.09102791551134
 20
20.43383685965536
 10
10.18520272143236
 20
20.412571580899
 10
10.28241542431857
 20
20.39738209607302
 10
10.37962812720479
 20
20.38826840517744
 10
10.4798787270562
 20
20.38219261124705
 10
10.5831672238728
 20
20.38219261124705
 10
10.68341782372421
 20
20.38523050821225
 10
10.78063052661043
 20
20.39738209607302
 10
10.87784322949664
 20
20.41257158089899
 10
10.97505593238285
 20
20.43079896269016
 10
11.06619284133868
 20
20.4581400353769
 10
11.15125395636412
 20
20.48548110806366
 10
11.23327717442437
 20
20.52193587164599
  0
LWPOLYLINE
  5
C43
330
1E
100
AcDbEntity
  8
5
100
AcDbPolyline
 90
        6
 70
     0
 43
0.0
 10
11.23327717442437
 20
20.52193587164599
 10
11.2666940410415
 20
20.54320115040234
 10
11.29403511372825
 20
20.57358012005429
 10
11.31530039248461
 20
20.61307278060183
 10
11.32745198034539
 20
20.65256544114934
 10
11.33048987731058
 20
20.67686861687089
  0
LINE
  5
C4B
330
1E
100
AcDbEntity
  8
5
100
AcDbLine
 10
11.33048987731058
 20
20.67686861687089
 30
0.0
 11
11.33048987731058
 21
21.13255316165003
 31
0.0
  0
LWPOLYLINE
  5
C4C
330
1E
100
AcDbEntity
  8
5
100
AcDbPolyline
 90
        6
 70
     0
 43
0.0
 10
11.33048987731058
 20
21.13255316165003
 10
11.32441408338019
 20
21.16597002826717
 10
11.30922459855422
 20
21.18723530702353
 10
11.28795931979786
 20
21.1993868948843
 10
11.25758035014592
 20
21.19634899791911
 10
11.23327717442437
 20
21.19027320398873
  0
LWPOLYLINE
  5
C54
330
1E
100
AcDbEntity
  8
5
100
AcDbPolyline
 90
        6
 70
     0
 43
0.0
 10
9.832806673469825
 20
21.19331110095392
 10
9.814579291678665
 20
21.19634899791911
 10
9.80242770381789
 20
21.19634899791911
 10
9.793314012922309
 20
21.19027320398873
 10
9.787238218991923
 20
21.17812161612796
 10
9.78420032202673
 20
21.16597002826717
  0
LINE
  5
C5C
330
1E
100
AcDbEntity
  8
5
100
AcDbLine
 10
9.784200322026729
 20
21.16597002826716
 30
0.0
 11
9.784200322026729
 21
21.16597002826716
 31
0.0
  0
LWPOLYLINE
  5
C5D
330
1E
100
AcDbEntity
  8
5
100
AcDbPolyline
 90
       12
 70
     0
 43
0.0
 10
9.741669764513996
 20
21.19027320398873
 10
9.741669764513996
 20
21.18723530702353
 10
9.744707661479193
 20
21.18115951309314
 10
9.747745558444396
 20
21.17204582219755
 10
9.750783455409589
 20
21.16293213130198
 10
9.759897146305171
 20
21.15381844040638
 10
9.762935043270363
 20
21.1507805434412
 10
9.772048734165945
 20
21.1507805434412
 10
9.778124528096331
 20
21.1507805434412
 10
9.781162425061523
 20
21.15381844040638
 10
9.78420032202673
 20
21.15989423433678
 10
9.78420032202673
 20
21.16597002826717
  0
LWPOLYLINE
  5
C6B
330
1E
100
AcDbEntity
  8
5
100
AcDbPolyline
 90
       11
 70
     0
 43
0.0
 10
9.78420032202673
 20
20.61307278060183
 10
9.78420032202673
 20
20.61611067756701
 10
9.78420032202673
 20
20.6252243684626
 10
9.778124528096331
 20
20.63433805935817
 10
9.772048734165945
 20
20.64345175025376
 10
9.765972940235556
 20
20.64952754418414
 10
9.759897146305171
 20
20.65256544114934
 10
9.750783455409589
 20
20.65256544114934
 10
9.747745558444396
 20
20.64952754418414
 10
9.741669764513996
 20
20.64345175025376
 10
9.741669764513996
 20
20.63737595632337
  0
LINE
  5
C78
330
1E
100
AcDbEntity
  8
5
100
AcDbLine
 10
9.784200322026729
 20
20.59484539881065
 30
0.0
 11
9.784200322026729
 21
20.61307278060182
 31
0.0
  0
LWPOLYLINE
  5
C79
330
1E
100
AcDbEntity
  8
5
100
AcDbPolyline
 90
        6
 70
     0
 43
0.0
 10
9.78420032202673
 20
20.59484539881065
 10
9.787238218991923
 20
20.57965591398468
 10
9.796351909887501
 20
20.56142853219352
 10
9.805465600783083
 20
20.54320115040234
 10
9.82065508560905
 20
20.53104956254157
 10
9.832806673469825
 20
20.52497376861119
  0
LWPOLYLINE
  5
C81
330
1E
100
AcDbEntity
  8
5
100
AcDbPolyline
 90
        6
 70
     0
 43
0.0
 10
9.765972940235556
 20
21.2024247918495
 10
9.765972940235556
 20
21.19331110095392
 10
9.769010837200749
 20
21.18419741005833
 10
9.775086631131138
 20
21.17508371916276
 10
9.781162425061523
 20
21.16900792523235
 10
9.787238218991923
 20
21.16597002826717
  0
LWPOLYLINE
  5
C89
330
1E
100
AcDbEntity
  8
5
100
AcDbPolyline
 90
        4
 70
     0
 43
0.0
 10
9.82065508560905
 20
21.2054626888147
 10
9.829768776504632
 20
21.21153848274509
 10
9.84495826133061
 20
21.20850058577989
 10
9.854071952226192
 20
21.2054626888147
  0
LWPOLYLINE
  5
C8F
330
1E
100
AcDbEntity
  8
5
100
AcDbPolyline
 90
        3
 70
     0
 43
0.0
 10
11.21201189566801
 20
21.2024247918495
 10
11.24542876228514
 20
21.21153848274509
 10
11.27884562890227
 20
21.2054626888147
  0
LWPOLYLINE
  5
C94
330
1E
100
AcDbEntity
  8
5
100
AcDbPolyline
 90
        3
 70
     0
 43
0.0
 10
8.602458402566167
 20
22.56036473529132
 10
8.651064754009276
 20
22.60593318976924
 10
8.702709002417577
 20
22.64846374728195
  0
LINE
  5
C99
330
1E
100
AcDbEntity
  8
5
100
AcDbLine
 10
8.702709002417577
 20
22.64846374728195
 30
0.0
 11
8.68144372366121
 21
22.66365323210792
 31
0.0
  0
LWPOLYLINE
  5
C9A
330
1E
100
AcDbEntity
  8
5
100
AcDbPolyline
 90
        3
 70
     0
 43
0.0
 10
8.578155226844611
 20
22.57555422011729
 10
8.626761578287727
 20
22.6211226745952
 10
8.68144372366121
 20
22.66365323210792
  0
LWPOLYLINE
  5
C9F
330
1E
100
AcDbEntity
  8
5
100
AcDbPolyline
 90
        9
 70
     0
 43
0.0
 10
8.68751951759161
 20
21.18419741005833
 10
8.629799475252923
 20
21.22976586453624
 10
8.581193123809804
 20
21.27533431901416
 10
8.538662566297094
 20
21.32394067045726
 10
8.50220780271476
 20
21.37558491886557
 10
8.474866730028008
 20
21.42722916727387
 10
8.453601451271651
 20
21.48191131264737
 10
8.441449863410877
 20
21.53659345802086
 10
8.438411966445684
 20
21.59127560339435
  0
LWPOLYLINE
  5
CAA
330
1E
100
AcDbEntity
  8
5
100
AcDbPolyline
 90
        6
 70
     0
 43
0.0
 10
8.68751951759161
 20
21.18419741005833
 10
8.699671105452384
 20
21.17812161612796
 10
8.711822693313159
 20
21.17812161612796
 10
8.720936384208748
 20
21.18419741005833
 10
8.723974281173944
 20
21.19634899791911
 10
8.727012178139137
 20
21.20850058577989
  0
LINE
  5
CB2
330
1E
100
AcDbEntity
  8
5
100
AcDbLine
 10
8.727012178139137
 20
21.22672796757105
 30
0.0
 11
8.727012178139137
 21
21.20850058577989
 31
0.0
  0
LWPOLYLINE
  5
CB3
330
1E
100
AcDbEntity
  8
5
100
AcDbPolyline
 90
       11
 70
     0
 43
0.0
 10
8.766504838686653
 20
21.1993868948843
 10
8.766504838686653
 20
21.2024247918495
 10
8.766504838686653
 20
21.21153848274509
 10
8.760429044756264
 20
21.22065217364066
 10
8.754353250825879
 20
21.22976586453624
 10
8.74827745689549
 20
21.23584165846664
 10
8.742201662965104
 20
21.23887955543184
 10
8.736125869034719
 20
21.23887955543184
 10
8.73005007510433
 20
21.23887955543184
 10
8.727012178139137
 20
21.23280376150143
 10
8.727012178139137
 20
21.22672796757105
  0
LWPOLYLINE
  5
CC0
330
1E
100
AcDbEntity
  8
5
100
AcDbPolyline
 90
        3
 70
     0
 43
0.0
 10
8.68144372366121
 20
22.66365323210792
 10
8.708784796347963
 20
22.67580481996869
 10
8.739163765999911
 20
22.66972902603832
  0
LINE
  5
CC5
330
1E
100
AcDbEntity
  8
5
100
AcDbLine
 10
8.790808014408211
 20
22.45403834150952
 30
0.0
 11
8.790808014408211
 21
22.59985739583884
 31
0.0
  0
LWPOLYLINE
  5
CC6
330
1E
100
AcDbEntity
  8
5
100
AcDbPolyline
 90
        6
 70
     0
 43
0.0
 10
8.790808014408213
 20
22.59985739583884
 10
8.784732220477824
 20
22.63327426245599
 10
8.769542735651846
 20
22.65453954121233
 10
8.74827745689549
 20
22.66365323210792
 10
8.720936384208748
 20
22.66061533514272
 10
8.702709002417577
 20
22.64846374728195
  0
LINE
  5
CCE
330
1E
100
AcDbEntity
  8
5
100
AcDbLine
 10
8.74827745689549
 20
21.23584165846664
 30
0.0
 11
8.74827745689549
 21
21.22065217364066
 31
0.0
  0
LWPOLYLINE
  5
CCF
330
1E
100
AcDbEntity
  8
5
100
AcDbPolyline
 90
        3
 70
     0
 43
0.0
 10
8.74827745689549
 20
21.22065217364066
 10
8.74827745689549
 20
21.2054626888147
 10
8.736125869034719
 20
21.19331110095392
  0
LINE
  5
CD4
330
1E
100
AcDbEntity
  8
5
100
AcDbLine
 10
8.745239559930297
 20
21.23584165846664
 30
0.0
 11
8.727012178139137
 21
21.22672796757105
 31
0.0
  0
LINE
  5
CD5
330
1E
100
AcDbEntity
  8
5
100
AcDbLine
 10
8.727012178139137
 20
21.20850058577989
 30
0.0
 11
8.74827745689549
 21
21.22065217364066
 31
0.0
  0
LWPOLYLINE
  5
CD6
330
1E
100
AcDbEntity
  8
5
100
AcDbPolyline
 90
        3
 70
     0
 43
0.0
 10
17.33945007446476
 20
25.52839007028607
 10
17.39717011680346
 20
25.48282161580817
 10
17.44881436521175
 20
25.43421526436507
  0
LWPOLYLINE
  5
CDB
330
1E
100
AcDbEntity
  8
5
100
AcDbPolyline
 90
        5
 70
     0
 43
0.0
 10
17.56121655292394
 20
25.2549793434186
 10
17.57640603774992
 20
25.1942214041147
 10
17.57944393471511
 20
25.13346346481082
 10
17.57640603774992
 20
25.07270552550695
 10
17.56121655292394
 20
25.01498548316825
  0
LWPOLYLINE
  5
CE2
330
1E
100
AcDbEntity
  8
5
100
AcDbPolyline
 90
        3
 70
     0
 43
0.0
 10
17.36375325018631
 20
25.54054165814685
 10
17.42147329252501
 20
25.49497320366895
 10
17.47615543789851
 20
25.44636685222584
  0
LWPOLYLINE
  5
CE7
330
1E
100
AcDbEntity
  8
5
100
AcDbPolyline
 90
        8
 70
     0
 43
0.0
 10
17.56121655292394
 20
25.33092676754845
 10
17.5855197286455
 20
25.27624462217496
 10
17.60374711043667
 20
25.21852457983627
 10
17.60982290436705
 20
25.16384243446277
 10
17.60982290436705
 20
25.10612239212408
 10
17.60374711043667
 20
25.04840234978539
 10
17.5855197286455
 20
24.99372020441189
 10
17.56121655292394
 20
24.9390380590384
  0
LINE
  5
CF1
330
1E
100
AcDbEntity
  8
5
100
AcDbLine
 10
17.36375325018631
 20
25.54054165814686
 30
0.0
 11
17.33945007446476
 21
25.52839007028607
 31
0.0
  0
LINE
  5
CF2
330
1E
100
AcDbEntity
  8
5
100
AcDbLine
 10
17.28173003212608
 20
24.29804179938241
 30
0.0
 11
17.28173003212608
 21
24.11273008450557
 31
0.0
  0
LWPOLYLINE
  5
CF3
330
1E
100
AcDbEntity
  8
5
100
AcDbPolyline
 90
        6
 70
     0
 43
0.0
 10
17.28173003212608
 20
24.11273008450556
 10
17.28780582605646
 20
24.08235111485363
 10
17.30299531088244
 20
24.05804793913207
 10
17.3242605896388
 20
24.04893424823649
 10
17.35160166232554
 20
24.05197214520169
 10
17.3698290441167
 20
24.06412373306246
  0
LWPOLYLINE
  5
CFB
330
1E
100
AcDbEntity
  8
5
100
AcDbPolyline
 90
        8
 70
     0
 43
0.0
 10
17.61286080133225
 20
24.46512613246809
 10
17.60678500740186
 20
24.4043681931642
 10
17.59159552257589
 20
24.34361025386034
 10
17.56729234685433
 20
24.28285231455646
 10
17.530837583272
 20
24.22513227221775
 10
17.48526912879409
 20
24.16741222987907
 10
17.43362488038578
 20
24.11273008450556
 10
17.3698290441167
 20
24.06412373306246
  0
LWPOLYLINE
  5
D05
330
1E
100
AcDbEntity
  8
5
100
AcDbPolyline
 90
        6
 70
     0
 43
0.0
 10
17.30299531088244
 20
25.50712479152972
 10
17.29995741391725
 20
25.51016268849492
 10
17.29388161998685
 20
25.5162384824253
 10
17.28780582605646
 20
25.52535217332088
 10
17.28476792909127
 20
25.53446586421648
 10
17.28173003212608
 20
25.54357955511205
  0
LWPOLYLINE
  5
D0D
330
1E
100
AcDbEntity
  8
5
100
AcDbPolyline
 90
        4
 70
     0
 43
0.0
 10
17.33641217749957
 20
25.54661745207725
 10
17.34248797142996
 20
25.54965534904244
 10
17.35463955929073
 20
25.54661745207725
 10
17.36375325018631
 20
25.54054165814685
  0
LWPOLYLINE
  5
D13
330
1E
100
AcDbEntity
  8
5
100
AcDbPolyline
 90
        6
 70
     0
 43
0.0
 10
17.33945007446476
 20
25.52839007028607
 10
17.32729848660399
 20
25.53446586421648
 10
17.31514689874321
 20
25.53446586421648
 10
17.30907110481283
 20
25.52839007028607
 10
17.30299531088244
 20
25.5162384824253
 10
17.30299531088244
 20
25.50712479152972
  0
LINE
  5
D1B
330
1E
100
AcDbEntity
  8
5
100
AcDbLine
 10
17.30299531088244
 20
25.50712479152972
 30
0.0
 11
17.30299531088244
 21
25.50408689456452
 31
0.0
  0
LWPOLYLINE
  5
D1C
330
1E
100
AcDbEntity
  8
5
100
AcDbPolyline
 90
       11
 70
     0
 43
0.0
 10
17.30299531088244
 20
25.50408689456453
 10
17.30299531088244
 20
25.50104899759933
 10
17.29995741391725
 20
25.49497320366895
 10
17.29691951695204
 20
25.49193530670375
 10
17.29084372302166
 20
25.48889740973856
 10
17.28476792909127
 20
25.49193530670375
 10
17.27565423819569
 20
25.49497320366895
 10
17.26957844426529
 20
25.50408689456453
 10
17.26654054730009
 20
25.5132005854601
 10
17.26046475336971
 20
25.52231427635569
 10
17.26046475336971
 20
25.52839007028607
  0
LWPOLYLINE
  5
D29
330
1E
100
AcDbEntity
  8
5
100
AcDbPolyline
 90
        3
 70
     0
 43
0.0
 10
17.28780582605646
 20
24.07019952699284
 10
17.27565423819569
 20
24.07931321788843
 10
17.2635026503349
 20
24.10665429057518
  0
LWPOLYLINE
  5
D2E
330
1E
100
AcDbEntity
  8
5
100
AcDbPolyline
 90
       16
 70
     0
 43
0.0
 10
16.21846609430809
 20
26.20280319655919
 10
16.13948077321304
 20
26.23622006317634
 10
16.05138176122242
 20
26.26659903282829
 10
15.96024485226659
 20
26.29090220854983
 10
15.86607004634557
 20
26.31216748730619
 10
15.76885734345935
 20
26.32735697213215
 10
15.67164464057314
 20
26.33950855999294
 10
15.56835614375654
 20
26.34558435392332
 10
15.46810554390513
 20
26.34558435392332
 10
15.36785494405371
 20
26.33950855999294
 10
15.2676043442023
 20
26.33039486909735
 10
15.17039164131608
 20
26.31520538427138
 10
15.07621683539506
 20
26.29394010551502
 10
14.98507992643925
 20
26.26963692979347
 10
14.9000188114138
 20
26.23925796014153
 10
14.81799559335356
 20
26.2058410935244
  0
LINE
  5
D40
330
1E
100
AcDbEntity
  8
5
100
AcDbLine
 10
14.81799559335356
 20
26.2058410935244
 30
0.0
 11
14.83926087210991
 21
26.19368950566361
 31
0.0
  0
LWPOLYLINE
  5
D41
330
1E
100
AcDbEntity
  8
5
100
AcDbPolyline
 90
       16
 70
     0
 43
0.0
 10
16.19720081555173
 20
26.18761371173322
 10
16.11821549445669
 20
26.22103057835037
 10
16.03315437943125
 20
26.2514095480023
 10
15.94505536744061
 20
26.27571272372386
 10
15.85391845848479
 20
26.29697800248022
 10
15.76278154952897
 20
26.31216748730619
 10
15.66556884664275
 20
26.32128117820178
 10
15.56835614375654
 20
26.32735697213215
 10
15.47114344087032
 20
26.32735697213215
 10
15.37393073798411
 20
26.32128117820178
 10
15.27671803509789
 20
26.31216748730619
 10
15.18254322917687
 20
26.29697800248022
 10
15.09140632022104
 20
26.27875062068905
 10
15.00330730823041
 20
26.2544474449675
 10
14.91824619320496
 20
26.22406847531557
 10
14.83926087210991
 20
26.19368950566362
  0
LINE
  5
D53
330
1E
100
AcDbEntity
  8
5
100
AcDbLine
 10
16.19720081555173
 20
26.18761371173322
 30
0.0
 11
16.21846609430809
 21
26.20280319655919
 31
0.0
  0
LINE
  5
D54
330
1E
100
AcDbEntity
  8
5
100
AcDbLine
 10
14.74812396315408
 20
25.53446586421647
 30
0.0
 11
14.7390102722585
 21
25.54054165814686
 31
0.0
  0
LWPOLYLINE
  5
D55
330
1E
100
AcDbEntity
  8
5
100
AcDbPolyline
 90
        6
 70
     0
 43
0.0
 10
14.72078289046734
 20
26.05090834829949
 10
14.72382078743254
 20
26.08736311188182
 10
14.7390102722585
 20
26.12685577242934
 10
14.76331344798005
 20
26.16331053601167
 10
14.79369241763201
 20
26.19368950566362
 10
14.81799559335356
 20
26.2058410935244
  0
LWPOLYLINE
  5
D5D
330
1E
100
AcDbEntity
  8
5
100
AcDbPolyline
 90
        6
 70
     0
 43
0.0
 10
16.21846609430809
 20
26.20280319655919
 10
16.23365557913406
 20
26.19065160869842
 10
16.24884506396004
 20
26.17850002083765
 10
16.25795875485562
 20
26.16027263904647
 10
16.26403454878601
 20
26.14204525725531
 10
16.26403454878601
 20
26.12989366939454
  0
LWPOLYLINE
  5
D65
330
1E
100
AcDbEntity
  8
5
100
AcDbPolyline
 90
        6
 70
     0
 43
0.0
 10
16.28529982754237
 20
26.09343890581221
 10
16.28226193057717
 20
26.09647680277739
 10
16.27618613664679
 20
26.10255259670779
 10
16.2701103427164
 20
26.11166628760337
 10
16.2670724457512
 20
26.12077997849896
 10
16.26403454878601
 20
26.12989366939454
  0
LINE
  5
D6D
330
1E
100
AcDbEntity
  8
5
100
AcDbLine
 10
16.26403454878601
 20
25.55876903993802
 30
0.0
 11
16.26403454878601
 21
25.57699642172918
 31
0.0
  0
LWPOLYLINE
  5
D6E
330
1E
100
AcDbEntity
  8
5
100
AcDbPolyline
 90
        3
 70
     0
 43
0.0
 10
16.26403454878601
 20
25.55876903993802
 10
16.26403454878601
 20
25.54357955511205
 10
16.25188296092524
 20
25.53142796725128
  0
LINE
  5
D73
330
1E
100
AcDbEntity
  8
5
100
AcDbLine
 10
14.7420481692237
 20
26.03571886347351
 30
0.0
 11
14.7420481692237
 21
26.02356727561274
 31
0.0
  0
LWPOLYLINE
  5
D74
330
1E
100
AcDbEntity
  8
5
100
AcDbPolyline
 90
        6
 70
     0
 43
0.0
 10
14.74812396315408
 20
25.55269324600764
 10
14.74812396315408
 20
25.54661745207725
 10
14.76331344798005
 20
25.52535217332088
 10
14.78761662370161
 20
25.5132005854601
 10
14.81799559335356
 20
25.5162384824253
 10
14.83926087210991
 20
25.52535217332088
  0
LWPOLYLINE
  5
D7C
330
1E
100
AcDbEntity
  8
5
100
AcDbPolyline
 90
       16
 70
     0
 43
0.0
 10
16.19720081555173
 20
25.5192763793905
 10
16.11821549445669
 20
25.55269324600764
 10
16.03315437943125
 20
25.58307221565957
 10
15.94505536744061
 20
25.60737539138113
 10
15.85391845848479
 20
25.62864067013749
 10
15.76278154952897
 20
25.64383015496346
 10
15.66556884664275
 20
25.65294384585905
 10
15.56835614375654
 20
25.65901963978943
 10
15.47114344087032
 20
25.65901963978943
 10
15.37393073798411
 20
25.65294384585905
 10
15.27671803509789
 20
25.64383015496346
 10
15.18254322917687
 20
25.62864067013749
 10
15.09140632022104
 20
25.61041328834633
 10
15.00330730823041
 20
25.58611011262477
 10
14.91824619320496
 20
25.55573114297282
 10
14.83926087210991
 20
25.52535217332088
  0
LWPOLYLINE
  5
D8E
330
1E
100
AcDbEntity
  8
5
100
AcDbPolyline
 90
        6
 70
     0
 43
0.0
 10
16.19720081555173
 20
25.5192763793905
 10
16.2123903003777
 20
25.5162384824253
 10
16.22454188823848
 20
25.5162384824253
 10
16.23669347609926
 20
25.52535217332088
 10
16.24276927002965
 20
25.53750376118167
 10
16.24276927002965
 20
25.54661745207725
  0
LINE
  5
D96
330
1E
100
AcDbEntity
  8
5
100
AcDbLine
 10
16.24276927002966
 20
25.54661745207725
 30
0.0
 11
16.24276927002966
 21
25.5648448338684
 31
0.0
  0
LWPOLYLINE
  5
D97
330
1E
100
AcDbEntity
  8
5
100
AcDbPolyline
 90
       11
 70
     0
 43
0.0
 10
16.24276927002965
 20
25.56484483386841
 10
16.24276927002965
 20
25.57092062779879
 10
16.24884506396004
 20
25.57699642172918
 10
16.25188296092524
 20
25.58003431869438
 10
16.26099665182082
 20
25.58003431869438
 10
16.26403454878601
 20
25.57699642172918
 10
16.27314823968159
 20
25.57092062779879
 10
16.27922403361198
 20
25.56484483386841
 10
16.28226193057717
 20
25.55573114297282
 10
16.28529982754237
 20
25.54661745207725
 10
16.28529982754237
 20
25.54054165814685
  0
LWPOLYLINE
  5
DA4
330
1E
100
AcDbEntity
  8
5
100
AcDbPolyline
 90
       11
 70
     0
 43
0.0
 10
16.28529982754237
 20
26.09343890581221
 10
16.28529982754237
 20
26.09040100884701
 10
16.28529982754237
 20
26.08128731795142
 10
16.27922403361198
 20
26.07824942098624
 10
16.27314823968159
 20
26.07824942098624
 10
16.2670724457512
 20
26.07824942098624
 10
16.26099665182082
 20
26.08432521491662
 10
16.25188296092524
 20
26.09040100884701
 10
16.24884506396004
 20
26.09951469974259
 10
16.24276927002965
 20
26.10862839063818
 10
16.24276927002965
 20
26.11470418456857
  0
LINE
  5
DB1
330
1E
100
AcDbEntity
  8
5
100
AcDbLine
 10
16.24276927002966
 20
26.11470418456857
 30
0.0
 11
16.24276927002966
 21
26.11774208153376
 31
0.0
  0
LWPOLYLINE
  5
DB2
330
1E
100
AcDbEntity
  8
5
100
AcDbPolyline
 90
        6
 70
     0
 43
0.0
 10
16.24276927002965
 20
26.11774208153377
 10
16.23973137306446
 20
26.13596946332493
 10
16.23365557913406
 20
26.15419684511608
 10
16.22150399127329
 20
26.16938632994206
 10
16.20631450644731
 20
26.18153791780283
 10
16.19720081555173
 20
26.18761371173322
  0
LWPOLYLINE
  5
DBA
330
1E
100
AcDbEntity
  8
5
100
AcDbPolyline
 90
        6
 70
     0
 43
0.0
 10
14.83926087210991
 20
26.19368950566362
 10
14.80584400549278
 20
26.17242422690726
 10
14.77850293280603
 20
26.13900736029011
 10
14.75723765404966
 20
26.10255259670779
 10
14.74508606618889
 20
26.06305993616026
 10
14.7420481692237
 20
26.03571886347351
  0
LINE
  5
DC2
330
1E
100
AcDbEntity
  8
5
100
AcDbLine
 10
16.24276927002966
 20
25.5648448338684
 30
0.0
 11
16.26403454878601
 21
25.57699642172918
 31
0.0
  0
LINE
  5
DC3
330
1E
100
AcDbEntity
  8
5
100
AcDbLine
 10
16.24276927002966
 20
25.54661745207725
 30
0.0
 11
16.26403454878601
 21
25.55876903993802
 31
0.0
  0
LWPOLYLINE
  5
DC4
330
1E
100
AcDbEntity
  8
5
100
AcDbPolyline
 90
        3
 70
     0
 43
0.0
 10
17.217934195857
 20
24.01551738161935
 10
17.22704788675258
 20
24.02766896948012
 10
17.23008578371778
 20
24.0428584543061
  0
LWPOLYLINE
  5
DC9
330
1E
100
AcDbEntity
  8
5
100
AcDbPolyline
 90
        5
 70
     0
 43
0.0
 10
11.33960356820617
 20
20.64345175025376
 10
11.35783094999733
 20
20.63737595632337
 10
11.3699825378581
 20
20.64041385328857
 10
11.37909622875368
 20
20.64952754418414
 10
11.38517202268407
 20
20.66775492597531
  0
LINE
  5
DD0
330
1E
100
AcDbEntity
  8
5
100
AcDbLine
 10
11.38517202268407
 20
20.66775492597531
 30
0.0
 11
11.36086884696252
 21
20.67990651383609
 31
0.0
  0
LWPOLYLINE
  5
DD1
330
1E
100
AcDbEntity
  8
5
100
AcDbPolyline
 90
        4
 70
     0
 43
0.0
 10
11.33960356820617
 20
20.66775492597531
 10
11.35175515606694
 20
20.66471702901011
 10
11.35783094999733
 20
20.67079282294052
 10
11.36086884696252
 20
20.67990651383609
  0
LINE
  5
DD7
330
1E
100
AcDbEntity
  8
5
100
AcDbLine
 10
17.23008578371778
 20
24.0428584543061
 30
0.0
 11
15.59569721644328
 21
23.10111039509588
 31
0.0
  0
LINE
  5
DD8
330
1E
100
AcDbEntity
  8
5
100
AcDbLine
 10
15.02457258698676
 20
22.76997962588971
 30
0.0
 11
15.01545889609118
 21
22.76390383195933
 31
0.0
  0
LINE
  5
DD9
330
1E
100
AcDbEntity
  8
5
100
AcDbLine
 10
14.44433426663467
 20
22.43581095971835
 30
0.0
 11
11.38517202268407
 21
20.66775492597531
 31
0.0
  0
LINE
  5
DDA
330
1E
100
AcDbEntity
  8
5
100
AcDbLine
 10
17.23008578371778
 20
24.0428584543061
 30
0.0
 11
17.23008578371778
 21
24.26766282973047
 31
0.0
  0
LINE
  5
DDB
330
1E
100
AcDbEntity
  8
5
100
AcDbLine
 10
11.38517202268407
 20
20.66775492597531
 30
0.0
 11
11.38517202268407
 21
21.22065217364066
 31
0.0
  0
LINE
  5
DDC
330
1E
100
AcDbEntity
  8
5
100
AcDbLine
 10
11.38517202268407
 20
21.22065217364066
 30
0.0
 11
11.36086884696252
 21
21.23280376150143
 31
0.0
  0
LINE
  5
DDD
330
1E
100
AcDbEntity
  8
5
100
AcDbLine
 10
11.36086884696252
 20
20.67990651383609
 30
0.0
 11
11.36086884696252
 21
21.23280376150143
 31
0.0
  0
LINE
  5
DDE
330
1E
100
AcDbEntity
  8
5
100
AcDbLine
 10
14.66002495116345
 20
23.10718618902627
 30
0.0
 11
14.66002495116345
 21
23.11022408599147
 31
0.0
  0
LINE
  5
DDF
330
1E
100
AcDbEntity
  8
5
100
AcDbLine
 10
11.40339940447524
 20
21.23280376150143
 30
0.0
 11
11.38517202268407
 21
21.22065217364066
 31
0.0
  0
LINE
  5
DE0
330
1E
100
AcDbEntity
  8
5
100
AcDbLine
 10
14.6387596724071
 20
23.11933777688706
 30
0.0
 11
14.6387596724071
 21
23.09199670420031
 31
0.0
  0
LWPOLYLINE
  5
DE1
330
1E
100
AcDbEntity
  8
5
100
AcDbPolyline
 90
        4
 70
     0
 43
0.0
 10
14.71166919957176
 20
25.47370792491258
 10
14.69951761171099
 20
25.48282161580817
 10
14.69344181778059
 20
25.49801110063413
 10
14.6904039208154
 20
25.51016268849492
  0
LINE
  5
DE7
330
1E
100
AcDbEntity
  8
5
100
AcDbLine
 10
14.6904039208154
 20
25.51016268849491
 30
0.0
 11
12.4818528271192
 21
24.23728386007853
 31
0.0
  0
LINE
  5
DE8
330
1E
100
AcDbEntity
  8
5
100
AcDbLine
 10
11.90769030069749
 20
23.90311519390717
 30
0.0
 11
9.091559813962437
 21
22.27784031752825
 31
0.0
  0
LINE
  5
DE9
330
1E
100
AcDbEntity
  8
5
100
AcDbLine
 10
8.842452262816513
 20
22.61808477763
 30
0.0
 11
8.842452262816513
 21
22.68491851086428
 31
0.0
  0
LINE
  5
DEA
330
1E
100
AcDbEntity
  8
5
100
AcDbLine
 10
8.842452262816513
 20
22.68491851086428
 30
0.0
 11
8.821186984060158
 21
22.70010799569025
 31
0.0
  0
LINE
  5
DEB
330
1E
100
AcDbEntity
  8
5
100
AcDbLine
 10
8.821186984060158
 20
22.61808477763
 30
0.0
 11
8.821186984060158
 21
22.70010799569025
 31
0.0
  0
LINE
  5
DEC
330
1E
100
AcDbEntity
  8
5
100
AcDbLine
 10
14.6904039208154
 20
25.51016268849491
 30
0.0
 11
14.6904039208154
 21
25.51320058546011
 31
0.0
  0
LINE
  5
DED
330
1E
100
AcDbEntity
  8
5
100
AcDbLine
 10
14.6904039208154
 20
25.99622620292599
 30
0.0
 11
14.6904039208154
 21
26.06305993616025
 31
0.0
  0
LINE
  5
DEE
330
1E
100
AcDbEntity
  8
5
100
AcDbLine
 10
12.09603991253952
 20
24.5198082778416
 30
0.0
 11
12.03831987020083
 21
24.48639141122446
 31
0.0
  0
LINE
  5
DEF
330
1E
100
AcDbEntity
  8
5
100
AcDbLine
 10
11.46719524074432
 20
24.15526064201829
 30
0.0
 11
11.41251309537082
 21
24.12488167236634
 31
0.0
  0
LINE
  5
DF0
330
1E
100
AcDbEntity
  8
5
100
AcDbLine
 10
12.09603991253952
 20
24.58967990804106
 30
0.0
 11
12.09603991253952
 21
24.5198082778416
 31
0.0
  0
LINE
  5
DF1
330
1E
100
AcDbEntity
  8
5
100
AcDbLine
 10
11.41251309537082
 20
24.17045012684425
 30
0.0
 11
11.41251309537082
 21
24.0975405996796
 31
0.0
  0
LINE
  5
DF2
330
1E
100
AcDbEntity
  8
5
100
AcDbLine
 10
14.6904039208154
 20
26.06305993616025
 30
0.0
 11
12.12034308826108
 21
24.57752832018028
 31
0.0
  0
LINE
  5
DF3
330
1E
100
AcDbEntity
  8
5
100
AcDbLine
 10
12.12034308826108
 20
24.57752832018028
 30
0.0
 11
12.12034308826108
 21
24.50461879301562
 31
0.0
  0
LINE
  5
DF4
330
1E
100
AcDbEntity
  8
5
100
AcDbLine
 10
11.41251309537082
 20
24.0975405996796
 30
0.0
 11
11.48846051950068
 21
24.14310905415751
 31
0.0
  0
LINE
  5
DF5
330
1E
100
AcDbEntity
  8
5
100
AcDbLine
 10
12.0626230459224
 20
24.47120192639849
 30
0.0
 11
12.12034308826108
 21
24.50461879301562
 31
0.0
  0
LWPOLYLINE
  5
DF6
330
1E
100
AcDbEntity
  8
5
100
AcDbPolyline
 90
        4
 70
     0
 43
0.0
 10
11.38517202268407
 20
21.22065217364066
 10
11.38517202268407
 20
21.22976586453624
 10
11.39428571357966
 20
21.23584165846663
 10
11.40339940447524
 20
21.23280376150143
  0
LINE
  5
DFC
330
1E
100
AcDbEntity
  8
5
100
AcDbLine
 10
11.40339940447524
 20
21.23280376150143
 30
0.0
 11
11.40339940447524
 21
21.25710693722299
 31
0.0
  0
LWPOLYLINE
  5
DFD
330
1E
100
AcDbEntity
  8
5
100
AcDbPolyline
 90
        5
 70
     0
 43
0.0
 10
11.36086884696252
 20
21.23280376150143
 10
11.36390674392771
 20
21.25103114329261
 10
11.37302043482329
 20
21.26014483418818
 10
11.38820991964927
 20
21.26318273115338
 10
11.40339940447524
 20
21.25710693722299
  0
LINE
  5
E04
330
1E
100
AcDbEntity
  8
5
100
AcDbLine
 10
11.40339940447524
 20
21.25710693722299
 30
0.0
 11
11.6919996161687
 21
21.42419127030867
 31
0.0
  0
LINE
  5
E05
330
1E
100
AcDbEntity
  8
5
100
AcDbLine
 10
11.40339940447524
 20
21.23280376150143
 30
0.0
 11
11.67073433741233
 21
21.07787101627653
 31
0.0
  0
LINE
  5
E06
330
1E
100
AcDbEntity
  8
5
100
AcDbLine
 10
11.67073433741233
 20
21.07787101627653
 30
0.0
 11
11.67073433741233
 21
21.10521208896328
 31
0.0
  0
LINE
  5
E07
330
1E
100
AcDbEntity
  8
5
100
AcDbLine
 10
11.40339940447524
 20
21.25710693722299
 30
0.0
 11
11.67073433741233
 21
21.10521208896328
 31
0.0
  0
LINE
  5
E08
330
1E
100
AcDbEntity
  8
5
100
AcDbLine
 10
14.68432812688501
 20
23.1466788495738
 30
0.0
 11
14.70863130260657
 21
23.13452726171303
 31
0.0
  0
LINE
  5
E09
330
1E
100
AcDbEntity
  8
5
100
AcDbLine
 10
14.70863130260657
 20
23.13452726171303
 30
0.0
 11
14.28940152140976
 21
22.89149550449749
 31
0.0
  0
LINE
  5
E0A
330
1E
100
AcDbEntity
  8
5
100
AcDbLine
 10
11.67073433741233
 20
21.10521208896328
 30
0.0
 11
11.6919996161687
 21
21.11736367682406
 31
0.0
  0
LINE
  5
E0B
330
1E
100
AcDbEntity
  8
5
100
AcDbLine
 10
14.68129022991982
 20
23.12237567385226
 30
0.0
 11
14.68432812688501
 21
23.11933777688706
 31
0.0
  0
LWPOLYLINE
  5
E0C
330
1E
100
AcDbEntity
  8
5
100
AcDbPolyline
 90
        5
 70
     0
 43
0.0
 10
14.6904039208154
 20
26.06305993616026
 10
14.6873660238502
 20
26.08432521491662
 10
14.67825233295462
 20
26.10559049367298
 10
14.66306284812864
 20
26.12381787546414
 10
14.64483546633748
 20
26.13596946332493
  0
LINE
  5
E13
330
1E
100
AcDbEntity
  8
5
100
AcDbLine
 10
8.799921705303791
 20
22.76086593499413
 30
0.0
 11
8.799921705303791
 21
22.73656275927259
 31
0.0
  0
LWPOLYLINE
  5
E14
330
1E
100
AcDbEntity
  8
5
100
AcDbPolyline
 90
        5
 70
     0
 43
0.0
 10
12.12034308826108
 20
24.57752832018028
 10
12.11730519129589
 20
24.59879359893664
 10
12.10515360343511
 20
24.62005887769302
 10
12.09300201557433
 20
24.64132415644936
 10
12.07477463378317
 20
24.65347574431013
  0
LINE
  5
E1B
330
1E
100
AcDbEntity
  8
5
100
AcDbLine
 10
14.64483546633748
 20
26.13596946332492
 30
0.0
 11
12.07477463378317
 21
24.65347574431014
 31
0.0
  0
LWPOLYLINE
  5
E1C
330
1E
100
AcDbEntity
  8
5
100
AcDbPolyline
 90
        4
 70
     0
 43
0.0
 10
12.09603991253952
 20
24.58967990804107
 10
12.09300201557433
 20
24.60486939286703
 10
12.08692622164394
 20
24.61702098072782
 10
12.07477463378317
 20
24.6261346716234
  0
LINE
  5
E22
330
1E
100
AcDbEntity
  8
5
100
AcDbLine
 10
14.64483546633748
 20
26.13596946332492
 30
0.0
 11
14.38053843036558
 21
26.29090220854983
 31
0.0
  0
LINE
  5
E23
330
1E
100
AcDbEntity
  8
5
100
AcDbLine
 10
8.799921705303791
 20
22.76086593499413
 30
0.0
 11
8.535624669331898
 21
22.91579868021904
 31
0.0
  0
LINE
  5
E24
330
1E
100
AcDbEntity
  8
5
100
AcDbLine
 10
8.535624669331898
 20
22.91579868021904
 30
0.0
 11
8.535624669331898
 21
22.88845760753229
 31
0.0
  0
LINE
  5
E25
330
1E
100
AcDbEntity
  8
5
100
AcDbLine
 10
8.799921705303791
 20
22.73656275927259
 30
0.0
 11
8.535624669331898
 21
22.88845760753229
 31
0.0
  0
LINE
  5
E26
330
1E
100
AcDbEntity
  8
5
100
AcDbLine
 10
11.3699825378581
 20
24.24639755097411
 30
0.0
 11
11.34264146517136
 21
24.26158703580008
 31
0.0
  0
LINE
  5
E27
330
1E
100
AcDbEntity
  8
5
100
AcDbLine
 10
11.34264146517136
 20
24.26158703580008
 30
0.0
 11
12.04743356109641
 21
24.66866522913611
 31
0.0
  0
LINE
  5
E28
330
1E
100
AcDbEntity
  8
5
100
AcDbLine
 10
12.07477463378317
 20
24.65347574431014
 30
0.0
 11
12.04743356109641
 21
24.66866522913611
 31
0.0
  0
LINE
  5
E29
330
1E
100
AcDbEntity
  8
5
100
AcDbLine
 10
14.38053843036558
 20
26.29090220854983
 30
0.0
 11
8.535624669331898
 21
22.91579868021904
 31
0.0
  0
LINE
  5
E2A
330
1E
100
AcDbEntity
  8
5
100
AcDbLine
 10
12.04743356109641
 20
24.64436205341455
 30
0.0
 11
12.07477463378317
 21
24.6261346716234
 31
0.0
  0
LINE
  5
E2B
330
1E
100
AcDbEntity
  8
5
100
AcDbLine
 10
11.90769030069749
 20
24.56233883535432
 30
0.0
 11
12.04743356109641
 21
24.64436205341455
 31
0.0
  0
LWPOLYLINE
  5
E2C
330
1E
100
AcDbEntity
  8
5
100
AcDbPolyline
 90
        3
 70
     0
 43
0.0
 10
17.54602706809797
 20
24.44993664764212
 10
17.55514075899355
 20
24.46208823550291
 10
17.56121655292394
 20
24.48031561729407
  0
LWPOLYLINE
  5
E31
330
1E
100
AcDbEntity
  8
5
100
AcDbPolyline
 90
        5
 70
     0
 43
0.0
 10
11.67073433741233
 20
21.07787101627653
 10
11.68592382223831
 20
21.07179522234614
 10
11.70111330706427
 20
21.07483311931134
 10
11.71022699795985
 20
21.08698470717211
 10
11.71326489492506
 20
21.10521208896329
  0
LINE
  5
E38
330
1E
100
AcDbEntity
  8
5
100
AcDbLine
 10
11.71326489492506
 20
21.10521208896328
 30
0.0
 11
11.6919996161687
 21
21.11736367682406
 31
0.0
  0
LWPOLYLINE
  5
E39
330
1E
100
AcDbEntity
  8
5
100
AcDbPolyline
 90
        4
 70
     0
 43
0.0
 10
11.67073433741233
 20
21.10521208896329
 10
11.67984802830792
 20
21.10217419199809
 10
11.6889617192035
 20
21.10521208896329
 10
11.69199961616869
 20
21.11736367682406
  0
LINE
  5
E3F
330
1E
100
AcDbEntity
  8
5
100
AcDbLine
 10
17.56121655292394
 20
24.48031561729407
 30
0.0
 11
15.58962142251289
 21
23.34110425534623
 31
0.0
  0
LINE
  5
E40
330
1E
100
AcDbEntity
  8
5
100
AcDbLine
 10
15.02153469002157
 20
23.01301138310525
 30
0.0
 11
11.71326489492506
 21
21.10521208896328
 31
0.0
  0
LINE
  5
E41
330
1E
100
AcDbEntity
  8
5
100
AcDbLine
 10
17.56121655292394
 20
24.48031561729407
 30
0.0
 11
17.56121655292394
 21
25.36738153113078
 31
0.0
  0
LINE
  5
E42
330
1E
100
AcDbEntity
  8
5
100
AcDbLine
 10
11.71326489492506
 20
21.10521208896328
 30
0.0
 11
11.71326489492506
 21
21.9922780028
 31
0.0
  0
LINE
  5
E43
330
1E
100
AcDbEntity
  8
5
100
AcDbLine
 10
11.71326489492506
 20
21.9922780028
 30
0.0
 11
11.6919996161687
 21
22.00442959066077
 31
0.0
  0
LINE
  5
E44
330
1E
100
AcDbEntity
  8
5
100
AcDbLine
 10
11.6919996161687
 20
21.11736367682406
 30
0.0
 11
11.6919996161687
 21
22.00442959066077
 31
0.0
  0
LINE
  5
E45
330
1E
100
AcDbEntity
  8
5
100
AcDbLine
 10
14.32889418195729
 20
23.26515683121637
 30
0.0
 11
14.82103349031875
 21
23.55071914594463
 31
0.0
  0
LINE
  5
E46
330
1E
100
AcDbEntity
  8
5
100
AcDbLine
 10
14.32889418195729
 20
23.16490623136496
 30
0.0
 11
14.86963984176186
 21
23.47780961877997
 31
0.0
  0
LWPOLYLINE
  5
E47
330
1E
100
AcDbEntity
  8
5
100
AcDbPolyline
 90
        9
 70
     0
 43
0.0
 10
14.32889418195729
 20
23.26515683121638
 10
14.31066680016613
 20
23.25300524335561
 10
14.29547731534015
 20
23.23173996459924
 10
14.28636362444457
 20
23.21047468584287
 10
14.28332572747936
 20
23.18920940708653
 10
14.28636362444457
 20
23.17098202529535
 10
14.29547731534015
 20
23.16186833439977
 10
14.31066680016613
 20
23.15883043743458
 10
14.32889418195729
 20
23.16490623136497
  0
LINE
  5
E52
330
1E
100
AcDbEntity
  8
5
100
AcDbLine
 10
14.32889418195729
 20
22.9401018559406
 30
0.0
 11
14.94558726589171
 21
23.29553580086832
 31
0.0
  0
LWPOLYLINE
  5
E53
330
1E
100
AcDbEntity
  8
5
100
AcDbPolyline
 90
        3
 70
     0
 43
0.0
 10
14.94558726589171
 20
23.19528520101691
 10
14.96381464768288
 20
23.21047468584287
 10
14.97900413250885
 20
23.23477786156444
  0
LWPOLYLINE
  5
E58
330
1E
100
AcDbEntity
  8
5
100
AcDbPolyline
 90
        3
 70
     0
 43
0.0
 10
14.95773885375248
 20
23.30161159479871
 10
14.9516630598221
 20
23.29857369783351
 10
14.94558726589171
 20
23.29553580086832
  0
LINE
  5
E5D
330
1E
100
AcDbEntity
  8
5
100
AcDbLine
 10
14.32889418195729
 20
22.83681335912399
 30
0.0
 11
14.94558726589171
 21
23.19528520101691
 31
0.0
  0
LWPOLYLINE
  5
E5E
330
1E
100
AcDbEntity
  8
5
100
AcDbPolyline
 90
        9
 70
     0
 43
0.0
 10
14.32889418195729
 20
22.9401018559406
 10
14.31066680016613
 20
22.92491237111462
 10
14.29547731534015
 20
22.90668498932345
 10
14.28636362444457
 20
22.88541971056711
 10
14.28332572747936
 20
22.86415443181073
 10
14.28636362444457
 20
22.84592705001957
 10
14.29547731534015
 20
22.8337754621588
 10
14.31066680016613
 20
22.8307375651936
 10
14.32889418195729
 20
22.836813359124
  0
LINE
  5
E69
330
1E
100
AcDbEntity
  8
5
100
AcDbLine
 10
17.46704174700292
 20
25.42206367650428
 30
0.0
 11
15.17646743524647
 21
24.0975405996796
 31
0.0
  0
LINE
  5
E6A
330
1E
100
AcDbEntity
  8
5
100
AcDbLine
 10
14.3258562849921
 20
23.48388541271036
 30
0.0
 11
14.6964797147458
 21
23.69957609723916
 31
0.0
  0
LWPOLYLINE
  5
E6B
330
1E
100
AcDbEntity
  8
5
100
AcDbPolyline
 90
        5
 70
     0
 43
0.0
 10
14.3258562849921
 20
23.48388541271037
 10
14.31066680016613
 20
23.47780961877997
 10
14.29547731534015
 20
23.48084751574517
 10
14.28636362444457
 20
23.49299910360594
 10
14.28332572747936
 20
23.50818858843192
  0
LINE
  5
E72
330
1E
100
AcDbEntity
  8
5
100
AcDbLine
 10
14.28332572747936
 20
23.53249176415347
 30
0.0
 11
14.28332572747936
 21
23.50818858843192
 31
0.0
  0
LWPOLYLINE
  5
E73
330
1E
100
AcDbEntity
  8
5
100
AcDbPolyline
 90
        5
 70
     0
 43
0.0
 10
14.28332572747936
 20
23.53249176415347
 10
14.28028783051417
 20
23.55071914594463
 10
14.27117413961859
 20
23.55983283684022
 10
14.25598465479262
 20
23.56287073380542
 10
14.24079516996665
 20
23.55679493987502
  0
LWPOLYLINE
  5
E7A
330
1E
100
AcDbEntity
  8
5
100
AcDbPolyline
 90
        7
 70
     0
 43
0.0
 10
11.80440180388088
 20
22.15024864499009
 10
11.78009862815933
 20
22.13505916016412
 10
11.75883334940296
 20
22.11075598444256
 10
11.7406059676118
 20
22.08341491175583
 10
11.72541648278583
 20
22.05303594210388
 10
11.71630279189025
 20
22.02265697245195
 10
11.71326489492506
 20
21.9922780028
  0
LWPOLYLINE
  5
E83
330
1E
100
AcDbEntity
  8
5
100
AcDbPolyline
 90
        7
 70
     0
 43
0.0
 10
17.56121655292394
 20
25.36738153113078
 10
17.55817865595874
 20
25.39472260381753
 10
17.54906496506316
 20
25.4129499856087
 10
17.53387548023719
 20
25.42813947043466
 10
17.51261020148084
 20
25.43421526436507
 10
17.49134492272447
 20
25.43117736739986
 10
17.46704174700292
 20
25.42206367650428
  0
LWPOLYLINE
  5
E8C
330
1E
100
AcDbEntity
  8
5
100
AcDbPolyline
 90
        3
 70
     0
 43
0.0
 10
14.28636362444457
 20
23.17098202529535
 10
14.29547731534015
 20
23.17401992226056
 10
14.30459100623573
 20
23.17705781922576
  0
LINE
  5
E91
330
1E
100
AcDbEntity
  8
5
100
AcDbLine
 10
14.30459100623573
 20
23.17705781922575
 30
0.0
 11
14.85748825390107
 21
23.49603700057114
 31
0.0
  0
LWPOLYLINE
  5
E92
330
1E
100
AcDbEntity
  8
5
100
AcDbPolyline
 90
        3
 70
     0
 43
0.0
 10
14.28636362444457
 20
22.84592705001957
 10
14.29547731534015
 20
22.84592705001957
 10
14.30459100623573
 20
22.85200284394997
  0
LINE
  5
E97
330
1E
100
AcDbEntity
  8
5
100
AcDbLine
 10
14.30459100623573
 20
22.85200284394996
 30
0.0
 11
14.92432198713535
 21
23.20743678887768
 31
0.0
  0
LWPOLYLINE
  5
E98
330
1E
100
AcDbEntity
  8
5
100
AcDbPolyline
 90
        4
 70
     0
 43
0.0
 10
14.92432198713535
 20
23.20743678887769
 10
14.94254936892651
 20
23.22566417066885
 10
14.95773885375248
 20
23.24996734639041
 10
14.96685254464807
 20
23.27427052211196
  0
LINE
  5
E9E
330
1E
100
AcDbEntity
  8
5
100
AcDbLine
 10
15.15824005345531
 20
24.11273008450557
 30
0.0
 11
17.44577646824656
 21
25.43421526436506
 31
0.0
  0
LWPOLYLINE
  5
E9F
330
1E
100
AcDbEntity
  8
5
100
AcDbPolyline
 90
        4
 70
     0
 43
0.0
 10
17.44577646824656
 20
25.43421526436507
 10
17.47007964396812
 20
25.44332895526064
 10
17.49134492272447
 20
25.44636685222584
 10
17.50957230451565
 20
25.44029105829545
  0
LWPOLYLINE
  5
EA5
330
1E
100
AcDbEntity
  8
5
100
AcDbPolyline
 90
        7
 70
     0
 43
0.0
 10
11.69199961616869
 20
22.00442959066077
 10
11.69503751313389
 20
22.03480856031271
 10
11.70415120402947
 20
22.06518752996466
 10
11.71630279189025
 20
22.0955664996166
 10
11.73756807064661
 20
22.12290757230335
 10
11.75883334940296
 20
22.14721074802489
 10
11.78313652512452
 20
22.16543812981607
  0
LWPOLYLINE
  5
EAE
330
1E
100
AcDbEntity
  8
5
100
AcDbPolyline
 90
        3
 70
     0
 43
0.0
 10
14.2195298912103
 20
23.571984424701
 10
14.23471937603627
 20
23.57806021863138
 10
14.24990886086223
 20
23.57502232166619
  0
LWPOLYLINE
  5
EB3
330
1E
100
AcDbEntity
  8
5
100
AcDbPolyline
 90
        3
 70
     0
 43
0.0
 10
14.28636362444457
 20
23.49299910360594
 10
14.29547731534015
 20
23.49299910360594
 10
14.30459100623573
 20
23.49907489753634
  0
LINE
  5
EB8
330
1E
100
AcDbEntity
  8
5
100
AcDbLine
 10
14.30459100623573
 20
23.49907489753633
 30
0.0
 11
14.67825233295462
 21
23.71476558206512
 31
0.0
  0
LINE
  5
EB9
330
1E
100
AcDbEntity
  8
5
100
AcDbLine
 10
17.46704174700292
 20
25.42206367650428
 30
0.0
 11
17.44577646824656
 21
25.43421526436506
 31
0.0
  0
LWPOLYLINE
  5
EBA
330
1E
100
AcDbEntity
  8
5
100
AcDbPolyline
 90
        4
 70
     0
 43
0.0
 10
8.535624669331898
 20
22.91579868021905
 10
8.523473081471113
 20
22.92491237111463
 10
8.517397287540728
 20
22.9370639589754
 10
8.514359390575535
 20
22.95225344380137
  0
LINE
  5
EC0
330
1E
100
AcDbEntity
  8
5
100
AcDbLine
 10
8.514359390575535
 20
22.95225344380137
 30
0.0
 11
8.490056214853975
 21
22.96440503166214
 31
0.0
  0
LWPOLYLINE
  5
EC1
330
1E
100
AcDbEntity
  8
5
100
AcDbPolyline
 90
        5
 70
     0
 43
0.0
 10
8.535624669331898
 20
22.88845760753229
 10
8.517397287540728
 20
22.90364709235826
 10
8.50220780271476
 20
22.92187447414943
 10
8.493094111819178
 20
22.9431397529058
 10
8.490056214853975
 20
22.96440503166214
  0
LWPOLYLINE
  5
EC8
330
1E
100
AcDbEntity
  8
5
100
AcDbPolyline
 90
        4
 70
     0
 43
0.0
 10
14.38053843036558
 20
26.29090220854983
 10
14.37142473947
 20
26.3000158994454
 10
14.36231104857442
 20
26.31216748730619
 10
14.35927315160922
 20
26.32735697213215
  0
LINE
  5
ECE
330
1E
100
AcDbEntity
  8
5
100
AcDbLine
 10
14.35927315160922
 20
26.32735697213216
 30
0.0
 11
8.514359390575535
 21
22.95225344380137
 31
0.0
  0
LINE
  5
ECF
330
1E
100
AcDbEntity
  8
5
100
AcDbLine
 10
8.514359390575535
 20
22.95225344380137
 30
0.0
 11
8.514359390575535
 21
23.83931935763808
 31
0.0
  0
LINE
  5
ED0
330
1E
100
AcDbEntity
  8
5
100
AcDbLine
 10
8.514359390575535
 20
23.83931935763808
 30
0.0
 11
8.490056214853975
 21
23.85450884246406
 31
0.0
  0
LINE
  5
ED1
330
1E
100
AcDbEntity
  8
5
100
AcDbLine
 10
8.490056214853975
 20
22.96440503166214
 30
0.0
 11
8.490056214853975
 21
23.85450884246406
 31
0.0
  0
LINE
  5
ED2
330
1E
100
AcDbEntity
  8
5
100
AcDbLine
 10
14.35927315160922
 20
26.32735697213216
 30
0.0
 11
14.35927315160922
 21
27.21442288596887
 31
0.0
  0
LWPOLYLINE
  5
ED3
330
1E
100
AcDbEntity
  8
5
100
AcDbPolyline
 90
        3
 70
     0
 43
0.0
 10
11.10568550188621
 20
25.02409917406384
 10
11.09657181099063
 20
25.02106127709864
 10
11.08745812009504
 20
25.01802338013344
  0
LINE
  5
ED8
330
1E
100
AcDbEntity
  8
5
100
AcDbLine
 10
11.72237858582064
 20
25.38257101595675
 30
0.0
 11
11.10568550188621
 21
25.02409917406383
 31
0.0
  0
LWPOLYLINE
  5
ED9
330
1E
100
AcDbEntity
  8
5
100
AcDbPolyline
 90
        6
 70
     0
 43
0.0
 10
11.76187124636815
 20
25.47674582187777
 10
11.76794704029854
 20
25.45851844008661
 10
11.76490914333335
 20
25.43725316133025
 10
11.75579545243777
 20
25.41598788257389
 10
11.7406059676118
 20
25.39472260381753
 10
11.72237858582064
 20
25.38257101595675
  0
LWPOLYLINE
  5
EE1
330
1E
100
AcDbEntity
  8
5
100
AcDbPolyline
 90
        3
 70
     0
 43
0.0
 10
11.10568550188621
 20
24.69904419878805
 10
11.09657181099063
 20
24.69296840485767
 10
11.08745812009504
 20
24.69296840485767
  0
LINE
  5
EE6
330
1E
100
AcDbEntity
  8
5
100
AcDbLine
 10
11.72237858582064
 20
25.05447814371578
 30
0.0
 11
11.10568550188621
 21
24.69904419878805
 31
0.0
  0
LWPOLYLINE
  5
EE7
330
1E
100
AcDbEntity
  8
5
100
AcDbPolyline
 90
        6
 70
     0
 43
0.0
 10
11.76187124636815
 20
25.1486529496368
 10
11.76794704029854
 20
25.13346346481082
 10
11.76490914333335
 20
25.11219818605447
 10
11.75579545243777
 20
25.08789501033292
 10
11.7406059676118
 20
25.06966762854176
 10
11.72237858582064
 20
25.05447814371579
  0
LWPOLYLINE
  5
EEF
330
1E
100
AcDbEntity
  8
5
100
AcDbPolyline
 90
        4
 70
     0
 43
0.0
 10
14.24687096389704
 20
27.28125661920315
 10
14.26813624265339
 20
27.29037031009873
 10
14.29243941837495
 20
27.29340820706392
 10
14.31066680016613
 20
27.28733241313355
  0
LWPOLYLINE
  5
EF5
330
1E
100
AcDbEntity
  8
5
100
AcDbPolyline
 90
        7
 70
     0
 43
0.0
 10
8.490056214853975
 20
23.85450884246406
 10
8.493094111819178
 20
23.8818499151508
 10
8.50220780271476
 20
23.91222888480275
 10
8.517397287540728
 20
23.9426078544547
 10
8.535624669331898
 20
23.97298682410663
 10
8.559927845053447
 20
23.99425210286299
 10
8.581193123809804
 20
24.01247948465416
  0
LINE
  5
EFE
330
1E
100
AcDbEntity
  8
5
100
AcDbLine
 10
8.581193123809804
 20
24.01247948465416
 30
0.0
 11
11.01758648989558
 21
25.41902577953909
 31
0.0
  0
LWPOLYLINE
  5
EFF
330
1E
100
AcDbEntity
  8
5
100
AcDbPolyline
 90
        3
 70
     0
 43
0.0
 10
11.01758648989558
 20
25.41902577953909
 10
11.03581387168675
 20
25.42510157346947
 10
11.04796545954752
 20
25.42206367650428
  0
LWPOLYLINE
  5
F04
330
1E
100
AcDbEntity
  8
5
100
AcDbPolyline
 90
        3
 70
     0
 43
0.0
 10
11.08745812009504
 20
25.34004045844404
 10
11.09353391402542
 20
25.34004045844404
 10
11.10264760492102
 20
25.34611625237443
  0
LINE
  5
F09
330
1E
100
AcDbEntity
  8
5
100
AcDbLine
 10
11.49757421039626
 20
25.57395852476399
 30
0.0
 11
11.10264760492102
 21
25.34611625237443
 31
0.0
  0
LINE
  5
F0A
330
1E
100
AcDbEntity
  8
5
100
AcDbLine
 10
11.74668176154219
 20
25.47067002794738
 30
0.0
 11
11.12695078064256
 21
25.11219818605447
 31
0.0
  0
LWPOLYLINE
  5
F0B
330
1E
100
AcDbEntity
  8
5
100
AcDbPolyline
 90
        9
 70
     0
 43
0.0
 10
11.74668176154219
 20
25.47067002794738
 10
11.76187124636815
 20
25.47674582187777
 10
11.77706073119413
 20
25.47370792491258
 10
11.78617442208971
 20
25.46155633705181
 10
11.78921231905491
 20
25.44332895526064
 10
11.78617442208971
 20
25.42206367650428
 10
11.77706073119413
 20
25.40079839774792
 10
11.76187124636815
 20
25.38257101595675
 10
11.74668176154219
 20
25.36738153113078
  0
LINE
  5
F16
330
1E
100
AcDbEntity
  8
5
100
AcDbLine
 10
11.74668176154219
 20
25.36738153113078
 30
0.0
 11
11.12695078064256
 21
25.01194758620306
 31
0.0
  0
LWPOLYLINE
  5
F17
330
1E
100
AcDbEntity
  8
5
100
AcDbPolyline
 90
        9
 70
     0
 43
0.0
 10
11.12695078064257
 20
25.01194758620307
 10
11.1117612958166
 20
25.00587179227268
 10
11.09657181099063
 20
25.00890968923787
 10
11.08745812009504
 20
25.02106127709864
 10
11.08442022312985
 20
25.03625076192461
 10
11.08745812009504
 20
25.05751604068098
 10
11.09657181099063
 20
25.08181921640252
 10
11.1117612958166
 20
25.10004659819371
 10
11.12695078064257
 20
25.11219818605447
  0
LINE
  5
F22
330
1E
100
AcDbEntity
  8
5
100
AcDbLine
 10
11.74668176154219
 20
25.14561505267161
 30
0.0
 11
11.12695078064256
 21
24.78714321077868
 31
0.0
  0
LWPOLYLINE
  5
F23
330
1E
100
AcDbEntity
  8
5
100
AcDbPolyline
 90
        9
 70
     0
 43
0.0
 10
11.74668176154219
 20
25.14561505267161
 10
11.76187124636815
 20
25.1486529496368
 10
11.77706073119413
 20
25.1486529496368
 10
11.78617442208971
 20
25.13650136177602
 10
11.78921231905491
 20
25.11827397998485
 10
11.78617442208971
 20
25.09700870122851
 10
11.77706073119413
 20
25.07574342247213
 10
11.76187124636815
 20
25.05447814371579
 10
11.74668176154219
 20
25.04232655585502
  0
LINE
  5
F2E
330
1E
100
AcDbEntity
  8
5
100
AcDbLine
 10
11.74668176154219
 20
25.04232655585501
 30
0.0
 11
11.12695078064256
 21
24.68689261092728
 31
0.0
  0
LWPOLYLINE
  5
F2F
330
1E
100
AcDbEntity
  8
5
100
AcDbPolyline
 90
        9
 70
     0
 43
0.0
 10
11.12695078064257
 20
24.68689261092728
 10
11.1117612958166
 20
24.68081681699688
 10
11.09657181099063
 20
24.68385471396208
 10
11.08745812009504
 20
24.69296840485767
 10
11.08442022312985
 20
24.71119578664883
 10
11.08745812009504
 20
24.7324610654052
 10
11.09657181099063
 20
24.75372634416155
 10
11.1117612958166
 20
24.77499162291791
 10
11.12695078064257
 20
24.78714321077868
  0
LINE
  5
F3A
330
1E
100
AcDbEntity
  8
5
100
AcDbLine
 10
11.12695078064256
 20
25.33092676754845
 30
0.0
 11
11.52187738611782
 21
25.56180693690321
 31
0.0
  0
LWPOLYLINE
  5
F3B
330
1E
100
AcDbEntity
  8
5
100
AcDbPolyline
 90
        5
 70
     0
 43
0.0
 10
11.12695078064257
 20
25.33092676754845
 10
11.1087233988514
 20
25.32788887058325
 10
11.09657181099063
 20
25.32788887058325
 10
11.08745812009504
 20
25.34004045844404
 10
11.08442022312985
 20
25.35522994327001
  0
LINE
  5
F42
330
1E
100
AcDbEntity
  8
5
100
AcDbLine
 10
11.08442022312984
 20
25.38257101595675
 30
0.0
 11
11.08442022312984
 21
25.35522994327001
 31
0.0
  0
LWPOLYLINE
  5
F43
330
1E
100
AcDbEntity
  8
5
100
AcDbPolyline
 90
        5
 70
     0
 43
0.0
 10
11.08442022312985
 20
25.38257101595675
 10
11.08138232616465
 20
25.39776050078273
 10
11.07226863526907
 20
25.4099120886435
 10
11.0570791504431
 20
25.4099120886435
 10
11.04188966561713
 20
25.40687419167832
  0
LINE
  5
F4A
330
1E
100
AcDbEntity
  8
5
100
AcDbLine
 10
11.04188966561713
 20
25.40687419167831
 30
0.0
 11
8.605496299531361
 21
24.00032789679338
 31
0.0
  0
LWPOLYLINE
  5
F4B
330
1E
100
AcDbEntity
  8
5
100
AcDbPolyline
 90
        7
 70
     0
 43
0.0
 10
8.605496299531363
 20
24.00032789679338
 10
8.581193123809804
 20
23.98210051500222
 10
8.559927845053447
 20
23.95779733928066
 10
8.541700463262287
 20
23.93045626659391
 10
8.526510978436309
 20
23.90007729694198
 10
8.517397287540728
 20
23.86969832729003
 10
8.514359390575535
 20
23.83931935763808
  0
LWPOLYLINE
  5
F54
330
1E
100
AcDbEntity
  8
5
100
AcDbPolyline
 90
        7
 70
     0
 43
0.0
 10
14.35927315160922
 20
27.21442288596888
 10
14.35623525464403
 20
27.24176395865563
 10
14.34712156374845
 20
27.26302923741197
 10
14.33193207892248
 20
27.27518082527276
 10
14.31370469713132
 20
27.28125661920315
 10
14.29243941837495
 20
27.27821872223795
 10
14.26813624265339
 20
27.26910503134238
  0
LINE
  5
F5D
330
1E
100
AcDbEntity
  8
5
100
AcDbLine
 10
11.04188966561713
 20
25.40687419167831
 30
0.0
 11
11.01758648989558
 21
25.41902577953909
 31
0.0
  0
LINE
  5
F5E
330
1E
100
AcDbEntity
  8
5
100
AcDbLine
 10
8.581193123809804
 20
24.01247948465416
 30
0.0
 11
8.605496299531361
 21
24.00032789679338
 31
0.0
  0
LINE
  5
F5F
330
1E
100
AcDbEntity
  8
5
100
AcDbLine
 10
14.30459100623573
 20
23.49907489753633
 30
0.0
 11
14.3258562849921
 21
23.48388541271036
 31
0.0
  0
LINE
  5
F60
330
1E
100
AcDbEntity
  8
5
100
AcDbLine
 10
12.12034308826108
 20
24.50461879301562
 30
0.0
 11
12.09603991253952
 21
24.5198082778416
 31
0.0
  0
LINE
  5
F61
330
1E
100
AcDbEntity
  8
5
100
AcDbLine
 10
12.04743356109641
 20
24.66866522913611
 30
0.0
 11
12.04743356109641
 21
24.64436205341455
 31
0.0
  0
LINE
  5
F62
330
1E
100
AcDbEntity
  8
5
100
AcDbLine
 10
9.765972940235556
 20
21.2024247918495
 30
0.0
 11
9.741669764513996
 21
21.19027320398872
 31
0.0
  0
LWPOLYLINE
  5
F63
330
1E
100
AcDbEntity
  8
5
100
AcDbPolyline
 90
        5
 70
     0
 43
0.0
 10
9.765972940235556
 20
21.2024247918495
 10
9.759897146305171
 20
21.22065217364066
 10
9.750783455409589
 20
21.22976586453624
 10
9.738631867548804
 20
21.23280376150143
 10
9.720404485757644
 20
21.22672796757105
  0
LINE
  5
F6A
330
1E
100
AcDbEntity
  8
5
100
AcDbLine
 10
9.720404485757644
 20
21.22672796757105
 30
0.0
 11
9.720404485757644
 21
21.2024247918495
 31
0.0
  0
LWPOLYLINE
  5
F6B
330
1E
100
AcDbEntity
  8
5
100
AcDbPolyline
 90
        4
 70
     0
 43
0.0
 10
9.741669764513996
 20
21.19027320398873
 10
9.738631867548804
 20
21.1993868948843
 10
9.732556073618418
 20
21.2024247918495
 10
9.720404485757644
 20
21.2024247918495
  0
LINE
  5
F71
330
1E
100
AcDbEntity
  8
5
100
AcDbLine
 10
9.434842171029384
 20
21.39077440369154
 30
0.0
 11
9.720404485757644
 21
21.22672796757105
 31
0.0
  0
LINE
  5
F72
330
1E
100
AcDbEntity
  8
5
100
AcDbLine
 10
9.720404485757644
 20
21.22672796757105
 30
0.0
 11
9.456107449785751
 21
21.07483311931134
 31
0.0
  0
LINE
  5
F73
330
1E
100
AcDbEntity
  8
5
100
AcDbLine
 10
9.456107449785751
 20
21.07483311931134
 30
0.0
 11
9.456107449785751
 21
21.04749204662459
 31
0.0
  0
LINE
  5
F74
330
1E
100
AcDbEntity
  8
5
100
AcDbLine
 10
9.720404485757644
 20
21.2024247918495
 30
0.0
 11
9.456107449785751
 21
21.04749204662459
 31
0.0
  0
LINE
  5
F75
330
1E
100
AcDbEntity
  8
5
100
AcDbLine
 10
9.434842171029384
 20
21.08698470717212
 30
0.0
 11
9.456107449785751
 21
21.07483311931134
 31
0.0
  0
LWPOLYLINE
  5
F76
330
1E
100
AcDbEntity
  8
5
100
AcDbPolyline
 90
        4
 70
     0
 43
0.0
 10
9.456107449785751
 20
21.07483311931134
 10
9.443955861924965
 20
21.07179522234614
 10
9.437880067994576
 20
21.07483311931134
 10
9.434842171029384
 20
21.08698470717212
  0
LINE
  5
F7C
330
1E
100
AcDbEntity
  8
5
100
AcDbLine
 10
9.434842171029384
 20
21.08698470717212
 30
0.0
 11
9.413576892273029
 21
21.07483311931134
 31
0.0
  0
LWPOLYLINE
  5
F7D
330
1E
100
AcDbEntity
  8
5
100
AcDbPolyline
 90
        5
 70
     0
 43
0.0
 10
9.456107449785751
 20
21.0474920466246
 10
9.437880067994576
 20
21.0414162526942
 10
9.425728480133805
 20
21.0444541496594
 10
9.416614789238224
 20
21.05660573752018
 10
9.413576892273031
 20
21.07483311931134
  0
LWPOLYLINE
  5
F84
330
1E
100
AcDbEntity
  8
5
100
AcDbPolyline
 90
        3
 70
     0
 43
0.0
 10
8.450563554306459
 20
21.60646508822032
 10
8.441449863410877
 20
21.61861667608111
 10
8.438411966445684
 20
21.63684405787227
  0
LINE
  5
F89
330
1E
100
AcDbEntity
  8
5
100
AcDbLine
 10
9.413576892273029
 20
21.07483311931134
 30
0.0
 11
8.438411966445684
 21
21.63684405787227
 31
0.0
  0
LINE
  5
F8A
330
1E
100
AcDbEntity
  8
5
100
AcDbLine
 10
9.434842171029384
 20
21.08698470717212
 30
0.0
 11
9.434842171029384
 21
21.97405062100883
 31
0.0
  0
LINE
  5
F8B
330
1E
100
AcDbEntity
  8
5
100
AcDbLine
 10
9.434842171029384
 20
21.97405062100883
 30
0.0
 11
9.413576892273029
 21
21.96189903314806
 31
0.0
  0
LINE
  5
F8C
330
1E
100
AcDbEntity
  8
5
100
AcDbLine
 10
9.413576892273029
 20
21.07483311931134
 30
0.0
 11
9.413576892273029
 21
21.96189903314806
 31
0.0
  0
LINE
  5
F8D
330
1E
100
AcDbEntity
  8
5
100
AcDbLine
 10
8.438411966445684
 20
21.63684405787227
 30
0.0
 11
8.438411966445684
 21
22.52390997170898
 31
0.0
  0
LWPOLYLINE
  5
F8E
330
1E
100
AcDbEntity
  8
5
100
AcDbPolyline
 90
        7
 70
     0
 43
0.0
 10
9.413576892273031
 20
21.96189903314806
 10
9.410538995307835
 20
21.9922780028
 10
9.401425304412256
 20
22.02265697245195
 10
9.386235819586278
 20
22.05303594210389
 10
9.364970540829922
 20
22.08037701479063
 10
9.343705262073555
 20
22.10468019051219
 10
9.31940208635201
 20
22.11986967533815
  0
LINE
  5
F97
330
1E
100
AcDbEntity
  8
5
100
AcDbLine
 10
9.319402086352008
 20
22.11986967533815
 30
0.0
 11
8.529548875401513
 21
22.57859211708248
 31
0.0
  0
LWPOLYLINE
  5
F98
330
1E
100
AcDbEntity
  8
5
100
AcDbPolyline
 90
        7
 70
     0
 43
0.0
 10
8.529548875401513
 20
22.57859211708248
 10
8.505245699679953
 20
22.58770580797807
 10
8.483980420923586
 20
22.59074370494327
 10
8.465753039132426
 20
22.58466791101286
 10
8.450563554306459
 20
22.56947842618689
 10
8.441449863410877
 20
22.55125104439574
 10
8.438411966445684
 20
22.52390997170899
  0
LINE
  5
FA1
330
1E
100
AcDbEntity
  8
5
100
AcDbLine
 10
8.550814154157867
 20
22.59074370494326
 30
0.0
 11
9.343705262073555
 21
22.13505916016412
 31
0.0
  0
LWPOLYLINE
  5
FA2
330
1E
100
AcDbEntity
  8
5
100
AcDbPolyline
 90
        7
 70
     0
 43
0.0
 10
9.343705262073555
 20
22.13505916016412
 10
9.368008437795115
 20
22.11683177837296
 10
9.389273716551471
 20
22.0925286026514
 10
9.407501098342642
 20
22.06518752996466
 10
9.422690583168609
 20
22.03480856031271
 10
9.431804274064191
 20
22.00442959066077
 10
9.434842171029384
 20
21.97405062100883
  0
LWPOLYLINE
  5
FAB
330
1E
100
AcDbEntity
  8
5
100
AcDbPolyline
 90
        4
 70
     0
 43
0.0
 10
8.487018317888782
 20
22.59681949887365
 10
8.505245699679953
 20
22.60289529280404
 10
8.529548875401513
 20
22.59985739583884
 10
8.550814154157869
 20
22.59074370494327
  0
LINE
  5
FB1
330
1E
100
AcDbEntity
  8
5
100
AcDbLine
 10
9.319402086352008
 20
22.11986967533815
 30
0.0
 11
9.343705262073555
 21
22.13505916016412
 31
0.0
  0
LINE
  5
FB2
330
1E
100
AcDbEntity
  8
5
100
AcDbLine
 10
8.550814154157867
 20
22.59074370494326
 30
0.0
 11
8.529548875401513
 21
22.57859211708248
 31
0.0
  0
LINE
  5
FB3
330
1E
100
AcDbEntity
  8
5
100
AcDbLine
 10
16.24276927002966
 20
26.11470418456857
 30
0.0
 11
16.26403454878601
 21
26.12989366939454
 31
0.0
  0
LINE
  5
FB4
330
1E
100
AcDbEntity
  8
5
100
AcDbLine
 10
16.26403454878601
 20
26.12989366939454
 30
0.0
 11
16.24276927002966
 21
26.11774208153376
 31
0.0
  0
LINE
  5
FB5
330
1E
100
AcDbEntity
  8
5
100
AcDbLine
 10
17.28173003212608
 20
25.54357955511205
 30
0.0
 11
17.26046475336971
 21
25.52839007028607
 31
0.0
  0
LWPOLYLINE
  5
FB6
330
1E
100
AcDbEntity
  8
5
100
AcDbPolyline
 90
        4
 70
     0
 43
0.0
 10
17.28173003212608
 20
25.54357955511205
 10
17.28476792909127
 20
25.55573114297282
 10
17.29388161998685
 20
25.57092062779879
 10
17.30299531088244
 20
25.58003431869438
  0
LINE
  5
FBC
330
1E
100
AcDbEntity
  8
5
100
AcDbLine
 10
17.30299531088244
 20
25.58003431869437
 30
0.0
 11
17.30299531088244
 21
25.60433749441593
 31
0.0
  0
LWPOLYLINE
  5
FBD
330
1E
100
AcDbEntity
  8
5
100
AcDbPolyline
 90
        5
 70
     0
 43
0.0
 10
17.26046475336971
 20
25.52839007028607
 10
17.2635026503349
 20
25.54965534904244
 10
17.27261634123048
 20
25.57395852476398
 10
17.28780582605646
 20
25.59218590655516
 10
17.30299531088244
 20
25.60433749441593
  0
LWPOLYLINE
  5
FC4
330
1E
100
AcDbEntity
  8
5
100
AcDbPolyline
 90
        5
 70
     0
 43
0.0
 10
16.28529982754237
 20
26.09343890581221
 10
16.28833772450756
 20
26.11470418456857
 10
16.29745141540314
 20
26.13596946332493
 10
16.31264090022912
 20
26.15419684511608
 10
16.33086828202028
 20
26.16938632994206
  0
LINE
  5
FCB
330
1E
100
AcDbEntity
  8
5
100
AcDbLine
 10
17.30299531088244
 20
25.60433749441593
 30
0.0
 11
16.33086828202028
 21
26.16938632994206
 31
0.0
  0
LINE
  5
FCC
330
1E
100
AcDbEntity
  8
5
100
AcDbLine
 10
17.30299531088244
 20
25.58003431869437
 30
0.0
 11
17.57033024381953
 21
25.73192916695409
 31
0.0
  0
LINE
  5
FCD
330
1E
100
AcDbEntity
  8
5
100
AcDbLine
 10
17.57033024381953
 20
25.73192916695409
 30
0.0
 11
17.57033024381953
 21
25.75927023964084
 31
0.0
  0
LINE
  5
FCE
330
1E
100
AcDbEntity
  8
5
100
AcDbLine
 10
17.30299531088244
 20
25.60433749441593
 30
0.0
 11
17.57033024381953
 21
25.75927023964084
 31
0.0
  0
LINE
  5
FCF
330
1E
100
AcDbEntity
  8
5
100
AcDbLine
 10
16.33086828202028
 20
26.16938632994206
 30
0.0
 11
16.59516531799217
 21
26.32128117820177
 31
0.0
  0
LINE
  5
FD0
330
1E
100
AcDbEntity
  8
5
100
AcDbLine
 10
17.57033024381953
 20
25.75927023964084
 30
0.0
 11
16.59516531799217
 21
26.32128117820177
 31
0.0
  0
LWPOLYLINE
  5
FD1
330
1E
100
AcDbEntity
  8
5
100
AcDbPolyline
 90
        4
 70
     0
 43
0.0
 10
16.59516531799217
 20
26.32128117820178
 10
16.60427900888777
 20
26.33039486909735
 10
16.61339269978334
 20
26.34254645695812
 10
16.61643059674854
 20
26.3577359417841
  0
LWPOLYLINE
  5
FD7
330
1E
100
AcDbEntity
  8
5
100
AcDbPolyline
 90
        5
 70
     0
 43
0.0
 10
17.57033024381953
 20
25.73192916695409
 10
17.5855197286455
 20
25.74711865178006
 10
17.60070921347147
 20
25.76534603357123
 10
17.60982290436705
 20
25.7866113123276
 10
17.61286080133225
 20
25.80787659108394
  0
LINE
  5
FDE
330
1E
100
AcDbEntity
  8
5
100
AcDbLine
 10
17.61286080133225
 20
25.80787659108394
 30
0.0
 11
17.5915955225759
 21
25.79572500322317
 31
0.0
  0
LWPOLYLINE
  5
FDF
330
1E
100
AcDbEntity
  8
5
100
AcDbPolyline
 90
        4
 70
     0
 43
0.0
 10
17.57033024381953
 20
25.75927023964085
 10
17.57944393471511
 20
25.76838393053642
 10
17.58855762561069
 20
25.78053551839721
 10
17.59159552257589
 20
25.79572500322317
  0
LINE
  5
FE5
330
1E
100
AcDbEntity
  8
5
100
AcDbLine
 10
17.5915955225759
 20
25.79572500322317
 30
0.0
 11
16.61643059674854
 21
26.35773594178411
 31
0.0
  0
LINE
  5
FE6
330
1E
100
AcDbEntity
  8
5
100
AcDbLine
 10
16.61643059674854
 20
26.35773594178411
 30
0.0
 11
16.61643059674854
 21
27.24480185562082
 31
0.0
  0
LINE
  5
FE7
330
1E
100
AcDbEntity
  8
5
100
AcDbLine
 10
17.61286080133225
 20
25.80787659108394
 30
0.0
 11
17.61286080133225
 21
26.69798040188586
 31
0.0
  0
LINE
  5
FE8
330
1E
100
AcDbEntity
  8
5
100
AcDbLine
 10
17.61286080133225
 20
26.69798040188586
 30
0.0
 11
17.5915955225759
 21
26.68279091705988
 31
0.0
  0
LINE
  5
FE9
330
1E
100
AcDbEntity
  8
5
100
AcDbLine
 10
17.5915955225759
 20
25.79572500322317
 30
0.0
 11
17.5915955225759
 21
26.68279091705988
 31
0.0
  0
LINE
  5
FEA
330
1E
100
AcDbEntity
  8
5
100
AcDbLine
 10
16.72883278446073
 20
27.31163558885508
 30
0.0
 11
17.52172389237642
 21
26.85595104407596
 31
0.0
  0
LWPOLYLINE
  5
FEB
330
1E
100
AcDbEntity
  8
5
100
AcDbPolyline
 90
        7
 70
     0
 43
0.0
 10
17.52172389237642
 20
26.85595104407596
 10
17.54602706809797
 20
26.83772366228479
 10
17.56729234685433
 20
26.81645838352843
 10
17.5855197286455
 20
26.7860794138765
 10
17.60070921347147
 20
26.75570044422455
 10
17.60982290436705
 20
26.7253214745726
 10
17.61286080133225
 20
26.69798040188586
  0
LWPOLYLINE
  5
FF4
330
1E
100
AcDbEntity
  8
5
100
AcDbPolyline
 90
        4
 70
     0
 43
0.0
 10
16.66503694819164
 20
27.31771138278548
 10
16.68326432998281
 20
27.32378717671587
 10
16.70756750570436
 20
27.32378717671587
 10
16.72883278446073
 20
27.31163558885508
  0
LWPOLYLINE
  5
FFA
330
1E
100
AcDbEntity
  8
5
100
AcDbPolyline
 90
        7
 70
     0
 43
0.0
 10
17.59159552257589
 20
26.68279091705988
 10
17.58855762561069
 20
26.71316988671183
 10
17.57944393471511
 20
26.74354885636378
 10
17.56425444988913
 20
26.77392782601571
 10
17.54298917113277
 20
26.80126889870246
 10
17.52172389237642
 20
26.82557207442401
 10
17.49742071665487
 20
26.84379945621518
  0
LINE
  5
1003
330
1E
100
AcDbEntity
  8
5
100
AcDbLine
 10
17.49742071665487
 20
26.84379945621518
 30
0.0
 11
16.70756750570436
 21
27.29948400099431
 31
0.0
  0
LWPOLYLINE
  5
1004
330
1E
100
AcDbEntity
  8
5
100
AcDbPolyline
 90
        7
 70
     0
 43
0.0
 10
16.70756750570436
 20
27.29948400099432
 10
16.68326432998281
 20
27.30859769188989
 10
16.66199905122645
 20
27.31163558885508
 10
16.64377166943529
 20
27.3055597949247
 10
16.62858218460932
 20
27.29340820706392
 10
16.61946849371373
 20
27.27214292830758
 10
16.61643059674854
 20
27.24480185562082
  0
LINE
  5
100D
330
1E
100
AcDbEntity
  8
5
100
AcDbLine
 10
17.49742071665487
 20
26.84379945621518
 30
0.0
 11
17.52172389237642
 21
26.85595104407596
 31
0.0
  0
LINE
  5
100E
330
1E
100
AcDbEntity
  8
5
100
AcDbLine
 10
16.72883278446073
 20
27.31163558885508
 30
0.0
 11
16.70756750570436
 21
27.29948400099431
 31
0.0
  0
LINE
  5
100F
330
1E
100
AcDbEntity
  8
5
100
AcDbLine
 10
14.7420481692237
 20
26.03571886347351
 30
0.0
 11
14.72078289046734
 21
26.05090834829948
 31
0.0
  0
LWPOLYLINE
  5
1010
330
1E
100
AcDbEntity
  8
5
100
AcDbPolyline
 90
        4
 70
     0
 43
0.0
 10
14.72078289046734
 20
26.05090834829949
 10
14.70863130260657
 20
26.03875676043871
 10
14.70559340564137
 20
26.02964306954313
 10
14.71166919957176
 20
26.01749148168236
  0
LINE
  5
1016
330
1E
100
AcDbEntity
  8
5
100
AcDbLine
 10
14.71166919957176
 20
26.01749148168235
 30
0.0
 11
14.7390102722585
 21
26.02660517257794
 31
0.0
  0
LWPOLYLINE
  5
1017
330
1E
100
AcDbEntity
  8
5
100
AcDbPolyline
 90
        3
 70
     0
 43
0.0
 10
14.7420481692237
 20
26.03571886347351
 10
14.7390102722585
 20
26.03268096650833
 10
14.7390102722585
 20
26.02660517257794
  0
LINE
  5
101C
330
1E
100
AcDbEntity
  8
5
100
AcDbLine
 10
14.71166919957176
 20
26.00837779078676
 30
0.0
 11
14.71166919957176
 21
26.01749148168235
 31
0.0
  0
LWPOLYLINE
  5
101D
330
1E
100
AcDbEntity
  8
5
100
AcDbPolyline
 90
        3
 70
     0
 43
0.0
 10
14.71166919957176
 20
26.01749148168236
 10
14.71470709653695
 20
26.01141568775195
 10
14.71166919957176
 20
26.00533989382157
  0
LINE
  5
1022
330
1E
100
AcDbEntity
  8
5
100
AcDbLine
 10
14.71166919957176
 20
26.00533989382157
 30
0.0
 11
14.73293447832812
 21
25.99318830596079
 31
0.0
  0
LWPOLYLINE
  5
1023
330
1E
100
AcDbEntity
  8
5
100
AcDbPolyline
 90
        4
 70
     0
 43
0.0
 10
14.7390102722585
 20
26.02660517257794
 10
14.74508606618889
 20
26.01445358471716
 10
14.74508606618889
 20
26.00230199685638
 10
14.73293447832811
 20
25.99318830596079
  0
LWPOLYLINE
  5
1029
330
1E
100
AcDbEntity
  8
5
100
AcDbPolyline
 90
        3
 70
     0
 43
0.0
 10
14.74508606618889
 20
25.55573114297282
 10
14.7420481692237
 20
25.54661745207725
 10
14.73293447832811
 20
25.53750376118167
  0
LINE
  5
102E
330
1E
100
AcDbEntity
  8
5
100
AcDbLine
 10
14.73293447832812
 20
25.99318830596079
 30
0.0
 11
14.73293447832812
 21
25.53750376118166
 31
0.0
  0
LINE
  5
102F
330
1E
100
AcDbEntity
  8
5
100
AcDbLine
 10
14.71166919957176
 20
26.00533989382157
 30
0.0
 11
14.39876581215675
 21
25.82610397287512
 31
0.0
  0
LINE
  5
1030
330
1E
100
AcDbEntity
  8
5
100
AcDbLine
 10
14.39876581215675
 20
25.82610397287512
 30
0.0
 11
14.42306898787831
 21
25.81395238501433
 31
0.0
  0
LINE
  5
1031
330
1E
100
AcDbEntity
  8
5
100
AcDbLine
 10
14.73293447832812
 20
25.99318830596079
 30
0.0
 11
14.42306898787831
 21
25.81395238501433
 31
0.0
  0
LINE
  5
1032
330
1E
100
AcDbEntity
  8
5
100
AcDbLine
 10
14.73293447832812
 20
25.53750376118166
 30
0.0
 11
14.42306898787831
 21
25.3582678402352
 31
0.0
  0
LINE
  5
1033
330
1E
100
AcDbEntity
  8
5
100
AcDbLine
 10
14.38053843036558
 20
25.74104285784967
 30
0.0
 11
14.38053843036558
 21
25.38257101595675
 31
0.0
  0
LWPOLYLINE
  5
1034
330
1E
100
AcDbEntity
  8
5
100
AcDbPolyline
 90
        5
 70
     0
 43
0.0
 10
14.38053843036558
 20
25.38257101595675
 10
14.38357632733078
 20
25.3643436341656
 10
14.39269001822636
 20
25.35522994327001
 10
14.40484160608714
 20
25.35219204630481
 10
14.42306898787831
 20
25.3582678402352
  0
LWPOLYLINE
  5
103B
330
1E
100
AcDbEntity
  8
5
100
AcDbPolyline
 90
        5
 70
     0
 43
0.0
 10
14.42306898787831
 20
25.81395238501434
 10
14.40484160608714
 20
25.80180079715356
 10
14.39269001822636
 20
25.7835734153624
 10
14.38357632733078
 20
25.76230813660603
 10
14.38053843036558
 20
25.74104285784968
  0
LWPOLYLINE
  5
1042
330
1E
100
AcDbEntity
  8
5
100
AcDbPolyline
 90
        3
 70
     0
 43
0.0
 10
14.36838684250481
 20
25.36738153113078
 10
14.35927315160922
 20
25.37953311899157
 10
14.35623525464403
 20
25.39472260381753
  0
LINE
  5
1047
330
1E
100
AcDbEntity
  8
5
100
AcDbLine
 10
14.35623525464403
 20
25.39472260381753
 30
0.0
 11
14.35623525464403
 21
25.75319444571045
 31
0.0
  0
LWPOLYLINE
  5
1048
330
1E
100
AcDbEntity
  8
5
100
AcDbPolyline
 90
        5
 70
     0
 43
0.0
 10
14.35623525464403
 20
25.75319444571045
 10
14.35927315160922
 20
25.77445972446681
 10
14.36838684250481
 20
25.79572500322317
 10
14.38357632733078
 20
25.81395238501434
 10
14.39876581215675
 20
25.82610397287512
  0
LINE
  5
104F
330
1E
100
AcDbEntity
  8
5
100
AcDbLine
 10
14.35623525464403
 20
25.39472260381753
 30
0.0
 11
14.38053843036558
 21
25.38257101595675
 31
0.0
  0
LINE
  5
1050
330
1E
100
AcDbEntity
  8
5
100
AcDbLine
 10
14.38053843036558
 20
25.74104285784967
 30
0.0
 11
14.35623525464403
 21
25.75319444571045
 31
0.0
  0
LWPOLYLINE
  5
1051
330
1E
100
AcDbEntity
  8
5
100
AcDbPolyline
 90
        3
 70
     0
 43
0.0
 10
17.28173003212608
 20
24.11273008450556
 10
17.25742685640452
 20
24.10665429057518
 10
17.23008578371778
 20
24.10665429057518
  0
LWPOLYLINE
  5
1056
330
1E
100
AcDbEntity
  8
5
100
AcDbPolyline
 90
        3
 70
     0
 43
0.0
 10
8.790808014408213
 20
22.59985739583884
 10
8.799921705303791
 20
22.60289529280404
 10
8.809035396199373
 20
22.60289529280404
  0
LINE
  5
105B
330
1E
100
AcDbEntity
  8
5
100
AcDbLine
 10
8.809035396199373
 20
22.60289529280404
 30
0.0
 11
8.824224881025351
 21
22.61808477763
 31
0.0
  0
LWPOLYLINE
  5
105C
330
1E
100
AcDbEntity
  8
5
100
AcDbPolyline
 90
        3
 70
     0
 43
0.0
 10
8.787770117443017
 20
22.6211226745952
 10
8.80599749923418
 20
22.6211226745952
 10
8.824224881025351
 20
22.61808477763
  0
LINE
  5
1061
330
1E
100
AcDbEntity
  8
5
100
AcDbLine
 10
8.809035396199373
 20
22.44188675364874
 30
0.0
 11
8.809035396199373
 21
22.60289529280404
 31
0.0
  0
LWPOLYLINE
  5
1062
330
1E
100
AcDbEntity
  8
5
100
AcDbPolyline
 90
        4
 70
     0
 43
0.0
 10
8.809035396199373
 20
22.60289529280404
 10
8.827262777990544
 20
22.59681949887365
 10
8.8485280567469
 20
22.59985739583884
 10
8.863717541572867
 20
22.60593318976924
  0
LINE
  5
1068
330
1E
100
AcDbEntity
  8
5
100
AcDbLine
 10
8.863717541572867
 20
22.60593318976923
 30
0.0
 11
8.842452262816513
 21
22.61808477763
 31
0.0
  0
LWPOLYLINE
  5
1069
330
1E
100
AcDbEntity
  8
5
100
AcDbPolyline
 90
        3
 70
     0
 43
0.0
 10
8.824224881025351
 20
22.61808477763
 10
8.833338571920933
 20
22.61504688066481
 10
8.842452262816514
 20
22.61808477763
  0
LINE
  5
106E
330
1E
100
AcDbEntity
  8
5
100
AcDbLine
 10
8.863717541572867
 20
22.4115077839968
 30
0.0
 11
8.863717541572867
 21
22.60593318976923
 31
0.0
  0
LINE
  5
106F
330
1E
100
AcDbEntity
  8
5
100
AcDbLine
 10
9.091559813962437
 20
22.28087821449344
 30
0.0
 11
9.17662092898788
 21
22.32948456593655
 31
0.0
  0
LINE
  5
1070
330
1E
100
AcDbEntity
  8
5
100
AcDbLine
 10
8.863717541572867
 20
22.60593318976923
 30
0.0
 11
9.17662092898788
 21
22.78516911071569
 31
0.0
  0
LINE
  5
1071
330
1E
100
AcDbEntity
  8
5
100
AcDbLine
 10
9.17662092898788
 20
22.78516911071569
 30
0.0
 11
9.15231775326632
 21
22.79732069857647
 31
0.0
  0
LINE
  5
1072
330
1E
100
AcDbEntity
  8
5
100
AcDbLine
 10
8.842452262816513
 20
22.61808477763
 30
0.0
 11
9.15231775326632
 21
22.79732069857647
 31
0.0
  0
LWPOLYLINE
  5
1073
330
1E
100
AcDbEntity
  8
5
100
AcDbPolyline
 90
        5
 70
     0
 43
0.0
 10
9.17662092898788
 20
22.32948456593656
 10
9.191810413813847
 20
22.34163615379734
 10
9.206999898639825
 20
22.35986353558851
 10
9.216113589535407
 20
22.38112881434485
 10
9.219151486500599
 20
22.40239409310122
  0
LINE
  5
107A
330
1E
100
AcDbEntity
  8
5
100
AcDbLine
 10
9.219151486500599
 20
22.40239409310122
 30
0.0
 11
9.219151486500599
 21
22.76086593499413
 31
0.0
  0
LWPOLYLINE
  5
107B
330
1E
100
AcDbEntity
  8
5
100
AcDbPolyline
 90
        5
 70
     0
 43
0.0
 10
9.219151486500599
 20
22.76086593499413
 10
9.216113589535407
 20
22.7760554198201
 10
9.206999898639825
 20
22.78820700768088
 10
9.191810413813847
 20
22.79124490464608
 10
9.17662092898788
 20
22.78516911071569
  0
LWPOLYLINE
  5
1082
330
1E
100
AcDbEntity
  8
5
100
AcDbPolyline
 90
        3
 70
     0
 43
0.0
 10
9.15231775326632
 20
22.79732069857647
 10
9.170545135057491
 20
22.80339649250685
 10
9.182696722918265
 20
22.80035859554165
  0
LWPOLYLINE
  5
1087
330
1E
100
AcDbEntity
  8
5
100
AcDbPolyline
 90
        3
 70
     0
 43
0.0
 10
11.33048987731058
 20
20.67686861687089
 10
11.33960356820617
 20
20.68598230776648
 10
11.34567936213655
 20
20.69509599866206
  0
LWPOLYLINE
  5
108C
330
1E
100
AcDbEntity
  8
5
100
AcDbPolyline
 90
        4
 70
     0
 43
0.0
 10
11.33048987731058
 20
21.13255316165003
 10
11.34264146517136
 20
21.1447047495108
 10
11.34567936213655
 20
21.15381844040638
 10
11.33960356820617
 20
21.16597002826717
  0
LINE
  5
1092
330
1E
100
AcDbEntity
  8
5
100
AcDbLine
 10
11.33960356820617
 20
21.16597002826716
 30
0.0
 11
11.32745198034539
 21
21.16293213130197
 31
0.0
  0
LWPOLYLINE
  5
1093
330
1E
100
AcDbEntity
  8
5
100
AcDbPolyline
 90
        3
 70
     0
 43
0.0
 10
11.33960356820617
 20
21.16597002826717
 10
11.33656567124097
 20
21.17204582219755
 10
11.33960356820617
 20
21.17508371916275
  0
LINE
  5
1098
330
1E
100
AcDbEntity
  8
5
100
AcDbLine
 10
11.33960356820617
 20
21.17508371916275
 30
0.0
 11
11.3183382894498
 21
21.19027320398872
 31
0.0
  0
LWPOLYLINE
  5
1099
330
1E
100
AcDbEntity
  8
5
100
AcDbPolyline
 90
        3
 70
     0
 43
0.0
 10
11.31226249551942
 20
21.18419741005833
 10
11.31530039248461
 20
21.18723530702353
 10
11.3183382894498
 20
21.19027320398873
  0
LINE
  5
109E
330
1E
100
AcDbEntity
  8
5
100
AcDbLine
 10
11.33960356820617
 20
21.16293213130197
 30
0.0
 11
11.33960356820617
 21
21.17508371916275
 31
0.0
  0
LINE
  5
109F
330
1E
100
AcDbEntity
  8
5
100
AcDbLine
 10
11.33960356820617
 20
21.17508371916275
 30
0.0
 11
11.36086884696252
 21
21.18723530702353
 31
0.0
  0
LINE
  5
10A0
330
1E
100
AcDbEntity
  8
5
100
AcDbLine
 10
11.3183382894498
 20
21.19027320398872
 30
0.0
 11
11.36086884696252
 21
21.21457637971027
 31
0.0
  0
LINE
  5
10A1
330
1E
100
AcDbEntity
  8
5
100
AcDbLine
 10
11.34567936213655
 20
20.72243707134881
 30
0.0
 11
11.36086884696252
 21
20.73155076224439
 31
0.0
  0
LINE
  5
10A2
330
1E
100
AcDbEntity
  8
5
100
AcDbLine
 10
11.10264760492102
 20
25.34611625237443
 30
0.0
 11
11.12695078064256
 21
25.33092676754845
 31
0.0
  0
LINE
  5
10A3
330
1E
100
AcDbEntity
  8
5
100
AcDbLine
 10
14.30459100623573
 20
22.85200284394996
 30
0.0
 11
14.32889418195729
 21
22.83681335912399
 31
0.0
  0
LINE
  5
10A4
330
1E
100
AcDbEntity
  8
5
100
AcDbLine
 10
14.92432198713535
 20
23.20743678887768
 30
0.0
 11
14.94558726589171
 21
23.19528520101691
 31
0.0
  0
LINE
  5
10A5
330
1E
100
AcDbEntity
  8
5
100
AcDbLine
 10
14.30459100623573
 20
23.17705781922575
 30
0.0
 11
14.32889418195729
 21
23.16490623136496
 31
0.0
  0
LINE
  5
10A6
330
1E
100
AcDbEntity
  8
5
100
AcDbLine
 10
11.74668176154219
 20
25.04232655585501
 30
0.0
 11
11.72237858582064
 21
25.05447814371578
 31
0.0
  0
LINE
  5
10A7
330
1E
100
AcDbEntity
  8
5
100
AcDbLine
 10
11.12695078064256
 20
24.68689261092728
 30
0.0
 11
11.10568550188621
 21
24.69904419878805
 31
0.0
  0
LINE
  5
10A8
330
1E
100
AcDbEntity
  8
5
100
AcDbLine
 10
11.74668176154219
 20
25.36738153113078
 30
0.0
 11
11.72237858582064
 21
25.38257101595675
 31
0.0
  0
LINE
  5
10A9
330
1E
100
AcDbEntity
  8
5
100
AcDbLine
 10
11.12695078064256
 20
25.01194758620306
 30
0.0
 11
11.10568550188621
 21
25.02409917406383
 31
0.0
  0
LINE
  5
10AA
330
1E
100
AcDbEntity
  8
5
100
AcDbLine
 10
10.32494598183129
 20
21.54570714891645
 30
0.0
 11
10.32494598183129
 21
21.5730482216032
 31
0.0
  0
LINE
  5
10AB
330
1E
100
AcDbEntity
  8
5
100
AcDbLine
 10
10.57101563601203
 20
21.68848830628057
 30
0.0
 11
10.57101563601203
 21
21.71582937896732
 31
0.0
  0
LINE
  5
10AC
330
1E
100
AcDbEntity
  8
5
100
AcDbLine
 10
15.37393073798411
 20
24.4620882355029
 30
0.0
 11
15.37393073798411
 21
24.48942930818965
 31
0.0
  0
LINE
  5
10AD
330
1E
100
AcDbEntity
  8
5
100
AcDbLine
 10
15.62000039216483
 20
24.60486939286703
 30
0.0
 11
15.62000039216483
 21
24.63221046555378
 31
0.0
  0
LWPOLYLINE
  5
10AE
330
1E
100
AcDbEntity
  8
5
100
AcDbPolyline
 90
       18
 70
     0
 43
0.0
 10
9.535092770880794
 20
22.08645280872102
 10
9.547244358741568
 20
22.0955664996166
 10
9.553320152671965
 20
22.10771808747738
 10
9.550282255706761
 20
22.11986967533815
 10
9.541168564811179
 20
22.13202126319893
 10
9.522941183020019
 20
22.13809705712932
 10
9.501675904263663
 20
22.14417285105971
 10
9.4804106255073
 20
22.14113495409453
 10
9.462183243716136
 20
22.13809705712932
 10
9.446993758890158
 20
22.12898336623374
 10
9.437880067994576
 20
22.11683177837296
 10
9.437880067994576
 20
22.10468019051219
 10
9.443955861924965
 20
22.0925286026514
 10
9.456107449785751
 20
22.08341491175583
 10
9.477372728542103
 20
22.07733911782543
 10
9.49863800729847
 20
22.07430122086024
 10
9.519903286054827
 20
22.07733911782543
 10
9.535092770880794
 20
22.08645280872102
  0
LWPOLYLINE
  5
10C2
330
1E
100
AcDbEntity
  8
5
100
AcDbPolyline
 90
        8
 70
     0
 43
0.0
 10
9.650532855558179
 20
21.96189903314806
 10
9.67787392824492
 20
21.98316431190442
 10
9.699139207001287
 20
22.00746748762598
 10
9.711290794862062
 20
22.03480856031271
 10
9.711290794862062
 20
22.06214963299947
 10
9.705215000931676
 20
22.08645280872102
 10
9.686987619140513
 20
22.11379388140778
 10
9.65964654645376
 20
22.13505916016412
  0
LWPOLYLINE
  5
10CC
330
1E
100
AcDbEntity
  8
5
100
AcDbPolyline
 90
        6
 70
     0
 43
0.0
 10
9.434842171029384
 20
21.93152006349611
 10
9.4804106255073
 20
21.92544426956572
 10
9.525979079985212
 20
21.92848216653092
 10
9.571547534463125
 20
21.93455796046131
 10
9.614078091975848
 20
21.94670954832209
 10
9.650532855558179
 20
21.96189903314806
  0
LWPOLYLINE
  5
10D4
330
1E
100
AcDbEntity
  8
5
100
AcDbPolyline
 90
       18
 70
     0
 43
0.0
 10
14.83318507817952
 20
25.14257715570641
 10
14.8453366660403
 20
25.151690846602
 10
14.84837456300549
 20
25.16384243446277
 10
14.8453366660403
 20
25.17903191928874
 10
14.83622297514472
 20
25.18814561018432
 10
14.81799559335356
 20
25.1972593010799
 10
14.7997682115624
 20
25.20029719804511
 10
14.77850293280603
 20
25.20029719804511
 10
14.75723765404966
 20
25.1942214041147
 10
14.7420481692237
 20
25.18510771321913
 10
14.73293447832811
 20
25.17599402232356
 10
14.73293447832811
 20
25.16080453749757
 10
14.7390102722585
 20
25.151690846602
 10
14.75419975708447
 20
25.13953925874121
 10
14.77242713887564
 20
25.13346346481082
 10
14.79369241763201
 20
25.13346346481082
 10
14.81495769638836
 20
25.13650136177602
 10
14.83318507817952
 20
25.14257715570641
  0
LWPOLYLINE
  5
10E8
330
1E
100
AcDbEntity
  8
5
100
AcDbPolyline
 90
        8
 70
     0
 43
0.0
 10
14.94558726589171
 20
25.02106127709864
 10
14.97292833857846
 20
25.042326555855
 10
14.99419361733482
 20
25.06662973157656
 10
15.0063452051956
 20
25.0909329072981
 10
15.00938310216079
 20
25.11827397998485
 10
15.00026941126521
 20
25.14561505267161
 10
14.98204202947404
 20
25.16991822839316
 10
14.95470095678729
 20
25.19118350714952
  0
LWPOLYLINE
  5
10F2
330
1E
100
AcDbEntity
  8
5
100
AcDbPolyline
 90
       17
 70
     0
 43
0.0
 10
14.62660808454632
 20
25.1942214041147
 10
14.60230490882477
 20
25.17295612535836
 10
14.5840775270336
 20
25.151690846602
 10
14.57496383613802
 20
25.12738767088044
 10
14.57192593917281
 20
25.10308449515889
 10
14.57800173310321
 20
25.08181921640252
 10
14.59319121792918
 20
25.05751604068098
 10
14.61445649668555
 20
25.03625076192461
 10
14.64179756937229
 20
25.01802338013344
 10
14.67521443598943
 20
25.00283389530746
 10
14.71166919957176
 20
24.99372020441189
 10
14.75116186011928
 20
24.98460651351631
 10
14.79369241763201
 20
24.98460651351631
 10
14.83622297514472
 20
24.9876444104815
 10
14.87571563569225
 20
24.99372020441189
 10
14.91217039927458
 20
25.00587179227266
 10
14.94558726589171
 20
25.02106127709864
  0
LWPOLYLINE
  5
1105
330
1E
100
AcDbEntity
  8
5
100
AcDbPolyline
 90
       21
 70
     0
 43
0.0
 10
14.53850907255569
 20
23.82109197584691
 10
14.4747132362866
 20
23.85450884246406
 10
14.42306898787831
 20
23.884887812116
 10
14.37446263643519
 20
23.91222888480275
 10
14.33193207892248
 20
23.9365320605243
 10
14.29547731534015
 20
23.96083523624586
 10
14.26206044872301
 20
23.98210051500221
 10
14.22256778817549
 20
24.00944158768897
 10
14.18611302459315
 20
24.03070686644532
 10
14.15877195190641
 20
24.04893424823649
 10
14.13143087921966
 20
24.06412373306246
 10
14.10105190956772
 20
24.07931321788844
 10
14.06763504295058
 20
24.09450270271441
 10
14.02814238240306
 20
24.11273008450556
 10
13.97649813399475
 20
24.13703326022713
 10
13.93700547344723
 20
24.15829853898348
 10
13.8944749159345
 20
24.18260171470505
 10
13.84283066752621
 20
24.21298068435698
 10
13.78511062518751
 20
24.24943544793931
 10
13.72131478891844
 20
24.28892810848683
 10
13.64840526175378
 20
24.33753445992994
  0
LWPOLYLINE
  5
111C
330
1E
100
AcDbEntity
  8
5
100
AcDbPolyline
 90
       15
 70
     0
 43
0.0
 10
15.02457258698676
 20
22.97655661952293
 10
15.02153469002157
 20
23.0433903527572
 10
15.01242099912599
 20
23.11022408599146
 10
14.99723151430002
 20
23.18009571619094
 10
14.97596623554366
 20
23.24996734639041
 10
14.9486251628569
 20
23.31983897658988
 10
14.91824619320496
 20
23.38971060678934
 10
14.88179142962263
 20
23.45654434002362
 10
14.83926087210991
 20
23.52337807325789
 10
14.7967303145972
 20
23.58413601256177
 10
14.74812396315408
 20
23.64489395186566
 10
14.6964797147458
 20
23.69653820027395
 10
14.64483546633748
 20
23.74514455171707
 10
14.59319121792918
 20
23.78767510922978
 10
14.53850907255569
 20
23.82109197584691
  0
LINE
  5
112D
330
1E
100
AcDbEntity
  8
5
100
AcDbLine
 10
15.02457258698676
 20
22.97655661952292
 30
0.0
 11
15.02457258698676
 21
22.70922168658583
 31
0.0
  0
LWPOLYLINE
  5
112E
330
1E
100
AcDbEntity
  8
5
100
AcDbPolyline
 90
       15
 70
     0
 43
0.0
 10
14.53850907255569
 20
22.42669726882277
 10
14.59015332096399
 20
22.39935619613601
 10
14.64483546633748
 20
22.37809091737967
 10
14.6964797147458
 20
22.36593932951888
 10
14.74812396315408
 20
22.35986353558851
 10
14.7967303145972
 20
22.36290143255369
 10
14.83926087210991
 20
22.37505302041447
 10
14.88179142962263
 20
22.39328040220564
 10
14.91824619320496
 20
22.41758357792719
 10
14.9486251628569
 20
22.45100044454432
 10
14.97596623554366
 20
22.49049310509185
 10
14.99723151430002
 20
22.53909945653496
 10
15.01242099912599
 20
22.59074370494325
 10
15.02153469002157
 20
22.64542585031676
 10
15.02457258698676
 20
22.70922168658584
  0
LWPOLYLINE
  5
113F
330
1E
100
AcDbEntity
  8
5
100
AcDbPolyline
 90
       24
 70
     0
 43
0.0
 10
11.37909622875368
 20
24.2555112418697
 10
11.47023313770951
 20
24.20386699346139
 10
11.55833214970015
 20
24.1522227450531
 10
11.64035536776039
 20
24.10361639360999
 10
11.72845437975103
 20
24.05197214520169
 10
11.81047759781127
 20
24.00640369072378
 10
11.88338712497593
 20
23.96691103017624
 10
11.95325875517539
 20
23.93045626659391
 10
12.01401669447928
 20
23.90007729694198
 10
12.07173673681797
 20
23.86969832729003
 10
12.17806313059977
 20
23.82109197584691
 10
12.27527583348599
 20
23.76944772743862
 10
12.3724885363722
 20
23.71476558206513
 10
12.46666334229322
 20
23.65400764276125
 10
12.56083814821424
 20
23.59324970345735
 10
12.65197505717007
 20
23.53552966111866
 10
12.7370361721955
 20
23.48084751574517
 10
12.82817308115133
 20
23.42616537037168
 10
12.91930999010716
 20
23.37755901892857
 10
13.01044689906299
 20
23.32895266748546
 10
13.1076596019492
 20
23.27730841907716
 10
13.21702389269619
 20
23.21351258280808
 10
13.33246397737358
 20
23.14364095260861
 10
13.40233560757304
 20
23.10111039509589
  0
LWPOLYLINE
  5
1159
330
1E
100
AcDbEntity
  8
5
100
AcDbPolyline
 90
        4
 70
     0
 43
0.0
 10
14.29547731534015
 20
22.57251632315209
 10
14.34712156374845
 20
22.54213735350016
 10
14.43825847270428
 20
22.48745520812665
 10
14.53850907255569
 20
22.42669726882277
  0
LWPOLYLINE
  5
115F
330
1E
100
AcDbEntity
  8
5
100
AcDbPolyline
 90
        8
 70
     0
 43
0.0
 10
10.1608995457108
 20
25.5162384824253
 10
10.16393744267599
 20
25.44636685222584
 10
10.17608903053678
 20
25.37649522202637
 10
10.19127851536275
 20
25.30358569486171
 10
10.21558169108429
 20
25.23067616769704
 10
10.24292276377105
 20
25.15776664053239
 10
10.27633963038819
 20
25.08485711336772
 10
10.3158322909357
 20
25.01498548316825
  0
LINE
  5
1169
330
1E
100
AcDbEntity
  8
5
100
AcDbLine
 10
10.1608995457108
 20
25.5162384824253
 30
0.0
 11
10.1608995457108
 21
25.78357341536239
 31
0.0
  0
LWPOLYLINE
  5
116A
330
1E
100
AcDbEntity
  8
5
100
AcDbPolyline
 90
       15
 70
     0
 43
0.0
 10
10.64696306014188
 20
26.06913573009066
 10
10.59228091476838
 20
26.09647680277739
 10
10.53759876939489
 20
26.11470418456857
 10
10.48595452098658
 20
26.12685577242934
 10
10.43734816954348
 20
26.13293156635974
 10
10.38874181810037
 20
26.12989366939454
 10
10.34317336362246
 20
26.11774208153377
 10
10.30368070307493
 20
26.09951469974259
 10
10.26722593949261
 20
26.07217362705585
 10
10.23684696984066
 20
26.03875676043871
 10
10.20950589715391
 20
25.99926409989118
 10
10.18824061839755
 20
25.95369564541327
 10
10.17305113357159
 20
25.90205139700497
 10
10.16393744267599
 20
25.84433135466628
 10
10.1608995457108
 20
25.7835734153624
  0
LWPOLYLINE
  5
117B
330
1E
100
AcDbEntity
  8
5
100
AcDbPolyline
 90
       26
 70
     0
 43
0.0
 10
10.64696306014188
 20
26.06913573009066
 10
10.70468310248056
 20
26.02660517257794
 10
10.75328945392368
 20
25.99015040899561
 10
10.79582001143639
 20
25.95977143934366
 10
10.83227477501873
 20
25.9354682636221
 10
10.86265374467067
 20
25.91420298486576
 10
10.8960706112878
 20
25.89293770610938
 10
10.92341168397455
 20
25.87471032431822
 10
10.94467696273092
 20
25.86255873645743
 10
10.95986644755689
 20
25.85040714859666
 10
10.97809382934805
 20
25.83825556073589
 10
10.99328331417402
 20
25.82610397287512
 10
11.02366228382596
 20
25.80483869411875
 10
11.05404125347791
 20
25.78053551839721
 10
11.09049601706023
 20
25.76230813660603
 10
11.12998867760776
 20
25.74711865178006
 10
11.17251923512048
 20
25.73496706391929
 10
11.21808768959839
 20
25.71977757909332
 10
11.26973193800669
 20
25.69547440337176
 10
11.30314880462383
 20
25.6802849185458
 10
11.34264146517136
 20
25.65901963978943
 10
11.38517202268407
 20
25.63167856710268
 10
11.43377837412719
 20
25.60433749441593
 10
11.48846051950068
 20
25.57699642172918
 10
11.55225635576976
 20
25.54661745207725
 10
11.61909008900404
 20
25.5162384824253
  0
LINE
  5
1197
330
1E
100
AcDbEntity
  8
5
100
AcDbLine
 10
11.61301429507364
 20
25.5678827308336
 30
0.0
 11
11.61909008900404
 21
25.5162384824253
 31
0.0
  0
LWPOLYLINE
  5
1198
330
1E
100
AcDbEntity
  8
5
100
AcDbPolyline
 90
       25
 70
     0
 43
0.0
 10
10.65000095710708
 20
26.11470418456857
 10
10.70772099944576
 20
26.07217362705585
 10
10.75936524785407
 20
26.03571886347351
 10
10.80189580536678
 20
26.00533989382157
 10
10.83531267198392
 20
25.98103671810002
 10
10.86569164163587
 20
25.96280933630886
 10
10.88999481735742
 20
25.94458195451769
 10
10.91126009611378
 20
25.93243036665692
 10
10.94163906576573
 20
25.91420298486576
 10
10.96898013845247
 20
25.89597560307458
 10
10.99024541720882
 20
25.87774822128341
 10
11.02062438686077
 20
25.85344504556186
 10
11.05100335651272
 20
25.8321797668055
 10
11.08442022312985
 20
25.81395238501435
 10
11.12087498671218
 20
25.79876290018837
 10
11.15125395636412
 20
25.78964920929278
 10
11.18770871994644
 20
25.78053551839721
 10
11.23023927745917
 20
25.76534603357123
 10
11.27276983497189
 20
25.74408075481486
 10
11.32441408338019
 20
25.71673968212811
 10
11.3699825378581
 20
25.68939860944137
 10
11.41858888930121
 20
25.66205753675462
 10
11.4763089316399
 20
25.63167856710268
 10
11.54010476790898
 20
25.59826170048554
 10
11.61301429507364
 20
25.56788273083361
  0
LWPOLYLINE
  5
11B3
330
1E
100
AcDbEntity
  8
5
100
AcDbPolyline
 90
       16
 70
     0
 43
0.0
 10
10.65000095710708
 20
26.11470418456857
 10
10.59531881173358
 20
26.14204525725531
 10
10.54063666636008
 20
26.16634843297687
 10
10.48595452098658
 20
26.17850002083765
 10
10.43431027257829
 20
26.18761371173322
 10
10.38570392113518
 20
26.18457581476803
 10
10.33709756969207
 20
26.17850002083765
 10
10.29456701217935
 20
26.16331053601168
 10
10.25507435163182
 20
26.13900736029011
 10
10.22165748501468
 20
26.11166628760337
 10
10.19127851536275
 20
26.07521152402105
 10
10.16697533964119
 20
26.03268096650833
 10
10.14571006088483
 20
25.98407461506521
 10
10.13052057605886
 20
25.92939246969172
 10
10.12140688516327
 20
25.87167242735304
 10
10.11836898819808
 20
25.80787659108394
  0
LINE
  5
11C5
330
1E
100
AcDbEntity
  8
5
100
AcDbLine
 10
10.11836898819808
 20
25.54054165814686
 30
0.0
 11
10.11836898819808
 21
25.80787659108394
 31
0.0
  0
LWPOLYLINE
  5
11C6
330
1E
100
AcDbEntity
  8
5
100
AcDbPolyline
 90
        8
 70
     0
 43
0.0
 10
10.11836898819808
 20
25.54054165814685
 10
10.12444478212847
 20
25.464594234017
 10
10.13355847302406
 20
25.38864680988715
 10
10.15178585481522
 20
25.30966148879209
 10
10.17608903053678
 20
25.23067616769704
 10
10.20646800018871
 20
25.151690846602
 10
10.24596066073624
 20
25.07270552550695
 10
10.28849121824896
 20
24.99675810137709
  0
LWPOLYLINE
  5
11D0
330
1E
100
AcDbEntity
  8
5
100
AcDbPolyline
 90
       23
 70
     0
 43
0.0
 10
11.40947519840563
 20
24.18867750863542
 10
11.44289206502277
 20
24.17045012684426
 10
11.54314266487418
 20
24.10969218754038
 10
11.6373174707952
 20
24.05501004216687
 10
11.72237858582064
 20
24.00640369072378
 10
11.81351549477647
 20
23.95475944231546
 10
11.8985766098019
 20
23.90919098783755
 10
11.97148613696656
 20
23.87273622425522
 10
12.04135776716602
 20
23.83628146067288
 10
12.10515360343511
 20
23.80590249102095
 10
12.1628736457738
 20
23.7785614183342
 10
12.28438952438157
 20
23.71780347903033
 10
12.39982960905895
 20
23.64793184883084
 10
12.51526969373633
 20
23.57502232166619
 10
12.62767188144851
 20
23.50211279450153
 10
12.73399827523031
 20
23.43224116430206
 10
12.81602149329056
 20
23.38363481285895
 10
12.89500681438561
 20
23.34110425534623
 10
12.97095423851547
 20
23.30161159479871
 10
13.05297745657571
 20
23.25908103728598
 10
13.13803857160115
 20
23.21047468584289
 10
13.23221337752217
 20
23.15579254046938
 10
13.36284294702552
 20
23.07680721937433
  0
LWPOLYLINE
  5
11E9
330
1E
100
AcDbEntity
  8
5
100
AcDbPolyline
 90
        4
 70
     0
 43
0.0
 10
14.25294675782743
 20
22.55125104439574
 10
14.32889418195729
 20
22.50264469295263
 10
14.4291447818087
 20
22.44492465061394
 10
14.53547117559049
 20
22.37809091737967
  0
LWPOLYLINE
  5
11EF
330
1E
100
AcDbEntity
  8
5
100
AcDbPolyline
 90
       16
 70
     0
 43
0.0
 10
14.53547117559049
 20
22.37809091737967
 10
14.59319121792918
 20
22.34771194772772
 10
14.64787336330267
 20
22.32644666897136
 10
14.69951761171099
 20
22.31429508111059
 10
14.75116186011928
 20
22.305181390215
 10
14.7997682115624
 20
22.30821928718019
 10
14.84837456300549
 20
22.31429508111059
 10
14.89090512051822
 20
22.32948456593656
 10
14.93039778106574
 20
22.35378774165811
 10
14.96381464768288
 20
22.38112881434485
 10
14.99419361733482
 20
22.41758357792719
 10
15.02153469002157
 20
22.46011413543991
 10
15.03976207181273
 20
22.50872048688301
 10
15.0549515566387
 20
22.56340263225652
 10
15.06406524753429
 20
22.6211226745952
 10
15.06710314449948
 20
22.68491851086428
  0
LINE
  5
1201
330
1E
100
AcDbEntity
  8
5
100
AcDbLine
 10
15.06710314449948
 20
22.95225344380137
 30
0.0
 11
15.06710314449948
 21
22.68491851086428
 31
0.0
  0
LWPOLYLINE
  5
1202
330
1E
100
AcDbEntity
  8
5
100
AcDbPolyline
 90
       16
 70
     0
 43
0.0
 10
15.06710314449948
 20
22.95225344380137
 10
15.06406524753429
 20
23.01908717703565
 10
15.0549515566387
 20
23.08592091026992
 10
15.03976207181273
 20
23.15883043743458
 10
15.02153469002157
 20
23.22870206763405
 10
14.99419361733482
 20
23.30161159479871
 10
14.96381464768288
 20
23.37148322499817
 10
14.93039778106574
 20
23.44135485519765
 10
14.89090512051822
 20
23.50818858843192
 10
14.84837456300549
 20
23.57502232166619
 10
14.7997682115624
 20
23.63578026097007
 10
14.75116186011928
 20
23.69350030330875
 10
14.69951761171099
 20
23.74514455171707
 10
14.64787336330267
 20
23.79375090316016
 10
14.59319121792918
 20
23.83628146067288
 10
14.53547117559049
 20
23.86969832729003
  0
ARC
  5
1214
330
1E
100
AcDbEntity
  8
5
100
AcDbCircle
 10
-14.65821234376518
 20
-25.08817353465489
 30
0.0
 40
57.00126643048309
100
AcDbArc
 50
59.18978670881884
 51
59.18978670881884
  0
LINE
  5
1215
330
1E
100
AcDbEntity
  8
5
100
AcDbLine
 10
13.65144315871898
 20
24.38614081137305
 30
0.0
 11
13.64840526175378
 21
24.33753445992994
 31
0.0
  0
LINE
  5
1216
330
1E
100
AcDbEntity
  8
5
100
AcDbLine
 10
13.65144315871898
 20
24.38614081137305
 30
0.0
 11
14.18307512762796
 21
24.68993050789247
 31
0.0
  0
LINE
  5
1217
330
1E
100
AcDbEntity
  8
5
100
AcDbLine
 10
10.69253151461979
 20
25.82002817894473
 30
0.0
 11
10.69253151461979
 21
26.03571886347351
 31
0.0
  0
LWPOLYLINE
  5
1218
330
1E
100
AcDbEntity
  8
5
100
AcDbPolyline
 90
        8
 70
     0
 43
0.0
 10
10.69253151461979
 20
25.82002817894473
 10
10.69556941158498
 20
25.75319444571045
 10
10.70468310248056
 20
25.683322815511
 10
10.72291048427173
 20
25.61041328834633
 10
10.74417576302809
 20
25.53446586421648
 10
10.77151683571484
 20
25.46155633705181
 10
10.80797159929718
 20
25.38864680988715
 10
10.84746425984471
 20
25.31877517968768
  0
LWPOLYLINE
  5
1222
330
1E
100
AcDbEntity
  8
5
100
AcDbPolyline
 90
        3
 70
     0
 43
0.0
 10
11.08442022312985
 20
25.04232655585502
 10
11.09353391402542
 20
25.03321286495941
 10
11.10568550188621
 20
25.02409917406384
  0
LINE
  5
1227
330
1E
100
AcDbEntity
  8
5
100
AcDbLine
 10
11.32137618641499
 20
24.89954539849087
 30
0.0
 11
11.38820991964927
 21
24.86309063490855
 31
0.0
  0
LWPOLYLINE
  5
1228
330
1E
100
AcDbEntity
  8
5
100
AcDbPolyline
 90
       24
 70
     0
 43
0.0
 10
11.90769030069749
 20
24.56233883535432
 10
11.99882720965331
 20
24.510694586946
 10
12.08692622164394
 20
24.45601244157252
 10
12.16894943970419
 20
24.4104439870946
 10
12.25704845169482
 20
24.3587997386863
 10
12.33907166975506
 20
24.31019338724319
 10
12.41501909388492
 20
24.27070072669567
 10
12.4818528271192
 20
24.23728386007854
 10
12.54564866338826
 20
24.20386699346139
 10
12.60336870572696
 20
24.17652592077466
 10
12.70665720254357
 20
24.12488167236634
 10
12.80386990542978
 20
24.07627532092323
 10
12.90108260831599
 20
24.02159317554974
 10
12.99829531120221
 20
23.96083523624586
 10
13.09247011712323
 20
23.90007729694198
 10
13.18056912911387
 20
23.83931935763808
 10
13.26563024413931
 20
23.78767510922978
 10
13.35676715309514
 20
23.73299296385629
 10
13.44790406205097
 20
23.68438661241318
 10
13.53904097100679
 20
23.63578026097007
 10
13.6392915708582
 20
23.58109811559658
 10
13.74561796464
 20
23.52034017629269
 10
13.86105804931737
 20
23.45046854609322
 10
13.93396757648204
 20
23.40490009161532
  0
LINE
  5
1242
330
1E
100
AcDbEntity
  8
5
100
AcDbLine
 10
14.28636362444457
 20
23.1983230979821
 30
0.0
 11
14.31370469713132
 21
23.18313361315613
 31
0.0
  0
LINE
  5
1243
330
1E
100
AcDbEntity
  8
5
100
AcDbLine
 10
14.52939538166011
 20
23.05554194061798
 30
0.0
 11
14.55066066041646
 21
23.0433903527572
 31
0.0
  0
LWPOLYLINE
  5
1244
330
1E
100
AcDbEntity
  8
5
100
AcDbPolyline
 90
        3
 70
     0
 43
0.0
 10
14.82407138728394
 20
22.8793439166367
 10
14.87571563569225
 20
22.84896494698477
 10
15.02457258698676
 20
22.75782803802893
  0
LWPOLYLINE
  5
1249
330
1E
100
AcDbEntity
  8
5
100
AcDbPolyline
 90
       21
 70
     0
 43
0.0
 10
15.06710314449948
 20
24.17652592077464
 10
15.00026941126521
 20
24.21298068435698
 10
14.94254936892651
 20
24.24335965400892
 10
14.89394301748342
 20
24.27373862366085
 10
14.85141245997068
 20
24.29804179938242
 10
14.81495769638836
 20
24.32234497510396
 10
14.78154082977122
 20
24.34361025386034
 10
14.75419975708447
 20
24.36183763565149
 10
14.70863130260657
 20
24.38917870833824
 10
14.66913864205903
 20
24.4134818840598
 10
14.62964598151152
 20
24.43474716281615
 10
14.60230490882477
 20
24.44689875067694
 10
14.57192593917281
 20
24.45905033853771
 10
14.53850907255569
 20
24.47727772032887
 10
14.49901641200816
 20
24.49550510212004
 10
14.45041006056505
 20
24.52284617480678
 10
14.41091740001754
 20
24.54411145356315
 10
14.36231104857442
 20
24.5744904232151
 10
14.30762890320092
 20
24.60790728983223
 10
14.24990886086223
 20
24.64739995037975
 10
14.18307512762796
 20
24.68993050789247
  0
LWPOLYLINE
  5
1260
330
1E
100
AcDbEntity
  8
5
100
AcDbPolyline
 90
       16
 70
     0
 43
0.0
 10
15.59569721644328
 20
23.25908103728598
 10
15.59265931947808
 20
23.32591477052026
 10
15.58354562858251
 20
23.39274850375454
 10
15.56835614375654
 20
23.46262013395399
 10
15.55012876196536
 20
23.53552966111866
 10
15.5258255862438
 20
23.60540129131813
 10
15.49544661659187
 20
23.67831081848279
 10
15.45899185300954
 20
23.74818244868226
 10
15.41949919246201
 20
23.81501618191653
 10
15.3769686349493
 20
23.87881201818562
 10
15.33140018047138
 20
23.94260785445468
 10
15.28279382902828
 20
24.00032789679338
 10
15.22811168365477
 20
24.05197214520169
 10
15.17646743524647
 20
24.10057849664479
 10
15.12178528987298
 20
24.14007115719231
 10
15.06710314449948
 20
24.17652592077464
  0
LINE
  5
1272
330
1E
100
AcDbEntity
  8
5
100
AcDbLine
 10
15.59569721644328
 20
23.25908103728598
 30
0.0
 11
15.59569721644328
 21
22.98870820738371
 31
0.0
  0
LWPOLYLINE
  5
1273
330
1E
100
AcDbEntity
  8
5
100
AcDbPolyline
 90
        8
 70
     0
 43
0.0
 10
15.44076447121836
 20
22.64542585031676
 10
15.4802571317659
 20
22.67580481996869
 10
15.51367399838303
 20
22.71225958355103
 10
15.54405296803498
 20
22.75479014106375
 10
15.56531824679134
 20
22.80339649250685
 10
15.58354562858251
 20
22.86111653484554
 10
15.59265931947808
 20
22.92187447414942
 10
15.59569721644328
 20
22.98870820738371
  0
LWPOLYLINE
  5
127D
330
1E
100
AcDbEntity
  8
5
100
AcDbPolyline
 90
        8
 70
     0
 43
0.0
 10
11.17859502905086
 20
26.42153177805318
 10
11.12087498671218
 20
26.45191074770513
 10
11.0601170474083
 20
26.47317602646148
 10
11.0054349020348
 20
26.48836551128745
 10
10.94771485969611
 20
26.49140340825265
 10
10.8960706112878
 20
26.48836551128745
 10
10.84746425984471
 20
26.47925182039187
 10
10.80493370233197
 20
26.45798654163551
  0
LWPOLYLINE
  5
1287
330
1E
100
AcDbEntity
  8
5
100
AcDbPolyline
 90
       25
 70
     0
 43
0.0
 10
11.17859502905086
 20
26.42153177805318
 10
11.23631507138956
 20
26.37900122054047
 10
11.28795931979786
 20
26.34254645695812
 10
11.33048987731058
 20
26.31216748730619
 10
11.36694464089291
 20
26.28786431158463
 10
11.39732361054486
 20
26.26659903282829
 10
11.42162678626641
 20
26.2514095480023
 10
11.44289206502277
 20
26.23925796014153
 10
11.47327103467471
 20
26.21799268138517
 10
11.49757421039626
 20
26.19976529959401
 10
11.52187738611782
 20
26.18457581476803
 10
11.55225635576976
 20
26.16027263904649
 10
11.5826353254217
 20
26.13596946332493
 10
11.61301429507364
 20
26.11774208153377
 10
11.64946905865597
 20
26.10559049367299
 10
11.68288592527311
 20
26.09647680277739
 10
11.71934068885545
 20
26.08432521491662
 10
11.75883334940296
 20
26.06913573009066
 10
11.80440180388088
 20
26.05090834829949
 10
11.85300815532398
 20
26.02356727561274
 10
11.8985766098019
 20
25.99622620292599
 10
11.9502208582102
 20
25.96888513023925
 10
12.0079409005489
 20
25.9385061605873
 10
12.07173673681797
 20
25.90508929397017
 10
12.14464626398263
 20
25.87471032431822
  0
LINE
  5
12A2
330
1E
100
AcDbEntity
  8
5
100
AcDbLine
 10
12.14464626398263
 20
25.87471032431822
 30
0.0
 11
12.15072205791302
 21
25.82306607590992
 31
0.0
  0
LINE
  5
12A3
330
1E
100
AcDbEntity
  8
5
100
AcDbLine
 10
11.61301429507364
 20
25.5678827308336
 30
0.0
 11
12.14464626398263
 21
25.87471032431822
 31
0.0
  0
LINE
  5
12A4
330
1E
100
AcDbEntity
  8
5
100
AcDbLine
 10
11.61909008900404
 20
25.5162384824253
 30
0.0
 11
12.15072205791302
 21
25.82306607590992
 31
0.0
  0
LINE
  5
12A5
330
1E
100
AcDbEntity
  8
5
100
AcDbLine
 10
10.1608995457108
 20
25.78357341536239
 30
0.0
 11
10.65000095710708
 21
26.06609783312546
 31
0.0
  0
LINE
  5
12A6
330
1E
100
AcDbEntity
  8
5
100
AcDbLine
 10
10.1608995457108
 20
25.5162384824253
 30
0.0
 11
10.69253151461979
 21
25.82002817894473
 31
0.0
  0
LINE
  5
12A7
330
1E
100
AcDbEntity
  8
5
100
AcDbLine
 10
14.53850907255569
 20
22.42669726882277
 30
0.0
 11
15.02457258698676
 21
22.70618378962064
 31
0.0
  0
LINE
  5
12A8
330
1E
100
AcDbEntity
  8
5
100
AcDbLine
 10
10.65000095710708
 20
26.11470418456857
 30
0.0
 11
11.17859502905087
 21
26.42153177805318
 31
0.0
  0
LINE
  5
12A9
330
1E
100
AcDbEntity
  8
5
100
AcDbLine
 10
15.06710314449948
 20
22.95225344380137
 30
0.0
 11
15.59569721644328
 21
23.25908103728598
 31
0.0
  0
LINE
  5
12AA
330
1E
100
AcDbEntity
  8
5
100
AcDbLine
 10
15.06710314449948
 20
22.68491851086428
 30
0.0
 11
15.59569721644328
 21
22.98870820738371
 31
0.0
  0
LINE
  5
12AB
330
1E
100
AcDbEntity
  8
5
100
AcDbLine
 10
14.53547117559049
 20
23.86969832729003
 30
0.0
 11
15.06710314449948
 21
24.17652592077464
 31
0.0
  0
ENDSEC
  0
SECTION
  2
OBJECTS
  0
DICTIONARY
  5
C
330
0
100
AcDbDictionary
281
     1
  3
ACAD_GROUP
350
D
  3
ACAD_LAYOUT
350
19
  3
ACAD_MLINESTYLE
350
16
  3
ACAD_PLOTSETTINGS
350
18
  3
ACAD_PLOTSTYLENAME
350
E
  0
DICTIONARY
  5
D
102
{ACAD_REACTORS
330
C
102
}
330
C
100
AcDbDictionary
281
     1
  0
DICTIONARY
  5
19
102
{ACAD_REACTORS
330
C
102
}
330
C
100
AcDbDictionary
281
     1
  3
Layout1
350
1D
  3
Model
350
21
  0
DICTIONARY
  5
16
102
{ACAD_REACTORS
330
C
102
}
330
C
100
AcDbDictionary
281
     1
  3
Standard
350
17
  0
DICTIONARY
  5
18
102
{ACAD_REACTORS
330
C
102
}
330
C
100
AcDbDictionary
281
     1
  0
ACDBDICTIONARYWDFLT
  5
E
102
{ACAD_REACTORS
330
C
102
}
330
C
100
AcDbDictionary
281
     1
  3
Normal
350
F
100
AcDbDictionaryWithDefault
340
F
  0
LAYOUT
  5
1D
102
{ACAD_REACTORS
330
19
102
}
330
19
100
AcDbPlotSettings
  1

  2
\\breng\ENG-Laser1
  4

  6

 40
0.0
 41
0.0
 42
0.0
 43
0.0
 44
0.0
 45
0.0
 46
0.0
 47
0.0
 48
0.0
 49
0.0
140
0.0
141
0.0
142
1.0
143
1.0
 70
   688
 72
     0
 73
     0
 74
     5
  7

 75
    16
147
1.0
148
0.0
149
0.0
100
AcDbLayout
  1
Layout1
 70
     1
 71
     1
 10
0.0
 20
0.0
 11
12.0
 21
9.0
 12
0.0
 22
0.0
 32
0.0
 14
1.000000000000000E+20
 24
1.000000000000000E+20
 34
1.000000000000000E+20
 15
-1.000000000000000E+20
 25
-1.000000000000000E+20
 35
-1.000000000000000E+20
146
0.0
 13
0.0
 23
0.0
 33
0.0
 16
1.0
 26
0.0
 36
0.0
 17
0.0
 27
1.0
 37
0.0
 76
     0
330
1A
  0
LAYOUT
  5
21
102
{ACAD_REACTORS
330
19
102
}
330
19
100
AcDbPlotSettings
  1

  2
\\breng\ENG-Laser1
  4

  6

 40
0.0
 41
0.0
 42
0.0
 43
0.0
 44
0.0
 45
0.0
 46
0.0
 47
0.0
 48
0.0
 49
0.0
140
0.0
141
0.0
142
1.0
143
1.0
 70
  1712
 72
     0
 73
     0
 74
     0
  7

 75
     0
147
1.0
148
0.0
149
0.0
100
AcDbLayout
  1
Model
 70
     1
 71
     0
 10
0.0
 20
0.0
 11
12.0
 21
9.0
 12
0.0
 22
0.0
 32
0.0
 14
0.0
 24
0.0
 34
0.0
 15
0.0
 25
0.0
 35
0.0
146
0.0
 13
0.0
 23
0.0
 33
0.0
 16
1.0
 26
0.0
 36
0.0
 17
0.0
 27
1.0
 37
0.0
 76
     0
330
1E
  0
MLINESTYLE
  5
17
102
{ACAD_REACTORS
330
16
102
}
330
16
100
AcDbMlineStyle
  2
STANDARD
 70
     0
  3

 62
   256
 51
90.0
 52
90.0
 71
     2
 49
0.5
 62
   256
  6
BYLAYER
 49
-0.5
 62
   256
  6
BYLAYER
  0
ACDBPLACEHOLDER
  5
F
102
{ACAD_REACTORS
330
E
102
}
330
E
  0
ENDSEC
  0
EOF
