  0
SECTION
  2
HEADER
  9
$ACADVER
  1
AC1012
  9
$DWGCODEPAGE
  3
ANSI_1252
  9
$INSBASE
 10
0.0
 20
0.0
 30
0.0
  9
$EXTMIN
 10
0.7109985639236385
 20
3.244125390942354
 30
-0.0015258207003583
  9
$EXTMAX
 10
5.845275899680885
 20
7.749893207976004
 30
0.0000000349246037
  9
$LIMMIN
 10
0.0
 20
0.0
  9
$LIMMAX
 10
12.0
 20
9.0
  9
$ORTHOMODE
 70
     0
  9
$REGENMODE
 70
     1
  9
$FILLMODE
 70
     1
  9
$QTEXTMODE
 70
     0
  9
$MIRRTEXT
 70
     1
  9
$DRAGMODE
 70
     2
  9
$LTSCALE
 40
1.0
  9
$OSMODE
 70
   547
  9
$ATTMODE
 70
     1
  9
$TEXTSIZE
 40
0.2
  9
$TRACEWID
 40
0.05
  9
$TEXTSTYLE
  7
STANDARD
  9
$CLAYER
  8
0
  9
$CELTYPE
  6
BYLAYER
  9
$CECOLOR
 62
   256
  9
$CELTSCALE
 40
1.0
  9
$DELOBJ
 70
     1
  9
$DISPSILH
 70
     0
  9
$DIMSCALE
 40
1.0
  9
$DIMASZ
 40
0.18
  9
$DIMEXO
 40
0.0625
  9
$DIMDLI
 40
0.38
  9
$DIMRND
 40
0.0
  9
$DIMDLE
 40
0.0
  9
$DIMEXE
 40
0.18
  9
$DIMTP
 40
0.0
  9
$DIMTM
 40
0.0
  9
$DIMTXT
 40
0.18
  9
$DIMCEN
 40
0.09
  9
$DIMTSZ
 40
0.0
  9
$DIMTOL
 70
     0
  9
$DIMLIM
 70
     0
  9
$DIMTIH
 70
     1
  9
$DIMTOH
 70
     1
  9
$DIMSE1
 70
     0
  9
$DIMSE2
 70
     0
  9
$DIMTAD
 70
     0
  9
$DIMZIN
 70
     0
  9
$DIMBLK
  1

  9
$DIMASO
 70
     1
  9
$DIMSHO
 70
     1
  9
$DIMPOST
  1

  9
$DIMAPOST
  1

  9
$DIMALT
 70
     0
  9
$DIMALTD
 70
     2
  9
$DIMALTF
 40
25.4
  9
$DIMLFAC
 40
1.0
  9
$DIMTOFL
 70
     0
  9
$DIMTVP
 40
0.0
  9
$DIMTIX
 70
     0
  9
$DIMSOXD
 70
     0
  9
$DIMSAH
 70
     0
  9
$DIMBLK1
  1

  9
$DIMBLK2
  1

  9
$DIMSTYLE
  2
STANDARD
  9
$DIMCLRD
 70
     0
  9
$DIMCLRE
 70
     0
  9
$DIMCLRT
 70
     0
  9
$DIMTFAC
 40
1.0
  9
$DIMGAP
 40
0.09
  9
$DIMJUST
 70
     0
  9
$DIMSD1
 70
     0
  9
$DIMSD2
 70
     0
  9
$DIMTOLJ
 70
     1
  9
$DIMTZIN
 70
     0
  9
$DIMALTZ
 70
     0
  9
$DIMALTTZ
 70
     0
  9
$DIMFIT
 70
     5
  9
$DIMUPT
 70
     0
  9
$DIMUNIT
 70
     2
  9
$DIMDEC
 70
     4
  9
$DIMTDEC
 70
     4
  9
$DIMALTU
 70
     2
  9
$DIMALTTD
 70
     2
  9
$DIMTXSTY
  7
STANDARD
  9
$DIMAUNIT
 70
     0
  9
$LUNITS
 70
     2
  9
$LUPREC
 70
     4
  9
$SKETCHINC
 40
0.1
  9
$FILLETRAD
 40
0.0
  9
$AUNITS
 70
     0
  9
$AUPREC
 70
     0
  9
$MENU
  1
acad
  9
$ELEVATION
 40
0.0
  9
$PELEVATION
 40
0.0
  9
$THICKNESS
 40
0.0
  9
$LIMCHECK
 70
     0
  9
$BLIPMODE
 70
     0
  9
$CHAMFERA
 40
0.0
  9
$CHAMFERB
 40
0.0
  9
$CHAMFERC
 40
0.0
  9
$CHAMFERD
 40
0.0
  9
$SKPOLY
 70
     0
  9
$TDCREATE
 40
2454215.312685185
  9
$TDUPDATE
 40
2454215.314165440
  9
$TDINDWG
 40
0.0009037731
  9
$TDUSRTIMER
 40
0.0009037731
  9
$USRTIMER
 70
     1
  9
$ANGBASE
 50
0.0
  9
$ANGDIR
 70
     0
  9
$PDMODE
 70
     0
  9
$PDSIZE
 40
0.0
  9
$PLINEWID
 40
0.0
  9
$COORDS
 70
     1
  9
$SPLFRAME
 70
     0
  9
$SPLINETYPE
 70
     6
  9
$SPLINESEGS
 70
     8
  9
$ATTDIA
 70
     0
  9
$ATTREQ
 70
     1
  9
$HANDLING
 70
  4097
  9
$HANDSEED
  5
362F
  9
$SURFTAB1
 70
     6
  9
$SURFTAB2
 70
     6
  9
$SURFTYPE
 70
     6
  9
$SURFU
 70
     6
  9
$SURFV
 70
     6
  9
$UCSNAME
  2

  9
$UCSORG
 10
0.0
 20
0.0
 30
0.0
  9
$UCSXDIR
 10
1.0
 20
0.0
 30
0.0
  9
$UCSYDIR
 10
0.0
 20
1.0
 30
0.0
  9
$PUCSNAME
  2

  9
$PUCSORG
 10
0.0
 20
0.0
 30
0.0
  9
$PUCSXDIR
 10
1.0
 20
0.0
 30
0.0
  9
$PUCSYDIR
 10
0.0
 20
1.0
 30
0.0
  9
$USERI1
 70
     0
  9
$USERI2
 70
     0
  9
$USERI3
 70
     0
  9
$USERI4
 70
     0
  9
$USERI5
 70
     0
  9
$USERR1
 40
0.0
  9
$USERR2
 40
0.0
  9
$USERR3
 40
0.0
  9
$USERR4
 40
0.0
  9
$USERR5
 40
0.0
  9
$WORLDVIEW
 70
     1
  9
$SHADEDGE
 70
     3
  9
$SHADEDIF
 70
    70
  9
$TILEMODE
 70
     1
  9
$MAXACTVP
 70
    16
  9
$PINSBASE
 10
0.0
 20
0.0
 30
0.0
  9
$PLIMCHECK
 70
     0
  9
$PEXTMIN
 10
1.000000000000000E+20
 20
1.000000000000000E+20
 30
1.000000000000000E+20
  9
$PEXTMAX
 10
-1.000000000000000E+20
 20
-1.000000000000000E+20
 30
-1.000000000000000E+20
  9
$PLIMMIN
 10
0.0
 20
0.0
  9
$PLIMMAX
 10
12.0
 20
9.0
  9
$UNITMODE
 70
     0
  9
$VISRETAIN
 70
     0
  9
$PLINEGEN
 70
     0
  9
$PSLTSCALE
 70
     1
  9
$TREEDEPTH
 70
  3020
  9
$PICKSTYLE
 70
     1
  9
$CMLSTYLE
  2
STANDARD
  9
$CMLJUST
 70
     0
  9
$CMLSCALE
 40
1.0
  9
$SAVEIMAGES
 70
     1
  0
ENDSEC
  0
SECTION
  2
CLASSES
  0
CLASS
  1
ACDBDICTIONARYWDFLT
  2
AcDbDictionaryWithDefault
  3
AutoCAD 2000
 90
    32768
280
     0
281
     0
  0
CLASS
  1
ACDBPLACEHOLDER
  2
AcDbPlaceHolder
  3
AutoCAD 2000
 90
    32768
280
     0
281
     0
  0
CLASS
  1
LAYOUT
  2
AcDbLayout
  3
AutoCAD 2000
 90
    32768
280
     0
281
     0
  0
CLASS
  1
LONG_TRANSACTION
  2
AcDbLongTransaction
  3
AutoCAD 2000
 90
    32768
280
     0
281
     0
  0
CLASS
  1
LWPOLYLINE
  2
AcDbPolyline
  3
AutoCAD 2000
 90
    32768
280
     0
281
     1
  0
CLASS
  1
HATCH
  2
AcDbHatch
  3
AutoCAD 2000
 90
    32768
280
     0
281
     1
  0
CLASS
  1
XRECORD
  2
AcDbXrecord
  3
AutoCAD 2000
 90
    32768
280
     0
281
     0
  0
ENDSEC
  0
SECTION
  2
TABLES
  0
TABLE
  2
VPORT
  5
8
330
0
100
AcDbSymbolTable
 70
     3
  0
VPORT
  5
325F
330
8
100
AcDbSymbolTableRecord
100
AcDbViewportTableRecord
  2
*ACTIVE
 70
     0
 10
0.0
 20
0.0
 11
1.0
 21
1.0
 12
3.278137231802261
 22
5.497009299459179
 13
0.0
 23
0.0
 14
1.0
 24
1.0
 15
0.0
 25
0.0
 16
0.0
 26
0.0
 36
1.0
 17
0.0
 27
0.0
 37
0.0
 40
4.556299792551785
 41
1.747191011235955
 42
50.0
 43
0.0
 44
0.0
 50
0.0
 51
0.0
 71
     0
 72
   100
 73
     1
 74
     1
 75
     0
 76
     0
 77
     0
 78
     0
  0
ENDTAB
  0
TABLE
  2
LTYPE
  5
5
330
0
100
AcDbSymbolTable
 70
    25
  0
LTYPE
  5
13
330
5
100
AcDbSymbolTableRecord
100
AcDbLinetypeTableRecord
  2
BYBLOCK
 70
     0
  3

 72
    65
 73
     0
 40
0.0
  0
LTYPE
  5
14
330
5
100
AcDbSymbolTableRecord
100
AcDbLinetypeTableRecord
  2
BYLAYER
 70
     0
  3

 72
    65
 73
     0
 40
0.0
  0
LTYPE
  5
15
330
5
100
AcDbSymbolTableRecord
100
AcDbLinetypeTableRecord
  2
CONTINUOUS
 70
     0
  3
Solid line
 72
    65
 73
     0
 40
0.0
  0
LTYPE
  5
22
330
5
100
AcDbSymbolTableRecord
100
AcDbLinetypeTableRecord
  2
BORDER
 70
     0
  3
__ __ . __ __ . __ __ . __ __ . __ __ . __ __ .
 72
    65
 73
     6
 40
1.75
 49
0.5
 74
     0
 49
-0.25
 74
     0
 49
0.5
 74
     0
 49
-0.25
 74
     0
 49
0.5
 74
     0
 49
-0.25
 74
     0
  0
LTYPE
  5
23
330
5
100
AcDbSymbolTableRecord
100
AcDbLinetypeTableRecord
  2
BORDER2
 70
     0
  3
__.__.__.__.__.__.__.__.
 72
    65
 73
     6
 40
0.875
 49
0.25
 74
     0
 49
-0.125
 74
     0
 49
0.25
 74
     0
 49
-0.125
 74
     0
 49
0.25
 74
     0
 49
-0.125
 74
     0
  0
LTYPE
  5
24
330
5
100
AcDbSymbolTableRecord
100
AcDbLinetypeTableRecord
  2
BORDERX2
 70
     0
  3
____  ____  .  
 72
    65
 73
     6
 40
3.5
 49
1.0
 74
     0
 49
-0.5
 74
     0
 49
1.0
 74
     0
 49
-0.5
 74
     0
 49
1.0
 74
     0
 49
-0.5
 74
     0
  0
LTYPE
  5
25
330
5
100
AcDbSymbolTableRecord
100
AcDbLinetypeTableRecord
  2
CENTER
 70
     0
  3
____ _ ____ _ ____ _ 
 72
    65
 73
     4
 40
2.0
 49
1.25
 74
     0
 49
-0.25
 74
     0
 49
0.25
 74
     0
 49
-0.25
 74
     0
  0
LTYPE
  5
26
330
5
100
AcDbSymbolTableRecord
100
AcDbLinetypeTableRecord
  2
CENTER2
 70
     0
  3
____ _ ____ _ ____ _ 
 72
    65
 73
     4
 40
1.125
 49
0.75
 74
     0
 49
-0.125
 74
     0
 49
0.125
 74
     0
 49
-0.125
 74
     0
  0
LTYPE
  5
27
330
5
100
AcDbSymbolTableRecord
100
AcDbLinetypeTableRecord
  2
CENTERX2
 70
     0
  3
________  __  
 72
    65
 73
     4
 40
4.0
 49
2.5
 74
     0
 49
-0.5
 74
     0
 49
0.5
 74
     0
 49
-0.5
 74
     0
  0
LTYPE
  5
28
330
5
100
AcDbSymbolTableRecord
100
AcDbLinetypeTableRecord
  2
DASHDOT
 70
     0
  3
__ . __ . __ . __ . 
 72
    65
 73
     4
 40
1.0
 49
0.5
 74
     0
 49
-0.25
 74
     0
 49
0.0
 74
     0
 49
-0.25
 74
     0
  0
LTYPE
  5
29
330
5
100
AcDbSymbolTableRecord
100
AcDbLinetypeTableRecord
  2
DASHDOT2
 70
     0
  3
_._._._._._._._._.
 72
    65
 73
     4
 40
0.5
 49
0.25
 74
     0
 49
-0.125
 74
     0
 49
0.0
 74
     0
 49
-0.125
 74
     0
  0
LTYPE
  5
2A
330
5
100
AcDbSymbolTableRecord
100
AcDbLinetypeTableRecord
  2
DASHDOTX2
 70
     0
  3
____  .  ____  .  
 72
    65
 73
     4
 40
2.0
 49
1.0
 74
     0
 49
-0.5
 74
     0
 49
0.0
 74
     0
 49
-0.5
 74
     0
  0
LTYPE
  5
2B
330
5
100
AcDbSymbolTableRecord
100
AcDbLinetypeTableRecord
  2
DASHED
 70
     0
  3
__ __ __ __ __ __ __ 
 72
    65
 73
     2
 40
0.75
 49
0.5
 74
     0
 49
-0.25
 74
     0
  0
LTYPE
  5
2C
330
5
100
AcDbSymbolTableRecord
100
AcDbLinetypeTableRecord
  2
DASHED2
 70
     0
  3
_ _ _ _ _ _ _ _ _ _ 
 72
    65
 73
     2
 40
0.375
 49
0.25
 74
     0
 49
-0.125
 74
     0
  0
LTYPE
  5
2D
330
5
100
AcDbSymbolTableRecord
100
AcDbLinetypeTableRecord
  2
DASHEDX2
 70
     0
  3
____  ____  ____  
 72
    65
 73
     2
 40
1.5
 49
1.0
 74
     0
 49
-0.5
 74
     0
  0
LTYPE
  5
2E
330
5
100
AcDbSymbolTableRecord
100
AcDbLinetypeTableRecord
  2
DIVIDE
 70
     0
  3
____ . . ____ . . 
 72
    65
 73
     6
 40
1.25
 49
0.5
 74
     0
 49
-0.25
 74
     0
 49
0.0
 74
     0
 49
-0.25
 74
     0
 49
0.0
 74
     0
 49
-0.25
 74
     0
  0
LTYPE
  5
2F
330
5
100
AcDbSymbolTableRecord
100
AcDbLinetypeTableRecord
  2
DIVIDE2
 70
     0
  3
__..__..__..__..__..
 72
    65
 73
     6
 40
0.625
 49
0.25
 74
     0
 49
-0.125
 74
     0
 49
0.0
 74
     0
 49
-0.125
 74
     0
 49
0.0
 74
     0
 49
-0.125
 74
     0
  0
LTYPE
  5
30
330
5
100
AcDbSymbolTableRecord
100
AcDbLinetypeTableRecord
  2
DIVIDEX2
 70
     0
  3
________  .  .  
 72
    65
 73
     6
 40
2.5
 49
1.0
 74
     0
 49
-0.5
 74
     0
 49
0.0
 74
     0
 49
-0.5
 74
     0
 49
0.0
 74
     0
 49
-0.5
 74
     0
  0
LTYPE
  5
31
330
5
100
AcDbSymbolTableRecord
100
AcDbLinetypeTableRecord
  2
DOT
 70
     0
  3
. . . . . . . . . 
 72
    65
 73
     2
 40
0.25
 49
0.0
 74
     0
 49
-0.25
 74
     0
  0
LTYPE
  5
32
330
5
100
AcDbSymbolTableRecord
100
AcDbLinetypeTableRecord
  2
DOT2
 70
     0
  3
..................
 72
    65
 73
     2
 40
0.125
 49
0.0
 74
     0
 49
-0.125
 74
     0
  0
LTYPE
  5
33
330
5
100
AcDbSymbolTableRecord
100
AcDbLinetypeTableRecord
  2
DOTX2
 70
     0
  3
.  .  .  .  .  .  
 72
    65
 73
     2
 40
0.5
 49
0.0
 74
     0
 49
-0.5
 74
     0
  0
LTYPE
  5
34
330
5
100
AcDbSymbolTableRecord
100
AcDbLinetypeTableRecord
  2
HIDDEN
 70
     0
  3
__ __ __ __ __ __ 
 72
    65
 73
     2
 40
0.375
 49
0.25
 74
     0
 49
-0.125
 74
     0
  0
LTYPE
  5
35
330
5
100
AcDbSymbolTableRecord
100
AcDbLinetypeTableRecord
  2
HIDDEN2
 70
     0
  3
_ _ _ _ _ _ _ _ _ 
 72
    65
 73
     2
 40
0.1875
 49
0.125
 74
     0
 49
-0.0625
 74
     0
  0
LTYPE
  5
36
330
5
100
AcDbSymbolTableRecord
100
AcDbLinetypeTableRecord
  2
HIDDENX2
 70
     0
  3
____ ____ ____ ____ 
 72
    65
 73
     2
 40
0.75
 49
0.5
 74
     0
 49
-0.25
 74
     0
  0
LTYPE
  5
37
330
5
100
AcDbSymbolTableRecord
100
AcDbLinetypeTableRecord
  2
PHANTOM
 70
     0
  3
______  __  __  
 72
    65
 73
     6
 40
2.5
 49
1.25
 74
     0
 49
-0.25
 74
     0
 49
0.25
 74
     0
 49
-0.25
 74
     0
 49
0.25
 74
     0
 49
-0.25
 74
     0
  0
LTYPE
  5
38
330
5
100
AcDbSymbolTableRecord
100
AcDbLinetypeTableRecord
  2
PHANTOM2
 70
     0
  3
___ _ _ ___ _ _ 
 72
    65
 73
     6
 40
1.25
 49
0.625
 74
     0
 49
-0.125
 74
     0
 49
0.125
 74
     0
 49
-0.125
 74
     0
 49
0.125
 74
     0
 49
-0.125
 74
     0
  0
LTYPE
  5
39
330
5
100
AcDbSymbolTableRecord
100
AcDbLinetypeTableRecord
  2
PHANTOMX2
 70
     0
  3
___ _ _ ___ _ _ 
 72
    65
 73
     6
 40
5.0
 49
2.5
 74
     0
 49
-0.5
 74
     0
 49
0.5
 74
     0
 49
-0.5
 74
     0
 49
0.5
 74
     0
 49
-0.5
 74
     0
  0
ENDTAB
  0
TABLE
  2
LAYER
  5
2
330
0
100
AcDbSymbolTable
 70
   257
  0
LAYER
  5
10
330
2
100
AcDbSymbolTableRecord
100
AcDbLayerTableRecord
  2
0
 70
     0
 62
     7
  6
CONTINUOUS
  0
LAYER
  5
3A
330
2
100
AcDbSymbolTableRecord
100
AcDbLayerTableRecord
  2
1
 70
     0
 62
     1
  6
CONTINUOUS
  0
LAYER
  5
3B
330
2
100
AcDbSymbolTableRecord
100
AcDbLayerTableRecord
  2
2
 70
     0
 62
     2
  6
CONTINUOUS
  0
LAYER
  5
3C
330
2
100
AcDbSymbolTableRecord
100
AcDbLayerTableRecord
  2
3
 70
     0
 62
     3
  6
CONTINUOUS
  0
LAYER
  5
3D
330
2
100
AcDbSymbolTableRecord
100
AcDbLayerTableRecord
  2
4
 70
     0
 62
     4
  6
CONTINUOUS
  0
LAYER
  5
3E
330
2
100
AcDbSymbolTableRecord
100
AcDbLayerTableRecord
  2
5
 70
     0
 62
     5
  6
CONTINUOUS
  0
LAYER
  5
3F
330
2
100
AcDbSymbolTableRecord
100
AcDbLayerTableRecord
  2
6
 70
     0
 62
     6
  6
CONTINUOUS
  0
LAYER
  5
40
330
2
100
AcDbSymbolTableRecord
100
AcDbLayerTableRecord
  2
7
 70
     0
 62
     7
  6
CONTINUOUS
  0
LAYER
  5
41
330
2
100
AcDbSymbolTableRecord
100
AcDbLayerTableRecord
  2
8
 70
     0
 62
     8
  6
CONTINUOUS
  0
LAYER
  5
42
330
2
100
AcDbSymbolTableRecord
100
AcDbLayerTableRecord
  2
9
 70
     0
 62
     9
  6
CONTINUOUS
  0
LAYER
  5
43
330
2
100
AcDbSymbolTableRecord
100
AcDbLayerTableRecord
  2
10
 70
     0
 62
    10
  6
CONTINUOUS
  0
LAYER
  5
44
330
2
100
AcDbSymbolTableRecord
100
AcDbLayerTableRecord
  2
11
 70
     0
 62
    11
  6
CONTINUOUS
  0
LAYER
  5
45
330
2
100
AcDbSymbolTableRecord
100
AcDbLayerTableRecord
  2
12
 70
     0
 62
    12
  6
CONTINUOUS
  0
LAYER
  5
46
330
2
100
AcDbSymbolTableRecord
100
AcDbLayerTableRecord
  2
13
 70
     0
 62
    13
  6
CONTINUOUS
  0
LAYER
  5
47
330
2
100
AcDbSymbolTableRecord
100
AcDbLayerTableRecord
  2
14
 70
     0
 62
    14
  6
CONTINUOUS
  0
LAYER
  5
48
330
2
100
AcDbSymbolTableRecord
100
AcDbLayerTableRecord
  2
15
 70
     0
 62
    15
  6
CONTINUOUS
  0
LAYER
  5
49
330
2
100
AcDbSymbolTableRecord
100
AcDbLayerTableRecord
  2
16
 70
     0
 62
    16
  6
CONTINUOUS
  0
LAYER
  5
4A
330
2
100
AcDbSymbolTableRecord
100
AcDbLayerTableRecord
  2
17
 70
     0
 62
    17
  6
CONTINUOUS
  0
LAYER
  5
4B
330
2
100
AcDbSymbolTableRecord
100
AcDbLayerTableRecord
  2
18
 70
     0
 62
    18
  6
CONTINUOUS
  0
LAYER
  5
4C
330
2
100
AcDbSymbolTableRecord
100
AcDbLayerTableRecord
  2
19
 70
     0
 62
    19
  6
CONTINUOUS
  0
LAYER
  5
4D
330
2
100
AcDbSymbolTableRecord
100
AcDbLayerTableRecord
  2
20
 70
     0
 62
    20
  6
CONTINUOUS
  0
LAYER
  5
4E
330
2
100
AcDbSymbolTableRecord
100
AcDbLayerTableRecord
  2
21
 70
     0
 62
    21
  6
CONTINUOUS
  0
LAYER
  5
4F
330
2
100
AcDbSymbolTableRecord
100
AcDbLayerTableRecord
  2
22
 70
     0
 62
    22
  6
CONTINUOUS
  0
LAYER
  5
50
330
2
100
AcDbSymbolTableRecord
100
AcDbLayerTableRecord
  2
23
 70
     0
 62
    23
  6
CONTINUOUS
  0
LAYER
  5
51
330
2
100
AcDbSymbolTableRecord
100
AcDbLayerTableRecord
  2
24
 70
     0
 62
    24
  6
CONTINUOUS
  0
LAYER
  5
52
330
2
100
AcDbSymbolTableRecord
100
AcDbLayerTableRecord
  2
25
 70
     0
 62
    25
  6
CONTINUOUS
  0
LAYER
  5
53
330
2
100
AcDbSymbolTableRecord
100
AcDbLayerTableRecord
  2
26
 70
     0
 62
    26
  6
CONTINUOUS
  0
LAYER
  5
54
330
2
100
AcDbSymbolTableRecord
100
AcDbLayerTableRecord
  2
27
 70
     0
 62
    27
  6
CONTINUOUS
  0
LAYER
  5
55
330
2
100
AcDbSymbolTableRecord
100
AcDbLayerTableRecord
  2
28
 70
     0
 62
    28
  6
CONTINUOUS
  0
LAYER
  5
56
330
2
100
AcDbSymbolTableRecord
100
AcDbLayerTableRecord
  2
29
 70
     0
 62
    29
  6
CONTINUOUS
  0
LAYER
  5
57
330
2
100
AcDbSymbolTableRecord
100
AcDbLayerTableRecord
  2
30
 70
     0
 62
    30
  6
CONTINUOUS
  0
LAYER
  5
58
330
2
100
AcDbSymbolTableRecord
100
AcDbLayerTableRecord
  2
31
 70
     0
 62
    31
  6
CONTINUOUS
  0
LAYER
  5
59
330
2
100
AcDbSymbolTableRecord
100
AcDbLayerTableRecord
  2
32
 70
     0
 62
    32
  6
CONTINUOUS
  0
LAYER
  5
5A
330
2
100
AcDbSymbolTableRecord
100
AcDbLayerTableRecord
  2
33
 70
     0
 62
    33
  6
CONTINUOUS
  0
LAYER
  5
5B
330
2
100
AcDbSymbolTableRecord
100
AcDbLayerTableRecord
  2
34
 70
     0
 62
    34
  6
CONTINUOUS
  0
LAYER
  5
5C
330
2
100
AcDbSymbolTableRecord
100
AcDbLayerTableRecord
  2
35
 70
     0
 62
    35
  6
CONTINUOUS
  0
LAYER
  5
5D
330
2
100
AcDbSymbolTableRecord
100
AcDbLayerTableRecord
  2
36
 70
     0
 62
    36
  6
CONTINUOUS
  0
LAYER
  5
5E
330
2
100
AcDbSymbolTableRecord
100
AcDbLayerTableRecord
  2
37
 70
     0
 62
    37
  6
CONTINUOUS
  0
LAYER
  5
5F
330
2
100
AcDbSymbolTableRecord
100
AcDbLayerTableRecord
  2
38
 70
     0
 62
    38
  6
CONTINUOUS
  0
LAYER
  5
60
330
2
100
AcDbSymbolTableRecord
100
AcDbLayerTableRecord
  2
39
 70
     0
 62
    39
  6
CONTINUOUS
  0
LAYER
  5
61
330
2
100
AcDbSymbolTableRecord
100
AcDbLayerTableRecord
  2
40
 70
     0
 62
    40
  6
CONTINUOUS
  0
LAYER
  5
62
330
2
100
AcDbSymbolTableRecord
100
AcDbLayerTableRecord
  2
41
 70
     0
 62
    41
  6
CONTINUOUS
  0
LAYER
  5
63
330
2
100
AcDbSymbolTableRecord
100
AcDbLayerTableRecord
  2
42
 70
     0
 62
    42
  6
CONTINUOUS
  0
LAYER
  5
64
330
2
100
AcDbSymbolTableRecord
100
AcDbLayerTableRecord
  2
43
 70
     0
 62
    43
  6
CONTINUOUS
  0
LAYER
  5
65
330
2
100
AcDbSymbolTableRecord
100
AcDbLayerTableRecord
  2
44
 70
     0
 62
    44
  6
CONTINUOUS
  0
LAYER
  5
66
330
2
100
AcDbSymbolTableRecord
100
AcDbLayerTableRecord
  2
45
 70
     0
 62
    45
  6
CONTINUOUS
  0
LAYER
  5
67
330
2
100
AcDbSymbolTableRecord
100
AcDbLayerTableRecord
  2
46
 70
     0
 62
    46
  6
CONTINUOUS
  0
LAYER
  5
68
330
2
100
AcDbSymbolTableRecord
100
AcDbLayerTableRecord
  2
47
 70
     0
 62
    47
  6
CONTINUOUS
  0
LAYER
  5
69
330
2
100
AcDbSymbolTableRecord
100
AcDbLayerTableRecord
  2
48
 70
     0
 62
    48
  6
CONTINUOUS
  0
LAYER
  5
6A
330
2
100
AcDbSymbolTableRecord
100
AcDbLayerTableRecord
  2
49
 70
     0
 62
    49
  6
CONTINUOUS
  0
LAYER
  5
6B
330
2
100
AcDbSymbolTableRecord
100
AcDbLayerTableRecord
  2
50
 70
     0
 62
    50
  6
CONTINUOUS
  0
LAYER
  5
6C
330
2
100
AcDbSymbolTableRecord
100
AcDbLayerTableRecord
  2
51
 70
     0
 62
    51
  6
CONTINUOUS
  0
LAYER
  5
6D
330
2
100
AcDbSymbolTableRecord
100
AcDbLayerTableRecord
  2
52
 70
     0
 62
    52
  6
CONTINUOUS
  0
LAYER
  5
6E
330
2
100
AcDbSymbolTableRecord
100
AcDbLayerTableRecord
  2
53
 70
     0
 62
    53
  6
CONTINUOUS
  0
LAYER
  5
6F
330
2
100
AcDbSymbolTableRecord
100
AcDbLayerTableRecord
  2
54
 70
     0
 62
    54
  6
CONTINUOUS
  0
LAYER
  5
70
330
2
100
AcDbSymbolTableRecord
100
AcDbLayerTableRecord
  2
55
 70
     0
 62
    55
  6
CONTINUOUS
  0
LAYER
  5
71
330
2
100
AcDbSymbolTableRecord
100
AcDbLayerTableRecord
  2
56
 70
     0
 62
    56
  6
CONTINUOUS
  0
LAYER
  5
72
330
2
100
AcDbSymbolTableRecord
100
AcDbLayerTableRecord
  2
57
 70
     0
 62
    57
  6
CONTINUOUS
  0
LAYER
  5
73
330
2
100
AcDbSymbolTableRecord
100
AcDbLayerTableRecord
  2
58
 70
     0
 62
    58
  6
CONTINUOUS
  0
LAYER
  5
74
330
2
100
AcDbSymbolTableRecord
100
AcDbLayerTableRecord
  2
59
 70
     0
 62
    59
  6
CONTINUOUS
  0
LAYER
  5
75
330
2
100
AcDbSymbolTableRecord
100
AcDbLayerTableRecord
  2
60
 70
     0
 62
    60
  6
CONTINUOUS
  0
LAYER
  5
76
330
2
100
AcDbSymbolTableRecord
100
AcDbLayerTableRecord
  2
61
 70
     0
 62
    61
  6
CONTINUOUS
  0
LAYER
  5
77
330
2
100
AcDbSymbolTableRecord
100
AcDbLayerTableRecord
  2
62
 70
     0
 62
    62
  6
CONTINUOUS
  0
LAYER
  5
78
330
2
100
AcDbSymbolTableRecord
100
AcDbLayerTableRecord
  2
63
 70
     0
 62
    63
  6
CONTINUOUS
  0
LAYER
  5
79
330
2
100
AcDbSymbolTableRecord
100
AcDbLayerTableRecord
  2
64
 70
     0
 62
    64
  6
CONTINUOUS
  0
LAYER
  5
7A
330
2
100
AcDbSymbolTableRecord
100
AcDbLayerTableRecord
  2
65
 70
     0
 62
    65
  6
CONTINUOUS
  0
LAYER
  5
7B
330
2
100
AcDbSymbolTableRecord
100
AcDbLayerTableRecord
  2
66
 70
     0
 62
    66
  6
CONTINUOUS
  0
LAYER
  5
7C
330
2
100
AcDbSymbolTableRecord
100
AcDbLayerTableRecord
  2
67
 70
     0
 62
    67
  6
CONTINUOUS
  0
LAYER
  5
7D
330
2
100
AcDbSymbolTableRecord
100
AcDbLayerTableRecord
  2
68
 70
     0
 62
    68
  6
CONTINUOUS
  0
LAYER
  5
7E
330
2
100
AcDbSymbolTableRecord
100
AcDbLayerTableRecord
  2
69
 70
     0
 62
    69
  6
CONTINUOUS
  0
LAYER
  5
7F
330
2
100
AcDbSymbolTableRecord
100
AcDbLayerTableRecord
  2
70
 70
     0
 62
    70
  6
CONTINUOUS
  0
LAYER
  5
80
330
2
100
AcDbSymbolTableRecord
100
AcDbLayerTableRecord
  2
71
 70
     0
 62
    71
  6
CONTINUOUS
  0
LAYER
  5
81
330
2
100
AcDbSymbolTableRecord
100
AcDbLayerTableRecord
  2
72
 70
     0
 62
    72
  6
CONTINUOUS
  0
LAYER
  5
82
330
2
100
AcDbSymbolTableRecord
100
AcDbLayerTableRecord
  2
73
 70
     0
 62
    73
  6
CONTINUOUS
  0
LAYER
  5
83
330
2
100
AcDbSymbolTableRecord
100
AcDbLayerTableRecord
  2
74
 70
     0
 62
    74
  6
CONTINUOUS
  0
LAYER
  5
84
330
2
100
AcDbSymbolTableRecord
100
AcDbLayerTableRecord
  2
75
 70
     0
 62
    75
  6
CONTINUOUS
  0
LAYER
  5
85
330
2
100
AcDbSymbolTableRecord
100
AcDbLayerTableRecord
  2
76
 70
     0
 62
    76
  6
CONTINUOUS
  0
LAYER
  5
86
330
2
100
AcDbSymbolTableRecord
100
AcDbLayerTableRecord
  2
77
 70
     0
 62
    77
  6
CONTINUOUS
  0
LAYER
  5
87
330
2
100
AcDbSymbolTableRecord
100
AcDbLayerTableRecord
  2
78
 70
     0
 62
    78
  6
CONTINUOUS
  0
LAYER
  5
88
330
2
100
AcDbSymbolTableRecord
100
AcDbLayerTableRecord
  2
79
 70
     0
 62
    79
  6
CONTINUOUS
  0
LAYER
  5
89
330
2
100
AcDbSymbolTableRecord
100
AcDbLayerTableRecord
  2
80
 70
     0
 62
    80
  6
CONTINUOUS
  0
LAYER
  5
8A
330
2
100
AcDbSymbolTableRecord
100
AcDbLayerTableRecord
  2
81
 70
     0
 62
    81
  6
CONTINUOUS
  0
LAYER
  5
8B
330
2
100
AcDbSymbolTableRecord
100
AcDbLayerTableRecord
  2
82
 70
     0
 62
    82
  6
CONTINUOUS
  0
LAYER
  5
8C
330
2
100
AcDbSymbolTableRecord
100
AcDbLayerTableRecord
  2
83
 70
     0
 62
    83
  6
CONTINUOUS
  0
LAYER
  5
8D
330
2
100
AcDbSymbolTableRecord
100
AcDbLayerTableRecord
  2
84
 70
     0
 62
    84
  6
CONTINUOUS
  0
LAYER
  5
8E
330
2
100
AcDbSymbolTableRecord
100
AcDbLayerTableRecord
  2
85
 70
     0
 62
    85
  6
CONTINUOUS
  0
LAYER
  5
8F
330
2
100
AcDbSymbolTableRecord
100
AcDbLayerTableRecord
  2
86
 70
     0
 62
    86
  6
CONTINUOUS
  0
LAYER
  5
90
330
2
100
AcDbSymbolTableRecord
100
AcDbLayerTableRecord
  2
87
 70
     0
 62
    87
  6
CONTINUOUS
  0
LAYER
  5
91
330
2
100
AcDbSymbolTableRecord
100
AcDbLayerTableRecord
  2
88
 70
     0
 62
    88
  6
CONTINUOUS
  0
LAYER
  5
92
330
2
100
AcDbSymbolTableRecord
100
AcDbLayerTableRecord
  2
89
 70
     0
 62
    89
  6
CONTINUOUS
  0
LAYER
  5
93
330
2
100
AcDbSymbolTableRecord
100
AcDbLayerTableRecord
  2
90
 70
     0
 62
    90
  6
CONTINUOUS
  0
LAYER
  5
94
330
2
100
AcDbSymbolTableRecord
100
AcDbLayerTableRecord
  2
91
 70
     0
 62
    91
  6
CONTINUOUS
  0
LAYER
  5
95
330
2
100
AcDbSymbolTableRecord
100
AcDbLayerTableRecord
  2
92
 70
     0
 62
    92
  6
CONTINUOUS
  0
LAYER
  5
96
330
2
100
AcDbSymbolTableRecord
100
AcDbLayerTableRecord
  2
93
 70
     0
 62
    93
  6
CONTINUOUS
  0
LAYER
  5
97
330
2
100
AcDbSymbolTableRecord
100
AcDbLayerTableRecord
  2
94
 70
     0
 62
    94
  6
CONTINUOUS
  0
LAYER
  5
98
330
2
100
AcDbSymbolTableRecord
100
AcDbLayerTableRecord
  2
95
 70
     0
 62
    95
  6
CONTINUOUS
  0
LAYER
  5
99
330
2
100
AcDbSymbolTableRecord
100
AcDbLayerTableRecord
  2
96
 70
     0
 62
    96
  6
CONTINUOUS
  0
LAYER
  5
9A
330
2
100
AcDbSymbolTableRecord
100
AcDbLayerTableRecord
  2
97
 70
     0
 62
    97
  6
CONTINUOUS
  0
LAYER
  5
9B
330
2
100
AcDbSymbolTableRecord
100
AcDbLayerTableRecord
  2
98
 70
     0
 62
    98
  6
CONTINUOUS
  0
LAYER
  5
9C
330
2
100
AcDbSymbolTableRecord
100
AcDbLayerTableRecord
  2
99
 70
     0
 62
    99
  6
CONTINUOUS
  0
LAYER
  5
9D
330
2
100
AcDbSymbolTableRecord
100
AcDbLayerTableRecord
  2
100
 70
     0
 62
   100
  6
CONTINUOUS
  0
LAYER
  5
9E
330
2
100
AcDbSymbolTableRecord
100
AcDbLayerTableRecord
  2
101
 70
     0
 62
   101
  6
CONTINUOUS
  0
LAYER
  5
9F
330
2
100
AcDbSymbolTableRecord
100
AcDbLayerTableRecord
  2
102
 70
     0
 62
   102
  6
CONTINUOUS
  0
LAYER
  5
A0
330
2
100
AcDbSymbolTableRecord
100
AcDbLayerTableRecord
  2
103
 70
     0
 62
   103
  6
CONTINUOUS
  0
LAYER
  5
A1
330
2
100
AcDbSymbolTableRecord
100
AcDbLayerTableRecord
  2
104
 70
     0
 62
   104
  6
CONTINUOUS
  0
LAYER
  5
A2
330
2
100
AcDbSymbolTableRecord
100
AcDbLayerTableRecord
  2
105
 70
     0
 62
   105
  6
CONTINUOUS
  0
LAYER
  5
A3
330
2
100
AcDbSymbolTableRecord
100
AcDbLayerTableRecord
  2
106
 70
     0
 62
   106
  6
CONTINUOUS
  0
LAYER
  5
A4
330
2
100
AcDbSymbolTableRecord
100
AcDbLayerTableRecord
  2
107
 70
     0
 62
   107
  6
CONTINUOUS
  0
LAYER
  5
A5
330
2
100
AcDbSymbolTableRecord
100
AcDbLayerTableRecord
  2
108
 70
     0
 62
   108
  6
CONTINUOUS
  0
LAYER
  5
A6
330
2
100
AcDbSymbolTableRecord
100
AcDbLayerTableRecord
  2
109
 70
     0
 62
   109
  6
CONTINUOUS
  0
LAYER
  5
A7
330
2
100
AcDbSymbolTableRecord
100
AcDbLayerTableRecord
  2
110
 70
     0
 62
   110
  6
CONTINUOUS
  0
LAYER
  5
A8
330
2
100
AcDbSymbolTableRecord
100
AcDbLayerTableRecord
  2
111
 70
     0
 62
   111
  6
CONTINUOUS
  0
LAYER
  5
A9
330
2
100
AcDbSymbolTableRecord
100
AcDbLayerTableRecord
  2
112
 70
     0
 62
   112
  6
CONTINUOUS
  0
LAYER
  5
AA
330
2
100
AcDbSymbolTableRecord
100
AcDbLayerTableRecord
  2
113
 70
     0
 62
   113
  6
CONTINUOUS
  0
LAYER
  5
AB
330
2
100
AcDbSymbolTableRecord
100
AcDbLayerTableRecord
  2
114
 70
     0
 62
   114
  6
CONTINUOUS
  0
LAYER
  5
AC
330
2
100
AcDbSymbolTableRecord
100
AcDbLayerTableRecord
  2
115
 70
     0
 62
   115
  6
CONTINUOUS
  0
LAYER
  5
AD
330
2
100
AcDbSymbolTableRecord
100
AcDbLayerTableRecord
  2
116
 70
     0
 62
   116
  6
CONTINUOUS
  0
LAYER
  5
AE
330
2
100
AcDbSymbolTableRecord
100
AcDbLayerTableRecord
  2
117
 70
     0
 62
   117
  6
CONTINUOUS
  0
LAYER
  5
AF
330
2
100
AcDbSymbolTableRecord
100
AcDbLayerTableRecord
  2
118
 70
     0
 62
   118
  6
CONTINUOUS
  0
LAYER
  5
B0
330
2
100
AcDbSymbolTableRecord
100
AcDbLayerTableRecord
  2
119
 70
     0
 62
   119
  6
CONTINUOUS
  0
LAYER
  5
B1
330
2
100
AcDbSymbolTableRecord
100
AcDbLayerTableRecord
  2
120
 70
     0
 62
   120
  6
CONTINUOUS
  0
LAYER
  5
B2
330
2
100
AcDbSymbolTableRecord
100
AcDbLayerTableRecord
  2
121
 70
     0
 62
   121
  6
CONTINUOUS
  0
LAYER
  5
B3
330
2
100
AcDbSymbolTableRecord
100
AcDbLayerTableRecord
  2
122
 70
     0
 62
   122
  6
CONTINUOUS
  0
LAYER
  5
B4
330
2
100
AcDbSymbolTableRecord
100
AcDbLayerTableRecord
  2
123
 70
     0
 62
   123
  6
CONTINUOUS
  0
LAYER
  5
B5
330
2
100
AcDbSymbolTableRecord
100
AcDbLayerTableRecord
  2
124
 70
     0
 62
   124
  6
CONTINUOUS
  0
LAYER
  5
B6
330
2
100
AcDbSymbolTableRecord
100
AcDbLayerTableRecord
  2
125
 70
     0
 62
   125
  6
CONTINUOUS
  0
LAYER
  5
B7
330
2
100
AcDbSymbolTableRecord
100
AcDbLayerTableRecord
  2
126
 70
     0
 62
   126
  6
CONTINUOUS
  0
LAYER
  5
B8
330
2
100
AcDbSymbolTableRecord
100
AcDbLayerTableRecord
  2
127
 70
     0
 62
   127
  6
CONTINUOUS
  0
LAYER
  5
B9
330
2
100
AcDbSymbolTableRecord
100
AcDbLayerTableRecord
  2
128
 70
     0
 62
   128
  6
CONTINUOUS
  0
LAYER
  5
BA
330
2
100
AcDbSymbolTableRecord
100
AcDbLayerTableRecord
  2
129
 70
     0
 62
   129
  6
CONTINUOUS
  0
LAYER
  5
BB
330
2
100
AcDbSymbolTableRecord
100
AcDbLayerTableRecord
  2
130
 70
     0
 62
   130
  6
CONTINUOUS
  0
LAYER
  5
BC
330
2
100
AcDbSymbolTableRecord
100
AcDbLayerTableRecord
  2
131
 70
     0
 62
   131
  6
CONTINUOUS
  0
LAYER
  5
BD
330
2
100
AcDbSymbolTableRecord
100
AcDbLayerTableRecord
  2
132
 70
     0
 62
   132
  6
CONTINUOUS
  0
LAYER
  5
BE
330
2
100
AcDbSymbolTableRecord
100
AcDbLayerTableRecord
  2
133
 70
     0
 62
   133
  6
CONTINUOUS
  0
LAYER
  5
BF
330
2
100
AcDbSymbolTableRecord
100
AcDbLayerTableRecord
  2
134
 70
     0
 62
   134
  6
CONTINUOUS
  0
LAYER
  5
C0
330
2
100
AcDbSymbolTableRecord
100
AcDbLayerTableRecord
  2
135
 70
     0
 62
   135
  6
CONTINUOUS
  0
LAYER
  5
C1
330
2
100
AcDbSymbolTableRecord
100
AcDbLayerTableRecord
  2
136
 70
     0
 62
   136
  6
CONTINUOUS
  0
LAYER
  5
C2
330
2
100
AcDbSymbolTableRecord
100
AcDbLayerTableRecord
  2
137
 70
     0
 62
   137
  6
CONTINUOUS
  0
LAYER
  5
C3
330
2
100
AcDbSymbolTableRecord
100
AcDbLayerTableRecord
  2
138
 70
     0
 62
   138
  6
CONTINUOUS
  0
LAYER
  5
C4
330
2
100
AcDbSymbolTableRecord
100
AcDbLayerTableRecord
  2
139
 70
     0
 62
   139
  6
CONTINUOUS
  0
LAYER
  5
C5
330
2
100
AcDbSymbolTableRecord
100
AcDbLayerTableRecord
  2
140
 70
     0
 62
   140
  6
CONTINUOUS
  0
LAYER
  5
C6
330
2
100
AcDbSymbolTableRecord
100
AcDbLayerTableRecord
  2
141
 70
     0
 62
   141
  6
CONTINUOUS
  0
LAYER
  5
C7
330
2
100
AcDbSymbolTableRecord
100
AcDbLayerTableRecord
  2
142
 70
     0
 62
   142
  6
CONTINUOUS
  0
LAYER
  5
C8
330
2
100
AcDbSymbolTableRecord
100
AcDbLayerTableRecord
  2
143
 70
     0
 62
   143
  6
CONTINUOUS
  0
LAYER
  5
C9
330
2
100
AcDbSymbolTableRecord
100
AcDbLayerTableRecord
  2
144
 70
     0
 62
   144
  6
CONTINUOUS
  0
LAYER
  5
CA
330
2
100
AcDbSymbolTableRecord
100
AcDbLayerTableRecord
  2
145
 70
     0
 62
   145
  6
CONTINUOUS
  0
LAYER
  5
CB
330
2
100
AcDbSymbolTableRecord
100
AcDbLayerTableRecord
  2
146
 70
     0
 62
   146
  6
CONTINUOUS
  0
LAYER
  5
CC
330
2
100
AcDbSymbolTableRecord
100
AcDbLayerTableRecord
  2
147
 70
     0
 62
   147
  6
CONTINUOUS
  0
LAYER
  5
CD
330
2
100
AcDbSymbolTableRecord
100
AcDbLayerTableRecord
  2
148
 70
     0
 62
   148
  6
CONTINUOUS
  0
LAYER
  5
CE
330
2
100
AcDbSymbolTableRecord
100
AcDbLayerTableRecord
  2
149
 70
     0
 62
   149
  6
CONTINUOUS
  0
LAYER
  5
CF
330
2
100
AcDbSymbolTableRecord
100
AcDbLayerTableRecord
  2
150
 70
     0
 62
   150
  6
CONTINUOUS
  0
LAYER
  5
D0
330
2
100
AcDbSymbolTableRecord
100
AcDbLayerTableRecord
  2
151
 70
     0
 62
   151
  6
CONTINUOUS
  0
LAYER
  5
D1
330
2
100
AcDbSymbolTableRecord
100
AcDbLayerTableRecord
  2
152
 70
     0
 62
   152
  6
CONTINUOUS
  0
LAYER
  5
D2
330
2
100
AcDbSymbolTableRecord
100
AcDbLayerTableRecord
  2
153
 70
     0
 62
   153
  6
CONTINUOUS
  0
LAYER
  5
D3
330
2
100
AcDbSymbolTableRecord
100
AcDbLayerTableRecord
  2
154
 70
     0
 62
   154
  6
CONTINUOUS
  0
LAYER
  5
D4
330
2
100
AcDbSymbolTableRecord
100
AcDbLayerTableRecord
  2
155
 70
     0
 62
   155
  6
CONTINUOUS
  0
LAYER
  5
D5
330
2
100
AcDbSymbolTableRecord
100
AcDbLayerTableRecord
  2
156
 70
     0
 62
   156
  6
CONTINUOUS
  0
LAYER
  5
D6
330
2
100
AcDbSymbolTableRecord
100
AcDbLayerTableRecord
  2
157
 70
     0
 62
   157
  6
CONTINUOUS
  0
LAYER
  5
D7
330
2
100
AcDbSymbolTableRecord
100
AcDbLayerTableRecord
  2
158
 70
     0
 62
   158
  6
CONTINUOUS
  0
LAYER
  5
D8
330
2
100
AcDbSymbolTableRecord
100
AcDbLayerTableRecord
  2
159
 70
     0
 62
   159
  6
CONTINUOUS
  0
LAYER
  5
D9
330
2
100
AcDbSymbolTableRecord
100
AcDbLayerTableRecord
  2
160
 70
     0
 62
   160
  6
CONTINUOUS
  0
LAYER
  5
DA
330
2
100
AcDbSymbolTableRecord
100
AcDbLayerTableRecord
  2
161
 70
     0
 62
   161
  6
CONTINUOUS
  0
LAYER
  5
DB
330
2
100
AcDbSymbolTableRecord
100
AcDbLayerTableRecord
  2
162
 70
     0
 62
   162
  6
CONTINUOUS
  0
LAYER
  5
DC
330
2
100
AcDbSymbolTableRecord
100
AcDbLayerTableRecord
  2
163
 70
     0
 62
   163
  6
CONTINUOUS
  0
LAYER
  5
DD
330
2
100
AcDbSymbolTableRecord
100
AcDbLayerTableRecord
  2
164
 70
     0
 62
   164
  6
CONTINUOUS
  0
LAYER
  5
DE
330
2
100
AcDbSymbolTableRecord
100
AcDbLayerTableRecord
  2
165
 70
     0
 62
   165
  6
CONTINUOUS
  0
LAYER
  5
DF
330
2
100
AcDbSymbolTableRecord
100
AcDbLayerTableRecord
  2
166
 70
     0
 62
   166
  6
CONTINUOUS
  0
LAYER
  5
E0
330
2
100
AcDbSymbolTableRecord
100
AcDbLayerTableRecord
  2
167
 70
     0
 62
   167
  6
CONTINUOUS
  0
LAYER
  5
E1
330
2
100
AcDbSymbolTableRecord
100
AcDbLayerTableRecord
  2
168
 70
     0
 62
   168
  6
CONTINUOUS
  0
LAYER
  5
E2
330
2
100
AcDbSymbolTableRecord
100
AcDbLayerTableRecord
  2
169
 70
     0
 62
   169
  6
CONTINUOUS
  0
LAYER
  5
E3
330
2
100
AcDbSymbolTableRecord
100
AcDbLayerTableRecord
  2
170
 70
     0
 62
   170
  6
CONTINUOUS
  0
LAYER
  5
E4
330
2
100
AcDbSymbolTableRecord
100
AcDbLayerTableRecord
  2
171
 70
     0
 62
   171
  6
CONTINUOUS
  0
LAYER
  5
E5
330
2
100
AcDbSymbolTableRecord
100
AcDbLayerTableRecord
  2
172
 70
     0
 62
   172
  6
CONTINUOUS
  0
LAYER
  5
E6
330
2
100
AcDbSymbolTableRecord
100
AcDbLayerTableRecord
  2
173
 70
     0
 62
   173
  6
CONTINUOUS
  0
LAYER
  5
E7
330
2
100
AcDbSymbolTableRecord
100
AcDbLayerTableRecord
  2
174
 70
     0
 62
   174
  6
CONTINUOUS
  0
LAYER
  5
E8
330
2
100
AcDbSymbolTableRecord
100
AcDbLayerTableRecord
  2
175
 70
     0
 62
   175
  6
CONTINUOUS
  0
LAYER
  5
E9
330
2
100
AcDbSymbolTableRecord
100
AcDbLayerTableRecord
  2
176
 70
     0
 62
   176
  6
CONTINUOUS
  0
LAYER
  5
EA
330
2
100
AcDbSymbolTableRecord
100
AcDbLayerTableRecord
  2
177
 70
     0
 62
   177
  6
CONTINUOUS
  0
LAYER
  5
EB
330
2
100
AcDbSymbolTableRecord
100
AcDbLayerTableRecord
  2
178
 70
     0
 62
   178
  6
CONTINUOUS
  0
LAYER
  5
EC
330
2
100
AcDbSymbolTableRecord
100
AcDbLayerTableRecord
  2
179
 70
     0
 62
   179
  6
CONTINUOUS
  0
LAYER
  5
ED
330
2
100
AcDbSymbolTableRecord
100
AcDbLayerTableRecord
  2
180
 70
     0
 62
   180
  6
CONTINUOUS
  0
LAYER
  5
EE
330
2
100
AcDbSymbolTableRecord
100
AcDbLayerTableRecord
  2
181
 70
     0
 62
   181
  6
CONTINUOUS
  0
LAYER
  5
EF
330
2
100
AcDbSymbolTableRecord
100
AcDbLayerTableRecord
  2
182
 70
     0
 62
   182
  6
CONTINUOUS
  0
LAYER
  5
F0
330
2
100
AcDbSymbolTableRecord
100
AcDbLayerTableRecord
  2
183
 70
     0
 62
   183
  6
CONTINUOUS
  0
LAYER
  5
F1
330
2
100
AcDbSymbolTableRecord
100
AcDbLayerTableRecord
  2
184
 70
     0
 62
   184
  6
CONTINUOUS
  0
LAYER
  5
F2
330
2
100
AcDbSymbolTableRecord
100
AcDbLayerTableRecord
  2
185
 70
     0
 62
   185
  6
CONTINUOUS
  0
LAYER
  5
F3
330
2
100
AcDbSymbolTableRecord
100
AcDbLayerTableRecord
  2
186
 70
     0
 62
   186
  6
CONTINUOUS
  0
LAYER
  5
F4
330
2
100
AcDbSymbolTableRecord
100
AcDbLayerTableRecord
  2
187
 70
     0
 62
   187
  6
CONTINUOUS
  0
LAYER
  5
F5
330
2
100
AcDbSymbolTableRecord
100
AcDbLayerTableRecord
  2
188
 70
     0
 62
   188
  6
CONTINUOUS
  0
LAYER
  5
F6
330
2
100
AcDbSymbolTableRecord
100
AcDbLayerTableRecord
  2
189
 70
     0
 62
   189
  6
CONTINUOUS
  0
LAYER
  5
F7
330
2
100
AcDbSymbolTableRecord
100
AcDbLayerTableRecord
  2
190
 70
     0
 62
   190
  6
CONTINUOUS
  0
LAYER
  5
F8
330
2
100
AcDbSymbolTableRecord
100
AcDbLayerTableRecord
  2
191
 70
     0
 62
   191
  6
CONTINUOUS
  0
LAYER
  5
F9
330
2
100
AcDbSymbolTableRecord
100
AcDbLayerTableRecord
  2
192
 70
     0
 62
   192
  6
CONTINUOUS
  0
LAYER
  5
FA
330
2
100
AcDbSymbolTableRecord
100
AcDbLayerTableRecord
  2
193
 70
     0
 62
   193
  6
CONTINUOUS
  0
LAYER
  5
FB
330
2
100
AcDbSymbolTableRecord
100
AcDbLayerTableRecord
  2
194
 70
     0
 62
   194
  6
CONTINUOUS
  0
LAYER
  5
FC
330
2
100
AcDbSymbolTableRecord
100
AcDbLayerTableRecord
  2
195
 70
     0
 62
   195
  6
CONTINUOUS
  0
LAYER
  5
FD
330
2
100
AcDbSymbolTableRecord
100
AcDbLayerTableRecord
  2
196
 70
     0
 62
   196
  6
CONTINUOUS
  0
LAYER
  5
FE
330
2
100
AcDbSymbolTableRecord
100
AcDbLayerTableRecord
  2
197
 70
     0
 62
   197
  6
CONTINUOUS
  0
LAYER
  5
FF
330
2
100
AcDbSymbolTableRecord
100
AcDbLayerTableRecord
  2
198
 70
     0
 62
   198
  6
CONTINUOUS
  0
LAYER
  5
100
330
2
100
AcDbSymbolTableRecord
100
AcDbLayerTableRecord
  2
199
 70
     0
 62
   199
  6
CONTINUOUS
  0
LAYER
  5
101
330
2
100
AcDbSymbolTableRecord
100
AcDbLayerTableRecord
  2
200
 70
     0
 62
   200
  6
CONTINUOUS
  0
LAYER
  5
102
330
2
100
AcDbSymbolTableRecord
100
AcDbLayerTableRecord
  2
201
 70
     0
 62
   201
  6
CONTINUOUS
  0
LAYER
  5
103
330
2
100
AcDbSymbolTableRecord
100
AcDbLayerTableRecord
  2
202
 70
     0
 62
   202
  6
CONTINUOUS
  0
LAYER
  5
104
330
2
100
AcDbSymbolTableRecord
100
AcDbLayerTableRecord
  2
203
 70
     0
 62
   203
  6
CONTINUOUS
  0
LAYER
  5
105
330
2
100
AcDbSymbolTableRecord
100
AcDbLayerTableRecord
  2
204
 70
     0
 62
   204
  6
CONTINUOUS
  0
LAYER
  5
106
330
2
100
AcDbSymbolTableRecord
100
AcDbLayerTableRecord
  2
205
 70
     0
 62
   205
  6
CONTINUOUS
  0
LAYER
  5
107
330
2
100
AcDbSymbolTableRecord
100
AcDbLayerTableRecord
  2
206
 70
     0
 62
   206
  6
CONTINUOUS
  0
LAYER
  5
108
330
2
100
AcDbSymbolTableRecord
100
AcDbLayerTableRecord
  2
207
 70
     0
 62
   207
  6
CONTINUOUS
  0
LAYER
  5
109
330
2
100
AcDbSymbolTableRecord
100
AcDbLayerTableRecord
  2
208
 70
     0
 62
   208
  6
CONTINUOUS
  0
LAYER
  5
10A
330
2
100
AcDbSymbolTableRecord
100
AcDbLayerTableRecord
  2
209
 70
     0
 62
   209
  6
CONTINUOUS
  0
LAYER
  5
10B
330
2
100
AcDbSymbolTableRecord
100
AcDbLayerTableRecord
  2
210
 70
     0
 62
   210
  6
CONTINUOUS
  0
LAYER
  5
10C
330
2
100
AcDbSymbolTableRecord
100
AcDbLayerTableRecord
  2
211
 70
     0
 62
   211
  6
CONTINUOUS
  0
LAYER
  5
10D
330
2
100
AcDbSymbolTableRecord
100
AcDbLayerTableRecord
  2
212
 70
     0
 62
   212
  6
CONTINUOUS
  0
LAYER
  5
10E
330
2
100
AcDbSymbolTableRecord
100
AcDbLayerTableRecord
  2
213
 70
     0
 62
   213
  6
CONTINUOUS
  0
LAYER
  5
10F
330
2
100
AcDbSymbolTableRecord
100
AcDbLayerTableRecord
  2
214
 70
     0
 62
   214
  6
CONTINUOUS
  0
LAYER
  5
110
330
2
100
AcDbSymbolTableRecord
100
AcDbLayerTableRecord
  2
215
 70
     0
 62
   215
  6
CONTINUOUS
  0
LAYER
  5
111
330
2
100
AcDbSymbolTableRecord
100
AcDbLayerTableRecord
  2
216
 70
     0
 62
   216
  6
CONTINUOUS
  0
LAYER
  5
112
330
2
100
AcDbSymbolTableRecord
100
AcDbLayerTableRecord
  2
217
 70
     0
 62
   217
  6
CONTINUOUS
  0
LAYER
  5
113
330
2
100
AcDbSymbolTableRecord
100
AcDbLayerTableRecord
  2
218
 70
     0
 62
   218
  6
CONTINUOUS
  0
LAYER
  5
114
330
2
100
AcDbSymbolTableRecord
100
AcDbLayerTableRecord
  2
219
 70
     0
 62
   219
  6
CONTINUOUS
  0
LAYER
  5
115
330
2
100
AcDbSymbolTableRecord
100
AcDbLayerTableRecord
  2
220
 70
     0
 62
   220
  6
CONTINUOUS
  0
LAYER
  5
116
330
2
100
AcDbSymbolTableRecord
100
AcDbLayerTableRecord
  2
221
 70
     0
 62
   221
  6
CONTINUOUS
  0
LAYER
  5
117
330
2
100
AcDbSymbolTableRecord
100
AcDbLayerTableRecord
  2
222
 70
     0
 62
   222
  6
CONTINUOUS
  0
LAYER
  5
118
330
2
100
AcDbSymbolTableRecord
100
AcDbLayerTableRecord
  2
223
 70
     0
 62
   223
  6
CONTINUOUS
  0
LAYER
  5
119
330
2
100
AcDbSymbolTableRecord
100
AcDbLayerTableRecord
  2
224
 70
     0
 62
   224
  6
CONTINUOUS
  0
LAYER
  5
11A
330
2
100
AcDbSymbolTableRecord
100
AcDbLayerTableRecord
  2
225
 70
     0
 62
   225
  6
CONTINUOUS
  0
LAYER
  5
11B
330
2
100
AcDbSymbolTableRecord
100
AcDbLayerTableRecord
  2
226
 70
     0
 62
   226
  6
CONTINUOUS
  0
LAYER
  5
11C
330
2
100
AcDbSymbolTableRecord
100
AcDbLayerTableRecord
  2
227
 70
     0
 62
   227
  6
CONTINUOUS
  0
LAYER
  5
11D
330
2
100
AcDbSymbolTableRecord
100
AcDbLayerTableRecord
  2
228
 70
     0
 62
   228
  6
CONTINUOUS
  0
LAYER
  5
11E
330
2
100
AcDbSymbolTableRecord
100
AcDbLayerTableRecord
  2
229
 70
     0
 62
   229
  6
CONTINUOUS
  0
LAYER
  5
11F
330
2
100
AcDbSymbolTableRecord
100
AcDbLayerTableRecord
  2
230
 70
     0
 62
   230
  6
CONTINUOUS
  0
LAYER
  5
120
330
2
100
AcDbSymbolTableRecord
100
AcDbLayerTableRecord
  2
231
 70
     0
 62
   231
  6
CONTINUOUS
  0
LAYER
  5
121
330
2
100
AcDbSymbolTableRecord
100
AcDbLayerTableRecord
  2
232
 70
     0
 62
   232
  6
CONTINUOUS
  0
LAYER
  5
122
330
2
100
AcDbSymbolTableRecord
100
AcDbLayerTableRecord
  2
233
 70
     0
 62
   233
  6
CONTINUOUS
  0
LAYER
  5
123
330
2
100
AcDbSymbolTableRecord
100
AcDbLayerTableRecord
  2
234
 70
     0
 62
   234
  6
CONTINUOUS
  0
LAYER
  5
124
330
2
100
AcDbSymbolTableRecord
100
AcDbLayerTableRecord
  2
235
 70
     0
 62
   235
  6
CONTINUOUS
  0
LAYER
  5
125
330
2
100
AcDbSymbolTableRecord
100
AcDbLayerTableRecord
  2
236
 70
     0
 62
   236
  6
CONTINUOUS
  0
LAYER
  5
126
330
2
100
AcDbSymbolTableRecord
100
AcDbLayerTableRecord
  2
237
 70
     0
 62
   237
  6
CONTINUOUS
  0
LAYER
  5
127
330
2
100
AcDbSymbolTableRecord
100
AcDbLayerTableRecord
  2
238
 70
     0
 62
   238
  6
CONTINUOUS
  0
LAYER
  5
128
330
2
100
AcDbSymbolTableRecord
100
AcDbLayerTableRecord
  2
239
 70
     0
 62
   239
  6
CONTINUOUS
  0
LAYER
  5
129
330
2
100
AcDbSymbolTableRecord
100
AcDbLayerTableRecord
  2
240
 70
     0
 62
   240
  6
CONTINUOUS
  0
LAYER
  5
12A
330
2
100
AcDbSymbolTableRecord
100
AcDbLayerTableRecord
  2
241
 70
     0
 62
   241
  6
CONTINUOUS
  0
LAYER
  5
12B
330
2
100
AcDbSymbolTableRecord
100
AcDbLayerTableRecord
  2
242
 70
     0
 62
   242
  6
CONTINUOUS
  0
LAYER
  5
12C
330
2
100
AcDbSymbolTableRecord
100
AcDbLayerTableRecord
  2
243
 70
     0
 62
   243
  6
CONTINUOUS
  0
LAYER
  5
12D
330
2
100
AcDbSymbolTableRecord
100
AcDbLayerTableRecord
  2
244
 70
     0
 62
   244
  6
CONTINUOUS
  0
LAYER
  5
12E
330
2
100
AcDbSymbolTableRecord
100
AcDbLayerTableRecord
  2
245
 70
     0
 62
   245
  6
CONTINUOUS
  0
LAYER
  5
12F
330
2
100
AcDbSymbolTableRecord
100
AcDbLayerTableRecord
  2
246
 70
     0
 62
   246
  6
CONTINUOUS
  0
LAYER
  5
130
330
2
100
AcDbSymbolTableRecord
100
AcDbLayerTableRecord
  2
247
 70
     0
 62
   247
  6
CONTINUOUS
  0
LAYER
  5
131
330
2
100
AcDbSymbolTableRecord
100
AcDbLayerTableRecord
  2
248
 70
     0
 62
   248
  6
CONTINUOUS
  0
LAYER
  5
132
330
2
100
AcDbSymbolTableRecord
100
AcDbLayerTableRecord
  2
249
 70
     0
 62
   249
  6
CONTINUOUS
  0
LAYER
  5
133
330
2
100
AcDbSymbolTableRecord
100
AcDbLayerTableRecord
  2
250
 70
     0
 62
   250
  6
CONTINUOUS
  0
LAYER
  5
134
330
2
100
AcDbSymbolTableRecord
100
AcDbLayerTableRecord
  2
251
 70
     0
 62
   251
  6
CONTINUOUS
  0
LAYER
  5
135
330
2
100
AcDbSymbolTableRecord
100
AcDbLayerTableRecord
  2
252
 70
     0
 62
   252
  6
CONTINUOUS
  0
LAYER
  5
136
330
2
100
AcDbSymbolTableRecord
100
AcDbLayerTableRecord
  2
253
 70
     0
 62
   253
  6
CONTINUOUS
  0
LAYER
  5
137
330
2
100
AcDbSymbolTableRecord
100
AcDbLayerTableRecord
  2
254
 70
     0
 62
   254
  6
CONTINUOUS
  0
LAYER
  5
138
330
2
100
AcDbSymbolTableRecord
100
AcDbLayerTableRecord
  2
255
 70
     0
 62
   255
  6
CONTINUOUS
  0
LAYER
  5
3246
330
2
100
AcDbSymbolTableRecord
100
AcDbLayerTableRecord
  2
DEFPOINTS
 70
     0
 62
     7
  6
CONTINUOUS
  0
ENDTAB
  0
TABLE
  2
STYLE
  5
3
330
0
100
AcDbSymbolTable
 70
     1
  0
STYLE
  5
11
330
3
100
AcDbSymbolTableRecord
100
AcDbTextStyleTableRecord
  2
STANDARD
 70
     0
 40
0.0
 41
1.0
 50
0.0
 71
     0
 42
0.2
  3
txt
  4

  0
ENDTAB
  0
TABLE
  2
VIEW
  5
6
330
0
100
AcDbSymbolTable
 70
     0
  0
ENDTAB
  0
TABLE
  2
UCS
  5
7
330
0
100
AcDbSymbolTable
 70
     0
  0
ENDTAB
  0
TABLE
  2
APPID
  5
9
330
0
100
AcDbSymbolTable
 70
     1
  0
APPID
  5
12
330
9
100
AcDbSymbolTableRecord
100
AcDbRegAppTableRecord
  2
ACAD
 70
     0
  0
ENDTAB
  0
TABLE
  2
DIMSTYLE
  5
A
330
0
100
AcDbSymbolTable
 70
     1
  0
DIMSTYLE
105
3242
102
{ACAD_REACTORS
330
3245
102
}
330
A
100
AcDbSymbolTableRecord
100
AcDbDimStyleTableRecord
  2
STANDARD
 70
     0
  3

  4

  5

  6

  7

 40
1.0
 41
0.18
 42
0.0625
 43
0.38
 44
0.18
 45
0.0
 46
0.0
 47
0.0
 48
0.0
140
0.18
141
0.09
142
0.0
143
25.4
144
1.0
145
0.0
146
1.0
147
0.09
 71
     0
 72
     0
 73
     1
 74
     1
 75
     0
 76
     0
 77
     0
 78
     0
170
     0
171
     2
172
     0
173
     0
174
     0
175
     0
176
     0
177
     0
178
     0
270
     2
271
     4
272
     4
273
     2
274
     2
340
11
275
     0
280
     0
281
     0
282
     0
283
     1
284
     0
285
     0
286
     0
287
     3
288
     0
  0
ENDTAB
  0
TABLE
  2
BLOCK_RECORD
  5
1
330
0
100
AcDbSymbolTable
 70
     1
  0
BLOCK_RECORD
  5
1E
102
{ACAD_XDICTIONARY
360
3262
102
}
330
1
100
AcDbSymbolTableRecord
100
AcDbBlockTableRecord
  2
*MODEL_SPACE
  0
BLOCK_RECORD
  5
1A
102
{ACAD_XDICTIONARY
360
3260
102
}
330
1
100
AcDbSymbolTableRecord
100
AcDbBlockTableRecord
  2
*PAPER_SPACE
  0
BLOCK_RECORD
  5
3247
330
1
100
AcDbSymbolTableRecord
100
AcDbBlockTableRecord
  2
*D0
  0
ENDTAB
  0
ENDSEC
  0
SECTION
  2
BLOCKS
  0
BLOCK
  5
13B
330
1E
100
AcDbEntity
  8
0
100
AcDbBlockBegin
  2
*MODEL_SPACE
 70
     0
 10
0.0
 20
0.0
 30
0.0
  3
*MODEL_SPACE
  1

  0
ENDBLK
  5
13C
330
1E
100
AcDbEntity
  8
0
100
AcDbBlockEnd
  0
BLOCK
  5
139
330
1A
100
AcDbEntity
 67
     1
  8
0
100
AcDbBlockBegin
  2
*PAPER_SPACE
 70
     0
 10
0.0
 20
0.0
 30
0.0
  3
*PAPER_SPACE
  1

  0
ENDBLK
  5
13A
330
1A
100
AcDbEntity
 67
     1
  8
0
100
AcDbBlockEnd
  0
BLOCK
  5
3252
330
3247
100
AcDbEntity
  8
0
100
AcDbBlockBegin
  2
*D0
 70
     1
 10
0.0
 20
0.0
 30
0.0
  3
*D0
  1

  0
LINE
  5
3254
330
3247
100
AcDbEntity
  8
0
 62
     0
100
AcDbLine
 10
-0.2658748855470878
 20
7.749336188755254
 30
0.0
 11
-2.248467845382986
 21
7.749336188755255
 31
0.0
  0
LINE
  5
3255
330
3247
100
AcDbEntity
  8
0
 62
     0
100
AcDbLine
 10
-0.2658748855470878
 20
3.244199476156829
 30
0.0
 11
-2.248467845382987
 21
3.24419947615683
 31
0.0
  0
LINE
  5
3256
330
3247
100
AcDbEntity
  8
0
 62
     0
100
AcDbLine
 10
-2.068467845382986
 20
7.569336188755255
 30
0.0
 11
-2.068467845382987
 21
5.676767832456042
 31
0.0
  0
LINE
  5
3257
330
3247
100
AcDbEntity
  8
0
 62
     0
100
AcDbLine
 10
-2.068467845382987
 20
3.42419947615683
 30
0.0
 11
-2.068467845382987
 21
5.316767832456043
 31
0.0
  0
SOLID
  5
3258
330
3247
100
AcDbEntity
  8
0
 62
     0
100
AcDbTrace
 10
-2.098467845382986
 20
7.569336188755255
 30
0.0
 11
-2.038467845382986
 21
7.569336188755255
 31
0.0
 12
-2.068467845382986
 22
7.749336188755255
 32
0.0
 13
-2.068467845382986
 23
7.749336188755255
 33
0.0
  0
SOLID
  5
3259
330
3247
100
AcDbEntity
  8
0
 62
     0
100
AcDbTrace
 10
-2.098467845382987
 20
3.42419947615683
 30
0.0
 11
-2.038467845382987
 21
3.42419947615683
 31
0.0
 12
-2.068467845382987
 22
3.24419947615683
 32
0.0
 13
-2.068467845382987
 23
3.24419947615683
 33
0.0
  0
MTEXT
  5
325A
330
3247
100
AcDbEntity
  8
0
 62
     0
100
AcDbMText
 10
-2.068467845382988
 20
5.496767832456042
 30
0.0
 40
0.18
 41
0.0
 71
     5
 72
     1
  1
\A1;4.5051
1001
ACAD
1000
MTEXTBEGIN
1070
    73
1070
     1
1070
    44
1040
1.0
1070
    74
1070
     0
1000
MTEXTEND
  0
POINT
  5
325B
330
3247
100
AcDbEntity
  8
DEFPOINTS
 62
     0
100
AcDbPoint
 10
-0.2033748855470878
 20
7.749336188755254
 30
0.0
  0
POINT
  5
325C
330
3247
100
AcDbEntity
  8
DEFPOINTS
 62
     0
100
AcDbPoint
 10
-0.2033748855470878
 20
3.244199476156829
 30
0.0
  0
POINT
  5
325D
330
3247
100
AcDbEntity
  8
DEFPOINTS
 62
     0
100
AcDbPoint
 10
-2.068467845382987
 20
3.24419947615683
 30
0.0
  0
ENDBLK
  5
3253
330
3247
100
AcDbEntity
  8
0
100
AcDbBlockEnd
  0
ENDSEC
  0
SECTION
  2
ENTITIES
  0
LINE
  5
270B
330
1E
100
AcDbEntity
  8
0
100
AcDbLine
 10
3.384461925476534
 20
7.746711582456041
 30
0.0
 11
3.387086531775747
 21
7.749336188755255
 31
0.0
  0
LINE
  5
270C
330
1E
100
AcDbEntity
  8
0
100
AcDbLine
 10
0.7913509018544871
 20
7.749336188755255
 30
0.0
 11
3.387086531775747
 21
7.749336188755255
 31
0.0
  0
LINE
  5
270D
330
1E
100
AcDbEntity
  8
0
100
AcDbLine
 10
0.7913509018544871
 20
7.749336188755255
 30
0.0
 11
0.7939755081536997
 21
7.746711582456041
 31
0.0
  0
LINE
  5
270E
330
1E
100
AcDbEntity
  8
0
100
AcDbLine
 10
1.677155527838738
 20
3.745499279306436
 30
0.0
 11
1.622038795555274
 21
3.745499279306436
 31
0.0
  0
LINE
  5
270F
330
1E
100
AcDbEntity
  8
0
100
AcDbLine
 10
1.622038795555274
 20
3.967278511589901
 30
0.0
 11
1.622038795555274
 21
3.958092389542656
 31
0.0
  0
LINE
  5
2710
330
1E
100
AcDbEntity
  8
0
100
AcDbLine
 10
1.622038795555274
 20
3.754685401353679
 30
0.0
 11
1.622038795555274
 21
3.745499279306436
 31
0.0
  0
LINE
  5
2711
330
1E
100
AcDbEntity
  8
0
100
AcDbLine
 10
1.677155527838738
 20
3.967278511589901
 30
0.0
 11
1.622038795555274
 21
3.967278511589901
 31
0.0
  0
POLYLINE
  5
2712
330
1E
100
AcDbEntity
  8
0
100
AcDb2dPolyline
 66
     1
 10
0.0
 20
0.0
 30
0.0
  0
VERTEX
  5
3264
330
2712
100
AcDbEntity
  8
0
100
AcDbVertex
100
AcDb2dVertex
 10
1.686341649885983
 20
3.956780086393049
 30
0.0
  0
VERTEX
  5
3265
330
2712
100
AcDbEntity
  8
0
100
AcDbVertex
100
AcDb2dVertex
 10
1.68371704358677
 20
3.964653905290687
 30
0.0
  0
VERTEX
  5
3266
330
2712
100
AcDbEntity
  8
0
100
AcDbVertex
100
AcDb2dVertex
 10
1.677155527838738
 20
3.967278511589901
 30
0.0
  0
SEQEND
  5
3267
330
2712
100
AcDbEntity
  8
0
  0
LINE
  5
2717
330
1E
100
AcDbEntity
  8
0
100
AcDbLine
 10
1.686341649885982
 20
3.956780086393049
 30
0.0
 11
1.686341649885982
 21
3.755997704503286
 31
0.0
  0
POLYLINE
  5
2718
330
1E
100
AcDbEntity
  8
0
100
AcDb2dPolyline
 66
     1
 10
0.0
 20
0.0
 30
0.0
  0
VERTEX
  5
3268
330
2718
100
AcDbEntity
  8
0
100
AcDbVertex
100
AcDb2dVertex
 10
1.677155527838738
 20
3.745499279306436
 30
0.0
  0
VERTEX
  5
3269
330
2718
100
AcDbEntity
  8
0
100
AcDbVertex
100
AcDb2dVertex
 10
1.68371704358677
 20
3.749436188755255
 30
0.0
  0
VERTEX
  5
326A
330
2718
100
AcDbEntity
  8
0
100
AcDbVertex
100
AcDb2dVertex
 10
1.686341649885983
 20
3.755997704503286
 30
0.0
  0
SEQEND
  5
326B
330
2718
100
AcDbEntity
  8
0
  0
LINE
  5
271D
330
1E
100
AcDbEntity
  8
0
100
AcDbLine
 10
2.501281905791494
 20
3.967278511589901
 30
0.0
 11
2.555086334925352
 21
3.967278511589901
 31
0.0
  0
LINE
  5
271E
330
1E
100
AcDbEntity
  8
0
100
AcDbLine
 10
2.555086334925352
 20
3.967278511589901
 30
0.0
 11
2.555086334925352
 21
3.958092389542656
 31
0.0
  0
LINE
  5
271F
330
1E
100
AcDbEntity
  8
0
100
AcDbLine
 10
2.555086334925352
 20
3.754685401353679
 30
0.0
 11
2.555086334925352
 21
3.745499279306436
 31
0.0
  0
LINE
  5
2720
330
1E
100
AcDbEntity
  8
0
100
AcDbLine
 10
2.501281905791494
 20
3.745499279306436
 30
0.0
 11
2.555086334925352
 21
3.745499279306436
 31
0.0
  0
POLYLINE
  5
2721
330
1E
100
AcDbEntity
  8
0
100
AcDb2dPolyline
 66
     1
 10
0.0
 20
0.0
 30
0.0
  0
VERTEX
  5
326C
330
2721
100
AcDbEntity
  8
0
100
AcDbVertex
100
AcDb2dVertex
 10
2.501281905791495
 20
3.745499279306436
 30
0.0
  0
VERTEX
  5
326D
330
2721
100
AcDbEntity
  8
0
100
AcDbVertex
100
AcDb2dVertex
 10
2.494720390043462
 20
3.749436188755255
 30
0.0
  0
VERTEX
  5
326E
330
2721
100
AcDbEntity
  8
0
100
AcDbVertex
100
AcDb2dVertex
 10
2.490783480594644
 20
3.755997704503286
 30
0.0
  0
SEQEND
  5
326F
330
2721
100
AcDbEntity
  8
0
  0
LINE
  5
2726
330
1E
100
AcDbEntity
  8
0
100
AcDbLine
 10
2.490783480594644
 20
3.956780086393049
 30
0.0
 11
2.490783480594644
 21
3.755997704503286
 31
0.0
  0
POLYLINE
  5
2727
330
1E
100
AcDbEntity
  8
0
100
AcDb2dPolyline
 66
     1
 10
0.0
 20
0.0
 30
0.0
  0
VERTEX
  5
3270
330
2727
100
AcDbEntity
  8
0
100
AcDbVertex
100
AcDb2dVertex
 10
2.490783480594644
 20
3.956780086393049
 30
0.0
  0
VERTEX
  5
3271
330
2727
100
AcDbEntity
  8
0
100
AcDbVertex
100
AcDb2dVertex
 10
2.494720390043462
 20
3.964653905290687
 30
0.0
  0
VERTEX
  5
3272
330
2727
100
AcDbEntity
  8
0
100
AcDbVertex
100
AcDb2dVertex
 10
2.501281905791495
 20
3.967278511589901
 30
0.0
  0
SEQEND
  5
3273
330
2727
100
AcDbEntity
  8
0
  0
LINE
  5
272C
330
1E
100
AcDbEntity
  8
0
100
AcDbLine
 10
2.501281905791494
 20
7.248036385605647
 30
0.0
 11
2.555086334925352
 21
7.248036385605647
 31
0.0
  0
LINE
  5
272D
330
1E
100
AcDbEntity
  8
0
100
AcDbLine
 10
2.555086334925352
 20
7.026257153322184
 30
0.0
 11
2.555086334925352
 21
7.036755578519034
 31
0.0
  0
LINE
  5
272E
330
1E
100
AcDbEntity
  8
0
100
AcDbLine
 10
2.555086334925352
 20
7.238850263558404
 30
0.0
 11
2.555086334925352
 21
7.248036385605647
 31
0.0
  0
LINE
  5
272F
330
1E
100
AcDbEntity
  8
0
100
AcDbLine
 10
2.501281905791494
 20
7.026257153322184
 30
0.0
 11
2.555086334925352
 21
7.026257153322184
 31
0.0
  0
POLYLINE
  5
2730
330
1E
100
AcDbEntity
  8
0
100
AcDb2dPolyline
 66
     1
 10
0.0
 20
0.0
 30
0.0
  0
VERTEX
  5
3274
330
2730
100
AcDbEntity
  8
0
100
AcDbVertex
100
AcDb2dVertex
 10
2.490783480594644
 20
7.036755578519034
 30
0.0
  0
VERTEX
  5
3275
330
2730
100
AcDbEntity
  8
0
100
AcDbVertex
100
AcDb2dVertex
 10
2.494720390043462
 20
7.030194062771004
 30
0.0
  0
VERTEX
  5
3276
330
2730
100
AcDbEntity
  8
0
100
AcDbVertex
100
AcDb2dVertex
 10
2.501281905791495
 20
7.026257153322184
 30
0.0
  0
SEQEND
  5
3277
330
2730
100
AcDbEntity
  8
0
  0
LINE
  5
2735
330
1E
100
AcDbEntity
  8
0
100
AcDbLine
 10
2.490783480594644
 20
7.036755578519034
 30
0.0
 11
2.490783480594644
 21
7.237537960408797
 31
0.0
  0
POLYLINE
  5
2736
330
1E
100
AcDbEntity
  8
0
100
AcDb2dPolyline
 66
     1
 10
0.0
 20
0.0
 30
0.0
  0
VERTEX
  5
3278
330
2736
100
AcDbEntity
  8
0
100
AcDbVertex
100
AcDb2dVertex
 10
2.501281905791495
 20
7.248036385605647
 30
0.0
  0
VERTEX
  5
3279
330
2736
100
AcDbEntity
  8
0
100
AcDbVertex
100
AcDb2dVertex
 10
2.494720390043462
 20
7.245411779306435
 30
0.0
  0
VERTEX
  5
327A
330
2736
100
AcDbEntity
  8
0
100
AcDbVertex
100
AcDb2dVertex
 10
2.490783480594644
 20
7.237537960408797
 30
0.0
  0
SEQEND
  5
327B
330
2736
100
AcDbEntity
  8
0
  0
LINE
  5
273B
330
1E
100
AcDbEntity
  8
0
100
AcDbLine
 10
1.677155527838738
 20
7.026257153322184
 30
0.0
 11
1.622038795555274
 21
7.026257153322184
 31
0.0
  0
LINE
  5
273C
330
1E
100
AcDbEntity
  8
0
100
AcDbLine
 10
1.622038795555274
 20
7.026257153322184
 30
0.0
 11
1.622038795555274
 21
7.036755578519034
 31
0.0
  0
LINE
  5
273D
330
1E
100
AcDbEntity
  8
0
100
AcDbLine
 10
1.622038795555274
 20
7.238850263558404
 30
0.0
 11
1.622038795555274
 21
7.248036385605647
 31
0.0
  0
LINE
  5
273E
330
1E
100
AcDbEntity
  8
0
100
AcDbLine
 10
1.677155527838738
 20
7.248036385605647
 30
0.0
 11
1.622038795555274
 21
7.248036385605647
 31
0.0
  0
POLYLINE
  5
273F
330
1E
100
AcDbEntity
  8
0
100
AcDb2dPolyline
 66
     1
 10
0.0
 20
0.0
 30
0.0
  0
VERTEX
  5
327C
330
273F
100
AcDbEntity
  8
0
100
AcDbVertex
100
AcDb2dVertex
 10
1.677155527838738
 20
7.248036385605647
 30
0.0
  0
VERTEX
  5
327D
330
273F
100
AcDbEntity
  8
0
100
AcDbVertex
100
AcDb2dVertex
 10
1.68371704358677
 20
7.245411779306435
 30
0.0
  0
VERTEX
  5
327E
330
273F
100
AcDbEntity
  8
0
100
AcDbVertex
100
AcDb2dVertex
 10
1.686341649885983
 20
7.237537960408797
 30
0.0
  0
SEQEND
  5
327F
330
273F
100
AcDbEntity
  8
0
  0
LINE
  5
2744
330
1E
100
AcDbEntity
  8
0
100
AcDbLine
 10
1.686341649885982
 20
7.036755578519034
 30
0.0
 11
1.686341649885982
 21
7.237537960408797
 31
0.0
  0
POLYLINE
  5
2745
330
1E
100
AcDbEntity
  8
0
100
AcDb2dPolyline
 66
     1
 10
0.0
 20
0.0
 30
0.0
  0
VERTEX
  5
3280
330
2745
100
AcDbEntity
  8
0
100
AcDbVertex
100
AcDb2dVertex
 10
1.686341649885983
 20
7.036755578519034
 30
0.0
  0
VERTEX
  5
3281
330
2745
100
AcDbEntity
  8
0
100
AcDbVertex
100
AcDb2dVertex
 10
1.68371704358677
 20
7.030194062771004
 30
0.0
  0
VERTEX
  5
3282
330
2745
100
AcDbEntity
  8
0
100
AcDbVertex
100
AcDb2dVertex
 10
1.677155527838738
 20
7.026257153322184
 30
0.0
  0
SEQEND
  5
3283
330
2745
100
AcDbEntity
  8
0
  0
LINE
  5
274A
330
1E
100
AcDbEntity
  8
0
100
AcDbLine
 10
1.401571866421415
 20
5.763821523400923
 30
0.0
 11
2.776865567208817
 21
5.763821523400923
 31
0.0
  0
POLYLINE
  5
274B
330
1E
100
AcDbEntity
  8
0
100
AcDb2dPolyline
 66
     1
 10
0.0
 20
0.0
 30
0.0
  0
VERTEX
  5
3284
330
274B
100
AcDbEntity
  8
0
100
AcDbVertex
100
AcDb2dVertex
 10
1.401571866421416
 20
5.763821523400923
 30
0.0
  0
VERTEX
  5
3285
330
274B
100
AcDbEntity
  8
0
100
AcDbVertex
100
AcDb2dVertex
 10
1.387136531775746
 20
5.769070735999348
 30
0.0
  0
VERTEX
  5
3286
330
274B
100
AcDbEntity
  8
0
100
AcDbVertex
100
AcDb2dVertex
 10
1.375325803429289
 20
5.779569161196199
 30
0.0
  0
VERTEX
  5
3287
330
274B
100
AcDbEntity
  8
0
100
AcDbVertex
100
AcDb2dVertex
 10
1.371388893980471
 20
5.794004495841869
 30
0.0
  0
SEQEND
  5
3288
330
274B
100
AcDbEntity
  8
0
  0
LINE
  5
2751
330
1E
100
AcDbEntity
  8
0
100
AcDbLine
 10
1.371388893980471
 20
5.794004495841869
 30
0.0
 11
1.371388893980471
 21
6.036780578519034
 31
0.0
  0
POLYLINE
  5
2752
330
1E
100
AcDbEntity
  8
0
100
AcDb2dPolyline
 66
     1
 10
0.0
 20
0.0
 30
0.0
  0
VERTEX
  5
3289
330
2752
100
AcDbEntity
  8
0
100
AcDbVertex
100
AcDb2dVertex
 10
1.371388893980471
 20
6.036780578519034
 30
0.0
  0
VERTEX
  5
328A
330
2752
100
AcDbEntity
  8
0
100
AcDbVertex
100
AcDb2dVertex
 10
1.375325803429289
 20
6.051215913164703
 30
0.0
  0
VERTEX
  5
328B
330
2752
100
AcDbEntity
  8
0
100
AcDbVertex
100
AcDb2dVertex
 10
1.387136531775746
 20
6.06302664151116
 30
0.0
  0
VERTEX
  5
328C
330
2752
100
AcDbEntity
  8
0
100
AcDbVertex
100
AcDb2dVertex
 10
1.401571866421416
 20
6.06696355095998
 30
0.0
  0
SEQEND
  5
328D
330
2752
100
AcDbEntity
  8
0
  0
LINE
  5
2758
330
1E
100
AcDbEntity
  8
0
100
AcDbLine
 10
1.401571866421415
 20
6.066963550959979
 30
0.0
 11
2.776865567208817
 21
6.066963550959979
 31
0.0
  0
POLYLINE
  5
2759
330
1E
100
AcDbEntity
  8
0
100
AcDb2dPolyline
 66
     1
 10
0.0
 20
0.0
 30
0.0
  0
VERTEX
  5
328E
330
2759
100
AcDbEntity
  8
0
100
AcDbVertex
100
AcDb2dVertex
 10
2.776865567208818
 20
6.06696355095998
 30
0.0
  0
VERTEX
  5
328F
330
2759
100
AcDbEntity
  8
0
100
AcDbVertex
100
AcDb2dVertex
 10
2.791300901854487
 20
6.06302664151116
 30
0.0
  0
VERTEX
  5
3290
330
2759
100
AcDbEntity
  8
0
100
AcDbVertex
100
AcDb2dVertex
 10
2.803111630200943
 20
6.051215913164703
 30
0.0
  0
VERTEX
  5
3291
330
2759
100
AcDbEntity
  8
0
100
AcDbVertex
100
AcDb2dVertex
 10
2.807048539649762
 20
6.036780578519034
 30
0.0
  0
SEQEND
  5
3292
330
2759
100
AcDbEntity
  8
0
  0
LINE
  5
275F
330
1E
100
AcDbEntity
  8
0
100
AcDbLine
 10
2.807048539649762
 20
5.794004495841869
 30
0.0
 11
2.807048539649762
 21
6.036780578519034
 31
0.0
  0
POLYLINE
  5
2760
330
1E
100
AcDbEntity
  8
0
100
AcDb2dPolyline
 66
     1
 10
0.0
 20
0.0
 30
0.0
  0
VERTEX
  5
3293
330
2760
100
AcDbEntity
  8
0
100
AcDbVertex
100
AcDb2dVertex
 10
2.807048539649762
 20
5.794004495841869
 30
0.0
  0
VERTEX
  5
3294
330
2760
100
AcDbEntity
  8
0
100
AcDbVertex
100
AcDb2dVertex
 10
2.803111630200943
 20
5.779569161196199
 30
0.0
  0
VERTEX
  5
3295
330
2760
100
AcDbEntity
  8
0
100
AcDbVertex
100
AcDb2dVertex
 10
2.791300901854487
 20
5.769070735999348
 30
0.0
  0
VERTEX
  5
3296
330
2760
100
AcDbEntity
  8
0
100
AcDbVertex
100
AcDb2dVertex
 10
2.776865567208818
 20
5.763821523400923
 30
0.0
  0
SEQEND
  5
3297
330
2760
100
AcDbEntity
  8
0
  0
LINE
  5
2766
330
1E
100
AcDbEntity
  8
0
100
AcDbLine
 10
2.661382890043463
 20
4.993499574582027
 30
0.0
 11
2.652196767996219
 21
4.993499574582027
 31
0.0
  0
LINE
  5
2767
330
1E
100
AcDbEntity
  8
0
100
AcDbLine
 10
2.652196767996219
 20
4.983001149385176
 30
0.0
 11
2.652196767996219
 21
4.993499574582027
 31
0.0
  0
LINE
  5
2768
330
1E
100
AcDbEntity
  8
0
100
AcDbLine
 10
2.161395390043463
 20
4.993499574582027
 30
0.0
 11
2.161395390043463
 21
4.983001149385176
 31
0.0
  0
LINE
  5
2769
330
1E
100
AcDbEntity
  8
0
100
AcDbLine
 10
2.161395390043463
 20
4.993499574582027
 30
0.0
 11
2.150896964846612
 21
4.993499574582027
 31
0.0
  0
LINE
  5
276A
330
1E
100
AcDbEntity
  8
0
100
AcDbLine
 10
2.026228165634014
 20
4.993499574582027
 30
0.0
 11
2.01704204358677
 21
4.993499574582027
 31
0.0
  0
LINE
  5
276B
330
1E
100
AcDbEntity
  8
0
100
AcDbLine
 10
2.01704204358677
 20
4.983001149385176
 30
0.0
 11
2.01704204358677
 21
4.993499574582027
 31
0.0
  0
LINE
  5
276C
330
1E
100
AcDbEntity
  8
0
100
AcDbLine
 10
1.526240665634014
 20
4.993499574582027
 30
0.0
 11
1.526240665634014
 21
4.983001149385176
 31
0.0
  0
LINE
  5
276D
330
1E
100
AcDbEntity
  8
0
100
AcDbLine
 10
1.526240665634014
 20
4.993499574582027
 30
0.0
 11
1.515742240437163
 21
4.993499574582027
 31
0.0
  0
LINE
  5
276E
330
1E
100
AcDbEntity
  8
0
100
AcDbLine
 10
2.152209267996219
 20
6.943582054896987
 30
0.0
 11
2.152209267996219
 21
6.986888058833994
 31
0.0
  0
LINE
  5
276F
330
1E
100
AcDbEntity
  8
0
100
AcDbLine
 10
2.152209267996219
 20
6.943582054896987
 30
0.0
 11
2.146960055397794
 21
6.943582054896987
 31
0.0
  0
LINE
  5
2770
330
1E
100
AcDbEntity
  8
0
100
AcDbLine
 10
2.031477378232439
 20
6.943582054896987
 30
0.0
 11
2.026228165634014
 21
6.943582054896987
 31
0.0
  0
LINE
  5
2771
330
1E
100
AcDbEntity
  8
0
100
AcDbLine
 10
2.026228165634014
 20
6.986888058833994
 30
0.0
 11
2.026228165634014
 21
6.943582054896987
 31
0.0
  0
LINE
  5
2772
330
1E
100
AcDbEntity
  8
0
100
AcDbLine
 10
1.71914922862614
 20
6.986888058833994
 30
0.0
 11
2.026228165634014
 21
6.986888058833994
 31
0.0
  0
POLYLINE
  5
2773
330
1E
100
AcDbEntity
  8
0
100
AcDb2dPolyline
 66
     1
 10
0.0
 20
0.0
 30
0.0
  0
VERTEX
  5
3298
330
2773
100
AcDbEntity
  8
0
100
AcDbVertex
100
AcDb2dVertex
 10
1.688966256185195
 20
7.017071031274939
 30
0.0
  0
VERTEX
  5
3299
330
2773
100
AcDbEntity
  8
0
100
AcDbVertex
100
AcDb2dVertex
 10
1.692903165634014
 20
7.001323393479664
 30
0.0
  0
VERTEX
  5
329A
330
2773
100
AcDbEntity
  8
0
100
AcDbVertex
100
AcDb2dVertex
 10
1.704713893980471
 20
6.990824968282813
 30
0.0
  0
VERTEX
  5
329B
330
2773
100
AcDbEntity
  8
0
100
AcDbVertex
100
AcDb2dVertex
 10
1.71914922862614
 20
6.986888058833994
 30
0.0
  0
SEQEND
  5
329C
330
2773
100
AcDbEntity
  8
0
  0
LINE
  5
2779
330
1E
100
AcDbEntity
  8
0
100
AcDbLine
 10
1.688966256185195
 20
7.017071031274939
 30
0.0
 11
1.688966256185195
 21
7.258534810802498
 31
0.0
  0
POLYLINE
  5
277A
330
1E
100
AcDbEntity
  8
0
100
AcDb2dPolyline
 66
     1
 10
0.0
 20
0.0
 30
0.0
  0
VERTEX
  5
329D
330
277A
100
AcDbEntity
  8
0
100
AcDbVertex
100
AcDb2dVertex
 10
1.71914922862614
 20
7.288717783243443
 30
0.0
  0
VERTEX
  5
329E
330
277A
100
AcDbEntity
  8
0
100
AcDbVertex
100
AcDb2dVertex
 10
1.704713893980471
 20
7.284780873794623
 30
0.0
  0
VERTEX
  5
329F
330
277A
100
AcDbEntity
  8
0
100
AcDbVertex
100
AcDb2dVertex
 10
1.692903165634014
 20
7.272970145448168
 30
0.0
  0
VERTEX
  5
32A0
330
277A
100
AcDbEntity
  8
0
100
AcDbVertex
100
AcDb2dVertex
 10
1.688966256185195
 20
7.258534810802498
 30
0.0
  0
SEQEND
  5
32A1
330
277A
100
AcDbEntity
  8
0
  0
LINE
  5
2780
330
1E
100
AcDbEntity
  8
0
100
AcDbLine
 10
1.71914922862614
 20
7.288717783243443
 30
0.0
 11
2.459288205004093
 21
7.288717783243443
 31
0.0
  0
POLYLINE
  5
2781
330
1E
100
AcDbEntity
  8
0
100
AcDb2dPolyline
 66
     1
 10
0.0
 20
0.0
 30
0.0
  0
VERTEX
  5
32A2
330
2781
100
AcDbEntity
  8
0
100
AcDbVertex
100
AcDb2dVertex
 10
2.459288205004093
 20
7.288717783243443
 30
0.0
  0
VERTEX
  5
32A3
330
2781
100
AcDbEntity
  8
0
100
AcDbVertex
100
AcDb2dVertex
 10
2.473723539649762
 20
7.284780873794623
 30
0.0
  0
VERTEX
  5
32A4
330
2781
100
AcDbEntity
  8
0
100
AcDbVertex
100
AcDb2dVertex
 10
2.485534267996219
 20
7.272970145448168
 30
0.0
  0
VERTEX
  5
32A5
330
2781
100
AcDbEntity
  8
0
100
AcDbVertex
100
AcDb2dVertex
 10
2.489471177445037
 20
7.258534810802498
 30
0.0
  0
SEQEND
  5
32A6
330
2781
100
AcDbEntity
  8
0
  0
LINE
  5
2787
330
1E
100
AcDbEntity
  8
0
100
AcDbLine
 10
2.489471177445037
 20
7.017071031274939
 30
0.0
 11
2.489471177445037
 21
7.258534810802498
 31
0.0
  0
POLYLINE
  5
2788
330
1E
100
AcDbEntity
  8
0
100
AcDb2dPolyline
 66
     1
 10
0.0
 20
0.0
 30
0.0
  0
VERTEX
  5
32A7
330
2788
100
AcDbEntity
  8
0
100
AcDbVertex
100
AcDb2dVertex
 10
2.489471177445037
 20
7.017071031274939
 30
0.0
  0
VERTEX
  5
32A8
330
2788
100
AcDbEntity
  8
0
100
AcDbVertex
100
AcDb2dVertex
 10
2.485534267996219
 20
7.001323393479664
 30
0.0
  0
VERTEX
  5
32A9
330
2788
100
AcDbEntity
  8
0
100
AcDbVertex
100
AcDb2dVertex
 10
2.473723539649762
 20
6.990824968282813
 30
0.0
  0
VERTEX
  5
32AA
330
2788
100
AcDbEntity
  8
0
100
AcDbVertex
100
AcDb2dVertex
 10
2.459288205004093
 20
6.986888058833994
 30
0.0
  0
SEQEND
  5
32AB
330
2788
100
AcDbEntity
  8
0
  0
LINE
  5
278E
330
1E
100
AcDbEntity
  8
0
100
AcDbLine
 10
2.152209267996219
 20
6.986888058833994
 30
0.0
 11
2.459288205004093
 21
6.986888058833994
 31
0.0
  0
LINE
  5
278F
330
1E
100
AcDbEntity
  8
0
100
AcDbLine
 10
2.026228165634014
 20
4.049953610015097
 30
0.0
 11
2.031477378232439
 21
4.049953610015097
 31
0.0
  0
LINE
  5
2790
330
1E
100
AcDbEntity
  8
0
100
AcDbLine
 10
2.146960055397794
 20
4.049953610015097
 30
0.0
 11
2.152209267996219
 21
4.049953610015097
 31
0.0
  0
LINE
  5
2791
330
1E
100
AcDbEntity
  8
0
100
AcDbLine
 10
2.152209267996219
 20
4.049953610015097
 30
0.0
 11
2.152209267996219
 21
4.007959909227695
 31
0.0
  0
LINE
  5
2792
330
1E
100
AcDbEntity
  8
0
100
AcDbLine
 10
2.152209267996219
 20
4.007959909227695
 30
0.0
 11
2.459288205004093
 21
4.007959909227695
 31
0.0
  0
POLYLINE
  5
2793
330
1E
100
AcDbEntity
  8
0
100
AcDb2dPolyline
 66
     1
 10
0.0
 20
0.0
 30
0.0
  0
VERTEX
  5
32AC
330
2793
100
AcDbEntity
  8
0
100
AcDbVertex
100
AcDb2dVertex
 10
2.489471177445037
 20
3.977776936786751
 30
0.0
  0
VERTEX
  5
32AD
330
2793
100
AcDbEntity
  8
0
100
AcDbVertex
100
AcDb2dVertex
 10
2.485534267996219
 20
3.992212271432419
 30
0.0
  0
VERTEX
  5
32AE
330
2793
100
AcDbEntity
  8
0
100
AcDbVertex
100
AcDb2dVertex
 10
2.473723539649762
 20
4.004022999778877
 30
0.0
  0
VERTEX
  5
32AF
330
2793
100
AcDbEntity
  8
0
100
AcDbVertex
100
AcDb2dVertex
 10
2.459288205004093
 20
4.007959909227695
 30
0.0
  0
SEQEND
  5
32B0
330
2793
100
AcDbEntity
  8
0
  0
LINE
  5
2799
330
1E
100
AcDbEntity
  8
0
100
AcDbLine
 10
2.489471177445037
 20
3.977776936786751
 30
0.0
 11
2.489471177445037
 21
3.735000854109586
 31
0.0
  0
POLYLINE
  5
279A
330
1E
100
AcDbEntity
  8
0
100
AcDb2dPolyline
 66
     1
 10
0.0
 20
0.0
 30
0.0
  0
VERTEX
  5
32B1
330
279A
100
AcDbEntity
  8
0
100
AcDbVertex
100
AcDb2dVertex
 10
2.459288205004093
 20
3.706130184818247
 30
0.0
  0
VERTEX
  5
32B2
330
279A
100
AcDbEntity
  8
0
100
AcDbVertex
100
AcDb2dVertex
 10
2.473723539649762
 20
3.710067094267065
 30
0.0
  0
VERTEX
  5
32B3
330
279A
100
AcDbEntity
  8
0
100
AcDbVertex
100
AcDb2dVertex
 10
2.485534267996219
 20
3.720565519463916
 30
0.0
  0
VERTEX
  5
32B4
330
279A
100
AcDbEntity
  8
0
100
AcDbVertex
100
AcDb2dVertex
 10
2.489471177445037
 20
3.735000854109586
 30
0.0
  0
SEQEND
  5
32B5
330
279A
100
AcDbEntity
  8
0
  0
LINE
  5
27A0
330
1E
100
AcDbEntity
  8
0
100
AcDbLine
 10
1.71914922862614
 20
3.706130184818247
 30
0.0
 11
2.459288205004093
 21
3.706130184818247
 31
0.0
  0
POLYLINE
  5
27A1
330
1E
100
AcDbEntity
  8
0
100
AcDb2dPolyline
 66
     1
 10
0.0
 20
0.0
 30
0.0
  0
VERTEX
  5
32B6
330
27A1
100
AcDbEntity
  8
0
100
AcDbVertex
100
AcDb2dVertex
 10
1.71914922862614
 20
3.706130184818247
 30
0.0
  0
VERTEX
  5
32B7
330
27A1
100
AcDbEntity
  8
0
100
AcDbVertex
100
AcDb2dVertex
 10
1.704713893980471
 20
3.710067094267065
 30
0.0
  0
VERTEX
  5
32B8
330
27A1
100
AcDbEntity
  8
0
100
AcDbVertex
100
AcDb2dVertex
 10
1.692903165634014
 20
3.720565519463916
 30
0.0
  0
VERTEX
  5
32B9
330
27A1
100
AcDbEntity
  8
0
100
AcDbVertex
100
AcDb2dVertex
 10
1.688966256185195
 20
3.735000854109586
 30
0.0
  0
SEQEND
  5
32BA
330
27A1
100
AcDbEntity
  8
0
  0
LINE
  5
27A7
330
1E
100
AcDbEntity
  8
0
100
AcDbLine
 10
1.688966256185195
 20
3.977776936786751
 30
0.0
 11
1.688966256185195
 21
3.735000854109586
 31
0.0
  0
POLYLINE
  5
27A8
330
1E
100
AcDbEntity
  8
0
100
AcDb2dPolyline
 66
     1
 10
0.0
 20
0.0
 30
0.0
  0
VERTEX
  5
32BB
330
27A8
100
AcDbEntity
  8
0
100
AcDbVertex
100
AcDb2dVertex
 10
1.688966256185195
 20
3.977776936786751
 30
0.0
  0
VERTEX
  5
32BC
330
27A8
100
AcDbEntity
  8
0
100
AcDbVertex
100
AcDb2dVertex
 10
1.692903165634014
 20
3.992212271432419
 30
0.0
  0
VERTEX
  5
32BD
330
27A8
100
AcDbEntity
  8
0
100
AcDbVertex
100
AcDb2dVertex
 10
1.704713893980471
 20
4.004022999778877
 30
0.0
  0
VERTEX
  5
32BE
330
27A8
100
AcDbEntity
  8
0
100
AcDbVertex
100
AcDb2dVertex
 10
1.71914922862614
 20
4.007959909227695
 30
0.0
  0
SEQEND
  5
32BF
330
27A8
100
AcDbEntity
  8
0
  0
LINE
  5
27AE
330
1E
100
AcDbEntity
  8
0
100
AcDbLine
 10
1.71914922862614
 20
4.007959909227695
 30
0.0
 11
2.026228165634014
 21
4.007959909227695
 31
0.0
  0
LINE
  5
27AF
330
1E
100
AcDbEntity
  8
0
100
AcDbLine
 10
2.026228165634014
 20
4.007959909227695
 30
0.0
 11
2.026228165634014
 21
4.049953610015097
 31
0.0
  0
LINE
  5
27B0
330
1E
100
AcDbEntity
  8
0
100
AcDbLine
 10
3.464512417602518
 20
3.326874574582026
 30
0.0
 11
3.467137023901731
 21
3.324249968282813
 31
0.0
  0
LINE
  5
27B1
330
1E
100
AcDbEntity
  8
0
100
AcDbLine
 10
3.467137023901731
 20
7.670597999778877
 30
0.0
 11
3.467137023901731
 21
3.324249968282813
 31
0.0
  0
LINE
  5
27B2
330
1E
100
AcDbEntity
  8
0
100
AcDbLine
 10
3.467137023901731
 20
7.670597999778877
 30
0.0
 11
3.464512417602518
 21
7.666661090330057
 31
0.0
  0
LINE
  5
27B3
330
1E
100
AcDbEntity
  8
0
100
AcDbLine
 10
0.7913509018544871
 20
3.244199476156829
 30
0.0
 11
3.387086531775747
 21
3.244199476156829
 31
0.0
  0
LINE
  5
27B4
330
1E
100
AcDbEntity
  8
0
100
AcDbLine
 10
0.7913509018544871
 20
3.244199476156829
 30
0.0
 11
0.7690417483111798
 21
3.246824082456042
 31
0.0
  0
LINE
  5
27B5
330
1E
100
AcDbEntity
  8
0
100
AcDbLine
 10
0.7139250160277149
 20
3.301940814739507
 30
0.0
 11
0.7113004097285032
 21
3.324249968282813
 31
0.0
  0
LINE
  5
27B6
330
1E
100
AcDbEntity
  8
0
100
AcDbLine
 10
0.7113004097285032
 20
7.670597999778877
 30
0.0
 11
0.7113004097285032
 21
3.324249968282813
 31
0.0
  0
LINE
  5
27B7
330
1E
100
AcDbEntity
  8
0
100
AcDbLine
 10
0.7113004097285032
 20
7.670597999778877
 30
0.0
 11
0.7139250160277149
 21
7.691594850172577
 31
0.0
  0
LINE
  5
27B8
330
1E
100
AcDbEntity
  8
0
100
AcDbLine
 10
0.7690417483111798
 20
7.746711582456041
 30
0.0
 11
0.7913509018544871
 21
7.749336188755255
 31
0.0
  0
LINE
  5
27B9
330
1E
100
AcDbEntity
  8
0
100
AcDbLine
 10
3.387086531775747
 20
7.749336188755255
 30
0.0
 11
3.408083382169447
 21
7.746711582456041
 31
0.0
  0
LINE
  5
27BA
330
1E
100
AcDbEntity
  8
0
100
AcDbLine
 10
3.464512417602518
 20
7.691594850172577
 30
0.0
 11
3.467137023901731
 21
7.670597999778877
 31
0.0
  0
LINE
  5
27BB
330
1E
100
AcDbEntity
  8
0
100
AcDbLine
 10
3.467137023901731
 20
3.324249968282813
 30
0.0
 11
3.464512417602518
 21
3.301940814739507
 31
0.0
  0
LINE
  5
27BC
330
1E
100
AcDbEntity
  8
0
100
AcDbLine
 10
3.408083382169447
 20
3.246824082456042
 30
0.0
 11
3.387086531775747
 21
3.244199476156829
 31
0.0
  0
LINE
  5
27BD
330
1E
100
AcDbEntity
  8
0
100
AcDbLine
 10
0.7113004097285032
 20
3.324249968282813
 30
0.0
 11
0.7139250160277149
 21
3.326874574582026
 31
0.0
  0
LINE
  5
27BE
330
1E
100
AcDbEntity
  8
0
100
AcDbLine
 10
0.7139250160277149
 20
7.666661090330057
 30
0.0
 11
0.7113004097285032
 21
7.670597999778877
 31
0.0
  0
LINE
  5
27BF
330
1E
100
AcDbEntity
  8
0
100
AcDbLine
 10
2.318871767996219
 20
5.614218964345806
 30
0.0
 11
2.493408086893857
 21
5.614218964345806
 31
0.0
  0
LINE
  5
27C0
330
1E
100
AcDbEntity
  8
0
100
AcDbLine
 10
2.509155724689132
 20
5.036805578519034
 30
0.0
 11
2.303124130200943
 21
5.036805578519034
 31
0.0
  0
LINE
  5
27C1
330
1E
100
AcDbEntity
  8
0
100
AcDbLine
 10
2.303124130200943
 20
5.036805578519034
 30
0.0
 11
2.303124130200943
 21
5.006622606078089
 31
0.0
  0
LINE
  5
27C2
330
1E
100
AcDbEntity
  8
0
100
AcDbLine
 10
2.509155724689132
 20
5.006622606078089
 30
0.0
 11
2.303124130200943
 21
5.006622606078089
 31
0.0
  0
LINE
  5
27C3
330
1E
100
AcDbEntity
  8
0
100
AcDbLine
 10
2.509155724689132
 20
5.036805578519034
 30
0.0
 11
2.509155724689132
 21
5.006622606078089
 31
0.0
  0
LINE
  5
27C4
330
1E
100
AcDbEntity
  8
0
100
AcDbLine
 10
2.303124130200943
 20
5.00268569662927
 30
0.0
 11
2.509155724689132
 21
5.00268569662927
 31
0.0
  0
LINE
  5
27C5
330
1E
100
AcDbEntity
  8
0
100
AcDbLine
 10
2.509155724689132
 20
5.00268569662927
 30
0.0
 11
2.509155724689132
 21
5.006622606078089
 31
0.0
  0
LINE
  5
27C6
330
1E
100
AcDbEntity
  8
0
100
AcDbLine
 10
2.303124130200943
 20
5.00268569662927
 30
0.0
 11
2.303124130200943
 21
5.006622606078089
 31
0.0
  0
LINE
  5
27C7
330
1E
100
AcDbEntity
  8
0
100
AcDbLine
 10
2.509155724689132
 20
4.965941208440294
 30
0.0
 11
2.304436433350549
 21
4.965941208440294
 31
0.0
  0
POLYLINE
  5
27C8
330
1E
100
AcDbEntity
  8
0
100
AcDb2dPolyline
 66
     1
 10
0.0
 20
0.0
 30
0.0
  0
VERTEX
  5
32C0
330
27C8
100
AcDbEntity
  8
0
100
AcDbVertex
100
AcDb2dVertex
 10
2.509155724689132
 20
4.965941208440294
 30
0.0
  0
VERTEX
  5
32C1
330
27C8
100
AcDbEntity
  8
0
100
AcDbVertex
100
AcDb2dVertex
 10
2.509155724689132
 20
4.985625755684388
 30
0.0
  0
VERTEX
  5
32C2
330
27C8
100
AcDbEntity
  8
0
100
AcDbVertex
100
AcDb2dVertex
 10
2.509155724689132
 20
5.00268569662927
 30
0.0
  0
SEQEND
  5
32C3
330
27C8
100
AcDbEntity
  8
0
  0
POLYLINE
  5
27CD
330
1E
100
AcDbEntity
  8
0
100
AcDb2dPolyline
 66
     1
 10
0.0
 20
0.0
 30
0.0
  0
VERTEX
  5
32C4
330
27CD
100
AcDbEntity
  8
0
100
AcDbVertex
100
AcDb2dVertex
 10
2.30443643335055
 20
4.965941208440294
 30
0.0
  0
VERTEX
  5
32C5
330
27CD
100
AcDbEntity
  8
0
100
AcDbVertex
100
AcDb2dVertex
 10
2.30443643335055
 20
4.985625755684388
 30
0.0
  0
VERTEX
  5
32C6
330
27CD
100
AcDbEntity
  8
0
100
AcDbVertex
100
AcDb2dVertex
 10
2.303124130200943
 20
5.00268569662927
 30
0.0
  0
SEQEND
  5
32C7
330
27CD
100
AcDbEntity
  8
0
  0
LINE
  5
27D2
330
1E
100
AcDbEntity
  8
0
100
AcDbLine
 10
2.509155724689132
 20
4.955442783243444
 30
0.0
 11
2.304436433350549
 21
4.955442783243444
 31
0.0
  0
LINE
  5
27D3
330
1E
100
AcDbEntity
  8
0
100
AcDbLine
 10
2.509155724689132
 20
4.965941208440294
 30
0.0
 11
2.509155724689132
 21
4.955442783243444
 31
0.0
  0
LINE
  5
27D4
330
1E
100
AcDbEntity
  8
0
100
AcDbLine
 10
2.304436433350549
 20
4.965941208440294
 30
0.0
 11
2.304436433350549
 21
4.955442783243444
 31
0.0
  0
LINE
  5
27D5
330
1E
100
AcDbEntity
  8
0
100
AcDbLine
 10
2.652196767996219
 20
4.993499574582027
 30
0.0
 11
2.708625803429289
 21
4.993499574582027
 31
0.0
  0
LINE
  5
27D6
330
1E
100
AcDbEntity
  8
0
100
AcDbLine
 10
2.318871767996219
 20
5.653588058833994
 30
0.0
 11
2.318871767996219
 21
5.614218964345806
 31
0.0
  0
LINE
  5
27D7
330
1E
100
AcDbEntity
  8
0
100
AcDbLine
 10
2.493408086893857
 20
5.653588058833994
 30
0.0
 11
2.493408086893857
 21
5.614218964345806
 31
0.0
  0
LINE
  5
27D8
330
1E
100
AcDbEntity
  8
0
100
AcDbLine
 10
2.01704204358677
 20
4.993499574582027
 30
0.0
 11
2.161395390043463
 21
4.993499574582027
 31
0.0
  0
LINE
  5
27D9
330
1E
100
AcDbEntity
  8
0
100
AcDbLine
 10
2.161395390043463
 20
4.981688846235569
 30
0.0
 11
2.161395390043463
 21
4.993499574582027
 31
0.0
  0
POLYLINE
  5
27DA
330
1E
100
AcDbEntity
  8
0
100
AcDb2dPolyline
 66
     1
 10
0.0
 20
0.0
 30
0.0
  0
VERTEX
  5
32C8
330
27DA
100
AcDbEntity
  8
0
100
AcDbVertex
100
AcDb2dVertex
 10
2.303124130200943
 20
4.939695145448168
 30
0.0
  0
VERTEX
  5
32C9
330
27DA
100
AcDbEntity
  8
0
100
AcDbVertex
100
AcDb2dVertex
 10
2.30443643335055
 20
4.944944358046593
 30
0.0
  0
VERTEX
  5
32CA
330
27DA
100
AcDbEntity
  8
0
100
AcDbVertex
100
AcDb2dVertex
 10
2.30443643335055
 20
4.955442783243444
 30
0.0
  0
SEQEND
  5
32CB
330
27DA
100
AcDbEntity
  8
0
  0
LINE
  5
27DF
330
1E
100
AcDbEntity
  8
0
100
AcDbLine
 10
2.303124130200943
 20
4.939695145448167
 30
0.0
 11
2.509155724689132
 21
4.939695145448167
 31
0.0
  0
POLYLINE
  5
27E0
330
1E
100
AcDbEntity
  8
0
100
AcDb2dPolyline
 66
     1
 10
0.0
 20
0.0
 30
0.0
  0
VERTEX
  5
32CC
330
27E0
100
AcDbEntity
  8
0
100
AcDbVertex
100
AcDb2dVertex
 10
2.509155724689132
 20
4.939695145448168
 30
0.0
  0
VERTEX
  5
32CD
330
27E0
100
AcDbEntity
  8
0
100
AcDbVertex
100
AcDb2dVertex
 10
2.509155724689132
 20
4.944944358046593
 30
0.0
  0
VERTEX
  5
32CE
330
27E0
100
AcDbEntity
  8
0
100
AcDbVertex
100
AcDb2dVertex
 10
2.509155724689132
 20
4.955442783243444
 30
0.0
  0
SEQEND
  5
32CF
330
27E0
100
AcDbEntity
  8
0
  0
LINE
  5
27E5
330
1E
100
AcDbEntity
  8
0
100
AcDbLine
 10
2.640386039649762
 20
4.927884417101711
 30
0.0
 11
2.534089484531651
 21
4.927884417101711
 31
0.0
  0
LINE
  5
27E6
330
1E
100
AcDbEntity
  8
0
100
AcDbLine
 10
2.27950267350803
 20
4.927884417101711
 30
0.0
 11
2.171893815240313
 21
4.927884417101711
 31
0.0
  0
LINE
  5
27E7
330
1E
100
AcDbEntity
  8
0
100
AcDbLine
 10
2.652196767996219
 20
4.993499574582027
 30
0.0
 11
2.652196767996219
 21
4.981688846235569
 31
0.0
  0
LINE
  5
27E8
330
1E
100
AcDbEntity
  8
0
100
AcDbLine
 10
2.534089484531651
 20
4.927884417101711
 30
0.0
 11
2.509155724689132
 21
4.939695145448167
 31
0.0
  0
LINE
  5
27E9
330
1E
100
AcDbEntity
  8
0
100
AcDbLine
 10
2.27950267350803
 20
4.927884417101711
 30
0.0
 11
2.303124130200943
 21
4.939695145448167
 31
0.0
  0
LINE
  5
27EA
330
1E
100
AcDbEntity
  8
0
100
AcDbLine
 10
2.652196767996219
 20
4.993499574582027
 30
0.0
 11
2.652196767996219
 21
4.993499574582027
 31
0.0
  0
LINE
  5
27EB
330
1E
100
AcDbEntity
  8
0
100
AcDbLine
 10
2.01704204358677
 20
4.993499574582027
 30
0.0
 11
2.01704204358677
 21
4.993499574582027
 31
0.0
  0
LINE
  5
27EC
330
1E
100
AcDbEntity
  8
0
100
AcDbLine
 10
2.161395390043463
 20
4.993499574582027
 30
0.0
 11
2.161395390043463
 21
4.993499574582027
 31
0.0
  0
LINE
  5
27ED
330
1E
100
AcDbEntity
  8
0
100
AcDbLine
 10
1.401571866421415
 20
6.066963550959979
 30
0.0
 11
1.402884169571022
 21
6.065651247810372
 31
0.0
  0
LINE
  5
27EE
330
1E
100
AcDbEntity
  8
0
100
AcDbLine
 10
1.402884169571022
 20
6.065651247810372
 30
0.0
 11
2.775553264059211
 21
6.065651247810372
 31
0.0
  0
LINE
  5
27EF
330
1E
100
AcDbEntity
  8
0
100
AcDbLine
 10
2.775553264059211
 20
6.065651247810372
 30
0.0
 11
2.776865567208817
 21
6.066963550959979
 31
0.0
  0
LINE
  5
27F0
330
1E
100
AcDbEntity
  8
0
100
AcDbLine
 10
2.805736236500156
 20
5.795316798991475
 30
0.0
 11
2.805736236500156
 21
6.035468275369428
 31
0.0
  0
LINE
  5
27F1
330
1E
100
AcDbEntity
  8
0
100
AcDbLine
 10
2.805736236500156
 20
5.795316798991475
 30
0.0
 11
2.807048539649762
 21
5.794004495841869
 31
0.0
  0
LINE
  5
27F2
330
1E
100
AcDbEntity
  8
0
100
AcDbLine
 10
2.807048539649762
 20
6.036780578519034
 30
0.0
 11
2.805736236500156
 21
6.035468275369428
 31
0.0
  0
LINE
  5
27F3
330
1E
100
AcDbEntity
  8
0
100
AcDbLine
 10
1.402884169571022
 20
5.76513382655053
 30
0.0
 11
2.775553264059211
 21
5.76513382655053
 31
0.0
  0
LINE
  5
27F4
330
1E
100
AcDbEntity
  8
0
100
AcDbLine
 10
1.402884169571022
 20
5.76513382655053
 30
0.0
 11
1.401571866421415
 21
5.763821523400923
 31
0.0
  0
LINE
  5
27F5
330
1E
100
AcDbEntity
  8
0
100
AcDbLine
 10
2.776865567208817
 20
5.763821523400923
 30
0.0
 11
2.775553264059211
 21
5.76513382655053
 31
0.0
  0
POLYLINE
  5
27F6
330
1E
100
AcDbEntity
  8
0
100
AcDb2dPolyline
 66
     1
 10
0.0
 20
0.0
 30
0.0
  0
VERTEX
  5
32D0
330
27F6
100
AcDbEntity
  8
0
100
AcDbVertex
100
AcDb2dVertex
 10
1.402884169571022
 20
6.065651247810372
 30
0.0
  0
VERTEX
  5
32D1
330
27F6
100
AcDbEntity
  8
0
100
AcDbVertex
100
AcDb2dVertex
 10
1.387136531775746
 20
6.061714338361554
 30
0.0
  0
VERTEX
  5
32D2
330
27F6
100
AcDbEntity
  8
0
100
AcDbVertex
100
AcDb2dVertex
 10
1.376638106578896
 20
6.051215913164703
 30
0.0
  0
VERTEX
  5
32D3
330
27F6
100
AcDbEntity
  8
0
100
AcDbVertex
100
AcDb2dVertex
 10
1.372701197130077
 20
6.035468275369428
 30
0.0
  0
SEQEND
  5
32D4
330
27F6
100
AcDbEntity
  8
0
  0
LINE
  5
27FC
330
1E
100
AcDbEntity
  8
0
100
AcDbLine
 10
1.372701197130077
 20
5.795316798991475
 30
0.0
 11
1.372701197130077
 21
6.035468275369428
 31
0.0
  0
POLYLINE
  5
27FD
330
1E
100
AcDbEntity
  8
0
100
AcDb2dPolyline
 66
     1
 10
0.0
 20
0.0
 30
0.0
  0
VERTEX
  5
32D5
330
27FD
100
AcDbEntity
  8
0
100
AcDbVertex
100
AcDb2dVertex
 10
1.372701197130077
 20
5.795316798991474
 30
0.0
  0
VERTEX
  5
32D6
330
27FD
100
AcDbEntity
  8
0
100
AcDbVertex
100
AcDb2dVertex
 10
1.376638106578896
 20
5.779569161196199
 30
0.0
  0
VERTEX
  5
32D7
330
27FD
100
AcDbEntity
  8
0
100
AcDbVertex
100
AcDb2dVertex
 10
1.387136531775746
 20
5.769070735999348
 30
0.0
  0
VERTEX
  5
32D8
330
27FD
100
AcDbEntity
  8
0
100
AcDbVertex
100
AcDb2dVertex
 10
1.402884169571022
 20
5.76513382655053
 30
0.0
  0
SEQEND
  5
32D9
330
27FD
100
AcDbEntity
  8
0
  0
POLYLINE
  5
2803
330
1E
100
AcDbEntity
  8
0
100
AcDb2dPolyline
 66
     1
 10
0.0
 20
0.0
 30
0.0
  0
VERTEX
  5
32DA
330
2803
100
AcDbEntity
  8
0
100
AcDbVertex
100
AcDb2dVertex
 10
2.77555326405921
 20
5.76513382655053
 30
0.0
  0
VERTEX
  5
32DB
330
2803
100
AcDbEntity
  8
0
100
AcDbVertex
100
AcDb2dVertex
 10
2.791300901854487
 20
5.769070735999348
 30
0.0
  0
VERTEX
  5
32DC
330
2803
100
AcDbEntity
  8
0
100
AcDbVertex
100
AcDb2dVertex
 10
2.801799327051337
 20
5.779569161196199
 30
0.0
  0
VERTEX
  5
32DD
330
2803
100
AcDbEntity
  8
0
100
AcDbVertex
100
AcDb2dVertex
 10
2.805736236500156
 20
5.795316798991474
 30
0.0
  0
SEQEND
  5
32DE
330
2803
100
AcDbEntity
  8
0
  0
POLYLINE
  5
2809
330
1E
100
AcDbEntity
  8
0
100
AcDb2dPolyline
 66
     1
 10
0.0
 20
0.0
 30
0.0
  0
VERTEX
  5
32DF
330
2809
100
AcDbEntity
  8
0
100
AcDbVertex
100
AcDb2dVertex
 10
2.805736236500156
 20
6.035468275369428
 30
0.0
  0
VERTEX
  5
32E0
330
2809
100
AcDbEntity
  8
0
100
AcDbVertex
100
AcDb2dVertex
 10
2.801799327051337
 20
6.051215913164703
 30
0.0
  0
VERTEX
  5
32E1
330
2809
100
AcDbEntity
  8
0
100
AcDbVertex
100
AcDb2dVertex
 10
2.791300901854487
 20
6.061714338361554
 30
0.0
  0
VERTEX
  5
32E2
330
2809
100
AcDbEntity
  8
0
100
AcDbVertex
100
AcDb2dVertex
 10
2.77555326405921
 20
6.065651247810372
 30
0.0
  0
SEQEND
  5
32E3
330
2809
100
AcDbEntity
  8
0
  0
LINE
  5
280F
330
1E
100
AcDbEntity
  8
0
100
AcDbLine
 10
1.450127082956849
 20
5.792692192692262
 30
0.0
 11
2.728310350673384
 21
5.792692192692262
 31
0.0
  0
LINE
  5
2810
330
1E
100
AcDbEntity
  8
0
100
AcDbLine
 10
1.450127082956849
 20
5.845184318676514
 30
0.0
 11
1.450127082956849
 21
5.792692192692262
 31
0.0
  0
LINE
  5
2811
330
1E
100
AcDbEntity
  8
0
100
AcDbLine
 10
1.425193323114329
 20
5.845184318676514
 30
0.0
 11
1.450127082956849
 21
5.845184318676514
 31
0.0
  0
LINE
  5
2812
330
1E
100
AcDbEntity
  8
0
100
AcDbLine
 10
1.425193323114329
 20
5.985600755684388
 30
0.0
 11
1.425193323114329
 21
5.845184318676514
 31
0.0
  0
LINE
  5
2813
330
1E
100
AcDbEntity
  8
0
100
AcDbLine
 10
1.425193323114329
 20
5.985600755684388
 30
0.0
 11
1.450127082956849
 21
5.985600755684388
 31
0.0
  0
LINE
  5
2814
330
1E
100
AcDbEntity
  8
0
100
AcDbLine
 10
1.450127082956849
 20
6.03809288166864
 30
0.0
 11
1.450127082956849
 21
5.985600755684388
 31
0.0
  0
LINE
  5
2815
330
1E
100
AcDbEntity
  8
0
100
AcDbLine
 10
1.450127082956849
 20
6.03809288166864
 30
0.0
 11
2.728310350673384
 21
6.03809288166864
 31
0.0
  0
LINE
  5
2816
330
1E
100
AcDbEntity
  8
0
100
AcDbLine
 10
2.728310350673384
 20
6.03809288166864
 30
0.0
 11
2.728310350673384
 21
5.985600755684388
 31
0.0
  0
LINE
  5
2817
330
1E
100
AcDbEntity
  8
0
100
AcDbLine
 10
2.728310350673384
 20
5.985600755684388
 30
0.0
 11
2.753244110515904
 21
5.985600755684388
 31
0.0
  0
LINE
  5
2818
330
1E
100
AcDbEntity
  8
0
100
AcDbLine
 10
2.753244110515904
 20
5.985600755684388
 30
0.0
 11
2.753244110515904
 21
5.845184318676514
 31
0.0
  0
LINE
  5
2819
330
1E
100
AcDbEntity
  8
0
100
AcDbLine
 10
2.728310350673384
 20
5.845184318676514
 30
0.0
 11
2.753244110515904
 21
5.845184318676514
 31
0.0
  0
LINE
  5
281A
330
1E
100
AcDbEntity
  8
0
100
AcDbLine
 10
2.728310350673384
 20
5.845184318676514
 30
0.0
 11
2.728310350673384
 21
5.792692192692262
 31
0.0
  0
LINE
  5
281B
330
1E
100
AcDbEntity
  8
0
100
AcDbLine
 10
2.753244110515904
 20
5.845184318676514
 30
0.0
 11
2.751931807366297
 21
5.845184318676514
 31
0.0
  0
LINE
  5
281C
330
1E
100
AcDbEntity
  8
0
100
AcDbLine
 10
2.751931807366297
 20
5.845184318676514
 30
0.0
 11
2.726998047523777
 21
5.845184318676514
 31
0.0
  0
LINE
  5
281D
330
1E
100
AcDbEntity
  8
0
100
AcDbLine
 10
2.726998047523777
 20
5.845184318676514
 30
0.0
 11
2.728310350673384
 21
5.845184318676514
 31
0.0
  0
LINE
  5
281E
330
1E
100
AcDbEntity
  8
0
100
AcDbLine
 10
2.753244110515904
 20
5.985600755684388
 30
0.0
 11
2.751931807366297
 21
5.985600755684388
 31
0.0
  0
LINE
  5
281F
330
1E
100
AcDbEntity
  8
0
100
AcDbLine
 10
2.751931807366297
 20
5.985600755684388
 30
0.0
 11
2.751931807366297
 21
5.984288452534782
 31
0.0
  0
LINE
  5
2820
330
1E
100
AcDbEntity
  8
0
100
AcDbLine
 10
2.751931807366297
 20
5.984288452534782
 30
0.0
 11
2.751931807366297
 21
5.84649662182612
 31
0.0
  0
LINE
  5
2821
330
1E
100
AcDbEntity
  8
0
100
AcDbLine
 10
2.751931807366297
 20
5.84649662182612
 30
0.0
 11
2.751931807366297
 21
5.845184318676514
 31
0.0
  0
POLYLINE
  5
2822
330
1E
100
AcDbEntity
  8
0
100
AcDb2dPolyline
 66
     1
 10
0.0
 20
0.0
 30
0.0
  0
VERTEX
  5
32E4
330
2822
100
AcDbEntity
  8
0
100
AcDbVertex
100
AcDb2dVertex
 10
2.40679607901984
 20
5.879304200566279
 30
0.0
  0
VERTEX
  5
32E5
330
2822
100
AcDbEntity
  8
0
100
AcDbVertex
100
AcDb2dVertex
 10
2.387111531775746
 20
5.884553413164704
 30
0.0
  0
VERTEX
  5
32E6
330
2822
100
AcDbEntity
  8
0
100
AcDbVertex
100
AcDb2dVertex
 10
2.372676197130077
 20
5.90030105095998
 30
0.0
  0
VERTEX
  5
32E7
330
2822
100
AcDbEntity
  8
0
100
AcDbVertex
100
AcDb2dVertex
 10
2.370051590830864
 20
5.92129790135368
 30
0.0
  0
VERTEX
  5
32E8
330
2822
100
AcDbEntity
  8
0
100
AcDbVertex
100
AcDb2dVertex
 10
2.379237712878109
 20
5.939670145448167
 30
0.0
  0
VERTEX
  5
32E9
330
2822
100
AcDbEntity
  8
0
100
AcDbVertex
100
AcDb2dVertex
 10
2.39629765382299
 20
5.950168570645018
 30
0.0
  0
VERTEX
  5
32EA
330
2822
100
AcDbEntity
  8
0
100
AcDbVertex
100
AcDb2dVertex
 10
2.417294504216691
 20
5.950168570645018
 30
0.0
  0
VERTEX
  5
32EB
330
2822
100
AcDbEntity
  8
0
100
AcDbVertex
100
AcDb2dVertex
 10
2.434354445161573
 20
5.939670145448167
 30
0.0
  0
VERTEX
  5
32EC
330
2822
100
AcDbEntity
  8
0
100
AcDbVertex
100
AcDb2dVertex
 10
2.442228264059211
 20
5.92129790135368
 30
0.0
  0
VERTEX
  5
32ED
330
2822
100
AcDbEntity
  8
0
100
AcDbVertex
100
AcDb2dVertex
 10
2.439603657759998
 20
5.90030105095998
 30
0.0
  0
VERTEX
  5
32EE
330
2822
100
AcDbEntity
  8
0
100
AcDbVertex
100
AcDb2dVertex
 10
2.426480626263936
 20
5.884553413164704
 30
0.0
  0
VERTEX
  5
32EF
330
2822
100
AcDbEntity
  8
0
100
AcDbVertex
100
AcDb2dVertex
 10
2.40679607901984
 20
5.879304200566279
 30
0.0
  0
SEQEND
  5
32F0
330
2822
100
AcDbEntity
  8
0
  0
LINE
  5
2830
330
1E
100
AcDbEntity
  8
0
100
AcDbLine
 10
1.451439386106455
 20
6.036780578519034
 30
0.0
 11
2.726998047523777
 21
6.036780578519034
 31
0.0
  0
LINE
  5
2831
330
1E
100
AcDbEntity
  8
0
100
AcDbLine
 10
1.451439386106455
 20
6.036780578519034
 30
0.0
 11
1.451439386106455
 21
5.984288452534782
 31
0.0
  0
LINE
  5
2832
330
1E
100
AcDbEntity
  8
0
100
AcDbLine
 10
1.426505626263935
 20
5.984288452534782
 30
0.0
 11
1.451439386106455
 21
5.984288452534782
 31
0.0
  0
LINE
  5
2833
330
1E
100
AcDbEntity
  8
0
100
AcDbLine
 10
1.426505626263935
 20
5.984288452534782
 30
0.0
 11
1.426505626263935
 21
5.84649662182612
 31
0.0
  0
LINE
  5
2834
330
1E
100
AcDbEntity
  8
0
100
AcDbLine
 10
1.426505626263935
 20
5.84649662182612
 30
0.0
 11
1.451439386106455
 21
5.84649662182612
 31
0.0
  0
LINE
  5
2835
330
1E
100
AcDbEntity
  8
0
100
AcDbLine
 10
1.451439386106455
 20
5.84649662182612
 30
0.0
 11
1.451439386106455
 21
5.794004495841869
 31
0.0
  0
LINE
  5
2836
330
1E
100
AcDbEntity
  8
0
100
AcDbLine
 10
1.451439386106455
 20
5.794004495841869
 30
0.0
 11
2.726998047523777
 21
5.794004495841869
 31
0.0
  0
LINE
  5
2837
330
1E
100
AcDbEntity
  8
0
100
AcDbLine
 10
2.726998047523777
 20
5.84649662182612
 30
0.0
 11
2.726998047523777
 21
5.794004495841869
 31
0.0
  0
LINE
  5
2838
330
1E
100
AcDbEntity
  8
0
100
AcDbLine
 10
2.726998047523777
 20
5.84649662182612
 30
0.0
 11
2.751931807366297
 21
5.84649662182612
 31
0.0
  0
LINE
  5
2839
330
1E
100
AcDbEntity
  8
0
100
AcDbLine
 10
2.726998047523777
 20
5.984288452534782
 30
0.0
 11
2.751931807366297
 21
5.984288452534782
 31
0.0
  0
LINE
  5
283A
330
1E
100
AcDbEntity
  8
0
100
AcDbLine
 10
2.726998047523777
 20
6.036780578519034
 30
0.0
 11
2.726998047523777
 21
5.984288452534782
 31
0.0
  0
POLYLINE
  5
283B
330
1E
100
AcDbEntity
  8
0
100
AcDb2dPolyline
 66
     1
 10
0.0
 20
0.0
 30
0.0
  0
VERTEX
  5
32F1
330
283B
100
AcDbEntity
  8
0
100
AcDbVertex
100
AcDb2dVertex
 10
1.771641354610392
 20
5.879304200566279
 30
0.0
  0
VERTEX
  5
32F2
330
283B
100
AcDbEntity
  8
0
100
AcDbVertex
100
AcDb2dVertex
 10
1.751956807366298
 20
5.884553413164704
 30
0.0
  0
VERTEX
  5
32F3
330
283B
100
AcDbEntity
  8
0
100
AcDbVertex
100
AcDb2dVertex
 10
1.738833775870234
 20
5.90030105095998
 30
0.0
  0
VERTEX
  5
32F4
330
283B
100
AcDbEntity
  8
0
100
AcDbVertex
100
AcDb2dVertex
 10
1.734896866421415
 20
5.92129790135368
 30
0.0
  0
VERTEX
  5
32F5
330
283B
100
AcDbEntity
  8
0
100
AcDbVertex
100
AcDb2dVertex
 10
1.74408298846866
 20
5.939670145448167
 30
0.0
  0
VERTEX
  5
32F6
330
283B
100
AcDbEntity
  8
0
100
AcDbVertex
100
AcDb2dVertex
 10
1.761142929413541
 20
5.950168570645018
 30
0.0
  0
VERTEX
  5
32F7
330
283B
100
AcDbEntity
  8
0
100
AcDbVertex
100
AcDb2dVertex
 10
1.782139779807243
 20
5.950168570645018
 30
0.0
  0
VERTEX
  5
32F8
330
283B
100
AcDbEntity
  8
0
100
AcDbVertex
100
AcDb2dVertex
 10
1.799199720752124
 20
5.939670145448167
 30
0.0
  0
VERTEX
  5
32F9
330
283B
100
AcDbEntity
  8
0
100
AcDbVertex
100
AcDb2dVertex
 10
1.808385842799368
 20
5.92129790135368
 30
0.0
  0
VERTEX
  5
32FA
330
283B
100
AcDbEntity
  8
0
100
AcDbVertex
100
AcDb2dVertex
 10
1.804448933350549
 20
5.90030105095998
 30
0.0
  0
VERTEX
  5
32FB
330
283B
100
AcDbEntity
  8
0
100
AcDbVertex
100
AcDb2dVertex
 10
1.791325901854486
 20
5.884553413164704
 30
0.0
  0
VERTEX
  5
32FC
330
283B
100
AcDbEntity
  8
0
100
AcDbVertex
100
AcDb2dVertex
 10
1.771641354610392
 20
5.879304200566279
 30
0.0
  0
SEQEND
  5
32FD
330
283B
100
AcDbEntity
  8
0
  0
LINE
  5
2849
330
1E
100
AcDbEntity
  8
0
100
AcDbLine
 10
2.728310350673384
 20
5.985600755684388
 30
0.0
 11
2.726998047523777
 21
5.985600755684388
 31
0.0
  0
LINE
  5
284A
330
1E
100
AcDbEntity
  8
0
100
AcDbLine
 10
2.751931807366297
 20
5.985600755684388
 30
0.0
 11
2.726998047523777
 21
5.985600755684388
 31
0.0
  0
LINE
  5
284B
330
1E
100
AcDbEntity
  8
0
100
AcDbLine
 10
2.728310350673384
 20
6.03809288166864
 30
0.0
 11
2.726998047523777
 21
6.036780578519034
 31
0.0
  0
LINE
  5
284C
330
1E
100
AcDbEntity
  8
0
100
AcDbLine
 10
2.726998047523777
 20
6.036780578519034
 30
0.0
 11
2.726998047523777
 21
5.985600755684388
 31
0.0
  0
LINE
  5
284D
330
1E
100
AcDbEntity
  8
0
100
AcDbLine
 10
1.450127082956849
 20
6.03809288166864
 30
0.0
 11
1.450127082956849
 21
6.036780578519034
 31
0.0
  0
LINE
  5
284E
330
1E
100
AcDbEntity
  8
0
100
AcDbLine
 10
1.450127082956849
 20
6.036780578519034
 30
0.0
 11
1.451439386106455
 21
6.036780578519034
 31
0.0
  0
LINE
  5
284F
330
1E
100
AcDbEntity
  8
0
100
AcDbLine
 10
2.726998047523777
 20
6.036780578519034
 30
0.0
 11
2.726998047523777
 21
6.036780578519034
 31
0.0
  0
LINE
  5
2850
330
1E
100
AcDbEntity
  8
0
100
AcDbLine
 10
2.726998047523777
 20
5.794004495841869
 30
0.0
 11
2.726998047523777
 21
5.845184318676514
 31
0.0
  0
LINE
  5
2851
330
1E
100
AcDbEntity
  8
0
100
AcDbLine
 10
2.728310350673384
 20
5.792692192692262
 30
0.0
 11
2.726998047523777
 21
5.794004495841869
 31
0.0
  0
LINE
  5
2852
330
1E
100
AcDbEntity
  8
0
100
AcDbLine
 10
1.450127082956849
 20
5.794004495841869
 30
0.0
 11
1.451439386106455
 21
5.794004495841869
 31
0.0
  0
LINE
  5
2853
330
1E
100
AcDbEntity
  8
0
100
AcDbLine
 10
1.450127082956849
 20
5.792692192692262
 30
0.0
 11
1.450127082956849
 21
5.794004495841869
 31
0.0
  0
LINE
  5
2854
330
1E
100
AcDbEntity
  8
0
100
AcDbLine
 10
2.726998047523777
 20
5.794004495841869
 30
0.0
 11
2.726998047523777
 21
5.794004495841869
 31
0.0
  0
POLYLINE
  5
2855
330
1E
100
AcDbEntity
  8
0
100
AcDb2dPolyline
 66
     1
 10
0.0
 20
0.0
 30
0.0
  0
VERTEX
  5
32FE
330
2855
100
AcDbEntity
  8
0
100
AcDbVertex
100
AcDb2dVertex
 10
2.40679607901984
 20
5.879304200566279
 30
0.0
  0
VERTEX
  5
32FF
330
2855
100
AcDbEntity
  8
0
100
AcDbVertex
100
AcDb2dVertex
 10
2.387111531775746
 20
5.884553413164704
 30
0.0
  0
VERTEX
  5
3300
330
2855
100
AcDbEntity
  8
0
100
AcDbVertex
100
AcDb2dVertex
 10
2.373988500279683
 20
5.90030105095998
 30
0.0
  0
VERTEX
  5
3301
330
2855
100
AcDbEntity
  8
0
100
AcDbVertex
100
AcDb2dVertex
 10
2.371363893980471
 20
5.919985598204073
 30
0.0
  0
VERTEX
  5
3302
330
2855
100
AcDbEntity
  8
0
100
AcDbVertex
100
AcDb2dVertex
 10
2.379237712878109
 20
5.939670145448167
 30
0.0
  0
VERTEX
  5
3303
330
2855
100
AcDbEntity
  8
0
100
AcDbVertex
100
AcDb2dVertex
 10
2.39629765382299
 20
5.950168570645018
 30
0.0
  0
VERTEX
  5
3304
330
2855
100
AcDbEntity
  8
0
100
AcDbVertex
100
AcDb2dVertex
 10
2.417294504216691
 20
5.950168570645018
 30
0.0
  0
VERTEX
  5
3305
330
2855
100
AcDbEntity
  8
0
100
AcDbVertex
100
AcDb2dVertex
 10
2.434354445161573
 20
5.939670145448167
 30
0.0
  0
VERTEX
  5
3306
330
2855
100
AcDbEntity
  8
0
100
AcDbVertex
100
AcDb2dVertex
 10
2.442228264059211
 20
5.919985598204073
 30
0.0
  0
VERTEX
  5
3307
330
2855
100
AcDbEntity
  8
0
100
AcDbVertex
100
AcDb2dVertex
 10
2.439603657759998
 20
5.90030105095998
 30
0.0
  0
VERTEX
  5
3308
330
2855
100
AcDbEntity
  8
0
100
AcDbVertex
100
AcDb2dVertex
 10
2.426480626263936
 20
5.884553413164704
 30
0.0
  0
VERTEX
  5
3309
330
2855
100
AcDbEntity
  8
0
100
AcDbVertex
100
AcDb2dVertex
 10
2.40679607901984
 20
5.879304200566279
 30
0.0
  0
SEQEND
  5
330A
330
2855
100
AcDbEntity
  8
0
  0
LINE
  5
2863
330
1E
100
AcDbEntity
  8
0
100
AcDbLine
 10
1.526240665634014
 20
4.981688846235569
 30
0.0
 11
1.526240665634014
 21
4.993499574582027
 31
0.0
  0
POLYLINE
  5
2864
330
1E
100
AcDbEntity
  8
0
100
AcDb2dPolyline
 66
     1
 10
0.0
 20
0.0
 30
0.0
  0
VERTEX
  5
330B
330
2864
100
AcDbEntity
  8
0
100
AcDbVertex
100
AcDb2dVertex
 10
1.771641354610392
 20
5.879304200566279
 30
0.0
  0
VERTEX
  5
330C
330
2864
100
AcDbEntity
  8
0
100
AcDbVertex
100
AcDb2dVertex
 10
1.751956807366298
 20
5.884553413164704
 30
0.0
  0
VERTEX
  5
330D
330
2864
100
AcDbEntity
  8
0
100
AcDbVertex
100
AcDb2dVertex
 10
1.738833775870234
 20
5.90030105095998
 30
0.0
  0
VERTEX
  5
330E
330
2864
100
AcDbEntity
  8
0
100
AcDbVertex
100
AcDb2dVertex
 10
1.736209169571022
 20
5.919985598204073
 30
0.0
  0
VERTEX
  5
330F
330
2864
100
AcDbEntity
  8
0
100
AcDbVertex
100
AcDb2dVertex
 10
1.74408298846866
 20
5.939670145448167
 30
0.0
  0
VERTEX
  5
3310
330
2864
100
AcDbEntity
  8
0
100
AcDbVertex
100
AcDb2dVertex
 10
1.761142929413541
 20
5.950168570645018
 30
0.0
  0
VERTEX
  5
3311
330
2864
100
AcDbEntity
  8
0
100
AcDbVertex
100
AcDb2dVertex
 10
1.782139779807243
 20
5.950168570645018
 30
0.0
  0
VERTEX
  5
3312
330
2864
100
AcDbEntity
  8
0
100
AcDbVertex
100
AcDb2dVertex
 10
1.799199720752124
 20
5.939670145448167
 30
0.0
  0
VERTEX
  5
3313
330
2864
100
AcDbEntity
  8
0
100
AcDbVertex
100
AcDb2dVertex
 10
1.807073539649762
 20
5.919985598204073
 30
0.0
  0
VERTEX
  5
3314
330
2864
100
AcDbEntity
  8
0
100
AcDbVertex
100
AcDb2dVertex
 10
1.804448933350549
 20
5.90030105095998
 30
0.0
  0
VERTEX
  5
3315
330
2864
100
AcDbEntity
  8
0
100
AcDbVertex
100
AcDb2dVertex
 10
1.791325901854486
 20
5.884553413164704
 30
0.0
  0
VERTEX
  5
3316
330
2864
100
AcDbEntity
  8
0
100
AcDbVertex
100
AcDb2dVertex
 10
1.771641354610392
 20
5.879304200566279
 30
0.0
  0
SEQEND
  5
3317
330
2864
100
AcDbEntity
  8
0
  0
LINE
  5
2872
330
1E
100
AcDbEntity
  8
0
100
AcDbLine
 10
1.450127082956849
 20
6.036780578519034
 30
0.0
 11
1.450127082956849
 21
5.985600755684388
 31
0.0
  0
LINE
  5
2873
330
1E
100
AcDbEntity
  8
0
100
AcDbLine
 10
1.425193323114329
 20
5.985600755684388
 30
0.0
 11
1.450127082956849
 21
5.985600755684388
 31
0.0
  0
LINE
  5
2874
330
1E
100
AcDbEntity
  8
0
100
AcDbLine
 10
1.425193323114329
 20
5.845184318676514
 30
0.0
 11
1.450127082956849
 21
5.845184318676514
 31
0.0
  0
LINE
  5
2875
330
1E
100
AcDbEntity
  8
0
100
AcDbLine
 10
1.450127082956849
 20
5.794004495841869
 30
0.0
 11
1.450127082956849
 21
5.845184318676514
 31
0.0
  0
LINE
  5
2876
330
1E
100
AcDbEntity
  8
0
100
AcDbLine
 10
1.874001000279683
 20
5.036805578519034
 30
0.0
 11
1.667969405791494
 21
5.036805578519034
 31
0.0
  0
LINE
  5
2877
330
1E
100
AcDbEntity
  8
0
100
AcDbLine
 10
1.667969405791494
 20
5.036805578519034
 30
0.0
 11
1.667969405791494
 21
5.006622606078089
 31
0.0
  0
LINE
  5
2878
330
1E
100
AcDbEntity
  8
0
100
AcDbLine
 10
1.874001000279683
 20
5.006622606078089
 30
0.0
 11
1.667969405791494
 21
5.006622606078089
 31
0.0
  0
LINE
  5
2879
330
1E
100
AcDbEntity
  8
0
100
AcDbLine
 10
1.874001000279683
 20
5.036805578519034
 30
0.0
 11
1.874001000279683
 21
5.006622606078089
 31
0.0
  0
LINE
  5
287A
330
1E
100
AcDbEntity
  8
0
100
AcDbLine
 10
1.667969405791494
 20
5.00268569662927
 30
0.0
 11
1.874001000279683
 21
5.00268569662927
 31
0.0
  0
LINE
  5
287B
330
1E
100
AcDbEntity
  8
0
100
AcDbLine
 10
1.874001000279683
 20
5.00268569662927
 30
0.0
 11
1.874001000279683
 21
5.006622606078089
 31
0.0
  0
LINE
  5
287C
330
1E
100
AcDbEntity
  8
0
100
AcDbLine
 10
1.667969405791494
 20
5.00268569662927
 30
0.0
 11
1.667969405791494
 21
5.006622606078089
 31
0.0
  0
LINE
  5
287D
330
1E
100
AcDbEntity
  8
0
100
AcDbLine
 10
1.874001000279683
 20
4.965941208440294
 30
0.0
 11
1.6692817089411
 21
4.965941208440294
 31
0.0
  0
POLYLINE
  5
287E
330
1E
100
AcDbEntity
  8
0
100
AcDb2dPolyline
 66
     1
 10
0.0
 20
0.0
 30
0.0
  0
VERTEX
  5
3318
330
287E
100
AcDbEntity
  8
0
100
AcDbVertex
100
AcDb2dVertex
 10
1.874001000279683
 20
4.965941208440294
 30
0.0
  0
VERTEX
  5
3319
330
287E
100
AcDbEntity
  8
0
100
AcDbVertex
100
AcDb2dVertex
 10
1.874001000279683
 20
4.985625755684388
 30
0.0
  0
VERTEX
  5
331A
330
287E
100
AcDbEntity
  8
0
100
AcDbVertex
100
AcDb2dVertex
 10
1.874001000279683
 20
5.00268569662927
 30
0.0
  0
SEQEND
  5
331B
330
287E
100
AcDbEntity
  8
0
  0
POLYLINE
  5
2883
330
1E
100
AcDbEntity
  8
0
100
AcDb2dPolyline
 66
     1
 10
0.0
 20
0.0
 30
0.0
  0
VERTEX
  5
331C
330
2883
100
AcDbEntity
  8
0
100
AcDbVertex
100
AcDb2dVertex
 10
1.669281708941101
 20
4.965941208440294
 30
0.0
  0
VERTEX
  5
331D
330
2883
100
AcDbEntity
  8
0
100
AcDbVertex
100
AcDb2dVertex
 10
1.669281708941101
 20
4.985625755684388
 30
0.0
  0
VERTEX
  5
331E
330
2883
100
AcDbEntity
  8
0
100
AcDbVertex
100
AcDb2dVertex
 10
1.667969405791494
 20
5.00268569662927
 30
0.0
  0
SEQEND
  5
331F
330
2883
100
AcDbEntity
  8
0
  0
LINE
  5
2888
330
1E
100
AcDbEntity
  8
0
100
AcDbLine
 10
1.874001000279683
 20
4.955442783243444
 30
0.0
 11
1.6692817089411
 21
4.955442783243444
 31
0.0
  0
LINE
  5
2889
330
1E
100
AcDbEntity
  8
0
100
AcDbLine
 10
1.874001000279683
 20
4.965941208440294
 30
0.0
 11
1.874001000279683
 21
4.955442783243444
 31
0.0
  0
LINE
  5
288A
330
1E
100
AcDbEntity
  8
0
100
AcDbLine
 10
1.6692817089411
 20
4.965941208440294
 30
0.0
 11
1.6692817089411
 21
4.955442783243444
 31
0.0
  0
POLYLINE
  5
288B
330
1E
100
AcDbEntity
  8
0
100
AcDb2dPolyline
 66
     1
 10
0.0
 20
0.0
 30
0.0
  0
VERTEX
  5
3320
330
288B
100
AcDbEntity
  8
0
100
AcDbVertex
100
AcDb2dVertex
 10
1.667969405791494
 20
4.939695145448168
 30
0.0
  0
VERTEX
  5
3321
330
288B
100
AcDbEntity
  8
0
100
AcDbVertex
100
AcDb2dVertex
 10
1.669281708941101
 20
4.944944358046593
 30
0.0
  0
VERTEX
  5
3322
330
288B
100
AcDbEntity
  8
0
100
AcDbVertex
100
AcDb2dVertex
 10
1.669281708941101
 20
4.955442783243444
 30
0.0
  0
SEQEND
  5
3323
330
288B
100
AcDbEntity
  8
0
  0
LINE
  5
2890
330
1E
100
AcDbEntity
  8
0
100
AcDbLine
 10
1.667969405791494
 20
4.939695145448167
 30
0.0
 11
1.875313303429289
 21
4.939695145448167
 31
0.0
  0
POLYLINE
  5
2891
330
1E
100
AcDbEntity
  8
0
100
AcDb2dPolyline
 66
     1
 10
0.0
 20
0.0
 30
0.0
  0
VERTEX
  5
3324
330
2891
100
AcDbEntity
  8
0
100
AcDbVertex
100
AcDb2dVertex
 10
1.875313303429289
 20
4.939695145448168
 30
0.0
  0
VERTEX
  5
3325
330
2891
100
AcDbEntity
  8
0
100
AcDbVertex
100
AcDb2dVertex
 10
1.874001000279683
 20
4.944944358046593
 30
0.0
  0
VERTEX
  5
3326
330
2891
100
AcDbEntity
  8
0
100
AcDbVertex
100
AcDb2dVertex
 10
1.874001000279683
 20
4.955442783243444
 30
0.0
  0
SEQEND
  5
3327
330
2891
100
AcDbEntity
  8
0
  0
LINE
  5
2896
330
1E
100
AcDbEntity
  8
0
100
AcDbLine
 10
1.644347949098581
 20
4.927884417101711
 30
0.0
 11
1.538051393980471
 21
4.927884417101711
 31
0.0
  0
LINE
  5
2897
330
1E
100
AcDbEntity
  8
0
100
AcDbLine
 10
1.469811630200943
 20
4.993499574582027
 30
0.0
 11
1.526240665634014
 21
4.993499574582027
 31
0.0
  0
LINE
  5
2898
330
1E
100
AcDbEntity
  8
0
100
AcDbLine
 10
1.68371704358677
 20
5.614218964345806
 30
0.0
 11
1.859565665634014
 21
5.614218964345806
 31
0.0
  0
LINE
  5
2899
330
1E
100
AcDbEntity
  8
0
100
AcDbLine
 10
2.005231315240313
 20
4.927884417101711
 30
0.0
 11
1.898934760122203
 21
4.927884417101711
 31
0.0
  0
LINE
  5
289A
330
1E
100
AcDbEntity
  8
0
100
AcDbLine
 10
2.01704204358677
 20
4.993499574582027
 30
0.0
 11
2.01704204358677
 21
4.981688846235569
 31
0.0
  0
LINE
  5
289B
330
1E
100
AcDbEntity
  8
0
100
AcDbLine
 10
1.450127082956849
 20
5.985600755684388
 30
0.0
 11
1.450127082956849
 21
5.985600755684388
 31
0.0
  0
LINE
  5
289C
330
1E
100
AcDbEntity
  8
0
100
AcDbLine
 10
1.425193323114329
 20
5.985600755684388
 30
0.0
 11
1.425193323114329
 21
5.985600755684388
 31
0.0
  0
LINE
  5
289D
330
1E
100
AcDbEntity
  8
0
100
AcDbLine
 10
1.425193323114329
 20
5.845184318676514
 30
0.0
 11
1.425193323114329
 21
5.845184318676514
 31
0.0
  0
LINE
  5
289E
330
1E
100
AcDbEntity
  8
0
100
AcDbLine
 10
1.425193323114329
 20
5.845184318676514
 30
0.0
 11
1.426505626263935
 21
5.84649662182612
 31
0.0
  0
LINE
  5
289F
330
1E
100
AcDbEntity
  8
0
100
AcDbLine
 10
1.426505626263935
 20
5.984288452534782
 30
0.0
 11
1.425193323114329
 21
5.985600755684388
 31
0.0
  0
LINE
  5
28A0
330
1E
100
AcDbEntity
  8
0
100
AcDbLine
 10
1.450127082956849
 20
5.845184318676514
 30
0.0
 11
1.450127082956849
 21
5.845184318676514
 31
0.0
  0
LINE
  5
28A1
330
1E
100
AcDbEntity
  8
0
100
AcDbLine
 10
1.372701197130077
 20
6.035468275369428
 30
0.0
 11
1.371388893980471
 21
6.036780578519034
 31
0.0
  0
LINE
  5
28A2
330
1E
100
AcDbEntity
  8
0
100
AcDbLine
 10
1.371388893980471
 20
5.794004495841869
 30
0.0
 11
1.372701197130077
 21
5.795316798991475
 31
0.0
  0
LINE
  5
28A3
330
1E
100
AcDbEntity
  8
0
100
AcDbLine
 10
1.526240665634014
 20
4.993499574582027
 30
0.0
 11
1.526240665634014
 21
4.993499574582027
 31
0.0
  0
LINE
  5
28A4
330
1E
100
AcDbEntity
  8
0
100
AcDbLine
 10
1.898934760122203
 20
4.927884417101711
 30
0.0
 11
1.875313303429289
 21
4.939695145448167
 31
0.0
  0
LINE
  5
28A5
330
1E
100
AcDbEntity
  8
0
100
AcDbLine
 10
1.644347949098581
 20
4.927884417101711
 30
0.0
 11
1.667969405791494
 21
4.939695145448167
 31
0.0
  0
LINE
  5
28A6
330
1E
100
AcDbEntity
  8
0
100
AcDbLine
 10
1.68371704358677
 20
5.653588058833994
 30
0.0
 11
1.68371704358677
 21
5.614218964345806
 31
0.0
  0
LINE
  5
28A7
330
1E
100
AcDbEntity
  8
0
100
AcDbLine
 10
1.859565665634014
 20
5.653588058833994
 30
0.0
 11
1.859565665634014
 21
5.614218964345806
 31
0.0
  0
LINE
  5
28A8
330
1E
100
AcDbEntity
  8
0
100
AcDbLine
 10
0.7939755081536997
 20
3.246824082456042
 30
0.0
 11
0.7913509018544871
 21
3.244199476156829
 31
0.0
  0
LINE
  5
28A9
330
1E
100
AcDbEntity
  8
0
100
AcDbLine
 10
3.387086531775747
 20
3.244199476156829
 30
0.0
 11
3.384461925476534
 21
3.246824082456042
 31
0.0
  0
LINE
  5
28AA
330
1E
100
AcDbEntity
  8
0
100
AcDbLine
 10
2.149584661697006
 20
7.204730381668641
 30
0.0
 11
2.028852771933226
 21
7.204730381668641
 31
0.0
  0
LINE
  5
28AB
330
1E
100
AcDbEntity
  8
0
100
AcDbLine
 10
2.028852771933226
 20
7.070875460408798
 30
0.0
 11
2.149584661697006
 21
7.070875460408798
 31
0.0
  0
POLYLINE
  5
28AC
330
1E
100
AcDbEntity
  8
0
100
AcDb2dPolyline
 66
     1
 10
0.0
 20
0.0
 30
0.0
  0
VERTEX
  5
3328
330
28AC
100
AcDbEntity
  8
0
100
AcDbVertex
100
AcDb2dVertex
 10
2.028852771933226
 20
7.204730381668641
 30
0.0
  0
VERTEX
  5
3329
330
28AC
100
AcDbEntity
  8
0
100
AcDbVertex
100
AcDb2dVertex
 10
1.999982102641888
 20
7.198168865920608
 30
0.0
  0
VERTEX
  5
332A
330
28AC
100
AcDbEntity
  8
0
100
AcDbVertex
100
AcDb2dVertex
 10
1.976360645948974
 20
7.17979662182612
 30
0.0
  0
VERTEX
  5
332B
330
28AC
100
AcDbEntity
  8
0
100
AcDbVertex
100
AcDb2dVertex
 10
1.963237614452912
 20
7.152238255684387
 30
0.0
  0
VERTEX
  5
332C
330
28AC
100
AcDbEntity
  8
0
100
AcDbVertex
100
AcDb2dVertex
 10
1.963237614452912
 20
7.122055283243444
 30
0.0
  0
VERTEX
  5
332D
330
28AC
100
AcDbEntity
  8
0
100
AcDbVertex
100
AcDb2dVertex
 10
1.976360645948974
 20
7.095809220251316
 30
0.0
  0
VERTEX
  5
332E
330
28AC
100
AcDbEntity
  8
0
100
AcDbVertex
100
AcDb2dVertex
 10
1.999982102641888
 20
7.07743697615683
 30
0.0
  0
VERTEX
  5
332F
330
28AC
100
AcDbEntity
  8
0
100
AcDbVertex
100
AcDb2dVertex
 10
2.028852771933226
 20
7.070875460408798
 30
0.0
  0
SEQEND
  5
3330
330
28AC
100
AcDbEntity
  8
0
  0
POLYLINE
  5
28B6
330
1E
100
AcDbEntity
  8
0
100
AcDb2dPolyline
 66
     1
 10
0.0
 20
0.0
 30
0.0
  0
VERTEX
  5
3331
330
28B6
100
AcDbEntity
  8
0
100
AcDbVertex
100
AcDb2dVertex
 10
2.149584661697006
 20
7.070875460408798
 30
0.0
  0
VERTEX
  5
3332
330
28B6
100
AcDbEntity
  8
0
100
AcDbVertex
100
AcDb2dVertex
 10
2.178455330988345
 20
7.07743697615683
 30
0.0
  0
VERTEX
  5
3333
330
28B6
100
AcDbEntity
  8
0
100
AcDbVertex
100
AcDb2dVertex
 10
2.202076787681258
 20
7.095809220251316
 30
0.0
  0
VERTEX
  5
3334
330
28B6
100
AcDbEntity
  8
0
100
AcDbVertex
100
AcDb2dVertex
 10
2.213887516027714
 20
7.122055283243444
 30
0.0
  0
VERTEX
  5
3335
330
28B6
100
AcDbEntity
  8
0
100
AcDbVertex
100
AcDb2dVertex
 10
2.213887516027714
 20
7.152238255684387
 30
0.0
  0
VERTEX
  5
3336
330
28B6
100
AcDbEntity
  8
0
100
AcDbVertex
100
AcDb2dVertex
 10
2.202076787681258
 20
7.17979662182612
 30
0.0
  0
VERTEX
  5
3337
330
28B6
100
AcDbEntity
  8
0
100
AcDbVertex
100
AcDb2dVertex
 10
2.178455330988345
 20
7.198168865920608
 30
0.0
  0
VERTEX
  5
3338
330
28B6
100
AcDbEntity
  8
0
100
AcDbVertex
100
AcDb2dVertex
 10
2.149584661697006
 20
7.204730381668641
 30
0.0
  0
SEQEND
  5
3339
330
28B6
100
AcDbEntity
  8
0
  0
LINE
  5
28C0
330
1E
100
AcDbEntity
  8
0
100
AcDbLine
 10
2.028852771933226
 20
7.206042684818246
 30
0.0
 11
2.028852771933226
 21
7.204730381668641
 31
0.0
  0
LINE
  5
28C1
330
1E
100
AcDbEntity
  8
0
100
AcDbLine
 10
2.149584661697006
 20
7.204730381668641
 30
0.0
 11
2.149584661697006
 21
7.206042684818246
 31
0.0
  0
LINE
  5
28C2
330
1E
100
AcDbEntity
  8
0
100
AcDbLine
 10
2.028852771933226
 20
7.206042684818246
 30
0.0
 11
2.149584661697006
 21
7.206042684818246
 31
0.0
  0
LINE
  5
28C3
330
1E
100
AcDbEntity
  8
0
100
AcDbLine
 10
2.028852771933226
 20
7.250660991904861
 30
0.0
 11
2.028852771933226
 21
7.251973295054467
 31
0.0
  0
LINE
  5
28C4
330
1E
100
AcDbEntity
  8
0
100
AcDbLine
 10
2.028852771933226
 20
7.250660991904861
 30
0.0
 11
2.149584661697006
 21
7.250660991904861
 31
0.0
  0
LINE
  5
28C5
330
1E
100
AcDbEntity
  8
0
100
AcDbLine
 10
2.149584661697006
 20
7.250660991904861
 30
0.0
 11
2.149584661697006
 21
7.251973295054467
 31
0.0
  0
LINE
  5
28C6
330
1E
100
AcDbEntity
  8
0
100
AcDbLine
 10
2.028852771933226
 20
7.251973295054467
 30
0.0
 11
2.149584661697006
 21
7.251973295054467
 31
0.0
  0
LINE
  5
28C7
330
1E
100
AcDbEntity
  8
0
100
AcDbLine
 10
2.149584661697006
 20
7.069563157259191
 30
0.0
 11
2.028852771933226
 21
7.069563157259191
 31
0.0
  0
LINE
  5
28C8
330
1E
100
AcDbEntity
  8
0
100
AcDbLine
 10
2.149584661697006
 20
7.070875460408798
 30
0.0
 11
2.149584661697006
 21
7.069563157259191
 31
0.0
  0
LINE
  5
28C9
330
1E
100
AcDbEntity
  8
0
100
AcDbLine
 10
2.028852771933226
 20
7.069563157259191
 30
0.0
 11
2.028852771933226
 21
7.070875460408798
 31
0.0
  0
LINE
  5
28CA
330
1E
100
AcDbEntity
  8
0
100
AcDbLine
 10
2.409420685319053
 20
7.06693855095998
 30
0.0
 11
2.41073298846866
 21
7.06693855095998
 31
0.0
  0
LINE
  5
28CB
330
1E
100
AcDbEntity
  8
0
100
AcDbLine
 10
2.409420685319053
 20
7.015758728125334
 30
0.0
 11
2.409420685319053
 21
7.06693855095998
 31
0.0
  0
LINE
  5
28CC
330
1E
100
AcDbEntity
  8
0
100
AcDbLine
 10
2.41073298846866
 20
7.015758728125334
 30
0.0
 11
2.409420685319053
 21
7.015758728125334
 31
0.0
  0
LINE
  5
28CD
330
1E
100
AcDbEntity
  8
0
100
AcDbLine
 10
2.41073298846866
 20
7.06693855095998
 30
0.0
 11
2.41073298846866
 21
7.015758728125334
 31
0.0
  0
LINE
  5
28CE
330
1E
100
AcDbEntity
  8
0
100
AcDbLine
 10
2.435666748311179
 20
7.06693855095998
 30
0.0
 11
2.434354445161573
 21
7.06693855095998
 31
0.0
  0
LINE
  5
28CF
330
1E
100
AcDbEntity
  8
0
100
AcDbLine
 10
2.434354445161573
 20
7.06693855095998
 30
0.0
 11
2.409420685319053
 21
7.06693855095998
 31
0.0
  0
LINE
  5
28D0
330
1E
100
AcDbEntity
  8
0
100
AcDbLine
 10
2.41073298846866
 20
7.06693855095998
 30
0.0
 11
2.435666748311179
 21
7.06693855095998
 31
0.0
  0
LINE
  5
28D1
330
1E
100
AcDbEntity
  8
0
100
AcDbLine
 10
2.41073298846866
 20
7.207354987967853
 30
0.0
 11
2.409420685319053
 21
7.207354987967853
 31
0.0
  0
LINE
  5
28D2
330
1E
100
AcDbEntity
  8
0
100
AcDbLine
 10
2.434354445161573
 20
7.207354987967853
 30
0.0
 11
2.409420685319053
 21
7.207354987967853
 31
0.0
  0
LINE
  5
28D3
330
1E
100
AcDbEntity
  8
0
100
AcDbLine
 10
2.435666748311179
 20
7.207354987967853
 30
0.0
 11
2.434354445161573
 21
7.207354987967853
 31
0.0
  0
LINE
  5
28D4
330
1E
100
AcDbEntity
  8
0
100
AcDbLine
 10
2.41073298846866
 20
7.207354987967853
 30
0.0
 11
2.435666748311179
 21
7.207354987967853
 31
0.0
  0
LINE
  5
28D5
330
1E
100
AcDbEntity
  8
0
100
AcDbLine
 10
2.41073298846866
 20
7.259847113952105
 30
0.0
 11
2.409420685319053
 21
7.259847113952105
 31
0.0
  0
LINE
  5
28D6
330
1E
100
AcDbEntity
  8
0
100
AcDbLine
 10
2.409420685319053
 20
7.259847113952105
 30
0.0
 11
2.409420685319053
 21
7.207354987967853
 31
0.0
  0
LINE
  5
28D7
330
1E
100
AcDbEntity
  8
0
100
AcDbLine
 10
2.41073298846866
 20
7.259847113952105
 30
0.0
 11
2.41073298846866
 21
7.207354987967853
 31
0.0
  0
LINE
  5
28D8
330
1E
100
AcDbEntity
  8
0
100
AcDbLine
 10
1.767704445161573
 20
7.259847113952105
 30
0.0
 11
1.767704445161573
 21
7.259847113952105
 31
0.0
  0
LINE
  5
28D9
330
1E
100
AcDbEntity
  8
0
100
AcDbLine
 10
1.767704445161573
 20
7.259847113952105
 30
0.0
 11
1.767704445161573
 21
7.207354987967853
 31
0.0
  0
LINE
  5
28DA
330
1E
100
AcDbEntity
  8
0
100
AcDbLine
 10
1.767704445161573
 20
7.207354987967853
 30
0.0
 11
1.767704445161573
 21
7.207354987967853
 31
0.0
  0
LINE
  5
28DB
330
1E
100
AcDbEntity
  8
0
100
AcDbLine
 10
1.767704445161573
 20
7.259847113952105
 30
0.0
 11
1.767704445161573
 21
7.207354987967853
 31
0.0
  0
LINE
  5
28DC
330
1E
100
AcDbEntity
  8
0
100
AcDbLine
 10
1.767704445161573
 20
7.207354987967853
 30
0.0
 11
1.742770685319053
 21
7.207354987967853
 31
0.0
  0
LINE
  5
28DD
330
1E
100
AcDbEntity
  8
0
100
AcDbLine
 10
1.742770685319053
 20
7.207354987967853
 30
0.0
 11
1.742770685319053
 21
7.207354987967853
 31
0.0
  0
LINE
  5
28DE
330
1E
100
AcDbEntity
  8
0
100
AcDbLine
 10
1.742770685319053
 20
7.207354987967853
 30
0.0
 11
1.767704445161573
 21
7.207354987967853
 31
0.0
  0
LINE
  5
28DF
330
1E
100
AcDbEntity
  8
0
100
AcDbLine
 10
1.742770685319053
 20
7.06693855095998
 30
0.0
 11
1.742770685319053
 21
7.06693855095998
 31
0.0
  0
LINE
  5
28E0
330
1E
100
AcDbEntity
  8
0
100
AcDbLine
 10
1.767704445161573
 20
7.06693855095998
 30
0.0
 11
1.742770685319053
 21
7.06693855095998
 31
0.0
  0
LINE
  5
28E1
330
1E
100
AcDbEntity
  8
0
100
AcDbLine
 10
1.767704445161573
 20
7.06693855095998
 30
0.0
 11
1.767704445161573
 21
7.06693855095998
 31
0.0
  0
LINE
  5
28E2
330
1E
100
AcDbEntity
  8
0
100
AcDbLine
 10
1.742770685319053
 20
7.06693855095998
 30
0.0
 11
1.767704445161573
 21
7.06693855095998
 31
0.0
  0
LINE
  5
28E3
330
1E
100
AcDbEntity
  8
0
100
AcDbLine
 10
1.767704445161573
 20
7.06693855095998
 30
0.0
 11
1.767704445161573
 21
7.015758728125334
 31
0.0
  0
LINE
  5
28E4
330
1E
100
AcDbEntity
  8
0
100
AcDbLine
 10
1.767704445161573
 20
7.015758728125334
 30
0.0
 11
1.767704445161573
 21
7.015758728125334
 31
0.0
  0
LINE
  5
28E5
330
1E
100
AcDbEntity
  8
0
100
AcDbLine
 10
1.767704445161573
 20
7.015758728125334
 30
0.0
 11
1.767704445161573
 21
7.06693855095998
 31
0.0
  0
LINE
  5
28E6
330
1E
100
AcDbEntity
  8
0
100
AcDbLine
 10
1.742770685319053
 20
7.207354987967853
 30
0.0
 11
1.742770685319053
 21
7.06693855095998
 31
0.0
  0
LINE
  5
28E7
330
1E
100
AcDbEntity
  8
0
100
AcDbLine
 10
1.744082988468659
 20
7.068250854109585
 30
0.0
 11
1.742770685319053
 21
7.06693855095998
 31
0.0
  0
LINE
  5
28E8
330
1E
100
AcDbEntity
  8
0
100
AcDbLine
 10
1.744082988468659
 20
7.207354987967853
 30
0.0
 11
1.744082988468659
 21
7.068250854109585
 31
0.0
  0
LINE
  5
28E9
330
1E
100
AcDbEntity
  8
0
100
AcDbLine
 10
1.742770685319053
 20
7.207354987967853
 30
0.0
 11
1.744082988468659
 21
7.207354987967853
 31
0.0
  0
LINE
  5
28EA
330
1E
100
AcDbEntity
  8
0
100
AcDbLine
 10
2.435666748311179
 20
7.207354987967853
 30
0.0
 11
2.435666748311179
 21
7.06693855095998
 31
0.0
  0
LINE
  5
28EB
330
1E
100
AcDbEntity
  8
0
100
AcDbLine
 10
2.434354445161573
 20
7.207354987967853
 30
0.0
 11
2.434354445161573
 21
7.207354987967853
 31
0.0
  0
LINE
  5
28EC
330
1E
100
AcDbEntity
  8
0
100
AcDbLine
 10
2.434354445161573
 20
7.207354987967853
 30
0.0
 11
2.434354445161573
 21
7.068250854109585
 31
0.0
  0
LINE
  5
28ED
330
1E
100
AcDbEntity
  8
0
100
AcDbLine
 10
2.434354445161573
 20
7.068250854109585
 30
0.0
 11
2.434354445161573
 21
7.06693855095998
 31
0.0
  0
LINE
  5
28EE
330
1E
100
AcDbEntity
  8
0
100
AcDbLine
 10
1.767704445161573
 20
7.259847113952105
 30
0.0
 11
2.41073298846866
 21
7.259847113952105
 31
0.0
  0
LINE
  5
28EF
330
1E
100
AcDbEntity
  8
0
100
AcDbLine
 10
1.767704445161573
 20
7.259847113952105
 30
0.0
 11
1.76901674831118
 21
7.258534810802498
 31
0.0
  0
LINE
  5
28F0
330
1E
100
AcDbEntity
  8
0
100
AcDbLine
 10
1.76901674831118
 20
7.258534810802498
 30
0.0
 11
2.409420685319053
 21
7.258534810802498
 31
0.0
  0
LINE
  5
28F1
330
1E
100
AcDbEntity
  8
0
100
AcDbLine
 10
2.409420685319053
 20
7.259847113952105
 30
0.0
 11
2.409420685319053
 21
7.258534810802498
 31
0.0
  0
LINE
  5
28F2
330
1E
100
AcDbEntity
  8
0
100
AcDbLine
 10
1.68371704358677
 20
7.042004791117459
 30
0.0
 11
1.68371704358677
 21
7.042004791117459
 31
0.0
  0
LINE
  5
28F3
330
1E
100
AcDbEntity
  8
0
100
AcDbLine
 10
1.68371704358677
 20
7.042004791117459
 30
0.0
 11
1.68371704358677
 21
7.232288747810372
 31
0.0
  0
LINE
  5
28F4
330
1E
100
AcDbEntity
  8
0
100
AcDbLine
 10
1.68371704358677
 20
7.232288747810372
 30
0.0
 11
1.68371704358677
 21
7.232288747810372
 31
0.0
  0
POLYLINE
  5
28F5
330
1E
100
AcDbEntity
  8
0
100
AcDb2dPolyline
 66
     1
 10
0.0
 20
0.0
 30
0.0
  0
VERTEX
  5
333A
330
28F5
100
AcDbEntity
  8
0
100
AcDbVertex
100
AcDb2dVertex
 10
1.674530921539526
 20
7.242787173007222
 30
0.0
  0
VERTEX
  5
333B
330
28F5
100
AcDbEntity
  8
0
100
AcDbVertex
100
AcDb2dVertex
 10
1.678467830988345
 20
7.241474869857617
 30
0.0
  0
VERTEX
  5
333C
330
28F5
100
AcDbEntity
  8
0
100
AcDbVertex
100
AcDb2dVertex
 10
1.681092437287557
 20
7.24016256670801
 30
0.0
  0
VERTEX
  5
333D
330
28F5
100
AcDbEntity
  8
0
100
AcDbVertex
100
AcDb2dVertex
 10
1.68371704358677
 20
7.236225657259192
 30
0.0
  0
VERTEX
  5
333E
330
28F5
100
AcDbEntity
  8
0
100
AcDbVertex
100
AcDb2dVertex
 10
1.68371704358677
 20
7.234913354109584
 30
0.0
  0
VERTEX
  5
333F
330
28F5
100
AcDbEntity
  8
0
100
AcDbVertex
100
AcDb2dVertex
 10
1.68371704358677
 20
7.232288747810372
 30
0.0
  0
SEQEND
  5
3340
330
28F5
100
AcDbEntity
  8
0
  0
POLYLINE
  5
28FD
330
1E
100
AcDbEntity
  8
0
100
AcDb2dPolyline
 66
     1
 10
0.0
 20
0.0
 30
0.0
  0
VERTEX
  5
3341
330
28FD
100
AcDbEntity
  8
0
100
AcDbVertex
100
AcDb2dVertex
 10
1.674530921539526
 20
7.032818669070215
 30
0.0
  0
VERTEX
  5
3342
330
28FD
100
AcDbEntity
  8
0
100
AcDbVertex
100
AcDb2dVertex
 10
1.675843224689132
 20
7.032818669070215
 30
0.0
  0
VERTEX
  5
3343
330
28FD
100
AcDbEntity
  8
0
100
AcDbVertex
100
AcDb2dVertex
 10
1.678467830988345
 20
7.032818669070215
 30
0.0
  0
VERTEX
  5
3344
330
28FD
100
AcDbEntity
  8
0
100
AcDbVertex
100
AcDb2dVertex
 10
1.681092437287557
 20
7.035443275369429
 30
0.0
  0
VERTEX
  5
3345
330
28FD
100
AcDbEntity
  8
0
100
AcDbVertex
100
AcDb2dVertex
 10
1.68371704358677
 20
7.03806788166864
 30
0.0
  0
VERTEX
  5
3346
330
28FD
100
AcDbEntity
  8
0
100
AcDbVertex
100
AcDb2dVertex
 10
1.68371704358677
 20
7.040692487967854
 30
0.0
  0
VERTEX
  5
3347
330
28FD
100
AcDbEntity
  8
0
100
AcDbVertex
100
AcDb2dVertex
 10
1.68371704358677
 20
7.042004791117459
 30
0.0
  0
SEQEND
  5
3348
330
28FD
100
AcDbEntity
  8
0
  0
LINE
  5
2906
330
1E
100
AcDbEntity
  8
0
100
AcDbLine
 10
2.493408086893857
 20
7.232288747810372
 30
0.0
 11
2.493408086893857
 21
7.232288747810372
 31
0.0
  0
LINE
  5
2907
330
1E
100
AcDbEntity
  8
0
100
AcDbLine
 10
2.493408086893857
 20
7.042004791117459
 30
0.0
 11
2.493408086893857
 21
7.232288747810372
 31
0.0
  0
LINE
  5
2908
330
1E
100
AcDbEntity
  8
0
100
AcDbLine
 10
2.493408086893857
 20
7.042004791117459
 30
0.0
 11
2.493408086893857
 21
7.042004791117459
 31
0.0
  0
POLYLINE
  5
2909
330
1E
100
AcDbEntity
  8
0
100
AcDb2dPolyline
 66
     1
 10
0.0
 20
0.0
 30
0.0
  0
VERTEX
  5
3349
330
2909
100
AcDbEntity
  8
0
100
AcDbVertex
100
AcDb2dVertex
 10
2.503906512090707
 20
7.032818669070215
 30
0.0
  0
VERTEX
  5
334A
330
2909
100
AcDbEntity
  8
0
100
AcDbVertex
100
AcDb2dVertex
 10
2.499969602641888
 20
7.032818669070215
 30
0.0
  0
VERTEX
  5
334B
330
2909
100
AcDbEntity
  8
0
100
AcDbVertex
100
AcDb2dVertex
 10
2.497344996342675
 20
7.035443275369429
 30
0.0
  0
VERTEX
  5
334C
330
2909
100
AcDbEntity
  8
0
100
AcDbVertex
100
AcDb2dVertex
 10
2.494720390043462
 20
7.03806788166864
 30
0.0
  0
VERTEX
  5
334D
330
2909
100
AcDbEntity
  8
0
100
AcDbVertex
100
AcDb2dVertex
 10
2.494720390043462
 20
7.040692487967854
 30
0.0
  0
VERTEX
  5
334E
330
2909
100
AcDbEntity
  8
0
100
AcDbVertex
100
AcDb2dVertex
 10
2.493408086893857
 20
7.042004791117459
 30
0.0
  0
SEQEND
  5
334F
330
2909
100
AcDbEntity
  8
0
  0
POLYLINE
  5
2911
330
1E
100
AcDbEntity
  8
0
100
AcDb2dPolyline
 66
     1
 10
0.0
 20
0.0
 30
0.0
  0
VERTEX
  5
3350
330
2911
100
AcDbEntity
  8
0
100
AcDbVertex
100
AcDb2dVertex
 10
2.503906512090707
 20
7.242787173007222
 30
0.0
  0
VERTEX
  5
3351
330
2911
100
AcDbEntity
  8
0
100
AcDbVertex
100
AcDb2dVertex
 10
2.5025942089411
 20
7.242787173007222
 30
0.0
  0
VERTEX
  5
3352
330
2911
100
AcDbEntity
  8
0
100
AcDbVertex
100
AcDb2dVertex
 10
2.499969602641888
 20
7.241474869857617
 30
0.0
  0
VERTEX
  5
3353
330
2911
100
AcDbEntity
  8
0
100
AcDbVertex
100
AcDb2dVertex
 10
2.497344996342675
 20
7.24016256670801
 30
0.0
  0
VERTEX
  5
3354
330
2911
100
AcDbEntity
  8
0
100
AcDbVertex
100
AcDb2dVertex
 10
2.494720390043462
 20
7.236225657259192
 30
0.0
  0
VERTEX
  5
3355
330
2911
100
AcDbEntity
  8
0
100
AcDbVertex
100
AcDb2dVertex
 10
2.494720390043462
 20
7.234913354109584
 30
0.0
  0
VERTEX
  5
3356
330
2911
100
AcDbEntity
  8
0
100
AcDbVertex
100
AcDb2dVertex
 10
2.493408086893857
 20
7.232288747810372
 30
0.0
  0
SEQEND
  5
3357
330
2911
100
AcDbEntity
  8
0
  0
LINE
  5
291A
330
1E
100
AcDbEntity
  8
0
100
AcDbLine
 10
1.76901674831118
 20
7.017071031274939
 30
0.0
 11
2.02754046878362
 21
7.017071031274939
 31
0.0
  0
LINE
  5
291B
330
1E
100
AcDbEntity
  8
0
100
AcDbLine
 10
1.767704445161573
 20
7.015758728125334
 30
0.0
 11
1.76901674831118
 21
7.017071031274939
 31
0.0
  0
LINE
  5
291C
330
1E
100
AcDbEntity
  8
0
100
AcDbLine
 10
1.767704445161573
 20
7.015758728125334
 30
0.0
 11
2.026228165634014
 21
7.015758728125334
 31
0.0
  0
LINE
  5
291D
330
1E
100
AcDbEntity
  8
0
100
AcDbLine
 10
2.026228165634014
 20
7.015758728125334
 30
0.0
 11
2.02754046878362
 21
7.017071031274939
 31
0.0
  0
LINE
  5
291E
330
1E
100
AcDbEntity
  8
0
100
AcDbLine
 10
2.028852771933226
 20
7.023632547022971
 30
0.0
 11
2.02754046878362
 21
7.022320243873364
 31
0.0
  0
POLYLINE
  5
291F
330
1E
100
AcDbEntity
  8
0
100
AcDb2dPolyline
 66
     1
 10
0.0
 20
0.0
 30
0.0
  0
VERTEX
  5
3358
330
291F
100
AcDbEntity
  8
0
100
AcDbVertex
100
AcDb2dVertex
 10
2.028852771933226
 20
7.250660991904862
 30
0.0
  0
VERTEX
  5
3359
330
291F
100
AcDbEntity
  8
0
100
AcDbVertex
100
AcDb2dVertex
 10
1.993420586893856
 20
7.245411779306435
 30
0.0
  0
VERTEX
  5
335A
330
291F
100
AcDbEntity
  8
0
100
AcDbVertex
100
AcDb2dVertex
 10
1.961925311303306
 20
7.229664141511159
 30
0.0
  0
VERTEX
  5
335B
330
291F
100
AcDbEntity
  8
0
100
AcDbVertex
100
AcDb2dVertex
 10
1.936991551460786
 20
7.204730381668641
 30
0.0
  0
VERTEX
  5
335C
330
291F
100
AcDbEntity
  8
0
100
AcDbVertex
100
AcDb2dVertex
 10
1.92124391366551
 20
7.173235106078088
 30
0.0
  0
VERTEX
  5
335D
330
291F
100
AcDbEntity
  8
0
100
AcDbVertex
100
AcDb2dVertex
 10
1.915994701067085
 20
7.137802921038719
 30
0.0
  0
VERTEX
  5
335E
330
291F
100
AcDbEntity
  8
0
100
AcDbVertex
100
AcDb2dVertex
 10
1.92124391366551
 20
7.102370735999349
 30
0.0
  0
VERTEX
  5
335F
330
291F
100
AcDbEntity
  8
0
100
AcDbVertex
100
AcDb2dVertex
 10
1.936991551460786
 20
7.070875460408798
 30
0.0
  0
VERTEX
  5
3360
330
291F
100
AcDbEntity
  8
0
100
AcDbVertex
100
AcDb2dVertex
 10
1.961925311303306
 20
7.045941700566279
 30
0.0
  0
VERTEX
  5
3361
330
291F
100
AcDbEntity
  8
0
100
AcDbVertex
100
AcDb2dVertex
 10
1.993420586893856
 20
7.030194062771004
 30
0.0
  0
VERTEX
  5
3362
330
291F
100
AcDbEntity
  8
0
100
AcDbVertex
100
AcDb2dVertex
 10
2.028852771933226
 20
7.023632547022971
 30
0.0
  0
SEQEND
  5
3363
330
291F
100
AcDbEntity
  8
0
  0
POLYLINE
  5
292C
330
1E
100
AcDbEntity
  8
0
100
AcDb2dPolyline
 66
     1
 10
0.0
 20
0.0
 30
0.0
  0
VERTEX
  5
3364
330
292C
100
AcDbEntity
  8
0
100
AcDbVertex
100
AcDb2dVertex
 10
2.028852771933226
 20
7.251973295054467
 30
0.0
  0
VERTEX
  5
3365
330
292C
100
AcDbEntity
  8
0
100
AcDbVertex
100
AcDb2dVertex
 10
1.993420586893856
 20
7.246724082456042
 30
0.0
  0
VERTEX
  5
3366
330
292C
100
AcDbEntity
  8
0
100
AcDbVertex
100
AcDb2dVertex
 10
1.961925311303306
 20
7.230976444660766
 30
0.0
  0
VERTEX
  5
3367
330
292C
100
AcDbEntity
  8
0
100
AcDbVertex
100
AcDb2dVertex
 10
1.936991551460786
 20
7.206042684818246
 30
0.0
  0
VERTEX
  5
3368
330
292C
100
AcDbEntity
  8
0
100
AcDbVertex
100
AcDb2dVertex
 10
1.919931610515904
 20
7.173235106078088
 30
0.0
  0
VERTEX
  5
3369
330
292C
100
AcDbEntity
  8
0
100
AcDbVertex
100
AcDb2dVertex
 10
1.914682397917479
 20
7.139115224188325
 30
0.0
  0
VERTEX
  5
336A
330
292C
100
AcDbEntity
  8
0
100
AcDbVertex
100
AcDb2dVertex
 10
1.919931610515904
 20
7.103683039148956
 30
0.0
  0
VERTEX
  5
336B
330
292C
100
AcDbEntity
  8
0
100
AcDbVertex
100
AcDb2dVertex
 10
1.935679248311179
 20
7.070875460408798
 30
0.0
  0
VERTEX
  5
336C
330
292C
100
AcDbEntity
  8
0
100
AcDbVertex
100
AcDb2dVertex
 10
1.960613008153699
 20
7.045941700566279
 30
0.0
  0
VERTEX
  5
336D
330
292C
100
AcDbEntity
  8
0
100
AcDbVertex
100
AcDb2dVertex
 10
1.99210828374425
 20
7.028881759621397
 30
0.0
  0
VERTEX
  5
336E
330
292C
100
AcDbEntity
  8
0
100
AcDbVertex
100
AcDb2dVertex
 10
2.02754046878362
 20
7.022320243873364
 30
0.0
  0
SEQEND
  5
336F
330
292C
100
AcDbEntity
  8
0
  0
LINE
  5
2939
330
1E
100
AcDbEntity
  8
0
100
AcDbLine
 10
2.028852771933226
 20
7.069563157259191
 30
0.0
 11
2.028852771933226
 21
7.069563157259191
 31
0.0
  0
POLYLINE
  5
293A
330
1E
100
AcDbEntity
  8
0
100
AcDb2dPolyline
 66
     1
 10
0.0
 20
0.0
 30
0.0
  0
VERTEX
  5
3370
330
293A
100
AcDbEntity
  8
0
100
AcDbVertex
100
AcDb2dVertex
 10
2.028852771933226
 20
7.069563157259191
 30
0.0
  0
VERTEX
  5
3371
330
293A
100
AcDbEntity
  8
0
100
AcDbVertex
100
AcDb2dVertex
 10
1.998669799492282
 20
7.076124673007223
 30
0.0
  0
VERTEX
  5
3372
330
293A
100
AcDbEntity
  8
0
100
AcDbVertex
100
AcDb2dVertex
 10
1.975048342799368
 20
7.095809220251316
 30
0.0
  0
VERTEX
  5
3373
330
293A
100
AcDbEntity
  8
0
100
AcDbVertex
100
AcDb2dVertex
 10
1.963237614452912
 20
7.123367586393049
 30
0.0
  0
VERTEX
  5
3374
330
293A
100
AcDbEntity
  8
0
100
AcDbVertex
100
AcDb2dVertex
 10
1.963237614452912
 20
7.153550558833995
 30
0.0
  0
VERTEX
  5
3375
330
293A
100
AcDbEntity
  8
0
100
AcDbVertex
100
AcDb2dVertex
 10
1.976360645948974
 20
7.17979662182612
 30
0.0
  0
VERTEX
  5
3376
330
293A
100
AcDbEntity
  8
0
100
AcDbVertex
100
AcDb2dVertex
 10
1.999982102641888
 20
7.199481169070216
 30
0.0
  0
VERTEX
  5
3377
330
293A
100
AcDbEntity
  8
0
100
AcDbVertex
100
AcDb2dVertex
 10
2.028852771933226
 20
7.206042684818246
 30
0.0
  0
SEQEND
  5
3378
330
293A
100
AcDbEntity
  8
0
  0
POLYLINE
  5
2944
330
1E
100
AcDbEntity
  8
0
100
AcDb2dPolyline
 66
     1
 10
0.0
 20
0.0
 30
0.0
  0
VERTEX
  5
3379
330
2944
100
AcDbEntity
  8
0
100
AcDbVertex
100
AcDb2dVertex
 10
2.149584661697006
 20
7.206042684818246
 30
0.0
  0
VERTEX
  5
337A
330
2944
100
AcDbEntity
  8
0
100
AcDbVertex
100
AcDb2dVertex
 10
2.178455330988345
 20
7.199481169070216
 30
0.0
  0
VERTEX
  5
337B
330
2944
100
AcDbEntity
  8
0
100
AcDbVertex
100
AcDb2dVertex
 10
2.202076787681258
 20
7.17979662182612
 30
0.0
  0
VERTEX
  5
337C
330
2944
100
AcDbEntity
  8
0
100
AcDbVertex
100
AcDb2dVertex
 10
2.215199819177321
 20
7.153550558833995
 30
0.0
  0
VERTEX
  5
337D
330
2944
100
AcDbEntity
  8
0
100
AcDbVertex
100
AcDb2dVertex
 10
2.215199819177321
 20
7.123367586393049
 30
0.0
  0
VERTEX
  5
337E
330
2944
100
AcDbEntity
  8
0
100
AcDbVertex
100
AcDb2dVertex
 10
2.202076787681258
 20
7.095809220251316
 30
0.0
  0
VERTEX
  5
337F
330
2944
100
AcDbEntity
  8
0
100
AcDbVertex
100
AcDb2dVertex
 10
2.179767634137951
 20
7.076124673007223
 30
0.0
  0
VERTEX
  5
3380
330
2944
100
AcDbEntity
  8
0
100
AcDbVertex
100
AcDb2dVertex
 10
2.149584661697006
 20
7.069563157259191
 30
0.0
  0
SEQEND
  5
3381
330
2944
100
AcDbEntity
  8
0
  0
LINE
  5
294E
330
1E
100
AcDbEntity
  8
0
100
AcDbLine
 10
2.149584661697006
 20
7.069563157259191
 30
0.0
 11
2.149584661697006
 21
7.023632547022971
 31
0.0
  0
POLYLINE
  5
294F
330
1E
100
AcDbEntity
  8
0
100
AcDb2dPolyline
 66
     1
 10
0.0
 20
0.0
 30
0.0
  0
VERTEX
  5
3382
330
294F
100
AcDbEntity
  8
0
100
AcDbVertex
100
AcDb2dVertex
 10
2.149584661697006
 20
7.023632547022971
 30
0.0
  0
VERTEX
  5
3383
330
294F
100
AcDbEntity
  8
0
100
AcDbVertex
100
AcDb2dVertex
 10
2.185016846736376
 20
7.030194062771004
 30
0.0
  0
VERTEX
  5
3384
330
294F
100
AcDbEntity
  8
0
100
AcDbVertex
100
AcDb2dVertex
 10
2.216512122326927
 20
7.045941700566279
 30
0.0
  0
VERTEX
  5
3385
330
294F
100
AcDbEntity
  8
0
100
AcDbVertex
100
AcDb2dVertex
 10
2.241445882169447
 20
7.070875460408798
 30
0.0
  0
VERTEX
  5
3386
330
294F
100
AcDbEntity
  8
0
100
AcDbVertex
100
AcDb2dVertex
 10
2.257193519964723
 20
7.102370735999349
 30
0.0
  0
VERTEX
  5
3387
330
294F
100
AcDbEntity
  8
0
100
AcDbVertex
100
AcDb2dVertex
 10
2.262442732563148
 20
7.137802921038719
 30
0.0
  0
VERTEX
  5
3388
330
294F
100
AcDbEntity
  8
0
100
AcDbVertex
100
AcDb2dVertex
 10
2.257193519964723
 20
7.173235106078088
 30
0.0
  0
VERTEX
  5
3389
330
294F
100
AcDbEntity
  8
0
100
AcDbVertex
100
AcDb2dVertex
 10
2.241445882169447
 20
7.204730381668641
 30
0.0
  0
VERTEX
  5
338A
330
294F
100
AcDbEntity
  8
0
100
AcDbVertex
100
AcDb2dVertex
 10
2.215199819177321
 20
7.229664141511159
 30
0.0
  0
VERTEX
  5
338B
330
294F
100
AcDbEntity
  8
0
100
AcDbVertex
100
AcDb2dVertex
 10
2.18370454358677
 20
7.245411779306435
 30
0.0
  0
VERTEX
  5
338C
330
294F
100
AcDbEntity
  8
0
100
AcDbVertex
100
AcDb2dVertex
 10
2.149584661697006
 20
7.250660991904862
 30
0.0
  0
SEQEND
  5
338D
330
294F
100
AcDbEntity
  8
0
  0
LINE
  5
295C
330
1E
100
AcDbEntity
  8
0
100
AcDbLine
 10
2.028852771933226
 20
7.023632547022971
 30
0.0
 11
2.028852771933226
 21
7.069563157259191
 31
0.0
  0
LINE
  5
295D
330
1E
100
AcDbEntity
  8
0
100
AcDbLine
 10
2.149584661697006
 20
7.023632547022971
 30
0.0
 11
2.150896964846612
 21
7.022320243873364
 31
0.0
  0
POLYLINE
  5
295E
330
1E
100
AcDbEntity
  8
0
100
AcDb2dPolyline
 66
     1
 10
0.0
 20
0.0
 30
0.0
  0
VERTEX
  5
338E
330
295E
100
AcDbEntity
  8
0
100
AcDbVertex
100
AcDb2dVertex
 10
2.150896964846612
 20
7.022320243873364
 30
0.0
  0
VERTEX
  5
338F
330
295E
100
AcDbEntity
  8
0
100
AcDbVertex
100
AcDb2dVertex
 10
2.186329149885982
 20
7.028881759621397
 30
0.0
  0
VERTEX
  5
3390
330
295E
100
AcDbEntity
  8
0
100
AcDbVertex
100
AcDb2dVertex
 10
2.217824425476534
 20
7.045941700566279
 30
0.0
  0
VERTEX
  5
3391
330
295E
100
AcDbEntity
  8
0
100
AcDbVertex
100
AcDb2dVertex
 10
2.242758185319053
 20
7.070875460408798
 30
0.0
  0
VERTEX
  5
3392
330
295E
100
AcDbEntity
  8
0
100
AcDbVertex
100
AcDb2dVertex
 10
2.258505823114329
 20
7.103683039148956
 30
0.0
  0
VERTEX
  5
3393
330
295E
100
AcDbEntity
  8
0
100
AcDbVertex
100
AcDb2dVertex
 10
2.263755035712754
 20
7.139115224188325
 30
0.0
  0
VERTEX
  5
3394
330
295E
100
AcDbEntity
  8
0
100
AcDbVertex
100
AcDb2dVertex
 10
2.258505823114329
 20
7.173235106078088
 30
0.0
  0
VERTEX
  5
3395
330
295E
100
AcDbEntity
  8
0
100
AcDbVertex
100
AcDb2dVertex
 10
2.241445882169447
 20
7.206042684818246
 30
0.0
  0
VERTEX
  5
3396
330
295E
100
AcDbEntity
  8
0
100
AcDbVertex
100
AcDb2dVertex
 10
2.216512122326927
 20
7.230976444660766
 30
0.0
  0
VERTEX
  5
3397
330
295E
100
AcDbEntity
  8
0
100
AcDbVertex
100
AcDb2dVertex
 10
2.185016846736376
 20
7.246724082456042
 30
0.0
  0
VERTEX
  5
3398
330
295E
100
AcDbEntity
  8
0
100
AcDbVertex
100
AcDb2dVertex
 10
2.149584661697006
 20
7.251973295054467
 30
0.0
  0
SEQEND
  5
3399
330
295E
100
AcDbEntity
  8
0
  0
LINE
  5
296B
330
1E
100
AcDbEntity
  8
0
100
AcDbLine
 10
1.76901674831118
 20
7.258534810802498
 30
0.0
 11
1.76901674831118
 21
7.207354987967853
 31
0.0
  0
LINE
  5
296C
330
1E
100
AcDbEntity
  8
0
100
AcDbLine
 10
1.76901674831118
 20
7.207354987967853
 30
0.0
 11
1.744082988468659
 21
7.207354987967853
 31
0.0
  0
LINE
  5
296D
330
1E
100
AcDbEntity
  8
0
100
AcDbLine
 10
1.76901674831118
 20
7.068250854109585
 30
0.0
 11
1.744082988468659
 21
7.068250854109585
 31
0.0
  0
LINE
  5
296E
330
1E
100
AcDbEntity
  8
0
100
AcDbLine
 10
1.76901674831118
 20
7.068250854109585
 30
0.0
 11
1.76901674831118
 21
7.017071031274939
 31
0.0
  0
LINE
  5
296F
330
1E
100
AcDbEntity
  8
0
100
AcDbLine
 10
2.02754046878362
 20
7.017071031274939
 30
0.0
 11
2.02754046878362
 21
7.022320243873364
 31
0.0
  0
LINE
  5
2970
330
1E
100
AcDbEntity
  8
0
100
AcDbLine
 10
2.150896964846612
 20
7.022320243873364
 30
0.0
 11
2.150896964846612
 21
7.017071031274939
 31
0.0
  0
LINE
  5
2971
330
1E
100
AcDbEntity
  8
0
100
AcDbLine
 10
2.150896964846612
 20
7.017071031274939
 30
0.0
 11
2.409420685319053
 21
7.017071031274939
 31
0.0
  0
LINE
  5
2972
330
1E
100
AcDbEntity
  8
0
100
AcDbLine
 10
2.409420685319053
 20
7.068250854109585
 30
0.0
 11
2.409420685319053
 21
7.017071031274939
 31
0.0
  0
LINE
  5
2973
330
1E
100
AcDbEntity
  8
0
100
AcDbLine
 10
2.409420685319053
 20
7.068250854109585
 30
0.0
 11
2.434354445161573
 21
7.068250854109585
 31
0.0
  0
LINE
  5
2974
330
1E
100
AcDbEntity
  8
0
100
AcDbLine
 10
2.409420685319053
 20
7.207354987967853
 30
0.0
 11
2.434354445161573
 21
7.207354987967853
 31
0.0
  0
LINE
  5
2975
330
1E
100
AcDbEntity
  8
0
100
AcDbLine
 10
2.409420685319053
 20
7.258534810802498
 30
0.0
 11
2.409420685319053
 21
7.207354987967853
 31
0.0
  0
LINE
  5
2976
330
1E
100
AcDbEntity
  8
0
100
AcDbLine
 10
2.152209267996219
 20
7.015758728125334
 30
0.0
 11
2.41073298846866
 21
7.015758728125334
 31
0.0
  0
LINE
  5
2977
330
1E
100
AcDbEntity
  8
0
100
AcDbLine
 10
2.409420685319053
 20
7.015758728125334
 30
0.0
 11
2.409420685319053
 21
7.017071031274939
 31
0.0
  0
LINE
  5
2978
330
1E
100
AcDbEntity
  8
0
100
AcDbLine
 10
2.150896964846612
 20
7.017071031274939
 30
0.0
 11
2.152209267996219
 21
7.015758728125334
 31
0.0
  0
LINE
  5
2979
330
1E
100
AcDbEntity
  8
0
100
AcDbLine
 10
2.02754046878362
 20
6.973765027337932
 30
0.0
 11
2.034101984531651
 21
6.973765027337932
 31
0.0
  0
LINE
  5
297A
330
1E
100
AcDbEntity
  8
0
100
AcDbLine
 10
2.144335449098581
 20
6.973765027337932
 30
0.0
 11
2.150896964846612
 21
6.973765027337932
 31
0.0
  0
POLYLINE
  5
297B
330
1E
100
AcDbEntity
  8
0
100
AcDb2dPolyline
 66
     1
 10
0.0
 20
0.0
 30
0.0
  0
VERTEX
  5
339A
330
297B
100
AcDbEntity
  8
0
100
AcDbVertex
100
AcDb2dVertex
 10
2.149584661697006
 20
7.003947999778876
 30
0.0
  0
VERTEX
  5
339B
330
297B
100
AcDbEntity
  8
0
100
AcDbVertex
100
AcDb2dVertex
 10
2.149584661697006
 20
6.989512665133208
 30
0.0
  0
VERTEX
  5
339C
330
297B
100
AcDbEntity
  8
0
100
AcDbVertex
100
AcDb2dVertex
 10
2.149584661697006
 20
6.97770193678675
 30
0.0
  0
VERTEX
  5
339D
330
297B
100
AcDbEntity
  8
0
100
AcDbVertex
100
AcDb2dVertex
 10
2.149584661697006
 20
6.973765027337933
 30
0.0
  0
SEQEND
  5
339E
330
297B
100
AcDbEntity
  8
0
  0
LINE
  5
2981
330
1E
100
AcDbEntity
  8
0
100
AcDbLine
 10
2.028852771933226
 20
7.003947999778877
 30
0.0
 11
2.034101984531651
 21
7.003947999778877
 31
0.0
  0
LINE
  5
2982
330
1E
100
AcDbEntity
  8
0
100
AcDbLine
 10
2.144335449098581
 20
7.003947999778877
 30
0.0
 11
2.149584661697006
 21
7.003947999778877
 31
0.0
  0
POLYLINE
  5
2983
330
1E
100
AcDbEntity
  8
0
100
AcDb2dPolyline
 66
     1
 10
0.0
 20
0.0
 30
0.0
  0
VERTEX
  5
339F
330
2983
100
AcDbEntity
  8
0
100
AcDbVertex
100
AcDb2dVertex
 10
2.028852771933226
 20
6.973765027337933
 30
0.0
  0
VERTEX
  5
33A0
330
2983
100
AcDbEntity
  8
0
100
AcDbVertex
100
AcDb2dVertex
 10
2.028852771933226
 20
6.97770193678675
 30
0.0
  0
VERTEX
  5
33A1
330
2983
100
AcDbEntity
  8
0
100
AcDbVertex
100
AcDb2dVertex
 10
2.028852771933226
 20
6.989512665133208
 30
0.0
  0
VERTEX
  5
33A2
330
2983
100
AcDbEntity
  8
0
100
AcDbVertex
100
AcDb2dVertex
 10
2.028852771933226
 20
7.003947999778876
 30
0.0
  0
SEQEND
  5
33A3
330
2983
100
AcDbEntity
  8
0
  0
LINE
  5
2989
330
1E
100
AcDbEntity
  8
0
100
AcDbLine
 10
2.028852771933226
 20
7.003947999778877
 30
0.0
 11
2.028852771933226
 21
7.069563157259191
 31
0.0
  0
LINE
  5
298A
330
1E
100
AcDbEntity
  8
0
100
AcDbLine
 10
2.149584661697006
 20
7.003947999778877
 30
0.0
 11
2.149584661697006
 21
7.069563157259191
 31
0.0
  0
LINE
  5
298B
330
1E
100
AcDbEntity
  8
0
100
AcDbLine
 10
2.152209267996219
 20
6.986888058833994
 30
0.0
 11
2.457975901854486
 21
6.986888058833994
 31
0.0
  0
POLYLINE
  5
298C
330
1E
100
AcDbEntity
  8
0
100
AcDb2dPolyline
 66
     1
 10
0.0
 20
0.0
 30
0.0
  0
VERTEX
  5
33A4
330
298C
100
AcDbEntity
  8
0
100
AcDbVertex
100
AcDb2dVertex
 10
2.457975901854486
 20
6.986888058833994
 30
0.0
  0
VERTEX
  5
33A5
330
298C
100
AcDbEntity
  8
0
100
AcDbVertex
100
AcDb2dVertex
 10
2.473723539649762
 20
6.990824968282813
 30
0.0
  0
VERTEX
  5
33A6
330
298C
100
AcDbEntity
  8
0
100
AcDbVertex
100
AcDb2dVertex
 10
2.484221964846612
 20
7.002635696629269
 30
0.0
  0
VERTEX
  5
33A7
330
298C
100
AcDbEntity
  8
0
100
AcDbVertex
100
AcDb2dVertex
 10
2.488158874295432
 20
7.017071031274939
 30
0.0
  0
SEQEND
  5
33A8
330
298C
100
AcDbEntity
  8
0
  0
LINE
  5
2992
330
1E
100
AcDbEntity
  8
0
100
AcDbLine
 10
2.488158874295431
 20
7.017071031274939
 30
0.0
 11
2.488158874295431
 21
7.257222507652892
 31
0.0
  0
POLYLINE
  5
2993
330
1E
100
AcDbEntity
  8
0
100
AcDb2dPolyline
 66
     1
 10
0.0
 20
0.0
 30
0.0
  0
VERTEX
  5
33A9
330
2993
100
AcDbEntity
  8
0
100
AcDbVertex
100
AcDb2dVertex
 10
2.488158874295432
 20
7.257222507652892
 30
0.0
  0
VERTEX
  5
33AA
330
2993
100
AcDbEntity
  8
0
100
AcDbVertex
100
AcDb2dVertex
 10
2.484221964846612
 20
7.272970145448168
 30
0.0
  0
VERTEX
  5
33AB
330
2993
100
AcDbEntity
  8
0
100
AcDbVertex
100
AcDb2dVertex
 10
2.473723539649762
 20
7.283468570645018
 30
0.0
  0
VERTEX
  5
33AC
330
2993
100
AcDbEntity
  8
0
100
AcDbVertex
100
AcDb2dVertex
 10
2.457975901854486
 20
7.287405480093838
 30
0.0
  0
SEQEND
  5
33AD
330
2993
100
AcDbEntity
  8
0
  0
LINE
  5
2999
330
1E
100
AcDbEntity
  8
0
100
AcDbLine
 10
1.71914922862614
 20
7.287405480093838
 30
0.0
 11
2.457975901854486
 21
7.287405480093838
 31
0.0
  0
POLYLINE
  5
299A
330
1E
100
AcDbEntity
  8
0
100
AcDb2dPolyline
 66
     1
 10
0.0
 20
0.0
 30
0.0
  0
VERTEX
  5
33AE
330
299A
100
AcDbEntity
  8
0
100
AcDbVertex
100
AcDb2dVertex
 10
1.690278559334801
 20
7.257222507652892
 30
0.0
  0
VERTEX
  5
33AF
330
299A
100
AcDbEntity
  8
0
100
AcDbVertex
100
AcDb2dVertex
 10
1.694215468783621
 20
7.272970145448168
 30
0.0
  0
VERTEX
  5
33B0
330
299A
100
AcDbEntity
  8
0
100
AcDbVertex
100
AcDb2dVertex
 10
1.704713893980471
 20
7.283468570645018
 30
0.0
  0
VERTEX
  5
33B1
330
299A
100
AcDbEntity
  8
0
100
AcDbVertex
100
AcDb2dVertex
 10
1.71914922862614
 20
7.287405480093838
 30
0.0
  0
SEQEND
  5
33B2
330
299A
100
AcDbEntity
  8
0
  0
LINE
  5
29A0
330
1E
100
AcDbEntity
  8
0
100
AcDbLine
 10
1.690278559334801
 20
7.017071031274939
 30
0.0
 11
1.690278559334801
 21
7.257222507652892
 31
0.0
  0
POLYLINE
  5
29A1
330
1E
100
AcDbEntity
  8
0
100
AcDb2dPolyline
 66
     1
 10
0.0
 20
0.0
 30
0.0
  0
VERTEX
  5
33B3
330
29A1
100
AcDbEntity
  8
0
100
AcDbVertex
100
AcDb2dVertex
 10
1.71914922862614
 20
6.986888058833994
 30
0.0
  0
VERTEX
  5
33B4
330
29A1
100
AcDbEntity
  8
0
100
AcDbVertex
100
AcDb2dVertex
 10
1.704713893980471
 20
6.990824968282813
 30
0.0
  0
VERTEX
  5
33B5
330
29A1
100
AcDbEntity
  8
0
100
AcDbVertex
100
AcDb2dVertex
 10
1.694215468783621
 20
7.002635696629269
 30
0.0
  0
VERTEX
  5
33B6
330
29A1
100
AcDbEntity
  8
0
100
AcDbVertex
100
AcDb2dVertex
 10
1.690278559334801
 20
7.017071031274939
 30
0.0
  0
SEQEND
  5
33B7
330
29A1
100
AcDbEntity
  8
0
  0
LINE
  5
29A7
330
1E
100
AcDbEntity
  8
0
100
AcDbLine
 10
1.71914922862614
 20
6.986888058833994
 30
0.0
 11
2.026228165634014
 21
6.986888058833994
 31
0.0
  0
LINE
  5
29A8
330
1E
100
AcDbEntity
  8
0
100
AcDbLine
 10
2.026228165634014
 20
6.986888058833994
 30
0.0
 11
2.026228165634014
 21
7.015758728125334
 31
0.0
  0
LINE
  5
29A9
330
1E
100
AcDbEntity
  8
0
100
AcDbLine
 10
2.152209267996219
 20
6.986888058833994
 30
0.0
 11
2.152209267996219
 21
7.015758728125334
 31
0.0
  0
LINE
  5
29AA
330
1E
100
AcDbEntity
  8
0
100
AcDbLine
 10
1.674530921539526
 20
7.032818669070215
 30
0.0
 11
1.636474130200944
 21
7.032818669070215
 31
0.0
  0
LINE
  5
29AB
330
1E
100
AcDbEntity
  8
0
100
AcDbLine
 10
1.636474130200944
 20
7.032818669070215
 30
0.0
 11
1.622038795555274
 21
7.026257153322184
 31
0.0
  0
LINE
  5
29AC
330
1E
100
AcDbEntity
  8
0
100
AcDbLine
 10
1.677155527838738
 20
7.026257153322184
 30
0.0
 11
1.674530921539526
 21
7.032818669070215
 31
0.0
  0
LINE
  5
29AD
330
1E
100
AcDbEntity
  8
0
100
AcDbLine
 10
1.68371704358677
 20
7.042004791117459
 30
0.0
 11
1.686341649885982
 21
7.036755578519034
 31
0.0
  0
LINE
  5
29AE
330
1E
100
AcDbEntity
  8
0
100
AcDbLine
 10
1.686341649885982
 20
7.237537960408797
 30
0.0
 11
1.68371704358677
 21
7.232288747810372
 31
0.0
  0
LINE
  5
29AF
330
1E
100
AcDbEntity
  8
0
100
AcDbLine
 10
1.674530921539526
 20
7.242787173007222
 30
0.0
 11
1.677155527838738
 21
7.248036385605647
 31
0.0
  0
LINE
  5
29B0
330
1E
100
AcDbEntity
  8
0
100
AcDbLine
 10
1.636474130200944
 20
7.242787173007222
 30
0.0
 11
1.622038795555274
 21
7.248036385605647
 31
0.0
  0
LINE
  5
29B1
330
1E
100
AcDbEntity
  8
0
100
AcDbLine
 10
1.674530921539526
 20
7.242787173007222
 30
0.0
 11
1.636474130200944
 21
7.242787173007222
 31
0.0
  0
LINE
  5
29B2
330
1E
100
AcDbEntity
  8
0
100
AcDbLine
 10
1.636474130200944
 20
7.242787173007222
 30
0.0
 11
1.628600311303305
 21
7.238850263558404
 31
0.0
  0
LINE
  5
29B3
330
1E
100
AcDbEntity
  8
0
100
AcDbLine
 10
1.636474130200944
 20
7.032818669070215
 30
0.0
 11
1.628600311303305
 21
7.035443275369428
 31
0.0
  0
LINE
  5
29B4
330
1E
100
AcDbEntity
  8
0
100
AcDbLine
 10
2.503906512090707
 20
7.242787173007222
 30
0.0
 11
2.541963303429289
 21
7.242787173007222
 31
0.0
  0
LINE
  5
29B5
330
1E
100
AcDbEntity
  8
0
100
AcDbLine
 10
2.541963303429289
 20
7.242787173007222
 30
0.0
 11
2.555086334925352
 21
7.248036385605647
 31
0.0
  0
LINE
  5
29B6
330
1E
100
AcDbEntity
  8
0
100
AcDbLine
 10
2.503906512090707
 20
7.242787173007222
 30
0.0
 11
2.501281905791494
 21
7.248036385605647
 31
0.0
  0
LINE
  5
29B7
330
1E
100
AcDbEntity
  8
0
100
AcDbLine
 10
2.490783480594644
 20
7.237537960408797
 30
0.0
 11
2.493408086893857
 21
7.232288747810372
 31
0.0
  0
LINE
  5
29B8
330
1E
100
AcDbEntity
  8
0
100
AcDbLine
 10
2.493408086893857
 20
7.042004791117459
 30
0.0
 11
2.490783480594644
 21
7.036755578519034
 31
0.0
  0
LINE
  5
29B9
330
1E
100
AcDbEntity
  8
0
100
AcDbLine
 10
2.501281905791494
 20
7.026257153322184
 30
0.0
 11
2.503906512090707
 21
7.032818669070215
 31
0.0
  0
LINE
  5
29BA
330
1E
100
AcDbEntity
  8
0
100
AcDbLine
 10
2.541963303429289
 20
7.032818669070215
 30
0.0
 11
2.555086334925352
 21
7.026257153322184
 31
0.0
  0
LINE
  5
29BB
330
1E
100
AcDbEntity
  8
0
100
AcDbLine
 10
2.503906512090707
 20
7.032818669070215
 30
0.0
 11
2.541963303429289
 21
7.032818669070215
 31
0.0
  0
LINE
  5
29BC
330
1E
100
AcDbEntity
  8
0
100
AcDbLine
 10
2.541963303429289
 20
7.032818669070215
 30
0.0
 11
2.549837122326927
 21
7.035443275369428
 31
0.0
  0
LINE
  5
29BD
330
1E
100
AcDbEntity
  8
0
100
AcDbLine
 10
2.541963303429289
 20
7.242787173007222
 30
0.0
 11
2.549837122326927
 21
7.238850263558404
 31
0.0
  0
LINE
  5
29BE
330
1E
100
AcDbEntity
  8
0
100
AcDbLine
 10
1.688966256185195
 20
7.258534810802498
 30
0.0
 11
1.690278559334801
 21
7.257222507652892
 31
0.0
  0
LINE
  5
29BF
330
1E
100
AcDbEntity
  8
0
100
AcDbLine
 10
1.690278559334801
 20
7.017071031274939
 30
0.0
 11
1.688966256185195
 21
7.017071031274939
 31
0.0
  0
LINE
  5
29C0
330
1E
100
AcDbEntity
  8
0
100
AcDbLine
 10
1.71914922862614
 20
6.986888058833994
 30
0.0
 11
1.71914922862614
 21
6.986888058833994
 31
0.0
  0
LINE
  5
29C1
330
1E
100
AcDbEntity
  8
0
100
AcDbLine
 10
2.026228165634014
 20
6.986888058833994
 30
0.0
 11
2.026228165634014
 21
6.986888058833994
 31
0.0
  0
POLYLINE
  5
29C2
330
1E
100
AcDbEntity
  8
0
100
AcDb2dPolyline
 66
     1
 10
0.0
 20
0.0
 30
0.0
  0
VERTEX
  5
33B8
330
29C2
100
AcDbEntity
  8
0
100
AcDbVertex
100
AcDb2dVertex
 10
2.026228165634014
 20
6.943582054896987
 30
0.0
  0
VERTEX
  5
33B9
330
29C2
100
AcDbEntity
  8
0
100
AcDbVertex
100
AcDb2dVertex
 10
2.026228165634014
 20
6.959329692692262
 30
0.0
  0
VERTEX
  5
33BA
330
29C2
100
AcDbEntity
  8
0
100
AcDbVertex
100
AcDb2dVertex
 10
2.026228165634014
 20
6.969828117889113
 30
0.0
  0
VERTEX
  5
33BB
330
29C2
100
AcDbEntity
  8
0
100
AcDbVertex
100
AcDb2dVertex
 10
2.02754046878362
 20
6.973765027337933
 30
0.0
  0
SEQEND
  5
33BC
330
29C2
100
AcDbEntity
  8
0
  0
POLYLINE
  5
29C8
330
1E
100
AcDbEntity
  8
0
100
AcDb2dPolyline
 66
     1
 10
0.0
 20
0.0
 30
0.0
  0
VERTEX
  5
33BD
330
29C8
100
AcDbEntity
  8
0
100
AcDbVertex
100
AcDb2dVertex
 10
2.150896964846612
 20
6.973765027337933
 30
0.0
  0
VERTEX
  5
33BE
330
29C8
100
AcDbEntity
  8
0
100
AcDbVertex
100
AcDb2dVertex
 10
2.150896964846612
 20
6.969828117889113
 30
0.0
  0
VERTEX
  5
33BF
330
29C8
100
AcDbEntity
  8
0
100
AcDbVertex
100
AcDb2dVertex
 10
2.150896964846612
 20
6.959329692692262
 30
0.0
  0
VERTEX
  5
33C0
330
29C8
100
AcDbEntity
  8
0
100
AcDbVertex
100
AcDb2dVertex
 10
2.152209267996219
 20
6.943582054896987
 30
0.0
  0
SEQEND
  5
33C1
330
29C8
100
AcDbEntity
  8
0
  0
LINE
  5
29CE
330
1E
100
AcDbEntity
  8
0
100
AcDbLine
 10
2.152209267996219
 20
6.986888058833994
 30
0.0
 11
2.152209267996219
 21
6.986888058833994
 31
0.0
  0
LINE
  5
29CF
330
1E
100
AcDbEntity
  8
0
100
AcDbLine
 10
2.459288205004093
 20
6.986888058833994
 30
0.0
 11
2.457975901854486
 21
6.986888058833994
 31
0.0
  0
LINE
  5
29D0
330
1E
100
AcDbEntity
  8
0
100
AcDbLine
 10
2.488158874295431
 20
7.017071031274939
 30
0.0
 11
2.489471177445037
 21
7.017071031274939
 31
0.0
  0
LINE
  5
29D1
330
1E
100
AcDbEntity
  8
0
100
AcDbLine
 10
2.489471177445037
 20
7.258534810802498
 30
0.0
 11
2.488158874295431
 21
7.257222507652892
 31
0.0
  0
LINE
  5
29D2
330
1E
100
AcDbEntity
  8
0
100
AcDbLine
 10
2.457975901854486
 20
7.287405480093838
 30
0.0
 11
2.459288205004093
 21
7.288717783243443
 31
0.0
  0
LINE
  5
29D3
330
1E
100
AcDbEntity
  8
0
100
AcDbLine
 10
1.71914922862614
 20
7.287405480093838
 30
0.0
 11
1.71914922862614
 21
7.288717783243443
 31
0.0
  0
LINE
  5
29D4
330
1E
100
AcDbEntity
  8
0
100
AcDbLine
 10
2.149584661697006
 20
3.790117586393049
 30
0.0
 11
2.028852771933226
 21
3.790117586393049
 31
0.0
  0
LINE
  5
29D5
330
1E
100
AcDbEntity
  8
0
100
AcDbLine
 10
2.028852771933226
 20
3.923972507652892
 30
0.0
 11
2.149584661697006
 21
3.923972507652892
 31
0.0
  0
POLYLINE
  5
29D6
330
1E
100
AcDbEntity
  8
0
100
AcDb2dPolyline
 66
     1
 10
0.0
 20
0.0
 30
0.0
  0
VERTEX
  5
33C2
330
29D6
100
AcDbEntity
  8
0
100
AcDbVertex
100
AcDb2dVertex
 10
2.028852771933226
 20
3.79011758639305
 30
0.0
  0
VERTEX
  5
33C3
330
29D6
100
AcDbEntity
  8
0
100
AcDbVertex
100
AcDb2dVertex
 10
1.999982102641888
 20
3.796679102141082
 30
0.0
  0
VERTEX
  5
33C4
330
29D6
100
AcDbEntity
  8
0
100
AcDbVertex
100
AcDb2dVertex
 10
1.976360645948974
 20
3.815051346235569
 30
0.0
  0
VERTEX
  5
33C5
330
29D6
100
AcDbEntity
  8
0
100
AcDbVertex
100
AcDb2dVertex
 10
1.963237614452912
 20
3.841297409227695
 30
0.0
  0
VERTEX
  5
33C6
330
29D6
100
AcDbEntity
  8
0
100
AcDbVertex
100
AcDb2dVertex
 10
1.963237614452912
 20
3.87148038166864
 30
0.0
  0
VERTEX
  5
33C7
330
29D6
100
AcDbEntity
  8
0
100
AcDbVertex
100
AcDb2dVertex
 10
1.976360645948974
 20
3.897726444660766
 30
0.0
  0
VERTEX
  5
33C8
330
29D6
100
AcDbEntity
  8
0
100
AcDbVertex
100
AcDb2dVertex
 10
1.999982102641888
 20
3.917410991904861
 30
0.0
  0
VERTEX
  5
33C9
330
29D6
100
AcDbEntity
  8
0
100
AcDbVertex
100
AcDb2dVertex
 10
2.028852771933226
 20
3.923972507652892
 30
0.0
  0
SEQEND
  5
33CA
330
29D6
100
AcDbEntity
  8
0
  0
POLYLINE
  5
29E0
330
1E
100
AcDbEntity
  8
0
100
AcDb2dPolyline
 66
     1
 10
0.0
 20
0.0
 30
0.0
  0
VERTEX
  5
33CB
330
29E0
100
AcDbEntity
  8
0
100
AcDbVertex
100
AcDb2dVertex
 10
2.149584661697006
 20
3.923972507652892
 30
0.0
  0
VERTEX
  5
33CC
330
29E0
100
AcDbEntity
  8
0
100
AcDbVertex
100
AcDb2dVertex
 10
2.178455330988345
 20
3.917410991904861
 30
0.0
  0
VERTEX
  5
33CD
330
29E0
100
AcDbEntity
  8
0
100
AcDbVertex
100
AcDb2dVertex
 10
2.202076787681258
 20
3.897726444660766
 30
0.0
  0
VERTEX
  5
33CE
330
29E0
100
AcDbEntity
  8
0
100
AcDbVertex
100
AcDb2dVertex
 10
2.213887516027714
 20
3.87148038166864
 30
0.0
  0
VERTEX
  5
33CF
330
29E0
100
AcDbEntity
  8
0
100
AcDbVertex
100
AcDb2dVertex
 10
2.213887516027714
 20
3.841297409227695
 30
0.0
  0
VERTEX
  5
33D0
330
29E0
100
AcDbEntity
  8
0
100
AcDbVertex
100
AcDb2dVertex
 10
2.202076787681258
 20
3.815051346235569
 30
0.0
  0
VERTEX
  5
33D1
330
29E0
100
AcDbEntity
  8
0
100
AcDbVertex
100
AcDb2dVertex
 10
2.178455330988345
 20
3.796679102141082
 30
0.0
  0
VERTEX
  5
33D2
330
29E0
100
AcDbEntity
  8
0
100
AcDbVertex
100
AcDb2dVertex
 10
2.149584661697006
 20
3.79011758639305
 30
0.0
  0
SEQEND
  5
33D3
330
29E0
100
AcDbEntity
  8
0
  0
LINE
  5
29EA
330
1E
100
AcDbEntity
  8
0
100
AcDbLine
 10
2.028852771933226
 20
3.788805283243443
 30
0.0
 11
2.028852771933226
 21
3.790117586393049
 31
0.0
  0
LINE
  5
29EB
330
1E
100
AcDbEntity
  8
0
100
AcDbLine
 10
2.028852771933226
 20
3.788805283243443
 30
0.0
 11
2.149584661697006
 21
3.788805283243443
 31
0.0
  0
LINE
  5
29EC
330
1E
100
AcDbEntity
  8
0
100
AcDbLine
 10
2.149584661697006
 20
3.790117586393049
 30
0.0
 11
2.149584661697006
 21
3.788805283243443
 31
0.0
  0
LINE
  5
29ED
330
1E
100
AcDbEntity
  8
0
100
AcDbLine
 10
2.028852771933226
 20
3.742874673007223
 30
0.0
 11
2.028852771933226
 21
3.741562369857617
 31
0.0
  0
LINE
  5
29EE
330
1E
100
AcDbEntity
  8
0
100
AcDbLine
 10
2.028852771933226
 20
3.741562369857617
 30
0.0
 11
2.149584661697006
 21
3.741562369857617
 31
0.0
  0
LINE
  5
29EF
330
1E
100
AcDbEntity
  8
0
100
AcDbLine
 10
2.149584661697006
 20
3.742874673007223
 30
0.0
 11
2.149584661697006
 21
3.741562369857617
 31
0.0
  0
LINE
  5
29F0
330
1E
100
AcDbEntity
  8
0
100
AcDbLine
 10
2.028852771933226
 20
3.742874673007223
 30
0.0
 11
2.149584661697006
 21
3.742874673007223
 31
0.0
  0
LINE
  5
29F1
330
1E
100
AcDbEntity
  8
0
100
AcDbLine
 10
2.149584661697006
 20
3.923972507652892
 30
0.0
 11
2.028852771933226
 21
3.923972507652892
 31
0.0
  0
LINE
  5
29F2
330
1E
100
AcDbEntity
  8
0
100
AcDbLine
 10
2.028852771933226
 20
3.923972507652892
 30
0.0
 11
2.028852771933226
 21
3.923972507652892
 31
0.0
  0
LINE
  5
29F3
330
1E
100
AcDbEntity
  8
0
100
AcDbLine
 10
2.149584661697006
 20
3.923972507652892
 30
0.0
 11
2.149584661697006
 21
3.923972507652892
 31
0.0
  0
LINE
  5
29F4
330
1E
100
AcDbEntity
  8
0
100
AcDbLine
 10
2.409420685319053
 20
3.926597113952105
 30
0.0
 11
2.41073298846866
 21
3.926597113952105
 31
0.0
  0
LINE
  5
29F5
330
1E
100
AcDbEntity
  8
0
100
AcDbLine
 10
2.41073298846866
 20
3.926597113952105
 30
0.0
 11
2.41073298846866
 21
3.979089239936357
 31
0.0
  0
LINE
  5
29F6
330
1E
100
AcDbEntity
  8
0
100
AcDbLine
 10
2.41073298846866
 20
3.979089239936357
 30
0.0
 11
2.409420685319053
 21
3.977776936786751
 31
0.0
  0
LINE
  5
29F7
330
1E
100
AcDbEntity
  8
0
100
AcDbLine
 10
2.409420685319053
 20
3.977776936786751
 30
0.0
 11
2.409420685319053
 21
3.926597113952105
 31
0.0
  0
LINE
  5
29F8
330
1E
100
AcDbEntity
  8
0
100
AcDbLine
 10
2.435666748311179
 20
3.926597113952105
 30
0.0
 11
2.434354445161573
 21
3.926597113952105
 31
0.0
  0
LINE
  5
29F9
330
1E
100
AcDbEntity
  8
0
100
AcDbLine
 10
2.41073298846866
 20
3.926597113952105
 30
0.0
 11
2.435666748311179
 21
3.926597113952105
 31
0.0
  0
LINE
  5
29FA
330
1E
100
AcDbEntity
  8
0
100
AcDbLine
 10
2.434354445161573
 20
3.926597113952105
 30
0.0
 11
2.409420685319053
 21
3.926597113952105
 31
0.0
  0
LINE
  5
29FB
330
1E
100
AcDbEntity
  8
0
100
AcDbLine
 10
2.41073298846866
 20
3.786180676944231
 30
0.0
 11
2.409420685319053
 21
3.786180676944231
 31
0.0
  0
LINE
  5
29FC
330
1E
100
AcDbEntity
  8
0
100
AcDbLine
 10
2.41073298846866
 20
3.786180676944231
 30
0.0
 11
2.435666748311179
 21
3.786180676944231
 31
0.0
  0
LINE
  5
29FD
330
1E
100
AcDbEntity
  8
0
100
AcDbLine
 10
2.435666748311179
 20
3.786180676944231
 30
0.0
 11
2.434354445161573
 21
3.786180676944231
 31
0.0
  0
LINE
  5
29FE
330
1E
100
AcDbEntity
  8
0
100
AcDbLine
 10
2.434354445161573
 20
3.786180676944231
 30
0.0
 11
2.409420685319053
 21
3.786180676944231
 31
0.0
  0
LINE
  5
29FF
330
1E
100
AcDbEntity
  8
0
100
AcDbLine
 10
2.41073298846866
 20
3.735000854109586
 30
0.0
 11
2.409420685319053
 21
3.735000854109586
 31
0.0
  0
LINE
  5
2A00
330
1E
100
AcDbEntity
  8
0
100
AcDbLine
 10
2.41073298846866
 20
3.735000854109586
 30
0.0
 11
2.41073298846866
 21
3.786180676944231
 31
0.0
  0
LINE
  5
2A01
330
1E
100
AcDbEntity
  8
0
100
AcDbLine
 10
2.409420685319053
 20
3.735000854109586
 30
0.0
 11
2.409420685319053
 21
3.786180676944231
 31
0.0
  0
LINE
  5
2A02
330
1E
100
AcDbEntity
  8
0
100
AcDbLine
 10
1.767704445161573
 20
3.735000854109586
 30
0.0
 11
1.767704445161573
 21
3.735000854109586
 31
0.0
  0
LINE
  5
2A03
330
1E
100
AcDbEntity
  8
0
100
AcDbLine
 10
1.767704445161573
 20
3.735000854109586
 30
0.0
 11
1.767704445161573
 21
3.786180676944231
 31
0.0
  0
LINE
  5
2A04
330
1E
100
AcDbEntity
  8
0
100
AcDbLine
 10
1.767704445161573
 20
3.786180676944231
 30
0.0
 11
1.767704445161573
 21
3.786180676944231
 31
0.0
  0
LINE
  5
2A05
330
1E
100
AcDbEntity
  8
0
100
AcDbLine
 10
1.767704445161573
 20
3.735000854109586
 30
0.0
 11
1.767704445161573
 21
3.786180676944231
 31
0.0
  0
LINE
  5
2A06
330
1E
100
AcDbEntity
  8
0
100
AcDbLine
 10
1.742770685319053
 20
3.786180676944231
 30
0.0
 11
1.767704445161573
 21
3.786180676944231
 31
0.0
  0
LINE
  5
2A07
330
1E
100
AcDbEntity
  8
0
100
AcDbLine
 10
1.742770685319053
 20
3.786180676944231
 30
0.0
 11
1.742770685319053
 21
3.786180676944231
 31
0.0
  0
LINE
  5
2A08
330
1E
100
AcDbEntity
  8
0
100
AcDbLine
 10
1.767704445161573
 20
3.786180676944231
 30
0.0
 11
1.742770685319053
 21
3.786180676944231
 31
0.0
  0
LINE
  5
2A09
330
1E
100
AcDbEntity
  8
0
100
AcDbLine
 10
1.742770685319053
 20
3.926597113952105
 30
0.0
 11
1.742770685319053
 21
3.926597113952105
 31
0.0
  0
LINE
  5
2A0A
330
1E
100
AcDbEntity
  8
0
100
AcDbLine
 10
1.742770685319053
 20
3.926597113952105
 30
0.0
 11
1.767704445161573
 21
3.926597113952105
 31
0.0
  0
LINE
  5
2A0B
330
1E
100
AcDbEntity
  8
0
100
AcDbLine
 10
1.767704445161573
 20
3.926597113952105
 30
0.0
 11
1.767704445161573
 21
3.926597113952105
 31
0.0
  0
LINE
  5
2A0C
330
1E
100
AcDbEntity
  8
0
100
AcDbLine
 10
1.767704445161573
 20
3.926597113952105
 30
0.0
 11
1.742770685319053
 21
3.926597113952105
 31
0.0
  0
LINE
  5
2A0D
330
1E
100
AcDbEntity
  8
0
100
AcDbLine
 10
1.767704445161573
 20
3.977776936786751
 30
0.0
 11
1.767704445161573
 21
3.926597113952105
 31
0.0
  0
LINE
  5
2A0E
330
1E
100
AcDbEntity
  8
0
100
AcDbLine
 10
1.767704445161573
 20
3.979089239936357
 30
0.0
 11
1.767704445161573
 21
3.977776936786751
 31
0.0
  0
LINE
  5
2A0F
330
1E
100
AcDbEntity
  8
0
100
AcDbLine
 10
1.767704445161573
 20
3.926597113952105
 30
0.0
 11
1.767704445161573
 21
3.979089239936357
 31
0.0
  0
LINE
  5
2A10
330
1E
100
AcDbEntity
  8
0
100
AcDbLine
 10
1.742770685319053
 20
3.786180676944231
 30
0.0
 11
1.742770685319053
 21
3.926597113952105
 31
0.0
  0
LINE
  5
2A11
330
1E
100
AcDbEntity
  8
0
100
AcDbLine
 10
1.742770685319053
 20
3.786180676944231
 30
0.0
 11
1.744082988468659
 21
3.787492980093837
 31
0.0
  0
LINE
  5
2A12
330
1E
100
AcDbEntity
  8
0
100
AcDbLine
 10
1.744082988468659
 20
3.787492980093837
 30
0.0
 11
1.744082988468659
 21
3.925284810802498
 31
0.0
  0
LINE
  5
2A13
330
1E
100
AcDbEntity
  8
0
100
AcDbLine
 10
1.744082988468659
 20
3.925284810802498
 30
0.0
 11
1.742770685319053
 21
3.926597113952105
 31
0.0
  0
LINE
  5
2A14
330
1E
100
AcDbEntity
  8
0
100
AcDbLine
 10
2.435666748311179
 20
3.786180676944231
 30
0.0
 11
2.435666748311179
 21
3.926597113952105
 31
0.0
  0
LINE
  5
2A15
330
1E
100
AcDbEntity
  8
0
100
AcDbLine
 10
2.434354445161573
 20
3.925284810802498
 30
0.0
 11
2.434354445161573
 21
3.926597113952105
 31
0.0
  0
LINE
  5
2A16
330
1E
100
AcDbEntity
  8
0
100
AcDbLine
 10
2.434354445161573
 20
3.787492980093837
 30
0.0
 11
2.434354445161573
 21
3.925284810802498
 31
0.0
  0
LINE
  5
2A17
330
1E
100
AcDbEntity
  8
0
100
AcDbLine
 10
2.434354445161573
 20
3.786180676944231
 30
0.0
 11
2.434354445161573
 21
3.787492980093837
 31
0.0
  0
LINE
  5
2A18
330
1E
100
AcDbEntity
  8
0
100
AcDbLine
 10
1.767704445161573
 20
3.735000854109586
 30
0.0
 11
2.41073298846866
 21
3.735000854109586
 31
0.0
  0
LINE
  5
2A19
330
1E
100
AcDbEntity
  8
0
100
AcDbLine
 10
2.409420685319053
 20
3.735000854109586
 30
0.0
 11
2.409420685319053
 21
3.735000854109586
 31
0.0
  0
LINE
  5
2A1A
330
1E
100
AcDbEntity
  8
0
100
AcDbLine
 10
1.76901674831118
 20
3.735000854109586
 30
0.0
 11
2.409420685319053
 21
3.735000854109586
 31
0.0
  0
LINE
  5
2A1B
330
1E
100
AcDbEntity
  8
0
100
AcDbLine
 10
1.767704445161573
 20
3.735000854109586
 30
0.0
 11
1.76901674831118
 21
3.735000854109586
 31
0.0
  0
LINE
  5
2A1C
330
1E
100
AcDbEntity
  8
0
100
AcDbLine
 10
1.68371704358677
 20
3.761246917101711
 30
0.0
 11
1.68371704358677
 21
3.761246917101711
 31
0.0
  0
LINE
  5
2A1D
330
1E
100
AcDbEntity
  8
0
100
AcDbLine
 10
1.68371704358677
 20
3.951530873794624
 30
0.0
 11
1.68371704358677
 21
3.761246917101711
 31
0.0
  0
LINE
  5
2A1E
330
1E
100
AcDbEntity
  8
0
100
AcDbLine
 10
1.68371704358677
 20
3.951530873794624
 30
0.0
 11
1.68371704358677
 21
3.951530873794624
 31
0.0
  0
POLYLINE
  5
2A1F
330
1E
100
AcDbEntity
  8
0
100
AcDb2dPolyline
 66
     1
 10
0.0
 20
0.0
 30
0.0
  0
VERTEX
  5
33D4
330
2A1F
100
AcDbEntity
  8
0
100
AcDbVertex
100
AcDb2dVertex
 10
1.674530921539526
 20
3.752060795054467
 30
0.0
  0
VERTEX
  5
33D5
330
2A1F
100
AcDbEntity
  8
0
100
AcDbVertex
100
AcDb2dVertex
 10
1.675843224689132
 20
3.752060795054467
 30
0.0
  0
VERTEX
  5
33D6
330
2A1F
100
AcDbEntity
  8
0
100
AcDbVertex
100
AcDb2dVertex
 10
1.678467830988345
 20
3.752060795054467
 30
0.0
  0
VERTEX
  5
33D7
330
2A1F
100
AcDbEntity
  8
0
100
AcDbVertex
100
AcDb2dVertex
 10
1.681092437287557
 20
3.75468540135368
 30
0.0
  0
VERTEX
  5
33D8
330
2A1F
100
AcDbEntity
  8
0
100
AcDbVertex
100
AcDb2dVertex
 10
1.68371704358677
 20
3.757310007652892
 30
0.0
  0
VERTEX
  5
33D9
330
2A1F
100
AcDbEntity
  8
0
100
AcDbVertex
100
AcDb2dVertex
 10
1.68371704358677
 20
3.759934613952105
 30
0.0
  0
VERTEX
  5
33DA
330
2A1F
100
AcDbEntity
  8
0
100
AcDbVertex
100
AcDb2dVertex
 10
1.68371704358677
 20
3.761246917101711
 30
0.0
  0
SEQEND
  5
33DB
330
2A1F
100
AcDbEntity
  8
0
  0
POLYLINE
  5
2A28
330
1E
100
AcDbEntity
  8
0
100
AcDb2dPolyline
 66
     1
 10
0.0
 20
0.0
 30
0.0
  0
VERTEX
  5
33DC
330
2A28
100
AcDbEntity
  8
0
100
AcDbVertex
100
AcDb2dVertex
 10
1.674530921539526
 20
3.962029298991474
 30
0.0
  0
VERTEX
  5
33DD
330
2A28
100
AcDbEntity
  8
0
100
AcDbVertex
100
AcDb2dVertex
 10
1.678467830988345
 20
3.960716995841869
 30
0.0
  0
VERTEX
  5
33DE
330
2A28
100
AcDbEntity
  8
0
100
AcDbVertex
100
AcDb2dVertex
 10
1.681092437287557
 20
3.958092389542656
 30
0.0
  0
VERTEX
  5
33DF
330
2A28
100
AcDbEntity
  8
0
100
AcDbVertex
100
AcDb2dVertex
 10
1.68371704358677
 20
3.955467783243443
 30
0.0
  0
VERTEX
  5
33E0
330
2A28
100
AcDbEntity
  8
0
100
AcDbVertex
100
AcDb2dVertex
 10
1.68371704358677
 20
3.954155480093837
 30
0.0
  0
VERTEX
  5
33E1
330
2A28
100
AcDbEntity
  8
0
100
AcDbVertex
100
AcDb2dVertex
 10
1.68371704358677
 20
3.951530873794624
 30
0.0
  0
SEQEND
  5
33E2
330
2A28
100
AcDbEntity
  8
0
  0
LINE
  5
2A30
330
1E
100
AcDbEntity
  8
0
100
AcDbLine
 10
2.493408086893857
 20
3.951530873794624
 30
0.0
 11
2.493408086893857
 21
3.951530873794624
 31
0.0
  0
LINE
  5
2A31
330
1E
100
AcDbEntity
  8
0
100
AcDbLine
 10
2.493408086893857
 20
3.951530873794624
 30
0.0
 11
2.493408086893857
 21
3.761246917101711
 31
0.0
  0
LINE
  5
2A32
330
1E
100
AcDbEntity
  8
0
100
AcDbLine
 10
2.493408086893857
 20
3.761246917101711
 30
0.0
 11
2.493408086893857
 21
3.761246917101711
 31
0.0
  0
POLYLINE
  5
2A33
330
1E
100
AcDbEntity
  8
0
100
AcDb2dPolyline
 66
     1
 10
0.0
 20
0.0
 30
0.0
  0
VERTEX
  5
33E3
330
2A33
100
AcDbEntity
  8
0
100
AcDbVertex
100
AcDb2dVertex
 10
2.503906512090707
 20
3.962029298991474
 30
0.0
  0
VERTEX
  5
33E4
330
2A33
100
AcDbEntity
  8
0
100
AcDbVertex
100
AcDb2dVertex
 10
2.5025942089411
 20
3.962029298991474
 30
0.0
  0
VERTEX
  5
33E5
330
2A33
100
AcDbEntity
  8
0
100
AcDbVertex
100
AcDb2dVertex
 10
2.499969602641888
 20
3.960716995841869
 30
0.0
  0
VERTEX
  5
33E6
330
2A33
100
AcDbEntity
  8
0
100
AcDbVertex
100
AcDb2dVertex
 10
2.497344996342675
 20
3.958092389542656
 30
0.0
  0
VERTEX
  5
33E7
330
2A33
100
AcDbEntity
  8
0
100
AcDbVertex
100
AcDb2dVertex
 10
2.494720390043462
 20
3.955467783243443
 30
0.0
  0
VERTEX
  5
33E8
330
2A33
100
AcDbEntity
  8
0
100
AcDbVertex
100
AcDb2dVertex
 10
2.494720390043462
 20
3.954155480093837
 30
0.0
  0
VERTEX
  5
33E9
330
2A33
100
AcDbEntity
  8
0
100
AcDbVertex
100
AcDb2dVertex
 10
2.493408086893857
 20
3.951530873794624
 30
0.0
  0
SEQEND
  5
33EA
330
2A33
100
AcDbEntity
  8
0
  0
POLYLINE
  5
2A3C
330
1E
100
AcDbEntity
  8
0
100
AcDb2dPolyline
 66
     1
 10
0.0
 20
0.0
 30
0.0
  0
VERTEX
  5
33EB
330
2A3C
100
AcDbEntity
  8
0
100
AcDbVertex
100
AcDb2dVertex
 10
2.503906512090707
 20
3.752060795054467
 30
0.0
  0
VERTEX
  5
33EC
330
2A3C
100
AcDbEntity
  8
0
100
AcDbVertex
100
AcDb2dVertex
 10
2.499969602641888
 20
3.752060795054467
 30
0.0
  0
VERTEX
  5
33ED
330
2A3C
100
AcDbEntity
  8
0
100
AcDbVertex
100
AcDb2dVertex
 10
2.497344996342675
 20
3.75468540135368
 30
0.0
  0
VERTEX
  5
33EE
330
2A3C
100
AcDbEntity
  8
0
100
AcDbVertex
100
AcDb2dVertex
 10
2.494720390043462
 20
3.757310007652892
 30
0.0
  0
VERTEX
  5
33EF
330
2A3C
100
AcDbEntity
  8
0
100
AcDbVertex
100
AcDb2dVertex
 10
2.494720390043462
 20
3.759934613952105
 30
0.0
  0
VERTEX
  5
33F0
330
2A3C
100
AcDbEntity
  8
0
100
AcDbVertex
100
AcDb2dVertex
 10
2.493408086893857
 20
3.761246917101711
 30
0.0
  0
SEQEND
  5
33F1
330
2A3C
100
AcDbEntity
  8
0
  0
LINE
  5
2A44
330
1E
100
AcDbEntity
  8
0
100
AcDbLine
 10
1.76901674831118
 20
3.977776936786751
 30
0.0
 11
2.02754046878362
 21
3.977776936786751
 31
0.0
  0
LINE
  5
2A45
330
1E
100
AcDbEntity
  8
0
100
AcDbLine
 10
2.026228165634014
 20
3.979089239936357
 30
0.0
 11
2.02754046878362
 21
3.977776936786751
 31
0.0
  0
LINE
  5
2A46
330
1E
100
AcDbEntity
  8
0
100
AcDbLine
 10
1.767704445161573
 20
3.979089239936357
 30
0.0
 11
2.026228165634014
 21
3.979089239936357
 31
0.0
  0
LINE
  5
2A47
330
1E
100
AcDbEntity
  8
0
100
AcDbLine
 10
1.767704445161573
 20
3.977776936786751
 30
0.0
 11
1.76901674831118
 21
3.977776936786751
 31
0.0
  0
LINE
  5
2A48
330
1E
100
AcDbEntity
  8
0
100
AcDbLine
 10
2.028852771933226
 20
3.969903117889113
 30
0.0
 11
2.02754046878362
 21
3.971215421038719
 31
0.0
  0
POLYLINE
  5
2A49
330
1E
100
AcDbEntity
  8
0
100
AcDb2dPolyline
 66
     1
 10
0.0
 20
0.0
 30
0.0
  0
VERTEX
  5
33F2
330
2A49
100
AcDbEntity
  8
0
100
AcDbVertex
100
AcDb2dVertex
 10
2.028852771933226
 20
3.741562369857617
 30
0.0
  0
VERTEX
  5
33F3
330
2A49
100
AcDbEntity
  8
0
100
AcDbVertex
100
AcDb2dVertex
 10
1.993420586893856
 20
3.746811582456042
 30
0.0
  0
VERTEX
  5
33F4
330
2A49
100
AcDbEntity
  8
0
100
AcDbVertex
100
AcDb2dVertex
 10
1.961925311303306
 20
3.763871523400923
 30
0.0
  0
VERTEX
  5
33F5
330
2A49
100
AcDbEntity
  8
0
100
AcDbVertex
100
AcDb2dVertex
 10
1.936991551460786
 20
3.788805283243443
 30
0.0
  0
VERTEX
  5
33F6
330
2A49
100
AcDbEntity
  8
0
100
AcDbVertex
100
AcDb2dVertex
 10
1.919931610515904
 20
3.820300558833994
 30
0.0
  0
VERTEX
  5
33F7
330
2A49
100
AcDbEntity
  8
0
100
AcDbVertex
100
AcDb2dVertex
 10
1.914682397917479
 20
3.855732743873365
 30
0.0
  0
VERTEX
  5
33F8
330
2A49
100
AcDbEntity
  8
0
100
AcDbVertex
100
AcDb2dVertex
 10
1.919931610515904
 20
3.891164928912735
 30
0.0
  0
VERTEX
  5
33F9
330
2A49
100
AcDbEntity
  8
0
100
AcDbVertex
100
AcDb2dVertex
 10
1.935679248311179
 20
3.922660204503286
 30
0.0
  0
VERTEX
  5
33FA
330
2A49
100
AcDbEntity
  8
0
100
AcDbVertex
100
AcDb2dVertex
 10
1.960613008153699
 20
3.948906267495412
 30
0.0
  0
VERTEX
  5
33FB
330
2A49
100
AcDbEntity
  8
0
100
AcDbVertex
100
AcDb2dVertex
 10
1.99210828374425
 20
3.965966208440294
 30
0.0
  0
VERTEX
  5
33FC
330
2A49
100
AcDbEntity
  8
0
100
AcDbVertex
100
AcDb2dVertex
 10
2.02754046878362
 20
3.971215421038719
 30
0.0
  0
SEQEND
  5
33FD
330
2A49
100
AcDbEntity
  8
0
  0
POLYLINE
  5
2A56
330
1E
100
AcDbEntity
  8
0
100
AcDb2dPolyline
 66
     1
 10
0.0
 20
0.0
 30
0.0
  0
VERTEX
  5
33FE
330
2A56
100
AcDbEntity
  8
0
100
AcDbVertex
100
AcDb2dVertex
 10
2.028852771933226
 20
3.742874673007223
 30
0.0
  0
VERTEX
  5
33FF
330
2A56
100
AcDbEntity
  8
0
100
AcDbVertex
100
AcDb2dVertex
 10
1.993420586893856
 20
3.748123885605648
 30
0.0
  0
VERTEX
  5
3400
330
2A56
100
AcDbEntity
  8
0
100
AcDbVertex
100
AcDb2dVertex
 10
1.961925311303306
 20
3.76518382655053
 30
0.0
  0
VERTEX
  5
3401
330
2A56
100
AcDbEntity
  8
0
100
AcDbVertex
100
AcDb2dVertex
 10
1.936991551460786
 20
3.79011758639305
 30
0.0
  0
VERTEX
  5
3402
330
2A56
100
AcDbEntity
  8
0
100
AcDbVertex
100
AcDb2dVertex
 10
1.92124391366551
 20
3.821612861983601
 30
0.0
  0
VERTEX
  5
3403
330
2A56
100
AcDbEntity
  8
0
100
AcDbVertex
100
AcDb2dVertex
 10
1.915994701067085
 20
3.855732743873365
 30
0.0
  0
VERTEX
  5
3404
330
2A56
100
AcDbEntity
  8
0
100
AcDbVertex
100
AcDb2dVertex
 10
1.92124391366551
 20
3.891164928912735
 30
0.0
  0
VERTEX
  5
3405
330
2A56
100
AcDbEntity
  8
0
100
AcDbVertex
100
AcDb2dVertex
 10
1.936991551460786
 20
3.922660204503286
 30
0.0
  0
VERTEX
  5
3406
330
2A56
100
AcDbEntity
  8
0
100
AcDbVertex
100
AcDb2dVertex
 10
1.961925311303306
 20
3.947593964345806
 30
0.0
  0
VERTEX
  5
3407
330
2A56
100
AcDbEntity
  8
0
100
AcDbVertex
100
AcDb2dVertex
 10
1.993420586893856
 20
3.964653905290687
 30
0.0
  0
VERTEX
  5
3408
330
2A56
100
AcDbEntity
  8
0
100
AcDbVertex
100
AcDb2dVertex
 10
2.028852771933226
 20
3.969903117889113
 30
0.0
  0
SEQEND
  5
3409
330
2A56
100
AcDbEntity
  8
0
  0
LINE
  5
2A63
330
1E
100
AcDbEntity
  8
0
100
AcDbLine
 10
2.028852771933226
 20
3.925284810802498
 30
0.0
 11
2.028852771933226
 21
3.923972507652892
 31
0.0
  0
POLYLINE
  5
2A64
330
1E
100
AcDbEntity
  8
0
100
AcDb2dPolyline
 66
     1
 10
0.0
 20
0.0
 30
0.0
  0
VERTEX
  5
340A
330
2A64
100
AcDbEntity
  8
0
100
AcDbVertex
100
AcDb2dVertex
 10
2.028852771933226
 20
3.925284810802498
 30
0.0
  0
VERTEX
  5
340B
330
2A64
100
AcDbEntity
  8
0
100
AcDbVertex
100
AcDb2dVertex
 10
1.998669799492282
 20
3.917410991904861
 30
0.0
  0
VERTEX
  5
340C
330
2A64
100
AcDbEntity
  8
0
100
AcDbVertex
100
AcDb2dVertex
 10
1.975048342799368
 20
3.899038747810372
 30
0.0
  0
VERTEX
  5
340D
330
2A64
100
AcDbEntity
  8
0
100
AcDbVertex
100
AcDb2dVertex
 10
1.963237614452912
 20
3.87148038166864
 30
0.0
  0
VERTEX
  5
340E
330
2A64
100
AcDbEntity
  8
0
100
AcDbVertex
100
AcDb2dVertex
 10
1.963237614452912
 20
3.841297409227695
 30
0.0
  0
VERTEX
  5
340F
330
2A64
100
AcDbEntity
  8
0
100
AcDbVertex
100
AcDb2dVertex
 10
1.976360645948974
 20
3.813739043085964
 30
0.0
  0
VERTEX
  5
3410
330
2A64
100
AcDbEntity
  8
0
100
AcDbVertex
100
AcDb2dVertex
 10
1.999982102641888
 20
3.795366798991475
 30
0.0
  0
VERTEX
  5
3411
330
2A64
100
AcDbEntity
  8
0
100
AcDbVertex
100
AcDb2dVertex
 10
2.028852771933226
 20
3.788805283243443
 30
0.0
  0
SEQEND
  5
3412
330
2A64
100
AcDbEntity
  8
0
  0
POLYLINE
  5
2A6E
330
1E
100
AcDbEntity
  8
0
100
AcDb2dPolyline
 66
     1
 10
0.0
 20
0.0
 30
0.0
  0
VERTEX
  5
3413
330
2A6E
100
AcDbEntity
  8
0
100
AcDbVertex
100
AcDb2dVertex
 10
2.149584661697006
 20
3.788805283243443
 30
0.0
  0
VERTEX
  5
3414
330
2A6E
100
AcDbEntity
  8
0
100
AcDbVertex
100
AcDb2dVertex
 10
2.178455330988345
 20
3.795366798991475
 30
0.0
  0
VERTEX
  5
3415
330
2A6E
100
AcDbEntity
  8
0
100
AcDbVertex
100
AcDb2dVertex
 10
2.202076787681258
 20
3.813739043085964
 30
0.0
  0
VERTEX
  5
3416
330
2A6E
100
AcDbEntity
  8
0
100
AcDbVertex
100
AcDb2dVertex
 10
2.215199819177321
 20
3.841297409227695
 30
0.0
  0
VERTEX
  5
3417
330
2A6E
100
AcDbEntity
  8
0
100
AcDbVertex
100
AcDb2dVertex
 10
2.215199819177321
 20
3.87148038166864
 30
0.0
  0
VERTEX
  5
3418
330
2A6E
100
AcDbEntity
  8
0
100
AcDbVertex
100
AcDb2dVertex
 10
2.202076787681258
 20
3.899038747810372
 30
0.0
  0
VERTEX
  5
3419
330
2A6E
100
AcDbEntity
  8
0
100
AcDbVertex
100
AcDb2dVertex
 10
2.179767634137951
 20
3.917410991904861
 30
0.0
  0
VERTEX
  5
341A
330
2A6E
100
AcDbEntity
  8
0
100
AcDbVertex
100
AcDb2dVertex
 10
2.149584661697006
 20
3.925284810802498
 30
0.0
  0
SEQEND
  5
341B
330
2A6E
100
AcDbEntity
  8
0
  0
LINE
  5
2A78
330
1E
100
AcDbEntity
  8
0
100
AcDbLine
 10
2.149584661697006
 20
3.923972507652892
 30
0.0
 11
2.149584661697006
 21
3.925284810802498
 31
0.0
  0
LINE
  5
2A79
330
1E
100
AcDbEntity
  8
0
100
AcDbLine
 10
2.028852771933226
 20
3.969903117889113
 30
0.0
 11
2.028852771933226
 21
3.925284810802498
 31
0.0
  0
POLYLINE
  5
2A7A
330
1E
100
AcDbEntity
  8
0
100
AcDb2dPolyline
 66
     1
 10
0.0
 20
0.0
 30
0.0
  0
VERTEX
  5
341C
330
2A7A
100
AcDbEntity
  8
0
100
AcDbVertex
100
AcDb2dVertex
 10
2.149584661697006
 20
3.969903117889113
 30
0.0
  0
VERTEX
  5
341D
330
2A7A
100
AcDbEntity
  8
0
100
AcDbVertex
100
AcDb2dVertex
 10
2.185016846736376
 20
3.964653905290687
 30
0.0
  0
VERTEX
  5
341E
330
2A7A
100
AcDbEntity
  8
0
100
AcDbVertex
100
AcDb2dVertex
 10
2.216512122326927
 20
3.947593964345806
 30
0.0
  0
VERTEX
  5
341F
330
2A7A
100
AcDbEntity
  8
0
100
AcDbVertex
100
AcDb2dVertex
 10
2.241445882169447
 20
3.922660204503286
 30
0.0
  0
VERTEX
  5
3420
330
2A7A
100
AcDbEntity
  8
0
100
AcDbVertex
100
AcDb2dVertex
 10
2.257193519964723
 20
3.891164928912735
 30
0.0
  0
VERTEX
  5
3421
330
2A7A
100
AcDbEntity
  8
0
100
AcDbVertex
100
AcDb2dVertex
 10
2.262442732563148
 20
3.855732743873365
 30
0.0
  0
VERTEX
  5
3422
330
2A7A
100
AcDbEntity
  8
0
100
AcDbVertex
100
AcDb2dVertex
 10
2.257193519964723
 20
3.821612861983601
 30
0.0
  0
VERTEX
  5
3423
330
2A7A
100
AcDbEntity
  8
0
100
AcDbVertex
100
AcDb2dVertex
 10
2.241445882169447
 20
3.79011758639305
 30
0.0
  0
VERTEX
  5
3424
330
2A7A
100
AcDbEntity
  8
0
100
AcDbVertex
100
AcDb2dVertex
 10
2.215199819177321
 20
3.76518382655053
 30
0.0
  0
VERTEX
  5
3425
330
2A7A
100
AcDbEntity
  8
0
100
AcDbVertex
100
AcDb2dVertex
 10
2.18370454358677
 20
3.748123885605648
 30
0.0
  0
VERTEX
  5
3426
330
2A7A
100
AcDbEntity
  8
0
100
AcDbVertex
100
AcDb2dVertex
 10
2.149584661697006
 20
3.742874673007223
 30
0.0
  0
SEQEND
  5
3427
330
2A7A
100
AcDbEntity
  8
0
  0
LINE
  5
2A87
330
1E
100
AcDbEntity
  8
0
100
AcDbLine
 10
2.149584661697006
 20
3.925284810802498
 30
0.0
 11
2.149584661697006
 21
3.969903117889113
 31
0.0
  0
POLYLINE
  5
2A88
330
1E
100
AcDbEntity
  8
0
100
AcDb2dPolyline
 66
     1
 10
0.0
 20
0.0
 30
0.0
  0
VERTEX
  5
3428
330
2A88
100
AcDbEntity
  8
0
100
AcDbVertex
100
AcDb2dVertex
 10
2.150896964846612
 20
3.971215421038719
 30
0.0
  0
VERTEX
  5
3429
330
2A88
100
AcDbEntity
  8
0
100
AcDbVertex
100
AcDb2dVertex
 10
2.186329149885982
 20
3.965966208440294
 30
0.0
  0
VERTEX
  5
342A
330
2A88
100
AcDbEntity
  8
0
100
AcDbVertex
100
AcDb2dVertex
 10
2.217824425476534
 20
3.948906267495412
 30
0.0
  0
VERTEX
  5
342B
330
2A88
100
AcDbEntity
  8
0
100
AcDbVertex
100
AcDb2dVertex
 10
2.242758185319053
 20
3.922660204503286
 30
0.0
  0
VERTEX
  5
342C
330
2A88
100
AcDbEntity
  8
0
100
AcDbVertex
100
AcDb2dVertex
 10
2.258505823114329
 20
3.891164928912735
 30
0.0
  0
VERTEX
  5
342D
330
2A88
100
AcDbEntity
  8
0
100
AcDbVertex
100
AcDb2dVertex
 10
2.263755035712754
 20
3.855732743873365
 30
0.0
  0
VERTEX
  5
342E
330
2A88
100
AcDbEntity
  8
0
100
AcDbVertex
100
AcDb2dVertex
 10
2.258505823114329
 20
3.820300558833994
 30
0.0
  0
VERTEX
  5
342F
330
2A88
100
AcDbEntity
  8
0
100
AcDbVertex
100
AcDb2dVertex
 10
2.241445882169447
 20
3.788805283243443
 30
0.0
  0
VERTEX
  5
3430
330
2A88
100
AcDbEntity
  8
0
100
AcDbVertex
100
AcDb2dVertex
 10
2.216512122326927
 20
3.763871523400923
 30
0.0
  0
VERTEX
  5
3431
330
2A88
100
AcDbEntity
  8
0
100
AcDbVertex
100
AcDb2dVertex
 10
2.185016846736376
 20
3.746811582456042
 30
0.0
  0
VERTEX
  5
3432
330
2A88
100
AcDbEntity
  8
0
100
AcDbVertex
100
AcDb2dVertex
 10
2.149584661697006
 20
3.741562369857617
 30
0.0
  0
SEQEND
  5
3433
330
2A88
100
AcDbEntity
  8
0
  0
LINE
  5
2A95
330
1E
100
AcDbEntity
  8
0
100
AcDbLine
 10
2.149584661697006
 20
3.969903117889113
 30
0.0
 11
2.150896964846612
 21
3.971215421038719
 31
0.0
  0
LINE
  5
2A96
330
1E
100
AcDbEntity
  8
0
100
AcDbLine
 10
2.409420685319053
 20
3.735000854109586
 30
0.0
 11
2.409420685319053
 21
3.787492980093837
 31
0.0
  0
LINE
  5
2A97
330
1E
100
AcDbEntity
  8
0
100
AcDbLine
 10
2.409420685319053
 20
3.787492980093837
 30
0.0
 11
2.434354445161573
 21
3.787492980093837
 31
0.0
  0
LINE
  5
2A98
330
1E
100
AcDbEntity
  8
0
100
AcDbLine
 10
2.409420685319053
 20
3.925284810802498
 30
0.0
 11
2.434354445161573
 21
3.925284810802498
 31
0.0
  0
LINE
  5
2A99
330
1E
100
AcDbEntity
  8
0
100
AcDbLine
 10
2.409420685319053
 20
3.925284810802498
 30
0.0
 11
2.409420685319053
 21
3.977776936786751
 31
0.0
  0
LINE
  5
2A9A
330
1E
100
AcDbEntity
  8
0
100
AcDbLine
 10
2.150896964846612
 20
3.977776936786751
 30
0.0
 11
2.409420685319053
 21
3.977776936786751
 31
0.0
  0
LINE
  5
2A9B
330
1E
100
AcDbEntity
  8
0
100
AcDbLine
 10
2.150896964846612
 20
3.971215421038719
 30
0.0
 11
2.150896964846612
 21
3.977776936786751
 31
0.0
  0
LINE
  5
2A9C
330
1E
100
AcDbEntity
  8
0
100
AcDbLine
 10
2.02754046878362
 20
3.977776936786751
 30
0.0
 11
2.02754046878362
 21
3.971215421038719
 31
0.0
  0
LINE
  5
2A9D
330
1E
100
AcDbEntity
  8
0
100
AcDbLine
 10
1.76901674831118
 20
3.925284810802498
 30
0.0
 11
1.76901674831118
 21
3.977776936786751
 31
0.0
  0
LINE
  5
2A9E
330
1E
100
AcDbEntity
  8
0
100
AcDbLine
 10
1.76901674831118
 20
3.925284810802498
 30
0.0
 11
1.744082988468659
 21
3.925284810802498
 31
0.0
  0
LINE
  5
2A9F
330
1E
100
AcDbEntity
  8
0
100
AcDbLine
 10
1.76901674831118
 20
3.787492980093837
 30
0.0
 11
1.744082988468659
 21
3.787492980093837
 31
0.0
  0
LINE
  5
2AA0
330
1E
100
AcDbEntity
  8
0
100
AcDbLine
 10
1.76901674831118
 20
3.735000854109586
 30
0.0
 11
1.76901674831118
 21
3.787492980093837
 31
0.0
  0
LINE
  5
2AA1
330
1E
100
AcDbEntity
  8
0
100
AcDbLine
 10
2.152209267996219
 20
3.979089239936357
 30
0.0
 11
2.41073298846866
 21
3.979089239936357
 31
0.0
  0
LINE
  5
2AA2
330
1E
100
AcDbEntity
  8
0
100
AcDbLine
 10
2.150896964846612
 20
3.977776936786751
 30
0.0
 11
2.152209267996219
 21
3.979089239936357
 31
0.0
  0
LINE
  5
2AA3
330
1E
100
AcDbEntity
  8
0
100
AcDbLine
 10
2.409420685319053
 20
3.977776936786751
 30
0.0
 11
2.409420685319053
 21
3.977776936786751
 31
0.0
  0
LINE
  5
2AA4
330
1E
100
AcDbEntity
  8
0
100
AcDbLine
 10
2.150896964846612
 20
4.019770637574152
 30
0.0
 11
2.144335449098581
 21
4.019770637574152
 31
0.0
  0
LINE
  5
2AA5
330
1E
100
AcDbEntity
  8
0
100
AcDbLine
 10
2.034101984531651
 20
4.019770637574152
 30
0.0
 11
2.02754046878362
 21
4.019770637574152
 31
0.0
  0
POLYLINE
  5
2AA6
330
1E
100
AcDbEntity
  8
0
100
AcDb2dPolyline
 66
     1
 10
0.0
 20
0.0
 30
0.0
  0
VERTEX
  5
3434
330
2AA6
100
AcDbEntity
  8
0
100
AcDbVertex
100
AcDb2dVertex
 10
2.149584661697006
 20
3.989587665133208
 30
0.0
  0
VERTEX
  5
3435
330
2AA6
100
AcDbEntity
  8
0
100
AcDbVertex
100
AcDb2dVertex
 10
2.149584661697006
 20
4.005335302928483
 30
0.0
  0
VERTEX
  5
3436
330
2AA6
100
AcDbEntity
  8
0
100
AcDbVertex
100
AcDb2dVertex
 10
2.149584661697006
 20
4.015833728125334
 30
0.0
  0
VERTEX
  5
3437
330
2AA6
100
AcDbEntity
  8
0
100
AcDbVertex
100
AcDb2dVertex
 10
2.149584661697006
 20
4.019770637574152
 30
0.0
  0
SEQEND
  5
3438
330
2AA6
100
AcDbEntity
  8
0
  0
POLYLINE
  5
2AAC
330
1E
100
AcDbEntity
  8
0
100
AcDb2dPolyline
 66
     1
 10
0.0
 20
0.0
 30
0.0
  0
VERTEX
  5
3439
330
2AAC
100
AcDbEntity
  8
0
100
AcDbVertex
100
AcDb2dVertex
 10
2.028852771933226
 20
4.019770637574152
 30
0.0
  0
VERTEX
  5
343A
330
2AAC
100
AcDbEntity
  8
0
100
AcDbVertex
100
AcDb2dVertex
 10
2.028852771933226
 20
4.015833728125334
 30
0.0
  0
VERTEX
  5
343B
330
2AAC
100
AcDbEntity
  8
0
100
AcDbVertex
100
AcDb2dVertex
 10
2.028852771933226
 20
4.005335302928483
 30
0.0
  0
VERTEX
  5
343C
330
2AAC
100
AcDbEntity
  8
0
100
AcDbVertex
100
AcDb2dVertex
 10
2.028852771933226
 20
3.989587665133208
 30
0.0
  0
SEQEND
  5
343D
330
2AAC
100
AcDbEntity
  8
0
  0
LINE
  5
2AB2
330
1E
100
AcDbEntity
  8
0
100
AcDbLine
 10
2.028852771933226
 20
3.989587665133208
 30
0.0
 11
2.034101984531651
 21
3.989587665133208
 31
0.0
  0
LINE
  5
2AB3
330
1E
100
AcDbEntity
  8
0
100
AcDbLine
 10
2.144335449098581
 20
3.989587665133208
 30
0.0
 11
2.149584661697006
 21
3.989587665133208
 31
0.0
  0
LINE
  5
2AB4
330
1E
100
AcDbEntity
  8
0
100
AcDbLine
 10
2.028852771933226
 20
3.989587665133208
 30
0.0
 11
2.028852771933226
 21
3.923972507652892
 31
0.0
  0
LINE
  5
2AB5
330
1E
100
AcDbEntity
  8
0
100
AcDbLine
 10
2.149584661697006
 20
3.989587665133208
 30
0.0
 11
2.149584661697006
 21
3.923972507652892
 31
0.0
  0
LINE
  5
2AB6
330
1E
100
AcDbEntity
  8
0
100
AcDbLine
 10
2.152209267996219
 20
4.00664760607809
 30
0.0
 11
2.457975901854486
 21
4.00664760607809
 31
0.0
  0
LINE
  5
2AB7
330
1E
100
AcDbEntity
  8
0
100
AcDbLine
 10
2.152209267996219
 20
4.00664760607809
 30
0.0
 11
2.152209267996219
 21
3.979089239936357
 31
0.0
  0
LINE
  5
2AB8
330
1E
100
AcDbEntity
  8
0
100
AcDbLine
 10
2.026228165634014
 20
4.00664760607809
 30
0.0
 11
2.026228165634014
 21
3.979089239936357
 31
0.0
  0
LINE
  5
2AB9
330
1E
100
AcDbEntity
  8
0
100
AcDbLine
 10
1.71914922862614
 20
4.00664760607809
 30
0.0
 11
2.026228165634014
 21
4.00664760607809
 31
0.0
  0
POLYLINE
  5
2ABA
330
1E
100
AcDbEntity
  8
0
100
AcDb2dPolyline
 66
     1
 10
0.0
 20
0.0
 30
0.0
  0
VERTEX
  5
343E
330
2ABA
100
AcDbEntity
  8
0
100
AcDbVertex
100
AcDb2dVertex
 10
1.71914922862614
 20
4.00664760607809
 30
0.0
  0
VERTEX
  5
343F
330
2ABA
100
AcDbEntity
  8
0
100
AcDbVertex
100
AcDb2dVertex
 10
1.704713893980471
 20
4.00271069662927
 30
0.0
  0
VERTEX
  5
3440
330
2ABA
100
AcDbEntity
  8
0
100
AcDbVertex
100
AcDb2dVertex
 10
1.694215468783621
 20
3.992212271432419
 30
0.0
  0
VERTEX
  5
3441
330
2ABA
100
AcDbEntity
  8
0
100
AcDbVertex
100
AcDb2dVertex
 10
1.690278559334801
 20
3.976464633637144
 30
0.0
  0
SEQEND
  5
3442
330
2ABA
100
AcDbEntity
  8
0
  0
LINE
  5
2AC0
330
1E
100
AcDbEntity
  8
0
100
AcDbLine
 10
1.690278559334801
 20
3.976464633637144
 30
0.0
 11
1.690278559334801
 21
3.736313157259191
 31
0.0
  0
POLYLINE
  5
2AC1
330
1E
100
AcDbEntity
  8
0
100
AcDb2dPolyline
 66
     1
 10
0.0
 20
0.0
 30
0.0
  0
VERTEX
  5
3443
330
2AC1
100
AcDbEntity
  8
0
100
AcDbVertex
100
AcDb2dVertex
 10
1.690278559334801
 20
3.736313157259191
 30
0.0
  0
VERTEX
  5
3444
330
2AC1
100
AcDbEntity
  8
0
100
AcDbVertex
100
AcDb2dVertex
 10
1.694215468783621
 20
3.721877822613523
 30
0.0
  0
VERTEX
  5
3445
330
2AC1
100
AcDbEntity
  8
0
100
AcDbVertex
100
AcDb2dVertex
 10
1.704713893980471
 20
3.710067094267065
 30
0.0
  0
VERTEX
  5
3446
330
2AC1
100
AcDbEntity
  8
0
100
AcDbVertex
100
AcDb2dVertex
 10
1.71914922862614
 20
3.706130184818247
 30
0.0
  0
SEQEND
  5
3447
330
2AC1
100
AcDbEntity
  8
0
  0
LINE
  5
2AC7
330
1E
100
AcDbEntity
  8
0
100
AcDbLine
 10
1.71914922862614
 20
3.706130184818247
 30
0.0
 11
2.457975901854486
 21
3.706130184818247
 31
0.0
  0
POLYLINE
  5
2AC8
330
1E
100
AcDbEntity
  8
0
100
AcDb2dPolyline
 66
     1
 10
0.0
 20
0.0
 30
0.0
  0
VERTEX
  5
3448
330
2AC8
100
AcDbEntity
  8
0
100
AcDbVertex
100
AcDb2dVertex
 10
2.488158874295432
 20
3.736313157259191
 30
0.0
  0
VERTEX
  5
3449
330
2AC8
100
AcDbEntity
  8
0
100
AcDbVertex
100
AcDb2dVertex
 10
2.484221964846612
 20
3.721877822613523
 30
0.0
  0
VERTEX
  5
344A
330
2AC8
100
AcDbEntity
  8
0
100
AcDbVertex
100
AcDb2dVertex
 10
2.473723539649762
 20
3.710067094267065
 30
0.0
  0
VERTEX
  5
344B
330
2AC8
100
AcDbEntity
  8
0
100
AcDbVertex
100
AcDb2dVertex
 10
2.457975901854486
 20
3.706130184818247
 30
0.0
  0
SEQEND
  5
344C
330
2AC8
100
AcDbEntity
  8
0
  0
LINE
  5
2ACE
330
1E
100
AcDbEntity
  8
0
100
AcDbLine
 10
2.488158874295431
 20
3.976464633637144
 30
0.0
 11
2.488158874295431
 21
3.736313157259191
 31
0.0
  0
POLYLINE
  5
2ACF
330
1E
100
AcDbEntity
  8
0
100
AcDb2dPolyline
 66
     1
 10
0.0
 20
0.0
 30
0.0
  0
VERTEX
  5
344D
330
2ACF
100
AcDbEntity
  8
0
100
AcDbVertex
100
AcDb2dVertex
 10
2.457975901854486
 20
4.00664760607809
 30
0.0
  0
VERTEX
  5
344E
330
2ACF
100
AcDbEntity
  8
0
100
AcDbVertex
100
AcDb2dVertex
 10
2.473723539649762
 20
4.00271069662927
 30
0.0
  0
VERTEX
  5
344F
330
2ACF
100
AcDbEntity
  8
0
100
AcDbVertex
100
AcDb2dVertex
 10
2.484221964846612
 20
3.992212271432419
 30
0.0
  0
VERTEX
  5
3450
330
2ACF
100
AcDbEntity
  8
0
100
AcDbVertex
100
AcDb2dVertex
 10
2.488158874295432
 20
3.976464633637144
 30
0.0
  0
SEQEND
  5
3451
330
2ACF
100
AcDbEntity
  8
0
  0
LINE
  5
2AD5
330
1E
100
AcDbEntity
  8
0
100
AcDbLine
 10
1.636474130200944
 20
3.962029298991474
 30
0.0
 11
1.622038795555274
 21
3.967278511589901
 31
0.0
  0
LINE
  5
2AD6
330
1E
100
AcDbEntity
  8
0
100
AcDbLine
 10
1.674530921539526
 20
3.962029298991474
 30
0.0
 11
1.636474130200944
 21
3.962029298991474
 31
0.0
  0
LINE
  5
2AD7
330
1E
100
AcDbEntity
  8
0
100
AcDbLine
 10
1.677155527838738
 20
3.967278511589901
 30
0.0
 11
1.674530921539526
 21
3.962029298991474
 31
0.0
  0
LINE
  5
2AD8
330
1E
100
AcDbEntity
  8
0
100
AcDbLine
 10
1.68371704358677
 20
3.951530873794624
 30
0.0
 11
1.686341649885982
 21
3.956780086393049
 31
0.0
  0
LINE
  5
2AD9
330
1E
100
AcDbEntity
  8
0
100
AcDbLine
 10
1.686341649885982
 20
3.755997704503286
 30
0.0
 11
1.68371704358677
 21
3.761246917101711
 31
0.0
  0
LINE
  5
2ADA
330
1E
100
AcDbEntity
  8
0
100
AcDbLine
 10
1.674530921539526
 20
3.752060795054467
 30
0.0
 11
1.677155527838738
 21
3.745499279306436
 31
0.0
  0
LINE
  5
2ADB
330
1E
100
AcDbEntity
  8
0
100
AcDbLine
 10
1.674530921539526
 20
3.752060795054467
 30
0.0
 11
1.636474130200944
 21
3.752060795054467
 31
0.0
  0
LINE
  5
2ADC
330
1E
100
AcDbEntity
  8
0
100
AcDbLine
 10
1.636474130200944
 20
3.752060795054467
 30
0.0
 11
1.622038795555274
 21
3.745499279306436
 31
0.0
  0
LINE
  5
2ADD
330
1E
100
AcDbEntity
  8
0
100
AcDbLine
 10
1.636474130200944
 20
3.752060795054467
 30
0.0
 11
1.628600311303305
 21
3.754685401353679
 31
0.0
  0
LINE
  5
2ADE
330
1E
100
AcDbEntity
  8
0
100
AcDbLine
 10
1.636474130200944
 20
3.962029298991474
 30
0.0
 11
1.628600311303305
 21
3.958092389542656
 31
0.0
  0
LINE
  5
2ADF
330
1E
100
AcDbEntity
  8
0
100
AcDbLine
 10
2.541963303429289
 20
3.752060795054467
 30
0.0
 11
2.555086334925352
 21
3.745499279306436
 31
0.0
  0
LINE
  5
2AE0
330
1E
100
AcDbEntity
  8
0
100
AcDbLine
 10
2.503906512090707
 20
3.752060795054467
 30
0.0
 11
2.541963303429289
 21
3.752060795054467
 31
0.0
  0
LINE
  5
2AE1
330
1E
100
AcDbEntity
  8
0
100
AcDbLine
 10
2.503906512090707
 20
3.752060795054467
 30
0.0
 11
2.501281905791494
 21
3.745499279306436
 31
0.0
  0
LINE
  5
2AE2
330
1E
100
AcDbEntity
  8
0
100
AcDbLine
 10
2.490783480594644
 20
3.755997704503286
 30
0.0
 11
2.493408086893857
 21
3.761246917101711
 31
0.0
  0
LINE
  5
2AE3
330
1E
100
AcDbEntity
  8
0
100
AcDbLine
 10
2.493408086893857
 20
3.951530873794624
 30
0.0
 11
2.490783480594644
 21
3.956780086393049
 31
0.0
  0
LINE
  5
2AE4
330
1E
100
AcDbEntity
  8
0
100
AcDbLine
 10
2.501281905791494
 20
3.967278511589901
 30
0.0
 11
2.503906512090707
 21
3.962029298991474
 31
0.0
  0
LINE
  5
2AE5
330
1E
100
AcDbEntity
  8
0
100
AcDbLine
 10
2.503906512090707
 20
3.962029298991474
 30
0.0
 11
2.541963303429289
 21
3.962029298991474
 31
0.0
  0
LINE
  5
2AE6
330
1E
100
AcDbEntity
  8
0
100
AcDbLine
 10
2.541963303429289
 20
3.962029298991474
 30
0.0
 11
2.555086334925352
 21
3.967278511589901
 31
0.0
  0
LINE
  5
2AE7
330
1E
100
AcDbEntity
  8
0
100
AcDbLine
 10
2.541963303429289
 20
3.962029298991474
 30
0.0
 11
2.549837122326927
 21
3.958092389542656
 31
0.0
  0
LINE
  5
2AE8
330
1E
100
AcDbEntity
  8
0
100
AcDbLine
 10
2.541963303429289
 20
3.752060795054467
 30
0.0
 11
2.549837122326927
 21
3.754685401353679
 31
0.0
  0
LINE
  5
2AE9
330
1E
100
AcDbEntity
  8
0
100
AcDbLine
 10
1.690278559334801
 20
3.976464633637144
 30
0.0
 11
1.688966256185195
 21
3.977776936786751
 31
0.0
  0
LINE
  5
2AEA
330
1E
100
AcDbEntity
  8
0
100
AcDbLine
 10
1.688966256185195
 20
3.735000854109586
 30
0.0
 11
1.690278559334801
 21
3.736313157259191
 31
0.0
  0
LINE
  5
2AEB
330
1E
100
AcDbEntity
  8
0
100
AcDbLine
 10
1.71914922862614
 20
4.007959909227695
 30
0.0
 11
1.71914922862614
 21
4.00664760607809
 31
0.0
  0
LINE
  5
2AEC
330
1E
100
AcDbEntity
  8
0
100
AcDbLine
 10
2.026228165634014
 20
4.00664760607809
 30
0.0
 11
2.026228165634014
 21
4.007959909227695
 31
0.0
  0
POLYLINE
  5
2AED
330
1E
100
AcDbEntity
  8
0
100
AcDb2dPolyline
 66
     1
 10
0.0
 20
0.0
 30
0.0
  0
VERTEX
  5
3452
330
2AED
100
AcDbEntity
  8
0
100
AcDbVertex
100
AcDb2dVertex
 10
2.02754046878362
 20
4.019770637574152
 30
0.0
  0
VERTEX
  5
3453
330
2AED
100
AcDbEntity
  8
0
100
AcDbVertex
100
AcDb2dVertex
 10
2.026228165634014
 20
4.02370754702297
 30
0.0
  0
VERTEX
  5
3454
330
2AED
100
AcDbEntity
  8
0
100
AcDbVertex
100
AcDb2dVertex
 10
2.026228165634014
 20
4.035518275369428
 30
0.0
  0
VERTEX
  5
3455
330
2AED
100
AcDbEntity
  8
0
100
AcDbVertex
100
AcDb2dVertex
 10
2.026228165634014
 20
4.049953610015097
 30
0.0
  0
SEQEND
  5
3456
330
2AED
100
AcDbEntity
  8
0
  0
LINE
  5
2AF3
330
1E
100
AcDbEntity
  8
0
100
AcDbLine
 10
2.152209267996219
 20
4.007959909227695
 30
0.0
 11
2.152209267996219
 21
4.00664760607809
 31
0.0
  0
POLYLINE
  5
2AF4
330
1E
100
AcDbEntity
  8
0
100
AcDb2dPolyline
 66
     1
 10
0.0
 20
0.0
 30
0.0
  0
VERTEX
  5
3457
330
2AF4
100
AcDbEntity
  8
0
100
AcDbVertex
100
AcDb2dVertex
 10
2.152209267996219
 20
4.049953610015097
 30
0.0
  0
VERTEX
  5
3458
330
2AF4
100
AcDbEntity
  8
0
100
AcDbVertex
100
AcDb2dVertex
 10
2.150896964846612
 20
4.035518275369428
 30
0.0
  0
VERTEX
  5
3459
330
2AF4
100
AcDbEntity
  8
0
100
AcDbVertex
100
AcDb2dVertex
 10
2.150896964846612
 20
4.02370754702297
 30
0.0
  0
VERTEX
  5
345A
330
2AF4
100
AcDbEntity
  8
0
100
AcDbVertex
100
AcDb2dVertex
 10
2.150896964846612
 20
4.019770637574152
 30
0.0
  0
SEQEND
  5
345B
330
2AF4
100
AcDbEntity
  8
0
  0
LINE
  5
2AFA
330
1E
100
AcDbEntity
  8
0
100
AcDbLine
 10
2.459288205004093
 20
4.007959909227695
 30
0.0
 11
2.457975901854486
 21
4.00664760607809
 31
0.0
  0
LINE
  5
2AFB
330
1E
100
AcDbEntity
  8
0
100
AcDbLine
 10
2.488158874295431
 20
3.976464633637144
 30
0.0
 11
2.489471177445037
 21
3.977776936786751
 31
0.0
  0
LINE
  5
2AFC
330
1E
100
AcDbEntity
  8
0
100
AcDbLine
 10
2.489471177445037
 20
3.735000854109586
 30
0.0
 11
2.488158874295431
 21
3.736313157259191
 31
0.0
  0
LINE
  5
2AFD
330
1E
100
AcDbEntity
  8
0
100
AcDbLine
 10
2.457975901854486
 20
3.706130184818247
 30
0.0
 11
2.459288205004093
 21
3.706130184818247
 31
0.0
  0
LINE
  5
2AFE
330
1E
100
AcDbEntity
  8
0
100
AcDbLine
 10
1.71914922862614
 20
3.706130184818247
 30
0.0
 11
1.71914922862614
 21
3.706130184818247
 31
0.0
  0
LINE
  5
2AFF
330
1E
100
AcDbEntity
  8
0
100
AcDbLine
 10
1.628600311303305
 20
7.238850263558404
 30
0.0
 11
1.628600311303305
 21
7.238850263558404
 31
0.0
  0
LINE
  5
2B00
330
1E
100
AcDbEntity
  8
0
100
AcDbLine
 10
1.628600311303305
 20
7.036755578519034
 30
0.0
 11
1.628600311303305
 21
7.035443275369428
 31
0.0
  0
LINE
  5
2B01
330
1E
100
AcDbEntity
  8
0
100
AcDbLine
 10
2.549837122326927
 20
7.238850263558404
 30
0.0
 11
2.549837122326927
 21
7.238850263558404
 31
0.0
  0
LINE
  5
2B02
330
1E
100
AcDbEntity
  8
0
100
AcDbLine
 10
2.549837122326927
 20
7.036755578519034
 30
0.0
 11
2.549837122326927
 21
7.035443275369428
 31
0.0
  0
LINE
  5
2B03
330
1E
100
AcDbEntity
  8
0
100
AcDbLine
 10
2.549837122326927
 20
3.754685401353679
 30
0.0
 11
2.549837122326927
 21
3.755997704503286
 31
0.0
  0
LINE
  5
2B04
330
1E
100
AcDbEntity
  8
0
100
AcDbLine
 10
2.549837122326927
 20
3.958092389542656
 30
0.0
 11
2.549837122326927
 21
3.958092389542656
 31
0.0
  0
LINE
  5
2B05
330
1E
100
AcDbEntity
  8
0
100
AcDbLine
 10
1.628600311303305
 20
3.754685401353679
 30
0.0
 11
1.628600311303305
 21
3.755997704503286
 31
0.0
  0
LINE
  5
2B06
330
1E
100
AcDbEntity
  8
0
100
AcDbLine
 10
1.628600311303305
 20
3.958092389542656
 30
0.0
 11
1.628600311303305
 21
3.958092389542656
 31
0.0
  0
POLYLINE
  5
2B07
330
1E
100
AcDbEntity
  8
0
100
AcDb2dPolyline
 66
     1
 10
0.0
 20
0.0
 30
0.0
  0
VERTEX
  5
345C
330
2B07
100
AcDbEntity
  8
0
100
AcDbVertex
100
AcDb2dVertex
 10
2.17320611838992
 20
4.927884417101711
 30
0.0
  0
VERTEX
  5
345D
330
2B07
100
AcDbEntity
  8
0
100
AcDbVertex
100
AcDb2dVertex
 10
2.165332299492282
 20
4.93182132655053
 30
0.0
  0
VERTEX
  5
345E
330
2B07
100
AcDbEntity
  8
0
100
AcDbVertex
100
AcDb2dVertex
 10
2.161395390043463
 20
4.939695145448168
 30
0.0
  0
SEQEND
  5
345F
330
2B07
100
AcDbEntity
  8
0
  0
LINE
  5
2B0C
330
1E
100
AcDbEntity
  8
0
100
AcDbLine
 10
2.161395390043463
 20
4.981688846235569
 30
0.0
 11
2.161395390043463
 21
4.939695145448167
 31
0.0
  0
POLYLINE
  5
2B0D
330
1E
100
AcDbEntity
  8
0
100
AcDb2dPolyline
 66
     1
 10
0.0
 20
0.0
 30
0.0
  0
VERTEX
  5
3460
330
2B0D
100
AcDbEntity
  8
0
100
AcDbVertex
100
AcDb2dVertex
 10
2.161395390043463
 20
4.981688846235569
 30
0.0
  0
VERTEX
  5
3461
330
2B0D
100
AcDbEntity
  8
0
100
AcDbVertex
100
AcDb2dVertex
 10
2.157458480594644
 20
4.989562665133208
 30
0.0
  0
VERTEX
  5
3462
330
2B0D
100
AcDbEntity
  8
0
100
AcDbVertex
100
AcDb2dVertex
 10
2.149584661697006
 20
4.993499574582027
 30
0.0
  0
SEQEND
  5
3463
330
2B0D
100
AcDbEntity
  8
0
  0
LINE
  5
2B12
330
1E
100
AcDbEntity
  8
0
100
AcDbLine
 10
2.028852771933226
 20
4.993499574582027
 30
0.0
 11
2.149584661697006
 21
4.993499574582027
 31
0.0
  0
LINE
  5
2B13
330
1E
100
AcDbEntity
  8
0
100
AcDbLine
 10
2.707313500279683
 20
5.653588058833994
 30
0.0
 11
1.471123933350549
 21
5.653588058833994
 31
0.0
  0
POLYLINE
  5
2B14
330
1E
100
AcDbEntity
  8
0
100
AcDb2dPolyline
 66
     1
 10
0.0
 20
0.0
 30
0.0
  0
VERTEX
  5
3464
330
2B14
100
AcDbEntity
  8
0
100
AcDbVertex
100
AcDb2dVertex
 10
2.707313500279683
 20
5.653588058833994
 30
0.0
  0
VERTEX
  5
3465
330
2B14
100
AcDbEntity
  8
0
100
AcDbVertex
100
AcDb2dVertex
 10
2.715187319177321
 20
5.649651149385176
 30
0.0
  0
VERTEX
  5
3466
330
2B14
100
AcDbEntity
  8
0
100
AcDbVertex
100
AcDb2dVertex
 10
2.71912422862614
 20
5.640465027337932
 30
0.0
  0
SEQEND
  5
3467
330
2B14
100
AcDbEntity
  8
0
  0
LINE
  5
2B19
330
1E
100
AcDbEntity
  8
0
100
AcDbLine
 10
2.71912422862614
 20
5.640465027337932
 30
0.0
 11
2.71912422862614
 21
5.005310302928483
 31
0.0
  0
POLYLINE
  5
2B1A
330
1E
100
AcDbEntity
  8
0
100
AcDb2dPolyline
 66
     1
 10
0.0
 20
0.0
 30
0.0
  0
VERTEX
  5
3468
330
2B1A
100
AcDbEntity
  8
0
100
AcDbVertex
100
AcDb2dVertex
 10
2.71912422862614
 20
5.005310302928483
 30
0.0
  0
VERTEX
  5
3469
330
2B1A
100
AcDbEntity
  8
0
100
AcDbVertex
100
AcDb2dVertex
 10
2.715187319177321
 20
4.996124180881238
 30
0.0
  0
VERTEX
  5
346A
330
2B1A
100
AcDbEntity
  8
0
100
AcDbVertex
100
AcDb2dVertex
 10
2.707313500279683
 20
4.993499574582027
 30
0.0
  0
SEQEND
  5
346B
330
2B1A
100
AcDbEntity
  8
0
  0
LINE
  5
2B1F
330
1E
100
AcDbEntity
  8
0
100
AcDbLine
 10
2.664007496342675
 20
4.993499574582027
 30
0.0
 11
2.707313500279683
 21
4.993499574582027
 31
0.0
  0
POLYLINE
  5
2B20
330
1E
100
AcDbEntity
  8
0
100
AcDb2dPolyline
 66
     1
 10
0.0
 20
0.0
 30
0.0
  0
VERTEX
  5
346C
330
2B20
100
AcDbEntity
  8
0
100
AcDbVertex
100
AcDb2dVertex
 10
2.664007496342675
 20
4.993499574582027
 30
0.0
  0
VERTEX
  5
346D
330
2B20
100
AcDbEntity
  8
0
100
AcDbVertex
100
AcDb2dVertex
 10
2.654821374295431
 20
4.989562665133208
 30
0.0
  0
VERTEX
  5
346E
330
2B20
100
AcDbEntity
  8
0
100
AcDbVertex
100
AcDb2dVertex
 10
2.652196767996219
 20
4.981688846235569
 30
0.0
  0
SEQEND
  5
346F
330
2B20
100
AcDbEntity
  8
0
  0
LINE
  5
2B25
330
1E
100
AcDbEntity
  8
0
100
AcDbLine
 10
2.652196767996219
 20
4.981688846235569
 30
0.0
 11
2.652196767996219
 21
4.939695145448167
 31
0.0
  0
POLYLINE
  5
2B26
330
1E
100
AcDbEntity
  8
0
100
AcDb2dPolyline
 66
     1
 10
0.0
 20
0.0
 30
0.0
  0
VERTEX
  5
3470
330
2B26
100
AcDbEntity
  8
0
100
AcDbVertex
100
AcDb2dVertex
 10
2.652196767996219
 20
4.939695145448168
 30
0.0
  0
VERTEX
  5
3471
330
2B26
100
AcDbEntity
  8
0
100
AcDbVertex
100
AcDb2dVertex
 10
2.6482598585474
 20
4.93182132655053
 30
0.0
  0
VERTEX
  5
3472
330
2B26
100
AcDbEntity
  8
0
100
AcDbVertex
100
AcDb2dVertex
 10
2.639073736500156
 20
4.927884417101711
 30
0.0
  0
SEQEND
  5
3473
330
2B26
100
AcDbEntity
  8
0
  0
LINE
  5
2B2B
330
1E
100
AcDbEntity
  8
0
100
AcDbLine
 10
2.17320611838992
 20
4.927884417101711
 30
0.0
 11
2.639073736500156
 21
4.927884417101711
 31
0.0
  0
LINE
  5
2B2C
330
1E
100
AcDbEntity
  8
0
100
AcDbLine
 10
2.816234661697006
 20
6.036780578519034
 30
0.0
 11
2.816234661697006
 21
5.794004495841869
 31
0.0
  0
POLYLINE
  5
2B2D
330
1E
100
AcDbEntity
  8
0
100
AcDb2dPolyline
 66
     1
 10
0.0
 20
0.0
 30
0.0
  0
VERTEX
  5
3474
330
2B2D
100
AcDbEntity
  8
0
100
AcDbVertex
100
AcDb2dVertex
 10
2.816234661697006
 20
5.794004495841869
 30
0.0
  0
VERTEX
  5
3475
330
2B2D
100
AcDbEntity
  8
0
100
AcDbVertex
100
AcDb2dVertex
 10
2.810985449098581
 20
5.774319948597773
 30
0.0
  0
VERTEX
  5
3476
330
2B2D
100
AcDbEntity
  8
0
100
AcDbVertex
100
AcDb2dVertex
 10
2.796550114452912
 20
5.759884613952105
 30
0.0
  0
VERTEX
  5
3477
330
2B2D
100
AcDbEntity
  8
0
100
AcDbVertex
100
AcDb2dVertex
 10
2.776865567208818
 20
5.75463540135368
 30
0.0
  0
SEQEND
  5
3478
330
2B2D
100
AcDbEntity
  8
0
  0
LINE
  5
2B33
330
1E
100
AcDbEntity
  8
0
100
AcDbLine
 10
1.401571866421415
 20
5.75463540135368
 30
0.0
 11
2.776865567208817
 21
5.75463540135368
 31
0.0
  0
LINE
  5
2B34
330
1E
100
AcDbEntity
  8
0
100
AcDbLine
 10
1.401571866421415
 20
6.076149673007222
 30
0.0
 11
2.776865567208817
 21
6.076149673007222
 31
0.0
  0
POLYLINE
  5
2B35
330
1E
100
AcDbEntity
  8
0
100
AcDb2dPolyline
 66
     1
 10
0.0
 20
0.0
 30
0.0
  0
VERTEX
  5
3479
330
2B35
100
AcDbEntity
  8
0
100
AcDbVertex
100
AcDb2dVertex
 10
2.776865567208818
 20
6.076149673007223
 30
0.0
  0
VERTEX
  5
347A
330
2B35
100
AcDbEntity
  8
0
100
AcDbVertex
100
AcDb2dVertex
 10
2.796550114452912
 20
6.070900460408798
 30
0.0
  0
VERTEX
  5
347B
330
2B35
100
AcDbEntity
  8
0
100
AcDbVertex
100
AcDb2dVertex
 10
2.810985449098581
 20
6.056465125763129
 30
0.0
  0
VERTEX
  5
347C
330
2B35
100
AcDbEntity
  8
0
100
AcDbVertex
100
AcDb2dVertex
 10
2.816234661697006
 20
6.036780578519034
 30
0.0
  0
SEQEND
  5
347D
330
2B35
100
AcDbEntity
  8
0
  0
LINE
  5
2B3B
330
1E
100
AcDbEntity
  8
0
100
AcDbLine
 10
1.625975705004093
 20
3.695631759621397
 30
0.0
 11
2.551149425476534
 21
3.695631759621397
 31
0.0
  0
POLYLINE
  5
2B3C
330
1E
100
AcDbEntity
  8
0
100
AcDb2dPolyline
 66
     1
 10
0.0
 20
0.0
 30
0.0
  0
VERTEX
  5
347E
330
2B3C
100
AcDbEntity
  8
0
100
AcDbVertex
100
AcDb2dVertex
 10
1.625975705004093
 20
3.755997704503286
 30
0.0
  0
VERTEX
  5
347F
330
2B3C
100
AcDbEntity
  8
0
100
AcDbVertex
100
AcDb2dVertex
 10
1.608915764059211
 20
3.749436188755255
 30
0.0
  0
VERTEX
  5
3480
330
2B3C
100
AcDbEntity
  8
0
100
AcDbVertex
100
AcDb2dVertex
 10
1.59841733886236
 20
3.735000854109586
 30
0.0
  0
VERTEX
  5
3481
330
2B3C
100
AcDbEntity
  8
0
100
AcDbVertex
100
AcDb2dVertex
 10
1.59841733886236
 20
3.716628610015098
 30
0.0
  0
VERTEX
  5
3482
330
2B3C
100
AcDbEntity
  8
0
100
AcDbVertex
100
AcDb2dVertex
 10
1.608915764059211
 20
3.700880972219822
 30
0.0
  0
VERTEX
  5
3483
330
2B3C
100
AcDbEntity
  8
0
100
AcDbVertex
100
AcDb2dVertex
 10
1.625975705004093
 20
3.695631759621396
 30
0.0
  0
SEQEND
  5
3484
330
2B3C
100
AcDbEntity
  8
0
  0
LINE
  5
2B44
330
1E
100
AcDbEntity
  8
0
100
AcDbLine
 10
1.625975705004093
 20
3.958092389542656
 30
0.0
 11
1.625975705004093
 21
3.755997704503286
 31
0.0
  0
POLYLINE
  5
2B45
330
1E
100
AcDbEntity
  8
0
100
AcDb2dPolyline
 66
     1
 10
0.0
 20
0.0
 30
0.0
  0
VERTEX
  5
3485
330
2B45
100
AcDbEntity
  8
0
100
AcDbVertex
100
AcDb2dVertex
 10
1.625975705004093
 20
4.01714603127494
 30
0.0
  0
VERTEX
  5
3486
330
2B45
100
AcDbEntity
  8
0
100
AcDbVertex
100
AcDb2dVertex
 10
1.608915764059211
 20
4.011896818676515
 30
0.0
  0
VERTEX
  5
3487
330
2B45
100
AcDbEntity
  8
0
100
AcDbVertex
100
AcDb2dVertex
 10
1.59841733886236
 20
3.997461484030845
 30
0.0
  0
VERTEX
  5
3488
330
2B45
100
AcDbEntity
  8
0
100
AcDbVertex
100
AcDb2dVertex
 10
1.59841733886236
 20
3.977776936786751
 30
0.0
  0
VERTEX
  5
3489
330
2B45
100
AcDbEntity
  8
0
100
AcDbVertex
100
AcDb2dVertex
 10
1.608915764059211
 20
3.963341602141082
 30
0.0
  0
VERTEX
  5
348A
330
2B45
100
AcDbEntity
  8
0
100
AcDbVertex
100
AcDb2dVertex
 10
1.625975705004093
 20
3.958092389542656
 30
0.0
  0
SEQEND
  5
348B
330
2B45
100
AcDbEntity
  8
0
  0
LINE
  5
2B4D
330
1E
100
AcDbEntity
  8
0
100
AcDbLine
 10
1.625975705004093
 20
4.01714603127494
 30
0.0
 11
1.944865370358423
 21
4.01714603127494
 31
0.0
  0
POLYLINE
  5
2B4E
330
1E
100
AcDbEntity
  8
0
100
AcDb2dPolyline
 66
     1
 10
0.0
 20
0.0
 30
0.0
  0
VERTEX
  5
348C
330
2B4E
100
AcDbEntity
  8
0
100
AcDbVertex
100
AcDb2dVertex
 10
1.975048342799368
 20
4.042079791117459
 30
0.0
  0
VERTEX
  5
348D
330
2B4E
100
AcDbEntity
  8
0
100
AcDbVertex
100
AcDb2dVertex
 10
1.964549917602518
 20
4.025019850172578
 30
0.0
  0
VERTEX
  5
348E
330
2B4E
100
AcDbEntity
  8
0
100
AcDbVertex
100
AcDb2dVertex
 10
1.944865370358423
 20
4.01714603127494
 30
0.0
  0
SEQEND
  5
348F
330
2B4E
100
AcDbEntity
  8
0
  0
POLYLINE
  5
2B53
330
1E
100
AcDbEntity
  8
0
100
AcDb2dPolyline
 66
     1
 10
0.0
 20
0.0
 30
0.0
  0
VERTEX
  5
3490
330
2B53
100
AcDbEntity
  8
0
100
AcDbVertex
100
AcDb2dVertex
 10
2.034101984531651
 20
4.036830578519034
 30
0.0
  0
VERTEX
  5
3491
330
2B53
100
AcDbEntity
  8
0
100
AcDbVertex
100
AcDb2dVertex
 10
2.026228165634014
 20
4.056515125763129
 30
0.0
  0
VERTEX
  5
3492
330
2B53
100
AcDbEntity
  8
0
100
AcDbVertex
100
AcDb2dVertex
 10
2.00654361838992
 20
4.06701355095998
 30
0.0
  0
VERTEX
  5
3493
330
2B53
100
AcDbEntity
  8
0
100
AcDbVertex
100
AcDb2dVertex
 10
1.985546767996219
 20
4.060452035211947
 30
0.0
  0
VERTEX
  5
3494
330
2B53
100
AcDbEntity
  8
0
100
AcDbVertex
100
AcDb2dVertex
 10
1.975048342799368
 20
4.042079791117459
 30
0.0
  0
SEQEND
  5
3495
330
2B53
100
AcDbEntity
  8
0
  0
LINE
  5
2B5A
330
1E
100
AcDbEntity
  8
0
100
AcDbLine
 10
2.144335449098581
 20
4.036830578519034
 30
0.0
 11
2.034101984531651
 21
4.036830578519034
 31
0.0
  0
POLYLINE
  5
2B5B
330
1E
100
AcDbEntity
  8
0
100
AcDb2dPolyline
 66
     1
 10
0.0
 20
0.0
 30
0.0
  0
VERTEX
  5
3496
330
2B5B
100
AcDbEntity
  8
0
100
AcDbVertex
100
AcDb2dVertex
 10
2.203389090830864
 20
4.042079791117459
 30
0.0
  0
VERTEX
  5
3497
330
2B5B
100
AcDbEntity
  8
0
100
AcDbVertex
100
AcDb2dVertex
 10
2.191578362484408
 20
4.060452035211947
 30
0.0
  0
VERTEX
  5
3498
330
2B5B
100
AcDbEntity
  8
0
100
AcDbVertex
100
AcDb2dVertex
 10
2.171893815240313
 20
4.06701355095998
 30
0.0
  0
VERTEX
  5
3499
330
2B5B
100
AcDbEntity
  8
0
100
AcDbVertex
100
AcDb2dVertex
 10
2.152209267996219
 20
4.056515125763129
 30
0.0
  0
VERTEX
  5
349A
330
2B5B
100
AcDbEntity
  8
0
100
AcDbVertex
100
AcDb2dVertex
 10
2.144335449098581
 20
4.036830578519034
 30
0.0
  0
SEQEND
  5
349B
330
2B5B
100
AcDbEntity
  8
0
  0
POLYLINE
  5
2B62
330
1E
100
AcDbEntity
  8
0
100
AcDb2dPolyline
 66
     1
 10
0.0
 20
0.0
 30
0.0
  0
VERTEX
  5
349C
330
2B62
100
AcDbEntity
  8
0
100
AcDbVertex
100
AcDb2dVertex
 10
2.233572063271809
 20
4.01714603127494
 30
0.0
  0
VERTEX
  5
349D
330
2B62
100
AcDbEntity
  8
0
100
AcDbVertex
100
AcDb2dVertex
 10
2.213887516027714
 20
4.025019850172578
 30
0.0
  0
VERTEX
  5
349E
330
2B62
100
AcDbEntity
  8
0
100
AcDbVertex
100
AcDb2dVertex
 10
2.203389090830864
 20
4.042079791117459
 30
0.0
  0
SEQEND
  5
349F
330
2B62
100
AcDbEntity
  8
0
  0
LINE
  5
2B67
330
1E
100
AcDbEntity
  8
0
100
AcDbLine
 10
2.233572063271809
 20
4.01714603127494
 30
0.0
 11
2.551149425476534
 21
4.01714603127494
 31
0.0
  0
POLYLINE
  5
2B68
330
1E
100
AcDbEntity
  8
0
100
AcDb2dPolyline
 66
     1
 10
0.0
 20
0.0
 30
0.0
  0
VERTEX
  5
34A0
330
2B68
100
AcDbEntity
  8
0
100
AcDbVertex
100
AcDb2dVertex
 10
2.551149425476534
 20
3.958092389542656
 30
0.0
  0
VERTEX
  5
34A1
330
2B68
100
AcDbEntity
  8
0
100
AcDbVertex
100
AcDb2dVertex
 10
2.569521669571022
 20
3.963341602141082
 30
0.0
  0
VERTEX
  5
34A2
330
2B68
100
AcDbEntity
  8
0
100
AcDbVertex
100
AcDb2dVertex
 10
2.580020094767872
 20
3.977776936786751
 30
0.0
  0
VERTEX
  5
34A3
330
2B68
100
AcDbEntity
  8
0
100
AcDbVertex
100
AcDb2dVertex
 10
2.580020094767872
 20
3.997461484030845
 30
0.0
  0
VERTEX
  5
34A4
330
2B68
100
AcDbEntity
  8
0
100
AcDbVertex
100
AcDb2dVertex
 10
2.569521669571022
 20
4.011896818676515
 30
0.0
  0
VERTEX
  5
34A5
330
2B68
100
AcDbEntity
  8
0
100
AcDbVertex
100
AcDb2dVertex
 10
2.551149425476534
 20
4.01714603127494
 30
0.0
  0
SEQEND
  5
34A6
330
2B68
100
AcDbEntity
  8
0
  0
LINE
  5
2B70
330
1E
100
AcDbEntity
  8
0
100
AcDbLine
 10
2.551149425476534
 20
3.958092389542656
 30
0.0
 11
2.551149425476534
 21
3.755997704503286
 31
0.0
  0
POLYLINE
  5
2B71
330
1E
100
AcDbEntity
  8
0
100
AcDb2dPolyline
 66
     1
 10
0.0
 20
0.0
 30
0.0
  0
VERTEX
  5
34A7
330
2B71
100
AcDbEntity
  8
0
100
AcDbVertex
100
AcDb2dVertex
 10
2.551149425476534
 20
3.695631759621396
 30
0.0
  0
VERTEX
  5
34A8
330
2B71
100
AcDbEntity
  8
0
100
AcDbVertex
100
AcDb2dVertex
 10
2.569521669571022
 20
3.700880972219822
 30
0.0
  0
VERTEX
  5
34A9
330
2B71
100
AcDbEntity
  8
0
100
AcDbVertex
100
AcDb2dVertex
 10
2.580020094767872
 20
3.716628610015098
 30
0.0
  0
VERTEX
  5
34AA
330
2B71
100
AcDbEntity
  8
0
100
AcDbVertex
100
AcDb2dVertex
 10
2.580020094767872
 20
3.735000854109586
 30
0.0
  0
VERTEX
  5
34AB
330
2B71
100
AcDbEntity
  8
0
100
AcDbVertex
100
AcDb2dVertex
 10
2.569521669571022
 20
3.749436188755255
 30
0.0
  0
VERTEX
  5
34AC
330
2B71
100
AcDbEntity
  8
0
100
AcDbVertex
100
AcDb2dVertex
 10
2.551149425476534
 20
3.755997704503286
 30
0.0
  0
SEQEND
  5
34AD
330
2B71
100
AcDbEntity
  8
0
  0
LINE
  5
2B79
330
1E
100
AcDbEntity
  8
0
100
AcDbLine
 10
1.625975705004093
 20
7.297903905290688
 30
0.0
 11
2.551149425476534
 21
7.297903905290688
 31
0.0
  0
POLYLINE
  5
2B7A
330
1E
100
AcDbEntity
  8
0
100
AcDb2dPolyline
 66
     1
 10
0.0
 20
0.0
 30
0.0
  0
VERTEX
  5
34AE
330
2B7A
100
AcDbEntity
  8
0
100
AcDbVertex
100
AcDb2dVertex
 10
2.551149425476534
 20
7.297903905290688
 30
0.0
  0
VERTEX
  5
34AF
330
2B7A
100
AcDbEntity
  8
0
100
AcDbVertex
100
AcDb2dVertex
 10
2.569521669571022
 20
7.292654692692263
 30
0.0
  0
VERTEX
  5
34B0
330
2B7A
100
AcDbEntity
  8
0
100
AcDbVertex
100
AcDb2dVertex
 10
2.580020094767872
 20
7.278219358046593
 30
0.0
  0
VERTEX
  5
34B1
330
2B7A
100
AcDbEntity
  8
0
100
AcDbVertex
100
AcDb2dVertex
 10
2.580020094767872
 20
7.259847113952105
 30
0.0
  0
VERTEX
  5
34B2
330
2B7A
100
AcDbEntity
  8
0
100
AcDbVertex
100
AcDb2dVertex
 10
2.569521669571022
 20
7.244099476156829
 30
0.0
  0
VERTEX
  5
34B3
330
2B7A
100
AcDbEntity
  8
0
100
AcDbVertex
100
AcDb2dVertex
 10
2.551149425476534
 20
7.238850263558404
 30
0.0
  0
SEQEND
  5
34B4
330
2B7A
100
AcDbEntity
  8
0
  0
LINE
  5
2B82
330
1E
100
AcDbEntity
  8
0
100
AcDbLine
 10
2.551149425476534
 20
7.036755578519034
 30
0.0
 11
2.551149425476534
 21
7.238850263558404
 31
0.0
  0
POLYLINE
  5
2B83
330
1E
100
AcDbEntity
  8
0
100
AcDb2dPolyline
 66
     1
 10
0.0
 20
0.0
 30
0.0
  0
VERTEX
  5
34B5
330
2B83
100
AcDbEntity
  8
0
100
AcDbVertex
100
AcDb2dVertex
 10
2.551149425476534
 20
7.036755578519034
 30
0.0
  0
VERTEX
  5
34B6
330
2B83
100
AcDbEntity
  8
0
100
AcDbVertex
100
AcDb2dVertex
 10
2.569521669571022
 20
7.030194062771004
 30
0.0
  0
VERTEX
  5
34B7
330
2B83
100
AcDbEntity
  8
0
100
AcDbVertex
100
AcDb2dVertex
 10
2.580020094767872
 20
7.015758728125334
 30
0.0
  0
VERTEX
  5
34B8
330
2B83
100
AcDbEntity
  8
0
100
AcDbVertex
100
AcDb2dVertex
 10
2.580020094767872
 20
6.997386484030844
 30
0.0
  0
VERTEX
  5
34B9
330
2B83
100
AcDbEntity
  8
0
100
AcDbVertex
100
AcDb2dVertex
 10
2.569521669571022
 20
6.981638846235568
 30
0.0
  0
VERTEX
  5
34BA
330
2B83
100
AcDbEntity
  8
0
100
AcDbVertex
100
AcDb2dVertex
 10
2.551149425476534
 20
6.976389633637143
 30
0.0
  0
SEQEND
  5
34BB
330
2B83
100
AcDbEntity
  8
0
  0
LINE
  5
2B8B
330
1E
100
AcDbEntity
  8
0
100
AcDbLine
 10
2.233572063271809
 20
6.976389633637143
 30
0.0
 11
2.551149425476534
 21
6.976389633637143
 31
0.0
  0
POLYLINE
  5
2B8C
330
1E
100
AcDbEntity
  8
0
100
AcDb2dPolyline
 66
     1
 10
0.0
 20
0.0
 30
0.0
  0
VERTEX
  5
34BC
330
2B8C
100
AcDbEntity
  8
0
100
AcDbVertex
100
AcDb2dVertex
 10
2.233572063271809
 20
6.976389633637143
 30
0.0
  0
VERTEX
  5
34BD
330
2B8C
100
AcDbEntity
  8
0
100
AcDbVertex
100
AcDb2dVertex
 10
2.213887516027714
 20
6.969828117889113
 30
0.0
  0
VERTEX
  5
34BE
330
2B8C
100
AcDbEntity
  8
0
100
AcDbVertex
100
AcDb2dVertex
 10
2.203389090830864
 20
6.951455873794625
 30
0.0
  0
SEQEND
  5
34BF
330
2B8C
100
AcDbEntity
  8
0
  0
POLYLINE
  5
2B91
330
1E
100
AcDbEntity
  8
0
100
AcDb2dPolyline
 66
     1
 10
0.0
 20
0.0
 30
0.0
  0
VERTEX
  5
34C0
330
2B91
100
AcDbEntity
  8
0
100
AcDbVertex
100
AcDb2dVertex
 10
2.203389090830864
 20
6.951455873794625
 30
0.0
  0
VERTEX
  5
34C1
330
2B91
100
AcDbEntity
  8
0
100
AcDbVertex
100
AcDb2dVertex
 10
2.191578362484408
 20
6.933083629700137
 30
0.0
  0
VERTEX
  5
34C2
330
2B91
100
AcDbEntity
  8
0
100
AcDbVertex
100
AcDb2dVertex
 10
2.171893815240313
 20
6.927834417101712
 30
0.0
  0
VERTEX
  5
34C3
330
2B91
100
AcDbEntity
  8
0
100
AcDbVertex
100
AcDb2dVertex
 10
2.152209267996219
 20
6.937020539148955
 30
0.0
  0
VERTEX
  5
34C4
330
2B91
100
AcDbEntity
  8
0
100
AcDbVertex
100
AcDb2dVertex
 10
2.144335449098581
 20
6.958017389542657
 30
0.0
  0
SEQEND
  5
34C5
330
2B91
100
AcDbEntity
  8
0
  0
LINE
  5
2B98
330
1E
100
AcDbEntity
  8
0
100
AcDbLine
 10
2.144335449098581
 20
6.958017389542656
 30
0.0
 11
2.034101984531651
 21
6.958017389542656
 31
0.0
  0
POLYLINE
  5
2B99
330
1E
100
AcDbEntity
  8
0
100
AcDb2dPolyline
 66
     1
 10
0.0
 20
0.0
 30
0.0
  0
VERTEX
  5
34C6
330
2B99
100
AcDbEntity
  8
0
100
AcDbVertex
100
AcDb2dVertex
 10
2.034101984531651
 20
6.958017389542657
 30
0.0
  0
VERTEX
  5
34C7
330
2B99
100
AcDbEntity
  8
0
100
AcDbVertex
100
AcDb2dVertex
 10
2.026228165634014
 20
6.937020539148955
 30
0.0
  0
VERTEX
  5
34C8
330
2B99
100
AcDbEntity
  8
0
100
AcDbVertex
100
AcDb2dVertex
 10
2.00654361838992
 20
6.927834417101712
 30
0.0
  0
VERTEX
  5
34C9
330
2B99
100
AcDbEntity
  8
0
100
AcDbVertex
100
AcDb2dVertex
 10
1.985546767996219
 20
6.933083629700137
 30
0.0
  0
VERTEX
  5
34CA
330
2B99
100
AcDbEntity
  8
0
100
AcDbVertex
100
AcDb2dVertex
 10
1.975048342799368
 20
6.951455873794625
 30
0.0
  0
SEQEND
  5
34CB
330
2B99
100
AcDbEntity
  8
0
  0
POLYLINE
  5
2BA0
330
1E
100
AcDbEntity
  8
0
100
AcDb2dPolyline
 66
     1
 10
0.0
 20
0.0
 30
0.0
  0
VERTEX
  5
34CC
330
2BA0
100
AcDbEntity
  8
0
100
AcDbVertex
100
AcDb2dVertex
 10
1.975048342799368
 20
6.951455873794625
 30
0.0
  0
VERTEX
  5
34CD
330
2BA0
100
AcDbEntity
  8
0
100
AcDbVertex
100
AcDb2dVertex
 10
1.964549917602518
 20
6.969828117889113
 30
0.0
  0
VERTEX
  5
34CE
330
2BA0
100
AcDbEntity
  8
0
100
AcDbVertex
100
AcDb2dVertex
 10
1.944865370358423
 20
6.976389633637143
 30
0.0
  0
SEQEND
  5
34CF
330
2BA0
100
AcDbEntity
  8
0
  0
LINE
  5
2BA5
330
1E
100
AcDbEntity
  8
0
100
AcDbLine
 10
1.625975705004093
 20
6.976389633637143
 30
0.0
 11
1.944865370358423
 21
6.976389633637143
 31
0.0
  0
POLYLINE
  5
2BA6
330
1E
100
AcDbEntity
  8
0
100
AcDb2dPolyline
 66
     1
 10
0.0
 20
0.0
 30
0.0
  0
VERTEX
  5
34D0
330
2BA6
100
AcDbEntity
  8
0
100
AcDbVertex
100
AcDb2dVertex
 10
1.625975705004093
 20
6.976389633637143
 30
0.0
  0
VERTEX
  5
34D1
330
2BA6
100
AcDbEntity
  8
0
100
AcDbVertex
100
AcDb2dVertex
 10
1.608915764059211
 20
6.981638846235568
 30
0.0
  0
VERTEX
  5
34D2
330
2BA6
100
AcDbEntity
  8
0
100
AcDbVertex
100
AcDb2dVertex
 10
1.59841733886236
 20
6.997386484030844
 30
0.0
  0
VERTEX
  5
34D3
330
2BA6
100
AcDbEntity
  8
0
100
AcDbVertex
100
AcDb2dVertex
 10
1.59841733886236
 20
7.015758728125334
 30
0.0
  0
VERTEX
  5
34D4
330
2BA6
100
AcDbEntity
  8
0
100
AcDbVertex
100
AcDb2dVertex
 10
1.608915764059211
 20
7.030194062771004
 30
0.0
  0
VERTEX
  5
34D5
330
2BA6
100
AcDbEntity
  8
0
100
AcDbVertex
100
AcDb2dVertex
 10
1.625975705004093
 20
7.036755578519034
 30
0.0
  0
SEQEND
  5
34D6
330
2BA6
100
AcDbEntity
  8
0
  0
LINE
  5
2BAE
330
1E
100
AcDbEntity
  8
0
100
AcDbLine
 10
1.625975705004093
 20
7.036755578519034
 30
0.0
 11
1.625975705004093
 21
7.238850263558404
 31
0.0
  0
POLYLINE
  5
2BAF
330
1E
100
AcDbEntity
  8
0
100
AcDb2dPolyline
 66
     1
 10
0.0
 20
0.0
 30
0.0
  0
VERTEX
  5
34D7
330
2BAF
100
AcDbEntity
  8
0
100
AcDbVertex
100
AcDb2dVertex
 10
1.625975705004093
 20
7.238850263558404
 30
0.0
  0
VERTEX
  5
34D8
330
2BAF
100
AcDbEntity
  8
0
100
AcDbVertex
100
AcDb2dVertex
 10
1.608915764059211
 20
7.244099476156829
 30
0.0
  0
VERTEX
  5
34D9
330
2BAF
100
AcDbEntity
  8
0
100
AcDbVertex
100
AcDb2dVertex
 10
1.59841733886236
 20
7.259847113952105
 30
0.0
  0
VERTEX
  5
34DA
330
2BAF
100
AcDbEntity
  8
0
100
AcDbVertex
100
AcDb2dVertex
 10
1.59841733886236
 20
7.278219358046593
 30
0.0
  0
VERTEX
  5
34DB
330
2BAF
100
AcDbEntity
  8
0
100
AcDbVertex
100
AcDb2dVertex
 10
1.608915764059211
 20
7.292654692692263
 30
0.0
  0
VERTEX
  5
34DC
330
2BAF
100
AcDbEntity
  8
0
100
AcDbVertex
100
AcDb2dVertex
 10
1.625975705004093
 20
7.297903905290688
 30
0.0
  0
SEQEND
  5
34DD
330
2BAF
100
AcDbEntity
  8
0
  0
POLYLINE
  5
2BB7
330
1E
100
AcDbEntity
  8
0
100
AcDb2dPolyline
 66
     1
 10
0.0
 20
0.0
 30
0.0
  0
VERTEX
  5
34DE
330
2BB7
100
AcDbEntity
  8
0
100
AcDbVertex
100
AcDb2dVertex
 10
2.028852771933226
 20
4.993499574582027
 30
0.0
  0
VERTEX
  5
34DF
330
2BB7
100
AcDbEntity
  8
0
100
AcDbVertex
100
AcDb2dVertex
 10
2.019666649885983
 20
4.989562665133208
 30
0.0
  0
VERTEX
  5
34E0
330
2BB7
100
AcDbEntity
  8
0
100
AcDbVertex
100
AcDb2dVertex
 10
2.01704204358677
 20
4.981688846235569
 30
0.0
  0
SEQEND
  5
34E1
330
2BB7
100
AcDbEntity
  8
0
  0
LINE
  5
2BBC
330
1E
100
AcDbEntity
  8
0
100
AcDbLine
 10
2.01704204358677
 20
4.981688846235569
 30
0.0
 11
2.01704204358677
 21
4.939695145448167
 31
0.0
  0
POLYLINE
  5
2BBD
330
1E
100
AcDbEntity
  8
0
100
AcDb2dPolyline
 66
     1
 10
0.0
 20
0.0
 30
0.0
  0
VERTEX
  5
34E2
330
2BBD
100
AcDbEntity
  8
0
100
AcDbVertex
100
AcDb2dVertex
 10
2.01704204358677
 20
4.939695145448168
 30
0.0
  0
VERTEX
  5
34E3
330
2BBD
100
AcDbEntity
  8
0
100
AcDbVertex
100
AcDb2dVertex
 10
2.013105134137951
 20
4.93182132655053
 30
0.0
  0
VERTEX
  5
34E4
330
2BBD
100
AcDbEntity
  8
0
100
AcDbVertex
100
AcDb2dVertex
 10
2.003919012090707
 20
4.927884417101711
 30
0.0
  0
SEQEND
  5
34E5
330
2BBD
100
AcDbEntity
  8
0
  0
LINE
  5
2BC2
330
1E
100
AcDbEntity
  8
0
100
AcDbLine
 10
1.538051393980471
 20
4.927884417101711
 30
0.0
 11
2.003919012090707
 21
4.927884417101711
 31
0.0
  0
POLYLINE
  5
2BC3
330
1E
100
AcDbEntity
  8
0
100
AcDb2dPolyline
 66
     1
 10
0.0
 20
0.0
 30
0.0
  0
VERTEX
  5
34E6
330
2BC3
100
AcDbEntity
  8
0
100
AcDbVertex
100
AcDb2dVertex
 10
1.538051393980471
 20
4.927884417101711
 30
0.0
  0
VERTEX
  5
34E7
330
2BC3
100
AcDbEntity
  8
0
100
AcDbVertex
100
AcDb2dVertex
 10
1.530177575082833
 20
4.93182132655053
 30
0.0
  0
VERTEX
  5
34E8
330
2BC3
100
AcDbEntity
  8
0
100
AcDbVertex
100
AcDb2dVertex
 10
1.526240665634014
 20
4.939695145448168
 30
0.0
  0
SEQEND
  5
34E9
330
2BC3
100
AcDbEntity
  8
0
  0
LINE
  5
2BC8
330
1E
100
AcDbEntity
  8
0
100
AcDbLine
 10
1.526240665634014
 20
4.981688846235569
 30
0.0
 11
1.526240665634014
 21
4.939695145448167
 31
0.0
  0
POLYLINE
  5
2BC9
330
1E
100
AcDbEntity
  8
0
100
AcDb2dPolyline
 66
     1
 10
0.0
 20
0.0
 30
0.0
  0
VERTEX
  5
34EA
330
2BC9
100
AcDbEntity
  8
0
100
AcDbVertex
100
AcDb2dVertex
 10
1.526240665634014
 20
4.981688846235569
 30
0.0
  0
VERTEX
  5
34EB
330
2BC9
100
AcDbEntity
  8
0
100
AcDbVertex
100
AcDb2dVertex
 10
1.523616059334801
 20
4.989562665133208
 30
0.0
  0
VERTEX
  5
34EC
330
2BC9
100
AcDbEntity
  8
0
100
AcDbVertex
100
AcDb2dVertex
 10
1.514429937287558
 20
4.993499574582027
 30
0.0
  0
SEQEND
  5
34ED
330
2BC9
100
AcDbEntity
  8
0
  0
LINE
  5
2BCE
330
1E
100
AcDbEntity
  8
0
100
AcDbLine
 10
1.514429937287558
 20
4.993499574582027
 30
0.0
 11
1.471123933350549
 21
4.993499574582027
 31
0.0
  0
POLYLINE
  5
2BCF
330
1E
100
AcDbEntity
  8
0
100
AcDb2dPolyline
 66
     1
 10
0.0
 20
0.0
 30
0.0
  0
VERTEX
  5
34EE
330
2BCF
100
AcDbEntity
  8
0
100
AcDbVertex
100
AcDb2dVertex
 10
1.471123933350549
 20
4.993499574582027
 30
0.0
  0
VERTEX
  5
34EF
330
2BCF
100
AcDbEntity
  8
0
100
AcDbVertex
100
AcDb2dVertex
 10
1.463250114452911
 20
4.996124180881238
 30
0.0
  0
VERTEX
  5
34F0
330
2BCF
100
AcDbEntity
  8
0
100
AcDbVertex
100
AcDb2dVertex
 10
1.459313205004093
 20
5.005310302928483
 30
0.0
  0
SEQEND
  5
34F1
330
2BCF
100
AcDbEntity
  8
0
  0
LINE
  5
2BD4
330
1E
100
AcDbEntity
  8
0
100
AcDbLine
 10
1.459313205004093
 20
5.640465027337932
 30
0.0
 11
1.459313205004093
 21
5.005310302928483
 31
0.0
  0
POLYLINE
  5
2BD5
330
1E
100
AcDbEntity
  8
0
100
AcDb2dPolyline
 66
     1
 10
0.0
 20
0.0
 30
0.0
  0
VERTEX
  5
34F2
330
2BD5
100
AcDbEntity
  8
0
100
AcDbVertex
100
AcDb2dVertex
 10
1.459313205004093
 20
5.640465027337932
 30
0.0
  0
VERTEX
  5
34F3
330
2BD5
100
AcDbEntity
  8
0
100
AcDbVertex
100
AcDb2dVertex
 10
1.463250114452911
 20
5.649651149385176
 30
0.0
  0
VERTEX
  5
34F4
330
2BD5
100
AcDbEntity
  8
0
100
AcDbVertex
100
AcDb2dVertex
 10
1.471123933350549
 20
5.653588058833994
 30
0.0
  0
SEQEND
  5
34F5
330
2BD5
100
AcDbEntity
  8
0
  0
POLYLINE
  5
2BDA
330
1E
100
AcDbEntity
  8
0
100
AcDb2dPolyline
 66
     1
 10
0.0
 20
0.0
 30
0.0
  0
VERTEX
  5
34F6
330
2BDA
100
AcDbEntity
  8
0
100
AcDbVertex
100
AcDb2dVertex
 10
1.362202771933227
 20
6.036780578519034
 30
0.0
  0
VERTEX
  5
34F7
330
2BDA
100
AcDbEntity
  8
0
100
AcDbVertex
100
AcDb2dVertex
 10
1.367451984531652
 20
6.056465125763129
 30
0.0
  0
VERTEX
  5
34F8
330
2BDA
100
AcDbEntity
  8
0
100
AcDbVertex
100
AcDb2dVertex
 10
1.381887319177321
 20
6.070900460408798
 30
0.0
  0
VERTEX
  5
34F9
330
2BDA
100
AcDbEntity
  8
0
100
AcDbVertex
100
AcDb2dVertex
 10
1.401571866421416
 20
6.076149673007223
 30
0.0
  0
SEQEND
  5
34FA
330
2BDA
100
AcDbEntity
  8
0
  0
POLYLINE
  5
2BE0
330
1E
100
AcDbEntity
  8
0
100
AcDb2dPolyline
 66
     1
 10
0.0
 20
0.0
 30
0.0
  0
VERTEX
  5
34FB
330
2BE0
100
AcDbEntity
  8
0
100
AcDbVertex
100
AcDb2dVertex
 10
1.401571866421416
 20
5.75463540135368
 30
0.0
  0
VERTEX
  5
34FC
330
2BE0
100
AcDbEntity
  8
0
100
AcDbVertex
100
AcDb2dVertex
 10
1.381887319177321
 20
5.759884613952105
 30
0.0
  0
VERTEX
  5
34FD
330
2BE0
100
AcDbEntity
  8
0
100
AcDbVertex
100
AcDb2dVertex
 10
1.367451984531652
 20
5.774319948597773
 30
0.0
  0
VERTEX
  5
34FE
330
2BE0
100
AcDbEntity
  8
0
100
AcDbVertex
100
AcDb2dVertex
 10
1.362202771933227
 20
5.794004495841869
 30
0.0
  0
SEQEND
  5
34FF
330
2BE0
100
AcDbEntity
  8
0
  0
LINE
  5
2BE6
330
1E
100
AcDbEntity
  8
0
100
AcDbLine
 10
1.362202771933227
 20
6.036780578519034
 30
0.0
 11
1.362202771933227
 21
5.794004495841869
 31
0.0
  0
LINE
  5
2BE7
330
1E
100
AcDbEntity
  8
0
100
AcDbLine
 10
0.8989597601222039
 20
3.43185882655053
 30
0.0
 11
0.8989597601222039
 21
7.561676838361554
 31
0.0
  0
LINE
  5
2BE8
330
1E
100
AcDbEntity
  8
0
100
AcDbLine
 10
3.278165370358423
 20
3.43185882655053
 30
0.0
 11
0.8989597601222039
 21
3.43185882655053
 31
0.0
  0
LINE
  5
2BE9
330
1E
100
AcDbEntity
  8
0
100
AcDbLine
 10
3.278165370358423
 20
3.43185882655053
 30
0.0
 11
3.278165370358423
 21
7.561676838361554
 31
0.0
  0
LINE
  5
2BEA
330
1E
100
AcDbEntity
  8
0
100
AcDbLine
 10
3.278165370358423
 20
7.561676838361554
 30
0.0
 11
0.8989597601222039
 21
7.561676838361554
 31
0.0
  0
LINE
  5
2BEB
330
1E
100
AcDbEntity
  8
0
100
AcDbLine
 10
0.8385938152403134
 20
7.561676838361554
 30
0.0
 11
0.8385938152403134
 21
3.43185882655053
 31
0.0
  0
POLYLINE
  5
2BEC
330
1E
100
AcDbEntity
  8
0
100
AcDb2dPolyline
 66
     1
 10
0.0
 20
0.0
 30
0.0
  0
VERTEX
  5
3500
330
2BEC
100
AcDbEntity
  8
0
100
AcDbVertex
100
AcDb2dVertex
 10
0.8385938152403138
 20
3.43185882655053
 30
0.0
  0
VERTEX
  5
3501
330
2BEC
100
AcDbEntity
  8
0
100
AcDbVertex
100
AcDb2dVertex
 10
0.8661521813820463
 20
3.43185882655053
 30
0.0
  0
VERTEX
  5
3502
330
2BEC
100
AcDbEntity
  8
0
100
AcDbVertex
100
AcDb2dVertex
 10
0.8989597601222033
 20
3.43185882655053
 30
0.0
  0
SEQEND
  5
3503
330
2BEC
100
AcDbEntity
  8
0
  0
POLYLINE
  5
2BF1
330
1E
100
AcDbEntity
  8
0
100
AcDb2dPolyline
 66
     1
 10
0.0
 20
0.0
 30
0.0
  0
VERTEX
  5
3504
330
2BF1
100
AcDbEntity
  8
0
100
AcDbVertex
100
AcDb2dVertex
 10
0.8385938152403138
 20
7.561676838361554
 30
0.0
  0
VERTEX
  5
3505
330
2BF1
100
AcDbEntity
  8
0
100
AcDbVertex
100
AcDb2dVertex
 10
0.8661521813820463
 20
7.561676838361554
 30
0.0
  0
VERTEX
  5
3506
330
2BF1
100
AcDbEntity
  8
0
100
AcDbVertex
100
AcDb2dVertex
 10
0.8989597601222033
 20
7.561676838361554
 30
0.0
  0
SEQEND
  5
3507
330
2BF1
100
AcDbEntity
  8
0
  0
LINE
  5
2BF6
330
1E
100
AcDbEntity
  8
0
100
AcDbLine
 10
0.7139250160277149
 20
7.685033334424545
 30
0.0
 11
0.7139250160277149
 21
3.308502330487538
 31
0.0
  0
LINE
  5
2BF7
330
1E
100
AcDbEntity
  8
0
100
AcDbLine
 10
0.8385938152403134
 20
3.43185882655053
 30
0.0
 11
0.7139250160277149
 21
3.308502330487538
 31
0.0
  0
LINE
  5
2BF8
330
1E
100
AcDbEntity
  8
0
100
AcDbLine
 10
0.8385938152403134
 20
7.561676838361554
 30
0.0
 11
0.7139250160277149
 21
7.685033334424545
 31
0.0
  0
LINE
  5
2BF9
330
1E
100
AcDbEntity
  8
0
100
AcDbLine
 10
0.7139250160277149
 20
3.308502330487538
 30
0.0
 11
0.7139250160277149
 21
3.277007054896987
 31
0.0
  0
LINE
  5
2BFA
330
1E
100
AcDbEntity
  8
0
100
AcDbLine
 10
0.7139250160277149
 20
7.685033334424545
 30
0.0
 11
0.7139250160277149
 21
7.716528610015096
 31
0.0
  0
LINE
  5
2BFB
330
1E
100
AcDbEntity
  8
0
100
AcDbLine
 10
3.464512417602518
 20
7.685033334424545
 30
0.0
 11
3.464512417602518
 21
3.308502330487538
 31
0.0
  0
LINE
  5
2BFC
330
1E
100
AcDbEntity
  8
0
100
AcDbLine
 10
3.464512417602518
 20
3.277007054896987
 30
0.0
 11
3.464512417602518
 21
3.308502330487538
 31
0.0
  0
LINE
  5
2BFD
330
1E
100
AcDbEntity
  8
0
100
AcDbLine
 10
3.464512417602518
 20
7.716528610015096
 30
0.0
 11
3.464512417602518
 21
7.685033334424545
 31
0.0
  0
LINE
  5
2BFE
330
1E
100
AcDbEntity
  8
0
100
AcDbLine
 10
3.339843618389919
 20
7.561676838361554
 30
0.0
 11
3.339843618389919
 21
3.43185882655053
 31
0.0
  0
LINE
  5
2BFF
330
1E
100
AcDbEntity
  8
0
100
AcDbLine
 10
3.464512417602518
 20
3.308502330487538
 30
0.0
 11
3.339843618389919
 21
3.43185882655053
 31
0.0
  0
LINE
  5
2C00
330
1E
100
AcDbEntity
  8
0
100
AcDbLine
 10
3.464512417602518
 20
7.685033334424545
 30
0.0
 11
3.339843618389919
 21
7.561676838361554
 31
0.0
  0
POLYLINE
  5
2C01
330
1E
100
AcDbEntity
  8
0
100
AcDb2dPolyline
 66
     1
 10
0.0
 20
0.0
 30
0.0
  0
VERTEX
  5
3508
330
2C01
100
AcDbEntity
  8
0
100
AcDbVertex
100
AcDb2dVertex
 10
3.278165370358423
 20
3.43185882655053
 30
0.0
  0
VERTEX
  5
3509
330
2C01
100
AcDbEntity
  8
0
100
AcDbVertex
100
AcDb2dVertex
 10
3.310972949098581
 20
3.43185882655053
 30
0.0
  0
VERTEX
  5
350A
330
2C01
100
AcDbEntity
  8
0
100
AcDbVertex
100
AcDb2dVertex
 10
3.33984361838992
 20
3.43185882655053
 30
0.0
  0
SEQEND
  5
350B
330
2C01
100
AcDbEntity
  8
0
  0
POLYLINE
  5
2C06
330
1E
100
AcDbEntity
  8
0
100
AcDb2dPolyline
 66
     1
 10
0.0
 20
0.0
 30
0.0
  0
VERTEX
  5
350C
330
2C06
100
AcDbEntity
  8
0
100
AcDbVertex
100
AcDb2dVertex
 10
3.278165370358423
 20
7.561676838361554
 30
0.0
  0
VERTEX
  5
350D
330
2C06
100
AcDbEntity
  8
0
100
AcDbVertex
100
AcDb2dVertex
 10
3.310972949098581
 20
7.561676838361554
 30
0.0
  0
VERTEX
  5
350E
330
2C06
100
AcDbEntity
  8
0
100
AcDbVertex
100
AcDb2dVertex
 10
3.33984361838992
 20
7.561676838361554
 30
0.0
  0
SEQEND
  5
350F
330
2C06
100
AcDbEntity
  8
0
  0
POLYLINE
  5
2C0B
330
1E
100
AcDbEntity
  8
0
100
AcDb2dPolyline
 66
     1
 10
0.0
 20
0.0
 30
0.0
  0
VERTEX
  5
3510
330
2C0B
100
AcDbEntity
  8
0
100
AcDbVertex
100
AcDb2dVertex
 10
3.33984361838992
 20
7.561676838361554
 30
0.0
  0
VERTEX
  5
3511
330
2C0B
100
AcDbEntity
  8
0
100
AcDbVertex
100
AcDb2dVertex
 10
3.313597555397794
 20
7.595796720251318
 30
0.0
  0
VERTEX
  5
3512
330
2C0B
100
AcDbEntity
  8
0
100
AcDbVertex
100
AcDb2dVertex
 10
3.278165370358423
 20
7.623355086393049
 30
0.0
  0
SEQEND
  5
3513
330
2C0B
100
AcDbEntity
  8
0
  0
POLYLINE
  5
2C10
330
1E
100
AcDbEntity
  8
0
100
AcDb2dPolyline
 66
     1
 10
0.0
 20
0.0
 30
0.0
  0
VERTEX
  5
3514
330
2C10
100
AcDbEntity
  8
0
100
AcDbVertex
100
AcDb2dVertex
 10
3.278165370358423
 20
7.561676838361554
 30
0.0
  0
VERTEX
  5
3515
330
2C10
100
AcDbEntity
  8
0
100
AcDbVertex
100
AcDb2dVertex
 10
3.278165370358423
 20
7.59448441710171
 30
0.0
  0
VERTEX
  5
3516
330
2C10
100
AcDbEntity
  8
0
100
AcDbVertex
100
AcDb2dVertex
 10
3.278165370358423
 20
7.623355086393049
 30
0.0
  0
SEQEND
  5
3517
330
2C10
100
AcDbEntity
  8
0
  0
POLYLINE
  5
2C15
330
1E
100
AcDbEntity
  8
0
100
AcDb2dPolyline
 66
     1
 10
0.0
 20
0.0
 30
0.0
  0
VERTEX
  5
3518
330
2C15
100
AcDbEntity
  8
0
100
AcDbVertex
100
AcDb2dVertex
 10
3.464512417602518
 20
7.716528610015096
 30
0.0
  0
VERTEX
  5
3519
330
2C15
100
AcDbEntity
  8
0
100
AcDbVertex
100
AcDb2dVertex
 10
3.463200114452912
 20
7.721777822613521
 30
0.0
  0
VERTEX
  5
351A
330
2C15
100
AcDbEntity
  8
0
100
AcDbVertex
100
AcDb2dVertex
 10
3.460575508153699
 20
7.730963944660766
 30
0.0
  0
VERTEX
  5
351B
330
2C15
100
AcDbEntity
  8
0
100
AcDbVertex
100
AcDb2dVertex
 10
3.457950901854486
 20
7.734900854109586
 30
0.0
  0
VERTEX
  5
351C
330
2C15
100
AcDbEntity
  8
0
100
AcDbVertex
100
AcDb2dVertex
 10
3.451389386106455
 20
7.741462369857616
 30
0.0
  0
VERTEX
  5
351D
330
2C15
100
AcDbEntity
  8
0
100
AcDbVertex
100
AcDb2dVertex
 10
3.442203264059211
 20
7.745399279306436
 30
0.0
  0
VERTEX
  5
351E
330
2C15
100
AcDbEntity
  8
0
100
AcDbVertex
100
AcDb2dVertex
 10
3.434329445161573
 20
7.746711582456041
 30
0.0
  0
SEQEND
  5
351F
330
2C15
100
AcDbEntity
  8
0
  0
LINE
  5
2C1E
330
1E
100
AcDbEntity
  8
0
100
AcDbLine
 10
3.402834169571022
 20
7.746711582456041
 30
0.0
 11
3.434329445161573
 21
7.746711582456041
 31
0.0
  0
LINE
  5
2C1F
330
1E
100
AcDbEntity
  8
0
100
AcDbLine
 10
3.278165370358423
 20
7.623355086393049
 30
0.0
 11
3.402834169571022
 21
7.746711582456041
 31
0.0
  0
LINE
  5
2C20
330
1E
100
AcDbEntity
  8
0
100
AcDbLine
 10
0.7441079884686604
 20
7.746711582456041
 30
0.0
 11
0.7756032640592112
 21
7.746711582456041
 31
0.0
  0
LINE
  5
2C21
330
1E
100
AcDbEntity
  8
0
100
AcDbLine
 10
0.7756032640592112
 20
7.746711582456041
 30
0.0
 11
3.402834169571022
 21
7.746711582456041
 31
0.0
  0
LINE
  5
2C22
330
1E
100
AcDbEntity
  8
0
100
AcDbLine
 10
0.7756032640592112
 20
7.746711582456041
 30
0.0
 11
0.8989597601222039
 21
7.623355086393049
 31
0.0
  0
LINE
  5
2C23
330
1E
100
AcDbEntity
  8
0
100
AcDbLine
 10
0.8989597601222039
 20
7.623355086393049
 30
0.0
 11
3.278165370358423
 21
7.623355086393049
 31
0.0
  0
POLYLINE
  5
2C24
330
1E
100
AcDbEntity
  8
0
100
AcDb2dPolyline
 66
     1
 10
0.0
 20
0.0
 30
0.0
  0
VERTEX
  5
3520
330
2C24
100
AcDbEntity
  8
0
100
AcDbVertex
100
AcDb2dVertex
 10
0.8989597601222033
 20
7.561676838361554
 30
0.0
  0
VERTEX
  5
3521
330
2C24
100
AcDbEntity
  8
0
100
AcDbVertex
100
AcDb2dVertex
 10
0.8989597601222033
 20
7.59448441710171
 30
0.0
  0
VERTEX
  5
3522
330
2C24
100
AcDbEntity
  8
0
100
AcDbVertex
100
AcDb2dVertex
 10
0.8989597601222033
 20
7.623355086393049
 30
0.0
  0
SEQEND
  5
3523
330
2C24
100
AcDbEntity
  8
0
  0
POLYLINE
  5
2C29
330
1E
100
AcDbEntity
  8
0
100
AcDb2dPolyline
 66
     1
 10
0.0
 20
0.0
 30
0.0
  0
VERTEX
  5
3524
330
2C29
100
AcDbEntity
  8
0
100
AcDbVertex
100
AcDb2dVertex
 10
0.8385938152403138
 20
7.561676838361554
 30
0.0
  0
VERTEX
  5
3525
330
2C29
100
AcDbEntity
  8
0
100
AcDbVertex
100
AcDb2dVertex
 10
0.8648398782324399
 20
7.595796720251318
 30
0.0
  0
VERTEX
  5
3526
330
2C29
100
AcDbEntity
  8
0
100
AcDbVertex
100
AcDb2dVertex
 10
0.8989597601222033
 20
7.623355086393049
 30
0.0
  0
SEQEND
  5
3527
330
2C29
100
AcDbEntity
  8
0
  0
POLYLINE
  5
2C2E
330
1E
100
AcDbEntity
  8
0
100
AcDb2dPolyline
 66
     1
 10
0.0
 20
0.0
 30
0.0
  0
VERTEX
  5
3528
330
2C2E
100
AcDbEntity
  8
0
100
AcDbVertex
100
AcDb2dVertex
 10
0.7441079884686604
 20
7.746711582456041
 30
0.0
  0
VERTEX
  5
3529
330
2C2E
100
AcDbEntity
  8
0
100
AcDbVertex
100
AcDb2dVertex
 10
0.7388587758702352
 20
7.746711582456041
 30
0.0
  0
VERTEX
  5
352A
330
2C2E
100
AcDbEntity
  8
0
100
AcDbVertex
100
AcDb2dVertex
 10
0.7296726538229912
 20
7.742774673007222
 30
0.0
  0
VERTEX
  5
352B
330
2C2E
100
AcDbEntity
  8
0
100
AcDbVertex
100
AcDb2dVertex
 10
0.7257357443741724
 20
7.741462369857616
 30
0.0
  0
VERTEX
  5
352C
330
2C2E
100
AcDbEntity
  8
0
100
AcDbVertex
100
AcDb2dVertex
 10
0.7191742286261405
 20
7.733588550959979
 30
0.0
  0
VERTEX
  5
352D
330
2C2E
100
AcDbEntity
  8
0
100
AcDbVertex
100
AcDb2dVertex
 10
0.7152373191773216
 20
7.724402428912735
 30
0.0
  0
VERTEX
  5
352E
330
2C2E
100
AcDbEntity
  8
0
100
AcDbVertex
100
AcDb2dVertex
 10
0.7139250160277153
 20
7.716528610015096
 30
0.0
  0
SEQEND
  5
352F
330
2C2E
100
AcDbEntity
  8
0
  0
POLYLINE
  5
2C37
330
1E
100
AcDbEntity
  8
0
100
AcDb2dPolyline
 66
     1
 10
0.0
 20
0.0
 30
0.0
  0
VERTEX
  5
3530
330
2C37
100
AcDbEntity
  8
0
100
AcDbVertex
100
AcDb2dVertex
 10
2.144335449098581
 20
6.958017389542657
 30
0.0
  0
VERTEX
  5
3531
330
2C37
100
AcDbEntity
  8
0
100
AcDbVertex
100
AcDb2dVertex
 10
2.144335449098581
 20
6.981638846235568
 30
0.0
  0
VERTEX
  5
3532
330
2C37
100
AcDbEntity
  8
0
100
AcDbVertex
100
AcDb2dVertex
 10
2.144335449098581
 20
7.000011090330058
 30
0.0
  0
VERTEX
  5
3533
330
2C37
100
AcDbEntity
  8
0
100
AcDbVertex
100
AcDb2dVertex
 10
2.144335449098581
 20
7.006572606078089
 30
0.0
  0
SEQEND
  5
3534
330
2C37
100
AcDbEntity
  8
0
  0
POLYLINE
  5
2C3D
330
1E
100
AcDbEntity
  8
0
100
AcDb2dPolyline
 66
     1
 10
0.0
 20
0.0
 30
0.0
  0
VERTEX
  5
3535
330
2C3D
100
AcDbEntity
  8
0
100
AcDbVertex
100
AcDb2dVertex
 10
2.034101984531651
 20
6.958017389542657
 30
0.0
  0
VERTEX
  5
3536
330
2C3D
100
AcDbEntity
  8
0
100
AcDbVertex
100
AcDb2dVertex
 10
2.034101984531651
 20
6.981638846235568
 30
0.0
  0
VERTEX
  5
3537
330
2C3D
100
AcDbEntity
  8
0
100
AcDbVertex
100
AcDb2dVertex
 10
2.034101984531651
 20
7.000011090330058
 30
0.0
  0
VERTEX
  5
3538
330
2C3D
100
AcDbEntity
  8
0
100
AcDbVertex
100
AcDb2dVertex
 10
2.034101984531651
 20
7.006572606078089
 30
0.0
  0
SEQEND
  5
3539
330
2C3D
100
AcDbEntity
  8
0
  0
LINE
  5
2C43
330
1E
100
AcDbEntity
  8
0
100
AcDbLine
 10
2.144335449098581
 20
7.006572606078089
 30
0.0
 11
2.034101984531651
 21
7.006572606078089
 31
0.0
  0
POLYLINE
  5
2C44
330
1E
100
AcDbEntity
  8
0
100
AcDb2dPolyline
 66
     1
 10
0.0
 20
0.0
 30
0.0
  0
VERTEX
  5
353A
330
2C44
100
AcDbEntity
  8
0
100
AcDbVertex
100
AcDb2dVertex
 10
2.034101984531651
 20
7.006572606078089
 30
0.0
  0
VERTEX
  5
353B
330
2C44
100
AcDbEntity
  8
0
100
AcDbVertex
100
AcDb2dVertex
 10
2.034101984531651
 20
7.013134121826119
 30
0.0
  0
VERTEX
  5
353C
330
2C44
100
AcDbEntity
  8
0
100
AcDbVertex
100
AcDb2dVertex
 10
2.034101984531651
 20
7.028881759621397
 30
0.0
  0
SEQEND
  5
353D
330
2C44
100
AcDbEntity
  8
0
  0
POLYLINE
  5
2C49
330
1E
100
AcDbEntity
  8
0
100
AcDb2dPolyline
 66
     1
 10
0.0
 20
0.0
 30
0.0
  0
VERTEX
  5
353E
330
2C49
100
AcDbEntity
  8
0
100
AcDbVertex
100
AcDb2dVertex
 10
2.144335449098581
 20
7.006572606078089
 30
0.0
  0
VERTEX
  5
353F
330
2C49
100
AcDbEntity
  8
0
100
AcDbVertex
100
AcDb2dVertex
 10
2.144335449098581
 20
7.013134121826119
 30
0.0
  0
VERTEX
  5
3540
330
2C49
100
AcDbEntity
  8
0
100
AcDbVertex
100
AcDb2dVertex
 10
2.144335449098581
 20
7.028881759621397
 30
0.0
  0
SEQEND
  5
3541
330
2C49
100
AcDbEntity
  8
0
  0
LINE
  5
2C4E
330
1E
100
AcDbEntity
  8
0
100
AcDbLine
 10
2.144335449098581
 20
7.028881759621396
 30
0.0
 11
2.034101984531651
 21
7.028881759621396
 31
0.0
  0
LINE
  5
2C4F
330
1E
100
AcDbEntity
  8
0
100
AcDbLine
 10
2.034101984531651
 20
7.028881759621396
 30
0.0
 11
2.034101984531651
 21
7.055127822613522
 31
0.0
  0
LINE
  5
2C50
330
1E
100
AcDbEntity
  8
0
100
AcDbLine
 10
2.144335449098581
 20
7.028881759621396
 30
0.0
 11
2.144335449098581
 21
7.055127822613522
 31
0.0
  0
LINE
  5
2C51
330
1E
100
AcDbEntity
  8
0
100
AcDbLine
 10
2.133837023901731
 20
7.064313944660765
 30
0.0
 11
2.044600409728502
 21
7.064313944660765
 31
0.0
  0
POLYLINE
  5
2C52
330
1E
100
AcDbEntity
  8
0
100
AcDb2dPolyline
 66
     1
 10
0.0
 20
0.0
 30
0.0
  0
VERTEX
  5
3542
330
2C52
100
AcDbEntity
  8
0
100
AcDbVertex
100
AcDb2dVertex
 10
2.044600409728502
 20
7.064313944660765
 30
0.0
  0
VERTEX
  5
3543
330
2C52
100
AcDbEntity
  8
0
100
AcDbVertex
100
AcDb2dVertex
 10
2.036726590830864
 20
7.061689338361555
 30
0.0
  0
VERTEX
  5
3544
330
2C52
100
AcDbEntity
  8
0
100
AcDbVertex
100
AcDb2dVertex
 10
2.034101984531651
 20
7.055127822613522
 30
0.0
  0
SEQEND
  5
3545
330
2C52
100
AcDbEntity
  8
0
  0
POLYLINE
  5
2C57
330
1E
100
AcDbEntity
  8
0
100
AcDb2dPolyline
 66
     1
 10
0.0
 20
0.0
 30
0.0
  0
VERTEX
  5
3546
330
2C57
100
AcDbEntity
  8
0
100
AcDbVertex
100
AcDb2dVertex
 10
2.144335449098581
 20
7.055127822613522
 30
0.0
  0
VERTEX
  5
3547
330
2C57
100
AcDbEntity
  8
0
100
AcDbVertex
100
AcDb2dVertex
 10
2.141710842799369
 20
7.061689338361555
 30
0.0
  0
VERTEX
  5
3548
330
2C57
100
AcDbEntity
  8
0
100
AcDbVertex
100
AcDb2dVertex
 10
2.133837023901731
 20
7.064313944660765
 30
0.0
  0
SEQEND
  5
3549
330
2C57
100
AcDbEntity
  8
0
  0
POLYLINE
  5
2C5C
330
1E
100
AcDbEntity
  8
0
100
AcDb2dPolyline
 66
     1
 10
0.0
 20
0.0
 30
0.0
  0
VERTEX
  5
354A
330
2C5C
100
AcDbEntity
  8
0
100
AcDbVertex
100
AcDb2dVertex
 10
3.278165370358423
 20
3.43185882655053
 30
0.0
  0
VERTEX
  5
354B
330
2C5C
100
AcDbEntity
  8
0
100
AcDbVertex
100
AcDb2dVertex
 10
3.278165370358423
 20
3.400363550959979
 30
0.0
  0
VERTEX
  5
354C
330
2C5C
100
AcDbEntity
  8
0
100
AcDbVertex
100
AcDb2dVertex
 10
3.278165370358423
 20
3.371492881668641
 30
0.0
  0
SEQEND
  5
354D
330
2C5C
100
AcDbEntity
  8
0
  0
POLYLINE
  5
2C61
330
1E
100
AcDbEntity
  8
0
100
AcDb2dPolyline
 66
     1
 10
0.0
 20
0.0
 30
0.0
  0
VERTEX
  5
354E
330
2C61
100
AcDbEntity
  8
0
100
AcDbVertex
100
AcDb2dVertex
 10
3.33984361838992
 20
3.43185882655053
 30
0.0
  0
VERTEX
  5
354F
330
2C61
100
AcDbEntity
  8
0
100
AcDbVertex
100
AcDb2dVertex
 10
3.313597555397794
 20
3.397738944660766
 30
0.0
  0
VERTEX
  5
3550
330
2C61
100
AcDbEntity
  8
0
100
AcDbVertex
100
AcDb2dVertex
 10
3.278165370358423
 20
3.371492881668641
 30
0.0
  0
SEQEND
  5
3551
330
2C61
100
AcDbEntity
  8
0
  0
LINE
  5
2C66
330
1E
100
AcDbEntity
  8
0
100
AcDbLine
 10
3.278165370358423
 20
3.37149288166864
 30
0.0
 11
3.402834169571022
 21
3.246824082456042
 31
0.0
  0
LINE
  5
2C67
330
1E
100
AcDbEntity
  8
0
100
AcDbLine
 10
3.402834169571022
 20
3.246824082456042
 30
0.0
 11
3.434329445161573
 21
3.246824082456042
 31
0.0
  0
POLYLINE
  5
2C68
330
1E
100
AcDbEntity
  8
0
100
AcDb2dPolyline
 66
     1
 10
0.0
 20
0.0
 30
0.0
  0
VERTEX
  5
3552
330
2C68
100
AcDbEntity
  8
0
100
AcDbVertex
100
AcDb2dVertex
 10
3.464512417602518
 20
3.277007054896987
 30
0.0
  0
VERTEX
  5
3553
330
2C68
100
AcDbEntity
  8
0
100
AcDbVertex
100
AcDb2dVertex
 10
3.463200114452912
 20
3.271757842298562
 30
0.0
  0
VERTEX
  5
3554
330
2C68
100
AcDbEntity
  8
0
100
AcDbVertex
100
AcDb2dVertex
 10
3.460575508153699
 20
3.262571720251317
 30
0.0
  0
VERTEX
  5
3555
330
2C68
100
AcDbEntity
  8
0
100
AcDbVertex
100
AcDb2dVertex
 10
3.457950901854486
 20
3.258634810802499
 30
0.0
  0
VERTEX
  5
3556
330
2C68
100
AcDbEntity
  8
0
100
AcDbVertex
100
AcDb2dVertex
 10
3.451389386106455
 20
3.252073295054467
 30
0.0
  0
VERTEX
  5
3557
330
2C68
100
AcDbEntity
  8
0
100
AcDbVertex
100
AcDb2dVertex
 10
3.442203264059211
 20
3.248136385605648
 30
0.0
  0
VERTEX
  5
3558
330
2C68
100
AcDbEntity
  8
0
100
AcDbVertex
100
AcDb2dVertex
 10
3.434329445161573
 20
3.246824082456042
 30
0.0
  0
SEQEND
  5
3559
330
2C68
100
AcDbEntity
  8
0
  0
LINE
  5
2C71
330
1E
100
AcDbEntity
  8
0
100
AcDbLine
 10
0.7756032640592112
 20
3.246824082456042
 30
0.0
 11
3.402834169571022
 21
3.246824082456042
 31
0.0
  0
LINE
  5
2C72
330
1E
100
AcDbEntity
  8
0
100
AcDbLine
 10
0.7441079884686604
 20
3.246824082456042
 30
0.0
 11
0.7756032640592112
 21
3.246824082456042
 31
0.0
  0
LINE
  5
2C73
330
1E
100
AcDbEntity
  8
0
100
AcDbLine
 10
0.8989597601222039
 20
3.37149288166864
 30
0.0
 11
3.278165370358423
 21
3.37149288166864
 31
0.0
  0
LINE
  5
2C74
330
1E
100
AcDbEntity
  8
0
100
AcDbLine
 10
0.7756032640592112
 20
3.246824082456042
 30
0.0
 11
0.8989597601222039
 21
3.37149288166864
 31
0.0
  0
POLYLINE
  5
2C75
330
1E
100
AcDbEntity
  8
0
100
AcDb2dPolyline
 66
     1
 10
0.0
 20
0.0
 30
0.0
  0
VERTEX
  5
355A
330
2C75
100
AcDbEntity
  8
0
100
AcDbVertex
100
AcDb2dVertex
 10
0.8989597601222033
 20
3.43185882655053
 30
0.0
  0
VERTEX
  5
355B
330
2C75
100
AcDbEntity
  8
0
100
AcDbVertex
100
AcDb2dVertex
 10
0.8989597601222033
 20
3.400363550959979
 30
0.0
  0
VERTEX
  5
355C
330
2C75
100
AcDbEntity
  8
0
100
AcDbVertex
100
AcDb2dVertex
 10
0.8989597601222033
 20
3.371492881668641
 30
0.0
  0
SEQEND
  5
355D
330
2C75
100
AcDbEntity
  8
0
  0
POLYLINE
  5
2C7A
330
1E
100
AcDbEntity
  8
0
100
AcDb2dPolyline
 66
     1
 10
0.0
 20
0.0
 30
0.0
  0
VERTEX
  5
355E
330
2C7A
100
AcDbEntity
  8
0
100
AcDbVertex
100
AcDb2dVertex
 10
0.8385938152403138
 20
3.43185882655053
 30
0.0
  0
VERTEX
  5
355F
330
2C7A
100
AcDbEntity
  8
0
100
AcDbVertex
100
AcDb2dVertex
 10
0.8648398782324399
 20
3.397738944660766
 30
0.0
  0
VERTEX
  5
3560
330
2C7A
100
AcDbEntity
  8
0
100
AcDbVertex
100
AcDb2dVertex
 10
0.8989597601222033
 20
3.371492881668641
 30
0.0
  0
SEQEND
  5
3561
330
2C7A
100
AcDbEntity
  8
0
  0
POLYLINE
  5
2C7F
330
1E
100
AcDbEntity
  8
0
100
AcDb2dPolyline
 66
     1
 10
0.0
 20
0.0
 30
0.0
  0
VERTEX
  5
3562
330
2C7F
100
AcDbEntity
  8
0
100
AcDbVertex
100
AcDb2dVertex
 10
0.7441079884686604
 20
3.246824082456042
 30
0.0
  0
VERTEX
  5
3563
330
2C7F
100
AcDbEntity
  8
0
100
AcDbVertex
100
AcDb2dVertex
 10
0.7388587758702352
 20
3.248136385605648
 30
0.0
  0
VERTEX
  5
3564
330
2C7F
100
AcDbEntity
  8
0
100
AcDbVertex
100
AcDb2dVertex
 10
0.7296726538229912
 20
3.250760991904861
 30
0.0
  0
VERTEX
  5
3565
330
2C7F
100
AcDbEntity
  8
0
100
AcDbVertex
100
AcDb2dVertex
 10
0.7257357443741724
 20
3.253385598204074
 30
0.0
  0
VERTEX
  5
3566
330
2C7F
100
AcDbEntity
  8
0
100
AcDbVertex
100
AcDb2dVertex
 10
0.7191742286261405
 20
3.259947113952105
 30
0.0
  0
VERTEX
  5
3567
330
2C7F
100
AcDbEntity
  8
0
100
AcDbVertex
100
AcDb2dVertex
 10
0.7152373191773216
 20
3.269133235999349
 30
0.0
  0
VERTEX
  5
3568
330
2C7F
100
AcDbEntity
  8
0
100
AcDbVertex
100
AcDb2dVertex
 10
0.7139250160277153
 20
3.277007054896987
 30
0.0
  0
SEQEND
  5
3569
330
2C7F
100
AcDbEntity
  8
0
  0
POLYLINE
  5
2C88
330
1E
100
AcDbEntity
  8
0
100
AcDb2dPolyline
 66
     1
 10
0.0
 20
0.0
 30
0.0
  0
VERTEX
  5
356A
330
2C88
100
AcDbEntity
  8
0
100
AcDbVertex
100
AcDb2dVertex
 10
2.144335449098581
 20
4.036830578519034
 30
0.0
  0
VERTEX
  5
356B
330
2C88
100
AcDbEntity
  8
0
100
AcDbVertex
100
AcDb2dVertex
 10
2.144335449098581
 20
4.011896818676515
 30
0.0
  0
VERTEX
  5
356C
330
2C88
100
AcDbEntity
  8
0
100
AcDbVertex
100
AcDb2dVertex
 10
2.144335449098581
 20
3.993524574582027
 30
0.0
  0
VERTEX
  5
356D
330
2C88
100
AcDbEntity
  8
0
100
AcDbVertex
100
AcDb2dVertex
 10
2.144335449098581
 20
3.986963058833994
 30
0.0
  0
SEQEND
  5
356E
330
2C88
100
AcDbEntity
  8
0
  0
POLYLINE
  5
2C8E
330
1E
100
AcDbEntity
  8
0
100
AcDb2dPolyline
 66
     1
 10
0.0
 20
0.0
 30
0.0
  0
VERTEX
  5
356F
330
2C8E
100
AcDbEntity
  8
0
100
AcDbVertex
100
AcDb2dVertex
 10
2.034101984531651
 20
4.036830578519034
 30
0.0
  0
VERTEX
  5
3570
330
2C8E
100
AcDbEntity
  8
0
100
AcDbVertex
100
AcDb2dVertex
 10
2.034101984531651
 20
4.011896818676515
 30
0.0
  0
VERTEX
  5
3571
330
2C8E
100
AcDbEntity
  8
0
100
AcDbVertex
100
AcDb2dVertex
 10
2.034101984531651
 20
3.993524574582027
 30
0.0
  0
VERTEX
  5
3572
330
2C8E
100
AcDbEntity
  8
0
100
AcDbVertex
100
AcDb2dVertex
 10
2.034101984531651
 20
3.986963058833994
 30
0.0
  0
SEQEND
  5
3573
330
2C8E
100
AcDbEntity
  8
0
  0
LINE
  5
2C94
330
1E
100
AcDbEntity
  8
0
100
AcDbLine
 10
2.144335449098581
 20
3.986963058833994
 30
0.0
 11
2.034101984531651
 21
3.986963058833994
 31
0.0
  0
POLYLINE
  5
2C95
330
1E
100
AcDbEntity
  8
0
100
AcDb2dPolyline
 66
     1
 10
0.0
 20
0.0
 30
0.0
  0
VERTEX
  5
3574
330
2C95
100
AcDbEntity
  8
0
100
AcDbVertex
100
AcDb2dVertex
 10
2.034101984531651
 20
3.986963058833994
 30
0.0
  0
VERTEX
  5
3575
330
2C95
100
AcDbEntity
  8
0
100
AcDbVertex
100
AcDb2dVertex
 10
2.034101984531651
 20
3.980401543085963
 30
0.0
  0
VERTEX
  5
3576
330
2C95
100
AcDbEntity
  8
0
100
AcDbVertex
100
AcDb2dVertex
 10
2.034101984531651
 20
3.964653905290687
 30
0.0
  0
SEQEND
  5
3577
330
2C95
100
AcDbEntity
  8
0
  0
POLYLINE
  5
2C9A
330
1E
100
AcDbEntity
  8
0
100
AcDb2dPolyline
 66
     1
 10
0.0
 20
0.0
 30
0.0
  0
VERTEX
  5
3578
330
2C9A
100
AcDbEntity
  8
0
100
AcDbVertex
100
AcDb2dVertex
 10
2.144335449098581
 20
3.986963058833994
 30
0.0
  0
VERTEX
  5
3579
330
2C9A
100
AcDbEntity
  8
0
100
AcDbVertex
100
AcDb2dVertex
 10
2.144335449098581
 20
3.980401543085963
 30
0.0
  0
VERTEX
  5
357A
330
2C9A
100
AcDbEntity
  8
0
100
AcDbVertex
100
AcDb2dVertex
 10
2.144335449098581
 20
3.964653905290687
 30
0.0
  0
SEQEND
  5
357B
330
2C9A
100
AcDbEntity
  8
0
  0
LINE
  5
2C9F
330
1E
100
AcDbEntity
  8
0
100
AcDbLine
 10
2.144335449098581
 20
3.964653905290687
 30
0.0
 11
2.034101984531651
 21
3.964653905290687
 31
0.0
  0
LINE
  5
2CA0
330
1E
100
AcDbEntity
  8
0
100
AcDbLine
 10
2.034101984531651
 20
3.964653905290687
 30
0.0
 11
2.034101984531651
 21
3.939720145448168
 31
0.0
  0
LINE
  5
2CA1
330
1E
100
AcDbEntity
  8
0
100
AcDbLine
 10
2.144335449098581
 20
3.964653905290687
 30
0.0
 11
2.144335449098581
 21
3.939720145448168
 31
0.0
  0
LINE
  5
2CA2
330
1E
100
AcDbEntity
  8
0
100
AcDbLine
 10
2.133837023901731
 20
3.929221720251317
 30
0.0
 11
2.044600409728502
 21
3.929221720251317
 31
0.0
  0
POLYLINE
  5
2CA3
330
1E
100
AcDbEntity
  8
0
100
AcDb2dPolyline
 66
     1
 10
0.0
 20
0.0
 30
0.0
  0
VERTEX
  5
357C
330
2CA3
100
AcDbEntity
  8
0
100
AcDbVertex
100
AcDb2dVertex
 10
2.144335449098581
 20
3.939720145448168
 30
0.0
  0
VERTEX
  5
357D
330
2CA3
100
AcDbEntity
  8
0
100
AcDbVertex
100
AcDb2dVertex
 10
2.141710842799369
 20
3.933158629700137
 30
0.0
  0
VERTEX
  5
357E
330
2CA3
100
AcDbEntity
  8
0
100
AcDbVertex
100
AcDb2dVertex
 10
2.133837023901731
 20
3.929221720251318
 30
0.0
  0
SEQEND
  5
357F
330
2CA3
100
AcDbEntity
  8
0
  0
POLYLINE
  5
2CA8
330
1E
100
AcDbEntity
  8
0
100
AcDb2dPolyline
 66
     1
 10
0.0
 20
0.0
 30
0.0
  0
VERTEX
  5
3580
330
2CA8
100
AcDbEntity
  8
0
100
AcDbVertex
100
AcDb2dVertex
 10
2.044600409728502
 20
3.929221720251318
 30
0.0
  0
VERTEX
  5
3581
330
2CA8
100
AcDbEntity
  8
0
100
AcDbVertex
100
AcDb2dVertex
 10
2.036726590830864
 20
3.933158629700137
 30
0.0
  0
VERTEX
  5
3582
330
2CA8
100
AcDbEntity
  8
0
100
AcDbVertex
100
AcDb2dVertex
 10
2.034101984531651
 20
3.939720145448168
 30
0.0
  0
SEQEND
  5
3583
330
2CA8
100
AcDbEntity
  8
0
  0
LINE
  5
2CAD
330
1E
100
AcDbEntity
  8
0
100
AcDbLine
 10
1.675843224689132
 20
7.238850263558404
 30
0.0
 11
1.675843224689132
 21
7.036755578519034
 31
0.0
  0
POLYLINE
  5
2CAE
330
1E
100
AcDbEntity
  8
0
100
AcDb2dPolyline
 66
     1
 10
0.0
 20
0.0
 30
0.0
  0
VERTEX
  5
3584
330
2CAE
100
AcDbEntity
  8
0
100
AcDbVertex
100
AcDb2dVertex
 10
1.625975705004093
 20
7.238850263558404
 30
0.0
  0
VERTEX
  5
3585
330
2CAE
100
AcDbEntity
  8
0
100
AcDbVertex
100
AcDb2dVertex
 10
1.650909464846612
 20
7.238850263558404
 30
0.0
  0
VERTEX
  5
3586
330
2CAE
100
AcDbEntity
  8
0
100
AcDbVertex
100
AcDb2dVertex
 10
1.669281708941101
 20
7.238850263558404
 30
0.0
  0
VERTEX
  5
3587
330
2CAE
100
AcDbEntity
  8
0
100
AcDbVertex
100
AcDb2dVertex
 10
1.675843224689132
 20
7.238850263558404
 30
0.0
  0
SEQEND
  5
3588
330
2CAE
100
AcDbEntity
  8
0
  0
POLYLINE
  5
2CB4
330
1E
100
AcDbEntity
  8
0
100
AcDb2dPolyline
 66
     1
 10
0.0
 20
0.0
 30
0.0
  0
VERTEX
  5
3589
330
2CB4
100
AcDbEntity
  8
0
100
AcDbVertex
100
AcDb2dVertex
 10
1.625975705004093
 20
7.036755578519034
 30
0.0
  0
VERTEX
  5
358A
330
2CB4
100
AcDbEntity
  8
0
100
AcDbVertex
100
AcDb2dVertex
 10
1.650909464846612
 20
7.036755578519034
 30
0.0
  0
VERTEX
  5
358B
330
2CB4
100
AcDbEntity
  8
0
100
AcDbVertex
100
AcDb2dVertex
 10
1.669281708941101
 20
7.036755578519034
 30
0.0
  0
VERTEX
  5
358C
330
2CB4
100
AcDbEntity
  8
0
100
AcDbVertex
100
AcDb2dVertex
 10
1.675843224689132
 20
7.036755578519034
 30
0.0
  0
SEQEND
  5
358D
330
2CB4
100
AcDbEntity
  8
0
  0
LINE
  5
2CBA
330
1E
100
AcDbEntity
  8
0
100
AcDbLine
 10
2.502594208941101
 20
7.238850263558404
 30
0.0
 11
2.502594208941101
 21
7.036755578519034
 31
0.0
  0
POLYLINE
  5
2CBB
330
1E
100
AcDbEntity
  8
0
100
AcDb2dPolyline
 66
     1
 10
0.0
 20
0.0
 30
0.0
  0
VERTEX
  5
358E
330
2CBB
100
AcDbEntity
  8
0
100
AcDbVertex
100
AcDb2dVertex
 10
2.551149425476534
 20
7.238850263558404
 30
0.0
  0
VERTEX
  5
358F
330
2CBB
100
AcDbEntity
  8
0
100
AcDbVertex
100
AcDb2dVertex
 10
2.526215665634014
 20
7.238850263558404
 30
0.0
  0
VERTEX
  5
3590
330
2CBB
100
AcDbEntity
  8
0
100
AcDbVertex
100
AcDb2dVertex
 10
2.509155724689132
 20
7.238850263558404
 30
0.0
  0
VERTEX
  5
3591
330
2CBB
100
AcDbEntity
  8
0
100
AcDbVertex
100
AcDb2dVertex
 10
2.5025942089411
 20
7.238850263558404
 30
0.0
  0
SEQEND
  5
3592
330
2CBB
100
AcDbEntity
  8
0
  0
POLYLINE
  5
2CC1
330
1E
100
AcDbEntity
  8
0
100
AcDb2dPolyline
 66
     1
 10
0.0
 20
0.0
 30
0.0
  0
VERTEX
  5
3593
330
2CC1
100
AcDbEntity
  8
0
100
AcDbVertex
100
AcDb2dVertex
 10
2.551149425476534
 20
7.036755578519034
 30
0.0
  0
VERTEX
  5
3594
330
2CC1
100
AcDbEntity
  8
0
100
AcDbVertex
100
AcDb2dVertex
 10
2.526215665634014
 20
7.036755578519034
 30
0.0
  0
VERTEX
  5
3595
330
2CC1
100
AcDbEntity
  8
0
100
AcDbVertex
100
AcDb2dVertex
 10
2.509155724689132
 20
7.036755578519034
 30
0.0
  0
VERTEX
  5
3596
330
2CC1
100
AcDbEntity
  8
0
100
AcDbVertex
100
AcDb2dVertex
 10
2.5025942089411
 20
7.036755578519034
 30
0.0
  0
SEQEND
  5
3597
330
2CC1
100
AcDbEntity
  8
0
  0
LINE
  5
2CC7
330
1E
100
AcDbEntity
  8
0
100
AcDbLine
 10
2.502594208941101
 20
3.755997704503286
 30
0.0
 11
2.502594208941101
 21
3.958092389542656
 31
0.0
  0
POLYLINE
  5
2CC8
330
1E
100
AcDbEntity
  8
0
100
AcDb2dPolyline
 66
     1
 10
0.0
 20
0.0
 30
0.0
  0
VERTEX
  5
3598
330
2CC8
100
AcDbEntity
  8
0
100
AcDbVertex
100
AcDb2dVertex
 10
2.551149425476534
 20
3.755997704503286
 30
0.0
  0
VERTEX
  5
3599
330
2CC8
100
AcDbEntity
  8
0
100
AcDbVertex
100
AcDb2dVertex
 10
2.526215665634014
 20
3.755997704503286
 30
0.0
  0
VERTEX
  5
359A
330
2CC8
100
AcDbEntity
  8
0
100
AcDbVertex
100
AcDb2dVertex
 10
2.509155724689132
 20
3.755997704503286
 30
0.0
  0
VERTEX
  5
359B
330
2CC8
100
AcDbEntity
  8
0
100
AcDbVertex
100
AcDb2dVertex
 10
2.5025942089411
 20
3.755997704503286
 30
0.0
  0
SEQEND
  5
359C
330
2CC8
100
AcDbEntity
  8
0
  0
POLYLINE
  5
2CCE
330
1E
100
AcDbEntity
  8
0
100
AcDb2dPolyline
 66
     1
 10
0.0
 20
0.0
 30
0.0
  0
VERTEX
  5
359D
330
2CCE
100
AcDbEntity
  8
0
100
AcDbVertex
100
AcDb2dVertex
 10
2.551149425476534
 20
3.958092389542656
 30
0.0
  0
VERTEX
  5
359E
330
2CCE
100
AcDbEntity
  8
0
100
AcDbVertex
100
AcDb2dVertex
 10
2.526215665634014
 20
3.958092389542656
 30
0.0
  0
VERTEX
  5
359F
330
2CCE
100
AcDbEntity
  8
0
100
AcDbVertex
100
AcDb2dVertex
 10
2.509155724689132
 20
3.958092389542656
 30
0.0
  0
VERTEX
  5
35A0
330
2CCE
100
AcDbEntity
  8
0
100
AcDbVertex
100
AcDb2dVertex
 10
2.5025942089411
 20
3.958092389542656
 30
0.0
  0
SEQEND
  5
35A1
330
2CCE
100
AcDbEntity
  8
0
  0
LINE
  5
2CD4
330
1E
100
AcDbEntity
  8
0
100
AcDbLine
 10
1.675843224689132
 20
3.755997704503286
 30
0.0
 11
1.675843224689132
 21
3.958092389542656
 31
0.0
  0
POLYLINE
  5
2CD5
330
1E
100
AcDbEntity
  8
0
100
AcDb2dPolyline
 66
     1
 10
0.0
 20
0.0
 30
0.0
  0
VERTEX
  5
35A2
330
2CD5
100
AcDbEntity
  8
0
100
AcDbVertex
100
AcDb2dVertex
 10
1.625975705004093
 20
3.755997704503286
 30
0.0
  0
VERTEX
  5
35A3
330
2CD5
100
AcDbEntity
  8
0
100
AcDbVertex
100
AcDb2dVertex
 10
1.650909464846612
 20
3.755997704503286
 30
0.0
  0
VERTEX
  5
35A4
330
2CD5
100
AcDbEntity
  8
0
100
AcDbVertex
100
AcDb2dVertex
 10
1.669281708941101
 20
3.755997704503286
 30
0.0
  0
VERTEX
  5
35A5
330
2CD5
100
AcDbEntity
  8
0
100
AcDbVertex
100
AcDb2dVertex
 10
1.675843224689132
 20
3.755997704503286
 30
0.0
  0
SEQEND
  5
35A6
330
2CD5
100
AcDbEntity
  8
0
  0
POLYLINE
  5
2CDB
330
1E
100
AcDbEntity
  8
0
100
AcDb2dPolyline
 66
     1
 10
0.0
 20
0.0
 30
0.0
  0
VERTEX
  5
35A7
330
2CDB
100
AcDbEntity
  8
0
100
AcDbVertex
100
AcDb2dVertex
 10
1.625975705004093
 20
3.958092389542656
 30
0.0
  0
VERTEX
  5
35A8
330
2CDB
100
AcDbEntity
  8
0
100
AcDbVertex
100
AcDb2dVertex
 10
1.650909464846612
 20
3.958092389542656
 30
0.0
  0
VERTEX
  5
35A9
330
2CDB
100
AcDbEntity
  8
0
100
AcDbVertex
100
AcDb2dVertex
 10
1.669281708941101
 20
3.958092389542656
 30
0.0
  0
VERTEX
  5
35AA
330
2CDB
100
AcDbEntity
  8
0
100
AcDbVertex
100
AcDb2dVertex
 10
1.675843224689132
 20
3.958092389542656
 30
0.0
  0
SEQEND
  5
35AB
330
2CDB
100
AcDbEntity
  8
0
  0
LINE
  5
2CE1
330
1E
100
AcDbEntity
  8
0
100
AcDbLine
 10
5.249244701067085
 20
7.746711582456041
 30
0.0
 11
5.418531807366297
 21
7.749336188755255
 31
0.0
  0
LINE
  5
2CE2
330
1E
100
AcDbEntity
  8
0
100
AcDbLine
 10
5.249244701067085
 20
3.326874574582026
 30
0.0
 11
5.249244701067085
 21
7.666661090330057
 31
0.0
  0
LINE
  5
2CE3
330
1E
100
AcDbEntity
  8
0
100
AcDbLine
 10
5.249244701067085
 20
3.326874574582026
 30
0.0
 11
5.418531807366297
 21
3.324249968282813
 31
0.0
  0
LINE
  5
2CE4
330
1E
100
AcDbEntity
  8
0
100
AcDbLine
 10
5.418531807366297
 20
7.670597999778877
 30
0.0
 11
5.418531807366297
 21
3.324249968282813
 31
0.0
  0
LINE
  5
2CE5
330
1E
100
AcDbEntity
  8
0
100
AcDbLine
 10
5.418531807366297
 20
7.670597999778877
 30
0.0
 11
5.249244701067085
 21
7.666661090330057
 31
0.0
  0
POLYLINE
  5
2CE6
330
1E
100
AcDbEntity
  8
0
100
AcDb2dPolyline
 66
     1
 10
0.0
 20
0.0
 30
0.0
  0
VERTEX
  5
35AC
330
2CE6
100
AcDbEntity
  8
0
100
AcDbVertex
100
AcDb2dVertex
 10
5.249244701067084
 20
3.277007054896987
 30
0.0
  0
VERTEX
  5
35AD
330
2CE6
100
AcDbEntity
  8
0
100
AcDbVertex
100
AcDb2dVertex
 10
5.249244701067084
 20
3.3006285115899
 30
0.0
  0
VERTEX
  5
35AE
330
2CE6
100
AcDbEntity
  8
0
100
AcDbVertex
100
AcDb2dVertex
 10
5.249244701067084
 20
3.326874574582026
 30
0.0
  0
SEQEND
  5
35AF
330
2CE6
100
AcDbEntity
  8
0
  0
POLYLINE
  5
2CEB
330
1E
100
AcDbEntity
  8
0
100
AcDb2dPolyline
 66
     1
 10
0.0
 20
0.0
 30
0.0
  0
VERTEX
  5
35B0
330
2CEB
100
AcDbEntity
  8
0
100
AcDbVertex
100
AcDb2dVertex
 10
5.249244701067084
 20
7.666661090330057
 30
0.0
  0
VERTEX
  5
35B1
330
2CEB
100
AcDbEntity
  8
0
100
AcDbVertex
100
AcDb2dVertex
 10
5.249244701067084
 20
7.692907153322183
 30
0.0
  0
VERTEX
  5
35B2
330
2CEB
100
AcDbEntity
  8
0
100
AcDbVertex
100
AcDb2dVertex
 10
5.249244701067084
 20
7.716528610015096
 30
0.0
  0
SEQEND
  5
35B3
330
2CEB
100
AcDbEntity
  8
0
  0
POLYLINE
  5
2CF0
330
1E
100
AcDbEntity
  8
0
100
AcDb2dPolyline
 66
     1
 10
0.0
 20
0.0
 30
0.0
  0
VERTEX
  5
35B4
330
2CF0
100
AcDbEntity
  8
0
100
AcDbVertex
100
AcDb2dVertex
 10
5.418531807366298
 20
7.749336188755254
 30
0.0
  0
VERTEX
  5
35B5
330
2CF0
100
AcDbEntity
  8
0
100
AcDbVertex
100
AcDb2dVertex
 10
5.418531807366298
 20
7.744086976156829
 30
0.0
  0
VERTEX
  5
35B6
330
2CF0
100
AcDbEntity
  8
0
100
AcDbVertex
100
AcDb2dVertex
 10
5.418531807366298
 20
7.727027035211946
 30
0.0
  0
VERTEX
  5
35B7
330
2CF0
100
AcDbEntity
  8
0
100
AcDbVertex
100
AcDb2dVertex
 10
5.418531807366298
 20
7.700780972219821
 30
0.0
  0
VERTEX
  5
35B8
330
2CF0
100
AcDbEntity
  8
0
100
AcDbVertex
100
AcDb2dVertex
 10
5.418531807366298
 20
7.670597999778877
 30
0.0
  0
SEQEND
  5
35B9
330
2CF0
100
AcDbEntity
  8
0
  0
POLYLINE
  5
2CF7
330
1E
100
AcDbEntity
  8
0
100
AcDb2dPolyline
 66
     1
 10
0.0
 20
0.0
 30
0.0
  0
VERTEX
  5
35BA
330
2CF7
100
AcDbEntity
  8
0
100
AcDbVertex
100
AcDb2dVertex
 10
5.418531807366298
 20
3.324249968282813
 30
0.0
  0
VERTEX
  5
35BB
330
2CF7
100
AcDbEntity
  8
0
100
AcDbVertex
100
AcDb2dVertex
 10
5.418531807366298
 20
3.294066995841869
 30
0.0
  0
VERTEX
  5
35BC
330
2CF7
100
AcDbEntity
  8
0
100
AcDbVertex
100
AcDb2dVertex
 10
5.418531807366298
 20
3.267820932849742
 30
0.0
  0
VERTEX
  5
35BD
330
2CF7
100
AcDbEntity
  8
0
100
AcDbVertex
100
AcDb2dVertex
 10
5.418531807366298
 20
3.250760991904861
 30
0.0
  0
VERTEX
  5
35BE
330
2CF7
100
AcDbEntity
  8
0
100
AcDbVertex
100
AcDb2dVertex
 10
5.418531807366298
 20
3.244199476156829
 30
0.0
  0
SEQEND
  5
35BF
330
2CF7
100
AcDbEntity
  8
0
  0
POLYLINE
  5
2CFE
330
1E
100
AcDbEntity
  8
0
100
AcDb2dPolyline
 66
     1
 10
0.0
 20
0.0
 30
0.0
  0
VERTEX
  5
35C0
330
2CFE
100
AcDbEntity
  8
0
100
AcDbVertex
100
AcDb2dVertex
 10
5.755793716815116
 20
4.930509023400923
 30
0.0
  0
VERTEX
  5
35C1
330
2CFE
100
AcDbEntity
  8
0
100
AcDbVertex
100
AcDb2dVertex
 10
5.72954765382299
 20
4.938382842298562
 30
0.0
  0
VERTEX
  5
35C2
330
2CFE
100
AcDbEntity
  8
0
100
AcDbVertex
100
AcDb2dVertex
 10
5.708550803429289
 20
4.956755086393049
 30
0.0
  0
SEQEND
  5
35C3
330
2CFE
100
AcDbEntity
  8
0
  0
LINE
  5
2D03
330
1E
100
AcDbEntity
  8
0
100
AcDbLine
 10
5.708550803429289
 20
4.956755086393049
 30
0.0
 11
5.682304740437163
 21
4.993499574582027
 31
0.0
  0
POLYLINE
  5
2D04
330
1E
100
AcDbEntity
  8
0
100
AcDb2dPolyline
 66
     1
 10
0.0
 20
0.0
 30
0.0
  0
VERTEX
  5
35C4
330
2D04
100
AcDbEntity
  8
0
100
AcDbVertex
100
AcDb2dVertex
 10
5.682304740437164
 20
4.993499574582027
 30
0.0
  0
VERTEX
  5
35C5
330
2D04
100
AcDbEntity
  8
0
100
AcDbVertex
100
AcDb2dVertex
 10
5.662620193193069
 20
5.014496424975727
 30
0.0
  0
VERTEX
  5
35C6
330
2D04
100
AcDbEntity
  8
0
100
AcDbVertex
100
AcDb2dVertex
 10
5.63768643335055
 20
5.028931759621396
 30
0.0
  0
VERTEX
  5
35C7
330
2D04
100
AcDbEntity
  8
0
100
AcDbVertex
100
AcDb2dVertex
 10
5.60881576405921
 20
5.035493275369428
 30
0.0
  0
SEQEND
  5
35C8
330
2D04
100
AcDbEntity
  8
0
  0
LINE
  5
2D0A
330
1E
100
AcDbEntity
  8
0
100
AcDbLine
 10
5.600941945161572
 20
5.036805578519034
 30
0.0
 11
5.608815764059211
 21
5.035493275369428
 31
0.0
  0
LINE
  5
2D0B
330
1E
100
AcDbEntity
  8
0
100
AcDbLine
 10
5.600941945161572
 20
5.036805578519034
 30
0.0
 11
5.600941945161572
 21
5.006622606078089
 31
0.0
  0
LINE
  5
2D0C
330
1E
100
AcDbEntity
  8
0
100
AcDbLine
 10
5.602254248311179
 20
5.00268569662927
 30
0.0
 11
5.600941945161572
 21
5.006622606078089
 31
0.0
  0
POLYLINE
  5
2D0D
330
1E
100
AcDbEntity
  8
0
100
AcDb2dPolyline
 66
     1
 10
0.0
 20
0.0
 30
0.0
  0
VERTEX
  5
35C9
330
2D0D
100
AcDbEntity
  8
0
100
AcDbVertex
100
AcDb2dVertex
 10
5.61275267350803
 20
4.965941208440294
 30
0.0
  0
VERTEX
  5
35CA
330
2D0D
100
AcDbEntity
  8
0
100
AcDbVertex
100
AcDb2dVertex
 10
5.611440370358423
 20
4.985625755684388
 30
0.0
  0
VERTEX
  5
35CB
330
2D0D
100
AcDbEntity
  8
0
100
AcDbVertex
100
AcDb2dVertex
 10
5.602254248311179
 20
5.00268569662927
 30
0.0
  0
SEQEND
  5
35CC
330
2D0D
100
AcDbEntity
  8
0
  0
LINE
  5
2D12
330
1E
100
AcDbEntity
  8
0
100
AcDbLine
 10
5.61275267350803
 20
4.965941208440294
 30
0.0
 11
5.61275267350803
 21
4.955442783243444
 31
0.0
  0
LINE
  5
2D13
330
1E
100
AcDbEntity
  8
0
100
AcDbLine
 10
5.845030330988344
 20
4.914761385605648
 30
0.0
 11
5.845030330988344
 21
4.893764535211947
 31
0.0
  0
POLYLINE
  5
2D14
330
1E
100
AcDbEntity
  8
0
100
AcDb2dPolyline
 66
     1
 10
0.0
 20
0.0
 30
0.0
  0
VERTEX
  5
35CD
330
2D14
100
AcDbEntity
  8
0
100
AcDbVertex
100
AcDb2dVertex
 10
5.845030330988343
 20
4.914761385605648
 30
0.0
  0
VERTEX
  5
35CE
330
2D14
100
AcDbEntity
  8
0
100
AcDbVertex
100
AcDb2dVertex
 10
5.841093421539525
 20
4.925259810802498
 30
0.0
  0
VERTEX
  5
35CF
330
2D14
100
AcDbEntity
  8
0
100
AcDbVertex
100
AcDb2dVertex
 10
5.830594996342675
 20
4.929196720251317
 30
0.0
  0
SEQEND
  5
35D0
330
2D14
100
AcDbEntity
  8
0
  0
LINE
  5
2D19
330
1E
100
AcDbEntity
  8
0
100
AcDbLine
 10
5.755793716815116
 20
4.930509023400923
 30
0.0
 11
5.830594996342676
 21
4.929196720251317
 31
0.0
  0
POLYLINE
  5
2D1A
330
1E
100
AcDbEntity
  8
0
100
AcDb2dPolyline
 66
     1
 10
0.0
 20
0.0
 30
0.0
  0
VERTEX
  5
35D1
330
2D1A
100
AcDbEntity
  8
0
100
AcDbVertex
100
AcDb2dVertex
 10
5.59831733886236
 20
4.939695145448168
 30
0.0
  0
VERTEX
  5
35D2
330
2D1A
100
AcDbEntity
  8
0
100
AcDbVertex
100
AcDb2dVertex
 10
5.60881576405921
 20
4.944944358046593
 30
0.0
  0
VERTEX
  5
35D3
330
2D1A
100
AcDbEntity
  8
0
100
AcDbVertex
100
AcDb2dVertex
 10
5.61275267350803
 20
4.955442783243444
 30
0.0
  0
SEQEND
  5
35D4
330
2D1A
100
AcDbEntity
  8
0
  0
LINE
  5
2D1F
330
1E
100
AcDbEntity
  8
0
100
AcDbLine
 10
5.418531807366297
 20
4.935758235999348
 30
0.0
 11
5.598317338862361
 21
4.939695145448167
 31
0.0
  0
LINE
  5
2D20
330
1E
100
AcDbEntity
  8
0
100
AcDbLine
 10
5.830594996342676
 20
4.879329200566279
 30
0.0
 11
5.418531807366297
 21
4.85045853127494
 31
0.0
  0
POLYLINE
  5
2D21
330
1E
100
AcDbEntity
  8
0
100
AcDb2dPolyline
 66
     1
 10
0.0
 20
0.0
 30
0.0
  0
VERTEX
  5
35D5
330
2D21
100
AcDbEntity
  8
0
100
AcDbVertex
100
AcDb2dVertex
 10
5.830594996342675
 20
4.879329200566279
 30
0.0
  0
VERTEX
  5
35D6
330
2D21
100
AcDbEntity
  8
0
100
AcDbVertex
100
AcDb2dVertex
 10
5.841093421539525
 20
4.883266110015097
 30
0.0
  0
VERTEX
  5
35D7
330
2D21
100
AcDbEntity
  8
0
100
AcDbVertex
100
AcDb2dVertex
 10
5.845030330988343
 20
4.893764535211947
 30
0.0
  0
SEQEND
  5
35D8
330
2D21
100
AcDbEntity
  8
0
  0
LINE
  5
2D26
330
1E
100
AcDbEntity
  8
0
100
AcDbLine
 10
5.090456019964721
 20
6.065651247810372
 30
0.0
 11
5.093080626263935
 21
6.065651247810372
 31
0.0
  0
LINE
  5
2D27
330
1E
100
AcDbEntity
  8
0
100
AcDbLine
 10
5.090456019964721
 20
5.795316798991475
 30
0.0
 11
5.090456019964721
 21
6.035468275369428
 31
0.0
  0
LINE
  5
2D28
330
1E
100
AcDbEntity
  8
0
100
AcDbLine
 10
5.090456019964721
 20
5.795316798991475
 30
0.0
 11
5.093080626263935
 21
5.795316798991475
 31
0.0
  0
LINE
  5
2D29
330
1E
100
AcDbEntity
  8
0
100
AcDbLine
 10
5.093080626263935
 20
6.035468275369428
 30
0.0
 11
5.090456019964721
 21
6.035468275369428
 31
0.0
  0
LINE
  5
2D2A
330
1E
100
AcDbEntity
  8
0
100
AcDbLine
 10
5.093080626263935
 20
5.76513382655053
 30
0.0
 11
5.090456019964721
 21
5.76513382655053
 31
0.0
  0
POLYLINE
  5
2D2B
330
1E
100
AcDbEntity
  8
0
100
AcDb2dPolyline
 66
     1
 10
0.0
 20
0.0
 30
0.0
  0
VERTEX
  5
35D9
330
2D2B
100
AcDbEntity
  8
0
100
AcDbVertex
100
AcDb2dVertex
 10
5.090456019964722
 20
5.76513382655053
 30
0.0
  0
VERTEX
  5
35DA
330
2D2B
100
AcDbEntity
  8
0
100
AcDbVertex
100
AcDb2dVertex
 10
5.090456019964722
 20
5.769070735999348
 30
0.0
  0
VERTEX
  5
35DB
330
2D2B
100
AcDbEntity
  8
0
100
AcDbVertex
100
AcDb2dVertex
 10
5.090456019964722
 20
5.779569161196199
 30
0.0
  0
VERTEX
  5
35DC
330
2D2B
100
AcDbEntity
  8
0
100
AcDbVertex
100
AcDb2dVertex
 10
5.090456019964722
 20
5.795316798991474
 30
0.0
  0
SEQEND
  5
35DD
330
2D2B
100
AcDbEntity
  8
0
  0
POLYLINE
  5
2D31
330
1E
100
AcDbEntity
  8
0
100
AcDb2dPolyline
 66
     1
 10
0.0
 20
0.0
 30
0.0
  0
VERTEX
  5
35DE
330
2D31
100
AcDbEntity
  8
0
100
AcDbVertex
100
AcDb2dVertex
 10
5.090456019964722
 20
6.035468275369428
 30
0.0
  0
VERTEX
  5
35DF
330
2D31
100
AcDbEntity
  8
0
100
AcDbVertex
100
AcDb2dVertex
 10
5.090456019964722
 20
6.051215913164703
 30
0.0
  0
VERTEX
  5
35E0
330
2D31
100
AcDbEntity
  8
0
100
AcDbVertex
100
AcDb2dVertex
 10
5.090456019964722
 20
6.061714338361554
 30
0.0
  0
VERTEX
  5
35E1
330
2D31
100
AcDbEntity
  8
0
100
AcDbVertex
100
AcDb2dVertex
 10
5.090456019964722
 20
6.065651247810372
 30
0.0
  0
SEQEND
  5
35E2
330
2D31
100
AcDbEntity
  8
0
  0
POLYLINE
  5
2D37
330
1E
100
AcDbEntity
  8
0
100
AcDb2dPolyline
 66
     1
 10
0.0
 20
0.0
 30
0.0
  0
VERTEX
  5
35E3
330
2D37
100
AcDbEntity
  8
0
100
AcDbVertex
100
AcDb2dVertex
 10
5.43165483886236
 20
5.804502921038719
 30
0.0
  0
VERTEX
  5
35E4
330
2D37
100
AcDbEntity
  8
0
100
AcDbVertex
100
AcDb2dVertex
 10
5.429030232563148
 20
5.804502921038719
 30
0.0
  0
VERTEX
  5
35E5
330
2D37
100
AcDbEntity
  8
0
100
AcDbVertex
100
AcDb2dVertex
 10
5.418531807366298
 20
5.804502921038719
 30
0.0
  0
SEQEND
  5
35E6
330
2D37
100
AcDbEntity
  8
0
  0
LINE
  5
2D3C
330
1E
100
AcDbEntity
  8
0
100
AcDbLine
 10
5.43165483886236
 20
5.84649662182612
 30
0.0
 11
5.43165483886236
 21
5.804502921038719
 31
0.0
  0
POLYLINE
  5
2D3D
330
1E
100
AcDbEntity
  8
0
100
AcDb2dPolyline
 66
     1
 10
0.0
 20
0.0
 30
0.0
  0
VERTEX
  5
35E7
330
2D3D
100
AcDbEntity
  8
0
100
AcDbVertex
100
AcDb2dVertex
 10
5.418531807366298
 20
5.84649662182612
 30
0.0
  0
VERTEX
  5
35E8
330
2D3D
100
AcDbEntity
  8
0
100
AcDbVertex
100
AcDb2dVertex
 10
5.429030232563148
 20
5.84649662182612
 30
0.0
  0
VERTEX
  5
35E9
330
2D3D
100
AcDbEntity
  8
0
100
AcDbVertex
100
AcDb2dVertex
 10
5.43165483886236
 20
5.84649662182612
 30
0.0
  0
SEQEND
  5
35EA
330
2D3D
100
AcDbEntity
  8
0
  0
LINE
  5
2D42
330
1E
100
AcDbEntity
  8
0
100
AcDbLine
 10
5.43165483886236
 20
5.804502921038719
 30
0.0
 11
5.418531807366297
 21
5.797941405290687
 31
0.0
  0
LINE
  5
2D43
330
1E
100
AcDbEntity
  8
0
100
AcDbLine
 10
5.418531807366297
 20
3.244199476156829
 30
0.0
 11
5.249244701067085
 21
3.246824082456042
 31
0.0
  0
POLYLINE
  5
2D44
330
1E
100
AcDbEntity
  8
0
100
AcDb2dPolyline
 66
     1
 10
0.0
 20
0.0
 30
0.0
  0
VERTEX
  5
35EB
330
2D44
100
AcDbEntity
  8
0
100
AcDbVertex
100
AcDb2dVertex
 10
5.090456019964722
 20
6.986888058833994
 30
0.0
  0
VERTEX
  5
35EC
330
2D44
100
AcDbEntity
  8
0
100
AcDbVertex
100
AcDb2dVertex
 10
5.090456019964722
 20
6.990824968282813
 30
0.0
  0
VERTEX
  5
35ED
330
2D44
100
AcDbEntity
  8
0
100
AcDbVertex
100
AcDb2dVertex
 10
5.090456019964722
 20
7.002635696629269
 30
0.0
  0
VERTEX
  5
35EE
330
2D44
100
AcDbEntity
  8
0
100
AcDbVertex
100
AcDb2dVertex
 10
5.090456019964722
 20
7.017071031274939
 30
0.0
  0
SEQEND
  5
35EF
330
2D44
100
AcDbEntity
  8
0
  0
LINE
  5
2D4A
330
1E
100
AcDbEntity
  8
0
100
AcDbLine
 10
5.090456019964721
 20
7.017071031274939
 30
0.0
 11
5.090456019964721
 21
7.257222507652892
 31
0.0
  0
POLYLINE
  5
2D4B
330
1E
100
AcDbEntity
  8
0
100
AcDb2dPolyline
 66
     1
 10
0.0
 20
0.0
 30
0.0
  0
VERTEX
  5
35F0
330
2D4B
100
AcDbEntity
  8
0
100
AcDbVertex
100
AcDb2dVertex
 10
5.090456019964722
 20
7.257222507652892
 30
0.0
  0
VERTEX
  5
35F1
330
2D4B
100
AcDbEntity
  8
0
100
AcDbVertex
100
AcDb2dVertex
 10
5.090456019964722
 20
7.272970145448168
 30
0.0
  0
VERTEX
  5
35F2
330
2D4B
100
AcDbEntity
  8
0
100
AcDbVertex
100
AcDb2dVertex
 10
5.090456019964722
 20
7.283468570645018
 30
0.0
  0
VERTEX
  5
35F3
330
2D4B
100
AcDbEntity
  8
0
100
AcDbVertex
100
AcDb2dVertex
 10
5.090456019964722
 20
7.287405480093838
 30
0.0
  0
SEQEND
  5
35F4
330
2D4B
100
AcDbEntity
  8
0
  0
LINE
  5
2D51
330
1E
100
AcDbEntity
  8
0
100
AcDbLine
 10
5.093080626263935
 20
6.986888058833994
 30
0.0
 11
5.090456019964721
 21
6.986888058833994
 31
0.0
  0
LINE
  5
2D52
330
1E
100
AcDbEntity
  8
0
100
AcDbLine
 10
5.090456019964721
 20
7.017071031274939
 30
0.0
 11
5.093080626263935
 21
7.017071031274939
 31
0.0
  0
LINE
  5
2D53
330
1E
100
AcDbEntity
  8
0
100
AcDbLine
 10
5.093080626263935
 20
7.257222507652892
 30
0.0
 11
5.090456019964721
 21
7.257222507652892
 31
0.0
  0
LINE
  5
2D54
330
1E
100
AcDbEntity
  8
0
100
AcDbLine
 10
5.090456019964721
 20
7.287405480093838
 30
0.0
 11
5.093080626263935
 21
7.287405480093838
 31
0.0
  0
POLYLINE
  5
2D55
330
1E
100
AcDbEntity
  8
0
100
AcDb2dPolyline
 66
     1
 10
0.0
 20
0.0
 30
0.0
  0
VERTEX
  5
35F5
330
2D55
100
AcDbEntity
  8
0
100
AcDbVertex
100
AcDb2dVertex
 10
5.090456019964722
 20
3.736313157259191
 30
0.0
  0
VERTEX
  5
35F6
330
2D55
100
AcDbEntity
  8
0
100
AcDbVertex
100
AcDb2dVertex
 10
5.090456019964722
 20
3.721877822613523
 30
0.0
  0
VERTEX
  5
35F7
330
2D55
100
AcDbEntity
  8
0
100
AcDbVertex
100
AcDb2dVertex
 10
5.090456019964722
 20
3.710067094267065
 30
0.0
  0
VERTEX
  5
35F8
330
2D55
100
AcDbEntity
  8
0
100
AcDbVertex
100
AcDb2dVertex
 10
5.090456019964722
 20
3.706130184818247
 30
0.0
  0
SEQEND
  5
35F9
330
2D55
100
AcDbEntity
  8
0
  0
LINE
  5
2D5B
330
1E
100
AcDbEntity
  8
0
100
AcDbLine
 10
5.090456019964721
 20
3.976464633637144
 30
0.0
 11
5.090456019964721
 21
3.736313157259191
 31
0.0
  0
POLYLINE
  5
2D5C
330
1E
100
AcDbEntity
  8
0
100
AcDb2dPolyline
 66
     1
 10
0.0
 20
0.0
 30
0.0
  0
VERTEX
  5
35FA
330
2D5C
100
AcDbEntity
  8
0
100
AcDbVertex
100
AcDb2dVertex
 10
5.090456019964722
 20
4.00664760607809
 30
0.0
  0
VERTEX
  5
35FB
330
2D5C
100
AcDbEntity
  8
0
100
AcDbVertex
100
AcDb2dVertex
 10
5.090456019964722
 20
4.00271069662927
 30
0.0
  0
VERTEX
  5
35FC
330
2D5C
100
AcDbEntity
  8
0
100
AcDbVertex
100
AcDb2dVertex
 10
5.090456019964722
 20
3.992212271432419
 30
0.0
  0
VERTEX
  5
35FD
330
2D5C
100
AcDbEntity
  8
0
100
AcDbVertex
100
AcDb2dVertex
 10
5.090456019964722
 20
3.976464633637144
 30
0.0
  0
SEQEND
  5
35FE
330
2D5C
100
AcDbEntity
  8
0
  0
LINE
  5
2D62
330
1E
100
AcDbEntity
  8
0
100
AcDbLine
 10
5.093080626263935
 20
4.00664760607809
 30
0.0
 11
5.090456019964721
 21
4.00664760607809
 31
0.0
  0
LINE
  5
2D63
330
1E
100
AcDbEntity
  8
0
100
AcDbLine
 10
5.090456019964721
 20
3.976464633637144
 30
0.0
 11
5.093080626263935
 21
3.976464633637144
 31
0.0
  0
LINE
  5
2D64
330
1E
100
AcDbEntity
  8
0
100
AcDbLine
 10
5.093080626263935
 20
3.736313157259191
 30
0.0
 11
5.090456019964721
 21
3.736313157259191
 31
0.0
  0
LINE
  5
2D65
330
1E
100
AcDbEntity
  8
0
100
AcDbLine
 10
5.090456019964721
 20
3.706130184818247
 30
0.0
 11
5.093080626263935
 21
3.706130184818247
 31
0.0
  0
LINE
  5
2D66
330
1E
100
AcDbEntity
  8
0
100
AcDbLine
 10
5.093080626263935
 20
3.43185882655053
 30
0.0
 11
5.093080626263935
 21
7.561676838361554
 31
0.0
  0
POLYLINE
  5
2D67
330
1E
100
AcDbEntity
  8
0
100
AcDb2dPolyline
 66
     1
 10
0.0
 20
0.0
 30
0.0
  0
VERTEX
  5
35FF
330
2D67
100
AcDbEntity
  8
0
100
AcDbVertex
100
AcDb2dVertex
 10
5.249244701067084
 20
7.746711582456041
 30
0.0
  0
VERTEX
  5
3600
330
2D67
100
AcDbEntity
  8
0
100
AcDbVertex
100
AcDb2dVertex
 10
5.249244701067084
 20
7.738837763558404
 30
0.0
  0
VERTEX
  5
3601
330
2D67
100
AcDbEntity
  8
0
100
AcDbVertex
100
AcDb2dVertex
 10
5.249244701067084
 20
7.716528610015096
 30
0.0
  0
SEQEND
  5
3602
330
2D67
100
AcDbEntity
  8
0
  0
LINE
  5
2D6C
330
1E
100
AcDbEntity
  8
0
100
AcDbLine
 10
5.249244701067085
 20
3.277007054896987
 30
0.0
 11
5.249244701067085
 21
7.716528610015096
 31
0.0
  0
POLYLINE
  5
2D6D
330
1E
100
AcDbEntity
  8
0
100
AcDb2dPolyline
 66
     1
 10
0.0
 20
0.0
 30
0.0
  0
VERTEX
  5
3603
330
2D6D
100
AcDbEntity
  8
0
100
AcDbVertex
100
AcDb2dVertex
 10
5.249244701067084
 20
3.246824082456042
 30
0.0
  0
VERTEX
  5
3604
330
2D6D
100
AcDbEntity
  8
0
100
AcDbVertex
100
AcDb2dVertex
 10
5.249244701067084
 20
3.256010204503287
 30
0.0
  0
VERTEX
  5
3605
330
2D6D
100
AcDbEntity
  8
0
100
AcDbVertex
100
AcDb2dVertex
 10
5.249244701067084
 20
3.277007054896987
 30
0.0
  0
SEQEND
  5
3606
330
2D6D
100
AcDbEntity
  8
0
  0
LINE
  5
2D72
330
1E
100
AcDbEntity
  8
0
100
AcDbLine
 10
5.220374031775746
 20
7.685033334424545
 30
0.0
 11
5.220374031775746
 21
3.308502330487538
 31
0.0
  0
LINE
  5
2D73
330
1E
100
AcDbEntity
  8
0
100
AcDbLine
 10
5.224310941224564
 20
3.277007054896987
 30
0.0
 11
5.220374031775746
 21
3.308502330487538
 31
0.0
  0
LINE
  5
2D74
330
1E
100
AcDbEntity
  8
0
100
AcDbLine
 10
5.249244701067085
 20
3.277007054896987
 30
0.0
 11
5.224310941224564
 21
3.277007054896987
 31
0.0
  0
LINE
  5
2D75
330
1E
100
AcDbEntity
  8
0
100
AcDbLine
 10
5.249244701067085
 20
7.716528610015096
 30
0.0
 11
5.224310941224564
 21
7.716528610015096
 31
0.0
  0
LINE
  5
2D76
330
1E
100
AcDbEntity
  8
0
100
AcDbLine
 10
5.224310941224564
 20
7.716528610015096
 30
0.0
 11
5.220374031775746
 21
7.685033334424545
 31
0.0
  0
LINE
  5
2D77
330
1E
100
AcDbEntity
  8
0
100
AcDbLine
 10
5.115389779807242
 20
7.561676838361554
 30
0.0
 11
5.115389779807242
 21
3.43185882655053
 31
0.0
  0
LINE
  5
2D78
330
1E
100
AcDbEntity
  8
0
100
AcDbLine
 10
5.220374031775746
 20
3.308502330487538
 30
0.0
 11
5.115389779807242
 21
3.43185882655053
 31
0.0
  0
LINE
  5
2D79
330
1E
100
AcDbEntity
  8
0
100
AcDbLine
 10
5.220374031775746
 20
7.685033334424545
 30
0.0
 11
5.115389779807242
 21
7.561676838361554
 31
0.0
  0
POLYLINE
  5
2D7A
330
1E
100
AcDbEntity
  8
0
100
AcDb2dPolyline
 66
     1
 10
0.0
 20
0.0
 30
0.0
  0
VERTEX
  5
3607
330
2D7A
100
AcDbEntity
  8
0
100
AcDbVertex
100
AcDb2dVertex
 10
5.093080626263935
 20
3.43185882655053
 30
0.0
  0
VERTEX
  5
3608
330
2D7A
100
AcDbEntity
  8
0
100
AcDbVertex
100
AcDb2dVertex
 10
5.099642142011965
 20
3.43185882655053
 30
0.0
  0
VERTEX
  5
3609
330
2D7A
100
AcDbEntity
  8
0
100
AcDbVertex
100
AcDb2dVertex
 10
5.115389779807243
 20
3.43185882655053
 30
0.0
  0
SEQEND
  5
360A
330
2D7A
100
AcDbEntity
  8
0
  0
POLYLINE
  5
2D7F
330
1E
100
AcDbEntity
  8
0
100
AcDb2dPolyline
 66
     1
 10
0.0
 20
0.0
 30
0.0
  0
VERTEX
  5
360B
330
2D7F
100
AcDbEntity
  8
0
100
AcDbVertex
100
AcDb2dVertex
 10
5.093080626263935
 20
7.561676838361554
 30
0.0
  0
VERTEX
  5
360C
330
2D7F
100
AcDbEntity
  8
0
100
AcDbVertex
100
AcDb2dVertex
 10
5.099642142011965
 20
7.561676838361554
 30
0.0
  0
VERTEX
  5
360D
330
2D7F
100
AcDbEntity
  8
0
100
AcDbVertex
100
AcDb2dVertex
 10
5.115389779807243
 20
7.561676838361554
 30
0.0
  0
SEQEND
  5
360E
330
2D7F
100
AcDbEntity
  8
0
  0
POLYLINE
  5
2D84
330
1E
100
AcDbEntity
  8
0
100
AcDb2dPolyline
 66
     1
 10
0.0
 20
0.0
 30
0.0
  0
VERTEX
  5
360F
330
2D84
100
AcDbEntity
  8
0
100
AcDbVertex
100
AcDb2dVertex
 10
5.115389779807243
 20
7.561676838361554
 30
0.0
  0
VERTEX
  5
3610
330
2D84
100
AcDbEntity
  8
0
100
AcDbVertex
100
AcDb2dVertex
 10
5.107515960909605
 20
7.595796720251318
 30
0.0
  0
VERTEX
  5
3611
330
2D84
100
AcDbEntity
  8
0
100
AcDbVertex
100
AcDb2dVertex
 10
5.115389779807243
 20
7.623355086393049
 30
0.0
  0
SEQEND
  5
3612
330
2D84
100
AcDbEntity
  8
0
  0
POLYLINE
  5
2D89
330
1E
100
AcDbEntity
  8
0
100
AcDb2dPolyline
 66
     1
 10
0.0
 20
0.0
 30
0.0
  0
VERTEX
  5
3613
330
2D89
100
AcDbEntity
  8
0
100
AcDbVertex
100
AcDb2dVertex
 10
5.093080626263935
 20
7.561676838361554
 30
0.0
  0
VERTEX
  5
3614
330
2D89
100
AcDbEntity
  8
0
100
AcDbVertex
100
AcDb2dVertex
 10
5.099642142011965
 20
7.59448441710171
 30
0.0
  0
VERTEX
  5
3615
330
2D89
100
AcDbEntity
  8
0
100
AcDbVertex
100
AcDb2dVertex
 10
5.115389779807243
 20
7.623355086393049
 30
0.0
  0
SEQEND
  5
3616
330
2D89
100
AcDbEntity
  8
0
  0
POLYLINE
  5
2D8E
330
1E
100
AcDbEntity
  8
0
100
AcDb2dPolyline
 66
     1
 10
0.0
 20
0.0
 30
0.0
  0
VERTEX
  5
3617
330
2D8E
100
AcDbEntity
  8
0
100
AcDbVertex
100
AcDb2dVertex
 10
5.224310941224565
 20
7.716528610015096
 30
0.0
  0
VERTEX
  5
3618
330
2D8E
100
AcDbEntity
  8
0
100
AcDbVertex
100
AcDb2dVertex
 10
5.224310941224565
 20
7.721777822613521
 30
0.0
  0
VERTEX
  5
3619
330
2D8E
100
AcDbEntity
  8
0
100
AcDbVertex
100
AcDb2dVertex
 10
5.225623244374171
 20
7.730963944660766
 30
0.0
  0
VERTEX
  5
361A
330
2D8E
100
AcDbEntity
  8
0
100
AcDbVertex
100
AcDb2dVertex
 10
5.225623244374171
 20
7.734900854109586
 30
0.0
  0
VERTEX
  5
361B
330
2D8E
100
AcDbEntity
  8
0
100
AcDbVertex
100
AcDb2dVertex
 10
5.225623244374171
 20
7.741462369857616
 30
0.0
  0
VERTEX
  5
361C
330
2D8E
100
AcDbEntity
  8
0
100
AcDbVertex
100
AcDb2dVertex
 10
5.225623244374171
 20
7.745399279306436
 30
0.0
  0
VERTEX
  5
361D
330
2D8E
100
AcDbEntity
  8
0
100
AcDbVertex
100
AcDb2dVertex
 10
5.224310941224565
 20
7.746711582456041
 30
0.0
  0
SEQEND
  5
361E
330
2D8E
100
AcDbEntity
  8
0
  0
LINE
  5
2D97
330
1E
100
AcDbEntity
  8
0
100
AcDbLine
 10
5.220374031775746
 20
7.746711582456041
 30
0.0
 11
5.224310941224564
 21
7.746711582456041
 31
0.0
  0
LINE
  5
2D98
330
1E
100
AcDbEntity
  8
0
100
AcDbLine
 10
5.115389779807242
 20
7.623355086393049
 30
0.0
 11
5.220374031775746
 21
7.746711582456041
 31
0.0
  0
LINE
  5
2D99
330
1E
100
AcDbEntity
  8
0
100
AcDbLine
 10
5.224310941224564
 20
7.746711582456041
 30
0.0
 11
5.249244701067085
 21
7.746711582456041
 31
0.0
  0
POLYLINE
  5
2D9A
330
1E
100
AcDbEntity
  8
0
100
AcDb2dPolyline
 66
     1
 10
0.0
 20
0.0
 30
0.0
  0
VERTEX
  5
361F
330
2D9A
100
AcDbEntity
  8
0
100
AcDbVertex
100
AcDb2dVertex
 10
5.093080626263935
 20
3.43185882655053
 30
0.0
  0
VERTEX
  5
3620
330
2D9A
100
AcDbEntity
  8
0
100
AcDbVertex
100
AcDb2dVertex
 10
5.099642142011965
 20
3.400363550959979
 30
0.0
  0
VERTEX
  5
3621
330
2D9A
100
AcDbEntity
  8
0
100
AcDbVertex
100
AcDb2dVertex
 10
5.115389779807243
 20
3.371492881668641
 30
0.0
  0
SEQEND
  5
3622
330
2D9A
100
AcDbEntity
  8
0
  0
POLYLINE
  5
2D9F
330
1E
100
AcDbEntity
  8
0
100
AcDb2dPolyline
 66
     1
 10
0.0
 20
0.0
 30
0.0
  0
VERTEX
  5
3623
330
2D9F
100
AcDbEntity
  8
0
100
AcDbVertex
100
AcDb2dVertex
 10
5.115389779807243
 20
3.43185882655053
 30
0.0
  0
VERTEX
  5
3624
330
2D9F
100
AcDbEntity
  8
0
100
AcDbVertex
100
AcDb2dVertex
 10
5.107515960909605
 20
3.397738944660766
 30
0.0
  0
VERTEX
  5
3625
330
2D9F
100
AcDbEntity
  8
0
100
AcDbVertex
100
AcDb2dVertex
 10
5.115389779807243
 20
3.371492881668641
 30
0.0
  0
SEQEND
  5
3626
330
2D9F
100
AcDbEntity
  8
0
  0
LINE
  5
2DA4
330
1E
100
AcDbEntity
  8
0
100
AcDbLine
 10
5.115389779807242
 20
3.37149288166864
 30
0.0
 11
5.220374031775746
 21
3.246824082456042
 31
0.0
  0
LINE
  5
2DA5
330
1E
100
AcDbEntity
  8
0
100
AcDbLine
 10
5.220374031775746
 20
3.246824082456042
 30
0.0
 11
5.224310941224564
 21
3.246824082456042
 31
0.0
  0
POLYLINE
  5
2DA6
330
1E
100
AcDbEntity
  8
0
100
AcDb2dPolyline
 66
     1
 10
0.0
 20
0.0
 30
0.0
  0
VERTEX
  5
3627
330
2DA6
100
AcDbEntity
  8
0
100
AcDbVertex
100
AcDb2dVertex
 10
5.224310941224565
 20
3.277007054896987
 30
0.0
  0
VERTEX
  5
3628
330
2DA6
100
AcDbEntity
  8
0
100
AcDbVertex
100
AcDb2dVertex
 10
5.224310941224565
 20
3.271757842298562
 30
0.0
  0
VERTEX
  5
3629
330
2DA6
100
AcDbEntity
  8
0
100
AcDbVertex
100
AcDb2dVertex
 10
5.225623244374171
 20
3.262571720251317
 30
0.0
  0
VERTEX
  5
362A
330
2DA6
100
AcDbEntity
  8
0
100
AcDbVertex
100
AcDb2dVertex
 10
5.225623244374171
 20
3.258634810802499
 30
0.0
  0
VERTEX
  5
362B
330
2DA6
100
AcDbEntity
  8
0
100
AcDbVertex
100
AcDb2dVertex
 10
5.225623244374171
 20
3.252073295054467
 30
0.0
  0
VERTEX
  5
362C
330
2DA6
100
AcDbEntity
  8
0
100
AcDbVertex
100
AcDb2dVertex
 10
5.225623244374171
 20
3.248136385605648
 30
0.0
  0
VERTEX
  5
362D
330
2DA6
100
AcDbEntity
  8
0
100
AcDbVertex
100
AcDb2dVertex
 10
5.224310941224565
 20
3.246824082456042
 30
0.0
  0
SEQEND
  5
362E
330
2DA6
100
AcDbEntity
  8
0
  0
LINE
  5
2DAF
330
1E
100
AcDbEntity
  8
0
100
AcDbLine
 10
5.224310941224564
 20
3.246824082456042
 30
0.0
 11
5.249244701067085
 21
3.246824082456042
 31
0.0
  0
ENDSEC
  0
SECTION
  2
OBJECTS
  0
DICTIONARY
  5
C
330
0
100
AcDbDictionary
  3
ACAD_GROUP
350
D
  3
ACAD_MLINESTYLE
350
16
  3
ACAD_PLOTSETTINGS
350
18
  3
ACAD_LAYOUT
350
19
1001
ACAD
1000
TREAT_AS_HARD
1070
     0
  0
DICTIONARY
  5
3262
330
1E
100
AcDbDictionary
  3
ACAD_LAYOUTSELFREF
350
3263
  0
DICTIONARY
  5
3260
330
1A
100
AcDbDictionary
  3
ACAD_LAYOUTSELFREF
350
3261
  0
DICTIONARY
  5
D
102
{ACAD_REACTORS
330
C
102
}
330
C
100
AcDbDictionary
1001
ACAD
1000
TREAT_AS_HARD
1070
     0
  0
DICTIONARY
  5
16
102
{ACAD_REACTORS
330
C
102
}
330
C
100
AcDbDictionary
  3
STANDARD
350
17
1001
ACAD
1000
TREAT_AS_HARD
1070
     0
  0
DICTIONARY
  5
18
102
{ACAD_REACTORS
330
C
102
}
330
C
100
AcDbDictionary
1001
ACAD
1000
TREAT_AS_HARD
1070
     0
  0
DICTIONARY
  5
19
102
{ACAD_REACTORS
330
C
102
}
330
C
100
AcDbDictionary
1001
ACAD
1000
TREAT_AS_HARD
1070
     0
  0
XRECORD
  5
3263
102
{ACAD_REACTORS
330
3262
102
}
330
3262
100
AcDbXrecord
340
1E
  0
XRECORD
  5
3261
102
{ACAD_REACTORS
330
3260
102
}
330
3260
100
AcDbXrecord
340
1A
  0
MLINESTYLE
  5
17
102
{ACAD_REACTORS
330
16
102
}
330
16
100
AcDbMlineStyle
  2
STANDARD
 70
     0
  3

 62
   256
 51
90.0
 52
90.0
 71
     2
 49
0.5
 62
   256
  6
BYLAYER
 49
-0.5
 62
   256
  6
BYLAYER
  0
ENDSEC
  0
EOF
