  0
SECTION
  2
HEADER
  9
$ACADVER
  1
AC1021
  9
$ACADMAINTVER
 70
     1
  9
$DWGCODEPAGE
  3
ANSI_1252
  9
$LASTSAVEDBY
  1
JSP
  9
$INSBASE
 10
0.0
 20
0.0
 30
0.0
  9
$EXTMIN
 10
1.58990481494682
 20
4.44575503101311
 30
-0.0015258207003583
  9
$EXTMAX
 10
4.763122578108593
 20
6.312057512942768
 30
0.0000000349246037
  9
$LIMMIN
 10
0.0
 20
0.0
  9
$LIMMAX
 10
12.0
 20
9.0
  9
$ORTHOMODE
 70
     0
  9
$REGENMODE
 70
     1
  9
$FILLMODE
 70
     1
  9
$QTEXTMODE
 70
     0
  9
$MIRRTEXT
 70
     1
  9
$LTSCALE
 40
1.0
  9
$ATTMODE
 70
     1
  9
$TEXTSIZE
 40
0.2
  9
$TRACEWID
 40
0.05
  9
$TEXTSTYLE
  7
Standard
  9
$CLAYER
  8
0
  9
$CELTYPE
  6
ByLayer
  9
$CECOLOR
 62
   256
  9
$CELTSCALE
 40
1.0
  9
$DISPSILH
 70
     0
  9
$DIMSCALE
 40
1.0
  9
$DIMASZ
 40
0.18
  9
$DIMEXO
 40
0.0625
  9
$DIMDLI
 40
0.38
  9
$DIMRND
 40
0.0
  9
$DIMDLE
 40
0.0
  9
$DIMEXE
 40
0.18
  9
$DIMTP
 40
0.0
  9
$DIMTM
 40
0.0
  9
$DIMTXT
 40
0.18
  9
$DIMCEN
 40
0.09
  9
$DIMTSZ
 40
0.0
  9
$DIMTOL
 70
     0
  9
$DIMLIM
 70
     0
  9
$DIMTIH
 70
     1
  9
$DIMTOH
 70
     1
  9
$DIMSE1
 70
     0
  9
$DIMSE2
 70
     0
  9
$DIMTAD
 70
     0
  9
$DIMZIN
 70
     0
  9
$DIMBLK
  1

  9
$DIMASO
 70
     1
  9
$DIMSHO
 70
     1
  9
$DIMPOST
  1

  9
$DIMAPOST
  1

  9
$DIMALT
 70
     0
  9
$DIMALTD
 70
     2
  9
$DIMALTF
 40
25.4
  9
$DIMLFAC
 40
1.0
  9
$DIMTOFL
 70
     0
  9
$DIMTVP
 40
0.0
  9
$DIMTIX
 70
     0
  9
$DIMSOXD
 70
     0
  9
$DIMSAH
 70
     0
  9
$DIMBLK1
  1

  9
$DIMBLK2
  1

  9
$DIMSTYLE
  2
Standard
  9
$DIMCLRD
 70
     0
  9
$DIMCLRE
 70
     0
  9
$DIMCLRT
 70
     0
  9
$DIMTFAC
 40
1.0
  9
$DIMGAP
 40
0.09
  9
$DIMJUST
 70
     0
  9
$DIMSD1
 70
     0
  9
$DIMSD2
 70
     0
  9
$DIMTOLJ
 70
     1
  9
$DIMTZIN
 70
     0
  9
$DIMALTZ
 70
     0
  9
$DIMALTTZ
 70
     0
  9
$DIMUPT
 70
     0
  9
$DIMDEC
 70
     4
  9
$DIMTDEC
 70
     4
  9
$DIMALTU
 70
     2
  9
$DIMALTTD
 70
     2
  9
$DIMTXSTY
  7
Standard
  9
$DIMAUNIT
 70
     0
  9
$DIMADEC
 70
     0
  9
$DIMALTRND
 40
0.0
  9
$DIMAZIN
 70
     0
  9
$DIMDSEP
 70
    46
  9
$DIMATFIT
 70
     3
  9
$DIMFRAC
 70
     0
  9
$DIMLDRBLK
  1

  9
$DIMLUNIT
 70
     2
  9
$DIMLWD
 70
    -2
  9
$DIMLWE
 70
    -2
  9
$DIMTMOVE
 70
     0
  9
$DIMFXL
 40
1.0
  9
$DIMFXLON
 70
     0
  9
$DIMJOGANG
 40
0.7853981633974483
  9
$DIMTFILL
 70
     0
  9
$DIMTFILLCLR
 70
     0
  9
$DIMARCSYM
 70
     0
  9
$DIMLTYPE
  6

  9
$DIMLTEX1
  6

  9
$DIMLTEX2
  6

  9
$LUNITS
 70
     2
  9
$LUPREC
 70
     4
  9
$SKETCHINC
 40
0.1
  9
$FILLETRAD
 40
0.5
  9
$AUNITS
 70
     0
  9
$AUPREC
 70
     0
  9
$MENU
  1
.
  9
$ELEVATION
 40
0.0
  9
$PELEVATION
 40
0.0
  9
$THICKNESS
 40
0.0
  9
$LIMCHECK
 70
     0
  9
$CHAMFERA
 40
0.5
  9
$CHAMFERB
 40
0.5
  9
$CHAMFERC
 40
1.0
  9
$CHAMFERD
 40
0.0
  9
$SKPOLY
 70
     0
  9
$TDCREATE
 40
2455572.333732940
  9
$TDUCREATE
 40
2455572.583732940
  9
$TDUPDATE
 40
2455572.345344618
  9
$TDUUPDATE
 40
2455572.595344618
  9
$TDINDWG
 40
0.0009818171
  9
$TDUSRTIMER
 40
0.0009818171
  9
$USRTIMER
 70
     1
  9
$ANGBASE
 50
0.0
  9
$ANGDIR
 70
     0
  9
$PDMODE
 70
     0
  9
$PDSIZE
 40
0.0
  9
$PLINEWID
 40
0.0
  9
$SPLFRAME
 70
     0
  9
$SPLINETYPE
 70
     6
  9
$SPLINESEGS
 70
     8
  9
$HANDSEED
  5
3F17
  9
$SURFTAB1
 70
     6
  9
$SURFTAB2
 70
     6
  9
$SURFTYPE
 70
     6
  9
$SURFU
 70
     6
  9
$SURFV
 70
     6
  9
$UCSBASE
  2

  9
$UCSNAME
  2

  9
$UCSORG
 10
0.0
 20
0.0
 30
0.0
  9
$UCSXDIR
 10
1.0
 20
0.0
 30
0.0
  9
$UCSYDIR
 10
0.0
 20
1.0
 30
0.0
  9
$UCSORTHOREF
  2

  9
$UCSORTHOVIEW
 70
     0
  9
$UCSORGTOP
 10
0.0
 20
0.0
 30
0.0
  9
$UCSORGBOTTOM
 10
0.0
 20
0.0
 30
0.0
  9
$UCSORGLEFT
 10
0.0
 20
0.0
 30
0.0
  9
$UCSORGRIGHT
 10
0.0
 20
0.0
 30
0.0
  9
$UCSORGFRONT
 10
0.0
 20
0.0
 30
0.0
  9
$UCSORGBACK
 10
0.0
 20
0.0
 30
0.0
  9
$PUCSBASE
  2

  9
$PUCSNAME
  2

  9
$PUCSORG
 10
0.0
 20
0.0
 30
0.0
  9
$PUCSXDIR
 10
1.0
 20
0.0
 30
0.0
  9
$PUCSYDIR
 10
0.0
 20
1.0
 30
0.0
  9
$PUCSORTHOREF
  2

  9
$PUCSORTHOVIEW
 70
     0
  9
$PUCSORGTOP
 10
0.0
 20
0.0
 30
0.0
  9
$PUCSORGBOTTOM
 10
0.0
 20
0.0
 30
0.0
  9
$PUCSORGLEFT
 10
0.0
 20
0.0
 30
0.0
  9
$PUCSORGRIGHT
 10
0.0
 20
0.0
 30
0.0
  9
$PUCSORGFRONT
 10
0.0
 20
0.0
 30
0.0
  9
$PUCSORGBACK
 10
0.0
 20
0.0
 30
0.0
  9
$USERI1
 70
     0
  9
$USERI2
 70
     0
  9
$USERI3
 70
     0
  9
$USERI4
 70
     0
  9
$USERI5
 70
     0
  9
$USERR1
 40
0.0
  9
$USERR2
 40
0.0
  9
$USERR3
 40
0.0
  9
$USERR4
 40
0.0
  9
$USERR5
 40
0.0
  9
$WORLDVIEW
 70
     1
  9
$SHADEDGE
 70
     3
  9
$SHADEDIF
 70
    70
  9
$TILEMODE
 70
     1
  9
$MAXACTVP
 70
    64
  9
$PINSBASE
 10
0.0
 20
0.0
 30
0.0
  9
$PLIMCHECK
 70
     0
  9
$PEXTMIN
 10
1.000000000000000E+20
 20
1.000000000000000E+20
 30
1.000000000000000E+20
  9
$PEXTMAX
 10
-1.000000000000000E+20
 20
-1.000000000000000E+20
 30
-1.000000000000000E+20
  9
$PLIMMIN
 10
0.0
 20
0.0
  9
$PLIMMAX
 10
12.0
 20
9.0
  9
$UNITMODE
 70
     0
  9
$VISRETAIN
 70
     1
  9
$PLINEGEN
 70
     0
  9
$PSLTSCALE
 70
     1
  9
$TREEDEPTH
 70
  3020
  9
$CMLSTYLE
  2
Standard
  9
$CMLJUST
 70
     0
  9
$CMLSCALE
 40
1.0
  9
$PROXYGRAPHICS
 70
     1
  9
$MEASUREMENT
 70
     0
  9
$CELWEIGHT
370
    -1
  9
$ENDCAPS
280
     0
  9
$JOINSTYLE
280
     0
  9
$LWDISPLAY
290
     0
  9
$INSUNITS
 70
     1
  9
$HYPERLINKBASE
  1

  9
$STYLESHEET
  1

  9
$XEDIT
290
     1
  9
$CEPSNTYPE
380
     0
  9
$PSTYLEMODE
290
     1
  9
$FINGERPRINTGUID
  2
{1307FCDC-136B-4842-9437-9DE9066EDA8C}
  9
$VERSIONGUID
  2
{D66BC674-A385-4F0A-AC5A-A8F9BABC5B2C}
  9
$EXTNAMES
290
     1
  9
$PSVPSCALE
 40
0.0
  9
$OLESTARTUP
290
     0
  9
$SORTENTS
280
   127
  9
$INDEXCTL
280
     0
  9
$HIDETEXT
280
     0
  9
$XCLIPFRAME
290
     0
  9
$HALOGAP
280
     0
  9
$OBSCOLOR
 70
   257
  9
$OBSLTYPE
280
     0
  9
$INTERSECTIONDISPLAY
280
     0
  9
$INTERSECTIONCOLOR
 70
   257
  9
$DIMASSOC
280
     1
  9
$PROJECTNAME
  1

  9
$CAMERADISPLAY
290
     0
  9
$LENSLENGTH
 40
50.0
  9
$CAMERAHEIGHT
 40
0.0
  9
$STEPSPERSEC
 40
2.0
  9
$STEPSIZE
 40
6.0
  9
$3DDWFPREC
 40
2.0
  9
$PSOLWIDTH
 40
0.25
  9
$PSOLHEIGHT
 40
4.0
  9
$LOFTANG1
 40
1.570796326794896
  9
$LOFTANG2
 40
1.570796326794896
  9
$LOFTMAG1
 40
0.0
  9
$LOFTMAG2
 40
0.0
  9
$LOFTPARAM
 70
     7
  9
$LOFTNORMALS
280
     1
  9
$LATITUDE
 40
37.795
  9
$LONGITUDE
 40
-122.394
  9
$NORTHDIRECTION
 40
0.0
  9
$TIMEZONE
 70
 -8000
  9
$LIGHTGLYPHDISPLAY
280
     1
  9
$TILEMODELIGHTSYNCH
280
     1
  9
$CMATERIAL
347
2B59
  9
$SOLIDHIST
280
     1
  9
$SHOWHIST
280
     1
  9
$DWFFRAME
280
     2
  9
$DGNFRAME
280
     0
  9
$REALWORLDSCALE
290
     1
  9
$INTERFERECOLOR
 62
     1
  9
$INTERFEREOBJVS
345
33
  9
$INTERFEREVPVS
346
30
  9
$CSHADOW
280
     0
  9
$SHADOWPLANELOCATION
 40
0.0
  0
ENDSEC
  0
SECTION
  2
CLASSES
  0
CLASS
  1
ACDBDICTIONARYWDFLT
  2
AcDbDictionaryWithDefault
  3
ObjectDBX Classes
 90
        0
 91
        1
280
     0
281
     0
  0
CLASS
  1
VISUALSTYLE
  2
AcDbVisualStyle
  3
ObjectDBX Classes
 90
     4095
 91
       16
280
     0
281
     0
  0
CLASS
  1
MATERIAL
  2
AcDbMaterial
  3
ObjectDBX Classes
 90
     1024
 91
        3
280
     0
281
     0
  0
CLASS
  1
TABLESTYLE
  2
AcDbTableStyle
  3
ObjectDBX Classes
 90
     4095
 91
        1
280
     0
281
     0
  0
CLASS
  1
DICTIONARYVAR
  2
AcDbDictionaryVar
  3
ObjectDBX Classes
 90
        0
 91
        1
280
     0
281
     0
  0
ENDSEC
  0
SECTION
  2
TABLES
  0
TABLE
  2
VPORT
  5
8
330
0
100
AcDbSymbolTable
 70
     1
  0
VPORT
  5
29
330
8
100
AcDbSymbolTableRecord
100
AcDbViewportTableRecord
  2
*Active
 70
     0
 10
0.0
 20
0.0
 11
1.0
 21
1.0
 12
-2.323486303472293
 22
1.128906271977939
 13
0.0
 23
0.0
 14
0.5
 24
0.5
 15
0.5
 25
0.5
 16
0.0
 26
0.0
 36
1.0
 17
5.5
 27
4.25
 37
0.0
 40
1.879649102777784
 41
1.984486873508353
 42
50.0
 43
0.0
 44
0.0
 50
0.0
 51
0.0
 71
     0
 72
   100
 73
     1
 74
     3
 75
     0
 76
     0
 77
     0
 78
     0
281
     0
 65
     1
110
0.0
120
0.0
130
0.0
111
1.0
121
0.0
131
0.0
112
0.0
122
1.0
132
0.0
 79
     0
146
0.0
348
2F
 60
     3
 61
     5
292
     1
282
     1
141
0.0
142
0.0
 63
   250
421
  3355443
  0
ENDTAB
  0
TABLE
  2
LTYPE
  5
5
330
0
100
AcDbSymbolTable
 70
    25
  0
LTYPE
  5
14
330
5
100
AcDbSymbolTableRecord
100
AcDbLinetypeTableRecord
  2
ByBlock
 70
     0
  3

 72
    65
 73
     0
 40
0.0
  0
LTYPE
  5
15
330
5
100
AcDbSymbolTableRecord
100
AcDbLinetypeTableRecord
  2
ByLayer
 70
     0
  3

 72
    65
 73
     0
 40
0.0
  0
LTYPE
  5
16
330
5
100
AcDbSymbolTableRecord
100
AcDbLinetypeTableRecord
  2
Continuous
 70
     0
  3
Solid line
 72
    65
 73
     0
 40
0.0
  0
LTYPE
  5
42
330
5
100
AcDbSymbolTableRecord
100
AcDbLinetypeTableRecord
  2
Dashed
 70
     0
  3
__ __ __ __ __ __ __ 
 72
    65
 73
     2
 40
0.75
 49
0.5
 74
     0
 49
-0.25
 74
     0
  0
LTYPE
  5
43
330
5
100
AcDbSymbolTableRecord
100
AcDbLinetypeTableRecord
  2
Dashed2
 70
     0
  3
_ _ _ _ _ _ _ _ _ _ 
 72
    65
 73
     2
 40
0.375
 49
0.25
 74
     0
 49
-0.125
 74
     0
  0
LTYPE
  5
44
330
5
100
AcDbSymbolTableRecord
100
AcDbLinetypeTableRecord
  2
DashedX2
 70
     0
  3
____  ____  ____  
 72
    65
 73
     2
 40
1.5
 49
1.0
 74
     0
 49
-0.5
 74
     0
  0
LTYPE
  5
45
330
5
100
AcDbSymbolTableRecord
100
AcDbLinetypeTableRecord
  2
Border
 70
     0
  3
__ __ . __ __ . __ __ . __ __ . __ __ . __ __ .
 72
    65
 73
     6
 40
1.75
 49
0.5
 74
     0
 49
-0.25
 74
     0
 49
0.5
 74
     0
 49
-0.25
 74
     0
 49
0.5
 74
     0
 49
-0.25
 74
     0
  0
LTYPE
  5
46
330
5
100
AcDbSymbolTableRecord
100
AcDbLinetypeTableRecord
  2
Border2
 70
     0
  3
__.__.__.__.__.__.__.__.
 72
    65
 73
     6
 40
0.875
 49
0.25
 74
     0
 49
-0.125
 74
     0
 49
0.25
 74
     0
 49
-0.125
 74
     0
 49
0.25
 74
     0
 49
-0.125
 74
     0
  0
LTYPE
  5
47
330
5
100
AcDbSymbolTableRecord
100
AcDbLinetypeTableRecord
  2
BORDERX2
 70
     0
  3
____  ____  .  
 72
    65
 73
     6
 40
3.5
 49
1.0
 74
     0
 49
-0.5
 74
     0
 49
1.0
 74
     0
 49
-0.5
 74
     0
 49
1.0
 74
     0
 49
-0.5
 74
     0
  0
LTYPE
  5
48
330
5
100
AcDbSymbolTableRecord
100
AcDbLinetypeTableRecord
  2
Center
 70
     0
  3
____ _ ____ _ ____ _ 
 72
    65
 73
     4
 40
2.0
 49
1.25
 74
     0
 49
-0.25
 74
     0
 49
0.25
 74
     0
 49
-0.25
 74
     0
  0
LTYPE
  5
49
330
5
100
AcDbSymbolTableRecord
100
AcDbLinetypeTableRecord
  2
Center2
 70
     0
  3
____ _ ____ _ ____ _ 
 72
    65
 73
     4
 40
1.125
 49
0.75
 74
     0
 49
-0.125
 74
     0
 49
0.125
 74
     0
 49
-0.125
 74
     0
  0
LTYPE
  5
4A
330
5
100
AcDbSymbolTableRecord
100
AcDbLinetypeTableRecord
  2
CenterX2
 70
     0
  3
________  __  
 72
    65
 73
     4
 40
4.0
 49
2.5
 74
     0
 49
-0.5
 74
     0
 49
0.5
 74
     0
 49
-0.5
 74
     0
  0
LTYPE
  5
4B
330
5
100
AcDbSymbolTableRecord
100
AcDbLinetypeTableRecord
  2
DashDot
 70
     0
  3
__ . __ . __ . __ . 
 72
    65
 73
     4
 40
1.0
 49
0.5
 74
     0
 49
-0.25
 74
     0
 49
0.0
 74
     0
 49
-0.25
 74
     0
  0
LTYPE
  5
4C
330
5
100
AcDbSymbolTableRecord
100
AcDbLinetypeTableRecord
  2
DashDot2
 70
     0
  3
_._._._._._._._._.
 72
    65
 73
     4
 40
0.5
 49
0.25
 74
     0
 49
-0.125
 74
     0
 49
0.0
 74
     0
 49
-0.125
 74
     0
  0
LTYPE
  5
4D
330
5
100
AcDbSymbolTableRecord
100
AcDbLinetypeTableRecord
  2
DashDotX2
 70
     0
  3
____  .  ____  .  
 72
    65
 73
     4
 40
2.0
 49
1.0
 74
     0
 49
-0.5
 74
     0
 49
0.0
 74
     0
 49
-0.5
 74
     0
  0
LTYPE
  5
4E
330
5
100
AcDbSymbolTableRecord
100
AcDbLinetypeTableRecord
  2
Divide
 70
     0
  3
____ . . ____ . . 
 72
    65
 73
     6
 40
1.25
 49
0.5
 74
     0
 49
-0.25
 74
     0
 49
0.0
 74
     0
 49
-0.25
 74
     0
 49
0.0
 74
     0
 49
-0.25
 74
     0
  0
LTYPE
  5
4F
330
5
100
AcDbSymbolTableRecord
100
AcDbLinetypeTableRecord
  2
Divide2
 70
     0
  3
__..__..__..__..__..
 72
    65
 73
     6
 40
0.625
 49
0.25
 74
     0
 49
-0.125
 74
     0
 49
0.0
 74
     0
 49
-0.125
 74
     0
 49
0.0
 74
     0
 49
-0.125
 74
     0
  0
LTYPE
  5
50
330
5
100
AcDbSymbolTableRecord
100
AcDbLinetypeTableRecord
  2
DivideX2
 70
     0
  3
________  .  .  
 72
    65
 73
     6
 40
2.5
 49
1.0
 74
     0
 49
-0.5
 74
     0
 49
0.0
 74
     0
 49
-0.5
 74
     0
 49
0.0
 74
     0
 49
-0.5
 74
     0
  0
LTYPE
  5
51
330
5
100
AcDbSymbolTableRecord
100
AcDbLinetypeTableRecord
  2
Dot
 70
     0
  3
. . . . . . . . . 
 72
    65
 73
     2
 40
0.25
 49
0.0
 74
     0
 49
-0.25
 74
     0
  0
LTYPE
  5
52
330
5
100
AcDbSymbolTableRecord
100
AcDbLinetypeTableRecord
  2
Dot2
 70
     0
  3
..................
 72
    65
 73
     2
 40
0.125
 49
0.0
 74
     0
 49
-0.125
 74
     0
  0
LTYPE
  5
53
330
5
100
AcDbSymbolTableRecord
100
AcDbLinetypeTableRecord
  2
DotX2
 70
     0
  3
.  .  .  .  .  .  
 72
    65
 73
     2
 40
0.5
 49
0.0
 74
     0
 49
-0.5
 74
     0
  0
LTYPE
  5
54
330
5
100
AcDbSymbolTableRecord
100
AcDbLinetypeTableRecord
  2
Hidden
 70
     0
  3
__ __ __ __ __ __ 
 72
    65
 73
     2
 40
0.375
 49
0.25
 74
     0
 49
-0.125
 74
     0
  0
LTYPE
  5
55
330
5
100
AcDbSymbolTableRecord
100
AcDbLinetypeTableRecord
  2
Hidden2
 70
     0
  3
_ _ _ _ _ _ _ _ _ 
 72
    65
 73
     2
 40
0.1875
 49
0.125
 74
     0
 49
-0.0625
 74
     0
  0
LTYPE
  5
56
330
5
100
AcDbSymbolTableRecord
100
AcDbLinetypeTableRecord
  2
HiddenX2
 70
     0
  3
____ ____ ____ ____ 
 72
    65
 73
     2
 40
0.75
 49
0.5
 74
     0
 49
-0.25
 74
     0
  0
LTYPE
  5
57
330
5
100
AcDbSymbolTableRecord
100
AcDbLinetypeTableRecord
  2
Phantom
 70
     0
  3
______  __  __  
 72
    65
 73
     6
 40
2.5
 49
1.25
 74
     0
 49
-0.25
 74
     0
 49
0.25
 74
     0
 49
-0.25
 74
     0
 49
0.25
 74
     0
 49
-0.25
 74
     0
  0
LTYPE
  5
58
330
5
100
AcDbSymbolTableRecord
100
AcDbLinetypeTableRecord
  2
Phantom2
 70
     0
  3
___ _ _ ___ _ _ 
 72
    65
 73
     6
 40
1.25
 49
0.625
 74
     0
 49
-0.125
 74
     0
 49
0.125
 74
     0
 49
-0.125
 74
     0
 49
0.125
 74
     0
 49
-0.125
 74
     0
  0
LTYPE
  5
59
330
5
100
AcDbSymbolTableRecord
100
AcDbLinetypeTableRecord
  2
PhantomX2
 70
     0
  3
___ _ _ ___ _ _ 
 72
    65
 73
     6
 40
5.0
 49
2.5
 74
     0
 49
-0.5
 74
     0
 49
0.5
 74
     0
 49
-0.5
 74
     0
 49
0.5
 74
     0
 49
-0.5
 74
     0
  0
ENDTAB
  0
TABLE
  2
LAYER
  5
2
330
0
100
AcDbSymbolTable
 70
     8
  0
LAYER
  5
10
330
2
100
AcDbSymbolTableRecord
100
AcDbLayerTableRecord
  2
0
 70
     0
 62
     7
  6
Continuous
370
    -3
390
F
347
2B5B
  0
LAYER
  5
3B
330
2
100
AcDbSymbolTableRecord
100
AcDbLayerTableRecord
  2
1
 70
     0
 62
     7
  6
Continuous
370
    -3
390
F
347
2B5B
  0
LAYER
  5
3C
330
2
100
AcDbSymbolTableRecord
100
AcDbLayerTableRecord
  2
2
 70
     0
 62
     7
  6
Continuous
370
    -3
390
F
347
2B5B
  0
LAYER
  5
3D
330
2
100
AcDbSymbolTableRecord
100
AcDbLayerTableRecord
  2
3
 70
     0
 62
     7
  6
Continuous
370
    -3
390
F
347
2B5B
  0
LAYER
  5
3E
330
2
100
AcDbSymbolTableRecord
100
AcDbLayerTableRecord
  2
4
 70
     0
 62
     7
  6
Continuous
370
    -3
390
F
347
2B5B
  0
LAYER
  5
3F
330
2
100
AcDbSymbolTableRecord
100
AcDbLayerTableRecord
  2
5
 70
     0
 62
     7
  6
Continuous
370
    -3
390
F
347
2B5B
  0
LAYER
  5
40
330
2
100
AcDbSymbolTableRecord
100
AcDbLayerTableRecord
  2
6
 70
     0
 62
     7
  6
Continuous
370
    -3
390
F
347
2B5B
  0
LAYER
  5
41
330
2
100
AcDbSymbolTableRecord
100
AcDbLayerTableRecord
  2
7
 70
     0
 62
     7
  6
Continuous
370
    -3
390
F
347
2B5B
  0
ENDTAB
  0
TABLE
  2
STYLE
  5
3
330
0
100
AcDbSymbolTable
 70
     1
  0
STYLE
  5
11
330
3
100
AcDbSymbolTableRecord
100
AcDbTextStyleTableRecord
  2
Standard
 70
     0
 40
0.0
 41
1.0
 50
0.0
 71
     0
 42
0.2
  3
txt
  4

  0
ENDTAB
  0
TABLE
  2
VIEW
  5
6
330
0
100
AcDbSymbolTable
 70
     0
  0
ENDTAB
  0
TABLE
  2
UCS
  5
7
330
0
100
AcDbSymbolTable
 70
     0
  0
ENDTAB
  0
TABLE
  2
APPID
  5
9
330
0
100
AcDbSymbolTable
 70
     1
  0
APPID
  5
12
330
9
100
AcDbSymbolTableRecord
100
AcDbRegAppTableRecord
  2
ACAD
 70
     0
  0
ENDTAB
  0
TABLE
  2
DIMSTYLE
  5
A
330
0
100
AcDbSymbolTable
 70
     1
100
AcDbDimStyleTable
 71
     1
340
27
  0
DIMSTYLE
105
27
330
A
100
AcDbSymbolTableRecord
100
AcDbDimStyleTableRecord
  2
Standard
 70
     0
340
11
  0
ENDTAB
  0
TABLE
  2
BLOCK_RECORD
  5
1
330
0
100
AcDbSymbolTable
 70
     1
  0
BLOCK_RECORD
  5
1F
330
1
100
AcDbSymbolTableRecord
100
AcDbBlockTableRecord
  2
*Model_Space
340
22
 70
     0
280
     1
281
     0
  0
BLOCK_RECORD
  5
1B
330
1
100
AcDbSymbolTableRecord
100
AcDbBlockTableRecord
  2
*Paper_Space
340
1E
 70
     0
280
     1
281
     0
  0
BLOCK_RECORD
  5
23
330
1
100
AcDbSymbolTableRecord
100
AcDbBlockTableRecord
  2
*Paper_Space0
340
26
 70
     0
280
     1
281
     0
  0
ENDTAB
  0
ENDSEC
  0
SECTION
  2
BLOCKS
  0
BLOCK
  5
20
330
1F
100
AcDbEntity
  8
0
100
AcDbBlockBegin
  2
*Model_Space
 70
     0
 10
0.0
 20
0.0
 30
0.0
  3
*Model_Space
  1

  0
ENDBLK
  5
21
330
1F
100
AcDbEntity
  8
0
100
AcDbBlockEnd
  0
BLOCK
  5
1C
330
1B
100
AcDbEntity
 67
     1
  8
0
100
AcDbBlockBegin
  2
*Paper_Space
 70
     0
 10
0.0
 20
0.0
 30
0.0
  3
*Paper_Space
  1

  0
ENDBLK
  5
1D
330
1B
100
AcDbEntity
 67
     1
  8
0
100
AcDbBlockEnd
  0
BLOCK
  5
24
330
23
100
AcDbEntity
 67
     1
  8
0
100
AcDbBlockBegin
  2
*Paper_Space0
 70
     0
 10
0.0
 20
0.0
 30
0.0
  3
*Paper_Space0
  1

  0
ENDBLK
  5
25
330
23
100
AcDbEntity
 67
     1
  8
0
100
AcDbBlockEnd
  0
ENDSEC
  0
SECTION
  2
ENTITIES
  0
LINE
  5
22D8
330
1F
100
AcDbEntity
  8
1
100
AcDbLine
 10
2.327755905511811
 20
5.74015748031496
 30
0.0
 11
1.716535433070866
 21
5.74015748031496
 31
0.0
  0
LINE
  5
22D9
330
1F
100
AcDbEntity
  8
1
100
AcDbLine
 10
1.716535433070866
 20
5.74015748031496
 30
0.0
 11
1.71751968503937
 21
5.738188976377952
 31
0.0
  0
LINE
  5
22DA
330
1F
100
AcDbEntity
  8
1
100
AcDbLine
 10
1.71751968503937
 20
5.738188976377952
 30
0.0
 11
1.933070866141732
 21
5.738188976377952
 31
0.0
  0
LINE
  5
22DB
330
1F
100
AcDbEntity
  8
1
100
AcDbLine
 10
1.933070866141732
 20
5.738188976377952
 30
0.0
 11
1.934055118110236
 21
5.739173228346456
 31
0.0
  0
LINE
  5
22E1
330
1F
100
AcDbEntity
  8
1
100
AcDbLine
 10
1.941929133858267
 20
5.739173228346456
 30
0.0
 11
2.102362204724409
 21
5.739173228346456
 31
0.0
  0
LINE
  5
22E7
330
1F
100
AcDbEntity
  8
1
100
AcDbLine
 10
2.11023622047244
 20
5.739173228346456
 30
0.0
 11
2.11023622047244
 21
5.738188976377952
 31
0.0
  0
LINE
  5
22E8
330
1F
100
AcDbEntity
  8
1
100
AcDbLine
 10
2.11023622047244
 20
5.738188976377952
 30
0.0
 11
2.325787401574803
 21
5.738188976377952
 31
0.0
  0
LINE
  5
22E9
330
1F
100
AcDbEntity
  8
1
100
AcDbLine
 10
2.325787401574803
 20
5.738188976377952
 30
0.0
 11
2.327755905511811
 21
5.74015748031496
 31
0.0
  0
LINE
  5
22EA
330
1F
100
AcDbEntity
  8
1
100
AcDbLine
 10
1.709645669291338
 20
5.730314960629921
 30
0.0
 11
1.709645669291338
 21
5.08759842519685
 31
0.0
  0
LINE
  5
22EB
330
1F
100
AcDbEntity
  8
1
100
AcDbLine
 10
2.333661417322834
 20
5.730314960629921
 30
0.0
 11
2.333661417322834
 21
5.08759842519685
 31
0.0
  0
LINE
  5
22EC
330
1F
100
AcDbEntity
  8
1
100
AcDbLine
 10
2.452755905511811
 20
6.233267716535433
 30
0.0
 11
2.452755905511811
 21
4.524606299212598
 31
0.0
  0
LINE
  5
22ED
330
1F
100
AcDbEntity
  8
1
100
AcDbLine
 10
1.590551181102362
 20
4.524606299212598
 30
0.0
 11
1.590551181102362
 21
6.233267716535433
 31
0.0
  0
LINE
  5
22EE
330
1F
100
AcDbEntity
  8
1
100
AcDbLine
 10
2.343503937007874
 20
5.748031496062991
 30
0.0
 11
2.343503937007874
 21
5.069881889763779
 31
0.0
  0
LINE
  5
22EF
330
1F
100
AcDbEntity
  8
1
100
AcDbLine
 10
2.343503937007874
 20
5.069881889763779
 30
0.0
 11
2.274606299212598
 21
5.069881889763779
 31
0.0
  0
LINE
  5
22F0
330
1F
100
AcDbEntity
  8
1
100
AcDbLine
 10
2.274606299212598
 20
5.069881889763779
 30
0.0
 11
2.274606299212598
 21
5.007874015748031
 31
0.0
  0
LINE
  5
22F1
330
1F
100
AcDbEntity
  8
1
100
AcDbLine
 10
2.274606299212598
 20
5.007874015748031
 30
0.0
 11
1.769685039370078
 21
5.007874015748031
 31
0.0
  0
LINE
  5
22F2
330
1F
100
AcDbEntity
  8
1
100
AcDbLine
 10
1.769685039370078
 20
5.007874015748031
 30
0.0
 11
1.769685039370078
 21
5.069881889763779
 31
0.0
  0
LINE
  5
22F3
330
1F
100
AcDbEntity
  8
1
100
AcDbLine
 10
1.769685039370078
 20
5.069881889763779
 30
0.0
 11
1.700787401574803
 21
5.069881889763779
 31
0.0
  0
LINE
  5
22F4
330
1F
100
AcDbEntity
  8
1
100
AcDbLine
 10
1.700787401574803
 20
5.069881889763779
 30
0.0
 11
1.700787401574803
 21
5.748031496062991
 31
0.0
  0
LINE
  5
22F5
330
1F
100
AcDbEntity
  8
1
100
AcDbLine
 10
1.700787401574803
 20
5.748031496062991
 30
0.0
 11
2.343503937007874
 21
5.748031496062991
 31
0.0
  0
LINE
  5
22F6
330
1F
100
AcDbEntity
  8
1
100
AcDbLine
 10
2.438976377952756
 20
4.678149606299212
 30
0.0
 11
2.438976377952756
 21
6.080708661417323
 31
0.0
  0
LINE
  5
22F7
330
1F
100
AcDbEntity
  8
1
100
AcDbLine
 10
2.438976377952756
 20
6.080708661417323
 30
0.0
 11
1.604330708661417
 21
6.080708661417323
 31
0.0
  0
LINE
  5
22F8
330
1F
100
AcDbEntity
  8
1
100
AcDbLine
 10
1.604330708661417
 20
6.080708661417323
 30
0.0
 11
1.604330708661417
 21
4.678149606299212
 31
0.0
  0
LINE
  5
22F9
330
1F
100
AcDbEntity
  8
1
100
AcDbLine
 10
1.604330708661417
 20
4.678149606299212
 30
0.0
 11
2.438976377952756
 21
4.678149606299212
 31
0.0
  0
LINE
  5
22FA
330
1F
100
AcDbEntity
  8
1
100
AcDbLine
 10
2.447834645669291
 20
4.530511811023622
 30
0.0
 11
2.452755905511811
 21
4.524606299212598
 31
0.0
  0
LINE
  5
22FB
330
1F
100
AcDbEntity
  8
1
100
AcDbLine
 10
2.452755905511811
 20
6.233267716535433
 30
0.0
 11
2.447834645669291
 21
6.228346456692912
 31
0.0
  0
LINE
  5
22FC
330
1F
100
AcDbEntity
  8
1
100
AcDbLine
 10
2.447834645669291
 20
6.228346456692912
 30
0.0
 11
2.446850393700787
 21
6.166338582677164
 31
0.0
  0
LINE
  5
2302
330
1F
100
AcDbEntity
  8
1
100
AcDbLine
 10
2.446850393700787
 20
6.080708661417323
 30
0.0
 11
2.446850393700787
 21
4.678149606299212
 31
0.0
  0
LINE
  5
2308
330
1F
100
AcDbEntity
  8
1
100
AcDbLine
 10
2.446850393700787
 20
4.591535433070865
 30
0.0
 11
2.447834645669291
 21
4.530511811023622
 31
0.0
  0
LINE
  5
2309
330
1F
100
AcDbEntity
  8
1
100
AcDbLine
 10
1.596456692913385
 20
4.678149606299212
 30
0.0
 11
1.596456692913385
 21
6.080708661417323
 31
0.0
  0
LINE
  5
230F
330
1F
100
AcDbEntity
  8
1
100
AcDbLine
 10
1.596456692913385
 20
6.166338582677164
 30
0.0
 11
1.596456692913385
 21
6.228346456692912
 31
0.0
  0
LINE
  5
2310
330
1F
100
AcDbEntity
  8
1
100
AcDbLine
 10
1.596456692913385
 20
6.228346456692912
 30
0.0
 11
1.590551181102362
 21
6.233267716535433
 31
0.0
  0
LINE
  5
2311
330
1F
100
AcDbEntity
  8
1
100
AcDbLine
 10
1.590551181102362
 20
4.524606299212598
 30
0.0
 11
1.596456692913385
 21
4.530511811023622
 31
0.0
  0
LINE
  5
2312
330
1F
100
AcDbEntity
  8
1
100
AcDbLine
 10
1.596456692913385
 20
4.530511811023622
 30
0.0
 11
1.596456692913385
 21
4.591535433070865
 31
0.0
  0
LINE
  5
2318
330
1F
100
AcDbEntity
  8
1
100
AcDbLine
 10
1.708661417322834
 20
5.732283464566928
 30
0.0
 11
1.708661417322834
 21
5.085629921259842
 31
0.0
  0
LINE
  5
2319
330
1F
100
AcDbEntity
  8
1
100
AcDbLine
 10
1.708661417322834
 20
5.085629921259842
 30
0.0
 11
1.709645669291338
 21
5.08759842519685
 31
0.0
  0
LINE
  5
231A
330
1F
100
AcDbEntity
  8
1
100
AcDbLine
 10
1.709645669291338
 20
5.730314960629921
 30
0.0
 11
1.708661417322834
 21
5.732283464566928
 31
0.0
  0
LINE
  5
231B
330
1F
100
AcDbEntity
  8
1
100
AcDbLine
 10
2.15748031496063
 20
5.01771653543307
 30
0.0
 11
2.256889763779527
 21
5.01771653543307
 31
0.0
  0
LINE
  5
2321
330
1F
100
AcDbEntity
  8
1
100
AcDbLine
 10
2.264763779527558
 20
5.025590551181101
 30
0.0
 11
2.264763779527558
 21
5.071850393700787
 31
0.0
  0
LINE
  5
2327
330
1F
100
AcDbEntity
  8
1
100
AcDbLine
 10
2.27263779527559
 20
5.079724409448818
 30
0.0
 11
2.325787401574803
 21
5.079724409448818
 31
0.0
  0
LINE
  5
2332
330
1F
100
AcDbEntity
  8
1
100
AcDbLine
 10
1.770669291338582
 20
5.079724409448818
 30
0.0
 11
1.71751968503937
 21
5.079724409448818
 31
0.0
  0
LINE
  5
2338
330
1F
100
AcDbEntity
  8
1
100
AcDbLine
 10
1.778543307086614
 20
5.025590551181101
 30
0.0
 11
1.778543307086614
 21
5.071850393700787
 31
0.0
  0
LINE
  5
233E
330
1F
100
AcDbEntity
  8
1
100
AcDbLine
 10
1.786417322834645
 20
5.01771653543307
 30
0.0
 11
1.886811023622047
 21
5.01771653543307
 31
0.0
  0
LINE
  5
2353
330
1F
100
AcDbEntity
  8
1
100
AcDbLine
 10
2.27263779527559
 20
5.079724409448818
 30
0.0
 11
2.274606299212598
 21
5.077755905511811
 31
0.0
  0
LINE
  5
2354
330
1F
100
AcDbEntity
  8
1
100
AcDbLine
 10
2.274606299212598
 20
5.077755905511811
 30
0.0
 11
2.327755905511811
 21
5.077755905511811
 31
0.0
  0
LINE
  5
2355
330
1F
100
AcDbEntity
  8
1
100
AcDbLine
 10
2.327755905511811
 20
5.077755905511811
 30
0.0
 11
2.325787401574803
 21
5.079724409448818
 31
0.0
  0
LINE
  5
2356
330
1F
100
AcDbEntity
  8
1
100
AcDbLine
 10
1.71751968503937
 20
5.079724409448818
 30
0.0
 11
1.716535433070866
 21
5.077755905511811
 31
0.0
  0
LINE
  5
2357
330
1F
100
AcDbEntity
  8
1
100
AcDbLine
 10
1.716535433070866
 20
5.077755905511811
 30
0.0
 11
1.769685039370078
 21
5.077755905511811
 31
0.0
  0
LINE
  5
2358
330
1F
100
AcDbEntity
  8
1
100
AcDbLine
 10
1.769685039370078
 20
5.077755905511811
 30
0.0
 11
1.770669291338582
 21
5.079724409448818
 31
0.0
  0
LINE
  5
2359
330
1F
100
AcDbEntity
  8
1
100
AcDbLine
 10
2.264763779527558
 20
5.025590551181101
 30
0.0
 11
2.266732283464566
 21
5.023622047244094
 31
0.0
  0
LINE
  5
235A
330
1F
100
AcDbEntity
  8
1
100
AcDbLine
 10
2.266732283464566
 20
5.023622047244094
 30
0.0
 11
2.266732283464566
 21
5.069881889763779
 31
0.0
  0
LINE
  5
235B
330
1F
100
AcDbEntity
  8
1
100
AcDbLine
 10
2.266732283464566
 20
5.069881889763779
 30
0.0
 11
2.264763779527558
 21
5.071850393700787
 31
0.0
  0
LINE
  5
235C
330
1F
100
AcDbEntity
  8
1
100
AcDbLine
 10
1.778543307086614
 20
5.071850393700787
 30
0.0
 11
1.77755905511811
 21
5.069881889763779
 31
0.0
  0
LINE
  5
235D
330
1F
100
AcDbEntity
  8
1
100
AcDbLine
 10
1.77755905511811
 20
5.069881889763779
 30
0.0
 11
1.77755905511811
 21
5.023622047244094
 31
0.0
  0
LINE
  5
235E
330
1F
100
AcDbEntity
  8
1
100
AcDbLine
 10
1.77755905511811
 20
5.023622047244094
 30
0.0
 11
1.778543307086614
 21
5.025590551181101
 31
0.0
  0
LINE
  5
235F
330
1F
100
AcDbEntity
  8
1
100
AcDbLine
 10
1.786417322834645
 20
5.01771653543307
 30
0.0
 11
1.785433070866141
 21
5.015748031496062
 31
0.0
  0
LINE
  5
2360
330
1F
100
AcDbEntity
  8
1
100
AcDbLine
 10
1.785433070866141
 20
5.015748031496062
 30
0.0
 11
2.258858267716535
 21
5.015748031496062
 31
0.0
  0
LINE
  5
2361
330
1F
100
AcDbEntity
  8
1
100
AcDbLine
 10
2.258858267716535
 20
5.015748031496062
 30
0.0
 11
2.256889763779527
 21
5.01771653543307
 31
0.0
  0
LINE
  5
2367
330
1F
100
AcDbEntity
  8
1
100
AcDbLine
 10
2.13779527559055
 20
5.018700787401574
 30
0.0
 11
2.124015748031495
 21
5.029527559055117
 31
0.0
  0
LINE
  5
2368
330
1F
100
AcDbEntity
  8
1
100
AcDbLine
 10
2.124015748031495
 20
5.029527559055117
 30
0.0
 11
1.919291338582677
 21
5.029527559055117
 31
0.0
  0
LINE
  5
2369
330
1F
100
AcDbEntity
  8
1
100
AcDbLine
 10
1.919291338582677
 20
5.029527559055117
 30
0.0
 11
1.906496062992125
 21
5.018700787401574
 31
0.0
  0
LINE
  5
236F
330
1F
100
AcDbEntity
  8
1
100
AcDbLine
 10
2.116141732283464
 20
5.108267716535433
 30
0.0
 11
1.927165354330708
 21
5.108267716535433
 31
0.0
  0
LINE
  5
2370
330
1F
100
AcDbEntity
  8
1
100
AcDbLine
 10
2.124015748031495
 20
5.098425196850393
 30
0.0
 11
2.124015748031495
 21
5.100393700787401
 31
0.0
  0
LINE
  5
237B
330
1F
100
AcDbEntity
  8
1
100
AcDbLine
 10
1.919291338582677
 20
5.100393700787401
 30
0.0
 11
1.919291338582677
 21
5.098425196850393
 31
0.0
  0
LINE
  5
237C
330
1F
100
AcDbEntity
  8
1
100
AcDbLine
 10
2.124015748031495
 20
5.098425196850393
 30
0.0
 11
1.919291338582677
 21
5.098425196850393
 31
0.0
  0
LINE
  5
237D
330
1F
100
AcDbEntity
  8
1
100
AcDbLine
 10
1.920275590551181
 20
5.071850393700787
 30
0.0
 11
1.920275590551181
 21
5.037401574803149
 31
0.0
  0
LINE
  5
237E
330
1F
100
AcDbEntity
  8
1
100
AcDbLine
 10
1.920275590551181
 20
5.037401574803149
 30
0.0
 11
2.124015748031495
 21
5.037401574803149
 31
0.0
  0
LINE
  5
237F
330
1F
100
AcDbEntity
  8
1
100
AcDbLine
 10
2.124015748031495
 20
5.037401574803149
 30
0.0
 11
2.124015748031495
 21
5.071850393700787
 31
0.0
  0
LINE
  5
2380
330
1F
100
AcDbEntity
  8
1
100
AcDbLine
 10
2.124015748031495
 20
5.071850393700787
 30
0.0
 11
1.920275590551181
 21
5.071850393700787
 31
0.0
  0
LINE
  5
2395
330
1F
100
AcDbEntity
  8
1
100
AcDbLine
 10
2.333661417322834
 20
5.08759842519685
 30
0.0
 11
2.335629921259842
 21
5.085629921259842
 31
0.0
  0
LINE
  5
2396
330
1F
100
AcDbEntity
  8
1
100
AcDbLine
 10
2.335629921259842
 20
5.085629921259842
 30
0.0
 11
2.335629921259842
 21
5.732283464566928
 31
0.0
  0
LINE
  5
2397
330
1F
100
AcDbEntity
  8
1
100
AcDbLine
 10
2.335629921259842
 20
5.732283464566928
 30
0.0
 11
2.333661417322834
 21
5.730314960629921
 31
0.0
  0
LINE
  5
2398
330
1F
100
AcDbEntity
  8
1
100
AcDbLine
 10
2.102362204724409
 20
5.711614173228346
 30
0.0
 11
2.102362204724409
 21
5.73523622047244
 31
0.0
  0
LINE
  5
2399
330
1F
100
AcDbEntity
  8
1
100
AcDbLine
 10
2.102362204724409
 20
5.73523622047244
 30
0.0
 11
1.941929133858267
 21
5.73523622047244
 31
0.0
  0
LINE
  5
239A
330
1F
100
AcDbEntity
  8
1
100
AcDbLine
 10
1.941929133858267
 20
5.73523622047244
 30
0.0
 11
1.941929133858267
 21
5.711614173228346
 31
0.0
  0
LINE
  5
239B
330
1F
100
AcDbEntity
  8
1
100
AcDbLine
 10
1.941929133858267
 20
5.711614173228346
 30
0.0
 11
2.102362204724409
 21
5.711614173228346
 31
0.0
  0
LINE
  5
239C
330
1F
100
AcDbEntity
  8
1
100
AcDbLine
 10
1.937992125984251
 20
5.711614173228346
 30
0.0
 11
1.937992125984251
 21
5.73523622047244
 31
0.0
  0
LINE
  5
239D
330
1F
100
AcDbEntity
  8
1
100
AcDbLine
 10
1.937992125984251
 20
5.73523622047244
 30
0.0
 11
1.937007874015747
 21
5.734251968503937
 31
0.0
  0
LINE
  5
239E
330
1F
100
AcDbEntity
  8
1
100
AcDbLine
 10
1.937007874015747
 20
5.711614173228346
 30
0.0
 11
1.937007874015747
 21
5.734251968503937
 31
0.0
  0
LINE
  5
239F
330
1F
100
AcDbEntity
  8
1
100
AcDbLine
 10
1.937007874015747
 20
5.711614173228346
 30
0.0
 11
1.937992125984251
 21
5.711614173228346
 31
0.0
  0
LINE
  5
23A0
330
1F
100
AcDbEntity
  8
1
100
AcDbLine
 10
2.106299212598425
 20
5.711614173228346
 30
0.0
 11
2.106299212598425
 21
5.734251968503937
 31
0.0
  0
LINE
  5
23A1
330
1F
100
AcDbEntity
  8
1
100
AcDbLine
 10
2.106299212598425
 20
5.734251968503937
 30
0.0
 11
2.106299212598425
 21
5.73523622047244
 31
0.0
  0
LINE
  5
23A2
330
1F
100
AcDbEntity
  8
1
100
AcDbLine
 10
2.106299212598425
 20
5.73523622047244
 30
0.0
 11
2.106299212598425
 21
5.711614173228346
 31
0.0
  0
LINE
  5
23A3
330
1F
100
AcDbEntity
  8
1
100
AcDbLine
 10
1.948818897637795
 20
5.699803149606299
 30
0.0
 11
2.094488188976377
 21
5.699803149606299
 31
0.0
  0
LINE
  5
23A4
330
1F
100
AcDbEntity
  8
1
100
AcDbLine
 10
2.094488188976377
 20
5.699803149606299
 30
0.0
 11
1.949803149606299
 21
5.699803149606299
 31
0.0
  0
LINE
  5
23A5
330
1F
100
AcDbEntity
  8
1
100
AcDbLine
 10
1.949803149606299
 20
5.699803149606299
 30
0.0
 11
1.948818897637795
 21
5.699803149606299
 31
0.0
  0
LINE
  5
23F6
330
1F
100
AcDbEntity
  8
1
100
AcDbLine
 10
2.106299212598425
 20
5.73523622047244
 30
0.0
 11
2.102362204724409
 21
5.73523622047244
 31
0.0
  0
LINE
  5
23FC
330
1F
100
AcDbEntity
  8
1
100
AcDbLine
 10
1.941929133858267
 20
5.73523622047244
 30
0.0
 11
1.937992125984251
 21
5.73523622047244
 31
0.0
  0
LINE
  5
242A
330
1F
100
AcDbEntity
  8
1
100
AcDbLine
 10
1.783464566929133
 20
4.516732283464566
 30
0.0
 11
1.598425196850393
 21
4.516732283464566
 31
0.0
  0
LINE
  5
242B
330
1F
100
AcDbEntity
  8
1
100
AcDbLine
 10
2.259842519685039
 20
4.516732283464566
 30
0.0
 11
2.132874015748031
 21
4.516732283464566
 31
0.0
  0
LINE
  5
242C
330
1F
100
AcDbEntity
  8
1
100
AcDbLine
 10
2.259842519685039
 20
4.516732283464566
 30
0.0
 11
2.444881889763779
 21
4.516732283464566
 31
0.0
  0
LINE
  5
242D
330
1F
100
AcDbEntity
  8
1
100
AcDbLine
 10
2.444881889763779
 20
4.516732283464566
 30
0.0
 11
2.439960629921259
 21
4.52263779527559
 31
0.0
  0
LINE
  5
242E
330
1F
100
AcDbEntity
  8
1
100
AcDbLine
 10
2.439960629921259
 20
4.52263779527559
 30
0.0
 11
1.604330708661417
 21
4.52263779527559
 31
0.0
  0
LINE
  5
242F
330
1F
100
AcDbEntity
  8
1
100
AcDbLine
 10
1.604330708661417
 20
4.52263779527559
 30
0.0
 11
1.598425196850393
 21
4.516732283464566
 31
0.0
  0
LINE
  5
2430
330
1F
100
AcDbEntity
  8
1
100
AcDbLine
 10
1.783464566929133
 20
4.516732283464566
 30
0.0
 11
1.910433070866141
 21
4.516732283464566
 31
0.0
  0
LINE
  5
2431
330
1F
100
AcDbEntity
  8
1
100
AcDbLine
 10
1.910433070866141
 20
4.516732283464566
 30
0.0
 11
1.942913385826771
 21
4.516732283464566
 31
0.0
  0
LINE
  5
2432
330
1F
100
AcDbEntity
  8
1
100
AcDbLine
 10
1.947834645669291
 20
4.511811023622047
 30
0.0
 11
1.942913385826771
 21
4.516732283464566
 31
0.0
  0
LINE
  5
2433
330
1F
100
AcDbEntity
  8
1
100
AcDbLine
 10
2.095472440944881
 20
4.511811023622047
 30
0.0
 11
1.947834645669291
 21
4.511811023622047
 31
0.0
  0
LINE
  5
2434
330
1F
100
AcDbEntity
  8
1
100
AcDbLine
 10
2.095472440944881
 20
4.511811023622047
 30
0.0
 11
2.100393700787401
 21
4.516732283464566
 31
0.0
  0
LINE
  5
2435
330
1F
100
AcDbEntity
  8
1
100
AcDbLine
 10
2.100393700787401
 20
4.516732283464566
 30
0.0
 11
2.132874015748031
 21
4.516732283464566
 31
0.0
  0
LINE
  5
2436
330
1F
100
AcDbEntity
  8
1
100
AcDbLine
 10
2.251968503937007
 20
4.453740157480314
 30
0.0
 11
2.251968503937007
 21
4.508858267716535
 31
0.0
  0
LINE
  5
2437
330
1F
100
AcDbEntity
  8
1
100
AcDbLine
 10
2.148622047244094
 20
4.445866141732283
 30
0.0
 11
2.244094488188976
 21
4.445866141732283
 31
0.0
  0
LINE
  5
2438
330
1F
100
AcDbEntity
  8
1
100
AcDbLine
 10
1.791338582677165
 20
4.453740157480314
 30
0.0
 11
1.791338582677165
 21
4.508858267716535
 31
0.0
  0
LINE
  5
2439
330
1F
100
AcDbEntity
  8
1
100
AcDbLine
 10
1.894685039370078
 20
4.445866141732283
 30
0.0
 11
1.799212598425196
 21
4.445866141732283
 31
0.0
  0
LINE
  5
243A
330
1F
100
AcDbEntity
  8
1
100
AcDbLine
 10
2.08759842519685
 20
4.450787401574802
 30
0.0
 11
1.955708661417322
 21
4.450787401574802
 31
0.0
  0
LINE
  5
2440
330
1F
100
AcDbEntity
  8
1
100
AcDbLine
 10
2.095472440944881
 20
4.458661417322834
 30
0.0
 11
2.095472440944881
 21
4.511811023622047
 31
0.0
  0
LINE
  5
2441
330
1F
100
AcDbEntity
  8
1
100
AcDbLine
 10
1.947834645669291
 20
4.458661417322834
 30
0.0
 11
1.947834645669291
 21
4.511811023622047
 31
0.0
  0
LINE
  5
2447
330
1F
100
AcDbEntity
  8
1
100
AcDbLine
 10
1.604330708661417
 20
4.589566929133858
 30
0.0
 11
1.604330708661417
 21
4.52755905511811
 31
0.0
  0
LINE
  5
2448
330
1F
100
AcDbEntity
  8
1
100
AcDbLine
 10
1.604330708661417
 20
4.52755905511811
 30
0.0
 11
2.439960629921259
 21
4.52755905511811
 31
0.0
  0
LINE
  5
2449
330
1F
100
AcDbEntity
  8
1
100
AcDbLine
 10
2.439960629921259
 20
4.52755905511811
 30
0.0
 11
2.438976377952756
 21
4.589566929133858
 31
0.0
  0
LINE
  5
244A
330
1F
100
AcDbEntity
  8
1
100
AcDbLine
 10
2.438976377952756
 20
4.589566929133858
 30
0.0
 11
1.604330708661417
 21
4.589566929133858
 31
0.0
  0
LINE
  5
2455
330
1F
100
AcDbEntity
  8
1
100
AcDbLine
 10
1.90255905511811
 20
4.508858267716535
 30
0.0
 11
1.90255905511811
 21
4.453740157480314
 31
0.0
  0
LINE
  5
246A
330
1F
100
AcDbEntity
  8
1
100
AcDbLine
 10
2.140748031496062
 20
4.508858267716535
 30
0.0
 11
2.140748031496062
 21
4.453740157480314
 31
0.0
  0
LINE
  5
24B1
330
1F
100
AcDbEntity
  8
1
100
AcDbLine
 10
2.259842519685039
 20
6.241141732283464
 30
0.0
 11
2.444881889763779
 21
6.241141732283464
 31
0.0
  0
LINE
  5
24B2
330
1F
100
AcDbEntity
  8
1
100
AcDbLine
 10
1.783464566929133
 20
6.241141732283464
 30
0.0
 11
1.910433070866141
 21
6.241141732283464
 31
0.0
  0
LINE
  5
24B3
330
1F
100
AcDbEntity
  8
1
100
AcDbLine
 10
1.783464566929133
 20
6.241141732283464
 30
0.0
 11
1.598425196850393
 21
6.241141732283464
 31
0.0
  0
LINE
  5
24B4
330
1F
100
AcDbEntity
  8
1
100
AcDbLine
 10
1.598425196850393
 20
6.241141732283464
 30
0.0
 11
1.604330708661417
 21
6.236220472440944
 31
0.0
  0
LINE
  5
24B5
330
1F
100
AcDbEntity
  8
1
100
AcDbLine
 10
1.604330708661417
 20
6.236220472440944
 30
0.0
 11
2.439960629921259
 21
6.236220472440944
 31
0.0
  0
LINE
  5
24B6
330
1F
100
AcDbEntity
  8
1
100
AcDbLine
 10
2.439960629921259
 20
6.236220472440944
 30
0.0
 11
2.444881889763779
 21
6.241141732283464
 31
0.0
  0
LINE
  5
24B7
330
1F
100
AcDbEntity
  8
1
100
AcDbLine
 10
2.259842519685039
 20
6.241141732283464
 30
0.0
 11
2.132874015748031
 21
6.241141732283464
 31
0.0
  0
LINE
  5
24B8
330
1F
100
AcDbEntity
  8
1
100
AcDbLine
 10
2.100393700787401
 20
6.241141732283464
 30
0.0
 11
2.132874015748031
 21
6.241141732283464
 31
0.0
  0
LINE
  5
24B9
330
1F
100
AcDbEntity
  8
1
100
AcDbLine
 10
2.095472440944881
 20
6.246062992125984
 30
0.0
 11
2.100393700787401
 21
6.241141732283464
 31
0.0
  0
LINE
  5
24BA
330
1F
100
AcDbEntity
  8
1
100
AcDbLine
 10
2.095472440944881
 20
6.246062992125984
 30
0.0
 11
1.947834645669291
 21
6.246062992125984
 31
0.0
  0
LINE
  5
24BB
330
1F
100
AcDbEntity
  8
1
100
AcDbLine
 10
1.947834645669291
 20
6.246062992125984
 30
0.0
 11
1.942913385826771
 21
6.241141732283464
 31
0.0
  0
LINE
  5
24BC
330
1F
100
AcDbEntity
  8
1
100
AcDbLine
 10
1.910433070866141
 20
6.241141732283464
 30
0.0
 11
1.942913385826771
 21
6.241141732283464
 31
0.0
  0
LINE
  5
24BD
330
1F
100
AcDbEntity
  8
1
100
AcDbLine
 10
2.251968503937007
 20
6.304133858267716
 30
0.0
 11
2.251968503937007
 21
6.249015748031496
 31
0.0
  0
LINE
  5
24BE
330
1F
100
AcDbEntity
  8
1
100
AcDbLine
 10
2.148622047244094
 20
6.312007874015748
 30
0.0
 11
2.244094488188976
 21
6.312007874015748
 31
0.0
  0
LINE
  5
24BF
330
1F
100
AcDbEntity
  8
1
100
AcDbLine
 10
1.791338582677165
 20
6.304133858267716
 30
0.0
 11
1.791338582677165
 21
6.249015748031496
 31
0.0
  0
LINE
  5
24C0
330
1F
100
AcDbEntity
  8
1
100
AcDbLine
 10
1.894685039370078
 20
6.312007874015748
 30
0.0
 11
1.799212598425196
 21
6.312007874015748
 31
0.0
  0
LINE
  5
24C1
330
1F
100
AcDbEntity
  8
1
100
AcDbLine
 10
2.095472440944881
 20
6.299212598425196
 30
0.0
 11
2.095472440944881
 21
6.246062992125984
 31
0.0
  0
LINE
  5
24C7
330
1F
100
AcDbEntity
  8
1
100
AcDbLine
 10
2.08759842519685
 20
6.307086614173228
 30
0.0
 11
1.955708661417322
 21
6.307086614173228
 31
0.0
  0
LINE
  5
24CD
330
1F
100
AcDbEntity
  8
1
100
AcDbLine
 10
1.947834645669291
 20
6.299212598425196
 30
0.0
 11
1.947834645669291
 21
6.246062992125984
 31
0.0
  0
LINE
  5
24CE
330
1F
100
AcDbEntity
  8
1
100
AcDbLine
 10
2.438976377952756
 20
6.168307086614173
 30
0.0
 11
2.439960629921259
 21
6.230314960629921
 31
0.0
  0
LINE
  5
24CF
330
1F
100
AcDbEntity
  8
1
100
AcDbLine
 10
2.439960629921259
 20
6.230314960629921
 30
0.0
 11
1.604330708661417
 21
6.230314960629921
 31
0.0
  0
LINE
  5
24D0
330
1F
100
AcDbEntity
  8
1
100
AcDbLine
 10
1.604330708661417
 20
6.230314960629921
 30
0.0
 11
1.604330708661417
 21
6.168307086614173
 31
0.0
  0
LINE
  5
24D1
330
1F
100
AcDbEntity
  8
1
100
AcDbLine
 10
1.604330708661417
 20
6.168307086614173
 30
0.0
 11
2.438976377952756
 21
6.168307086614173
 31
0.0
  0
LINE
  5
24DC
330
1F
100
AcDbEntity
  8
1
100
AcDbLine
 10
1.90255905511811
 20
6.249015748031496
 30
0.0
 11
1.90255905511811
 21
6.304133858267716
 31
0.0
  0
LINE
  5
24F1
330
1F
100
AcDbEntity
  8
1
100
AcDbLine
 10
2.140748031496062
 20
6.249015748031496
 30
0.0
 11
2.140748031496062
 21
6.304133858267716
 31
0.0
  0
LINE
  5
2538
330
1F
100
AcDbEntity
  8
1
100
AcDbLine
 10
2.106299212598425
 20
5.734251968503937
 30
0.0
 11
2.11023622047244
 21
5.738188976377952
 31
0.0
  0
LINE
  5
254D
330
1F
100
AcDbEntity
  8
1
100
AcDbLine
 10
1.933070866141732
 20
5.738188976377952
 30
0.0
 11
1.937007874015747
 21
5.734251968503937
 31
0.0
  0
LINE
  5
258F
330
1F
100
AcDbEntity
  8
1
100
AcDbLine
 10
4.684055118110236
 20
4.515748031496062
 30
0.0
 11
4.684055118110236
 21
4.460629921259842
 31
0.0
  0
LINE
  5
2590
330
1F
100
AcDbEntity
  8
1
100
AcDbLine
 10
4.684055118110236
 20
4.635826771653543
 30
0.0
 11
4.684055118110236
 21
4.531496062992125
 31
0.0
  0
LINE
  5
2591
330
1F
100
AcDbEntity
  8
1
100
AcDbLine
 10
4.286417322834645
 20
4.524606299212598
 30
0.0
 11
4.676181102362204
 21
4.531496062992125
 31
0.0
  0
LINE
  5
2592
330
1F
100
AcDbEntity
  8
1
100
AcDbLine
 10
4.676181102362204
 20
4.531496062992125
 30
0.0
 11
4.676181102362204
 21
4.635826771653543
 31
0.0
  0
LINE
  5
2599
330
1F
100
AcDbEntity
  8
1
100
AcDbLine
 10
4.649606299212598
 20
4.690944881889763
 30
0.0
 11
4.318897637795275
 21
4.953740157480314
 31
0.0
  0
LINE
  5
25A0
330
1F
100
AcDbEntity
  8
1
100
AcDbLine
 10
4.286417322834645
 20
5.021653543307086
 30
0.0
 11
4.286417322834645
 21
5.733267716535433
 31
0.0
  0
LINE
  5
25A7
330
1F
100
AcDbEntity
  8
1
100
AcDbLine
 10
4.318897637795275
 20
5.801181102362204
 30
0.0
 11
4.649606299212598
 21
6.063976377952755
 31
0.0
  0
LINE
  5
25AE
330
1F
100
AcDbEntity
  8
1
100
AcDbLine
 10
4.676181102362204
 20
6.12007874015748
 30
0.0
 11
4.676181102362204
 21
6.226377952755905
 31
0.0
  0
LINE
  5
25AF
330
1F
100
AcDbEntity
  8
1
100
AcDbLine
 10
4.676181102362204
 20
6.226377952755905
 30
0.0
 11
4.286417322834645
 21
6.233267716535433
 31
0.0
  0
LINE
  5
25B0
330
1F
100
AcDbEntity
  8
1
100
AcDbLine
 10
4.286417322834645
 20
6.233267716535433
 30
0.0
 11
4.286417322834645
 21
4.524606299212598
 31
0.0
  0
LINE
  5
25B1
330
1F
100
AcDbEntity
  8
1
100
AcDbLine
 10
3.932086614173228
 20
4.678149606299212
 30
0.0
 11
3.932086614173228
 21
6.080708661417323
 31
0.0
  0
LINE
  5
25B2
330
1F
100
AcDbEntity
  8
1
100
AcDbLine
 10
3.96751968503937
 20
4.530511811023622
 30
0.0
 11
4.286417322834645
 21
4.524606299212598
 31
0.0
  0
LINE
  5
25B3
330
1F
100
AcDbEntity
  8
1
100
AcDbLine
 10
4.286417322834645
 20
6.233267716535433
 30
0.0
 11
3.96751968503937
 21
6.228346456692912
 31
0.0
  0
LINE
  5
25B4
330
1F
100
AcDbEntity
  8
1
100
AcDbLine
 10
3.96751968503937
 20
6.228346456692912
 30
0.0
 11
3.949803149606299
 21
6.166338582677164
 31
0.0
  0
LINE
  5
25BA
330
1F
100
AcDbEntity
  8
1
100
AcDbLine
 10
3.939960629921259
 20
6.080708661417323
 30
0.0
 11
3.939960629921259
 21
4.678149606299212
 31
0.0
  0
LINE
  5
25C0
330
1F
100
AcDbEntity
  8
1
100
AcDbLine
 10
3.949803149606299
 20
4.591535433070865
 30
0.0
 11
3.96751968503937
 21
4.530511811023622
 31
0.0
  0
LINE
  5
25CB
330
1F
100
AcDbEntity
  8
1
100
AcDbLine
 10
4.294291338582676
 20
5.024606299212598
 30
0.0
 11
4.453740157480314
 21
5.029527559055117
 31
0.0
  0
LINE
  5
25CC
330
1F
100
AcDbEntity
  8
1
100
AcDbLine
 10
4.754921259842519
 20
4.96259842519685
 30
0.0
 11
4.334645669291338
 21
4.951771653543307
 31
0.0
  0
LINE
  5
25CD
330
1F
100
AcDbEntity
  8
1
100
AcDbLine
 10
4.623031496062991
 20
5.015748031496062
 30
0.0
 11
4.754921259842519
 21
5.010826771653543
 31
0.0
  0
LINE
  5
25CE
330
1F
100
AcDbEntity
  8
1
100
AcDbLine
 10
4.48523622047244
 20
5.106299212598425
 30
0.0
 11
4.575787401574802
 21
5.033464566929133
 31
0.0
  0
LINE
  5
25CF
330
1F
100
AcDbEntity
  8
1
100
AcDbLine
 10
4.449803149606299
 20
5.108267716535433
 30
0.0
 11
4.481299212598425
 21
5.108267716535433
 31
0.0
  0
LINE
  5
25D0
330
1F
100
AcDbEntity
  8
1
100
AcDbLine
 10
4.449803149606299
 20
5.098425196850393
 30
0.0
 11
4.449803149606299
 21
5.100393700787401
 31
0.0
  0
LINE
  5
25D6
330
1F
100
AcDbEntity
  8
1
100
AcDbLine
 10
4.461614173228346
 20
5.037401574803149
 30
0.0
 11
4.461614173228346
 21
5.071850393700787
 31
0.0
  0
LINE
  5
25D7
330
1F
100
AcDbEntity
  8
1
100
AcDbLine
 10
4.570866141732283
 20
5.026574803149606
 30
0.0
 11
4.481299212598425
 21
5.100393700787401
 31
0.0
  0
LINE
  5
25D8
330
1F
100
AcDbEntity
  8
1
100
AcDbLine
 10
4.481299212598425
 20
5.100393700787401
 30
0.0
 11
4.449803149606299
 21
5.100393700787401
 31
0.0
  0
LINE
  5
25E3
330
1F
100
AcDbEntity
  8
1
100
AcDbLine
 10
4.325787401574802
 20
4.958661417322834
 30
0.0
 11
4.754921259842519
 21
4.970472440944881
 31
0.0
  0
LINE
  5
25E4
330
1F
100
AcDbEntity
  8
1
100
AcDbLine
 10
4.754921259842519
 20
4.970472440944881
 30
0.0
 11
4.754921259842519
 21
5.002952755905512
 31
0.0
  0
LINE
  5
25E5
330
1F
100
AcDbEntity
  8
1
100
AcDbLine
 10
4.754921259842519
 20
5.002952755905512
 30
0.0
 11
4.623031496062991
 21
5.007874015748031
 31
0.0
  0
LINE
  5
25EB
330
1F
100
AcDbEntity
  8
1
100
AcDbLine
 10
4.76279527559055
 20
5.002952755905512
 30
0.0
 11
4.76279527559055
 21
4.970472440944881
 31
0.0
  0
LINE
  5
2619
330
1F
100
AcDbEntity
  8
1
100
AcDbLine
 10
4.286417322834645
 20
4.516732283464566
 30
0.0
 11
3.96751968503937
 21
4.52263779527559
 31
0.0
  0
LINE
  5
261A
330
1F
100
AcDbEntity
  8
1
100
AcDbLine
 10
4.676181102362204
 20
4.523622047244094
 30
0.0
 11
4.286417322834645
 21
4.516732283464566
 31
0.0
  0
LINE
  5
261B
330
1F
100
AcDbEntity
  8
1
100
AcDbLine
 10
4.676181102362204
 20
4.460629921259842
 30
0.0
 11
4.676181102362204
 21
4.515748031496062
 31
0.0
  0
LINE
  5
261C
330
1F
100
AcDbEntity
  8
1
100
AcDbLine
 10
4.676181102362204
 20
4.515748031496062
 30
0.0
 11
4.286417322834645
 21
4.508858267716535
 31
0.0
  0
LINE
  5
261D
330
1F
100
AcDbEntity
  8
1
100
AcDbLine
 10
4.286417322834645
 20
4.453740157480314
 30
0.0
 11
4.286417322834645
 21
4.508858267716535
 31
0.0
  0
LINE
  5
261E
330
1F
100
AcDbEntity
  8
1
100
AcDbLine
 10
4.286417322834645
 20
4.453740157480314
 30
0.0
 11
4.676181102362204
 21
4.460629921259842
 31
0.0
  0
LINE
  5
261F
330
1F
100
AcDbEntity
  8
1
100
AcDbLine
 10
4.676181102362204
 20
4.452755905511811
 30
0.0
 11
4.286417322834645
 21
4.445866141732283
 31
0.0
  0
LINE
  5
2620
330
1F
100
AcDbEntity
  8
1
100
AcDbLine
 10
3.960629921259842
 20
4.52755905511811
 30
0.0
 11
3.941929133858267
 21
4.589566929133858
 31
0.0
  0
LINE
  5
2667
330
1F
100
AcDbEntity
  8
1
100
AcDbLine
 10
4.286417322834645
 20
6.241141732283464
 30
0.0
 11
4.676181102362204
 21
6.234251968503937
 31
0.0
  0
LINE
  5
2668
330
1F
100
AcDbEntity
  8
1
100
AcDbLine
 10
3.96751968503937
 20
6.236220472440944
 30
0.0
 11
4.286417322834645
 21
6.241141732283464
 31
0.0
  0
LINE
  5
2669
330
1F
100
AcDbEntity
  8
1
100
AcDbLine
 10
4.286417322834645
 20
6.304133858267716
 30
0.0
 11
4.286417322834645
 21
6.249015748031496
 31
0.0
  0
LINE
  5
266A
330
1F
100
AcDbEntity
  8
1
100
AcDbLine
 10
4.286417322834645
 20
6.249015748031496
 30
0.0
 11
4.676181102362204
 21
6.242125984251968
 31
0.0
  0
LINE
  5
266B
330
1F
100
AcDbEntity
  8
1
100
AcDbLine
 10
4.676181102362204
 20
6.242125984251968
 30
0.0
 11
4.676181102362204
 21
6.297244094488188
 31
0.0
  0
LINE
  5
266C
330
1F
100
AcDbEntity
  8
1
100
AcDbLine
 10
4.676181102362204
 20
6.297244094488188
 30
0.0
 11
4.286417322834645
 21
6.304133858267716
 31
0.0
  0
LINE
  5
266D
330
1F
100
AcDbEntity
  8
1
100
AcDbLine
 10
4.286417322834645
 20
6.312007874015748
 30
0.0
 11
4.676181102362204
 21
6.30511811023622
 31
0.0
  0
LINE
  5
266E
330
1F
100
AcDbEntity
  8
1
100
AcDbLine
 10
3.941929133858267
 20
6.168307086614173
 30
0.0
 11
3.960629921259842
 21
6.230314960629921
 31
0.0
  0
LINE
  5
26A6
330
1F
100
AcDbEntity
  8
1
100
AcDbLine
 10
4.684055118110236
 20
6.297244094488188
 30
0.0
 11
4.684055118110236
 21
6.242125984251968
 31
0.0
  0
LINE
  5
26BB
330
1F
100
AcDbEntity
  8
1
100
AcDbLine
 10
4.684055118110236
 20
6.226377952755905
 30
0.0
 11
4.684055118110236
 21
6.12007874015748
 31
0.0
  0
LINE
  5
26BC
330
1F
100
AcDbEntity
  8
1
100
AcDbLine
 10
4.654527559055117
 20
6.058070866141732
 30
0.0
 11
4.323818897637795
 21
5.795275590551181
 31
0.0
  0
LINE
  5
26BD
330
1F
100
AcDbEntity
  8
1
100
AcDbLine
 10
4.294291338582676
 20
5.733267716535433
 30
0.0
 11
4.294291338582676
 21
5.021653543307086
 31
0.0
  0
LINE
  5
26BE
330
1F
100
AcDbEntity
  8
1
100
AcDbLine
 10
4.323818897637795
 20
4.960629921259842
 30
0.0
 11
4.654527559055117
 21
4.696850393700787
 31
0.0
  0
LINE
  5
2D0D
330
1F
100
AcDbEntity
  8
1
100
AcDbLine
 10
4.481299212598425
 20
5.100393700787401
 30
0.0
 11
4.481299212598425
 21
5.105314960629921
 31
0.0
  0
LINE
  5
2D0E
330
1F
100
AcDbEntity
  8
1
100
AcDbLine
 10
4.481299212598425
 20
5.105314960629921
 30
0.0
 11
4.481299212598425
 21
5.108267716535433
 31
0.0
  0
LINE
  5
2D0F
330
1F
100
AcDbEntity
  8
1
100
AcDbLine
 10
4.481299212598425
 20
5.100393700787401
 30
0.0
 11
4.484251968503937
 21
5.104330708661417
 31
0.0
  0
LINE
  5
2D10
330
1F
100
AcDbEntity
  8
1
100
AcDbLine
 10
4.484251968503937
 20
5.104330708661417
 30
0.0
 11
4.48523622047244
 21
5.106299212598425
 31
0.0
  0
LINE
  5
2D11
330
1F
100
AcDbEntity
  8
1
100
AcDbLine
 10
4.481299212598425
 20
5.108267716535433
 30
0.0
 11
4.483267716535433
 21
5.107283464566928
 31
0.0
  0
LINE
  5
2D12
330
1F
100
AcDbEntity
  8
1
100
AcDbLine
 10
4.483267716535433
 20
5.107283464566928
 30
0.0
 11
4.48523622047244
 21
5.106299212598425
 31
0.0
  0
LINE
  5
2D13
330
1F
100
AcDbEntity
  8
1
100
AcDbLine
 10
4.676181102362204
 20
6.234251968503937
 30
0.0
 11
4.682086614173228
 21
6.232283464566928
 31
0.0
  0
LINE
  5
2D14
330
1F
100
AcDbEntity
  8
1
100
AcDbLine
 10
4.682086614173228
 20
6.232283464566928
 30
0.0
 11
4.684055118110236
 21
6.226377952755905
 31
0.0
  0
LINE
  5
2D15
330
1F
100
AcDbEntity
  8
1
100
AcDbLine
 10
4.676181102362204
 20
6.226377952755905
 30
0.0
 11
4.682086614173228
 21
6.226377952755905
 31
0.0
  0
LINE
  5
2D16
330
1F
100
AcDbEntity
  8
1
100
AcDbLine
 10
4.682086614173228
 20
6.226377952755905
 30
0.0
 11
4.684055118110236
 21
6.226377952755905
 31
0.0
  0
LINE
  5
2D17
330
1F
100
AcDbEntity
  8
1
100
AcDbLine
 10
4.676181102362204
 20
6.12007874015748
 30
0.0
 11
4.682086614173228
 21
6.12007874015748
 31
0.0
  0
LINE
  5
2D18
330
1F
100
AcDbEntity
  8
1
100
AcDbLine
 10
4.682086614173228
 20
6.12007874015748
 30
0.0
 11
4.684055118110236
 21
6.12007874015748
 31
0.0
  0
LINE
  5
2D19
330
1F
100
AcDbEntity
  8
1
100
AcDbLine
 10
4.649606299212598
 20
6.063976377952755
 30
0.0
 11
4.65255905511811
 21
6.060039370078739
 31
0.0
  0
LINE
  5
2D1A
330
1F
100
AcDbEntity
  8
1
100
AcDbLine
 10
4.65255905511811
 20
6.060039370078739
 30
0.0
 11
4.654527559055117
 21
6.058070866141732
 31
0.0
  0
LINE
  5
2D1B
330
1F
100
AcDbEntity
  8
1
100
AcDbLine
 10
4.318897637795275
 20
5.801181102362204
 30
0.0
 11
4.322834645669291
 21
5.796259842519685
 31
0.0
  0
LINE
  5
2D1C
330
1F
100
AcDbEntity
  8
1
100
AcDbLine
 10
4.322834645669291
 20
5.796259842519685
 30
0.0
 11
4.323818897637795
 21
5.795275590551181
 31
0.0
  0
LINE
  5
2D1D
330
1F
100
AcDbEntity
  8
1
100
AcDbLine
 10
4.286417322834645
 20
5.733267716535433
 30
0.0
 11
4.292322834645669
 21
5.733267716535433
 31
0.0
  0
LINE
  5
2D1E
330
1F
100
AcDbEntity
  8
1
100
AcDbLine
 10
4.292322834645669
 20
5.733267716535433
 30
0.0
 11
4.294291338582676
 21
5.733267716535433
 31
0.0
  0
LINE
  5
2D1F
330
1F
100
AcDbEntity
  8
1
100
AcDbLine
 10
4.286417322834645
 20
5.021653543307086
 30
0.0
 11
4.292322834645669
 21
5.021653543307086
 31
0.0
  0
LINE
  5
2D20
330
1F
100
AcDbEntity
  8
1
100
AcDbLine
 10
4.292322834645669
 20
5.021653543307086
 30
0.0
 11
4.294291338582676
 21
5.021653543307086
 31
0.0
  0
LINE
  5
2D21
330
1F
100
AcDbEntity
  8
1
100
AcDbLine
 10
4.318897637795275
 20
4.953740157480314
 30
0.0
 11
4.322834645669291
 21
4.958661417322834
 31
0.0
  0
LINE
  5
2D22
330
1F
100
AcDbEntity
  8
1
100
AcDbLine
 10
4.322834645669291
 20
4.958661417322834
 30
0.0
 11
4.323818897637795
 21
4.960629921259842
 31
0.0
  0
LINE
  5
2D23
330
1F
100
AcDbEntity
  8
1
100
AcDbLine
 10
4.649606299212598
 20
4.690944881889763
 30
0.0
 11
4.65255905511811
 21
4.694881889763779
 31
0.0
  0
LINE
  5
2D24
330
1F
100
AcDbEntity
  8
1
100
AcDbLine
 10
4.65255905511811
 20
4.694881889763779
 30
0.0
 11
4.654527559055117
 21
4.696850393700787
 31
0.0
  0
LINE
  5
2D25
330
1F
100
AcDbEntity
  8
1
100
AcDbLine
 10
4.676181102362204
 20
4.635826771653543
 30
0.0
 11
4.682086614173228
 21
4.635826771653543
 31
0.0
  0
LINE
  5
2D26
330
1F
100
AcDbEntity
  8
1
100
AcDbLine
 10
4.682086614173228
 20
4.635826771653543
 30
0.0
 11
4.684055118110236
 21
4.635826771653543
 31
0.0
  0
LINE
  5
2D27
330
1F
100
AcDbEntity
  8
1
100
AcDbLine
 10
4.676181102362204
 20
4.531496062992125
 30
0.0
 11
4.682086614173228
 21
4.531496062992125
 31
0.0
  0
LINE
  5
2D28
330
1F
100
AcDbEntity
  8
1
100
AcDbLine
 10
4.682086614173228
 20
4.531496062992125
 30
0.0
 11
4.684055118110236
 21
4.531496062992125
 31
0.0
  0
LINE
  5
2D29
330
1F
100
AcDbEntity
  8
1
100
AcDbLine
 10
4.676181102362204
 20
4.523622047244094
 30
0.0
 11
4.682086614173228
 21
4.525590551181101
 31
0.0
  0
LINE
  5
2D2A
330
1F
100
AcDbEntity
  8
1
100
AcDbLine
 10
4.682086614173228
 20
4.525590551181101
 30
0.0
 11
4.684055118110236
 21
4.531496062992125
 31
0.0
  0
LINE
  5
2D2B
330
1F
100
AcDbEntity
  8
1
100
AcDbLine
 10
4.294291338582676
 20
5.021653543307086
 30
0.0
 11
4.297244094488188
 21
4.999015748031496
 31
0.0
  0
LINE
  5
2D2C
330
1F
100
AcDbEntity
  8
1
100
AcDbLine
 10
4.297244094488188
 20
4.999015748031496
 30
0.0
 11
4.308070866141732
 21
4.977362204724409
 31
0.0
  0
LINE
  5
2D2D
330
1F
100
AcDbEntity
  8
1
100
AcDbLine
 10
4.308070866141732
 20
4.977362204724409
 30
0.0
 11
4.323818897637795
 21
4.960629921259842
 31
0.0
  0
LINE
  5
2D2E
330
1F
100
AcDbEntity
  8
1
100
AcDbLine
 10
4.654527559055117
 20
4.696850393700787
 30
0.0
 11
4.670275590551181
 21
4.68011811023622
 31
0.0
  0
LINE
  5
2D2F
330
1F
100
AcDbEntity
  8
1
100
AcDbLine
 10
4.670275590551181
 20
4.68011811023622
 30
0.0
 11
4.68011811023622
 21
4.658464566929133
 31
0.0
  0
LINE
  5
2D30
330
1F
100
AcDbEntity
  8
1
100
AcDbLine
 10
4.68011811023622
 20
4.658464566929133
 30
0.0
 11
4.684055118110236
 21
4.635826771653543
 31
0.0
  0
LINE
  5
2D31
330
1F
100
AcDbEntity
  8
1
100
AcDbLine
 10
4.684055118110236
 20
6.12007874015748
 30
0.0
 11
4.68011811023622
 21
6.096456692913386
 31
0.0
  0
LINE
  5
2D32
330
1F
100
AcDbEntity
  8
1
100
AcDbLine
 10
4.68011811023622
 20
6.096456692913386
 30
0.0
 11
4.670275590551181
 21
6.075787401574802
 31
0.0
  0
LINE
  5
2D33
330
1F
100
AcDbEntity
  8
1
100
AcDbLine
 10
4.670275590551181
 20
6.075787401574802
 30
0.0
 11
4.654527559055117
 21
6.058070866141732
 31
0.0
  0
LINE
  5
2D34
330
1F
100
AcDbEntity
  8
1
100
AcDbLine
 10
4.323818897637795
 20
5.795275590551181
 30
0.0
 11
4.308070866141732
 21
5.77755905511811
 31
0.0
  0
LINE
  5
2D35
330
1F
100
AcDbEntity
  8
1
100
AcDbLine
 10
4.308070866141732
 20
5.77755905511811
 30
0.0
 11
4.297244094488188
 21
5.756889763779527
 31
0.0
  0
LINE
  5
2D36
330
1F
100
AcDbEntity
  8
1
100
AcDbLine
 10
4.297244094488188
 20
5.756889763779527
 30
0.0
 11
4.294291338582676
 21
5.733267716535433
 31
0.0
  0
LINE
  5
2D37
330
1F
100
AcDbEntity
  8
1
100
AcDbLine
 10
4.684055118110236
 20
6.242125984251968
 30
0.0
 11
4.684055118110236
 21
6.231299212598425
 31
0.0
  0
LINE
  5
2D38
330
1F
100
AcDbEntity
  8
1
100
AcDbLine
 10
4.684055118110236
 20
6.231299212598425
 30
0.0
 11
4.684055118110236
 21
6.226377952755905
 31
0.0
  0
LINE
  5
2D39
330
1F
100
AcDbEntity
  8
1
100
AcDbLine
 10
4.676181102362204
 20
6.30511811023622
 30
0.0
 11
4.676181102362204
 21
6.303149606299212
 31
0.0
  0
LINE
  5
2D3A
330
1F
100
AcDbEntity
  8
1
100
AcDbLine
 10
4.676181102362204
 20
6.303149606299212
 30
0.0
 11
4.676181102362204
 21
6.297244094488188
 31
0.0
  0
LINE
  5
2D3B
330
1F
100
AcDbEntity
  8
1
100
AcDbLine
 10
4.676181102362204
 20
6.234251968503937
 30
0.0
 11
4.676181102362204
 21
6.237204724409449
 31
0.0
  0
LINE
  5
2D3C
330
1F
100
AcDbEntity
  8
1
100
AcDbLine
 10
4.676181102362204
 20
6.237204724409449
 30
0.0
 11
4.676181102362204
 21
6.242125984251968
 31
0.0
  0
LINE
  5
2D3D
330
1F
100
AcDbEntity
  8
1
100
AcDbLine
 10
4.684055118110236
 20
6.297244094488188
 30
0.0
 11
4.682086614173228
 21
6.297244094488188
 31
0.0
  0
LINE
  5
2D3E
330
1F
100
AcDbEntity
  8
1
100
AcDbLine
 10
4.682086614173228
 20
6.297244094488188
 30
0.0
 11
4.676181102362204
 21
6.297244094488188
 31
0.0
  0
LINE
  5
2D3F
330
1F
100
AcDbEntity
  8
1
100
AcDbLine
 10
4.676181102362204
 20
6.242125984251968
 30
0.0
 11
4.682086614173228
 21
6.242125984251968
 31
0.0
  0
LINE
  5
2D40
330
1F
100
AcDbEntity
  8
1
100
AcDbLine
 10
4.682086614173228
 20
6.242125984251968
 30
0.0
 11
4.684055118110236
 21
6.242125984251968
 31
0.0
  0
LINE
  5
2D41
330
1F
100
AcDbEntity
  8
1
100
AcDbLine
 10
4.676181102362204
 20
6.30511811023622
 30
0.0
 11
4.682086614173228
 21
6.303149606299212
 31
0.0
  0
LINE
  5
2D42
330
1F
100
AcDbEntity
  8
1
100
AcDbLine
 10
4.682086614173228
 20
6.303149606299212
 30
0.0
 11
4.684055118110236
 21
6.297244094488188
 31
0.0
  0
LINE
  5
2D43
330
1F
100
AcDbEntity
  8
1
100
AcDbLine
 10
3.960629921259842
 20
6.230314960629921
 30
0.0
 11
3.963582677165354
 21
6.234251968503937
 31
0.0
  0
LINE
  5
2D44
330
1F
100
AcDbEntity
  8
1
100
AcDbLine
 10
3.963582677165354
 20
6.234251968503937
 30
0.0
 11
3.96751968503937
 21
6.236220472440944
 31
0.0
  0
LINE
  5
2D45
330
1F
100
AcDbEntity
  8
1
100
AcDbLine
 10
3.96751968503937
 20
6.228346456692912
 30
0.0
 11
3.96751968503937
 21
6.233267716535433
 31
0.0
  0
LINE
  5
2D46
330
1F
100
AcDbEntity
  8
1
100
AcDbLine
 10
3.96751968503937
 20
6.233267716535433
 30
0.0
 11
3.96751968503937
 21
6.236220472440944
 31
0.0
  0
LINE
  5
2D47
330
1F
100
AcDbEntity
  8
1
100
AcDbLine
 10
4.286417322834645
 20
6.233267716535433
 30
0.0
 11
4.286417322834645
 21
6.239173228346456
 31
0.0
  0
LINE
  5
2D48
330
1F
100
AcDbEntity
  8
1
100
AcDbLine
 10
4.286417322834645
 20
6.239173228346456
 30
0.0
 11
4.286417322834645
 21
6.241141732283464
 31
0.0
  0
LINE
  5
2D49
330
1F
100
AcDbEntity
  8
1
100
AcDbLine
 10
4.676181102362204
 20
6.226377952755905
 30
0.0
 11
4.676181102362204
 21
6.232283464566928
 31
0.0
  0
LINE
  5
2D4A
330
1F
100
AcDbEntity
  8
1
100
AcDbLine
 10
4.676181102362204
 20
6.232283464566928
 30
0.0
 11
4.676181102362204
 21
6.234251968503937
 31
0.0
  0
LINE
  5
2D4B
330
1F
100
AcDbEntity
  8
1
100
AcDbLine
 10
3.96751968503937
 20
6.228346456692912
 30
0.0
 11
3.96259842519685
 21
6.229330708661417
 31
0.0
  0
LINE
  5
2D4C
330
1F
100
AcDbEntity
  8
1
100
AcDbLine
 10
3.96259842519685
 20
6.229330708661417
 30
0.0
 11
3.960629921259842
 21
6.230314960629921
 31
0.0
  0
LINE
  5
2D4D
330
1F
100
AcDbEntity
  8
1
100
AcDbLine
 10
3.941929133858267
 20
6.168307086614173
 30
0.0
 11
3.944881889763779
 21
6.168307086614173
 31
0.0
  0
LINE
  5
2D4E
330
1F
100
AcDbEntity
  8
1
100
AcDbLine
 10
3.944881889763779
 20
6.168307086614173
 30
0.0
 11
3.949803149606299
 21
6.166338582677164
 31
0.0
  0
LINE
  5
2D4F
330
1F
100
AcDbEntity
  8
1
100
AcDbLine
 10
4.286417322834645
 20
6.304133858267716
 30
0.0
 11
4.286417322834645
 21
6.310039370078739
 31
0.0
  0
LINE
  5
2D50
330
1F
100
AcDbEntity
  8
1
100
AcDbLine
 10
4.286417322834645
 20
6.310039370078739
 30
0.0
 11
4.286417322834645
 21
6.312007874015748
 31
0.0
  0
LINE
  5
2D51
330
1F
100
AcDbEntity
  8
1
100
AcDbLine
 10
4.286417322834645
 20
6.241141732283464
 30
0.0
 11
4.286417322834645
 21
6.244094488188975
 31
0.0
  0
LINE
  5
2D52
330
1F
100
AcDbEntity
  8
1
100
AcDbLine
 10
4.286417322834645
 20
6.244094488188975
 30
0.0
 11
4.286417322834645
 21
6.249015748031496
 31
0.0
  0
LINE
  5
2D53
330
1F
100
AcDbEntity
  8
1
100
AcDbLine
 10
3.932086614173228
 20
6.080708661417323
 30
0.0
 11
3.934055118110236
 21
6.125
 31
0.0
  0
LINE
  5
2D54
330
1F
100
AcDbEntity
  8
1
100
AcDbLine
 10
3.934055118110236
 20
6.125
 30
0.0
 11
3.941929133858267
 21
6.168307086614173
 31
0.0
  0
LINE
  5
2D55
330
1F
100
AcDbEntity
  8
1
100
AcDbLine
 10
4.676181102362204
 20
4.460629921259842
 30
0.0
 11
4.676181102362204
 21
4.454724409448818
 31
0.0
  0
LINE
  5
2D56
330
1F
100
AcDbEntity
  8
1
100
AcDbLine
 10
4.676181102362204
 20
4.454724409448818
 30
0.0
 11
4.676181102362204
 21
4.452755905511811
 31
0.0
  0
LINE
  5
2D57
330
1F
100
AcDbEntity
  8
1
100
AcDbLine
 10
4.676181102362204
 20
4.523622047244094
 30
0.0
 11
4.676181102362204
 21
4.521653543307086
 31
0.0
  0
LINE
  5
2D58
330
1F
100
AcDbEntity
  8
1
100
AcDbLine
 10
4.676181102362204
 20
4.521653543307086
 30
0.0
 11
4.676181102362204
 21
4.515748031496062
 31
0.0
  0
LINE
  5
2D59
330
1F
100
AcDbEntity
  8
1
100
AcDbLine
 10
4.684055118110236
 20
4.460629921259842
 30
0.0
 11
4.682086614173228
 21
4.454724409448818
 31
0.0
  0
LINE
  5
2D5A
330
1F
100
AcDbEntity
  8
1
100
AcDbLine
 10
4.682086614173228
 20
4.454724409448818
 30
0.0
 11
4.676181102362204
 21
4.452755905511811
 31
0.0
  0
LINE
  5
2D5B
330
1F
100
AcDbEntity
  8
1
100
AcDbLine
 10
4.676181102362204
 20
4.460629921259842
 30
0.0
 11
4.682086614173228
 21
4.460629921259842
 31
0.0
  0
LINE
  5
2D5C
330
1F
100
AcDbEntity
  8
1
100
AcDbLine
 10
4.682086614173228
 20
4.460629921259842
 30
0.0
 11
4.684055118110236
 21
4.460629921259842
 31
0.0
  0
LINE
  5
2D5D
330
1F
100
AcDbEntity
  8
1
100
AcDbLine
 10
4.684055118110236
 20
4.515748031496062
 30
0.0
 11
4.682086614173228
 21
4.515748031496062
 31
0.0
  0
LINE
  5
2D5E
330
1F
100
AcDbEntity
  8
1
100
AcDbLine
 10
4.682086614173228
 20
4.515748031496062
 30
0.0
 11
4.676181102362204
 21
4.515748031496062
 31
0.0
  0
LINE
  5
2D5F
330
1F
100
AcDbEntity
  8
1
100
AcDbLine
 10
4.676181102362204
 20
4.523622047244094
 30
0.0
 11
4.676181102362204
 21
4.525590551181101
 31
0.0
  0
LINE
  5
2D60
330
1F
100
AcDbEntity
  8
1
100
AcDbLine
 10
4.676181102362204
 20
4.525590551181101
 30
0.0
 11
4.676181102362204
 21
4.531496062992125
 31
0.0
  0
LINE
  5
2D61
330
1F
100
AcDbEntity
  8
1
100
AcDbLine
 10
4.286417322834645
 20
4.524606299212598
 30
0.0
 11
4.286417322834645
 21
4.519685039370078
 31
0.0
  0
LINE
  5
2D62
330
1F
100
AcDbEntity
  8
1
100
AcDbLine
 10
4.286417322834645
 20
4.519685039370078
 30
0.0
 11
4.286417322834645
 21
4.516732283464566
 31
0.0
  0
LINE
  5
2D63
330
1F
100
AcDbEntity
  8
1
100
AcDbLine
 10
3.96751968503937
 20
4.530511811023622
 30
0.0
 11
3.96751968503937
 21
4.524606299212598
 31
0.0
  0
LINE
  5
2D64
330
1F
100
AcDbEntity
  8
1
100
AcDbLine
 10
3.96751968503937
 20
4.524606299212598
 30
0.0
 11
3.96751968503937
 21
4.52263779527559
 31
0.0
  0
LINE
  5
2D65
330
1F
100
AcDbEntity
  8
1
100
AcDbLine
 10
3.960629921259842
 20
4.52755905511811
 30
0.0
 11
3.963582677165354
 21
4.523622047244094
 31
0.0
  0
LINE
  5
2D66
330
1F
100
AcDbEntity
  8
1
100
AcDbLine
 10
3.963582677165354
 20
4.523622047244094
 30
0.0
 11
3.96751968503937
 21
4.52263779527559
 31
0.0
  0
LINE
  5
2D67
330
1F
100
AcDbEntity
  8
1
100
AcDbLine
 10
3.941929133858267
 20
4.589566929133858
 30
0.0
 11
3.944881889763779
 21
4.590551181102362
 31
0.0
  0
LINE
  5
2D68
330
1F
100
AcDbEntity
  8
1
100
AcDbLine
 10
3.944881889763779
 20
4.590551181102362
 30
0.0
 11
3.949803149606299
 21
4.591535433070865
 31
0.0
  0
LINE
  5
2D69
330
1F
100
AcDbEntity
  8
1
100
AcDbLine
 10
3.960629921259842
 20
4.52755905511811
 30
0.0
 11
3.96259842519685
 21
4.528543307086613
 31
0.0
  0
LINE
  5
2D6A
330
1F
100
AcDbEntity
  8
1
100
AcDbLine
 10
3.96259842519685
 20
4.528543307086613
 30
0.0
 11
3.96751968503937
 21
4.530511811023622
 31
0.0
  0
LINE
  5
2D6B
330
1F
100
AcDbEntity
  8
1
100
AcDbLine
 10
4.286417322834645
 20
4.508858267716535
 30
0.0
 11
4.286417322834645
 21
4.514763779527559
 31
0.0
  0
LINE
  5
2D6C
330
1F
100
AcDbEntity
  8
1
100
AcDbLine
 10
4.286417322834645
 20
4.514763779527559
 30
0.0
 11
4.286417322834645
 21
4.516732283464566
 31
0.0
  0
LINE
  5
2D6D
330
1F
100
AcDbEntity
  8
1
100
AcDbLine
 10
4.286417322834645
 20
4.445866141732283
 30
0.0
 11
4.286417322834645
 21
4.448818897637795
 31
0.0
  0
LINE
  5
2D6E
330
1F
100
AcDbEntity
  8
1
100
AcDbLine
 10
4.286417322834645
 20
4.448818897637795
 30
0.0
 11
4.286417322834645
 21
4.453740157480314
 31
0.0
  0
LINE
  5
2D6F
330
1F
100
AcDbEntity
  8
1
100
AcDbLine
 10
3.941929133858267
 20
4.589566929133858
 30
0.0
 11
3.934055118110236
 21
4.633858267716535
 31
0.0
  0
LINE
  5
2D70
330
1F
100
AcDbEntity
  8
1
100
AcDbLine
 10
3.934055118110236
 20
4.633858267716535
 30
0.0
 11
3.932086614173228
 21
4.678149606299212
 31
0.0
  0
LINE
  5
2D71
330
1F
100
AcDbEntity
  8
1
100
AcDbLine
 10
4.754921259842519
 20
4.970472440944881
 30
0.0
 11
4.760826771653543
 21
4.970472440944881
 31
0.0
  0
LINE
  5
2D72
330
1F
100
AcDbEntity
  8
1
100
AcDbLine
 10
4.760826771653543
 20
4.970472440944881
 30
0.0
 11
4.76279527559055
 21
4.970472440944881
 31
0.0
  0
LINE
  5
2D73
330
1F
100
AcDbEntity
  8
1
100
AcDbLine
 10
4.76279527559055
 20
5.002952755905512
 30
0.0
 11
4.760826771653543
 21
5.002952755905512
 31
0.0
  0
LINE
  5
2D74
330
1F
100
AcDbEntity
  8
1
100
AcDbLine
 10
4.760826771653543
 20
5.002952755905512
 30
0.0
 11
4.754921259842519
 21
5.002952755905512
 31
0.0
  0
LINE
  5
2D75
330
1F
100
AcDbEntity
  8
1
100
AcDbLine
 10
4.754921259842519
 20
4.970472440944881
 30
0.0
 11
4.754921259842519
 21
4.964566929133858
 31
0.0
  0
LINE
  5
2D76
330
1F
100
AcDbEntity
  8
1
100
AcDbLine
 10
4.754921259842519
 20
4.964566929133858
 30
0.0
 11
4.754921259842519
 21
4.96259842519685
 31
0.0
  0
LINE
  5
2D77
330
1F
100
AcDbEntity
  8
1
100
AcDbLine
 10
4.754921259842519
 20
4.96259842519685
 30
0.0
 11
4.760826771653543
 21
4.964566929133858
 31
0.0
  0
LINE
  5
2D78
330
1F
100
AcDbEntity
  8
1
100
AcDbLine
 10
4.760826771653543
 20
4.964566929133858
 30
0.0
 11
4.76279527559055
 21
4.970472440944881
 31
0.0
  0
LINE
  5
2D79
330
1F
100
AcDbEntity
  8
1
100
AcDbLine
 10
4.76279527559055
 20
5.002952755905512
 30
0.0
 11
4.760826771653543
 21
5.008858267716535
 31
0.0
  0
LINE
  5
2D7A
330
1F
100
AcDbEntity
  8
1
100
AcDbLine
 10
4.760826771653543
 20
5.008858267716535
 30
0.0
 11
4.754921259842519
 21
5.010826771653543
 31
0.0
  0
LINE
  5
2D7B
330
1F
100
AcDbEntity
  8
1
100
AcDbLine
 10
4.754921259842519
 20
5.010826771653543
 30
0.0
 11
4.754921259842519
 21
5.008858267716535
 31
0.0
  0
LINE
  5
2D7C
330
1F
100
AcDbEntity
  8
1
100
AcDbLine
 10
4.754921259842519
 20
5.008858267716535
 30
0.0
 11
4.754921259842519
 21
5.002952755905512
 31
0.0
  0
LINE
  5
2D7D
330
1F
100
AcDbEntity
  8
1
100
AcDbLine
 10
4.623031496062991
 20
5.015748031496062
 30
0.0
 11
4.623031496062991
 21
5.01279527559055
 31
0.0
  0
LINE
  5
2D7E
330
1F
100
AcDbEntity
  8
1
100
AcDbLine
 10
4.623031496062991
 20
5.01279527559055
 30
0.0
 11
4.623031496062991
 21
5.007874015748031
 31
0.0
  0
LINE
  5
2D7F
330
1F
100
AcDbEntity
  8
1
100
AcDbLine
 10
4.575787401574802
 20
5.033464566929133
 30
0.0
 11
4.574803149606299
 21
5.031496062992125
 31
0.0
  0
LINE
  5
2D80
330
1F
100
AcDbEntity
  8
1
100
AcDbLine
 10
4.574803149606299
 20
5.031496062992125
 30
0.0
 11
4.570866141732283
 21
5.026574803149606
 31
0.0
  0
LINE
  5
2D81
330
1F
100
AcDbEntity
  8
1
100
AcDbLine
 10
4.575787401574802
 20
5.033464566929133
 30
0.0
 11
4.597440944881889
 21
5.020669291338582
 31
0.0
  0
LINE
  5
2D82
330
1F
100
AcDbEntity
  8
1
100
AcDbLine
 10
4.597440944881889
 20
5.020669291338582
 30
0.0
 11
4.623031496062991
 21
5.015748031496062
 31
0.0
  0
LINE
  5
2D83
330
1F
100
AcDbEntity
  8
1
100
AcDbLine
 10
4.623031496062991
 20
5.007874015748031
 30
0.0
 11
4.595472440944881
 21
5.01279527559055
 31
0.0
  0
LINE
  5
2D84
330
1F
100
AcDbEntity
  8
1
100
AcDbLine
 10
4.595472440944881
 20
5.01279527559055
 30
0.0
 11
4.570866141732283
 21
5.026574803149606
 31
0.0
  0
LINE
  5
2D85
330
1F
100
AcDbEntity
  8
1
100
AcDbLine
 10
4.461614173228346
 20
5.037401574803149
 30
0.0
 11
4.459645669291338
 21
5.031496062992125
 31
0.0
  0
LINE
  5
2D86
330
1F
100
AcDbEntity
  8
1
100
AcDbLine
 10
4.459645669291338
 20
5.031496062992125
 30
0.0
 11
4.453740157480314
 21
5.029527559055117
 31
0.0
  0
LINE
  5
2D87
330
1F
100
AcDbEntity
  8
1
100
AcDbLine
 10
4.449803149606299
 20
5.098425196850393
 30
0.0
 11
4.458661417322834
 21
5.085629921259842
 31
0.0
  0
LINE
  5
2D88
330
1F
100
AcDbEntity
  8
1
100
AcDbLine
 10
4.458661417322834
 20
5.085629921259842
 30
0.0
 11
4.461614173228346
 21
5.071850393700787
 31
0.0
  0
LINE
  5
2D89
330
1F
100
AcDbEntity
  8
1
100
AcDbLine
 10
4.449803149606299
 20
5.100393700787401
 30
0.0
 11
4.449803149606299
 21
5.106299212598425
 31
0.0
  0
LINE
  5
2D8A
330
1F
100
AcDbEntity
  8
1
100
AcDbLine
 10
4.449803149606299
 20
5.106299212598425
 30
0.0
 11
4.449803149606299
 21
5.108267716535433
 31
0.0
  0
LINE
  5
2D8B
330
1F
100
AcDbEntity
  8
1
100
AcDbLine
 10
3.932086614173228
 20
6.080708661417323
 30
0.0
 11
3.934055118110236
 21
6.080708661417323
 31
0.0
  0
LINE
  5
2D8C
330
1F
100
AcDbEntity
  8
1
100
AcDbLine
 10
3.934055118110236
 20
6.080708661417323
 30
0.0
 11
3.939960629921259
 21
6.080708661417323
 31
0.0
  0
LINE
  5
2D8D
330
1F
100
AcDbEntity
  8
1
100
AcDbLine
 10
3.932086614173228
 20
4.678149606299212
 30
0.0
 11
3.934055118110236
 21
4.678149606299212
 31
0.0
  0
LINE
  5
2D8E
330
1F
100
AcDbEntity
  8
1
100
AcDbLine
 10
3.934055118110236
 20
4.678149606299212
 30
0.0
 11
3.939960629921259
 21
4.678149606299212
 31
0.0
  0
LINE
  5
2D8F
330
1F
100
AcDbEntity
  8
1
100
AcDbLine
 10
3.939960629921259
 20
4.678149606299212
 30
0.0
 11
3.941929133858267
 21
4.633858267716535
 31
0.0
  0
LINE
  5
2D90
330
1F
100
AcDbEntity
  8
1
100
AcDbLine
 10
3.941929133858267
 20
4.633858267716535
 30
0.0
 11
3.949803149606299
 21
4.591535433070865
 31
0.0
  0
LINE
  5
2D91
330
1F
100
AcDbEntity
  8
1
100
AcDbLine
 10
3.949803149606299
 20
6.166338582677164
 30
0.0
 11
3.941929133858267
 21
6.124015748031496
 31
0.0
  0
LINE
  5
2D92
330
1F
100
AcDbEntity
  8
1
100
AcDbLine
 10
3.941929133858267
 20
6.124015748031496
 30
0.0
 11
3.939960629921259
 21
6.080708661417323
 31
0.0
  0
LINE
  5
2D93
330
1F
100
AcDbEntity
  8
1
100
AcDbLine
 10
4.649606299212598
 20
6.063976377952755
 30
0.0
 11
4.663385826771653
 21
6.079724409448818
 31
0.0
  0
LINE
  5
2D94
330
1F
100
AcDbEntity
  8
1
100
AcDbLine
 10
4.663385826771653
 20
6.079724409448818
 30
0.0
 11
4.673228346456692
 21
6.098425196850393
 31
0.0
  0
LINE
  5
2D95
330
1F
100
AcDbEntity
  8
1
100
AcDbLine
 10
4.673228346456692
 20
6.098425196850393
 30
0.0
 11
4.676181102362204
 21
6.12007874015748
 31
0.0
  0
LINE
  5
2D96
330
1F
100
AcDbEntity
  8
1
100
AcDbLine
 10
4.286417322834645
 20
5.733267716535433
 30
0.0
 11
4.290354330708661
 21
5.758858267716535
 31
0.0
  0
LINE
  5
2D97
330
1F
100
AcDbEntity
  8
1
100
AcDbLine
 10
4.290354330708661
 20
5.758858267716535
 30
0.0
 11
4.301181102362204
 21
5.782480314960629
 31
0.0
  0
LINE
  5
2D98
330
1F
100
AcDbEntity
  8
1
100
AcDbLine
 10
4.301181102362204
 20
5.782480314960629
 30
0.0
 11
4.318897637795275
 21
5.801181102362204
 31
0.0
  0
LINE
  5
2D99
330
1F
100
AcDbEntity
  8
1
100
AcDbLine
 10
4.318897637795275
 20
4.953740157480314
 30
0.0
 11
4.301181102362204
 21
4.973425196850393
 31
0.0
  0
LINE
  5
2D9A
330
1F
100
AcDbEntity
  8
1
100
AcDbLine
 10
4.301181102362204
 20
4.973425196850393
 30
0.0
 11
4.290354330708661
 21
4.996062992125984
 31
0.0
  0
LINE
  5
2D9B
330
1F
100
AcDbEntity
  8
1
100
AcDbLine
 10
4.290354330708661
 20
4.996062992125984
 30
0.0
 11
4.286417322834645
 21
5.021653543307086
 31
0.0
  0
LINE
  5
2D9C
330
1F
100
AcDbEntity
  8
1
100
AcDbLine
 10
4.676181102362204
 20
4.635826771653543
 30
0.0
 11
4.673228346456692
 21
4.656496062992125
 31
0.0
  0
LINE
  5
2D9D
330
1F
100
AcDbEntity
  8
1
100
AcDbLine
 10
4.673228346456692
 20
4.656496062992125
 30
0.0
 11
4.663385826771653
 21
4.6751968503937
 31
0.0
  0
LINE
  5
2D9E
330
1F
100
AcDbEntity
  8
1
100
AcDbLine
 10
4.663385826771653
 20
4.6751968503937
 30
0.0
 11
4.649606299212598
 21
4.690944881889763
 31
0.0
  0
LINE
  5
2D9F
330
1F
100
AcDbEntity
  8
1
100
AcDbLine
 10
4.684055118110236
 20
4.531496062992125
 30
0.0
 11
4.684055118110236
 21
4.526574803149606
 31
0.0
  0
LINE
  5
2DA0
330
1F
100
AcDbEntity
  8
1
100
AcDbLine
 10
4.684055118110236
 20
4.526574803149606
 30
0.0
 11
4.684055118110236
 21
4.515748031496062
 31
0.0
  0
LINE
  5
2DA1
330
1F
100
AcDbEntity
  8
1
100
AcDbLine
 10
2.335629921259842
 20
5.085629921259842
 30
0.0
 11
2.33267716535433
 21
5.079724409448818
 31
0.0
  0
LINE
  5
2DA2
330
1F
100
AcDbEntity
  8
1
100
AcDbLine
 10
2.33267716535433
 20
5.079724409448818
 30
0.0
 11
2.327755905511811
 21
5.077755905511811
 31
0.0
  0
LINE
  5
2DA3
330
1F
100
AcDbEntity
  8
1
100
AcDbLine
 10
2.274606299212598
 20
5.077755905511811
 30
0.0
 11
2.268700787401574
 21
5.075787401574802
 31
0.0
  0
LINE
  5
2DA4
330
1F
100
AcDbEntity
  8
1
100
AcDbLine
 10
2.268700787401574
 20
5.075787401574802
 30
0.0
 11
2.266732283464566
 21
5.069881889763779
 31
0.0
  0
LINE
  5
2DA5
330
1F
100
AcDbEntity
  8
1
100
AcDbLine
 10
2.266732283464566
 20
5.023622047244094
 30
0.0
 11
2.263779527559055
 21
5.01771653543307
 31
0.0
  0
LINE
  5
2DA6
330
1F
100
AcDbEntity
  8
1
100
AcDbLine
 10
2.263779527559055
 20
5.01771653543307
 30
0.0
 11
2.258858267716535
 21
5.015748031496062
 31
0.0
  0
LINE
  5
2DA7
330
1F
100
AcDbEntity
  8
1
100
AcDbLine
 10
2.266732283464566
 20
5.023622047244094
 30
0.0
 11
2.263779527559055
 21
5.01771653543307
 31
0.0
  0
LINE
  5
2DA8
330
1F
100
AcDbEntity
  8
1
100
AcDbLine
 10
2.263779527559055
 20
5.01771653543307
 30
0.0
 11
2.258858267716535
 21
5.015748031496062
 31
0.0
  0
LINE
  5
2DA9
330
1F
100
AcDbEntity
  8
1
100
AcDbLine
 10
1.785433070866141
 20
5.015748031496062
 30
0.0
 11
1.779527559055118
 21
5.01771653543307
 31
0.0
  0
LINE
  5
2DAA
330
1F
100
AcDbEntity
  8
1
100
AcDbLine
 10
1.779527559055118
 20
5.01771653543307
 30
0.0
 11
1.77755905511811
 21
5.023622047244094
 31
0.0
  0
LINE
  5
2DAB
330
1F
100
AcDbEntity
  8
1
100
AcDbLine
 10
1.785433070866141
 20
5.015748031496062
 30
0.0
 11
1.779527559055118
 21
5.01771653543307
 31
0.0
  0
LINE
  5
2DAC
330
1F
100
AcDbEntity
  8
1
100
AcDbLine
 10
1.779527559055118
 20
5.01771653543307
 30
0.0
 11
1.77755905511811
 21
5.023622047244094
 31
0.0
  0
LINE
  5
2DAD
330
1F
100
AcDbEntity
  8
1
100
AcDbLine
 10
1.77755905511811
 20
5.069881889763779
 30
0.0
 11
1.775590551181102
 21
5.075787401574802
 31
0.0
  0
LINE
  5
2DAE
330
1F
100
AcDbEntity
  8
1
100
AcDbLine
 10
1.775590551181102
 20
5.075787401574802
 30
0.0
 11
1.769685039370078
 21
5.077755905511811
 31
0.0
  0
LINE
  5
2DAF
330
1F
100
AcDbEntity
  8
1
100
AcDbLine
 10
1.716535433070866
 20
5.077755905511811
 30
0.0
 11
1.710629921259842
 21
5.079724409448818
 31
0.0
  0
LINE
  5
2DB0
330
1F
100
AcDbEntity
  8
1
100
AcDbLine
 10
1.710629921259842
 20
5.079724409448818
 30
0.0
 11
1.708661417322834
 21
5.085629921259842
 31
0.0
  0
LINE
  5
2DB1
330
1F
100
AcDbEntity
  8
1
100
AcDbLine
 10
1.708661417322834
 20
5.732283464566928
 30
0.0
 11
1.710629921259842
 21
5.738188976377952
 31
0.0
  0
LINE
  5
2DB2
330
1F
100
AcDbEntity
  8
1
100
AcDbLine
 10
1.710629921259842
 20
5.738188976377952
 30
0.0
 11
1.716535433070866
 21
5.74015748031496
 31
0.0
  0
LINE
  5
2DB3
330
1F
100
AcDbEntity
  8
1
100
AcDbLine
 10
1.709645669291338
 20
5.730314960629921
 30
0.0
 11
1.71259842519685
 21
5.736220472440944
 31
0.0
  0
LINE
  5
2DB4
330
1F
100
AcDbEntity
  8
1
100
AcDbLine
 10
1.71259842519685
 20
5.736220472440944
 30
0.0
 11
1.71751968503937
 21
5.738188976377952
 31
0.0
  0
LINE
  5
2DB5
330
1F
100
AcDbEntity
  8
1
100
AcDbLine
 10
2.333661417322834
 20
5.730314960629921
 30
0.0
 11
2.331692913385826
 21
5.736220472440944
 31
0.0
  0
LINE
  5
2DB6
330
1F
100
AcDbEntity
  8
1
100
AcDbLine
 10
2.331692913385826
 20
5.736220472440944
 30
0.0
 11
2.325787401574803
 21
5.738188976377952
 31
0.0
  0
LINE
  5
2DB7
330
1F
100
AcDbEntity
  8
1
100
AcDbLine
 10
2.335629921259842
 20
5.732283464566928
 30
0.0
 11
2.33267716535433
 21
5.738188976377952
 31
0.0
  0
LINE
  5
2DB8
330
1F
100
AcDbEntity
  8
1
100
AcDbLine
 10
2.33267716535433
 20
5.738188976377952
 30
0.0
 11
2.327755905511811
 21
5.74015748031496
 31
0.0
  0
LINE
  5
2DB9
330
1F
100
AcDbEntity
  8
1
100
AcDbLine
 10
1.937992125984251
 20
5.73523622047244
 30
0.0
 11
1.937007874015747
 21
5.738188976377952
 31
0.0
  0
LINE
  5
2DBA
330
1F
100
AcDbEntity
  8
1
100
AcDbLine
 10
1.937007874015747
 20
5.738188976377952
 30
0.0
 11
1.934055118110236
 21
5.739173228346456
 31
0.0
  0
LINE
  5
2DBB
330
1F
100
AcDbEntity
  8
1
100
AcDbLine
 10
1.941929133858267
 20
5.73523622047244
 30
0.0
 11
1.941929133858267
 21
5.738188976377952
 31
0.0
  0
LINE
  5
2DBC
330
1F
100
AcDbEntity
  8
1
100
AcDbLine
 10
1.941929133858267
 20
5.738188976377952
 30
0.0
 11
1.941929133858267
 21
5.739173228346456
 31
0.0
  0
LINE
  5
2DBD
330
1F
100
AcDbEntity
  8
1
100
AcDbLine
 10
2.102362204724409
 20
5.73523622047244
 30
0.0
 11
2.102362204724409
 21
5.738188976377952
 31
0.0
  0
LINE
  5
2DBE
330
1F
100
AcDbEntity
  8
1
100
AcDbLine
 10
2.102362204724409
 20
5.738188976377952
 30
0.0
 11
2.102362204724409
 21
5.739173228346456
 31
0.0
  0
LINE
  5
2DBF
330
1F
100
AcDbEntity
  8
1
100
AcDbLine
 10
2.106299212598425
 20
5.73523622047244
 30
0.0
 11
2.107283464566929
 21
5.738188976377952
 31
0.0
  0
LINE
  5
2DC0
330
1F
100
AcDbEntity
  8
1
100
AcDbLine
 10
2.107283464566929
 20
5.738188976377952
 30
0.0
 11
2.11023622047244
 21
5.739173228346456
 31
0.0
  0
LINE
  5
2DC1
330
1F
100
AcDbEntity
  8
1
100
AcDbLine
 10
1.590551181102362
 20
6.233267716535433
 30
0.0
 11
1.593503937007874
 21
6.239173228346456
 31
0.0
  0
LINE
  5
2DC2
330
1F
100
AcDbEntity
  8
1
100
AcDbLine
 10
1.593503937007874
 20
6.239173228346456
 30
0.0
 11
1.598425196850393
 21
6.241141732283464
 31
0.0
  0
LINE
  5
2DC3
330
1F
100
AcDbEntity
  8
1
100
AcDbLine
 10
1.596456692913385
 20
6.228346456692912
 30
0.0
 11
1.598425196850393
 21
6.233267716535433
 31
0.0
  0
LINE
  5
2DC4
330
1F
100
AcDbEntity
  8
1
100
AcDbLine
 10
1.598425196850393
 20
6.233267716535433
 30
0.0
 11
1.604330708661417
 21
6.236220472440944
 31
0.0
  0
LINE
  5
2DC5
330
1F
100
AcDbEntity
  8
1
100
AcDbLine
 10
1.604330708661417
 20
6.230314960629921
 30
0.0
 11
1.604330708661417
 21
6.234251968503937
 31
0.0
  0
LINE
  5
2DC6
330
1F
100
AcDbEntity
  8
1
100
AcDbLine
 10
1.604330708661417
 20
6.234251968503937
 30
0.0
 11
1.604330708661417
 21
6.236220472440944
 31
0.0
  0
LINE
  5
2DC7
330
1F
100
AcDbEntity
  8
1
100
AcDbLine
 10
2.439960629921259
 20
6.230314960629921
 30
0.0
 11
2.439960629921259
 21
6.234251968503937
 31
0.0
  0
LINE
  5
2DC8
330
1F
100
AcDbEntity
  8
1
100
AcDbLine
 10
2.439960629921259
 20
6.234251968503937
 30
0.0
 11
2.439960629921259
 21
6.236220472440944
 31
0.0
  0
LINE
  5
2DC9
330
1F
100
AcDbEntity
  8
1
100
AcDbLine
 10
2.447834645669291
 20
6.228346456692912
 30
0.0
 11
2.444881889763779
 21
6.233267716535433
 31
0.0
  0
LINE
  5
2DCA
330
1F
100
AcDbEntity
  8
1
100
AcDbLine
 10
2.444881889763779
 20
6.233267716535433
 30
0.0
 11
2.439960629921259
 21
6.236220472440944
 31
0.0
  0
LINE
  5
2DCB
330
1F
100
AcDbEntity
  8
1
100
AcDbLine
 10
2.452755905511811
 20
6.233267716535433
 30
0.0
 11
2.450787401574803
 21
6.239173228346456
 31
0.0
  0
LINE
  5
2DCC
330
1F
100
AcDbEntity
  8
1
100
AcDbLine
 10
2.450787401574803
 20
6.239173228346456
 30
0.0
 11
2.444881889763779
 21
6.241141732283464
 31
0.0
  0
LINE
  5
2DCD
330
1F
100
AcDbEntity
  8
1
100
AcDbLine
 10
1.604330708661417
 20
6.168307086614173
 30
0.0
 11
1.599409448818897
 21
6.168307086614173
 31
0.0
  0
LINE
  5
2DCE
330
1F
100
AcDbEntity
  8
1
100
AcDbLine
 10
1.599409448818897
 20
6.168307086614173
 30
0.0
 11
1.596456692913385
 21
6.166338582677164
 31
0.0
  0
LINE
  5
2DCF
330
1F
100
AcDbEntity
  8
1
100
AcDbLine
 10
1.604330708661417
 20
6.230314960629921
 30
0.0
 11
1.598425196850393
 21
6.229330708661417
 31
0.0
  0
LINE
  5
2DD0
330
1F
100
AcDbEntity
  8
1
100
AcDbLine
 10
1.598425196850393
 20
6.229330708661417
 30
0.0
 11
1.596456692913385
 21
6.228346456692912
 31
0.0
  0
LINE
  5
2DD1
330
1F
100
AcDbEntity
  8
1
100
AcDbLine
 10
2.447834645669291
 20
6.228346456692912
 30
0.0
 11
2.444881889763779
 21
6.229330708661417
 31
0.0
  0
LINE
  5
2DD2
330
1F
100
AcDbEntity
  8
1
100
AcDbLine
 10
2.444881889763779
 20
6.229330708661417
 30
0.0
 11
2.439960629921259
 21
6.230314960629921
 31
0.0
  0
LINE
  5
2DD3
330
1F
100
AcDbEntity
  8
1
100
AcDbLine
 10
2.438976377952756
 20
6.168307086614173
 30
0.0
 11
2.444881889763779
 21
6.168307086614173
 31
0.0
  0
LINE
  5
2DD4
330
1F
100
AcDbEntity
  8
1
100
AcDbLine
 10
2.444881889763779
 20
6.168307086614173
 30
0.0
 11
2.446850393700787
 21
6.166338582677164
 31
0.0
  0
LINE
  5
2DD5
330
1F
100
AcDbEntity
  8
1
100
AcDbLine
 10
2.251968503937007
 20
6.304133858267716
 30
0.0
 11
2.25
 21
6.310039370078739
 31
0.0
  0
LINE
  5
2DD6
330
1F
100
AcDbEntity
  8
1
100
AcDbLine
 10
2.25
 20
6.310039370078739
 30
0.0
 11
2.244094488188976
 21
6.312007874015748
 31
0.0
  0
LINE
  5
2DD7
330
1F
100
AcDbEntity
  8
1
100
AcDbLine
 10
2.259842519685039
 20
6.241141732283464
 30
0.0
 11
2.254921259842519
 21
6.244094488188975
 31
0.0
  0
LINE
  5
2DD8
330
1F
100
AcDbEntity
  8
1
100
AcDbLine
 10
2.254921259842519
 20
6.244094488188975
 30
0.0
 11
2.251968503937007
 21
6.249015748031496
 31
0.0
  0
LINE
  5
2DD9
330
1F
100
AcDbEntity
  8
1
100
AcDbLine
 10
2.140748031496062
 20
6.249015748031496
 30
0.0
 11
2.138779527559055
 21
6.244094488188975
 31
0.0
  0
LINE
  5
2DDA
330
1F
100
AcDbEntity
  8
1
100
AcDbLine
 10
2.138779527559055
 20
6.244094488188975
 30
0.0
 11
2.132874015748031
 21
6.241141732283464
 31
0.0
  0
LINE
  5
2DDB
330
1F
100
AcDbEntity
  8
1
100
AcDbLine
 10
2.148622047244094
 20
6.312007874015748
 30
0.0
 11
2.143700787401574
 21
6.310039370078739
 31
0.0
  0
LINE
  5
2DDC
330
1F
100
AcDbEntity
  8
1
100
AcDbLine
 10
2.143700787401574
 20
6.310039370078739
 30
0.0
 11
2.140748031496062
 21
6.304133858267716
 31
0.0
  0
LINE
  5
2DDD
330
1F
100
AcDbEntity
  8
1
100
AcDbLine
 10
1.910433070866141
 20
6.241141732283464
 30
0.0
 11
1.905511811023622
 21
6.244094488188975
 31
0.0
  0
LINE
  5
2DDE
330
1F
100
AcDbEntity
  8
1
100
AcDbLine
 10
1.905511811023622
 20
6.244094488188975
 30
0.0
 11
1.90255905511811
 21
6.249015748031496
 31
0.0
  0
LINE
  5
2DDF
330
1F
100
AcDbEntity
  8
1
100
AcDbLine
 10
1.791338582677165
 20
6.249015748031496
 30
0.0
 11
1.789370078740157
 21
6.244094488188975
 31
0.0
  0
LINE
  5
2DE0
330
1F
100
AcDbEntity
  8
1
100
AcDbLine
 10
1.789370078740157
 20
6.244094488188975
 30
0.0
 11
1.783464566929133
 21
6.241141732283464
 31
0.0
  0
LINE
  5
2DE1
330
1F
100
AcDbEntity
  8
1
100
AcDbLine
 10
1.799212598425196
 20
6.312007874015748
 30
0.0
 11
1.794291338582677
 21
6.310039370078739
 31
0.0
  0
LINE
  5
2DE2
330
1F
100
AcDbEntity
  8
1
100
AcDbLine
 10
1.794291338582677
 20
6.310039370078739
 30
0.0
 11
1.791338582677165
 21
6.304133858267716
 31
0.0
  0
LINE
  5
2DE3
330
1F
100
AcDbEntity
  8
1
100
AcDbLine
 10
1.90255905511811
 20
6.304133858267716
 30
0.0
 11
1.900590551181102
 21
6.310039370078739
 31
0.0
  0
LINE
  5
2DE4
330
1F
100
AcDbEntity
  8
1
100
AcDbLine
 10
1.900590551181102
 20
6.310039370078739
 30
0.0
 11
1.894685039370078
 21
6.312007874015748
 31
0.0
  0
LINE
  5
2DE5
330
1F
100
AcDbEntity
  8
1
100
AcDbLine
 10
1.604330708661417
 20
6.168307086614173
 30
0.0
 11
1.604330708661417
 21
6.125
 31
0.0
  0
LINE
  5
2DE6
330
1F
100
AcDbEntity
  8
1
100
AcDbLine
 10
1.604330708661417
 20
6.125
 30
0.0
 11
1.604330708661417
 21
6.080708661417323
 31
0.0
  0
LINE
  5
2DE7
330
1F
100
AcDbEntity
  8
1
100
AcDbLine
 10
2.438976377952756
 20
6.080708661417323
 30
0.0
 11
2.438976377952756
 21
6.125
 31
0.0
  0
LINE
  5
2DE8
330
1F
100
AcDbEntity
  8
1
100
AcDbLine
 10
2.438976377952756
 20
6.125
 30
0.0
 11
2.438976377952756
 21
6.168307086614173
 31
0.0
  0
LINE
  5
2DE9
330
1F
100
AcDbEntity
  8
1
100
AcDbLine
 10
1.955708661417322
 20
6.307086614173228
 30
0.0
 11
1.950787401574802
 21
6.30511811023622
 31
0.0
  0
LINE
  5
2DEA
330
1F
100
AcDbEntity
  8
1
100
AcDbLine
 10
1.950787401574802
 20
6.30511811023622
 30
0.0
 11
1.947834645669291
 21
6.299212598425196
 31
0.0
  0
LINE
  5
2DEB
330
1F
100
AcDbEntity
  8
1
100
AcDbLine
 10
2.095472440944881
 20
6.299212598425196
 30
0.0
 11
2.093503937007874
 21
6.30511811023622
 31
0.0
  0
LINE
  5
2DEC
330
1F
100
AcDbEntity
  8
1
100
AcDbLine
 10
2.093503937007874
 20
6.30511811023622
 30
0.0
 11
2.08759842519685
 21
6.307086614173228
 31
0.0
  0
LINE
  5
2DED
330
1F
100
AcDbEntity
  8
1
100
AcDbLine
 10
2.452755905511811
 20
4.524606299212598
 30
0.0
 11
2.450787401574803
 21
4.519685039370078
 31
0.0
  0
LINE
  5
2DEE
330
1F
100
AcDbEntity
  8
1
100
AcDbLine
 10
2.450787401574803
 20
4.519685039370078
 30
0.0
 11
2.444881889763779
 21
4.516732283464566
 31
0.0
  0
LINE
  5
2DEF
330
1F
100
AcDbEntity
  8
1
100
AcDbLine
 10
2.447834645669291
 20
4.530511811023622
 30
0.0
 11
2.444881889763779
 21
4.524606299212598
 31
0.0
  0
LINE
  5
2DF0
330
1F
100
AcDbEntity
  8
1
100
AcDbLine
 10
2.444881889763779
 20
4.524606299212598
 30
0.0
 11
2.439960629921259
 21
4.52263779527559
 31
0.0
  0
LINE
  5
2DF1
330
1F
100
AcDbEntity
  8
1
100
AcDbLine
 10
2.439960629921259
 20
4.52755905511811
 30
0.0
 11
2.439960629921259
 21
4.523622047244094
 31
0.0
  0
LINE
  5
2DF2
330
1F
100
AcDbEntity
  8
1
100
AcDbLine
 10
2.439960629921259
 20
4.523622047244094
 30
0.0
 11
2.439960629921259
 21
4.52263779527559
 31
0.0
  0
LINE
  5
2DF3
330
1F
100
AcDbEntity
  8
1
100
AcDbLine
 10
1.604330708661417
 20
4.52755905511811
 30
0.0
 11
1.604330708661417
 21
4.523622047244094
 31
0.0
  0
LINE
  5
2DF4
330
1F
100
AcDbEntity
  8
1
100
AcDbLine
 10
1.604330708661417
 20
4.523622047244094
 30
0.0
 11
1.604330708661417
 21
4.52263779527559
 31
0.0
  0
LINE
  5
2DF5
330
1F
100
AcDbEntity
  8
1
100
AcDbLine
 10
1.596456692913385
 20
4.530511811023622
 30
0.0
 11
1.598425196850393
 21
4.524606299212598
 31
0.0
  0
LINE
  5
2DF6
330
1F
100
AcDbEntity
  8
1
100
AcDbLine
 10
1.598425196850393
 20
4.524606299212598
 30
0.0
 11
1.604330708661417
 21
4.52263779527559
 31
0.0
  0
LINE
  5
2DF7
330
1F
100
AcDbEntity
  8
1
100
AcDbLine
 10
1.590551181102362
 20
4.524606299212598
 30
0.0
 11
1.593503937007874
 21
4.519685039370078
 31
0.0
  0
LINE
  5
2DF8
330
1F
100
AcDbEntity
  8
1
100
AcDbLine
 10
1.593503937007874
 20
4.519685039370078
 30
0.0
 11
1.598425196850393
 21
4.516732283464566
 31
0.0
  0
LINE
  5
2DF9
330
1F
100
AcDbEntity
  8
1
100
AcDbLine
 10
1.596456692913385
 20
4.530511811023622
 30
0.0
 11
1.598425196850393
 21
4.528543307086613
 31
0.0
  0
LINE
  5
2DFA
330
1F
100
AcDbEntity
  8
1
100
AcDbLine
 10
1.598425196850393
 20
4.528543307086613
 30
0.0
 11
1.604330708661417
 21
4.52755905511811
 31
0.0
  0
LINE
  5
2DFB
330
1F
100
AcDbEntity
  8
1
100
AcDbLine
 10
1.604330708661417
 20
4.589566929133858
 30
0.0
 11
1.599409448818897
 21
4.590551181102362
 31
0.0
  0
LINE
  5
2DFC
330
1F
100
AcDbEntity
  8
1
100
AcDbLine
 10
1.599409448818897
 20
4.590551181102362
 30
0.0
 11
1.596456692913385
 21
4.591535433070865
 31
0.0
  0
LINE
  5
2DFD
330
1F
100
AcDbEntity
  8
1
100
AcDbLine
 10
2.438976377952756
 20
4.589566929133858
 30
0.0
 11
2.444881889763779
 21
4.590551181102362
 31
0.0
  0
LINE
  5
2DFE
330
1F
100
AcDbEntity
  8
1
100
AcDbLine
 10
2.444881889763779
 20
4.590551181102362
 30
0.0
 11
2.446850393700787
 21
4.591535433070865
 31
0.0
  0
LINE
  5
2DFF
330
1F
100
AcDbEntity
  8
1
100
AcDbLine
 10
2.439960629921259
 20
4.52755905511811
 30
0.0
 11
2.444881889763779
 21
4.528543307086613
 31
0.0
  0
LINE
  5
2E00
330
1F
100
AcDbEntity
  8
1
100
AcDbLine
 10
2.444881889763779
 20
4.528543307086613
 30
0.0
 11
2.447834645669291
 21
4.530511811023622
 31
0.0
  0
LINE
  5
2E01
330
1F
100
AcDbEntity
  8
1
100
AcDbLine
 10
2.132874015748031
 20
4.516732283464566
 30
0.0
 11
2.138779527559055
 21
4.514763779527559
 31
0.0
  0
LINE
  5
2E02
330
1F
100
AcDbEntity
  8
1
100
AcDbLine
 10
2.138779527559055
 20
4.514763779527559
 30
0.0
 11
2.140748031496062
 21
4.508858267716535
 31
0.0
  0
LINE
  5
2E03
330
1F
100
AcDbEntity
  8
1
100
AcDbLine
 10
2.251968503937007
 20
4.508858267716535
 30
0.0
 11
2.254921259842519
 21
4.514763779527559
 31
0.0
  0
LINE
  5
2E04
330
1F
100
AcDbEntity
  8
1
100
AcDbLine
 10
2.254921259842519
 20
4.514763779527559
 30
0.0
 11
2.259842519685039
 21
4.516732283464566
 31
0.0
  0
LINE
  5
2E05
330
1F
100
AcDbEntity
  8
1
100
AcDbLine
 10
2.244094488188976
 20
4.445866141732283
 30
0.0
 11
2.25
 21
4.448818897637795
 31
0.0
  0
LINE
  5
2E06
330
1F
100
AcDbEntity
  8
1
100
AcDbLine
 10
2.25
 20
4.448818897637795
 30
0.0
 11
2.251968503937007
 21
4.453740157480314
 31
0.0
  0
LINE
  5
2E07
330
1F
100
AcDbEntity
  8
1
100
AcDbLine
 10
2.140748031496062
 20
4.453740157480314
 30
0.0
 11
2.143700787401574
 21
4.448818897637795
 31
0.0
  0
LINE
  5
2E08
330
1F
100
AcDbEntity
  8
1
100
AcDbLine
 10
2.143700787401574
 20
4.448818897637795
 30
0.0
 11
2.148622047244094
 21
4.445866141732283
 31
0.0
  0
LINE
  5
2E09
330
1F
100
AcDbEntity
  8
1
100
AcDbLine
 10
1.791338582677165
 20
4.453740157480314
 30
0.0
 11
1.794291338582677
 21
4.448818897637795
 31
0.0
  0
LINE
  5
2E0A
330
1F
100
AcDbEntity
  8
1
100
AcDbLine
 10
1.794291338582677
 20
4.448818897637795
 30
0.0
 11
1.799212598425196
 21
4.445866141732283
 31
0.0
  0
LINE
  5
2E0B
330
1F
100
AcDbEntity
  8
1
100
AcDbLine
 10
1.783464566929133
 20
4.516732283464566
 30
0.0
 11
1.789370078740157
 21
4.514763779527559
 31
0.0
  0
LINE
  5
2E0C
330
1F
100
AcDbEntity
  8
1
100
AcDbLine
 10
1.789370078740157
 20
4.514763779527559
 30
0.0
 11
1.791338582677165
 21
4.508858267716535
 31
0.0
  0
LINE
  5
2E0D
330
1F
100
AcDbEntity
  8
1
100
AcDbLine
 10
1.90255905511811
 20
4.508858267716535
 30
0.0
 11
1.905511811023622
 21
4.514763779527559
 31
0.0
  0
LINE
  5
2E0E
330
1F
100
AcDbEntity
  8
1
100
AcDbLine
 10
1.905511811023622
 20
4.514763779527559
 30
0.0
 11
1.910433070866141
 21
4.516732283464566
 31
0.0
  0
LINE
  5
2E0F
330
1F
100
AcDbEntity
  8
1
100
AcDbLine
 10
1.894685039370078
 20
4.445866141732283
 30
0.0
 11
1.900590551181102
 21
4.448818897637795
 31
0.0
  0
LINE
  5
2E10
330
1F
100
AcDbEntity
  8
1
100
AcDbLine
 10
1.900590551181102
 20
4.448818897637795
 30
0.0
 11
1.90255905511811
 21
4.453740157480314
 31
0.0
  0
LINE
  5
2E11
330
1F
100
AcDbEntity
  8
1
100
AcDbLine
 10
1.604330708661417
 20
4.678149606299212
 30
0.0
 11
1.604330708661417
 21
4.633858267716535
 31
0.0
  0
LINE
  5
2E12
330
1F
100
AcDbEntity
  8
1
100
AcDbLine
 10
1.604330708661417
 20
4.633858267716535
 30
0.0
 11
1.604330708661417
 21
4.589566929133858
 31
0.0
  0
LINE
  5
2E13
330
1F
100
AcDbEntity
  8
1
100
AcDbLine
 10
2.438976377952756
 20
4.589566929133858
 30
0.0
 11
2.438976377952756
 21
4.633858267716535
 31
0.0
  0
LINE
  5
2E14
330
1F
100
AcDbEntity
  8
1
100
AcDbLine
 10
2.438976377952756
 20
4.633858267716535
 30
0.0
 11
2.438976377952756
 21
4.678149606299212
 31
0.0
  0
LINE
  5
2E15
330
1F
100
AcDbEntity
  8
1
100
AcDbLine
 10
1.947834645669291
 20
4.458661417322834
 30
0.0
 11
1.950787401574802
 21
4.452755905511811
 31
0.0
  0
LINE
  5
2E16
330
1F
100
AcDbEntity
  8
1
100
AcDbLine
 10
1.950787401574802
 20
4.452755905511811
 30
0.0
 11
1.955708661417322
 21
4.450787401574802
 31
0.0
  0
LINE
  5
2E17
330
1F
100
AcDbEntity
  8
1
100
AcDbLine
 10
2.08759842519685
 20
4.450787401574802
 30
0.0
 11
2.093503937007874
 21
4.452755905511811
 31
0.0
  0
LINE
  5
2E18
330
1F
100
AcDbEntity
  8
1
100
AcDbLine
 10
2.093503937007874
 20
4.452755905511811
 30
0.0
 11
2.095472440944881
 21
4.458661417322834
 31
0.0
  0
LINE
  5
2E19
330
1F
100
AcDbEntity
  8
1
100
AcDbLine
 10
2.106299212598425
 20
5.711614173228346
 30
0.0
 11
2.102362204724409
 21
5.703740157480314
 31
0.0
  0
LINE
  5
2E1A
330
1F
100
AcDbEntity
  8
1
100
AcDbLine
 10
2.102362204724409
 20
5.703740157480314
 30
0.0
 11
2.094488188976377
 21
5.699803149606299
 31
0.0
  0
LINE
  5
2E1B
330
1F
100
AcDbEntity
  8
1
100
AcDbLine
 10
2.102362204724409
 20
5.711614173228346
 30
0.0
 11
2.104330708661417
 21
5.711614173228346
 31
0.0
  0
LINE
  5
2E1C
330
1F
100
AcDbEntity
  8
1
100
AcDbLine
 10
2.104330708661417
 20
5.711614173228346
 30
0.0
 11
2.106299212598425
 21
5.711614173228346
 31
0.0
  0
LINE
  5
2E1D
330
1F
100
AcDbEntity
  8
1
100
AcDbLine
 10
2.094488188976377
 20
5.699803149606299
 30
0.0
 11
2.103346456692913
 21
5.702755905511811
 31
0.0
  0
LINE
  5
2E1E
330
1F
100
AcDbEntity
  8
1
100
AcDbLine
 10
2.103346456692913
 20
5.702755905511811
 30
0.0
 11
2.106299212598425
 21
5.711614173228346
 31
0.0
  0
LINE
  5
2E1F
330
1F
100
AcDbEntity
  8
1
100
AcDbLine
 10
2.102362204724409
 20
5.711614173228346
 30
0.0
 11
2.099409448818897
 21
5.703740157480314
 31
0.0
  0
LINE
  5
2E20
330
1F
100
AcDbEntity
  8
1
100
AcDbLine
 10
2.099409448818897
 20
5.703740157480314
 30
0.0
 11
2.094488188976377
 21
5.699803149606299
 31
0.0
  0
LINE
  5
2E21
330
1F
100
AcDbEntity
  8
1
100
AcDbLine
 10
1.941929133858267
 20
5.711614173228346
 30
0.0
 11
1.943897637795275
 21
5.703740157480314
 31
0.0
  0
LINE
  5
2E22
330
1F
100
AcDbEntity
  8
1
100
AcDbLine
 10
1.943897637795275
 20
5.703740157480314
 30
0.0
 11
1.949803149606299
 21
5.699803149606299
 31
0.0
  0
LINE
  5
2E23
330
1F
100
AcDbEntity
  8
1
100
AcDbLine
 10
1.941929133858267
 20
5.711614173228346
 30
0.0
 11
1.938976377952755
 21
5.711614173228346
 31
0.0
  0
LINE
  5
2E24
330
1F
100
AcDbEntity
  8
1
100
AcDbLine
 10
1.938976377952755
 20
5.711614173228346
 30
0.0
 11
1.937992125984251
 21
5.711614173228346
 31
0.0
  0
LINE
  5
2E25
330
1F
100
AcDbEntity
  8
1
100
AcDbLine
 10
1.937992125984251
 20
5.711614173228346
 30
0.0
 11
1.941929133858267
 21
5.703740157480314
 31
0.0
  0
LINE
  5
2E26
330
1F
100
AcDbEntity
  8
1
100
AcDbLine
 10
1.941929133858267
 20
5.703740157480314
 30
0.0
 11
1.949803149606299
 21
5.699803149606299
 31
0.0
  0
LINE
  5
2E27
330
1F
100
AcDbEntity
  8
1
100
AcDbLine
 10
1.937007874015747
 20
5.711614173228346
 30
0.0
 11
1.940944881889763
 21
5.702755905511811
 31
0.0
  0
LINE
  5
2E28
330
1F
100
AcDbEntity
  8
1
100
AcDbLine
 10
1.940944881889763
 20
5.702755905511811
 30
0.0
 11
1.948818897637795
 21
5.699803149606299
 31
0.0
  0
LINE
  5
2E29
330
1F
100
AcDbEntity
  8
1
100
AcDbLine
 10
1.937992125984251
 20
5.711614173228346
 30
0.0
 11
1.938976377952755
 21
5.711614173228346
 31
0.0
  0
LINE
  5
2E2A
330
1F
100
AcDbEntity
  8
1
100
AcDbLine
 10
1.938976377952755
 20
5.711614173228346
 30
0.0
 11
1.941929133858267
 21
5.711614173228346
 31
0.0
  0
LINE
  5
2E2B
330
1F
100
AcDbEntity
  8
1
100
AcDbLine
 10
2.102362204724409
 20
5.711614173228346
 30
0.0
 11
2.104330708661417
 21
5.711614173228346
 31
0.0
  0
LINE
  5
2E2C
330
1F
100
AcDbEntity
  8
1
100
AcDbLine
 10
2.104330708661417
 20
5.711614173228346
 30
0.0
 11
2.106299212598425
 21
5.711614173228346
 31
0.0
  0
LINE
  5
2E2D
330
1F
100
AcDbEntity
  8
1
100
AcDbLine
 10
2.343503937007874
 20
5.069881889763779
 30
0.0
 11
2.33267716535433
 21
5.075787401574802
 31
0.0
  0
LINE
  5
2E2E
330
1F
100
AcDbEntity
  8
1
100
AcDbLine
 10
2.33267716535433
 20
5.075787401574802
 30
0.0
 11
2.327755905511811
 21
5.077755905511811
 31
0.0
  0
LINE
  5
2E2F
330
1F
100
AcDbEntity
  8
1
100
AcDbLine
 10
2.274606299212598
 20
5.077755905511811
 30
0.0
 11
2.274606299212598
 21
5.075787401574802
 31
0.0
  0
LINE
  5
2E30
330
1F
100
AcDbEntity
  8
1
100
AcDbLine
 10
2.274606299212598
 20
5.075787401574802
 30
0.0
 11
2.274606299212598
 21
5.069881889763779
 31
0.0
  0
LINE
  5
2E31
330
1F
100
AcDbEntity
  8
1
100
AcDbLine
 10
2.343503937007874
 20
5.748031496062991
 30
0.0
 11
2.33759842519685
 21
5.737204724409449
 31
0.0
  0
LINE
  5
2E32
330
1F
100
AcDbEntity
  8
1
100
AcDbLine
 10
2.33759842519685
 20
5.737204724409449
 30
0.0
 11
2.335629921259842
 21
5.732283464566928
 31
0.0
  0
LINE
  5
2E33
330
1F
100
AcDbEntity
  8
1
100
AcDbLine
 10
2.335629921259842
 20
5.085629921259842
 30
0.0
 11
2.33759842519685
 21
5.080708661417323
 31
0.0
  0
LINE
  5
2E34
330
1F
100
AcDbEntity
  8
1
100
AcDbLine
 10
2.33759842519685
 20
5.080708661417323
 30
0.0
 11
2.343503937007874
 21
5.069881889763779
 31
0.0
  0
LINE
  5
2E35
330
1F
100
AcDbEntity
  8
1
100
AcDbLine
 10
2.274606299212598
 20
5.069881889763779
 30
0.0
 11
2.268700787401574
 21
5.069881889763779
 31
0.0
  0
LINE
  5
2E36
330
1F
100
AcDbEntity
  8
1
100
AcDbLine
 10
2.268700787401574
 20
5.069881889763779
 30
0.0
 11
2.266732283464566
 21
5.069881889763779
 31
0.0
  0
LINE
  5
2E37
330
1F
100
AcDbEntity
  8
1
100
AcDbLine
 10
2.266732283464566
 20
5.023622047244094
 30
0.0
 11
2.268700787401574
 21
5.018700787401574
 31
0.0
  0
LINE
  5
2E38
330
1F
100
AcDbEntity
  8
1
100
AcDbLine
 10
2.268700787401574
 20
5.018700787401574
 30
0.0
 11
2.274606299212598
 21
5.007874015748031
 31
0.0
  0
LINE
  5
2E39
330
1F
100
AcDbEntity
  8
1
100
AcDbLine
 10
2.327755905511811
 20
5.74015748031496
 30
0.0
 11
2.33267716535433
 21
5.742125984251968
 31
0.0
  0
LINE
  5
2E3A
330
1F
100
AcDbEntity
  8
1
100
AcDbLine
 10
2.33267716535433
 20
5.742125984251968
 30
0.0
 11
2.343503937007874
 21
5.748031496062991
 31
0.0
  0
LINE
  5
2E3B
330
1F
100
AcDbEntity
  8
1
100
AcDbLine
 10
1.700787401574803
 20
5.748031496062991
 30
0.0
 11
1.711614173228346
 21
5.742125984251968
 31
0.0
  0
LINE
  5
2E3C
330
1F
100
AcDbEntity
  8
1
100
AcDbLine
 10
1.711614173228346
 20
5.742125984251968
 30
0.0
 11
1.716535433070866
 21
5.74015748031496
 31
0.0
  0
LINE
  5
2E3D
330
1F
100
AcDbEntity
  8
1
100
AcDbLine
 10
2.274606299212598
 20
5.007874015748031
 30
0.0
 11
2.263779527559055
 21
5.013779527559054
 31
0.0
  0
LINE
  5
2E3E
330
1F
100
AcDbEntity
  8
1
100
AcDbLine
 10
2.263779527559055
 20
5.013779527559054
 30
0.0
 11
2.258858267716535
 21
5.015748031496062
 31
0.0
  0
LINE
  5
2E3F
330
1F
100
AcDbEntity
  8
1
100
AcDbLine
 10
1.785433070866141
 20
5.015748031496062
 30
0.0
 11
1.780511811023622
 21
5.013779527559054
 31
0.0
  0
LINE
  5
2E40
330
1F
100
AcDbEntity
  8
1
100
AcDbLine
 10
1.780511811023622
 20
5.013779527559054
 30
0.0
 11
1.769685039370078
 21
5.007874015748031
 31
0.0
  0
LINE
  5
2E41
330
1F
100
AcDbEntity
  8
1
100
AcDbLine
 10
1.708661417322834
 20
5.732283464566928
 30
0.0
 11
1.705708661417322
 21
5.737204724409449
 31
0.0
  0
LINE
  5
2E42
330
1F
100
AcDbEntity
  8
1
100
AcDbLine
 10
1.705708661417322
 20
5.737204724409449
 30
0.0
 11
1.700787401574803
 21
5.748031496062991
 31
0.0
  0
LINE
  5
2E43
330
1F
100
AcDbEntity
  8
1
100
AcDbLine
 10
1.700787401574803
 20
5.069881889763779
 30
0.0
 11
1.705708661417322
 21
5.080708661417323
 31
0.0
  0
LINE
  5
2E44
330
1F
100
AcDbEntity
  8
1
100
AcDbLine
 10
1.705708661417322
 20
5.080708661417323
 30
0.0
 11
1.708661417322834
 21
5.085629921259842
 31
0.0
  0
LINE
  5
2E45
330
1F
100
AcDbEntity
  8
1
100
AcDbLine
 10
1.769685039370078
 20
5.007874015748031
 30
0.0
 11
1.774606299212598
 21
5.018700787401574
 31
0.0
  0
LINE
  5
2E46
330
1F
100
AcDbEntity
  8
1
100
AcDbLine
 10
1.774606299212598
 20
5.018700787401574
 30
0.0
 11
1.77755905511811
 21
5.023622047244094
 31
0.0
  0
LINE
  5
2E47
330
1F
100
AcDbEntity
  8
1
100
AcDbLine
 10
1.77755905511811
 20
5.069881889763779
 30
0.0
 11
1.774606299212598
 21
5.069881889763779
 31
0.0
  0
LINE
  5
2E48
330
1F
100
AcDbEntity
  8
1
100
AcDbLine
 10
1.774606299212598
 20
5.069881889763779
 30
0.0
 11
1.769685039370078
 21
5.069881889763779
 31
0.0
  0
LINE
  5
2E49
330
1F
100
AcDbEntity
  8
1
100
AcDbLine
 10
1.769685039370078
 20
5.069881889763779
 30
0.0
 11
1.769685039370078
 21
5.075787401574802
 31
0.0
  0
LINE
  5
2E4A
330
1F
100
AcDbEntity
  8
1
100
AcDbLine
 10
1.769685039370078
 20
5.075787401574802
 30
0.0
 11
1.769685039370078
 21
5.077755905511811
 31
0.0
  0
LINE
  5
2E4B
330
1F
100
AcDbEntity
  8
1
100
AcDbLine
 10
1.716535433070866
 20
5.077755905511811
 30
0.0
 11
1.711614173228346
 21
5.075787401574802
 31
0.0
  0
LINE
  5
2E4C
330
1F
100
AcDbEntity
  8
1
100
AcDbLine
 10
1.711614173228346
 20
5.075787401574802
 30
0.0
 11
1.700787401574803
 21
5.069881889763779
 31
0.0
  0
LINE
  5
2E4D
330
1F
100
AcDbEntity
  8
1
100
AcDbLine
 10
1.920275590551181
 20
5.071850393700787
 30
0.0
 11
1.920275590551181
 21
5.085629921259842
 31
0.0
  0
LINE
  5
2E4E
330
1F
100
AcDbEntity
  8
1
100
AcDbLine
 10
1.920275590551181
 20
5.085629921259842
 30
0.0
 11
1.919291338582677
 21
5.098425196850393
 31
0.0
  0
LINE
  5
2E4F
330
1F
100
AcDbEntity
  8
1
100
AcDbLine
 10
1.919291338582677
 20
5.029527559055117
 30
0.0
 11
1.920275590551181
 21
5.031496062992125
 31
0.0
  0
LINE
  5
2E50
330
1F
100
AcDbEntity
  8
1
100
AcDbLine
 10
1.920275590551181
 20
5.031496062992125
 30
0.0
 11
1.920275590551181
 21
5.037401574803149
 31
0.0
  0
LINE
  5
2E51
330
1F
100
AcDbEntity
  8
1
100
AcDbLine
 10
2.124015748031495
 20
5.037401574803149
 30
0.0
 11
2.124015748031495
 21
5.031496062992125
 31
0.0
  0
LINE
  5
2E52
330
1F
100
AcDbEntity
  8
1
100
AcDbLine
 10
2.124015748031495
 20
5.031496062992125
 30
0.0
 11
2.124015748031495
 21
5.029527559055117
 31
0.0
  0
LINE
  5
2E53
330
1F
100
AcDbEntity
  8
1
100
AcDbLine
 10
2.124015748031495
 20
5.098425196850393
 30
0.0
 11
2.124015748031495
 21
5.085629921259842
 31
0.0
  0
LINE
  5
2E54
330
1F
100
AcDbEntity
  8
1
100
AcDbLine
 10
2.124015748031495
 20
5.085629921259842
 30
0.0
 11
2.124015748031495
 21
5.071850393700787
 31
0.0
  0
LINE
  5
2E55
330
1F
100
AcDbEntity
  8
1
100
AcDbLine
 10
1.927165354330708
 20
5.108267716535433
 30
0.0
 11
1.922244094488188
 21
5.106299212598425
 31
0.0
  0
LINE
  5
2E56
330
1F
100
AcDbEntity
  8
1
100
AcDbLine
 10
1.922244094488188
 20
5.106299212598425
 30
0.0
 11
1.919291338582677
 21
5.100393700787401
 31
0.0
  0
LINE
  5
2E57
330
1F
100
AcDbEntity
  8
1
100
AcDbLine
 10
2.124015748031495
 20
5.100393700787401
 30
0.0
 11
2.122047244094487
 21
5.106299212598425
 31
0.0
  0
LINE
  5
2E58
330
1F
100
AcDbEntity
  8
1
100
AcDbLine
 10
2.122047244094487
 20
5.106299212598425
 30
0.0
 11
2.116141732283464
 21
5.108267716535433
 31
0.0
  0
LINE
  5
2E59
330
1F
100
AcDbEntity
  8
1
100
AcDbLine
 10
1.906496062992125
 20
5.018700787401574
 30
0.0
 11
1.900590551181102
 21
5.01771653543307
 31
0.0
  0
LINE
  5
2E5A
330
1F
100
AcDbEntity
  8
1
100
AcDbLine
 10
1.900590551181102
 20
5.01771653543307
 30
0.0
 11
1.886811023622047
 21
5.01771653543307
 31
0.0
  0
LINE
  5
2E5B
330
1F
100
AcDbEntity
  8
1
100
AcDbLine
 10
2.15748031496063
 20
5.01771653543307
 30
0.0
 11
2.143700787401574
 21
5.01771653543307
 31
0.0
  0
LINE
  5
2E5C
330
1F
100
AcDbEntity
  8
1
100
AcDbLine
 10
2.143700787401574
 20
5.01771653543307
 30
0.0
 11
2.13779527559055
 21
5.018700787401574
 31
0.0
  0
LINE
  5
2E5D
330
1F
100
AcDbEntity
  8
1
100
AcDbLine
 10
1.604330708661417
 20
6.080708661417323
 30
0.0
 11
1.599409448818897
 21
6.080708661417323
 31
0.0
  0
LINE
  5
2E5E
330
1F
100
AcDbEntity
  8
1
100
AcDbLine
 10
1.599409448818897
 20
6.080708661417323
 30
0.0
 11
1.596456692913385
 21
6.080708661417323
 31
0.0
  0
LINE
  5
2E5F
330
1F
100
AcDbEntity
  8
1
100
AcDbLine
 10
1.604330708661417
 20
4.678149606299212
 30
0.0
 11
1.599409448818897
 21
4.678149606299212
 31
0.0
  0
LINE
  5
2E60
330
1F
100
AcDbEntity
  8
1
100
AcDbLine
 10
1.599409448818897
 20
4.678149606299212
 30
0.0
 11
1.596456692913385
 21
4.678149606299212
 31
0.0
  0
LINE
  5
2E61
330
1F
100
AcDbEntity
  8
1
100
AcDbLine
 10
2.438976377952756
 20
6.080708661417323
 30
0.0
 11
2.444881889763779
 21
6.080708661417323
 31
0.0
  0
LINE
  5
2E62
330
1F
100
AcDbEntity
  8
1
100
AcDbLine
 10
2.444881889763779
 20
6.080708661417323
 30
0.0
 11
2.446850393700787
 21
6.080708661417323
 31
0.0
  0
LINE
  5
2E63
330
1F
100
AcDbEntity
  8
1
100
AcDbLine
 10
2.438976377952756
 20
4.678149606299212
 30
0.0
 11
2.444881889763779
 21
4.678149606299212
 31
0.0
  0
LINE
  5
2E64
330
1F
100
AcDbEntity
  8
1
100
AcDbLine
 10
2.444881889763779
 20
4.678149606299212
 30
0.0
 11
2.446850393700787
 21
4.678149606299212
 31
0.0
  0
LINE
  5
2E65
330
1F
100
AcDbEntity
  8
1
100
AcDbLine
 10
1.778543307086614
 20
5.025590551181101
 30
0.0
 11
1.781496062992125
 21
5.020669291338582
 31
0.0
  0
LINE
  5
2E66
330
1F
100
AcDbEntity
  8
1
100
AcDbLine
 10
1.781496062992125
 20
5.020669291338582
 30
0.0
 11
1.786417322834645
 21
5.01771653543307
 31
0.0
  0
LINE
  5
2E67
330
1F
100
AcDbEntity
  8
1
100
AcDbLine
 10
1.770669291338582
 20
5.079724409448818
 30
0.0
 11
1.776574803149606
 21
5.076771653543307
 31
0.0
  0
LINE
  5
2E68
330
1F
100
AcDbEntity
  8
1
100
AcDbLine
 10
1.776574803149606
 20
5.076771653543307
 30
0.0
 11
1.778543307086614
 21
5.071850393700787
 31
0.0
  0
LINE
  5
2E69
330
1F
100
AcDbEntity
  8
1
100
AcDbLine
 10
1.709645669291338
 20
5.08759842519685
 30
0.0
 11
1.71259842519685
 21
5.081692913385826
 31
0.0
  0
LINE
  5
2E6A
330
1F
100
AcDbEntity
  8
1
100
AcDbLine
 10
1.71259842519685
 20
5.081692913385826
 30
0.0
 11
1.71751968503937
 21
5.079724409448818
 31
0.0
  0
LINE
  5
2E6B
330
1F
100
AcDbEntity
  8
1
100
AcDbLine
 10
2.325787401574803
 20
5.079724409448818
 30
0.0
 11
2.331692913385826
 21
5.081692913385826
 31
0.0
  0
LINE
  5
2E6C
330
1F
100
AcDbEntity
  8
1
100
AcDbLine
 10
2.331692913385826
 20
5.081692913385826
 30
0.0
 11
2.333661417322834
 21
5.08759842519685
 31
0.0
  0
LINE
  5
2E6D
330
1F
100
AcDbEntity
  8
1
100
AcDbLine
 10
2.264763779527558
 20
5.071850393700787
 30
0.0
 11
2.26771653543307
 21
5.076771653543307
 31
0.0
  0
LINE
  5
2E6E
330
1F
100
AcDbEntity
  8
1
100
AcDbLine
 10
2.26771653543307
 20
5.076771653543307
 30
0.0
 11
2.27263779527559
 21
5.079724409448818
 31
0.0
  0
LINE
  5
2E6F
330
1F
100
AcDbEntity
  8
1
100
AcDbLine
 10
2.256889763779527
 20
5.01771653543307
 30
0.0
 11
2.26279527559055
 21
5.020669291338582
 31
0.0
  0
LINE
  5
2E70
330
1F
100
AcDbEntity
  8
1
100
AcDbLine
 10
2.26279527559055
 20
5.020669291338582
 30
0.0
 11
2.264763779527558
 21
5.025590551181101
 31
0.0
  0
LINE
  5
2E71
330
1F
100
AcDbEntity
  8
1
100
AcDbLine
 10
1.596456692913385
 20
4.591535433070865
 30
0.0
 11
1.596456692913385
 21
4.633858267716535
 31
0.0
  0
LINE
  5
2E72
330
1F
100
AcDbEntity
  8
1
100
AcDbLine
 10
1.596456692913385
 20
4.633858267716535
 30
0.0
 11
1.596456692913385
 21
4.678149606299212
 31
0.0
  0
LINE
  5
2E73
330
1F
100
AcDbEntity
  8
1
100
AcDbLine
 10
1.596456692913385
 20
6.080708661417323
 30
0.0
 11
1.596456692913385
 21
6.124015748031496
 31
0.0
  0
LINE
  5
2E74
330
1F
100
AcDbEntity
  8
1
100
AcDbLine
 10
1.596456692913385
 20
6.124015748031496
 30
0.0
 11
1.596456692913385
 21
6.166338582677164
 31
0.0
  0
LINE
  5
2E75
330
1F
100
AcDbEntity
  8
1
100
AcDbLine
 10
2.446850393700787
 20
4.678149606299212
 30
0.0
 11
2.446850393700787
 21
4.633858267716535
 31
0.0
  0
LINE
  5
2E76
330
1F
100
AcDbEntity
  8
1
100
AcDbLine
 10
2.446850393700787
 20
4.633858267716535
 30
0.0
 11
2.446850393700787
 21
4.591535433070865
 31
0.0
  0
LINE
  5
2E77
330
1F
100
AcDbEntity
  8
1
100
AcDbLine
 10
2.446850393700787
 20
6.166338582677164
 30
0.0
 11
2.446850393700787
 21
6.124015748031496
 31
0.0
  0
LINE
  5
2E78
330
1F
100
AcDbEntity
  8
1
100
AcDbLine
 10
2.446850393700787
 20
6.124015748031496
 30
0.0
 11
2.446850393700787
 21
6.080708661417323
 31
0.0
  0
LINE
  5
2E79
330
1F
100
AcDbEntity
  8
1
100
AcDbLine
 10
2.102362204724409
 20
5.739173228346456
 30
0.0
 11
2.107283464566929
 21
5.739173228346456
 31
0.0
  0
LINE
  5
2E7A
330
1F
100
AcDbEntity
  8
1
100
AcDbLine
 10
2.107283464566929
 20
5.739173228346456
 30
0.0
 11
2.11023622047244
 21
5.739173228346456
 31
0.0
  0
LINE
  5
2E7B
330
1F
100
AcDbEntity
  8
1
100
AcDbLine
 10
1.934055118110236
 20
5.739173228346456
 30
0.0
 11
1.936023622047244
 21
5.739173228346456
 31
0.0
  0
LINE
  5
2E7C
330
1F
100
AcDbEntity
  8
1
100
AcDbLine
 10
1.936023622047244
 20
5.739173228346456
 30
0.0
 11
1.941929133858267
 21
5.739173228346456
 31
0.0
  0
ENDSEC
  0
SECTION
  2
OBJECTS
  0
DICTIONARY
  5
C
330
0
100
AcDbDictionary
281
     1
  3
ACAD_COLOR
350
2B5C
  3
ACAD_GROUP
350
D
  3
ACAD_IMAGE_DICT
350
5A
  3
ACAD_LAYOUT
350
1A
  3
ACAD_MATERIAL
350
2B58
  3
ACAD_MLEADERSTYLE
350
2B56
  3
ACAD_MLINESTYLE
350
17
  3
ACAD_PLOTSETTINGS
350
19
  3
ACAD_PLOTSTYLENAME
350
E
  3
ACAD_TABLESTYLE
350
2B55
  3
ACAD_VISUALSTYLE
350
2A
  3
AcDbVariableDictionary
350
3F15
  0
DICTIONARY
  5
2B5C
102
{ACAD_REACTORS
330
C
102
}
330
C
100
AcDbDictionary
281
     1
  0
DICTIONARY
  5
D
102
{ACAD_REACTORS
330
C
102
}
330
C
100
AcDbDictionary
281
     1
  0
DICTIONARY
  5
5A
102
{ACAD_REACTORS
330
C
102
}
330
C
100
AcDbDictionary
281
     1
  0
DICTIONARY
  5
1A
102
{ACAD_REACTORS
330
C
102
}
330
C
100
AcDbDictionary
281
     1
  3
Layout1
350
1E
  3
Layout2
350
26
  3
Model
350
22
  0
DICTIONARY
  5
2B58
102
{ACAD_REACTORS
330
C
102
}
330
C
100
AcDbDictionary
281
     1
  3
ByBlock
350
2B5A
  3
ByLayer
350
2B59
  3
Global
350
2B5B
  0
DICTIONARY
  5
2B56
102
{ACAD_REACTORS
330
C
102
}
330
C
100
AcDbDictionary
281
     1
  0
DICTIONARY
  5
17
102
{ACAD_REACTORS
330
C
102
}
330
C
100
AcDbDictionary
281
     1
  3
Standard
350
18
  0
DICTIONARY
  5
19
102
{ACAD_REACTORS
330
C
102
}
330
C
100
AcDbDictionary
281
     1
  0
ACDBDICTIONARYWDFLT
  5
E
102
{ACAD_REACTORS
330
C
102
}
330
C
100
AcDbDictionary
281
     1
  3
Normal
350
F
100
AcDbDictionaryWithDefault
340
F
  0
DICTIONARY
  5
2B55
102
{ACAD_REACTORS
330
C
102
}
330
C
100
AcDbDictionary
281
     1
  3
Standard
350
2B5D
  0
DICTIONARY
  5
2A
102
{ACAD_REACTORS
330
C
102
}
330
C
100
AcDbDictionary
281
     1
  3
2dWireframe
350
2F
  3
3D Hidden
350
31
  3
3dWireframe
350
30
  3
Basic
350
32
  3
Brighten
350
36
  3
ColorChange
350
3A
  3
Conceptual
350
34
  3
Dim
350
35
  3
Facepattern
350
39
  3
Flat
350
2B
  3
FlatWithEdges
350
2C
  3
Gouraud
350
2D
  3
GouraudWithEdges
350
2E
  3
Linepattern
350
38
  3
Realistic
350
33
  3
Thicken
350
37
  0
DICTIONARY
  5
3F15
102
{ACAD_REACTORS
330
C
102
}
330
C
100
AcDbDictionary
281
     1
  3
CTABLESTYLE
350
3F16
  0
LAYOUT
  5
1E
102
{ACAD_REACTORS
330
1A
102
}
330
1A
100
AcDbPlotSettings
  1

  2
none_device
  4

  6

 40
0.0
 41
0.0
 42
0.0
 43
0.0
 44
0.0
 45
0.0
 46
0.0
 47
0.0
 48
0.0
 49
0.0
140
0.0
141
0.0
142
1.0
143
1.0
 70
   688
 72
     0
 73
     0
 74
     5
  7

 75
    16
147
1.0
 76
     0
 77
     2
 78
   300
148
0.0
149
0.0
100
AcDbLayout
  1
Layout1
 70
     1
 71
     1
 10
0.0
 20
0.0
 11
12.0
 21
9.0
 12
0.0
 22
0.0
 32
0.0
 14
1.000000000000000E+20
 24
1.000000000000000E+20
 34
1.000000000000000E+20
 15
-1.000000000000000E+20
 25
-1.000000000000000E+20
 35
-1.000000000000000E+20
146
0.0
 13
0.0
 23
0.0
 33
0.0
 16
1.0
 26
0.0
 36
0.0
 17
0.0
 27
1.0
 37
0.0
 76
     0
330
1B
  0
LAYOUT
  5
26
102
{ACAD_REACTORS
330
1A
102
}
330
1A
100
AcDbPlotSettings
  1

  2
none_device
  4

  6

 40
0.0
 41
0.0
 42
0.0
 43
0.0
 44
0.0
 45
0.0
 46
0.0
 47
0.0
 48
0.0
 49
0.0
140
0.0
141
0.0
142
1.0
143
1.0
 70
   688
 72
     0
 73
     0
 74
     5
  7

 75
    16
147
1.0
 76
     0
 77
     2
 78
   300
148
0.0
149
0.0
100
AcDbLayout
  1
Layout2
 70
     1
 71
     2
 10
0.0
 20
0.0
 11
0.0
 21
0.0
 12
0.0
 22
0.0
 32
0.0
 14
0.0
 24
0.0
 34
0.0
 15
0.0
 25
0.0
 35
0.0
146
0.0
 13
0.0
 23
0.0
 33
0.0
 16
1.0
 26
0.0
 36
0.0
 17
0.0
 27
1.0
 37
0.0
 76
     0
330
23
  0
LAYOUT
  5
22
102
{ACAD_REACTORS
330
1A
102
}
330
1A
100
AcDbPlotSettings
  1

  2
none_device
  4

  6

 40
0.0
 41
0.0
 42
0.0
 43
0.0
 44
0.0
 45
0.0
 46
0.0
 47
0.0
 48
0.0
 49
0.0
140
0.0
141
0.0
142
1.0
143
1.0
 70
  1712
 72
     0
 73
     0
 74
     0
  7

 75
     0
147
1.0
 76
     0
 77
     2
 78
   300
148
0.0
149
0.0
100
AcDbLayout
  1
Model
 70
     1
 71
     0
 10
0.0
 20
0.0
 11
12.0
 21
9.0
 12
0.0
 22
0.0
 32
0.0
 14
1.000000000000000E+20
 24
1.000000000000000E+20
 34
1.000000000000000E+20
 15
-1.000000000000000E+20
 25
-1.000000000000000E+20
 35
-1.000000000000000E+20
146
0.0
 13
0.0
 23
0.0
 33
0.0
 16
1.0
 26
0.0
 36
0.0
 17
0.0
 27
1.0
 37
0.0
 76
     0
330
1F
331
29
  0
MATERIAL
  5
2B5A
102
{ACAD_REACTORS
330
2B58
102
}
330
2B58
100
AcDbMaterial
  1
ByBlock
  0
MATERIAL
  5
2B59
102
{ACAD_REACTORS
330
2B58
102
}
330
2B58
100
AcDbMaterial
  1
ByLayer
  0
MATERIAL
  5
2B5B
102
{ACAD_REACTORS
330
2B58
102
}
330
2B58
100
AcDbMaterial
  1
Global
  0
MLINESTYLE
  5
18
102
{ACAD_REACTORS
330
17
102
}
330
17
100
AcDbMlineStyle
  2
STANDARD
 70
     0
  3

 62
   256
 51
90.0
 52
90.0
 71
     2
 49
0.5
 62
   256
  6
BYLAYER
 49
-0.5
 62
   256
  6
BYLAYER
  0
ACDBPLACEHOLDER
  5
F
102
{ACAD_REACTORS
330
E
102
}
330
E
  0
TABLESTYLE
  5
2B5D
102
{ACAD_REACTORS
330
2B55
102
}
330
2B55
100
AcDbTableStyle
  3
Standard
 70
     0
 71
     0
 40
0.06
 41
0.06
280
     0
281
     0
  7
Standard
140
0.18
170
     2
 62
     0
 63
     7
283
     0
 90
      512
 91
        0
  1

274
    -2
284
     1
 64
     0
275
    -2
285
     1
 65
     0
276
    -2
286
     1
 66
     0
277
    -2
287
     1
 67
     0
278
    -2
288
     1
 68
     0
279
    -2
289
     1
 69
     0
  7
Standard
140
0.25
170
     5
 62
     0
 63
     7
283
     0
 90
      512
 91
        0
  1

274
    -2
284
     1
 64
     0
275
    -2
285
     1
 65
     0
276
    -2
286
     1
 66
     0
277
    -2
287
     1
 67
     0
278
    -2
288
     1
 68
     0
279
    -2
289
     1
 69
     0
  7
Standard
140
0.18
170
     5
 62
     0
 63
     7
283
     0
 90
      512
 91
        0
  1

274
    -2
284
     1
 64
     0
275
    -2
285
     1
 65
     0
276
    -2
286
     1
 66
     0
277
    -2
287
     1
 67
     0
278
    -2
288
     1
 68
     0
279
    -2
289
     1
 69
     0
  0
VISUALSTYLE
  5
2F
102
{ACAD_REACTORS
330
2A
102
}
330
2A
100
AcDbVisualStyle
  2
2dWireframe
 70
     4
 71
     0
 72
     2
 73
     0
 90
        0
 40
-0.6
 41
-30.0
 62
     5
 63
     7
 74
     1
 91
        4
 64
     7
 65
   257
 75
     1
175
     1
 42
1.0
 92
        0
 66
   257
 43
1.0
 76
     1
 77
     6
 78
     2
 67
     7
 79
     5
170
     0
171
     0
290
     0
174
     0
 93
        1
 44
0.0
173
     0
291
     0
 45
0.0
  0
VISUALSTYLE
  5
31
102
{ACAD_REACTORS
330
2A
102
}
330
2A
100
AcDbVisualStyle
  2
3D Hidden
 70
     6
 71
     1
 72
     2
 73
     2
 90
        0
 40
-0.6
 41
-30.0
 62
     5
 63
     7
 74
     2
 91
        2
 64
     7
 65
   257
 75
     2
175
     1
 42
40.0
 92
        0
 66
   257
 43
1.0
 76
     1
 77
     6
 78
     2
 67
     7
 79
     3
170
     0
171
     0
290
     0
174
     0
 93
        1
 44
0.0
173
     0
291
     0
 45
0.0
  0
VISUALSTYLE
  5
30
102
{ACAD_REACTORS
330
2A
102
}
330
2A
100
AcDbVisualStyle
  2
3dWireframe
 70
     5
 71
     0
 72
     2
 73
     0
 90
        0
 40
-0.6
 41
-30.0
 62
     5
 63
     7
 74
     1
 91
        4
 64
     7
 65
   257
 75
     1
175
     1
 42
1.0
 92
        0
 66
   257
 43
1.0
 76
     1
 77
     6
 78
     2
 67
     7
 79
     5
170
     0
171
     0
290
     0
174
     0
 93
        1
 44
0.0
173
     0
291
     0
 45
0.0
  0
VISUALSTYLE
  5
32
102
{ACAD_REACTORS
330
2A
102
}
330
2A
100
AcDbVisualStyle
  2
Basic
 70
     7
 71
     1
 72
     0
 73
     1
 90
        0
 40
-0.6
 41
-30.0
 62
     5
 63
     7
 74
     0
 91
        4
 64
     7
 65
   257
 75
     1
175
     1
 42
1.0
 92
        8
 66
     7
 43
1.0
 76
     1
 77
     6
 78
     2
 67
     7
 79
     5
170
     0
171
     0
290
     0
174
     0
 93
        1
 44
0.0
173
     0
291
     1
 45
0.0
  0
VISUALSTYLE
  5
36
102
{ACAD_REACTORS
330
2A
102
}
330
2A
100
AcDbVisualStyle
  2
Brighten
 70
    12
 71
     2
 72
     2
 73
     0
 90
        0
 40
-0.6
 41
-30.0
 62
     5
 63
     7
 74
     1
 91
        4
 64
     7
 65
   257
 75
     1
175
     1
 42
1.0
 92
        8
 66
     7
 43
1.0
 76
     1
 77
     6
 78
     2
 67
     7
 79
     5
170
     0
171
     0
290
     0
174
     0
 93
        1
 44
50.0
173
     0
291
     1
 45
0.0
  0
VISUALSTYLE
  5
3A
102
{ACAD_REACTORS
330
2A
102
}
330
2A
100
AcDbVisualStyle
  2
ColorChange
 70
    16
 71
     2
 72
     2
 73
     3
 90
        0
 40
-0.6
 41
-30.0
 62
     5
 63
     8
 74
     1
 91
        4
 64
     7
 65
   257
 75
     1
175
     1
 42
1.0
 92
        8
 66
     8
 43
1.0
 76
     1
 77
     6
 78
     2
 67
     7
 79
     5
170
     0
171
     0
290
     0
174
     0
 93
        1
 44
0.0
173
     0
291
     1
 45
0.0
  0
VISUALSTYLE
  5
34
102
{ACAD_REACTORS
330
2A
102
}
330
2A
100
AcDbVisualStyle
  2
Conceptual
 70
     9
 71
     3
 72
     2
 73
     0
 90
        0
 40
-0.6
 41
-30.0
 62
     5
 63
     7
 74
     2
 91
        2
 64
     7
 65
   257
 75
     1
175
     1
 42
40.0
 92
        8
 66
     7
 43
1.0
 76
     1
 77
     6
 78
     2
 67
     7
 79
     3
170
     0
171
     0
290
     0
174
     0
 93
        1
 44
0.0
173
     0
291
     0
 45
0.0
  0
VISUALSTYLE
  5
35
102
{ACAD_REACTORS
330
2A
102
}
330
2A
100
AcDbVisualStyle
  2
Dim
 70
    11
 71
     2
 72
     2
 73
     0
 90
        0
 40
-0.6
 41
-30.0
 62
     5
 63
     7
 74
     1
 91
        4
 64
     7
 65
   257
 75
     1
175
     1
 42
1.0
 92
        8
 66
     7
 43
1.0
 76
     1
 77
     6
 78
     2
 67
     7
 79
     5
170
     0
171
     0
290
     0
174
     0
 93
        1
 44
-50.0
173
     0
291
     1
 45
0.0
  0
VISUALSTYLE
  5
39
102
{ACAD_REACTORS
330
2A
102
}
330
2A
100
AcDbVisualStyle
  2
Facepattern
 70
    15
 71
     2
 72
     2
 73
     0
 90
        0
 40
-0.6
 41
-30.0
 62
     5
 63
     7
 74
     1
 91
        4
 64
     7
 65
   257
 75
     1
175
     1
 42
1.0
 92
        8
 66
     7
 43
1.0
 76
     1
 77
     6
 78
     2
 67
     7
 79
     5
170
     0
171
     0
290
     0
174
     0
 93
        1
 44
0.0
173
     0
291
     1
 45
0.0
  0
VISUALSTYLE
  5
2B
102
{ACAD_REACTORS
330
2A
102
}
330
2A
100
AcDbVisualStyle
  2
Flat
 70
     0
 71
     2
 72
     1
 73
     1
 90
        2
 40
-0.6
 41
30.0
 62
     5
 63
     7
 74
     0
 91
        4
 64
     7
 65
   257
 75
     1
175
     1
 42
1.0
 92
        8
 66
     7
 43
1.0
 76
     1
 77
     6
 78
     2
 67
     7
 79
     5
170
     0
171
     0
290
     0
174
     0
 93
       13
 44
0.0
173
     0
291
     1
 45
0.0
  0
VISUALSTYLE
  5
2C
102
{ACAD_REACTORS
330
2A
102
}
330
2A
100
AcDbVisualStyle
  2
FlatWithEdges
 70
     1
 71
     2
 72
     1
 73
     1
 90
        2
 40
-0.6
 41
30.0
 62
     5
 63
     7
 74
     1
 91
        4
 64
     7
 65
   257
 75
     1
175
     1
 42
1.0
 92
        0
 66
   257
 43
1.0
 76
     1
 77
     6
 78
     2
 67
     7
 79
     5
170
     0
171
     0
290
     0
174
     0
 93
       13
 44
0.0
173
     0
291
     1
 45
0.0
  0
VISUALSTYLE
  5
2D
102
{ACAD_REACTORS
330
2A
102
}
330
2A
100
AcDbVisualStyle
  2
Gouraud
 70
     2
 71
     2
 72
     2
 73
     1
 90
        2
 40
-0.6
 41
30.0
 62
     5
 63
     7
 74
     0
 91
        4
 64
     7
 65
   257
 75
     1
175
     1
 42
1.0
 92
        0
 66
     7
 43
1.0
 76
     1
 77
     6
 78
     2
 67
     7
 79
     5
170
     0
171
     0
290
     0
174
     0
 93
       13
 44
0.0
173
     0
291
     1
 45
0.0
  0
VISUALSTYLE
  5
2E
102
{ACAD_REACTORS
330
2A
102
}
330
2A
100
AcDbVisualStyle
  2
GouraudWithEdges
 70
     3
 71
     2
 72
     2
 73
     1
 90
        2
 40
-0.6
 41
30.0
 62
     5
 63
     7
 74
     1
 91
        4
 64
     7
 65
   257
 75
     1
175
     1
 42
1.0
 92
        0
 66
   257
 43
1.0
 76
     1
 77
     6
 78
     2
 67
     7
 79
     5
170
     0
171
     0
290
     0
174
     0
 93
       13
 44
0.0
173
     0
291
     1
 45
0.0
  0
VISUALSTYLE
  5
38
102
{ACAD_REACTORS
330
2A
102
}
330
2A
100
AcDbVisualStyle
  2
Linepattern
 70
    14
 71
     2
 72
     2
 73
     0
 90
        0
 40
-0.6
 41
-30.0
 62
     5
 63
     7
 74
     1
 91
        4
 64
     7
 65
   257
 75
     7
175
     7
 42
1.0
 92
        8
 66
     7
 43
1.0
 76
     1
 77
     6
 78
     2
 67
     7
 79
     5
170
     0
171
     0
290
     0
174
     0
 93
        1
 44
0.0
173
     0
291
     1
 45
0.0
  0
VISUALSTYLE
  5
33
102
{ACAD_REACTORS
330
2A
102
}
330
2A
100
AcDbVisualStyle
  2
Realistic
 70
     8
 71
     2
 72
     2
 73
     0
 90
        0
 40
-0.6
 41
-30.0
 62
     5
 63
     7
 74
     1
 91
        0
 64
     7
 65
   257
 75
     1
175
     1
 42
1.0
 92
        8
 66
     8
 43
1.0
 76
     1
 77
     6
 78
     2
 67
     7
 79
     5
170
     0
171
     0
290
     0
174
     0
 93
       13
 44
0.0
173
     0
291
     0
 45
0.0
  0
VISUALSTYLE
  5
37
102
{ACAD_REACTORS
330
2A
102
}
330
2A
100
AcDbVisualStyle
  2
Thicken
 70
    13
 71
     2
 72
     2
 73
     0
 90
        0
 40
-0.6
 41
-30.0
 62
     5
 63
     7
 74
     1
 91
        4
 64
     7
 65
   257
 75
     1
175
     1
 42
1.0
 92
       12
 66
     7
 43
1.0
 76
     1
 77
     6
 78
     2
 67
     7
 79
     5
170
     0
171
     0
290
     0
174
     0
 93
        1
 44
0.0
173
     0
291
     1
 45
0.0
  0
DICTIONARYVAR
  5
3F16
102
{ACAD_REACTORS
330
3F15
102
}
330
3F15
100
DictionaryVariables
280
     0
  1
STANDARD
  0
ENDSEC
  0
EOF
