  0
SECTION
  2
HEADER
  9
$ACADVER
  1
AC1012
  9
$DWGCODEPAGE
  3
ANSI_1252
  9
$INSBASE
 10
0.0
 20
0.0
 30
0.0
  9
$EXTMIN
 10
-5.297607400102549
 20
0.6932373264492924
 30
-0.0015258207003583
  9
$EXTMAX
 10
2.601562516998455
 20
5.193511979414047
 30
0.0000000349246037
  9
$LIMMIN
 10
0.0
 20
0.0
  9
$LIMMAX
 10
12.0
 20
9.0
  9
$ORTHOMODE
 70
     0
  9
$REGENMODE
 70
     1
  9
$FILLMODE
 70
     1
  9
$QTEXTMODE
 70
     0
  9
$MIRRTEXT
 70
     1
  9
$DRAGMODE
 70
     2
  9
$LTSCALE
 40
1.0
  9
$OSMODE
 70
    37
  9
$ATTMODE
 70
     1
  9
$TEXTSIZE
 40
0.2
  9
$TRACEWID
 40
0.05
  9
$TEXTSTYLE
  7
STANDARD
  9
$CLAYER
  8
0
  9
$CELTYPE
  6
BYLAYER
  9
$CECOLOR
 62
   256
  9
$CELTSCALE
 40
1.0
  9
$DELOBJ
 70
     1
  9
$DISPSILH
 70
     0
  9
$DIMSCALE
 40
1.0
  9
$DIMASZ
 40
0.18
  9
$DIMEXO
 40
0.0625
  9
$DIMDLI
 40
0.38
  9
$DIMRND
 40
0.0
  9
$DIMDLE
 40
0.0
  9
$DIMEXE
 40
0.18
  9
$DIMTP
 40
0.0
  9
$DIMTM
 40
0.0
  9
$DIMTXT
 40
0.18
  9
$DIMCEN
 40
0.09
  9
$DIMTSZ
 40
0.0
  9
$DIMTOL
 70
     0
  9
$DIMLIM
 70
     0
  9
$DIMTIH
 70
     1
  9
$DIMTOH
 70
     1
  9
$DIMSE1
 70
     0
  9
$DIMSE2
 70
     0
  9
$DIMTAD
 70
     0
  9
$DIMZIN
 70
     0
  9
$DIMBLK
  1

  9
$DIMASO
 70
     1
  9
$DIMSHO
 70
     1
  9
$DIMPOST
  1

  9
$DIMAPOST
  1

  9
$DIMALT
 70
     0
  9
$DIMALTD
 70
     2
  9
$DIMALTF
 40
25.4
  9
$DIMLFAC
 40
1.0
  9
$DIMTOFL
 70
     0
  9
$DIMTVP
 40
0.0
  9
$DIMTIX
 70
     0
  9
$DIMSOXD
 70
     0
  9
$DIMSAH
 70
     0
  9
$DIMBLK1
  1

  9
$DIMBLK2
  1

  9
$DIMSTYLE
  2
STANDARD
  9
$DIMCLRD
 70
     0
  9
$DIMCLRE
 70
     0
  9
$DIMCLRT
 70
     0
  9
$DIMTFAC
 40
1.0
  9
$DIMGAP
 40
0.09
  9
$DIMJUST
 70
     0
  9
$DIMSD1
 70
     0
  9
$DIMSD2
 70
     0
  9
$DIMTOLJ
 70
     1
  9
$DIMTZIN
 70
     0
  9
$DIMALTZ
 70
     0
  9
$DIMALTTZ
 70
     0
  9
$DIMFIT
 70
     5
  9
$DIMUPT
 70
     0
  9
$DIMUNIT
 70
     2
  9
$DIMDEC
 70
     4
  9
$DIMTDEC
 70
     4
  9
$DIMALTU
 70
     2
  9
$DIMALTTD
 70
     2
  9
$DIMTXSTY
  7
STANDARD
  9
$DIMAUNIT
 70
     0
  9
$LUNITS
 70
     2
  9
$LUPREC
 70
     4
  9
$SKETCHINC
 40
0.1
  9
$FILLETRAD
 40
0.0
  9
$AUNITS
 70
     0
  9
$AUPREC
 70
     0
  9
$MENU
  1
acad
  9
$ELEVATION
 40
0.0
  9
$PELEVATION
 40
0.0
  9
$THICKNESS
 40
0.0
  9
$LIMCHECK
 70
     0
  9
$BLIPMODE
 70
     0
  9
$CHAMFERA
 40
0.0
  9
$CHAMFERB
 40
0.0
  9
$CHAMFERC
 40
0.0
  9
$CHAMFERD
 40
0.0
  9
$SKPOLY
 70
     0
  9
$TDCREATE
 40
2453131.278402778
  9
$TDUPDATE
 40
2453131.284412106
  9
$TDINDWG
 40
0.0009988079
  9
$TDUSRTIMER
 40
0.0009988079
  9
$USRTIMER
 70
     1
  9
$ANGBASE
 50
0.0
  9
$ANGDIR
 70
     0
  9
$PDMODE
 70
     0
  9
$PDSIZE
 40
0.0
  9
$PLINEWID
 40
0.0
  9
$COORDS
 70
     1
  9
$SPLFRAME
 70
     0
  9
$SPLINETYPE
 70
     6
  9
$SPLINESEGS
 70
     8
  9
$ATTDIA
 70
     0
  9
$ATTREQ
 70
     1
  9
$HANDLING
 70
  4097
  9
$HANDSEED
  5
5692
  9
$SURFTAB1
 70
     6
  9
$SURFTAB2
 70
     6
  9
$SURFTYPE
 70
     6
  9
$SURFU
 70
     6
  9
$SURFV
 70
     6
  9
$UCSNAME
  2

  9
$UCSORG
 10
0.0
 20
0.0
 30
0.0
  9
$UCSXDIR
 10
1.0
 20
0.0
 30
0.0
  9
$UCSYDIR
 10
0.0
 20
1.0
 30
0.0
  9
$PUCSNAME
  2

  9
$PUCSORG
 10
0.0
 20
0.0
 30
0.0
  9
$PUCSXDIR
 10
1.0
 20
0.0
 30
0.0
  9
$PUCSYDIR
 10
0.0
 20
1.0
 30
0.0
  9
$USERI1
 70
     0
  9
$USERI2
 70
     0
  9
$USERI3
 70
     0
  9
$USERI4
 70
     0
  9
$USERI5
 70
     0
  9
$USERR1
 40
0.0
  9
$USERR2
 40
0.0
  9
$USERR3
 40
0.0
  9
$USERR4
 40
0.0
  9
$USERR5
 40
0.0
  9
$WORLDVIEW
 70
     1
  9
$SHADEDGE
 70
     3
  9
$SHADEDIF
 70
    70
  9
$TILEMODE
 70
     1
  9
$MAXACTVP
 70
    16
  9
$PINSBASE
 10
0.0
 20
0.0
 30
0.0
  9
$PLIMCHECK
 70
     0
  9
$PEXTMIN
 10
1.000000000000000E+20
 20
1.000000000000000E+20
 30
1.000000000000000E+20
  9
$PEXTMAX
 10
-1.000000000000000E+20
 20
-1.000000000000000E+20
 30
-1.000000000000000E+20
  9
$PLIMMIN
 10
0.0
 20
0.0
  9
$PLIMMAX
 10
12.0
 20
9.0
  9
$UNITMODE
 70
     0
  9
$VISRETAIN
 70
     0
  9
$PLINEGEN
 70
     0
  9
$PSLTSCALE
 70
     1
  9
$TREEDEPTH
 70
  3020
  9
$PICKSTYLE
 70
     1
  9
$CMLSTYLE
  2
STANDARD
  9
$CMLJUST
 70
     0
  9
$CMLSCALE
 40
1.0
  9
$SAVEIMAGES
 70
     1
  0
ENDSEC
  0
SECTION
  2
CLASSES
  0
CLASS
  1
ACDBDICTIONARYWDFLT
  2
AcDbDictionaryWithDefault
  3
AutoCAD 2000
 90
    32768
280
     0
281
     0
  0
CLASS
  1
ACDBPLACEHOLDER
  2
AcDbPlaceHolder
  3
AutoCAD 2000
 90
    32768
280
     0
281
     0
  0
CLASS
  1
LAYOUT
  2
AcDbLayout
  3
AutoCAD 2000
 90
    32768
280
     0
281
     0
  0
CLASS
  1
LONG_TRANSACTION
  2
AcDbLongTransaction
  3
AutoCAD 2000
 90
    32768
280
     0
281
     0
  0
CLASS
  1
LWPOLYLINE
  2
AcDbPolyline
  3
AutoCAD 2000
 90
    32768
280
     0
281
     1
  0
CLASS
  1
HATCH
  2
AcDbHatch
  3
AutoCAD 2000
 90
    32768
280
     0
281
     1
  0
CLASS
  1
XRECORD
  2
AcDbXrecord
  3
AutoCAD 2000
 90
    32768
280
     0
281
     0
  0
ENDSEC
  0
SECTION
  2
TABLES
  0
TABLE
  2
VPORT
  5
8
330
0
100
AcDbSymbolTable
 70
     3
  0
VPORT
  5
568D
330
8
100
AcDbSymbolTableRecord
100
AcDbViewportTableRecord
  2
*ACTIVE
 70
     0
 10
0.0
 20
0.0
 11
1.0
 21
1.0
 12
-1.348022441552046
 22
2.943374652931669
 13
0.0
 23
0.0
 14
1.0
 24
1.0
 15
0.0
 25
0.0
 16
0.0
 26
0.0
 36
1.0
 17
0.0
 27
0.0
 37
0.0
 40
4.553849351214335
 41
1.831013916500993
 42
50.0
 43
0.0
 44
0.0
 50
0.0
 51
0.0
 71
     0
 72
   100
 73
     1
 74
     1
 75
     0
 76
     0
 77
     0
 78
     0
  0
ENDTAB
  0
TABLE
  2
LTYPE
  5
5
330
0
100
AcDbSymbolTable
 70
    25
  0
LTYPE
  5
13
330
5
100
AcDbSymbolTableRecord
100
AcDbLinetypeTableRecord
  2
BYBLOCK
 70
     0
  3

 72
    65
 73
     0
 40
0.0
  0
LTYPE
  5
14
330
5
100
AcDbSymbolTableRecord
100
AcDbLinetypeTableRecord
  2
BYLAYER
 70
     0
  3

 72
    65
 73
     0
 40
0.0
  0
LTYPE
  5
15
330
5
100
AcDbSymbolTableRecord
100
AcDbLinetypeTableRecord
  2
CONTINUOUS
 70
     0
  3
Solid line
 72
    65
 73
     0
 40
0.0
  0
LTYPE
  5
22
330
5
100
AcDbSymbolTableRecord
100
AcDbLinetypeTableRecord
  2
BORDER
 70
     0
  3
__ __ . __ __ . __ __ . __ __ . __ __ . __ __ .
 72
    65
 73
     6
 40
1.75
 49
0.5
 74
     0
 49
-0.25
 74
     0
 49
0.5
 74
     0
 49
-0.25
 74
     0
 49
0.5
 74
     0
 49
-0.25
 74
     0
  0
LTYPE
  5
23
330
5
100
AcDbSymbolTableRecord
100
AcDbLinetypeTableRecord
  2
BORDER2
 70
     0
  3
__.__.__.__.__.__.__.__.__.__.__.__.__.__.__.__
 72
    65
 73
     6
 40
0.875
 49
0.25
 74
     0
 49
-0.125
 74
     0
 49
0.25
 74
     0
 49
-0.125
 74
     0
 49
0.25
 74
     0
 49
-0.125
 74
     0
  0
LTYPE
  5
24
330
5
100
AcDbSymbolTableRecord
100
AcDbLinetypeTableRecord
  2
BORDERX2
 70
     0
  3
____  ____  .  ____  ____  .  
 72
    65
 73
     6
 40
3.5
 49
1.0
 74
     0
 49
-0.5
 74
     0
 49
1.0
 74
     0
 49
-0.5
 74
     0
 49
1.0
 74
     0
 49
-0.5
 74
     0
  0
LTYPE
  5
25
330
5
100
AcDbSymbolTableRecord
100
AcDbLinetypeTableRecord
  2
CENTER
 70
     0
  3
____ _ ____ _ ____ _ ____ _ ____ _ ____ _ ____
 72
    65
 73
     4
 40
2.0
 49
1.25
 74
     0
 49
-0.25
 74
     0
 49
0.25
 74
     0
 49
-0.25
 74
     0
  0
LTYPE
  5
26
330
5
100
AcDbSymbolTableRecord
100
AcDbLinetypeTableRecord
  2
CENTER2
 70
     0
  3
____ _ ____ _ ____ _ ____ _ ____ _ ____ _ ____
 72
    65
 73
     4
 40
1.125
 49
0.75
 74
     0
 49
-0.125
 74
     0
 49
0.125
 74
     0
 49
-0.125
 74
     0
  0
LTYPE
  5
27
330
5
100
AcDbSymbolTableRecord
100
AcDbLinetypeTableRecord
  2
CENTERX2
 70
     0
  3
________  __  ________  __  ________  __  
 72
    65
 73
     4
 40
4.0
 49
2.5
 74
     0
 49
-0.5
 74
     0
 49
0.5
 74
     0
 49
-0.5
 74
     0
  0
LTYPE
  5
28
330
5
100
AcDbSymbolTableRecord
100
AcDbLinetypeTableRecord
  2
DASHDOT
 70
     0
  3
__ . __ . __ . __ . __ . __ . __ . 
 72
    65
 73
     4
 40
1.0
 49
0.5
 74
     0
 49
-0.25
 74
     0
 49
0.0
 74
     0
 49
-0.25
 74
     0
  0
LTYPE
  5
29
330
5
100
AcDbSymbolTableRecord
100
AcDbLinetypeTableRecord
  2
DASHDOT2
 70
     0
  3
_._._._._._._._._._._._._._._._.
 72
    65
 73
     4
 40
0.5
 49
0.25
 74
     0
 49
-0.125
 74
     0
 49
0.0
 74
     0
 49
-0.125
 74
     0
  0
LTYPE
  5
2A
330
5
100
AcDbSymbolTableRecord
100
AcDbLinetypeTableRecord
  2
DASHDOTX2
 70
     0
  3
____  .  ____  .  ____  .  ____  .  
 72
    65
 73
     4
 40
2.0
 49
1.0
 74
     0
 49
-0.5
 74
     0
 49
0.0
 74
     0
 49
-0.5
 74
     0
  0
LTYPE
  5
2B
330
5
100
AcDbSymbolTableRecord
100
AcDbLinetypeTableRecord
  2
DASHED
 70
     0
  3
__ __ __ __ __ __ __ __ __ __ __ __ 
 72
    65
 73
     2
 40
0.75
 49
0.5
 74
     0
 49
-0.25
 74
     0
  0
LTYPE
  5
2C
330
5
100
AcDbSymbolTableRecord
100
AcDbLinetypeTableRecord
  2
DASHED2
 70
     0
  3
_ _ _ _ _ _ _ _ _ _ _ _ _ _ _ _ _ _ 
 72
    65
 73
     2
 40
0.375
 49
0.25
 74
     0
 49
-0.125
 74
     0
  0
LTYPE
  5
2D
330
5
100
AcDbSymbolTableRecord
100
AcDbLinetypeTableRecord
  2
DASHEDX2
 70
     0
  3
____  ____  ____  ____  ____  ____  
 72
    65
 73
     2
 40
1.5
 49
1.0
 74
     0
 49
-0.5
 74
     0
  0
LTYPE
  5
2E
330
5
100
AcDbSymbolTableRecord
100
AcDbLinetypeTableRecord
  2
DIVIDE
 70
     0
  3
____ . . ____ . . ____ . . ____ . . 
 72
    65
 73
     6
 40
1.25
 49
0.5
 74
     0
 49
-0.25
 74
     0
 49
0.0
 74
     0
 49
-0.25
 74
     0
 49
0.0
 74
     0
 49
-0.25
 74
     0
  0
LTYPE
  5
2F
330
5
100
AcDbSymbolTableRecord
100
AcDbLinetypeTableRecord
  2
DIVIDE2
 70
     0
  3
__..__..__..__..__..__..__..__..__..
 72
    65
 73
     6
 40
0.625
 49
0.25
 74
     0
 49
-0.125
 74
     0
 49
0.0
 74
     0
 49
-0.125
 74
     0
 49
0.0
 74
     0
 49
-0.125
 74
     0
  0
LTYPE
  5
30
330
5
100
AcDbSymbolTableRecord
100
AcDbLinetypeTableRecord
  2
DIVIDEX2
 70
     0
  3
________  .  .  ________  .  .  ________  .  . 
 72
    65
 73
     6
 40
2.5
 49
1.0
 74
     0
 49
-0.5
 74
     0
 49
0.0
 74
     0
 49
-0.5
 74
     0
 49
0.0
 74
     0
 49
-0.5
 74
     0
  0
LTYPE
  5
31
330
5
100
AcDbSymbolTableRecord
100
AcDbLinetypeTableRecord
  2
DOT
 70
     0
  3
. . . . . . . . . . . . . . . . . . 
 72
    65
 73
     2
 40
0.25
 49
0.0
 74
     0
 49
-0.25
 74
     0
  0
LTYPE
  5
32
330
5
100
AcDbSymbolTableRecord
100
AcDbLinetypeTableRecord
  2
DOT2
 70
     0
  3
....................................
 72
    65
 73
     2
 40
0.125
 49
0.0
 74
     0
 49
-0.125
 74
     0
  0
LTYPE
  5
33
330
5
100
AcDbSymbolTableRecord
100
AcDbLinetypeTableRecord
  2
DOTX2
 70
     0
  3
.  .  .  .  .  .  .  .  .  .  .  .  .  
 72
    65
 73
     2
 40
0.5
 49
0.0
 74
     0
 49
-0.5
 74
     0
  0
LTYPE
  5
34
330
5
100
AcDbSymbolTableRecord
100
AcDbLinetypeTableRecord
  2
HIDDEN
 70
     0
  3
__ __ __ __ __ __ __ __ __ __ __ __ 
 72
    65
 73
     2
 40
0.375
 49
0.25
 74
     0
 49
-0.125
 74
     0
  0
LTYPE
  5
35
330
5
100
AcDbSymbolTableRecord
100
AcDbLinetypeTableRecord
  2
HIDDEN2
 70
     0
  3
_ _ _ _ _ _ _ _ _ _ _ _ _ _ _ _ _ _ 
 72
    65
 73
     2
 40
0.1875
 49
0.125
 74
     0
 49
-0.0625
 74
     0
  0
LTYPE
  5
36
330
5
100
AcDbSymbolTableRecord
100
AcDbLinetypeTableRecord
  2
HIDDENX2
 70
     0
  3
____ ____ ____ ____ ____ ____ ____ 
 72
    65
 73
     2
 40
0.75
 49
0.5
 74
     0
 49
-0.25
 74
     0
  0
LTYPE
  5
37
330
5
100
AcDbSymbolTableRecord
100
AcDbLinetypeTableRecord
  2
PHANTOM
 70
     0
  3
______  __  __  ______  __  __  
 72
    65
 73
     6
 40
2.5
 49
1.25
 74
     0
 49
-0.25
 74
     0
 49
0.25
 74
     0
 49
-0.25
 74
     0
 49
0.25
 74
     0
 49
-0.25
 74
     0
  0
LTYPE
  5
38
330
5
100
AcDbSymbolTableRecord
100
AcDbLinetypeTableRecord
  2
PHANTOM2
 70
     0
  3
___ _ _ ___ _ _ ___ _ _ ___ _ _ 
 72
    65
 73
     6
 40
1.25
 49
0.625
 74
     0
 49
-0.125
 74
     0
 49
0.125
 74
     0
 49
-0.125
 74
     0
 49
0.125
 74
     0
 49
-0.125
 74
     0
  0
LTYPE
  5
39
330
5
100
AcDbSymbolTableRecord
100
AcDbLinetypeTableRecord
  2
PHANTOMX2
 70
     0
  3
___ _ _ ___ _ _ ___ _ _ ___ _ _ 
 72
    65
 73
     6
 40
5.0
 49
2.5
 74
     0
 49
-0.5
 74
     0
 49
0.5
 74
     0
 49
-0.5
 74
     0
 49
0.5
 74
     0
 49
-0.5
 74
     0
  0
ENDTAB
  0
TABLE
  2
LAYER
  5
2
330
0
100
AcDbSymbolTable
 70
   257
  0
LAYER
  5
10
330
2
100
AcDbSymbolTableRecord
100
AcDbLayerTableRecord
  2
0
 70
     0
 62
     7
  6
CONTINUOUS
  0
LAYER
  5
3A
330
2
100
AcDbSymbolTableRecord
100
AcDbLayerTableRecord
  2
1
 70
     0
 62
     1
  6
CONTINUOUS
  0
LAYER
  5
3B
330
2
100
AcDbSymbolTableRecord
100
AcDbLayerTableRecord
  2
2
 70
     0
 62
     2
  6
CONTINUOUS
  0
LAYER
  5
3C
330
2
100
AcDbSymbolTableRecord
100
AcDbLayerTableRecord
  2
3
 70
     0
 62
     3
  6
CONTINUOUS
  0
LAYER
  5
3D
330
2
100
AcDbSymbolTableRecord
100
AcDbLayerTableRecord
  2
4
 70
     0
 62
     4
  6
CONTINUOUS
  0
LAYER
  5
3E
330
2
100
AcDbSymbolTableRecord
100
AcDbLayerTableRecord
  2
5
 70
     0
 62
     5
  6
CONTINUOUS
  0
LAYER
  5
3F
330
2
100
AcDbSymbolTableRecord
100
AcDbLayerTableRecord
  2
6
 70
     0
 62
     6
  6
CONTINUOUS
  0
LAYER
  5
40
330
2
100
AcDbSymbolTableRecord
100
AcDbLayerTableRecord
  2
7
 70
     0
 62
     7
  6
CONTINUOUS
  0
LAYER
  5
41
330
2
100
AcDbSymbolTableRecord
100
AcDbLayerTableRecord
  2
8
 70
     0
 62
     8
  6
CONTINUOUS
  0
LAYER
  5
42
330
2
100
AcDbSymbolTableRecord
100
AcDbLayerTableRecord
  2
9
 70
     0
 62
     9
  6
CONTINUOUS
  0
LAYER
  5
43
330
2
100
AcDbSymbolTableRecord
100
AcDbLayerTableRecord
  2
10
 70
     0
 62
    10
  6
CONTINUOUS
  0
LAYER
  5
44
330
2
100
AcDbSymbolTableRecord
100
AcDbLayerTableRecord
  2
11
 70
     0
 62
    11
  6
CONTINUOUS
  0
LAYER
  5
45
330
2
100
AcDbSymbolTableRecord
100
AcDbLayerTableRecord
  2
12
 70
     0
 62
    12
  6
CONTINUOUS
  0
LAYER
  5
46
330
2
100
AcDbSymbolTableRecord
100
AcDbLayerTableRecord
  2
13
 70
     0
 62
    13
  6
CONTINUOUS
  0
LAYER
  5
47
330
2
100
AcDbSymbolTableRecord
100
AcDbLayerTableRecord
  2
14
 70
     0
 62
    14
  6
CONTINUOUS
  0
LAYER
  5
48
330
2
100
AcDbSymbolTableRecord
100
AcDbLayerTableRecord
  2
15
 70
     0
 62
    15
  6
CONTINUOUS
  0
LAYER
  5
49
330
2
100
AcDbSymbolTableRecord
100
AcDbLayerTableRecord
  2
16
 70
     0
 62
    16
  6
CONTINUOUS
  0
LAYER
  5
4A
330
2
100
AcDbSymbolTableRecord
100
AcDbLayerTableRecord
  2
17
 70
     0
 62
    17
  6
CONTINUOUS
  0
LAYER
  5
4B
330
2
100
AcDbSymbolTableRecord
100
AcDbLayerTableRecord
  2
18
 70
     0
 62
    18
  6
CONTINUOUS
  0
LAYER
  5
4C
330
2
100
AcDbSymbolTableRecord
100
AcDbLayerTableRecord
  2
19
 70
     0
 62
    19
  6
CONTINUOUS
  0
LAYER
  5
4D
330
2
100
AcDbSymbolTableRecord
100
AcDbLayerTableRecord
  2
20
 70
     0
 62
    20
  6
CONTINUOUS
  0
LAYER
  5
4E
330
2
100
AcDbSymbolTableRecord
100
AcDbLayerTableRecord
  2
21
 70
     0
 62
    21
  6
CONTINUOUS
  0
LAYER
  5
4F
330
2
100
AcDbSymbolTableRecord
100
AcDbLayerTableRecord
  2
22
 70
     0
 62
    22
  6
CONTINUOUS
  0
LAYER
  5
50
330
2
100
AcDbSymbolTableRecord
100
AcDbLayerTableRecord
  2
23
 70
     0
 62
    23
  6
CONTINUOUS
  0
LAYER
  5
51
330
2
100
AcDbSymbolTableRecord
100
AcDbLayerTableRecord
  2
24
 70
     0
 62
    24
  6
CONTINUOUS
  0
LAYER
  5
52
330
2
100
AcDbSymbolTableRecord
100
AcDbLayerTableRecord
  2
25
 70
     0
 62
    25
  6
CONTINUOUS
  0
LAYER
  5
53
330
2
100
AcDbSymbolTableRecord
100
AcDbLayerTableRecord
  2
26
 70
     0
 62
    26
  6
CONTINUOUS
  0
LAYER
  5
54
330
2
100
AcDbSymbolTableRecord
100
AcDbLayerTableRecord
  2
27
 70
     0
 62
    27
  6
CONTINUOUS
  0
LAYER
  5
55
330
2
100
AcDbSymbolTableRecord
100
AcDbLayerTableRecord
  2
28
 70
     0
 62
    28
  6
CONTINUOUS
  0
LAYER
  5
56
330
2
100
AcDbSymbolTableRecord
100
AcDbLayerTableRecord
  2
29
 70
     0
 62
    29
  6
CONTINUOUS
  0
LAYER
  5
57
330
2
100
AcDbSymbolTableRecord
100
AcDbLayerTableRecord
  2
30
 70
     0
 62
    30
  6
CONTINUOUS
  0
LAYER
  5
58
330
2
100
AcDbSymbolTableRecord
100
AcDbLayerTableRecord
  2
31
 70
     0
 62
    31
  6
CONTINUOUS
  0
LAYER
  5
59
330
2
100
AcDbSymbolTableRecord
100
AcDbLayerTableRecord
  2
32
 70
     0
 62
    32
  6
CONTINUOUS
  0
LAYER
  5
5A
330
2
100
AcDbSymbolTableRecord
100
AcDbLayerTableRecord
  2
33
 70
     0
 62
    33
  6
CONTINUOUS
  0
LAYER
  5
5B
330
2
100
AcDbSymbolTableRecord
100
AcDbLayerTableRecord
  2
34
 70
     0
 62
    34
  6
CONTINUOUS
  0
LAYER
  5
5C
330
2
100
AcDbSymbolTableRecord
100
AcDbLayerTableRecord
  2
35
 70
     0
 62
    35
  6
CONTINUOUS
  0
LAYER
  5
5D
330
2
100
AcDbSymbolTableRecord
100
AcDbLayerTableRecord
  2
36
 70
     0
 62
    36
  6
CONTINUOUS
  0
LAYER
  5
5E
330
2
100
AcDbSymbolTableRecord
100
AcDbLayerTableRecord
  2
37
 70
     0
 62
    37
  6
CONTINUOUS
  0
LAYER
  5
5F
330
2
100
AcDbSymbolTableRecord
100
AcDbLayerTableRecord
  2
38
 70
     0
 62
    38
  6
CONTINUOUS
  0
LAYER
  5
60
330
2
100
AcDbSymbolTableRecord
100
AcDbLayerTableRecord
  2
39
 70
     0
 62
    39
  6
CONTINUOUS
  0
LAYER
  5
61
330
2
100
AcDbSymbolTableRecord
100
AcDbLayerTableRecord
  2
40
 70
     0
 62
    40
  6
CONTINUOUS
  0
LAYER
  5
62
330
2
100
AcDbSymbolTableRecord
100
AcDbLayerTableRecord
  2
41
 70
     0
 62
    41
  6
CONTINUOUS
  0
LAYER
  5
63
330
2
100
AcDbSymbolTableRecord
100
AcDbLayerTableRecord
  2
42
 70
     0
 62
    42
  6
CONTINUOUS
  0
LAYER
  5
64
330
2
100
AcDbSymbolTableRecord
100
AcDbLayerTableRecord
  2
43
 70
     0
 62
    43
  6
CONTINUOUS
  0
LAYER
  5
65
330
2
100
AcDbSymbolTableRecord
100
AcDbLayerTableRecord
  2
44
 70
     0
 62
    44
  6
CONTINUOUS
  0
LAYER
  5
66
330
2
100
AcDbSymbolTableRecord
100
AcDbLayerTableRecord
  2
45
 70
     0
 62
    45
  6
CONTINUOUS
  0
LAYER
  5
67
330
2
100
AcDbSymbolTableRecord
100
AcDbLayerTableRecord
  2
46
 70
     0
 62
    46
  6
CONTINUOUS
  0
LAYER
  5
68
330
2
100
AcDbSymbolTableRecord
100
AcDbLayerTableRecord
  2
47
 70
     0
 62
    47
  6
CONTINUOUS
  0
LAYER
  5
69
330
2
100
AcDbSymbolTableRecord
100
AcDbLayerTableRecord
  2
48
 70
     0
 62
    48
  6
CONTINUOUS
  0
LAYER
  5
6A
330
2
100
AcDbSymbolTableRecord
100
AcDbLayerTableRecord
  2
49
 70
     0
 62
    49
  6
CONTINUOUS
  0
LAYER
  5
6B
330
2
100
AcDbSymbolTableRecord
100
AcDbLayerTableRecord
  2
50
 70
     0
 62
    50
  6
CONTINUOUS
  0
LAYER
  5
6C
330
2
100
AcDbSymbolTableRecord
100
AcDbLayerTableRecord
  2
51
 70
     0
 62
    51
  6
CONTINUOUS
  0
LAYER
  5
6D
330
2
100
AcDbSymbolTableRecord
100
AcDbLayerTableRecord
  2
52
 70
     0
 62
    52
  6
CONTINUOUS
  0
LAYER
  5
6E
330
2
100
AcDbSymbolTableRecord
100
AcDbLayerTableRecord
  2
53
 70
     0
 62
    53
  6
CONTINUOUS
  0
LAYER
  5
6F
330
2
100
AcDbSymbolTableRecord
100
AcDbLayerTableRecord
  2
54
 70
     0
 62
    54
  6
CONTINUOUS
  0
LAYER
  5
70
330
2
100
AcDbSymbolTableRecord
100
AcDbLayerTableRecord
  2
55
 70
     0
 62
    55
  6
CONTINUOUS
  0
LAYER
  5
71
330
2
100
AcDbSymbolTableRecord
100
AcDbLayerTableRecord
  2
56
 70
     0
 62
    56
  6
CONTINUOUS
  0
LAYER
  5
72
330
2
100
AcDbSymbolTableRecord
100
AcDbLayerTableRecord
  2
57
 70
     0
 62
    57
  6
CONTINUOUS
  0
LAYER
  5
73
330
2
100
AcDbSymbolTableRecord
100
AcDbLayerTableRecord
  2
58
 70
     0
 62
    58
  6
CONTINUOUS
  0
LAYER
  5
74
330
2
100
AcDbSymbolTableRecord
100
AcDbLayerTableRecord
  2
59
 70
     0
 62
    59
  6
CONTINUOUS
  0
LAYER
  5
75
330
2
100
AcDbSymbolTableRecord
100
AcDbLayerTableRecord
  2
60
 70
     0
 62
    60
  6
CONTINUOUS
  0
LAYER
  5
76
330
2
100
AcDbSymbolTableRecord
100
AcDbLayerTableRecord
  2
61
 70
     0
 62
    61
  6
CONTINUOUS
  0
LAYER
  5
77
330
2
100
AcDbSymbolTableRecord
100
AcDbLayerTableRecord
  2
62
 70
     0
 62
    62
  6
CONTINUOUS
  0
LAYER
  5
78
330
2
100
AcDbSymbolTableRecord
100
AcDbLayerTableRecord
  2
63
 70
     0
 62
    63
  6
CONTINUOUS
  0
LAYER
  5
79
330
2
100
AcDbSymbolTableRecord
100
AcDbLayerTableRecord
  2
64
 70
     0
 62
    64
  6
CONTINUOUS
  0
LAYER
  5
7A
330
2
100
AcDbSymbolTableRecord
100
AcDbLayerTableRecord
  2
65
 70
     0
 62
    65
  6
CONTINUOUS
  0
LAYER
  5
7B
330
2
100
AcDbSymbolTableRecord
100
AcDbLayerTableRecord
  2
66
 70
     0
 62
    66
  6
CONTINUOUS
  0
LAYER
  5
7C
330
2
100
AcDbSymbolTableRecord
100
AcDbLayerTableRecord
  2
67
 70
     0
 62
    67
  6
CONTINUOUS
  0
LAYER
  5
7D
330
2
100
AcDbSymbolTableRecord
100
AcDbLayerTableRecord
  2
68
 70
     0
 62
    68
  6
CONTINUOUS
  0
LAYER
  5
7E
330
2
100
AcDbSymbolTableRecord
100
AcDbLayerTableRecord
  2
69
 70
     0
 62
    69
  6
CONTINUOUS
  0
LAYER
  5
7F
330
2
100
AcDbSymbolTableRecord
100
AcDbLayerTableRecord
  2
70
 70
     0
 62
    70
  6
CONTINUOUS
  0
LAYER
  5
80
330
2
100
AcDbSymbolTableRecord
100
AcDbLayerTableRecord
  2
71
 70
     0
 62
    71
  6
CONTINUOUS
  0
LAYER
  5
81
330
2
100
AcDbSymbolTableRecord
100
AcDbLayerTableRecord
  2
72
 70
     0
 62
    72
  6
CONTINUOUS
  0
LAYER
  5
82
330
2
100
AcDbSymbolTableRecord
100
AcDbLayerTableRecord
  2
73
 70
     0
 62
    73
  6
CONTINUOUS
  0
LAYER
  5
83
330
2
100
AcDbSymbolTableRecord
100
AcDbLayerTableRecord
  2
74
 70
     0
 62
    74
  6
CONTINUOUS
  0
LAYER
  5
84
330
2
100
AcDbSymbolTableRecord
100
AcDbLayerTableRecord
  2
75
 70
     0
 62
    75
  6
CONTINUOUS
  0
LAYER
  5
85
330
2
100
AcDbSymbolTableRecord
100
AcDbLayerTableRecord
  2
76
 70
     0
 62
    76
  6
CONTINUOUS
  0
LAYER
  5
86
330
2
100
AcDbSymbolTableRecord
100
AcDbLayerTableRecord
  2
77
 70
     0
 62
    77
  6
CONTINUOUS
  0
LAYER
  5
87
330
2
100
AcDbSymbolTableRecord
100
AcDbLayerTableRecord
  2
78
 70
     0
 62
    78
  6
CONTINUOUS
  0
LAYER
  5
88
330
2
100
AcDbSymbolTableRecord
100
AcDbLayerTableRecord
  2
79
 70
     0
 62
    79
  6
CONTINUOUS
  0
LAYER
  5
89
330
2
100
AcDbSymbolTableRecord
100
AcDbLayerTableRecord
  2
80
 70
     0
 62
    80
  6
CONTINUOUS
  0
LAYER
  5
8A
330
2
100
AcDbSymbolTableRecord
100
AcDbLayerTableRecord
  2
81
 70
     0
 62
    81
  6
CONTINUOUS
  0
LAYER
  5
8B
330
2
100
AcDbSymbolTableRecord
100
AcDbLayerTableRecord
  2
82
 70
     0
 62
    82
  6
CONTINUOUS
  0
LAYER
  5
8C
330
2
100
AcDbSymbolTableRecord
100
AcDbLayerTableRecord
  2
83
 70
     0
 62
    83
  6
CONTINUOUS
  0
LAYER
  5
8D
330
2
100
AcDbSymbolTableRecord
100
AcDbLayerTableRecord
  2
84
 70
     0
 62
    84
  6
CONTINUOUS
  0
LAYER
  5
8E
330
2
100
AcDbSymbolTableRecord
100
AcDbLayerTableRecord
  2
85
 70
     0
 62
    85
  6
CONTINUOUS
  0
LAYER
  5
8F
330
2
100
AcDbSymbolTableRecord
100
AcDbLayerTableRecord
  2
86
 70
     0
 62
    86
  6
CONTINUOUS
  0
LAYER
  5
90
330
2
100
AcDbSymbolTableRecord
100
AcDbLayerTableRecord
  2
87
 70
     0
 62
    87
  6
CONTINUOUS
  0
LAYER
  5
91
330
2
100
AcDbSymbolTableRecord
100
AcDbLayerTableRecord
  2
88
 70
     0
 62
    88
  6
CONTINUOUS
  0
LAYER
  5
92
330
2
100
AcDbSymbolTableRecord
100
AcDbLayerTableRecord
  2
89
 70
     0
 62
    89
  6
CONTINUOUS
  0
LAYER
  5
93
330
2
100
AcDbSymbolTableRecord
100
AcDbLayerTableRecord
  2
90
 70
     0
 62
    90
  6
CONTINUOUS
  0
LAYER
  5
94
330
2
100
AcDbSymbolTableRecord
100
AcDbLayerTableRecord
  2
91
 70
     0
 62
    91
  6
CONTINUOUS
  0
LAYER
  5
95
330
2
100
AcDbSymbolTableRecord
100
AcDbLayerTableRecord
  2
92
 70
     0
 62
    92
  6
CONTINUOUS
  0
LAYER
  5
96
330
2
100
AcDbSymbolTableRecord
100
AcDbLayerTableRecord
  2
93
 70
     0
 62
    93
  6
CONTINUOUS
  0
LAYER
  5
97
330
2
100
AcDbSymbolTableRecord
100
AcDbLayerTableRecord
  2
94
 70
     0
 62
    94
  6
CONTINUOUS
  0
LAYER
  5
98
330
2
100
AcDbSymbolTableRecord
100
AcDbLayerTableRecord
  2
95
 70
     0
 62
    95
  6
CONTINUOUS
  0
LAYER
  5
99
330
2
100
AcDbSymbolTableRecord
100
AcDbLayerTableRecord
  2
96
 70
     0
 62
    96
  6
CONTINUOUS
  0
LAYER
  5
9A
330
2
100
AcDbSymbolTableRecord
100
AcDbLayerTableRecord
  2
97
 70
     0
 62
    97
  6
CONTINUOUS
  0
LAYER
  5
9B
330
2
100
AcDbSymbolTableRecord
100
AcDbLayerTableRecord
  2
98
 70
     0
 62
    98
  6
CONTINUOUS
  0
LAYER
  5
9C
330
2
100
AcDbSymbolTableRecord
100
AcDbLayerTableRecord
  2
99
 70
     0
 62
    99
  6
CONTINUOUS
  0
LAYER
  5
9D
330
2
100
AcDbSymbolTableRecord
100
AcDbLayerTableRecord
  2
100
 70
     0
 62
   100
  6
CONTINUOUS
  0
LAYER
  5
9E
330
2
100
AcDbSymbolTableRecord
100
AcDbLayerTableRecord
  2
101
 70
     0
 62
   101
  6
CONTINUOUS
  0
LAYER
  5
9F
330
2
100
AcDbSymbolTableRecord
100
AcDbLayerTableRecord
  2
102
 70
     0
 62
   102
  6
CONTINUOUS
  0
LAYER
  5
A0
330
2
100
AcDbSymbolTableRecord
100
AcDbLayerTableRecord
  2
103
 70
     0
 62
   103
  6
CONTINUOUS
  0
LAYER
  5
A1
330
2
100
AcDbSymbolTableRecord
100
AcDbLayerTableRecord
  2
104
 70
     0
 62
   104
  6
CONTINUOUS
  0
LAYER
  5
A2
330
2
100
AcDbSymbolTableRecord
100
AcDbLayerTableRecord
  2
105
 70
     0
 62
   105
  6
CONTINUOUS
  0
LAYER
  5
A3
330
2
100
AcDbSymbolTableRecord
100
AcDbLayerTableRecord
  2
106
 70
     0
 62
   106
  6
CONTINUOUS
  0
LAYER
  5
A4
330
2
100
AcDbSymbolTableRecord
100
AcDbLayerTableRecord
  2
107
 70
     0
 62
   107
  6
CONTINUOUS
  0
LAYER
  5
A5
330
2
100
AcDbSymbolTableRecord
100
AcDbLayerTableRecord
  2
108
 70
     0
 62
   108
  6
CONTINUOUS
  0
LAYER
  5
A6
330
2
100
AcDbSymbolTableRecord
100
AcDbLayerTableRecord
  2
109
 70
     0
 62
   109
  6
CONTINUOUS
  0
LAYER
  5
A7
330
2
100
AcDbSymbolTableRecord
100
AcDbLayerTableRecord
  2
110
 70
     0
 62
   110
  6
CONTINUOUS
  0
LAYER
  5
A8
330
2
100
AcDbSymbolTableRecord
100
AcDbLayerTableRecord
  2
111
 70
     0
 62
   111
  6
CONTINUOUS
  0
LAYER
  5
A9
330
2
100
AcDbSymbolTableRecord
100
AcDbLayerTableRecord
  2
112
 70
     0
 62
   112
  6
CONTINUOUS
  0
LAYER
  5
AA
330
2
100
AcDbSymbolTableRecord
100
AcDbLayerTableRecord
  2
113
 70
     0
 62
   113
  6
CONTINUOUS
  0
LAYER
  5
AB
330
2
100
AcDbSymbolTableRecord
100
AcDbLayerTableRecord
  2
114
 70
     0
 62
   114
  6
CONTINUOUS
  0
LAYER
  5
AC
330
2
100
AcDbSymbolTableRecord
100
AcDbLayerTableRecord
  2
115
 70
     0
 62
   115
  6
CONTINUOUS
  0
LAYER
  5
AD
330
2
100
AcDbSymbolTableRecord
100
AcDbLayerTableRecord
  2
116
 70
     0
 62
   116
  6
CONTINUOUS
  0
LAYER
  5
AE
330
2
100
AcDbSymbolTableRecord
100
AcDbLayerTableRecord
  2
117
 70
     0
 62
   117
  6
CONTINUOUS
  0
LAYER
  5
AF
330
2
100
AcDbSymbolTableRecord
100
AcDbLayerTableRecord
  2
118
 70
     0
 62
   118
  6
CONTINUOUS
  0
LAYER
  5
B0
330
2
100
AcDbSymbolTableRecord
100
AcDbLayerTableRecord
  2
119
 70
     0
 62
   119
  6
CONTINUOUS
  0
LAYER
  5
B1
330
2
100
AcDbSymbolTableRecord
100
AcDbLayerTableRecord
  2
120
 70
     0
 62
   120
  6
CONTINUOUS
  0
LAYER
  5
B2
330
2
100
AcDbSymbolTableRecord
100
AcDbLayerTableRecord
  2
121
 70
     0
 62
   121
  6
CONTINUOUS
  0
LAYER
  5
B3
330
2
100
AcDbSymbolTableRecord
100
AcDbLayerTableRecord
  2
122
 70
     0
 62
   122
  6
CONTINUOUS
  0
LAYER
  5
B4
330
2
100
AcDbSymbolTableRecord
100
AcDbLayerTableRecord
  2
123
 70
     0
 62
   123
  6
CONTINUOUS
  0
LAYER
  5
B5
330
2
100
AcDbSymbolTableRecord
100
AcDbLayerTableRecord
  2
124
 70
     0
 62
   124
  6
CONTINUOUS
  0
LAYER
  5
B6
330
2
100
AcDbSymbolTableRecord
100
AcDbLayerTableRecord
  2
125
 70
     0
 62
   125
  6
CONTINUOUS
  0
LAYER
  5
B7
330
2
100
AcDbSymbolTableRecord
100
AcDbLayerTableRecord
  2
126
 70
     0
 62
   126
  6
CONTINUOUS
  0
LAYER
  5
B8
330
2
100
AcDbSymbolTableRecord
100
AcDbLayerTableRecord
  2
127
 70
     0
 62
   127
  6
CONTINUOUS
  0
LAYER
  5
B9
330
2
100
AcDbSymbolTableRecord
100
AcDbLayerTableRecord
  2
128
 70
     0
 62
   128
  6
CONTINUOUS
  0
LAYER
  5
BA
330
2
100
AcDbSymbolTableRecord
100
AcDbLayerTableRecord
  2
129
 70
     0
 62
   129
  6
CONTINUOUS
  0
LAYER
  5
BB
330
2
100
AcDbSymbolTableRecord
100
AcDbLayerTableRecord
  2
130
 70
     0
 62
   130
  6
CONTINUOUS
  0
LAYER
  5
BC
330
2
100
AcDbSymbolTableRecord
100
AcDbLayerTableRecord
  2
131
 70
     0
 62
   131
  6
CONTINUOUS
  0
LAYER
  5
BD
330
2
100
AcDbSymbolTableRecord
100
AcDbLayerTableRecord
  2
132
 70
     0
 62
   132
  6
CONTINUOUS
  0
LAYER
  5
BE
330
2
100
AcDbSymbolTableRecord
100
AcDbLayerTableRecord
  2
133
 70
     0
 62
   133
  6
CONTINUOUS
  0
LAYER
  5
BF
330
2
100
AcDbSymbolTableRecord
100
AcDbLayerTableRecord
  2
134
 70
     0
 62
   134
  6
CONTINUOUS
  0
LAYER
  5
C0
330
2
100
AcDbSymbolTableRecord
100
AcDbLayerTableRecord
  2
135
 70
     0
 62
   135
  6
CONTINUOUS
  0
LAYER
  5
C1
330
2
100
AcDbSymbolTableRecord
100
AcDbLayerTableRecord
  2
136
 70
     0
 62
   136
  6
CONTINUOUS
  0
LAYER
  5
C2
330
2
100
AcDbSymbolTableRecord
100
AcDbLayerTableRecord
  2
137
 70
     0
 62
   137
  6
CONTINUOUS
  0
LAYER
  5
C3
330
2
100
AcDbSymbolTableRecord
100
AcDbLayerTableRecord
  2
138
 70
     0
 62
   138
  6
CONTINUOUS
  0
LAYER
  5
C4
330
2
100
AcDbSymbolTableRecord
100
AcDbLayerTableRecord
  2
139
 70
     0
 62
   139
  6
CONTINUOUS
  0
LAYER
  5
C5
330
2
100
AcDbSymbolTableRecord
100
AcDbLayerTableRecord
  2
140
 70
     0
 62
   140
  6
CONTINUOUS
  0
LAYER
  5
C6
330
2
100
AcDbSymbolTableRecord
100
AcDbLayerTableRecord
  2
141
 70
     0
 62
   141
  6
CONTINUOUS
  0
LAYER
  5
C7
330
2
100
AcDbSymbolTableRecord
100
AcDbLayerTableRecord
  2
142
 70
     0
 62
   142
  6
CONTINUOUS
  0
LAYER
  5
C8
330
2
100
AcDbSymbolTableRecord
100
AcDbLayerTableRecord
  2
143
 70
     0
 62
   143
  6
CONTINUOUS
  0
LAYER
  5
C9
330
2
100
AcDbSymbolTableRecord
100
AcDbLayerTableRecord
  2
144
 70
     0
 62
   144
  6
CONTINUOUS
  0
LAYER
  5
CA
330
2
100
AcDbSymbolTableRecord
100
AcDbLayerTableRecord
  2
145
 70
     0
 62
   145
  6
CONTINUOUS
  0
LAYER
  5
CB
330
2
100
AcDbSymbolTableRecord
100
AcDbLayerTableRecord
  2
146
 70
     0
 62
   146
  6
CONTINUOUS
  0
LAYER
  5
CC
330
2
100
AcDbSymbolTableRecord
100
AcDbLayerTableRecord
  2
147
 70
     0
 62
   147
  6
CONTINUOUS
  0
LAYER
  5
CD
330
2
100
AcDbSymbolTableRecord
100
AcDbLayerTableRecord
  2
148
 70
     0
 62
   148
  6
CONTINUOUS
  0
LAYER
  5
CE
330
2
100
AcDbSymbolTableRecord
100
AcDbLayerTableRecord
  2
149
 70
     0
 62
   149
  6
CONTINUOUS
  0
LAYER
  5
CF
330
2
100
AcDbSymbolTableRecord
100
AcDbLayerTableRecord
  2
150
 70
     0
 62
   150
  6
CONTINUOUS
  0
LAYER
  5
D0
330
2
100
AcDbSymbolTableRecord
100
AcDbLayerTableRecord
  2
151
 70
     0
 62
   151
  6
CONTINUOUS
  0
LAYER
  5
D1
330
2
100
AcDbSymbolTableRecord
100
AcDbLayerTableRecord
  2
152
 70
     0
 62
   152
  6
CONTINUOUS
  0
LAYER
  5
D2
330
2
100
AcDbSymbolTableRecord
100
AcDbLayerTableRecord
  2
153
 70
     0
 62
   153
  6
CONTINUOUS
  0
LAYER
  5
D3
330
2
100
AcDbSymbolTableRecord
100
AcDbLayerTableRecord
  2
154
 70
     0
 62
   154
  6
CONTINUOUS
  0
LAYER
  5
D4
330
2
100
AcDbSymbolTableRecord
100
AcDbLayerTableRecord
  2
155
 70
     0
 62
   155
  6
CONTINUOUS
  0
LAYER
  5
D5
330
2
100
AcDbSymbolTableRecord
100
AcDbLayerTableRecord
  2
156
 70
     0
 62
   156
  6
CONTINUOUS
  0
LAYER
  5
D6
330
2
100
AcDbSymbolTableRecord
100
AcDbLayerTableRecord
  2
157
 70
     0
 62
   157
  6
CONTINUOUS
  0
LAYER
  5
D7
330
2
100
AcDbSymbolTableRecord
100
AcDbLayerTableRecord
  2
158
 70
     0
 62
   158
  6
CONTINUOUS
  0
LAYER
  5
D8
330
2
100
AcDbSymbolTableRecord
100
AcDbLayerTableRecord
  2
159
 70
     0
 62
   159
  6
CONTINUOUS
  0
LAYER
  5
D9
330
2
100
AcDbSymbolTableRecord
100
AcDbLayerTableRecord
  2
160
 70
     0
 62
   160
  6
CONTINUOUS
  0
LAYER
  5
DA
330
2
100
AcDbSymbolTableRecord
100
AcDbLayerTableRecord
  2
161
 70
     0
 62
   161
  6
CONTINUOUS
  0
LAYER
  5
DB
330
2
100
AcDbSymbolTableRecord
100
AcDbLayerTableRecord
  2
162
 70
     0
 62
   162
  6
CONTINUOUS
  0
LAYER
  5
DC
330
2
100
AcDbSymbolTableRecord
100
AcDbLayerTableRecord
  2
163
 70
     0
 62
   163
  6
CONTINUOUS
  0
LAYER
  5
DD
330
2
100
AcDbSymbolTableRecord
100
AcDbLayerTableRecord
  2
164
 70
     0
 62
   164
  6
CONTINUOUS
  0
LAYER
  5
DE
330
2
100
AcDbSymbolTableRecord
100
AcDbLayerTableRecord
  2
165
 70
     0
 62
   165
  6
CONTINUOUS
  0
LAYER
  5
DF
330
2
100
AcDbSymbolTableRecord
100
AcDbLayerTableRecord
  2
166
 70
     0
 62
   166
  6
CONTINUOUS
  0
LAYER
  5
E0
330
2
100
AcDbSymbolTableRecord
100
AcDbLayerTableRecord
  2
167
 70
     0
 62
   167
  6
CONTINUOUS
  0
LAYER
  5
E1
330
2
100
AcDbSymbolTableRecord
100
AcDbLayerTableRecord
  2
168
 70
     0
 62
   168
  6
CONTINUOUS
  0
LAYER
  5
E2
330
2
100
AcDbSymbolTableRecord
100
AcDbLayerTableRecord
  2
169
 70
     0
 62
   169
  6
CONTINUOUS
  0
LAYER
  5
E3
330
2
100
AcDbSymbolTableRecord
100
AcDbLayerTableRecord
  2
170
 70
     0
 62
   170
  6
CONTINUOUS
  0
LAYER
  5
E4
330
2
100
AcDbSymbolTableRecord
100
AcDbLayerTableRecord
  2
171
 70
     0
 62
   171
  6
CONTINUOUS
  0
LAYER
  5
E5
330
2
100
AcDbSymbolTableRecord
100
AcDbLayerTableRecord
  2
172
 70
     0
 62
   172
  6
CONTINUOUS
  0
LAYER
  5
E6
330
2
100
AcDbSymbolTableRecord
100
AcDbLayerTableRecord
  2
173
 70
     0
 62
   173
  6
CONTINUOUS
  0
LAYER
  5
E7
330
2
100
AcDbSymbolTableRecord
100
AcDbLayerTableRecord
  2
174
 70
     0
 62
   174
  6
CONTINUOUS
  0
LAYER
  5
E8
330
2
100
AcDbSymbolTableRecord
100
AcDbLayerTableRecord
  2
175
 70
     0
 62
   175
  6
CONTINUOUS
  0
LAYER
  5
E9
330
2
100
AcDbSymbolTableRecord
100
AcDbLayerTableRecord
  2
176
 70
     0
 62
   176
  6
CONTINUOUS
  0
LAYER
  5
EA
330
2
100
AcDbSymbolTableRecord
100
AcDbLayerTableRecord
  2
177
 70
     0
 62
   177
  6
CONTINUOUS
  0
LAYER
  5
EB
330
2
100
AcDbSymbolTableRecord
100
AcDbLayerTableRecord
  2
178
 70
     0
 62
   178
  6
CONTINUOUS
  0
LAYER
  5
EC
330
2
100
AcDbSymbolTableRecord
100
AcDbLayerTableRecord
  2
179
 70
     0
 62
   179
  6
CONTINUOUS
  0
LAYER
  5
ED
330
2
100
AcDbSymbolTableRecord
100
AcDbLayerTableRecord
  2
180
 70
     0
 62
   180
  6
CONTINUOUS
  0
LAYER
  5
EE
330
2
100
AcDbSymbolTableRecord
100
AcDbLayerTableRecord
  2
181
 70
     0
 62
   181
  6
CONTINUOUS
  0
LAYER
  5
EF
330
2
100
AcDbSymbolTableRecord
100
AcDbLayerTableRecord
  2
182
 70
     0
 62
   182
  6
CONTINUOUS
  0
LAYER
  5
F0
330
2
100
AcDbSymbolTableRecord
100
AcDbLayerTableRecord
  2
183
 70
     0
 62
   183
  6
CONTINUOUS
  0
LAYER
  5
F1
330
2
100
AcDbSymbolTableRecord
100
AcDbLayerTableRecord
  2
184
 70
     0
 62
   184
  6
CONTINUOUS
  0
LAYER
  5
F2
330
2
100
AcDbSymbolTableRecord
100
AcDbLayerTableRecord
  2
185
 70
     0
 62
   185
  6
CONTINUOUS
  0
LAYER
  5
F3
330
2
100
AcDbSymbolTableRecord
100
AcDbLayerTableRecord
  2
186
 70
     0
 62
   186
  6
CONTINUOUS
  0
LAYER
  5
F4
330
2
100
AcDbSymbolTableRecord
100
AcDbLayerTableRecord
  2
187
 70
     0
 62
   187
  6
CONTINUOUS
  0
LAYER
  5
F5
330
2
100
AcDbSymbolTableRecord
100
AcDbLayerTableRecord
  2
188
 70
     0
 62
   188
  6
CONTINUOUS
  0
LAYER
  5
F6
330
2
100
AcDbSymbolTableRecord
100
AcDbLayerTableRecord
  2
189
 70
     0
 62
   189
  6
CONTINUOUS
  0
LAYER
  5
F7
330
2
100
AcDbSymbolTableRecord
100
AcDbLayerTableRecord
  2
190
 70
     0
 62
   190
  6
CONTINUOUS
  0
LAYER
  5
F8
330
2
100
AcDbSymbolTableRecord
100
AcDbLayerTableRecord
  2
191
 70
     0
 62
   191
  6
CONTINUOUS
  0
LAYER
  5
F9
330
2
100
AcDbSymbolTableRecord
100
AcDbLayerTableRecord
  2
192
 70
     0
 62
   192
  6
CONTINUOUS
  0
LAYER
  5
FA
330
2
100
AcDbSymbolTableRecord
100
AcDbLayerTableRecord
  2
193
 70
     0
 62
   193
  6
CONTINUOUS
  0
LAYER
  5
FB
330
2
100
AcDbSymbolTableRecord
100
AcDbLayerTableRecord
  2
194
 70
     0
 62
   194
  6
CONTINUOUS
  0
LAYER
  5
FC
330
2
100
AcDbSymbolTableRecord
100
AcDbLayerTableRecord
  2
195
 70
     0
 62
   195
  6
CONTINUOUS
  0
LAYER
  5
FD
330
2
100
AcDbSymbolTableRecord
100
AcDbLayerTableRecord
  2
196
 70
     0
 62
   196
  6
CONTINUOUS
  0
LAYER
  5
FE
330
2
100
AcDbSymbolTableRecord
100
AcDbLayerTableRecord
  2
197
 70
     0
 62
   197
  6
CONTINUOUS
  0
LAYER
  5
FF
330
2
100
AcDbSymbolTableRecord
100
AcDbLayerTableRecord
  2
198
 70
     0
 62
   198
  6
CONTINUOUS
  0
LAYER
  5
100
330
2
100
AcDbSymbolTableRecord
100
AcDbLayerTableRecord
  2
199
 70
     0
 62
   199
  6
CONTINUOUS
  0
LAYER
  5
101
330
2
100
AcDbSymbolTableRecord
100
AcDbLayerTableRecord
  2
200
 70
     0
 62
   200
  6
CONTINUOUS
  0
LAYER
  5
102
330
2
100
AcDbSymbolTableRecord
100
AcDbLayerTableRecord
  2
201
 70
     0
 62
   201
  6
CONTINUOUS
  0
LAYER
  5
103
330
2
100
AcDbSymbolTableRecord
100
AcDbLayerTableRecord
  2
202
 70
     0
 62
   202
  6
CONTINUOUS
  0
LAYER
  5
104
330
2
100
AcDbSymbolTableRecord
100
AcDbLayerTableRecord
  2
203
 70
     0
 62
   203
  6
CONTINUOUS
  0
LAYER
  5
105
330
2
100
AcDbSymbolTableRecord
100
AcDbLayerTableRecord
  2
204
 70
     0
 62
   204
  6
CONTINUOUS
  0
LAYER
  5
106
330
2
100
AcDbSymbolTableRecord
100
AcDbLayerTableRecord
  2
205
 70
     0
 62
   205
  6
CONTINUOUS
  0
LAYER
  5
107
330
2
100
AcDbSymbolTableRecord
100
AcDbLayerTableRecord
  2
206
 70
     0
 62
   206
  6
CONTINUOUS
  0
LAYER
  5
108
330
2
100
AcDbSymbolTableRecord
100
AcDbLayerTableRecord
  2
207
 70
     0
 62
   207
  6
CONTINUOUS
  0
LAYER
  5
109
330
2
100
AcDbSymbolTableRecord
100
AcDbLayerTableRecord
  2
208
 70
     0
 62
   208
  6
CONTINUOUS
  0
LAYER
  5
10A
330
2
100
AcDbSymbolTableRecord
100
AcDbLayerTableRecord
  2
209
 70
     0
 62
   209
  6
CONTINUOUS
  0
LAYER
  5
10B
330
2
100
AcDbSymbolTableRecord
100
AcDbLayerTableRecord
  2
210
 70
     0
 62
   210
  6
CONTINUOUS
  0
LAYER
  5
10C
330
2
100
AcDbSymbolTableRecord
100
AcDbLayerTableRecord
  2
211
 70
     0
 62
   211
  6
CONTINUOUS
  0
LAYER
  5
10D
330
2
100
AcDbSymbolTableRecord
100
AcDbLayerTableRecord
  2
212
 70
     0
 62
   212
  6
CONTINUOUS
  0
LAYER
  5
10E
330
2
100
AcDbSymbolTableRecord
100
AcDbLayerTableRecord
  2
213
 70
     0
 62
   213
  6
CONTINUOUS
  0
LAYER
  5
10F
330
2
100
AcDbSymbolTableRecord
100
AcDbLayerTableRecord
  2
214
 70
     0
 62
   214
  6
CONTINUOUS
  0
LAYER
  5
110
330
2
100
AcDbSymbolTableRecord
100
AcDbLayerTableRecord
  2
215
 70
     0
 62
   215
  6
CONTINUOUS
  0
LAYER
  5
111
330
2
100
AcDbSymbolTableRecord
100
AcDbLayerTableRecord
  2
216
 70
     0
 62
   216
  6
CONTINUOUS
  0
LAYER
  5
112
330
2
100
AcDbSymbolTableRecord
100
AcDbLayerTableRecord
  2
217
 70
     0
 62
   217
  6
CONTINUOUS
  0
LAYER
  5
113
330
2
100
AcDbSymbolTableRecord
100
AcDbLayerTableRecord
  2
218
 70
     0
 62
   218
  6
CONTINUOUS
  0
LAYER
  5
114
330
2
100
AcDbSymbolTableRecord
100
AcDbLayerTableRecord
  2
219
 70
     0
 62
   219
  6
CONTINUOUS
  0
LAYER
  5
115
330
2
100
AcDbSymbolTableRecord
100
AcDbLayerTableRecord
  2
220
 70
     0
 62
   220
  6
CONTINUOUS
  0
LAYER
  5
116
330
2
100
AcDbSymbolTableRecord
100
AcDbLayerTableRecord
  2
221
 70
     0
 62
   221
  6
CONTINUOUS
  0
LAYER
  5
117
330
2
100
AcDbSymbolTableRecord
100
AcDbLayerTableRecord
  2
222
 70
     0
 62
   222
  6
CONTINUOUS
  0
LAYER
  5
118
330
2
100
AcDbSymbolTableRecord
100
AcDbLayerTableRecord
  2
223
 70
     0
 62
   223
  6
CONTINUOUS
  0
LAYER
  5
119
330
2
100
AcDbSymbolTableRecord
100
AcDbLayerTableRecord
  2
224
 70
     0
 62
   224
  6
CONTINUOUS
  0
LAYER
  5
11A
330
2
100
AcDbSymbolTableRecord
100
AcDbLayerTableRecord
  2
225
 70
     0
 62
   225
  6
CONTINUOUS
  0
LAYER
  5
11B
330
2
100
AcDbSymbolTableRecord
100
AcDbLayerTableRecord
  2
226
 70
     0
 62
   226
  6
CONTINUOUS
  0
LAYER
  5
11C
330
2
100
AcDbSymbolTableRecord
100
AcDbLayerTableRecord
  2
227
 70
     0
 62
   227
  6
CONTINUOUS
  0
LAYER
  5
11D
330
2
100
AcDbSymbolTableRecord
100
AcDbLayerTableRecord
  2
228
 70
     0
 62
   228
  6
CONTINUOUS
  0
LAYER
  5
11E
330
2
100
AcDbSymbolTableRecord
100
AcDbLayerTableRecord
  2
229
 70
     0
 62
   229
  6
CONTINUOUS
  0
LAYER
  5
11F
330
2
100
AcDbSymbolTableRecord
100
AcDbLayerTableRecord
  2
230
 70
     0
 62
   230
  6
CONTINUOUS
  0
LAYER
  5
120
330
2
100
AcDbSymbolTableRecord
100
AcDbLayerTableRecord
  2
231
 70
     0
 62
   231
  6
CONTINUOUS
  0
LAYER
  5
121
330
2
100
AcDbSymbolTableRecord
100
AcDbLayerTableRecord
  2
232
 70
     0
 62
   232
  6
CONTINUOUS
  0
LAYER
  5
122
330
2
100
AcDbSymbolTableRecord
100
AcDbLayerTableRecord
  2
233
 70
     0
 62
   233
  6
CONTINUOUS
  0
LAYER
  5
123
330
2
100
AcDbSymbolTableRecord
100
AcDbLayerTableRecord
  2
234
 70
     0
 62
   234
  6
CONTINUOUS
  0
LAYER
  5
124
330
2
100
AcDbSymbolTableRecord
100
AcDbLayerTableRecord
  2
235
 70
     0
 62
   235
  6
CONTINUOUS
  0
LAYER
  5
125
330
2
100
AcDbSymbolTableRecord
100
AcDbLayerTableRecord
  2
236
 70
     0
 62
   236
  6
CONTINUOUS
  0
LAYER
  5
126
330
2
100
AcDbSymbolTableRecord
100
AcDbLayerTableRecord
  2
237
 70
     0
 62
   237
  6
CONTINUOUS
  0
LAYER
  5
127
330
2
100
AcDbSymbolTableRecord
100
AcDbLayerTableRecord
  2
238
 70
     0
 62
   238
  6
CONTINUOUS
  0
LAYER
  5
128
330
2
100
AcDbSymbolTableRecord
100
AcDbLayerTableRecord
  2
239
 70
     0
 62
   239
  6
CONTINUOUS
  0
LAYER
  5
129
330
2
100
AcDbSymbolTableRecord
100
AcDbLayerTableRecord
  2
240
 70
     0
 62
   240
  6
CONTINUOUS
  0
LAYER
  5
12A
330
2
100
AcDbSymbolTableRecord
100
AcDbLayerTableRecord
  2
241
 70
     0
 62
   241
  6
CONTINUOUS
  0
LAYER
  5
12B
330
2
100
AcDbSymbolTableRecord
100
AcDbLayerTableRecord
  2
242
 70
     0
 62
   242
  6
CONTINUOUS
  0
LAYER
  5
12C
330
2
100
AcDbSymbolTableRecord
100
AcDbLayerTableRecord
  2
243
 70
     0
 62
   243
  6
CONTINUOUS
  0
LAYER
  5
12D
330
2
100
AcDbSymbolTableRecord
100
AcDbLayerTableRecord
  2
244
 70
     0
 62
   244
  6
CONTINUOUS
  0
LAYER
  5
12E
330
2
100
AcDbSymbolTableRecord
100
AcDbLayerTableRecord
  2
245
 70
     0
 62
   245
  6
CONTINUOUS
  0
LAYER
  5
12F
330
2
100
AcDbSymbolTableRecord
100
AcDbLayerTableRecord
  2
246
 70
     0
 62
   246
  6
CONTINUOUS
  0
LAYER
  5
130
330
2
100
AcDbSymbolTableRecord
100
AcDbLayerTableRecord
  2
247
 70
     0
 62
   247
  6
CONTINUOUS
  0
LAYER
  5
131
330
2
100
AcDbSymbolTableRecord
100
AcDbLayerTableRecord
  2
248
 70
     0
 62
   248
  6
CONTINUOUS
  0
LAYER
  5
132
330
2
100
AcDbSymbolTableRecord
100
AcDbLayerTableRecord
  2
249
 70
     0
 62
   249
  6
CONTINUOUS
  0
LAYER
  5
133
330
2
100
AcDbSymbolTableRecord
100
AcDbLayerTableRecord
  2
250
 70
     0
 62
   250
  6
CONTINUOUS
  0
LAYER
  5
134
330
2
100
AcDbSymbolTableRecord
100
AcDbLayerTableRecord
  2
251
 70
     0
 62
   251
  6
CONTINUOUS
  0
LAYER
  5
135
330
2
100
AcDbSymbolTableRecord
100
AcDbLayerTableRecord
  2
252
 70
     0
 62
   252
  6
CONTINUOUS
  0
LAYER
  5
136
330
2
100
AcDbSymbolTableRecord
100
AcDbLayerTableRecord
  2
253
 70
     0
 62
   253
  6
CONTINUOUS
  0
LAYER
  5
137
330
2
100
AcDbSymbolTableRecord
100
AcDbLayerTableRecord
  2
254
 70
     0
 62
   254
  6
CONTINUOUS
  0
LAYER
  5
138
330
2
100
AcDbSymbolTableRecord
100
AcDbLayerTableRecord
  2
255
 70
     0
 62
   255
  6
CONTINUOUS
  0
LAYER
  5
563F
330
2
100
AcDbSymbolTableRecord
100
AcDbLayerTableRecord
  2
DEFPOINTS
 70
     0
 62
     7
  6
CONTINUOUS
  0
ENDTAB
  0
TABLE
  2
STYLE
  5
3
330
0
100
AcDbSymbolTable
 70
     1
  0
STYLE
  5
11
330
3
100
AcDbSymbolTableRecord
100
AcDbTextStyleTableRecord
  2
STANDARD
 70
     0
 40
0.0
 41
1.0
 50
0.0
 71
     0
 42
0.2
  3
monotxt
  4

  0
ENDTAB
  0
TABLE
  2
VIEW
  5
6
330
0
100
AcDbSymbolTable
 70
     0
  0
ENDTAB
  0
TABLE
  2
UCS
  5
7
330
0
100
AcDbSymbolTable
 70
     0
  0
ENDTAB
  0
TABLE
  2
APPID
  5
9
330
0
100
AcDbSymbolTable
 70
     1
  0
APPID
  5
12
330
9
100
AcDbSymbolTableRecord
100
AcDbRegAppTableRecord
  2
ACAD
 70
     0
  0
ENDTAB
  0
TABLE
  2
DIMSTYLE
  5
A
330
0
100
AcDbSymbolTable
 70
     1
  0
DIMSTYLE
105
3FAA
102
{ACAD_REACTORS
330
563E
102
}
330
A
100
AcDbSymbolTableRecord
100
AcDbDimStyleTableRecord
  2
STANDARD
 70
     0
  3

  4

  5

  6

  7

 40
1.0
 41
0.18
 42
0.0625
 43
0.38
 44
0.18
 45
0.0
 46
0.0
 47
0.0
 48
0.0
140
0.18
141
0.09
142
0.0
143
25.4
144
1.0
145
0.0
146
1.0
147
0.09
 71
     0
 72
     0
 73
     1
 74
     1
 75
     0
 76
     0
 77
     0
 78
     0
170
     0
171
     2
172
     0
173
     0
174
     0
175
     0
176
     0
177
     0
178
     0
270
     2
271
     4
272
     4
273
     2
274
     2
340
11
275
     0
280
     0
281
     0
282
     0
283
     1
284
     0
285
     0
286
     0
287
     3
288
     0
  0
ENDTAB
  0
TABLE
  2
BLOCK_RECORD
  5
1
330
0
100
AcDbSymbolTable
 70
     1
  0
BLOCK_RECORD
  5
1E
102
{ACAD_XDICTIONARY
360
5690
102
}
330
1
100
AcDbSymbolTableRecord
100
AcDbBlockTableRecord
  2
*MODEL_SPACE
  0
BLOCK_RECORD
  5
1A
102
{ACAD_XDICTIONARY
360
568E
102
}
330
1
100
AcDbSymbolTableRecord
100
AcDbBlockTableRecord
  2
*PAPER_SPACE
  0
BLOCK_RECORD
  5
5640
330
1
100
AcDbSymbolTableRecord
100
AcDbBlockTableRecord
  2
*D0
  0
ENDTAB
  0
ENDSEC
  0
SECTION
  2
BLOCKS
  0
BLOCK
  5
13B
330
1E
100
AcDbEntity
  8
0
100
AcDbBlockBegin
  2
*MODEL_SPACE
 70
     0
 10
0.0
 20
0.0
 30
0.0
  3
*MODEL_SPACE
  1

  0
ENDBLK
  5
13C
330
1E
100
AcDbEntity
  8
0
100
AcDbBlockEnd
  0
BLOCK
  5
139
330
1A
100
AcDbEntity
 67
     1
  8
0
100
AcDbBlockBegin
  2
*PAPER_SPACE
 70
     0
 10
0.0
 20
0.0
 30
0.0
  3
*PAPER_SPACE
  1

  0
ENDBLK
  5
13A
330
1A
100
AcDbEntity
 67
     1
  8
0
100
AcDbBlockEnd
  0
BLOCK
  5
564B
330
5640
100
AcDbEntity
  8
0
100
AcDbBlockBegin
  2
*D0
 70
     1
 10
0.0
 20
0.0
 30
0.0
  3
*D0
  1

  0
LINE
  5
564D
330
5640
100
AcDbEntity
  8
0
 62
     0
100
AcDbLine
 10
-6.349359021243189
 20
5.19332047618642
 30
0.0
 11
-8.97173953579947
 21
5.19332047618642
 31
0.0
  0
LINE
  5
564E
330
5640
100
AcDbEntity
  8
0
 62
     0
100
AcDbLine
 10
-6.349359021243189
 20
0.69332047618642
 30
0.0
 11
-8.971739535799471
 21
0.6933204761864208
 31
0.0
  0
LINE
  5
564F
330
5640
100
AcDbEntity
  8
0
 62
     0
100
AcDbLine
 10
-8.79173953579947
 20
5.01332047618642
 30
0.0
 11
-8.791739535799472
 21
3.12332047618642
 31
0.0
  0
LINE
  5
5650
330
5640
100
AcDbEntity
  8
0
 62
     0
100
AcDbLine
 10
-8.791739535799472
 20
0.8733204761864206
 30
0.0
 11
-8.791739535799472
 21
2.76332047618642
 31
0.0
  0
SOLID
  5
5651
330
5640
100
AcDbEntity
  8
0
 62
     0
100
AcDbTrace
 10
-8.821739535799469
 20
5.01332047618642
 30
0.0
 11
-8.76173953579947
 21
5.01332047618642
 31
0.0
 12
-8.79173953579947
 22
5.19332047618642
 32
0.0
 13
-8.79173953579947
 23
5.19332047618642
 33
0.0
  0
SOLID
  5
5652
330
5640
100
AcDbEntity
  8
0
 62
     0
100
AcDbTrace
 10
-8.821739535799471
 20
0.8733204761864206
 30
0.0
 11
-8.761739535799472
 21
0.8733204761864206
 31
0.0
 12
-8.791739535799472
 22
0.6933204761864208
 32
0.0
 13
-8.791739535799472
 23
0.6933204761864208
 33
0.0
  0
MTEXT
  5
5653
330
5640
100
AcDbEntity
  8
0
 62
     0
100
AcDbMText
 10
-8.791739535799472
 20
2.943320476186419
 30
0.0
 40
0.18
 41
0.0
 71
     5
 72
     1
  1
\A1;4.5000
1001
ACAD
1000
MTEXTBEGIN
1070
    73
1070
     1
1070
    44
1040
1.0
1070
    74
1070
     0
1000
MTEXTEND
  0
POINT
  5
5654
330
5640
100
AcDbEntity
  8
DEFPOINTS
 62
     0
100
AcDbPoint
 10
-6.286859021243189
 20
5.19332047618642
 30
0.0
  0
POINT
  5
5655
330
5640
100
AcDbEntity
  8
DEFPOINTS
 62
     0
100
AcDbPoint
 10
-6.286859021243189
 20
0.69332047618642
 30
0.0
  0
POINT
  5
5656
330
5640
100
AcDbEntity
  8
DEFPOINTS
 62
     0
100
AcDbPoint
 10
-8.791739535799472
 20
0.6933204761864208
 30
0.0
  0
ENDBLK
  5
564C
330
5640
100
AcDbEntity
  8
0
100
AcDbBlockEnd
  0
ENDSEC
  0
SECTION
  2
ENTITIES
  0
LINE
  5
3328
330
1E
100
AcDbEntity
  8
7
100
AcDbLine
 10
-1.775047997621141
 20
4.457100003745475
 30
0.0
 11
-1.775047997621141
 21
4.508281106107679
 31
0.0
  0
LINE
  5
3329
330
1E
100
AcDbEntity
  8
7
100
AcDbLine
 10
-4.320323588172323
 20
4.457100003745475
 30
0.0
 11
-1.775047997621141
 21
4.457100003745475
 31
0.0
  0
LINE
  5
332A
330
1E
100
AcDbEntity
  8
7
100
AcDbLine
 10
-4.320323588172323
 20
4.508281106107679
 30
0.0
 11
-4.320323588172323
 21
4.457100003745475
 31
0.0
  0
LINE
  5
332B
330
1E
100
AcDbEntity
  8
7
100
AcDbLine
 10
-4.345914139353425
 20
4.508281106107679
 30
0.0
 11
-4.320323588172323
 21
4.508281106107679
 31
0.0
  0
LINE
  5
332C
330
1E
100
AcDbEntity
  8
7
100
AcDbLine
 10
-4.345914139353425
 20
4.650013389572247
 30
0.0
 11
-4.345914139353425
 21
4.508281106107679
 31
0.0
  0
LINE
  5
332D
330
1E
100
AcDbEntity
  8
7
100
AcDbLine
 10
-4.320323588172323
 20
4.650013389572247
 30
0.0
 11
-4.345914139353425
 21
4.650013389572247
 31
0.0
  0
LINE
  5
332E
330
1E
100
AcDbEntity
  8
7
100
AcDbLine
 10
-4.320323588172323
 20
4.701194491934451
 30
0.0
 11
-4.320323588172323
 21
4.650013389572247
 31
0.0
  0
LINE
  5
332F
330
1E
100
AcDbEntity
  8
7
100
AcDbLine
 10
-1.775047997621141
 20
4.701194491934451
 30
0.0
 11
-4.320323588172323
 21
4.701194491934451
 31
0.0
  0
LINE
  5
3330
330
1E
100
AcDbEntity
  8
7
100
AcDbLine
 10
-1.775047997621141
 20
4.650013389572247
 30
0.0
 11
-1.775047997621141
 21
4.701194491934451
 31
0.0
  0
LINE
  5
3331
330
1E
100
AcDbEntity
  8
7
100
AcDbLine
 10
-1.74945744644004
 20
4.650013389572247
 30
0.0
 11
-1.775047997621141
 21
4.650013389572247
 31
0.0
  0
LINE
  5
3332
330
1E
100
AcDbEntity
  8
7
100
AcDbLine
 10
-1.74945744644004
 20
4.508281106107679
 30
0.0
 11
-1.74945744644004
 21
4.650013389572247
 31
0.0
  0
LINE
  5
3333
330
1E
100
AcDbEntity
  8
7
100
AcDbLine
 10
-1.775047997621141
 20
4.508281106107679
 30
0.0
 11
-1.74945744644004
 21
4.508281106107679
 31
0.0
  0
LINE
  5
333A
330
1E
100
AcDbEntity
  8
7
100
AcDbLine
 10
-4.922685792896732
 20
1.096863783273034
 30
0.0
 11
-1.172685792896732
 21
1.096863783273034
 31
0.0
  0
LINE
  5
333B
330
1E
100
AcDbEntity
  8
7
100
AcDbLine
 10
-4.471898391321929
 20
2.783871657288782
 30
0.0
 11
-4.471898391321929
 21
1.740564570674608
 31
0.0
  0
LINE
  5
3344
330
1E
100
AcDbEntity
  8
7
100
AcDbLine
 10
-1.710087367699882
 20
2.919698428942325
 30
0.0
 11
-4.385284218093582
 21
2.919698428942325
 31
0.0
  0
LINE
  5
334D
330
1E
100
AcDbEntity
  8
7
100
AcDbLine
 10
-1.623473194471535
 20
1.740564570674608
 30
0.0
 11
-1.623473194471535
 21
2.783871657288782
 31
0.0
  0
LINE
  5
335A
330
1E
100
AcDbEntity
  8
7
100
AcDbLine
 10
-2.340008627542402
 20
1.565367720280908
 30
0.0
 11
-1.849851147227441
 21
1.565367720280908
 31
0.0
  0
LINE
  5
335B
330
1E
100
AcDbEntity
  8
7
100
AcDbLine
 10
-2.340008627542402
 20
1.565367720280908
 30
0.0
 11
-2.485677918880984
 21
1.565367720280908
 31
0.0
  0
LINE
  5
335C
330
1E
100
AcDbEntity
  8
7
100
AcDbLine
 10
-2.975835399195945
 20
1.565367720280908
 30
0.0
 11
-2.485677918880984
 21
1.565367720280908
 31
0.0
  0
LINE
  5
335D
330
1E
100
AcDbEntity
  8
7
100
AcDbLine
 10
-2.975835399195945
 20
1.565367720280908
 30
0.0
 11
-3.119536186597519
 21
1.565367720280908
 31
0.0
  0
LINE
  5
335E
330
1E
100
AcDbEntity
  8
7
100
AcDbLine
 10
-3.60969366691248
 20
1.565367720280908
 30
0.0
 11
-3.119536186597519
 21
1.565367720280908
 31
0.0
  0
LINE
  5
335F
330
1E
100
AcDbEntity
  8
7
100
AcDbLine
 10
-3.60969366691248
 20
1.565367720280908
 30
0.0
 11
-3.755362958251063
 21
1.565367720280908
 31
0.0
  0
LINE
  5
3360
330
1E
100
AcDbEntity
  8
7
100
AcDbLine
 10
-4.245520438566023
 20
1.565367720280908
 30
0.0
 11
-3.755362958251063
 21
1.565367720280908
 31
0.0
  0
LINE
  5
336A
330
1E
100
AcDbEntity
  8
7
100
AcDbLine
 10
-1.623473194471535
 20
3.242533074611616
 30
0.0
 11
-1.623473194471535
 21
4.28584016122579
 31
0.0
  0
LINE
  5
3374
330
1E
100
AcDbEntity
  8
7
100
AcDbLine
 10
-2.340008627542402
 20
3.067336224217916
 30
0.0
 11
-1.849851147227441
 21
3.067336224217916
 31
0.0
  0
LINE
  5
3375
330
1E
100
AcDbEntity
  8
7
100
AcDbLine
 10
-2.340008627542402
 20
3.067336224217916
 30
0.0
 11
-2.485677918880984
 21
3.067336224217916
 31
0.0
  0
LINE
  5
3376
330
1E
100
AcDbEntity
  8
7
100
AcDbLine
 10
-2.975835399195945
 20
3.067336224217916
 30
0.0
 11
-2.485677918880984
 21
3.067336224217916
 31
0.0
  0
LINE
  5
3377
330
1E
100
AcDbEntity
  8
7
100
AcDbLine
 10
-2.975835399195945
 20
3.067336224217916
 30
0.0
 11
-3.119536186597519
 21
3.067336224217916
 31
0.0
  0
LINE
  5
3378
330
1E
100
AcDbEntity
  8
7
100
AcDbLine
 10
-3.60969366691248
 20
3.067336224217916
 30
0.0
 11
-3.119536186597519
 21
3.067336224217916
 31
0.0
  0
LINE
  5
3379
330
1E
100
AcDbEntity
  8
7
100
AcDbLine
 10
-3.60969366691248
 20
3.067336224217916
 30
0.0
 11
-3.755362958251063
 21
3.067336224217916
 31
0.0
  0
LINE
  5
337A
330
1E
100
AcDbEntity
  8
7
100
AcDbLine
 10
-4.245520438566023
 20
3.067336224217916
 30
0.0
 11
-3.755362958251063
 21
3.067336224217916
 31
0.0
  0
LINE
  5
3384
330
1E
100
AcDbEntity
  8
7
100
AcDbLine
 10
-4.471898391321929
 20
4.28584016122579
 30
0.0
 11
-4.471898391321929
 21
3.242533074611616
 31
0.0
  0
LINE
  5
338C
330
1E
100
AcDbEntity
  8
7
100
AcDbLine
 10
-4.412843273211693
 20
4.41576142106831
 30
0.0
 11
-4.385284218093582
 21
4.421666932879332
 31
0.0
  0
LINE
  5
338D
330
1E
100
AcDbEntity
  8
7
100
AcDbLine
 10
-1.710087367699882
 20
4.421666932879332
 30
0.0
 11
-4.385284218093582
 21
4.421666932879332
 31
0.0
  0
LINE
  5
3396
330
1E
100
AcDbEntity
  8
7
100
AcDbLine
 10
-4.320323588172323
 20
1.175603940753349
 30
0.0
 11
-1.775047997621141
 21
1.175603940753349
 31
0.0
  0
LINE
  5
3397
330
1E
100
AcDbEntity
  8
7
100
AcDbLine
 10
-4.320323588172323
 20
1.226785043115553
 30
0.0
 11
-4.320323588172323
 21
1.175603940753349
 31
0.0
  0
LINE
  5
3398
330
1E
100
AcDbEntity
  8
7
100
AcDbLine
 10
-4.345914139353425
 20
1.226785043115553
 30
0.0
 11
-4.320323588172323
 21
1.226785043115553
 31
0.0
  0
LINE
  5
3399
330
1E
100
AcDbEntity
  8
7
100
AcDbLine
 10
-4.345914139353425
 20
1.368517326580121
 30
0.0
 11
-4.345914139353425
 21
1.226785043115553
 31
0.0
  0
LINE
  5
339A
330
1E
100
AcDbEntity
  8
7
100
AcDbLine
 10
-4.320323588172323
 20
1.368517326580121
 30
0.0
 11
-4.345914139353425
 21
1.368517326580121
 31
0.0
  0
LINE
  5
339B
330
1E
100
AcDbEntity
  8
7
100
AcDbLine
 10
-4.320323588172323
 20
1.419698428942325
 30
0.0
 11
-4.320323588172323
 21
1.368517326580121
 31
0.0
  0
LINE
  5
339C
330
1E
100
AcDbEntity
  8
7
100
AcDbLine
 10
-1.775047997621141
 20
1.419698428942325
 30
0.0
 11
-4.320323588172323
 21
1.419698428942325
 31
0.0
  0
LINE
  5
339D
330
1E
100
AcDbEntity
  8
7
100
AcDbLine
 10
-1.775047997621141
 20
1.368517326580121
 30
0.0
 11
-1.775047997621141
 21
1.419698428942325
 31
0.0
  0
LINE
  5
339E
330
1E
100
AcDbEntity
  8
7
100
AcDbLine
 10
-1.74945744644004
 20
1.368517326580121
 30
0.0
 11
-1.775047997621141
 21
1.368517326580121
 31
0.0
  0
LINE
  5
339F
330
1E
100
AcDbEntity
  8
7
100
AcDbLine
 10
-1.74945744644004
 20
1.226785043115553
 30
0.0
 11
-1.74945744644004
 21
1.368517326580121
 31
0.0
  0
LINE
  5
33A0
330
1E
100
AcDbEntity
  8
7
100
AcDbLine
 10
-1.775047997621141
 20
1.226785043115553
 30
0.0
 11
-1.74945744644004
 21
1.226785043115553
 31
0.0
  0
LINE
  5
33A1
330
1E
100
AcDbEntity
  8
7
100
AcDbLine
 10
-1.775047997621141
 20
1.175603940753349
 30
0.0
 11
-1.775047997621141
 21
1.226785043115553
 31
0.0
  0
LINE
  5
33A2
330
1E
100
AcDbEntity
  8
7
100
AcDbLine
 10
-2.08213461179437
 20
1.413792917131301
 30
0.0
 11
-2.202213351951851
 21
1.413792917131301
 31
0.0
  0
LINE
  5
33A3
330
1E
100
AcDbEntity
  8
7
100
AcDbLine
 10
-2.202213351951851
 20
1.413792917131301
 30
0.0
 11
-2.08213461179437
 21
1.413792917131301
 31
0.0
  0
LINE
  5
33A4
330
1E
100
AcDbEntity
  8
7
100
AcDbLine
 10
-4.013236973999094
 20
1.413792917131301
 30
0.0
 11
-3.893158233841614
 21
1.413792917131301
 31
0.0
  0
LINE
  5
33A5
330
1E
100
AcDbEntity
  8
7
100
AcDbLine
 10
-4.013236973999094
 20
1.413792917131301
 30
0.0
 11
-3.893158233841614
 21
1.413792917131301
 31
0.0
  0
LINE
  5
33B0
330
1E
100
AcDbEntity
  8
7
100
AcDbLine
 10
-4.013236973999094
 20
4.646076381698231
 30
0.0
 11
-4.013236973999094
 21
4.648044885635238
 31
0.0
  0
LINE
  5
33B1
330
1E
100
AcDbEntity
  8
7
100
AcDbLine
 10
-3.893158233841614
 20
4.646076381698231
 30
0.0
 11
-4.013236973999094
 21
4.646076381698231
 31
0.0
  0
LINE
  5
33B2
330
1E
100
AcDbEntity
  8
7
100
AcDbLine
 10
-3.893158233841614
 20
4.648044885635238
 30
0.0
 11
-3.893158233841614
 21
4.646076381698231
 31
0.0
  0
LINE
  5
33B3
330
1E
100
AcDbEntity
  8
7
100
AcDbLine
 10
-4.013236973999094
 20
4.648044885635238
 30
0.0
 11
-3.893158233841614
 21
4.648044885635238
 31
0.0
  0
LINE
  5
33B9
330
1E
100
AcDbEntity
  8
7
100
AcDbLine
 10
-4.013236973999094
 20
4.695288980123427
 30
0.0
 11
-3.893158233841614
 21
4.695288980123427
 31
0.0
  0
LINE
  5
33BA
330
1E
100
AcDbEntity
  8
7
100
AcDbLine
 10
-4.013236973999094
 20
4.695288980123427
 30
0.0
 11
-4.013236973999094
 21
4.69332047618642
 31
0.0
  0
LINE
  5
33BB
330
1E
100
AcDbEntity
  8
7
100
AcDbLine
 10
-4.316386580298307
 20
4.699225987997444
 30
0.0
 11
-4.316386580298307
 21
4.646076381698231
 31
0.0
  0
LINE
  5
33BC
330
1E
100
AcDbEntity
  8
7
100
AcDbLine
 10
-4.316386580298307
 20
4.699225987997444
 30
0.0
 11
-4.318355084235315
 21
4.701194491934451
 31
0.0
  0
LINE
  5
33BD
330
1E
100
AcDbEntity
  8
7
100
AcDbLine
 10
-4.345914139353425
 20
4.646076381698231
 30
0.0
 11
-4.345914139353425
 21
4.650013389572247
 31
0.0
  0
LINE
  5
33BE
330
1E
100
AcDbEntity
  8
7
100
AcDbLine
 10
-4.316386580298307
 20
4.646076381698231
 30
0.0
 11
-4.345914139353425
 21
4.646076381698231
 31
0.0
  0
LINE
  5
33BF
330
1E
100
AcDbEntity
  8
7
100
AcDbLine
 10
-2.202213351951851
 20
4.646076381698231
 30
0.0
 11
-2.202213351951851
 21
4.648044885635238
 31
0.0
  0
LINE
  5
33C0
330
1E
100
AcDbEntity
  8
7
100
AcDbLine
 10
-2.08213461179437
 20
4.646076381698231
 30
0.0
 11
-2.202213351951851
 21
4.646076381698231
 31
0.0
  0
LINE
  5
33C1
330
1E
100
AcDbEntity
  8
7
100
AcDbLine
 10
-2.08213461179437
 20
4.648044885635238
 30
0.0
 11
-2.08213461179437
 21
4.646076381698231
 31
0.0
  0
LINE
  5
33C2
330
1E
100
AcDbEntity
  8
7
100
AcDbLine
 10
-2.202213351951851
 20
4.648044885635238
 30
0.0
 11
-2.08213461179437
 21
4.648044885635238
 31
0.0
  0
LINE
  5
33C8
330
1E
100
AcDbEntity
  8
7
100
AcDbLine
 10
-2.202213351951851
 20
4.695288980123427
 30
0.0
 11
-2.08213461179437
 21
4.695288980123427
 31
0.0
  0
LINE
  5
33C9
330
1E
100
AcDbEntity
  8
7
100
AcDbLine
 10
-2.202213351951851
 20
4.695288980123427
 30
0.0
 11
-2.202213351951851
 21
4.69332047618642
 31
0.0
  0
LINE
  5
33CA
330
1E
100
AcDbEntity
  8
7
100
AcDbLine
 10
-1.74945744644004
 20
4.646076381698231
 30
0.0
 11
-1.778985005495157
 21
4.646076381698231
 31
0.0
  0
LINE
  5
33CB
330
1E
100
AcDbEntity
  8
7
100
AcDbLine
 10
-1.74945744644004
 20
4.646076381698231
 30
0.0
 11
-1.74945744644004
 21
4.650013389572247
 31
0.0
  0
LINE
  5
33CC
330
1E
100
AcDbEntity
  8
7
100
AcDbLine
 10
-1.778985005495157
 20
4.699225987997444
 30
0.0
 11
-1.77701650155815
 21
4.701194491934451
 31
0.0
  0
LINE
  5
33CD
330
1E
100
AcDbEntity
  8
7
100
AcDbLine
 10
-1.778985005495157
 20
4.646076381698231
 30
0.0
 11
-1.778985005495157
 21
4.699225987997444
 31
0.0
  0
LINE
  5
33CE
330
1E
100
AcDbEntity
  8
7
100
AcDbLine
 10
-1.77701650155815
 20
4.650013389572247
 30
0.0
 11
-1.775047997621141
 21
4.650013389572247
 31
0.0
  0
LINE
  5
33CF
330
1E
100
AcDbEntity
  8
7
100
AcDbLine
 10
-1.77701650155815
 20
4.701194491934451
 30
0.0
 11
-1.775047997621141
 21
4.701194491934451
 31
0.0
  0
LINE
  5
33D0
330
1E
100
AcDbEntity
  8
7
100
AcDbLine
 10
-1.778985005495157
 20
4.699225987997444
 30
0.0
 11
-4.316386580298307
 21
4.699225987997444
 31
0.0
  0
LINE
  5
33D1
330
1E
100
AcDbEntity
  8
7
100
AcDbLine
 10
-4.318355084235315
 20
4.701194491934451
 30
0.0
 11
-4.320323588172323
 21
4.701194491934451
 31
0.0
  0
LINE
  5
33D2
330
1E
100
AcDbEntity
  8
7
100
AcDbLine
 10
-4.318355084235315
 20
4.650013389572247
 30
0.0
 11
-4.320323588172323
 21
4.650013389572247
 31
0.0
  0
LINE
  5
33E7
330
1E
100
AcDbEntity
  8
7
100
AcDbLine
 10
-5.245520438566023
 20
5.171666932879332
 30
0.0
 11
-0.849851147227441
 21
5.171666932879332
 31
0.0
  0
LINE
  5
33E8
330
1E
100
AcDbEntity
  8
7
100
AcDbLine
 10
-0.849851147227441
 20
5.148044885635238
 30
0.0
 11
-5.245520438566023
 21
5.148044885635238
 31
0.0
  0
LINE
  5
33F3
330
1E
100
AcDbEntity
  8
7
100
AcDbLine
 10
-5.26717398187311
 20
5.19332047618642
 30
0.0
 11
-5.245520438566023
 21
5.171666932879332
 31
0.0
  0
LINE
  5
33F9
330
1E
100
AcDbEntity
  8
7
100
AcDbLine
 10
-0.796701540928229
 20
5.161824413194294
 30
0.0
 11
-0.8183550842353151
 21
5.140170869887207
 31
0.0
  0
LINE
  5
3433
330
1E
100
AcDbEntity
  8
7
100
AcDbLine
 10
-5.26717398187311
 20
0.69332047618642
 30
0.0
 11
-0.8281976039203549
 21
0.69332047618642
 31
0.0
  0
LINE
  5
3457
330
1E
100
AcDbEntity
  8
7
100
AcDbLine
 10
-1.166780281085709
 20
1.502375594296657
 30
0.0
 11
-1.172685792896732
 21
1.096863783273034
 31
0.0
  0
LINE
  5
3483
330
1E
100
AcDbEntity
  8
7
100
AcDbLine
 10
-3.85969366691248
 20
4.636233862013192
 30
0.0
 11
-3.893158233841614
 21
4.646076381698231
 31
0.0
  0
LINE
  5
3499
330
1E
100
AcDbEntity
  8
7
100
AcDbLine
 10
-4.013236973999094
 20
4.510249610044688
 30
0.0
 11
-3.893158233841614
 21
4.510249610044688
 31
0.0
  0
LINE
  5
349A
330
1E
100
AcDbEntity
  8
7
100
AcDbLine
 10
-4.013236973999094
 20
4.646076381698231
 30
0.0
 11
-4.046701540928228
 21
4.636233862013192
 31
0.0
  0
LINE
  5
34A3
330
1E
100
AcDbEntity
  8
7
100
AcDbLine
 10
-3.893158233841614
 20
4.464974019493507
 30
0.0
 11
-4.013236973999094
 21
4.464974019493507
 31
0.0
  0
LINE
  5
34D8
330
1E
100
AcDbEntity
  8
7
100
AcDbLine
 10
-3.893158233841614
 20
4.463005515556499
 30
0.0
 11
-4.013236973999094
 21
4.463005515556499
 31
0.0
  0
LINE
  5
34F2
330
1E
100
AcDbEntity
  8
7
100
AcDbLine
 10
-2.08213461179437
 20
4.463005515556499
 30
0.0
 11
-2.202213351951851
 21
4.463005515556499
 31
0.0
  0
LINE
  5
3501
330
1E
100
AcDbEntity
  8
7
100
AcDbLine
 10
-4.013236973999094
 20
4.512218113981695
 30
0.0
 11
-4.013236973999094
 21
4.510249610044688
 31
0.0
  0
LINE
  5
350E
330
1E
100
AcDbEntity
  8
7
100
AcDbLine
 10
-3.893158233841614
 20
4.510249610044688
 30
0.0
 11
-3.893158233841614
 21
4.512218113981695
 31
0.0
  0
LINE
  5
351B
330
1E
100
AcDbEntity
  8
7
100
AcDbLine
 10
-2.202213351951851
 20
4.510249610044688
 30
0.0
 11
-2.08213461179437
 21
4.510249610044688
 31
0.0
  0
LINE
  5
3525
330
1E
100
AcDbEntity
  8
7
100
AcDbLine
 10
-2.08213461179437
 20
4.464974019493507
 30
0.0
 11
-2.202213351951851
 21
4.464974019493507
 31
0.0
  0
LINE
  5
353C
330
1E
100
AcDbEntity
  8
7
100
AcDbLine
 10
-2.202213351951851
 20
4.512218113981695
 30
0.0
 11
-2.202213351951851
 21
4.510249610044688
 31
0.0
  0
LINE
  5
3549
330
1E
100
AcDbEntity
  8
7
100
AcDbLine
 10
-2.08213461179437
 20
4.510249610044688
 30
0.0
 11
-2.08213461179437
 21
4.512218113981695
 31
0.0
  0
LINE
  5
354A
330
1E
100
AcDbEntity
  8
7
100
AcDbLine
 10
-1.74945744644004
 20
4.512218113981695
 30
0.0
 11
-1.74945744644004
 21
4.508281106107679
 31
0.0
  0
LINE
  5
354B
330
1E
100
AcDbEntity
  8
7
100
AcDbLine
 10
-4.345914139353425
 20
4.512218113981695
 30
0.0
 11
-4.345914139353425
 21
4.508281106107679
 31
0.0
  0
LINE
  5
3551
330
1E
100
AcDbEntity
  8
7
100
AcDbLine
 10
-1.778985005495157
 20
4.459068507682482
 30
0.0
 11
-1.77701650155815
 21
4.457100003745475
 31
0.0
  0
LINE
  5
3561
330
1E
100
AcDbEntity
  8
7
100
AcDbLine
 10
-4.318355084235315
 20
4.508281106107679
 30
0.0
 11
-4.318355084235315
 21
4.457100003745475
 31
0.0
  0
LINE
  5
3562
330
1E
100
AcDbEntity
  8
7
100
AcDbLine
 10
-2.08213461179437
 20
4.463005515556499
 30
0.0
 11
-2.08213461179437
 21
4.464974019493507
 31
0.0
  0
LINE
  5
3563
330
1E
100
AcDbEntity
  8
7
100
AcDbLine
 10
-2.202213351951851
 20
4.464974019493507
 30
0.0
 11
-2.202213351951851
 21
4.463005515556499
 31
0.0
  0
LINE
  5
3564
330
1E
100
AcDbEntity
  8
7
100
AcDbLine
 10
-3.893158233841614
 20
4.463005515556499
 30
0.0
 11
-3.893158233841614
 21
4.464974019493507
 31
0.0
  0
LINE
  5
3565
330
1E
100
AcDbEntity
  8
7
100
AcDbLine
 10
-4.013236973999094
 20
4.464974019493507
 30
0.0
 11
-4.013236973999094
 21
4.463005515556499
 31
0.0
  0
LINE
  5
3575
330
1E
100
AcDbEntity
  8
7
100
AcDbLine
 10
-2.08213461179437
 20
1.181509452564373
 30
0.0
 11
-2.202213351951851
 21
1.181509452564373
 31
0.0
  0
LINE
  5
358C
330
1E
100
AcDbEntity
  8
7
100
AcDbLine
 10
-3.893158233841614
 20
1.181509452564373
 30
0.0
 11
-4.013236973999094
 21
1.181509452564373
 31
0.0
  0
LINE
  5
358D
330
1E
100
AcDbEntity
  8
7
100
AcDbLine
 10
-4.013236973999094
 20
1.413792917131301
 30
0.0
 11
-4.058512564550276
 21
1.40591890138327
 31
0.0
  0
LINE
  5
35B0
330
1E
100
AcDbEntity
  8
7
100
AcDbLine
 10
-1.77701650155815
 20
1.368517326580121
 30
0.0
 11
-1.775047997621141
 21
1.368517326580121
 31
0.0
  0
LINE
  5
35B1
330
1E
100
AcDbEntity
  8
7
100
AcDbLine
 10
-1.77701650155815
 20
1.419698428942325
 30
0.0
 11
-1.775047997621141
 21
1.419698428942325
 31
0.0
  0
LINE
  5
35B2
330
1E
100
AcDbEntity
  8
7
100
AcDbLine
 10
-4.318355084235315
 20
1.368517326580121
 30
0.0
 11
-4.320323588172323
 21
1.368517326580121
 31
0.0
  0
LINE
  5
35B3
330
1E
100
AcDbEntity
  8
7
100
AcDbLine
 10
-4.318355084235315
 20
1.419698428942325
 30
0.0
 11
-4.320323588172323
 21
1.419698428942325
 31
0.0
  0
LINE
  5
35B4
330
1E
100
AcDbEntity
  8
7
100
AcDbLine
 10
-1.778985005495157
 20
1.419698428942325
 30
0.0
 11
-1.77701650155815
 21
1.419698428942325
 31
0.0
  0
LINE
  5
35B5
330
1E
100
AcDbEntity
  8
7
100
AcDbLine
 10
-4.316386580298307
 20
1.419698428942325
 30
0.0
 11
-4.318355084235315
 21
1.419698428942325
 31
0.0
  0
LINE
  5
35B6
330
1E
100
AcDbEntity
  8
7
100
AcDbLine
 10
-1.849851147227441
 20
1.614580318706105
 30
0.0
 11
-1.969929887384921
 21
1.614580318706105
 31
0.0
  0
LINE
  5
35B7
330
1E
100
AcDbEntity
  8
7
100
AcDbLine
 10
-1.989614926755
 20
1.833084255713979
 30
0.0
 11
-1.969929887384921
 21
1.614580318706105
 31
0.0
  0
LINE
  5
35B8
330
1E
100
AcDbEntity
  8
7
100
AcDbLine
 10
-1.989614926755
 20
1.833084255713979
 30
0.0
 11
-2.202213351951851
 21
1.833084255713979
 31
0.0
  0
LINE
  5
35B9
330
1E
100
AcDbEntity
  8
7
100
AcDbLine
 10
-2.219929887384921
 20
1.614580318706105
 30
0.0
 11
-2.202213351951851
 21
1.833084255713979
 31
0.0
  0
LINE
  5
35BA
330
1E
100
AcDbEntity
  8
7
100
AcDbLine
 10
-2.219929887384921
 20
1.614580318706105
 30
0.0
 11
-2.340008627542402
 21
1.614580318706105
 31
0.0
  0
LINE
  5
35BB
330
1E
100
AcDbEntity
  8
7
100
AcDbLine
 10
-2.836071619668386
 20
1.833084255713979
 30
0.0
 11
-2.855756659038465
 21
1.614580318706105
 31
0.0
  0
LINE
  5
35BC
330
1E
100
AcDbEntity
  8
7
100
AcDbLine
 10
-2.855756659038465
 20
1.614580318706105
 30
0.0
 11
-2.975835399195945
 21
1.614580318706105
 31
0.0
  0
LINE
  5
35BD
330
1E
100
AcDbEntity
  8
7
100
AcDbLine
 10
-2.485677918880984
 20
1.614580318706105
 30
0.0
 11
-2.605756659038465
 21
1.614580318706105
 31
0.0
  0
LINE
  5
35BE
330
1E
100
AcDbEntity
  8
7
100
AcDbLine
 10
-2.623473194471535
 20
1.833084255713979
 30
0.0
 11
-2.605756659038465
 21
1.614580318706105
 31
0.0
  0
LINE
  5
35BF
330
1E
100
AcDbEntity
  8
7
100
AcDbLine
 10
-2.623473194471535
 20
1.833084255713979
 30
0.0
 11
-2.836071619668386
 21
1.833084255713979
 31
0.0
  0
LINE
  5
35C5
330
1E
100
AcDbEntity
  8
7
100
AcDbLine
 10
-3.119536186597519
 20
1.614580318706105
 30
0.0
 11
-3.239614926755
 21
1.614580318706105
 31
0.0
  0
LINE
  5
35C6
330
1E
100
AcDbEntity
  8
7
100
AcDbLine
 10
-3.259299966125078
 20
1.833084255713979
 30
0.0
 11
-3.239614926755
 21
1.614580318706105
 31
0.0
  0
LINE
  5
35C7
330
1E
100
AcDbEntity
  8
7
100
AcDbLine
 10
-3.259299966125078
 20
1.833084255713979
 30
0.0
 11
-3.471898391321929
 21
1.833084255713979
 31
0.0
  0
LINE
  5
35CD
330
1E
100
AcDbEntity
  8
7
100
AcDbLine
 10
-1.849851147227441
 20
3.116548822643112
 30
0.0
 11
-1.969929887384921
 21
3.116548822643112
 31
0.0
  0
LINE
  5
35CE
330
1E
100
AcDbEntity
  8
7
100
AcDbLine
 10
-1.989614926755
 20
3.335052759650986
 30
0.0
 11
-1.969929887384921
 21
3.116548822643112
 31
0.0
  0
LINE
  5
35CF
330
1E
100
AcDbEntity
  8
7
100
AcDbLine
 10
-1.989614926755
 20
3.335052759650986
 30
0.0
 11
-2.202213351951851
 21
3.335052759650986
 31
0.0
  0
LINE
  5
35D0
330
1E
100
AcDbEntity
  8
7
100
AcDbLine
 10
-2.485677918880984
 20
3.116548822643112
 30
0.0
 11
-2.605756659038465
 21
3.116548822643112
 31
0.0
  0
LINE
  5
35D1
330
1E
100
AcDbEntity
  8
7
100
AcDbLine
 10
-2.623473194471535
 20
3.335052759650986
 30
0.0
 11
-2.605756659038465
 21
3.116548822643112
 31
0.0
  0
LINE
  5
35D2
330
1E
100
AcDbEntity
  8
7
100
AcDbLine
 10
-2.623473194471535
 20
3.335052759650986
 30
0.0
 11
-2.836071619668386
 21
3.335052759650986
 31
0.0
  0
LINE
  5
35D8
330
1E
100
AcDbEntity
  8
7
100
AcDbLine
 10
-3.119536186597519
 20
3.116548822643112
 30
0.0
 11
-3.239614926755
 21
3.116548822643112
 31
0.0
  0
LINE
  5
35D9
330
1E
100
AcDbEntity
  8
7
100
AcDbLine
 10
-3.259299966125078
 20
3.335052759650986
 30
0.0
 11
-3.239614926755
 21
3.116548822643112
 31
0.0
  0
LINE
  5
35E0
330
1E
100
AcDbEntity
  8
7
100
AcDbLine
 10
-3.755362958251063
 20
1.614580318706105
 30
0.0
 11
-3.875441698408543
 21
1.614580318706105
 31
0.0
  0
LINE
  5
35E1
330
1E
100
AcDbEntity
  8
7
100
AcDbLine
 10
-3.893158233841614
 20
1.833084255713979
 30
0.0
 11
-3.875441698408543
 21
1.614580318706105
 31
0.0
  0
LINE
  5
35ED
330
1E
100
AcDbEntity
  8
7
100
AcDbLine
 10
-3.755362958251063
 20
3.116548822643112
 30
0.0
 11
-3.875441698408543
 21
3.116548822643112
 31
0.0
  0
LINE
  5
35EE
330
1E
100
AcDbEntity
  8
7
100
AcDbLine
 10
-3.893158233841614
 20
3.335052759650986
 30
0.0
 11
-3.875441698408543
 21
3.116548822643112
 31
0.0
  0
LINE
  5
35EF
330
1E
100
AcDbEntity
  8
7
100
AcDbLine
 10
-3.893158233841614
 20
3.335052759650986
 30
0.0
 11
-4.105756659038465
 21
3.335052759650986
 31
0.0
  0
LINE
  5
35F0
330
1E
100
AcDbEntity
  8
7
100
AcDbLine
 10
-2.202213351951851
 20
1.833084255713979
 30
0.0
 11
-2.200244848014842
 21
1.852769295084057
 31
0.0
  0
LINE
  5
35F1
330
1E
100
AcDbEntity
  8
7
100
AcDbLine
 10
-2.202213351951851
 20
1.866548822643112
 30
0.0
 11
-2.200244848014842
 21
1.852769295084057
 31
0.0
  0
LINE
  5
35F7
330
1E
100
AcDbEntity
  8
7
100
AcDbLine
 10
-2.204181855888858
 20
1.894107877761223
 30
0.0
 11
-2.202213351951851
 21
1.892139373824216
 31
0.0
  0
LINE
  5
35F8
330
1E
100
AcDbEntity
  8
7
100
AcDbLine
 10
-2.204181855888858
 20
1.894107877761223
 30
0.0
 11
-2.202213351951851
 21
1.900013389572247
 31
0.0
  0
LINE
  5
35F9
330
1E
100
AcDbEntity
  8
7
100
AcDbLine
 10
-2.202213351951851
 20
1.917729925005318
 30
0.0
 11
-2.202213351951851
 21
1.900013389572247
 31
0.0
  0
LINE
  5
3601
330
1E
100
AcDbEntity
  8
7
100
AcDbLine
 10
-1.987646422817992
 20
1.866548822643112
 30
0.0
 11
-1.987646422817992
 21
1.890170869887207
 31
0.0
  0
LINE
  5
3607
330
1E
100
AcDbEntity
  8
7
100
AcDbLine
 10
-2.836071619668386
 20
1.833084255713979
 30
0.0
 11
-2.836071619668386
 21
1.852769295084057
 31
0.0
  0
LINE
  5
3608
330
1E
100
AcDbEntity
  8
7
100
AcDbLine
 10
-2.836071619668386
 20
1.866548822643112
 30
0.0
 11
-2.836071619668386
 21
1.852769295084057
 31
0.0
  0
LINE
  5
360E
330
1E
100
AcDbEntity
  8
7
100
AcDbLine
 10
-2.838040123605393
 20
1.894107877761223
 30
0.0
 11
-2.838040123605393
 21
1.892139373824216
 31
0.0
  0
LINE
  5
360F
330
1E
100
AcDbEntity
  8
7
100
AcDbLine
 10
-2.838040123605393
 20
1.894107877761223
 30
0.0
 11
-2.838040123605393
 21
1.900013389572247
 31
0.0
  0
LINE
  5
3610
330
1E
100
AcDbEntity
  8
7
100
AcDbLine
 10
-2.836071619668386
 20
1.917729925005318
 30
0.0
 11
-2.838040123605393
 21
1.900013389572247
 31
0.0
  0
LINE
  5
3618
330
1E
100
AcDbEntity
  8
7
100
AcDbLine
 10
-2.623473194471535
 20
1.866548822643112
 30
0.0
 11
-2.621504690534528
 21
1.890170869887207
 31
0.0
  0
LINE
  5
361E
330
1E
100
AcDbEntity
  8
7
100
AcDbLine
 10
-3.471898391321929
 20
1.833084255713979
 30
0.0
 11
-3.471898391321929
 21
1.852769295084057
 31
0.0
  0
LINE
  5
361F
330
1E
100
AcDbEntity
  8
7
100
AcDbLine
 10
-3.471898391321929
 20
1.866548822643112
 30
0.0
 11
-3.471898391321929
 21
1.852769295084057
 31
0.0
  0
LINE
  5
3625
330
1E
100
AcDbEntity
  8
7
100
AcDbLine
 10
-3.473866895258937
 20
1.894107877761223
 30
0.0
 11
-3.473866895258937
 21
1.892139373824216
 31
0.0
  0
LINE
  5
3626
330
1E
100
AcDbEntity
  8
7
100
AcDbLine
 10
-3.473866895258937
 20
1.894107877761223
 30
0.0
 11
-3.473866895258937
 21
1.900013389572247
 31
0.0
  0
LINE
  5
3627
330
1E
100
AcDbEntity
  8
7
100
AcDbLine
 10
-3.471898391321929
 20
1.917729925005318
 30
0.0
 11
-3.473866895258937
 21
1.900013389572247
 31
0.0
  0
LINE
  5
362F
330
1E
100
AcDbEntity
  8
7
100
AcDbLine
 10
-3.259299966125078
 20
1.866548822643112
 30
0.0
 11
-3.257331462188071
 21
1.890170869887207
 31
0.0
  0
LINE
  5
3635
330
1E
100
AcDbEntity
  8
7
100
AcDbLine
 10
-4.105756659038465
 20
1.833084255713979
 30
0.0
 11
-4.105756659038465
 21
1.852769295084057
 31
0.0
  0
LINE
  5
3636
330
1E
100
AcDbEntity
  8
7
100
AcDbLine
 10
-4.105756659038465
 20
1.866548822643112
 30
0.0
 11
-4.105756659038465
 21
1.852769295084057
 31
0.0
  0
LINE
  5
363C
330
1E
100
AcDbEntity
  8
7
100
AcDbLine
 10
-4.107725162975473
 20
1.894107877761223
 30
0.0
 11
-4.107725162975473
 21
1.892139373824216
 31
0.0
  0
LINE
  5
363D
330
1E
100
AcDbEntity
  8
7
100
AcDbLine
 10
-4.107725162975473
 20
1.894107877761223
 30
0.0
 11
-4.107725162975473
 21
1.900013389572247
 31
0.0
  0
LINE
  5
363E
330
1E
100
AcDbEntity
  8
7
100
AcDbLine
 10
-4.105756659038465
 20
1.917729925005318
 30
0.0
 11
-4.107725162975473
 21
1.900013389572247
 31
0.0
  0
LINE
  5
3646
330
1E
100
AcDbEntity
  8
7
100
AcDbLine
 10
-3.893158233841614
 20
1.866548822643112
 30
0.0
 11
-3.891189729904606
 21
1.890170869887207
 31
0.0
  0
LINE
  5
364C
330
1E
100
AcDbEntity
  8
7
100
AcDbLine
 10
-4.105756659038465
 20
3.335052759650986
 30
0.0
 11
-4.105756659038465
 21
3.354737799021066
 31
0.0
  0
LINE
  5
364D
330
1E
100
AcDbEntity
  8
7
100
AcDbLine
 10
-4.105756659038465
 20
3.36851732658012
 30
0.0
 11
-4.105756659038465
 21
3.354737799021066
 31
0.0
  0
LINE
  5
3653
330
1E
100
AcDbEntity
  8
7
100
AcDbLine
 10
-4.107725162975473
 20
3.396076381698231
 30
0.0
 11
-4.107725162975473
 21
3.394107877761223
 31
0.0
  0
LINE
  5
3654
330
1E
100
AcDbEntity
  8
7
100
AcDbLine
 10
-4.107725162975473
 20
3.396076381698231
 30
0.0
 11
-4.107725162975473
 21
3.401981893509255
 31
0.0
  0
LINE
  5
3655
330
1E
100
AcDbEntity
  8
7
100
AcDbLine
 10
-4.105756659038465
 20
3.419698428942325
 30
0.0
 11
-4.107725162975473
 21
3.401981893509255
 31
0.0
  0
LINE
  5
365D
330
1E
100
AcDbEntity
  8
7
100
AcDbLine
 10
-3.893158233841614
 20
3.36851732658012
 30
0.0
 11
-3.891189729904606
 21
3.392139373824216
 31
0.0
  0
LINE
  5
3663
330
1E
100
AcDbEntity
  8
7
100
AcDbLine
 10
-3.471898391321929
 20
3.335052759650986
 30
0.0
 11
-3.471898391321929
 21
3.354737799021066
 31
0.0
  0
LINE
  5
3664
330
1E
100
AcDbEntity
  8
7
100
AcDbLine
 10
-3.471898391321929
 20
3.36851732658012
 30
0.0
 11
-3.471898391321929
 21
3.354737799021066
 31
0.0
  0
LINE
  5
366A
330
1E
100
AcDbEntity
  8
7
100
AcDbLine
 10
-3.473866895258937
 20
3.396076381698231
 30
0.0
 11
-3.473866895258937
 21
3.394107877761223
 31
0.0
  0
LINE
  5
366B
330
1E
100
AcDbEntity
  8
7
100
AcDbLine
 10
-3.473866895258937
 20
3.396076381698231
 30
0.0
 11
-3.473866895258937
 21
3.401981893509255
 31
0.0
  0
LINE
  5
366C
330
1E
100
AcDbEntity
  8
7
100
AcDbLine
 10
-3.471898391321929
 20
3.419698428942325
 30
0.0
 11
-3.473866895258937
 21
3.401981893509255
 31
0.0
  0
LINE
  5
3674
330
1E
100
AcDbEntity
  8
7
100
AcDbLine
 10
-3.259299966125078
 20
3.36851732658012
 30
0.0
 11
-3.257331462188071
 21
3.392139373824216
 31
0.0
  0
LINE
  5
367A
330
1E
100
AcDbEntity
  8
7
100
AcDbLine
 10
-2.836071619668386
 20
3.335052759650986
 30
0.0
 11
-2.836071619668386
 21
3.354737799021066
 31
0.0
  0
LINE
  5
367B
330
1E
100
AcDbEntity
  8
7
100
AcDbLine
 10
-2.836071619668386
 20
3.36851732658012
 30
0.0
 11
-2.836071619668386
 21
3.354737799021066
 31
0.0
  0
LINE
  5
3681
330
1E
100
AcDbEntity
  8
7
100
AcDbLine
 10
-2.838040123605393
 20
3.396076381698231
 30
0.0
 11
-2.838040123605393
 21
3.394107877761223
 31
0.0
  0
LINE
  5
3682
330
1E
100
AcDbEntity
  8
7
100
AcDbLine
 10
-2.838040123605393
 20
3.396076381698231
 30
0.0
 11
-2.838040123605393
 21
3.401981893509255
 31
0.0
  0
LINE
  5
3683
330
1E
100
AcDbEntity
  8
7
100
AcDbLine
 10
-2.836071619668386
 20
3.419698428942325
 30
0.0
 11
-2.838040123605393
 21
3.401981893509255
 31
0.0
  0
LINE
  5
368B
330
1E
100
AcDbEntity
  8
7
100
AcDbLine
 10
-2.623473194471535
 20
3.36851732658012
 30
0.0
 11
-2.621504690534528
 21
3.392139373824216
 31
0.0
  0
LINE
  5
3691
330
1E
100
AcDbEntity
  8
7
100
AcDbLine
 10
-2.202213351951851
 20
3.335052759650986
 30
0.0
 11
-2.200244848014842
 21
3.354737799021066
 31
0.0
  0
LINE
  5
3692
330
1E
100
AcDbEntity
  8
7
100
AcDbLine
 10
-2.202213351951851
 20
3.36851732658012
 30
0.0
 11
-2.200244848014842
 21
3.354737799021066
 31
0.0
  0
LINE
  5
3698
330
1E
100
AcDbEntity
  8
7
100
AcDbLine
 10
-2.204181855888858
 20
3.396076381698231
 30
0.0
 11
-2.202213351951851
 21
3.394107877761223
 31
0.0
  0
LINE
  5
3699
330
1E
100
AcDbEntity
  8
7
100
AcDbLine
 10
-2.204181855888858
 20
3.396076381698231
 30
0.0
 11
-2.202213351951851
 21
3.401981893509255
 31
0.0
  0
LINE
  5
369A
330
1E
100
AcDbEntity
  8
7
100
AcDbLine
 10
-2.202213351951851
 20
3.419698428942325
 30
0.0
 11
-2.202213351951851
 21
3.401981893509255
 31
0.0
  0
LINE
  5
36A1
330
1E
100
AcDbEntity
  8
7
100
AcDbLine
 10
-1.987646422817992
 20
3.394107877761223
 30
0.0
 11
-1.987646422817992
 21
3.392139373824216
 31
0.0
  0
LINE
  5
36A2
330
1E
100
AcDbEntity
  8
7
100
AcDbLine
 10
-1.987646422817992
 20
3.36851732658012
 30
0.0
 11
-1.987646422817992
 21
3.392139373824216
 31
0.0
  0
LINE
  5
36B2
330
1E
100
AcDbEntity
  8
7
100
AcDbLine
 10
-4.385284218093582
 20
4.421666932879332
 30
0.0
 11
-4.369536186597519
 21
3.917729925005318
 31
0.0
  0
LINE
  5
36C1
330
1E
100
AcDbEntity
  8
7
100
AcDbLine
 10
-4.320323588172323
 20
4.112611814769097
 30
0.0
 11
-4.320323588172323
 21
4.151981893509255
 31
0.0
  0
LINE
  5
36CD
330
1E
100
AcDbEntity
  8
7
100
AcDbLine
 10
-4.245520438566023
 20
1.614580318706105
 30
0.0
 11
-4.245520438566023
 21
1.565367720280908
 31
0.0
  0
LINE
  5
36CE
330
1E
100
AcDbEntity
  8
7
100
AcDbLine
 10
-4.312449572424291
 20
1.614580318706105
 30
0.0
 11
-4.245520438566023
 21
1.614580318706105
 31
0.0
  0
LINE
  5
36CF
330
1E
100
AcDbEntity
  8
7
100
AcDbLine
 10
-4.312449572424291
 20
2.185446460438388
 30
0.0
 11
-4.312449572424291
 21
1.614580318706105
 31
0.0
  0
LINE
  5
36D0
330
1E
100
AcDbEntity
  8
7
100
AcDbLine
 10
-4.105756659038465
 20
2.185446460438388
 30
0.0
 11
-4.312449572424291
 21
2.185446460438388
 31
0.0
  0
LINE
  5
36D1
330
1E
100
AcDbEntity
  8
7
100
AcDbLine
 10
-4.105756659038465
 20
2.214974019493507
 30
0.0
 11
-4.105756659038465
 21
2.185446460438388
 31
0.0
  0
LINE
  5
36D2
330
1E
100
AcDbEntity
  8
7
100
AcDbLine
 10
-3.895126737778622
 20
2.214974019493507
 30
0.0
 11
-4.105756659038465
 21
2.214974019493507
 31
0.0
  0
LINE
  5
36D3
330
1E
100
AcDbEntity
  8
7
100
AcDbLine
 10
-3.895126737778622
 20
2.185446460438388
 30
0.0
 11
-3.895126737778622
 21
2.214974019493507
 31
0.0
  0
LINE
  5
36D4
330
1E
100
AcDbEntity
  8
7
100
AcDbLine
 10
-3.469929887384921
 20
2.185446460438388
 30
0.0
 11
-3.895126737778622
 21
2.185446460438388
 31
0.0
  0
LINE
  5
36D5
330
1E
100
AcDbEntity
  8
7
100
AcDbLine
 10
-3.469929887384921
 20
2.214974019493507
 30
0.0
 11
-3.469929887384921
 21
2.185446460438388
 31
0.0
  0
LINE
  5
36D6
330
1E
100
AcDbEntity
  8
7
100
AcDbLine
 10
-3.259299966125078
 20
2.214974019493507
 30
0.0
 11
-3.469929887384921
 21
2.214974019493507
 31
0.0
  0
LINE
  5
36D7
330
1E
100
AcDbEntity
  8
7
100
AcDbLine
 10
-3.259299966125078
 20
2.185446460438388
 30
0.0
 11
-3.259299966125078
 21
2.214974019493507
 31
0.0
  0
LINE
  5
36D8
330
1E
100
AcDbEntity
  8
7
100
AcDbLine
 10
-2.834103115731378
 20
2.185446460438388
 30
0.0
 11
-3.259299966125078
 21
2.185446460438388
 31
0.0
  0
LINE
  5
36D9
330
1E
100
AcDbEntity
  8
7
100
AcDbLine
 10
-2.836071619668386
 20
2.214974019493507
 30
0.0
 11
-2.834103115731378
 21
2.185446460438388
 31
0.0
  0
LINE
  5
36DA
330
1E
100
AcDbEntity
  8
7
100
AcDbLine
 10
-2.623473194471535
 20
2.214974019493507
 30
0.0
 11
-2.836071619668386
 21
2.214974019493507
 31
0.0
  0
LINE
  5
36DB
330
1E
100
AcDbEntity
  8
7
100
AcDbLine
 10
-2.625441698408543
 20
2.185446460438388
 30
0.0
 11
-2.623473194471535
 21
2.214974019493507
 31
0.0
  0
LINE
  5
36DC
330
1E
100
AcDbEntity
  8
7
100
AcDbLine
 10
-2.200244848014842
 20
2.185446460438388
 30
0.0
 11
-2.625441698408543
 21
2.185446460438388
 31
0.0
  0
LINE
  5
36DD
330
1E
100
AcDbEntity
  8
7
100
AcDbLine
 10
-2.200244848014842
 20
2.214974019493507
 30
0.0
 11
-2.200244848014842
 21
2.185446460438388
 31
0.0
  0
LINE
  5
36DE
330
1E
100
AcDbEntity
  8
7
100
AcDbLine
 10
-1.989614926755
 20
2.214974019493507
 30
0.0
 11
-2.200244848014842
 21
2.214974019493507
 31
0.0
  0
LINE
  5
36DF
330
1E
100
AcDbEntity
  8
7
100
AcDbLine
 10
-1.989614926755
 20
2.185446460438388
 30
0.0
 11
-1.989614926755
 21
2.214974019493507
 31
0.0
  0
LINE
  5
36E0
330
1E
100
AcDbEntity
  8
7
100
AcDbLine
 10
-1.782922013369173
 20
2.185446460438388
 30
0.0
 11
-1.989614926755
 21
2.185446460438388
 31
0.0
  0
LINE
  5
36E1
330
1E
100
AcDbEntity
  8
7
100
AcDbLine
 10
-1.782922013369173
 20
1.614580318706105
 30
0.0
 11
-1.782922013369173
 21
2.185446460438388
 31
0.0
  0
LINE
  5
36E2
330
1E
100
AcDbEntity
  8
7
100
AcDbLine
 10
-1.849851147227441
 20
1.614580318706105
 30
0.0
 11
-1.782922013369173
 21
1.614580318706105
 31
0.0
  0
LINE
  5
36E3
330
1E
100
AcDbEntity
  8
7
100
AcDbLine
 10
-1.849851147227441
 20
1.565367720280908
 30
0.0
 11
-1.849851147227441
 21
1.614580318706105
 31
0.0
  0
LINE
  5
36F8
330
1E
100
AcDbEntity
  8
7
100
AcDbLine
 10
-4.385284218093582
 20
2.919698428942325
 30
0.0
 11
-4.369536186597519
 21
2.41576142106831
 31
0.0
  0
LINE
  5
36F9
330
1E
100
AcDbEntity
  8
7
100
AcDbLine
 10
-2.007331462188071
 20
2.177572444690357
 30
0.0
 11
-2.182528312581772
 21
2.177572444690357
 31
0.0
  0
LINE
  5
36FA
330
1E
100
AcDbEntity
  8
7
100
AcDbLine
 10
-2.643158233841614
 20
2.177572444690357
 30
0.0
 11
-2.818355084235315
 21
2.177572444690357
 31
0.0
  0
LINE
  5
36FB
330
1E
100
AcDbEntity
  8
7
100
AcDbLine
 10
-3.27701650155815
 20
2.177572444690357
 30
0.0
 11
-3.452213351951851
 21
2.177572444690357
 31
0.0
  0
LINE
  5
36FC
330
1E
100
AcDbEntity
  8
7
100
AcDbLine
 10
-3.912843273211693
 20
2.177572444690357
 30
0.0
 11
-4.088040123605393
 21
2.177572444690357
 31
0.0
  0
LINE
  5
370E
330
1E
100
AcDbEntity
  8
7
100
AcDbLine
 10
-2.743551934629016
 20
2.518123625792719
 30
0.0
 11
-2.763236973999094
 21
2.502375594296657
 31
0.0
  0
LINE
  5
3715
330
1E
100
AcDbEntity
  8
7
100
AcDbLine
 10
-2.485677918880984
 20
1.659855909257286
 30
0.0
 11
-2.340008627542402
 21
1.659855909257286
 31
0.0
  0
LINE
  5
3716
330
1E
100
AcDbEntity
  8
7
100
AcDbLine
 10
-3.119536186597519
 20
1.659855909257286
 30
0.0
 11
-2.975835399195945
 21
1.659855909257286
 31
0.0
  0
LINE
  5
3717
330
1E
100
AcDbEntity
  8
7
100
AcDbLine
 10
-3.755362958251063
 20
1.659855909257286
 30
0.0
 11
-3.60969366691248
 21
1.659855909257286
 31
0.0
  0
LINE
  5
3718
330
1E
100
AcDbEntity
  8
7
100
AcDbLine
 10
-2.007331462188071
 20
2.177572444690357
 30
0.0
 11
-2.007331462188071
 21
2.21103701161949
 31
0.0
  0
LINE
  5
3719
330
1E
100
AcDbEntity
  8
7
100
AcDbLine
 10
-2.182528312581772
 20
2.177572444690357
 30
0.0
 11
-2.182528312581772
 21
2.21103701161949
 31
0.0
  0
LINE
  5
371A
330
1E
100
AcDbEntity
  8
7
100
AcDbLine
 10
-2.007331462188071
 20
2.21103701161949
 30
0.0
 11
-2.182528312581772
 21
2.21103701161949
 31
0.0
  0
LINE
  5
371B
330
1E
100
AcDbEntity
  8
7
100
AcDbLine
 10
-2.643158233841614
 20
2.177572444690357
 30
0.0
 11
-2.643158233841614
 21
2.21103701161949
 31
0.0
  0
LINE
  5
371C
330
1E
100
AcDbEntity
  8
7
100
AcDbLine
 10
-2.818355084235315
 20
2.177572444690357
 30
0.0
 11
-2.818355084235315
 21
2.21103701161949
 31
0.0
  0
LINE
  5
371D
330
1E
100
AcDbEntity
  8
7
100
AcDbLine
 10
-2.643158233841614
 20
2.21103701161949
 30
0.0
 11
-2.818355084235315
 21
2.21103701161949
 31
0.0
  0
LINE
  5
371E
330
1E
100
AcDbEntity
  8
7
100
AcDbLine
 10
-3.27701650155815
 20
2.177572444690357
 30
0.0
 11
-3.27701650155815
 21
2.21103701161949
 31
0.0
  0
LINE
  5
371F
330
1E
100
AcDbEntity
  8
7
100
AcDbLine
 10
-3.452213351951851
 20
2.177572444690357
 30
0.0
 11
-3.452213351951851
 21
2.21103701161949
 31
0.0
  0
LINE
  5
3720
330
1E
100
AcDbEntity
  8
7
100
AcDbLine
 10
-3.27701650155815
 20
2.21103701161949
 30
0.0
 11
-3.452213351951851
 21
2.21103701161949
 31
0.0
  0
LINE
  5
3721
330
1E
100
AcDbEntity
  8
7
100
AcDbLine
 10
-3.912843273211693
 20
2.177572444690357
 30
0.0
 11
-3.912843273211693
 21
2.21103701161949
 31
0.0
  0
LINE
  5
3722
330
1E
100
AcDbEntity
  8
7
100
AcDbLine
 10
-4.088040123605393
 20
2.177572444690357
 30
0.0
 11
-4.088040123605393
 21
2.21103701161949
 31
0.0
  0
LINE
  5
3723
330
1E
100
AcDbEntity
  8
7
100
AcDbLine
 10
-3.912843273211693
 20
2.21103701161949
 30
0.0
 11
-4.088040123605393
 21
2.21103701161949
 31
0.0
  0
LINE
  5
375C
330
1E
100
AcDbEntity
  8
7
100
AcDbLine
 10
-3.60969366691248
 20
1.659855909257286
 30
0.0
 11
-3.60969366691248
 21
1.614580318706105
 31
0.0
  0
LINE
  5
375D
330
1E
100
AcDbEntity
  8
7
100
AcDbLine
 10
-3.119536186597519
 20
1.614580318706105
 30
0.0
 11
-2.975835399195945
 21
1.614580318706105
 31
0.0
  0
LINE
  5
375E
330
1E
100
AcDbEntity
  8
7
100
AcDbLine
 10
-2.975835399195945
 20
1.659855909257286
 30
0.0
 11
-2.975835399195945
 21
1.614580318706105
 31
0.0
  0
LINE
  5
375F
330
1E
100
AcDbEntity
  8
7
100
AcDbLine
 10
-3.119536186597519
 20
1.659855909257286
 30
0.0
 11
-3.119536186597519
 21
1.614580318706105
 31
0.0
  0
LINE
  5
376A
330
1E
100
AcDbEntity
  8
7
100
AcDbLine
 10
-2.485677918880984
 20
1.565367720280908
 30
0.0
 11
-2.485677918880984
 21
1.614580318706105
 31
0.0
  0
LINE
  5
376B
330
1E
100
AcDbEntity
  8
7
100
AcDbLine
 10
-2.975835399195945
 20
1.614580318706105
 30
0.0
 11
-2.975835399195945
 21
1.565367720280908
 31
0.0
  0
LINE
  5
376C
330
1E
100
AcDbEntity
  8
7
100
AcDbLine
 10
-3.119536186597519
 20
1.565367720280908
 30
0.0
 11
-3.119536186597519
 21
1.614580318706105
 31
0.0
  0
LINE
  5
376D
330
1E
100
AcDbEntity
  8
7
100
AcDbLine
 10
-3.60969366691248
 20
1.614580318706105
 30
0.0
 11
-3.60969366691248
 21
1.565367720280908
 31
0.0
  0
LINE
  5
376E
330
1E
100
AcDbEntity
  8
7
100
AcDbLine
 10
-3.755362958251063
 20
1.565367720280908
 30
0.0
 11
-3.755362958251063
 21
1.614580318706105
 31
0.0
  0
LINE
  5
376F
330
1E
100
AcDbEntity
  8
7
100
AcDbLine
 10
-1.778985005495157
 20
2.463005515556499
 30
0.0
 11
-1.778985005495157
 21
2.490564570674608
 31
0.0
  0
LINE
  5
3770
330
1E
100
AcDbEntity
  8
7
100
AcDbLine
 10
-4.316386580298307
 20
2.490564570674608
 30
0.0
 11
-4.316386580298307
 21
2.463005515556499
 31
0.0
  0
LINE
  5
3771
330
1E
100
AcDbEntity
  8
7
100
AcDbLine
 10
-1.849851147227441
 20
1.659855909257286
 30
0.0
 11
-1.849851147227441
 21
1.614580318706105
 31
0.0
  0
LINE
  5
3772
330
1E
100
AcDbEntity
  8
7
100
AcDbLine
 10
-1.849851147227441
 20
1.659855909257286
 30
0.0
 11
-1.782922013369173
 21
1.659855909257286
 31
0.0
  0
LINE
  5
3773
330
1E
100
AcDbEntity
  8
7
100
AcDbLine
 10
-1.989614926755
 20
2.185446460438388
 30
0.0
 11
-1.993551934629016
 21
2.21103701161949
 31
0.0
  0
LINE
  5
3774
330
1E
100
AcDbEntity
  8
7
100
AcDbLine
 10
-2.007331462188071
 20
2.21103701161949
 30
0.0
 11
-1.993551934629016
 21
2.21103701161949
 31
0.0
  0
LINE
  5
3775
330
1E
100
AcDbEntity
  8
7
100
AcDbLine
 10
-1.989614926755
 20
2.214974019493507
 30
0.0
 11
-1.993551934629016
 21
2.21103701161949
 31
0.0
  0
LINE
  5
377B
330
1E
100
AcDbEntity
  8
7
100
AcDbLine
 10
-2.198276344077835
 20
2.21103701161949
 30
0.0
 11
-2.200244848014842
 21
2.185446460438388
 31
0.0
  0
LINE
  5
377C
330
1E
100
AcDbEntity
  8
7
100
AcDbLine
 10
-2.625441698408543
 20
2.185446460438388
 30
0.0
 11
-2.627410202345551
 21
2.21103701161949
 31
0.0
  0
LINE
  5
377D
330
1E
100
AcDbEntity
  8
7
100
AcDbLine
 10
-2.643158233841614
 20
2.21103701161949
 30
0.0
 11
-2.627410202345551
 21
2.21103701161949
 31
0.0
  0
LINE
  5
377E
330
1E
100
AcDbEntity
  8
7
100
AcDbLine
 10
-2.623473194471535
 20
2.214974019493507
 30
0.0
 11
-2.627410202345551
 21
2.21103701161949
 31
0.0
  0
LINE
  5
3784
330
1E
100
AcDbEntity
  8
7
100
AcDbLine
 10
-2.83213461179437
 20
2.21103701161949
 30
0.0
 11
-2.834103115731378
 21
2.185446460438388
 31
0.0
  0
LINE
  5
3785
330
1E
100
AcDbEntity
  8
7
100
AcDbLine
 10
-3.259299966125078
 20
2.185446460438388
 30
0.0
 11
-3.263236973999094
 21
2.21103701161949
 31
0.0
  0
LINE
  5
3786
330
1E
100
AcDbEntity
  8
7
100
AcDbLine
 10
-3.27701650155815
 20
2.21103701161949
 30
0.0
 11
-3.263236973999094
 21
2.21103701161949
 31
0.0
  0
LINE
  5
3787
330
1E
100
AcDbEntity
  8
7
100
AcDbLine
 10
-3.259299966125078
 20
2.214974019493507
 30
0.0
 11
-3.263236973999094
 21
2.21103701161949
 31
0.0
  0
LINE
  5
378D
330
1E
100
AcDbEntity
  8
7
100
AcDbLine
 10
-3.467961383447914
 20
2.21103701161949
 30
0.0
 11
-3.469929887384921
 21
2.185446460438388
 31
0.0
  0
LINE
  5
378E
330
1E
100
AcDbEntity
  8
7
100
AcDbLine
 10
-3.895126737778622
 20
2.185446460438388
 30
0.0
 11
-3.89709524171563
 21
2.21103701161949
 31
0.0
  0
LINE
  5
378F
330
1E
100
AcDbEntity
  8
7
100
AcDbLine
 10
-3.912843273211693
 20
2.21103701161949
 30
0.0
 11
-3.89709524171563
 21
2.21103701161949
 31
0.0
  0
LINE
  5
3790
330
1E
100
AcDbEntity
  8
7
100
AcDbLine
 10
-3.895126737778622
 20
2.214974019493507
 30
0.0
 11
-3.89709524171563
 21
2.21103701161949
 31
0.0
  0
LINE
  5
3796
330
1E
100
AcDbEntity
  8
7
100
AcDbLine
 10
-4.101819651164449
 20
2.21103701161949
 30
0.0
 11
-4.105756659038465
 21
2.185446460438388
 31
0.0
  0
LINE
  5
3797
330
1E
100
AcDbEntity
  8
7
100
AcDbLine
 10
-4.312449572424291
 20
1.659855909257286
 30
0.0
 11
-4.245520438566023
 21
1.659855909257286
 31
0.0
  0
LINE
  5
3798
330
1E
100
AcDbEntity
  8
7
100
AcDbLine
 10
-4.245520438566023
 20
1.659855909257286
 30
0.0
 11
-4.245520438566023
 21
1.614580318706105
 31
0.0
  0
LINE
  5
3799
330
1E
100
AcDbEntity
  8
7
100
AcDbLine
 10
-1.77701650155815
 20
2.490564570674608
 30
0.0
 11
-1.778985005495157
 21
2.490564570674608
 31
0.0
  0
LINE
  5
379A
330
1E
100
AcDbEntity
  8
7
100
AcDbLine
 10
-1.77701650155815
 20
2.488596066737601
 30
0.0
 11
-1.77701650155815
 21
2.463005515556499
 31
0.0
  0
LINE
  5
379B
330
1E
100
AcDbEntity
  8
7
100
AcDbLine
 10
-1.77701650155815
 20
2.596863783273034
 30
0.0
 11
-1.74945744644004
 21
2.596863783273034
 31
0.0
  0
LINE
  5
379C
330
1E
100
AcDbEntity
  8
7
100
AcDbLine
 10
-1.77701650155815
 20
2.636233862013192
 30
0.0
 11
-1.77701650155815
 21
2.596863783273034
 31
0.0
  0
LINE
  5
37A2
330
1E
100
AcDbEntity
  8
7
100
AcDbLine
 10
-1.778985005495157
 20
2.567336224217916
 30
0.0
 11
-1.778985005495157
 21
2.606706302958073
 31
0.0
  0
LINE
  5
37A3
330
1E
100
AcDbEntity
  8
7
100
AcDbLine
 10
-4.316386580298307
 20
2.606706302958073
 30
0.0
 11
-1.778985005495157
 21
2.606706302958073
 31
0.0
  0
LINE
  5
37A4
330
1E
100
AcDbEntity
  8
7
100
AcDbLine
 10
-4.316386580298307
 20
2.606706302958073
 30
0.0
 11
-4.316386580298307
 21
2.567336224217916
 31
0.0
  0
LINE
  5
37A5
330
1E
100
AcDbEntity
  8
7
100
AcDbLine
 10
-4.345914139353425
 20
2.567336224217916
 30
0.0
 11
-4.316386580298307
 21
2.567336224217916
 31
0.0
  0
LINE
  5
37A6
330
1E
100
AcDbEntity
  8
7
100
AcDbLine
 10
-4.345914139353425
 20
2.500407090359647
 30
0.0
 11
-4.345914139353425
 21
2.567336224217916
 31
0.0
  0
LINE
  5
37A7
330
1E
100
AcDbEntity
  8
7
100
AcDbLine
 10
-4.316386580298307
 20
2.490564570674608
 30
0.0
 11
-4.318355084235315
 21
2.490564570674608
 31
0.0
  0
LINE
  5
37A8
330
1E
100
AcDbEntity
  8
7
100
AcDbLine
 10
-1.74945744644004
 20
2.567336224217916
 30
0.0
 11
-1.74945744644004
 21
2.500407090359647
 31
0.0
  0
LINE
  5
37A9
330
1E
100
AcDbEntity
  8
7
100
AcDbLine
 10
-4.318355084235315
 20
2.488596066737601
 30
0.0
 11
-4.318355084235315
 21
2.463005515556499
 31
0.0
  0
LINE
  5
37AA
330
1E
100
AcDbEntity
  8
7
100
AcDbLine
 10
-4.345914139353425
 20
2.567336224217916
 30
0.0
 11
-4.345914139353425
 21
2.596863783273034
 31
0.0
  0
LINE
  5
37B0
330
1E
100
AcDbEntity
  8
7
100
AcDbLine
 10
-4.318355084235315
 20
2.636233862013192
 30
0.0
 11
-4.320323588172323
 21
2.650013389572247
 31
0.0
  0
LINE
  5
37B1
330
1E
100
AcDbEntity
  8
7
100
AcDbLine
 10
-4.318355084235315
 20
2.596863783273034
 30
0.0
 11
-4.320323588172323
 21
2.610643310832088
 31
0.0
  0
LINE
  5
37B2
330
1E
100
AcDbEntity
  8
7
100
AcDbLine
 10
-4.345914139353425
 20
2.596863783273034
 30
0.0
 11
-4.345914139353425
 21
2.610643310832088
 31
0.0
  0
LINE
  5
37B3
330
1E
100
AcDbEntity
  8
7
100
AcDbLine
 10
-4.318355084235315
 20
2.488596066737601
 30
0.0
 11
-4.320323588172323
 21
2.500407090359647
 31
0.0
  0
LINE
  5
37B4
330
1E
100
AcDbEntity
  8
7
100
AcDbLine
 10
-1.77701650155815
 20
2.488596066737601
 30
0.0
 11
-1.775047997621141
 21
2.500407090359647
 31
0.0
  0
LINE
  5
37B5
330
1E
100
AcDbEntity
  8
7
100
AcDbLine
 10
-1.74945744644004
 20
2.596863783273034
 30
0.0
 11
-1.74945744644004
 21
2.610643310832088
 31
0.0
  0
LINE
  5
37B6
330
1E
100
AcDbEntity
  8
7
100
AcDbLine
 10
-1.77701650155815
 20
2.596863783273034
 30
0.0
 11
-1.775047997621141
 21
2.610643310832088
 31
0.0
  0
LINE
  5
37B7
330
1E
100
AcDbEntity
  8
7
100
AcDbLine
 10
-1.77701650155815
 20
2.636233862013192
 30
0.0
 11
-1.775047997621141
 21
2.650013389572247
 31
0.0
  0
LINE
  5
37B8
330
1E
100
AcDbEntity
  8
7
100
AcDbLine
 10
-4.316386580298307
 20
2.606706302958073
 30
0.0
 11
-4.318355084235315
 21
2.636233862013192
 31
0.0
  0
LINE
  5
37B9
330
1E
100
AcDbEntity
  8
7
100
AcDbLine
 10
-1.778985005495157
 20
2.606706302958073
 30
0.0
 11
-1.77701650155815
 21
2.636233862013192
 31
0.0
  0
LINE
  5
37C0
330
1E
100
AcDbEntity
  8
7
100
AcDbLine
 10
-4.245520438566023
 20
3.116548822643112
 30
0.0
 11
-4.245520438566023
 21
3.067336224217916
 31
0.0
  0
LINE
  5
37C1
330
1E
100
AcDbEntity
  8
7
100
AcDbLine
 10
-4.312449572424291
 20
3.116548822643112
 30
0.0
 11
-4.245520438566023
 21
3.116548822643112
 31
0.0
  0
LINE
  5
37C2
330
1E
100
AcDbEntity
  8
7
100
AcDbLine
 10
-4.312449572424291
 20
3.687414964375395
 30
0.0
 11
-4.312449572424291
 21
3.116548822643112
 31
0.0
  0
LINE
  5
37C3
330
1E
100
AcDbEntity
  8
7
100
AcDbLine
 10
-4.105756659038465
 20
3.687414964375395
 30
0.0
 11
-4.312449572424291
 21
3.687414964375395
 31
0.0
  0
LINE
  5
37C4
330
1E
100
AcDbEntity
  8
7
100
AcDbLine
 10
-4.105756659038465
 20
3.716942523430514
 30
0.0
 11
-4.105756659038465
 21
3.687414964375395
 31
0.0
  0
LINE
  5
37C5
330
1E
100
AcDbEntity
  8
7
100
AcDbLine
 10
-3.895126737778622
 20
3.716942523430514
 30
0.0
 11
-4.105756659038465
 21
3.716942523430514
 31
0.0
  0
LINE
  5
37C6
330
1E
100
AcDbEntity
  8
7
100
AcDbLine
 10
-3.895126737778622
 20
3.687414964375395
 30
0.0
 11
-3.895126737778622
 21
3.716942523430514
 31
0.0
  0
LINE
  5
37C7
330
1E
100
AcDbEntity
  8
7
100
AcDbLine
 10
-3.469929887384921
 20
3.687414964375395
 30
0.0
 11
-3.895126737778622
 21
3.687414964375395
 31
0.0
  0
LINE
  5
37C8
330
1E
100
AcDbEntity
  8
7
100
AcDbLine
 10
-3.469929887384921
 20
3.716942523430514
 30
0.0
 11
-3.469929887384921
 21
3.687414964375395
 31
0.0
  0
LINE
  5
37C9
330
1E
100
AcDbEntity
  8
7
100
AcDbLine
 10
-3.259299966125078
 20
3.716942523430514
 30
0.0
 11
-3.469929887384921
 21
3.716942523430514
 31
0.0
  0
LINE
  5
37CA
330
1E
100
AcDbEntity
  8
7
100
AcDbLine
 10
-3.259299966125078
 20
3.687414964375395
 30
0.0
 11
-3.259299966125078
 21
3.716942523430514
 31
0.0
  0
LINE
  5
37CB
330
1E
100
AcDbEntity
  8
7
100
AcDbLine
 10
-2.834103115731378
 20
3.687414964375395
 30
0.0
 11
-3.259299966125078
 21
3.687414964375395
 31
0.0
  0
LINE
  5
37CC
330
1E
100
AcDbEntity
  8
7
100
AcDbLine
 10
-2.836071619668386
 20
3.716942523430514
 30
0.0
 11
-2.834103115731378
 21
3.687414964375395
 31
0.0
  0
LINE
  5
37CD
330
1E
100
AcDbEntity
  8
7
100
AcDbLine
 10
-2.623473194471535
 20
3.716942523430514
 30
0.0
 11
-2.836071619668386
 21
3.716942523430514
 31
0.0
  0
LINE
  5
37CE
330
1E
100
AcDbEntity
  8
7
100
AcDbLine
 10
-2.625441698408543
 20
3.687414964375395
 30
0.0
 11
-2.623473194471535
 21
3.716942523430514
 31
0.0
  0
LINE
  5
37CF
330
1E
100
AcDbEntity
  8
7
100
AcDbLine
 10
-2.200244848014842
 20
3.687414964375395
 30
0.0
 11
-2.625441698408543
 21
3.687414964375395
 31
0.0
  0
LINE
  5
37D0
330
1E
100
AcDbEntity
  8
7
100
AcDbLine
 10
-2.200244848014842
 20
3.716942523430514
 30
0.0
 11
-2.200244848014842
 21
3.687414964375395
 31
0.0
  0
LINE
  5
37D1
330
1E
100
AcDbEntity
  8
7
100
AcDbLine
 10
-1.989614926755
 20
3.716942523430514
 30
0.0
 11
-2.200244848014842
 21
3.716942523430514
 31
0.0
  0
LINE
  5
37D2
330
1E
100
AcDbEntity
  8
7
100
AcDbLine
 10
-1.989614926755
 20
3.687414964375395
 30
0.0
 11
-1.989614926755
 21
3.716942523430514
 31
0.0
  0
LINE
  5
37D3
330
1E
100
AcDbEntity
  8
7
100
AcDbLine
 10
-1.782922013369173
 20
3.687414964375395
 30
0.0
 11
-1.989614926755
 21
3.687414964375395
 31
0.0
  0
LINE
  5
37D4
330
1E
100
AcDbEntity
  8
7
100
AcDbLine
 10
-1.782922013369173
 20
3.116548822643112
 30
0.0
 11
-1.782922013369173
 21
3.687414964375395
 31
0.0
  0
LINE
  5
37D5
330
1E
100
AcDbEntity
  8
7
100
AcDbLine
 10
-1.849851147227441
 20
3.116548822643112
 30
0.0
 11
-1.782922013369173
 21
3.116548822643112
 31
0.0
  0
LINE
  5
37D6
330
1E
100
AcDbEntity
  8
7
100
AcDbLine
 10
-1.849851147227441
 20
3.067336224217916
 30
0.0
 11
-1.849851147227441
 21
3.116548822643112
 31
0.0
  0
LINE
  5
37D7
330
1E
100
AcDbEntity
  8
7
100
AcDbLine
 10
-2.007331462188071
 20
3.679540948627364
 30
0.0
 11
-2.182528312581772
 21
3.679540948627364
 31
0.0
  0
LINE
  5
37D8
330
1E
100
AcDbEntity
  8
7
100
AcDbLine
 10
-2.643158233841614
 20
3.679540948627364
 30
0.0
 11
-2.818355084235315
 21
3.679540948627364
 31
0.0
  0
LINE
  5
37D9
330
1E
100
AcDbEntity
  8
7
100
AcDbLine
 10
-3.27701650155815
 20
3.679540948627364
 30
0.0
 11
-3.452213351951851
 21
3.679540948627364
 31
0.0
  0
LINE
  5
37DA
330
1E
100
AcDbEntity
  8
7
100
AcDbLine
 10
-3.912843273211693
 20
3.679540948627364
 30
0.0
 11
-4.088040123605393
 21
3.679540948627364
 31
0.0
  0
LINE
  5
37F3
330
1E
100
AcDbEntity
  8
7
100
AcDbLine
 10
-2.485677918880984
 20
3.161824413194294
 30
0.0
 11
-2.340008627542402
 21
3.161824413194294
 31
0.0
  0
LINE
  5
37F4
330
1E
100
AcDbEntity
  8
7
100
AcDbLine
 10
-3.119536186597519
 20
3.161824413194294
 30
0.0
 11
-2.975835399195945
 21
3.161824413194294
 31
0.0
  0
LINE
  5
37F5
330
1E
100
AcDbEntity
  8
7
100
AcDbLine
 10
-3.755362958251063
 20
3.161824413194294
 30
0.0
 11
-3.60969366691248
 21
3.161824413194294
 31
0.0
  0
LINE
  5
37F6
330
1E
100
AcDbEntity
  8
7
100
AcDbLine
 10
-2.007331462188071
 20
3.679540948627364
 30
0.0
 11
-2.007331462188071
 21
3.713005515556499
 31
0.0
  0
LINE
  5
37F7
330
1E
100
AcDbEntity
  8
7
100
AcDbLine
 10
-2.182528312581772
 20
3.679540948627364
 30
0.0
 11
-2.182528312581772
 21
3.713005515556499
 31
0.0
  0
LINE
  5
37F8
330
1E
100
AcDbEntity
  8
7
100
AcDbLine
 10
-2.007331462188071
 20
3.713005515556499
 30
0.0
 11
-2.182528312581772
 21
3.713005515556499
 31
0.0
  0
LINE
  5
37F9
330
1E
100
AcDbEntity
  8
7
100
AcDbLine
 10
-2.643158233841614
 20
3.679540948627364
 30
0.0
 11
-2.643158233841614
 21
3.713005515556499
 31
0.0
  0
LINE
  5
37FA
330
1E
100
AcDbEntity
  8
7
100
AcDbLine
 10
-2.818355084235315
 20
3.679540948627364
 30
0.0
 11
-2.818355084235315
 21
3.713005515556499
 31
0.0
  0
LINE
  5
37FB
330
1E
100
AcDbEntity
  8
7
100
AcDbLine
 10
-2.643158233841614
 20
3.713005515556499
 30
0.0
 11
-2.818355084235315
 21
3.713005515556499
 31
0.0
  0
LINE
  5
37FC
330
1E
100
AcDbEntity
  8
7
100
AcDbLine
 10
-3.27701650155815
 20
3.679540948627364
 30
0.0
 11
-3.27701650155815
 21
3.713005515556499
 31
0.0
  0
LINE
  5
37FD
330
1E
100
AcDbEntity
  8
7
100
AcDbLine
 10
-3.452213351951851
 20
3.679540948627364
 30
0.0
 11
-3.452213351951851
 21
3.713005515556499
 31
0.0
  0
LINE
  5
37FE
330
1E
100
AcDbEntity
  8
7
100
AcDbLine
 10
-3.27701650155815
 20
3.713005515556499
 30
0.0
 11
-3.452213351951851
 21
3.713005515556499
 31
0.0
  0
LINE
  5
37FF
330
1E
100
AcDbEntity
  8
7
100
AcDbLine
 10
-3.912843273211693
 20
3.679540948627364
 30
0.0
 11
-3.912843273211693
 21
3.713005515556499
 31
0.0
  0
LINE
  5
3800
330
1E
100
AcDbEntity
  8
7
100
AcDbLine
 10
-4.088040123605393
 20
3.679540948627364
 30
0.0
 11
-4.088040123605393
 21
3.713005515556499
 31
0.0
  0
LINE
  5
3801
330
1E
100
AcDbEntity
  8
7
100
AcDbLine
 10
-3.912843273211693
 20
3.713005515556499
 30
0.0
 11
-4.088040123605393
 21
3.713005515556499
 31
0.0
  0
LINE
  5
3802
330
1E
100
AcDbEntity
  8
7
100
AcDbLine
 10
-4.03685902124319
 20
4.01615512185571
 30
0.0
 11
-4.028985005495157
 21
4.033871657288782
 31
0.0
  0
LINE
  5
383D
330
1E
100
AcDbEntity
  8
7
100
AcDbLine
 10
-3.60969366691248
 20
3.161824413194294
 30
0.0
 11
-3.60969366691248
 21
3.116548822643112
 31
0.0
  0
LINE
  5
383E
330
1E
100
AcDbEntity
  8
7
100
AcDbLine
 10
-3.119536186597519
 20
3.116548822643112
 30
0.0
 11
-2.975835399195945
 21
3.116548822643112
 31
0.0
  0
LINE
  5
383F
330
1E
100
AcDbEntity
  8
7
100
AcDbLine
 10
-2.975835399195945
 20
3.161824413194294
 30
0.0
 11
-2.975835399195945
 21
3.116548822643112
 31
0.0
  0
LINE
  5
3840
330
1E
100
AcDbEntity
  8
7
100
AcDbLine
 10
-3.119536186597519
 20
3.161824413194294
 30
0.0
 11
-3.119536186597519
 21
3.116548822643112
 31
0.0
  0
LINE
  5
384B
330
1E
100
AcDbEntity
  8
7
100
AcDbLine
 10
-2.485677918880984
 20
3.067336224217916
 30
0.0
 11
-2.485677918880984
 21
3.116548822643112
 31
0.0
  0
LINE
  5
384C
330
1E
100
AcDbEntity
  8
7
100
AcDbLine
 10
-2.975835399195945
 20
3.116548822643112
 30
0.0
 11
-2.975835399195945
 21
3.067336224217916
 31
0.0
  0
LINE
  5
384D
330
1E
100
AcDbEntity
  8
7
100
AcDbLine
 10
-3.119536186597519
 20
3.067336224217916
 30
0.0
 11
-3.119536186597519
 21
3.116548822643112
 31
0.0
  0
LINE
  5
384E
330
1E
100
AcDbEntity
  8
7
100
AcDbLine
 10
-3.60969366691248
 20
3.116548822643112
 30
0.0
 11
-3.60969366691248
 21
3.067336224217916
 31
0.0
  0
LINE
  5
384F
330
1E
100
AcDbEntity
  8
7
100
AcDbLine
 10
-3.755362958251063
 20
3.067336224217916
 30
0.0
 11
-3.755362958251063
 21
3.116548822643112
 31
0.0
  0
LINE
  5
3850
330
1E
100
AcDbEntity
  8
7
100
AcDbLine
 10
-1.778985005495157
 20
3.964974019493507
 30
0.0
 11
-1.778985005495157
 21
3.992533074611616
 31
0.0
  0
LINE
  5
3851
330
1E
100
AcDbEntity
  8
7
100
AcDbLine
 10
-4.316386580298307
 20
3.992533074611616
 30
0.0
 11
-4.316386580298307
 21
3.964974019493507
 31
0.0
  0
LINE
  5
3852
330
1E
100
AcDbEntity
  8
7
100
AcDbLine
 10
-1.849851147227441
 20
3.161824413194294
 30
0.0
 11
-1.849851147227441
 21
3.116548822643112
 31
0.0
  0
LINE
  5
3853
330
1E
100
AcDbEntity
  8
7
100
AcDbLine
 10
-1.849851147227441
 20
3.161824413194294
 30
0.0
 11
-1.782922013369173
 21
3.161824413194294
 31
0.0
  0
LINE
  5
3854
330
1E
100
AcDbEntity
  8
7
100
AcDbLine
 10
-1.989614926755
 20
3.687414964375395
 30
0.0
 11
-1.993551934629016
 21
3.713005515556499
 31
0.0
  0
LINE
  5
3855
330
1E
100
AcDbEntity
  8
7
100
AcDbLine
 10
-2.007331462188071
 20
3.713005515556499
 30
0.0
 11
-1.993551934629016
 21
3.713005515556499
 31
0.0
  0
LINE
  5
3856
330
1E
100
AcDbEntity
  8
7
100
AcDbLine
 10
-1.989614926755
 20
3.716942523430514
 30
0.0
 11
-1.993551934629016
 21
3.713005515556499
 31
0.0
  0
LINE
  5
385C
330
1E
100
AcDbEntity
  8
7
100
AcDbLine
 10
-2.198276344077835
 20
3.713005515556499
 30
0.0
 11
-2.200244848014842
 21
3.687414964375395
 31
0.0
  0
LINE
  5
385D
330
1E
100
AcDbEntity
  8
7
100
AcDbLine
 10
-2.625441698408543
 20
3.687414964375395
 30
0.0
 11
-2.627410202345551
 21
3.713005515556499
 31
0.0
  0
LINE
  5
385E
330
1E
100
AcDbEntity
  8
7
100
AcDbLine
 10
-2.643158233841614
 20
3.713005515556499
 30
0.0
 11
-2.627410202345551
 21
3.713005515556499
 31
0.0
  0
LINE
  5
385F
330
1E
100
AcDbEntity
  8
7
100
AcDbLine
 10
-2.623473194471535
 20
3.716942523430514
 30
0.0
 11
-2.627410202345551
 21
3.713005515556499
 31
0.0
  0
LINE
  5
3865
330
1E
100
AcDbEntity
  8
7
100
AcDbLine
 10
-2.83213461179437
 20
3.713005515556499
 30
0.0
 11
-2.834103115731378
 21
3.687414964375395
 31
0.0
  0
LINE
  5
3866
330
1E
100
AcDbEntity
  8
7
100
AcDbLine
 10
-3.259299966125078
 20
3.687414964375395
 30
0.0
 11
-3.263236973999094
 21
3.713005515556499
 31
0.0
  0
LINE
  5
3867
330
1E
100
AcDbEntity
  8
7
100
AcDbLine
 10
-3.27701650155815
 20
3.713005515556499
 30
0.0
 11
-3.263236973999094
 21
3.713005515556499
 31
0.0
  0
LINE
  5
3868
330
1E
100
AcDbEntity
  8
7
100
AcDbLine
 10
-3.259299966125078
 20
3.716942523430514
 30
0.0
 11
-3.263236973999094
 21
3.713005515556499
 31
0.0
  0
LINE
  5
386E
330
1E
100
AcDbEntity
  8
7
100
AcDbLine
 10
-3.467961383447914
 20
3.713005515556499
 30
0.0
 11
-3.469929887384921
 21
3.687414964375395
 31
0.0
  0
LINE
  5
386F
330
1E
100
AcDbEntity
  8
7
100
AcDbLine
 10
-3.895126737778622
 20
3.687414964375395
 30
0.0
 11
-3.89709524171563
 21
3.713005515556499
 31
0.0
  0
LINE
  5
3870
330
1E
100
AcDbEntity
  8
7
100
AcDbLine
 10
-3.912843273211693
 20
3.713005515556499
 30
0.0
 11
-3.89709524171563
 21
3.713005515556499
 31
0.0
  0
LINE
  5
3871
330
1E
100
AcDbEntity
  8
7
100
AcDbLine
 10
-3.895126737778622
 20
3.716942523430514
 30
0.0
 11
-3.89709524171563
 21
3.713005515556499
 31
0.0
  0
LINE
  5
3877
330
1E
100
AcDbEntity
  8
7
100
AcDbLine
 10
-4.101819651164449
 20
3.713005515556499
 30
0.0
 11
-4.105756659038465
 21
3.687414964375395
 31
0.0
  0
LINE
  5
387D
330
1E
100
AcDbEntity
  8
7
100
AcDbLine
 10
-1.77701650155815
 20
3.992533074611616
 30
0.0
 11
-1.778985005495157
 21
3.992533074611616
 31
0.0
  0
LINE
  5
387E
330
1E
100
AcDbEntity
  8
7
100
AcDbLine
 10
-1.77701650155815
 20
3.990564570674608
 30
0.0
 11
-1.77701650155815
 21
3.964974019493507
 31
0.0
  0
LINE
  5
387F
330
1E
100
AcDbEntity
  8
7
100
AcDbLine
 10
-1.77701650155815
 20
4.098832287210042
 30
0.0
 11
-1.74945744644004
 21
4.098832287210042
 31
0.0
  0
LINE
  5
3880
330
1E
100
AcDbEntity
  8
7
100
AcDbLine
 10
-1.77701650155815
 20
4.138202365950199
 30
0.0
 11
-1.77701650155815
 21
4.098832287210042
 31
0.0
  0
LINE
  5
3886
330
1E
100
AcDbEntity
  8
7
100
AcDbLine
 10
-1.778985005495157
 20
4.069304728154923
 30
0.0
 11
-1.778985005495157
 21
4.108674806895081
 31
0.0
  0
LINE
  5
3887
330
1E
100
AcDbEntity
  8
7
100
AcDbLine
 10
-4.316386580298307
 20
4.108674806895081
 30
0.0
 11
-1.778985005495157
 21
4.108674806895081
 31
0.0
  0
LINE
  5
3888
330
1E
100
AcDbEntity
  8
7
100
AcDbLine
 10
-4.316386580298307
 20
4.108674806895081
 30
0.0
 11
-4.316386580298307
 21
4.069304728154923
 31
0.0
  0
LINE
  5
3889
330
1E
100
AcDbEntity
  8
7
100
AcDbLine
 10
-4.345914139353425
 20
4.069304728154923
 30
0.0
 11
-4.316386580298307
 21
4.069304728154923
 31
0.0
  0
LINE
  5
388A
330
1E
100
AcDbEntity
  8
7
100
AcDbLine
 10
-4.345914139353425
 20
4.002375594296657
 30
0.0
 11
-4.345914139353425
 21
4.069304728154923
 31
0.0
  0
LINE
  5
388B
330
1E
100
AcDbEntity
  8
7
100
AcDbLine
 10
-4.316386580298307
 20
3.992533074611616
 30
0.0
 11
-4.318355084235315
 21
3.992533074611616
 31
0.0
  0
LINE
  5
388C
330
1E
100
AcDbEntity
  8
7
100
AcDbLine
 10
-1.74945744644004
 20
4.069304728154923
 30
0.0
 11
-1.74945744644004
 21
4.002375594296657
 31
0.0
  0
LINE
  5
388D
330
1E
100
AcDbEntity
  8
7
100
AcDbLine
 10
-4.318355084235315
 20
3.990564570674608
 30
0.0
 11
-4.318355084235315
 21
3.964974019493507
 31
0.0
  0
LINE
  5
388E
330
1E
100
AcDbEntity
  8
7
100
AcDbLine
 10
-4.345914139353425
 20
4.069304728154923
 30
0.0
 11
-4.345914139353425
 21
4.098832287210042
 31
0.0
  0
LINE
  5
3894
330
1E
100
AcDbEntity
  8
7
100
AcDbLine
 10
-4.318355084235315
 20
4.138202365950199
 30
0.0
 11
-4.320323588172323
 21
4.151981893509255
 31
0.0
  0
LINE
  5
3895
330
1E
100
AcDbEntity
  8
7
100
AcDbLine
 10
-4.318355084235315
 20
4.098832287210042
 30
0.0
 11
-4.320323588172323
 21
4.112611814769097
 31
0.0
  0
LINE
  5
3896
330
1E
100
AcDbEntity
  8
7
100
AcDbLine
 10
-4.345914139353425
 20
4.098832287210042
 30
0.0
 11
-4.345914139353425
 21
4.112611814769097
 31
0.0
  0
LINE
  5
3897
330
1E
100
AcDbEntity
  8
7
100
AcDbLine
 10
-4.318355084235315
 20
3.990564570674608
 30
0.0
 11
-4.320323588172323
 21
4.002375594296657
 31
0.0
  0
LINE
  5
3898
330
1E
100
AcDbEntity
  8
7
100
AcDbLine
 10
-1.77701650155815
 20
3.990564570674608
 30
0.0
 11
-1.775047997621141
 21
4.002375594296657
 31
0.0
  0
LINE
  5
3899
330
1E
100
AcDbEntity
  8
7
100
AcDbLine
 10
-1.74945744644004
 20
4.098832287210042
 30
0.0
 11
-1.74945744644004
 21
4.112611814769097
 31
0.0
  0
LINE
  5
389A
330
1E
100
AcDbEntity
  8
7
100
AcDbLine
 10
-1.77701650155815
 20
4.098832287210042
 30
0.0
 11
-1.775047997621141
 21
4.112611814769097
 31
0.0
  0
LINE
  5
389B
330
1E
100
AcDbEntity
  8
7
100
AcDbLine
 10
-1.77701650155815
 20
4.138202365950199
 30
0.0
 11
-1.775047997621141
 21
4.151981893509255
 31
0.0
  0
LINE
  5
389C
330
1E
100
AcDbEntity
  8
7
100
AcDbLine
 10
-4.316386580298307
 20
4.108674806895081
 30
0.0
 11
-4.318355084235315
 21
4.138202365950199
 31
0.0
  0
LINE
  5
389D
330
1E
100
AcDbEntity
  8
7
100
AcDbLine
 10
-1.778985005495157
 20
4.108674806895081
 30
0.0
 11
-1.77701650155815
 21
4.138202365950199
 31
0.0
  0
LINE
  5
38CF
330
1E
100
AcDbEntity
  8
7
100
AcDbLine
 10
-4.414811777148701
 20
2.319304728154923
 30
0.0
 11
-4.369536186597519
 21
2.313399216343899
 31
0.0
  0
LINE
  5
38EC
330
1E
100
AcDbEntity
  8
7
100
AcDbLine
 10
-3.471898391321929
 20
1.852769295084057
 30
0.0
 11
-3.259299966125078
 21
1.852769295084057
 31
0.0
  0
LINE
  5
38ED
330
1E
100
AcDbEntity
  8
7
100
AcDbLine
 10
-3.259299966125078
 20
1.866548822643112
 30
0.0
 11
-3.471898391321929
 21
1.866548822643112
 31
0.0
  0
LINE
  5
38EE
330
1E
100
AcDbEntity
  8
7
100
AcDbLine
 10
-3.257331462188071
 20
1.890170869887207
 30
0.0
 11
-3.473866895258937
 21
1.890170869887207
 31
0.0
  0
LINE
  5
38EF
330
1E
100
AcDbEntity
  8
7
100
AcDbLine
 10
-3.473866895258937
 20
1.892139373824216
 30
0.0
 11
-3.257331462188071
 21
1.892139373824216
 31
0.0
  0
LINE
  5
38F0
330
1E
100
AcDbEntity
  8
7
100
AcDbLine
 10
-3.257331462188071
 20
1.894107877761223
 30
0.0
 11
-3.473866895258937
 21
1.894107877761223
 31
0.0
  0
LINE
  5
38F1
330
1E
100
AcDbEntity
  8
7
100
AcDbLine
 10
-3.473866895258937
 20
1.900013389572247
 30
0.0
 11
-3.257331462188071
 21
1.900013389572247
 31
0.0
  0
LINE
  5
38F2
330
1E
100
AcDbEntity
  8
7
100
AcDbLine
 10
-3.259299966125078
 20
1.917729925005318
 30
0.0
 11
-3.471898391321929
 21
1.917729925005318
 31
0.0
  0
LINE
  5
38F3
330
1E
100
AcDbEntity
  8
7
100
AcDbLine
 10
-2.200244848014842
 20
3.354737799021066
 30
0.0
 11
-1.989614926755
 21
3.354737799021066
 31
0.0
  0
LINE
  5
38F4
330
1E
100
AcDbEntity
  8
7
100
AcDbLine
 10
-1.987646422817992
 20
3.36851732658012
 30
0.0
 11
-2.202213351951851
 21
3.36851732658012
 31
0.0
  0
LINE
  5
38F5
330
1E
100
AcDbEntity
  8
7
100
AcDbLine
 10
-1.987646422817992
 20
3.392139373824216
 30
0.0
 11
-2.202213351951851
 21
3.392139373824216
 31
0.0
  0
LINE
  5
38F6
330
1E
100
AcDbEntity
  8
7
100
AcDbLine
 10
-2.202213351951851
 20
3.394107877761223
 30
0.0
 11
-1.987646422817992
 21
3.394107877761223
 31
0.0
  0
LINE
  5
38F7
330
1E
100
AcDbEntity
  8
7
100
AcDbLine
 10
-1.987646422817992
 20
3.396076381698231
 30
0.0
 11
-2.204181855888858
 21
3.396076381698231
 31
0.0
  0
LINE
  5
38F8
330
1E
100
AcDbEntity
  8
7
100
AcDbLine
 10
-2.202213351951851
 20
3.401981893509255
 30
0.0
 11
-1.987646422817992
 21
3.401981893509255
 31
0.0
  0
LINE
  5
38F9
330
1E
100
AcDbEntity
  8
7
100
AcDbLine
 10
-1.989614926755
 20
3.419698428942325
 30
0.0
 11
-2.202213351951851
 21
3.419698428942325
 31
0.0
  0
LINE
  5
38FA
330
1E
100
AcDbEntity
  8
7
100
AcDbLine
 10
-4.105756659038465
 20
1.852769295084057
 30
0.0
 11
-3.893158233841614
 21
1.852769295084057
 31
0.0
  0
LINE
  5
38FB
330
1E
100
AcDbEntity
  8
7
100
AcDbLine
 10
-3.893158233841614
 20
1.866548822643112
 30
0.0
 11
-4.105756659038465
 21
1.866548822643112
 31
0.0
  0
LINE
  5
38FC
330
1E
100
AcDbEntity
  8
7
100
AcDbLine
 10
-3.891189729904606
 20
1.890170869887207
 30
0.0
 11
-4.107725162975473
 21
1.890170869887207
 31
0.0
  0
LINE
  5
38FD
330
1E
100
AcDbEntity
  8
7
100
AcDbLine
 10
-4.107725162975473
 20
1.892139373824216
 30
0.0
 11
-3.891189729904606
 21
1.892139373824216
 31
0.0
  0
LINE
  5
38FE
330
1E
100
AcDbEntity
  8
7
100
AcDbLine
 10
-3.891189729904606
 20
1.894107877761223
 30
0.0
 11
-4.107725162975473
 21
1.894107877761223
 31
0.0
  0
LINE
  5
38FF
330
1E
100
AcDbEntity
  8
7
100
AcDbLine
 10
-4.107725162975473
 20
1.900013389572247
 30
0.0
 11
-3.891189729904606
 21
1.900013389572247
 31
0.0
  0
LINE
  5
3900
330
1E
100
AcDbEntity
  8
7
100
AcDbLine
 10
-3.893158233841614
 20
1.917729925005318
 30
0.0
 11
-4.105756659038465
 21
1.917729925005318
 31
0.0
  0
LINE
  5
3901
330
1E
100
AcDbEntity
  8
7
100
AcDbLine
 10
-2.200244848014842
 20
1.852769295084057
 30
0.0
 11
-1.989614926755
 21
1.852769295084057
 31
0.0
  0
LINE
  5
3902
330
1E
100
AcDbEntity
  8
7
100
AcDbLine
 10
-1.987646422817992
 20
1.866548822643112
 30
0.0
 11
-2.202213351951851
 21
1.866548822643112
 31
0.0
  0
LINE
  5
3903
330
1E
100
AcDbEntity
  8
7
100
AcDbLine
 10
-1.987646422817992
 20
1.890170869887207
 30
0.0
 11
-2.202213351951851
 21
1.890170869887207
 31
0.0
  0
LINE
  5
3904
330
1E
100
AcDbEntity
  8
7
100
AcDbLine
 10
-2.202213351951851
 20
1.892139373824216
 30
0.0
 11
-1.987646422817992
 21
1.892139373824216
 31
0.0
  0
LINE
  5
3905
330
1E
100
AcDbEntity
  8
7
100
AcDbLine
 10
-1.987646422817992
 20
1.894107877761223
 30
0.0
 11
-2.204181855888858
 21
1.894107877761223
 31
0.0
  0
LINE
  5
3906
330
1E
100
AcDbEntity
  8
7
100
AcDbLine
 10
-2.202213351951851
 20
1.900013389572247
 30
0.0
 11
-1.987646422817992
 21
1.900013389572247
 31
0.0
  0
LINE
  5
3907
330
1E
100
AcDbEntity
  8
7
100
AcDbLine
 10
-1.989614926755
 20
1.917729925005318
 30
0.0
 11
-2.202213351951851
 21
1.917729925005318
 31
0.0
  0
LINE
  5
3908
330
1E
100
AcDbEntity
  8
7
100
AcDbLine
 10
-3.471898391321929
 20
3.354737799021066
 30
0.0
 11
-3.259299966125078
 21
3.354737799021066
 31
0.0
  0
LINE
  5
3909
330
1E
100
AcDbEntity
  8
7
100
AcDbLine
 10
-3.259299966125078
 20
3.36851732658012
 30
0.0
 11
-3.471898391321929
 21
3.36851732658012
 31
0.0
  0
LINE
  5
390A
330
1E
100
AcDbEntity
  8
7
100
AcDbLine
 10
-3.257331462188071
 20
3.392139373824216
 30
0.0
 11
-3.473866895258937
 21
3.392139373824216
 31
0.0
  0
LINE
  5
390B
330
1E
100
AcDbEntity
  8
7
100
AcDbLine
 10
-3.473866895258937
 20
3.394107877761223
 30
0.0
 11
-3.257331462188071
 21
3.394107877761223
 31
0.0
  0
LINE
  5
390C
330
1E
100
AcDbEntity
  8
7
100
AcDbLine
 10
-3.257331462188071
 20
3.396076381698231
 30
0.0
 11
-3.473866895258937
 21
3.396076381698231
 31
0.0
  0
LINE
  5
390D
330
1E
100
AcDbEntity
  8
7
100
AcDbLine
 10
-3.473866895258937
 20
3.401981893509255
 30
0.0
 11
-3.257331462188071
 21
3.401981893509255
 31
0.0
  0
LINE
  5
390E
330
1E
100
AcDbEntity
  8
7
100
AcDbLine
 10
-3.259299966125078
 20
3.419698428942325
 30
0.0
 11
-3.471898391321929
 21
3.419698428942325
 31
0.0
  0
LINE
  5
390F
330
1E
100
AcDbEntity
  8
7
100
AcDbLine
 10
-2.836071619668386
 20
1.852769295084057
 30
0.0
 11
-2.623473194471535
 21
1.852769295084057
 31
0.0
  0
LINE
  5
3910
330
1E
100
AcDbEntity
  8
7
100
AcDbLine
 10
-2.623473194471535
 20
1.866548822643112
 30
0.0
 11
-2.836071619668386
 21
1.866548822643112
 31
0.0
  0
LINE
  5
3911
330
1E
100
AcDbEntity
  8
7
100
AcDbLine
 10
-2.621504690534528
 20
1.890170869887207
 30
0.0
 11
-2.838040123605393
 21
1.890170869887207
 31
0.0
  0
LINE
  5
3912
330
1E
100
AcDbEntity
  8
7
100
AcDbLine
 10
-2.838040123605393
 20
1.892139373824216
 30
0.0
 11
-2.621504690534528
 21
1.892139373824216
 31
0.0
  0
LINE
  5
3913
330
1E
100
AcDbEntity
  8
7
100
AcDbLine
 10
-2.621504690534528
 20
1.894107877761223
 30
0.0
 11
-2.838040123605393
 21
1.894107877761223
 31
0.0
  0
LINE
  5
3914
330
1E
100
AcDbEntity
  8
7
100
AcDbLine
 10
-2.838040123605393
 20
1.900013389572247
 30
0.0
 11
-2.621504690534528
 21
1.900013389572247
 31
0.0
  0
LINE
  5
3915
330
1E
100
AcDbEntity
  8
7
100
AcDbLine
 10
-2.623473194471535
 20
1.917729925005318
 30
0.0
 11
-2.836071619668386
 21
1.917729925005318
 31
0.0
  0
LINE
  5
3916
330
1E
100
AcDbEntity
  8
7
100
AcDbLine
 10
-2.836071619668386
 20
3.354737799021066
 30
0.0
 11
-2.623473194471535
 21
3.354737799021066
 31
0.0
  0
LINE
  5
3917
330
1E
100
AcDbEntity
  8
7
100
AcDbLine
 10
-2.623473194471535
 20
3.36851732658012
 30
0.0
 11
-2.836071619668386
 21
3.36851732658012
 31
0.0
  0
LINE
  5
3918
330
1E
100
AcDbEntity
  8
7
100
AcDbLine
 10
-2.621504690534528
 20
3.392139373824216
 30
0.0
 11
-2.838040123605393
 21
3.392139373824216
 31
0.0
  0
LINE
  5
3919
330
1E
100
AcDbEntity
  8
7
100
AcDbLine
 10
-2.838040123605393
 20
3.394107877761223
 30
0.0
 11
-2.621504690534528
 21
3.394107877761223
 31
0.0
  0
LINE
  5
391A
330
1E
100
AcDbEntity
  8
7
100
AcDbLine
 10
-2.621504690534528
 20
3.396076381698231
 30
0.0
 11
-2.838040123605393
 21
3.396076381698231
 31
0.0
  0
LINE
  5
391B
330
1E
100
AcDbEntity
  8
7
100
AcDbLine
 10
-2.838040123605393
 20
3.401981893509255
 30
0.0
 11
-2.621504690534528
 21
3.401981893509255
 31
0.0
  0
LINE
  5
391C
330
1E
100
AcDbEntity
  8
7
100
AcDbLine
 10
-2.623473194471535
 20
3.419698428942325
 30
0.0
 11
-2.836071619668386
 21
3.419698428942325
 31
0.0
  0
LINE
  5
391D
330
1E
100
AcDbEntity
  8
7
100
AcDbLine
 10
-4.105756659038465
 20
3.354737799021066
 30
0.0
 11
-3.893158233841614
 21
3.354737799021066
 31
0.0
  0
LINE
  5
391E
330
1E
100
AcDbEntity
  8
7
100
AcDbLine
 10
-3.893158233841614
 20
3.36851732658012
 30
0.0
 11
-4.105756659038465
 21
3.36851732658012
 31
0.0
  0
LINE
  5
391F
330
1E
100
AcDbEntity
  8
7
100
AcDbLine
 10
-3.891189729904606
 20
3.392139373824216
 30
0.0
 11
-4.107725162975473
 21
3.392139373824216
 31
0.0
  0
LINE
  5
3920
330
1E
100
AcDbEntity
  8
7
100
AcDbLine
 10
-4.107725162975473
 20
3.394107877761223
 30
0.0
 11
-3.891189729904606
 21
3.394107877761223
 31
0.0
  0
LINE
  5
3921
330
1E
100
AcDbEntity
  8
7
100
AcDbLine
 10
-3.891189729904606
 20
3.396076381698231
 30
0.0
 11
-4.107725162975473
 21
3.396076381698231
 31
0.0
  0
LINE
  5
3922
330
1E
100
AcDbEntity
  8
7
100
AcDbLine
 10
-4.107725162975473
 20
3.401981893509255
 30
0.0
 11
-3.891189729904606
 21
3.401981893509255
 31
0.0
  0
LINE
  5
3923
330
1E
100
AcDbEntity
  8
7
100
AcDbLine
 10
-3.893158233841614
 20
3.419698428942325
 30
0.0
 11
-4.105756659038465
 21
3.419698428942325
 31
0.0
  0
LINE
  5
3924
330
1E
100
AcDbEntity
  8
7
100
AcDbLine
 10
-4.345914139353425
 20
1.366548822643112
 30
0.0
 11
-4.345914139353425
 21
1.368517326580121
 31
0.0
  0
LINE
  5
3925
330
1E
100
AcDbEntity
  8
7
100
AcDbLine
 10
-4.345914139353425
 20
1.228753547052562
 30
0.0
 11
-4.345914139353425
 21
1.226785043115553
 31
0.0
  0
LINE
  5
392C
330
1E
100
AcDbEntity
  8
7
100
AcDbLine
 10
-1.77701650155815
 20
1.228753547052562
 30
0.0
 11
-1.77701650155815
 21
1.175603940753349
 31
0.0
  0
LINE
  5
392D
330
1E
100
AcDbEntity
  8
7
100
AcDbLine
 10
-1.74945744644004
 20
1.228753547052562
 30
0.0
 11
-1.77701650155815
 21
1.228753547052562
 31
0.0
  0
LINE
  5
392E
330
1E
100
AcDbEntity
  8
7
100
AcDbLine
 10
-5.245520438566023
 20
0.7130055155564996
 30
0.0
 11
-5.26717398187311
 21
0.69332047618642
 31
0.0
  0
LINE
  5
3948
330
1E
100
AcDbEntity
  8
7
100
AcDbLine
 10
-4.318355084235315
 20
1.228753547052562
 30
0.0
 11
-4.320323588172323
 21
1.226785043115553
 31
0.0
  0
LINE
  5
3949
330
1E
100
AcDbEntity
  8
7
100
AcDbLine
 10
-4.318355084235315
 20
1.175603940753349
 30
0.0
 11
-4.320323588172323
 21
1.175603940753349
 31
0.0
  0
LINE
  5
394A
330
1E
100
AcDbEntity
  8
7
100
AcDbLine
 10
-1.77701650155815
 20
1.228753547052562
 30
0.0
 11
-1.775047997621141
 21
1.226785043115553
 31
0.0
  0
LINE
  5
394B
330
1E
100
AcDbEntity
  8
7
100
AcDbLine
 10
-1.77701650155815
 20
1.175603940753349
 30
0.0
 11
-1.775047997621141
 21
1.175603940753349
 31
0.0
  0
LINE
  5
394C
330
1E
100
AcDbEntity
  8
7
100
AcDbLine
 10
-1.778985005495157
 20
1.177572444690357
 30
0.0
 11
-1.77701650155815
 21
1.175603940753349
 31
0.0
  0
LINE
  5
394D
330
1E
100
AcDbEntity
  8
7
100
AcDbLine
 10
-4.316386580298307
 20
1.177572444690357
 30
0.0
 11
-4.318355084235315
 21
1.175603940753349
 31
0.0
  0
LINE
  5
394E
330
1E
100
AcDbEntity
  8
7
100
AcDbLine
 10
-1.74945744644004
 20
1.228753547052562
 30
0.0
 11
-1.74945744644004
 21
1.226785043115553
 31
0.0
  0
LINE
  5
3955
330
1E
100
AcDbEntity
  8
7
100
AcDbLine
 10
-3.893158233841614
 20
1.228753547052562
 30
0.0
 11
-3.893158233841614
 21
1.230722050989569
 31
0.0
  0
LINE
  5
3956
330
1E
100
AcDbEntity
  8
7
100
AcDbLine
 10
-4.013236973999094
 20
1.230722050989569
 30
0.0
 11
-3.893158233841614
 21
1.230722050989569
 31
0.0
  0
LINE
  5
3962
330
1E
100
AcDbEntity
  8
7
100
AcDbLine
 10
-1.74945744644004
 20
1.230722050989569
 30
0.0
 11
-1.74945744644004
 21
1.228753547052562
 31
0.0
  0
LINE
  5
3963
330
1E
100
AcDbEntity
  8
7
100
AcDbLine
 10
-2.08213461179437
 20
1.228753547052562
 30
0.0
 11
-2.08213461179437
 21
1.230722050989569
 31
0.0
  0
LINE
  5
3964
330
1E
100
AcDbEntity
  8
7
100
AcDbLine
 10
-2.202213351951851
 20
1.230722050989569
 30
0.0
 11
-2.08213461179437
 21
1.230722050989569
 31
0.0
  0
LINE
  5
3975
330
1E
100
AcDbEntity
  8
7
100
AcDbLine
 10
-4.046701540928228
 20
1.240564570674608
 30
0.0
 11
-4.013236973999094
 21
1.230722050989569
 31
0.0
  0
LINE
  5
397F
330
1E
100
AcDbEntity
  8
7
100
AcDbLine
 10
-3.893158233841614
 20
1.366548822643112
 30
0.0
 11
-3.893158233841614
 21
1.364580318706105
 31
0.0
  0
LINE
  5
398F
330
1E
100
AcDbEntity
  8
7
100
AcDbLine
 10
-4.013236973999094
 20
1.366548822643112
 30
0.0
 11
-3.893158233841614
 21
1.366548822643112
 31
0.0
  0
LINE
  5
39AC
330
1E
100
AcDbEntity
  8
7
100
AcDbLine
 10
-4.013236973999094
 20
1.364580318706105
 30
0.0
 11
-4.013236973999094
 21
1.366548822643112
 31
0.0
  0
LINE
  5
39C2
330
1E
100
AcDbEntity
  8
7
100
AcDbLine
 10
-2.08213461179437
 20
1.366548822643112
 30
0.0
 11
-2.08213461179437
 21
1.364580318706105
 31
0.0
  0
LINE
  5
39C8
330
1E
100
AcDbEntity
  8
7
100
AcDbLine
 10
-2.048670044865236
 20
1.354737799021066
 30
0.0
 11
-2.08213461179437
 21
1.364580318706105
 31
0.0
  0
LINE
  5
39CF
330
1E
100
AcDbEntity
  8
7
100
AcDbLine
 10
-2.202213351951851
 20
1.364580318706105
 30
0.0
 11
-2.202213351951851
 21
1.366548822643112
 31
0.0
  0
LINE
  5
39D0
330
1E
100
AcDbEntity
  8
7
100
AcDbLine
 10
-2.202213351951851
 20
1.364580318706105
 30
0.0
 11
-2.235677918880984
 21
1.354737799021066
 31
0.0
  0
LINE
  5
39D9
330
1E
100
AcDbEntity
  8
7
100
AcDbLine
 10
-2.202213351951851
 20
1.366548822643112
 30
0.0
 11
-2.08213461179437
 21
1.366548822643112
 31
0.0
  0
LINE
  5
39F6
330
1E
100
AcDbEntity
  8
7
100
AcDbLine
 10
-1.74945744644004
 20
1.366548822643112
 30
0.0
 11
-1.74945744644004
 21
1.368517326580121
 31
0.0
  0
LINE
  5
39F7
330
1E
100
AcDbEntity
  8
7
100
AcDbLine
 10
-3.893158233841614
 20
1.364580318706105
 30
0.0
 11
-4.013236973999094
 21
1.364580318706105
 31
0.0
  0
LINE
  5
39F8
330
1E
100
AcDbEntity
  8
7
100
AcDbLine
 10
-4.013236973999094
 20
4.512218113981695
 30
0.0
 11
-3.893158233841614
 21
4.512218113981695
 31
0.0
  0
LINE
  5
39F9
330
1E
100
AcDbEntity
  8
7
100
AcDbLine
 10
-2.202213351951851
 20
4.512218113981695
 30
0.0
 11
-2.08213461179437
 21
4.512218113981695
 31
0.0
  0
LINE
  5
39FA
330
1E
100
AcDbEntity
  8
7
100
AcDbLine
 10
-2.08213461179437
 20
1.364580318706105
 30
0.0
 11
-2.202213351951851
 21
1.364580318706105
 31
0.0
  0
LINE
  5
39FB
330
1E
100
AcDbEntity
  8
7
100
AcDbLine
 10
-1.473866895258937
 20
1.15591890138327
 30
0.0
 11
-1.424654296833741
 21
1.15591890138327
 31
0.0
  0
LINE
  5
3A01
330
1E
100
AcDbEntity
  8
7
100
AcDbLine
 10
-1.408906265337678
 20
1.171666932879332
 30
0.0
 11
-1.408906265337678
 21
1.226785043115553
 31
0.0
  0
LINE
  5
3A0C
330
1E
100
AcDbEntity
  8
7
100
AcDbLine
 10
-1.448276344077835
 20
1.224816539178545
 30
0.0
 11
-1.448276344077835
 21
1.175603940753349
 31
0.0
  0
LINE
  5
3A0D
330
1E
100
AcDbEntity
  8
7
100
AcDbLine
 10
-1.438433824392795
 20
1.224816539178545
 30
0.0
 11
-1.448276344077835
 21
1.224816539178545
 31
0.0
  0
LINE
  5
3A13
330
1E
100
AcDbEntity
  8
7
100
AcDbLine
 10
-1.434496816518779
 20
1.179540948627364
 30
0.0
 11
-1.434496816518779
 21
1.220879531304531
 31
0.0
  0
LINE
  5
3A19
330
1E
100
AcDbEntity
  8
7
100
AcDbLine
 10
-1.438433824392795
 20
1.175603940753349
 30
0.0
 11
-1.448276344077835
 21
1.175603940753349
 31
0.0
  0
LINE
  5
3A1A
330
1E
100
AcDbEntity
  8
7
100
AcDbLine
 10
-1.513236973999094
 20
1.15591890138327
 30
0.0
 11
-1.528985005495157
 21
1.19332047618642
 31
0.0
  0
LINE
  5
3A20
330
1E
100
AcDbEntity
  8
7
100
AcDbLine
 10
-1.717961383447914
 20
1.270092129729727
 30
0.0
 11
-1.639221225967598
 21
1.270092129729727
 31
0.0
  0
LINE
  5
3A21
330
1E
100
AcDbEntity
  8
7
100
AcDbLine
 10
-1.717961383447914
 20
1.270092129729727
 30
0.0
 11
-1.717961383447914
 21
1.15591890138327
 31
0.0
  0
LINE
  5
3A22
330
1E
100
AcDbEntity
  8
7
100
AcDbLine
 10
-1.666780281085709
 20
1.15591890138327
 30
0.0
 11
-1.717961383447914
 21
1.15591890138327
 31
0.0
  0
LINE
  5
3A23
330
1E
100
AcDbEntity
  8
7
100
AcDbLine
 10
-1.666780281085709
 20
1.191351972249412
 30
0.0
 11
-1.666780281085709
 21
1.15591890138327
 31
0.0
  0
LINE
  5
3A24
330
1E
100
AcDbEntity
  8
7
100
AcDbLine
 10
-1.666780281085709
 20
1.191351972249412
 30
0.0
 11
-1.639221225967598
 21
1.191351972249412
 31
0.0
  0
LINE
  5
3A2A
330
1E
100
AcDbEntity
  8
7
100
AcDbLine
 10
-1.637252722030591
 20
1.15591890138327
 30
0.0
 11
-1.621504690534528
 21
1.195288980123427
 31
0.0
  0
LINE
  5
3A2B
330
1E
100
AcDbEntity
  8
7
100
AcDbLine
 10
-1.611662170849488
 20
1.15591890138327
 30
0.0
 11
-1.637252722030591
 21
1.15591890138327
 31
0.0
  0
LINE
  5
3A2C
330
1E
100
AcDbEntity
  8
7
100
AcDbLine
 10
-1.611662170849488
 20
1.15591890138327
 30
0.0
 11
-1.607725162975472
 21
1.167729925005318
 31
0.0
  0
LINE
  5
3A2D
330
1E
100
AcDbEntity
  8
7
100
AcDbLine
 10
-1.574260596046339
 20
1.167729925005318
 30
0.0
 11
-1.607725162975472
 21
1.167729925005318
 31
0.0
  0
LINE
  5
3A2E
330
1E
100
AcDbEntity
  8
7
100
AcDbLine
 10
-1.578197603920354
 20
1.242533074611616
 30
0.0
 11
-1.601819651164449
 21
1.242533074611616
 31
0.0
  0
LINE
  5
3A2F
330
1E
100
AcDbEntity
  8
7
100
AcDbLine
 10
-1.578197603920354
 20
1.242533074611616
 30
0.0
 11
-1.552607052739252
 21
1.185446460438388
 31
0.0
  0
LINE
  5
3A30
330
1E
100
AcDbEntity
  8
7
100
AcDbLine
 10
-1.568355084235315
 20
1.15591890138327
 30
0.0
 11
-1.574260596046339
 21
1.167729925005318
 31
0.0
  0
LINE
  5
3A31
330
1E
100
AcDbEntity
  8
7
100
AcDbLine
 10
-1.568355084235315
 20
1.15591890138327
 30
0.0
 11
-1.528985005495157
 21
1.15591890138327
 31
0.0
  0
LINE
  5
3A32
330
1E
100
AcDbEntity
  8
7
100
AcDbLine
 10
-1.528985005495157
 20
1.19332047618642
 30
0.0
 11
-1.528985005495157
 21
1.15591890138327
 31
0.0
  0
LINE
  5
3A43
330
1E
100
AcDbEntity
  8
7
100
AcDbLine
 10
-1.654969257463662
 20
1.209068507682482
 30
0.0
 11
-1.666780281085709
 21
1.209068507682482
 31
0.0
  0
LINE
  5
3A44
330
1E
100
AcDbEntity
  8
7
100
AcDbLine
 10
-1.666780281085709
 20
1.250407090359647
 30
0.0
 11
-1.666780281085709
 21
1.209068507682482
 31
0.0
  0
LINE
  5
3A45
330
1E
100
AcDbEntity
  8
7
100
AcDbLine
 10
-1.654969257463662
 20
1.250407090359647
 30
0.0
 11
-1.666780281085709
 21
1.250407090359647
 31
0.0
  0
LINE
  5
3A4B
330
1E
100
AcDbEntity
  8
7
100
AcDbLine
 10
-1.649063745652638
 20
1.244501578548625
 30
0.0
 11
-1.649063745652638
 21
1.214974019493507
 31
0.0
  0
LINE
  5
3A56
330
1E
100
AcDbEntity
  8
7
100
AcDbLine
 10
-1.237646422817992
 20
1.224816539178545
 30
0.0
 11
-1.237646422817992
 21
1.15591890138327
 31
0.0
  0
LINE
  5
3A5C
330
1E
100
AcDbEntity
  8
7
100
AcDbLine
 10
-1.217961383447914
 20
1.242533074611616
 30
0.0
 11
-1.282922013369173
 21
1.242533074611616
 31
0.0
  0
LINE
  5
3A5D
330
1E
100
AcDbEntity
  8
7
100
AcDbLine
 10
-1.282922013369173
 20
1.224816539178545
 30
0.0
 11
-1.282922013369173
 21
1.242533074611616
 31
0.0
  0
LINE
  5
3A5E
330
1E
100
AcDbEntity
  8
7
100
AcDbLine
 10
-1.263236973999094
 20
1.224816539178545
 30
0.0
 11
-1.282922013369173
 21
1.224816539178545
 31
0.0
  0
LINE
  5
3A64
330
1E
100
AcDbEntity
  8
7
100
AcDbLine
 10
-1.296701540928228
 20
1.242533074611616
 30
0.0
 11
-1.296701540928228
 21
1.15591890138327
 31
0.0
  0
LINE
  5
3A65
330
1E
100
AcDbEntity
  8
7
100
AcDbLine
 10
-1.296701540928228
 20
1.242533074611616
 30
0.0
 11
-1.320323588172323
 21
1.242533074611616
 31
0.0
  0
LINE
  5
3A66
330
1E
100
AcDbEntity
  8
7
100
AcDbLine
 10
-1.395126737778622
 20
1.242533074611616
 30
0.0
 11
-1.395126737778622
 21
1.171666932879332
 31
0.0
  0
LINE
  5
3A6C
330
1E
100
AcDbEntity
  8
7
100
AcDbLine
 10
-1.349851147227441
 20
1.15591890138327
 30
0.0
 11
-1.379378706282559
 21
1.15591890138327
 31
0.0
  0
LINE
  5
3A77
330
1E
100
AcDbEntity
  8
7
100
AcDbLine
 10
-1.351819651164449
 20
1.242533074611616
 30
0.0
 11
-1.351819651164449
 21
1.179540948627364
 31
0.0
  0
LINE
  5
3A7D
330
1E
100
AcDbEntity
  8
7
100
AcDbLine
 10
-1.355756659038465
 20
1.175603940753349
 30
0.0
 11
-1.361662170849488
 21
1.175603940753349
 31
0.0
  0
LINE
  5
3A98
330
1E
100
AcDbEntity
  8
7
100
AcDbLine
 10
2.321408695292243
 20
5.161824413194294
 30
0.0
 11
2.014322081119015
 21
5.140170869887207
 31
0.0
  0
LINE
  5
3ACC
330
1E
100
AcDbEntity
  8
7
100
AcDbLine
 10
2.346999246473345
 20
1.833084255713979
 30
0.0
 11
2.321408695292243
 21
1.815367720280908
 31
0.0
  0
LINE
  5
3ACD
330
1E
100
AcDbEntity
  8
7
100
AcDbLine
 10
2.346999246473345
 20
3.335052759650986
 30
0.0
 11
2.321408695292243
 21
3.317336224217916
 31
0.0
  0
LINE
  5
3ADC
330
1E
100
AcDbEntity
  8
7
100
AcDbLine
 10
2.34306223859933
 20
1.866548822643112
 30
0.0
 11
2.321408695292243
 21
1.888202365950199
 31
0.0
  0
LINE
  5
3AF0
330
1E
100
AcDbEntity
  8
7
100
AcDbLine
 10
2.34306223859933
 20
3.36851732658012
 30
0.0
 11
2.321408695292243
 21
3.390170869887207
 31
0.0
  0
LINE
  5
3AFB
330
1E
100
AcDbEntity
  8
7
100
AcDbLine
 10
1.490700033874921
 20
3.917729925005318
 30
0.0
 11
1.837156726788306
 21
4.333084255713979
 31
0.0
  0
LINE
  5
3AFC
330
1E
100
AcDbEntity
  8
7
100
AcDbLine
 10
1.813534679544211
 20
1.738596066737601
 30
0.0
 11
1.480857514189882
 21
2.313399216343899
 31
0.0
  0
LINE
  5
3AFD
330
1E
100
AcDbEntity
  8
7
100
AcDbLine
 10
1.490700033874921
 20
2.41576142106831
 30
0.0
 11
1.742668537811928
 21
2.716942523430514
 31
0.0
  0
LINE
  5
3AFE
330
1E
100
AcDbEntity
  8
7
100
AcDbLine
 10
1.748574049622952
 20
3.350800791147049
 30
0.0
 11
1.480857514189882
 21
3.815367720280908
 31
0.0
  0
LINE
  5
3B26
330
1E
100
AcDbEntity
  8
7
100
AcDbLine
 10
2.321408695292243
 20
0.69332047618642
 30
0.0
 11
2.014322081119015
 21
0.7130055155564996
 31
0.0
  0
LINE
  5
40D4
330
1E
100
AcDbEntity
  8
7
100
AcDbLine
 10
1.986763026000904
 20
0.7385960667376015
 30
0.0
 11
1.996605545685945
 21
0.7228480352415386
 31
0.0
  0
LINE
  5
40D5
330
1E
100
AcDbEntity
  8
7
100
AcDbLine
 10
1.996605545685945
 20
0.7228480352415386
 30
0.0
 11
2.014322081119015
 21
0.7149740194935071
 31
0.0
  0
LINE
  5
40D6
330
1E
100
AcDbEntity
  8
7
100
AcDbLine
 10
2.014322081119015
 20
0.7445015785486256
 30
0.0
 11
2.012353577182008
 21
0.7228480352415386
 31
0.0
  0
LINE
  5
40D7
330
1E
100
AcDbEntity
  8
7
100
AcDbLine
 10
2.012353577182008
 20
0.7228480352415386
 30
0.0
 11
2.014322081119015
 21
0.7130055155564996
 31
0.0
  0
LINE
  5
40D8
330
1E
100
AcDbEntity
  8
7
100
AcDbLine
 10
1.490700033874921
 20
2.41576142106831
 30
0.0
 11
1.498574049622952
 21
2.407887405320279
 31
0.0
  0
LINE
  5
40D9
330
1E
100
AcDbEntity
  8
7
100
AcDbLine
 10
1.498574049622952
 20
2.407887405320279
 30
0.0
 11
1.522196096867046
 21
2.386233862013192
 31
0.0
  0
LINE
  5
40DA
330
1E
100
AcDbEntity
  8
7
100
AcDbLine
 10
1.522196096867046
 20
2.386233862013192
 30
0.0
 11
1.55566066379618
 21
2.358674806895081
 31
0.0
  0
LINE
  5
40DB
330
1E
100
AcDbEntity
  8
7
100
AcDbLine
 10
1.492668537811928
 20
2.41576142106831
 30
0.0
 11
1.471014994504841
 21
2.366548822643112
 31
0.0
  0
LINE
  5
40DC
330
1E
100
AcDbEntity
  8
7
100
AcDbLine
 10
1.471014994504841
 20
2.366548822643112
 30
0.0
 11
1.482826018126889
 21
2.315367720280908
 31
0.0
  0
LINE
  5
40DD
330
1E
100
AcDbEntity
  8
7
100
AcDbLine
 10
1.480857514189882
 20
2.313399216343899
 30
0.0
 11
1.490700033874921
 21
2.319304728154923
 31
0.0
  0
LINE
  5
40DE
330
1E
100
AcDbEntity
  8
7
100
AcDbLine
 10
1.490700033874921
 20
2.319304728154923
 30
0.0
 11
1.51825908899303
 21
2.337021263587994
 31
0.0
  0
LINE
  5
40DF
330
1E
100
AcDbEntity
  8
7
100
AcDbLine
 10
1.51825908899303
 20
2.337021263587994
 30
0.0
 11
1.55566066379618
 21
2.358674806895081
 31
0.0
  0
LINE
  5
40E0
330
1E
100
AcDbEntity
  8
7
100
AcDbLine
 10
1.490700033874921
 20
3.917729925005318
 30
0.0
 11
1.498574049622952
 21
3.909855909257286
 31
0.0
  0
LINE
  5
40E1
330
1E
100
AcDbEntity
  8
7
100
AcDbLine
 10
1.498574049622952
 20
3.909855909257286
 30
0.0
 11
1.522196096867046
 21
3.888202365950199
 31
0.0
  0
LINE
  5
40E2
330
1E
100
AcDbEntity
  8
7
100
AcDbLine
 10
1.522196096867046
 20
3.888202365950199
 30
0.0
 11
1.55566066379618
 21
3.860643310832088
 31
0.0
  0
LINE
  5
40E3
330
1E
100
AcDbEntity
  8
7
100
AcDbLine
 10
1.492668537811928
 20
3.917729925005318
 30
0.0
 11
1.471014994504841
 21
3.86851732658012
 31
0.0
  0
LINE
  5
40E4
330
1E
100
AcDbEntity
  8
7
100
AcDbLine
 10
1.471014994504841
 20
3.86851732658012
 30
0.0
 11
1.482826018126889
 21
3.817336224217916
 31
0.0
  0
LINE
  5
40E5
330
1E
100
AcDbEntity
  8
7
100
AcDbLine
 10
1.480857514189882
 20
3.815367720280908
 30
0.0
 11
1.490700033874921
 21
3.821273232091931
 31
0.0
  0
LINE
  5
40E6
330
1E
100
AcDbEntity
  8
7
100
AcDbLine
 10
1.490700033874921
 20
3.821273232091931
 30
0.0
 11
1.51825908899303
 21
3.838989767525003
 31
0.0
  0
LINE
  5
40E7
330
1E
100
AcDbEntity
  8
7
100
AcDbLine
 10
1.51825908899303
 20
3.838989767525003
 30
0.0
 11
1.55566066379618
 21
3.860643310832088
 31
0.0
  0
LINE
  5
40E8
330
1E
100
AcDbEntity
  8
7
100
AcDbLine
 10
1.746605545685945
 20
2.587021263587994
 30
0.0
 11
1.55566066379618
 21
2.358674806895081
 31
0.0
  0
LINE
  5
40E9
330
1E
100
AcDbEntity
  8
7
100
AcDbLine
 10
1.55566066379618
 20
2.358674806895081
 30
0.0
 11
1.789912632300117
 21
1.953162995871458
 31
0.0
  0
LINE
  5
40EA
330
1E
100
AcDbEntity
  8
7
100
AcDbLine
 10
1.815503183481219
 20
4.171666932879332
 30
0.0
 11
1.55566066379618
 21
3.860643310832088
 31
0.0
  0
LINE
  5
40EB
330
1E
100
AcDbEntity
  8
7
100
AcDbLine
 10
1.55566066379618
 20
3.860643310832088
 30
0.0
 11
1.756448065370983
 21
3.512218113981695
 31
0.0
  0
LINE
  5
40EC
330
1E
100
AcDbEntity
  8
7
100
AcDbLine
 10
2.34306223859933
 20
3.36851732658012
 30
0.0
 11
2.352904758284369
 21
3.354737799021066
 31
0.0
  0
LINE
  5
40ED
330
1E
100
AcDbEntity
  8
7
100
AcDbLine
 10
2.352904758284369
 20
3.354737799021066
 30
0.0
 11
2.346999246473345
 21
3.335052759650986
 31
0.0
  0
LINE
  5
40EE
330
1E
100
AcDbEntity
  8
7
100
AcDbLine
 10
2.600936254347361
 20
3.392139373824216
 30
0.0
 11
2.587156726788306
 21
3.407887405320279
 31
0.0
  0
LINE
  5
40EF
330
1E
100
AcDbEntity
  8
7
100
AcDbLine
 10
2.587156726788306
 20
3.407887405320279
 30
0.0
 11
2.350936254347361
 21
3.419698428942325
 31
0.0
  0
LINE
  5
40F0
330
1E
100
AcDbEntity
  8
7
100
AcDbLine
 10
2.350936254347361
 20
3.419698428942325
 30
0.0
 11
2.321408695292243
 21
3.40591890138327
 31
0.0
  0
LINE
  5
40F1
330
1E
100
AcDbEntity
  8
7
100
AcDbLine
 10
2.321408695292243
 20
3.226785043115553
 30
0.0
 11
2.498574049622952
 21
3.346863783273034
 31
0.0
  0
LINE
  5
40F2
330
1E
100
AcDbEntity
  8
7
100
AcDbLine
 10
2.498574049622952
 20
3.346863783273034
 30
0.0
 11
2.514322081119015
 21
3.352769295084057
 31
0.0
  0
LINE
  5
40F3
330
1E
100
AcDbEntity
  8
7
100
AcDbLine
 10
2.514322081119015
 20
3.352769295084057
 30
0.0
 11
2.587156726788306
 21
3.354737799021066
 31
0.0
  0
LINE
  5
40F4
330
1E
100
AcDbEntity
  8
7
100
AcDbLine
 10
2.587156726788306
 20
3.354737799021066
 30
0.0
 11
2.600936254347361
 21
3.370485830517129
 31
0.0
  0
LINE
  5
40F5
330
1E
100
AcDbEntity
  8
7
100
AcDbLine
 10
2.600936254347361
 20
3.370485830517129
 30
0.0
 11
2.600936254347361
 21
3.392139373824216
 31
0.0
  0
LINE
  5
40F6
330
1E
100
AcDbEntity
  8
7
100
AcDbLine
 10
2.34306223859933
 20
1.866548822643112
 30
0.0
 11
2.352904758284369
 21
1.852769295084057
 31
0.0
  0
LINE
  5
40F7
330
1E
100
AcDbEntity
  8
7
100
AcDbLine
 10
2.352904758284369
 20
1.852769295084057
 30
0.0
 11
2.346999246473345
 21
1.833084255713979
 31
0.0
  0
LINE
  5
40F8
330
1E
100
AcDbEntity
  8
7
100
AcDbLine
 10
2.600936254347361
 20
1.890170869887207
 30
0.0
 11
2.587156726788306
 21
1.90591890138327
 31
0.0
  0
LINE
  5
40F9
330
1E
100
AcDbEntity
  8
7
100
AcDbLine
 10
2.587156726788306
 20
1.90591890138327
 30
0.0
 11
2.350936254347361
 21
1.917729925005318
 31
0.0
  0
LINE
  5
40FA
330
1E
100
AcDbEntity
  8
7
100
AcDbLine
 10
2.350936254347361
 20
1.917729925005318
 30
0.0
 11
2.321408695292243
 21
1.903950397446262
 31
0.0
  0
LINE
  5
40FB
330
1E
100
AcDbEntity
  8
7
100
AcDbLine
 10
2.321408695292243
 20
1.724816539178545
 30
0.0
 11
2.498574049622952
 21
1.844895279336025
 31
0.0
  0
LINE
  5
40FC
330
1E
100
AcDbEntity
  8
7
100
AcDbLine
 10
2.498574049622952
 20
1.844895279336025
 30
0.0
 11
2.514322081119015
 21
1.850800791147049
 31
0.0
  0
LINE
  5
40FD
330
1E
100
AcDbEntity
  8
7
100
AcDbLine
 10
2.514322081119015
 20
1.850800791147049
 30
0.0
 11
2.587156726788306
 21
1.852769295084057
 31
0.0
  0
LINE
  5
40FE
330
1E
100
AcDbEntity
  8
7
100
AcDbLine
 10
2.587156726788306
 20
1.852769295084057
 30
0.0
 11
2.600936254347361
 21
1.868517326580121
 31
0.0
  0
LINE
  5
40FF
330
1E
100
AcDbEntity
  8
7
100
AcDbLine
 10
2.600936254347361
 20
1.868517326580121
 30
0.0
 11
2.600936254347361
 21
1.890170869887207
 31
0.0
  0
LINE
  5
4100
330
1E
100
AcDbEntity
  8
7
100
AcDbLine
 10
2.014322081119015
 20
0.7445015785486256
 30
0.0
 11
1.994637041748935
 21
0.7385960667376015
 31
0.0
  0
LINE
  5
4101
330
1E
100
AcDbEntity
  8
7
100
AcDbLine
 10
1.994637041748935
 20
0.7385960667376015
 30
0.0
 11
1.986763026000904
 21
0.7366275628005941
 31
0.0
  0
LINE
  5
4102
330
1E
100
AcDbEntity
  8
7
100
AcDbLine
 10
1.986763026000904
 20
0.7366275628005941
 30
0.0
 11
1.906054364583582
 21
1.132296854139175
 31
0.0
  0
LINE
  5
4103
330
1E
100
AcDbEntity
  8
7
100
AcDbLine
 10
1.906054364583582
 20
1.132296854139175
 30
0.0
 11
1.841093734662322
 21
1.531903153351773
 31
0.0
  0
LINE
  5
4104
330
1E
100
AcDbEntity
  8
7
100
AcDbLine
 10
1.841093734662322
 20
1.531903153351773
 30
0.0
 11
1.791881136237124
 21
1.933477956501381
 31
0.0
  0
LINE
  5
4105
330
1E
100
AcDbEntity
  8
7
100
AcDbLine
 10
1.791881136237124
 20
1.933477956501381
 30
0.0
 11
1.758416569307991
 21
2.337021263587994
 31
0.0
  0
LINE
  5
4106
330
1E
100
AcDbEntity
  8
7
100
AcDbLine
 10
1.758416569307991
 20
2.337021263587994
 30
0.0
 11
1.742668537811928
 21
2.740564570674608
 31
0.0
  0
LINE
  5
4107
330
1E
100
AcDbEntity
  8
7
100
AcDbLine
 10
1.742668537811928
 20
2.740564570674608
 30
0.0
 11
1.742668537811928
 21
3.144107877761223
 31
0.0
  0
LINE
  5
4108
330
1E
100
AcDbEntity
  8
7
100
AcDbLine
 10
1.742668537811928
 20
3.144107877761223
 30
0.0
 11
1.758416569307991
 21
3.547651184847836
 31
0.0
  0
LINE
  5
4109
330
1E
100
AcDbEntity
  8
7
100
AcDbLine
 10
1.758416569307991
 20
3.547651184847836
 30
0.0
 11
1.791881136237124
 21
3.951194491934451
 31
0.0
  0
LINE
  5
410A
330
1E
100
AcDbEntity
  8
7
100
AcDbLine
 10
1.791881136237124
 20
3.951194491934451
 30
0.0
 11
1.841093734662322
 21
4.352769295084057
 31
0.0
  0
LINE
  5
410B
330
1E
100
AcDbEntity
  8
7
100
AcDbLine
 10
1.841093734662322
 20
4.352769295084057
 30
0.0
 11
1.906054364583582
 21
4.752375594296657
 31
0.0
  0
LINE
  5
410C
330
1E
100
AcDbEntity
  8
7
100
AcDbLine
 10
1.906054364583582
 20
4.752375594296657
 30
0.0
 11
1.986763026000904
 21
5.148044885635238
 31
0.0
  0
LINE
  5
410D
330
1E
100
AcDbEntity
  8
7
100
AcDbLine
 10
2.321408695292243
 20
0.7228480352415386
 30
0.0
 11
2.321408695292243
 21
0.7011944919344515
 31
0.0
  0
LINE
  5
410E
330
1E
100
AcDbEntity
  8
7
100
AcDbLine
 10
2.321408695292243
 20
0.7011944919344515
 30
0.0
 11
2.321408695292243
 21
0.69332047618642
 31
0.0
  0
LINE
  5
410F
330
1E
100
AcDbEntity
  8
7
100
AcDbLine
 10
1.868652789780432
 20
4.348832287210042
 30
0.0
 11
1.819440191355235
 21
3.949225987997444
 31
0.0
  0
LINE
  5
4110
330
1E
100
AcDbEntity
  8
7
100
AcDbLine
 10
1.819440191355235
 20
3.949225987997444
 30
0.0
 11
1.785975624426102
 21
3.545682680910829
 31
0.0
  0
LINE
  5
4111
330
1E
100
AcDbEntity
  8
7
100
AcDbLine
 10
1.785975624426102
 20
3.545682680910829
 30
0.0
 11
1.770227592930039
 21
3.144107877761223
 31
0.0
  0
LINE
  5
4112
330
1E
100
AcDbEntity
  8
7
100
AcDbLine
 10
1.770227592930039
 20
3.144107877761223
 30
0.0
 11
1.770227592930039
 21
2.740564570674608
 31
0.0
  0
LINE
  5
4113
330
1E
100
AcDbEntity
  8
7
100
AcDbLine
 10
1.770227592930039
 20
2.740564570674608
 30
0.0
 11
1.785975624426102
 21
2.338989767525003
 31
0.0
  0
LINE
  5
4114
330
1E
100
AcDbEntity
  8
7
100
AcDbLine
 10
1.785975624426102
 20
2.338989767525003
 30
0.0
 11
1.819440191355235
 21
1.937414964375395
 31
0.0
  0
LINE
  5
4115
330
1E
100
AcDbEntity
  8
7
100
AcDbLine
 10
1.819440191355235
 20
1.937414964375395
 30
0.0
 11
1.868652789780432
 21
1.53584016122579
 31
0.0
  0
LINE
  5
4116
330
1E
100
AcDbEntity
  8
7
100
AcDbLine
 10
1.868652789780432
 20
1.53584016122579
 30
0.0
 11
1.933613419701693
 21
1.138202365950199
 31
0.0
  0
LINE
  5
4117
330
1E
100
AcDbEntity
  8
7
100
AcDbLine
 10
1.933613419701693
 20
1.138202365950199
 30
0.0
 11
2.014322081119015
 21
0.7445015785486256
 31
0.0
  0
LINE
  5
4118
330
1E
100
AcDbEntity
  8
7
100
AcDbLine
 10
2.014322081119015
 20
5.140170869887207
 30
0.0
 11
1.933613419701693
 21
4.746470082485632
 31
0.0
  0
LINE
  5
4119
330
1E
100
AcDbEntity
  8
7
100
AcDbLine
 10
1.933613419701693
 20
4.746470082485632
 30
0.0
 11
1.868652789780432
 21
4.348832287210042
 31
0.0
  0
LINE
  5
411A
330
1E
100
AcDbEntity
  8
7
100
AcDbLine
 10
2.014322081119015
 20
0.7445015785486256
 30
0.0
 11
2.321408695292243
 21
0.7228480352415386
 31
0.0
  0
LINE
  5
411B
330
1E
100
AcDbEntity
  8
7
100
AcDbLine
 10
2.321408695292243
 20
0.7228480352415386
 30
0.0
 11
2.321408695292243
 21
5.161824413194294
 31
0.0
  0
LINE
  5
411C
330
1E
100
AcDbEntity
  8
7
100
AcDbLine
 10
2.321408695292243
 20
5.19332047618642
 30
0.0
 11
2.321408695292243
 21
5.183477956501381
 31
0.0
  0
LINE
  5
411D
330
1E
100
AcDbEntity
  8
7
100
AcDbLine
 10
2.321408695292243
 20
5.183477956501381
 30
0.0
 11
2.321408695292243
 21
5.161824413194294
 31
0.0
  0
LINE
  5
411E
330
1E
100
AcDbEntity
  8
7
100
AcDbLine
 10
2.014322081119015
 20
5.140170869887207
 30
0.0
 11
2.012353577182008
 21
5.161824413194294
 31
0.0
  0
LINE
  5
411F
330
1E
100
AcDbEntity
  8
7
100
AcDbLine
 10
2.012353577182008
 20
5.161824413194294
 30
0.0
 11
2.014322081119015
 21
5.171666932879332
 31
0.0
  0
LINE
  5
4120
330
1E
100
AcDbEntity
  8
7
100
AcDbLine
 10
2.014322081119015
 20
5.171666932879332
 30
0.0
 11
2.321408695292243
 21
5.19332047618642
 31
0.0
  0
LINE
  5
4121
330
1E
100
AcDbEntity
  8
7
100
AcDbLine
 10
2.014322081119015
 20
5.140170869887207
 30
0.0
 11
1.994637041748935
 21
5.146076381698231
 31
0.0
  0
LINE
  5
4122
330
1E
100
AcDbEntity
  8
7
100
AcDbLine
 10
1.994637041748935
 20
5.146076381698231
 30
0.0
 11
1.986763026000904
 21
5.148044885635238
 31
0.0
  0
LINE
  5
4123
330
1E
100
AcDbEntity
  8
7
100
AcDbLine
 10
2.014322081119015
 20
5.169698428942325
 30
0.0
 11
1.996605545685945
 21
5.161824413194294
 31
0.0
  0
LINE
  5
4124
330
1E
100
AcDbEntity
  8
7
100
AcDbLine
 10
1.996605545685945
 20
5.161824413194294
 30
0.0
 11
1.986763026000904
 21
5.146076381698231
 31
0.0
  0
LINE
  5
4125
330
1E
100
AcDbEntity
  8
7
100
AcDbLine
 10
-1.367567682660512
 20
1.179540948627364
 30
0.0
 11
-1.367567682660512
 21
1.242533074611616
 31
0.0
  0
LINE
  5
4126
330
1E
100
AcDbEntity
  8
7
100
AcDbLine
 10
-1.367567682660512
 20
1.242533074611616
 30
0.0
 11
-1.395126737778622
 21
1.242533074611616
 31
0.0
  0
LINE
  5
4127
330
1E
100
AcDbEntity
  8
7
100
AcDbLine
 10
-1.365599178723504
 20
1.179540948627364
 30
0.0
 11
-1.363630674786496
 21
1.177572444690357
 31
0.0
  0
LINE
  5
4128
330
1E
100
AcDbEntity
  8
7
100
AcDbLine
 10
-1.363630674786496
 20
1.177572444690357
 30
0.0
 11
-1.361662170849488
 21
1.175603940753349
 31
0.0
  0
LINE
  5
4129
330
1E
100
AcDbEntity
  8
7
100
AcDbLine
 10
-1.355756659038465
 20
1.175603940753349
 30
0.0
 11
-1.353788155101456
 21
1.177572444690357
 31
0.0
  0
LINE
  5
412A
330
1E
100
AcDbEntity
  8
7
100
AcDbLine
 10
-1.353788155101456
 20
1.177572444690357
 30
0.0
 11
-1.351819651164449
 21
1.179540948627364
 31
0.0
  0
LINE
  5
412B
330
1E
100
AcDbEntity
  8
7
100
AcDbLine
 10
-1.334103115731378
 20
1.171666932879332
 30
0.0
 11
-1.334103115731378
 21
1.242533074611616
 31
0.0
  0
LINE
  5
412C
330
1E
100
AcDbEntity
  8
7
100
AcDbLine
 10
-1.334103115731378
 20
1.242533074611616
 30
0.0
 11
-1.351819651164449
 21
1.242533074611616
 31
0.0
  0
LINE
  5
412D
330
1E
100
AcDbEntity
  8
7
100
AcDbLine
 10
-1.349851147227441
 20
1.157887405320279
 30
0.0
 11
-1.340008627542402
 21
1.161824413194294
 31
0.0
  0
LINE
  5
412E
330
1E
100
AcDbEntity
  8
7
100
AcDbLine
 10
-1.340008627542402
 20
1.161824413194294
 30
0.0
 11
-1.336071619668386
 21
1.171666932879332
 31
0.0
  0
LINE
  5
412F
330
1E
100
AcDbEntity
  8
7
100
AcDbLine
 10
-1.393158233841615
 20
1.171666932879332
 30
0.0
 11
-1.389221225967599
 21
1.161824413194294
 31
0.0
  0
LINE
  5
4130
330
1E
100
AcDbEntity
  8
7
100
AcDbLine
 10
-1.389221225967599
 20
1.161824413194294
 30
0.0
 11
-1.379378706282559
 21
1.157887405320279
 31
0.0
  0
LINE
  5
4131
330
1E
100
AcDbEntity
  8
7
100
AcDbLine
 10
-1.320323588172323
 20
1.242533074611616
 30
0.0
 11
-1.320323588172323
 21
1.15591890138327
 31
0.0
  0
LINE
  5
4132
330
1E
100
AcDbEntity
  8
7
100
AcDbLine
 10
-1.320323588172323
 20
1.15591890138327
 30
0.0
 11
-1.296701540928228
 21
1.15591890138327
 31
0.0
  0
LINE
  5
4133
330
1E
100
AcDbEntity
  8
7
100
AcDbLine
 10
-1.237646422817992
 20
1.224816539178545
 30
0.0
 11
-1.217961383447914
 21
1.224816539178545
 31
0.0
  0
LINE
  5
4134
330
1E
100
AcDbEntity
  8
7
100
AcDbLine
 10
-1.217961383447914
 20
1.224816539178545
 30
0.0
 11
-1.217961383447914
 21
1.242533074611616
 31
0.0
  0
LINE
  5
4135
330
1E
100
AcDbEntity
  8
7
100
AcDbLine
 10
-1.263236973999094
 20
1.224816539178545
 30
0.0
 11
-1.263236973999094
 21
1.15591890138327
 31
0.0
  0
LINE
  5
4136
330
1E
100
AcDbEntity
  8
7
100
AcDbLine
 10
-1.263236973999094
 20
1.15591890138327
 30
0.0
 11
-1.237646422817992
 21
1.15591890138327
 31
0.0
  0
LINE
  5
4137
330
1E
100
AcDbEntity
  8
7
100
AcDbLine
 10
-1.654969257463662
 20
1.21103701161949
 30
0.0
 11
-1.653000753526653
 21
1.213005515556499
 31
0.0
  0
LINE
  5
4138
330
1E
100
AcDbEntity
  8
7
100
AcDbLine
 10
-1.653000753526653
 20
1.213005515556499
 30
0.0
 11
-1.651032249589646
 21
1.214974019493507
 31
0.0
  0
LINE
  5
4139
330
1E
100
AcDbEntity
  8
7
100
AcDbLine
 10
-1.651032249589646
 20
1.244501578548625
 30
0.0
 11
-1.653000753526653
 21
1.246470082485632
 31
0.0
  0
LINE
  5
413A
330
1E
100
AcDbEntity
  8
7
100
AcDbLine
 10
-1.653000753526653
 20
1.246470082485632
 30
0.0
 11
-1.654969257463662
 21
1.24843858642264
 31
0.0
  0
LINE
  5
413B
330
1E
100
AcDbEntity
  8
7
100
AcDbLine
 10
-1.580166107857362
 20
1.187414964375395
 30
0.0
 11
-1.601819651164449
 21
1.187414964375395
 31
0.0
  0
LINE
  5
413C
330
1E
100
AcDbEntity
  8
7
100
AcDbLine
 10
-1.601819651164449
 20
1.187414964375395
 30
0.0
 11
-1.590008627542402
 21
1.21103701161949
 31
0.0
  0
LINE
  5
413D
330
1E
100
AcDbEntity
  8
7
100
AcDbLine
 10
-1.590008627542402
 20
1.21103701161949
 30
0.0
 11
-1.580166107857362
 21
1.187414964375395
 31
0.0
  0
LINE
  5
413E
330
1E
100
AcDbEntity
  8
7
100
AcDbLine
 10
-1.513236973999094
 20
1.15591890138327
 30
0.0
 11
-1.487646422817992
 21
1.15591890138327
 31
0.0
  0
LINE
  5
413F
330
1E
100
AcDbEntity
  8
7
100
AcDbLine
 10
-1.487646422817992
 20
1.15591890138327
 30
0.0
 11
-1.487646422817992
 21
1.242533074611616
 31
0.0
  0
LINE
  5
4140
330
1E
100
AcDbEntity
  8
7
100
AcDbLine
 10
-1.487646422817992
 20
1.242533074611616
 30
0.0
 11
-1.509299966125078
 21
1.242533074611616
 31
0.0
  0
LINE
  5
4141
330
1E
100
AcDbEntity
  8
7
100
AcDbLine
 10
-1.509299966125078
 20
1.242533074611616
 30
0.0
 11
-1.509299966125078
 21
1.209068507682482
 31
0.0
  0
LINE
  5
4142
330
1E
100
AcDbEntity
  8
7
100
AcDbLine
 10
-1.509299966125078
 20
1.209068507682482
 30
0.0
 11
-1.525047997621141
 21
1.242533074611616
 31
0.0
  0
LINE
  5
4143
330
1E
100
AcDbEntity
  8
7
100
AcDbLine
 10
-1.525047997621141
 20
1.242533074611616
 30
0.0
 11
-1.552607052739252
 21
1.242533074611616
 31
0.0
  0
LINE
  5
4144
330
1E
100
AcDbEntity
  8
7
100
AcDbLine
 10
-1.552607052739252
 20
1.242533074611616
 30
0.0
 11
-1.552607052739252
 21
1.185446460438388
 31
0.0
  0
LINE
  5
4145
330
1E
100
AcDbEntity
  8
7
100
AcDbLine
 10
-1.639221225967598
 20
1.19332047618642
 30
0.0
 11
-1.631347210219566
 21
1.19332047618642
 31
0.0
  0
LINE
  5
4146
330
1E
100
AcDbEntity
  8
7
100
AcDbLine
 10
-1.631347210219566
 20
1.19332047618642
 30
0.0
 11
-1.623473194471535
 21
1.197257484060436
 31
0.0
  0
LINE
  5
4147
330
1E
100
AcDbEntity
  8
7
100
AcDbLine
 10
-1.603788155101456
 20
1.242533074611616
 30
0.0
 11
-1.617567682660512
 21
1.260249610044688
 31
0.0
  0
LINE
  5
4148
330
1E
100
AcDbEntity
  8
7
100
AcDbLine
 10
-1.617567682660512
 20
1.260249610044688
 30
0.0
 11
-1.639221225967598
 21
1.268123625792719
 31
0.0
  0
LINE
  5
4149
330
1E
100
AcDbEntity
  8
7
100
AcDbLine
 10
-1.438433824392795
 20
1.175603940753349
 30
0.0
 11
-1.436465320455788
 21
1.177572444690357
 31
0.0
  0
LINE
  5
414A
330
1E
100
AcDbEntity
  8
7
100
AcDbLine
 10
-1.436465320455788
 20
1.177572444690357
 30
0.0
 11
-1.434496816518779
 21
1.179540948627364
 31
0.0
  0
LINE
  5
414B
330
1E
100
AcDbEntity
  8
7
100
AcDbLine
 10
-1.434496816518779
 20
1.220879531304531
 30
0.0
 11
-1.436465320455788
 21
1.222848035241538
 31
0.0
  0
LINE
  5
414C
330
1E
100
AcDbEntity
  8
7
100
AcDbLine
 10
-1.436465320455788
 20
1.222848035241538
 30
0.0
 11
-1.438433824392795
 21
1.224816539178545
 31
0.0
  0
LINE
  5
414D
330
1E
100
AcDbEntity
  8
7
100
AcDbLine
 10
-1.424654296833741
 20
1.242533074611616
 30
0.0
 11
-1.473866895258937
 21
1.242533074611616
 31
0.0
  0
LINE
  5
414E
330
1E
100
AcDbEntity
  8
7
100
AcDbLine
 10
-1.473866895258937
 20
1.242533074611616
 30
0.0
 11
-1.473866895258937
 21
1.15591890138327
 31
0.0
  0
LINE
  5
414F
330
1E
100
AcDbEntity
  8
7
100
AcDbLine
 10
-1.410874769274685
 20
1.226785043115553
 30
0.0
 11
-1.414811777148701
 21
1.236627562800594
 31
0.0
  0
LINE
  5
4150
330
1E
100
AcDbEntity
  8
7
100
AcDbLine
 10
-1.414811777148701
 20
1.236627562800594
 30
0.0
 11
-1.424654296833741
 21
1.240564570674608
 31
0.0
  0
LINE
  5
4151
330
1E
100
AcDbEntity
  8
7
100
AcDbLine
 10
-1.424654296833741
 20
1.157887405320279
 30
0.0
 11
-1.414811777148701
 21
1.161824413194294
 31
0.0
  0
LINE
  5
4152
330
1E
100
AcDbEntity
  8
7
100
AcDbLine
 10
-1.414811777148701
 20
1.161824413194294
 30
0.0
 11
-1.410874769274685
 21
1.171666932879332
 31
0.0
  0
LINE
  5
4153
330
1E
100
AcDbEntity
  8
7
100
AcDbLine
 10
-2.282922013369173
 20
1.216942523430514
 30
0.0
 11
-2.245520438566024
 21
1.191351972249412
 31
0.0
  0
LINE
  5
4154
330
1E
100
AcDbEntity
  8
7
100
AcDbLine
 10
-2.245520438566024
 20
1.191351972249412
 30
0.0
 11
-2.202213351951851
 21
1.183477956501381
 31
0.0
  0
LINE
  5
4155
330
1E
100
AcDbEntity
  8
7
100
AcDbLine
 10
-2.202213351951851
 20
1.411824413194294
 30
0.0
 11
-2.245520438566024
 21
1.403950397446262
 31
0.0
  0
LINE
  5
4156
330
1E
100
AcDbEntity
  8
7
100
AcDbLine
 10
-2.245520438566024
 20
1.403950397446262
 30
0.0
 11
-2.282922013369173
 21
1.37835984626516
 31
0.0
  0
LINE
  5
4157
330
1E
100
AcDbEntity
  8
7
100
AcDbLine
 10
-2.282922013369173
 20
1.37835984626516
 30
0.0
 11
-2.308512564550276
 21
1.34095827146201
 31
0.0
  0
LINE
  5
4158
330
1E
100
AcDbEntity
  8
7
100
AcDbLine
 10
-2.308512564550276
 20
1.34095827146201
 30
0.0
 11
-2.316386580298307
 21
1.297651184847836
 31
0.0
  0
LINE
  5
4159
330
1E
100
AcDbEntity
  8
7
100
AcDbLine
 10
-2.316386580298307
 20
1.297651184847836
 30
0.0
 11
-2.308512564550276
 21
1.254344098233664
 31
0.0
  0
LINE
  5
415A
330
1E
100
AcDbEntity
  8
7
100
AcDbLine
 10
-2.308512564550276
 20
1.254344098233664
 30
0.0
 11
-2.282922013369173
 21
1.216942523430514
 31
0.0
  0
LINE
  5
415B
330
1E
100
AcDbEntity
  8
7
100
AcDbLine
 10
-1.967961383447914
 20
1.297651184847836
 30
0.0
 11
-1.975835399195945
 21
1.34095827146201
 31
0.0
  0
LINE
  5
415C
330
1E
100
AcDbEntity
  8
7
100
AcDbLine
 10
-1.975835399195945
 20
1.34095827146201
 30
0.0
 11
-2.001425950377047
 21
1.37835984626516
 31
0.0
  0
LINE
  5
415D
330
1E
100
AcDbEntity
  8
7
100
AcDbLine
 10
-2.001425950377047
 20
1.37835984626516
 30
0.0
 11
-2.038827525180197
 21
1.403950397446262
 31
0.0
  0
LINE
  5
415E
330
1E
100
AcDbEntity
  8
7
100
AcDbLine
 10
-2.038827525180197
 20
1.403950397446262
 30
0.0
 11
-2.08213461179437
 21
1.411824413194294
 31
0.0
  0
LINE
  5
415F
330
1E
100
AcDbEntity
  8
7
100
AcDbLine
 10
-2.08213461179437
 20
1.183477956501381
 30
0.0
 11
-2.038827525180197
 21
1.191351972249412
 31
0.0
  0
LINE
  5
4160
330
1E
100
AcDbEntity
  8
7
100
AcDbLine
 10
-2.038827525180197
 20
1.191351972249412
 30
0.0
 11
-2.001425950377047
 21
1.216942523430514
 31
0.0
  0
LINE
  5
4161
330
1E
100
AcDbEntity
  8
7
100
AcDbLine
 10
-2.001425950377047
 20
1.216942523430514
 30
0.0
 11
-1.975835399195945
 21
1.254344098233664
 31
0.0
  0
LINE
  5
4162
330
1E
100
AcDbEntity
  8
7
100
AcDbLine
 10
-1.975835399195945
 20
1.254344098233664
 30
0.0
 11
-1.967961383447914
 21
1.297651184847836
 31
0.0
  0
LINE
  5
4163
330
1E
100
AcDbEntity
  8
7
100
AcDbLine
 10
-2.235677918880984
 20
1.354737799021066
 30
0.0
 11
-2.259299966125078
 21
1.331115751776971
 31
0.0
  0
LINE
  5
4164
330
1E
100
AcDbEntity
  8
7
100
AcDbLine
 10
-2.259299966125078
 20
1.331115751776971
 30
0.0
 11
-2.269142485810118
 21
1.297651184847836
 31
0.0
  0
LINE
  5
4165
330
1E
100
AcDbEntity
  8
7
100
AcDbLine
 10
-2.269142485810118
 20
1.297651184847836
 30
0.0
 11
-2.259299966125078
 21
1.264186617918703
 31
0.0
  0
LINE
  5
4166
330
1E
100
AcDbEntity
  8
7
100
AcDbLine
 10
-2.259299966125078
 20
1.264186617918703
 30
0.0
 11
-2.235677918880984
 21
1.240564570674608
 31
0.0
  0
LINE
  5
4167
330
1E
100
AcDbEntity
  8
7
100
AcDbLine
 10
-2.235677918880984
 20
1.240564570674608
 30
0.0
 11
-2.202213351951851
 21
1.230722050989569
 31
0.0
  0
LINE
  5
4168
330
1E
100
AcDbEntity
  8
7
100
AcDbLine
 10
-2.202213351951851
 20
1.364580318706105
 30
0.0
 11
-2.235677918880984
 21
1.354737799021066
 31
0.0
  0
LINE
  5
4169
330
1E
100
AcDbEntity
  8
7
100
AcDbLine
 10
-2.235677918880984
 20
1.354737799021066
 30
0.0
 11
-2.259299966125078
 21
1.331115751776971
 31
0.0
  0
LINE
  5
416A
330
1E
100
AcDbEntity
  8
7
100
AcDbLine
 10
-2.259299966125078
 20
1.331115751776971
 30
0.0
 11
-2.269142485810118
 21
1.297651184847836
 31
0.0
  0
LINE
  5
416B
330
1E
100
AcDbEntity
  8
7
100
AcDbLine
 10
-2.015205477936103
 20
1.297651184847836
 30
0.0
 11
-2.025047997621141
 21
1.331115751776971
 31
0.0
  0
LINE
  5
416C
330
1E
100
AcDbEntity
  8
7
100
AcDbLine
 10
-2.025047997621141
 20
1.331115751776971
 30
0.0
 11
-2.048670044865236
 21
1.354737799021066
 31
0.0
  0
LINE
  5
416D
330
1E
100
AcDbEntity
  8
7
100
AcDbLine
 10
-2.08213461179437
 20
1.230722050989569
 30
0.0
 11
-2.048670044865236
 21
1.240564570674608
 31
0.0
  0
LINE
  5
416E
330
1E
100
AcDbEntity
  8
7
100
AcDbLine
 10
-2.048670044865236
 20
1.240564570674608
 30
0.0
 11
-2.025047997621141
 21
1.264186617918703
 31
0.0
  0
LINE
  5
416F
330
1E
100
AcDbEntity
  8
7
100
AcDbLine
 10
-2.025047997621141
 20
1.264186617918703
 30
0.0
 11
-2.015205477936103
 21
1.297651184847836
 31
0.0
  0
LINE
  5
4170
330
1E
100
AcDbEntity
  8
7
100
AcDbLine
 10
-2.015205477936103
 20
1.297651184847836
 30
0.0
 11
-2.025047997621141
 21
1.331115751776971
 31
0.0
  0
LINE
  5
4171
330
1E
100
AcDbEntity
  8
7
100
AcDbLine
 10
-2.025047997621141
 20
1.331115751776971
 30
0.0
 11
-2.048670044865236
 21
1.354737799021066
 31
0.0
  0
LINE
  5
4172
330
1E
100
AcDbEntity
  8
7
100
AcDbLine
 10
-2.048670044865236
 20
1.354737799021066
 30
0.0
 11
-2.08213461179437
 21
1.364580318706105
 31
0.0
  0
LINE
  5
4173
330
1E
100
AcDbEntity
  8
7
100
AcDbLine
 10
-2.269142485810118
 20
1.297651184847836
 30
0.0
 11
-2.259299966125078
 21
1.264186617918703
 31
0.0
  0
LINE
  5
4174
330
1E
100
AcDbEntity
  8
7
100
AcDbLine
 10
-2.259299966125078
 20
1.264186617918703
 30
0.0
 11
-2.235677918880984
 21
1.240564570674608
 31
0.0
  0
LINE
  5
4175
330
1E
100
AcDbEntity
  8
7
100
AcDbLine
 10
-2.235677918880984
 20
1.240564570674608
 30
0.0
 11
-2.202213351951851
 21
1.230722050989569
 31
0.0
  0
LINE
  5
4176
330
1E
100
AcDbEntity
  8
7
100
AcDbLine
 10
-2.08213461179437
 20
1.230722050989569
 30
0.0
 11
-2.048670044865236
 21
1.240564570674608
 31
0.0
  0
LINE
  5
4177
330
1E
100
AcDbEntity
  8
7
100
AcDbLine
 10
-2.048670044865236
 20
1.240564570674608
 30
0.0
 11
-2.025047997621141
 21
1.264186617918703
 31
0.0
  0
LINE
  5
4178
330
1E
100
AcDbEntity
  8
7
100
AcDbLine
 10
-2.025047997621141
 20
1.264186617918703
 30
0.0
 11
-2.015205477936103
 21
1.297651184847836
 31
0.0
  0
LINE
  5
4179
330
1E
100
AcDbEntity
  8
7
100
AcDbLine
 10
-4.013236973999094
 20
1.364580318706105
 30
0.0
 11
-4.046701540928228
 21
1.354737799021066
 31
0.0
  0
LINE
  5
417A
330
1E
100
AcDbEntity
  8
7
100
AcDbLine
 10
-4.046701540928228
 20
1.354737799021066
 30
0.0
 11
-4.070323588172323
 21
1.331115751776971
 31
0.0
  0
LINE
  5
417B
330
1E
100
AcDbEntity
  8
7
100
AcDbLine
 10
-4.070323588172323
 20
1.331115751776971
 30
0.0
 11
-4.080166107857362
 21
1.297651184847836
 31
0.0
  0
LINE
  5
417C
330
1E
100
AcDbEntity
  8
7
100
AcDbLine
 10
-4.013236973999094
 20
1.411824413194294
 30
0.0
 11
-4.056544060613267
 21
1.403950397446262
 31
0.0
  0
LINE
  5
417D
330
1E
100
AcDbEntity
  8
7
100
AcDbLine
 10
-4.056544060613267
 20
1.403950397446262
 30
0.0
 11
-4.093945635416417
 21
1.37835984626516
 31
0.0
  0
LINE
  5
417E
330
1E
100
AcDbEntity
  8
7
100
AcDbLine
 10
-4.093945635416417
 20
1.37835984626516
 30
0.0
 11
-4.119536186597519
 21
1.34095827146201
 31
0.0
  0
LINE
  5
417F
330
1E
100
AcDbEntity
  8
7
100
AcDbLine
 10
-4.119536186597519
 20
1.34095827146201
 30
0.0
 11
-4.127410202345551
 21
1.297651184847836
 31
0.0
  0
LINE
  5
4180
330
1E
100
AcDbEntity
  8
7
100
AcDbLine
 10
-4.127410202345551
 20
1.297651184847836
 30
0.0
 11
-4.119536186597519
 21
1.254344098233664
 31
0.0
  0
LINE
  5
4181
330
1E
100
AcDbEntity
  8
7
100
AcDbLine
 10
-4.119536186597519
 20
1.254344098233664
 30
0.0
 11
-4.093945635416417
 21
1.216942523430514
 31
0.0
  0
LINE
  5
4182
330
1E
100
AcDbEntity
  8
7
100
AcDbLine
 10
-4.093945635416417
 20
1.216942523430514
 30
0.0
 11
-4.056544060613267
 21
1.191351972249412
 31
0.0
  0
LINE
  5
4183
330
1E
100
AcDbEntity
  8
7
100
AcDbLine
 10
-4.056544060613267
 20
1.191351972249412
 30
0.0
 11
-4.013236973999094
 21
1.183477956501381
 31
0.0
  0
LINE
  5
4184
330
1E
100
AcDbEntity
  8
7
100
AcDbLine
 10
-3.893158233841614
 20
1.183477956501381
 30
0.0
 11
-3.849851147227441
 21
1.191351972249412
 31
0.0
  0
LINE
  5
4185
330
1E
100
AcDbEntity
  8
7
100
AcDbLine
 10
-3.849851147227441
 20
1.191351972249412
 30
0.0
 11
-3.812449572424291
 21
1.216942523430514
 31
0.0
  0
LINE
  5
4186
330
1E
100
AcDbEntity
  8
7
100
AcDbLine
 10
-3.812449572424291
 20
1.216942523430514
 30
0.0
 11
-3.78685902124319
 21
1.254344098233664
 31
0.0
  0
LINE
  5
4187
330
1E
100
AcDbEntity
  8
7
100
AcDbLine
 10
-3.78685902124319
 20
1.254344098233664
 30
0.0
 11
-3.778985005495157
 21
1.297651184847836
 31
0.0
  0
LINE
  5
4188
330
1E
100
AcDbEntity
  8
7
100
AcDbLine
 10
-3.778985005495157
 20
1.297651184847836
 30
0.0
 11
-3.78685902124319
 21
1.34095827146201
 31
0.0
  0
LINE
  5
4189
330
1E
100
AcDbEntity
  8
7
100
AcDbLine
 10
-3.78685902124319
 20
1.34095827146201
 30
0.0
 11
-3.812449572424291
 21
1.37835984626516
 31
0.0
  0
LINE
  5
418A
330
1E
100
AcDbEntity
  8
7
100
AcDbLine
 10
-3.812449572424291
 20
1.37835984626516
 30
0.0
 11
-3.849851147227441
 21
1.403950397446262
 31
0.0
  0
LINE
  5
418B
330
1E
100
AcDbEntity
  8
7
100
AcDbLine
 10
-3.849851147227441
 20
1.403950397446262
 30
0.0
 11
-3.893158233841614
 21
1.411824413194294
 31
0.0
  0
LINE
  5
418C
330
1E
100
AcDbEntity
  8
7
100
AcDbLine
 10
-4.013236973999094
 20
1.364580318706105
 30
0.0
 11
-4.046701540928228
 21
1.354737799021066
 31
0.0
  0
LINE
  5
418D
330
1E
100
AcDbEntity
  8
7
100
AcDbLine
 10
-4.046701540928228
 20
1.354737799021066
 30
0.0
 11
-4.070323588172323
 21
1.331115751776971
 31
0.0
  0
LINE
  5
418E
330
1E
100
AcDbEntity
  8
7
100
AcDbLine
 10
-4.070323588172323
 20
1.331115751776971
 30
0.0
 11
-4.080166107857362
 21
1.297651184847836
 31
0.0
  0
LINE
  5
418F
330
1E
100
AcDbEntity
  8
7
100
AcDbLine
 10
-4.080166107857362
 20
1.297651184847836
 30
0.0
 11
-4.070323588172323
 21
1.264186617918703
 31
0.0
  0
LINE
  5
4190
330
1E
100
AcDbEntity
  8
7
100
AcDbLine
 10
-4.070323588172323
 20
1.264186617918703
 30
0.0
 11
-4.046701540928228
 21
1.240564570674608
 31
0.0
  0
LINE
  5
4191
330
1E
100
AcDbEntity
  8
7
100
AcDbLine
 10
-4.046701540928228
 20
1.240564570674608
 30
0.0
 11
-4.013236973999094
 21
1.230722050989569
 31
0.0
  0
LINE
  5
4192
330
1E
100
AcDbEntity
  8
7
100
AcDbLine
 10
-3.826229099983347
 20
1.297651184847836
 30
0.0
 11
-3.836071619668386
 21
1.331115751776971
 31
0.0
  0
LINE
  5
4193
330
1E
100
AcDbEntity
  8
7
100
AcDbLine
 10
-3.836071619668386
 20
1.331115751776971
 30
0.0
 11
-3.85969366691248
 21
1.354737799021066
 31
0.0
  0
LINE
  5
4194
330
1E
100
AcDbEntity
  8
7
100
AcDbLine
 10
-3.85969366691248
 20
1.354737799021066
 30
0.0
 11
-3.893158233841614
 21
1.364580318706105
 31
0.0
  0
LINE
  5
4195
330
1E
100
AcDbEntity
  8
7
100
AcDbLine
 10
-3.893158233841614
 20
1.230722050989569
 30
0.0
 11
-3.85969366691248
 21
1.240564570674608
 31
0.0
  0
LINE
  5
4196
330
1E
100
AcDbEntity
  8
7
100
AcDbLine
 10
-3.85969366691248
 20
1.240564570674608
 30
0.0
 11
-3.836071619668386
 21
1.264186617918703
 31
0.0
  0
LINE
  5
4197
330
1E
100
AcDbEntity
  8
7
100
AcDbLine
 10
-3.836071619668386
 20
1.264186617918703
 30
0.0
 11
-3.826229099983347
 21
1.297651184847836
 31
0.0
  0
LINE
  5
4198
330
1E
100
AcDbEntity
  8
7
100
AcDbLine
 10
-3.826229099983347
 20
1.297651184847836
 30
0.0
 11
-3.836071619668386
 21
1.331115751776971
 31
0.0
  0
LINE
  5
4199
330
1E
100
AcDbEntity
  8
7
100
AcDbLine
 10
-3.836071619668386
 20
1.331115751776971
 30
0.0
 11
-3.85969366691248
 21
1.354737799021066
 31
0.0
  0
LINE
  5
419A
330
1E
100
AcDbEntity
  8
7
100
AcDbLine
 10
-3.85969366691248
 20
1.354737799021066
 30
0.0
 11
-3.893158233841614
 21
1.364580318706105
 31
0.0
  0
LINE
  5
419B
330
1E
100
AcDbEntity
  8
7
100
AcDbLine
 10
-4.080166107857362
 20
1.297651184847836
 30
0.0
 11
-4.070323588172323
 21
1.264186617918703
 31
0.0
  0
LINE
  5
419C
330
1E
100
AcDbEntity
  8
7
100
AcDbLine
 10
-4.070323588172323
 20
1.264186617918703
 30
0.0
 11
-4.046701540928228
 21
1.240564570674608
 31
0.0
  0
LINE
  5
419D
330
1E
100
AcDbEntity
  8
7
100
AcDbLine
 10
-3.893158233841614
 20
1.230722050989569
 30
0.0
 11
-3.85969366691248
 21
1.240564570674608
 31
0.0
  0
LINE
  5
419E
330
1E
100
AcDbEntity
  8
7
100
AcDbLine
 10
-3.85969366691248
 20
1.240564570674608
 30
0.0
 11
-3.836071619668386
 21
1.264186617918703
 31
0.0
  0
LINE
  5
419F
330
1E
100
AcDbEntity
  8
7
100
AcDbLine
 10
-3.836071619668386
 20
1.264186617918703
 30
0.0
 11
-3.826229099983347
 21
1.297651184847836
 31
0.0
  0
LINE
  5
41A0
330
1E
100
AcDbEntity
  8
7
100
AcDbLine
 10
-2.202213351951851
 20
1.230722050989569
 30
0.0
 11
-2.202213351951851
 21
1.228753547052562
 31
0.0
  0
LINE
  5
41A1
330
1E
100
AcDbEntity
  8
7
100
AcDbLine
 10
-2.202213351951851
 20
1.228753547052562
 30
0.0
 11
-2.08213461179437
 21
1.228753547052562
 31
0.0
  0
LINE
  5
41A2
330
1E
100
AcDbEntity
  8
7
100
AcDbLine
 10
-2.08213461179437
 20
1.181509452564373
 30
0.0
 11
-2.08213461179437
 21
1.183477956501381
 31
0.0
  0
LINE
  5
41A3
330
1E
100
AcDbEntity
  8
7
100
AcDbLine
 10
-2.08213461179437
 20
1.183477956501381
 30
0.0
 11
-2.202213351951851
 21
1.183477956501381
 31
0.0
  0
LINE
  5
41A4
330
1E
100
AcDbEntity
  8
7
100
AcDbLine
 10
-2.202213351951851
 20
1.183477956501381
 30
0.0
 11
-2.202213351951851
 21
1.181509452564373
 31
0.0
  0
LINE
  5
41A5
330
1E
100
AcDbEntity
  8
7
100
AcDbLine
 10
-4.013236973999094
 20
1.230722050989569
 30
0.0
 11
-4.013236973999094
 21
1.228753547052562
 31
0.0
  0
LINE
  5
41A6
330
1E
100
AcDbEntity
  8
7
100
AcDbLine
 10
-4.013236973999094
 20
1.228753547052562
 30
0.0
 11
-3.893158233841614
 21
1.228753547052562
 31
0.0
  0
LINE
  5
41A7
330
1E
100
AcDbEntity
  8
7
100
AcDbLine
 10
-3.893158233841614
 20
1.181509452564373
 30
0.0
 11
-3.893158233841614
 21
1.183477956501381
 31
0.0
  0
LINE
  5
41A8
330
1E
100
AcDbEntity
  8
7
100
AcDbLine
 10
-3.893158233841614
 20
1.183477956501381
 30
0.0
 11
-4.013236973999094
 21
1.183477956501381
 31
0.0
  0
LINE
  5
41A9
330
1E
100
AcDbEntity
  8
7
100
AcDbLine
 10
-4.013236973999094
 20
1.183477956501381
 30
0.0
 11
-4.013236973999094
 21
1.181509452564373
 31
0.0
  0
LINE
  5
41AA
330
1E
100
AcDbEntity
  8
7
100
AcDbLine
 10
-5.245520438566023
 20
0.7366275628005941
 30
0.0
 11
-5.245520438566023
 21
0.7208795313045311
 31
0.0
  0
LINE
  5
41AB
330
1E
100
AcDbEntity
  8
7
100
AcDbLine
 10
-5.245520438566023
 20
0.7208795313045311
 30
0.0
 11
-5.245520438566023
 21
0.7130055155564996
 31
0.0
  0
LINE
  5
41AC
330
1E
100
AcDbEntity
  8
7
100
AcDbLine
 10
-0.849851147227441
 20
0.7366275628005941
 30
0.0
 11
-0.849851147227441
 21
0.7208795313045311
 31
0.0
  0
LINE
  5
41AD
330
1E
100
AcDbEntity
  8
7
100
AcDbLine
 10
-0.849851147227441
 20
0.7208795313045311
 30
0.0
 11
-0.849851147227441
 21
0.7130055155564996
 31
0.0
  0
LINE
  5
41AE
330
1E
100
AcDbEntity
  8
7
100
AcDbLine
 10
-0.8183550842353151
 20
0.7445015785486256
 30
0.0
 11
-0.8281976039203549
 21
0.7228480352415386
 31
0.0
  0
LINE
  5
41AF
330
1E
100
AcDbEntity
  8
7
100
AcDbLine
 10
-0.8281976039203549
 20
0.7228480352415386
 30
0.0
 11
-0.849851147227441
 21
0.7130055155564996
 31
0.0
  0
LINE
  5
41B0
330
1E
100
AcDbEntity
  8
7
100
AcDbLine
 10
-0.8281976039203549
 20
0.69332047618642
 30
0.0
 11
-0.849851147227441
 21
0.7130055155564996
 31
0.0
  0
LINE
  5
41B1
330
1E
100
AcDbEntity
  8
7
100
AcDbLine
 10
-0.849851147227441
 20
0.7130055155564996
 30
0.0
 11
-5.245520438566023
 21
0.7130055155564996
 31
0.0
  0
LINE
  5
41B2
330
1E
100
AcDbEntity
  8
7
100
AcDbLine
 10
-5.277016501558149
 20
0.7445015785486256
 30
0.0
 11
-5.26717398187311
 21
0.7228480352415386
 31
0.0
  0
LINE
  5
41B3
330
1E
100
AcDbEntity
  8
7
100
AcDbLine
 10
-5.26717398187311
 20
0.7228480352415386
 30
0.0
 11
-5.245520438566023
 21
0.7130055155564996
 31
0.0
  0
LINE
  5
41B4
330
1E
100
AcDbEntity
  8
7
100
AcDbLine
 10
-4.345914139353425
 20
1.230722050989569
 30
0.0
 11
-4.345914139353425
 21
1.228753547052562
 31
0.0
  0
LINE
  5
41B5
330
1E
100
AcDbEntity
  8
7
100
AcDbLine
 10
-4.345914139353425
 20
1.228753547052562
 30
0.0
 11
-4.318355084235315
 21
1.228753547052562
 31
0.0
  0
LINE
  5
41B6
330
1E
100
AcDbEntity
  8
7
100
AcDbLine
 10
-4.318355084235315
 20
1.228753547052562
 30
0.0
 11
-4.318355084235315
 21
1.175603940753349
 31
0.0
  0
LINE
  5
41B7
330
1E
100
AcDbEntity
  8
7
100
AcDbLine
 10
-1.725835399195945
 20
2.41576142106831
 30
0.0
 11
-1.680559808644764
 21
2.407887405320279
 31
0.0
  0
LINE
  5
41B8
330
1E
100
AcDbEntity
  8
7
100
AcDbLine
 10
-1.680559808644764
 20
2.407887405320279
 30
0.0
 11
-1.64709524171563
 21
2.386233862013192
 31
0.0
  0
LINE
  5
41B9
330
1E
100
AcDbEntity
  8
7
100
AcDbLine
 10
-1.64709524171563
 20
2.386233862013192
 30
0.0
 11
-1.635284218093582
 21
2.358674806895081
 31
0.0
  0
LINE
  5
41BA
330
1E
100
AcDbEntity
  8
7
100
AcDbLine
 10
-1.725835399195945
 20
2.41576142106831
 30
0.0
 11
-1.725835399195945
 21
2.366548822643112
 31
0.0
  0
LINE
  5
41BB
330
1E
100
AcDbEntity
  8
7
100
AcDbLine
 10
-1.725835399195945
 20
2.366548822643112
 30
0.0
 11
-1.725835399195945
 21
2.313399216343899
 31
0.0
  0
LINE
  5
41BC
330
1E
100
AcDbEntity
  8
7
100
AcDbLine
 10
-1.725835399195945
 20
2.313399216343899
 30
0.0
 11
-1.680559808644764
 21
2.319304728154923
 31
0.0
  0
LINE
  5
41BD
330
1E
100
AcDbEntity
  8
7
100
AcDbLine
 10
-1.680559808644764
 20
2.319304728154923
 30
0.0
 11
-1.64709524171563
 21
2.337021263587994
 31
0.0
  0
LINE
  5
41BE
330
1E
100
AcDbEntity
  8
7
100
AcDbLine
 10
-1.64709524171563
 20
2.337021263587994
 30
0.0
 11
-1.635284218093582
 21
2.358674806895081
 31
0.0
  0
LINE
  5
41BF
330
1E
100
AcDbEntity
  8
7
100
AcDbLine
 10
-4.369536186597519
 20
2.41576142106831
 30
0.0
 11
-4.369536186597519
 21
2.366548822643112
 31
0.0
  0
LINE
  5
41C0
330
1E
100
AcDbEntity
  8
7
100
AcDbLine
 10
-4.369536186597519
 20
2.366548822643112
 30
0.0
 11
-4.369536186597519
 21
2.313399216343899
 31
0.0
  0
LINE
  5
41C1
330
1E
100
AcDbEntity
  8
7
100
AcDbLine
 10
-4.369536186597519
 20
2.41576142106831
 30
0.0
 11
-4.414811777148701
 21
2.407887405320279
 31
0.0
  0
LINE
  5
41C2
330
1E
100
AcDbEntity
  8
7
100
AcDbLine
 10
-4.414811777148701
 20
2.407887405320279
 30
0.0
 11
-4.448276344077834
 21
2.386233862013192
 31
0.0
  0
LINE
  5
41C3
330
1E
100
AcDbEntity
  8
7
100
AcDbLine
 10
-4.448276344077834
 20
2.386233862013192
 30
0.0
 11
-4.460087367699882
 21
2.358674806895081
 31
0.0
  0
LINE
  5
41C4
330
1E
100
AcDbEntity
  8
7
100
AcDbLine
 10
-4.460087367699882
 20
2.358674806895081
 30
0.0
 11
-4.446307840140827
 21
2.337021263587994
 31
0.0
  0
LINE
  5
41C5
330
1E
100
AcDbEntity
  8
7
100
AcDbLine
 10
-4.446307840140827
 20
2.337021263587994
 30
0.0
 11
-4.414811777148701
 21
2.319304728154923
 31
0.0
  0
LINE
  5
41C6
330
1E
100
AcDbEntity
  8
7
100
AcDbLine
 10
-1.725835399195945
 20
3.917729925005318
 30
0.0
 11
-1.680559808644764
 21
3.909855909257286
 31
0.0
  0
LINE
  5
41C7
330
1E
100
AcDbEntity
  8
7
100
AcDbLine
 10
-1.680559808644764
 20
3.909855909257286
 30
0.0
 11
-1.64709524171563
 21
3.888202365950199
 31
0.0
  0
LINE
  5
41C8
330
1E
100
AcDbEntity
  8
7
100
AcDbLine
 10
-1.64709524171563
 20
3.888202365950199
 30
0.0
 11
-1.635284218093582
 21
3.860643310832088
 31
0.0
  0
LINE
  5
41C9
330
1E
100
AcDbEntity
  8
7
100
AcDbLine
 10
-1.725835399195945
 20
3.917729925005318
 30
0.0
 11
-1.725835399195945
 21
3.86851732658012
 31
0.0
  0
LINE
  5
41CA
330
1E
100
AcDbEntity
  8
7
100
AcDbLine
 10
-1.725835399195945
 20
3.86851732658012
 30
0.0
 11
-1.725835399195945
 21
3.815367720280908
 31
0.0
  0
LINE
  5
41CB
330
1E
100
AcDbEntity
  8
7
100
AcDbLine
 10
-1.725835399195945
 20
3.815367720280908
 30
0.0
 11
-1.680559808644764
 21
3.821273232091931
 31
0.0
  0
LINE
  5
41CC
330
1E
100
AcDbEntity
  8
7
100
AcDbLine
 10
-1.680559808644764
 20
3.821273232091931
 30
0.0
 11
-1.64709524171563
 21
3.838989767525003
 31
0.0
  0
LINE
  5
41CD
330
1E
100
AcDbEntity
  8
7
100
AcDbLine
 10
-1.64709524171563
 20
3.838989767525003
 30
0.0
 11
-1.635284218093582
 21
3.860643310832088
 31
0.0
  0
LINE
  5
41CE
330
1E
100
AcDbEntity
  8
7
100
AcDbLine
 10
-4.369536186597519
 20
3.917729925005318
 30
0.0
 11
-4.369536186597519
 21
3.86851732658012
 31
0.0
  0
LINE
  5
41CF
330
1E
100
AcDbEntity
  8
7
100
AcDbLine
 10
-4.369536186597519
 20
3.86851732658012
 30
0.0
 11
-4.369536186597519
 21
3.815367720280908
 31
0.0
  0
LINE
  5
41D0
330
1E
100
AcDbEntity
  8
7
100
AcDbLine
 10
-4.369536186597519
 20
3.917729925005318
 30
0.0
 11
-4.414811777148701
 21
3.909855909257286
 31
0.0
  0
LINE
  5
41D1
330
1E
100
AcDbEntity
  8
7
100
AcDbLine
 10
-4.414811777148701
 20
3.909855909257286
 30
0.0
 11
-4.448276344077834
 21
3.888202365950199
 31
0.0
  0
LINE
  5
41D2
330
1E
100
AcDbEntity
  8
7
100
AcDbLine
 10
-4.448276344077834
 20
3.888202365950199
 30
0.0
 11
-4.460087367699882
 21
3.860643310832088
 31
0.0
  0
LINE
  5
41D3
330
1E
100
AcDbEntity
  8
7
100
AcDbLine
 10
-4.460087367699882
 20
3.860643310832088
 30
0.0
 11
-4.446307840140827
 21
3.838989767525003
 31
0.0
  0
LINE
  5
41D4
330
1E
100
AcDbEntity
  8
7
100
AcDbLine
 10
-4.446307840140827
 20
3.838989767525003
 30
0.0
 11
-4.414811777148701
 21
3.821273232091931
 31
0.0
  0
LINE
  5
41D5
330
1E
100
AcDbEntity
  8
7
100
AcDbLine
 10
-4.414811777148701
 20
3.821273232091931
 30
0.0
 11
-4.369536186597519
 21
3.815367720280908
 31
0.0
  0
LINE
  5
41D6
330
1E
100
AcDbEntity
  8
7
100
AcDbLine
 10
-1.623473194471535
 20
2.783871657288782
 30
0.0
 11
-1.635284218093582
 21
2.358674806895081
 31
0.0
  0
LINE
  5
41D7
330
1E
100
AcDbEntity
  8
7
100
AcDbLine
 10
-1.635284218093582
 20
2.358674806895081
 30
0.0
 11
-1.623473194471535
 21
1.740564570674608
 31
0.0
  0
LINE
  5
41D8
330
1E
100
AcDbEntity
  8
7
100
AcDbLine
 10
-4.471898391321929
 20
1.740564570674608
 30
0.0
 11
-4.460087367699882
 21
2.358674806895081
 31
0.0
  0
LINE
  5
41D9
330
1E
100
AcDbEntity
  8
7
100
AcDbLine
 10
-4.460087367699882
 20
2.358674806895081
 30
0.0
 11
-4.471898391321929
 21
2.783871657288782
 31
0.0
  0
LINE
  5
41DA
330
1E
100
AcDbEntity
  8
7
100
AcDbLine
 10
-4.318355084235315
 20
4.138202365950199
 30
0.0
 11
-4.318355084235315
 21
4.098832287210042
 31
0.0
  0
LINE
  5
41DB
330
1E
100
AcDbEntity
  8
7
100
AcDbLine
 10
-4.318355084235315
 20
4.098832287210042
 30
0.0
 11
-4.345914139353425
 21
4.098832287210042
 31
0.0
  0
LINE
  5
41DC
330
1E
100
AcDbEntity
  8
7
100
AcDbLine
 10
-1.778985005495157
 20
4.069304728154923
 30
0.0
 11
-1.74945744644004
 21
4.069304728154923
 31
0.0
  0
LINE
  5
41DD
330
1E
100
AcDbEntity
  8
7
100
AcDbLine
 10
-1.74945744644004
 20
4.069304728154923
 30
0.0
 11
-1.74945744644004
 21
4.098832287210042
 31
0.0
  0
LINE
  5
41DE
330
1E
100
AcDbEntity
  8
7
100
AcDbLine
 10
-4.312449572424291
 20
3.161824413194294
 30
0.0
 11
-4.245520438566023
 21
3.161824413194294
 31
0.0
  0
LINE
  5
41DF
330
1E
100
AcDbEntity
  8
7
100
AcDbLine
 10
-4.245520438566023
 20
3.161824413194294
 30
0.0
 11
-4.245520438566023
 21
3.116548822643112
 31
0.0
  0
LINE
  5
41E0
330
1E
100
AcDbEntity
  8
7
100
AcDbLine
 10
-4.105756659038465
 20
3.716942523430514
 30
0.0
 11
-4.101819651164449
 21
3.713005515556499
 31
0.0
  0
LINE
  5
41E1
330
1E
100
AcDbEntity
  8
7
100
AcDbLine
 10
-4.101819651164449
 20
3.713005515556499
 30
0.0
 11
-4.088040123605393
 21
3.713005515556499
 31
0.0
  0
LINE
  5
41E2
330
1E
100
AcDbEntity
  8
7
100
AcDbLine
 10
-3.469929887384921
 20
3.716942523430514
 30
0.0
 11
-3.467961383447914
 21
3.713005515556499
 31
0.0
  0
LINE
  5
41E3
330
1E
100
AcDbEntity
  8
7
100
AcDbLine
 10
-3.467961383447914
 20
3.713005515556499
 30
0.0
 11
-3.452213351951851
 21
3.713005515556499
 31
0.0
  0
LINE
  5
41E4
330
1E
100
AcDbEntity
  8
7
100
AcDbLine
 10
-2.836071619668386
 20
3.716942523430514
 30
0.0
 11
-2.83213461179437
 21
3.713005515556499
 31
0.0
  0
LINE
  5
41E5
330
1E
100
AcDbEntity
  8
7
100
AcDbLine
 10
-2.83213461179437
 20
3.713005515556499
 30
0.0
 11
-2.818355084235315
 21
3.713005515556499
 31
0.0
  0
LINE
  5
41E6
330
1E
100
AcDbEntity
  8
7
100
AcDbLine
 10
-2.200244848014842
 20
3.716942523430514
 30
0.0
 11
-2.198276344077835
 21
3.713005515556499
 31
0.0
  0
LINE
  5
41E7
330
1E
100
AcDbEntity
  8
7
100
AcDbLine
 10
-2.198276344077835
 20
3.713005515556499
 30
0.0
 11
-2.182528312581772
 21
3.713005515556499
 31
0.0
  0
LINE
  5
41E8
330
1E
100
AcDbEntity
  8
7
100
AcDbLine
 10
-2.340008627542402
 20
3.161824413194294
 30
0.0
 11
-2.340008627542402
 21
3.116548822643112
 31
0.0
  0
LINE
  5
41E9
330
1E
100
AcDbEntity
  8
7
100
AcDbLine
 10
-2.340008627542402
 20
3.116548822643112
 30
0.0
 11
-2.340008627542402
 21
3.067336224217916
 31
0.0
  0
LINE
  5
41EA
330
1E
100
AcDbEntity
  8
7
100
AcDbLine
 10
-2.485677918880984
 20
3.161824413194294
 30
0.0
 11
-2.485677918880984
 21
3.116548822643112
 31
0.0
  0
LINE
  5
41EB
330
1E
100
AcDbEntity
  8
7
100
AcDbLine
 10
-2.485677918880984
 20
3.116548822643112
 30
0.0
 11
-2.340008627542402
 21
3.116548822643112
 31
0.0
  0
LINE
  5
41EC
330
1E
100
AcDbEntity
  8
7
100
AcDbLine
 10
-3.755362958251063
 20
3.161824413194294
 30
0.0
 11
-3.755362958251063
 21
3.116548822643112
 31
0.0
  0
LINE
  5
41ED
330
1E
100
AcDbEntity
  8
7
100
AcDbLine
 10
-3.755362958251063
 20
3.116548822643112
 30
0.0
 11
-3.60969366691248
 21
3.116548822643112
 31
0.0
  0
LINE
  5
41EE
330
1E
100
AcDbEntity
  8
7
100
AcDbLine
 10
-2.076229099983346
 20
4.041745673036814
 30
0.0
 11
-2.060481068487283
 21
4.025997641540751
 31
0.0
  0
LINE
  5
41EF
330
1E
100
AcDbEntity
  8
7
100
AcDbLine
 10
-2.060481068487283
 20
4.025997641540751
 30
0.0
 11
-2.060481068487283
 21
4.006312602170671
 31
0.0
  0
LINE
  5
41F0
330
1E
100
AcDbEntity
  8
7
100
AcDbLine
 10
-2.060481068487283
 20
4.006312602170671
 30
0.0
 11
-2.076229099983346
 21
3.992533074611616
 31
0.0
  0
LINE
  5
41F1
330
1E
100
AcDbEntity
  8
7
100
AcDbLine
 10
-2.076229099983346
 20
3.992533074611616
 30
0.0
 11
-2.101819651164449
 21
3.988596066737601
 31
0.0
  0
LINE
  5
41F2
330
1E
100
AcDbEntity
  8
7
100
AcDbLine
 10
-2.101819651164449
 20
3.988596066737601
 30
0.0
 11
-2.123473194471535
 21
3.99843858642264
 31
0.0
  0
LINE
  5
41F3
330
1E
100
AcDbEntity
  8
7
100
AcDbLine
 10
-2.123473194471535
 20
3.99843858642264
 30
0.0
 11
-2.131347210219566
 21
4.01615512185571
 31
0.0
  0
LINE
  5
41F4
330
1E
100
AcDbEntity
  8
7
100
AcDbLine
 10
-2.131347210219566
 20
4.01615512185571
 30
0.0
 11
-2.123473194471535
 21
4.033871657288782
 31
0.0
  0
LINE
  5
41F5
330
1E
100
AcDbEntity
  8
7
100
AcDbLine
 10
-2.123473194471535
 20
4.033871657288782
 30
0.0
 11
-2.101819651164449
 21
4.043714176973821
 31
0.0
  0
LINE
  5
41F6
330
1E
100
AcDbEntity
  8
7
100
AcDbLine
 10
-2.101819651164449
 20
4.043714176973821
 30
0.0
 11
-2.076229099983346
 21
4.041745673036814
 31
0.0
  0
LINE
  5
41F7
330
1E
100
AcDbEntity
  8
7
100
AcDbLine
 10
-2.76717398187311
 20
4.01615512185571
 30
0.0
 11
-2.757331462188071
 21
4.033871657288782
 31
0.0
  0
LINE
  5
41F8
330
1E
100
AcDbEntity
  8
7
100
AcDbLine
 10
-2.757331462188071
 20
4.033871657288782
 30
0.0
 11
-2.735677918880984
 21
4.043714176973821
 31
0.0
  0
LINE
  5
41F9
330
1E
100
AcDbEntity
  8
7
100
AcDbLine
 10
-2.735677918880984
 20
4.043714176973821
 30
0.0
 11
-2.71205587163689
 21
4.041745673036814
 31
0.0
  0
LINE
  5
41FA
330
1E
100
AcDbEntity
  8
7
100
AcDbLine
 10
-2.71205587163689
 20
4.041745673036814
 30
0.0
 11
-2.696307840140827
 21
4.025997641540751
 31
0.0
  0
LINE
  5
41FB
330
1E
100
AcDbEntity
  8
7
100
AcDbLine
 10
-2.696307840140827
 20
4.025997641540751
 30
0.0
 11
-2.696307840140827
 21
4.006312602170671
 31
0.0
  0
LINE
  5
41FC
330
1E
100
AcDbEntity
  8
7
100
AcDbLine
 10
-2.696307840140827
 20
4.006312602170671
 30
0.0
 11
-2.71205587163689
 21
3.992533074611616
 31
0.0
  0
LINE
  5
41FD
330
1E
100
AcDbEntity
  8
7
100
AcDbLine
 10
-2.71205587163689
 20
3.992533074611616
 30
0.0
 11
-2.735677918880984
 21
3.988596066737601
 31
0.0
  0
LINE
  5
41FE
330
1E
100
AcDbEntity
  8
7
100
AcDbLine
 10
-2.735677918880984
 20
3.988596066737601
 30
0.0
 11
-2.757331462188071
 21
3.99843858642264
 31
0.0
  0
LINE
  5
41FF
330
1E
100
AcDbEntity
  8
7
100
AcDbLine
 10
-2.757331462188071
 20
3.99843858642264
 30
0.0
 11
-2.76717398187311
 21
4.01615512185571
 31
0.0
  0
LINE
  5
4200
330
1E
100
AcDbEntity
  8
7
100
AcDbLine
 10
-3.371504690534528
 20
3.988596066737601
 30
0.0
 11
-3.393158233841614
 21
3.99843858642264
 31
0.0
  0
LINE
  5
4201
330
1E
100
AcDbEntity
  8
7
100
AcDbLine
 10
-3.393158233841614
 20
3.99843858642264
 30
0.0
 11
-3.401032249589645
 21
4.01615512185571
 31
0.0
  0
LINE
  5
4202
330
1E
100
AcDbEntity
  8
7
100
AcDbLine
 10
-3.401032249589645
 20
4.01615512185571
 30
0.0
 11
-3.393158233841614
 21
4.033871657288782
 31
0.0
  0
LINE
  5
4203
330
1E
100
AcDbEntity
  8
7
100
AcDbLine
 10
-3.393158233841614
 20
4.033871657288782
 30
0.0
 11
-3.371504690534528
 21
4.043714176973821
 31
0.0
  0
LINE
  5
4204
330
1E
100
AcDbEntity
  8
7
100
AcDbLine
 10
-3.371504690534528
 20
4.043714176973821
 30
0.0
 11
-3.345914139353425
 21
4.041745673036814
 31
0.0
  0
LINE
  5
4205
330
1E
100
AcDbEntity
  8
7
100
AcDbLine
 10
-3.345914139353425
 20
4.041745673036814
 30
0.0
 11
-3.330166107857362
 21
4.025997641540751
 31
0.0
  0
LINE
  5
4206
330
1E
100
AcDbEntity
  8
7
100
AcDbLine
 10
-3.330166107857362
 20
4.025997641540751
 30
0.0
 11
-3.330166107857362
 21
4.006312602170671
 31
0.0
  0
LINE
  5
4207
330
1E
100
AcDbEntity
  8
7
100
AcDbLine
 10
-3.330166107857362
 20
4.006312602170671
 30
0.0
 11
-3.345914139353425
 21
3.992533074611616
 31
0.0
  0
LINE
  5
4208
330
1E
100
AcDbEntity
  8
7
100
AcDbLine
 10
-3.345914139353425
 20
3.992533074611616
 30
0.0
 11
-3.371504690534528
 21
3.988596066737601
 31
0.0
  0
LINE
  5
4209
330
1E
100
AcDbEntity
  8
7
100
AcDbLine
 10
-4.028985005495157
 20
4.033871657288782
 30
0.0
 11
-4.007331462188071
 21
4.043714176973821
 31
0.0
  0
LINE
  5
420A
330
1E
100
AcDbEntity
  8
7
100
AcDbLine
 10
-4.007331462188071
 20
4.043714176973821
 30
0.0
 11
-3.981740911006968
 21
4.041745673036814
 31
0.0
  0
LINE
  5
420B
330
1E
100
AcDbEntity
  8
7
100
AcDbLine
 10
-3.981740911006968
 20
4.041745673036814
 30
0.0
 11
-3.965992879510905
 21
4.025997641540751
 31
0.0
  0
LINE
  5
420C
330
1E
100
AcDbEntity
  8
7
100
AcDbLine
 10
-3.965992879510905
 20
4.025997641540751
 30
0.0
 11
-3.965992879510905
 21
4.006312602170671
 31
0.0
  0
LINE
  5
420D
330
1E
100
AcDbEntity
  8
7
100
AcDbLine
 10
-3.965992879510905
 20
4.006312602170671
 30
0.0
 11
-3.981740911006968
 21
3.992533074611616
 31
0.0
  0
LINE
  5
420E
330
1E
100
AcDbEntity
  8
7
100
AcDbLine
 10
-3.981740911006968
 20
3.992533074611616
 30
0.0
 11
-4.007331462188071
 21
3.988596066737601
 31
0.0
  0
LINE
  5
420F
330
1E
100
AcDbEntity
  8
7
100
AcDbLine
 10
-4.007331462188071
 20
3.988596066737601
 30
0.0
 11
-4.028985005495157
 21
3.99843858642264
 31
0.0
  0
LINE
  5
4210
330
1E
100
AcDbEntity
  8
7
100
AcDbLine
 10
-4.028985005495157
 20
3.99843858642264
 30
0.0
 11
-4.03685902124319
 21
4.01615512185571
 31
0.0
  0
LINE
  5
4211
330
1E
100
AcDbEntity
  8
7
100
AcDbLine
 10
-2.062449572424291
 20
4.004344098233664
 30
0.0
 11
-2.08213461179437
 21
4.020092129729727
 31
0.0
  0
LINE
  5
4212
330
1E
100
AcDbEntity
  8
7
100
AcDbLine
 10
-2.08213461179437
 20
4.020092129729727
 30
0.0
 11
-2.10969366691248
 21
4.020092129729727
 31
0.0
  0
LINE
  5
4213
330
1E
100
AcDbEntity
  8
7
100
AcDbLine
 10
-2.10969366691248
 20
4.020092129729727
 30
0.0
 11
-2.127410202345551
 21
4.004344098233664
 31
0.0
  0
LINE
  5
4214
330
1E
100
AcDbEntity
  8
7
100
AcDbLine
 10
-2.696307840140827
 20
4.004344098233664
 30
0.0
 11
-2.715992879510905
 21
4.020092129729727
 31
0.0
  0
LINE
  5
4215
330
1E
100
AcDbEntity
  8
7
100
AcDbLine
 10
-2.715992879510905
 20
4.020092129729727
 30
0.0
 11
-2.743551934629016
 21
4.020092129729727
 31
0.0
  0
LINE
  5
4216
330
1E
100
AcDbEntity
  8
7
100
AcDbLine
 10
-2.743551934629016
 20
4.020092129729727
 30
0.0
 11
-2.763236973999094
 21
4.004344098233664
 31
0.0
  0
LINE
  5
4217
330
1E
100
AcDbEntity
  8
7
100
AcDbLine
 10
-3.33213461179437
 20
4.004344098233664
 30
0.0
 11
-3.351819651164449
 21
4.020092129729727
 31
0.0
  0
LINE
  5
4218
330
1E
100
AcDbEntity
  8
7
100
AcDbLine
 10
-3.351819651164449
 20
4.020092129729727
 30
0.0
 11
-3.379378706282559
 21
4.020092129729727
 31
0.0
  0
LINE
  5
4219
330
1E
100
AcDbEntity
  8
7
100
AcDbLine
 10
-3.379378706282559
 20
4.020092129729727
 30
0.0
 11
-3.399063745652638
 21
4.004344098233664
 31
0.0
  0
LINE
  5
421A
330
1E
100
AcDbEntity
  8
7
100
AcDbLine
 10
-3.965992879510905
 20
4.004344098233664
 30
0.0
 11
-3.985677918880984
 21
4.020092129729727
 31
0.0
  0
LINE
  5
421B
330
1E
100
AcDbEntity
  8
7
100
AcDbLine
 10
-3.985677918880984
 20
4.020092129729727
 30
0.0
 11
-4.013236973999094
 21
4.020092129729727
 31
0.0
  0
LINE
  5
421C
330
1E
100
AcDbEntity
  8
7
100
AcDbLine
 10
-4.013236973999094
 20
4.020092129729727
 30
0.0
 11
-4.032922013369173
 21
4.004344098233664
 31
0.0
  0
LINE
  5
421D
330
1E
100
AcDbEntity
  8
7
100
AcDbLine
 10
-1.710087367699882
 20
3.067336224217916
 30
0.0
 11
-1.725835399195945
 21
3.815367720280908
 31
0.0
  0
LINE
  5
421E
330
1E
100
AcDbEntity
  8
7
100
AcDbLine
 10
-1.725835399195945
 20
3.815367720280908
 30
0.0
 11
-4.369536186597519
 21
3.815367720280908
 31
0.0
  0
LINE
  5
421F
330
1E
100
AcDbEntity
  8
7
100
AcDbLine
 10
-4.369536186597519
 20
3.815367720280908
 30
0.0
 11
-4.385284218093582
 21
3.067336224217916
 31
0.0
  0
LINE
  5
4220
330
1E
100
AcDbEntity
  8
7
100
AcDbLine
 10
-4.318355084235315
 20
2.636233862013192
 30
0.0
 11
-4.318355084235315
 21
2.596863783273034
 31
0.0
  0
LINE
  5
4221
330
1E
100
AcDbEntity
  8
7
100
AcDbLine
 10
-4.318355084235315
 20
2.596863783273034
 30
0.0
 11
-4.345914139353425
 21
2.596863783273034
 31
0.0
  0
LINE
  5
4222
330
1E
100
AcDbEntity
  8
7
100
AcDbLine
 10
-1.778985005495157
 20
2.567336224217916
 30
0.0
 11
-1.74945744644004
 21
2.567336224217916
 31
0.0
  0
LINE
  5
4223
330
1E
100
AcDbEntity
  8
7
100
AcDbLine
 10
-1.74945744644004
 20
2.567336224217916
 30
0.0
 11
-1.74945744644004
 21
2.596863783273034
 31
0.0
  0
LINE
  5
4224
330
1E
100
AcDbEntity
  8
7
100
AcDbLine
 10
-4.105756659038465
 20
2.214974019493507
 30
0.0
 11
-4.101819651164449
 21
2.21103701161949
 31
0.0
  0
LINE
  5
4225
330
1E
100
AcDbEntity
  8
7
100
AcDbLine
 10
-4.101819651164449
 20
2.21103701161949
 30
0.0
 11
-4.088040123605393
 21
2.21103701161949
 31
0.0
  0
LINE
  5
4226
330
1E
100
AcDbEntity
  8
7
100
AcDbLine
 10
-3.469929887384921
 20
2.214974019493507
 30
0.0
 11
-3.467961383447914
 21
2.21103701161949
 31
0.0
  0
LINE
  5
4227
330
1E
100
AcDbEntity
  8
7
100
AcDbLine
 10
-3.467961383447914
 20
2.21103701161949
 30
0.0
 11
-3.452213351951851
 21
2.21103701161949
 31
0.0
  0
LINE
  5
4228
330
1E
100
AcDbEntity
  8
7
100
AcDbLine
 10
-2.836071619668386
 20
2.214974019493507
 30
0.0
 11
-2.83213461179437
 21
2.21103701161949
 31
0.0
  0
LINE
  5
4229
330
1E
100
AcDbEntity
  8
7
100
AcDbLine
 10
-2.83213461179437
 20
2.21103701161949
 30
0.0
 11
-2.818355084235315
 21
2.21103701161949
 31
0.0
  0
LINE
  5
422A
330
1E
100
AcDbEntity
  8
7
100
AcDbLine
 10
-2.200244848014842
 20
2.214974019493507
 30
0.0
 11
-2.198276344077835
 21
2.21103701161949
 31
0.0
  0
LINE
  5
422B
330
1E
100
AcDbEntity
  8
7
100
AcDbLine
 10
-2.198276344077835
 20
2.21103701161949
 30
0.0
 11
-2.182528312581772
 21
2.21103701161949
 31
0.0
  0
LINE
  5
422C
330
1E
100
AcDbEntity
  8
7
100
AcDbLine
 10
-2.340008627542402
 20
1.659855909257286
 30
0.0
 11
-2.340008627542402
 21
1.614580318706105
 31
0.0
  0
LINE
  5
422D
330
1E
100
AcDbEntity
  8
7
100
AcDbLine
 10
-2.340008627542402
 20
1.614580318706105
 30
0.0
 11
-2.340008627542402
 21
1.565367720280908
 31
0.0
  0
LINE
  5
422E
330
1E
100
AcDbEntity
  8
7
100
AcDbLine
 10
-2.485677918880984
 20
1.659855909257286
 30
0.0
 11
-2.485677918880984
 21
1.614580318706105
 31
0.0
  0
LINE
  5
422F
330
1E
100
AcDbEntity
  8
7
100
AcDbLine
 10
-2.485677918880984
 20
1.614580318706105
 30
0.0
 11
-2.340008627542402
 21
1.614580318706105
 31
0.0
  0
LINE
  5
4230
330
1E
100
AcDbEntity
  8
7
100
AcDbLine
 10
-3.755362958251063
 20
1.659855909257286
 30
0.0
 11
-3.755362958251063
 21
1.614580318706105
 31
0.0
  0
LINE
  5
4231
330
1E
100
AcDbEntity
  8
7
100
AcDbLine
 10
-3.755362958251063
 20
1.614580318706105
 30
0.0
 11
-3.60969366691248
 21
1.614580318706105
 31
0.0
  0
LINE
  5
4232
330
1E
100
AcDbEntity
  8
7
100
AcDbLine
 10
-2.131347210219566
 20
2.514186617918703
 30
0.0
 11
-2.123473194471535
 21
2.531903153351773
 31
0.0
  0
LINE
  5
4233
330
1E
100
AcDbEntity
  8
7
100
AcDbLine
 10
-2.123473194471535
 20
2.531903153351773
 30
0.0
 11
-2.101819651164449
 21
2.541745673036814
 31
0.0
  0
LINE
  5
4234
330
1E
100
AcDbEntity
  8
7
100
AcDbLine
 10
-2.101819651164449
 20
2.541745673036814
 30
0.0
 11
-2.076229099983346
 21
2.539777169099805
 31
0.0
  0
LINE
  5
4235
330
1E
100
AcDbEntity
  8
7
100
AcDbLine
 10
-2.076229099983346
 20
2.539777169099805
 30
0.0
 11
-2.060481068487283
 21
2.524029137603742
 31
0.0
  0
LINE
  5
4236
330
1E
100
AcDbEntity
  8
7
100
AcDbLine
 10
-2.060481068487283
 20
2.524029137603742
 30
0.0
 11
-2.060481068487283
 21
2.504344098233664
 31
0.0
  0
LINE
  5
4237
330
1E
100
AcDbEntity
  8
7
100
AcDbLine
 10
-2.060481068487283
 20
2.504344098233664
 30
0.0
 11
-2.076229099983346
 21
2.490564570674608
 31
0.0
  0
LINE
  5
4238
330
1E
100
AcDbEntity
  8
7
100
AcDbLine
 10
-2.076229099983346
 20
2.490564570674608
 30
0.0
 11
-2.101819651164449
 21
2.486627562800594
 31
0.0
  0
LINE
  5
4239
330
1E
100
AcDbEntity
  8
7
100
AcDbLine
 10
-2.101819651164449
 20
2.486627562800594
 30
0.0
 11
-2.123473194471535
 21
2.496470082485632
 31
0.0
  0
LINE
  5
423A
330
1E
100
AcDbEntity
  8
7
100
AcDbLine
 10
-2.123473194471535
 20
2.496470082485632
 30
0.0
 11
-2.131347210219566
 21
2.514186617918703
 31
0.0
  0
LINE
  5
423B
330
1E
100
AcDbEntity
  8
7
100
AcDbLine
 10
-2.76717398187311
 20
2.514186617918703
 30
0.0
 11
-2.757331462188071
 21
2.531903153351773
 31
0.0
  0
LINE
  5
423C
330
1E
100
AcDbEntity
  8
7
100
AcDbLine
 10
-2.757331462188071
 20
2.531903153351773
 30
0.0
 11
-2.735677918880984
 21
2.541745673036814
 31
0.0
  0
LINE
  5
423D
330
1E
100
AcDbEntity
  8
7
100
AcDbLine
 10
-2.735677918880984
 20
2.541745673036814
 30
0.0
 11
-2.71205587163689
 21
2.539777169099805
 31
0.0
  0
LINE
  5
423E
330
1E
100
AcDbEntity
  8
7
100
AcDbLine
 10
-2.71205587163689
 20
2.539777169099805
 30
0.0
 11
-2.696307840140827
 21
2.524029137603742
 31
0.0
  0
LINE
  5
423F
330
1E
100
AcDbEntity
  8
7
100
AcDbLine
 10
-2.696307840140827
 20
2.524029137603742
 30
0.0
 11
-2.696307840140827
 21
2.504344098233664
 31
0.0
  0
LINE
  5
4240
330
1E
100
AcDbEntity
  8
7
100
AcDbLine
 10
-2.696307840140827
 20
2.504344098233664
 30
0.0
 11
-2.71205587163689
 21
2.490564570674608
 31
0.0
  0
LINE
  5
4241
330
1E
100
AcDbEntity
  8
7
100
AcDbLine
 10
-2.71205587163689
 20
2.490564570674608
 30
0.0
 11
-2.735677918880984
 21
2.486627562800594
 31
0.0
  0
LINE
  5
4242
330
1E
100
AcDbEntity
  8
7
100
AcDbLine
 10
-2.735677918880984
 20
2.486627562800594
 30
0.0
 11
-2.757331462188071
 21
2.496470082485632
 31
0.0
  0
LINE
  5
4243
330
1E
100
AcDbEntity
  8
7
100
AcDbLine
 10
-2.757331462188071
 20
2.496470082485632
 30
0.0
 11
-2.76717398187311
 21
2.514186617918703
 31
0.0
  0
LINE
  5
4244
330
1E
100
AcDbEntity
  8
7
100
AcDbLine
 10
-3.330166107857362
 20
2.504344098233664
 30
0.0
 11
-3.345914139353425
 21
2.490564570674608
 31
0.0
  0
LINE
  5
4245
330
1E
100
AcDbEntity
  8
7
100
AcDbLine
 10
-3.345914139353425
 20
2.490564570674608
 30
0.0
 11
-3.371504690534528
 21
2.486627562800594
 31
0.0
  0
LINE
  5
4246
330
1E
100
AcDbEntity
  8
7
100
AcDbLine
 10
-3.371504690534528
 20
2.486627562800594
 30
0.0
 11
-3.393158233841614
 21
2.496470082485632
 31
0.0
  0
LINE
  5
4247
330
1E
100
AcDbEntity
  8
7
100
AcDbLine
 10
-3.393158233841614
 20
2.496470082485632
 30
0.0
 11
-3.401032249589645
 21
2.514186617918703
 31
0.0
  0
LINE
  5
4248
330
1E
100
AcDbEntity
  8
7
100
AcDbLine
 10
-3.401032249589645
 20
2.514186617918703
 30
0.0
 11
-3.393158233841614
 21
2.531903153351773
 31
0.0
  0
LINE
  5
4249
330
1E
100
AcDbEntity
  8
7
100
AcDbLine
 10
-3.393158233841614
 20
2.531903153351773
 30
0.0
 11
-3.371504690534528
 21
2.541745673036814
 31
0.0
  0
LINE
  5
424A
330
1E
100
AcDbEntity
  8
7
100
AcDbLine
 10
-3.371504690534528
 20
2.541745673036814
 30
0.0
 11
-3.345914139353425
 21
2.539777169099805
 31
0.0
  0
LINE
  5
424B
330
1E
100
AcDbEntity
  8
7
100
AcDbLine
 10
-3.345914139353425
 20
2.539777169099805
 30
0.0
 11
-3.330166107857362
 21
2.524029137603742
 31
0.0
  0
LINE
  5
424C
330
1E
100
AcDbEntity
  8
7
100
AcDbLine
 10
-3.330166107857362
 20
2.524029137603742
 30
0.0
 11
-3.330166107857362
 21
2.504344098233664
 31
0.0
  0
LINE
  5
424D
330
1E
100
AcDbEntity
  8
7
100
AcDbLine
 10
-4.03685902124319
 20
2.514186617918703
 30
0.0
 11
-4.028985005495157
 21
2.531903153351773
 31
0.0
  0
LINE
  5
424E
330
1E
100
AcDbEntity
  8
7
100
AcDbLine
 10
-4.028985005495157
 20
2.531903153351773
 30
0.0
 11
-4.007331462188071
 21
2.541745673036814
 31
0.0
  0
LINE
  5
424F
330
1E
100
AcDbEntity
  8
7
100
AcDbLine
 10
-4.007331462188071
 20
2.541745673036814
 30
0.0
 11
-3.981740911006968
 21
2.539777169099805
 31
0.0
  0
LINE
  5
4250
330
1E
100
AcDbEntity
  8
7
100
AcDbLine
 10
-3.981740911006968
 20
2.539777169099805
 30
0.0
 11
-3.965992879510905
 21
2.524029137603742
 31
0.0
  0
LINE
  5
4251
330
1E
100
AcDbEntity
  8
7
100
AcDbLine
 10
-3.965992879510905
 20
2.524029137603742
 30
0.0
 11
-3.965992879510905
 21
2.504344098233664
 31
0.0
  0
LINE
  5
4252
330
1E
100
AcDbEntity
  8
7
100
AcDbLine
 10
-3.965992879510905
 20
2.504344098233664
 30
0.0
 11
-3.981740911006968
 21
2.490564570674608
 31
0.0
  0
LINE
  5
4253
330
1E
100
AcDbEntity
  8
7
100
AcDbLine
 10
-3.981740911006968
 20
2.490564570674608
 30
0.0
 11
-4.007331462188071
 21
2.486627562800594
 31
0.0
  0
LINE
  5
4254
330
1E
100
AcDbEntity
  8
7
100
AcDbLine
 10
-4.007331462188071
 20
2.486627562800594
 30
0.0
 11
-4.028985005495157
 21
2.496470082485632
 31
0.0
  0
LINE
  5
4255
330
1E
100
AcDbEntity
  8
7
100
AcDbLine
 10
-4.028985005495157
 20
2.496470082485632
 30
0.0
 11
-4.03685902124319
 21
2.514186617918703
 31
0.0
  0
LINE
  5
4256
330
1E
100
AcDbEntity
  8
7
100
AcDbLine
 10
-2.062449572424291
 20
2.502375594296657
 30
0.0
 11
-2.08213461179437
 21
2.518123625792719
 31
0.0
  0
LINE
  5
4257
330
1E
100
AcDbEntity
  8
7
100
AcDbLine
 10
-2.08213461179437
 20
2.518123625792719
 30
0.0
 11
-2.10969366691248
 21
2.518123625792719
 31
0.0
  0
LINE
  5
4258
330
1E
100
AcDbEntity
  8
7
100
AcDbLine
 10
-2.10969366691248
 20
2.518123625792719
 30
0.0
 11
-2.127410202345551
 21
2.502375594296657
 31
0.0
  0
LINE
  5
4259
330
1E
100
AcDbEntity
  8
7
100
AcDbLine
 10
-2.696307840140827
 20
2.502375594296657
 30
0.0
 11
-2.715992879510905
 21
2.518123625792719
 31
0.0
  0
LINE
  5
425A
330
1E
100
AcDbEntity
  8
7
100
AcDbLine
 10
-2.715992879510905
 20
2.518123625792719
 30
0.0
 11
-2.743551934629016
 21
2.518123625792719
 31
0.0
  0
LINE
  5
425B
330
1E
100
AcDbEntity
  8
7
100
AcDbLine
 10
-3.33213461179437
 20
2.502375594296657
 30
0.0
 11
-3.351819651164449
 21
2.518123625792719
 31
0.0
  0
LINE
  5
425C
330
1E
100
AcDbEntity
  8
7
100
AcDbLine
 10
-3.351819651164449
 20
2.518123625792719
 30
0.0
 11
-3.379378706282559
 21
2.518123625792719
 31
0.0
  0
LINE
  5
425D
330
1E
100
AcDbEntity
  8
7
100
AcDbLine
 10
-3.379378706282559
 20
2.518123625792719
 30
0.0
 11
-3.399063745652638
 21
2.502375594296657
 31
0.0
  0
LINE
  5
425E
330
1E
100
AcDbEntity
  8
7
100
AcDbLine
 10
-3.965992879510905
 20
2.502375594296657
 30
0.0
 11
-3.985677918880984
 21
2.518123625792719
 31
0.0
  0
LINE
  5
425F
330
1E
100
AcDbEntity
  8
7
100
AcDbLine
 10
-3.985677918880984
 20
2.518123625792719
 30
0.0
 11
-4.013236973999094
 21
2.518123625792719
 31
0.0
  0
LINE
  5
4260
330
1E
100
AcDbEntity
  8
7
100
AcDbLine
 10
-4.013236973999094
 20
2.518123625792719
 30
0.0
 11
-4.032922013369173
 21
2.502375594296657
 31
0.0
  0
LINE
  5
4261
330
1E
100
AcDbEntity
  8
7
100
AcDbLine
 10
-4.369536186597519
 20
2.41576142106831
 30
0.0
 11
-1.725835399195945
 21
2.41576142106831
 31
0.0
  0
LINE
  5
4262
330
1E
100
AcDbEntity
  8
7
100
AcDbLine
 10
-1.725835399195945
 20
2.41576142106831
 30
0.0
 11
-1.710087367699882
 21
2.919698428942325
 31
0.0
  0
LINE
  5
4263
330
1E
100
AcDbEntity
  8
7
100
AcDbLine
 10
-4.320323588172323
 20
2.650013389572247
 30
0.0
 11
-1.775047997621141
 21
2.650013389572247
 31
0.0
  0
LINE
  5
4264
330
1E
100
AcDbEntity
  8
7
100
AcDbLine
 10
-1.775047997621141
 20
2.650013389572247
 30
0.0
 11
-1.775047997621141
 21
2.610643310832088
 31
0.0
  0
LINE
  5
4265
330
1E
100
AcDbEntity
  8
7
100
AcDbLine
 10
-1.775047997621141
 20
2.610643310832088
 30
0.0
 11
-1.74945744644004
 21
2.610643310832088
 31
0.0
  0
LINE
  5
4266
330
1E
100
AcDbEntity
  8
7
100
AcDbLine
 10
-1.74945744644004
 20
2.610643310832088
 30
0.0
 11
-1.74945744644004
 21
2.500407090359647
 31
0.0
  0
LINE
  5
4267
330
1E
100
AcDbEntity
  8
7
100
AcDbLine
 10
-1.74945744644004
 20
2.500407090359647
 30
0.0
 11
-1.775047997621141
 21
2.500407090359647
 31
0.0
  0
LINE
  5
4268
330
1E
100
AcDbEntity
  8
7
100
AcDbLine
 10
-1.775047997621141
 20
2.500407090359647
 30
0.0
 11
-1.775047997621141
 21
2.463005515556499
 31
0.0
  0
LINE
  5
4269
330
1E
100
AcDbEntity
  8
7
100
AcDbLine
 10
-1.775047997621141
 20
2.463005515556499
 30
0.0
 11
-4.320323588172323
 21
2.463005515556499
 31
0.0
  0
LINE
  5
426A
330
1E
100
AcDbEntity
  8
7
100
AcDbLine
 10
-4.320323588172323
 20
2.463005515556499
 30
0.0
 11
-4.320323588172323
 21
2.500407090359647
 31
0.0
  0
LINE
  5
426B
330
1E
100
AcDbEntity
  8
7
100
AcDbLine
 10
-4.320323588172323
 20
2.500407090359647
 30
0.0
 11
-4.345914139353425
 21
2.500407090359647
 31
0.0
  0
LINE
  5
426C
330
1E
100
AcDbEntity
  8
7
100
AcDbLine
 10
-4.345914139353425
 20
2.500407090359647
 30
0.0
 11
-4.345914139353425
 21
2.610643310832088
 31
0.0
  0
LINE
  5
426D
330
1E
100
AcDbEntity
  8
7
100
AcDbLine
 10
-4.345914139353425
 20
2.610643310832088
 30
0.0
 11
-4.320323588172323
 21
2.610643310832088
 31
0.0
  0
LINE
  5
426E
330
1E
100
AcDbEntity
  8
7
100
AcDbLine
 10
-4.320323588172323
 20
2.610643310832088
 30
0.0
 11
-4.320323588172323
 21
2.650013389572247
 31
0.0
  0
LINE
  5
426F
330
1E
100
AcDbEntity
  8
7
100
AcDbLine
 10
-1.710087367699882
 20
1.565367720280908
 30
0.0
 11
-1.725835399195945
 21
2.313399216343899
 31
0.0
  0
LINE
  5
4270
330
1E
100
AcDbEntity
  8
7
100
AcDbLine
 10
-1.725835399195945
 20
2.313399216343899
 30
0.0
 11
-4.369536186597519
 21
2.313399216343899
 31
0.0
  0
LINE
  5
4271
330
1E
100
AcDbEntity
  8
7
100
AcDbLine
 10
-4.369536186597519
 20
2.313399216343899
 30
0.0
 11
-4.385284218093582
 21
1.565367720280908
 31
0.0
  0
LINE
  5
4272
330
1E
100
AcDbEntity
  8
7
100
AcDbLine
 10
-4.471898391321929
 20
3.242533074611616
 30
0.0
 11
-4.460087367699882
 21
3.860643310832088
 31
0.0
  0
LINE
  5
4273
330
1E
100
AcDbEntity
  8
7
100
AcDbLine
 10
-4.460087367699882
 20
3.860643310832088
 30
0.0
 11
-4.471898391321929
 21
4.28584016122579
 31
0.0
  0
LINE
  5
4274
330
1E
100
AcDbEntity
  8
7
100
AcDbLine
 10
-4.320323588172323
 20
4.151981893509255
 30
0.0
 11
-1.775047997621141
 21
4.151981893509255
 31
0.0
  0
LINE
  5
4275
330
1E
100
AcDbEntity
  8
7
100
AcDbLine
 10
-1.775047997621141
 20
4.151981893509255
 30
0.0
 11
-1.775047997621141
 21
4.112611814769097
 31
0.0
  0
LINE
  5
4276
330
1E
100
AcDbEntity
  8
7
100
AcDbLine
 10
-1.775047997621141
 20
4.112611814769097
 30
0.0
 11
-1.74945744644004
 21
4.112611814769097
 31
0.0
  0
LINE
  5
4277
330
1E
100
AcDbEntity
  8
7
100
AcDbLine
 10
-1.74945744644004
 20
4.112611814769097
 30
0.0
 11
-1.74945744644004
 21
4.002375594296657
 31
0.0
  0
LINE
  5
4278
330
1E
100
AcDbEntity
  8
7
100
AcDbLine
 10
-1.74945744644004
 20
4.002375594296657
 30
0.0
 11
-1.775047997621141
 21
4.002375594296657
 31
0.0
  0
LINE
  5
4279
330
1E
100
AcDbEntity
  8
7
100
AcDbLine
 10
-1.775047997621141
 20
4.002375594296657
 30
0.0
 11
-1.775047997621141
 21
3.964974019493507
 31
0.0
  0
LINE
  5
427A
330
1E
100
AcDbEntity
  8
7
100
AcDbLine
 10
-1.775047997621141
 20
3.964974019493507
 30
0.0
 11
-4.320323588172323
 21
3.964974019493507
 31
0.0
  0
LINE
  5
427B
330
1E
100
AcDbEntity
  8
7
100
AcDbLine
 10
-4.320323588172323
 20
3.964974019493507
 30
0.0
 11
-4.320323588172323
 21
4.002375594296657
 31
0.0
  0
LINE
  5
427C
330
1E
100
AcDbEntity
  8
7
100
AcDbLine
 10
-4.320323588172323
 20
4.002375594296657
 30
0.0
 11
-4.345914139353425
 21
4.002375594296657
 31
0.0
  0
LINE
  5
427D
330
1E
100
AcDbEntity
  8
7
100
AcDbLine
 10
-4.345914139353425
 20
4.002375594296657
 30
0.0
 11
-4.345914139353425
 21
4.112611814769097
 31
0.0
  0
LINE
  5
427E
330
1E
100
AcDbEntity
  8
7
100
AcDbLine
 10
-4.345914139353425
 20
4.112611814769097
 30
0.0
 11
-4.320323588172323
 21
4.112611814769097
 31
0.0
  0
LINE
  5
427F
330
1E
100
AcDbEntity
  8
7
100
AcDbLine
 10
-4.369536186597519
 20
3.917729925005318
 30
0.0
 11
-1.725835399195945
 21
3.917729925005318
 31
0.0
  0
LINE
  5
4280
330
1E
100
AcDbEntity
  8
7
100
AcDbLine
 10
-1.725835399195945
 20
3.917729925005318
 30
0.0
 11
-1.710087367699882
 21
4.421666932879332
 31
0.0
  0
LINE
  5
4281
330
1E
100
AcDbEntity
  8
7
100
AcDbLine
 10
-1.623473194471535
 20
4.28584016122579
 30
0.0
 11
-1.635284218093582
 21
3.860643310832088
 31
0.0
  0
LINE
  5
4282
330
1E
100
AcDbEntity
  8
7
100
AcDbLine
 10
-1.635284218093582
 20
3.860643310832088
 30
0.0
 11
-1.623473194471535
 21
3.242533074611616
 31
0.0
  0
LINE
  5
4283
330
1E
100
AcDbEntity
  8
7
100
AcDbLine
 10
-1.987646422817992
 20
3.36851732658012
 30
0.0
 11
-1.989614926755
 21
3.354737799021066
 31
0.0
  0
LINE
  5
4284
330
1E
100
AcDbEntity
  8
7
100
AcDbLine
 10
-1.989614926755
 20
3.354737799021066
 30
0.0
 11
-1.989614926755
 21
3.335052759650986
 31
0.0
  0
LINE
  5
4285
330
1E
100
AcDbEntity
  8
7
100
AcDbLine
 10
-1.989614926755
 20
3.419698428942325
 30
0.0
 11
-1.987646422817992
 21
3.401981893509255
 31
0.0
  0
LINE
  5
4286
330
1E
100
AcDbEntity
  8
7
100
AcDbLine
 10
-1.987646422817992
 20
3.401981893509255
 30
0.0
 11
-1.987646422817992
 21
3.396076381698231
 31
0.0
  0
LINE
  5
4287
330
1E
100
AcDbEntity
  8
7
100
AcDbLine
 10
-1.987646422817992
 20
3.396076381698231
 30
0.0
 11
-1.987646422817992
 21
3.394107877761223
 31
0.0
  0
LINE
  5
4288
330
1E
100
AcDbEntity
  8
7
100
AcDbLine
 10
-2.202213351951851
 20
3.36851732658012
 30
0.0
 11
-2.202213351951851
 21
3.392139373824216
 31
0.0
  0
LINE
  5
4289
330
1E
100
AcDbEntity
  8
7
100
AcDbLine
 10
-2.202213351951851
 20
3.392139373824216
 30
0.0
 11
-2.202213351951851
 21
3.394107877761223
 31
0.0
  0
LINE
  5
428A
330
1E
100
AcDbEntity
  8
7
100
AcDbLine
 10
-2.623473194471535
 20
3.36851732658012
 30
0.0
 11
-2.623473194471535
 21
3.354737799021066
 31
0.0
  0
LINE
  5
428B
330
1E
100
AcDbEntity
  8
7
100
AcDbLine
 10
-2.623473194471535
 20
3.354737799021066
 30
0.0
 11
-2.623473194471535
 21
3.335052759650986
 31
0.0
  0
LINE
  5
428C
330
1E
100
AcDbEntity
  8
7
100
AcDbLine
 10
-2.623473194471535
 20
3.419698428942325
 30
0.0
 11
-2.621504690534528
 21
3.401981893509255
 31
0.0
  0
LINE
  5
428D
330
1E
100
AcDbEntity
  8
7
100
AcDbLine
 10
-2.621504690534528
 20
3.401981893509255
 30
0.0
 11
-2.621504690534528
 21
3.396076381698231
 31
0.0
  0
LINE
  5
428E
330
1E
100
AcDbEntity
  8
7
100
AcDbLine
 10
-2.621504690534528
 20
3.396076381698231
 30
0.0
 11
-2.621504690534528
 21
3.394107877761223
 31
0.0
  0
LINE
  5
428F
330
1E
100
AcDbEntity
  8
7
100
AcDbLine
 10
-2.621504690534528
 20
3.394107877761223
 30
0.0
 11
-2.621504690534528
 21
3.392139373824216
 31
0.0
  0
LINE
  5
4290
330
1E
100
AcDbEntity
  8
7
100
AcDbLine
 10
-2.836071619668386
 20
3.36851732658012
 30
0.0
 11
-2.838040123605393
 21
3.392139373824216
 31
0.0
  0
LINE
  5
4291
330
1E
100
AcDbEntity
  8
7
100
AcDbLine
 10
-2.838040123605393
 20
3.392139373824216
 30
0.0
 11
-2.838040123605393
 21
3.394107877761223
 31
0.0
  0
LINE
  5
4292
330
1E
100
AcDbEntity
  8
7
100
AcDbLine
 10
-3.259299966125078
 20
3.36851732658012
 30
0.0
 11
-3.259299966125078
 21
3.354737799021066
 31
0.0
  0
LINE
  5
4293
330
1E
100
AcDbEntity
  8
7
100
AcDbLine
 10
-3.259299966125078
 20
3.354737799021066
 30
0.0
 11
-3.259299966125078
 21
3.335052759650986
 31
0.0
  0
LINE
  5
4294
330
1E
100
AcDbEntity
  8
7
100
AcDbLine
 10
-3.259299966125078
 20
3.419698428942325
 30
0.0
 11
-3.257331462188071
 21
3.401981893509255
 31
0.0
  0
LINE
  5
4295
330
1E
100
AcDbEntity
  8
7
100
AcDbLine
 10
-3.257331462188071
 20
3.401981893509255
 30
0.0
 11
-3.257331462188071
 21
3.396076381698231
 31
0.0
  0
LINE
  5
4296
330
1E
100
AcDbEntity
  8
7
100
AcDbLine
 10
-3.257331462188071
 20
3.396076381698231
 30
0.0
 11
-3.257331462188071
 21
3.394107877761223
 31
0.0
  0
LINE
  5
4297
330
1E
100
AcDbEntity
  8
7
100
AcDbLine
 10
-3.257331462188071
 20
3.394107877761223
 30
0.0
 11
-3.257331462188071
 21
3.392139373824216
 31
0.0
  0
LINE
  5
4298
330
1E
100
AcDbEntity
  8
7
100
AcDbLine
 10
-3.471898391321929
 20
3.36851732658012
 30
0.0
 11
-3.473866895258937
 21
3.392139373824216
 31
0.0
  0
LINE
  5
4299
330
1E
100
AcDbEntity
  8
7
100
AcDbLine
 10
-3.473866895258937
 20
3.392139373824216
 30
0.0
 11
-3.473866895258937
 21
3.394107877761223
 31
0.0
  0
LINE
  5
429A
330
1E
100
AcDbEntity
  8
7
100
AcDbLine
 10
-3.893158233841614
 20
3.36851732658012
 30
0.0
 11
-3.893158233841614
 21
3.354737799021066
 31
0.0
  0
LINE
  5
429B
330
1E
100
AcDbEntity
  8
7
100
AcDbLine
 10
-3.893158233841614
 20
3.354737799021066
 30
0.0
 11
-3.893158233841614
 21
3.335052759650986
 31
0.0
  0
LINE
  5
429C
330
1E
100
AcDbEntity
  8
7
100
AcDbLine
 10
-3.893158233841614
 20
3.419698428942325
 30
0.0
 11
-3.891189729904606
 21
3.401981893509255
 31
0.0
  0
LINE
  5
429D
330
1E
100
AcDbEntity
  8
7
100
AcDbLine
 10
-3.891189729904606
 20
3.401981893509255
 30
0.0
 11
-3.891189729904606
 21
3.396076381698231
 31
0.0
  0
LINE
  5
429E
330
1E
100
AcDbEntity
  8
7
100
AcDbLine
 10
-3.891189729904606
 20
3.396076381698231
 30
0.0
 11
-3.891189729904606
 21
3.394107877761223
 31
0.0
  0
LINE
  5
429F
330
1E
100
AcDbEntity
  8
7
100
AcDbLine
 10
-3.891189729904606
 20
3.394107877761223
 30
0.0
 11
-3.891189729904606
 21
3.392139373824216
 31
0.0
  0
LINE
  5
42A0
330
1E
100
AcDbEntity
  8
7
100
AcDbLine
 10
-4.105756659038465
 20
3.36851732658012
 30
0.0
 11
-4.107725162975473
 21
3.392139373824216
 31
0.0
  0
LINE
  5
42A1
330
1E
100
AcDbEntity
  8
7
100
AcDbLine
 10
-4.107725162975473
 20
3.392139373824216
 30
0.0
 11
-4.107725162975473
 21
3.394107877761223
 31
0.0
  0
LINE
  5
42A2
330
1E
100
AcDbEntity
  8
7
100
AcDbLine
 10
-3.893158233841614
 20
1.866548822643112
 30
0.0
 11
-3.893158233841614
 21
1.852769295084057
 31
0.0
  0
LINE
  5
42A3
330
1E
100
AcDbEntity
  8
7
100
AcDbLine
 10
-3.893158233841614
 20
1.852769295084057
 30
0.0
 11
-3.893158233841614
 21
1.833084255713979
 31
0.0
  0
LINE
  5
42A4
330
1E
100
AcDbEntity
  8
7
100
AcDbLine
 10
-3.893158233841614
 20
1.917729925005318
 30
0.0
 11
-3.891189729904606
 21
1.900013389572247
 31
0.0
  0
LINE
  5
42A5
330
1E
100
AcDbEntity
  8
7
100
AcDbLine
 10
-3.891189729904606
 20
1.900013389572247
 30
0.0
 11
-3.891189729904606
 21
1.894107877761223
 31
0.0
  0
LINE
  5
42A6
330
1E
100
AcDbEntity
  8
7
100
AcDbLine
 10
-3.891189729904606
 20
1.894107877761223
 30
0.0
 11
-3.891189729904606
 21
1.892139373824216
 31
0.0
  0
LINE
  5
42A7
330
1E
100
AcDbEntity
  8
7
100
AcDbLine
 10
-3.891189729904606
 20
1.892139373824216
 30
0.0
 11
-3.891189729904606
 21
1.890170869887207
 31
0.0
  0
LINE
  5
42A8
330
1E
100
AcDbEntity
  8
7
100
AcDbLine
 10
-4.105756659038465
 20
1.866548822643112
 30
0.0
 11
-4.107725162975473
 21
1.890170869887207
 31
0.0
  0
LINE
  5
42A9
330
1E
100
AcDbEntity
  8
7
100
AcDbLine
 10
-4.107725162975473
 20
1.890170869887207
 30
0.0
 11
-4.107725162975473
 21
1.892139373824216
 31
0.0
  0
LINE
  5
42AA
330
1E
100
AcDbEntity
  8
7
100
AcDbLine
 10
-3.259299966125078
 20
1.866548822643112
 30
0.0
 11
-3.259299966125078
 21
1.852769295084057
 31
0.0
  0
LINE
  5
42AB
330
1E
100
AcDbEntity
  8
7
100
AcDbLine
 10
-3.259299966125078
 20
1.852769295084057
 30
0.0
 11
-3.259299966125078
 21
1.833084255713979
 31
0.0
  0
LINE
  5
42AC
330
1E
100
AcDbEntity
  8
7
100
AcDbLine
 10
-3.259299966125078
 20
1.917729925005318
 30
0.0
 11
-3.257331462188071
 21
1.900013389572247
 31
0.0
  0
LINE
  5
42AD
330
1E
100
AcDbEntity
  8
7
100
AcDbLine
 10
-3.257331462188071
 20
1.900013389572247
 30
0.0
 11
-3.257331462188071
 21
1.894107877761223
 31
0.0
  0
LINE
  5
42AE
330
1E
100
AcDbEntity
  8
7
100
AcDbLine
 10
-3.257331462188071
 20
1.894107877761223
 30
0.0
 11
-3.257331462188071
 21
1.892139373824216
 31
0.0
  0
LINE
  5
42AF
330
1E
100
AcDbEntity
  8
7
100
AcDbLine
 10
-3.257331462188071
 20
1.892139373824216
 30
0.0
 11
-3.257331462188071
 21
1.890170869887207
 31
0.0
  0
LINE
  5
42B0
330
1E
100
AcDbEntity
  8
7
100
AcDbLine
 10
-3.471898391321929
 20
1.866548822643112
 30
0.0
 11
-3.473866895258937
 21
1.890170869887207
 31
0.0
  0
LINE
  5
42B1
330
1E
100
AcDbEntity
  8
7
100
AcDbLine
 10
-3.473866895258937
 20
1.890170869887207
 30
0.0
 11
-3.473866895258937
 21
1.892139373824216
 31
0.0
  0
LINE
  5
42B2
330
1E
100
AcDbEntity
  8
7
100
AcDbLine
 10
-2.623473194471535
 20
1.866548822643112
 30
0.0
 11
-2.623473194471535
 21
1.852769295084057
 31
0.0
  0
LINE
  5
42B3
330
1E
100
AcDbEntity
  8
7
100
AcDbLine
 10
-2.623473194471535
 20
1.852769295084057
 30
0.0
 11
-2.623473194471535
 21
1.833084255713979
 31
0.0
  0
LINE
  5
42B4
330
1E
100
AcDbEntity
  8
7
100
AcDbLine
 10
-2.623473194471535
 20
1.917729925005318
 30
0.0
 11
-2.621504690534528
 21
1.900013389572247
 31
0.0
  0
LINE
  5
42B5
330
1E
100
AcDbEntity
  8
7
100
AcDbLine
 10
-2.621504690534528
 20
1.900013389572247
 30
0.0
 11
-2.621504690534528
 21
1.894107877761223
 31
0.0
  0
LINE
  5
42B6
330
1E
100
AcDbEntity
  8
7
100
AcDbLine
 10
-2.621504690534528
 20
1.894107877761223
 30
0.0
 11
-2.621504690534528
 21
1.892139373824216
 31
0.0
  0
LINE
  5
42B7
330
1E
100
AcDbEntity
  8
7
100
AcDbLine
 10
-2.621504690534528
 20
1.892139373824216
 30
0.0
 11
-2.621504690534528
 21
1.890170869887207
 31
0.0
  0
LINE
  5
42B8
330
1E
100
AcDbEntity
  8
7
100
AcDbLine
 10
-2.836071619668386
 20
1.866548822643112
 30
0.0
 11
-2.838040123605393
 21
1.890170869887207
 31
0.0
  0
LINE
  5
42B9
330
1E
100
AcDbEntity
  8
7
100
AcDbLine
 10
-2.838040123605393
 20
1.890170869887207
 30
0.0
 11
-2.838040123605393
 21
1.892139373824216
 31
0.0
  0
LINE
  5
42BA
330
1E
100
AcDbEntity
  8
7
100
AcDbLine
 10
-1.987646422817992
 20
1.866548822643112
 30
0.0
 11
-1.989614926755
 21
1.852769295084057
 31
0.0
  0
LINE
  5
42BB
330
1E
100
AcDbEntity
  8
7
100
AcDbLine
 10
-1.989614926755
 20
1.852769295084057
 30
0.0
 11
-1.989614926755
 21
1.833084255713979
 31
0.0
  0
LINE
  5
42BC
330
1E
100
AcDbEntity
  8
7
100
AcDbLine
 10
-1.989614926755
 20
1.917729925005318
 30
0.0
 11
-1.987646422817992
 21
1.900013389572247
 31
0.0
  0
LINE
  5
42BD
330
1E
100
AcDbEntity
  8
7
100
AcDbLine
 10
-1.987646422817992
 20
1.900013389572247
 30
0.0
 11
-1.987646422817992
 21
1.894107877761223
 31
0.0
  0
LINE
  5
42BE
330
1E
100
AcDbEntity
  8
7
100
AcDbLine
 10
-1.987646422817992
 20
1.894107877761223
 30
0.0
 11
-1.987646422817992
 21
1.892139373824216
 31
0.0
  0
LINE
  5
42BF
330
1E
100
AcDbEntity
  8
7
100
AcDbLine
 10
-1.987646422817992
 20
1.892139373824216
 30
0.0
 11
-1.987646422817992
 21
1.890170869887207
 31
0.0
  0
LINE
  5
42C0
330
1E
100
AcDbEntity
  8
7
100
AcDbLine
 10
-2.202213351951851
 20
1.866548822643112
 30
0.0
 11
-2.202213351951851
 21
1.890170869887207
 31
0.0
  0
LINE
  5
42C1
330
1E
100
AcDbEntity
  8
7
100
AcDbLine
 10
-2.202213351951851
 20
1.890170869887207
 30
0.0
 11
-2.202213351951851
 21
1.892139373824216
 31
0.0
  0
LINE
  5
42C2
330
1E
100
AcDbEntity
  8
7
100
AcDbLine
 10
-4.105756659038465
 20
3.335052759650986
 30
0.0
 11
-4.125441698408543
 21
3.116548822643112
 31
0.0
  0
LINE
  5
42C3
330
1E
100
AcDbEntity
  8
7
100
AcDbLine
 10
-4.125441698408543
 20
3.116548822643112
 30
0.0
 11
-4.245520438566023
 21
3.116548822643112
 31
0.0
  0
LINE
  5
42C4
330
1E
100
AcDbEntity
  8
7
100
AcDbLine
 10
-3.893158233841614
 20
1.833084255713979
 30
0.0
 11
-4.105756659038465
 21
1.833084255713979
 31
0.0
  0
LINE
  5
42C5
330
1E
100
AcDbEntity
  8
7
100
AcDbLine
 10
-4.105756659038465
 20
1.833084255713979
 30
0.0
 11
-4.125441698408543
 21
1.614580318706105
 31
0.0
  0
LINE
  5
42C6
330
1E
100
AcDbEntity
  8
7
100
AcDbLine
 10
-4.125441698408543
 20
1.614580318706105
 30
0.0
 11
-4.245520438566023
 21
1.614580318706105
 31
0.0
  0
LINE
  5
42C7
330
1E
100
AcDbEntity
  8
7
100
AcDbLine
 10
-3.259299966125078
 20
3.335052759650986
 30
0.0
 11
-3.471898391321929
 21
3.335052759650986
 31
0.0
  0
LINE
  5
42C8
330
1E
100
AcDbEntity
  8
7
100
AcDbLine
 10
-3.471898391321929
 20
3.335052759650986
 30
0.0
 11
-3.489614926755
 21
3.116548822643112
 31
0.0
  0
LINE
  5
42C9
330
1E
100
AcDbEntity
  8
7
100
AcDbLine
 10
-3.489614926755
 20
3.116548822643112
 30
0.0
 11
-3.60969366691248
 21
3.116548822643112
 31
0.0
  0
LINE
  5
42CA
330
1E
100
AcDbEntity
  8
7
100
AcDbLine
 10
-2.836071619668386
 20
3.335052759650986
 30
0.0
 11
-2.855756659038465
 21
3.116548822643112
 31
0.0
  0
LINE
  5
42CB
330
1E
100
AcDbEntity
  8
7
100
AcDbLine
 10
-2.855756659038465
 20
3.116548822643112
 30
0.0
 11
-2.975835399195945
 21
3.116548822643112
 31
0.0
  0
LINE
  5
42CC
330
1E
100
AcDbEntity
  8
7
100
AcDbLine
 10
-2.202213351951851
 20
3.335052759650986
 30
0.0
 11
-2.219929887384921
 21
3.116548822643112
 31
0.0
  0
LINE
  5
42CD
330
1E
100
AcDbEntity
  8
7
100
AcDbLine
 10
-2.219929887384921
 20
3.116548822643112
 30
0.0
 11
-2.340008627542402
 21
3.116548822643112
 31
0.0
  0
LINE
  5
42CE
330
1E
100
AcDbEntity
  8
7
100
AcDbLine
 10
-3.471898391321929
 20
1.833084255713979
 30
0.0
 11
-3.489614926755
 21
1.614580318706105
 31
0.0
  0
LINE
  5
42CF
330
1E
100
AcDbEntity
  8
7
100
AcDbLine
 10
-3.489614926755
 20
1.614580318706105
 30
0.0
 11
-3.60969366691248
 21
1.614580318706105
 31
0.0
  0
LINE
  5
42D0
330
1E
100
AcDbEntity
  8
7
100
AcDbLine
 10
-4.318355084235315
 20
1.419698428942325
 30
0.0
 11
-4.318355084235315
 21
1.368517326580121
 31
0.0
  0
LINE
  5
42D1
330
1E
100
AcDbEntity
  8
7
100
AcDbLine
 10
-4.318355084235315
 20
1.368517326580121
 30
0.0
 11
-4.345914139353425
 21
1.368517326580121
 31
0.0
  0
LINE
  5
42D2
330
1E
100
AcDbEntity
  8
7
100
AcDbLine
 10
-1.74945744644004
 20
1.368517326580121
 30
0.0
 11
-1.77701650155815
 21
1.368517326580121
 31
0.0
  0
LINE
  5
42D3
330
1E
100
AcDbEntity
  8
7
100
AcDbLine
 10
-1.77701650155815
 20
1.368517326580121
 30
0.0
 11
-1.77701650155815
 21
1.419698428942325
 31
0.0
  0
LINE
  5
42D4
330
1E
100
AcDbEntity
  8
7
100
AcDbLine
 10
-3.777016501558149
 20
1.297651184847836
 30
0.0
 11
-3.784890517306181
 21
1.342926775399018
 31
0.0
  0
LINE
  5
42D5
330
1E
100
AcDbEntity
  8
7
100
AcDbLine
 10
-3.784890517306181
 20
1.342926775399018
 30
0.0
 11
-3.810481068487284
 21
1.380328350202168
 31
0.0
  0
LINE
  5
42D6
330
1E
100
AcDbEntity
  8
7
100
AcDbLine
 10
-3.810481068487284
 20
1.380328350202168
 30
0.0
 11
-3.847882643290433
 21
1.40591890138327
 31
0.0
  0
LINE
  5
42D7
330
1E
100
AcDbEntity
  8
7
100
AcDbLine
 10
-3.847882643290433
 20
1.40591890138327
 30
0.0
 11
-3.893158233841614
 21
1.413792917131301
 31
0.0
  0
LINE
  5
42D8
330
1E
100
AcDbEntity
  8
7
100
AcDbLine
 10
-3.893158233841614
 20
1.181509452564373
 30
0.0
 11
-3.847882643290433
 21
1.189383468312405
 31
0.0
  0
LINE
  5
42D9
330
1E
100
AcDbEntity
  8
7
100
AcDbLine
 10
-3.847882643290433
 20
1.189383468312405
 30
0.0
 11
-3.810481068487284
 21
1.214974019493507
 31
0.0
  0
LINE
  5
42DA
330
1E
100
AcDbEntity
  8
7
100
AcDbLine
 10
-3.810481068487284
 20
1.214974019493507
 30
0.0
 11
-3.784890517306181
 21
1.252375594296657
 31
0.0
  0
LINE
  5
42DB
330
1E
100
AcDbEntity
  8
7
100
AcDbLine
 10
-3.784890517306181
 20
1.252375594296657
 30
0.0
 11
-3.777016501558149
 21
1.297651184847836
 31
0.0
  0
LINE
  5
42DC
330
1E
100
AcDbEntity
  8
7
100
AcDbLine
 10
-4.058512564550276
 20
1.40591890138327
 30
0.0
 11
-4.095914139353425
 21
1.380328350202168
 31
0.0
  0
LINE
  5
42DD
330
1E
100
AcDbEntity
  8
7
100
AcDbLine
 10
-4.095914139353425
 20
1.380328350202168
 30
0.0
 11
-4.121504690534528
 21
1.342926775399018
 31
0.0
  0
LINE
  5
42DE
330
1E
100
AcDbEntity
  8
7
100
AcDbLine
 10
-4.121504690534528
 20
1.342926775399018
 30
0.0
 11
-4.129378706282559
 21
1.297651184847836
 31
0.0
  0
LINE
  5
42DF
330
1E
100
AcDbEntity
  8
7
100
AcDbLine
 10
-4.129378706282559
 20
1.297651184847836
 30
0.0
 11
-4.121504690534528
 21
1.252375594296657
 31
0.0
  0
LINE
  5
42E0
330
1E
100
AcDbEntity
  8
7
100
AcDbLine
 10
-4.121504690534528
 20
1.252375594296657
 30
0.0
 11
-4.095914139353425
 21
1.214974019493507
 31
0.0
  0
LINE
  5
42E1
330
1E
100
AcDbEntity
  8
7
100
AcDbLine
 10
-4.095914139353425
 20
1.214974019493507
 30
0.0
 11
-4.058512564550276
 21
1.189383468312405
 31
0.0
  0
LINE
  5
42E2
330
1E
100
AcDbEntity
  8
7
100
AcDbLine
 10
-4.058512564550276
 20
1.189383468312405
 30
0.0
 11
-4.013236973999094
 21
1.181509452564373
 31
0.0
  0
LINE
  5
42E3
330
1E
100
AcDbEntity
  8
7
100
AcDbLine
 10
-2.08213461179437
 20
1.181509452564373
 30
0.0
 11
-2.036859021243189
 21
1.189383468312405
 31
0.0
  0
LINE
  5
42E4
330
1E
100
AcDbEntity
  8
7
100
AcDbLine
 10
-2.036859021243189
 20
1.189383468312405
 30
0.0
 11
-1.99945744644004
 21
1.214974019493507
 31
0.0
  0
LINE
  5
42E5
330
1E
100
AcDbEntity
  8
7
100
AcDbLine
 10
-1.99945744644004
 20
1.214974019493507
 30
0.0
 11
-1.973866895258937
 21
1.252375594296657
 31
0.0
  0
LINE
  5
42E6
330
1E
100
AcDbEntity
  8
7
100
AcDbLine
 10
-1.973866895258937
 20
1.252375594296657
 30
0.0
 11
-1.965992879510905
 21
1.297651184847836
 31
0.0
  0
LINE
  5
42E7
330
1E
100
AcDbEntity
  8
7
100
AcDbLine
 10
-1.965992879510905
 20
1.297651184847836
 30
0.0
 11
-1.973866895258937
 21
1.342926775399018
 31
0.0
  0
LINE
  5
42E8
330
1E
100
AcDbEntity
  8
7
100
AcDbLine
 10
-1.973866895258937
 20
1.342926775399018
 30
0.0
 11
-1.99945744644004
 21
1.380328350202168
 31
0.0
  0
LINE
  5
42E9
330
1E
100
AcDbEntity
  8
7
100
AcDbLine
 10
-1.99945744644004
 20
1.380328350202168
 30
0.0
 11
-2.036859021243189
 21
1.40591890138327
 31
0.0
  0
LINE
  5
42EA
330
1E
100
AcDbEntity
  8
7
100
AcDbLine
 10
-2.036859021243189
 20
1.40591890138327
 30
0.0
 11
-2.08213461179437
 21
1.413792917131301
 31
0.0
  0
LINE
  5
42EB
330
1E
100
AcDbEntity
  8
7
100
AcDbLine
 10
-2.202213351951851
 20
1.413792917131301
 30
0.0
 11
-2.247488942503031
 21
1.40591890138327
 31
0.0
  0
LINE
  5
42EC
330
1E
100
AcDbEntity
  8
7
100
AcDbLine
 10
-2.247488942503031
 20
1.40591890138327
 30
0.0
 11
-2.284890517306181
 21
1.380328350202168
 31
0.0
  0
LINE
  5
42ED
330
1E
100
AcDbEntity
  8
7
100
AcDbLine
 10
-2.284890517306181
 20
1.380328350202168
 30
0.0
 11
-2.310481068487283
 21
1.342926775399018
 31
0.0
  0
LINE
  5
42EE
330
1E
100
AcDbEntity
  8
7
100
AcDbLine
 10
-2.310481068487283
 20
1.342926775399018
 30
0.0
 11
-2.318355084235315
 21
1.297651184847836
 31
0.0
  0
LINE
  5
42EF
330
1E
100
AcDbEntity
  8
7
100
AcDbLine
 10
-2.318355084235315
 20
1.297651184847836
 30
0.0
 11
-2.310481068487283
 21
1.252375594296657
 31
0.0
  0
LINE
  5
42F0
330
1E
100
AcDbEntity
  8
7
100
AcDbLine
 10
-2.310481068487283
 20
1.252375594296657
 30
0.0
 11
-2.284890517306181
 21
1.214974019493507
 31
0.0
  0
LINE
  5
42F1
330
1E
100
AcDbEntity
  8
7
100
AcDbLine
 10
-2.284890517306181
 20
1.214974019493507
 30
0.0
 11
-2.247488942503031
 21
1.189383468312405
 31
0.0
  0
LINE
  5
42F2
330
1E
100
AcDbEntity
  8
7
100
AcDbLine
 10
-2.247488942503031
 20
1.189383468312405
 30
0.0
 11
-2.202213351951851
 21
1.181509452564373
 31
0.0
  0
LINE
  5
42F3
330
1E
100
AcDbEntity
  8
7
100
AcDbLine
 10
-1.778985005495157
 20
1.419698428942325
 30
0.0
 11
-4.316386580298307
 21
1.419698428942325
 31
0.0
  0
LINE
  5
42F4
330
1E
100
AcDbEntity
  8
7
100
AcDbLine
 10
-4.316386580298307
 20
1.419698428942325
 30
0.0
 11
-4.316386580298307
 21
1.366548822643112
 31
0.0
  0
LINE
  5
42F5
330
1E
100
AcDbEntity
  8
7
100
AcDbLine
 10
-4.316386580298307
 20
1.366548822643112
 30
0.0
 11
-4.345914139353425
 21
1.366548822643112
 31
0.0
  0
LINE
  5
42F6
330
1E
100
AcDbEntity
  8
7
100
AcDbLine
 10
-4.345914139353425
 20
1.366548822643112
 30
0.0
 11
-4.345914139353425
 21
1.230722050989569
 31
0.0
  0
LINE
  5
42F7
330
1E
100
AcDbEntity
  8
7
100
AcDbLine
 10
-4.345914139353425
 20
1.230722050989569
 30
0.0
 11
-4.316386580298307
 21
1.230722050989569
 31
0.0
  0
LINE
  5
42F8
330
1E
100
AcDbEntity
  8
7
100
AcDbLine
 10
-4.316386580298307
 20
1.230722050989569
 30
0.0
 11
-4.316386580298307
 21
1.177572444690357
 31
0.0
  0
LINE
  5
42F9
330
1E
100
AcDbEntity
  8
7
100
AcDbLine
 10
-4.316386580298307
 20
1.177572444690357
 30
0.0
 11
-1.778985005495157
 21
1.177572444690357
 31
0.0
  0
LINE
  5
42FA
330
1E
100
AcDbEntity
  8
7
100
AcDbLine
 10
-1.778985005495157
 20
1.177572444690357
 30
0.0
 11
-1.778985005495157
 21
1.230722050989569
 31
0.0
  0
LINE
  5
42FB
330
1E
100
AcDbEntity
  8
7
100
AcDbLine
 10
-1.778985005495157
 20
1.230722050989569
 30
0.0
 11
-1.74945744644004
 21
1.230722050989569
 31
0.0
  0
LINE
  5
42FC
330
1E
100
AcDbEntity
  8
7
100
AcDbLine
 10
-1.74945744644004
 20
1.230722050989569
 30
0.0
 11
-1.74945744644004
 21
1.366548822643112
 31
0.0
  0
LINE
  5
42FD
330
1E
100
AcDbEntity
  8
7
100
AcDbLine
 10
-1.74945744644004
 20
1.366548822643112
 30
0.0
 11
-1.778985005495157
 21
1.366548822643112
 31
0.0
  0
LINE
  5
42FE
330
1E
100
AcDbEntity
  8
7
100
AcDbLine
 10
-1.778985005495157
 20
1.366548822643112
 30
0.0
 11
-1.778985005495157
 21
1.419698428942325
 31
0.0
  0
LINE
  5
42FF
330
1E
100
AcDbEntity
  8
7
100
AcDbLine
 10
-4.316386580298307
 20
4.459068507682482
 30
0.0
 11
-4.318355084235315
 21
4.457100003745475
 31
0.0
  0
LINE
  5
4300
330
1E
100
AcDbEntity
  8
7
100
AcDbLine
 10
-4.318355084235315
 20
4.457100003745475
 30
0.0
 11
-4.320323588172323
 21
4.457100003745475
 31
0.0
  0
LINE
  5
4301
330
1E
100
AcDbEntity
  8
7
100
AcDbLine
 10
-4.345914139353425
 20
4.508281106107679
 30
0.0
 11
-4.318355084235315
 21
4.508281106107679
 31
0.0
  0
LINE
  5
4302
330
1E
100
AcDbEntity
  8
7
100
AcDbLine
 10
-4.318355084235315
 20
4.508281106107679
 30
0.0
 11
-4.320323588172323
 21
4.508281106107679
 31
0.0
  0
LINE
  5
4303
330
1E
100
AcDbEntity
  8
7
100
AcDbLine
 10
-1.77701650155815
 20
4.508281106107679
 30
0.0
 11
-1.77701650155815
 21
4.457100003745475
 31
0.0
  0
LINE
  5
4304
330
1E
100
AcDbEntity
  8
7
100
AcDbLine
 10
-1.77701650155815
 20
4.457100003745475
 30
0.0
 11
-1.775047997621141
 21
4.457100003745475
 31
0.0
  0
LINE
  5
4305
330
1E
100
AcDbEntity
  8
7
100
AcDbLine
 10
-1.74945744644004
 20
4.508281106107679
 30
0.0
 11
-1.77701650155815
 21
4.508281106107679
 31
0.0
  0
LINE
  5
4306
330
1E
100
AcDbEntity
  8
7
100
AcDbLine
 10
-1.77701650155815
 20
4.508281106107679
 30
0.0
 11
-1.775047997621141
 21
4.508281106107679
 31
0.0
  0
LINE
  5
4307
330
1E
100
AcDbEntity
  8
7
100
AcDbLine
 10
-2.08213461179437
 20
4.512218113981695
 30
0.0
 11
-2.048670044865236
 21
4.522060633666734
 31
0.0
  0
LINE
  5
4308
330
1E
100
AcDbEntity
  8
7
100
AcDbLine
 10
-2.048670044865236
 20
4.522060633666734
 30
0.0
 11
-2.025047997621141
 21
4.545682680910829
 31
0.0
  0
LINE
  5
4309
330
1E
100
AcDbEntity
  8
7
100
AcDbLine
 10
-2.025047997621141
 20
4.545682680910829
 30
0.0
 11
-2.015205477936103
 21
4.579147247839962
 31
0.0
  0
LINE
  5
430A
330
1E
100
AcDbEntity
  8
7
100
AcDbLine
 10
-2.269142485810118
 20
4.579147247839962
 30
0.0
 11
-2.259299966125078
 21
4.545682680910829
 31
0.0
  0
LINE
  5
430B
330
1E
100
AcDbEntity
  8
7
100
AcDbLine
 10
-2.259299966125078
 20
4.545682680910829
 30
0.0
 11
-2.235677918880984
 21
4.522060633666734
 31
0.0
  0
LINE
  5
430C
330
1E
100
AcDbEntity
  8
7
100
AcDbLine
 10
-2.235677918880984
 20
4.522060633666734
 30
0.0
 11
-2.202213351951851
 21
4.512218113981695
 31
0.0
  0
LINE
  5
430D
330
1E
100
AcDbEntity
  8
7
100
AcDbLine
 10
-2.202213351951851
 20
4.69332047618642
 30
0.0
 11
-2.245520438566024
 21
4.685446460438388
 31
0.0
  0
LINE
  5
430E
330
1E
100
AcDbEntity
  8
7
100
AcDbLine
 10
-2.245520438566024
 20
4.685446460438388
 30
0.0
 11
-2.282922013369173
 21
4.659855909257286
 31
0.0
  0
LINE
  5
430F
330
1E
100
AcDbEntity
  8
7
100
AcDbLine
 10
-2.282922013369173
 20
4.659855909257286
 30
0.0
 11
-2.308512564550276
 21
4.622454334454136
 31
0.0
  0
LINE
  5
4310
330
1E
100
AcDbEntity
  8
7
100
AcDbLine
 10
-2.308512564550276
 20
4.622454334454136
 30
0.0
 11
-2.316386580298307
 21
4.579147247839962
 31
0.0
  0
LINE
  5
4311
330
1E
100
AcDbEntity
  8
7
100
AcDbLine
 10
-2.316386580298307
 20
4.579147247839962
 30
0.0
 11
-2.308512564550276
 21
4.53584016122579
 31
0.0
  0
LINE
  5
4312
330
1E
100
AcDbEntity
  8
7
100
AcDbLine
 10
-2.308512564550276
 20
4.53584016122579
 30
0.0
 11
-2.282922013369173
 21
4.49843858642264
 31
0.0
  0
LINE
  5
4313
330
1E
100
AcDbEntity
  8
7
100
AcDbLine
 10
-2.282922013369173
 20
4.49843858642264
 30
0.0
 11
-2.245520438566024
 21
4.472848035241538
 31
0.0
  0
LINE
  5
4314
330
1E
100
AcDbEntity
  8
7
100
AcDbLine
 10
-2.245520438566024
 20
4.472848035241538
 30
0.0
 11
-2.202213351951851
 21
4.464974019493507
 31
0.0
  0
LINE
  5
4315
330
1E
100
AcDbEntity
  8
7
100
AcDbLine
 10
-2.08213461179437
 20
4.464974019493507
 30
0.0
 11
-2.038827525180197
 21
4.472848035241538
 31
0.0
  0
LINE
  5
4316
330
1E
100
AcDbEntity
  8
7
100
AcDbLine
 10
-2.038827525180197
 20
4.472848035241538
 30
0.0
 11
-2.001425950377047
 21
4.49843858642264
 31
0.0
  0
LINE
  5
4317
330
1E
100
AcDbEntity
  8
7
100
AcDbLine
 10
-2.001425950377047
 20
4.49843858642264
 30
0.0
 11
-1.975835399195945
 21
4.53584016122579
 31
0.0
  0
LINE
  5
4318
330
1E
100
AcDbEntity
  8
7
100
AcDbLine
 10
-1.975835399195945
 20
4.53584016122579
 30
0.0
 11
-1.967961383447914
 21
4.579147247839962
 31
0.0
  0
LINE
  5
4319
330
1E
100
AcDbEntity
  8
7
100
AcDbLine
 10
-1.967961383447914
 20
4.579147247839962
 30
0.0
 11
-1.975835399195945
 21
4.622454334454136
 31
0.0
  0
LINE
  5
431A
330
1E
100
AcDbEntity
  8
7
100
AcDbLine
 10
-1.975835399195945
 20
4.622454334454136
 30
0.0
 11
-2.001425950377047
 21
4.659855909257286
 31
0.0
  0
LINE
  5
431B
330
1E
100
AcDbEntity
  8
7
100
AcDbLine
 10
-2.001425950377047
 20
4.659855909257286
 30
0.0
 11
-2.038827525180197
 21
4.685446460438388
 31
0.0
  0
LINE
  5
431C
330
1E
100
AcDbEntity
  8
7
100
AcDbLine
 10
-2.038827525180197
 20
4.685446460438388
 30
0.0
 11
-2.08213461179437
 21
4.69332047618642
 31
0.0
  0
LINE
  5
431D
330
1E
100
AcDbEntity
  8
7
100
AcDbLine
 10
-2.202213351951851
 20
4.646076381698231
 30
0.0
 11
-2.235677918880984
 21
4.636233862013192
 31
0.0
  0
LINE
  5
431E
330
1E
100
AcDbEntity
  8
7
100
AcDbLine
 10
-2.235677918880984
 20
4.636233862013192
 30
0.0
 11
-2.259299966125078
 21
4.612611814769097
 31
0.0
  0
LINE
  5
431F
330
1E
100
AcDbEntity
  8
7
100
AcDbLine
 10
-2.259299966125078
 20
4.612611814769097
 30
0.0
 11
-2.269142485810118
 21
4.579147247839962
 31
0.0
  0
LINE
  5
4320
330
1E
100
AcDbEntity
  8
7
100
AcDbLine
 10
-2.269142485810118
 20
4.579147247839962
 30
0.0
 11
-2.259299966125078
 21
4.545682680910829
 31
0.0
  0
LINE
  5
4321
330
1E
100
AcDbEntity
  8
7
100
AcDbLine
 10
-2.259299966125078
 20
4.545682680910829
 30
0.0
 11
-2.235677918880984
 21
4.522060633666734
 31
0.0
  0
LINE
  5
4322
330
1E
100
AcDbEntity
  8
7
100
AcDbLine
 10
-2.235677918880984
 20
4.522060633666734
 30
0.0
 11
-2.202213351951851
 21
4.512218113981695
 31
0.0
  0
LINE
  5
4323
330
1E
100
AcDbEntity
  8
7
100
AcDbLine
 10
-2.025047997621141
 20
4.612611814769097
 30
0.0
 11
-2.048670044865236
 21
4.636233862013192
 31
0.0
  0
LINE
  5
4324
330
1E
100
AcDbEntity
  8
7
100
AcDbLine
 10
-2.048670044865236
 20
4.636233862013192
 30
0.0
 11
-2.08213461179437
 21
4.646076381698231
 31
0.0
  0
LINE
  5
4325
330
1E
100
AcDbEntity
  8
7
100
AcDbLine
 10
-2.08213461179437
 20
4.512218113981695
 30
0.0
 11
-2.048670044865236
 21
4.522060633666734
 31
0.0
  0
LINE
  5
4326
330
1E
100
AcDbEntity
  8
7
100
AcDbLine
 10
-2.048670044865236
 20
4.522060633666734
 30
0.0
 11
-2.025047997621141
 21
4.545682680910829
 31
0.0
  0
LINE
  5
4327
330
1E
100
AcDbEntity
  8
7
100
AcDbLine
 10
-2.025047997621141
 20
4.545682680910829
 30
0.0
 11
-2.015205477936103
 21
4.579147247839962
 31
0.0
  0
LINE
  5
4328
330
1E
100
AcDbEntity
  8
7
100
AcDbLine
 10
-2.015205477936103
 20
4.579147247839962
 30
0.0
 11
-2.025047997621141
 21
4.612611814769097
 31
0.0
  0
LINE
  5
4329
330
1E
100
AcDbEntity
  8
7
100
AcDbLine
 10
-3.893158233841614
 20
4.512218113981695
 30
0.0
 11
-3.85969366691248
 21
4.522060633666734
 31
0.0
  0
LINE
  5
432A
330
1E
100
AcDbEntity
  8
7
100
AcDbLine
 10
-3.85969366691248
 20
4.522060633666734
 30
0.0
 11
-3.836071619668386
 21
4.545682680910829
 31
0.0
  0
LINE
  5
432B
330
1E
100
AcDbEntity
  8
7
100
AcDbLine
 10
-3.836071619668386
 20
4.545682680910829
 30
0.0
 11
-3.826229099983347
 21
4.579147247839962
 31
0.0
  0
LINE
  5
432C
330
1E
100
AcDbEntity
  8
7
100
AcDbLine
 10
-4.080166107857362
 20
4.579147247839962
 30
0.0
 11
-4.070323588172323
 21
4.545682680910829
 31
0.0
  0
LINE
  5
432D
330
1E
100
AcDbEntity
  8
7
100
AcDbLine
 10
-4.070323588172323
 20
4.545682680910829
 30
0.0
 11
-4.046701540928228
 21
4.522060633666734
 31
0.0
  0
LINE
  5
432E
330
1E
100
AcDbEntity
  8
7
100
AcDbLine
 10
-4.046701540928228
 20
4.522060633666734
 30
0.0
 11
-4.013236973999094
 21
4.512218113981695
 31
0.0
  0
LINE
  5
432F
330
1E
100
AcDbEntity
  8
7
100
AcDbLine
 10
-2.310481068487283
 20
4.624422838391144
 30
0.0
 11
-2.318355084235315
 21
4.579147247839962
 31
0.0
  0
LINE
  5
4330
330
1E
100
AcDbEntity
  8
7
100
AcDbLine
 10
-2.318355084235315
 20
4.579147247839962
 30
0.0
 11
-2.310481068487283
 21
4.533871657288782
 31
0.0
  0
LINE
  5
4331
330
1E
100
AcDbEntity
  8
7
100
AcDbLine
 10
-2.310481068487283
 20
4.533871657288782
 30
0.0
 11
-2.284890517306181
 21
4.496470082485632
 31
0.0
  0
LINE
  5
4332
330
1E
100
AcDbEntity
  8
7
100
AcDbLine
 10
-2.284890517306181
 20
4.496470082485632
 30
0.0
 11
-2.247488942503031
 21
4.470879531304531
 31
0.0
  0
LINE
  5
4333
330
1E
100
AcDbEntity
  8
7
100
AcDbLine
 10
-2.247488942503031
 20
4.470879531304531
 30
0.0
 11
-2.202213351951851
 21
4.463005515556499
 31
0.0
  0
LINE
  5
4334
330
1E
100
AcDbEntity
  8
7
100
AcDbLine
 10
-2.202213351951851
 20
4.695288980123427
 30
0.0
 11
-2.247488942503031
 21
4.687414964375395
 31
0.0
  0
LINE
  5
4335
330
1E
100
AcDbEntity
  8
7
100
AcDbLine
 10
-2.247488942503031
 20
4.687414964375395
 30
0.0
 11
-2.284890517306181
 21
4.661824413194294
 31
0.0
  0
LINE
  5
4336
330
1E
100
AcDbEntity
  8
7
100
AcDbLine
 10
-2.284890517306181
 20
4.661824413194294
 30
0.0
 11
-2.310481068487283
 21
4.624422838391144
 31
0.0
  0
LINE
  5
4337
330
1E
100
AcDbEntity
  8
7
100
AcDbLine
 10
-1.973866895258937
 20
4.533871657288782
 30
0.0
 11
-1.965992879510905
 21
4.579147247839962
 31
0.0
  0
LINE
  5
4338
330
1E
100
AcDbEntity
  8
7
100
AcDbLine
 10
-1.965992879510905
 20
4.579147247839962
 30
0.0
 11
-1.973866895258937
 21
4.624422838391144
 31
0.0
  0
LINE
  5
4339
330
1E
100
AcDbEntity
  8
7
100
AcDbLine
 10
-1.973866895258937
 20
4.624422838391144
 30
0.0
 11
-1.99945744644004
 21
4.661824413194294
 31
0.0
  0
LINE
  5
433A
330
1E
100
AcDbEntity
  8
7
100
AcDbLine
 10
-1.99945744644004
 20
4.661824413194294
 30
0.0
 11
-2.036859021243189
 21
4.687414964375395
 31
0.0
  0
LINE
  5
433B
330
1E
100
AcDbEntity
  8
7
100
AcDbLine
 10
-2.036859021243189
 20
4.687414964375395
 30
0.0
 11
-2.08213461179437
 21
4.695288980123427
 31
0.0
  0
LINE
  5
433C
330
1E
100
AcDbEntity
  8
7
100
AcDbLine
 10
-2.08213461179437
 20
4.463005515556499
 30
0.0
 11
-2.036859021243189
 21
4.470879531304531
 31
0.0
  0
LINE
  5
433D
330
1E
100
AcDbEntity
  8
7
100
AcDbLine
 10
-2.036859021243189
 20
4.470879531304531
 30
0.0
 11
-1.99945744644004
 21
4.496470082485632
 31
0.0
  0
LINE
  5
433E
330
1E
100
AcDbEntity
  8
7
100
AcDbLine
 10
-1.99945744644004
 20
4.496470082485632
 30
0.0
 11
-1.973866895258937
 21
4.533871657288782
 31
0.0
  0
LINE
  5
433F
330
1E
100
AcDbEntity
  8
7
100
AcDbLine
 10
-4.013236973999094
 20
4.695288980123427
 30
0.0
 11
-4.058512564550276
 21
4.687414964375395
 31
0.0
  0
LINE
  5
4340
330
1E
100
AcDbEntity
  8
7
100
AcDbLine
 10
-4.058512564550276
 20
4.687414964375395
 30
0.0
 11
-4.095914139353425
 21
4.661824413194294
 31
0.0
  0
LINE
  5
4341
330
1E
100
AcDbEntity
  8
7
100
AcDbLine
 10
-4.095914139353425
 20
4.661824413194294
 30
0.0
 11
-4.121504690534528
 21
4.624422838391144
 31
0.0
  0
LINE
  5
4342
330
1E
100
AcDbEntity
  8
7
100
AcDbLine
 10
-4.121504690534528
 20
4.624422838391144
 30
0.0
 11
-4.129378706282559
 21
4.579147247839962
 31
0.0
  0
LINE
  5
4343
330
1E
100
AcDbEntity
  8
7
100
AcDbLine
 10
-4.129378706282559
 20
4.579147247839962
 30
0.0
 11
-4.121504690534528
 21
4.533871657288782
 31
0.0
  0
LINE
  5
4344
330
1E
100
AcDbEntity
  8
7
100
AcDbLine
 10
-4.121504690534528
 20
4.533871657288782
 30
0.0
 11
-4.095914139353425
 21
4.496470082485632
 31
0.0
  0
LINE
  5
4345
330
1E
100
AcDbEntity
  8
7
100
AcDbLine
 10
-4.095914139353425
 20
4.496470082485632
 30
0.0
 11
-4.058512564550276
 21
4.470879531304531
 31
0.0
  0
LINE
  5
4346
330
1E
100
AcDbEntity
  8
7
100
AcDbLine
 10
-4.058512564550276
 20
4.470879531304531
 30
0.0
 11
-4.013236973999094
 21
4.463005515556499
 31
0.0
  0
LINE
  5
4347
330
1E
100
AcDbEntity
  8
7
100
AcDbLine
 10
-3.893158233841614
 20
4.463005515556499
 30
0.0
 11
-3.847882643290433
 21
4.470879531304531
 31
0.0
  0
LINE
  5
4348
330
1E
100
AcDbEntity
  8
7
100
AcDbLine
 10
-3.847882643290433
 20
4.470879531304531
 30
0.0
 11
-3.810481068487284
 21
4.496470082485632
 31
0.0
  0
LINE
  5
4349
330
1E
100
AcDbEntity
  8
7
100
AcDbLine
 10
-3.810481068487284
 20
4.496470082485632
 30
0.0
 11
-3.784890517306181
 21
4.533871657288782
 31
0.0
  0
LINE
  5
434A
330
1E
100
AcDbEntity
  8
7
100
AcDbLine
 10
-3.784890517306181
 20
4.533871657288782
 30
0.0
 11
-3.777016501558149
 21
4.579147247839962
 31
0.0
  0
LINE
  5
434B
330
1E
100
AcDbEntity
  8
7
100
AcDbLine
 10
-3.777016501558149
 20
4.579147247839962
 30
0.0
 11
-3.784890517306181
 21
4.624422838391144
 31
0.0
  0
LINE
  5
434C
330
1E
100
AcDbEntity
  8
7
100
AcDbLine
 10
-3.784890517306181
 20
4.624422838391144
 30
0.0
 11
-3.810481068487284
 21
4.661824413194294
 31
0.0
  0
LINE
  5
434D
330
1E
100
AcDbEntity
  8
7
100
AcDbLine
 10
-3.810481068487284
 20
4.661824413194294
 30
0.0
 11
-3.847882643290433
 21
4.687414964375395
 31
0.0
  0
LINE
  5
434E
330
1E
100
AcDbEntity
  8
7
100
AcDbLine
 10
-3.847882643290433
 20
4.687414964375395
 30
0.0
 11
-3.893158233841614
 21
4.695288980123427
 31
0.0
  0
LINE
  5
434F
330
1E
100
AcDbEntity
  8
7
100
AcDbLine
 10
-4.345914139353425
 20
4.646076381698231
 30
0.0
 11
-4.345914139353425
 21
4.512218113981695
 31
0.0
  0
LINE
  5
4350
330
1E
100
AcDbEntity
  8
7
100
AcDbLine
 10
-4.345914139353425
 20
4.512218113981695
 30
0.0
 11
-4.316386580298307
 21
4.512218113981695
 31
0.0
  0
LINE
  5
4351
330
1E
100
AcDbEntity
  8
7
100
AcDbLine
 10
-4.316386580298307
 20
4.512218113981695
 30
0.0
 11
-4.316386580298307
 21
4.459068507682482
 31
0.0
  0
LINE
  5
4352
330
1E
100
AcDbEntity
  8
7
100
AcDbLine
 10
-4.316386580298307
 20
4.459068507682482
 30
0.0
 11
-1.778985005495157
 21
4.459068507682482
 31
0.0
  0
LINE
  5
4353
330
1E
100
AcDbEntity
  8
7
100
AcDbLine
 10
-1.778985005495157
 20
4.459068507682482
 30
0.0
 11
-1.778985005495157
 21
4.512218113981695
 31
0.0
  0
LINE
  5
4354
330
1E
100
AcDbEntity
  8
7
100
AcDbLine
 10
-1.778985005495157
 20
4.512218113981695
 30
0.0
 11
-1.74945744644004
 21
4.512218113981695
 31
0.0
  0
LINE
  5
4355
330
1E
100
AcDbEntity
  8
7
100
AcDbLine
 10
-1.74945744644004
 20
4.512218113981695
 30
0.0
 11
-1.74945744644004
 21
4.646076381698231
 31
0.0
  0
LINE
  5
4356
330
1E
100
AcDbEntity
  8
7
100
AcDbLine
 10
-4.093945635416417
 20
4.49843858642264
 30
0.0
 11
-4.056544060613267
 21
4.472848035241538
 31
0.0
  0
LINE
  5
4357
330
1E
100
AcDbEntity
  8
7
100
AcDbLine
 10
-4.056544060613267
 20
4.472848035241538
 30
0.0
 11
-4.013236973999094
 21
4.464974019493507
 31
0.0
  0
LINE
  5
4358
330
1E
100
AcDbEntity
  8
7
100
AcDbLine
 10
-4.013236973999094
 20
4.69332047618642
 30
0.0
 11
-4.056544060613267
 21
4.685446460438388
 31
0.0
  0
LINE
  5
4359
330
1E
100
AcDbEntity
  8
7
100
AcDbLine
 10
-4.056544060613267
 20
4.685446460438388
 30
0.0
 11
-4.093945635416417
 21
4.659855909257286
 31
0.0
  0
LINE
  5
435A
330
1E
100
AcDbEntity
  8
7
100
AcDbLine
 10
-4.093945635416417
 20
4.659855909257286
 30
0.0
 11
-4.119536186597519
 21
4.622454334454136
 31
0.0
  0
LINE
  5
435B
330
1E
100
AcDbEntity
  8
7
100
AcDbLine
 10
-4.119536186597519
 20
4.622454334454136
 30
0.0
 11
-4.127410202345551
 21
4.579147247839962
 31
0.0
  0
LINE
  5
435C
330
1E
100
AcDbEntity
  8
7
100
AcDbLine
 10
-4.127410202345551
 20
4.579147247839962
 30
0.0
 11
-4.119536186597519
 21
4.53584016122579
 31
0.0
  0
LINE
  5
435D
330
1E
100
AcDbEntity
  8
7
100
AcDbLine
 10
-4.119536186597519
 20
4.53584016122579
 30
0.0
 11
-4.093945635416417
 21
4.49843858642264
 31
0.0
  0
LINE
  5
435E
330
1E
100
AcDbEntity
  8
7
100
AcDbLine
 10
-3.778985005495157
 20
4.579147247839962
 30
0.0
 11
-3.78685902124319
 21
4.622454334454136
 31
0.0
  0
LINE
  5
435F
330
1E
100
AcDbEntity
  8
7
100
AcDbLine
 10
-3.78685902124319
 20
4.622454334454136
 30
0.0
 11
-3.812449572424291
 21
4.659855909257286
 31
0.0
  0
LINE
  5
4360
330
1E
100
AcDbEntity
  8
7
100
AcDbLine
 10
-3.812449572424291
 20
4.659855909257286
 30
0.0
 11
-3.849851147227441
 21
4.685446460438388
 31
0.0
  0
LINE
  5
4361
330
1E
100
AcDbEntity
  8
7
100
AcDbLine
 10
-3.849851147227441
 20
4.685446460438388
 30
0.0
 11
-3.893158233841614
 21
4.69332047618642
 31
0.0
  0
LINE
  5
4362
330
1E
100
AcDbEntity
  8
7
100
AcDbLine
 10
-3.893158233841614
 20
4.464974019493507
 30
0.0
 11
-3.849851147227441
 21
4.472848035241538
 31
0.0
  0
LINE
  5
4363
330
1E
100
AcDbEntity
  8
7
100
AcDbLine
 10
-3.849851147227441
 20
4.472848035241538
 30
0.0
 11
-3.812449572424291
 21
4.49843858642264
 31
0.0
  0
LINE
  5
4364
330
1E
100
AcDbEntity
  8
7
100
AcDbLine
 10
-3.812449572424291
 20
4.49843858642264
 30
0.0
 11
-3.78685902124319
 21
4.53584016122579
 31
0.0
  0
LINE
  5
4365
330
1E
100
AcDbEntity
  8
7
100
AcDbLine
 10
-3.78685902124319
 20
4.53584016122579
 30
0.0
 11
-3.778985005495157
 21
4.579147247839962
 31
0.0
  0
LINE
  5
4366
330
1E
100
AcDbEntity
  8
7
100
AcDbLine
 10
-4.046701540928228
 20
4.636233862013192
 30
0.0
 11
-4.070323588172323
 21
4.612611814769097
 31
0.0
  0
LINE
  5
4367
330
1E
100
AcDbEntity
  8
7
100
AcDbLine
 10
-4.070323588172323
 20
4.612611814769097
 30
0.0
 11
-4.080166107857362
 21
4.579147247839962
 31
0.0
  0
LINE
  5
4368
330
1E
100
AcDbEntity
  8
7
100
AcDbLine
 10
-4.080166107857362
 20
4.579147247839962
 30
0.0
 11
-4.070323588172323
 21
4.545682680910829
 31
0.0
  0
LINE
  5
4369
330
1E
100
AcDbEntity
  8
7
100
AcDbLine
 10
-4.070323588172323
 20
4.545682680910829
 30
0.0
 11
-4.046701540928228
 21
4.522060633666734
 31
0.0
  0
LINE
  5
436A
330
1E
100
AcDbEntity
  8
7
100
AcDbLine
 10
-4.046701540928228
 20
4.522060633666734
 30
0.0
 11
-4.013236973999094
 21
4.512218113981695
 31
0.0
  0
LINE
  5
436B
330
1E
100
AcDbEntity
  8
7
100
AcDbLine
 10
-3.893158233841614
 20
4.512218113981695
 30
0.0
 11
-3.85969366691248
 21
4.522060633666734
 31
0.0
  0
LINE
  5
436C
330
1E
100
AcDbEntity
  8
7
100
AcDbLine
 10
-3.85969366691248
 20
4.522060633666734
 30
0.0
 11
-3.836071619668386
 21
4.545682680910829
 31
0.0
  0
LINE
  5
436D
330
1E
100
AcDbEntity
  8
7
100
AcDbLine
 10
-3.836071619668386
 20
4.545682680910829
 30
0.0
 11
-3.826229099983347
 21
4.579147247839962
 31
0.0
  0
LINE
  5
436E
330
1E
100
AcDbEntity
  8
7
100
AcDbLine
 10
-3.826229099983347
 20
4.579147247839962
 30
0.0
 11
-3.836071619668386
 21
4.612611814769097
 31
0.0
  0
LINE
  5
436F
330
1E
100
AcDbEntity
  8
7
100
AcDbLine
 10
-3.836071619668386
 20
4.612611814769097
 30
0.0
 11
-3.85969366691248
 21
4.636233862013192
 31
0.0
  0
LINE
  5
4370
330
1E
100
AcDbEntity
  8
7
100
AcDbLine
 10
-3.85969366691248
 20
4.636233862013192
 30
0.0
 11
-3.893158233841614
 21
4.646076381698231
 31
0.0
  0
LINE
  5
4371
330
1E
100
AcDbEntity
  8
7
100
AcDbLine
 10
-2.202213351951851
 20
4.646076381698231
 30
0.0
 11
-2.235677918880984
 21
4.636233862013192
 31
0.0
  0
LINE
  5
4372
330
1E
100
AcDbEntity
  8
7
100
AcDbLine
 10
-2.235677918880984
 20
4.636233862013192
 30
0.0
 11
-2.259299966125078
 21
4.612611814769097
 31
0.0
  0
LINE
  5
4373
330
1E
100
AcDbEntity
  8
7
100
AcDbLine
 10
-2.259299966125078
 20
4.612611814769097
 30
0.0
 11
-2.269142485810118
 21
4.579147247839962
 31
0.0
  0
LINE
  5
4374
330
1E
100
AcDbEntity
  8
7
100
AcDbLine
 10
-2.015205477936103
 20
4.579147247839962
 30
0.0
 11
-2.025047997621141
 21
4.612611814769097
 31
0.0
  0
LINE
  5
4375
330
1E
100
AcDbEntity
  8
7
100
AcDbLine
 10
-2.025047997621141
 20
4.612611814769097
 30
0.0
 11
-2.048670044865236
 21
4.636233862013192
 31
0.0
  0
LINE
  5
4376
330
1E
100
AcDbEntity
  8
7
100
AcDbLine
 10
-2.048670044865236
 20
4.636233862013192
 30
0.0
 11
-2.08213461179437
 21
4.646076381698231
 31
0.0
  0
LINE
  5
4377
330
1E
100
AcDbEntity
  8
7
100
AcDbLine
 10
-3.826229099983347
 20
4.579147247839962
 30
0.0
 11
-3.836071619668386
 21
4.612611814769097
 31
0.0
  0
LINE
  5
4378
330
1E
100
AcDbEntity
  8
7
100
AcDbLine
 10
-3.836071619668386
 20
4.612611814769097
 30
0.0
 11
-3.85969366691248
 21
4.636233862013192
 31
0.0
  0
LINE
  5
4379
330
1E
100
AcDbEntity
  8
7
100
AcDbLine
 10
-4.013236973999094
 20
4.646076381698231
 30
0.0
 11
-4.046701540928228
 21
4.636233862013192
 31
0.0
  0
LINE
  5
437A
330
1E
100
AcDbEntity
  8
7
100
AcDbLine
 10
-4.046701540928228
 20
4.636233862013192
 30
0.0
 11
-4.070323588172323
 21
4.612611814769097
 31
0.0
  0
LINE
  5
437B
330
1E
100
AcDbEntity
  8
7
100
AcDbLine
 10
-4.070323588172323
 20
4.612611814769097
 30
0.0
 11
-4.080166107857362
 21
4.579147247839962
 31
0.0
  0
LINE
  5
437C
330
1E
100
AcDbEntity
  8
7
100
AcDbLine
 10
-5.245520438566023
 20
0.7366275628005941
 30
0.0
 11
-5.26717398187311
 21
0.7385960667376015
 31
0.0
  0
LINE
  5
437D
330
1E
100
AcDbEntity
  8
7
100
AcDbLine
 10
-5.26717398187311
 20
0.7385960667376015
 30
0.0
 11
-5.277016501558149
 21
0.7445015785486256
 31
0.0
  0
LINE
  5
437E
330
1E
100
AcDbEntity
  8
7
100
AcDbLine
 10
-5.245520438566023
 20
5.148044885635238
 30
0.0
 11
-5.239614926755
 21
4.752375594296657
 31
0.0
  0
LINE
  5
437F
330
1E
100
AcDbEntity
  8
7
100
AcDbLine
 10
-5.239614926755
 20
4.752375594296657
 30
0.0
 11
-5.235677918880984
 21
4.352769295084057
 31
0.0
  0
LINE
  5
4380
330
1E
100
AcDbEntity
  8
7
100
AcDbLine
 10
-5.235677918880984
 20
4.352769295084057
 30
0.0
 11
-5.231740911006968
 21
3.951194491934451
 31
0.0
  0
LINE
  5
4381
330
1E
100
AcDbEntity
  8
7
100
AcDbLine
 10
-5.231740911006968
 20
3.951194491934451
 30
0.0
 11
-5.22977240706996
 21
3.547651184847836
 31
0.0
  0
LINE
  5
4382
330
1E
100
AcDbEntity
  8
7
100
AcDbLine
 10
-5.22977240706996
 20
3.547651184847836
 30
0.0
 11
-5.22977240706996
 21
3.144107877761223
 31
0.0
  0
LINE
  5
4383
330
1E
100
AcDbEntity
  8
7
100
AcDbLine
 10
-5.22977240706996
 20
3.144107877761223
 30
0.0
 11
-5.22977240706996
 21
2.740564570674608
 31
0.0
  0
LINE
  5
4384
330
1E
100
AcDbEntity
  8
7
100
AcDbLine
 10
-5.22977240706996
 20
2.740564570674608
 30
0.0
 11
-5.22977240706996
 21
2.337021263587994
 31
0.0
  0
LINE
  5
4385
330
1E
100
AcDbEntity
  8
7
100
AcDbLine
 10
-5.22977240706996
 20
2.337021263587994
 30
0.0
 11
-5.231740911006968
 21
1.933477956501381
 31
0.0
  0
LINE
  5
4386
330
1E
100
AcDbEntity
  8
7
100
AcDbLine
 10
-5.231740911006968
 20
1.933477956501381
 30
0.0
 11
-5.235677918880984
 21
1.531903153351773
 31
0.0
  0
LINE
  5
4387
330
1E
100
AcDbEntity
  8
7
100
AcDbLine
 10
-5.235677918880984
 20
1.531903153351773
 30
0.0
 11
-5.239614926755
 21
1.132296854139175
 31
0.0
  0
LINE
  5
4388
330
1E
100
AcDbEntity
  8
7
100
AcDbLine
 10
-5.239614926755
 20
1.132296854139175
 30
0.0
 11
-5.245520438566023
 21
0.7366275628005941
 31
0.0
  0
LINE
  5
4389
330
1E
100
AcDbEntity
  8
7
100
AcDbLine
 10
-5.245520438566023
 20
0.7366275628005941
 30
0.0
 11
-0.849851147227441
 21
0.7366275628005941
 31
0.0
  0
LINE
  5
438A
330
1E
100
AcDbEntity
  8
7
100
AcDbLine
 10
-4.922685792896732
 20
1.096863783273034
 30
0.0
 11
-4.928591304707756
 21
1.502375594296657
 31
0.0
  0
LINE
  5
438B
330
1E
100
AcDbEntity
  8
7
100
AcDbLine
 10
-4.928591304707756
 20
1.502375594296657
 30
0.0
 11
-4.932528312581771
 21
1.911824413194294
 31
0.0
  0
LINE
  5
438C
330
1E
100
AcDbEntity
  8
7
100
AcDbLine
 10
-4.932528312581771
 20
1.911824413194294
 30
0.0
 11
-4.936465320455788
 21
2.32324173602894
 31
0.0
  0
LINE
  5
438D
330
1E
100
AcDbEntity
  8
7
100
AcDbLine
 10
-4.936465320455788
 20
2.32324173602894
 30
0.0
 11
-4.938433824392795
 21
2.736627562800594
 31
0.0
  0
LINE
  5
438E
330
1E
100
AcDbEntity
  8
7
100
AcDbLine
 10
-4.938433824392795
 20
2.736627562800594
 30
0.0
 11
-4.938433824392795
 21
3.148044885635238
 31
0.0
  0
LINE
  5
438F
330
1E
100
AcDbEntity
  8
7
100
AcDbLine
 10
-4.938433824392795
 20
3.148044885635238
 30
0.0
 11
-4.936465320455788
 21
3.561430712406892
 31
0.0
  0
LINE
  5
4390
330
1E
100
AcDbEntity
  8
7
100
AcDbLine
 10
-4.936465320455788
 20
3.561430712406892
 30
0.0
 11
-4.932528312581771
 21
3.972848035241538
 31
0.0
  0
LINE
  5
4391
330
1E
100
AcDbEntity
  8
7
100
AcDbLine
 10
-4.932528312581771
 20
3.972848035241538
 30
0.0
 11
-4.928591304707756
 21
4.382296854139175
 31
0.0
  0
LINE
  5
4392
330
1E
100
AcDbEntity
  8
7
100
AcDbLine
 10
-4.928591304707756
 20
4.382296854139175
 30
0.0
 11
-4.922685792896732
 21
4.789777169099805
 31
0.0
  0
LINE
  5
4393
330
1E
100
AcDbEntity
  8
7
100
AcDbLine
 10
-1.172685792896732
 20
4.789777169099805
 30
0.0
 11
-1.166780281085709
 21
4.382296854139175
 31
0.0
  0
LINE
  5
4394
330
1E
100
AcDbEntity
  8
7
100
AcDbLine
 10
-1.166780281085709
 20
4.382296854139175
 30
0.0
 11
-1.162843273211693
 21
3.972848035241538
 31
0.0
  0
LINE
  5
4395
330
1E
100
AcDbEntity
  8
7
100
AcDbLine
 10
-1.162843273211693
 20
3.972848035241538
 30
0.0
 11
-1.158906265337678
 21
3.561430712406892
 31
0.0
  0
LINE
  5
4396
330
1E
100
AcDbEntity
  8
7
100
AcDbLine
 10
-1.158906265337678
 20
3.561430712406892
 30
0.0
 11
-1.156937761400669
 21
3.148044885635238
 31
0.0
  0
LINE
  5
4397
330
1E
100
AcDbEntity
  8
7
100
AcDbLine
 10
-1.156937761400669
 20
3.148044885635238
 30
0.0
 11
-1.156937761400669
 21
2.736627562800594
 31
0.0
  0
LINE
  5
4398
330
1E
100
AcDbEntity
  8
7
100
AcDbLine
 10
-1.156937761400669
 20
2.736627562800594
 30
0.0
 11
-1.158906265337678
 21
2.32324173602894
 31
0.0
  0
LINE
  5
4399
330
1E
100
AcDbEntity
  8
7
100
AcDbLine
 10
-1.158906265337678
 20
2.32324173602894
 30
0.0
 11
-1.162843273211693
 21
1.911824413194294
 31
0.0
  0
LINE
  5
439A
330
1E
100
AcDbEntity
  8
7
100
AcDbLine
 10
-1.162843273211693
 20
1.911824413194294
 30
0.0
 11
-1.166780281085709
 21
1.502375594296657
 31
0.0
  0
LINE
  5
439B
330
1E
100
AcDbEntity
  8
7
100
AcDbLine
 10
-0.8183550842353151
 20
0.7445015785486256
 30
0.0
 11
-0.8281976039203549
 21
0.7385960667376015
 31
0.0
  0
LINE
  5
439C
330
1E
100
AcDbEntity
  8
7
100
AcDbLine
 10
-0.8281976039203549
 20
0.7385960667376015
 30
0.0
 11
-0.849851147227441
 21
0.7366275628005941
 31
0.0
  0
LINE
  5
439D
330
1E
100
AcDbEntity
  8
7
100
AcDbLine
 10
-0.849851147227441
 20
0.7366275628005941
 30
0.0
 11
-0.8537881551014567
 21
1.132296854139175
 31
0.0
  0
LINE
  5
439E
330
1E
100
AcDbEntity
  8
7
100
AcDbLine
 10
-0.8537881551014567
 20
1.132296854139175
 30
0.0
 11
-0.8596936669124808
 21
1.531903153351773
 31
0.0
  0
LINE
  5
439F
330
1E
100
AcDbEntity
  8
7
100
AcDbLine
 10
-0.8596936669124808
 20
1.531903153351773
 30
0.0
 11
-0.8616621708494882
 21
1.933477956501381
 31
0.0
  0
LINE
  5
43A0
330
1E
100
AcDbEntity
  8
7
100
AcDbLine
 10
-0.8616621708494882
 20
1.933477956501381
 30
0.0
 11
-0.865599178723504
 21
2.337021263587994
 31
0.0
  0
LINE
  5
43A1
330
1E
100
AcDbEntity
  8
7
100
AcDbLine
 10
-0.865599178723504
 20
2.337021263587994
 30
0.0
 11
-0.865599178723504
 21
2.740564570674608
 31
0.0
  0
LINE
  5
43A2
330
1E
100
AcDbEntity
  8
7
100
AcDbLine
 10
-0.865599178723504
 20
2.740564570674608
 30
0.0
 11
-0.865599178723504
 21
3.144107877761223
 31
0.0
  0
LINE
  5
43A3
330
1E
100
AcDbEntity
  8
7
100
AcDbLine
 10
-0.865599178723504
 20
3.144107877761223
 30
0.0
 11
-0.865599178723504
 21
3.547651184847836
 31
0.0
  0
LINE
  5
43A4
330
1E
100
AcDbEntity
  8
7
100
AcDbLine
 10
-0.865599178723504
 20
3.547651184847836
 30
0.0
 11
-0.8616621708494882
 21
3.951194491934451
 31
0.0
  0
LINE
  5
43A5
330
1E
100
AcDbEntity
  8
7
100
AcDbLine
 10
-0.8616621708494882
 20
3.951194491934451
 30
0.0
 11
-0.8596936669124808
 21
4.352769295084057
 31
0.0
  0
LINE
  5
43A6
330
1E
100
AcDbEntity
  8
7
100
AcDbLine
 10
-0.8596936669124808
 20
4.352769295084057
 30
0.0
 11
-0.8537881551014567
 21
4.752375594296657
 31
0.0
  0
LINE
  5
43A7
330
1E
100
AcDbEntity
  8
7
100
AcDbLine
 10
-0.8537881551014567
 20
4.752375594296657
 30
0.0
 11
-0.849851147227441
 21
5.148044885635238
 31
0.0
  0
LINE
  5
43A8
330
1E
100
AcDbEntity
  8
7
100
AcDbLine
 10
-5.26717398187311
 20
0.69332047618642
 30
0.0
 11
-5.288827525180197
 21
0.7011944919344515
 31
0.0
  0
LINE
  5
43A9
330
1E
100
AcDbEntity
  8
7
100
AcDbLine
 10
-5.288827525180197
 20
0.7011944919344515
 30
0.0
 11
-5.296701540928228
 21
0.7228480352415386
 31
0.0
  0
LINE
  5
43AA
330
1E
100
AcDbEntity
  8
7
100
AcDbLine
 10
-0.796701540928229
 20
0.7228480352415386
 30
0.0
 11
-0.8065440606132678
 21
0.7011944919344515
 31
0.0
  0
LINE
  5
43AB
330
1E
100
AcDbEntity
  8
7
100
AcDbLine
 10
-0.8065440606132678
 20
0.7011944919344515
 30
0.0
 11
-0.8281976039203549
 21
0.69332047618642
 31
0.0
  0
LINE
  5
43AC
330
1E
100
AcDbEntity
  8
7
100
AcDbLine
 10
-5.259299966125078
 20
3.144107877761223
 30
0.0
 11
-5.259299966125078
 21
3.545682680910829
 31
0.0
  0
LINE
  5
43AD
330
1E
100
AcDbEntity
  8
7
100
AcDbLine
 10
-5.259299966125078
 20
3.545682680910829
 30
0.0
 11
-5.263236973999094
 21
3.949225987997444
 31
0.0
  0
LINE
  5
43AE
330
1E
100
AcDbEntity
  8
7
100
AcDbLine
 10
-5.263236973999094
 20
3.949225987997444
 30
0.0
 11
-5.265205477936103
 21
4.348832287210042
 31
0.0
  0
LINE
  5
43AF
330
1E
100
AcDbEntity
  8
7
100
AcDbLine
 10
-5.265205477936103
 20
4.348832287210042
 30
0.0
 11
-5.271110989747126
 21
4.746470082485632
 31
0.0
  0
LINE
  5
43B0
330
1E
100
AcDbEntity
  8
7
100
AcDbLine
 10
-5.271110989747126
 20
4.746470082485632
 30
0.0
 11
-5.277016501558149
 21
5.140170869887207
 31
0.0
  0
LINE
  5
43B1
330
1E
100
AcDbEntity
  8
7
100
AcDbLine
 10
-5.296701540928228
 20
5.161824413194294
 30
0.0
 11
-5.296701540928228
 21
0.7228480352415386
 31
0.0
  0
LINE
  5
43B2
330
1E
100
AcDbEntity
  8
7
100
AcDbLine
 10
-5.296701540928228
 20
0.7228480352415386
 30
0.0
 11
-5.277016501558149
 21
0.7445015785486256
 31
0.0
  0
LINE
  5
43B3
330
1E
100
AcDbEntity
  8
7
100
AcDbLine
 10
-5.277016501558149
 20
0.7445015785486256
 30
0.0
 11
-5.271110989747126
 21
1.138202365950199
 31
0.0
  0
LINE
  5
43B4
330
1E
100
AcDbEntity
  8
7
100
AcDbLine
 10
-5.271110989747126
 20
1.138202365950199
 30
0.0
 11
-5.265205477936103
 21
1.53584016122579
 31
0.0
  0
LINE
  5
43B5
330
1E
100
AcDbEntity
  8
7
100
AcDbLine
 10
-5.265205477936103
 20
1.53584016122579
 30
0.0
 11
-5.263236973999094
 21
1.937414964375395
 31
0.0
  0
LINE
  5
43B6
330
1E
100
AcDbEntity
  8
7
100
AcDbLine
 10
-5.263236973999094
 20
1.937414964375395
 30
0.0
 11
-5.259299966125078
 21
2.338989767525003
 31
0.0
  0
LINE
  5
43B7
330
1E
100
AcDbEntity
  8
7
100
AcDbLine
 10
-5.259299966125078
 20
2.338989767525003
 30
0.0
 11
-5.259299966125078
 21
2.740564570674608
 31
0.0
  0
LINE
  5
43B8
330
1E
100
AcDbEntity
  8
7
100
AcDbLine
 10
-5.259299966125078
 20
2.740564570674608
 30
0.0
 11
-5.259299966125078
 21
3.144107877761223
 31
0.0
  0
LINE
  5
43B9
330
1E
100
AcDbEntity
  8
7
100
AcDbLine
 10
-0.834103115731378
 20
2.338989767525003
 30
0.0
 11
-0.8321346117943706
 21
1.937414964375395
 31
0.0
  0
LINE
  5
43BA
330
1E
100
AcDbEntity
  8
7
100
AcDbLine
 10
-0.8321346117943706
 20
1.937414964375395
 30
0.0
 11
-0.8301661078573623
 21
1.53584016122579
 31
0.0
  0
LINE
  5
43BB
330
1E
100
AcDbEntity
  8
7
100
AcDbLine
 10
-0.8301661078573623
 20
1.53584016122579
 30
0.0
 11
-0.8242605960463391
 21
1.138202365950199
 31
0.0
  0
LINE
  5
43BC
330
1E
100
AcDbEntity
  8
7
100
AcDbLine
 10
-0.8242605960463391
 20
1.138202365950199
 30
0.0
 11
-0.8183550842353151
 21
0.7445015785486256
 31
0.0
  0
LINE
  5
43BD
330
1E
100
AcDbEntity
  8
7
100
AcDbLine
 10
-0.8183550842353151
 20
5.140170869887207
 30
0.0
 11
-0.8242605960463391
 21
4.746470082485632
 31
0.0
  0
LINE
  5
43BE
330
1E
100
AcDbEntity
  8
7
100
AcDbLine
 10
-0.8242605960463391
 20
4.746470082485632
 30
0.0
 11
-0.8301661078573623
 21
4.348832287210042
 31
0.0
  0
LINE
  5
43BF
330
1E
100
AcDbEntity
  8
7
100
AcDbLine
 10
-0.8301661078573623
 20
4.348832287210042
 30
0.0
 11
-0.8321346117943706
 21
3.949225987997444
 31
0.0
  0
LINE
  5
43C0
330
1E
100
AcDbEntity
  8
7
100
AcDbLine
 10
-0.8321346117943706
 20
3.949225987997444
 30
0.0
 11
-0.834103115731378
 21
3.545682680910829
 31
0.0
  0
LINE
  5
43C1
330
1E
100
AcDbEntity
  8
7
100
AcDbLine
 10
-0.834103115731378
 20
3.545682680910829
 30
0.0
 11
-0.8360716196683863
 21
3.144107877761223
 31
0.0
  0
LINE
  5
43C2
330
1E
100
AcDbEntity
  8
7
100
AcDbLine
 10
-0.8360716196683863
 20
3.144107877761223
 30
0.0
 11
-0.8360716196683863
 21
2.740564570674608
 31
0.0
  0
LINE
  5
43C3
330
1E
100
AcDbEntity
  8
7
100
AcDbLine
 10
-0.8360716196683863
 20
2.740564570674608
 30
0.0
 11
-0.834103115731378
 21
2.338989767525003
 31
0.0
  0
LINE
  5
43C4
330
1E
100
AcDbEntity
  8
7
100
AcDbLine
 10
-0.8183550842353151
 20
0.7445015785486256
 30
0.0
 11
-0.796701540928229
 21
0.7228480352415386
 31
0.0
  0
LINE
  5
43C5
330
1E
100
AcDbEntity
  8
7
100
AcDbLine
 10
-0.796701540928229
 20
0.7228480352415386
 30
0.0
 11
-0.796701540928229
 21
5.161824413194294
 31
0.0
  0
LINE
  5
43C6
330
1E
100
AcDbEntity
  8
7
100
AcDbLine
 10
-5.277016501558149
 20
5.140170869887207
 30
0.0
 11
-5.296701540928228
 21
5.161824413194294
 31
0.0
  0
LINE
  5
43C7
330
1E
100
AcDbEntity
  8
7
100
AcDbLine
 10
-5.296701540928228
 20
5.161824413194294
 30
0.0
 11
-5.288827525180197
 21
5.183477956501381
 31
0.0
  0
LINE
  5
43C8
330
1E
100
AcDbEntity
  8
7
100
AcDbLine
 10
-5.288827525180197
 20
5.183477956501381
 30
0.0
 11
-5.26717398187311
 21
5.19332047618642
 31
0.0
  0
LINE
  5
43C9
330
1E
100
AcDbEntity
  8
7
100
AcDbLine
 10
-0.8281976039203549
 20
5.19332047618642
 30
0.0
 11
-0.8065440606132678
 21
5.183477956501381
 31
0.0
  0
LINE
  5
43CA
330
1E
100
AcDbEntity
  8
7
100
AcDbLine
 10
-0.8065440606132678
 20
5.183477956501381
 30
0.0
 11
-0.796701540928229
 21
5.161824413194294
 31
0.0
  0
LINE
  5
43CB
330
1E
100
AcDbEntity
  8
7
100
AcDbLine
 10
-0.849851147227441
 20
5.171666932879332
 30
0.0
 11
-0.8281976039203549
 21
5.19332047618642
 31
0.0
  0
LINE
  5
43CC
330
1E
100
AcDbEntity
  8
7
100
AcDbLine
 10
-0.8281976039203549
 20
5.19332047618642
 30
0.0
 11
-5.26717398187311
 21
5.19332047618642
 31
0.0
  0
LINE
  5
43CD
330
1E
100
AcDbEntity
  8
7
100
AcDbLine
 10
-0.8183550842353151
 20
5.140170869887207
 30
0.0
 11
-0.8281976039203549
 21
5.161824413194294
 31
0.0
  0
LINE
  5
43CE
330
1E
100
AcDbEntity
  8
7
100
AcDbLine
 10
-0.8281976039203549
 20
5.161824413194294
 30
0.0
 11
-0.849851147227441
 21
5.171666932879332
 31
0.0
  0
LINE
  5
43CF
330
1E
100
AcDbEntity
  8
7
100
AcDbLine
 10
-0.8183550842353151
 20
5.140170869887207
 30
0.0
 11
-0.8281976039203549
 21
5.146076381698231
 31
0.0
  0
LINE
  5
43D0
330
1E
100
AcDbEntity
  8
7
100
AcDbLine
 10
-0.8281976039203549
 20
5.146076381698231
 30
0.0
 11
-0.849851147227441
 21
5.148044885635238
 31
0.0
  0
LINE
  5
43D1
330
1E
100
AcDbEntity
  8
7
100
AcDbLine
 10
-0.849851147227441
 20
5.171666932879332
 30
0.0
 11
-0.849851147227441
 21
5.163792917131301
 31
0.0
  0
LINE
  5
43D2
330
1E
100
AcDbEntity
  8
7
100
AcDbLine
 10
-0.849851147227441
 20
5.163792917131301
 30
0.0
 11
-0.849851147227441
 21
5.148044885635238
 31
0.0
  0
LINE
  5
43D3
330
1E
100
AcDbEntity
  8
7
100
AcDbLine
 10
-5.245520438566023
 20
5.148044885635238
 30
0.0
 11
-5.26717398187311
 21
5.146076381698231
 31
0.0
  0
LINE
  5
43D4
330
1E
100
AcDbEntity
  8
7
100
AcDbLine
 10
-5.26717398187311
 20
5.146076381698231
 30
0.0
 11
-5.277016501558149
 21
5.140170869887207
 31
0.0
  0
LINE
  5
43D5
330
1E
100
AcDbEntity
  8
7
100
AcDbLine
 10
-5.245520438566023
 20
5.171666932879332
 30
0.0
 11
-5.26717398187311
 21
5.161824413194294
 31
0.0
  0
LINE
  5
43D6
330
1E
100
AcDbEntity
  8
7
100
AcDbLine
 10
-5.26717398187311
 20
5.161824413194294
 30
0.0
 11
-5.277016501558149
 21
5.140170869887207
 31
0.0
  0
LINE
  5
43D7
330
1E
100
AcDbEntity
  8
7
100
AcDbLine
 10
-5.245520438566023
 20
5.171666932879332
 30
0.0
 11
-5.245520438566023
 21
5.163792917131301
 31
0.0
  0
LINE
  5
43D8
330
1E
100
AcDbEntity
  8
7
100
AcDbLine
 10
-5.245520438566023
 20
5.163792917131301
 30
0.0
 11
-5.245520438566023
 21
5.148044885635238
 31
0.0
  0
LINE
  5
43D9
330
1E
100
AcDbEntity
  8
7
100
AcDbLine
 10
-2.202213351951851
 20
4.69332047618642
 30
0.0
 11
-2.08213461179437
 21
4.69332047618642
 31
0.0
  0
LINE
  5
43DA
330
1E
100
AcDbEntity
  8
7
100
AcDbLine
 10
-2.08213461179437
 20
4.69332047618642
 30
0.0
 11
-2.08213461179437
 21
4.695288980123427
 31
0.0
  0
LINE
  5
43DB
330
1E
100
AcDbEntity
  8
7
100
AcDbLine
 10
-4.013236973999094
 20
4.69332047618642
 30
0.0
 11
-3.893158233841614
 21
4.69332047618642
 31
0.0
  0
LINE
  5
43DC
330
1E
100
AcDbEntity
  8
7
100
AcDbLine
 10
-3.893158233841614
 20
4.69332047618642
 30
0.0
 11
-3.893158233841614
 21
4.695288980123427
 31
0.0
  0
LINE
  5
43DD
330
1E
100
AcDbEntity
  8
7
100
AcDbLine
 10
-4.318355084235315
 20
4.701194491934451
 30
0.0
 11
-4.318355084235315
 21
4.650013389572247
 31
0.0
  0
LINE
  5
43DE
330
1E
100
AcDbEntity
  8
7
100
AcDbLine
 10
-4.318355084235315
 20
4.650013389572247
 30
0.0
 11
-4.345914139353425
 21
4.650013389572247
 31
0.0
  0
LINE
  5
43DF
330
1E
100
AcDbEntity
  8
7
100
AcDbLine
 10
-1.74945744644004
 20
4.650013389572247
 30
0.0
 11
-1.77701650155815
 21
4.650013389572247
 31
0.0
  0
LINE
  5
43E0
330
1E
100
AcDbEntity
  8
7
100
AcDbLine
 10
-1.77701650155815
 20
4.650013389572247
 30
0.0
 11
-1.77701650155815
 21
4.701194491934451
 31
0.0
  0
LINE
  5
43E1
330
1E
100
AcDbEntity
  8
7
100
AcDbLine
 10
-1.710087367699882
 20
4.421666932879332
 30
0.0
 11
-1.682528312581772
 21
4.41576142106831
 31
0.0
  0
LINE
  5
43E2
330
1E
100
AcDbEntity
  8
7
100
AcDbLine
 10
-1.682528312581772
 20
4.41576142106831
 30
0.0
 11
-1.658906265337678
 21
4.396076381698231
 31
0.0
  0
LINE
  5
43E3
330
1E
100
AcDbEntity
  8
7
100
AcDbLine
 10
-1.658906265337678
 20
4.396076381698231
 30
0.0
 11
-1.639221225967598
 21
4.366548822643112
 31
0.0
  0
LINE
  5
43E4
330
1E
100
AcDbEntity
  8
7
100
AcDbLine
 10
-1.639221225967598
 20
4.366548822643112
 30
0.0
 11
-1.627410202345551
 21
4.327178743902955
 31
0.0
  0
LINE
  5
43E5
330
1E
100
AcDbEntity
  8
7
100
AcDbLine
 10
-1.627410202345551
 20
4.327178743902955
 30
0.0
 11
-1.623473194471535
 21
4.28584016122579
 31
0.0
  0
LINE
  5
43E6
330
1E
100
AcDbEntity
  8
7
100
AcDbLine
 10
-4.471898391321929
 20
4.28584016122579
 30
0.0
 11
-4.467961383447914
 21
4.327178743902955
 31
0.0
  0
LINE
  5
43E7
330
1E
100
AcDbEntity
  8
7
100
AcDbLine
 10
-4.467961383447914
 20
4.327178743902955
 30
0.0
 11
-4.456150359825866
 21
4.366548822643112
 31
0.0
  0
LINE
  5
43E8
330
1E
100
AcDbEntity
  8
7
100
AcDbLine
 10
-4.456150359825866
 20
4.366548822643112
 30
0.0
 11
-4.436465320455788
 21
4.396076381698231
 31
0.0
  0
LINE
  5
43E9
330
1E
100
AcDbEntity
  8
7
100
AcDbLine
 10
-4.436465320455788
 20
4.396076381698231
 30
0.0
 11
-4.412843273211693
 21
4.41576142106831
 31
0.0
  0
LINE
  5
43EA
330
1E
100
AcDbEntity
  8
7
100
AcDbLine
 10
-4.245520438566023
 20
3.067336224217916
 30
0.0
 11
-4.385284218093582
 21
3.067336224217916
 31
0.0
  0
LINE
  5
43EB
330
1E
100
AcDbEntity
  8
7
100
AcDbLine
 10
-4.385284218093582
 20
3.067336224217916
 30
0.0
 11
-4.412843273211693
 21
3.077178743902955
 31
0.0
  0
LINE
  5
43EC
330
1E
100
AcDbEntity
  8
7
100
AcDbLine
 10
-4.412843273211693
 20
3.077178743902955
 30
0.0
 11
-4.436465320455788
 21
3.100800791147049
 31
0.0
  0
LINE
  5
43ED
330
1E
100
AcDbEntity
  8
7
100
AcDbLine
 10
-4.436465320455788
 20
3.100800791147049
 30
0.0
 11
-4.456150359825866
 21
3.140170869887207
 31
0.0
  0
LINE
  5
43EE
330
1E
100
AcDbEntity
  8
7
100
AcDbLine
 10
-4.456150359825866
 20
3.140170869887207
 30
0.0
 11
-4.467961383447914
 21
3.187414964375395
 31
0.0
  0
LINE
  5
43EF
330
1E
100
AcDbEntity
  8
7
100
AcDbLine
 10
-4.467961383447914
 20
3.187414964375395
 30
0.0
 11
-4.471898391321929
 21
3.242533074611616
 31
0.0
  0
LINE
  5
43F0
330
1E
100
AcDbEntity
  8
7
100
AcDbLine
 10
-1.623473194471535
 20
3.242533074611616
 30
0.0
 11
-1.627410202345551
 21
3.187414964375395
 31
0.0
  0
LINE
  5
43F1
330
1E
100
AcDbEntity
  8
7
100
AcDbLine
 10
-1.627410202345551
 20
3.187414964375395
 30
0.0
 11
-1.639221225967598
 21
3.140170869887207
 31
0.0
  0
LINE
  5
43F2
330
1E
100
AcDbEntity
  8
7
100
AcDbLine
 10
-1.639221225967598
 20
3.140170869887207
 30
0.0
 11
-1.658906265337678
 21
3.100800791147049
 31
0.0
  0
LINE
  5
43F3
330
1E
100
AcDbEntity
  8
7
100
AcDbLine
 10
-1.658906265337678
 20
3.100800791147049
 30
0.0
 11
-1.682528312581772
 21
3.077178743902955
 31
0.0
  0
LINE
  5
43F4
330
1E
100
AcDbEntity
  8
7
100
AcDbLine
 10
-1.682528312581772
 20
3.077178743902955
 30
0.0
 11
-1.710087367699882
 21
3.067336224217916
 31
0.0
  0
LINE
  5
43F5
330
1E
100
AcDbEntity
  8
7
100
AcDbLine
 10
-1.710087367699882
 20
3.067336224217916
 30
0.0
 11
-1.849851147227441
 21
3.067336224217916
 31
0.0
  0
LINE
  5
43F6
330
1E
100
AcDbEntity
  8
7
100
AcDbLine
 10
-4.245520438566023
 20
1.565367720280908
 30
0.0
 11
-4.385284218093582
 21
1.565367720280908
 31
0.0
  0
LINE
  5
43F7
330
1E
100
AcDbEntity
  8
7
100
AcDbLine
 10
-4.385284218093582
 20
1.565367720280908
 30
0.0
 11
-4.412843273211693
 21
1.575210239965947
 31
0.0
  0
LINE
  5
43F8
330
1E
100
AcDbEntity
  8
7
100
AcDbLine
 10
-4.412843273211693
 20
1.575210239965947
 30
0.0
 11
-4.436465320455788
 21
1.598832287210042
 31
0.0
  0
LINE
  5
43F9
330
1E
100
AcDbEntity
  8
7
100
AcDbLine
 10
-4.436465320455788
 20
1.598832287210042
 30
0.0
 11
-4.456150359825866
 21
1.638202365950199
 31
0.0
  0
LINE
  5
43FA
330
1E
100
AcDbEntity
  8
7
100
AcDbLine
 10
-4.456150359825866
 20
1.638202365950199
 30
0.0
 11
-4.467961383447914
 21
1.685446460438388
 31
0.0
  0
LINE
  5
43FB
330
1E
100
AcDbEntity
  8
7
100
AcDbLine
 10
-4.467961383447914
 20
1.685446460438388
 30
0.0
 11
-4.471898391321929
 21
1.740564570674608
 31
0.0
  0
LINE
  5
43FC
330
1E
100
AcDbEntity
  8
7
100
AcDbLine
 10
-1.682528312581772
 20
1.575210239965947
 30
0.0
 11
-1.710087367699882
 21
1.565367720280908
 31
0.0
  0
LINE
  5
43FD
330
1E
100
AcDbEntity
  8
7
100
AcDbLine
 10
-1.710087367699882
 20
1.565367720280908
 30
0.0
 11
-1.849851147227441
 21
1.565367720280908
 31
0.0
  0
LINE
  5
43FE
330
1E
100
AcDbEntity
  8
7
100
AcDbLine
 10
-1.623473194471535
 20
1.740564570674608
 30
0.0
 11
-1.627410202345551
 21
1.685446460438388
 31
0.0
  0
LINE
  5
43FF
330
1E
100
AcDbEntity
  8
7
100
AcDbLine
 10
-1.627410202345551
 20
1.685446460438388
 30
0.0
 11
-1.639221225967598
 21
1.638202365950199
 31
0.0
  0
LINE
  5
4400
330
1E
100
AcDbEntity
  8
7
100
AcDbLine
 10
-1.639221225967598
 20
1.638202365950199
 30
0.0
 11
-1.658906265337678
 21
1.598832287210042
 31
0.0
  0
LINE
  5
4401
330
1E
100
AcDbEntity
  8
7
100
AcDbLine
 10
-1.658906265337678
 20
1.598832287210042
 30
0.0
 11
-1.682528312581772
 21
1.575210239965947
 31
0.0
  0
LINE
  5
4402
330
1E
100
AcDbEntity
  8
7
100
AcDbLine
 10
-1.710087367699882
 20
2.919698428942325
 30
0.0
 11
-1.682528312581772
 21
2.913792917131301
 31
0.0
  0
LINE
  5
4403
330
1E
100
AcDbEntity
  8
7
100
AcDbLine
 10
-1.682528312581772
 20
2.913792917131301
 30
0.0
 11
-1.658906265337678
 21
2.894107877761223
 31
0.0
  0
LINE
  5
4404
330
1E
100
AcDbEntity
  8
7
100
AcDbLine
 10
-1.658906265337678
 20
2.894107877761223
 30
0.0
 11
-1.639221225967598
 21
2.864580318706105
 31
0.0
  0
LINE
  5
4405
330
1E
100
AcDbEntity
  8
7
100
AcDbLine
 10
-1.639221225967598
 20
2.864580318706105
 30
0.0
 11
-1.627410202345551
 21
2.825210239965947
 31
0.0
  0
LINE
  5
4406
330
1E
100
AcDbEntity
  8
7
100
AcDbLine
 10
-1.627410202345551
 20
2.825210239965947
 30
0.0
 11
-1.623473194471535
 21
2.783871657288782
 31
0.0
  0
LINE
  5
4407
330
1E
100
AcDbEntity
  8
7
100
AcDbLine
 10
-4.471898391321929
 20
2.783871657288782
 30
0.0
 11
-4.467961383447914
 21
2.825210239965947
 31
0.0
  0
LINE
  5
4408
330
1E
100
AcDbEntity
  8
7
100
AcDbLine
 10
-4.467961383447914
 20
2.825210239965947
 30
0.0
 11
-4.456150359825866
 21
2.864580318706105
 31
0.0
  0
LINE
  5
4409
330
1E
100
AcDbEntity
  8
7
100
AcDbLine
 10
-4.456150359825866
 20
2.864580318706105
 30
0.0
 11
-4.436465320455788
 21
2.894107877761223
 31
0.0
  0
LINE
  5
440A
330
1E
100
AcDbEntity
  8
7
100
AcDbLine
 10
-4.436465320455788
 20
2.894107877761223
 30
0.0
 11
-4.412843273211693
 21
2.913792917131301
 31
0.0
  0
LINE
  5
440B
330
1E
100
AcDbEntity
  8
7
100
AcDbLine
 10
-4.412843273211693
 20
2.913792917131301
 30
0.0
 11
-4.385284218093582
 21
2.919698428942325
 31
0.0
  0
LINE
  5
440C
330
1E
100
AcDbEntity
  8
7
100
AcDbLine
 10
-1.172685792896732
 20
1.096863783273034
 30
0.0
 11
-1.172685792896732
 21
4.789777169099805
 31
0.0
  0
LINE
  5
440D
330
1E
100
AcDbEntity
  8
7
100
AcDbLine
 10
-1.172685792896732
 20
4.789777169099805
 30
0.0
 11
-4.922685792896732
 21
4.789777169099805
 31
0.0
  0
LINE
  5
440E
330
1E
100
AcDbEntity
  8
7
100
AcDbLine
 10
-4.922685792896732
 20
4.789777169099805
 30
0.0
 11
-4.922685792896732
 21
1.096863783273034
 31
0.0
  0
ENDSEC
  0
SECTION
  2
OBJECTS
  0
DICTIONARY
  5
C
330
0
100
AcDbDictionary
  3
ACAD_GROUP
350
D
  3
ACAD_MLINESTYLE
350
16
  3
ACAD_PLOTSETTINGS
350
18
  3
ACAD_LAYOUT
350
19
1001
ACAD
1000
TREAT_AS_HARD
1070
     0
  0
DICTIONARY
  5
5690
330
1E
100
AcDbDictionary
  3
ACAD_LAYOUTSELFREF
350
5691
  0
DICTIONARY
  5
568E
330
1A
100
AcDbDictionary
  3
ACAD_LAYOUTSELFREF
350
568F
  0
DICTIONARY
  5
D
102
{ACAD_REACTORS
330
C
102
}
330
C
100
AcDbDictionary
1001
ACAD
1000
TREAT_AS_HARD
1070
     0
  0
DICTIONARY
  5
16
102
{ACAD_REACTORS
330
C
102
}
330
C
100
AcDbDictionary
  3
STANDARD
350
17
1001
ACAD
1000
TREAT_AS_HARD
1070
     0
  0
DICTIONARY
  5
18
102
{ACAD_REACTORS
330
C
102
}
330
C
100
AcDbDictionary
1001
ACAD
1000
TREAT_AS_HARD
1070
     0
  0
DICTIONARY
  5
19
102
{ACAD_REACTORS
330
C
102
}
330
C
100
AcDbDictionary
1001
ACAD
1000
TREAT_AS_HARD
1070
     0
  0
XRECORD
  5
5691
102
{ACAD_REACTORS
330
5690
102
}
330
5690
100
AcDbXrecord
340
1E
  0
XRECORD
  5
568F
102
{ACAD_REACTORS
330
568E
102
}
330
568E
100
AcDbXrecord
340
1A
  0
MLINESTYLE
  5
17
102
{ACAD_REACTORS
330
16
102
}
330
16
100
AcDbMlineStyle
  2
STANDARD
 70
     0
  3

 62
   256
 51
90.0
 52
90.0
 71
     2
 49
0.5
 62
   256
  6
BYLAYER
 49
-0.5
 62
   256
  6
BYLAYER
  0
ENDSEC
  0
EOF
