  0
SECTION
  2
HEADER
  9
$ACADVER
  1
AC1012
  9
$DWGCODEPAGE
  3
ANSI_1252
  9
$INSBASE
 10
0.0
 20
0.0
 30
0.0
  9
$EXTMIN
 10
-8.252897663239629
 20
0.4111980930762123
 30
-0.0000000000112498
  9
$EXTMAX
 10
10.74887487887915
 20
13.83318406270993
 30
0.0000000000002956
  9
$LIMMIN
 10
0.0
 20
0.0
  9
$LIMMAX
 10
12.0
 20
9.0
  9
$ORTHOMODE
 70
     0
  9
$REGENMODE
 70
     1
  9
$FILLMODE
 70
     1
  9
$QTEXTMODE
 70
     0
  9
$MIRRTEXT
 70
     1
  9
$DRAGMODE
 70
     2
  9
$LTSCALE
 40
1.0
  9
$OSMODE
 70
   547
  9
$ATTMODE
 70
     1
  9
$TEXTSIZE
 40
0.2
  9
$TRACEWID
 40
0.05
  9
$TEXTSTYLE
  7
STANDARD
  9
$CLAYER
  8
0
  9
$CELTYPE
  6
BYLAYER
  9
$CECOLOR
 62
   256
  9
$CELTSCALE
 40
1.0
  9
$DELOBJ
 70
     1
  9
$DISPSILH
 70
     0
  9
$DIMSCALE
 40
1.0
  9
$DIMASZ
 40
0.18
  9
$DIMEXO
 40
0.0625
  9
$DIMDLI
 40
0.38
  9
$DIMRND
 40
0.0
  9
$DIMDLE
 40
0.0
  9
$DIMEXE
 40
0.18
  9
$DIMTP
 40
0.0
  9
$DIMTM
 40
0.0
  9
$DIMTXT
 40
0.18
  9
$DIMCEN
 40
0.09
  9
$DIMTSZ
 40
0.0
  9
$DIMTOL
 70
     0
  9
$DIMLIM
 70
     0
  9
$DIMTIH
 70
     1
  9
$DIMTOH
 70
     1
  9
$DIMSE1
 70
     0
  9
$DIMSE2
 70
     0
  9
$DIMTAD
 70
     0
  9
$DIMZIN
 70
     0
  9
$DIMBLK
  1

  9
$DIMASO
 70
     1
  9
$DIMSHO
 70
     1
  9
$DIMPOST
  1

  9
$DIMAPOST
  1

  9
$DIMALT
 70
     0
  9
$DIMALTD
 70
     2
  9
$DIMALTF
 40
25.4
  9
$DIMLFAC
 40
1.0
  9
$DIMTOFL
 70
     0
  9
$DIMTVP
 40
0.0
  9
$DIMTIX
 70
     0
  9
$DIMSOXD
 70
     0
  9
$DIMSAH
 70
     0
  9
$DIMBLK1
  1

  9
$DIMBLK2
  1

  9
$DIMSTYLE
  2
STANDARD
  9
$DIMCLRD
 70
     0
  9
$DIMCLRE
 70
     0
  9
$DIMCLRT
 70
     0
  9
$DIMTFAC
 40
1.0
  9
$DIMGAP
 40
0.09
  9
$DIMJUST
 70
     0
  9
$DIMSD1
 70
     0
  9
$DIMSD2
 70
     0
  9
$DIMTOLJ
 70
     1
  9
$DIMTZIN
 70
     0
  9
$DIMALTZ
 70
     0
  9
$DIMALTTZ
 70
     0
  9
$DIMFIT
 70
     5
  9
$DIMUPT
 70
     0
  9
$DIMUNIT
 70
     2
  9
$DIMDEC
 70
     4
  9
$DIMTDEC
 70
     4
  9
$DIMALTU
 70
     2
  9
$DIMALTTD
 70
     2
  9
$DIMTXSTY
  7
STANDARD
  9
$DIMAUNIT
 70
     0
  9
$LUNITS
 70
     2
  9
$LUPREC
 70
     4
  9
$SKETCHINC
 40
0.1
  9
$FILLETRAD
 40
0.0
  9
$AUNITS
 70
     0
  9
$AUPREC
 70
     0
  9
$MENU
  1
acad
  9
$ELEVATION
 40
0.0
  9
$PELEVATION
 40
0.0
  9
$THICKNESS
 40
0.0
  9
$LIMCHECK
 70
     0
  9
$BLIPMODE
 70
     0
  9
$CHAMFERA
 40
0.0
  9
$CHAMFERB
 40
0.0
  9
$CHAMFERC
 40
0.0
  9
$CHAMFERD
 40
0.0
  9
$SKPOLY
 70
     0
  9
$TDCREATE
 40
2452872.303368055
  9
$TDUPDATE
 40
2453893.530238553
  9
$TDINDWG
 40
0.0047643634
  9
$TDUSRTIMER
 40
0.0047643634
  9
$USRTIMER
 70
     1
  9
$ANGBASE
 50
0.0
  9
$ANGDIR
 70
     0
  9
$PDMODE
 70
     0
  9
$PDSIZE
 40
0.0
  9
$PLINEWID
 40
0.0
  9
$COORDS
 70
     1
  9
$SPLFRAME
 70
     0
  9
$SPLINETYPE
 70
     6
  9
$SPLINESEGS
 70
     8
  9
$ATTDIA
 70
     0
  9
$ATTREQ
 70
     1
  9
$HANDLING
 70
  4097
  9
$HANDSEED
  5
48B4
  9
$SURFTAB1
 70
     6
  9
$SURFTAB2
 70
     6
  9
$SURFTYPE
 70
     6
  9
$SURFU
 70
     6
  9
$SURFV
 70
     6
  9
$UCSNAME
  2

  9
$UCSORG
 10
0.0
 20
0.0
 30
0.0
  9
$UCSXDIR
 10
1.0
 20
0.0
 30
0.0
  9
$UCSYDIR
 10
0.0
 20
1.0
 30
0.0
  9
$PUCSNAME
  2

  9
$PUCSORG
 10
0.0
 20
0.0
 30
0.0
  9
$PUCSXDIR
 10
1.0
 20
0.0
 30
0.0
  9
$PUCSYDIR
 10
0.0
 20
1.0
 30
0.0
  9
$USERI1
 70
     0
  9
$USERI2
 70
     0
  9
$USERI3
 70
     0
  9
$USERI4
 70
     0
  9
$USERI5
 70
     0
  9
$USERR1
 40
0.0
  9
$USERR2
 40
0.0
  9
$USERR3
 40
0.0
  9
$USERR4
 40
0.0
  9
$USERR5
 40
0.0
  9
$WORLDVIEW
 70
     1
  9
$SHADEDGE
 70
     3
  9
$SHADEDIF
 70
    70
  9
$TILEMODE
 70
     1
  9
$MAXACTVP
 70
    16
  9
$PINSBASE
 10
0.0
 20
0.0
 30
0.0
  9
$PLIMCHECK
 70
     0
  9
$PEXTMIN
 10
1.000000000000000E+20
 20
1.000000000000000E+20
 30
1.000000000000000E+20
  9
$PEXTMAX
 10
-1.000000000000000E+20
 20
-1.000000000000000E+20
 30
-1.000000000000000E+20
  9
$PLIMMIN
 10
0.0
 20
0.0
  9
$PLIMMAX
 10
12.0
 20
9.0
  9
$UNITMODE
 70
     0
  9
$VISRETAIN
 70
     0
  9
$PLINEGEN
 70
     0
  9
$PSLTSCALE
 70
     1
  9
$TREEDEPTH
 70
  3020
  9
$PICKSTYLE
 70
     1
  9
$CMLSTYLE
  2
STANDARD
  9
$CMLJUST
 70
     0
  9
$CMLSCALE
 40
1.0
  9
$SAVEIMAGES
 70
     1
  0
ENDSEC
  0
SECTION
  2
CLASSES
  0
CLASS
  1
ACDBDICTIONARYWDFLT
  2
AcDbDictionaryWithDefault
  3
AutoCAD 2000
 90
    32768
280
     0
281
     0
  0
CLASS
  1
ACDBPLACEHOLDER
  2
AcDbPlaceHolder
  3
AutoCAD 2000
 90
    32768
280
     0
281
     0
  0
CLASS
  1
LAYOUT
  2
AcDbLayout
  3
AutoCAD 2000
 90
    32768
280
     0
281
     0
  0
CLASS
  1
LONG_TRANSACTION
  2
AcDbLongTransaction
  3
AutoCAD 2000
 90
    32768
280
     0
281
     0
  0
CLASS
  1
LWPOLYLINE
  2
AcDbPolyline
  3
AutoCAD 2000
 90
    32768
280
     0
281
     1
  0
CLASS
  1
HATCH
  2
AcDbHatch
  3
AutoCAD 2000
 90
    32768
280
     0
281
     1
  0
CLASS
  1
XRECORD
  2
AcDbXrecord
  3
AutoCAD 2000
 90
    32768
280
     0
281
     0
  0
CLASS
  1
LONG_TRANSACTION
  2
AcDbLongTransaction
  3
AutoCAD 2000
 90
    32768
280
     0
281
     0
  0
CLASS
  1
LWPOLYLINE
  2
AcDbPolyline
  3
AutoCAD 2000
 90
    32768
280
     0
281
     1
  0
CLASS
  1
HATCH
  2
AcDbHatch
  3
AutoCAD 2000
 90
    32768
280
     0
281
     1
  0
CLASS
  1
XRECORD
  2
AcDbXrecord
  3
AutoCAD 2000
 90
    32768
280
     0
281
     0
  0
ENDSEC
  0
SECTION
  2
TABLES
  0
TABLE
  2
VPORT
  5
8
330
0
100
AcDbSymbolTable
 70
     2
  0
VPORT
  5
48B1
330
8
100
AcDbSymbolTableRecord
100
AcDbViewportTableRecord
  2
*ACTIVE
 70
     0
 10
0.0
 20
0.0
 11
1.0
 21
1.0
 12
1.247988607819759
 22
7.122191077893076
 13
0.0
 23
0.0
 14
1.0
 24
1.0
 15
0.0
 25
0.0
 16
0.0
 26
0.0
 36
1.0
 17
0.0
 27
0.0
 37
0.0
 40
13.57195229331678
 41
1.740671641791044
 42
50.0
 43
0.0
 44
0.0
 50
0.0
 51
0.0
 71
     0
 72
   100
 73
     1
 74
     1
 75
     0
 76
     0
 77
     0
 78
     0
  0
ENDTAB
  0
TABLE
  2
LTYPE
  5
5
330
0
100
AcDbSymbolTable
 70
    25
  0
LTYPE
  5
13
330
5
100
AcDbSymbolTableRecord
100
AcDbLinetypeTableRecord
  2
BYBLOCK
 70
     0
  3

 72
    65
 73
     0
 40
0.0
  0
LTYPE
  5
14
330
5
100
AcDbSymbolTableRecord
100
AcDbLinetypeTableRecord
  2
BYLAYER
 70
     0
  3

 72
    65
 73
     0
 40
0.0
  0
LTYPE
  5
15
330
5
100
AcDbSymbolTableRecord
100
AcDbLinetypeTableRecord
  2
CONTINUOUS
 70
     0
  3
Solid line
 72
    65
 73
     0
 40
0.0
  0
LTYPE
  5
22
330
5
100
AcDbSymbolTableRecord
100
AcDbLinetypeTableRecord
  2
BORDER
 70
     0
  3
__ __ . __ __ . __ __ . __ __ . __ __ . __ __ .
 72
    65
 73
     6
 40
1.75
 49
0.5
 74
     0
 49
-0.25
 74
     0
 49
0.5
 74
     0
 49
-0.25
 74
     0
 49
0.5
 74
     0
 49
-0.25
 74
     0
  0
LTYPE
  5
23
330
5
100
AcDbSymbolTableRecord
100
AcDbLinetypeTableRecord
  2
BORDER2
 70
     0
  3
__.__.__.__.__.__.__.__.__.__.__.__.__.__.__.__
 72
    65
 73
     6
 40
0.875
 49
0.25
 74
     0
 49
-0.125
 74
     0
 49
0.25
 74
     0
 49
-0.125
 74
     0
 49
0.25
 74
     0
 49
-0.125
 74
     0
  0
LTYPE
  5
24
330
5
100
AcDbSymbolTableRecord
100
AcDbLinetypeTableRecord
  2
BORDERX2
 70
     0
  3
____  ____  .  ____  ____  .  
 72
    65
 73
     6
 40
3.5
 49
1.0
 74
     0
 49
-0.5
 74
     0
 49
1.0
 74
     0
 49
-0.5
 74
     0
 49
1.0
 74
     0
 49
-0.5
 74
     0
  0
LTYPE
  5
25
330
5
100
AcDbSymbolTableRecord
100
AcDbLinetypeTableRecord
  2
CENTER
 70
     0
  3
____ _ ____ _ ____ _ ____ _ ____ _ ____ _ ____
 72
    65
 73
     4
 40
2.0
 49
1.25
 74
     0
 49
-0.25
 74
     0
 49
0.25
 74
     0
 49
-0.25
 74
     0
  0
LTYPE
  5
26
330
5
100
AcDbSymbolTableRecord
100
AcDbLinetypeTableRecord
  2
CENTER2
 70
     0
  3
____ _ ____ _ ____ _ ____ _ ____ _ ____ _ ____
 72
    65
 73
     4
 40
1.125
 49
0.75
 74
     0
 49
-0.125
 74
     0
 49
0.125
 74
     0
 49
-0.125
 74
     0
  0
LTYPE
  5
27
330
5
100
AcDbSymbolTableRecord
100
AcDbLinetypeTableRecord
  2
CENTERX2
 70
     0
  3
________  __  ________  __  ________  __  
 72
    65
 73
     4
 40
4.0
 49
2.5
 74
     0
 49
-0.5
 74
     0
 49
0.5
 74
     0
 49
-0.5
 74
     0
  0
LTYPE
  5
28
330
5
100
AcDbSymbolTableRecord
100
AcDbLinetypeTableRecord
  2
DASHDOT
 70
     0
  3
__ . __ . __ . __ . __ . __ . __ . 
 72
    65
 73
     4
 40
1.0
 49
0.5
 74
     0
 49
-0.25
 74
     0
 49
0.0
 74
     0
 49
-0.25
 74
     0
  0
LTYPE
  5
29
330
5
100
AcDbSymbolTableRecord
100
AcDbLinetypeTableRecord
  2
DASHDOT2
 70
     0
  3
_._._._._._._._._._._._._._._._.
 72
    65
 73
     4
 40
0.5
 49
0.25
 74
     0
 49
-0.125
 74
     0
 49
0.0
 74
     0
 49
-0.125
 74
     0
  0
LTYPE
  5
2A
330
5
100
AcDbSymbolTableRecord
100
AcDbLinetypeTableRecord
  2
DASHDOTX2
 70
     0
  3
____  .  ____  .  ____  .  ____  .  
 72
    65
 73
     4
 40
2.0
 49
1.0
 74
     0
 49
-0.5
 74
     0
 49
0.0
 74
     0
 49
-0.5
 74
     0
  0
LTYPE
  5
2B
330
5
100
AcDbSymbolTableRecord
100
AcDbLinetypeTableRecord
  2
DASHED
 70
     0
  3
__ __ __ __ __ __ __ __ __ __ __ __ 
 72
    65
 73
     2
 40
0.75
 49
0.5
 74
     0
 49
-0.25
 74
     0
  0
LTYPE
  5
2C
330
5
100
AcDbSymbolTableRecord
100
AcDbLinetypeTableRecord
  2
DASHED2
 70
     0
  3
_ _ _ _ _ _ _ _ _ _ _ _ _ _ _ _ _ _ 
 72
    65
 73
     2
 40
0.375
 49
0.25
 74
     0
 49
-0.125
 74
     0
  0
LTYPE
  5
2D
330
5
100
AcDbSymbolTableRecord
100
AcDbLinetypeTableRecord
  2
DASHEDX2
 70
     0
  3
____  ____  ____  ____  ____  ____  
 72
    65
 73
     2
 40
1.5
 49
1.0
 74
     0
 49
-0.5
 74
     0
  0
LTYPE
  5
2E
330
5
100
AcDbSymbolTableRecord
100
AcDbLinetypeTableRecord
  2
DIVIDE
 70
     0
  3
____ . . ____ . . ____ . . ____ . . 
 72
    65
 73
     6
 40
1.25
 49
0.5
 74
     0
 49
-0.25
 74
     0
 49
0.0
 74
     0
 49
-0.25
 74
     0
 49
0.0
 74
     0
 49
-0.25
 74
     0
  0
LTYPE
  5
2F
330
5
100
AcDbSymbolTableRecord
100
AcDbLinetypeTableRecord
  2
DIVIDE2
 70
     0
  3
__..__..__..__..__..__..__..__..__..
 72
    65
 73
     6
 40
0.625
 49
0.25
 74
     0
 49
-0.125
 74
     0
 49
0.0
 74
     0
 49
-0.125
 74
     0
 49
0.0
 74
     0
 49
-0.125
 74
     0
  0
LTYPE
  5
30
330
5
100
AcDbSymbolTableRecord
100
AcDbLinetypeTableRecord
  2
DIVIDEX2
 70
     0
  3
________  .  .  ________  .  .  ________  .  . 
 72
    65
 73
     6
 40
2.5
 49
1.0
 74
     0
 49
-0.5
 74
     0
 49
0.0
 74
     0
 49
-0.5
 74
     0
 49
0.0
 74
     0
 49
-0.5
 74
     0
  0
LTYPE
  5
31
330
5
100
AcDbSymbolTableRecord
100
AcDbLinetypeTableRecord
  2
DOT
 70
     0
  3
. . . . . . . . . . . . . . . . . . 
 72
    65
 73
     2
 40
0.25
 49
0.0
 74
     0
 49
-0.25
 74
     0
  0
LTYPE
  5
32
330
5
100
AcDbSymbolTableRecord
100
AcDbLinetypeTableRecord
  2
DOT2
 70
     0
  3
....................................
 72
    65
 73
     2
 40
0.125
 49
0.0
 74
     0
 49
-0.125
 74
     0
  0
LTYPE
  5
33
330
5
100
AcDbSymbolTableRecord
100
AcDbLinetypeTableRecord
  2
DOTX2
 70
     0
  3
.  .  .  .  .  .  .  .  .  .  .  .  .  
 72
    65
 73
     2
 40
0.5
 49
0.0
 74
     0
 49
-0.5
 74
     0
  0
LTYPE
  5
34
330
5
100
AcDbSymbolTableRecord
100
AcDbLinetypeTableRecord
  2
HIDDEN
 70
     0
  3
__ __ __ __ __ __ __ __ __ __ __ __ 
 72
    65
 73
     2
 40
0.375
 49
0.25
 74
     0
 49
-0.125
 74
     0
  0
LTYPE
  5
35
330
5
100
AcDbSymbolTableRecord
100
AcDbLinetypeTableRecord
  2
HIDDEN2
 70
     0
  3
_ _ _ _ _ _ _ _ _ _ _ _ _ _ _ _ _ _ 
 72
    65
 73
     2
 40
0.1875
 49
0.125
 74
     0
 49
-0.0625
 74
     0
  0
LTYPE
  5
36
330
5
100
AcDbSymbolTableRecord
100
AcDbLinetypeTableRecord
  2
HIDDENX2
 70
     0
  3
____ ____ ____ ____ ____ ____ ____ 
 72
    65
 73
     2
 40
0.75
 49
0.5
 74
     0
 49
-0.25
 74
     0
  0
LTYPE
  5
37
330
5
100
AcDbSymbolTableRecord
100
AcDbLinetypeTableRecord
  2
PHANTOM
 70
     0
  3
______  __  __  ______  __  __  
 72
    65
 73
     6
 40
2.5
 49
1.25
 74
     0
 49
-0.25
 74
     0
 49
0.25
 74
     0
 49
-0.25
 74
     0
 49
0.25
 74
     0
 49
-0.25
 74
     0
  0
LTYPE
  5
38
330
5
100
AcDbSymbolTableRecord
100
AcDbLinetypeTableRecord
  2
PHANTOM2
 70
     0
  3
___ _ _ ___ _ _ ___ _ _ ___ _ _ 
 72
    65
 73
     6
 40
1.25
 49
0.625
 74
     0
 49
-0.125
 74
     0
 49
0.125
 74
     0
 49
-0.125
 74
     0
 49
0.125
 74
     0
 49
-0.125
 74
     0
  0
LTYPE
  5
39
330
5
100
AcDbSymbolTableRecord
100
AcDbLinetypeTableRecord
  2
PHANTOMX2
 70
     0
  3
___ _ _ ___ _ _ ___ _ _ ___ _ _ 
 72
    65
 73
     6
 40
5.0
 49
2.5
 74
     0
 49
-0.5
 74
     0
 49
0.5
 74
     0
 49
-0.5
 74
     0
 49
0.5
 74
     0
 49
-0.5
 74
     0
  0
ENDTAB
  0
TABLE
  2
LAYER
  5
2
330
0
100
AcDbSymbolTable
 70
   257
  0
LAYER
  5
10
330
2
100
AcDbSymbolTableRecord
100
AcDbLayerTableRecord
  2
0
 70
     0
 62
     7
  6
CONTINUOUS
  0
LAYER
  5
3A
330
2
100
AcDbSymbolTableRecord
100
AcDbLayerTableRecord
  2
1
 70
     0
 62
     1
  6
CONTINUOUS
  0
LAYER
  5
3B
330
2
100
AcDbSymbolTableRecord
100
AcDbLayerTableRecord
  2
2
 70
     0
 62
     2
  6
CONTINUOUS
  0
LAYER
  5
3C
330
2
100
AcDbSymbolTableRecord
100
AcDbLayerTableRecord
  2
3
 70
     0
 62
     3
  6
CONTINUOUS
  0
LAYER
  5
3D
330
2
100
AcDbSymbolTableRecord
100
AcDbLayerTableRecord
  2
4
 70
     0
 62
     4
  6
CONTINUOUS
  0
LAYER
  5
3E
330
2
100
AcDbSymbolTableRecord
100
AcDbLayerTableRecord
  2
5
 70
     0
 62
     5
  6
CONTINUOUS
  0
LAYER
  5
3F
330
2
100
AcDbSymbolTableRecord
100
AcDbLayerTableRecord
  2
6
 70
     0
 62
     6
  6
CONTINUOUS
  0
LAYER
  5
40
330
2
100
AcDbSymbolTableRecord
100
AcDbLayerTableRecord
  2
7
 70
     0
 62
     7
  6
CONTINUOUS
  0
LAYER
  5
41
330
2
100
AcDbSymbolTableRecord
100
AcDbLayerTableRecord
  2
8
 70
     0
 62
     8
  6
CONTINUOUS
  0
LAYER
  5
42
330
2
100
AcDbSymbolTableRecord
100
AcDbLayerTableRecord
  2
9
 70
     0
 62
     9
  6
CONTINUOUS
  0
LAYER
  5
43
330
2
100
AcDbSymbolTableRecord
100
AcDbLayerTableRecord
  2
10
 70
     0
 62
    10
  6
CONTINUOUS
  0
LAYER
  5
44
330
2
100
AcDbSymbolTableRecord
100
AcDbLayerTableRecord
  2
11
 70
     0
 62
    11
  6
CONTINUOUS
  0
LAYER
  5
45
330
2
100
AcDbSymbolTableRecord
100
AcDbLayerTableRecord
  2
12
 70
     0
 62
    12
  6
CONTINUOUS
  0
LAYER
  5
46
330
2
100
AcDbSymbolTableRecord
100
AcDbLayerTableRecord
  2
13
 70
     0
 62
    13
  6
CONTINUOUS
  0
LAYER
  5
47
330
2
100
AcDbSymbolTableRecord
100
AcDbLayerTableRecord
  2
14
 70
     0
 62
    14
  6
CONTINUOUS
  0
LAYER
  5
48
330
2
100
AcDbSymbolTableRecord
100
AcDbLayerTableRecord
  2
15
 70
     0
 62
    15
  6
CONTINUOUS
  0
LAYER
  5
49
330
2
100
AcDbSymbolTableRecord
100
AcDbLayerTableRecord
  2
16
 70
     0
 62
    16
  6
CONTINUOUS
  0
LAYER
  5
4A
330
2
100
AcDbSymbolTableRecord
100
AcDbLayerTableRecord
  2
17
 70
     0
 62
    17
  6
CONTINUOUS
  0
LAYER
  5
4B
330
2
100
AcDbSymbolTableRecord
100
AcDbLayerTableRecord
  2
18
 70
     0
 62
    18
  6
CONTINUOUS
  0
LAYER
  5
4C
330
2
100
AcDbSymbolTableRecord
100
AcDbLayerTableRecord
  2
19
 70
     0
 62
    19
  6
CONTINUOUS
  0
LAYER
  5
4D
330
2
100
AcDbSymbolTableRecord
100
AcDbLayerTableRecord
  2
20
 70
     0
 62
    20
  6
CONTINUOUS
  0
LAYER
  5
4E
330
2
100
AcDbSymbolTableRecord
100
AcDbLayerTableRecord
  2
21
 70
     0
 62
    21
  6
CONTINUOUS
  0
LAYER
  5
4F
330
2
100
AcDbSymbolTableRecord
100
AcDbLayerTableRecord
  2
22
 70
     0
 62
    22
  6
CONTINUOUS
  0
LAYER
  5
50
330
2
100
AcDbSymbolTableRecord
100
AcDbLayerTableRecord
  2
23
 70
     0
 62
    23
  6
CONTINUOUS
  0
LAYER
  5
51
330
2
100
AcDbSymbolTableRecord
100
AcDbLayerTableRecord
  2
24
 70
     0
 62
    24
  6
CONTINUOUS
  0
LAYER
  5
52
330
2
100
AcDbSymbolTableRecord
100
AcDbLayerTableRecord
  2
25
 70
     0
 62
    25
  6
CONTINUOUS
  0
LAYER
  5
53
330
2
100
AcDbSymbolTableRecord
100
AcDbLayerTableRecord
  2
26
 70
     0
 62
    26
  6
CONTINUOUS
  0
LAYER
  5
54
330
2
100
AcDbSymbolTableRecord
100
AcDbLayerTableRecord
  2
27
 70
     0
 62
    27
  6
CONTINUOUS
  0
LAYER
  5
55
330
2
100
AcDbSymbolTableRecord
100
AcDbLayerTableRecord
  2
28
 70
     0
 62
    28
  6
CONTINUOUS
  0
LAYER
  5
56
330
2
100
AcDbSymbolTableRecord
100
AcDbLayerTableRecord
  2
29
 70
     0
 62
    29
  6
CONTINUOUS
  0
LAYER
  5
57
330
2
100
AcDbSymbolTableRecord
100
AcDbLayerTableRecord
  2
30
 70
     0
 62
    30
  6
CONTINUOUS
  0
LAYER
  5
58
330
2
100
AcDbSymbolTableRecord
100
AcDbLayerTableRecord
  2
31
 70
     0
 62
    31
  6
CONTINUOUS
  0
LAYER
  5
59
330
2
100
AcDbSymbolTableRecord
100
AcDbLayerTableRecord
  2
32
 70
     0
 62
    32
  6
CONTINUOUS
  0
LAYER
  5
5A
330
2
100
AcDbSymbolTableRecord
100
AcDbLayerTableRecord
  2
33
 70
     0
 62
    33
  6
CONTINUOUS
  0
LAYER
  5
5B
330
2
100
AcDbSymbolTableRecord
100
AcDbLayerTableRecord
  2
34
 70
     0
 62
    34
  6
CONTINUOUS
  0
LAYER
  5
5C
330
2
100
AcDbSymbolTableRecord
100
AcDbLayerTableRecord
  2
35
 70
     0
 62
    35
  6
CONTINUOUS
  0
LAYER
  5
5D
330
2
100
AcDbSymbolTableRecord
100
AcDbLayerTableRecord
  2
36
 70
     0
 62
    36
  6
CONTINUOUS
  0
LAYER
  5
5E
330
2
100
AcDbSymbolTableRecord
100
AcDbLayerTableRecord
  2
37
 70
     0
 62
    37
  6
CONTINUOUS
  0
LAYER
  5
5F
330
2
100
AcDbSymbolTableRecord
100
AcDbLayerTableRecord
  2
38
 70
     0
 62
    38
  6
CONTINUOUS
  0
LAYER
  5
60
330
2
100
AcDbSymbolTableRecord
100
AcDbLayerTableRecord
  2
39
 70
     0
 62
    39
  6
CONTINUOUS
  0
LAYER
  5
61
330
2
100
AcDbSymbolTableRecord
100
AcDbLayerTableRecord
  2
40
 70
     0
 62
    40
  6
CONTINUOUS
  0
LAYER
  5
62
330
2
100
AcDbSymbolTableRecord
100
AcDbLayerTableRecord
  2
41
 70
     0
 62
    41
  6
CONTINUOUS
  0
LAYER
  5
63
330
2
100
AcDbSymbolTableRecord
100
AcDbLayerTableRecord
  2
42
 70
     0
 62
    42
  6
CONTINUOUS
  0
LAYER
  5
64
330
2
100
AcDbSymbolTableRecord
100
AcDbLayerTableRecord
  2
43
 70
     0
 62
    43
  6
CONTINUOUS
  0
LAYER
  5
65
330
2
100
AcDbSymbolTableRecord
100
AcDbLayerTableRecord
  2
44
 70
     0
 62
    44
  6
CONTINUOUS
  0
LAYER
  5
66
330
2
100
AcDbSymbolTableRecord
100
AcDbLayerTableRecord
  2
45
 70
     0
 62
    45
  6
CONTINUOUS
  0
LAYER
  5
67
330
2
100
AcDbSymbolTableRecord
100
AcDbLayerTableRecord
  2
46
 70
     0
 62
    46
  6
CONTINUOUS
  0
LAYER
  5
68
330
2
100
AcDbSymbolTableRecord
100
AcDbLayerTableRecord
  2
47
 70
     0
 62
    47
  6
CONTINUOUS
  0
LAYER
  5
69
330
2
100
AcDbSymbolTableRecord
100
AcDbLayerTableRecord
  2
48
 70
     0
 62
    48
  6
CONTINUOUS
  0
LAYER
  5
6A
330
2
100
AcDbSymbolTableRecord
100
AcDbLayerTableRecord
  2
49
 70
     0
 62
    49
  6
CONTINUOUS
  0
LAYER
  5
6B
330
2
100
AcDbSymbolTableRecord
100
AcDbLayerTableRecord
  2
50
 70
     0
 62
    50
  6
CONTINUOUS
  0
LAYER
  5
6C
330
2
100
AcDbSymbolTableRecord
100
AcDbLayerTableRecord
  2
51
 70
     0
 62
    51
  6
CONTINUOUS
  0
LAYER
  5
6D
330
2
100
AcDbSymbolTableRecord
100
AcDbLayerTableRecord
  2
52
 70
     0
 62
    52
  6
CONTINUOUS
  0
LAYER
  5
6E
330
2
100
AcDbSymbolTableRecord
100
AcDbLayerTableRecord
  2
53
 70
     0
 62
    53
  6
CONTINUOUS
  0
LAYER
  5
6F
330
2
100
AcDbSymbolTableRecord
100
AcDbLayerTableRecord
  2
54
 70
     0
 62
    54
  6
CONTINUOUS
  0
LAYER
  5
70
330
2
100
AcDbSymbolTableRecord
100
AcDbLayerTableRecord
  2
55
 70
     0
 62
    55
  6
CONTINUOUS
  0
LAYER
  5
71
330
2
100
AcDbSymbolTableRecord
100
AcDbLayerTableRecord
  2
56
 70
     0
 62
    56
  6
CONTINUOUS
  0
LAYER
  5
72
330
2
100
AcDbSymbolTableRecord
100
AcDbLayerTableRecord
  2
57
 70
     0
 62
    57
  6
CONTINUOUS
  0
LAYER
  5
73
330
2
100
AcDbSymbolTableRecord
100
AcDbLayerTableRecord
  2
58
 70
     0
 62
    58
  6
CONTINUOUS
  0
LAYER
  5
74
330
2
100
AcDbSymbolTableRecord
100
AcDbLayerTableRecord
  2
59
 70
     0
 62
    59
  6
CONTINUOUS
  0
LAYER
  5
75
330
2
100
AcDbSymbolTableRecord
100
AcDbLayerTableRecord
  2
60
 70
     0
 62
    60
  6
CONTINUOUS
  0
LAYER
  5
76
330
2
100
AcDbSymbolTableRecord
100
AcDbLayerTableRecord
  2
61
 70
     0
 62
    61
  6
CONTINUOUS
  0
LAYER
  5
77
330
2
100
AcDbSymbolTableRecord
100
AcDbLayerTableRecord
  2
62
 70
     0
 62
    62
  6
CONTINUOUS
  0
LAYER
  5
78
330
2
100
AcDbSymbolTableRecord
100
AcDbLayerTableRecord
  2
63
 70
     0
 62
    63
  6
CONTINUOUS
  0
LAYER
  5
79
330
2
100
AcDbSymbolTableRecord
100
AcDbLayerTableRecord
  2
64
 70
     0
 62
    64
  6
CONTINUOUS
  0
LAYER
  5
7A
330
2
100
AcDbSymbolTableRecord
100
AcDbLayerTableRecord
  2
65
 70
     0
 62
    65
  6
CONTINUOUS
  0
LAYER
  5
7B
330
2
100
AcDbSymbolTableRecord
100
AcDbLayerTableRecord
  2
66
 70
     0
 62
    66
  6
CONTINUOUS
  0
LAYER
  5
7C
330
2
100
AcDbSymbolTableRecord
100
AcDbLayerTableRecord
  2
67
 70
     0
 62
    67
  6
CONTINUOUS
  0
LAYER
  5
7D
330
2
100
AcDbSymbolTableRecord
100
AcDbLayerTableRecord
  2
68
 70
     0
 62
    68
  6
CONTINUOUS
  0
LAYER
  5
7E
330
2
100
AcDbSymbolTableRecord
100
AcDbLayerTableRecord
  2
69
 70
     0
 62
    69
  6
CONTINUOUS
  0
LAYER
  5
7F
330
2
100
AcDbSymbolTableRecord
100
AcDbLayerTableRecord
  2
70
 70
     0
 62
    70
  6
CONTINUOUS
  0
LAYER
  5
80
330
2
100
AcDbSymbolTableRecord
100
AcDbLayerTableRecord
  2
71
 70
     0
 62
    71
  6
CONTINUOUS
  0
LAYER
  5
81
330
2
100
AcDbSymbolTableRecord
100
AcDbLayerTableRecord
  2
72
 70
     0
 62
    72
  6
CONTINUOUS
  0
LAYER
  5
82
330
2
100
AcDbSymbolTableRecord
100
AcDbLayerTableRecord
  2
73
 70
     0
 62
    73
  6
CONTINUOUS
  0
LAYER
  5
83
330
2
100
AcDbSymbolTableRecord
100
AcDbLayerTableRecord
  2
74
 70
     0
 62
    74
  6
CONTINUOUS
  0
LAYER
  5
84
330
2
100
AcDbSymbolTableRecord
100
AcDbLayerTableRecord
  2
75
 70
     0
 62
    75
  6
CONTINUOUS
  0
LAYER
  5
85
330
2
100
AcDbSymbolTableRecord
100
AcDbLayerTableRecord
  2
76
 70
     0
 62
    76
  6
CONTINUOUS
  0
LAYER
  5
86
330
2
100
AcDbSymbolTableRecord
100
AcDbLayerTableRecord
  2
77
 70
     0
 62
    77
  6
CONTINUOUS
  0
LAYER
  5
87
330
2
100
AcDbSymbolTableRecord
100
AcDbLayerTableRecord
  2
78
 70
     0
 62
    78
  6
CONTINUOUS
  0
LAYER
  5
88
330
2
100
AcDbSymbolTableRecord
100
AcDbLayerTableRecord
  2
79
 70
     0
 62
    79
  6
CONTINUOUS
  0
LAYER
  5
89
330
2
100
AcDbSymbolTableRecord
100
AcDbLayerTableRecord
  2
80
 70
     0
 62
    80
  6
CONTINUOUS
  0
LAYER
  5
8A
330
2
100
AcDbSymbolTableRecord
100
AcDbLayerTableRecord
  2
81
 70
     0
 62
    81
  6
CONTINUOUS
  0
LAYER
  5
8B
330
2
100
AcDbSymbolTableRecord
100
AcDbLayerTableRecord
  2
82
 70
     0
 62
    82
  6
CONTINUOUS
  0
LAYER
  5
8C
330
2
100
AcDbSymbolTableRecord
100
AcDbLayerTableRecord
  2
83
 70
     0
 62
    83
  6
CONTINUOUS
  0
LAYER
  5
8D
330
2
100
AcDbSymbolTableRecord
100
AcDbLayerTableRecord
  2
84
 70
     0
 62
    84
  6
CONTINUOUS
  0
LAYER
  5
8E
330
2
100
AcDbSymbolTableRecord
100
AcDbLayerTableRecord
  2
85
 70
     0
 62
    85
  6
CONTINUOUS
  0
LAYER
  5
8F
330
2
100
AcDbSymbolTableRecord
100
AcDbLayerTableRecord
  2
86
 70
     0
 62
    86
  6
CONTINUOUS
  0
LAYER
  5
90
330
2
100
AcDbSymbolTableRecord
100
AcDbLayerTableRecord
  2
87
 70
     0
 62
    87
  6
CONTINUOUS
  0
LAYER
  5
91
330
2
100
AcDbSymbolTableRecord
100
AcDbLayerTableRecord
  2
88
 70
     0
 62
    88
  6
CONTINUOUS
  0
LAYER
  5
92
330
2
100
AcDbSymbolTableRecord
100
AcDbLayerTableRecord
  2
89
 70
     0
 62
    89
  6
CONTINUOUS
  0
LAYER
  5
93
330
2
100
AcDbSymbolTableRecord
100
AcDbLayerTableRecord
  2
90
 70
     0
 62
    90
  6
CONTINUOUS
  0
LAYER
  5
94
330
2
100
AcDbSymbolTableRecord
100
AcDbLayerTableRecord
  2
91
 70
     0
 62
    91
  6
CONTINUOUS
  0
LAYER
  5
95
330
2
100
AcDbSymbolTableRecord
100
AcDbLayerTableRecord
  2
92
 70
     0
 62
    92
  6
CONTINUOUS
  0
LAYER
  5
96
330
2
100
AcDbSymbolTableRecord
100
AcDbLayerTableRecord
  2
93
 70
     0
 62
    93
  6
CONTINUOUS
  0
LAYER
  5
97
330
2
100
AcDbSymbolTableRecord
100
AcDbLayerTableRecord
  2
94
 70
     0
 62
    94
  6
CONTINUOUS
  0
LAYER
  5
98
330
2
100
AcDbSymbolTableRecord
100
AcDbLayerTableRecord
  2
95
 70
     0
 62
    95
  6
CONTINUOUS
  0
LAYER
  5
99
330
2
100
AcDbSymbolTableRecord
100
AcDbLayerTableRecord
  2
96
 70
     0
 62
    96
  6
CONTINUOUS
  0
LAYER
  5
9A
330
2
100
AcDbSymbolTableRecord
100
AcDbLayerTableRecord
  2
97
 70
     0
 62
    97
  6
CONTINUOUS
  0
LAYER
  5
9B
330
2
100
AcDbSymbolTableRecord
100
AcDbLayerTableRecord
  2
98
 70
     0
 62
    98
  6
CONTINUOUS
  0
LAYER
  5
9C
330
2
100
AcDbSymbolTableRecord
100
AcDbLayerTableRecord
  2
99
 70
     0
 62
    99
  6
CONTINUOUS
  0
LAYER
  5
9D
330
2
100
AcDbSymbolTableRecord
100
AcDbLayerTableRecord
  2
100
 70
     0
 62
   100
  6
CONTINUOUS
  0
LAYER
  5
9E
330
2
100
AcDbSymbolTableRecord
100
AcDbLayerTableRecord
  2
101
 70
     0
 62
   101
  6
CONTINUOUS
  0
LAYER
  5
9F
330
2
100
AcDbSymbolTableRecord
100
AcDbLayerTableRecord
  2
102
 70
     0
 62
   102
  6
CONTINUOUS
  0
LAYER
  5
A0
330
2
100
AcDbSymbolTableRecord
100
AcDbLayerTableRecord
  2
103
 70
     0
 62
   103
  6
CONTINUOUS
  0
LAYER
  5
A1
330
2
100
AcDbSymbolTableRecord
100
AcDbLayerTableRecord
  2
104
 70
     0
 62
   104
  6
CONTINUOUS
  0
LAYER
  5
A2
330
2
100
AcDbSymbolTableRecord
100
AcDbLayerTableRecord
  2
105
 70
     0
 62
   105
  6
CONTINUOUS
  0
LAYER
  5
A3
330
2
100
AcDbSymbolTableRecord
100
AcDbLayerTableRecord
  2
106
 70
     0
 62
   106
  6
CONTINUOUS
  0
LAYER
  5
A4
330
2
100
AcDbSymbolTableRecord
100
AcDbLayerTableRecord
  2
107
 70
     0
 62
   107
  6
CONTINUOUS
  0
LAYER
  5
A5
330
2
100
AcDbSymbolTableRecord
100
AcDbLayerTableRecord
  2
108
 70
     0
 62
   108
  6
CONTINUOUS
  0
LAYER
  5
A6
330
2
100
AcDbSymbolTableRecord
100
AcDbLayerTableRecord
  2
109
 70
     0
 62
   109
  6
CONTINUOUS
  0
LAYER
  5
A7
330
2
100
AcDbSymbolTableRecord
100
AcDbLayerTableRecord
  2
110
 70
     0
 62
   110
  6
CONTINUOUS
  0
LAYER
  5
A8
330
2
100
AcDbSymbolTableRecord
100
AcDbLayerTableRecord
  2
111
 70
     0
 62
   111
  6
CONTINUOUS
  0
LAYER
  5
A9
330
2
100
AcDbSymbolTableRecord
100
AcDbLayerTableRecord
  2
112
 70
     0
 62
   112
  6
CONTINUOUS
  0
LAYER
  5
AA
330
2
100
AcDbSymbolTableRecord
100
AcDbLayerTableRecord
  2
113
 70
     0
 62
   113
  6
CONTINUOUS
  0
LAYER
  5
AB
330
2
100
AcDbSymbolTableRecord
100
AcDbLayerTableRecord
  2
114
 70
     0
 62
   114
  6
CONTINUOUS
  0
LAYER
  5
AC
330
2
100
AcDbSymbolTableRecord
100
AcDbLayerTableRecord
  2
115
 70
     0
 62
   115
  6
CONTINUOUS
  0
LAYER
  5
AD
330
2
100
AcDbSymbolTableRecord
100
AcDbLayerTableRecord
  2
116
 70
     0
 62
   116
  6
CONTINUOUS
  0
LAYER
  5
AE
330
2
100
AcDbSymbolTableRecord
100
AcDbLayerTableRecord
  2
117
 70
     0
 62
   117
  6
CONTINUOUS
  0
LAYER
  5
AF
330
2
100
AcDbSymbolTableRecord
100
AcDbLayerTableRecord
  2
118
 70
     0
 62
   118
  6
CONTINUOUS
  0
LAYER
  5
B0
330
2
100
AcDbSymbolTableRecord
100
AcDbLayerTableRecord
  2
119
 70
     0
 62
   119
  6
CONTINUOUS
  0
LAYER
  5
B1
330
2
100
AcDbSymbolTableRecord
100
AcDbLayerTableRecord
  2
120
 70
     0
 62
   120
  6
CONTINUOUS
  0
LAYER
  5
B2
330
2
100
AcDbSymbolTableRecord
100
AcDbLayerTableRecord
  2
121
 70
     0
 62
   121
  6
CONTINUOUS
  0
LAYER
  5
B3
330
2
100
AcDbSymbolTableRecord
100
AcDbLayerTableRecord
  2
122
 70
     0
 62
   122
  6
CONTINUOUS
  0
LAYER
  5
B4
330
2
100
AcDbSymbolTableRecord
100
AcDbLayerTableRecord
  2
123
 70
     0
 62
   123
  6
CONTINUOUS
  0
LAYER
  5
B5
330
2
100
AcDbSymbolTableRecord
100
AcDbLayerTableRecord
  2
124
 70
     0
 62
   124
  6
CONTINUOUS
  0
LAYER
  5
B6
330
2
100
AcDbSymbolTableRecord
100
AcDbLayerTableRecord
  2
125
 70
     0
 62
   125
  6
CONTINUOUS
  0
LAYER
  5
B7
330
2
100
AcDbSymbolTableRecord
100
AcDbLayerTableRecord
  2
126
 70
     0
 62
   126
  6
CONTINUOUS
  0
LAYER
  5
B8
330
2
100
AcDbSymbolTableRecord
100
AcDbLayerTableRecord
  2
127
 70
     0
 62
   127
  6
CONTINUOUS
  0
LAYER
  5
B9
330
2
100
AcDbSymbolTableRecord
100
AcDbLayerTableRecord
  2
128
 70
     0
 62
   128
  6
CONTINUOUS
  0
LAYER
  5
BA
330
2
100
AcDbSymbolTableRecord
100
AcDbLayerTableRecord
  2
129
 70
     0
 62
   129
  6
CONTINUOUS
  0
LAYER
  5
BB
330
2
100
AcDbSymbolTableRecord
100
AcDbLayerTableRecord
  2
130
 70
     0
 62
   130
  6
CONTINUOUS
  0
LAYER
  5
BC
330
2
100
AcDbSymbolTableRecord
100
AcDbLayerTableRecord
  2
131
 70
     0
 62
   131
  6
CONTINUOUS
  0
LAYER
  5
BD
330
2
100
AcDbSymbolTableRecord
100
AcDbLayerTableRecord
  2
132
 70
     0
 62
   132
  6
CONTINUOUS
  0
LAYER
  5
BE
330
2
100
AcDbSymbolTableRecord
100
AcDbLayerTableRecord
  2
133
 70
     0
 62
   133
  6
CONTINUOUS
  0
LAYER
  5
BF
330
2
100
AcDbSymbolTableRecord
100
AcDbLayerTableRecord
  2
134
 70
     0
 62
   134
  6
CONTINUOUS
  0
LAYER
  5
C0
330
2
100
AcDbSymbolTableRecord
100
AcDbLayerTableRecord
  2
135
 70
     0
 62
   135
  6
CONTINUOUS
  0
LAYER
  5
C1
330
2
100
AcDbSymbolTableRecord
100
AcDbLayerTableRecord
  2
136
 70
     0
 62
   136
  6
CONTINUOUS
  0
LAYER
  5
C2
330
2
100
AcDbSymbolTableRecord
100
AcDbLayerTableRecord
  2
137
 70
     0
 62
   137
  6
CONTINUOUS
  0
LAYER
  5
C3
330
2
100
AcDbSymbolTableRecord
100
AcDbLayerTableRecord
  2
138
 70
     0
 62
   138
  6
CONTINUOUS
  0
LAYER
  5
C4
330
2
100
AcDbSymbolTableRecord
100
AcDbLayerTableRecord
  2
139
 70
     0
 62
   139
  6
CONTINUOUS
  0
LAYER
  5
C5
330
2
100
AcDbSymbolTableRecord
100
AcDbLayerTableRecord
  2
140
 70
     0
 62
   140
  6
CONTINUOUS
  0
LAYER
  5
C6
330
2
100
AcDbSymbolTableRecord
100
AcDbLayerTableRecord
  2
141
 70
     0
 62
   141
  6
CONTINUOUS
  0
LAYER
  5
C7
330
2
100
AcDbSymbolTableRecord
100
AcDbLayerTableRecord
  2
142
 70
     0
 62
   142
  6
CONTINUOUS
  0
LAYER
  5
C8
330
2
100
AcDbSymbolTableRecord
100
AcDbLayerTableRecord
  2
143
 70
     0
 62
   143
  6
CONTINUOUS
  0
LAYER
  5
C9
330
2
100
AcDbSymbolTableRecord
100
AcDbLayerTableRecord
  2
144
 70
     0
 62
   144
  6
CONTINUOUS
  0
LAYER
  5
CA
330
2
100
AcDbSymbolTableRecord
100
AcDbLayerTableRecord
  2
145
 70
     0
 62
   145
  6
CONTINUOUS
  0
LAYER
  5
CB
330
2
100
AcDbSymbolTableRecord
100
AcDbLayerTableRecord
  2
146
 70
     0
 62
   146
  6
CONTINUOUS
  0
LAYER
  5
CC
330
2
100
AcDbSymbolTableRecord
100
AcDbLayerTableRecord
  2
147
 70
     0
 62
   147
  6
CONTINUOUS
  0
LAYER
  5
CD
330
2
100
AcDbSymbolTableRecord
100
AcDbLayerTableRecord
  2
148
 70
     0
 62
   148
  6
CONTINUOUS
  0
LAYER
  5
CE
330
2
100
AcDbSymbolTableRecord
100
AcDbLayerTableRecord
  2
149
 70
     0
 62
   149
  6
CONTINUOUS
  0
LAYER
  5
CF
330
2
100
AcDbSymbolTableRecord
100
AcDbLayerTableRecord
  2
150
 70
     0
 62
   150
  6
CONTINUOUS
  0
LAYER
  5
D0
330
2
100
AcDbSymbolTableRecord
100
AcDbLayerTableRecord
  2
151
 70
     0
 62
   151
  6
CONTINUOUS
  0
LAYER
  5
D1
330
2
100
AcDbSymbolTableRecord
100
AcDbLayerTableRecord
  2
152
 70
     0
 62
   152
  6
CONTINUOUS
  0
LAYER
  5
D2
330
2
100
AcDbSymbolTableRecord
100
AcDbLayerTableRecord
  2
153
 70
     0
 62
   153
  6
CONTINUOUS
  0
LAYER
  5
D3
330
2
100
AcDbSymbolTableRecord
100
AcDbLayerTableRecord
  2
154
 70
     0
 62
   154
  6
CONTINUOUS
  0
LAYER
  5
D4
330
2
100
AcDbSymbolTableRecord
100
AcDbLayerTableRecord
  2
155
 70
     0
 62
   155
  6
CONTINUOUS
  0
LAYER
  5
D5
330
2
100
AcDbSymbolTableRecord
100
AcDbLayerTableRecord
  2
156
 70
     0
 62
   156
  6
CONTINUOUS
  0
LAYER
  5
D6
330
2
100
AcDbSymbolTableRecord
100
AcDbLayerTableRecord
  2
157
 70
     0
 62
   157
  6
CONTINUOUS
  0
LAYER
  5
D7
330
2
100
AcDbSymbolTableRecord
100
AcDbLayerTableRecord
  2
158
 70
     0
 62
   158
  6
CONTINUOUS
  0
LAYER
  5
D8
330
2
100
AcDbSymbolTableRecord
100
AcDbLayerTableRecord
  2
159
 70
     0
 62
   159
  6
CONTINUOUS
  0
LAYER
  5
D9
330
2
100
AcDbSymbolTableRecord
100
AcDbLayerTableRecord
  2
160
 70
     0
 62
   160
  6
CONTINUOUS
  0
LAYER
  5
DA
330
2
100
AcDbSymbolTableRecord
100
AcDbLayerTableRecord
  2
161
 70
     0
 62
   161
  6
CONTINUOUS
  0
LAYER
  5
DB
330
2
100
AcDbSymbolTableRecord
100
AcDbLayerTableRecord
  2
162
 70
     0
 62
   162
  6
CONTINUOUS
  0
LAYER
  5
DC
330
2
100
AcDbSymbolTableRecord
100
AcDbLayerTableRecord
  2
163
 70
     0
 62
   163
  6
CONTINUOUS
  0
LAYER
  5
DD
330
2
100
AcDbSymbolTableRecord
100
AcDbLayerTableRecord
  2
164
 70
     0
 62
   164
  6
CONTINUOUS
  0
LAYER
  5
DE
330
2
100
AcDbSymbolTableRecord
100
AcDbLayerTableRecord
  2
165
 70
     0
 62
   165
  6
CONTINUOUS
  0
LAYER
  5
DF
330
2
100
AcDbSymbolTableRecord
100
AcDbLayerTableRecord
  2
166
 70
     0
 62
   166
  6
CONTINUOUS
  0
LAYER
  5
E0
330
2
100
AcDbSymbolTableRecord
100
AcDbLayerTableRecord
  2
167
 70
     0
 62
   167
  6
CONTINUOUS
  0
LAYER
  5
E1
330
2
100
AcDbSymbolTableRecord
100
AcDbLayerTableRecord
  2
168
 70
     0
 62
   168
  6
CONTINUOUS
  0
LAYER
  5
E2
330
2
100
AcDbSymbolTableRecord
100
AcDbLayerTableRecord
  2
169
 70
     0
 62
   169
  6
CONTINUOUS
  0
LAYER
  5
E3
330
2
100
AcDbSymbolTableRecord
100
AcDbLayerTableRecord
  2
170
 70
     0
 62
   170
  6
CONTINUOUS
  0
LAYER
  5
E4
330
2
100
AcDbSymbolTableRecord
100
AcDbLayerTableRecord
  2
171
 70
     0
 62
   171
  6
CONTINUOUS
  0
LAYER
  5
E5
330
2
100
AcDbSymbolTableRecord
100
AcDbLayerTableRecord
  2
172
 70
     0
 62
   172
  6
CONTINUOUS
  0
LAYER
  5
E6
330
2
100
AcDbSymbolTableRecord
100
AcDbLayerTableRecord
  2
173
 70
     0
 62
   173
  6
CONTINUOUS
  0
LAYER
  5
E7
330
2
100
AcDbSymbolTableRecord
100
AcDbLayerTableRecord
  2
174
 70
     0
 62
   174
  6
CONTINUOUS
  0
LAYER
  5
E8
330
2
100
AcDbSymbolTableRecord
100
AcDbLayerTableRecord
  2
175
 70
     0
 62
   175
  6
CONTINUOUS
  0
LAYER
  5
E9
330
2
100
AcDbSymbolTableRecord
100
AcDbLayerTableRecord
  2
176
 70
     0
 62
   176
  6
CONTINUOUS
  0
LAYER
  5
EA
330
2
100
AcDbSymbolTableRecord
100
AcDbLayerTableRecord
  2
177
 70
     0
 62
   177
  6
CONTINUOUS
  0
LAYER
  5
EB
330
2
100
AcDbSymbolTableRecord
100
AcDbLayerTableRecord
  2
178
 70
     0
 62
   178
  6
CONTINUOUS
  0
LAYER
  5
EC
330
2
100
AcDbSymbolTableRecord
100
AcDbLayerTableRecord
  2
179
 70
     0
 62
   179
  6
CONTINUOUS
  0
LAYER
  5
ED
330
2
100
AcDbSymbolTableRecord
100
AcDbLayerTableRecord
  2
180
 70
     0
 62
   180
  6
CONTINUOUS
  0
LAYER
  5
EE
330
2
100
AcDbSymbolTableRecord
100
AcDbLayerTableRecord
  2
181
 70
     0
 62
   181
  6
CONTINUOUS
  0
LAYER
  5
EF
330
2
100
AcDbSymbolTableRecord
100
AcDbLayerTableRecord
  2
182
 70
     0
 62
   182
  6
CONTINUOUS
  0
LAYER
  5
F0
330
2
100
AcDbSymbolTableRecord
100
AcDbLayerTableRecord
  2
183
 70
     0
 62
   183
  6
CONTINUOUS
  0
LAYER
  5
F1
330
2
100
AcDbSymbolTableRecord
100
AcDbLayerTableRecord
  2
184
 70
     0
 62
   184
  6
CONTINUOUS
  0
LAYER
  5
F2
330
2
100
AcDbSymbolTableRecord
100
AcDbLayerTableRecord
  2
185
 70
     0
 62
   185
  6
CONTINUOUS
  0
LAYER
  5
F3
330
2
100
AcDbSymbolTableRecord
100
AcDbLayerTableRecord
  2
186
 70
     0
 62
   186
  6
CONTINUOUS
  0
LAYER
  5
F4
330
2
100
AcDbSymbolTableRecord
100
AcDbLayerTableRecord
  2
187
 70
     0
 62
   187
  6
CONTINUOUS
  0
LAYER
  5
F5
330
2
100
AcDbSymbolTableRecord
100
AcDbLayerTableRecord
  2
188
 70
     0
 62
   188
  6
CONTINUOUS
  0
LAYER
  5
F6
330
2
100
AcDbSymbolTableRecord
100
AcDbLayerTableRecord
  2
189
 70
     0
 62
   189
  6
CONTINUOUS
  0
LAYER
  5
F7
330
2
100
AcDbSymbolTableRecord
100
AcDbLayerTableRecord
  2
190
 70
     0
 62
   190
  6
CONTINUOUS
  0
LAYER
  5
F8
330
2
100
AcDbSymbolTableRecord
100
AcDbLayerTableRecord
  2
191
 70
     0
 62
   191
  6
CONTINUOUS
  0
LAYER
  5
F9
330
2
100
AcDbSymbolTableRecord
100
AcDbLayerTableRecord
  2
192
 70
     0
 62
   192
  6
CONTINUOUS
  0
LAYER
  5
FA
330
2
100
AcDbSymbolTableRecord
100
AcDbLayerTableRecord
  2
193
 70
     0
 62
   193
  6
CONTINUOUS
  0
LAYER
  5
FB
330
2
100
AcDbSymbolTableRecord
100
AcDbLayerTableRecord
  2
194
 70
     0
 62
   194
  6
CONTINUOUS
  0
LAYER
  5
FC
330
2
100
AcDbSymbolTableRecord
100
AcDbLayerTableRecord
  2
195
 70
     0
 62
   195
  6
CONTINUOUS
  0
LAYER
  5
FD
330
2
100
AcDbSymbolTableRecord
100
AcDbLayerTableRecord
  2
196
 70
     0
 62
   196
  6
CONTINUOUS
  0
LAYER
  5
FE
330
2
100
AcDbSymbolTableRecord
100
AcDbLayerTableRecord
  2
197
 70
     0
 62
   197
  6
CONTINUOUS
  0
LAYER
  5
FF
330
2
100
AcDbSymbolTableRecord
100
AcDbLayerTableRecord
  2
198
 70
     0
 62
   198
  6
CONTINUOUS
  0
LAYER
  5
100
330
2
100
AcDbSymbolTableRecord
100
AcDbLayerTableRecord
  2
199
 70
     0
 62
   199
  6
CONTINUOUS
  0
LAYER
  5
101
330
2
100
AcDbSymbolTableRecord
100
AcDbLayerTableRecord
  2
200
 70
     0
 62
   200
  6
CONTINUOUS
  0
LAYER
  5
102
330
2
100
AcDbSymbolTableRecord
100
AcDbLayerTableRecord
  2
201
 70
     0
 62
   201
  6
CONTINUOUS
  0
LAYER
  5
103
330
2
100
AcDbSymbolTableRecord
100
AcDbLayerTableRecord
  2
202
 70
     0
 62
   202
  6
CONTINUOUS
  0
LAYER
  5
104
330
2
100
AcDbSymbolTableRecord
100
AcDbLayerTableRecord
  2
203
 70
     0
 62
   203
  6
CONTINUOUS
  0
LAYER
  5
105
330
2
100
AcDbSymbolTableRecord
100
AcDbLayerTableRecord
  2
204
 70
     0
 62
   204
  6
CONTINUOUS
  0
LAYER
  5
106
330
2
100
AcDbSymbolTableRecord
100
AcDbLayerTableRecord
  2
205
 70
     0
 62
   205
  6
CONTINUOUS
  0
LAYER
  5
107
330
2
100
AcDbSymbolTableRecord
100
AcDbLayerTableRecord
  2
206
 70
     0
 62
   206
  6
CONTINUOUS
  0
LAYER
  5
108
330
2
100
AcDbSymbolTableRecord
100
AcDbLayerTableRecord
  2
207
 70
     0
 62
   207
  6
CONTINUOUS
  0
LAYER
  5
109
330
2
100
AcDbSymbolTableRecord
100
AcDbLayerTableRecord
  2
208
 70
     0
 62
   208
  6
CONTINUOUS
  0
LAYER
  5
10A
330
2
100
AcDbSymbolTableRecord
100
AcDbLayerTableRecord
  2
209
 70
     0
 62
   209
  6
CONTINUOUS
  0
LAYER
  5
10B
330
2
100
AcDbSymbolTableRecord
100
AcDbLayerTableRecord
  2
210
 70
     0
 62
   210
  6
CONTINUOUS
  0
LAYER
  5
10C
330
2
100
AcDbSymbolTableRecord
100
AcDbLayerTableRecord
  2
211
 70
     0
 62
   211
  6
CONTINUOUS
  0
LAYER
  5
10D
330
2
100
AcDbSymbolTableRecord
100
AcDbLayerTableRecord
  2
212
 70
     0
 62
   212
  6
CONTINUOUS
  0
LAYER
  5
10E
330
2
100
AcDbSymbolTableRecord
100
AcDbLayerTableRecord
  2
213
 70
     0
 62
   213
  6
CONTINUOUS
  0
LAYER
  5
10F
330
2
100
AcDbSymbolTableRecord
100
AcDbLayerTableRecord
  2
214
 70
     0
 62
   214
  6
CONTINUOUS
  0
LAYER
  5
110
330
2
100
AcDbSymbolTableRecord
100
AcDbLayerTableRecord
  2
215
 70
     0
 62
   215
  6
CONTINUOUS
  0
LAYER
  5
111
330
2
100
AcDbSymbolTableRecord
100
AcDbLayerTableRecord
  2
216
 70
     0
 62
   216
  6
CONTINUOUS
  0
LAYER
  5
112
330
2
100
AcDbSymbolTableRecord
100
AcDbLayerTableRecord
  2
217
 70
     0
 62
   217
  6
CONTINUOUS
  0
LAYER
  5
113
330
2
100
AcDbSymbolTableRecord
100
AcDbLayerTableRecord
  2
218
 70
     0
 62
   218
  6
CONTINUOUS
  0
LAYER
  5
114
330
2
100
AcDbSymbolTableRecord
100
AcDbLayerTableRecord
  2
219
 70
     0
 62
   219
  6
CONTINUOUS
  0
LAYER
  5
115
330
2
100
AcDbSymbolTableRecord
100
AcDbLayerTableRecord
  2
220
 70
     0
 62
   220
  6
CONTINUOUS
  0
LAYER
  5
116
330
2
100
AcDbSymbolTableRecord
100
AcDbLayerTableRecord
  2
221
 70
     0
 62
   221
  6
CONTINUOUS
  0
LAYER
  5
117
330
2
100
AcDbSymbolTableRecord
100
AcDbLayerTableRecord
  2
222
 70
     0
 62
   222
  6
CONTINUOUS
  0
LAYER
  5
118
330
2
100
AcDbSymbolTableRecord
100
AcDbLayerTableRecord
  2
223
 70
     0
 62
   223
  6
CONTINUOUS
  0
LAYER
  5
119
330
2
100
AcDbSymbolTableRecord
100
AcDbLayerTableRecord
  2
224
 70
     0
 62
   224
  6
CONTINUOUS
  0
LAYER
  5
11A
330
2
100
AcDbSymbolTableRecord
100
AcDbLayerTableRecord
  2
225
 70
     0
 62
   225
  6
CONTINUOUS
  0
LAYER
  5
11B
330
2
100
AcDbSymbolTableRecord
100
AcDbLayerTableRecord
  2
226
 70
     0
 62
   226
  6
CONTINUOUS
  0
LAYER
  5
11C
330
2
100
AcDbSymbolTableRecord
100
AcDbLayerTableRecord
  2
227
 70
     0
 62
   227
  6
CONTINUOUS
  0
LAYER
  5
11D
330
2
100
AcDbSymbolTableRecord
100
AcDbLayerTableRecord
  2
228
 70
     0
 62
   228
  6
CONTINUOUS
  0
LAYER
  5
11E
330
2
100
AcDbSymbolTableRecord
100
AcDbLayerTableRecord
  2
229
 70
     0
 62
   229
  6
CONTINUOUS
  0
LAYER
  5
11F
330
2
100
AcDbSymbolTableRecord
100
AcDbLayerTableRecord
  2
230
 70
     0
 62
   230
  6
CONTINUOUS
  0
LAYER
  5
120
330
2
100
AcDbSymbolTableRecord
100
AcDbLayerTableRecord
  2
231
 70
     0
 62
   231
  6
CONTINUOUS
  0
LAYER
  5
121
330
2
100
AcDbSymbolTableRecord
100
AcDbLayerTableRecord
  2
232
 70
     0
 62
   232
  6
CONTINUOUS
  0
LAYER
  5
122
330
2
100
AcDbSymbolTableRecord
100
AcDbLayerTableRecord
  2
233
 70
     0
 62
   233
  6
CONTINUOUS
  0
LAYER
  5
123
330
2
100
AcDbSymbolTableRecord
100
AcDbLayerTableRecord
  2
234
 70
     0
 62
   234
  6
CONTINUOUS
  0
LAYER
  5
124
330
2
100
AcDbSymbolTableRecord
100
AcDbLayerTableRecord
  2
235
 70
     0
 62
   235
  6
CONTINUOUS
  0
LAYER
  5
125
330
2
100
AcDbSymbolTableRecord
100
AcDbLayerTableRecord
  2
236
 70
     0
 62
   236
  6
CONTINUOUS
  0
LAYER
  5
126
330
2
100
AcDbSymbolTableRecord
100
AcDbLayerTableRecord
  2
237
 70
     0
 62
   237
  6
CONTINUOUS
  0
LAYER
  5
127
330
2
100
AcDbSymbolTableRecord
100
AcDbLayerTableRecord
  2
238
 70
     0
 62
   238
  6
CONTINUOUS
  0
LAYER
  5
128
330
2
100
AcDbSymbolTableRecord
100
AcDbLayerTableRecord
  2
239
 70
     0
 62
   239
  6
CONTINUOUS
  0
LAYER
  5
129
330
2
100
AcDbSymbolTableRecord
100
AcDbLayerTableRecord
  2
240
 70
     0
 62
   240
  6
CONTINUOUS
  0
LAYER
  5
12A
330
2
100
AcDbSymbolTableRecord
100
AcDbLayerTableRecord
  2
241
 70
     0
 62
   241
  6
CONTINUOUS
  0
LAYER
  5
12B
330
2
100
AcDbSymbolTableRecord
100
AcDbLayerTableRecord
  2
242
 70
     0
 62
   242
  6
CONTINUOUS
  0
LAYER
  5
12C
330
2
100
AcDbSymbolTableRecord
100
AcDbLayerTableRecord
  2
243
 70
     0
 62
   243
  6
CONTINUOUS
  0
LAYER
  5
12D
330
2
100
AcDbSymbolTableRecord
100
AcDbLayerTableRecord
  2
244
 70
     0
 62
   244
  6
CONTINUOUS
  0
LAYER
  5
12E
330
2
100
AcDbSymbolTableRecord
100
AcDbLayerTableRecord
  2
245
 70
     0
 62
   245
  6
CONTINUOUS
  0
LAYER
  5
12F
330
2
100
AcDbSymbolTableRecord
100
AcDbLayerTableRecord
  2
246
 70
     0
 62
   246
  6
CONTINUOUS
  0
LAYER
  5
130
330
2
100
AcDbSymbolTableRecord
100
AcDbLayerTableRecord
  2
247
 70
     0
 62
   247
  6
CONTINUOUS
  0
LAYER
  5
131
330
2
100
AcDbSymbolTableRecord
100
AcDbLayerTableRecord
  2
248
 70
     0
 62
   248
  6
CONTINUOUS
  0
LAYER
  5
132
330
2
100
AcDbSymbolTableRecord
100
AcDbLayerTableRecord
  2
249
 70
     0
 62
   249
  6
CONTINUOUS
  0
LAYER
  5
133
330
2
100
AcDbSymbolTableRecord
100
AcDbLayerTableRecord
  2
250
 70
     0
 62
   250
  6
CONTINUOUS
  0
LAYER
  5
134
330
2
100
AcDbSymbolTableRecord
100
AcDbLayerTableRecord
  2
251
 70
     0
 62
   251
  6
CONTINUOUS
  0
LAYER
  5
135
330
2
100
AcDbSymbolTableRecord
100
AcDbLayerTableRecord
  2
252
 70
     0
 62
   252
  6
CONTINUOUS
  0
LAYER
  5
136
330
2
100
AcDbSymbolTableRecord
100
AcDbLayerTableRecord
  2
253
 70
     0
 62
   253
  6
CONTINUOUS
  0
LAYER
  5
137
330
2
100
AcDbSymbolTableRecord
100
AcDbLayerTableRecord
  2
254
 70
     0
 62
   254
  6
CONTINUOUS
  0
LAYER
  5
138
330
2
100
AcDbSymbolTableRecord
100
AcDbLayerTableRecord
  2
255
 70
     0
 62
   255
  6
CONTINUOUS
  0
LAYER
  5
4856
330
2
100
AcDbSymbolTableRecord
100
AcDbLayerTableRecord
  2
DEFPOINTS
 70
     0
 62
     7
  6
CONTINUOUS
  0
ENDTAB
  0
TABLE
  2
STYLE
  5
3
330
0
100
AcDbSymbolTable
 70
     1
  0
STYLE
  5
11
330
3
100
AcDbSymbolTableRecord
100
AcDbTextStyleTableRecord
  2
STANDARD
 70
     0
 40
0.0
 41
1.0
 50
0.0
 71
     0
 42
0.2
  3
monotxt
  4

  0
ENDTAB
  0
TABLE
  2
VIEW
  5
6
330
0
100
AcDbSymbolTable
 70
     0
  0
ENDTAB
  0
TABLE
  2
UCS
  5
7
330
0
100
AcDbSymbolTable
 70
     0
  0
ENDTAB
  0
TABLE
  2
APPID
  5
9
330
0
100
AcDbSymbolTable
 70
     1
  0
APPID
  5
12
330
9
100
AcDbSymbolTableRecord
100
AcDbRegAppTableRecord
  2
ACAD
 70
     0
  0
ENDTAB
  0
TABLE
  2
DIMSTYLE
  5
A
330
0
100
AcDbSymbolTable
 70
     1
  0
DIMSTYLE
105
3293
330
A
100
AcDbSymbolTableRecord
100
AcDbDimStyleTableRecord
  2
STANDARD
 70
     0
  3

  4

  5

  6

  7

 40
1.0
 41
0.18
 42
0.0625
 43
0.38
 44
0.18
 45
0.0
 46
0.0
 47
0.0
 48
0.0
140
0.18
141
0.09
142
0.0
143
25.4
144
1.0
145
0.0
146
1.0
147
0.09
 71
     0
 72
     0
 73
     1
 74
     1
 75
     0
 76
     0
 77
     0
 78
     0
170
     0
171
     2
172
     0
173
     0
174
     0
175
     0
176
     0
177
     0
178
     0
270
     2
271
     4
272
     4
273
     2
274
     2
340
11
275
     0
280
     0
281
     0
282
     0
283
     1
284
     0
285
     0
286
     0
287
     3
288
     0
  0
ENDTAB
  0
TABLE
  2
BLOCK_RECORD
  5
1
330
0
100
AcDbSymbolTable
 70
     1
  0
BLOCK_RECORD
  5
1E
102
{ACAD_XDICTIONARY
360
4879
102
}
330
1
100
AcDbSymbolTableRecord
100
AcDbBlockTableRecord
  2
*MODEL_SPACE
  0
BLOCK_RECORD
  5
1A
102
{ACAD_XDICTIONARY
360
487B
102
}
330
1
100
AcDbSymbolTableRecord
100
AcDbBlockTableRecord
  2
*PAPER_SPACE
  0
ENDTAB
  0
ENDSEC
  0
SECTION
  2
BLOCKS
  0
BLOCK
  5
13B
330
1E
100
AcDbEntity
  8
0
100
AcDbBlockBegin
  2
*MODEL_SPACE
 70
     0
 10
0.0
 20
0.0
 30
0.0
  3
*MODEL_SPACE
  1

  0
ENDBLK
  5
13C
330
1E
100
AcDbEntity
  8
0
100
AcDbBlockEnd
  0
BLOCK
  5
139
330
1A
100
AcDbEntity
 67
     1
  8
0
100
AcDbBlockBegin
  2
*PAPER_SPACE
 70
     0
 10
0.0
 20
0.0
 30
0.0
  3
*PAPER_SPACE
  1

  0
ENDBLK
  5
13A
330
1A
100
AcDbEntity
 67
     1
  8
0
100
AcDbBlockEnd
  0
ENDSEC
  0
SECTION
  2
ENTITIES
  0
LINE
  5
2C9D
330
1E
100
AcDbEntity
  8
7
100
AcDbLine
 10
1.484722032243318
 20
9.675308743860508
 30
0.0
 11
1.504407071613396
 21
9.675308743860508
 31
0.0
  0
LINE
  5
2CA3
330
1E
100
AcDbEntity
  8
7
100
AcDbLine
 10
1.268186599172452
 20
9.675308743860508
 30
0.0
 11
1.291808646416548
 21
9.675308743860508
 31
0.0
  0
LINE
  5
2CA4
330
1E
100
AcDbEntity
  8
7
100
AcDbLine
 10
0.8981078590149706
 20
9.675308743860508
 30
0.0
 11
0.9217299062590669
 21
9.675308743860508
 31
0.0
  0
LINE
  5
2CA5
330
1E
100
AcDbEntity
  8
7
100
AcDbLine
 10
0.9217299062590669
 20
9.675308743860508
 30
0.0
 11
0.8981078590149706
 21
9.675308743860508
 31
0.0
  0
LINE
  5
2CA6
330
1E
100
AcDbEntity
  8
7
100
AcDbLine
 10
0.9768480164952855
 20
9.675308743860508
 30
0.0
 11
1.024092110983477
 21
9.675308743860508
 31
0.0
  0
LINE
  5
2CA7
330
1E
100
AcDbEntity
  8
7
100
AcDbLine
 10
1.484722032243318
 20
9.675308743860508
 30
0.0
 11
1.504407071613396
 21
9.675308743860508
 31
0.0
  0
LINE
  5
2CA8
330
1E
100
AcDbEntity
  8
7
100
AcDbLine
 10
0.8823598275189095
 20
9.675308743860508
 30
0.0
 11
1.614643292085837
 21
9.675308743860508
 31
0.0
  0
LINE
  5
2CA9
330
1E
100
AcDbEntity
  8
7
100
AcDbLine
 10
1.327241717282689
 20
9.675308743860508
 30
0.0
 11
1.346926756652766
 21
9.675308743860508
 31
0.0
  0
LINE
  5
2CAA
330
1E
100
AcDbEntity
  8
7
100
AcDbLine
 10
0.8981078590149706
 20
9.675308743860508
 30
0.0
 11
0.8311787251567057
 21
9.675308743860508
 31
0.0
  0
LINE
  5
2CAB
330
1E
100
AcDbEntity
  8
7
100
AcDbLine
 10
1.346926756652766
 20
9.675308743860508
 30
0.0
 11
1.394170851140955
 21
9.675308743860508
 31
0.0
  0
LINE
  5
2CAC
330
1E
100
AcDbEntity
  8
7
100
AcDbLine
 10
1.291808646416548
 20
9.675308743860508
 30
0.0
 11
1.268186599172452
 21
9.675308743860508
 31
0.0
  0
LINE
  5
2CAD
330
1E
100
AcDbEntity
  8
7
100
AcDbLine
 10
1.000470063739381
 20
9.675308743860508
 30
0.0
 11
1.043777150353555
 21
9.675308743860508
 31
0.0
  0
LINE
  5
2CAE
330
1E
100
AcDbEntity
  8
7
100
AcDbLine
 10
1.614643292085837
 20
9.675308743860508
 30
0.0
 11
0.8823598275189095
 21
9.675308743860508
 31
0.0
  0
LINE
  5
2CAF
330
1E
100
AcDbEntity
  8
7
100
AcDbLine
 10
0.8311787251567057
 20
9.675308743860508
 30
0.0
 11
0.8981078590149706
 21
9.675308743860508
 31
0.0
  0
LINE
  5
2CB0
330
1E
100
AcDbEntity
  8
7
100
AcDbLine
 10
0.9571629771252077
 20
9.675308743860508
 30
0.0
 11
1.000470063739381
 21
9.675308743860508
 31
0.0
  0
LINE
  5
2CB1
330
1E
100
AcDbEntity
  8
7
100
AcDbLine
 10
1.665824394448044
 20
9.675308743860508
 30
0.0
 11
1.575273213345681
 21
9.675308743860508
 31
0.0
  0
LINE
  5
2CB2
330
1E
100
AcDbEntity
  8
7
100
AcDbLine
 10
1.394170851140955
 20
9.675308743860508
 30
0.0
 11
1.417792898385052
 21
9.675308743860508
 31
0.0
  0
LINE
  5
2CB3
330
1E
100
AcDbEntity
  8
7
100
AcDbLine
 10
1.079210221219696
 20
9.675308743860508
 30
0.0
 11
1.169761402322059
 21
9.675308743860508
 31
0.0
  0
LINE
  5
2CC3
330
1E
100
AcDbEntity
  8
7
100
AcDbLine
 10
1.579210221219696
 20
10.08082055488413
 30
0.0
 11
9.626454315707885
 21
13.83278905882113
 31
0.0
  0
LINE
  5
2CC4
330
1E
100
AcDbEntity
  8
7
100
AcDbLine
 10
0.9138558905110336
 20
10.08082055488413
 30
0.0
 11
1.579210221219696
 21
10.08082055488413
 31
0.0
  0
LINE
  5
2CC5
330
1E
100
AcDbEntity
  8
7
100
AcDbLine
 10
0.9138558905110336
 20
10.08082055488413
 30
0.0
 11
-7.129451196103136
 21
13.83278905882113
 31
0.0
  0
LINE
  5
2CCB
330
1E
100
AcDbEntity
  8
7
100
AcDbLine
 10
-7.330238597677938
 20
13.53751346826995
 30
0.0
 11
-7.208191353583451
 21
13.80129299582901
 31
0.0
  0
LINE
  5
2CCC
330
1E
100
AcDbEntity
  8
7
100
AcDbLine
 10
-7.330238597677938
 20
13.53751346826995
 30
0.0
 11
0.7445645519283595
 21
9.773733940710901
 31
0.0
  0
LINE
  5
2CD2
330
1E
100
AcDbEntity
  8
7
100
AcDbLine
 10
0.7799976227945021
 20
9.765859924962871
 30
0.0
 11
1.713068488936233
 21
9.765859924962871
 31
0.0
  0
LINE
  5
2CD3
330
1E
100
AcDbEntity
  8
7
100
AcDbLine
 10
9.827241717282689
 20
13.53751346826995
 30
0.0
 11
9.846926756652766
 21
13.49026937378176
 31
0.0
  0
LINE
  5
2CD4
330
1E
100
AcDbEntity
  8
7
100
AcDbLine
 10
9.846926756652766
 20
13.49026937378176
 30
0.0
 11
9.862674788148829
 21
13.46271031866365
 31
0.0
  0
LINE
  5
2CE0
330
1E
100
AcDbEntity
  8
7
100
AcDbLine
 10
10.00440707161339
 20
13.58475756275814
 30
0.0
 11
10.02802911885749
 21
13.52963945252192
 31
0.0
  0
LINE
  5
2D0A
330
1E
100
AcDbEntity
  8
7
100
AcDbLine
 10
9.949288961377177
 20
13.56113551551405
 30
0.0
 11
9.97291100862127
 21
13.50995441315184
 31
0.0
  0
LINE
  5
2D1D
330
1E
100
AcDbEntity
  8
7
100
AcDbLine
 10
1.713068488936233
 20
9.675308743860508
 30
0.0
 11
0.7799976227945021
 21
9.675308743860508
 31
0.0
  0
LINE
  5
2D28
330
1E
100
AcDbEntity
  8
7
100
AcDbLine
 10
-7.558585054370851
 20
13.59263157850618
 30
0.0
 11
-8.188506314213372
 21
13.59263157850618
 31
0.0
  0
LINE
  5
2D29
330
1E
100
AcDbEntity
  8
7
100
AcDbLine
 10
-8.251498440197623
 20
13.53357646039594
 30
0.0
 11
-8.251498440197623
 21
13.59263157850618
 31
0.0
  0
LINE
  5
2D34
330
1E
100
AcDbEntity
  8
7
100
AcDbLine
 10
-7.534963007126759
 20
13.52963945252192
 30
0.0
 11
-7.507403952008647
 21
13.58475756275814
 31
0.0
  0
LINE
  5
2D62
330
1E
100
AcDbEntity
  8
7
100
AcDbLine
 10
0.7051944731882021
 20
9.691056775356571
 30
0.0
 11
-7.377482692166129
 21
13.46271031866365
 31
0.0
  0
LINE
  5
2D81
330
1E
100
AcDbEntity
  8
7
100
AcDbLine
 10
1.484722032243318
 20
2.269796932836886
 30
0.0
 11
1.504407071613396
 21
2.269796932836886
 31
0.0
  0
LINE
  5
2D82
330
1E
100
AcDbEntity
  8
7
100
AcDbLine
 10
1.268186599172452
 20
2.380033153309327
 30
0.0
 11
1.2051944731882
 21
2.380033153309327
 31
0.0
  0
LINE
  5
2D83
330
1E
100
AcDbEntity
  8
7
100
AcDbLine
 10
1.2051944731882
 20
2.269796932836886
 30
0.0
 11
1.268186599172452
 21
2.269796932836886
 31
0.0
  0
LINE
  5
2D84
330
1E
100
AcDbEntity
  8
7
100
AcDbLine
 10
1.327241717282689
 20
2.380033153309327
 30
0.0
 11
1.327241717282689
 21
2.293418980080982
 31
0.0
  0
LINE
  5
2D85
330
1E
100
AcDbEntity
  8
7
100
AcDbLine
 10
1.291808646416548
 20
2.293418980080982
 30
0.0
 11
1.291808646416548
 21
2.360348113939249
 31
0.0
  0
LINE
  5
2D86
330
1E
100
AcDbEntity
  8
7
100
AcDbLine
 10
1.268186599172452
 20
2.269796932836886
 30
0.0
 11
1.291808646416548
 21
2.293418980080982
 31
0.0
  0
LINE
  5
2D87
330
1E
100
AcDbEntity
  8
7
100
AcDbLine
 10
0.8981078590149706
 20
2.380033153309327
 30
0.0
 11
0.9217299062590669
 21
2.372159137561297
 31
0.0
  0
LINE
  5
2D88
330
1E
100
AcDbEntity
  8
7
100
AcDbLine
 10
1.496533055865366
 20
2.380033153309327
 30
0.0
 11
1.496533055865366
 21
2.269796932836886
 31
0.0
  0
LINE
  5
2D89
330
1E
100
AcDbEntity
  8
7
100
AcDbLine
 10
0.9217299062590669
 20
2.336726066695153
 30
0.0
 11
0.8981078590149706
 21
2.324915043073108
 31
0.0
  0
LINE
  5
2D8A
330
1E
100
AcDbEntity
  8
7
100
AcDbLine
 10
0.9768480164952855
 20
2.324915043073108
 30
0.0
 11
1.024092110983477
 21
2.324915043073108
 31
0.0
  0
LINE
  5
2D8B
330
1E
100
AcDbEntity
  8
7
100
AcDbLine
 10
0.9217299062590669
 20
2.372159137561297
 30
0.0
 11
0.9217299062590669
 21
2.336726066695153
 31
0.0
  0
LINE
  5
2D8C
330
1E
100
AcDbEntity
  8
7
100
AcDbLine
 10
1.484722032243318
 20
2.380033153309327
 30
0.0
 11
1.504407071613396
 21
2.380033153309327
 31
0.0
  0
LINE
  5
2D8D
330
1E
100
AcDbEntity
  8
7
100
AcDbLine
 10
0.8823598275189095
 20
1.880033153309327
 30
0.0
 11
1.614643292085837
 21
1.880033153309327
 31
0.0
  0
LINE
  5
2D8E
330
1E
100
AcDbEntity
  8
7
100
AcDbLine
 10
1.327241717282689
 20
2.293418980080982
 30
0.0
 11
1.346926756652766
 21
2.269796932836886
 31
0.0
  0
LINE
  5
2D8F
330
1E
100
AcDbEntity
  8
7
100
AcDbLine
 10
0.8981078590149706
 20
2.324915043073108
 30
0.0
 11
0.8311787251567057
 21
2.324915043073108
 31
0.0
  0
LINE
  5
2D90
330
1E
100
AcDbEntity
  8
7
100
AcDbLine
 10
1.346926756652766
 20
2.269796932836886
 30
0.0
 11
1.394170851140955
 21
2.269796932836886
 31
0.0
  0
LINE
  5
2D91
330
1E
100
AcDbEntity
  8
7
100
AcDbLine
 10
1.2051944731882
 20
2.380033153309327
 30
0.0
 11
1.2051944731882
 21
2.269796932836886
 31
0.0
  0
LINE
  5
2D92
330
1E
100
AcDbEntity
  8
7
100
AcDbLine
 10
1.291808646416548
 20
2.360348113939249
 30
0.0
 11
1.268186599172452
 21
2.380033153309327
 31
0.0
  0
LINE
  5
2D93
330
1E
100
AcDbEntity
  8
7
100
AcDbLine
 10
1.000470063739381
 20
2.380033153309327
 30
0.0
 11
1.043777150353555
 21
2.269796932836886
 31
0.0
  0
LINE
  5
2D94
330
1E
100
AcDbEntity
  8
7
100
AcDbLine
 10
0.8823598275189095
 20
2.021765436773893
 30
0.0
 11
0.8823598275189095
 21
1.880033153309327
 31
0.0
  0
LINE
  5
2D95
330
1E
100
AcDbEntity
  8
7
100
AcDbLine
 10
1.614643292085837
 20
2.021765436773893
 30
0.0
 11
0.8823598275189095
 21
2.021765436773893
 31
0.0
  0
LINE
  5
2D96
330
1E
100
AcDbEntity
  8
7
100
AcDbLine
 10
0.8311787251567057
 20
2.380033153309327
 30
0.0
 11
0.8981078590149706
 21
2.380033153309327
 31
0.0
  0
LINE
  5
2D97
330
1E
100
AcDbEntity
  8
7
100
AcDbLine
 10
1.417792898385052
 20
2.293418980080982
 30
0.0
 11
1.417792898385052
 21
2.380033153309327
 31
0.0
  0
LINE
  5
2D98
330
1E
100
AcDbEntity
  8
7
100
AcDbLine
 10
0.9571629771252077
 20
2.269796932836886
 30
0.0
 11
1.000470063739381
 21
2.380033153309327
 31
0.0
  0
LINE
  5
2D99
330
1E
100
AcDbEntity
  8
7
100
AcDbLine
 10
1.614643292085837
 20
2.021765436773893
 30
0.0
 11
1.614643292085837
 21
1.880033153309327
 31
0.0
  0
LINE
  5
2D9A
330
1E
100
AcDbEntity
  8
7
100
AcDbLine
 10
1.079210221219696
 20
2.269796932836886
 30
0.0
 11
1.079210221219696
 21
2.380033153309327
 31
0.0
  0
LINE
  5
2D9B
330
1E
100
AcDbEntity
  8
7
100
AcDbLine
 10
0.8311787251567057
 20
2.269796932836886
 30
0.0
 11
0.8311787251567057
 21
2.380033153309327
 31
0.0
  0
LINE
  5
2D9C
330
1E
100
AcDbEntity
  8
7
100
AcDbLine
 10
1.665824394448044
 20
2.380033153309327
 30
0.0
 11
1.575273213345681
 21
2.380033153309327
 31
0.0
  0
LINE
  5
2D9D
330
1E
100
AcDbEntity
  8
7
100
AcDbLine
 10
1.618580299959855
 20
2.380033153309327
 30
0.0
 11
1.618580299959855
 21
2.269796932836886
 31
0.0
  0
LINE
  5
2D9E
330
1E
100
AcDbEntity
  8
7
100
AcDbLine
 10
1.169761402322059
 20
2.269796932836886
 30
0.0
 11
1.169761402322059
 21
2.380033153309327
 31
0.0
  0
LINE
  5
2D9F
330
1E
100
AcDbEntity
  8
7
100
AcDbLine
 10
1.394170851140955
 20
2.269796932836886
 30
0.0
 11
1.417792898385052
 21
2.293418980080982
 31
0.0
  0
LINE
  5
2DA0
330
1E
100
AcDbEntity
  8
7
100
AcDbLine
 10
1.079210221219696
 20
2.380033153309327
 30
0.0
 11
1.169761402322059
 21
2.269796932836886
 31
0.0
  0
LINE
  5
2DBB
330
1E
100
AcDbEntity
  8
7
100
AcDbLine
 10
9.827241717282689
 20
3.880033153309327
 30
0.0
 11
9.846926756652766
 21
3.864285121813264
 31
0.0
  0
LINE
  5
2DBC
330
1E
100
AcDbEntity
  8
7
100
AcDbLine
 10
9.846926756652766
 20
3.864285121813264
 30
0.0
 11
9.862674788148829
 21
3.82097803519909
 31
0.0
  0
LINE
  5
2DC9
330
1E
100
AcDbEntity
  8
7
100
AcDbLine
 10
10.0555881739756
 20
3.880033153309327
 30
0.0
 11
10.68550943381812
 21
3.880033153309327
 31
0.0
  0
LINE
  5
2DCA
330
1E
100
AcDbEntity
  8
7
100
AcDbLine
 10
10.00440707161339
 20
3.880033153309327
 30
0.0
 11
10.02802911885749
 21
3.880033153309327
 31
0.0
  0
LINE
  5
2DD9
330
1E
100
AcDbEntity
  8
7
100
AcDbLine
 10
10.34692675665276
 20
0.7855449643329493
 30
0.0
 11
10.46897400074725
 21
0.7855449643329493
 31
0.0
  0
LINE
  5
2DE3
330
1E
100
AcDbEntity
  8
7
100
AcDbLine
 10
10.46897400074725
 20
0.5060174052778308
 30
0.0
 11
10.34692675665276
 21
0.5060174052778308
 31
0.0
  0
LINE
  5
2DF0
330
1E
100
AcDbEntity
  8
7
100
AcDbLine
 10
10.34692675665276
 20
3.785544964332949
 30
0.0
 11
10.46897400074725
 21
3.785544964332949
 31
0.0
  0
LINE
  5
2DFD
330
1E
100
AcDbEntity
  8
7
100
AcDbLine
 10
10.46897400074725
 20
3.50601740527783
 30
0.0
 11
10.34692675665276
 21
3.50601740527783
 31
0.0
  0
LINE
  5
2DFE
330
1E
100
AcDbEntity
  8
7
100
AcDbLine
 10
10.46897400074725
 20
2.533576460395941
 30
0.0
 11
10.34692675665276
 21
2.533576460395941
 31
0.0
  0
LINE
  5
2E0B
330
1E
100
AcDbEntity
  8
7
100
AcDbLine
 10
10.34692675665276
 20
2.254048901340823
 30
0.0
 11
10.46897400074725
 21
2.254048901340823
 31
0.0
  0
LINE
  5
2E15
330
1E
100
AcDbEntity
  8
7
100
AcDbLine
 10
10.46897400074725
 20
2.033576460395941
 30
0.0
 11
10.34692675665276
 21
2.033576460395941
 31
0.0
  0
LINE
  5
2E1F
330
1E
100
AcDbEntity
  8
7
100
AcDbLine
 10
10.34692675665276
 20
1.754048901340823
 30
0.0
 11
10.46897400074725
 21
1.754048901340823
 31
0.0
  0
LINE
  5
2E29
330
1E
100
AcDbEntity
  8
7
100
AcDbLine
 10
10.74850155980237
 20
3.817041027325075
 30
0.0
 11
10.74850155980237
 21
3.159560712364445
 31
0.0
  0
LINE
  5
2E2A
330
1E
100
AcDbEntity
  8
7
100
AcDbLine
 10
10.30755667791261
 20
3.159560712364445
 30
0.0
 11
10.74850155980237
 21
3.159560712364445
 31
0.0
  0
LINE
  5
2E34
330
1E
100
AcDbEntity
  8
7
100
AcDbLine
 10
10.74850155980237
 20
2.880033153309327
 30
0.0
 11
10.30755667791261
 21
2.880033153309327
 31
0.0
  0
LINE
  5
2E35
330
1E
100
AcDbEntity
  8
7
100
AcDbLine
 10
10.74850155980237
 20
2.880033153309327
 30
0.0
 11
10.74850155980237
 21
1.411529216301453
 31
0.0
  0
LINE
  5
2E36
330
1E
100
AcDbEntity
  8
7
100
AcDbLine
 10
10.30755667791261
 20
1.411529216301453
 30
0.0
 11
10.74850155980237
 21
1.411529216301453
 31
0.0
  0
LINE
  5
2E40
330
1E
100
AcDbEntity
  8
7
100
AcDbLine
 10
10.74850155980237
 20
1.132001657246334
 30
0.0
 11
10.30755667791261
 21
1.132001657246334
 31
0.0
  0
LINE
  5
2E41
330
1E
100
AcDbEntity
  8
7
100
AcDbLine
 10
10.74850155980237
 20
1.132001657246334
 30
0.0
 11
10.74850155980237
 21
0.4745213422857049
 31
0.0
  0
LINE
  5
2E4C
330
1E
100
AcDbEntity
  8
7
100
AcDbLine
 10
10.0555881739756
 20
3.880033153309327
 30
0.0
 11
10.0555881739756
 21
0.411529216301453
 31
0.0
  0
LINE
  5
2E80
330
1E
100
AcDbEntity
  8
7
100
AcDbLine
 10
9.949288961377177
 20
3.82097803519909
 30
0.0
 11
9.97291100862127
 21
3.82097803519909
 31
0.0
  0
LINE
  5
2E86
330
1E
100
AcDbEntity
  8
7
100
AcDbLine
 10
10.00440707161339
 20
3.876096145435312
 30
0.0
 11
10.02015510310946
 21
3.880033153309327
 31
0.0
  0
LINE
  5
2E87
330
1E
100
AcDbEntity
  8
7
100
AcDbLine
 10
10.02015510310946
 20
3.880033153309327
 30
0.0
 11
10.02802911885749
 21
3.880033153309327
 31
0.0
  0
LINE
  5
2E8D
330
1E
100
AcDbEntity
  8
7
100
AcDbLine
 10
9.949288961377177
 20
0.47058433441169
 30
0.0
 11
9.97291100862127
 21
0.47058433441169
 31
0.0
  0
LINE
  5
2EA9
330
1E
100
AcDbEntity
  8
7
100
AcDbLine
 10
-8.251498440197623
 20
0.4745213422857049
 30
0.0
 11
-8.251498440197623
 21
1.132001657246334
 31
0.0
  0
LINE
  5
2EAA
330
1E
100
AcDbEntity
  8
7
100
AcDbLine
 10
-7.810553558307859
 20
1.132001657246334
 30
0.0
 11
-8.251498440197623
 21
1.132001657246334
 31
0.0
  0
LINE
  5
2EB4
330
1E
100
AcDbEntity
  8
7
100
AcDbLine
 10
-8.251498440197623
 20
1.411529216301453
 30
0.0
 11
-7.810553558307859
 21
1.411529216301453
 31
0.0
  0
LINE
  5
2EB5
330
1E
100
AcDbEntity
  8
7
100
AcDbLine
 10
-8.251498440197623
 20
1.411529216301453
 30
0.0
 11
-8.251498440197623
 21
2.880033153309327
 31
0.0
  0
LINE
  5
2EB6
330
1E
100
AcDbEntity
  8
7
100
AcDbLine
 10
-7.810553558307859
 20
2.880033153309327
 30
0.0
 11
-8.251498440197623
 21
2.880033153309327
 31
0.0
  0
LINE
  5
2EC0
330
1E
100
AcDbEntity
  8
7
100
AcDbLine
 10
-8.251498440197623
 20
3.159560712364445
 30
0.0
 11
-7.810553558307859
 21
3.159560712364445
 31
0.0
  0
LINE
  5
2EC1
330
1E
100
AcDbEntity
  8
7
100
AcDbLine
 10
-8.251498440197623
 20
3.159560712364445
 30
0.0
 11
-8.251498440197623
 21
3.817041027325075
 31
0.0
  0
LINE
  5
2EC9
330
1E
100
AcDbEntity
  8
7
100
AcDbLine
 10
-7.558585054370851
 20
0.411529216301453
 30
0.0
 11
-8.188506314213372
 21
0.411529216301453
 31
0.0
  0
LINE
  5
2ED9
330
1E
100
AcDbEntity
  8
7
100
AcDbLine
 10
-7.971970881142507
 20
0.7855449643329493
 30
0.0
 11
-7.853860644922033
 21
0.7855449643329493
 31
0.0
  0
LINE
  5
2EDA
330
1E
100
AcDbEntity
  8
7
100
AcDbLine
 10
-7.971970881142507
 20
0.7816079564589345
 30
0.0
 11
-8.038900015000773
 21
0.7619229170888567
 31
0.0
  0
LINE
  5
2EE3
330
1E
100
AcDbEntity
  8
7
100
AcDbLine
 10
-7.853860644922033
 20
0.5060174052778308
 30
0.0
 11
-7.971970881142507
 21
0.5060174052778308
 31
0.0
  0
LINE
  5
2EF0
330
1E
100
AcDbEntity
  8
7
100
AcDbLine
 10
-7.971970881142507
 20
3.785544964332949
 30
0.0
 11
-7.853860644922033
 21
3.785544964332949
 31
0.0
  0
LINE
  5
2EFA
330
1E
100
AcDbEntity
  8
7
100
AcDbLine
 10
-7.853860644922033
 20
3.50601740527783
 30
0.0
 11
-7.971970881142507
 21
3.50601740527783
 31
0.0
  0
LINE
  5
2EFB
330
1E
100
AcDbEntity
  8
7
100
AcDbLine
 10
-7.853860644922033
 20
2.533576460395941
 30
0.0
 11
-7.971970881142507
 21
2.533576460395941
 31
0.0
  0
LINE
  5
2F05
330
1E
100
AcDbEntity
  8
7
100
AcDbLine
 10
-7.971970881142507
 20
2.254048901340823
 30
0.0
 11
-7.853860644922033
 21
2.254048901340823
 31
0.0
  0
LINE
  5
2F0F
330
1E
100
AcDbEntity
  8
7
100
AcDbLine
 10
-7.853860644922033
 20
2.033576460395941
 30
0.0
 11
-7.971970881142507
 21
2.033576460395941
 31
0.0
  0
LINE
  5
2F19
330
1E
100
AcDbEntity
  8
7
100
AcDbLine
 10
-7.971970881142507
 20
1.754048901340823
 30
0.0
 11
-7.853860644922033
 21
1.754048901340823
 31
0.0
  0
LINE
  5
2F30
330
1E
100
AcDbEntity
  8
7
100
AcDbLine
 10
-7.408978755158255
 20
3.761922917088853
 30
0.0
 11
-7.440474818150381
 21
3.781607956458934
 31
0.0
  0
LINE
  5
2F31
330
1E
100
AcDbEntity
  8
7
100
AcDbLine
 10
-7.440474818150381
 20
3.781607956458934
 30
0.0
 11
-7.452285841772427
 21
3.82097803519909
 31
0.0
  0
LINE
  5
2F5A
330
1E
100
AcDbEntity
  8
7
100
AcDbLine
 10
-7.452285841772427
 20
0.47058433441169
 30
0.0
 11
-7.475907889016522
 21
0.47058433441169
 31
0.0
  0
LINE
  5
2F6F
330
1E
100
AcDbEntity
  8
7
100
AcDbLine
 10
-7.558585054370851
 20
0.411529216301453
 30
0.0
 11
-7.558585054370851
 21
3.880033153309327
 31
0.0
  0
LINE
  5
2F7B
330
1E
100
AcDbEntity
  8
7
100
AcDbLine
 10
-7.507403952008647
 20
3.876096145435312
 30
0.0
 11
-7.507403952008647
 21
0.4154662241754679
 31
0.0
  0
LINE
  5
2F8B
330
1E
100
AcDbEntity
  8
7
100
AcDbLine
 10
0.7799976227945021
 20
3.789481972206964
 30
0.0
 11
0.7445645519283595
 21
3.789481972206964
 31
0.0
  0
LINE
  5
2F8C
330
1E
100
AcDbEntity
  8
7
100
AcDbLine
 10
0.7445645519283595
 20
3.789481972206964
 30
0.0
 11
0.7051944731882021
 21
3.789481972206964
 31
0.0
  0
LINE
  5
33AB
330
1E
100
AcDbEntity
  8
7
100
AcDbLine
 10
1.791808646416548
 20
0.502080397403816
 30
0.0
 11
1.7799976227945
 21
0.4351512635455493
 31
0.0
  0
LINE
  5
33AC
330
1E
100
AcDbEntity
  8
7
100
AcDbLine
 10
1.7799976227945
 20
0.4351512635455493
 30
0.0
 11
1.752438567676389
 21
0.411529216301453
 31
0.0
  0
LINE
  5
33AD
330
1E
100
AcDbEntity
  8
7
100
AcDbLine
 10
1.713068488936233
 20
0.502080397403816
 30
0.0
 11
1.713068488936233
 21
0.4351512635455493
 31
0.0
  0
LINE
  5
33AE
330
1E
100
AcDbEntity
  8
7
100
AcDbLine
 10
1.713068488936233
 20
0.4351512635455493
 30
0.0
 11
1.713068488936233
 21
0.411529216301453
 31
0.0
  0
LINE
  5
33AF
330
1E
100
AcDbEntity
  8
7
100
AcDbLine
 10
0.7799976227945021
 20
0.502080397403816
 30
0.0
 11
0.7799976227945021
 21
0.4351512635455493
 31
0.0
  0
LINE
  5
33B0
330
1E
100
AcDbEntity
  8
7
100
AcDbLine
 10
0.7799976227945021
 20
0.4351512635455493
 30
0.0
 11
0.7799976227945021
 21
0.411529216301453
 31
0.0
  0
LINE
  5
33B1
330
1E
100
AcDbEntity
  8
7
100
AcDbLine
 10
0.7051944731882021
 20
0.502080397403816
 30
0.0
 11
0.7170054968102502
 21
0.4351512635455493
 31
0.0
  0
LINE
  5
33B2
330
1E
100
AcDbEntity
  8
7
100
AcDbLine
 10
0.7170054968102502
 20
0.4351512635455493
 30
0.0
 11
0.7445645519283595
 21
0.411529216301453
 31
0.0
  0
LINE
  5
33B3
330
1E
100
AcDbEntity
  8
7
100
AcDbLine
 10
1.752438567676389
 20
3.880033153309327
 30
0.0
 11
1.7799976227945
 21
3.852474098191216
 31
0.0
  0
LINE
  5
33B4
330
1E
100
AcDbEntity
  8
7
100
AcDbLine
 10
1.7799976227945
 20
3.852474098191216
 30
0.0
 11
1.791808646416548
 21
3.789481972206964
 31
0.0
  0
LINE
  5
33B5
330
1E
100
AcDbEntity
  8
7
100
AcDbLine
 10
1.713068488936233
 20
3.880033153309327
 30
0.0
 11
1.713068488936233
 21
3.852474098191216
 31
0.0
  0
LINE
  5
33B6
330
1E
100
AcDbEntity
  8
7
100
AcDbLine
 10
1.713068488936233
 20
3.852474098191216
 30
0.0
 11
1.713068488936233
 21
3.789481972206964
 31
0.0
  0
LINE
  5
33B7
330
1E
100
AcDbEntity
  8
7
100
AcDbLine
 10
0.7799976227945021
 20
3.880033153309327
 30
0.0
 11
0.7799976227945021
 21
3.852474098191216
 31
0.0
  0
LINE
  5
33B8
330
1E
100
AcDbEntity
  8
7
100
AcDbLine
 10
0.7799976227945021
 20
3.852474098191216
 30
0.0
 11
0.7799976227945021
 21
3.789481972206964
 31
0.0
  0
LINE
  5
33B9
330
1E
100
AcDbEntity
  8
7
100
AcDbLine
 10
0.7445645519283595
 20
3.880033153309327
 30
0.0
 11
0.7170054968102502
 21
3.852474098191216
 31
0.0
  0
LINE
  5
33BA
330
1E
100
AcDbEntity
  8
7
100
AcDbLine
 10
0.7170054968102502
 20
3.852474098191216
 30
0.0
 11
0.7051944731882021
 21
3.789481972206964
 31
0.0
  0
LINE
  5
33BB
330
1E
100
AcDbEntity
  8
7
100
AcDbLine
 10
0.7051944731882021
 20
0.502080397403816
 30
0.0
 11
0.7445645519283595
 21
0.502080397403816
 31
0.0
  0
LINE
  5
33BC
330
1E
100
AcDbEntity
  8
7
100
AcDbLine
 10
0.7445645519283595
 20
0.502080397403816
 30
0.0
 11
0.7799976227945021
 21
0.502080397403816
 31
0.0
  0
LINE
  5
33BD
330
1E
100
AcDbEntity
  8
7
100
AcDbLine
 10
1.791808646416548
 20
3.789481972206964
 30
0.0
 11
1.752438567676389
 21
3.789481972206964
 31
0.0
  0
LINE
  5
33BE
330
1E
100
AcDbEntity
  8
7
100
AcDbLine
 10
1.752438567676389
 20
3.789481972206964
 30
0.0
 11
1.713068488936233
 21
3.789481972206964
 31
0.0
  0
LINE
  5
33BF
330
1E
100
AcDbEntity
  8
7
100
AcDbLine
 10
1.713068488936233
 20
0.502080397403816
 30
0.0
 11
1.752438567676389
 21
0.502080397403816
 31
0.0
  0
LINE
  5
33C0
330
1E
100
AcDbEntity
  8
7
100
AcDbLine
 10
1.752438567676389
 20
0.502080397403816
 30
0.0
 11
1.791808646416548
 21
0.502080397403816
 31
0.0
  0
LINE
  5
33C1
330
1E
100
AcDbEntity
  8
7
100
AcDbLine
 10
-7.377482692166129
 20
0.502080397403816
 30
0.0
 11
0.7051944731882021
 21
0.502080397403816
 31
0.0
  0
LINE
  5
33C2
330
1E
100
AcDbEntity
  8
7
100
AcDbLine
 10
0.7051944731882021
 20
0.502080397403816
 30
0.0
 11
0.7051944731882021
 21
3.789481972206964
 31
0.0
  0
LINE
  5
33C3
330
1E
100
AcDbEntity
  8
7
100
AcDbLine
 10
0.7051944731882021
 20
3.789481972206964
 30
0.0
 11
-7.377482692166129
 21
3.789481972206964
 31
0.0
  0
LINE
  5
33C4
330
1E
100
AcDbEntity
  8
7
100
AcDbLine
 10
-8.188506314213372
 20
3.876096145435312
 30
0.0
 11
-8.231813400827544
 21
3.860348113939249
 31
0.0
  0
LINE
  5
33C5
330
1E
100
AcDbEntity
  8
7
100
AcDbLine
 10
-8.231813400827544
 20
3.860348113939249
 30
0.0
 11
-8.247561432323607
 21
3.817041027325075
 31
0.0
  0
LINE
  5
33C6
330
1E
100
AcDbEntity
  8
7
100
AcDbLine
 10
-8.247561432323607
 20
0.4745213422857049
 30
0.0
 11
-8.231813400827544
 21
0.4312142556715309
 31
0.0
  0
LINE
  5
33C7
330
1E
100
AcDbEntity
  8
7
100
AcDbLine
 10
-8.231813400827544
 20
0.4312142556715309
 30
0.0
 11
-8.188506314213372
 21
0.4154662241754679
 31
0.0
  0
LINE
  5
33C8
330
1E
100
AcDbEntity
  8
7
100
AcDbLine
 10
-7.507403952008647
 20
0.4154662241754679
 30
0.0
 11
-7.52315198350471
 21
0.411529216301453
 31
0.0
  0
LINE
  5
33C9
330
1E
100
AcDbEntity
  8
7
100
AcDbLine
 10
-7.52315198350471
 20
0.411529216301453
 30
0.0
 11
-7.534963007126759
 21
0.411529216301453
 31
0.0
  0
LINE
  5
33CA
330
1E
100
AcDbEntity
  8
7
100
AcDbLine
 10
-7.507403952008647
 20
0.4154662241754679
 30
0.0
 11
-7.483781904764553
 21
0.4390882714195641
 31
0.0
  0
LINE
  5
33CB
330
1E
100
AcDbEntity
  8
7
100
AcDbLine
 10
-7.483781904764553
 20
0.4390882714195641
 30
0.0
 11
-7.475907889016522
 21
0.47058433441169
 31
0.0
  0
LINE
  5
33CC
330
1E
100
AcDbEntity
  8
7
100
AcDbLine
 10
-7.507403952008647
 20
0.411529216301453
 30
0.0
 11
-7.48771891263857
 21
0.4154662241754679
 31
0.0
  0
LINE
  5
33CD
330
1E
100
AcDbEntity
  8
7
100
AcDbLine
 10
-7.48771891263857
 20
0.4154662241754679
 30
0.0
 11
-7.483781904764553
 21
0.4154662241754679
 31
0.0
  0
LINE
  5
33CE
330
1E
100
AcDbEntity
  8
7
100
AcDbLine
 10
-7.475907889016522
 20
0.47058433441169
 30
0.0
 11
-7.456222849646444
 21
0.5178284288998789
 31
0.0
  0
LINE
  5
33CF
330
1E
100
AcDbEntity
  8
7
100
AcDbLine
 10
-7.456222849646444
 20
0.5178284288998789
 30
0.0
 11
-7.41291576303227
 21
0.5296394525219271
 31
0.0
  0
LINE
  5
33D0
330
1E
100
AcDbEntity
  8
7
100
AcDbLine
 10
-7.41291576303227
 20
0.5296394525219271
 30
0.0
 11
-7.377482692166129
 21
0.502080397403816
 31
0.0
  0
LINE
  5
33D1
330
1E
100
AcDbEntity
  8
7
100
AcDbLine
 10
-7.365671668544081
 20
0.47058433441169
 30
0.0
 11
-7.369608676418096
 21
0.486332365907753
 31
0.0
  0
LINE
  5
33D2
330
1E
100
AcDbEntity
  8
7
100
AcDbLine
 10
-7.369608676418096
 20
0.486332365907753
 30
0.0
 11
-7.377482692166129
 21
0.502080397403816
 31
0.0
  0
LINE
  5
33D3
330
1E
100
AcDbEntity
  8
7
100
AcDbLine
 10
-7.452285841772427
 20
3.82097803519909
 30
0.0
 11
-7.475907889016522
 21
3.82097803519909
 31
0.0
  0
LINE
  5
33D4
330
1E
100
AcDbEntity
  8
7
100
AcDbLine
 10
-7.475907889016522
 20
3.82097803519909
 30
0.0
 11
-7.456222849646444
 21
3.773733940710901
 31
0.0
  0
LINE
  5
33D5
330
1E
100
AcDbEntity
  8
7
100
AcDbLine
 10
-7.456222849646444
 20
3.773733940710901
 30
0.0
 11
-7.41291576303227
 21
3.761922917088853
 31
0.0
  0
LINE
  5
33D6
330
1E
100
AcDbEntity
  8
7
100
AcDbLine
 10
-7.41291576303227
 20
3.761922917088853
 30
0.0
 11
-7.377482692166129
 21
3.789481972206964
 31
0.0
  0
LINE
  5
33D7
330
1E
100
AcDbEntity
  8
7
100
AcDbLine
 10
-7.377482692166129
 20
3.789481972206964
 30
0.0
 11
-7.369608676418096
 21
3.805230003703027
 31
0.0
  0
LINE
  5
33D8
330
1E
100
AcDbEntity
  8
7
100
AcDbLine
 10
-7.369608676418096
 20
3.805230003703027
 30
0.0
 11
-7.365671668544081
 21
3.82097803519909
 31
0.0
  0
LINE
  5
33D9
330
1E
100
AcDbEntity
  8
7
100
AcDbLine
 10
-7.475907889016522
 20
3.82097803519909
 30
0.0
 11
-7.483781904764553
 21
3.852474098191216
 31
0.0
  0
LINE
  5
33DA
330
1E
100
AcDbEntity
  8
7
100
AcDbLine
 10
-7.483781904764553
 20
3.852474098191216
 30
0.0
 11
-7.507403952008647
 21
3.876096145435312
 31
0.0
  0
LINE
  5
33DB
330
1E
100
AcDbEntity
  8
7
100
AcDbLine
 10
-7.534963007126759
 20
3.880033153309327
 30
0.0
 11
-7.515277967756679
 21
3.876096145435312
 31
0.0
  0
LINE
  5
33DC
330
1E
100
AcDbEntity
  8
7
100
AcDbLine
 10
-7.515277967756679
 20
3.876096145435312
 30
0.0
 11
-7.507403952008647
 21
3.876096145435312
 31
0.0
  0
LINE
  5
33DD
330
1E
100
AcDbEntity
  8
7
100
AcDbLine
 10
-7.483781904764553
 20
3.876096145435312
 30
0.0
 11
-7.499529936260616
 21
3.880033153309327
 31
0.0
  0
LINE
  5
33DE
330
1E
100
AcDbEntity
  8
7
100
AcDbLine
 10
-7.499529936260616
 20
3.880033153309327
 30
0.0
 11
-7.507403952008647
 21
3.880033153309327
 31
0.0
  0
LINE
  5
33DF
330
1E
100
AcDbEntity
  8
7
100
AcDbLine
 10
-7.408978755158255
 20
0.5296394525219271
 30
0.0
 11
-7.440474818150381
 21
0.5060174052778308
 31
0.0
  0
LINE
  5
33E0
330
1E
100
AcDbEntity
  8
7
100
AcDbLine
 10
-7.440474818150381
 20
0.5060174052778308
 30
0.0
 11
-7.452285841772427
 21
0.47058433441169
 31
0.0
  0
LINE
  5
33E1
330
1E
100
AcDbEntity
  8
7
100
AcDbLine
 10
-7.483781904764553
 20
3.876096145435312
 30
0.0
 11
-7.460159857520459
 21
3.852474098191216
 31
0.0
  0
LINE
  5
33E2
330
1E
100
AcDbEntity
  8
7
100
AcDbLine
 10
-7.460159857520459
 20
3.852474098191216
 30
0.0
 11
-7.452285841772427
 21
3.82097803519909
 31
0.0
  0
LINE
  5
33E3
330
1E
100
AcDbEntity
  8
7
100
AcDbLine
 10
-7.452285841772427
 20
0.47058433441169
 30
0.0
 11
-7.460159857520459
 21
0.4390882714195641
 31
0.0
  0
LINE
  5
33E4
330
1E
100
AcDbEntity
  8
7
100
AcDbLine
 10
-7.460159857520459
 20
0.4390882714195641
 30
0.0
 11
-7.483781904764553
 21
0.4154662241754679
 31
0.0
  0
LINE
  5
33E5
330
1E
100
AcDbEntity
  8
7
100
AcDbLine
 10
-7.73575040870156
 20
1.824915043073108
 30
0.0
 11
-7.716065369331481
 21
1.89578118480539
 31
0.0
  0
LINE
  5
33E6
330
1E
100
AcDbEntity
  8
7
100
AcDbLine
 10
-7.716065369331481
 20
1.89578118480539
 30
0.0
 11
-7.73575040870156
 21
1.962710318663656
 31
0.0
  0
LINE
  5
33E7
330
1E
100
AcDbEntity
  8
7
100
AcDbLine
 10
-7.73575040870156
 20
1.962710318663656
 30
0.0
 11
-7.782994503189749
 21
2.013891421025864
 31
0.0
  0
LINE
  5
33E8
330
1E
100
AcDbEntity
  8
7
100
AcDbLine
 10
-7.782994503189749
 20
2.013891421025864
 30
0.0
 11
-7.853860644922033
 21
2.033576460395941
 31
0.0
  0
LINE
  5
33E9
330
1E
100
AcDbEntity
  8
7
100
AcDbLine
 10
-7.853860644922033
 20
1.757985909214838
 30
0.0
 11
-7.786931511063766
 21
1.777670948584919
 31
0.0
  0
LINE
  5
33EA
330
1E
100
AcDbEntity
  8
7
100
AcDbLine
 10
-7.786931511063766
 20
1.777670948584919
 30
0.0
 11
-7.73575040870156
 21
1.824915043073108
 31
0.0
  0
LINE
  5
33EB
330
1E
100
AcDbEntity
  8
7
100
AcDbLine
 10
-7.971970881142507
 20
2.033576460395941
 30
0.0
 11
-8.038900015000773
 21
2.013891421025864
 31
0.0
  0
LINE
  5
33EC
330
1E
100
AcDbEntity
  8
7
100
AcDbLine
 10
-8.038900015000773
 20
2.013891421025864
 30
0.0
 11
-8.090081117362977
 21
1.966647326537675
 31
0.0
  0
LINE
  5
33ED
330
1E
100
AcDbEntity
  8
7
100
AcDbLine
 10
-8.090081117362977
 20
1.966647326537675
 30
0.0
 11
-8.109766156733057
 21
1.89578118480539
 31
0.0
  0
LINE
  5
33EE
330
1E
100
AcDbEntity
  8
7
100
AcDbLine
 10
-8.109766156733057
 20
1.89578118480539
 30
0.0
 11
-8.090081117362977
 21
1.828852050947123
 31
0.0
  0
LINE
  5
33EF
330
1E
100
AcDbEntity
  8
7
100
AcDbLine
 10
-8.090081117362977
 20
1.828852050947123
 30
0.0
 11
-8.042837022874788
 21
1.777670948584919
 31
0.0
  0
LINE
  5
33F0
330
1E
100
AcDbEntity
  8
7
100
AcDbLine
 10
-8.042837022874788
 20
1.777670948584919
 30
0.0
 11
-7.971970881142507
 21
1.757985909214838
 31
0.0
  0
LINE
  5
33F1
330
1E
100
AcDbEntity
  8
7
100
AcDbLine
 10
-7.853860644922033
 20
2.257985909214838
 30
0.0
 11
-7.786931511063766
 21
2.277670948584919
 31
0.0
  0
LINE
  5
33F2
330
1E
100
AcDbEntity
  8
7
100
AcDbLine
 10
-7.786931511063766
 20
2.277670948584919
 30
0.0
 11
-7.73575040870156
 21
2.324915043073108
 31
0.0
  0
LINE
  5
33F3
330
1E
100
AcDbEntity
  8
7
100
AcDbLine
 10
-7.73575040870156
 20
2.324915043073108
 30
0.0
 11
-7.716065369331481
 21
2.39578118480539
 31
0.0
  0
LINE
  5
33F4
330
1E
100
AcDbEntity
  8
7
100
AcDbLine
 10
-7.716065369331481
 20
2.39578118480539
 30
0.0
 11
-7.73575040870156
 21
2.462710318663656
 31
0.0
  0
LINE
  5
33F5
330
1E
100
AcDbEntity
  8
7
100
AcDbLine
 10
-7.73575040870156
 20
2.462710318663656
 30
0.0
 11
-7.782994503189749
 21
2.513891421025864
 31
0.0
  0
LINE
  5
33F6
330
1E
100
AcDbEntity
  8
7
100
AcDbLine
 10
-7.782994503189749
 20
2.513891421025864
 30
0.0
 11
-7.853860644922033
 21
2.533576460395941
 31
0.0
  0
LINE
  5
33F7
330
1E
100
AcDbEntity
  8
7
100
AcDbLine
 10
-7.971970881142507
 20
2.533576460395941
 30
0.0
 11
-8.038900015000773
 21
2.513891421025864
 31
0.0
  0
LINE
  5
33F8
330
1E
100
AcDbEntity
  8
7
100
AcDbLine
 10
-8.038900015000773
 20
2.513891421025864
 30
0.0
 11
-8.090081117362977
 21
2.466647326537675
 31
0.0
  0
LINE
  5
33F9
330
1E
100
AcDbEntity
  8
7
100
AcDbLine
 10
-8.090081117362977
 20
2.466647326537675
 30
0.0
 11
-8.109766156733057
 21
2.39578118480539
 31
0.0
  0
LINE
  5
33FA
330
1E
100
AcDbEntity
  8
7
100
AcDbLine
 10
-8.109766156733057
 20
2.39578118480539
 30
0.0
 11
-8.090081117362977
 21
2.328852050947123
 31
0.0
  0
LINE
  5
33FB
330
1E
100
AcDbEntity
  8
7
100
AcDbLine
 10
-8.090081117362977
 20
2.328852050947123
 30
0.0
 11
-8.042837022874788
 21
2.277670948584919
 31
0.0
  0
LINE
  5
33FC
330
1E
100
AcDbEntity
  8
7
100
AcDbLine
 10
-8.042837022874788
 20
2.277670948584919
 30
0.0
 11
-7.971970881142507
 21
2.257985909214838
 31
0.0
  0
LINE
  5
33FD
330
1E
100
AcDbEntity
  8
7
100
AcDbLine
 10
-7.971970881142507
 20
3.781607956458934
 30
0.0
 11
-8.038900015000773
 21
3.761922917088853
 31
0.0
  0
LINE
  5
33FE
330
1E
100
AcDbEntity
  8
7
100
AcDbLine
 10
-8.038900015000773
 20
3.761922917088853
 30
0.0
 11
-8.090081117362977
 21
3.714678822600664
 31
0.0
  0
LINE
  5
33FF
330
1E
100
AcDbEntity
  8
7
100
AcDbLine
 10
-8.090081117362977
 20
3.714678822600664
 30
0.0
 11
-8.109766156733057
 21
3.643812680868382
 31
0.0
  0
LINE
  5
3400
330
1E
100
AcDbEntity
  8
7
100
AcDbLine
 10
-8.109766156733057
 20
3.643812680868382
 30
0.0
 11
-8.090081117362977
 21
3.576883547010115
 31
0.0
  0
LINE
  5
3401
330
1E
100
AcDbEntity
  8
7
100
AcDbLine
 10
-8.090081117362977
 20
3.576883547010115
 30
0.0
 11
-8.042837022874788
 21
3.525702444647908
 31
0.0
  0
LINE
  5
3402
330
1E
100
AcDbEntity
  8
7
100
AcDbLine
 10
-8.042837022874788
 20
3.525702444647908
 30
0.0
 11
-7.971970881142507
 21
3.50601740527783
 31
0.0
  0
LINE
  5
3403
330
1E
100
AcDbEntity
  8
7
100
AcDbLine
 10
-7.73575040870156
 20
3.710741814726649
 30
0.0
 11
-7.782994503189749
 21
3.761922917088853
 31
0.0
  0
LINE
  5
3404
330
1E
100
AcDbEntity
  8
7
100
AcDbLine
 10
-7.782994503189749
 20
3.761922917088853
 30
0.0
 11
-7.853860644922033
 21
3.781607956458934
 31
0.0
  0
LINE
  5
3405
330
1E
100
AcDbEntity
  8
7
100
AcDbLine
 10
-7.853860644922033
 20
3.50601740527783
 30
0.0
 11
-7.786931511063766
 21
3.525702444647908
 31
0.0
  0
LINE
  5
3406
330
1E
100
AcDbEntity
  8
7
100
AcDbLine
 10
-7.786931511063766
 20
3.525702444647908
 30
0.0
 11
-7.73575040870156
 21
3.572946539136097
 31
0.0
  0
LINE
  5
3407
330
1E
100
AcDbEntity
  8
7
100
AcDbLine
 10
-7.73575040870156
 20
3.572946539136097
 30
0.0
 11
-7.716065369331481
 21
3.643812680868382
 31
0.0
  0
LINE
  5
3408
330
1E
100
AcDbEntity
  8
7
100
AcDbLine
 10
-7.716065369331481
 20
3.643812680868382
 30
0.0
 11
-7.73575040870156
 21
3.710741814726649
 31
0.0
  0
LINE
  5
3409
330
1E
100
AcDbEntity
  8
7
100
AcDbLine
 10
-8.038900015000773
 20
0.7619229170888567
 30
0.0
 11
-8.090081117362977
 21
0.7146788226006642
 31
0.0
  0
LINE
  5
340A
330
1E
100
AcDbEntity
  8
7
100
AcDbLine
 10
-8.090081117362977
 20
0.7146788226006642
 30
0.0
 11
-8.109766156733057
 21
0.6438126808683827
 31
0.0
  0
LINE
  5
340B
330
1E
100
AcDbEntity
  8
7
100
AcDbLine
 10
-8.109766156733057
 20
0.6438126808683827
 30
0.0
 11
-8.090081117362977
 21
0.5768835470101159
 31
0.0
  0
LINE
  5
340C
330
1E
100
AcDbEntity
  8
7
100
AcDbLine
 10
-8.090081117362977
 20
0.5768835470101159
 30
0.0
 11
-8.042837022874788
 21
0.5257024446479086
 31
0.0
  0
LINE
  5
340D
330
1E
100
AcDbEntity
  8
7
100
AcDbLine
 10
-8.042837022874788
 20
0.5257024446479086
 30
0.0
 11
-7.971970881142507
 21
0.5060174052778308
 31
0.0
  0
LINE
  5
340E
330
1E
100
AcDbEntity
  8
7
100
AcDbLine
 10
-7.853860644922033
 20
0.5060174052778308
 30
0.0
 11
-7.786931511063766
 21
0.5257024446479086
 31
0.0
  0
LINE
  5
340F
330
1E
100
AcDbEntity
  8
7
100
AcDbLine
 10
-7.786931511063766
 20
0.5257024446479086
 30
0.0
 11
-7.73575040870156
 21
0.5729465391360975
 31
0.0
  0
LINE
  5
3410
330
1E
100
AcDbEntity
  8
7
100
AcDbLine
 10
-7.73575040870156
 20
0.5729465391360975
 30
0.0
 11
-7.716065369331481
 21
0.6438126808683827
 31
0.0
  0
LINE
  5
3411
330
1E
100
AcDbEntity
  8
7
100
AcDbLine
 10
-7.716065369331481
 20
0.6438126808683827
 30
0.0
 11
-7.73575040870156
 21
0.7107418147266494
 31
0.0
  0
LINE
  5
3412
330
1E
100
AcDbEntity
  8
7
100
AcDbLine
 10
-7.73575040870156
 20
0.7107418147266494
 30
0.0
 11
-7.782994503189749
 21
0.7619229170888567
 31
0.0
  0
LINE
  5
3413
330
1E
100
AcDbEntity
  8
7
100
AcDbLine
 10
-7.782994503189749
 20
0.7619229170888567
 30
0.0
 11
-7.853860644922033
 21
0.7816079564589345
 31
0.0
  0
LINE
  5
3414
330
1E
100
AcDbEntity
  8
7
100
AcDbLine
 10
-7.507403952008647
 20
0.411529216301453
 30
0.0
 11
-7.534963007126759
 21
0.411529216301453
 31
0.0
  0
LINE
  5
3415
330
1E
100
AcDbEntity
  8
7
100
AcDbLine
 10
-7.534963007126759
 20
0.411529216301453
 30
0.0
 11
-7.546774030748805
 21
0.411529216301453
 31
0.0
  0
LINE
  5
3416
330
1E
100
AcDbEntity
  8
7
100
AcDbLine
 10
-7.546774030748805
 20
0.411529216301453
 30
0.0
 11
-7.558585054370851
 21
0.411529216301453
 31
0.0
  0
LINE
  5
3417
330
1E
100
AcDbEntity
  8
7
100
AcDbLine
 10
-8.188506314213372
 20
3.880033153309327
 30
0.0
 11
-7.558585054370851
 21
3.880033153309327
 31
0.0
  0
LINE
  5
3418
330
1E
100
AcDbEntity
  8
7
100
AcDbLine
 10
-7.558585054370851
 20
3.880033153309327
 30
0.0
 11
-7.546774030748805
 21
3.880033153309327
 31
0.0
  0
LINE
  5
3419
330
1E
100
AcDbEntity
  8
7
100
AcDbLine
 10
-7.546774030748805
 20
3.880033153309327
 30
0.0
 11
-7.534963007126759
 21
3.880033153309327
 31
0.0
  0
LINE
  5
341A
330
1E
100
AcDbEntity
  8
7
100
AcDbLine
 10
-7.534963007126759
 20
3.880033153309327
 30
0.0
 11
-7.507403952008647
 21
3.880033153309327
 31
0.0
  0
LINE
  5
341B
330
1E
100
AcDbEntity
  8
7
100
AcDbLine
 10
-7.810553558307859
 20
2.883970161183341
 30
0.0
 11
-7.743624424449592
 21
2.903655200553423
 31
0.0
  0
LINE
  5
341C
330
1E
100
AcDbEntity
  8
7
100
AcDbLine
 10
-7.743624424449592
 20
2.903655200553423
 30
0.0
 11
-7.692443322087388
 21
2.950899295041612
 31
0.0
  0
LINE
  5
341D
330
1E
100
AcDbEntity
  8
7
100
AcDbLine
 10
-7.692443322087388
 20
2.950899295041612
 30
0.0
 11
-7.672758282717309
 21
3.021765436773893
 31
0.0
  0
LINE
  5
341E
330
1E
100
AcDbEntity
  8
7
100
AcDbLine
 10
-7.672758282717309
 20
3.021765436773893
 30
0.0
 11
-7.692443322087388
 21
3.08869457063216
 31
0.0
  0
LINE
  5
341F
330
1E
100
AcDbEntity
  8
7
100
AcDbLine
 10
-7.692443322087388
 20
3.08869457063216
 30
0.0
 11
-7.739687416575577
 21
3.139875672994367
 31
0.0
  0
LINE
  5
3420
330
1E
100
AcDbEntity
  8
7
100
AcDbLine
 10
-7.739687416575577
 20
3.139875672994367
 30
0.0
 11
-7.810553558307859
 21
3.159560712364445
 31
0.0
  0
LINE
  5
3421
330
1E
100
AcDbEntity
  8
7
100
AcDbLine
 10
-7.810553558307859
 20
1.132001657246334
 30
0.0
 11
-7.743624424449592
 21
1.151686696616412
 31
0.0
  0
LINE
  5
3422
330
1E
100
AcDbEntity
  8
7
100
AcDbLine
 10
-7.743624424449592
 20
1.151686696616412
 30
0.0
 11
-7.692443322087388
 21
1.198930791104601
 31
0.0
  0
LINE
  5
3423
330
1E
100
AcDbEntity
  8
7
100
AcDbLine
 10
-7.692443322087388
 20
1.198930791104601
 30
0.0
 11
-7.672758282717309
 21
1.269796932836886
 31
0.0
  0
LINE
  5
3424
330
1E
100
AcDbEntity
  8
7
100
AcDbLine
 10
-7.672758282717309
 20
1.269796932836886
 30
0.0
 11
-7.692443322087388
 21
1.336726066695153
 31
0.0
  0
LINE
  5
3425
330
1E
100
AcDbEntity
  8
7
100
AcDbLine
 10
-7.692443322087388
 20
1.336726066695153
 30
0.0
 11
-7.739687416575577
 21
1.38790716905736
 31
0.0
  0
LINE
  5
3426
330
1E
100
AcDbEntity
  8
7
100
AcDbLine
 10
-7.739687416575577
 20
1.38790716905736
 30
0.0
 11
-7.810553558307859
 21
1.407592208427438
 31
0.0
  0
LINE
  5
3427
330
1E
100
AcDbEntity
  8
7
100
AcDbLine
 10
-7.330238597677938
 20
0.411529216301453
 30
0.0
 11
-7.353860644922033
 21
0.427277247797516
 31
0.0
  0
LINE
  5
3428
330
1E
100
AcDbEntity
  8
7
100
AcDbLine
 10
-7.353860644922033
 20
0.427277247797516
 30
0.0
 11
-7.365671668544081
 21
0.47058433441169
 31
0.0
  0
LINE
  5
3429
330
1E
100
AcDbEntity
  8
7
100
AcDbLine
 10
-7.365671668544081
 20
3.82097803519909
 30
0.0
 11
-7.353860644922033
 21
3.864285121813264
 31
0.0
  0
LINE
  5
342A
330
1E
100
AcDbEntity
  8
7
100
AcDbLine
 10
-7.353860644922033
 20
3.864285121813264
 30
0.0
 11
-7.330238597677938
 21
3.880033153309327
 31
0.0
  0
LINE
  5
342B
330
1E
100
AcDbEntity
  8
7
100
AcDbLine
 10
0.7799976227945021
 20
3.789481972206964
 30
0.0
 11
0.7799976227945021
 21
0.502080397403816
 31
0.0
  0
LINE
  5
342C
330
1E
100
AcDbEntity
  8
7
100
AcDbLine
 10
0.7799976227945021
 20
0.502080397403816
 30
0.0
 11
1.713068488936233
 21
0.502080397403816
 31
0.0
  0
LINE
  5
342D
330
1E
100
AcDbEntity
  8
7
100
AcDbLine
 10
1.713068488936233
 20
0.502080397403816
 30
0.0
 11
1.713068488936233
 21
3.789481972206964
 31
0.0
  0
LINE
  5
342E
330
1E
100
AcDbEntity
  8
7
100
AcDbLine
 10
1.713068488936233
 20
3.789481972206964
 30
0.0
 11
0.7799976227945021
 21
3.789481972206964
 31
0.0
  0
LINE
  5
342F
330
1E
100
AcDbEntity
  8
7
100
AcDbLine
 10
10.02802911885749
 20
0.411529216301453
 30
0.0
 11
10.01228108736142
 21
0.411529216301453
 31
0.0
  0
LINE
  5
3430
330
1E
100
AcDbEntity
  8
7
100
AcDbLine
 10
10.01228108736142
 20
0.411529216301453
 30
0.0
 11
10.00440707161339
 21
0.4154662241754679
 31
0.0
  0
LINE
  5
3431
330
1E
100
AcDbEntity
  8
7
100
AcDbLine
 10
9.976848016495285
 20
0.4154662241754679
 30
0.0
 11
9.996533055865366
 21
0.411529216301453
 31
0.0
  0
LINE
  5
3432
330
1E
100
AcDbEntity
  8
7
100
AcDbLine
 10
9.996533055865366
 20
0.411529216301453
 30
0.0
 11
10.00440707161339
 21
0.411529216301453
 31
0.0
  0
LINE
  5
3433
330
1E
100
AcDbEntity
  8
7
100
AcDbLine
 10
9.870548803896863
 20
0.502080397403816
 30
0.0
 11
9.866611796022844
 21
0.4823953580337382
 31
0.0
  0
LINE
  5
3434
330
1E
100
AcDbEntity
  8
7
100
AcDbLine
 10
9.866611796022844
 20
0.4823953580337382
 30
0.0
 11
9.862674788148829
 21
0.47058433441169
 31
0.0
  0
LINE
  5
3435
330
1E
100
AcDbEntity
  8
7
100
AcDbLine
 10
10.00440707161339
 20
3.880033153309327
 30
0.0
 11
9.984722032243318
 21
3.876096145435312
 31
0.0
  0
LINE
  5
3436
330
1E
100
AcDbEntity
  8
7
100
AcDbLine
 10
9.984722032243318
 20
3.876096145435312
 30
0.0
 11
9.976848016495285
 21
3.876096145435312
 31
0.0
  0
LINE
  5
3437
330
1E
100
AcDbEntity
  8
7
100
AcDbLine
 10
9.862674788148829
 20
3.82097803519909
 30
0.0
 11
9.866611796022844
 21
3.805230003703027
 31
0.0
  0
LINE
  5
3438
330
1E
100
AcDbEntity
  8
7
100
AcDbLine
 10
9.866611796022844
 20
3.805230003703027
 30
0.0
 11
9.870548803896863
 21
3.789481972206964
 31
0.0
  0
LINE
  5
3439
330
1E
100
AcDbEntity
  8
7
100
AcDbLine
 10
9.97291100862127
 20
3.82097803519909
 30
0.0
 11
9.953225969251192
 21
3.773733940710901
 31
0.0
  0
LINE
  5
343A
330
1E
100
AcDbEntity
  8
7
100
AcDbLine
 10
9.953225969251192
 20
3.773733940710901
 30
0.0
 11
9.909918882637018
 21
3.761922917088853
 31
0.0
  0
LINE
  5
343B
330
1E
100
AcDbEntity
  8
7
100
AcDbLine
 10
9.909918882637018
 20
3.761922917088853
 30
0.0
 11
9.870548803896863
 21
3.789481972206964
 31
0.0
  0
LINE
  5
343C
330
1E
100
AcDbEntity
  8
7
100
AcDbLine
 10
9.870548803896863
 20
3.789481972206964
 30
0.0
 11
1.791808646416548
 21
3.789481972206964
 31
0.0
  0
LINE
  5
343D
330
1E
100
AcDbEntity
  8
7
100
AcDbLine
 10
9.97291100862127
 20
0.47058433441169
 30
0.0
 11
9.980785024369303
 21
0.4390882714195641
 31
0.0
  0
LINE
  5
343E
330
1E
100
AcDbEntity
  8
7
100
AcDbLine
 10
9.980785024369303
 20
0.4390882714195641
 30
0.0
 11
10.00440707161339
 21
0.4154662241754679
 31
0.0
  0
LINE
  5
343F
330
1E
100
AcDbEntity
  8
7
100
AcDbLine
 10
10.00440707161339
 20
0.4154662241754679
 30
0.0
 11
10.00440707161339
 21
3.876096145435312
 31
0.0
  0
LINE
  5
3440
330
1E
100
AcDbEntity
  8
7
100
AcDbLine
 10
10.00440707161339
 20
3.876096145435312
 30
0.0
 11
9.980785024369303
 21
3.852474098191216
 31
0.0
  0
LINE
  5
3441
330
1E
100
AcDbEntity
  8
7
100
AcDbLine
 10
9.980785024369303
 20
3.852474098191216
 30
0.0
 11
9.97291100862127
 21
3.82097803519909
 31
0.0
  0
LINE
  5
3442
330
1E
100
AcDbEntity
  8
7
100
AcDbLine
 10
9.97291100862127
 20
0.47058433441169
 30
0.0
 11
9.953225969251192
 21
0.5178284288998789
 31
0.0
  0
LINE
  5
3443
330
1E
100
AcDbEntity
  8
7
100
AcDbLine
 10
9.953225969251192
 20
0.5178284288998789
 30
0.0
 11
9.909918882637018
 21
0.5296394525219271
 31
0.0
  0
LINE
  5
3444
330
1E
100
AcDbEntity
  8
7
100
AcDbLine
 10
9.909918882637018
 20
0.5296394525219271
 30
0.0
 11
9.870548803896863
 21
0.502080397403816
 31
0.0
  0
LINE
  5
3445
330
1E
100
AcDbEntity
  8
7
100
AcDbLine
 10
1.791808646416548
 20
3.789481972206964
 30
0.0
 11
1.791808646416548
 21
0.502080397403816
 31
0.0
  0
LINE
  5
3446
330
1E
100
AcDbEntity
  8
7
100
AcDbLine
 10
1.791808646416548
 20
0.502080397403816
 30
0.0
 11
9.870548803896863
 21
0.502080397403816
 31
0.0
  0
LINE
  5
3447
330
1E
100
AcDbEntity
  8
7
100
AcDbLine
 10
9.905981874763003
 20
3.761922917088853
 30
0.0
 11
9.937477937755129
 21
3.781607956458934
 31
0.0
  0
LINE
  5
3448
330
1E
100
AcDbEntity
  8
7
100
AcDbLine
 10
9.937477937755129
 20
3.781607956458934
 30
0.0
 11
9.949288961377177
 21
3.82097803519909
 31
0.0
  0
LINE
  5
3449
330
1E
100
AcDbEntity
  8
7
100
AcDbLine
 10
9.905981874763003
 20
0.5296394525219271
 30
0.0
 11
9.937477937755129
 21
0.5060174052778308
 31
0.0
  0
LINE
  5
344A
330
1E
100
AcDbEntity
  8
7
100
AcDbLine
 10
9.937477937755129
 20
0.5060174052778308
 30
0.0
 11
9.949288961377177
 21
0.47058433441169
 31
0.0
  0
LINE
  5
344B
330
1E
100
AcDbEntity
  8
7
100
AcDbLine
 10
9.976848016495285
 20
0.4154662241754679
 30
0.0
 11
9.957162977125207
 21
0.4390882714195641
 31
0.0
  0
LINE
  5
344C
330
1E
100
AcDbEntity
  8
7
100
AcDbLine
 10
9.957162977125207
 20
0.4390882714195641
 30
0.0
 11
9.949288961377177
 21
0.47058433441169
 31
0.0
  0
LINE
  5
344D
330
1E
100
AcDbEntity
  8
7
100
AcDbLine
 10
9.949288961377177
 20
3.82097803519909
 30
0.0
 11
9.957162977125207
 21
3.852474098191216
 31
0.0
  0
LINE
  5
344E
330
1E
100
AcDbEntity
  8
7
100
AcDbLine
 10
9.957162977125207
 20
3.852474098191216
 30
0.0
 11
9.976848016495285
 21
3.876096145435312
 31
0.0
  0
LINE
  5
344F
330
1E
100
AcDbEntity
  8
7
100
AcDbLine
 10
10.74456455192835
 20
3.817041027325075
 30
0.0
 11
10.72881652043229
 21
3.860348113939249
 31
0.0
  0
LINE
  5
3450
330
1E
100
AcDbEntity
  8
7
100
AcDbLine
 10
10.72881652043229
 20
3.860348113939249
 30
0.0
 11
10.68550943381812
 21
3.876096145435312
 31
0.0
  0
LINE
  5
3451
330
1E
100
AcDbEntity
  8
7
100
AcDbLine
 10
10.68550943381812
 20
0.4154662241754679
 30
0.0
 11
10.72881652043229
 21
0.4312142556715309
 31
0.0
  0
LINE
  5
3452
330
1E
100
AcDbEntity
  8
7
100
AcDbLine
 10
10.72881652043229
 20
0.4312142556715309
 30
0.0
 11
10.74456455192835
 21
0.4745213422857049
 31
0.0
  0
LINE
  5
3453
330
1E
100
AcDbEntity
  8
7
100
AcDbLine
 10
10.30755667791261
 20
1.407592208427438
 30
0.0
 11
10.24062754405434
 21
1.38790716905736
 31
0.0
  0
LINE
  5
3454
330
1E
100
AcDbEntity
  8
7
100
AcDbLine
 10
10.24062754405434
 20
1.38790716905736
 30
0.0
 11
10.18944644169213
 21
1.340663074569171
 31
0.0
  0
LINE
  5
3455
330
1E
100
AcDbEntity
  8
7
100
AcDbLine
 10
10.18944644169213
 20
1.340663074569171
 30
0.0
 11
10.16976140232205
 21
1.269796932836886
 31
0.0
  0
LINE
  5
3456
330
1E
100
AcDbEntity
  8
7
100
AcDbLine
 10
10.16976140232205
 20
1.269796932836886
 30
0.0
 11
10.18944644169213
 21
1.202867798978619
 31
0.0
  0
LINE
  5
3457
330
1E
100
AcDbEntity
  8
7
100
AcDbLine
 10
10.18944644169213
 20
1.202867798978619
 30
0.0
 11
10.23669053618032
 21
1.151686696616412
 31
0.0
  0
LINE
  5
3458
330
1E
100
AcDbEntity
  8
7
100
AcDbLine
 10
10.23669053618032
 20
1.151686696616412
 30
0.0
 11
10.30755667791261
 21
1.132001657246334
 31
0.0
  0
LINE
  5
3459
330
1E
100
AcDbEntity
  8
7
100
AcDbLine
 10
10.30755667791261
 20
3.159560712364445
 30
0.0
 11
10.24062754405434
 21
3.139875672994367
 31
0.0
  0
LINE
  5
345A
330
1E
100
AcDbEntity
  8
7
100
AcDbLine
 10
10.24062754405434
 20
3.139875672994367
 30
0.0
 11
10.18944644169213
 21
3.092631578506178
 31
0.0
  0
LINE
  5
345B
330
1E
100
AcDbEntity
  8
7
100
AcDbLine
 10
10.18944644169213
 20
3.092631578506178
 30
0.0
 11
10.16976140232205
 21
3.021765436773893
 31
0.0
  0
LINE
  5
345C
330
1E
100
AcDbEntity
  8
7
100
AcDbLine
 10
10.16976140232205
 20
3.021765436773893
 30
0.0
 11
10.18944644169213
 21
2.954836302915627
 31
0.0
  0
LINE
  5
345D
330
1E
100
AcDbEntity
  8
7
100
AcDbLine
 10
10.18944644169213
 20
2.954836302915627
 30
0.0
 11
10.23669053618032
 21
2.903655200553423
 31
0.0
  0
LINE
  5
345E
330
1E
100
AcDbEntity
  8
7
100
AcDbLine
 10
10.23669053618032
 20
2.903655200553423
 30
0.0
 11
10.30755667791261
 21
2.883970161183341
 31
0.0
  0
LINE
  5
345F
330
1E
100
AcDbEntity
  8
7
100
AcDbLine
 10
10.46897400074725
 20
1.757985909214838
 30
0.0
 11
10.53590313460552
 21
1.777670948584919
 31
0.0
  0
LINE
  5
3461
330
1E
100
AcDbEntity
  8
7
100
AcDbLine
 10
10.58708423696772
 20
1.824915043073108
 30
0.0
 11
10.6067692763378
 21
1.89578118480539
 31
0.0
  0
LINE
  5
3462
330
1E
100
AcDbEntity
  8
7
100
AcDbLine
 10
10.6067692763378
 20
1.89578118480539
 30
0.0
 11
10.58708423696772
 21
1.962710318663656
 31
0.0
  0
LINE
  5
3463
330
1E
100
AcDbEntity
  8
7
100
AcDbLine
 10
10.58708423696772
 20
1.962710318663656
 30
0.0
 11
10.53984014247953
 21
2.013891421025864
 31
0.0
  0
LINE
  5
3464
330
1E
100
AcDbEntity
  8
7
100
AcDbLine
 10
10.53984014247953
 20
2.013891421025864
 30
0.0
 11
10.46897400074725
 21
2.033576460395941
 31
0.0
  0
LINE
  5
3465
330
1E
100
AcDbEntity
  8
7
100
AcDbLine
 10
10.34692675665276
 20
2.033576460395941
 30
0.0
 11
10.2799976227945
 21
2.013891421025864
 31
0.0
  0
LINE
  5
3466
330
1E
100
AcDbEntity
  8
7
100
AcDbLine
 10
10.2799976227945
 20
2.013891421025864
 30
0.0
 11
10.22881652043229
 21
1.966647326537675
 31
0.0
  0
LINE
  5
3467
330
1E
100
AcDbEntity
  8
7
100
AcDbLine
 10
10.22881652043229
 20
1.966647326537675
 30
0.0
 11
10.20913148106221
 21
1.89578118480539
 31
0.0
  0
LINE
  5
3468
330
1E
100
AcDbEntity
  8
7
100
AcDbLine
 10
10.20913148106221
 20
1.89578118480539
 30
0.0
 11
10.22881652043229
 21
1.828852050947123
 31
0.0
  0
LINE
  5
3469
330
1E
100
AcDbEntity
  8
7
100
AcDbLine
 10
10.22881652043229
 20
1.828852050947123
 30
0.0
 11
10.27606061492048
 21
1.777670948584919
 31
0.0
  0
LINE
  5
346A
330
1E
100
AcDbEntity
  8
7
100
AcDbLine
 10
10.27606061492048
 20
1.777670948584919
 30
0.0
 11
10.34692675665276
 21
1.757985909214838
 31
0.0
  0
LINE
  5
346B
330
1E
100
AcDbEntity
  8
7
100
AcDbLine
 10
10.46897400074725
 20
2.257985909214838
 30
0.0
 11
10.53590313460552
 21
2.277670948584919
 31
0.0
  0
LINE
  5
346C
330
1E
100
AcDbEntity
  8
7
100
AcDbLine
 10
10.53590313460552
 20
2.277670948584919
 30
0.0
 11
10.58708423696772
 21
2.324915043073108
 31
0.0
  0
LINE
  5
346D
330
1E
100
AcDbEntity
  8
7
100
AcDbLine
 10
10.58708423696772
 20
2.324915043073108
 30
0.0
 11
10.6067692763378
 21
2.39578118480539
 31
0.0
  0
LINE
  5
346E
330
1E
100
AcDbEntity
  8
7
100
AcDbLine
 10
10.6067692763378
 20
2.39578118480539
 30
0.0
 11
10.58708423696772
 21
2.462710318663656
 31
0.0
  0
LINE
  5
346F
330
1E
100
AcDbEntity
  8
7
100
AcDbLine
 10
10.58708423696772
 20
2.462710318663656
 30
0.0
 11
10.53984014247953
 21
2.513891421025864
 31
0.0
  0
LINE
  5
3470
330
1E
100
AcDbEntity
  8
7
100
AcDbLine
 10
10.53984014247953
 20
2.513891421025864
 30
0.0
 11
10.46897400074725
 21
2.533576460395941
 31
0.0
  0
LINE
  5
3471
330
1E
100
AcDbEntity
  8
7
100
AcDbLine
 10
10.22881652043229
 20
2.328852050947123
 30
0.0
 11
10.27606061492048
 21
2.277670948584919
 31
0.0
  0
LINE
  5
3472
330
1E
100
AcDbEntity
  8
7
100
AcDbLine
 10
10.27606061492048
 20
2.277670948584919
 30
0.0
 11
10.34692675665276
 21
2.257985909214838
 31
0.0
  0
LINE
  5
3473
330
1E
100
AcDbEntity
  8
7
100
AcDbLine
 10
10.34692675665276
 20
2.533576460395941
 30
0.0
 11
10.2799976227945
 21
2.513891421025864
 31
0.0
  0
LINE
  5
3474
330
1E
100
AcDbEntity
  8
7
100
AcDbLine
 10
10.2799976227945
 20
2.513891421025864
 30
0.0
 11
10.22881652043229
 21
2.466647326537675
 31
0.0
  0
LINE
  5
3475
330
1E
100
AcDbEntity
  8
7
100
AcDbLine
 10
10.22881652043229
 20
2.466647326537675
 30
0.0
 11
10.20913148106221
 21
2.39578118480539
 31
0.0
  0
LINE
  5
3476
330
1E
100
AcDbEntity
  8
7
100
AcDbLine
 10
10.20913148106221
 20
2.39578118480539
 30
0.0
 11
10.22881652043229
 21
2.328852050947123
 31
0.0
  0
LINE
  5
3477
330
1E
100
AcDbEntity
  8
7
100
AcDbLine
 10
10.22881652043229
 20
3.576883547010115
 30
0.0
 11
10.27606061492048
 21
3.525702444647908
 31
0.0
  0
LINE
  5
3478
330
1E
100
AcDbEntity
  8
7
100
AcDbLine
 10
10.27606061492048
 20
3.525702444647908
 30
0.0
 11
10.34692675665276
 21
3.50601740527783
 31
0.0
  0
LINE
  5
3479
330
1E
100
AcDbEntity
  8
7
100
AcDbLine
 10
10.34692675665276
 20
3.781607956458934
 30
0.0
 11
10.2799976227945
 21
3.761922917088853
 31
0.0
  0
LINE
  5
347A
330
1E
100
AcDbEntity
  8
7
100
AcDbLine
 10
10.2799976227945
 20
3.761922917088853
 30
0.0
 11
10.22881652043229
 21
3.714678822600664
 31
0.0
  0
LINE
  5
347B
330
1E
100
AcDbEntity
  8
7
100
AcDbLine
 10
10.22881652043229
 20
3.714678822600664
 30
0.0
 11
10.20913148106221
 21
3.643812680868382
 31
0.0
  0
LINE
  5
347C
330
1E
100
AcDbEntity
  8
7
100
AcDbLine
 10
10.20913148106221
 20
3.643812680868382
 30
0.0
 11
10.22881652043229
 21
3.576883547010115
 31
0.0
  0
LINE
  5
347D
330
1E
100
AcDbEntity
  8
7
100
AcDbLine
 10
10.58708423696772
 20
3.572946539136097
 30
0.0
 11
10.6067692763378
 21
3.643812680868382
 31
0.0
  0
LINE
  5
347E
330
1E
100
AcDbEntity
  8
7
100
AcDbLine
 10
10.6067692763378
 20
3.643812680868382
 30
0.0
 11
10.58708423696772
 21
3.710741814726649
 31
0.0
  0
LINE
  5
347F
330
1E
100
AcDbEntity
  8
7
100
AcDbLine
 10
10.58708423696772
 20
3.710741814726649
 30
0.0
 11
10.53984014247953
 21
3.761922917088853
 31
0.0
  0
LINE
  5
3480
330
1E
100
AcDbEntity
  8
7
100
AcDbLine
 10
10.53984014247953
 20
3.761922917088853
 30
0.0
 11
10.46897400074725
 21
3.781607956458934
 31
0.0
  0
LINE
  5
3481
330
1E
100
AcDbEntity
  8
7
100
AcDbLine
 10
10.46897400074725
 20
3.50601740527783
 30
0.0
 11
10.53590313460552
 21
3.525702444647908
 31
0.0
  0
LINE
  5
3482
330
1E
100
AcDbEntity
  8
7
100
AcDbLine
 10
10.53590313460552
 20
3.525702444647908
 30
0.0
 11
10.58708423696772
 21
3.572946539136097
 31
0.0
  0
LINE
  5
3483
330
1E
100
AcDbEntity
  8
7
100
AcDbLine
 10
10.34692675665276
 20
0.7816079564589345
 30
0.0
 11
10.2799976227945
 21
0.7619229170888567
 31
0.0
  0
LINE
  5
3484
330
1E
100
AcDbEntity
  8
7
100
AcDbLine
 10
10.2799976227945
 20
0.7619229170888567
 30
0.0
 11
10.22881652043229
 21
0.7146788226006642
 31
0.0
  0
LINE
  5
3485
330
1E
100
AcDbEntity
  8
7
100
AcDbLine
 10
10.22881652043229
 20
0.7146788226006642
 30
0.0
 11
10.20913148106221
 21
0.6438126808683827
 31
0.0
  0
LINE
  5
3486
330
1E
100
AcDbEntity
  8
7
100
AcDbLine
 10
10.20913148106221
 20
0.6438126808683827
 30
0.0
 11
10.22881652043229
 21
0.5768835470101159
 31
0.0
  0
LINE
  5
3487
330
1E
100
AcDbEntity
  8
7
100
AcDbLine
 10
10.22881652043229
 20
0.5768835470101159
 30
0.0
 11
10.27606061492048
 21
0.5257024446479086
 31
0.0
  0
LINE
  5
3488
330
1E
100
AcDbEntity
  8
7
100
AcDbLine
 10
10.27606061492048
 20
0.5257024446479086
 30
0.0
 11
10.34692675665276
 21
0.5060174052778308
 31
0.0
  0
LINE
  5
3489
330
1E
100
AcDbEntity
  8
7
100
AcDbLine
 10
10.46897400074725
 20
0.5060174052778308
 30
0.0
 11
10.53590313460552
 21
0.5257024446479086
 31
0.0
  0
LINE
  5
348A
330
1E
100
AcDbEntity
  8
7
100
AcDbLine
 10
10.53590313460552
 20
0.5257024446479086
 30
0.0
 11
10.58708423696772
 21
0.5729465391360975
 31
0.0
  0
LINE
  5
348B
330
1E
100
AcDbEntity
  8
7
100
AcDbLine
 10
10.58708423696772
 20
0.5729465391360975
 30
0.0
 11
10.6067692763378
 21
0.6438126808683827
 31
0.0
  0
LINE
  5
348C
330
1E
100
AcDbEntity
  8
7
100
AcDbLine
 10
10.6067692763378
 20
0.6438126808683827
 30
0.0
 11
10.58708423696772
 21
0.7107418147266494
 31
0.0
  0
LINE
  5
348D
330
1E
100
AcDbEntity
  8
7
100
AcDbLine
 10
10.58708423696772
 20
0.7107418147266494
 30
0.0
 11
10.53984014247953
 21
0.7619229170888567
 31
0.0
  0
LINE
  5
348E
330
1E
100
AcDbEntity
  8
7
100
AcDbLine
 10
10.53984014247953
 20
0.7619229170888567
 30
0.0
 11
10.46897400074725
 21
0.7816079564589345
 31
0.0
  0
LINE
  5
348F
330
1E
100
AcDbEntity
  8
7
100
AcDbLine
 10
10.02802911885749
 20
3.880033153309327
 30
0.0
 11
10.04377715035355
 21
3.880033153309327
 31
0.0
  0
LINE
  5
3490
330
1E
100
AcDbEntity
  8
7
100
AcDbLine
 10
10.04377715035355
 20
3.880033153309327
 30
0.0
 11
10.0555881739756
 21
3.880033153309327
 31
0.0
  0
LINE
  5
3491
330
1E
100
AcDbEntity
  8
7
100
AcDbLine
 10
10.68550943381812
 20
0.411529216301453
 30
0.0
 11
10.0555881739756
 21
0.411529216301453
 31
0.0
  0
LINE
  5
3492
330
1E
100
AcDbEntity
  8
7
100
AcDbLine
 10
10.0555881739756
 20
0.411529216301453
 30
0.0
 11
10.04377715035355
 21
0.411529216301453
 31
0.0
  0
LINE
  5
3493
330
1E
100
AcDbEntity
  8
7
100
AcDbLine
 10
10.04377715035355
 20
0.411529216301453
 30
0.0
 11
10.02802911885749
 21
0.411529216301453
 31
0.0
  0
LINE
  5
3494
330
1E
100
AcDbEntity
  8
7
100
AcDbLine
 10
10.02802911885749
 20
0.411529216301453
 30
0.0
 11
10.00440707161339
 21
0.411529216301453
 31
0.0
  0
LINE
  5
3495
330
1E
100
AcDbEntity
  8
7
100
AcDbLine
 10
9.862674788148829
 20
0.47058433441169
 30
0.0
 11
9.846926756652766
 21
0.427277247797516
 31
0.0
  0
LINE
  5
3496
330
1E
100
AcDbEntity
  8
7
100
AcDbLine
 10
9.846926756652766
 20
0.427277247797516
 30
0.0
 11
9.827241717282689
 21
0.411529216301453
 31
0.0
  0
LINE
  5
3497
330
1E
100
AcDbEntity
  8
7
100
AcDbLine
 10
-7.330238597677938
 20
3.880033153309327
 30
0.0
 11
0.7445645519283595
 21
3.880033153309327
 31
0.0
  0
LINE
  5
3498
330
1E
100
AcDbEntity
  8
7
100
AcDbLine
 10
0.7445645519283595
 20
3.880033153309327
 30
0.0
 11
0.7603125834244225
 21
3.880033153309327
 31
0.0
  0
LINE
  5
3499
330
1E
100
AcDbEntity
  8
7
100
AcDbLine
 10
0.7603125834244225
 20
3.880033153309327
 30
0.0
 11
0.7799976227945021
 21
3.880033153309327
 31
0.0
  0
LINE
  5
349A
330
1E
100
AcDbEntity
  8
7
100
AcDbLine
 10
0.7799976227945021
 20
3.880033153309327
 30
0.0
 11
1.713068488936233
 21
3.880033153309327
 31
0.0
  0
LINE
  5
349B
330
1E
100
AcDbEntity
  8
7
100
AcDbLine
 10
1.713068488936233
 20
3.880033153309327
 30
0.0
 11
1.732753528306311
 21
3.880033153309327
 31
0.0
  0
LINE
  5
349C
330
1E
100
AcDbEntity
  8
7
100
AcDbLine
 10
1.732753528306311
 20
3.880033153309327
 30
0.0
 11
1.752438567676389
 21
3.880033153309327
 31
0.0
  0
LINE
  5
349D
330
1E
100
AcDbEntity
  8
7
100
AcDbLine
 10
1.752438567676389
 20
3.880033153309327
 30
0.0
 11
9.827241717282689
 21
3.880033153309327
 31
0.0
  0
LINE
  5
349E
330
1E
100
AcDbEntity
  8
7
100
AcDbLine
 10
0.7799976227945021
 20
0.411529216301453
 30
0.0
 11
0.7603125834244225
 21
0.411529216301453
 31
0.0
  0
LINE
  5
349F
330
1E
100
AcDbEntity
  8
7
100
AcDbLine
 10
0.7603125834244225
 20
0.411529216301453
 30
0.0
 11
0.7445645519283595
 21
0.411529216301453
 31
0.0
  0
LINE
  5
34A0
330
1E
100
AcDbEntity
  8
7
100
AcDbLine
 10
0.7445645519283595
 20
0.411529216301453
 30
0.0
 11
-7.330238597677938
 21
0.411529216301453
 31
0.0
  0
LINE
  5
34A1
330
1E
100
AcDbEntity
  8
7
100
AcDbLine
 10
9.827241717282689
 20
0.411529216301453
 30
0.0
 11
1.752438567676389
 21
0.411529216301453
 31
0.0
  0
LINE
  5
34A2
330
1E
100
AcDbEntity
  8
7
100
AcDbLine
 10
1.752438567676389
 20
0.411529216301453
 30
0.0
 11
1.732753528306311
 21
0.411529216301453
 31
0.0
  0
LINE
  5
34A3
330
1E
100
AcDbEntity
  8
7
100
AcDbLine
 10
1.732753528306311
 20
0.411529216301453
 30
0.0
 11
1.713068488936233
 21
0.411529216301453
 31
0.0
  0
LINE
  5
34A4
330
1E
100
AcDbEntity
  8
7
100
AcDbLine
 10
1.713068488936233
 20
0.411529216301453
 30
0.0
 11
0.7799976227945021
 21
0.411529216301453
 31
0.0
  0
LINE
  5
34A5
330
1E
100
AcDbEntity
  8
7
100
AcDbLine
 10
1.752438567676389
 20
9.773733940710901
 30
0.0
 11
1.7799976227945
 21
9.714678822600664
 31
0.0
  0
LINE
  5
34A6
330
1E
100
AcDbEntity
  8
7
100
AcDbLine
 10
1.7799976227945
 20
9.714678822600664
 30
0.0
 11
1.791808646416548
 21
9.691056775356571
 31
0.0
  0
LINE
  5
34A7
330
1E
100
AcDbEntity
  8
7
100
AcDbLine
 10
1.713068488936233
 20
9.765859924962871
 30
0.0
 11
1.713068488936233
 21
9.702867798978619
 31
0.0
  0
LINE
  5
34A8
330
1E
100
AcDbEntity
  8
7
100
AcDbLine
 10
1.713068488936233
 20
9.702867798978619
 30
0.0
 11
1.713068488936233
 21
9.675308743860508
 31
0.0
  0
LINE
  5
34A9
330
1E
100
AcDbEntity
  8
7
100
AcDbLine
 10
0.7799976227945021
 20
9.765859924962871
 30
0.0
 11
0.7799976227945021
 21
9.702867798978619
 31
0.0
  0
LINE
  5
34AA
330
1E
100
AcDbEntity
  8
7
100
AcDbLine
 10
0.7799976227945021
 20
9.702867798978619
 30
0.0
 11
0.7799976227945021
 21
9.675308743860508
 31
0.0
  0
LINE
  5
34AB
330
1E
100
AcDbEntity
  8
7
100
AcDbLine
 10
0.7445645519283595
 20
9.773733940710901
 30
0.0
 11
0.7170054968102502
 21
9.714678822600664
 31
0.0
  0
LINE
  5
34AC
330
1E
100
AcDbEntity
  8
7
100
AcDbLine
 10
0.7170054968102502
 20
9.714678822600664
 30
0.0
 11
0.7051944731882021
 21
9.691056775356571
 31
0.0
  0
LINE
  5
34AD
330
1E
100
AcDbEntity
  8
7
100
AcDbLine
 10
0.7051944731882021
 20
9.694993783230586
 30
0.0
 11
0.7406275440543446
 21
9.683182759608538
 31
0.0
  0
LINE
  5
34AE
330
1E
100
AcDbEntity
  8
7
100
AcDbLine
 10
0.7406275440543446
 20
9.683182759608538
 30
0.0
 11
0.7799976227945021
 21
9.679245751734523
 31
0.0
  0
LINE
  5
34AF
330
1E
100
AcDbEntity
  8
7
100
AcDbLine
 10
1.713068488936233
 20
9.679245751734523
 30
0.0
 11
1.752438567676389
 21
9.683182759608538
 31
0.0
  0
LINE
  5
34B0
330
1E
100
AcDbEntity
  8
7
100
AcDbLine
 10
1.752438567676389
 20
9.683182759608538
 30
0.0
 11
1.787871638542529
 21
9.694993783230586
 31
0.0
  0
LINE
  5
34B1
330
1E
100
AcDbEntity
  8
7
100
AcDbLine
 10
-8.188506314213372
 20
13.53357646039594
 30
0.0
 11
-8.231813400827544
 21
13.53357646039594
 31
0.0
  0
LINE
  5
34B2
330
1E
100
AcDbEntity
  8
7
100
AcDbLine
 10
-8.231813400827544
 20
13.53357646039594
 30
0.0
 11
-8.251498440197623
 21
13.53357646039594
 31
0.0
  0
LINE
  5
34B3
330
1E
100
AcDbEntity
  8
7
100
AcDbLine
 10
-7.452285841772427
 20
13.56113551551405
 30
0.0
 11
-7.475907889016522
 21
13.50995441315184
 31
0.0
  0
LINE
  5
34B4
330
1E
100
AcDbEntity
  8
7
100
AcDbLine
 10
-7.475907889016522
 20
13.50995441315184
 30
0.0
 11
-7.456222849646444
 21
13.4981433895298
 31
0.0
  0
LINE
  5
34B5
330
1E
100
AcDbEntity
  8
7
100
AcDbLine
 10
-7.456222849646444
 20
13.4981433895298
 30
0.0
 11
-7.41291576303227
 21
13.47845835015972
 31
0.0
  0
LINE
  5
34B6
330
1E
100
AcDbEntity
  8
7
100
AcDbLine
 10
-7.41291576303227
 20
13.47845835015972
 30
0.0
 11
-7.377482692166129
 21
13.46271031866365
 31
0.0
  0
LINE
  5
34B7
330
1E
100
AcDbEntity
  8
7
100
AcDbLine
 10
-7.377482692166129
 20
13.46271031866365
 30
0.0
 11
-7.369608676418096
 21
13.45877331078964
 31
0.0
  0
LINE
  5
34B8
330
1E
100
AcDbEntity
  8
7
100
AcDbLine
 10
-7.369608676418096
 20
13.45877331078964
 30
0.0
 11
-7.365671668544081
 21
13.46271031866365
 31
0.0
  0
LINE
  5
34B9
330
1E
100
AcDbEntity
  8
7
100
AcDbLine
 10
-7.475907889016522
 20
13.50995441315184
 30
0.0
 11
-7.483781904764553
 21
13.51389142102586
 31
0.0
  0
LINE
  5
34BA
330
1E
100
AcDbEntity
  8
7
100
AcDbLine
 10
-7.483781904764553
 20
13.51389142102586
 30
0.0
 11
-7.507403952008647
 21
13.52176543677389
 31
0.0
  0
LINE
  5
34BB
330
1E
100
AcDbEntity
  8
7
100
AcDbLine
 10
-7.534963007126759
 20
13.52963945252192
 30
0.0
 11
-7.515277967756679
 21
13.5257024446479
 31
0.0
  0
LINE
  5
34BC
330
1E
100
AcDbEntity
  8
7
100
AcDbLine
 10
-7.515277967756679
 20
13.5257024446479
 30
0.0
 11
-7.507403952008647
 21
13.52176543677389
 31
0.0
  0
LINE
  5
34BD
330
1E
100
AcDbEntity
  8
7
100
AcDbLine
 10
-7.483781904764553
 20
13.57688354701011
 30
0.0
 11
-7.499529936260616
 21
13.58475756275814
 31
0.0
  0
LINE
  5
34BE
330
1E
100
AcDbEntity
  8
7
100
AcDbLine
 10
-7.499529936260616
 20
13.58475756275814
 30
0.0
 11
-7.507403952008647
 21
13.58475756275814
 31
0.0
  0
LINE
  5
34BF
330
1E
100
AcDbEntity
  8
7
100
AcDbLine
 10
-7.349923637048018
 20
13.51389142102586
 30
0.0
 11
-7.389293715788175
 21
13.53357646039594
 31
0.0
  0
LINE
  5
34C0
330
1E
100
AcDbEntity
  8
7
100
AcDbLine
 10
-7.389293715788175
 20
13.53357646039594
 30
0.0
 11
-7.432600802402347
 21
13.55326149976602
 31
0.0
  0
LINE
  5
34C1
330
1E
100
AcDbEntity
  8
7
100
AcDbLine
 10
-7.432600802402347
 20
13.55326149976602
 30
0.0
 11
-7.452285841772427
 21
13.56113551551405
 31
0.0
  0
LINE
  5
34C2
330
1E
100
AcDbEntity
  8
7
100
AcDbLine
 10
-7.483781904764553
 20
13.57688354701011
 30
0.0
 11
-7.460159857520459
 21
13.56507252338806
 31
0.0
  0
LINE
  5
34C3
330
1E
100
AcDbEntity
  8
7
100
AcDbLine
 10
-7.460159857520459
 20
13.56507252338806
 30
0.0
 11
-7.452285841772427
 21
13.56113551551405
 31
0.0
  0
LINE
  5
34C4
330
1E
100
AcDbEntity
  8
7
100
AcDbLine
 10
-7.507403952008647
 20
13.58475756275814
 30
0.0
 11
-7.534963007126759
 21
13.59263157850618
 31
0.0
  0
LINE
  5
34C5
330
1E
100
AcDbEntity
  8
7
100
AcDbLine
 10
-7.534963007126759
 20
13.59263157850618
 30
0.0
 11
-7.558585054370851
 21
13.59263157850618
 31
0.0
  0
LINE
  5
34C6
330
1E
100
AcDbEntity
  8
7
100
AcDbLine
 10
-7.534963007126759
 20
13.52963945252192
 30
0.0
 11
-7.546774030748805
 21
13.53357646039594
 31
0.0
  0
LINE
  5
34C7
330
1E
100
AcDbEntity
  8
7
100
AcDbLine
 10
-7.546774030748805
 20
13.53357646039594
 30
0.0
 11
-7.558585054370851
 21
13.53357646039594
 31
0.0
  0
LINE
  5
34C8
330
1E
100
AcDbEntity
  8
7
100
AcDbLine
 10
-8.188506314213372
 20
13.59263157850618
 30
0.0
 11
-8.188506314213372
 21
13.53357646039594
 31
0.0
  0
LINE
  5
34C9
330
1E
100
AcDbEntity
  8
7
100
AcDbLine
 10
-8.188506314213372
 20
13.53357646039594
 30
0.0
 11
-7.558585054370851
 21
13.53357646039594
 31
0.0
  0
LINE
  5
34CA
330
1E
100
AcDbEntity
  8
7
100
AcDbLine
 10
-8.251498440197623
 20
13.59263157850618
 30
0.0
 11
-8.231813400827544
 21
13.59263157850618
 31
0.0
  0
LINE
  5
34CB
330
1E
100
AcDbEntity
  8
7
100
AcDbLine
 10
-8.231813400827544
 20
13.59263157850618
 30
0.0
 11
-8.188506314213372
 21
13.59263157850618
 31
0.0
  0
LINE
  5
34CC
330
1E
100
AcDbEntity
  8
7
100
AcDbLine
 10
-7.365671668544081
 20
13.46271031866365
 30
0.0
 11
-7.353860644922033
 21
13.49026937378176
 31
0.0
  0
LINE
  5
34CD
330
1E
100
AcDbEntity
  8
7
100
AcDbLine
 10
-7.353860644922033
 20
13.49026937378176
 30
0.0
 11
-7.330238597677938
 21
13.53751346826995
 31
0.0
  0
LINE
  5
34CE
330
1E
100
AcDbEntity
  8
7
100
AcDbLine
 10
10.00440707161339
 20
13.52176543677389
 30
0.0
 11
10.02015510310946
 21
13.52963945252192
 31
0.0
  0
LINE
  5
34CF
330
1E
100
AcDbEntity
  8
7
100
AcDbLine
 10
10.02015510310946
 20
13.52963945252192
 30
0.0
 11
10.02802911885749
 21
13.52963945252192
 31
0.0
  0
LINE
  5
34D0
330
1E
100
AcDbEntity
  8
7
100
AcDbLine
 10
10.00440707161339
 20
13.58475756275814
 30
0.0
 11
9.984722032243318
 21
13.58082055488413
 31
0.0
  0
LINE
  5
34D1
330
1E
100
AcDbEntity
  8
7
100
AcDbLine
 10
9.984722032243318
 20
13.58082055488413
 30
0.0
 11
9.976848016495285
 21
13.57688354701011
 31
0.0
  0
LINE
  5
34D2
330
1E
100
AcDbEntity
  8
7
100
AcDbLine
 10
9.846926756652766
 20
13.51389142102586
 30
0.0
 11
9.842989748778752
 21
13.51389142102586
 31
0.0
  0
LINE
  5
34D3
330
1E
100
AcDbEntity
  8
7
100
AcDbLine
 10
9.842989748778752
 20
13.51389142102586
 30
0.0
 11
9.839052740904737
 21
13.51782842889988
 31
0.0
  0
LINE
  5
34D4
330
1E
100
AcDbEntity
  8
7
100
AcDbLine
 10
9.839052740904737
 20
13.51782842889988
 30
0.0
 11
9.835115733030718
 21
13.52176543677389
 31
0.0
  0
LINE
  5
34D5
330
1E
100
AcDbEntity
  8
7
100
AcDbLine
 10
9.835115733030718
 20
13.52176543677389
 30
0.0
 11
9.831178725156703
 21
13.52963945252192
 31
0.0
  0
LINE
  5
34D6
330
1E
100
AcDbEntity
  8
7
100
AcDbLine
 10
9.831178725156703
 20
13.52963945252192
 30
0.0
 11
9.827241717282689
 21
13.53751346826995
 31
0.0
  0
LINE
  5
34D7
330
1E
100
AcDbEntity
  8
7
100
AcDbLine
 10
9.862674788148829
 20
13.46271031866365
 30
0.0
 11
9.866611796022844
 21
13.45877331078964
 31
0.0
  0
LINE
  5
34D8
330
1E
100
AcDbEntity
  8
7
100
AcDbLine
 10
9.866611796022844
 20
13.45877331078964
 30
0.0
 11
9.870548803896863
 21
13.46271031866365
 31
0.0
  0
LINE
  5
34D9
330
1E
100
AcDbEntity
  8
7
100
AcDbLine
 10
10.00440707161339
 20
13.52176543677389
 30
0.0
 11
9.980785024369303
 21
13.51389142102586
 31
0.0
  0
LINE
  5
34DA
330
1E
100
AcDbEntity
  8
7
100
AcDbLine
 10
9.980785024369303
 20
13.51389142102586
 30
0.0
 11
9.97291100862127
 21
13.50995441315184
 31
0.0
  0
LINE
  5
34DB
330
1E
100
AcDbEntity
  8
7
100
AcDbLine
 10
9.97291100862127
 20
13.50995441315184
 30
0.0
 11
9.953225969251192
 21
13.4981433895298
 31
0.0
  0
LINE
  5
34DC
330
1E
100
AcDbEntity
  8
7
100
AcDbLine
 10
9.953225969251192
 20
13.4981433895298
 30
0.0
 11
9.909918882637018
 21
13.47845835015972
 31
0.0
  0
LINE
  5
34DD
330
1E
100
AcDbEntity
  8
7
100
AcDbLine
 10
9.909918882637018
 20
13.47845835015972
 30
0.0
 11
9.870548803896863
 21
13.46271031866365
 31
0.0
  0
LINE
  5
34DE
330
1E
100
AcDbEntity
  8
7
100
AcDbLine
 10
9.870548803896863
 20
13.46271031866365
 30
0.0
 11
1.791808646416548
 21
9.691056775356571
 31
0.0
  0
LINE
  5
34DF
330
1E
100
AcDbEntity
  8
7
100
AcDbLine
 10
9.846926756652766
 20
13.51389142102586
 30
0.0
 11
9.886296835392926
 21
13.53357646039594
 31
0.0
  0
LINE
  5
34E0
330
1E
100
AcDbEntity
  8
7
100
AcDbLine
 10
9.886296835392926
 20
13.53357646039594
 30
0.0
 11
9.929603922007096
 21
13.55326149976602
 31
0.0
  0
LINE
  5
34E1
330
1E
100
AcDbEntity
  8
7
100
AcDbLine
 10
9.929603922007096
 20
13.55326149976602
 30
0.0
 11
9.949288961377177
 21
13.56113551551405
 31
0.0
  0
LINE
  5
34E2
330
1E
100
AcDbEntity
  8
7
100
AcDbLine
 10
9.949288961377177
 20
13.56113551551405
 30
0.0
 11
9.957162977125207
 21
13.56507252338806
 31
0.0
  0
LINE
  5
34E3
330
1E
100
AcDbEntity
  8
7
100
AcDbLine
 10
9.957162977125207
 20
13.56507252338806
 30
0.0
 11
9.976848016495285
 21
13.57688354701011
 31
0.0
  0
LINE
  5
34E4
330
1E
100
AcDbEntity
  8
7
100
AcDbLine
 10
10.68550943381812
 20
13.59263157850618
 30
0.0
 11
10.72881652043229
 21
13.59263157850618
 31
0.0
  0
LINE
  5
34E5
330
1E
100
AcDbEntity
  8
7
100
AcDbLine
 10
10.72881652043229
 20
13.59263157850618
 30
0.0
 11
10.74850155980237
 21
13.59263157850618
 31
0.0
  0
LINE
  5
34E6
330
1E
100
AcDbEntity
  8
7
100
AcDbLine
 10
10.74850155980237
 20
13.59263157850618
 30
0.0
 11
10.74850155980237
 21
13.53357646039594
 31
0.0
  0
LINE
  5
34E7
330
1E
100
AcDbEntity
  8
7
100
AcDbLine
 10
10.74850155980237
 20
13.53357646039594
 30
0.0
 11
10.72881652043229
 21
13.53357646039594
 31
0.0
  0
LINE
  5
34E8
330
1E
100
AcDbEntity
  8
7
100
AcDbLine
 10
10.72881652043229
 20
13.53357646039594
 30
0.0
 11
10.68550943381812
 21
13.53357646039594
 31
0.0
  0
LINE
  5
34E9
330
1E
100
AcDbEntity
  8
7
100
AcDbLine
 10
10.0555881739756
 20
13.53357646039594
 30
0.0
 11
10.04377715035355
 21
13.53357646039594
 31
0.0
  0
LINE
  5
34EA
330
1E
100
AcDbEntity
  8
7
100
AcDbLine
 10
10.04377715035355
 20
13.53357646039594
 30
0.0
 11
10.0319661267315
 21
13.52963945252192
 31
0.0
  0
LINE
  5
34EB
330
1E
100
AcDbEntity
  8
7
100
AcDbLine
 10
10.0555881739756
 20
13.59263157850618
 30
0.0
 11
10.0319661267315
 21
13.59263157850618
 31
0.0
  0
LINE
  5
34EC
330
1E
100
AcDbEntity
  8
7
100
AcDbLine
 10
10.0319661267315
 20
13.59263157850618
 30
0.0
 11
10.00440707161339
 21
13.58475756275814
 31
0.0
  0
LINE
  5
34ED
330
1E
100
AcDbEntity
  8
7
100
AcDbLine
 10
10.0555881739756
 20
13.53357646039594
 30
0.0
 11
10.68550943381812
 21
13.53357646039594
 31
0.0
  0
LINE
  5
34EE
330
1E
100
AcDbEntity
  8
7
100
AcDbLine
 10
10.68550943381812
 20
13.53357646039594
 30
0.0
 11
10.68550943381812
 21
13.59263157850618
 31
0.0
  0
LINE
  5
34EF
330
1E
100
AcDbEntity
  8
7
100
AcDbLine
 10
10.68550943381812
 20
13.59263157850618
 30
0.0
 11
10.0555881739756
 21
13.59263157850618
 31
0.0
  0
LINE
  5
34F0
330
1E
100
AcDbEntity
  8
7
100
AcDbLine
 10
0.7445645519283595
 20
9.777670948584916
 30
0.0
 11
0.7603125834244225
 21
9.773733940710901
 31
0.0
  0
LINE
  5
34F1
330
1E
100
AcDbEntity
  8
7
100
AcDbLine
 10
0.7603125834244225
 20
9.773733940710901
 30
0.0
 11
0.7799976227945021
 21
9.769796932836886
 31
0.0
  0
LINE
  5
34F2
330
1E
100
AcDbEntity
  8
7
100
AcDbLine
 10
-7.129451196103136
 20
13.83278905882113
 30
0.0
 11
-7.172758282717309
 21
13.83278905882113
 31
0.0
  0
LINE
  5
34F3
330
1E
100
AcDbEntity
  8
7
100
AcDbLine
 10
-7.172758282717309
 20
13.83278905882113
 30
0.0
 11
-7.208191353583451
 21
13.80129299582901
 31
0.0
  0
LINE
  5
34F4
330
1E
100
AcDbEntity
  8
7
100
AcDbLine
 10
9.7051944731882
 20
13.80129299582901
 30
0.0
 11
9.669761402322059
 21
13.83278905882113
 31
0.0
  0
LINE
  5
34F5
330
1E
100
AcDbEntity
  8
7
100
AcDbLine
 10
9.669761402322059
 20
13.83278905882113
 30
0.0
 11
9.626454315707885
 21
13.83278905882113
 31
0.0
  0
LINE
  5
34F6
330
1E
100
AcDbEntity
  8
7
100
AcDbLine
 10
1.752438567676389
 20
9.773733940710901
 30
0.0
 11
9.827241717282689
 21
13.53751346826995
 31
0.0
  0
LINE
  5
34F7
330
1E
100
AcDbEntity
  8
7
100
AcDbLine
 10
9.827241717282689
 20
13.53751346826995
 30
0.0
 11
9.7051944731882
 21
13.80129299582901
 31
0.0
  0
LINE
  5
34F8
330
1E
100
AcDbEntity
  8
7
100
AcDbLine
 10
1.713068488936233
 20
9.769796932836886
 30
0.0
 11
1.732753528306311
 21
9.773733940710901
 31
0.0
  0
LINE
  5
34F9
330
1E
100
AcDbEntity
  8
7
100
AcDbLine
 10
1.732753528306311
 20
9.773733940710901
 30
0.0
 11
1.748501559802374
 21
9.777670948584916
 31
0.0
  0
LINE
  5
34FA
330
1E
100
AcDbEntity
  8
7
100
AcDbLine
 10
1.268186599172452
 20
9.675308743860508
 30
0.0
 11
1.2051944731882
 21
9.675308743860508
 31
0.0
  0
LINE
  5
34FB
330
1E
100
AcDbEntity
  8
7
100
AcDbLine
 10
1.2051944731882
 20
9.675308743860508
 30
0.0
 11
1.268186599172452
 21
9.675308743860508
 31
0.0
  0
ENDSEC
  0
SECTION
  2
OBJECTS
  0
DICTIONARY
  5
C
330
0
100
AcDbDictionary
  3
ACAD_GROUP
350
D
  3
ACAD_LAYOUT
350
19
  3
ACAD_MLINESTYLE
350
16
  3
ACAD_PLOTSETTINGS
350
18
1001
ACAD
1000
TREAT_AS_HARD
1070
     0
  0
DICTIONARY
  5
4879
330
1E
100
AcDbDictionary
  3
ACAD_LAYOUTSELFREF
350
48B3
1001
ACAD
1000
TREAT_AS_HARD
1070
     1
  0
DICTIONARY
  5
487B
330
1A
100
AcDbDictionary
  3
ACAD_LAYOUTSELFREF
350
48B2
1001
ACAD
1000
TREAT_AS_HARD
1070
     1
  0
DICTIONARY
  5
D
102
{ACAD_REACTORS
330
C
102
}
330
C
100
AcDbDictionary
1001
ACAD
1000
TREAT_AS_HARD
1070
     0
  0
DICTIONARY
  5
19
102
{ACAD_REACTORS
330
C
102
}
330
C
100
AcDbDictionary
1001
ACAD
1000
TREAT_AS_HARD
1070
     0
  0
DICTIONARY
  5
16
102
{ACAD_REACTORS
330
C
102
}
330
C
100
AcDbDictionary
  3
STANDARD
350
17
1001
ACAD
1000
TREAT_AS_HARD
1070
     0
  0
DICTIONARY
  5
18
102
{ACAD_REACTORS
330
C
102
}
330
C
100
AcDbDictionary
1001
ACAD
1000
TREAT_AS_HARD
1070
     0
  0
XRECORD
  5
48B3
102
{ACAD_REACTORS
330
4879
102
}
330
4879
100
AcDbXrecord
340
1E
  0
XRECORD
  5
48B2
102
{ACAD_REACTORS
330
487B
102
}
330
487B
100
AcDbXrecord
340
1A
  0
MLINESTYLE
  5
17
102
{ACAD_REACTORS
330
16
102
}
330
16
100
AcDbMlineStyle
  2
STANDARD
 70
     0
  3

 62
   256
 51
90.0
 52
90.0
 71
     2
 49
0.5
 62
   256
  6
BYLAYER
 49
-0.5
 62
   256
  6
BYLAYER
  0
ENDSEC
  0
EOF
