  0
SECTION
  2
HEADER
  9
$ACADVER
  1
AC1012
  9
$DWGCODEPAGE
  3
ANSI_1252
  9
$INSBASE
 10
0.0
 20
0.0
 30
0.0
  9
$EXTMIN
 10
2.70959475765656
 20
4.817230251172126
 30
-0.0015258207003583
  9
$EXTMAX
 10
6.828552268013069
 20
6.265365618357161
 30
0.0000000349246037
  9
$LIMMIN
 10
0.0
 20
0.0
  9
$LIMMAX
 10
12.0
 20
9.0
  9
$ORTHOMODE
 70
     0
  9
$REGENMODE
 70
     1
  9
$FILLMODE
 70
     1
  9
$QTEXTMODE
 70
     0
  9
$MIRRTEXT
 70
     1
  9
$DRAGMODE
 70
     2
  9
$LTSCALE
 40
1.0
  9
$OSMODE
 70
    35
  9
$ATTMODE
 70
     1
  9
$TEXTSIZE
 40
0.2
  9
$TRACEWID
 40
0.05
  9
$TEXTSTYLE
  7
STANDARD
  9
$CLAYER
  8
0
  9
$CELTYPE
  6
BYLAYER
  9
$CECOLOR
 62
   256
  9
$CELTSCALE
 40
1.0
  9
$DELOBJ
 70
     1
  9
$DISPSILH
 70
     0
  9
$DIMSCALE
 40
1.0
  9
$DIMASZ
 40
0.18
  9
$DIMEXO
 40
0.0625
  9
$DIMDLI
 40
0.38
  9
$DIMRND
 40
0.0
  9
$DIMDLE
 40
0.0
  9
$DIMEXE
 40
0.18
  9
$DIMTP
 40
0.0
  9
$DIMTM
 40
0.0
  9
$DIMTXT
 40
0.18
  9
$DIMCEN
 40
0.09
  9
$DIMTSZ
 40
0.0
  9
$DIMTOL
 70
     0
  9
$DIMLIM
 70
     0
  9
$DIMTIH
 70
     1
  9
$DIMTOH
 70
     1
  9
$DIMSE1
 70
     0
  9
$DIMSE2
 70
     0
  9
$DIMTAD
 70
     0
  9
$DIMZIN
 70
     0
  9
$DIMBLK
  1

  9
$DIMASO
 70
     1
  9
$DIMSHO
 70
     1
  9
$DIMPOST
  1

  9
$DIMAPOST
  1

  9
$DIMALT
 70
     0
  9
$DIMALTD
 70
     2
  9
$DIMALTF
 40
25.4
  9
$DIMLFAC
 40
1.0
  9
$DIMTOFL
 70
     0
  9
$DIMTVP
 40
0.0
  9
$DIMTIX
 70
     0
  9
$DIMSOXD
 70
     0
  9
$DIMSAH
 70
     0
  9
$DIMBLK1
  1

  9
$DIMBLK2
  1

  9
$DIMSTYLE
  2
STANDARD
  9
$DIMCLRD
 70
     0
  9
$DIMCLRE
 70
     0
  9
$DIMCLRT
 70
     0
  9
$DIMTFAC
 40
1.0
  9
$DIMGAP
 40
0.09
  9
$DIMJUST
 70
     0
  9
$DIMSD1
 70
     0
  9
$DIMSD2
 70
     0
  9
$DIMTOLJ
 70
     1
  9
$DIMTZIN
 70
     0
  9
$DIMALTZ
 70
     0
  9
$DIMALTTZ
 70
     0
  9
$DIMFIT
 70
     5
  9
$DIMUPT
 70
     0
  9
$DIMUNIT
 70
     2
  9
$DIMDEC
 70
     4
  9
$DIMTDEC
 70
     4
  9
$DIMALTU
 70
     2
  9
$DIMALTTD
 70
     2
  9
$DIMTXSTY
  7
STANDARD
  9
$DIMAUNIT
 70
     0
  9
$LUNITS
 70
     2
  9
$LUPREC
 70
     4
  9
$SKETCHINC
 40
0.1
  9
$FILLETRAD
 40
0.0
  9
$AUNITS
 70
     0
  9
$AUPREC
 70
     0
  9
$MENU
  1
acad
  9
$ELEVATION
 40
0.0
  9
$PELEVATION
 40
0.0
  9
$THICKNESS
 40
0.0
  9
$LIMCHECK
 70
     0
  9
$BLIPMODE
 70
     0
  9
$CHAMFERA
 40
0.0
  9
$CHAMFERB
 40
0.0
  9
$CHAMFERC
 40
0.0
  9
$CHAMFERD
 40
0.0
  9
$SKPOLY
 70
     0
  9
$TDCREATE
 40
2453049.429594907
  9
$TDUPDATE
 40
2453049.455272638
  9
$TDINDWG
 40
0.0006157870
  9
$TDUSRTIMER
 40
0.0006157870
  9
$USRTIMER
 70
     1
  9
$ANGBASE
 50
0.0
  9
$ANGDIR
 70
     0
  9
$PDMODE
 70
     0
  9
$PDSIZE
 40
0.0
  9
$PLINEWID
 40
0.0
  9
$COORDS
 70
     2
  9
$SPLFRAME
 70
     0
  9
$SPLINETYPE
 70
     6
  9
$SPLINESEGS
 70
     8
  9
$ATTDIA
 70
     0
  9
$ATTREQ
 70
     1
  9
$HANDLING
 70
  4097
  9
$HANDSEED
  5
4007
  9
$SURFTAB1
 70
     6
  9
$SURFTAB2
 70
     6
  9
$SURFTYPE
 70
     6
  9
$SURFU
 70
     6
  9
$SURFV
 70
     6
  9
$UCSNAME
  2

  9
$UCSORG
 10
0.0
 20
0.0
 30
0.0
  9
$UCSXDIR
 10
1.0
 20
0.0
 30
0.0
  9
$UCSYDIR
 10
0.0
 20
1.0
 30
0.0
  9
$PUCSNAME
  2

  9
$PUCSORG
 10
0.0
 20
0.0
 30
0.0
  9
$PUCSXDIR
 10
1.0
 20
0.0
 30
0.0
  9
$PUCSYDIR
 10
0.0
 20
1.0
 30
0.0
  9
$USERI1
 70
     0
  9
$USERI2
 70
     0
  9
$USERI3
 70
     0
  9
$USERI4
 70
     0
  9
$USERI5
 70
     0
  9
$USERR1
 40
0.0
  9
$USERR2
 40
0.0
  9
$USERR3
 40
0.0
  9
$USERR4
 40
0.0
  9
$USERR5
 40
0.0
  9
$WORLDVIEW
 70
     1
  9
$SHADEDGE
 70
     3
  9
$SHADEDIF
 70
    70
  9
$TILEMODE
 70
     1
  9
$MAXACTVP
 70
    16
  9
$PINSBASE
 10
0.0
 20
0.0
 30
0.0
  9
$PLIMCHECK
 70
     0
  9
$PEXTMIN
 10
1.000000000000000E+20
 20
1.000000000000000E+20
 30
1.000000000000000E+20
  9
$PEXTMAX
 10
-1.000000000000000E+20
 20
-1.000000000000000E+20
 30
-1.000000000000000E+20
  9
$PLIMMIN
 10
0.0
 20
0.0
  9
$PLIMMAX
 10
12.0
 20
9.0
  9
$UNITMODE
 70
     0
  9
$VISRETAIN
 70
     0
  9
$PLINEGEN
 70
     0
  9
$PSLTSCALE
 70
     1
  9
$TREEDEPTH
 70
  3020
  9
$PICKSTYLE
 70
     1
  9
$CMLSTYLE
  2
STANDARD
  9
$CMLJUST
 70
     0
  9
$CMLSCALE
 40
1.0
  9
$SAVEIMAGES
 70
     1
  0
ENDSEC
  0
SECTION
  2
CLASSES
  0
CLASS
  1
ACDBDICTIONARYWDFLT
  2
AcDbDictionaryWithDefault
  3
AutoCAD 2000
 90
    32768
280
     0
281
     0
  0
CLASS
  1
ACDBPLACEHOLDER
  2
AcDbPlaceHolder
  3
AutoCAD 2000
 90
    32768
280
     0
281
     0
  0
CLASS
  1
LAYOUT
  2
AcDbLayout
  3
AutoCAD 2000
 90
    32768
280
     0
281
     0
  0
CLASS
  1
LONG_TRANSACTION
  2
AcDbLongTransaction
  3
AutoCAD 2000
 90
    32768
280
     0
281
     0
  0
CLASS
  1
LWPOLYLINE
  2
AcDbPolyline
  3
AutoCAD 2000
 90
    32768
280
     0
281
     1
  0
CLASS
  1
HATCH
  2
AcDbHatch
  3
AutoCAD 2000
 90
    32768
280
     0
281
     1
  0
CLASS
  1
XRECORD
  2
AcDbXrecord
  3
AutoCAD 2000
 90
    32768
280
     0
281
     0
  0
ENDSEC
  0
SECTION
  2
TABLES
  0
TABLE
  2
VPORT
  5
8
330
0
100
AcDbSymbolTable
 70
     3
  0
VPORT
  5
4002
330
8
100
AcDbSymbolTableRecord
100
AcDbViewportTableRecord
  2
*ACTIVE
 70
     0
 10
0.0
 20
0.0
 11
1.0
 21
1.0
 12
4.769073512834815
 22
5.541297934764644
 13
0.0
 23
0.0
 14
1.0
 24
1.0
 15
0.0
 25
0.0
 16
0.0
 26
0.0
 36
1.0
 17
0.0
 27
0.0
 37
0.0
 40
2.416243862423628
 41
1.713080168776371
 42
50.0
 43
0.0
 44
0.0
 50
0.0
 51
0.0
 71
     0
 72
   100
 73
     1
 74
     1
 75
     0
 76
     0
 77
     0
 78
     0
  0
ENDTAB
  0
TABLE
  2
LTYPE
  5
5
330
0
100
AcDbSymbolTable
 70
    25
  0
LTYPE
  5
13
330
5
100
AcDbSymbolTableRecord
100
AcDbLinetypeTableRecord
  2
BYBLOCK
 70
     0
  3

 72
    65
 73
     0
 40
0.0
  0
LTYPE
  5
14
330
5
100
AcDbSymbolTableRecord
100
AcDbLinetypeTableRecord
  2
BYLAYER
 70
     0
  3

 72
    65
 73
     0
 40
0.0
  0
LTYPE
  5
15
330
5
100
AcDbSymbolTableRecord
100
AcDbLinetypeTableRecord
  2
CONTINUOUS
 70
     0
  3
Solid line
 72
    65
 73
     0
 40
0.0
  0
LTYPE
  5
22
330
5
100
AcDbSymbolTableRecord
100
AcDbLinetypeTableRecord
  2
BORDER
 70
     0
  3
__ __ . __ __ . __ __ . __ __ . __ __ . __ __ .
 72
    65
 73
     6
 40
1.75
 49
0.5
 74
     0
 49
-0.25
 74
     0
 49
0.5
 74
     0
 49
-0.25
 74
     0
 49
0.5
 74
     0
 49
-0.25
 74
     0
  0
LTYPE
  5
23
330
5
100
AcDbSymbolTableRecord
100
AcDbLinetypeTableRecord
  2
BORDER2
 70
     0
  3
__.__.__.__.__.__.__.__.__.__.__.__.__.__.__.__
 72
    65
 73
     6
 40
0.875
 49
0.25
 74
     0
 49
-0.125
 74
     0
 49
0.25
 74
     0
 49
-0.125
 74
     0
 49
0.25
 74
     0
 49
-0.125
 74
     0
  0
LTYPE
  5
24
330
5
100
AcDbSymbolTableRecord
100
AcDbLinetypeTableRecord
  2
BORDERX2
 70
     0
  3
____  ____  .  ____  ____  .  
 72
    65
 73
     6
 40
3.5
 49
1.0
 74
     0
 49
-0.5
 74
     0
 49
1.0
 74
     0
 49
-0.5
 74
     0
 49
1.0
 74
     0
 49
-0.5
 74
     0
  0
LTYPE
  5
25
330
5
100
AcDbSymbolTableRecord
100
AcDbLinetypeTableRecord
  2
CENTER
 70
     0
  3
____ _ ____ _ ____ _ ____ _ ____ _ ____ _ ____
 72
    65
 73
     4
 40
2.0
 49
1.25
 74
     0
 49
-0.25
 74
     0
 49
0.25
 74
     0
 49
-0.25
 74
     0
  0
LTYPE
  5
26
330
5
100
AcDbSymbolTableRecord
100
AcDbLinetypeTableRecord
  2
CENTER2
 70
     0
  3
____ _ ____ _ ____ _ ____ _ ____ _ ____ _ ____
 72
    65
 73
     4
 40
1.125
 49
0.75
 74
     0
 49
-0.125
 74
     0
 49
0.125
 74
     0
 49
-0.125
 74
     0
  0
LTYPE
  5
27
330
5
100
AcDbSymbolTableRecord
100
AcDbLinetypeTableRecord
  2
CENTERX2
 70
     0
  3
________  __  ________  __  ________  __  
 72
    65
 73
     4
 40
4.0
 49
2.5
 74
     0
 49
-0.5
 74
     0
 49
0.5
 74
     0
 49
-0.5
 74
     0
  0
LTYPE
  5
28
330
5
100
AcDbSymbolTableRecord
100
AcDbLinetypeTableRecord
  2
DASHDOT
 70
     0
  3
__ . __ . __ . __ . __ . __ . __ . 
 72
    65
 73
     4
 40
1.0
 49
0.5
 74
     0
 49
-0.25
 74
     0
 49
0.0
 74
     0
 49
-0.25
 74
     0
  0
LTYPE
  5
29
330
5
100
AcDbSymbolTableRecord
100
AcDbLinetypeTableRecord
  2
DASHDOT2
 70
     0
  3
_._._._._._._._._._._._._._._._.
 72
    65
 73
     4
 40
0.5
 49
0.25
 74
     0
 49
-0.125
 74
     0
 49
0.0
 74
     0
 49
-0.125
 74
     0
  0
LTYPE
  5
2A
330
5
100
AcDbSymbolTableRecord
100
AcDbLinetypeTableRecord
  2
DASHDOTX2
 70
     0
  3
____  .  ____  .  ____  .  ____  .  
 72
    65
 73
     4
 40
2.0
 49
1.0
 74
     0
 49
-0.5
 74
     0
 49
0.0
 74
     0
 49
-0.5
 74
     0
  0
LTYPE
  5
2B
330
5
100
AcDbSymbolTableRecord
100
AcDbLinetypeTableRecord
  2
DASHED
 70
     0
  3
__ __ __ __ __ __ __ __ __ __ __ __ 
 72
    65
 73
     2
 40
0.75
 49
0.5
 74
     0
 49
-0.25
 74
     0
  0
LTYPE
  5
2C
330
5
100
AcDbSymbolTableRecord
100
AcDbLinetypeTableRecord
  2
DASHED2
 70
     0
  3
_ _ _ _ _ _ _ _ _ _ _ _ _ _ _ _ _ _ 
 72
    65
 73
     2
 40
0.375
 49
0.25
 74
     0
 49
-0.125
 74
     0
  0
LTYPE
  5
2D
330
5
100
AcDbSymbolTableRecord
100
AcDbLinetypeTableRecord
  2
DASHEDX2
 70
     0
  3
____  ____  ____  ____  ____  ____  
 72
    65
 73
     2
 40
1.5
 49
1.0
 74
     0
 49
-0.5
 74
     0
  0
LTYPE
  5
2E
330
5
100
AcDbSymbolTableRecord
100
AcDbLinetypeTableRecord
  2
DIVIDE
 70
     0
  3
____ . . ____ . . ____ . . ____ . . 
 72
    65
 73
     6
 40
1.25
 49
0.5
 74
     0
 49
-0.25
 74
     0
 49
0.0
 74
     0
 49
-0.25
 74
     0
 49
0.0
 74
     0
 49
-0.25
 74
     0
  0
LTYPE
  5
2F
330
5
100
AcDbSymbolTableRecord
100
AcDbLinetypeTableRecord
  2
DIVIDE2
 70
     0
  3
__..__..__..__..__..__..__..__..__..
 72
    65
 73
     6
 40
0.625
 49
0.25
 74
     0
 49
-0.125
 74
     0
 49
0.0
 74
     0
 49
-0.125
 74
     0
 49
0.0
 74
     0
 49
-0.125
 74
     0
  0
LTYPE
  5
30
330
5
100
AcDbSymbolTableRecord
100
AcDbLinetypeTableRecord
  2
DIVIDEX2
 70
     0
  3
________  .  .  ________  .  .  ________  .  . 
 72
    65
 73
     6
 40
2.5
 49
1.0
 74
     0
 49
-0.5
 74
     0
 49
0.0
 74
     0
 49
-0.5
 74
     0
 49
0.0
 74
     0
 49
-0.5
 74
     0
  0
LTYPE
  5
31
330
5
100
AcDbSymbolTableRecord
100
AcDbLinetypeTableRecord
  2
DOT
 70
     0
  3
. . . . . . . . . . . . . . . . . . 
 72
    65
 73
     2
 40
0.25
 49
0.0
 74
     0
 49
-0.25
 74
     0
  0
LTYPE
  5
32
330
5
100
AcDbSymbolTableRecord
100
AcDbLinetypeTableRecord
  2
DOT2
 70
     0
  3
....................................
 72
    65
 73
     2
 40
0.125
 49
0.0
 74
     0
 49
-0.125
 74
     0
  0
LTYPE
  5
33
330
5
100
AcDbSymbolTableRecord
100
AcDbLinetypeTableRecord
  2
DOTX2
 70
     0
  3
.  .  .  .  .  .  .  .  .  .  .  .  .  
 72
    65
 73
     2
 40
0.5
 49
0.0
 74
     0
 49
-0.5
 74
     0
  0
LTYPE
  5
34
330
5
100
AcDbSymbolTableRecord
100
AcDbLinetypeTableRecord
  2
HIDDEN
 70
     0
  3
__ __ __ __ __ __ __ __ __ __ __ __ 
 72
    65
 73
     2
 40
0.375
 49
0.25
 74
     0
 49
-0.125
 74
     0
  0
LTYPE
  5
35
330
5
100
AcDbSymbolTableRecord
100
AcDbLinetypeTableRecord
  2
HIDDEN2
 70
     0
  3
_ _ _ _ _ _ _ _ _ _ _ _ _ _ _ _ _ _ 
 72
    65
 73
     2
 40
0.1875
 49
0.125
 74
     0
 49
-0.0625
 74
     0
  0
LTYPE
  5
36
330
5
100
AcDbSymbolTableRecord
100
AcDbLinetypeTableRecord
  2
HIDDENX2
 70
     0
  3
____ ____ ____ ____ ____ ____ ____ 
 72
    65
 73
     2
 40
0.75
 49
0.5
 74
     0
 49
-0.25
 74
     0
  0
LTYPE
  5
37
330
5
100
AcDbSymbolTableRecord
100
AcDbLinetypeTableRecord
  2
PHANTOM
 70
     0
  3
______  __  __  ______  __  __  
 72
    65
 73
     6
 40
2.5
 49
1.25
 74
     0
 49
-0.25
 74
     0
 49
0.25
 74
     0
 49
-0.25
 74
     0
 49
0.25
 74
     0
 49
-0.25
 74
     0
  0
LTYPE
  5
38
330
5
100
AcDbSymbolTableRecord
100
AcDbLinetypeTableRecord
  2
PHANTOM2
 70
     0
  3
___ _ _ ___ _ _ ___ _ _ ___ _ _ 
 72
    65
 73
     6
 40
1.25
 49
0.625
 74
     0
 49
-0.125
 74
     0
 49
0.125
 74
     0
 49
-0.125
 74
     0
 49
0.125
 74
     0
 49
-0.125
 74
     0
  0
LTYPE
  5
39
330
5
100
AcDbSymbolTableRecord
100
AcDbLinetypeTableRecord
  2
PHANTOMX2
 70
     0
  3
___ _ _ ___ _ _ ___ _ _ ___ _ _ 
 72
    65
 73
     6
 40
5.0
 49
2.5
 74
     0
 49
-0.5
 74
     0
 49
0.5
 74
     0
 49
-0.5
 74
     0
 49
0.5
 74
     0
 49
-0.5
 74
     0
  0
ENDTAB
  0
TABLE
  2
LAYER
  5
2
330
0
100
AcDbSymbolTable
 70
   256
  0
LAYER
  5
10
330
2
100
AcDbSymbolTableRecord
100
AcDbLayerTableRecord
  2
0
 70
     0
 62
     7
  6
CONTINUOUS
  0
LAYER
  5
3A
330
2
100
AcDbSymbolTableRecord
100
AcDbLayerTableRecord
  2
1
 70
     0
 62
     1
  6
CONTINUOUS
  0
LAYER
  5
3B
330
2
100
AcDbSymbolTableRecord
100
AcDbLayerTableRecord
  2
2
 70
     0
 62
     2
  6
CONTINUOUS
  0
LAYER
  5
3C
330
2
100
AcDbSymbolTableRecord
100
AcDbLayerTableRecord
  2
3
 70
     0
 62
     3
  6
CONTINUOUS
  0
LAYER
  5
3D
330
2
100
AcDbSymbolTableRecord
100
AcDbLayerTableRecord
  2
4
 70
     0
 62
     4
  6
CONTINUOUS
  0
LAYER
  5
3E
330
2
100
AcDbSymbolTableRecord
100
AcDbLayerTableRecord
  2
5
 70
     0
 62
     5
  6
CONTINUOUS
  0
LAYER
  5
3F
330
2
100
AcDbSymbolTableRecord
100
AcDbLayerTableRecord
  2
6
 70
     0
 62
     6
  6
CONTINUOUS
  0
LAYER
  5
40
330
2
100
AcDbSymbolTableRecord
100
AcDbLayerTableRecord
  2
7
 70
     0
 62
     7
  6
CONTINUOUS
  0
LAYER
  5
41
330
2
100
AcDbSymbolTableRecord
100
AcDbLayerTableRecord
  2
8
 70
     0
 62
     8
  6
CONTINUOUS
  0
LAYER
  5
42
330
2
100
AcDbSymbolTableRecord
100
AcDbLayerTableRecord
  2
9
 70
     0
 62
     9
  6
CONTINUOUS
  0
LAYER
  5
43
330
2
100
AcDbSymbolTableRecord
100
AcDbLayerTableRecord
  2
10
 70
     0
 62
    10
  6
CONTINUOUS
  0
LAYER
  5
44
330
2
100
AcDbSymbolTableRecord
100
AcDbLayerTableRecord
  2
11
 70
     0
 62
    11
  6
CONTINUOUS
  0
LAYER
  5
45
330
2
100
AcDbSymbolTableRecord
100
AcDbLayerTableRecord
  2
12
 70
     0
 62
    12
  6
CONTINUOUS
  0
LAYER
  5
46
330
2
100
AcDbSymbolTableRecord
100
AcDbLayerTableRecord
  2
13
 70
     0
 62
    13
  6
CONTINUOUS
  0
LAYER
  5
47
330
2
100
AcDbSymbolTableRecord
100
AcDbLayerTableRecord
  2
14
 70
     0
 62
    14
  6
CONTINUOUS
  0
LAYER
  5
48
330
2
100
AcDbSymbolTableRecord
100
AcDbLayerTableRecord
  2
15
 70
     0
 62
    15
  6
CONTINUOUS
  0
LAYER
  5
49
330
2
100
AcDbSymbolTableRecord
100
AcDbLayerTableRecord
  2
16
 70
     0
 62
    16
  6
CONTINUOUS
  0
LAYER
  5
4A
330
2
100
AcDbSymbolTableRecord
100
AcDbLayerTableRecord
  2
17
 70
     0
 62
    17
  6
CONTINUOUS
  0
LAYER
  5
4B
330
2
100
AcDbSymbolTableRecord
100
AcDbLayerTableRecord
  2
18
 70
     0
 62
    18
  6
CONTINUOUS
  0
LAYER
  5
4C
330
2
100
AcDbSymbolTableRecord
100
AcDbLayerTableRecord
  2
19
 70
     0
 62
    19
  6
CONTINUOUS
  0
LAYER
  5
4D
330
2
100
AcDbSymbolTableRecord
100
AcDbLayerTableRecord
  2
20
 70
     0
 62
    20
  6
CONTINUOUS
  0
LAYER
  5
4E
330
2
100
AcDbSymbolTableRecord
100
AcDbLayerTableRecord
  2
21
 70
     0
 62
    21
  6
CONTINUOUS
  0
LAYER
  5
4F
330
2
100
AcDbSymbolTableRecord
100
AcDbLayerTableRecord
  2
22
 70
     0
 62
    22
  6
CONTINUOUS
  0
LAYER
  5
50
330
2
100
AcDbSymbolTableRecord
100
AcDbLayerTableRecord
  2
23
 70
     0
 62
    23
  6
CONTINUOUS
  0
LAYER
  5
51
330
2
100
AcDbSymbolTableRecord
100
AcDbLayerTableRecord
  2
24
 70
     0
 62
    24
  6
CONTINUOUS
  0
LAYER
  5
52
330
2
100
AcDbSymbolTableRecord
100
AcDbLayerTableRecord
  2
25
 70
     0
 62
    25
  6
CONTINUOUS
  0
LAYER
  5
53
330
2
100
AcDbSymbolTableRecord
100
AcDbLayerTableRecord
  2
26
 70
     0
 62
    26
  6
CONTINUOUS
  0
LAYER
  5
54
330
2
100
AcDbSymbolTableRecord
100
AcDbLayerTableRecord
  2
27
 70
     0
 62
    27
  6
CONTINUOUS
  0
LAYER
  5
55
330
2
100
AcDbSymbolTableRecord
100
AcDbLayerTableRecord
  2
28
 70
     0
 62
    28
  6
CONTINUOUS
  0
LAYER
  5
56
330
2
100
AcDbSymbolTableRecord
100
AcDbLayerTableRecord
  2
29
 70
     0
 62
    29
  6
CONTINUOUS
  0
LAYER
  5
57
330
2
100
AcDbSymbolTableRecord
100
AcDbLayerTableRecord
  2
30
 70
     0
 62
    30
  6
CONTINUOUS
  0
LAYER
  5
58
330
2
100
AcDbSymbolTableRecord
100
AcDbLayerTableRecord
  2
31
 70
     0
 62
    31
  6
CONTINUOUS
  0
LAYER
  5
59
330
2
100
AcDbSymbolTableRecord
100
AcDbLayerTableRecord
  2
32
 70
     0
 62
    32
  6
CONTINUOUS
  0
LAYER
  5
5A
330
2
100
AcDbSymbolTableRecord
100
AcDbLayerTableRecord
  2
33
 70
     0
 62
    33
  6
CONTINUOUS
  0
LAYER
  5
5B
330
2
100
AcDbSymbolTableRecord
100
AcDbLayerTableRecord
  2
34
 70
     0
 62
    34
  6
CONTINUOUS
  0
LAYER
  5
5C
330
2
100
AcDbSymbolTableRecord
100
AcDbLayerTableRecord
  2
35
 70
     0
 62
    35
  6
CONTINUOUS
  0
LAYER
  5
5D
330
2
100
AcDbSymbolTableRecord
100
AcDbLayerTableRecord
  2
36
 70
     0
 62
    36
  6
CONTINUOUS
  0
LAYER
  5
5E
330
2
100
AcDbSymbolTableRecord
100
AcDbLayerTableRecord
  2
37
 70
     0
 62
    37
  6
CONTINUOUS
  0
LAYER
  5
5F
330
2
100
AcDbSymbolTableRecord
100
AcDbLayerTableRecord
  2
38
 70
     0
 62
    38
  6
CONTINUOUS
  0
LAYER
  5
60
330
2
100
AcDbSymbolTableRecord
100
AcDbLayerTableRecord
  2
39
 70
     0
 62
    39
  6
CONTINUOUS
  0
LAYER
  5
61
330
2
100
AcDbSymbolTableRecord
100
AcDbLayerTableRecord
  2
40
 70
     0
 62
    40
  6
CONTINUOUS
  0
LAYER
  5
62
330
2
100
AcDbSymbolTableRecord
100
AcDbLayerTableRecord
  2
41
 70
     0
 62
    41
  6
CONTINUOUS
  0
LAYER
  5
63
330
2
100
AcDbSymbolTableRecord
100
AcDbLayerTableRecord
  2
42
 70
     0
 62
    42
  6
CONTINUOUS
  0
LAYER
  5
64
330
2
100
AcDbSymbolTableRecord
100
AcDbLayerTableRecord
  2
43
 70
     0
 62
    43
  6
CONTINUOUS
  0
LAYER
  5
65
330
2
100
AcDbSymbolTableRecord
100
AcDbLayerTableRecord
  2
44
 70
     0
 62
    44
  6
CONTINUOUS
  0
LAYER
  5
66
330
2
100
AcDbSymbolTableRecord
100
AcDbLayerTableRecord
  2
45
 70
     0
 62
    45
  6
CONTINUOUS
  0
LAYER
  5
67
330
2
100
AcDbSymbolTableRecord
100
AcDbLayerTableRecord
  2
46
 70
     0
 62
    46
  6
CONTINUOUS
  0
LAYER
  5
68
330
2
100
AcDbSymbolTableRecord
100
AcDbLayerTableRecord
  2
47
 70
     0
 62
    47
  6
CONTINUOUS
  0
LAYER
  5
69
330
2
100
AcDbSymbolTableRecord
100
AcDbLayerTableRecord
  2
48
 70
     0
 62
    48
  6
CONTINUOUS
  0
LAYER
  5
6A
330
2
100
AcDbSymbolTableRecord
100
AcDbLayerTableRecord
  2
49
 70
     0
 62
    49
  6
CONTINUOUS
  0
LAYER
  5
6B
330
2
100
AcDbSymbolTableRecord
100
AcDbLayerTableRecord
  2
50
 70
     0
 62
    50
  6
CONTINUOUS
  0
LAYER
  5
6C
330
2
100
AcDbSymbolTableRecord
100
AcDbLayerTableRecord
  2
51
 70
     0
 62
    51
  6
CONTINUOUS
  0
LAYER
  5
6D
330
2
100
AcDbSymbolTableRecord
100
AcDbLayerTableRecord
  2
52
 70
     0
 62
    52
  6
CONTINUOUS
  0
LAYER
  5
6E
330
2
100
AcDbSymbolTableRecord
100
AcDbLayerTableRecord
  2
53
 70
     0
 62
    53
  6
CONTINUOUS
  0
LAYER
  5
6F
330
2
100
AcDbSymbolTableRecord
100
AcDbLayerTableRecord
  2
54
 70
     0
 62
    54
  6
CONTINUOUS
  0
LAYER
  5
70
330
2
100
AcDbSymbolTableRecord
100
AcDbLayerTableRecord
  2
55
 70
     0
 62
    55
  6
CONTINUOUS
  0
LAYER
  5
71
330
2
100
AcDbSymbolTableRecord
100
AcDbLayerTableRecord
  2
56
 70
     0
 62
    56
  6
CONTINUOUS
  0
LAYER
  5
72
330
2
100
AcDbSymbolTableRecord
100
AcDbLayerTableRecord
  2
57
 70
     0
 62
    57
  6
CONTINUOUS
  0
LAYER
  5
73
330
2
100
AcDbSymbolTableRecord
100
AcDbLayerTableRecord
  2
58
 70
     0
 62
    58
  6
CONTINUOUS
  0
LAYER
  5
74
330
2
100
AcDbSymbolTableRecord
100
AcDbLayerTableRecord
  2
59
 70
     0
 62
    59
  6
CONTINUOUS
  0
LAYER
  5
75
330
2
100
AcDbSymbolTableRecord
100
AcDbLayerTableRecord
  2
60
 70
     0
 62
    60
  6
CONTINUOUS
  0
LAYER
  5
76
330
2
100
AcDbSymbolTableRecord
100
AcDbLayerTableRecord
  2
61
 70
     0
 62
    61
  6
CONTINUOUS
  0
LAYER
  5
77
330
2
100
AcDbSymbolTableRecord
100
AcDbLayerTableRecord
  2
62
 70
     0
 62
    62
  6
CONTINUOUS
  0
LAYER
  5
78
330
2
100
AcDbSymbolTableRecord
100
AcDbLayerTableRecord
  2
63
 70
     0
 62
    63
  6
CONTINUOUS
  0
LAYER
  5
79
330
2
100
AcDbSymbolTableRecord
100
AcDbLayerTableRecord
  2
64
 70
     0
 62
    64
  6
CONTINUOUS
  0
LAYER
  5
7A
330
2
100
AcDbSymbolTableRecord
100
AcDbLayerTableRecord
  2
65
 70
     0
 62
    65
  6
CONTINUOUS
  0
LAYER
  5
7B
330
2
100
AcDbSymbolTableRecord
100
AcDbLayerTableRecord
  2
66
 70
     0
 62
    66
  6
CONTINUOUS
  0
LAYER
  5
7C
330
2
100
AcDbSymbolTableRecord
100
AcDbLayerTableRecord
  2
67
 70
     0
 62
    67
  6
CONTINUOUS
  0
LAYER
  5
7D
330
2
100
AcDbSymbolTableRecord
100
AcDbLayerTableRecord
  2
68
 70
     0
 62
    68
  6
CONTINUOUS
  0
LAYER
  5
7E
330
2
100
AcDbSymbolTableRecord
100
AcDbLayerTableRecord
  2
69
 70
     0
 62
    69
  6
CONTINUOUS
  0
LAYER
  5
7F
330
2
100
AcDbSymbolTableRecord
100
AcDbLayerTableRecord
  2
70
 70
     0
 62
    70
  6
CONTINUOUS
  0
LAYER
  5
80
330
2
100
AcDbSymbolTableRecord
100
AcDbLayerTableRecord
  2
71
 70
     0
 62
    71
  6
CONTINUOUS
  0
LAYER
  5
81
330
2
100
AcDbSymbolTableRecord
100
AcDbLayerTableRecord
  2
72
 70
     0
 62
    72
  6
CONTINUOUS
  0
LAYER
  5
82
330
2
100
AcDbSymbolTableRecord
100
AcDbLayerTableRecord
  2
73
 70
     0
 62
    73
  6
CONTINUOUS
  0
LAYER
  5
83
330
2
100
AcDbSymbolTableRecord
100
AcDbLayerTableRecord
  2
74
 70
     0
 62
    74
  6
CONTINUOUS
  0
LAYER
  5
84
330
2
100
AcDbSymbolTableRecord
100
AcDbLayerTableRecord
  2
75
 70
     0
 62
    75
  6
CONTINUOUS
  0
LAYER
  5
85
330
2
100
AcDbSymbolTableRecord
100
AcDbLayerTableRecord
  2
76
 70
     0
 62
    76
  6
CONTINUOUS
  0
LAYER
  5
86
330
2
100
AcDbSymbolTableRecord
100
AcDbLayerTableRecord
  2
77
 70
     0
 62
    77
  6
CONTINUOUS
  0
LAYER
  5
87
330
2
100
AcDbSymbolTableRecord
100
AcDbLayerTableRecord
  2
78
 70
     0
 62
    78
  6
CONTINUOUS
  0
LAYER
  5
88
330
2
100
AcDbSymbolTableRecord
100
AcDbLayerTableRecord
  2
79
 70
     0
 62
    79
  6
CONTINUOUS
  0
LAYER
  5
89
330
2
100
AcDbSymbolTableRecord
100
AcDbLayerTableRecord
  2
80
 70
     0
 62
    80
  6
CONTINUOUS
  0
LAYER
  5
8A
330
2
100
AcDbSymbolTableRecord
100
AcDbLayerTableRecord
  2
81
 70
     0
 62
    81
  6
CONTINUOUS
  0
LAYER
  5
8B
330
2
100
AcDbSymbolTableRecord
100
AcDbLayerTableRecord
  2
82
 70
     0
 62
    82
  6
CONTINUOUS
  0
LAYER
  5
8C
330
2
100
AcDbSymbolTableRecord
100
AcDbLayerTableRecord
  2
83
 70
     0
 62
    83
  6
CONTINUOUS
  0
LAYER
  5
8D
330
2
100
AcDbSymbolTableRecord
100
AcDbLayerTableRecord
  2
84
 70
     0
 62
    84
  6
CONTINUOUS
  0
LAYER
  5
8E
330
2
100
AcDbSymbolTableRecord
100
AcDbLayerTableRecord
  2
85
 70
     0
 62
    85
  6
CONTINUOUS
  0
LAYER
  5
8F
330
2
100
AcDbSymbolTableRecord
100
AcDbLayerTableRecord
  2
86
 70
     0
 62
    86
  6
CONTINUOUS
  0
LAYER
  5
90
330
2
100
AcDbSymbolTableRecord
100
AcDbLayerTableRecord
  2
87
 70
     0
 62
    87
  6
CONTINUOUS
  0
LAYER
  5
91
330
2
100
AcDbSymbolTableRecord
100
AcDbLayerTableRecord
  2
88
 70
     0
 62
    88
  6
CONTINUOUS
  0
LAYER
  5
92
330
2
100
AcDbSymbolTableRecord
100
AcDbLayerTableRecord
  2
89
 70
     0
 62
    89
  6
CONTINUOUS
  0
LAYER
  5
93
330
2
100
AcDbSymbolTableRecord
100
AcDbLayerTableRecord
  2
90
 70
     0
 62
    90
  6
CONTINUOUS
  0
LAYER
  5
94
330
2
100
AcDbSymbolTableRecord
100
AcDbLayerTableRecord
  2
91
 70
     0
 62
    91
  6
CONTINUOUS
  0
LAYER
  5
95
330
2
100
AcDbSymbolTableRecord
100
AcDbLayerTableRecord
  2
92
 70
     0
 62
    92
  6
CONTINUOUS
  0
LAYER
  5
96
330
2
100
AcDbSymbolTableRecord
100
AcDbLayerTableRecord
  2
93
 70
     0
 62
    93
  6
CONTINUOUS
  0
LAYER
  5
97
330
2
100
AcDbSymbolTableRecord
100
AcDbLayerTableRecord
  2
94
 70
     0
 62
    94
  6
CONTINUOUS
  0
LAYER
  5
98
330
2
100
AcDbSymbolTableRecord
100
AcDbLayerTableRecord
  2
95
 70
     0
 62
    95
  6
CONTINUOUS
  0
LAYER
  5
99
330
2
100
AcDbSymbolTableRecord
100
AcDbLayerTableRecord
  2
96
 70
     0
 62
    96
  6
CONTINUOUS
  0
LAYER
  5
9A
330
2
100
AcDbSymbolTableRecord
100
AcDbLayerTableRecord
  2
97
 70
     0
 62
    97
  6
CONTINUOUS
  0
LAYER
  5
9B
330
2
100
AcDbSymbolTableRecord
100
AcDbLayerTableRecord
  2
98
 70
     0
 62
    98
  6
CONTINUOUS
  0
LAYER
  5
9C
330
2
100
AcDbSymbolTableRecord
100
AcDbLayerTableRecord
  2
99
 70
     0
 62
    99
  6
CONTINUOUS
  0
LAYER
  5
9D
330
2
100
AcDbSymbolTableRecord
100
AcDbLayerTableRecord
  2
100
 70
     0
 62
   100
  6
CONTINUOUS
  0
LAYER
  5
9E
330
2
100
AcDbSymbolTableRecord
100
AcDbLayerTableRecord
  2
101
 70
     0
 62
   101
  6
CONTINUOUS
  0
LAYER
  5
9F
330
2
100
AcDbSymbolTableRecord
100
AcDbLayerTableRecord
  2
102
 70
     0
 62
   102
  6
CONTINUOUS
  0
LAYER
  5
A0
330
2
100
AcDbSymbolTableRecord
100
AcDbLayerTableRecord
  2
103
 70
     0
 62
   103
  6
CONTINUOUS
  0
LAYER
  5
A1
330
2
100
AcDbSymbolTableRecord
100
AcDbLayerTableRecord
  2
104
 70
     0
 62
   104
  6
CONTINUOUS
  0
LAYER
  5
A2
330
2
100
AcDbSymbolTableRecord
100
AcDbLayerTableRecord
  2
105
 70
     0
 62
   105
  6
CONTINUOUS
  0
LAYER
  5
A3
330
2
100
AcDbSymbolTableRecord
100
AcDbLayerTableRecord
  2
106
 70
     0
 62
   106
  6
CONTINUOUS
  0
LAYER
  5
A4
330
2
100
AcDbSymbolTableRecord
100
AcDbLayerTableRecord
  2
107
 70
     0
 62
   107
  6
CONTINUOUS
  0
LAYER
  5
A5
330
2
100
AcDbSymbolTableRecord
100
AcDbLayerTableRecord
  2
108
 70
     0
 62
   108
  6
CONTINUOUS
  0
LAYER
  5
A6
330
2
100
AcDbSymbolTableRecord
100
AcDbLayerTableRecord
  2
109
 70
     0
 62
   109
  6
CONTINUOUS
  0
LAYER
  5
A7
330
2
100
AcDbSymbolTableRecord
100
AcDbLayerTableRecord
  2
110
 70
     0
 62
   110
  6
CONTINUOUS
  0
LAYER
  5
A8
330
2
100
AcDbSymbolTableRecord
100
AcDbLayerTableRecord
  2
111
 70
     0
 62
   111
  6
CONTINUOUS
  0
LAYER
  5
A9
330
2
100
AcDbSymbolTableRecord
100
AcDbLayerTableRecord
  2
112
 70
     0
 62
   112
  6
CONTINUOUS
  0
LAYER
  5
AA
330
2
100
AcDbSymbolTableRecord
100
AcDbLayerTableRecord
  2
113
 70
     0
 62
   113
  6
CONTINUOUS
  0
LAYER
  5
AB
330
2
100
AcDbSymbolTableRecord
100
AcDbLayerTableRecord
  2
114
 70
     0
 62
   114
  6
CONTINUOUS
  0
LAYER
  5
AC
330
2
100
AcDbSymbolTableRecord
100
AcDbLayerTableRecord
  2
115
 70
     0
 62
   115
  6
CONTINUOUS
  0
LAYER
  5
AD
330
2
100
AcDbSymbolTableRecord
100
AcDbLayerTableRecord
  2
116
 70
     0
 62
   116
  6
CONTINUOUS
  0
LAYER
  5
AE
330
2
100
AcDbSymbolTableRecord
100
AcDbLayerTableRecord
  2
117
 70
     0
 62
   117
  6
CONTINUOUS
  0
LAYER
  5
AF
330
2
100
AcDbSymbolTableRecord
100
AcDbLayerTableRecord
  2
118
 70
     0
 62
   118
  6
CONTINUOUS
  0
LAYER
  5
B0
330
2
100
AcDbSymbolTableRecord
100
AcDbLayerTableRecord
  2
119
 70
     0
 62
   119
  6
CONTINUOUS
  0
LAYER
  5
B1
330
2
100
AcDbSymbolTableRecord
100
AcDbLayerTableRecord
  2
120
 70
     0
 62
   120
  6
CONTINUOUS
  0
LAYER
  5
B2
330
2
100
AcDbSymbolTableRecord
100
AcDbLayerTableRecord
  2
121
 70
     0
 62
   121
  6
CONTINUOUS
  0
LAYER
  5
B3
330
2
100
AcDbSymbolTableRecord
100
AcDbLayerTableRecord
  2
122
 70
     0
 62
   122
  6
CONTINUOUS
  0
LAYER
  5
B4
330
2
100
AcDbSymbolTableRecord
100
AcDbLayerTableRecord
  2
123
 70
     0
 62
   123
  6
CONTINUOUS
  0
LAYER
  5
B5
330
2
100
AcDbSymbolTableRecord
100
AcDbLayerTableRecord
  2
124
 70
     0
 62
   124
  6
CONTINUOUS
  0
LAYER
  5
B6
330
2
100
AcDbSymbolTableRecord
100
AcDbLayerTableRecord
  2
125
 70
     0
 62
   125
  6
CONTINUOUS
  0
LAYER
  5
B7
330
2
100
AcDbSymbolTableRecord
100
AcDbLayerTableRecord
  2
126
 70
     0
 62
   126
  6
CONTINUOUS
  0
LAYER
  5
B8
330
2
100
AcDbSymbolTableRecord
100
AcDbLayerTableRecord
  2
127
 70
     0
 62
   127
  6
CONTINUOUS
  0
LAYER
  5
B9
330
2
100
AcDbSymbolTableRecord
100
AcDbLayerTableRecord
  2
128
 70
     0
 62
   128
  6
CONTINUOUS
  0
LAYER
  5
BA
330
2
100
AcDbSymbolTableRecord
100
AcDbLayerTableRecord
  2
129
 70
     0
 62
   129
  6
CONTINUOUS
  0
LAYER
  5
BB
330
2
100
AcDbSymbolTableRecord
100
AcDbLayerTableRecord
  2
130
 70
     0
 62
   130
  6
CONTINUOUS
  0
LAYER
  5
BC
330
2
100
AcDbSymbolTableRecord
100
AcDbLayerTableRecord
  2
131
 70
     0
 62
   131
  6
CONTINUOUS
  0
LAYER
  5
BD
330
2
100
AcDbSymbolTableRecord
100
AcDbLayerTableRecord
  2
132
 70
     0
 62
   132
  6
CONTINUOUS
  0
LAYER
  5
BE
330
2
100
AcDbSymbolTableRecord
100
AcDbLayerTableRecord
  2
133
 70
     0
 62
   133
  6
CONTINUOUS
  0
LAYER
  5
BF
330
2
100
AcDbSymbolTableRecord
100
AcDbLayerTableRecord
  2
134
 70
     0
 62
   134
  6
CONTINUOUS
  0
LAYER
  5
C0
330
2
100
AcDbSymbolTableRecord
100
AcDbLayerTableRecord
  2
135
 70
     0
 62
   135
  6
CONTINUOUS
  0
LAYER
  5
C1
330
2
100
AcDbSymbolTableRecord
100
AcDbLayerTableRecord
  2
136
 70
     0
 62
   136
  6
CONTINUOUS
  0
LAYER
  5
C2
330
2
100
AcDbSymbolTableRecord
100
AcDbLayerTableRecord
  2
137
 70
     0
 62
   137
  6
CONTINUOUS
  0
LAYER
  5
C3
330
2
100
AcDbSymbolTableRecord
100
AcDbLayerTableRecord
  2
138
 70
     0
 62
   138
  6
CONTINUOUS
  0
LAYER
  5
C4
330
2
100
AcDbSymbolTableRecord
100
AcDbLayerTableRecord
  2
139
 70
     0
 62
   139
  6
CONTINUOUS
  0
LAYER
  5
C5
330
2
100
AcDbSymbolTableRecord
100
AcDbLayerTableRecord
  2
140
 70
     0
 62
   140
  6
CONTINUOUS
  0
LAYER
  5
C6
330
2
100
AcDbSymbolTableRecord
100
AcDbLayerTableRecord
  2
141
 70
     0
 62
   141
  6
CONTINUOUS
  0
LAYER
  5
C7
330
2
100
AcDbSymbolTableRecord
100
AcDbLayerTableRecord
  2
142
 70
     0
 62
   142
  6
CONTINUOUS
  0
LAYER
  5
C8
330
2
100
AcDbSymbolTableRecord
100
AcDbLayerTableRecord
  2
143
 70
     0
 62
   143
  6
CONTINUOUS
  0
LAYER
  5
C9
330
2
100
AcDbSymbolTableRecord
100
AcDbLayerTableRecord
  2
144
 70
     0
 62
   144
  6
CONTINUOUS
  0
LAYER
  5
CA
330
2
100
AcDbSymbolTableRecord
100
AcDbLayerTableRecord
  2
145
 70
     0
 62
   145
  6
CONTINUOUS
  0
LAYER
  5
CB
330
2
100
AcDbSymbolTableRecord
100
AcDbLayerTableRecord
  2
146
 70
     0
 62
   146
  6
CONTINUOUS
  0
LAYER
  5
CC
330
2
100
AcDbSymbolTableRecord
100
AcDbLayerTableRecord
  2
147
 70
     0
 62
   147
  6
CONTINUOUS
  0
LAYER
  5
CD
330
2
100
AcDbSymbolTableRecord
100
AcDbLayerTableRecord
  2
148
 70
     0
 62
   148
  6
CONTINUOUS
  0
LAYER
  5
CE
330
2
100
AcDbSymbolTableRecord
100
AcDbLayerTableRecord
  2
149
 70
     0
 62
   149
  6
CONTINUOUS
  0
LAYER
  5
CF
330
2
100
AcDbSymbolTableRecord
100
AcDbLayerTableRecord
  2
150
 70
     0
 62
   150
  6
CONTINUOUS
  0
LAYER
  5
D0
330
2
100
AcDbSymbolTableRecord
100
AcDbLayerTableRecord
  2
151
 70
     0
 62
   151
  6
CONTINUOUS
  0
LAYER
  5
D1
330
2
100
AcDbSymbolTableRecord
100
AcDbLayerTableRecord
  2
152
 70
     0
 62
   152
  6
CONTINUOUS
  0
LAYER
  5
D2
330
2
100
AcDbSymbolTableRecord
100
AcDbLayerTableRecord
  2
153
 70
     0
 62
   153
  6
CONTINUOUS
  0
LAYER
  5
D3
330
2
100
AcDbSymbolTableRecord
100
AcDbLayerTableRecord
  2
154
 70
     0
 62
   154
  6
CONTINUOUS
  0
LAYER
  5
D4
330
2
100
AcDbSymbolTableRecord
100
AcDbLayerTableRecord
  2
155
 70
     0
 62
   155
  6
CONTINUOUS
  0
LAYER
  5
D5
330
2
100
AcDbSymbolTableRecord
100
AcDbLayerTableRecord
  2
156
 70
     0
 62
   156
  6
CONTINUOUS
  0
LAYER
  5
D6
330
2
100
AcDbSymbolTableRecord
100
AcDbLayerTableRecord
  2
157
 70
     0
 62
   157
  6
CONTINUOUS
  0
LAYER
  5
D7
330
2
100
AcDbSymbolTableRecord
100
AcDbLayerTableRecord
  2
158
 70
     0
 62
   158
  6
CONTINUOUS
  0
LAYER
  5
D8
330
2
100
AcDbSymbolTableRecord
100
AcDbLayerTableRecord
  2
159
 70
     0
 62
   159
  6
CONTINUOUS
  0
LAYER
  5
D9
330
2
100
AcDbSymbolTableRecord
100
AcDbLayerTableRecord
  2
160
 70
     0
 62
   160
  6
CONTINUOUS
  0
LAYER
  5
DA
330
2
100
AcDbSymbolTableRecord
100
AcDbLayerTableRecord
  2
161
 70
     0
 62
   161
  6
CONTINUOUS
  0
LAYER
  5
DB
330
2
100
AcDbSymbolTableRecord
100
AcDbLayerTableRecord
  2
162
 70
     0
 62
   162
  6
CONTINUOUS
  0
LAYER
  5
DC
330
2
100
AcDbSymbolTableRecord
100
AcDbLayerTableRecord
  2
163
 70
     0
 62
   163
  6
CONTINUOUS
  0
LAYER
  5
DD
330
2
100
AcDbSymbolTableRecord
100
AcDbLayerTableRecord
  2
164
 70
     0
 62
   164
  6
CONTINUOUS
  0
LAYER
  5
DE
330
2
100
AcDbSymbolTableRecord
100
AcDbLayerTableRecord
  2
165
 70
     0
 62
   165
  6
CONTINUOUS
  0
LAYER
  5
DF
330
2
100
AcDbSymbolTableRecord
100
AcDbLayerTableRecord
  2
166
 70
     0
 62
   166
  6
CONTINUOUS
  0
LAYER
  5
E0
330
2
100
AcDbSymbolTableRecord
100
AcDbLayerTableRecord
  2
167
 70
     0
 62
   167
  6
CONTINUOUS
  0
LAYER
  5
E1
330
2
100
AcDbSymbolTableRecord
100
AcDbLayerTableRecord
  2
168
 70
     0
 62
   168
  6
CONTINUOUS
  0
LAYER
  5
E2
330
2
100
AcDbSymbolTableRecord
100
AcDbLayerTableRecord
  2
169
 70
     0
 62
   169
  6
CONTINUOUS
  0
LAYER
  5
E3
330
2
100
AcDbSymbolTableRecord
100
AcDbLayerTableRecord
  2
170
 70
     0
 62
   170
  6
CONTINUOUS
  0
LAYER
  5
E4
330
2
100
AcDbSymbolTableRecord
100
AcDbLayerTableRecord
  2
171
 70
     0
 62
   171
  6
CONTINUOUS
  0
LAYER
  5
E5
330
2
100
AcDbSymbolTableRecord
100
AcDbLayerTableRecord
  2
172
 70
     0
 62
   172
  6
CONTINUOUS
  0
LAYER
  5
E6
330
2
100
AcDbSymbolTableRecord
100
AcDbLayerTableRecord
  2
173
 70
     0
 62
   173
  6
CONTINUOUS
  0
LAYER
  5
E7
330
2
100
AcDbSymbolTableRecord
100
AcDbLayerTableRecord
  2
174
 70
     0
 62
   174
  6
CONTINUOUS
  0
LAYER
  5
E8
330
2
100
AcDbSymbolTableRecord
100
AcDbLayerTableRecord
  2
175
 70
     0
 62
   175
  6
CONTINUOUS
  0
LAYER
  5
E9
330
2
100
AcDbSymbolTableRecord
100
AcDbLayerTableRecord
  2
176
 70
     0
 62
   176
  6
CONTINUOUS
  0
LAYER
  5
EA
330
2
100
AcDbSymbolTableRecord
100
AcDbLayerTableRecord
  2
177
 70
     0
 62
   177
  6
CONTINUOUS
  0
LAYER
  5
EB
330
2
100
AcDbSymbolTableRecord
100
AcDbLayerTableRecord
  2
178
 70
     0
 62
   178
  6
CONTINUOUS
  0
LAYER
  5
EC
330
2
100
AcDbSymbolTableRecord
100
AcDbLayerTableRecord
  2
179
 70
     0
 62
   179
  6
CONTINUOUS
  0
LAYER
  5
ED
330
2
100
AcDbSymbolTableRecord
100
AcDbLayerTableRecord
  2
180
 70
     0
 62
   180
  6
CONTINUOUS
  0
LAYER
  5
EE
330
2
100
AcDbSymbolTableRecord
100
AcDbLayerTableRecord
  2
181
 70
     0
 62
   181
  6
CONTINUOUS
  0
LAYER
  5
EF
330
2
100
AcDbSymbolTableRecord
100
AcDbLayerTableRecord
  2
182
 70
     0
 62
   182
  6
CONTINUOUS
  0
LAYER
  5
F0
330
2
100
AcDbSymbolTableRecord
100
AcDbLayerTableRecord
  2
183
 70
     0
 62
   183
  6
CONTINUOUS
  0
LAYER
  5
F1
330
2
100
AcDbSymbolTableRecord
100
AcDbLayerTableRecord
  2
184
 70
     0
 62
   184
  6
CONTINUOUS
  0
LAYER
  5
F2
330
2
100
AcDbSymbolTableRecord
100
AcDbLayerTableRecord
  2
185
 70
     0
 62
   185
  6
CONTINUOUS
  0
LAYER
  5
F3
330
2
100
AcDbSymbolTableRecord
100
AcDbLayerTableRecord
  2
186
 70
     0
 62
   186
  6
CONTINUOUS
  0
LAYER
  5
F4
330
2
100
AcDbSymbolTableRecord
100
AcDbLayerTableRecord
  2
187
 70
     0
 62
   187
  6
CONTINUOUS
  0
LAYER
  5
F5
330
2
100
AcDbSymbolTableRecord
100
AcDbLayerTableRecord
  2
188
 70
     0
 62
   188
  6
CONTINUOUS
  0
LAYER
  5
F6
330
2
100
AcDbSymbolTableRecord
100
AcDbLayerTableRecord
  2
189
 70
     0
 62
   189
  6
CONTINUOUS
  0
LAYER
  5
F7
330
2
100
AcDbSymbolTableRecord
100
AcDbLayerTableRecord
  2
190
 70
     0
 62
   190
  6
CONTINUOUS
  0
LAYER
  5
F8
330
2
100
AcDbSymbolTableRecord
100
AcDbLayerTableRecord
  2
191
 70
     0
 62
   191
  6
CONTINUOUS
  0
LAYER
  5
F9
330
2
100
AcDbSymbolTableRecord
100
AcDbLayerTableRecord
  2
192
 70
     0
 62
   192
  6
CONTINUOUS
  0
LAYER
  5
FA
330
2
100
AcDbSymbolTableRecord
100
AcDbLayerTableRecord
  2
193
 70
     0
 62
   193
  6
CONTINUOUS
  0
LAYER
  5
FB
330
2
100
AcDbSymbolTableRecord
100
AcDbLayerTableRecord
  2
194
 70
     0
 62
   194
  6
CONTINUOUS
  0
LAYER
  5
FC
330
2
100
AcDbSymbolTableRecord
100
AcDbLayerTableRecord
  2
195
 70
     0
 62
   195
  6
CONTINUOUS
  0
LAYER
  5
FD
330
2
100
AcDbSymbolTableRecord
100
AcDbLayerTableRecord
  2
196
 70
     0
 62
   196
  6
CONTINUOUS
  0
LAYER
  5
FE
330
2
100
AcDbSymbolTableRecord
100
AcDbLayerTableRecord
  2
197
 70
     0
 62
   197
  6
CONTINUOUS
  0
LAYER
  5
FF
330
2
100
AcDbSymbolTableRecord
100
AcDbLayerTableRecord
  2
198
 70
     0
 62
   198
  6
CONTINUOUS
  0
LAYER
  5
100
330
2
100
AcDbSymbolTableRecord
100
AcDbLayerTableRecord
  2
199
 70
     0
 62
   199
  6
CONTINUOUS
  0
LAYER
  5
101
330
2
100
AcDbSymbolTableRecord
100
AcDbLayerTableRecord
  2
200
 70
     0
 62
   200
  6
CONTINUOUS
  0
LAYER
  5
102
330
2
100
AcDbSymbolTableRecord
100
AcDbLayerTableRecord
  2
201
 70
     0
 62
   201
  6
CONTINUOUS
  0
LAYER
  5
103
330
2
100
AcDbSymbolTableRecord
100
AcDbLayerTableRecord
  2
202
 70
     0
 62
   202
  6
CONTINUOUS
  0
LAYER
  5
104
330
2
100
AcDbSymbolTableRecord
100
AcDbLayerTableRecord
  2
203
 70
     0
 62
   203
  6
CONTINUOUS
  0
LAYER
  5
105
330
2
100
AcDbSymbolTableRecord
100
AcDbLayerTableRecord
  2
204
 70
     0
 62
   204
  6
CONTINUOUS
  0
LAYER
  5
106
330
2
100
AcDbSymbolTableRecord
100
AcDbLayerTableRecord
  2
205
 70
     0
 62
   205
  6
CONTINUOUS
  0
LAYER
  5
107
330
2
100
AcDbSymbolTableRecord
100
AcDbLayerTableRecord
  2
206
 70
     0
 62
   206
  6
CONTINUOUS
  0
LAYER
  5
108
330
2
100
AcDbSymbolTableRecord
100
AcDbLayerTableRecord
  2
207
 70
     0
 62
   207
  6
CONTINUOUS
  0
LAYER
  5
109
330
2
100
AcDbSymbolTableRecord
100
AcDbLayerTableRecord
  2
208
 70
     0
 62
   208
  6
CONTINUOUS
  0
LAYER
  5
10A
330
2
100
AcDbSymbolTableRecord
100
AcDbLayerTableRecord
  2
209
 70
     0
 62
   209
  6
CONTINUOUS
  0
LAYER
  5
10B
330
2
100
AcDbSymbolTableRecord
100
AcDbLayerTableRecord
  2
210
 70
     0
 62
   210
  6
CONTINUOUS
  0
LAYER
  5
10C
330
2
100
AcDbSymbolTableRecord
100
AcDbLayerTableRecord
  2
211
 70
     0
 62
   211
  6
CONTINUOUS
  0
LAYER
  5
10D
330
2
100
AcDbSymbolTableRecord
100
AcDbLayerTableRecord
  2
212
 70
     0
 62
   212
  6
CONTINUOUS
  0
LAYER
  5
10E
330
2
100
AcDbSymbolTableRecord
100
AcDbLayerTableRecord
  2
213
 70
     0
 62
   213
  6
CONTINUOUS
  0
LAYER
  5
10F
330
2
100
AcDbSymbolTableRecord
100
AcDbLayerTableRecord
  2
214
 70
     0
 62
   214
  6
CONTINUOUS
  0
LAYER
  5
110
330
2
100
AcDbSymbolTableRecord
100
AcDbLayerTableRecord
  2
215
 70
     0
 62
   215
  6
CONTINUOUS
  0
LAYER
  5
111
330
2
100
AcDbSymbolTableRecord
100
AcDbLayerTableRecord
  2
216
 70
     0
 62
   216
  6
CONTINUOUS
  0
LAYER
  5
112
330
2
100
AcDbSymbolTableRecord
100
AcDbLayerTableRecord
  2
217
 70
     0
 62
   217
  6
CONTINUOUS
  0
LAYER
  5
113
330
2
100
AcDbSymbolTableRecord
100
AcDbLayerTableRecord
  2
218
 70
     0
 62
   218
  6
CONTINUOUS
  0
LAYER
  5
114
330
2
100
AcDbSymbolTableRecord
100
AcDbLayerTableRecord
  2
219
 70
     0
 62
   219
  6
CONTINUOUS
  0
LAYER
  5
115
330
2
100
AcDbSymbolTableRecord
100
AcDbLayerTableRecord
  2
220
 70
     0
 62
   220
  6
CONTINUOUS
  0
LAYER
  5
116
330
2
100
AcDbSymbolTableRecord
100
AcDbLayerTableRecord
  2
221
 70
     0
 62
   221
  6
CONTINUOUS
  0
LAYER
  5
117
330
2
100
AcDbSymbolTableRecord
100
AcDbLayerTableRecord
  2
222
 70
     0
 62
   222
  6
CONTINUOUS
  0
LAYER
  5
118
330
2
100
AcDbSymbolTableRecord
100
AcDbLayerTableRecord
  2
223
 70
     0
 62
   223
  6
CONTINUOUS
  0
LAYER
  5
119
330
2
100
AcDbSymbolTableRecord
100
AcDbLayerTableRecord
  2
224
 70
     0
 62
   224
  6
CONTINUOUS
  0
LAYER
  5
11A
330
2
100
AcDbSymbolTableRecord
100
AcDbLayerTableRecord
  2
225
 70
     0
 62
   225
  6
CONTINUOUS
  0
LAYER
  5
11B
330
2
100
AcDbSymbolTableRecord
100
AcDbLayerTableRecord
  2
226
 70
     0
 62
   226
  6
CONTINUOUS
  0
LAYER
  5
11C
330
2
100
AcDbSymbolTableRecord
100
AcDbLayerTableRecord
  2
227
 70
     0
 62
   227
  6
CONTINUOUS
  0
LAYER
  5
11D
330
2
100
AcDbSymbolTableRecord
100
AcDbLayerTableRecord
  2
228
 70
     0
 62
   228
  6
CONTINUOUS
  0
LAYER
  5
11E
330
2
100
AcDbSymbolTableRecord
100
AcDbLayerTableRecord
  2
229
 70
     0
 62
   229
  6
CONTINUOUS
  0
LAYER
  5
11F
330
2
100
AcDbSymbolTableRecord
100
AcDbLayerTableRecord
  2
230
 70
     0
 62
   230
  6
CONTINUOUS
  0
LAYER
  5
120
330
2
100
AcDbSymbolTableRecord
100
AcDbLayerTableRecord
  2
231
 70
     0
 62
   231
  6
CONTINUOUS
  0
LAYER
  5
121
330
2
100
AcDbSymbolTableRecord
100
AcDbLayerTableRecord
  2
232
 70
     0
 62
   232
  6
CONTINUOUS
  0
LAYER
  5
122
330
2
100
AcDbSymbolTableRecord
100
AcDbLayerTableRecord
  2
233
 70
     0
 62
   233
  6
CONTINUOUS
  0
LAYER
  5
123
330
2
100
AcDbSymbolTableRecord
100
AcDbLayerTableRecord
  2
234
 70
     0
 62
   234
  6
CONTINUOUS
  0
LAYER
  5
124
330
2
100
AcDbSymbolTableRecord
100
AcDbLayerTableRecord
  2
235
 70
     0
 62
   235
  6
CONTINUOUS
  0
LAYER
  5
125
330
2
100
AcDbSymbolTableRecord
100
AcDbLayerTableRecord
  2
236
 70
     0
 62
   236
  6
CONTINUOUS
  0
LAYER
  5
126
330
2
100
AcDbSymbolTableRecord
100
AcDbLayerTableRecord
  2
237
 70
     0
 62
   237
  6
CONTINUOUS
  0
LAYER
  5
127
330
2
100
AcDbSymbolTableRecord
100
AcDbLayerTableRecord
  2
238
 70
     0
 62
   238
  6
CONTINUOUS
  0
LAYER
  5
128
330
2
100
AcDbSymbolTableRecord
100
AcDbLayerTableRecord
  2
239
 70
     0
 62
   239
  6
CONTINUOUS
  0
LAYER
  5
129
330
2
100
AcDbSymbolTableRecord
100
AcDbLayerTableRecord
  2
240
 70
     0
 62
   240
  6
CONTINUOUS
  0
LAYER
  5
12A
330
2
100
AcDbSymbolTableRecord
100
AcDbLayerTableRecord
  2
241
 70
     0
 62
   241
  6
CONTINUOUS
  0
LAYER
  5
12B
330
2
100
AcDbSymbolTableRecord
100
AcDbLayerTableRecord
  2
242
 70
     0
 62
   242
  6
CONTINUOUS
  0
LAYER
  5
12C
330
2
100
AcDbSymbolTableRecord
100
AcDbLayerTableRecord
  2
243
 70
     0
 62
   243
  6
CONTINUOUS
  0
LAYER
  5
12D
330
2
100
AcDbSymbolTableRecord
100
AcDbLayerTableRecord
  2
244
 70
     0
 62
   244
  6
CONTINUOUS
  0
LAYER
  5
12E
330
2
100
AcDbSymbolTableRecord
100
AcDbLayerTableRecord
  2
245
 70
     0
 62
   245
  6
CONTINUOUS
  0
LAYER
  5
12F
330
2
100
AcDbSymbolTableRecord
100
AcDbLayerTableRecord
  2
246
 70
     0
 62
   246
  6
CONTINUOUS
  0
LAYER
  5
130
330
2
100
AcDbSymbolTableRecord
100
AcDbLayerTableRecord
  2
247
 70
     0
 62
   247
  6
CONTINUOUS
  0
LAYER
  5
131
330
2
100
AcDbSymbolTableRecord
100
AcDbLayerTableRecord
  2
248
 70
     0
 62
   248
  6
CONTINUOUS
  0
LAYER
  5
132
330
2
100
AcDbSymbolTableRecord
100
AcDbLayerTableRecord
  2
249
 70
     0
 62
   249
  6
CONTINUOUS
  0
LAYER
  5
133
330
2
100
AcDbSymbolTableRecord
100
AcDbLayerTableRecord
  2
250
 70
     0
 62
   250
  6
CONTINUOUS
  0
LAYER
  5
134
330
2
100
AcDbSymbolTableRecord
100
AcDbLayerTableRecord
  2
251
 70
     0
 62
   251
  6
CONTINUOUS
  0
LAYER
  5
135
330
2
100
AcDbSymbolTableRecord
100
AcDbLayerTableRecord
  2
252
 70
     0
 62
   252
  6
CONTINUOUS
  0
LAYER
  5
136
330
2
100
AcDbSymbolTableRecord
100
AcDbLayerTableRecord
  2
253
 70
     0
 62
   253
  6
CONTINUOUS
  0
LAYER
  5
137
330
2
100
AcDbSymbolTableRecord
100
AcDbLayerTableRecord
  2
254
 70
     0
 62
   254
  6
CONTINUOUS
  0
LAYER
  5
138
330
2
100
AcDbSymbolTableRecord
100
AcDbLayerTableRecord
  2
255
 70
     0
 62
   255
  6
CONTINUOUS
  0
ENDTAB
  0
TABLE
  2
STYLE
  5
3
330
0
100
AcDbSymbolTable
 70
     1
  0
STYLE
  5
11
330
3
100
AcDbSymbolTableRecord
100
AcDbTextStyleTableRecord
  2
STANDARD
 70
     0
 40
0.0
 41
1.0
 50
0.0
 71
     0
 42
0.2
  3
monotxt
  4

  0
ENDTAB
  0
TABLE
  2
VIEW
  5
6
330
0
100
AcDbSymbolTable
 70
     0
  0
ENDTAB
  0
TABLE
  2
UCS
  5
7
330
0
100
AcDbSymbolTable
 70
     0
  0
ENDTAB
  0
TABLE
  2
APPID
  5
9
330
0
100
AcDbSymbolTable
 70
     1
  0
APPID
  5
12
330
9
100
AcDbSymbolTableRecord
100
AcDbRegAppTableRecord
  2
ACAD
 70
     0
  0
ENDTAB
  0
TABLE
  2
DIMSTYLE
  5
A
330
0
100
AcDbSymbolTable
 70
     1
  0
DIMSTYLE
105
2B6D
330
A
100
AcDbSymbolTableRecord
100
AcDbDimStyleTableRecord
  2
STANDARD
 70
     0
  3

  4

  5

  6

  7

 40
1.0
 41
0.18
 42
0.0625
 43
0.38
 44
0.18
 45
0.0
 46
0.0
 47
0.0
 48
0.0
140
0.18
141
0.09
142
0.0
143
25.4
144
1.0
145
0.0
146
1.0
147
0.09
 71
     0
 72
     0
 73
     1
 74
     1
 75
     0
 76
     0
 77
     0
 78
     0
170
     0
171
     2
172
     0
173
     0
174
     0
175
     0
176
     0
177
     0
178
     0
270
     2
271
     4
272
     4
273
     2
274
     2
340
11
275
     0
280
     0
281
     0
282
     0
283
     1
284
     0
285
     0
286
     0
287
     3
288
     0
  0
ENDTAB
  0
TABLE
  2
BLOCK_RECORD
  5
1
330
0
100
AcDbSymbolTable
 70
     0
  0
BLOCK_RECORD
  5
1E
102
{ACAD_XDICTIONARY
360
4005
102
}
330
1
100
AcDbSymbolTableRecord
100
AcDbBlockTableRecord
  2
*MODEL_SPACE
  0
BLOCK_RECORD
  5
1A
102
{ACAD_XDICTIONARY
360
4003
102
}
330
1
100
AcDbSymbolTableRecord
100
AcDbBlockTableRecord
  2
*PAPER_SPACE
  0
ENDTAB
  0
ENDSEC
  0
SECTION
  2
BLOCKS
  0
BLOCK
  5
13B
330
1E
100
AcDbEntity
  8
0
100
AcDbBlockBegin
  2
*MODEL_SPACE
 70
     0
 10
0.0
 20
0.0
 30
0.0
  3
*MODEL_SPACE
  1

  0
ENDBLK
  5
13C
330
1E
100
AcDbEntity
  8
0
100
AcDbBlockEnd
  0
BLOCK
  5
139
330
1A
100
AcDbEntity
 67
     1
  8
0
100
AcDbBlockBegin
  2
*PAPER_SPACE
 70
     0
 10
0.0
 20
0.0
 30
0.0
  3
*PAPER_SPACE
  1

  0
ENDBLK
  5
13A
330
1A
100
AcDbEntity
 67
     1
  8
0
100
AcDbBlockEnd
  0
ENDSEC
  0
SECTION
  2
ENTITIES
  0
LINE
  5
22B3
330
1E
100
AcDbEntity
  8
7
100
AcDbLine
 10
3.185039370078739
 20
4.889763779527559
 30
0.0
 11
3.24507874015748
 21
4.889763779527559
 31
0.0
  0
LINE
  5
22B4
330
1E
100
AcDbEntity
  8
7
100
AcDbLine
 10
3.24507874015748
 20
5.639763779527559
 30
0.0
 11
3.185039370078739
 21
5.639763779527559
 31
0.0
  0
LINE
  5
22DE
330
1E
100
AcDbEntity
  8
7
100
AcDbLine
 10
3.502952755905511
 20
5.640748031496062
 30
0.0
 11
3.467519685039369
 21
5.702755905511811
 31
0.0
  0
LINE
  5
22FF
330
1E
100
AcDbEntity
  8
7
100
AcDbLine
 10
2.96259842519685
 20
5.702755905511811
 30
0.0
 11
2.918307086614173
 21
5.625984251968503
 31
0.0
  0
LINE
  5
2300
330
1E
100
AcDbEntity
  8
7
100
AcDbLine
 10
2.918307086614173
 20
5.625984251968503
 30
0.0
 11
2.878937007874015
 21
5.558070866141732
 31
0.0
  0
LINE
  5
23A4
330
1E
100
AcDbEntity
  8
7
100
AcDbLine
 10
3.174212598425196
 20
5.572834645669291
 30
0.0
 11
3.125984251968503
 21
5.562992125984251
 31
0.0
  0
LINE
  5
240E
330
1E
100
AcDbEntity
  8
7
100
AcDbLine
 10
3.530511811023621
 20
6.033464566929134
 30
0.0
 11
3.530511811023621
 21
6.014763779527559
 31
0.0
  0
LINE
  5
240F
330
1E
100
AcDbEntity
  8
7
100
AcDbLine
 10
2.899606299212598
 20
6.033464566929134
 30
0.0
 11
2.899606299212598
 21
5.594488188976377
 31
0.0
  0
LINE
  5
2410
330
1E
100
AcDbEntity
  8
7
100
AcDbLine
 10
3.530511811023621
 20
6.014763779527559
 30
0.0
 11
3.226377952755905
 21
6.014763779527559
 31
0.0
  0
LINE
  5
2427
330
1E
100
AcDbEntity
  8
7
100
AcDbLine
 10
3.186023622047243
 20
5.936023622047244
 30
0.0
 11
3.351377952755905
 21
5.702755905511811
 31
0.0
  0
LINE
  5
2428
330
1E
100
AcDbEntity
  8
7
100
AcDbLine
 10
3.226377952755905
 20
6.013779527559055
 30
0.0
 11
3.205708661417322
 21
6.008858267716535
 31
0.0
  0
LINE
  5
2430
330
1E
100
AcDbEntity
  8
7
100
AcDbLine
 10
5.658464566929133
 20
4.817913385826772
 30
0.0
 11
5.664370078740157
 21
4.817913385826772
 31
0.0
  0
LINE
  5
2431
330
1E
100
AcDbEntity
  8
7
100
AcDbLine
 10
5.664370078740157
 20
5.711614173228346
 30
0.0
 11
5.658464566929133
 21
5.711614173228346
 31
0.0
  0
LINE
  5
2432
330
1E
100
AcDbEntity
  8
7
100
AcDbLine
 10
5.664370078740157
 20
4.894685039370078
 30
0.0
 11
5.784448818897637
 21
4.894685039370078
 31
0.0
  0
LINE
  5
2433
330
1E
100
AcDbEntity
  8
7
100
AcDbLine
 10
5.942913385826772
 20
4.894685039370078
 30
0.0
 11
6.349409448818898
 21
4.894685039370078
 31
0.0
  0
LINE
  5
2434
330
1E
100
AcDbEntity
  8
7
100
AcDbLine
 10
6.539370078740157
 20
5.589566929133858
 30
0.0
 11
6.349409448818898
 21
5.589566929133858
 31
0.0
  0
LINE
  5
2435
330
1E
100
AcDbEntity
  8
7
100
AcDbLine
 10
6.349409448818898
 20
5.634842519685039
 30
0.0
 11
5.942913385826772
 21
5.634842519685039
 31
0.0
  0
LINE
  5
2436
330
1E
100
AcDbEntity
  8
7
100
AcDbLine
 10
5.784448818897637
 20
5.634842519685039
 30
0.0
 11
5.664370078740157
 21
5.634842519685039
 31
0.0
  0
LINE
  5
2437
330
1E
100
AcDbEntity
  8
7
100
AcDbLine
 10
6.349409448818898
 20
4.93996062992126
 30
0.0
 11
6.539370078740157
 21
4.93996062992126
 31
0.0
  0
LINE
  5
2438
330
1E
100
AcDbEntity
  8
7
100
AcDbLine
 10
6.734251968503937
 20
5.504921259842519
 30
0.0
 11
6.649606299212598
 21
5.504921259842519
 31
0.0
  0
LINE
  5
2439
330
1E
100
AcDbEntity
  8
7
100
AcDbLine
 10
6.649606299212598
 20
5.024606299212598
 30
0.0
 11
6.734251968503937
 21
5.024606299212598
 31
0.0
  0
LINE
  5
243A
330
1E
100
AcDbEntity
  8
7
100
AcDbLine
 10
6.649606299212598
 20
6.264763779527559
 30
0.0
 11
6.539370078740157
 21
6.264763779527559
 31
0.0
  0
LINE
  5
243B
330
1E
100
AcDbEntity
  8
7
100
AcDbLine
 10
6.539370078740157
 20
4.93503937007874
 30
0.0
 11
6.649606299212598
 21
4.93503937007874
 31
0.0
  0
LINE
  5
243C
330
1E
100
AcDbEntity
  8
7
100
AcDbLine
 10
5.93503937007874
 20
4.827755905511811
 30
0.0
 11
5.942913385826772
 21
4.843503937007874
 31
0.0
  0
LINE
  5
243D
330
1E
100
AcDbEntity
  8
7
100
AcDbLine
 10
5.942913385826772
 20
5.686023622047244
 30
0.0
 11
5.93503937007874
 21
5.702755905511811
 31
0.0
  0
LINE
  5
243E
330
1E
100
AcDbEntity
  8
7
100
AcDbLine
 10
5.792322834645668
 20
5.702755905511811
 30
0.0
 11
5.784448818897637
 21
5.686023622047244
 31
0.0
  0
LINE
  5
243F
330
1E
100
AcDbEntity
  8
7
100
AcDbLine
 10
5.784448818897637
 20
4.843503937007874
 30
0.0
 11
5.792322834645668
 21
4.827755905511811
 31
0.0
  0
LINE
  5
2452
330
1E
100
AcDbEntity
  8
7
100
AcDbLine
 10
6.811023622047244
 20
5.385826771653543
 30
0.0
 11
6.778543307086614
 21
5.449803149606299
 31
0.0
  0
LINE
  5
2453
330
1E
100
AcDbEntity
  8
7
100
AcDbLine
 10
6.778543307086614
 20
5.449803149606299
 30
0.0
 11
6.734251968503937
 21
5.504921259842519
 31
0.0
  0
LINE
  5
245F
330
1E
100
AcDbEntity
  8
7
100
AcDbLine
 10
5.823818897637794
 20
5.702755905511811
 30
0.0
 11
5.803149606299212
 21
5.702755905511811
 31
0.0
  0
LINE
  5
2460
330
1E
100
AcDbEntity
  8
7
100
AcDbLine
 10
5.803149606299212
 20
5.702755905511811
 30
0.0
 11
5.792322834645668
 21
5.702755905511811
 31
0.0
  0
LINE
  5
2461
330
1E
100
AcDbEntity
  8
7
100
AcDbLine
 10
5.903543307086614
 20
5.702755905511811
 30
0.0
 11
5.823818897637794
 21
5.702755905511811
 31
0.0
  0
LINE
  5
246B
330
1E
100
AcDbEntity
  8
7
100
AcDbLine
 10
5.823818897637794
 20
5.264763779527559
 30
0.0
 11
5.806102362204724
 21
5.341535433070866
 31
0.0
  0
LINE
  5
2474
330
1E
100
AcDbEntity
  8
7
100
AcDbLine
 10
5.903543307086614
 20
5.264763779527559
 30
0.0
 11
5.823818897637794
 21
5.264763779527559
 31
0.0
  0
LINE
  5
247D
330
1E
100
AcDbEntity
  8
7
100
AcDbLine
 10
5.918307086614172
 20
4.888779527559055
 30
0.0
 11
5.903543307086614
 21
4.827755905511811
 31
0.0
  0
LINE
  5
2487
330
1E
100
AcDbEntity
  8
7
100
AcDbLine
 10
5.903543307086614
 20
4.827755905511811
 30
0.0
 11
5.823818897637794
 21
4.827755905511811
 31
0.0
  0
LINE
  5
24CB
330
1E
100
AcDbEntity
  8
7
100
AcDbLine
 10
5.523622047244094
 20
5.115157480314961
 30
0.0
 11
5.437992125984251
 21
5.115157480314961
 31
0.0
  0
LINE
  5
24CC
330
1E
100
AcDbEntity
  8
7
100
AcDbLine
 10
5.437992125984251
 20
5.414370078740157
 30
0.0
 11
5.523622047244094
 21
5.414370078740157
 31
0.0
  0
LINE
  5
2520
330
1E
100
AcDbEntity
  8
7
100
AcDbLine
 10
5.437992125984251
 20
5.125
 30
0.0
 11
5.406496062992125
 21
5.121062992125984
 31
0.0
  0
LINE
  5
2527
330
1E
100
AcDbEntity
  8
7
100
AcDbLine
 10
5.437992125984251
 20
5.125
 30
0.0
 11
5.523622047244094
 21
5.125
 31
0.0
  0
LINE
  5
2528
330
1E
100
AcDbEntity
  8
7
100
AcDbLine
 10
5.523622047244094
 20
5.134842519685039
 30
0.0
 11
5.437992125984251
 21
5.134842519685039
 31
0.0
  0
LINE
  5
2565
330
1E
100
AcDbEntity
  8
7
100
AcDbLine
 10
5.437992125984251
 20
5.394685039370078
 30
0.0
 11
5.523622047244094
 21
5.394685039370078
 31
0.0
  0
LINE
  5
2566
330
1E
100
AcDbEntity
  8
7
100
AcDbLine
 10
5.523622047244094
 20
5.404527559055118
 30
0.0
 11
5.437992125984251
 21
5.404527559055118
 31
0.0
  0
LINE
  5
259C
330
1E
100
AcDbEntity
  8
7
100
AcDbLine
 10
5.523622047244094
 20
5.375
 30
0.0
 11
5.437992125984251
 21
5.375
 31
0.0
  0
LINE
  5
25D8
330
1E
100
AcDbEntity
  8
7
100
AcDbLine
 10
5.437992125984251
 20
5.154527559055118
 30
0.0
 11
5.523622047244094
 21
5.154527559055118
 31
0.0
  0
LINE
  5
25DE
330
1E
100
AcDbEntity
  8
7
100
AcDbLine
 10
5.523622047244094
 20
5.384842519685039
 30
0.0
 11
5.437992125984251
 21
5.384842519685039
 31
0.0
  0
LINE
  5
261A
330
1E
100
AcDbEntity
  8
7
100
AcDbLine
 10
5.437992125984251
 20
5.144685039370078
 30
0.0
 11
5.437992125984251
 21
5.141732283464566
 31
0.0
  0
LINE
  5
261B
330
1E
100
AcDbEntity
  8
7
100
AcDbLine
 10
5.437992125984251
 20
5.141732283464566
 30
0.0
 11
5.437992125984251
 21
5.134842519685039
 31
0.0
  0
LINE
  5
2623
330
1E
100
AcDbEntity
  8
7
100
AcDbLine
 10
5.437992125984251
 20
5.144685039370078
 30
0.0
 11
5.523622047244094
 21
5.144685039370078
 31
0.0
  0
LINE
  5
263D
330
1E
100
AcDbEntity
  8
7
100
AcDbLine
 10
5.328740157480314
 20
5.463582677165354
 30
0.0
 11
5.334645669291338
 21
5.46751968503937
 31
0.0
  0
LINE
  5
263E
330
1E
100
AcDbEntity
  8
7
100
AcDbLine
 10
5.334645669291338
 20
5.46751968503937
 30
0.0
 11
5.33759842519685
 21
5.469488188976377
 31
0.0
  0
LINE
  5
2693
330
1E
100
AcDbEntity
  8
7
100
AcDbLine
 10
6.349409448818898
 20
5.18503937007874
 30
0.0
 11
6.349409448818898
 21
5.070866141732283
 31
0.0
  0
LINE
  5
269E
330
1E
100
AcDbEntity
  8
7
100
AcDbLine
 10
5.784448818897637
 20
5.070866141732283
 30
0.0
 11
5.664370078740157
 21
5.070866141732283
 31
0.0
  0
LINE
  5
269F
330
1E
100
AcDbEntity
  8
7
100
AcDbLine
 10
6.539370078740157
 20
5.18503937007874
 30
0.0
 11
6.349409448818898
 21
5.18503937007874
 31
0.0
  0
LINE
  5
26A0
330
1E
100
AcDbEntity
  8
7
100
AcDbLine
 10
6.539370078740157
 20
5.344488188976377
 30
0.0
 11
6.539370078740157
 21
5.18503937007874
 31
0.0
  0
LINE
  5
26A1
330
1E
100
AcDbEntity
  8
7
100
AcDbLine
 10
6.349409448818898
 20
5.344488188976377
 30
0.0
 11
6.539370078740157
 21
5.344488188976377
 31
0.0
  0
LINE
  5
26A2
330
1E
100
AcDbEntity
  8
7
100
AcDbLine
 10
6.349409448818898
 20
5.458661417322835
 30
0.0
 11
6.349409448818898
 21
5.344488188976377
 31
0.0
  0
LINE
  5
26A3
330
1E
100
AcDbEntity
  8
7
100
AcDbLine
 10
5.664370078740157
 20
5.458661417322835
 30
0.0
 11
5.784448818897637
 21
5.458661417322835
 31
0.0
  0
LINE
  5
2706
330
1E
100
AcDbEntity
  8
7
100
AcDbLine
 10
6.539370078740157
 20
6.033464566929134
 30
0.0
 11
6.539370078740157
 21
6.014763779527559
 31
0.0
  0
LINE
  5
2707
330
1E
100
AcDbEntity
  8
7
100
AcDbLine
 10
6.649606299212598
 20
6.014763779527559
 30
0.0
 11
6.539370078740157
 21
6.014763779527559
 31
0.0
  0
LINE
  5
2718
330
1E
100
AcDbEntity
  8
7
100
AcDbLine
 10
6.539370078740157
 20
5.166338582677165
 30
0.0
 11
6.539370078740157
 21
5.118110236220472
 31
0.0
  0
LINE
  5
2723
330
1E
100
AcDbEntity
  8
7
100
AcDbLine
 10
6.539370078740157
 20
5.449803149606299
 30
0.0
 11
6.539370078740157
 21
5.166338582677165
 31
0.0
  0
LINE
  5
2724
330
1E
100
AcDbEntity
  8
7
100
AcDbLine
 10
6.539370078740157
 20
5.936023622047244
 30
0.0
 11
6.539370078740157
 21
5.449803149606299
 31
0.0
  0
LINE
  5
2738
330
1E
100
AcDbEntity
  8
7
100
AcDbLine
 10
6.649606299212598
 20
5.449803149606299
 30
0.0
 11
6.649606299212598
 21
5.936023622047244
 31
0.0
  0
LINE
  5
2739
330
1E
100
AcDbEntity
  8
7
100
AcDbLine
 10
6.649606299212598
 20
5.166338582677165
 30
0.0
 11
6.649606299212598
 21
5.449803149606299
 31
0.0
  0
LINE
  5
2750
330
1E
100
AcDbEntity
  8
7
100
AcDbLine
 10
6.539370078740157
 20
5.449803149606299
 30
0.0
 11
6.649606299212598
 21
5.449803149606299
 31
0.0
  0
LINE
  5
2751
330
1E
100
AcDbEntity
  8
7
100
AcDbLine
 10
6.539370078740157
 20
5.166338582677165
 30
0.0
 11
6.649606299212598
 21
5.166338582677165
 31
0.0
  0
LINE
  5
2752
330
1E
100
AcDbEntity
  8
7
100
AcDbLine
 10
6.649606299212598
 20
5.936023622047244
 30
0.0
 11
6.539370078740157
 21
5.936023622047244
 31
0.0
  0
LINE
  5
2E0F
330
1E
100
AcDbEntity
  8
7
100
AcDbLine
 10
6.649606299212598
 20
6.033464566929134
 30
0.0
 11
6.649606299212598
 21
6.081692913385826
 31
0.0
  0
LINE
  5
2E10
330
1E
100
AcDbEntity
  8
7
100
AcDbLine
 10
6.649606299212598
 20
6.081692913385826
 30
0.0
 11
6.649606299212598
 21
6.125984251968503
 31
0.0
  0
LINE
  5
2E11
330
1E
100
AcDbEntity
  8
7
100
AcDbLine
 10
6.649606299212598
 20
6.125984251968503
 30
0.0
 11
6.649606299212598
 21
6.166338582677165
 31
0.0
  0
LINE
  5
2E12
330
1E
100
AcDbEntity
  8
7
100
AcDbLine
 10
6.649606299212598
 20
6.166338582677165
 30
0.0
 11
6.649606299212598
 21
6.200787401574803
 31
0.0
  0
LINE
  5
2E13
330
1E
100
AcDbEntity
  8
7
100
AcDbLine
 10
6.649606299212598
 20
6.200787401574803
 30
0.0
 11
6.649606299212598
 21
6.228346456692913
 31
0.0
  0
LINE
  5
2E14
330
1E
100
AcDbEntity
  8
7
100
AcDbLine
 10
6.649606299212598
 20
6.228346456692913
 30
0.0
 11
6.649606299212598
 21
6.248031496062992
 31
0.0
  0
LINE
  5
2E15
330
1E
100
AcDbEntity
  8
7
100
AcDbLine
 10
6.649606299212598
 20
6.248031496062992
 30
0.0
 11
6.649606299212598
 21
6.260826771653543
 31
0.0
  0
LINE
  5
2E16
330
1E
100
AcDbEntity
  8
7
100
AcDbLine
 10
6.649606299212598
 20
6.260826771653543
 30
0.0
 11
6.649606299212598
 21
6.264763779527559
 31
0.0
  0
LINE
  5
2E17
330
1E
100
AcDbEntity
  8
7
100
AcDbLine
 10
6.649606299212598
 20
4.93503937007874
 30
0.0
 11
6.649606299212598
 21
4.938976377952756
 31
0.0
  0
LINE
  5
2E18
330
1E
100
AcDbEntity
  8
7
100
AcDbLine
 10
6.649606299212598
 20
4.938976377952756
 30
0.0
 11
6.649606299212598
 21
4.950787401574803
 31
0.0
  0
LINE
  5
2E19
330
1E
100
AcDbEntity
  8
7
100
AcDbLine
 10
6.649606299212598
 20
4.950787401574803
 30
0.0
 11
6.649606299212598
 21
4.971456692913386
 31
0.0
  0
LINE
  5
2E1A
330
1E
100
AcDbEntity
  8
7
100
AcDbLine
 10
6.649606299212598
 20
4.971456692913386
 30
0.0
 11
6.649606299212598
 21
4.999015748031496
 31
0.0
  0
LINE
  5
2E1B
330
1E
100
AcDbEntity
  8
7
100
AcDbLine
 10
6.649606299212598
 20
4.999015748031496
 30
0.0
 11
6.649606299212598
 21
5.033464566929134
 31
0.0
  0
LINE
  5
2E1C
330
1E
100
AcDbEntity
  8
7
100
AcDbLine
 10
6.649606299212598
 20
5.033464566929134
 30
0.0
 11
6.649606299212598
 21
5.072834645669291
 31
0.0
  0
LINE
  5
2E1D
330
1E
100
AcDbEntity
  8
7
100
AcDbLine
 10
6.649606299212598
 20
5.072834645669291
 30
0.0
 11
6.649606299212598
 21
5.118110236220472
 31
0.0
  0
LINE
  5
2E1E
330
1E
100
AcDbEntity
  8
7
100
AcDbLine
 10
6.649606299212598
 20
5.118110236220472
 30
0.0
 11
6.649606299212598
 21
5.166338582677165
 31
0.0
  0
LINE
  5
2E1F
330
1E
100
AcDbEntity
  8
7
100
AcDbLine
 10
6.649606299212598
 20
6.014763779527559
 30
0.0
 11
6.649606299212598
 21
6.009842519685039
 31
0.0
  0
LINE
  5
2E20
330
1E
100
AcDbEntity
  8
7
100
AcDbLine
 10
6.649606299212598
 20
6.009842519685039
 30
0.0
 11
6.649606299212598
 21
5.997047244094487
 31
0.0
  0
LINE
  5
2E21
330
1E
100
AcDbEntity
  8
7
100
AcDbLine
 10
6.649606299212598
 20
5.997047244094487
 30
0.0
 11
6.649606299212598
 21
5.977362204724409
 31
0.0
  0
LINE
  5
2E22
330
1E
100
AcDbEntity
  8
7
100
AcDbLine
 10
6.649606299212598
 20
5.977362204724409
 30
0.0
 11
6.649606299212598
 21
5.955708661417323
 31
0.0
  0
LINE
  5
2E23
330
1E
100
AcDbEntity
  8
7
100
AcDbLine
 10
6.649606299212598
 20
5.955708661417323
 30
0.0
 11
6.649606299212598
 21
5.936023622047244
 31
0.0
  0
LINE
  5
2E24
330
1E
100
AcDbEntity
  8
7
100
AcDbLine
 10
6.539370078740157
 20
5.977362204724409
 30
0.0
 11
6.539370078740157
 21
5.997047244094487
 31
0.0
  0
LINE
  5
2E25
330
1E
100
AcDbEntity
  8
7
100
AcDbLine
 10
6.539370078740157
 20
5.997047244094487
 30
0.0
 11
6.539370078740157
 21
6.009842519685039
 31
0.0
  0
LINE
  5
2E26
330
1E
100
AcDbEntity
  8
7
100
AcDbLine
 10
6.539370078740157
 20
6.009842519685039
 30
0.0
 11
6.539370078740157
 21
6.014763779527559
 31
0.0
  0
LINE
  5
2E27
330
1E
100
AcDbEntity
  8
7
100
AcDbLine
 10
6.539370078740157
 20
5.936023622047244
 30
0.0
 11
6.539370078740157
 21
5.955708661417323
 31
0.0
  0
LINE
  5
2E28
330
1E
100
AcDbEntity
  8
7
100
AcDbLine
 10
6.539370078740157
 20
5.955708661417323
 30
0.0
 11
6.539370078740157
 21
5.977362204724409
 31
0.0
  0
LINE
  5
2E29
330
1E
100
AcDbEntity
  8
7
100
AcDbLine
 10
6.539370078740157
 20
5.118110236220472
 30
0.0
 11
6.539370078740157
 21
5.072834645669291
 31
0.0
  0
LINE
  5
2E2A
330
1E
100
AcDbEntity
  8
7
100
AcDbLine
 10
6.539370078740157
 20
5.072834645669291
 30
0.0
 11
6.539370078740157
 21
5.033464566929134
 31
0.0
  0
LINE
  5
2E2B
330
1E
100
AcDbEntity
  8
7
100
AcDbLine
 10
6.539370078740157
 20
5.033464566929134
 30
0.0
 11
6.539370078740157
 21
4.999015748031496
 31
0.0
  0
LINE
  5
2E2C
330
1E
100
AcDbEntity
  8
7
100
AcDbLine
 10
6.539370078740157
 20
4.999015748031496
 30
0.0
 11
6.539370078740157
 21
4.971456692913386
 31
0.0
  0
LINE
  5
2E2D
330
1E
100
AcDbEntity
  8
7
100
AcDbLine
 10
6.539370078740157
 20
4.971456692913386
 30
0.0
 11
6.539370078740157
 21
4.950787401574803
 31
0.0
  0
LINE
  5
2E2E
330
1E
100
AcDbEntity
  8
7
100
AcDbLine
 10
6.539370078740157
 20
4.950787401574803
 30
0.0
 11
6.539370078740157
 21
4.938976377952756
 31
0.0
  0
LINE
  5
2E2F
330
1E
100
AcDbEntity
  8
7
100
AcDbLine
 10
6.539370078740157
 20
4.938976377952756
 30
0.0
 11
6.539370078740157
 21
4.93503937007874
 31
0.0
  0
LINE
  5
2E30
330
1E
100
AcDbEntity
  8
7
100
AcDbLine
 10
6.539370078740157
 20
6.264763779527559
 30
0.0
 11
6.539370078740157
 21
6.260826771653543
 31
0.0
  0
LINE
  5
2E31
330
1E
100
AcDbEntity
  8
7
100
AcDbLine
 10
6.539370078740157
 20
6.260826771653543
 30
0.0
 11
6.539370078740157
 21
6.248031496062992
 31
0.0
  0
LINE
  5
2E32
330
1E
100
AcDbEntity
  8
7
100
AcDbLine
 10
6.539370078740157
 20
6.248031496062992
 30
0.0
 11
6.539370078740157
 21
6.228346456692913
 31
0.0
  0
LINE
  5
2E33
330
1E
100
AcDbEntity
  8
7
100
AcDbLine
 10
6.539370078740157
 20
6.228346456692913
 30
0.0
 11
6.539370078740157
 21
6.200787401574803
 31
0.0
  0
LINE
  5
2E34
330
1E
100
AcDbEntity
  8
7
100
AcDbLine
 10
6.539370078740157
 20
6.200787401574803
 30
0.0
 11
6.539370078740157
 21
6.166338582677165
 31
0.0
  0
LINE
  5
2E35
330
1E
100
AcDbEntity
  8
7
100
AcDbLine
 10
6.539370078740157
 20
6.166338582677165
 30
0.0
 11
6.539370078740157
 21
6.125984251968503
 31
0.0
  0
LINE
  5
2E36
330
1E
100
AcDbEntity
  8
7
100
AcDbLine
 10
6.539370078740157
 20
6.125984251968503
 30
0.0
 11
6.539370078740157
 21
6.081692913385826
 31
0.0
  0
LINE
  5
2E37
330
1E
100
AcDbEntity
  8
7
100
AcDbLine
 10
6.539370078740157
 20
6.081692913385826
 30
0.0
 11
6.539370078740157
 21
6.033464566929134
 31
0.0
  0
LINE
  5
2E38
330
1E
100
AcDbEntity
  8
7
100
AcDbLine
 10
6.649606299212598
 20
6.014763779527559
 30
0.0
 11
6.649606299212598
 21
6.033464566929134
 31
0.0
  0
LINE
  5
2E39
330
1E
100
AcDbEntity
  8
7
100
AcDbLine
 10
6.649606299212598
 20
6.033464566929134
 30
0.0
 11
6.539370078740157
 21
6.033464566929134
 31
0.0
  0
LINE
  5
2E3A
330
1E
100
AcDbEntity
  8
7
100
AcDbLine
 10
6.539370078740157
 20
5.166338582677165
 30
0.0
 11
6.539370078740157
 21
5.1751968503937
 31
0.0
  0
LINE
  5
2E3B
330
1E
100
AcDbEntity
  8
7
100
AcDbLine
 10
6.539370078740157
 20
5.1751968503937
 30
0.0
 11
6.539370078740157
 21
5.18503937007874
 31
0.0
  0
LINE
  5
2E3C
330
1E
100
AcDbEntity
  8
7
100
AcDbLine
 10
5.658464566929133
 20
5.006889763779527
 30
0.0
 11
5.658464566929133
 21
4.959645669291338
 31
0.0
  0
LINE
  5
2E3D
330
1E
100
AcDbEntity
  8
7
100
AcDbLine
 10
5.658464566929133
 20
4.959645669291338
 30
0.0
 11
5.658464566929133
 21
4.918307086614173
 31
0.0
  0
LINE
  5
2E3E
330
1E
100
AcDbEntity
  8
7
100
AcDbLine
 10
5.658464566929133
 20
4.918307086614173
 30
0.0
 11
5.658464566929133
 21
4.882874015748031
 31
0.0
  0
LINE
  5
2E3F
330
1E
100
AcDbEntity
  8
7
100
AcDbLine
 10
5.658464566929133
 20
4.882874015748031
 30
0.0
 11
5.658464566929133
 21
4.854330708661417
 31
0.0
  0
LINE
  5
2E40
330
1E
100
AcDbEntity
  8
7
100
AcDbLine
 10
5.658464566929133
 20
4.854330708661417
 30
0.0
 11
5.658464566929133
 21
4.834645669291338
 31
0.0
  0
LINE
  5
2E41
330
1E
100
AcDbEntity
  8
7
100
AcDbLine
 10
5.658464566929133
 20
4.834645669291338
 30
0.0
 11
5.658464566929133
 21
4.821850393700787
 31
0.0
  0
LINE
  5
2E42
330
1E
100
AcDbEntity
  8
7
100
AcDbLine
 10
5.658464566929133
 20
4.821850393700787
 30
0.0
 11
5.658464566929133
 21
4.817913385826772
 31
0.0
  0
LINE
  5
2E43
330
1E
100
AcDbEntity
  8
7
100
AcDbLine
 10
5.658464566929133
 20
5.711614173228346
 30
0.0
 11
5.658464566929133
 21
5.70767716535433
 31
0.0
  0
LINE
  5
2E44
330
1E
100
AcDbEntity
  8
7
100
AcDbLine
 10
5.658464566929133
 20
5.70767716535433
 30
0.0
 11
5.658464566929133
 21
5.694881889763779
 31
0.0
  0
LINE
  5
2E45
330
1E
100
AcDbEntity
  8
7
100
AcDbLine
 10
5.658464566929133
 20
5.694881889763779
 30
0.0
 11
5.658464566929133
 21
5.6751968503937
 31
0.0
  0
LINE
  5
2E46
330
1E
100
AcDbEntity
  8
7
100
AcDbLine
 10
5.658464566929133
 20
5.6751968503937
 30
0.0
 11
5.658464566929133
 21
5.646653543307087
 31
0.0
  0
LINE
  5
2E47
330
1E
100
AcDbEntity
  8
7
100
AcDbLine
 10
5.658464566929133
 20
5.646653543307087
 30
0.0
 11
5.658464566929133
 21
5.611220472440945
 31
0.0
  0
LINE
  5
2E48
330
1E
100
AcDbEntity
  8
7
100
AcDbLine
 10
5.658464566929133
 20
5.611220472440945
 30
0.0
 11
5.658464566929133
 21
5.569881889763779
 31
0.0
  0
LINE
  5
2E49
330
1E
100
AcDbEntity
  8
7
100
AcDbLine
 10
5.658464566929133
 20
5.569881889763779
 30
0.0
 11
5.658464566929133
 21
5.52263779527559
 31
0.0
  0
LINE
  5
2E4A
330
1E
100
AcDbEntity
  8
7
100
AcDbLine
 10
5.658464566929133
 20
5.52263779527559
 30
0.0
 11
5.658464566929133
 21
5.470472440944882
 31
0.0
  0
LINE
  5
2E4B
330
1E
100
AcDbEntity
  8
7
100
AcDbLine
 10
5.658464566929133
 20
5.470472440944882
 30
0.0
 11
5.658464566929133
 21
5.414370078740157
 31
0.0
  0
LINE
  5
2E4C
330
1E
100
AcDbEntity
  8
7
100
AcDbLine
 10
5.658464566929133
 20
5.414370078740157
 30
0.0
 11
5.658464566929133
 21
5.355314960629921
 31
0.0
  0
LINE
  5
2E4D
330
1E
100
AcDbEntity
  8
7
100
AcDbLine
 10
5.658464566929133
 20
5.355314960629921
 30
0.0
 11
5.658464566929133
 21
5.295275590551181
 31
0.0
  0
LINE
  5
2E4E
330
1E
100
AcDbEntity
  8
7
100
AcDbLine
 10
5.658464566929133
 20
5.295275590551181
 30
0.0
 11
5.658464566929133
 21
5.234251968503937
 31
0.0
  0
LINE
  5
2E4F
330
1E
100
AcDbEntity
  8
7
100
AcDbLine
 10
5.658464566929133
 20
5.234251968503937
 30
0.0
 11
5.658464566929133
 21
5.174212598425197
 31
0.0
  0
LINE
  5
2E50
330
1E
100
AcDbEntity
  8
7
100
AcDbLine
 10
5.658464566929133
 20
5.174212598425197
 30
0.0
 11
5.658464566929133
 21
5.115157480314961
 31
0.0
  0
LINE
  5
2E51
330
1E
100
AcDbEntity
  8
7
100
AcDbLine
 10
5.658464566929133
 20
5.115157480314961
 30
0.0
 11
5.658464566929133
 21
5.059055118110236
 31
0.0
  0
LINE
  5
2E52
330
1E
100
AcDbEntity
  8
7
100
AcDbLine
 10
5.658464566929133
 20
5.059055118110236
 30
0.0
 11
5.658464566929133
 21
5.006889763779527
 31
0.0
  0
LINE
  5
2E53
330
1E
100
AcDbEntity
  8
7
100
AcDbLine
 10
5.523622047244094
 20
4.969488188976377
 30
0.0
 11
5.523622047244094
 21
4.990157480314961
 31
0.0
  0
LINE
  5
2E54
330
1E
100
AcDbEntity
  8
7
100
AcDbLine
 10
5.523622047244094
 20
4.990157480314961
 30
0.0
 11
5.523622047244094
 21
5.018700787401574
 31
0.0
  0
LINE
  5
2E55
330
1E
100
AcDbEntity
  8
7
100
AcDbLine
 10
5.523622047244094
 20
5.018700787401574
 30
0.0
 11
5.523622047244094
 21
5.053149606299212
 31
0.0
  0
LINE
  5
2E56
330
1E
100
AcDbEntity
  8
7
100
AcDbLine
 10
5.523622047244094
 20
5.053149606299212
 30
0.0
 11
5.523622047244094
 21
5.094488188976377
 31
0.0
  0
LINE
  5
2E57
330
1E
100
AcDbEntity
  8
7
100
AcDbLine
 10
5.523622047244094
 20
5.094488188976377
 30
0.0
 11
5.523622047244094
 21
5.139763779527559
 31
0.0
  0
LINE
  5
2E58
330
1E
100
AcDbEntity
  8
7
100
AcDbLine
 10
5.523622047244094
 20
5.139763779527559
 30
0.0
 11
5.523622047244094
 21
5.187992125984251
 31
0.0
  0
LINE
  5
2E59
330
1E
100
AcDbEntity
  8
7
100
AcDbLine
 10
5.523622047244094
 20
5.187992125984251
 30
0.0
 11
5.523622047244094
 21
5.239173228346456
 31
0.0
  0
LINE
  5
2E5A
330
1E
100
AcDbEntity
  8
7
100
AcDbLine
 10
5.523622047244094
 20
5.239173228346456
 30
0.0
 11
5.523622047244094
 21
5.290354330708662
 31
0.0
  0
LINE
  5
2E5B
330
1E
100
AcDbEntity
  8
7
100
AcDbLine
 10
5.523622047244094
 20
5.290354330708662
 30
0.0
 11
5.523622047244094
 21
5.341535433070866
 31
0.0
  0
LINE
  5
2E5C
330
1E
100
AcDbEntity
  8
7
100
AcDbLine
 10
5.523622047244094
 20
5.341535433070866
 30
0.0
 11
5.523622047244094
 21
5.389763779527559
 31
0.0
  0
LINE
  5
2E5D
330
1E
100
AcDbEntity
  8
7
100
AcDbLine
 10
5.523622047244094
 20
5.389763779527559
 30
0.0
 11
5.523622047244094
 21
5.43503937007874
 31
0.0
  0
LINE
  5
2E5E
330
1E
100
AcDbEntity
  8
7
100
AcDbLine
 10
5.523622047244094
 20
5.43503937007874
 30
0.0
 11
5.523622047244094
 21
5.476377952755905
 31
0.0
  0
LINE
  5
2E5F
330
1E
100
AcDbEntity
  8
7
100
AcDbLine
 10
5.523622047244094
 20
5.476377952755905
 30
0.0
 11
5.523622047244094
 21
5.510826771653543
 31
0.0
  0
LINE
  5
2E60
330
1E
100
AcDbEntity
  8
7
100
AcDbLine
 10
5.523622047244094
 20
5.510826771653543
 30
0.0
 11
5.523622047244094
 21
5.539370078740157
 31
0.0
  0
LINE
  5
2E61
330
1E
100
AcDbEntity
  8
7
100
AcDbLine
 10
5.523622047244094
 20
5.539370078740157
 30
0.0
 11
5.523622047244094
 21
5.56003937007874
 31
0.0
  0
LINE
  5
2E62
330
1E
100
AcDbEntity
  8
7
100
AcDbLine
 10
5.523622047244094
 20
5.56003937007874
 30
0.0
 11
5.523622047244094
 21
5.572834645669291
 31
0.0
  0
LINE
  5
2E63
330
1E
100
AcDbEntity
  8
7
100
AcDbLine
 10
5.523622047244094
 20
5.572834645669291
 30
0.0
 11
5.523622047244094
 21
5.576771653543307
 31
0.0
  0
LINE
  5
2E64
330
1E
100
AcDbEntity
  8
7
100
AcDbLine
 10
5.523622047244094
 20
4.952755905511811
 30
0.0
 11
5.523622047244094
 21
4.956692913385826
 31
0.0
  0
LINE
  5
2E65
330
1E
100
AcDbEntity
  8
7
100
AcDbLine
 10
5.523622047244094
 20
4.956692913385826
 30
0.0
 11
5.523622047244094
 21
4.969488188976377
 31
0.0
  0
LINE
  5
2E66
330
1E
100
AcDbEntity
  8
7
100
AcDbLine
 10
5.664370078740157
 20
5.115157480314961
 30
0.0
 11
5.664370078740157
 21
5.174212598425197
 31
0.0
  0
LINE
  5
2E67
330
1E
100
AcDbEntity
  8
7
100
AcDbLine
 10
5.664370078740157
 20
5.174212598425197
 30
0.0
 11
5.664370078740157
 21
5.234251968503937
 31
0.0
  0
LINE
  5
2E68
330
1E
100
AcDbEntity
  8
7
100
AcDbLine
 10
5.664370078740157
 20
5.234251968503937
 30
0.0
 11
5.664370078740157
 21
5.295275590551181
 31
0.0
  0
LINE
  5
2E69
330
1E
100
AcDbEntity
  8
7
100
AcDbLine
 10
5.664370078740157
 20
5.295275590551181
 30
0.0
 11
5.664370078740157
 21
5.355314960629921
 31
0.0
  0
LINE
  5
2E6A
330
1E
100
AcDbEntity
  8
7
100
AcDbLine
 10
5.664370078740157
 20
5.355314960629921
 30
0.0
 11
5.664370078740157
 21
5.414370078740157
 31
0.0
  0
LINE
  5
2E6B
330
1E
100
AcDbEntity
  8
7
100
AcDbLine
 10
5.664370078740157
 20
5.414370078740157
 30
0.0
 11
5.664370078740157
 21
5.470472440944882
 31
0.0
  0
LINE
  5
2E6C
330
1E
100
AcDbEntity
  8
7
100
AcDbLine
 10
5.664370078740157
 20
5.470472440944882
 30
0.0
 11
5.664370078740157
 21
5.52263779527559
 31
0.0
  0
LINE
  5
2E6D
330
1E
100
AcDbEntity
  8
7
100
AcDbLine
 10
5.664370078740157
 20
5.52263779527559
 30
0.0
 11
5.664370078740157
 21
5.569881889763779
 31
0.0
  0
LINE
  5
2E6E
330
1E
100
AcDbEntity
  8
7
100
AcDbLine
 10
5.664370078740157
 20
5.569881889763779
 30
0.0
 11
5.664370078740157
 21
5.611220472440945
 31
0.0
  0
LINE
  5
2E6F
330
1E
100
AcDbEntity
  8
7
100
AcDbLine
 10
5.664370078740157
 20
5.611220472440945
 30
0.0
 11
5.664370078740157
 21
5.646653543307087
 31
0.0
  0
LINE
  5
2E70
330
1E
100
AcDbEntity
  8
7
100
AcDbLine
 10
5.664370078740157
 20
5.646653543307087
 30
0.0
 11
5.664370078740157
 21
5.6751968503937
 31
0.0
  0
LINE
  5
2E71
330
1E
100
AcDbEntity
  8
7
100
AcDbLine
 10
5.664370078740157
 20
5.6751968503937
 30
0.0
 11
5.664370078740157
 21
5.694881889763779
 31
0.0
  0
LINE
  5
2E72
330
1E
100
AcDbEntity
  8
7
100
AcDbLine
 10
5.664370078740157
 20
5.694881889763779
 30
0.0
 11
5.664370078740157
 21
5.70767716535433
 31
0.0
  0
LINE
  5
2E73
330
1E
100
AcDbEntity
  8
7
100
AcDbLine
 10
5.664370078740157
 20
5.70767716535433
 30
0.0
 11
5.664370078740157
 21
5.711614173228346
 31
0.0
  0
LINE
  5
2E74
330
1E
100
AcDbEntity
  8
7
100
AcDbLine
 10
5.664370078740157
 20
4.817913385826772
 30
0.0
 11
5.664370078740157
 21
4.821850393700787
 31
0.0
  0
LINE
  5
2E75
330
1E
100
AcDbEntity
  8
7
100
AcDbLine
 10
5.664370078740157
 20
4.821850393700787
 30
0.0
 11
5.664370078740157
 21
4.834645669291338
 31
0.0
  0
LINE
  5
2E76
330
1E
100
AcDbEntity
  8
7
100
AcDbLine
 10
5.664370078740157
 20
4.834645669291338
 30
0.0
 11
5.664370078740157
 21
4.854330708661417
 31
0.0
  0
LINE
  5
2E77
330
1E
100
AcDbEntity
  8
7
100
AcDbLine
 10
5.664370078740157
 20
4.854330708661417
 30
0.0
 11
5.664370078740157
 21
4.882874015748031
 31
0.0
  0
LINE
  5
2E78
330
1E
100
AcDbEntity
  8
7
100
AcDbLine
 10
5.664370078740157
 20
4.882874015748031
 30
0.0
 11
5.664370078740157
 21
4.918307086614173
 31
0.0
  0
LINE
  5
2E79
330
1E
100
AcDbEntity
  8
7
100
AcDbLine
 10
5.664370078740157
 20
4.918307086614173
 30
0.0
 11
5.664370078740157
 21
4.959645669291338
 31
0.0
  0
LINE
  5
2E7A
330
1E
100
AcDbEntity
  8
7
100
AcDbLine
 10
5.664370078740157
 20
4.959645669291338
 30
0.0
 11
5.664370078740157
 21
5.006889763779527
 31
0.0
  0
LINE
  5
2E7B
330
1E
100
AcDbEntity
  8
7
100
AcDbLine
 10
5.664370078740157
 20
5.006889763779527
 30
0.0
 11
5.664370078740157
 21
5.059055118110236
 31
0.0
  0
LINE
  5
2E7C
330
1E
100
AcDbEntity
  8
7
100
AcDbLine
 10
5.664370078740157
 20
5.059055118110236
 30
0.0
 11
5.664370078740157
 21
5.115157480314961
 31
0.0
  0
LINE
  5
2E7D
330
1E
100
AcDbEntity
  8
7
100
AcDbLine
 10
5.942913385826772
 20
5.458661417322835
 30
0.0
 11
6.349409448818898
 21
5.458661417322835
 31
0.0
  0
LINE
  5
2E7E
330
1E
100
AcDbEntity
  8
7
100
AcDbLine
 10
6.349409448818898
 20
5.458661417322835
 30
0.0
 11
6.349409448818898
 21
5.508858267716535
 31
0.0
  0
LINE
  5
2E7F
330
1E
100
AcDbEntity
  8
7
100
AcDbLine
 10
6.349409448818898
 20
5.508858267716535
 30
0.0
 11
6.349409448818898
 21
5.553149606299212
 31
0.0
  0
LINE
  5
2E80
330
1E
100
AcDbEntity
  8
7
100
AcDbLine
 10
6.349409448818898
 20
5.553149606299212
 30
0.0
 11
6.349409448818898
 21
5.58759842519685
 31
0.0
  0
LINE
  5
2E81
330
1E
100
AcDbEntity
  8
7
100
AcDbLine
 10
6.349409448818898
 20
5.58759842519685
 30
0.0
 11
6.349409448818898
 21
5.614173228346456
 31
0.0
  0
LINE
  5
2E82
330
1E
100
AcDbEntity
  8
7
100
AcDbLine
 10
6.349409448818898
 20
5.614173228346456
 30
0.0
 11
6.349409448818898
 21
5.629921259842519
 31
0.0
  0
LINE
  5
2E83
330
1E
100
AcDbEntity
  8
7
100
AcDbLine
 10
6.349409448818898
 20
5.629921259842519
 30
0.0
 11
6.349409448818898
 21
5.634842519685039
 31
0.0
  0
LINE
  5
2E84
330
1E
100
AcDbEntity
  8
7
100
AcDbLine
 10
6.349409448818898
 20
4.894685039370078
 30
0.0
 11
6.349409448818898
 21
4.900590551181102
 31
0.0
  0
LINE
  5
2E85
330
1E
100
AcDbEntity
  8
7
100
AcDbLine
 10
6.349409448818898
 20
4.900590551181102
 30
0.0
 11
6.349409448818898
 21
4.916338582677165
 31
0.0
  0
LINE
  5
2E86
330
1E
100
AcDbEntity
  8
7
100
AcDbLine
 10
6.349409448818898
 20
4.916338582677165
 30
0.0
 11
6.349409448818898
 21
4.941929133858267
 31
0.0
  0
LINE
  5
2E87
330
1E
100
AcDbEntity
  8
7
100
AcDbLine
 10
6.349409448818898
 20
4.941929133858267
 30
0.0
 11
6.349409448818898
 21
4.977362204724409
 31
0.0
  0
LINE
  5
2E88
330
1E
100
AcDbEntity
  8
7
100
AcDbLine
 10
6.349409448818898
 20
4.977362204724409
 30
0.0
 11
6.349409448818898
 21
5.020669291338582
 31
0.0
  0
LINE
  5
2E89
330
1E
100
AcDbEntity
  8
7
100
AcDbLine
 10
6.349409448818898
 20
5.020669291338582
 30
0.0
 11
6.349409448818898
 21
5.070866141732283
 31
0.0
  0
LINE
  5
2E8A
330
1E
100
AcDbEntity
  8
7
100
AcDbLine
 10
6.349409448818898
 20
5.070866141732283
 30
0.0
 11
5.942913385826772
 21
5.070866141732283
 31
0.0
  0
LINE
  5
2E8B
330
1E
100
AcDbEntity
  8
7
100
AcDbLine
 10
6.812007874015748
 20
5.386811023622047
 30
0.0
 11
6.811023622047244
 21
5.386811023622047
 31
0.0
  0
LINE
  5
2E8C
330
1E
100
AcDbEntity
  8
7
100
AcDbLine
 10
6.811023622047244
 20
5.386811023622047
 30
0.0
 11
6.81003937007874
 21
5.385826771653543
 31
0.0
  0
LINE
  5
2E8D
330
1E
100
AcDbEntity
  8
7
100
AcDbLine
 10
6.81003937007874
 20
5.385826771653543
 30
0.0
 11
6.816929133858266
 21
5.368110236220472
 31
0.0
  0
LINE
  5
2E8E
330
1E
100
AcDbEntity
  8
7
100
AcDbLine
 10
6.816929133858266
 20
5.368110236220472
 30
0.0
 11
6.821850393700787
 21
5.349409448818898
 31
0.0
  0
LINE
  5
2E8F
330
1E
100
AcDbEntity
  8
7
100
AcDbLine
 10
6.821850393700787
 20
5.293307086614173
 30
0.0
 11
6.825787401574803
 21
5.296259842519685
 31
0.0
  0
LINE
  5
2E90
330
1E
100
AcDbEntity
  8
7
100
AcDbLine
 10
6.825787401574803
 20
5.296259842519685
 30
0.0
 11
6.827755905511811
 21
5.30511811023622
 31
0.0
  0
LINE
  5
2E91
330
1E
100
AcDbEntity
  8
7
100
AcDbLine
 10
6.827755905511811
 20
5.30511811023622
 30
0.0
 11
6.827755905511811
 21
5.318897637795275
 31
0.0
  0
LINE
  5
2E92
330
1E
100
AcDbEntity
  8
7
100
AcDbLine
 10
6.827755905511811
 20
5.318897637795275
 30
0.0
 11
6.824803149606298
 21
5.336614173228346
 31
0.0
  0
LINE
  5
2E93
330
1E
100
AcDbEntity
  8
7
100
AcDbLine
 10
6.824803149606298
 20
5.336614173228346
 30
0.0
 11
6.821850393700787
 21
5.349409448818898
 31
0.0
  0
LINE
  5
2E94
330
1E
100
AcDbEntity
  8
7
100
AcDbLine
 10
6.821850393700787
 20
5.293307086614173
 30
0.0
 11
6.816929133858266
 21
5.293307086614173
 31
0.0
  0
LINE
  5
2E95
330
1E
100
AcDbEntity
  8
7
100
AcDbLine
 10
6.816929133858266
 20
5.293307086614173
 30
0.0
 11
6.81003937007874
 21
5.292322834645669
 31
0.0
  0
LINE
  5
2E96
330
1E
100
AcDbEntity
  8
7
100
AcDbLine
 10
6.81003937007874
 20
5.292322834645669
 30
0.0
 11
6.812007874015748
 21
5.264763779527559
 31
0.0
  0
LINE
  5
2E97
330
1E
100
AcDbEntity
  8
7
100
AcDbLine
 10
6.812007874015748
 20
5.264763779527559
 30
0.0
 11
6.81003937007874
 21
5.237204724409449
 31
0.0
  0
LINE
  5
2E98
330
1E
100
AcDbEntity
  8
7
100
AcDbLine
 10
6.81003937007874
 20
5.237204724409449
 30
0.0
 11
6.816929133858266
 21
5.237204724409449
 31
0.0
  0
LINE
  5
2E99
330
1E
100
AcDbEntity
  8
7
100
AcDbLine
 10
6.816929133858266
 20
5.237204724409449
 30
0.0
 11
6.821850393700787
 21
5.236220472440945
 31
0.0
  0
LINE
  5
2E9A
330
1E
100
AcDbEntity
  8
7
100
AcDbLine
 10
6.821850393700787
 20
5.18011811023622
 30
0.0
 11
6.825787401574803
 21
5.197834645669291
 31
0.0
  0
LINE
  5
2E9B
330
1E
100
AcDbEntity
  8
7
100
AcDbLine
 10
6.825787401574803
 20
5.197834645669291
 30
0.0
 11
6.827755905511811
 21
5.213582677165354
 31
0.0
  0
LINE
  5
2E9C
330
1E
100
AcDbEntity
  8
7
100
AcDbLine
 10
6.827755905511811
 20
5.213582677165354
 30
0.0
 11
6.827755905511811
 21
5.226377952755905
 31
0.0
  0
LINE
  5
2E9D
330
1E
100
AcDbEntity
  8
7
100
AcDbLine
 10
6.827755905511811
 20
5.226377952755905
 30
0.0
 11
6.824803149606298
 21
5.234251968503937
 31
0.0
  0
LINE
  5
2E9E
330
1E
100
AcDbEntity
  8
7
100
AcDbLine
 10
6.824803149606298
 20
5.234251968503937
 30
0.0
 11
6.821850393700787
 21
5.236220472440945
 31
0.0
  0
LINE
  5
2E9F
330
1E
100
AcDbEntity
  8
7
100
AcDbLine
 10
6.821850393700787
 20
5.18011811023622
 30
0.0
 11
6.816929133858266
 21
5.161417322834646
 31
0.0
  0
LINE
  5
2EA0
330
1E
100
AcDbEntity
  8
7
100
AcDbLine
 10
6.816929133858266
 20
5.161417322834646
 30
0.0
 11
6.81003937007874
 21
5.143700787401574
 31
0.0
  0
LINE
  5
2EA1
330
1E
100
AcDbEntity
  8
7
100
AcDbLine
 10
6.81003937007874
 20
5.143700787401574
 30
0.0
 11
6.811023622047244
 21
5.143700787401574
 31
0.0
  0
LINE
  5
2EA2
330
1E
100
AcDbEntity
  8
7
100
AcDbLine
 10
6.811023622047244
 20
5.143700787401574
 30
0.0
 11
6.812007874015748
 21
5.143700787401574
 31
0.0
  0
LINE
  5
2EA3
330
1E
100
AcDbEntity
  8
7
100
AcDbLine
 10
6.734251968503937
 20
5.372047244094487
 30
0.0
 11
6.734251968503937
 21
5.330708661417323
 31
0.0
  0
LINE
  5
2EA4
330
1E
100
AcDbEntity
  8
7
100
AcDbLine
 10
6.734251968503937
 20
5.330708661417323
 30
0.0
 11
6.734251968503937
 21
5.287401574803149
 31
0.0
  0
LINE
  5
2EA5
330
1E
100
AcDbEntity
  8
7
100
AcDbLine
 10
6.734251968503937
 20
5.287401574803149
 30
0.0
 11
6.734251968503937
 21
5.243110236220472
 31
0.0
  0
LINE
  5
2EA6
330
1E
100
AcDbEntity
  8
7
100
AcDbLine
 10
6.734251968503937
 20
5.243110236220472
 30
0.0
 11
6.734251968503937
 21
5.198818897637795
 31
0.0
  0
LINE
  5
2EA7
330
1E
100
AcDbEntity
  8
7
100
AcDbLine
 10
6.734251968503937
 20
5.198818897637795
 30
0.0
 11
6.734251968503937
 21
5.15748031496063
 31
0.0
  0
LINE
  5
2EA8
330
1E
100
AcDbEntity
  8
7
100
AcDbLine
 10
6.734251968503937
 20
5.15748031496063
 30
0.0
 11
6.734251968503937
 21
5.12007874015748
 31
0.0
  0
LINE
  5
2EA9
330
1E
100
AcDbEntity
  8
7
100
AcDbLine
 10
6.734251968503937
 20
5.12007874015748
 30
0.0
 11
6.734251968503937
 21
5.08759842519685
 31
0.0
  0
LINE
  5
2EAA
330
1E
100
AcDbEntity
  8
7
100
AcDbLine
 10
6.734251968503937
 20
5.08759842519685
 30
0.0
 11
6.734251968503937
 21
5.061023622047244
 31
0.0
  0
LINE
  5
2EAB
330
1E
100
AcDbEntity
  8
7
100
AcDbLine
 10
6.734251968503937
 20
5.061023622047244
 30
0.0
 11
6.734251968503937
 21
5.041338582677165
 31
0.0
  0
LINE
  5
2EAC
330
1E
100
AcDbEntity
  8
7
100
AcDbLine
 10
6.734251968503937
 20
5.041338582677165
 30
0.0
 11
6.734251968503937
 21
5.028543307086614
 31
0.0
  0
LINE
  5
2EAD
330
1E
100
AcDbEntity
  8
7
100
AcDbLine
 10
6.734251968503937
 20
5.028543307086614
 30
0.0
 11
6.734251968503937
 21
5.024606299212598
 31
0.0
  0
LINE
  5
2EAE
330
1E
100
AcDbEntity
  8
7
100
AcDbLine
 10
6.734251968503937
 20
5.504921259842519
 30
0.0
 11
6.734251968503937
 21
5.500984251968503
 31
0.0
  0
LINE
  5
2EAF
330
1E
100
AcDbEntity
  8
7
100
AcDbLine
 10
6.734251968503937
 20
5.500984251968503
 30
0.0
 11
6.734251968503937
 21
5.488188976377952
 31
0.0
  0
LINE
  5
2EB0
330
1E
100
AcDbEntity
  8
7
100
AcDbLine
 10
6.734251968503937
 20
5.488188976377952
 30
0.0
 11
6.734251968503937
 21
5.468503937007874
 31
0.0
  0
LINE
  5
2EB1
330
1E
100
AcDbEntity
  8
7
100
AcDbLine
 10
6.734251968503937
 20
5.468503937007874
 30
0.0
 11
6.734251968503937
 21
5.441929133858267
 31
0.0
  0
LINE
  5
2EB2
330
1E
100
AcDbEntity
  8
7
100
AcDbLine
 10
6.734251968503937
 20
5.441929133858267
 30
0.0
 11
6.734251968503937
 21
5.409448818897637
 31
0.0
  0
LINE
  5
2EB3
330
1E
100
AcDbEntity
  8
7
100
AcDbLine
 10
6.734251968503937
 20
5.409448818897637
 30
0.0
 11
6.734251968503937
 21
5.372047244094487
 31
0.0
  0
LINE
  5
2EB4
330
1E
100
AcDbEntity
  8
7
100
AcDbLine
 10
5.437992125984251
 20
5.125
 30
0.0
 11
5.437992125984251
 21
5.118110236220472
 31
0.0
  0
LINE
  5
2EB5
330
1E
100
AcDbEntity
  8
7
100
AcDbLine
 10
5.437992125984251
 20
5.118110236220472
 30
0.0
 11
5.437992125984251
 21
5.115157480314961
 31
0.0
  0
LINE
  5
2EB6
330
1E
100
AcDbEntity
  8
7
100
AcDbLine
 10
5.328740157480314
 20
5.065944881889763
 30
0.0
 11
5.334645669291338
 21
5.062007874015748
 31
0.0
  0
LINE
  5
2EB7
330
1E
100
AcDbEntity
  8
7
100
AcDbLine
 10
5.334645669291338
 20
5.062007874015748
 30
0.0
 11
5.33759842519685
 21
5.06003937007874
 31
0.0
  0
LINE
  5
2EB8
330
1E
100
AcDbEntity
  8
7
100
AcDbLine
 10
5.437992125984251
 20
5.404527559055118
 30
0.0
 11
5.437992125984251
 21
5.411417322834646
 31
0.0
  0
LINE
  5
2EB9
330
1E
100
AcDbEntity
  8
7
100
AcDbLine
 10
5.437992125984251
 20
5.411417322834646
 30
0.0
 11
5.437992125984251
 21
5.414370078740157
 31
0.0
  0
LINE
  5
2EBA
330
1E
100
AcDbEntity
  8
7
100
AcDbLine
 10
5.437992125984251
 20
5.384842519685039
 30
0.0
 11
5.437992125984251
 21
5.381889763779527
 31
0.0
  0
LINE
  5
2EBB
330
1E
100
AcDbEntity
  8
7
100
AcDbLine
 10
5.437992125984251
 20
5.381889763779527
 30
0.0
 11
5.437992125984251
 21
5.375
 31
0.0
  0
LINE
  5
2EBC
330
1E
100
AcDbEntity
  8
7
100
AcDbLine
 10
5.312007874015748
 20
5.452755905511811
 30
0.0
 11
5.31003937007874
 21
5.451771653543307
 31
0.0
  0
LINE
  5
2EBD
330
1E
100
AcDbEntity
  8
7
100
AcDbLine
 10
5.31003937007874
 20
5.451771653543307
 30
0.0
 11
5.304133858267716
 21
5.447834645669291
 31
0.0
  0
LINE
  5
2EBE
330
1E
100
AcDbEntity
  8
7
100
AcDbLine
 10
5.312007874015748
 20
5.076771653543307
 30
0.0
 11
5.31003937007874
 21
5.077755905511811
 31
0.0
  0
LINE
  5
2EBF
330
1E
100
AcDbEntity
  8
7
100
AcDbLine
 10
5.31003937007874
 20
5.077755905511811
 30
0.0
 11
5.304133858267716
 21
5.081692913385826
 31
0.0
  0
LINE
  5
2EC0
330
1E
100
AcDbEntity
  8
7
100
AcDbLine
 10
5.437992125984251
 20
5.144685039370078
 30
0.0
 11
5.437992125984251
 21
5.14763779527559
 31
0.0
  0
LINE
  5
2EC1
330
1E
100
AcDbEntity
  8
7
100
AcDbLine
 10
5.437992125984251
 20
5.14763779527559
 30
0.0
 11
5.437992125984251
 21
5.154527559055118
 31
0.0
  0
LINE
  5
2EC2
330
1E
100
AcDbEntity
  8
7
100
AcDbLine
 10
5.437992125984251
 20
5.144685039370078
 30
0.0
 11
5.401574803149605
 21
5.139763779527559
 31
0.0
  0
LINE
  5
2EC3
330
1E
100
AcDbEntity
  8
7
100
AcDbLine
 10
5.401574803149605
 20
5.139763779527559
 30
0.0
 11
5.367125984251968
 21
5.126968503937008
 31
0.0
  0
LINE
  5
2EC4
330
1E
100
AcDbEntity
  8
7
100
AcDbLine
 10
5.367125984251968
 20
5.126968503937008
 30
0.0
 11
5.336614173228346
 21
5.105314960629921
 31
0.0
  0
LINE
  5
2EC5
330
1E
100
AcDbEntity
  8
7
100
AcDbLine
 10
5.336614173228346
 20
5.105314960629921
 30
0.0
 11
5.312992125984251
 21
5.076771653543307
 31
0.0
  0
LINE
  5
2EC6
330
1E
100
AcDbEntity
  8
7
100
AcDbLine
 10
4.797244094488188
 20
5.004921259842519
 30
0.0
 11
4.840551181102362
 21
4.973425196850393
 31
0.0
  0
LINE
  5
2EC7
330
1E
100
AcDbEntity
  8
7
100
AcDbLine
 10
4.840551181102362
 20
4.973425196850393
 30
0.0
 11
4.88779527559055
 21
4.947834645669291
 31
0.0
  0
LINE
  5
2EC8
330
1E
100
AcDbEntity
  8
7
100
AcDbLine
 10
4.88779527559055
 20
4.947834645669291
 30
0.0
 11
4.938976377952755
 21
4.931102362204724
 31
0.0
  0
LINE
  5
2EC9
330
1E
100
AcDbEntity
  8
7
100
AcDbLine
 10
4.938976377952755
 20
4.931102362204724
 30
0.0
 11
4.991141732283464
 21
4.922244094488188
 31
0.0
  0
LINE
  5
2ECA
330
1E
100
AcDbEntity
  8
7
100
AcDbLine
 10
4.991141732283464
 20
4.922244094488188
 30
0.0
 11
5.044291338582676
 21
4.921259842519685
 31
0.0
  0
LINE
  5
2ECB
330
1E
100
AcDbEntity
  8
7
100
AcDbLine
 10
5.044291338582676
 20
4.921259842519685
 30
0.0
 11
5.097440944881889
 21
4.928149606299212
 31
0.0
  0
LINE
  5
2ECC
330
1E
100
AcDbEntity
  8
7
100
AcDbLine
 10
5.097440944881889
 20
4.928149606299212
 30
0.0
 11
5.148622047244094
 21
4.943897637795275
 31
0.0
  0
LINE
  5
2ECD
330
1E
100
AcDbEntity
  8
7
100
AcDbLine
 10
5.148622047244094
 20
4.943897637795275
 30
0.0
 11
5.196850393700787
 21
4.96751968503937
 31
0.0
  0
LINE
  5
2ECE
330
1E
100
AcDbEntity
  8
7
100
AcDbLine
 10
5.196850393700787
 20
4.96751968503937
 30
0.0
 11
5.241141732283464
 21
4.998031496062992
 31
0.0
  0
LINE
  5
2ECF
330
1E
100
AcDbEntity
  8
7
100
AcDbLine
 10
5.241141732283464
 20
4.998031496062992
 30
0.0
 11
5.279527559055118
 21
5.034448818897637
 31
0.0
  0
LINE
  5
2ED0
330
1E
100
AcDbEntity
  8
7
100
AcDbLine
 10
5.279527559055118
 20
5.034448818897637
 30
0.0
 11
5.312007874015748
 21
5.076771653543307
 31
0.0
  0
LINE
  5
2ED1
330
1E
100
AcDbEntity
  8
7
100
AcDbLine
 10
4.88779527559055
 20
5.581692913385826
 30
0.0
 11
4.840551181102362
 21
5.556102362204724
 31
0.0
  0
LINE
  5
2ED2
330
1E
100
AcDbEntity
  8
7
100
AcDbLine
 10
4.840551181102362
 20
5.556102362204724
 30
0.0
 11
4.797244094488188
 21
5.524606299212598
 31
0.0
  0
LINE
  5
2ED3
330
1E
100
AcDbEntity
  8
7
100
AcDbLine
 10
4.797244094488188
 20
5.524606299212598
 30
0.0
 11
4.759842519685038
 21
5.486220472440945
 31
0.0
  0
LINE
  5
2ED4
330
1E
100
AcDbEntity
  8
7
100
AcDbLine
 10
4.759842519685038
 20
5.486220472440945
 30
0.0
 11
4.729330708661416
 21
5.442913385826772
 31
0.0
  0
LINE
  5
2ED5
330
1E
100
AcDbEntity
  8
7
100
AcDbLine
 10
4.729330708661416
 20
5.442913385826772
 30
0.0
 11
4.704724409448818
 21
5.395669291338582
 31
0.0
  0
LINE
  5
2ED6
330
1E
100
AcDbEntity
  8
7
100
AcDbLine
 10
4.704724409448818
 20
5.395669291338582
 30
0.0
 11
4.687992125984251
 21
5.344488188976377
 31
0.0
  0
LINE
  5
2ED7
330
1E
100
AcDbEntity
  8
7
100
AcDbLine
 10
4.687992125984251
 20
5.344488188976377
 30
0.0
 11
4.68011811023622
 21
5.291338582677165
 31
0.0
  0
LINE
  5
2ED8
330
1E
100
AcDbEntity
  8
7
100
AcDbLine
 10
4.68011811023622
 20
5.291338582677165
 30
0.0
 11
4.68011811023622
 21
5.238188976377952
 31
0.0
  0
LINE
  5
2ED9
330
1E
100
AcDbEntity
  8
7
100
AcDbLine
 10
4.68011811023622
 20
5.238188976377952
 30
0.0
 11
4.687992125984251
 21
5.18503937007874
 31
0.0
  0
LINE
  5
2EDA
330
1E
100
AcDbEntity
  8
7
100
AcDbLine
 10
4.687992125984251
 20
5.18503937007874
 30
0.0
 11
4.704724409448818
 21
5.133858267716535
 31
0.0
  0
LINE
  5
2EDB
330
1E
100
AcDbEntity
  8
7
100
AcDbLine
 10
4.704724409448818
 20
5.133858267716535
 30
0.0
 11
4.729330708661416
 21
5.086614173228346
 31
0.0
  0
LINE
  5
2EDC
330
1E
100
AcDbEntity
  8
7
100
AcDbLine
 10
4.729330708661416
 20
5.086614173228346
 30
0.0
 11
4.759842519685038
 21
5.043307086614173
 31
0.0
  0
LINE
  5
2EDD
330
1E
100
AcDbEntity
  8
7
100
AcDbLine
 10
4.759842519685038
 20
5.043307086614173
 30
0.0
 11
4.797244094488188
 21
5.004921259842519
 31
0.0
  0
LINE
  5
2EDE
330
1E
100
AcDbEntity
  8
7
100
AcDbLine
 10
5.312007874015748
 20
5.452755905511811
 30
0.0
 11
5.279527559055118
 21
5.49507874015748
 31
0.0
  0
LINE
  5
2EDF
330
1E
100
AcDbEntity
  8
7
100
AcDbLine
 10
5.279527559055118
 20
5.49507874015748
 30
0.0
 11
5.241141732283464
 21
5.531496062992125
 31
0.0
  0
LINE
  5
2EE0
330
1E
100
AcDbEntity
  8
7
100
AcDbLine
 10
5.241141732283464
 20
5.531496062992125
 30
0.0
 11
5.196850393700787
 21
5.562007874015748
 31
0.0
  0
LINE
  5
2EE1
330
1E
100
AcDbEntity
  8
7
100
AcDbLine
 10
5.196850393700787
 20
5.562007874015748
 30
0.0
 11
5.148622047244094
 21
5.585629921259842
 31
0.0
  0
LINE
  5
2EE2
330
1E
100
AcDbEntity
  8
7
100
AcDbLine
 10
5.148622047244094
 20
5.585629921259842
 30
0.0
 11
5.097440944881889
 21
5.601377952755905
 31
0.0
  0
LINE
  5
2EE3
330
1E
100
AcDbEntity
  8
7
100
AcDbLine
 10
5.097440944881889
 20
5.601377952755905
 30
0.0
 11
5.044291338582676
 21
5.608267716535433
 31
0.0
  0
LINE
  5
2EE4
330
1E
100
AcDbEntity
  8
7
100
AcDbLine
 10
5.044291338582676
 20
5.608267716535433
 30
0.0
 11
4.991141732283464
 21
5.607283464566929
 31
0.0
  0
LINE
  5
2EE5
330
1E
100
AcDbEntity
  8
7
100
AcDbLine
 10
4.991141732283464
 20
5.607283464566929
 30
0.0
 11
4.938976377952755
 21
5.598425196850393
 31
0.0
  0
LINE
  5
2EE6
330
1E
100
AcDbEntity
  8
7
100
AcDbLine
 10
4.938976377952755
 20
5.598425196850393
 30
0.0
 11
4.88779527559055
 21
5.581692913385826
 31
0.0
  0
LINE
  5
2EE7
330
1E
100
AcDbEntity
  8
7
100
AcDbLine
 10
5.312007874015748
 20
5.076771653543307
 30
0.0
 11
5.314960629921259
 21
5.074803149606299
 31
0.0
  0
LINE
  5
2EE8
330
1E
100
AcDbEntity
  8
7
100
AcDbLine
 10
5.314960629921259
 20
5.074803149606299
 30
0.0
 11
5.320866141732283
 21
5.070866141732283
 31
0.0
  0
LINE
  5
2EE9
330
1E
100
AcDbEntity
  8
7
100
AcDbLine
 10
5.312992125984251
 20
5.452755905511811
 30
0.0
 11
5.336614173228346
 21
5.424212598425197
 31
0.0
  0
LINE
  5
2EEA
330
1E
100
AcDbEntity
  8
7
100
AcDbLine
 10
5.336614173228346
 20
5.424212598425197
 30
0.0
 11
5.367125984251968
 21
5.40255905511811
 31
0.0
  0
LINE
  5
2EEB
330
1E
100
AcDbEntity
  8
7
100
AcDbLine
 10
5.367125984251968
 20
5.40255905511811
 30
0.0
 11
5.401574803149605
 21
5.389763779527559
 31
0.0
  0
LINE
  5
2EEC
330
1E
100
AcDbEntity
  8
7
100
AcDbLine
 10
5.401574803149605
 20
5.389763779527559
 30
0.0
 11
5.437992125984251
 21
5.384842519685039
 31
0.0
  0
LINE
  5
2EED
330
1E
100
AcDbEntity
  8
7
100
AcDbLine
 10
5.312007874015748
 20
5.452755905511811
 30
0.0
 11
5.314960629921259
 21
5.454724409448819
 31
0.0
  0
LINE
  5
2EEE
330
1E
100
AcDbEntity
  8
7
100
AcDbLine
 10
5.314960629921259
 20
5.454724409448819
 30
0.0
 11
5.320866141732283
 21
5.458661417322835
 31
0.0
  0
LINE
  5
2EEF
330
1E
100
AcDbEntity
  8
7
100
AcDbLine
 10
5.437992125984251
 20
5.384842519685039
 30
0.0
 11
5.437992125984251
 21
5.38779527559055
 31
0.0
  0
LINE
  5
2EF0
330
1E
100
AcDbEntity
  8
7
100
AcDbLine
 10
5.437992125984251
 20
5.38779527559055
 30
0.0
 11
5.437992125984251
 21
5.394685039370078
 31
0.0
  0
LINE
  5
2EF1
330
1E
100
AcDbEntity
  8
7
100
AcDbLine
 10
5.437992125984251
 20
5.154527559055118
 30
0.0
 11
5.398622047244094
 21
5.149606299212598
 31
0.0
  0
LINE
  5
2EF2
330
1E
100
AcDbEntity
  8
7
100
AcDbLine
 10
5.398622047244094
 20
5.149606299212598
 30
0.0
 11
5.362204724409448
 21
5.134842519685039
 31
0.0
  0
LINE
  5
2EF3
330
1E
100
AcDbEntity
  8
7
100
AcDbLine
 10
5.362204724409448
 20
5.134842519685039
 30
0.0
 11
5.329724409448818
 21
5.112204724409449
 31
0.0
  0
LINE
  5
2EF4
330
1E
100
AcDbEntity
  8
7
100
AcDbLine
 10
5.329724409448818
 20
5.112204724409449
 30
0.0
 11
5.304133858267716
 21
5.081692913385826
 31
0.0
  0
LINE
  5
2EF5
330
1E
100
AcDbEntity
  8
7
100
AcDbLine
 10
4.76771653543307
 20
5.049212598425197
 30
0.0
 11
4.804133858267716
 21
5.011811023622047
 31
0.0
  0
LINE
  5
2EF6
330
1E
100
AcDbEntity
  8
7
100
AcDbLine
 10
4.804133858267716
 20
5.011811023622047
 30
0.0
 11
4.845472440944881
 21
4.981299212598425
 31
0.0
  0
LINE
  5
2EF7
330
1E
100
AcDbEntity
  8
7
100
AcDbLine
 10
4.845472440944881
 20
4.981299212598425
 30
0.0
 11
4.891732283464566
 21
4.95767716535433
 31
0.0
  0
LINE
  5
2EF8
330
1E
100
AcDbEntity
  8
7
100
AcDbLine
 10
4.891732283464566
 20
4.95767716535433
 30
0.0
 11
4.940944881889762
 21
4.940944881889763
 31
0.0
  0
LINE
  5
2EF9
330
1E
100
AcDbEntity
  8
7
100
AcDbLine
 10
4.940944881889762
 20
4.940944881889763
 30
0.0
 11
4.992125984251968
 21
4.932086614173228
 31
0.0
  0
LINE
  5
2EFA
330
1E
100
AcDbEntity
  8
7
100
AcDbLine
 10
4.992125984251968
 20
4.932086614173228
 30
0.0
 11
5.044291338582676
 21
4.931102362204724
 31
0.0
  0
LINE
  5
2EFB
330
1E
100
AcDbEntity
  8
7
100
AcDbLine
 10
5.044291338582676
 20
4.931102362204724
 30
0.0
 11
5.095472440944881
 21
4.937992125984251
 31
0.0
  0
LINE
  5
2EFC
330
1E
100
AcDbEntity
  8
7
100
AcDbLine
 10
5.095472440944881
 20
4.937992125984251
 30
0.0
 11
5.145669291338582
 21
4.952755905511811
 31
0.0
  0
LINE
  5
2EFD
330
1E
100
AcDbEntity
  8
7
100
AcDbLine
 10
5.145669291338582
 20
4.952755905511811
 30
0.0
 11
5.191929133858266
 21
4.975393700787401
 31
0.0
  0
LINE
  5
2EFE
330
1E
100
AcDbEntity
  8
7
100
AcDbLine
 10
5.191929133858266
 20
4.975393700787401
 30
0.0
 11
5.23523622047244
 21
5.004921259842519
 31
0.0
  0
LINE
  5
2EFF
330
1E
100
AcDbEntity
  8
7
100
AcDbLine
 10
5.23523622047244
 20
5.004921259842519
 30
0.0
 11
5.27263779527559
 21
5.041338582677165
 31
0.0
  0
LINE
  5
2F00
330
1E
100
AcDbEntity
  8
7
100
AcDbLine
 10
5.27263779527559
 20
5.041338582677165
 30
0.0
 11
5.304133858267716
 21
5.08267716535433
 31
0.0
  0
LINE
  5
2F01
330
1E
100
AcDbEntity
  8
7
100
AcDbLine
 10
4.940944881889762
 20
5.588582677165354
 30
0.0
 11
4.891732283464566
 21
5.571850393700787
 31
0.0
  0
LINE
  5
2F02
330
1E
100
AcDbEntity
  8
7
100
AcDbLine
 10
4.891732283464566
 20
5.571850393700787
 30
0.0
 11
4.845472440944881
 21
5.548228346456693
 31
0.0
  0
LINE
  5
2F03
330
1E
100
AcDbEntity
  8
7
100
AcDbLine
 10
4.845472440944881
 20
5.548228346456693
 30
0.0
 11
4.804133858267716
 21
5.517716535433071
 31
0.0
  0
LINE
  5
2F04
330
1E
100
AcDbEntity
  8
7
100
AcDbLine
 10
4.804133858267716
 20
5.517716535433071
 30
0.0
 11
4.76771653543307
 21
5.480314960629921
 31
0.0
  0
LINE
  5
2F05
330
1E
100
AcDbEntity
  8
7
100
AcDbLine
 10
4.76771653543307
 20
5.480314960629921
 30
0.0
 11
4.737204724409448
 21
5.437992125984251
 31
0.0
  0
LINE
  5
2F06
330
1E
100
AcDbEntity
  8
7
100
AcDbLine
 10
4.737204724409448
 20
5.437992125984251
 30
0.0
 11
4.713582677165353
 21
5.391732283464566
 31
0.0
  0
LINE
  5
2F07
330
1E
100
AcDbEntity
  8
7
100
AcDbLine
 10
4.713582677165353
 20
5.391732283464566
 30
0.0
 11
4.69783464566929
 21
5.34251968503937
 31
0.0
  0
LINE
  5
2F08
330
1E
100
AcDbEntity
  8
7
100
AcDbLine
 10
4.69783464566929
 20
5.34251968503937
 30
0.0
 11
4.689960629921259
 21
5.290354330708662
 31
0.0
  0
LINE
  5
2F09
330
1E
100
AcDbEntity
  8
7
100
AcDbLine
 10
4.689960629921259
 20
5.290354330708662
 30
0.0
 11
4.689960629921259
 21
5.239173228346456
 31
0.0
  0
LINE
  5
2F0A
330
1E
100
AcDbEntity
  8
7
100
AcDbLine
 10
4.689960629921259
 20
5.239173228346456
 30
0.0
 11
4.69783464566929
 21
5.187007874015748
 31
0.0
  0
LINE
  5
2F0B
330
1E
100
AcDbEntity
  8
7
100
AcDbLine
 10
4.69783464566929
 20
5.187007874015748
 30
0.0
 11
4.713582677165353
 21
5.13779527559055
 31
0.0
  0
LINE
  5
2F0C
330
1E
100
AcDbEntity
  8
7
100
AcDbLine
 10
4.713582677165353
 20
5.13779527559055
 30
0.0
 11
4.737204724409448
 21
5.091535433070866
 31
0.0
  0
LINE
  5
2F0D
330
1E
100
AcDbEntity
  8
7
100
AcDbLine
 10
4.737204724409448
 20
5.091535433070866
 30
0.0
 11
4.76771653543307
 21
5.049212598425197
 31
0.0
  0
LINE
  5
2F0E
330
1E
100
AcDbEntity
  8
7
100
AcDbLine
 10
5.304133858267716
 20
5.446850393700787
 30
0.0
 11
5.27263779527559
 21
5.488188976377952
 31
0.0
  0
LINE
  5
2F0F
330
1E
100
AcDbEntity
  8
7
100
AcDbLine
 10
5.27263779527559
 20
5.488188976377952
 30
0.0
 11
5.23523622047244
 21
5.524606299212598
 31
0.0
  0
LINE
  5
2F10
330
1E
100
AcDbEntity
  8
7
100
AcDbLine
 10
5.23523622047244
 20
5.524606299212598
 30
0.0
 11
5.191929133858266
 21
5.554133858267716
 31
0.0
  0
LINE
  5
2F11
330
1E
100
AcDbEntity
  8
7
100
AcDbLine
 10
5.191929133858266
 20
5.554133858267716
 30
0.0
 11
5.145669291338582
 21
5.576771653543307
 31
0.0
  0
LINE
  5
2F12
330
1E
100
AcDbEntity
  8
7
100
AcDbLine
 10
5.145669291338582
 20
5.576771653543307
 30
0.0
 11
5.095472440944881
 21
5.591535433070866
 31
0.0
  0
LINE
  5
2F13
330
1E
100
AcDbEntity
  8
7
100
AcDbLine
 10
5.095472440944881
 20
5.591535433070866
 30
0.0
 11
5.044291338582676
 21
5.598425196850393
 31
0.0
  0
LINE
  5
2F14
330
1E
100
AcDbEntity
  8
7
100
AcDbLine
 10
5.044291338582676
 20
5.598425196850393
 30
0.0
 11
4.992125984251968
 21
5.597440944881889
 31
0.0
  0
LINE
  5
2F15
330
1E
100
AcDbEntity
  8
7
100
AcDbLine
 10
4.992125984251968
 20
5.597440944881889
 30
0.0
 11
4.940944881889762
 21
5.588582677165354
 31
0.0
  0
LINE
  5
2F16
330
1E
100
AcDbEntity
  8
7
100
AcDbLine
 10
5.362204724409448
 20
5.394685039370078
 30
0.0
 11
5.398622047244094
 21
5.379921259842519
 31
0.0
  0
LINE
  5
2F17
330
1E
100
AcDbEntity
  8
7
100
AcDbLine
 10
5.398622047244094
 20
5.379921259842519
 30
0.0
 11
5.437992125984251
 21
5.375
 31
0.0
  0
LINE
  5
2F18
330
1E
100
AcDbEntity
  8
7
100
AcDbLine
 10
5.304133858267716
 20
5.447834645669291
 30
0.0
 11
5.329724409448818
 21
5.417322834645669
 31
0.0
  0
LINE
  5
2F19
330
1E
100
AcDbEntity
  8
7
100
AcDbLine
 10
5.329724409448818
 20
5.417322834645669
 30
0.0
 11
5.362204724409448
 21
5.394685039370078
 31
0.0
  0
LINE
  5
2F1A
330
1E
100
AcDbEntity
  8
7
100
AcDbLine
 10
5.11023622047244
 20
4.911417322834646
 30
0.0
 11
5.162401574803149
 21
4.928149606299212
 31
0.0
  0
LINE
  5
2F1B
330
1E
100
AcDbEntity
  8
7
100
AcDbLine
 10
5.162401574803149
 20
4.928149606299212
 30
0.0
 11
5.211614173228346
 21
4.952755905511811
 31
0.0
  0
LINE
  5
2F1C
330
1E
100
AcDbEntity
  8
7
100
AcDbLine
 10
5.211614173228346
 20
4.952755905511811
 30
0.0
 11
5.255905511811024
 21
4.984251968503937
 31
0.0
  0
LINE
  5
2F1D
330
1E
100
AcDbEntity
  8
7
100
AcDbLine
 10
5.255905511811024
 20
4.984251968503937
 30
0.0
 11
5.295275590551181
 21
5.02263779527559
 31
0.0
  0
LINE
  5
2F1E
330
1E
100
AcDbEntity
  8
7
100
AcDbLine
 10
5.295275590551181
 20
5.02263779527559
 30
0.0
 11
5.328740157480314
 21
5.065944881889763
 31
0.0
  0
LINE
  5
2F1F
330
1E
100
AcDbEntity
  8
7
100
AcDbLine
 10
4.676181102362204
 20
5.373031496062992
 30
0.0
 11
4.663385826771653
 21
5.319881889763779
 31
0.0
  0
LINE
  5
2F20
330
1E
100
AcDbEntity
  8
7
100
AcDbLine
 10
4.663385826771653
 20
5.319881889763779
 30
0.0
 11
4.659448818897637
 21
5.264763779527559
 31
0.0
  0
LINE
  5
2F21
330
1E
100
AcDbEntity
  8
7
100
AcDbLine
 10
4.659448818897637
 20
5.264763779527559
 30
0.0
 11
4.663385826771653
 21
5.209645669291338
 31
0.0
  0
LINE
  5
2F22
330
1E
100
AcDbEntity
  8
7
100
AcDbLine
 10
4.663385826771653
 20
5.209645669291338
 30
0.0
 11
4.676181102362204
 21
5.156496062992125
 31
0.0
  0
LINE
  5
2F23
330
1E
100
AcDbEntity
  8
7
100
AcDbLine
 10
4.676181102362204
 20
5.156496062992125
 30
0.0
 11
4.695866141732283
 21
5.105314960629921
 31
0.0
  0
LINE
  5
2F24
330
1E
100
AcDbEntity
  8
7
100
AcDbLine
 10
4.695866141732283
 20
5.105314960629921
 30
0.0
 11
4.723425196850393
 21
5.058070866141732
 31
0.0
  0
LINE
  5
2F25
330
1E
100
AcDbEntity
  8
7
100
AcDbLine
 10
4.723425196850393
 20
5.058070866141732
 30
0.0
 11
4.757874015748031
 21
5.015748031496062
 31
0.0
  0
LINE
  5
2F26
330
1E
100
AcDbEntity
  8
7
100
AcDbLine
 10
4.757874015748031
 20
5.015748031496062
 30
0.0
 11
4.799212598425196
 21
4.978346456692913
 31
0.0
  0
LINE
  5
2F27
330
1E
100
AcDbEntity
  8
7
100
AcDbLine
 10
4.799212598425196
 20
4.978346456692913
 30
0.0
 11
4.844488188976377
 21
4.947834645669291
 31
0.0
  0
LINE
  5
2F28
330
1E
100
AcDbEntity
  8
7
100
AcDbLine
 10
4.844488188976377
 20
4.947834645669291
 30
0.0
 11
4.893700787401574
 21
4.924212598425197
 31
0.0
  0
LINE
  5
2F29
330
1E
100
AcDbEntity
  8
7
100
AcDbLine
 10
4.893700787401574
 20
4.924212598425197
 30
0.0
 11
4.946850393700787
 21
4.908464566929134
 31
0.0
  0
LINE
  5
2F2A
330
1E
100
AcDbEntity
  8
7
100
AcDbLine
 10
4.946850393700787
 20
4.908464566929134
 30
0.0
 11
5.000984251968503
 21
4.901574803149606
 31
0.0
  0
LINE
  5
2F2B
330
1E
100
AcDbEntity
  8
7
100
AcDbLine
 10
5.000984251968503
 20
4.901574803149606
 30
0.0
 11
5.056102362204724
 21
4.901574803149606
 31
0.0
  0
LINE
  5
2F2C
330
1E
100
AcDbEntity
  8
7
100
AcDbLine
 10
5.056102362204724
 20
4.901574803149606
 30
0.0
 11
5.11023622047244
 21
4.911417322834646
 31
0.0
  0
LINE
  5
2F2D
330
1E
100
AcDbEntity
  8
7
100
AcDbLine
 10
5.211614173228346
 20
5.576771653543307
 30
0.0
 11
5.162401574803149
 21
5.601377952755905
 31
0.0
  0
LINE
  5
2F2E
330
1E
100
AcDbEntity
  8
7
100
AcDbLine
 10
5.162401574803149
 20
5.601377952755905
 30
0.0
 11
5.11023622047244
 21
5.618110236220472
 31
0.0
  0
LINE
  5
2F2F
330
1E
100
AcDbEntity
  8
7
100
AcDbLine
 10
5.11023622047244
 20
5.618110236220472
 30
0.0
 11
5.056102362204724
 21
5.627952755905512
 31
0.0
  0
LINE
  5
2F30
330
1E
100
AcDbEntity
  8
7
100
AcDbLine
 10
5.056102362204724
 20
5.627952755905512
 30
0.0
 11
5.000984251968503
 21
5.627952755905512
 31
0.0
  0
LINE
  5
2F31
330
1E
100
AcDbEntity
  8
7
100
AcDbLine
 10
5.000984251968503
 20
5.627952755905512
 30
0.0
 11
4.946850393700787
 21
5.621062992125984
 31
0.0
  0
LINE
  5
2F32
330
1E
100
AcDbEntity
  8
7
100
AcDbLine
 10
4.946850393700787
 20
5.621062992125984
 30
0.0
 11
4.893700787401574
 21
5.605314960629921
 31
0.0
  0
LINE
  5
2F33
330
1E
100
AcDbEntity
  8
7
100
AcDbLine
 10
4.893700787401574
 20
5.605314960629921
 30
0.0
 11
4.844488188976377
 21
5.581692913385826
 31
0.0
  0
LINE
  5
2F34
330
1E
100
AcDbEntity
  8
7
100
AcDbLine
 10
4.844488188976377
 20
5.581692913385826
 30
0.0
 11
4.799212598425196
 21
5.551181102362204
 31
0.0
  0
LINE
  5
2F35
330
1E
100
AcDbEntity
  8
7
100
AcDbLine
 10
4.799212598425196
 20
5.551181102362204
 30
0.0
 11
4.757874015748031
 21
5.513779527559055
 31
0.0
  0
LINE
  5
2F36
330
1E
100
AcDbEntity
  8
7
100
AcDbLine
 10
4.757874015748031
 20
5.513779527559055
 30
0.0
 11
4.723425196850393
 21
5.471456692913386
 31
0.0
  0
LINE
  5
2F37
330
1E
100
AcDbEntity
  8
7
100
AcDbLine
 10
4.723425196850393
 20
5.471456692913386
 30
0.0
 11
4.695866141732283
 21
5.424212598425197
 31
0.0
  0
LINE
  5
2F38
330
1E
100
AcDbEntity
  8
7
100
AcDbLine
 10
4.695866141732283
 20
5.424212598425197
 30
0.0
 11
4.676181102362204
 21
5.373031496062992
 31
0.0
  0
LINE
  5
2F39
330
1E
100
AcDbEntity
  8
7
100
AcDbLine
 10
5.328740157480314
 20
5.463582677165354
 30
0.0
 11
5.295275590551181
 21
5.506889763779527
 31
0.0
  0
LINE
  5
2F3A
330
1E
100
AcDbEntity
  8
7
100
AcDbLine
 10
5.295275590551181
 20
5.506889763779527
 30
0.0
 11
5.255905511811024
 21
5.545275590551181
 31
0.0
  0
LINE
  5
2F3B
330
1E
100
AcDbEntity
  8
7
100
AcDbLine
 10
5.255905511811024
 20
5.545275590551181
 30
0.0
 11
5.211614173228346
 21
5.576771653543307
 31
0.0
  0
LINE
  5
2F3C
330
1E
100
AcDbEntity
  8
7
100
AcDbLine
 10
5.328740157480314
 20
5.463582677165354
 30
0.0
 11
5.349409448818898
 21
5.438976377952756
 31
0.0
  0
LINE
  5
2F3D
330
1E
100
AcDbEntity
  8
7
100
AcDbLine
 10
5.349409448818898
 20
5.438976377952756
 30
0.0
 11
5.375984251968503
 21
5.420275590551181
 31
0.0
  0
LINE
  5
2F3E
330
1E
100
AcDbEntity
  8
7
100
AcDbLine
 10
5.375984251968503
 20
5.420275590551181
 30
0.0
 11
5.406496062992125
 21
5.408464566929134
 31
0.0
  0
LINE
  5
2F3F
330
1E
100
AcDbEntity
  8
7
100
AcDbLine
 10
5.406496062992125
 20
5.408464566929134
 30
0.0
 11
5.437992125984251
 21
5.404527559055118
 31
0.0
  0
LINE
  5
2F40
330
1E
100
AcDbEntity
  8
7
100
AcDbLine
 10
5.320866141732283
 20
5.458661417322835
 30
0.0
 11
5.343503937007874
 21
5.432086614173228
 31
0.0
  0
LINE
  5
2F41
330
1E
100
AcDbEntity
  8
7
100
AcDbLine
 10
5.343503937007874
 20
5.432086614173228
 30
0.0
 11
5.371062992125983
 21
5.411417322834646
 31
0.0
  0
LINE
  5
2F42
330
1E
100
AcDbEntity
  8
7
100
AcDbLine
 10
5.371062992125983
 20
5.411417322834646
 30
0.0
 11
5.403543307086614
 21
5.398622047244094
 31
0.0
  0
LINE
  5
2F43
330
1E
100
AcDbEntity
  8
7
100
AcDbLine
 10
5.403543307086614
 20
5.398622047244094
 30
0.0
 11
5.437992125984251
 21
5.394685039370078
 31
0.0
  0
LINE
  5
2F44
330
1E
100
AcDbEntity
  8
7
100
AcDbLine
 10
4.685039370078739
 20
5.159448818897637
 30
0.0
 11
4.704724409448818
 21
5.11023622047244
 31
0.0
  0
LINE
  5
2F45
330
1E
100
AcDbEntity
  8
7
100
AcDbLine
 10
4.704724409448818
 20
5.11023622047244
 30
0.0
 11
4.732283464566929
 21
5.063976377952756
 31
0.0
  0
LINE
  5
2F46
330
1E
100
AcDbEntity
  8
7
100
AcDbLine
 10
4.732283464566929
 20
5.063976377952756
 30
0.0
 11
4.765748031496062
 21
5.021653543307087
 31
0.0
  0
LINE
  5
2F47
330
1E
100
AcDbEntity
  8
7
100
AcDbLine
 10
4.765748031496062
 20
5.021653543307087
 30
0.0
 11
4.80511811023622
 21
4.986220472440945
 31
0.0
  0
LINE
  5
2F48
330
1E
100
AcDbEntity
  8
7
100
AcDbLine
 10
4.80511811023622
 20
4.986220472440945
 30
0.0
 11
4.849409448818898
 21
4.956692913385826
 31
0.0
  0
LINE
  5
2F49
330
1E
100
AcDbEntity
  8
7
100
AcDbLine
 10
4.849409448818898
 20
4.956692913385826
 30
0.0
 11
4.89763779527559
 21
4.934055118110236
 31
0.0
  0
LINE
  5
2F4A
330
1E
100
AcDbEntity
  8
7
100
AcDbLine
 10
4.89763779527559
 20
4.934055118110236
 30
0.0
 11
4.948818897637794
 21
4.918307086614173
 31
0.0
  0
LINE
  5
2F4B
330
1E
100
AcDbEntity
  8
7
100
AcDbLine
 10
4.948818897637794
 20
4.918307086614173
 30
0.0
 11
5.001968503937007
 21
4.911417322834646
 31
0.0
  0
LINE
  5
2F4C
330
1E
100
AcDbEntity
  8
7
100
AcDbLine
 10
5.001968503937007
 20
4.911417322834646
 30
0.0
 11
5.05511811023622
 21
4.911417322834646
 31
0.0
  0
LINE
  5
2F4D
330
1E
100
AcDbEntity
  8
7
100
AcDbLine
 10
5.05511811023622
 20
4.911417322834646
 30
0.0
 11
5.107283464566929
 21
4.920275590551181
 31
0.0
  0
LINE
  5
2F4E
330
1E
100
AcDbEntity
  8
7
100
AcDbLine
 10
5.107283464566929
 20
4.920275590551181
 30
0.0
 11
5.158464566929133
 21
4.937007874015748
 31
0.0
  0
LINE
  5
2F4F
330
1E
100
AcDbEntity
  8
7
100
AcDbLine
 10
5.158464566929133
 20
4.937007874015748
 30
0.0
 11
5.205708661417322
 21
4.960629921259842
 31
0.0
  0
LINE
  5
2F50
330
1E
100
AcDbEntity
  8
7
100
AcDbLine
 10
5.205708661417322
 20
4.960629921259842
 30
0.0
 11
5.25
 21
4.992125984251968
 31
0.0
  0
LINE
  5
2F51
330
1E
100
AcDbEntity
  8
7
100
AcDbLine
 10
5.25
 20
4.992125984251968
 30
0.0
 11
5.288385826771653
 21
5.029527559055118
 31
0.0
  0
LINE
  5
2F52
330
1E
100
AcDbEntity
  8
7
100
AcDbLine
 10
5.288385826771653
 20
5.029527559055118
 30
0.0
 11
5.320866141732283
 21
5.071850393700787
 31
0.0
  0
LINE
  5
2F53
330
1E
100
AcDbEntity
  8
7
100
AcDbLine
 10
5.001968503937007
 20
5.618110236220472
 30
0.0
 11
4.948818897637794
 21
5.611220472440945
 31
0.0
  0
LINE
  5
2F54
330
1E
100
AcDbEntity
  8
7
100
AcDbLine
 10
4.948818897637794
 20
5.611220472440945
 30
0.0
 11
4.89763779527559
 21
5.595472440944882
 31
0.0
  0
LINE
  5
2F55
330
1E
100
AcDbEntity
  8
7
100
AcDbLine
 10
4.89763779527559
 20
5.595472440944882
 30
0.0
 11
4.849409448818898
 21
5.572834645669291
 31
0.0
  0
LINE
  5
2F56
330
1E
100
AcDbEntity
  8
7
100
AcDbLine
 10
4.849409448818898
 20
5.572834645669291
 30
0.0
 11
4.80511811023622
 21
5.543307086614173
 31
0.0
  0
LINE
  5
2F57
330
1E
100
AcDbEntity
  8
7
100
AcDbLine
 10
4.80511811023622
 20
5.543307086614173
 30
0.0
 11
4.765748031496062
 21
5.507874015748031
 31
0.0
  0
LINE
  5
2F58
330
1E
100
AcDbEntity
  8
7
100
AcDbLine
 10
4.765748031496062
 20
5.507874015748031
 30
0.0
 11
4.732283464566929
 21
5.465551181102362
 31
0.0
  0
LINE
  5
2F59
330
1E
100
AcDbEntity
  8
7
100
AcDbLine
 10
4.732283464566929
 20
5.465551181102362
 30
0.0
 11
4.704724409448818
 21
5.419291338582677
 31
0.0
  0
LINE
  5
2F5A
330
1E
100
AcDbEntity
  8
7
100
AcDbLine
 10
4.704724409448818
 20
5.419291338582677
 30
0.0
 11
4.685039370078739
 21
5.37007874015748
 31
0.0
  0
LINE
  5
2F5B
330
1E
100
AcDbEntity
  8
7
100
AcDbLine
 10
4.685039370078739
 20
5.37007874015748
 30
0.0
 11
4.673228346456692
 21
5.317913385826772
 31
0.0
  0
LINE
  5
2F5C
330
1E
100
AcDbEntity
  8
7
100
AcDbLine
 10
4.673228346456692
 20
5.317913385826772
 30
0.0
 11
4.669291338582676
 21
5.264763779527559
 31
0.0
  0
LINE
  5
2F5D
330
1E
100
AcDbEntity
  8
7
100
AcDbLine
 10
4.669291338582676
 20
5.264763779527559
 30
0.0
 11
4.673228346456692
 21
5.211614173228346
 31
0.0
  0
LINE
  5
2F5E
330
1E
100
AcDbEntity
  8
7
100
AcDbLine
 10
4.673228346456692
 20
5.211614173228346
 30
0.0
 11
4.685039370078739
 21
5.159448818897637
 31
0.0
  0
LINE
  5
2F5F
330
1E
100
AcDbEntity
  8
7
100
AcDbLine
 10
5.320866141732283
 20
5.45767716535433
 30
0.0
 11
5.288385826771653
 21
5.5
 31
0.0
  0
LINE
  5
2F60
330
1E
100
AcDbEntity
  8
7
100
AcDbLine
 10
5.288385826771653
 20
5.5
 30
0.0
 11
5.25
 21
5.537401574803149
 31
0.0
  0
LINE
  5
2F61
330
1E
100
AcDbEntity
  8
7
100
AcDbLine
 10
5.25
 20
5.537401574803149
 30
0.0
 11
5.205708661417322
 21
5.568897637795275
 31
0.0
  0
LINE
  5
2F62
330
1E
100
AcDbEntity
  8
7
100
AcDbLine
 10
5.205708661417322
 20
5.568897637795275
 30
0.0
 11
5.158464566929133
 21
5.59251968503937
 31
0.0
  0
LINE
  5
2F63
330
1E
100
AcDbEntity
  8
7
100
AcDbLine
 10
5.158464566929133
 20
5.59251968503937
 30
0.0
 11
5.107283464566929
 21
5.609251968503937
 31
0.0
  0
LINE
  5
2F64
330
1E
100
AcDbEntity
  8
7
100
AcDbLine
 10
5.107283464566929
 20
5.609251968503937
 30
0.0
 11
5.05511811023622
 21
5.618110236220472
 31
0.0
  0
LINE
  5
2F65
330
1E
100
AcDbEntity
  8
7
100
AcDbLine
 10
5.05511811023622
 20
5.618110236220472
 30
0.0
 11
5.001968503937007
 21
5.618110236220472
 31
0.0
  0
LINE
  5
2F66
330
1E
100
AcDbEntity
  8
7
100
AcDbLine
 10
5.371062992125983
 20
5.118110236220472
 30
0.0
 11
5.343503937007874
 21
5.097440944881889
 31
0.0
  0
LINE
  5
2F67
330
1E
100
AcDbEntity
  8
7
100
AcDbLine
 10
5.343503937007874
 20
5.097440944881889
 30
0.0
 11
5.320866141732283
 21
5.070866141732283
 31
0.0
  0
LINE
  5
2F68
330
1E
100
AcDbEntity
  8
7
100
AcDbLine
 10
5.437992125984251
 20
5.134842519685039
 30
0.0
 11
5.403543307086614
 21
5.130905511811024
 31
0.0
  0
LINE
  5
2F69
330
1E
100
AcDbEntity
  8
7
100
AcDbLine
 10
5.403543307086614
 20
5.130905511811024
 30
0.0
 11
5.371062992125983
 21
5.118110236220472
 31
0.0
  0
LINE
  5
2F6A
330
1E
100
AcDbEntity
  8
7
100
AcDbLine
 10
5.406496062992125
 20
5.121062992125984
 30
0.0
 11
5.375984251968503
 21
5.109251968503937
 31
0.0
  0
LINE
  5
2F6B
330
1E
100
AcDbEntity
  8
7
100
AcDbLine
 10
5.375984251968503
 20
5.109251968503937
 30
0.0
 11
5.349409448818898
 21
5.090551181102362
 31
0.0
  0
LINE
  5
2F6C
330
1E
100
AcDbEntity
  8
7
100
AcDbLine
 10
5.349409448818898
 20
5.090551181102362
 30
0.0
 11
5.328740157480314
 21
5.065944881889763
 31
0.0
  0
LINE
  5
2F6D
330
1E
100
AcDbEntity
  8
7
100
AcDbLine
 10
4.784448818897637
 20
5.345472440944882
 30
0.0
 11
4.761811023622047
 21
5.330708661417323
 31
0.0
  0
LINE
  5
2F6E
330
1E
100
AcDbEntity
  8
7
100
AcDbLine
 10
4.761811023622047
 20
5.330708661417323
 30
0.0
 11
4.745078740157479
 21
5.31003937007874
 31
0.0
  0
LINE
  5
2F6F
330
1E
100
AcDbEntity
  8
7
100
AcDbLine
 10
4.745078740157479
 20
5.31003937007874
 30
0.0
 11
4.73523622047244
 21
5.284448818897637
 31
0.0
  0
LINE
  5
2F70
330
1E
100
AcDbEntity
  8
7
100
AcDbLine
 10
4.73523622047244
 20
5.284448818897637
 30
0.0
 11
4.733267716535433
 21
5.257874015748031
 31
0.0
  0
LINE
  5
2F71
330
1E
100
AcDbEntity
  8
7
100
AcDbLine
 10
4.733267716535433
 20
5.257874015748031
 30
0.0
 11
4.739173228346456
 21
5.232283464566929
 31
0.0
  0
LINE
  5
2F72
330
1E
100
AcDbEntity
  8
7
100
AcDbLine
 10
4.739173228346456
 20
5.232283464566929
 30
0.0
 11
4.752952755905511
 21
5.208661417322835
 31
0.0
  0
LINE
  5
2F73
330
1E
100
AcDbEntity
  8
7
100
AcDbLine
 10
4.752952755905511
 20
5.208661417322835
 30
0.0
 11
4.77263779527559
 21
5.190944881889763
 31
0.0
  0
LINE
  5
2F74
330
1E
100
AcDbEntity
  8
7
100
AcDbLine
 10
4.77263779527559
 20
5.190944881889763
 30
0.0
 11
4.796259842519685
 21
5.179133858267716
 31
0.0
  0
LINE
  5
2F75
330
1E
100
AcDbEntity
  8
7
100
AcDbLine
 10
4.796259842519685
 20
5.179133858267716
 30
0.0
 11
4.82283464566929
 21
5.1751968503937
 31
0.0
  0
LINE
  5
2F76
330
1E
100
AcDbEntity
  8
7
100
AcDbLine
 10
4.82283464566929
 20
5.1751968503937
 30
0.0
 11
4.849409448818898
 21
5.179133858267716
 31
0.0
  0
LINE
  5
2F77
330
1E
100
AcDbEntity
  8
7
100
AcDbLine
 10
4.849409448818898
 20
5.179133858267716
 30
0.0
 11
4.873031496062992
 21
5.190944881889763
 31
0.0
  0
LINE
  5
2F78
330
1E
100
AcDbEntity
  8
7
100
AcDbLine
 10
4.873031496062992
 20
5.190944881889763
 30
0.0
 11
4.89271653543307
 21
5.208661417322835
 31
0.0
  0
LINE
  5
2F79
330
1E
100
AcDbEntity
  8
7
100
AcDbLine
 10
4.89271653543307
 20
5.208661417322835
 30
0.0
 11
4.906496062992125
 21
5.232283464566929
 31
0.0
  0
LINE
  5
2F7A
330
1E
100
AcDbEntity
  8
7
100
AcDbLine
 10
4.906496062992125
 20
5.232283464566929
 30
0.0
 11
4.912401574803149
 21
5.257874015748031
 31
0.0
  0
LINE
  5
2F7B
330
1E
100
AcDbEntity
  8
7
100
AcDbLine
 10
4.912401574803149
 20
5.257874015748031
 30
0.0
 11
4.910433070866141
 21
5.284448818897637
 31
0.0
  0
LINE
  5
2F7C
330
1E
100
AcDbEntity
  8
7
100
AcDbLine
 10
4.910433070866141
 20
5.284448818897637
 30
0.0
 11
4.900590551181101
 21
5.309055118110236
 31
0.0
  0
LINE
  5
2F7D
330
1E
100
AcDbEntity
  8
7
100
AcDbLine
 10
4.900590551181101
 20
5.309055118110236
 30
0.0
 11
4.883858267716535
 21
5.330708661417323
 31
0.0
  0
LINE
  5
2F7E
330
1E
100
AcDbEntity
  8
7
100
AcDbLine
 10
4.883858267716535
 20
5.330708661417323
 30
0.0
 11
4.861220472440944
 21
5.345472440944882
 31
0.0
  0
LINE
  5
2F7F
330
1E
100
AcDbEntity
  8
7
100
AcDbLine
 10
4.861220472440944
 20
5.345472440944882
 30
0.0
 11
4.836614173228346
 21
5.353346456692913
 31
0.0
  0
LINE
  5
2F80
330
1E
100
AcDbEntity
  8
7
100
AcDbLine
 10
4.836614173228346
 20
5.353346456692913
 30
0.0
 11
4.809055118110236
 21
5.353346456692913
 31
0.0
  0
LINE
  5
2F81
330
1E
100
AcDbEntity
  8
7
100
AcDbLine
 10
4.809055118110236
 20
5.353346456692913
 30
0.0
 11
4.784448818897637
 21
5.345472440944882
 31
0.0
  0
LINE
  5
2F82
330
1E
100
AcDbEntity
  8
7
100
AcDbLine
 10
5.338582677165353
 20
5.469488188976377
 30
0.0
 11
5.365157480314961
 21
5.440944881889763
 31
0.0
  0
LINE
  5
2F83
330
1E
100
AcDbEntity
  8
7
100
AcDbLine
 10
5.365157480314961
 20
5.440944881889763
 30
0.0
 11
5.399606299212598
 21
5.422244094488188
 31
0.0
  0
LINE
  5
2F84
330
1E
100
AcDbEntity
  8
7
100
AcDbLine
 10
5.399606299212598
 20
5.422244094488188
 30
0.0
 11
5.437992125984251
 21
5.415354330708662
 31
0.0
  0
LINE
  5
2F85
330
1E
100
AcDbEntity
  8
7
100
AcDbLine
 10
5.437992125984251
 20
5.114173228346456
 30
0.0
 11
5.399606299212598
 21
5.107283464566929
 31
0.0
  0
LINE
  5
2F86
330
1E
100
AcDbEntity
  8
7
100
AcDbLine
 10
5.399606299212598
 20
5.107283464566929
 30
0.0
 11
5.365157480314961
 21
5.088582677165354
 31
0.0
  0
LINE
  5
2F87
330
1E
100
AcDbEntity
  8
7
100
AcDbLine
 10
5.365157480314961
 20
5.088582677165354
 30
0.0
 11
5.338582677165353
 21
5.06003937007874
 31
0.0
  0
LINE
  5
2F88
330
1E
100
AcDbEntity
  8
7
100
AcDbLine
 10
4.728346456692912
 20
5.035433070866141
 30
0.0
 11
4.764763779527559
 21
4.99507874015748
 31
0.0
  0
LINE
  5
2F89
330
1E
100
AcDbEntity
  8
7
100
AcDbLine
 10
4.764763779527559
 20
4.99507874015748
 30
0.0
 11
4.807086614173227
 21
4.959645669291338
 31
0.0
  0
LINE
  5
2F8A
330
1E
100
AcDbEntity
  8
7
100
AcDbLine
 10
4.807086614173227
 20
4.959645669291338
 30
0.0
 11
4.853346456692912
 21
4.931102362204724
 31
0.0
  0
LINE
  5
2F8B
330
1E
100
AcDbEntity
  8
7
100
AcDbLine
 10
4.853346456692912
 20
4.931102362204724
 30
0.0
 11
4.904527559055118
 21
4.910433070866141
 31
0.0
  0
LINE
  5
2F8C
330
1E
100
AcDbEntity
  8
7
100
AcDbLine
 10
4.904527559055118
 20
4.910433070866141
 30
0.0
 11
4.95767716535433
 21
4.896653543307087
 31
0.0
  0
LINE
  5
2F8D
330
1E
100
AcDbEntity
  8
7
100
AcDbLine
 10
4.95767716535433
 20
4.896653543307087
 30
0.0
 11
5.011811023622047
 21
4.890748031496062
 31
0.0
  0
LINE
  5
2F8E
330
1E
100
AcDbEntity
  8
7
100
AcDbLine
 10
5.011811023622047
 20
4.890748031496062
 30
0.0
 11
5.065944881889762
 21
4.892716535433071
 31
0.0
  0
LINE
  5
2F8F
330
1E
100
AcDbEntity
  8
7
100
AcDbLine
 10
5.065944881889762
 20
4.892716535433071
 30
0.0
 11
5.120078740157479
 21
4.903543307086614
 31
0.0
  0
LINE
  5
2F90
330
1E
100
AcDbEntity
  8
7
100
AcDbLine
 10
5.120078740157479
 20
4.903543307086614
 30
0.0
 11
5.172244094488188
 21
4.921259842519685
 31
0.0
  0
LINE
  5
2F91
330
1E
100
AcDbEntity
  8
7
100
AcDbLine
 10
5.172244094488188
 20
4.921259842519685
 30
0.0
 11
5.220472440944881
 21
4.946850393700787
 31
0.0
  0
LINE
  5
2F92
330
1E
100
AcDbEntity
  8
7
100
AcDbLine
 10
5.220472440944881
 20
4.946850393700787
 30
0.0
 11
5.264763779527559
 21
4.979330708661417
 31
0.0
  0
LINE
  5
2F93
330
1E
100
AcDbEntity
  8
7
100
AcDbLine
 10
5.264763779527559
 20
4.979330708661417
 30
0.0
 11
5.304133858267716
 21
5.016732283464566
 31
0.0
  0
LINE
  5
2F94
330
1E
100
AcDbEntity
  8
7
100
AcDbLine
 10
5.304133858267716
 20
5.016732283464566
 30
0.0
 11
5.336614173228346
 21
5.061023622047244
 31
0.0
  0
LINE
  5
2F95
330
1E
100
AcDbEntity
  8
7
100
AcDbLine
 10
4.904527559055118
 20
5.619094488188976
 30
0.0
 11
4.853346456692912
 21
5.598425196850393
 31
0.0
  0
LINE
  5
2F96
330
1E
100
AcDbEntity
  8
7
100
AcDbLine
 10
4.853346456692912
 20
5.598425196850393
 30
0.0
 11
4.807086614173227
 21
5.569881889763779
 31
0.0
  0
LINE
  5
2F97
330
1E
100
AcDbEntity
  8
7
100
AcDbLine
 10
4.807086614173227
 20
5.569881889763779
 30
0.0
 11
4.764763779527559
 21
5.534448818897637
 31
0.0
  0
LINE
  5
2F98
330
1E
100
AcDbEntity
  8
7
100
AcDbLine
 10
4.764763779527559
 20
5.534448818897637
 30
0.0
 11
4.728346456692912
 21
5.494094488188976
 31
0.0
  0
LINE
  5
2F99
330
1E
100
AcDbEntity
  8
7
100
AcDbLine
 10
4.728346456692912
 20
5.494094488188976
 30
0.0
 11
4.69783464566929
 21
5.447834645669291
 31
0.0
  0
LINE
  5
2F9A
330
1E
100
AcDbEntity
  8
7
100
AcDbLine
 10
4.69783464566929
 20
5.447834645669291
 30
0.0
 11
4.674212598425196
 21
5.398622047244094
 31
0.0
  0
LINE
  5
2F9B
330
1E
100
AcDbEntity
  8
7
100
AcDbLine
 10
4.674212598425196
 20
5.398622047244094
 30
0.0
 11
4.658464566929133
 21
5.346456692913386
 31
0.0
  0
LINE
  5
2F9C
330
1E
100
AcDbEntity
  8
7
100
AcDbLine
 10
4.658464566929133
 20
5.346456692913386
 30
0.0
 11
4.650590551181101
 21
5.292322834645669
 31
0.0
  0
LINE
  5
2F9D
330
1E
100
AcDbEntity
  8
7
100
AcDbLine
 10
4.650590551181101
 20
5.292322834645669
 30
0.0
 11
4.650590551181101
 21
5.237204724409449
 31
0.0
  0
LINE
  5
2F9E
330
1E
100
AcDbEntity
  8
7
100
AcDbLine
 10
4.650590551181101
 20
5.237204724409449
 30
0.0
 11
4.658464566929133
 21
5.183070866141732
 31
0.0
  0
LINE
  5
2F9F
330
1E
100
AcDbEntity
  8
7
100
AcDbLine
 10
4.658464566929133
 20
5.183070866141732
 30
0.0
 11
4.674212598425196
 21
5.130905511811024
 31
0.0
  0
LINE
  5
2FA0
330
1E
100
AcDbEntity
  8
7
100
AcDbLine
 10
4.674212598425196
 20
5.130905511811024
 30
0.0
 11
4.69783464566929
 21
5.081692913385826
 31
0.0
  0
LINE
  5
2FA1
330
1E
100
AcDbEntity
  8
7
100
AcDbLine
 10
4.69783464566929
 20
5.081692913385826
 30
0.0
 11
4.728346456692912
 21
5.035433070866141
 31
0.0
  0
LINE
  5
2FA2
330
1E
100
AcDbEntity
  8
7
100
AcDbLine
 10
5.336614173228346
 20
5.468503937007874
 30
0.0
 11
5.304133858267716
 21
5.51279527559055
 31
0.0
  0
LINE
  5
2FA3
330
1E
100
AcDbEntity
  8
7
100
AcDbLine
 10
5.304133858267716
 20
5.51279527559055
 30
0.0
 11
5.264763779527559
 21
5.5501968503937
 31
0.0
  0
LINE
  5
2FA4
330
1E
100
AcDbEntity
  8
7
100
AcDbLine
 10
5.264763779527559
 20
5.5501968503937
 30
0.0
 11
5.220472440944881
 21
5.58267716535433
 31
0.0
  0
LINE
  5
2FA5
330
1E
100
AcDbEntity
  8
7
100
AcDbLine
 10
5.220472440944881
 20
5.58267716535433
 30
0.0
 11
5.172244094488188
 21
5.608267716535433
 31
0.0
  0
LINE
  5
2FA6
330
1E
100
AcDbEntity
  8
7
100
AcDbLine
 10
5.172244094488188
 20
5.608267716535433
 30
0.0
 11
5.120078740157479
 21
5.625984251968503
 31
0.0
  0
LINE
  5
2FA7
330
1E
100
AcDbEntity
  8
7
100
AcDbLine
 10
5.120078740157479
 20
5.625984251968503
 30
0.0
 11
5.065944881889762
 21
5.636811023622047
 31
0.0
  0
LINE
  5
2FA8
330
1E
100
AcDbEntity
  8
7
100
AcDbLine
 10
5.065944881889762
 20
5.636811023622047
 30
0.0
 11
5.011811023622047
 21
5.638779527559055
 31
0.0
  0
LINE
  5
2FA9
330
1E
100
AcDbEntity
  8
7
100
AcDbLine
 10
5.011811023622047
 20
5.638779527559055
 30
0.0
 11
4.95767716535433
 21
5.632874015748031
 31
0.0
  0
LINE
  5
2FAA
330
1E
100
AcDbEntity
  8
7
100
AcDbLine
 10
4.95767716535433
 20
5.632874015748031
 30
0.0
 11
4.904527559055118
 21
5.619094488188976
 31
0.0
  0
LINE
  5
2FAB
330
1E
100
AcDbEntity
  8
7
100
AcDbLine
 10
5.784448818897637
 20
5.037401574803149
 30
0.0
 11
5.784448818897637
 21
5.089566929133858
 31
0.0
  0
LINE
  5
2FAC
330
1E
100
AcDbEntity
  8
7
100
AcDbLine
 10
5.784448818897637
 20
5.089566929133858
 30
0.0
 11
5.784448818897637
 21
5.146653543307087
 31
0.0
  0
LINE
  5
2FAD
330
1E
100
AcDbEntity
  8
7
100
AcDbLine
 10
5.784448818897637
 20
5.146653543307087
 30
0.0
 11
5.784448818897637
 21
5.204724409448819
 31
0.0
  0
LINE
  5
2FAE
330
1E
100
AcDbEntity
  8
7
100
AcDbLine
 10
5.784448818897637
 20
5.204724409448819
 30
0.0
 11
5.784448818897637
 21
5.264763779527559
 31
0.0
  0
LINE
  5
2FAF
330
1E
100
AcDbEntity
  8
7
100
AcDbLine
 10
5.784448818897637
 20
5.264763779527559
 30
0.0
 11
5.784448818897637
 21
5.324803149606299
 31
0.0
  0
LINE
  5
2FB0
330
1E
100
AcDbEntity
  8
7
100
AcDbLine
 10
5.784448818897637
 20
5.324803149606299
 30
0.0
 11
5.784448818897637
 21
5.383858267716535
 31
0.0
  0
LINE
  5
2FB1
330
1E
100
AcDbEntity
  8
7
100
AcDbLine
 10
5.784448818897637
 20
5.383858267716535
 30
0.0
 11
5.784448818897637
 21
5.43996062992126
 31
0.0
  0
LINE
  5
2FB2
330
1E
100
AcDbEntity
  8
7
100
AcDbLine
 10
5.784448818897637
 20
5.43996062992126
 30
0.0
 11
5.784448818897637
 21
5.492125984251968
 31
0.0
  0
LINE
  5
2FB3
330
1E
100
AcDbEntity
  8
7
100
AcDbLine
 10
5.784448818897637
 20
5.492125984251968
 30
0.0
 11
5.784448818897637
 21
5.540354330708662
 31
0.0
  0
LINE
  5
2FB4
330
1E
100
AcDbEntity
  8
7
100
AcDbLine
 10
5.784448818897637
 20
5.540354330708662
 30
0.0
 11
5.784448818897637
 21
5.58267716535433
 31
0.0
  0
LINE
  5
2FB5
330
1E
100
AcDbEntity
  8
7
100
AcDbLine
 10
5.784448818897637
 20
5.58267716535433
 30
0.0
 11
5.784448818897637
 21
5.619094488188976
 31
0.0
  0
LINE
  5
2FB6
330
1E
100
AcDbEntity
  8
7
100
AcDbLine
 10
5.784448818897637
 20
5.619094488188976
 30
0.0
 11
5.784448818897637
 21
5.64763779527559
 31
0.0
  0
LINE
  5
2FB7
330
1E
100
AcDbEntity
  8
7
100
AcDbLine
 10
5.784448818897637
 20
5.64763779527559
 30
0.0
 11
5.784448818897637
 21
5.668307086614173
 31
0.0
  0
LINE
  5
2FB8
330
1E
100
AcDbEntity
  8
7
100
AcDbLine
 10
5.784448818897637
 20
5.668307086614173
 30
0.0
 11
5.784448818897637
 21
5.681102362204724
 31
0.0
  0
LINE
  5
2FB9
330
1E
100
AcDbEntity
  8
7
100
AcDbLine
 10
5.784448818897637
 20
5.681102362204724
 30
0.0
 11
5.784448818897637
 21
5.686023622047244
 31
0.0
  0
LINE
  5
2FBA
330
1E
100
AcDbEntity
  8
7
100
AcDbLine
 10
5.784448818897637
 20
4.843503937007874
 30
0.0
 11
5.784448818897637
 21
4.848425196850393
 31
0.0
  0
LINE
  5
2FBB
330
1E
100
AcDbEntity
  8
7
100
AcDbLine
 10
5.784448818897637
 20
4.848425196850393
 30
0.0
 11
5.784448818897637
 21
4.861220472440945
 31
0.0
  0
LINE
  5
2FBC
330
1E
100
AcDbEntity
  8
7
100
AcDbLine
 10
5.784448818897637
 20
4.861220472440945
 30
0.0
 11
5.784448818897637
 21
4.881889763779527
 31
0.0
  0
LINE
  5
2FBD
330
1E
100
AcDbEntity
  8
7
100
AcDbLine
 10
5.784448818897637
 20
4.881889763779527
 30
0.0
 11
5.784448818897637
 21
4.910433070866141
 31
0.0
  0
LINE
  5
2FBE
330
1E
100
AcDbEntity
  8
7
100
AcDbLine
 10
5.784448818897637
 20
4.910433070866141
 30
0.0
 11
5.784448818897637
 21
4.946850393700787
 31
0.0
  0
LINE
  5
2FBF
330
1E
100
AcDbEntity
  8
7
100
AcDbLine
 10
5.784448818897637
 20
4.946850393700787
 30
0.0
 11
5.784448818897637
 21
4.989173228346456
 31
0.0
  0
LINE
  5
2FC0
330
1E
100
AcDbEntity
  8
7
100
AcDbLine
 10
5.784448818897637
 20
4.989173228346456
 30
0.0
 11
5.784448818897637
 21
5.037401574803149
 31
0.0
  0
LINE
  5
2FC1
330
1E
100
AcDbEntity
  8
7
100
AcDbLine
 10
5.942913385826772
 20
5.383858267716535
 30
0.0
 11
5.942913385826772
 21
5.43996062992126
 31
0.0
  0
LINE
  5
2FC2
330
1E
100
AcDbEntity
  8
7
100
AcDbLine
 10
5.942913385826772
 20
5.43996062992126
 30
0.0
 11
5.942913385826772
 21
5.492125984251968
 31
0.0
  0
LINE
  5
2FC3
330
1E
100
AcDbEntity
  8
7
100
AcDbLine
 10
5.942913385826772
 20
5.492125984251968
 30
0.0
 11
5.942913385826772
 21
5.540354330708662
 31
0.0
  0
LINE
  5
2FC4
330
1E
100
AcDbEntity
  8
7
100
AcDbLine
 10
5.942913385826772
 20
5.540354330708662
 30
0.0
 11
5.942913385826772
 21
5.58267716535433
 31
0.0
  0
LINE
  5
2FC5
330
1E
100
AcDbEntity
  8
7
100
AcDbLine
 10
5.942913385826772
 20
5.58267716535433
 30
0.0
 11
5.942913385826772
 21
5.619094488188976
 31
0.0
  0
LINE
  5
2FC6
330
1E
100
AcDbEntity
  8
7
100
AcDbLine
 10
5.942913385826772
 20
5.619094488188976
 30
0.0
 11
5.942913385826772
 21
5.64763779527559
 31
0.0
  0
LINE
  5
2FC7
330
1E
100
AcDbEntity
  8
7
100
AcDbLine
 10
5.942913385826772
 20
5.64763779527559
 30
0.0
 11
5.942913385826772
 21
5.668307086614173
 31
0.0
  0
LINE
  5
2FC8
330
1E
100
AcDbEntity
  8
7
100
AcDbLine
 10
5.942913385826772
 20
5.668307086614173
 30
0.0
 11
5.942913385826772
 21
5.681102362204724
 31
0.0
  0
LINE
  5
2FC9
330
1E
100
AcDbEntity
  8
7
100
AcDbLine
 10
5.942913385826772
 20
5.681102362204724
 30
0.0
 11
5.942913385826772
 21
5.686023622047244
 31
0.0
  0
LINE
  5
2FCA
330
1E
100
AcDbEntity
  8
7
100
AcDbLine
 10
5.942913385826772
 20
4.843503937007874
 30
0.0
 11
5.942913385826772
 21
4.848425196850393
 31
0.0
  0
LINE
  5
2FCB
330
1E
100
AcDbEntity
  8
7
100
AcDbLine
 10
5.942913385826772
 20
4.848425196850393
 30
0.0
 11
5.942913385826772
 21
4.861220472440945
 31
0.0
  0
LINE
  5
2FCC
330
1E
100
AcDbEntity
  8
7
100
AcDbLine
 10
5.942913385826772
 20
4.861220472440945
 30
0.0
 11
5.942913385826772
 21
4.881889763779527
 31
0.0
  0
LINE
  5
2FCD
330
1E
100
AcDbEntity
  8
7
100
AcDbLine
 10
5.942913385826772
 20
4.881889763779527
 30
0.0
 11
5.942913385826772
 21
4.910433070866141
 31
0.0
  0
LINE
  5
2FCE
330
1E
100
AcDbEntity
  8
7
100
AcDbLine
 10
5.942913385826772
 20
4.910433070866141
 30
0.0
 11
5.942913385826772
 21
4.946850393700787
 31
0.0
  0
LINE
  5
2FCF
330
1E
100
AcDbEntity
  8
7
100
AcDbLine
 10
5.942913385826772
 20
4.946850393700787
 30
0.0
 11
5.942913385826772
 21
4.989173228346456
 31
0.0
  0
LINE
  5
2FD0
330
1E
100
AcDbEntity
  8
7
100
AcDbLine
 10
5.942913385826772
 20
4.989173228346456
 30
0.0
 11
5.942913385826772
 21
5.037401574803149
 31
0.0
  0
LINE
  5
2FD1
330
1E
100
AcDbEntity
  8
7
100
AcDbLine
 10
5.942913385826772
 20
5.037401574803149
 30
0.0
 11
5.942913385826772
 21
5.089566929133858
 31
0.0
  0
LINE
  5
2FD2
330
1E
100
AcDbEntity
  8
7
100
AcDbLine
 10
5.942913385826772
 20
5.089566929133858
 30
0.0
 11
5.942913385826772
 21
5.146653543307087
 31
0.0
  0
LINE
  5
2FD3
330
1E
100
AcDbEntity
  8
7
100
AcDbLine
 10
5.942913385826772
 20
5.146653543307087
 30
0.0
 11
5.942913385826772
 21
5.204724409448819
 31
0.0
  0
LINE
  5
2FD4
330
1E
100
AcDbEntity
  8
7
100
AcDbLine
 10
5.942913385826772
 20
5.204724409448819
 30
0.0
 11
5.942913385826772
 21
5.264763779527559
 31
0.0
  0
LINE
  5
2FD5
330
1E
100
AcDbEntity
  8
7
100
AcDbLine
 10
5.942913385826772
 20
5.264763779527559
 30
0.0
 11
5.942913385826772
 21
5.324803149606299
 31
0.0
  0
LINE
  5
2FD6
330
1E
100
AcDbEntity
  8
7
100
AcDbLine
 10
5.942913385826772
 20
5.324803149606299
 30
0.0
 11
5.942913385826772
 21
5.383858267716535
 31
0.0
  0
LINE
  5
2FD7
330
1E
100
AcDbEntity
  8
7
100
AcDbLine
 10
5.793307086614172
 20
4.827755905511811
 30
0.0
 11
5.794291338582677
 21
4.827755905511811
 31
0.0
  0
LINE
  5
2FD8
330
1E
100
AcDbEntity
  8
7
100
AcDbLine
 10
5.794291338582677
 20
4.827755905511811
 30
0.0
 11
5.803149606299212
 21
4.827755905511811
 31
0.0
  0
LINE
  5
2FD9
330
1E
100
AcDbEntity
  8
7
100
AcDbLine
 10
5.803149606299212
 20
4.827755905511811
 30
0.0
 11
5.823818897637794
 21
4.827755905511811
 31
0.0
  0
LINE
  5
2FDA
330
1E
100
AcDbEntity
  8
7
100
AcDbLine
 10
5.903543307086614
 20
4.827755905511811
 30
0.0
 11
5.924212598425196
 21
4.827755905511811
 31
0.0
  0
LINE
  5
2FDB
330
1E
100
AcDbEntity
  8
7
100
AcDbLine
 10
5.924212598425196
 20
4.827755905511811
 30
0.0
 11
5.93503937007874
 21
4.827755905511811
 31
0.0
  0
LINE
  5
2FDC
330
1E
100
AcDbEntity
  8
7
100
AcDbLine
 10
5.823818897637794
 20
4.827755905511811
 30
0.0
 11
5.806102362204724
 21
4.903543307086614
 31
0.0
  0
LINE
  5
2FDD
330
1E
100
AcDbEntity
  8
7
100
AcDbLine
 10
5.806102362204724
 20
4.903543307086614
 30
0.0
 11
5.795275590551181
 21
4.981299212598425
 31
0.0
  0
LINE
  5
2FDE
330
1E
100
AcDbEntity
  8
7
100
AcDbLine
 10
5.795275590551181
 20
4.981299212598425
 30
0.0
 11
5.792322834645668
 21
5.061023622047244
 31
0.0
  0
LINE
  5
2FDF
330
1E
100
AcDbEntity
  8
7
100
AcDbLine
 10
5.792322834645668
 20
5.061023622047244
 30
0.0
 11
5.798228346456692
 21
5.141732283464566
 31
0.0
  0
LINE
  5
2FE0
330
1E
100
AcDbEntity
  8
7
100
AcDbLine
 10
5.798228346456692
 20
5.141732283464566
 30
0.0
 11
5.809055118110235
 21
5.203740157480314
 31
0.0
  0
LINE
  5
2FE1
330
1E
100
AcDbEntity
  8
7
100
AcDbLine
 10
5.809055118110235
 20
5.203740157480314
 30
0.0
 11
5.823818897637794
 21
5.264763779527559
 31
0.0
  0
LINE
  5
2FE2
330
1E
100
AcDbEntity
  8
7
100
AcDbLine
 10
5.903543307086614
 20
5.264763779527559
 30
0.0
 11
5.921259842519685
 21
5.188976377952756
 31
0.0
  0
LINE
  5
2FE3
330
1E
100
AcDbEntity
  8
7
100
AcDbLine
 10
5.921259842519685
 20
5.188976377952756
 30
0.0
 11
5.932086614173227
 21
5.111220472440945
 31
0.0
  0
LINE
  5
2FE4
330
1E
100
AcDbEntity
  8
7
100
AcDbLine
 10
5.932086614173227
 20
5.111220472440945
 30
0.0
 11
5.93503937007874
 21
5.030511811023622
 31
0.0
  0
LINE
  5
2FE5
330
1E
100
AcDbEntity
  8
7
100
AcDbLine
 10
5.93503937007874
 20
5.030511811023622
 30
0.0
 11
5.929133858267716
 21
4.949803149606299
 31
0.0
  0
LINE
  5
2FE6
330
1E
100
AcDbEntity
  8
7
100
AcDbLine
 10
5.929133858267716
 20
4.949803149606299
 30
0.0
 11
5.918307086614172
 21
4.888779527559055
 31
0.0
  0
LINE
  5
2FE7
330
1E
100
AcDbEntity
  8
7
100
AcDbLine
 10
5.806102362204724
 20
5.341535433070866
 30
0.0
 11
5.795275590551181
 21
5.419291338582677
 31
0.0
  0
LINE
  5
2FE8
330
1E
100
AcDbEntity
  8
7
100
AcDbLine
 10
5.795275590551181
 20
5.419291338582677
 30
0.0
 11
5.792322834645668
 21
5.499015748031496
 31
0.0
  0
LINE
  5
2FE9
330
1E
100
AcDbEntity
  8
7
100
AcDbLine
 10
5.792322834645668
 20
5.499015748031496
 30
0.0
 11
5.798228346456692
 21
5.579724409448819
 31
0.0
  0
LINE
  5
2FEA
330
1E
100
AcDbEntity
  8
7
100
AcDbLine
 10
5.798228346456692
 20
5.579724409448819
 30
0.0
 11
5.809055118110235
 21
5.640748031496062
 31
0.0
  0
LINE
  5
2FEB
330
1E
100
AcDbEntity
  8
7
100
AcDbLine
 10
5.809055118110235
 20
5.640748031496062
 30
0.0
 11
5.823818897637794
 21
5.702755905511811
 31
0.0
  0
LINE
  5
2FEC
330
1E
100
AcDbEntity
  8
7
100
AcDbLine
 10
5.903543307086614
 20
5.702755905511811
 30
0.0
 11
5.921259842519685
 21
5.625984251968503
 31
0.0
  0
LINE
  5
2FED
330
1E
100
AcDbEntity
  8
7
100
AcDbLine
 10
5.921259842519685
 20
5.625984251968503
 30
0.0
 11
5.932086614173227
 21
5.548228346456693
 31
0.0
  0
LINE
  5
2FEE
330
1E
100
AcDbEntity
  8
7
100
AcDbLine
 10
5.932086614173227
 20
5.548228346456693
 30
0.0
 11
5.93503937007874
 21
5.468503937007874
 31
0.0
  0
LINE
  5
2FEF
330
1E
100
AcDbEntity
  8
7
100
AcDbLine
 10
5.93503937007874
 20
5.468503937007874
 30
0.0
 11
5.929133858267716
 21
5.38779527559055
 31
0.0
  0
LINE
  5
2FF0
330
1E
100
AcDbEntity
  8
7
100
AcDbLine
 10
5.929133858267716
 20
5.38779527559055
 30
0.0
 11
5.918307086614172
 21
5.325787401574803
 31
0.0
  0
LINE
  5
2FF1
330
1E
100
AcDbEntity
  8
7
100
AcDbLine
 10
5.918307086614172
 20
5.325787401574803
 30
0.0
 11
5.903543307086614
 21
5.264763779527559
 31
0.0
  0
LINE
  5
2FF2
330
1E
100
AcDbEntity
  8
7
100
AcDbLine
 10
5.934055118110235
 20
5.702755905511811
 30
0.0
 11
5.933070866141731
 21
5.702755905511811
 31
0.0
  0
LINE
  5
2FF3
330
1E
100
AcDbEntity
  8
7
100
AcDbLine
 10
5.933070866141731
 20
5.702755905511811
 30
0.0
 11
5.924212598425196
 21
5.702755905511811
 31
0.0
  0
LINE
  5
2FF4
330
1E
100
AcDbEntity
  8
7
100
AcDbLine
 10
5.924212598425196
 20
5.702755905511811
 30
0.0
 11
5.903543307086614
 21
5.702755905511811
 31
0.0
  0
LINE
  5
2FF5
330
1E
100
AcDbEntity
  8
7
100
AcDbLine
 10
6.734251968503937
 20
5.024606299212598
 30
0.0
 11
6.778543307086614
 21
5.079724409448819
 31
0.0
  0
LINE
  5
2FF6
330
1E
100
AcDbEntity
  8
7
100
AcDbLine
 10
6.778543307086614
 20
5.079724409448819
 30
0.0
 11
6.811023622047244
 21
5.143700787401574
 31
0.0
  0
LINE
  5
2FF7
330
1E
100
AcDbEntity
  8
7
100
AcDbLine
 10
5.658464566929133
 20
5.711614173228346
 30
0.0
 11
5.624015748031496
 21
5.706692913385826
 31
0.0
  0
LINE
  5
2FF8
330
1E
100
AcDbEntity
  8
7
100
AcDbLine
 10
5.624015748031496
 20
5.706692913385826
 30
0.0
 11
5.591535433070866
 21
5.693897637795275
 31
0.0
  0
LINE
  5
2FF9
330
1E
100
AcDbEntity
  8
7
100
AcDbLine
 10
5.591535433070866
 20
5.693897637795275
 30
0.0
 11
5.562992125984251
 21
5.672244094488188
 31
0.0
  0
LINE
  5
2FFA
330
1E
100
AcDbEntity
  8
7
100
AcDbLine
 10
5.562992125984251
 20
5.672244094488188
 30
0.0
 11
5.541338582677164
 21
5.644685039370078
 31
0.0
  0
LINE
  5
2FFB
330
1E
100
AcDbEntity
  8
7
100
AcDbLine
 10
5.541338582677164
 20
5.644685039370078
 30
0.0
 11
5.528543307086614
 21
5.611220472440945
 31
0.0
  0
LINE
  5
2FFC
330
1E
100
AcDbEntity
  8
7
100
AcDbLine
 10
5.528543307086614
 20
5.611220472440945
 30
0.0
 11
5.523622047244094
 21
5.576771653543307
 31
0.0
  0
LINE
  5
2FFD
330
1E
100
AcDbEntity
  8
7
100
AcDbLine
 10
5.523622047244094
 20
4.952755905511811
 30
0.0
 11
5.528543307086614
 21
4.918307086614173
 31
0.0
  0
LINE
  5
2FFE
330
1E
100
AcDbEntity
  8
7
100
AcDbLine
 10
5.528543307086614
 20
4.918307086614173
 30
0.0
 11
5.541338582677164
 21
4.885826771653543
 31
0.0
  0
LINE
  5
2FFF
330
1E
100
AcDbEntity
  8
7
100
AcDbLine
 10
5.541338582677164
 20
4.885826771653543
 30
0.0
 11
5.562992125984251
 21
4.857283464566929
 31
0.0
  0
LINE
  5
3000
330
1E
100
AcDbEntity
  8
7
100
AcDbLine
 10
5.562992125984251
 20
4.857283464566929
 30
0.0
 11
5.590551181102362
 21
4.835629921259842
 31
0.0
  0
LINE
  5
3001
330
1E
100
AcDbEntity
  8
7
100
AcDbLine
 10
5.590551181102362
 20
4.835629921259842
 30
0.0
 11
5.624015748031496
 21
4.822834645669291
 31
0.0
  0
LINE
  5
3002
330
1E
100
AcDbEntity
  8
7
100
AcDbLine
 10
5.624015748031496
 20
4.822834645669291
 30
0.0
 11
5.658464566929133
 21
4.817913385826772
 31
0.0
  0
LINE
  5
3003
330
1E
100
AcDbEntity
  8
7
100
AcDbLine
 10
3.205708661417322
 20
6.008858267716535
 30
0.0
 11
3.188976377952756
 21
5.996062992125984
 31
0.0
  0
LINE
  5
3004
330
1E
100
AcDbEntity
  8
7
100
AcDbLine
 10
3.188976377952756
 20
5.996062992125984
 30
0.0
 11
3.179133858267716
 21
5.977362204724409
 31
0.0
  0
LINE
  5
3005
330
1E
100
AcDbEntity
  8
7
100
AcDbLine
 10
3.179133858267716
 20
5.977362204724409
 30
0.0
 11
3.178149606299212
 21
5.955708661417323
 31
0.0
  0
LINE
  5
3006
330
1E
100
AcDbEntity
  8
7
100
AcDbLine
 10
3.178149606299212
 20
5.955708661417323
 30
0.0
 11
3.186023622047243
 21
5.936023622047244
 31
0.0
  0
LINE
  5
3007
330
1E
100
AcDbEntity
  8
7
100
AcDbLine
 10
3.063976377952755
 20
6.228346456692913
 30
0.0
 11
3.019685039370078
 21
6.200787401574803
 31
0.0
  0
LINE
  5
3008
330
1E
100
AcDbEntity
  8
7
100
AcDbLine
 10
3.019685039370078
 20
6.200787401574803
 30
0.0
 11
2.979330708661417
 21
6.166338582677165
 31
0.0
  0
LINE
  5
3009
330
1E
100
AcDbEntity
  8
7
100
AcDbLine
 10
2.979330708661417
 20
6.166338582677165
 30
0.0
 11
2.945866141732283
 21
6.126968503937008
 31
0.0
  0
LINE
  5
300A
330
1E
100
AcDbEntity
  8
7
100
AcDbLine
 10
2.945866141732283
 20
6.126968503937008
 30
0.0
 11
2.919291338582676
 21
6.081692913385826
 31
0.0
  0
LINE
  5
300B
330
1E
100
AcDbEntity
  8
7
100
AcDbLine
 10
2.919291338582676
 20
6.081692913385826
 30
0.0
 11
2.899606299212598
 21
6.033464566929134
 31
0.0
  0
LINE
  5
300C
330
1E
100
AcDbEntity
  8
7
100
AcDbLine
 10
3.529527559055118
 20
6.033464566929134
 30
0.0
 11
3.509842519685039
 21
6.081692913385826
 31
0.0
  0
LINE
  5
300D
330
1E
100
AcDbEntity
  8
7
100
AcDbLine
 10
3.509842519685039
 20
6.081692913385826
 30
0.0
 11
3.483267716535432
 21
6.126968503937008
 31
0.0
  0
LINE
  5
300E
330
1E
100
AcDbEntity
  8
7
100
AcDbLine
 10
3.483267716535432
 20
6.126968503937008
 30
0.0
 11
3.449803149606299
 21
6.166338582677165
 31
0.0
  0
LINE
  5
300F
330
1E
100
AcDbEntity
  8
7
100
AcDbLine
 10
3.449803149606299
 20
6.166338582677165
 30
0.0
 11
3.409448818897637
 21
6.200787401574803
 31
0.0
  0
LINE
  5
3010
330
1E
100
AcDbEntity
  8
7
100
AcDbLine
 10
3.409448818897637
 20
6.200787401574803
 30
0.0
 11
3.36515748031496
 21
6.228346456692913
 31
0.0
  0
LINE
  5
3011
330
1E
100
AcDbEntity
  8
7
100
AcDbLine
 10
3.36515748031496
 20
6.228346456692913
 30
0.0
 11
3.316929133858267
 21
6.248031496062992
 31
0.0
  0
LINE
  5
3012
330
1E
100
AcDbEntity
  8
7
100
AcDbLine
 10
3.316929133858267
 20
6.248031496062992
 30
0.0
 11
3.266732283464566
 21
6.260826771653543
 31
0.0
  0
LINE
  5
3013
330
1E
100
AcDbEntity
  8
7
100
AcDbLine
 10
3.266732283464566
 20
6.260826771653543
 30
0.0
 11
3.214566929133858
 21
6.264763779527559
 31
0.0
  0
LINE
  5
3014
330
1E
100
AcDbEntity
  8
7
100
AcDbLine
 10
3.214566929133858
 20
6.264763779527559
 30
0.0
 11
3.162401574803149
 21
6.260826771653543
 31
0.0
  0
LINE
  5
3015
330
1E
100
AcDbEntity
  8
7
100
AcDbLine
 10
3.162401574803149
 20
6.260826771653543
 30
0.0
 11
3.112204724409448
 21
6.248031496062992
 31
0.0
  0
LINE
  5
3016
330
1E
100
AcDbEntity
  8
7
100
AcDbLine
 10
3.112204724409448
 20
6.248031496062992
 30
0.0
 11
3.063976377952755
 21
6.228346456692913
 31
0.0
  0
LINE
  5
3017
330
1E
100
AcDbEntity
  8
7
100
AcDbLine
 10
2.982283464566928
 20
4.882874015748031
 30
0.0
 11
3.036417322834645
 21
4.855314960629921
 31
0.0
  0
LINE
  5
3018
330
1E
100
AcDbEntity
  8
7
100
AcDbLine
 10
3.036417322834645
 20
4.855314960629921
 30
0.0
 11
3.094488188976377
 21
4.834645669291338
 31
0.0
  0
LINE
  5
3019
330
1E
100
AcDbEntity
  8
7
100
AcDbLine
 10
3.094488188976377
 20
4.834645669291338
 30
0.0
 11
3.153543307086613
 21
4.821850393700787
 31
0.0
  0
LINE
  5
301A
330
1E
100
AcDbEntity
  8
7
100
AcDbLine
 10
3.153543307086613
 20
4.821850393700787
 30
0.0
 11
3.214566929133858
 21
4.817913385826772
 31
0.0
  0
LINE
  5
301B
330
1E
100
AcDbEntity
  8
7
100
AcDbLine
 10
2.88779527559055
 20
5.569881889763779
 30
0.0
 11
2.849409448818897
 21
5.52263779527559
 31
0.0
  0
LINE
  5
301C
330
1E
100
AcDbEntity
  8
7
100
AcDbLine
 10
2.849409448818897
 20
5.52263779527559
 30
0.0
 11
2.817913385826771
 21
5.470472440944882
 31
0.0
  0
LINE
  5
301D
330
1E
100
AcDbEntity
  8
7
100
AcDbLine
 10
2.817913385826771
 20
5.470472440944882
 30
0.0
 11
2.793307086614173
 21
5.414370078740157
 31
0.0
  0
LINE
  5
301E
330
1E
100
AcDbEntity
  8
7
100
AcDbLine
 10
2.793307086614173
 20
5.414370078740157
 30
0.0
 11
2.776574803149606
 21
5.355314960629921
 31
0.0
  0
LINE
  5
301F
330
1E
100
AcDbEntity
  8
7
100
AcDbLine
 10
2.776574803149606
 20
5.355314960629921
 30
0.0
 11
2.768700787401574
 21
5.295275590551181
 31
0.0
  0
LINE
  5
3020
330
1E
100
AcDbEntity
  8
7
100
AcDbLine
 10
2.768700787401574
 20
5.295275590551181
 30
0.0
 11
2.768700787401574
 21
5.234251968503937
 31
0.0
  0
LINE
  5
3021
330
1E
100
AcDbEntity
  8
7
100
AcDbLine
 10
2.768700787401574
 20
5.234251968503937
 30
0.0
 11
2.776574803149606
 21
5.174212598425197
 31
0.0
  0
LINE
  5
3022
330
1E
100
AcDbEntity
  8
7
100
AcDbLine
 10
2.776574803149606
 20
5.174212598425197
 30
0.0
 11
2.793307086614173
 21
5.115157480314961
 31
0.0
  0
LINE
  5
3023
330
1E
100
AcDbEntity
  8
7
100
AcDbLine
 10
2.793307086614173
 20
5.115157480314961
 30
0.0
 11
2.817913385826771
 21
5.059055118110236
 31
0.0
  0
LINE
  5
3024
330
1E
100
AcDbEntity
  8
7
100
AcDbLine
 10
2.817913385826771
 20
5.059055118110236
 30
0.0
 11
2.849409448818897
 21
5.006889763779527
 31
0.0
  0
LINE
  5
3025
330
1E
100
AcDbEntity
  8
7
100
AcDbLine
 10
2.849409448818897
 20
5.006889763779527
 30
0.0
 11
2.88779527559055
 21
4.959645669291338
 31
0.0
  0
LINE
  5
3026
330
1E
100
AcDbEntity
  8
7
100
AcDbLine
 10
2.88779527559055
 20
4.959645669291338
 30
0.0
 11
2.932086614173228
 21
4.918307086614173
 31
0.0
  0
LINE
  5
3027
330
1E
100
AcDbEntity
  8
7
100
AcDbLine
 10
2.932086614173228
 20
4.918307086614173
 30
0.0
 11
2.982283464566928
 21
4.882874015748031
 31
0.0
  0
LINE
  5
3028
330
1E
100
AcDbEntity
  8
7
100
AcDbLine
 10
3.579724409448818
 20
5.52263779527559
 30
0.0
 11
3.541338582677165
 21
5.569881889763779
 31
0.0
  0
LINE
  5
3029
330
1E
100
AcDbEntity
  8
7
100
AcDbLine
 10
3.541338582677165
 20
5.569881889763779
 30
0.0
 11
3.497047244094487
 21
5.611220472440945
 31
0.0
  0
LINE
  5
302A
330
1E
100
AcDbEntity
  8
7
100
AcDbLine
 10
3.497047244094487
 20
5.611220472440945
 30
0.0
 11
3.446850393700787
 21
5.646653543307087
 31
0.0
  0
LINE
  5
302B
330
1E
100
AcDbEntity
  8
7
100
AcDbLine
 10
3.446850393700787
 20
5.646653543307087
 30
0.0
 11
3.39271653543307
 21
5.674212598425197
 31
0.0
  0
LINE
  5
302C
330
1E
100
AcDbEntity
  8
7
100
AcDbLine
 10
3.39271653543307
 20
5.674212598425197
 30
0.0
 11
3.334645669291338
 21
5.694881889763779
 31
0.0
  0
LINE
  5
302D
330
1E
100
AcDbEntity
  8
7
100
AcDbLine
 10
3.334645669291338
 20
5.694881889763779
 30
0.0
 11
3.275590551181102
 21
5.70767716535433
 31
0.0
  0
LINE
  5
302E
330
1E
100
AcDbEntity
  8
7
100
AcDbLine
 10
3.275590551181102
 20
5.70767716535433
 30
0.0
 11
3.214566929133858
 21
5.711614173228346
 31
0.0
  0
LINE
  5
302F
330
1E
100
AcDbEntity
  8
7
100
AcDbLine
 10
3.214566929133858
 20
5.711614173228346
 30
0.0
 11
3.153543307086613
 21
5.70767716535433
 31
0.0
  0
LINE
  5
3030
330
1E
100
AcDbEntity
  8
7
100
AcDbLine
 10
3.153543307086613
 20
5.70767716535433
 30
0.0
 11
3.094488188976377
 21
5.694881889763779
 31
0.0
  0
LINE
  5
3031
330
1E
100
AcDbEntity
  8
7
100
AcDbLine
 10
3.094488188976377
 20
5.694881889763779
 30
0.0
 11
3.036417322834645
 21
5.674212598425197
 31
0.0
  0
LINE
  5
3032
330
1E
100
AcDbEntity
  8
7
100
AcDbLine
 10
3.036417322834645
 20
5.674212598425197
 30
0.0
 11
2.982283464566928
 21
5.646653543307087
 31
0.0
  0
LINE
  5
3033
330
1E
100
AcDbEntity
  8
7
100
AcDbLine
 10
2.982283464566928
 20
5.646653543307087
 30
0.0
 11
2.932086614173228
 21
5.611220472440945
 31
0.0
  0
LINE
  5
3034
330
1E
100
AcDbEntity
  8
7
100
AcDbLine
 10
2.932086614173228
 20
5.611220472440945
 30
0.0
 11
2.88779527559055
 21
5.569881889763779
 31
0.0
  0
LINE
  5
3035
330
1E
100
AcDbEntity
  8
7
100
AcDbLine
 10
3.214566929133858
 20
4.817913385826772
 30
0.0
 11
3.275590551181102
 21
4.821850393700787
 31
0.0
  0
LINE
  5
3036
330
1E
100
AcDbEntity
  8
7
100
AcDbLine
 10
3.275590551181102
 20
4.821850393700787
 30
0.0
 11
3.334645669291338
 21
4.834645669291338
 31
0.0
  0
LINE
  5
3037
330
1E
100
AcDbEntity
  8
7
100
AcDbLine
 10
3.334645669291338
 20
4.834645669291338
 30
0.0
 11
3.39271653543307
 21
4.855314960629921
 31
0.0
  0
LINE
  5
3038
330
1E
100
AcDbEntity
  8
7
100
AcDbLine
 10
3.39271653543307
 20
4.855314960629921
 30
0.0
 11
3.446850393700787
 21
4.882874015748031
 31
0.0
  0
LINE
  5
3039
330
1E
100
AcDbEntity
  8
7
100
AcDbLine
 10
3.446850393700787
 20
4.882874015748031
 30
0.0
 11
3.497047244094487
 21
4.918307086614173
 31
0.0
  0
LINE
  5
303A
330
1E
100
AcDbEntity
  8
7
100
AcDbLine
 10
3.497047244094487
 20
4.918307086614173
 30
0.0
 11
3.541338582677165
 21
4.959645669291338
 31
0.0
  0
LINE
  5
303B
330
1E
100
AcDbEntity
  8
7
100
AcDbLine
 10
3.541338582677165
 20
4.959645669291338
 30
0.0
 11
3.579724409448818
 21
5.006889763779527
 31
0.0
  0
LINE
  5
303C
330
1E
100
AcDbEntity
  8
7
100
AcDbLine
 10
3.579724409448818
 20
5.006889763779527
 30
0.0
 11
3.611220472440944
 21
5.059055118110236
 31
0.0
  0
LINE
  5
303D
330
1E
100
AcDbEntity
  8
7
100
AcDbLine
 10
3.611220472440944
 20
5.059055118110236
 30
0.0
 11
3.635826771653543
 21
5.115157480314961
 31
0.0
  0
LINE
  5
303E
330
1E
100
AcDbEntity
  8
7
100
AcDbLine
 10
3.635826771653543
 20
5.115157480314961
 30
0.0
 11
3.65255905511811
 21
5.174212598425197
 31
0.0
  0
LINE
  5
303F
330
1E
100
AcDbEntity
  8
7
100
AcDbLine
 10
3.65255905511811
 20
5.174212598425197
 30
0.0
 11
3.660433070866141
 21
5.234251968503937
 31
0.0
  0
LINE
  5
3040
330
1E
100
AcDbEntity
  8
7
100
AcDbLine
 10
3.660433070866141
 20
5.234251968503937
 30
0.0
 11
3.660433070866141
 21
5.295275590551181
 31
0.0
  0
LINE
  5
3041
330
1E
100
AcDbEntity
  8
7
100
AcDbLine
 10
3.660433070866141
 20
5.295275590551181
 30
0.0
 11
3.65255905511811
 21
5.355314960629921
 31
0.0
  0
LINE
  5
3042
330
1E
100
AcDbEntity
  8
7
100
AcDbLine
 10
3.65255905511811
 20
5.355314960629921
 30
0.0
 11
3.635826771653543
 21
5.414370078740157
 31
0.0
  0
LINE
  5
3043
330
1E
100
AcDbEntity
  8
7
100
AcDbLine
 10
3.635826771653543
 20
5.414370078740157
 30
0.0
 11
3.611220472440944
 21
5.470472440944882
 31
0.0
  0
LINE
  5
3044
330
1E
100
AcDbEntity
  8
7
100
AcDbLine
 10
3.611220472440944
 20
5.470472440944882
 30
0.0
 11
3.579724409448818
 21
5.52263779527559
 31
0.0
  0
LINE
  5
3045
330
1E
100
AcDbEntity
  8
7
100
AcDbLine
 10
3.509842519685039
 20
5.166338582677165
 30
0.0
 11
3.521653543307086
 21
5.215551181102362
 31
0.0
  0
LINE
  5
3046
330
1E
100
AcDbEntity
  8
7
100
AcDbLine
 10
3.521653543307086
 20
5.215551181102362
 30
0.0
 11
3.525590551181102
 21
5.264763779527559
 31
0.0
  0
LINE
  5
3047
330
1E
100
AcDbEntity
  8
7
100
AcDbLine
 10
3.525590551181102
 20
5.264763779527559
 30
0.0
 11
3.521653543307086
 21
5.313976377952756
 31
0.0
  0
LINE
  5
3048
330
1E
100
AcDbEntity
  8
7
100
AcDbLine
 10
3.521653543307086
 20
5.313976377952756
 30
0.0
 11
3.509842519685039
 21
5.363188976377952
 31
0.0
  0
LINE
  5
3049
330
1E
100
AcDbEntity
  8
7
100
AcDbLine
 10
3.509842519685039
 20
5.363188976377952
 30
0.0
 11
3.49015748031496
 21
5.408464566929134
 31
0.0
  0
LINE
  5
304A
330
1E
100
AcDbEntity
  8
7
100
AcDbLine
 10
3.49015748031496
 20
5.408464566929134
 30
0.0
 11
3.463582677165354
 21
5.450787401574803
 31
0.0
  0
LINE
  5
304B
330
1E
100
AcDbEntity
  8
7
100
AcDbLine
 10
3.463582677165354
 20
5.450787401574803
 30
0.0
 11
3.431102362204724
 21
5.488188976377952
 31
0.0
  0
LINE
  5
304C
330
1E
100
AcDbEntity
  8
7
100
AcDbLine
 10
3.431102362204724
 20
5.488188976377952
 30
0.0
 11
3.39271653543307
 21
5.519685039370078
 31
0.0
  0
LINE
  5
304D
330
1E
100
AcDbEntity
  8
7
100
AcDbLine
 10
3.39271653543307
 20
5.519685039370078
 30
0.0
 11
3.349409448818897
 21
5.545275590551181
 31
0.0
  0
LINE
  5
304E
330
1E
100
AcDbEntity
  8
7
100
AcDbLine
 10
3.349409448818897
 20
5.545275590551181
 30
0.0
 11
3.303149606299212
 21
5.562992125984251
 31
0.0
  0
LINE
  5
304F
330
1E
100
AcDbEntity
  8
7
100
AcDbLine
 10
3.303149606299212
 20
5.562992125984251
 30
0.0
 11
3.254921259842519
 21
5.572834645669291
 31
0.0
  0
LINE
  5
3050
330
1E
100
AcDbEntity
  8
7
100
AcDbLine
 10
3.253937007874015
 20
4.956692913385826
 30
0.0
 11
3.303149606299212
 21
4.966535433070866
 31
0.0
  0
LINE
  5
3051
330
1E
100
AcDbEntity
  8
7
100
AcDbLine
 10
3.303149606299212
 20
4.966535433070866
 30
0.0
 11
3.349409448818897
 21
4.984251968503937
 31
0.0
  0
LINE
  5
3052
330
1E
100
AcDbEntity
  8
7
100
AcDbLine
 10
3.349409448818897
 20
4.984251968503937
 30
0.0
 11
3.39271653543307
 21
5.009842519685039
 31
0.0
  0
LINE
  5
3053
330
1E
100
AcDbEntity
  8
7
100
AcDbLine
 10
3.39271653543307
 20
5.009842519685039
 30
0.0
 11
3.431102362204724
 21
5.041338582677165
 31
0.0
  0
LINE
  5
3054
330
1E
100
AcDbEntity
  8
7
100
AcDbLine
 10
3.431102362204724
 20
5.041338582677165
 30
0.0
 11
3.463582677165354
 21
5.078740157480314
 31
0.0
  0
LINE
  5
3055
330
1E
100
AcDbEntity
  8
7
100
AcDbLine
 10
3.463582677165354
 20
5.078740157480314
 30
0.0
 11
3.49015748031496
 21
5.121062992125984
 31
0.0
  0
LINE
  5
3056
330
1E
100
AcDbEntity
  8
7
100
AcDbLine
 10
3.49015748031496
 20
5.121062992125984
 30
0.0
 11
3.509842519685039
 21
5.166338582677165
 31
0.0
  0
LINE
  5
3057
330
1E
100
AcDbEntity
  8
7
100
AcDbLine
 10
2.965551181102362
 20
5.078740157480314
 30
0.0
 11
2.998031496062992
 21
5.041338582677165
 31
0.0
  0
LINE
  5
3058
330
1E
100
AcDbEntity
  8
7
100
AcDbLine
 10
2.998031496062992
 20
5.041338582677165
 30
0.0
 11
3.036417322834645
 21
5.009842519685039
 31
0.0
  0
LINE
  5
3059
330
1E
100
AcDbEntity
  8
7
100
AcDbLine
 10
3.036417322834645
 20
5.009842519685039
 30
0.0
 11
3.079724409448818
 21
4.984251968503937
 31
0.0
  0
LINE
  5
305A
330
1E
100
AcDbEntity
  8
7
100
AcDbLine
 10
3.079724409448818
 20
4.984251968503937
 30
0.0
 11
3.125984251968503
 21
4.966535433070866
 31
0.0
  0
LINE
  5
305B
330
1E
100
AcDbEntity
  8
7
100
AcDbLine
 10
3.125984251968503
 20
4.966535433070866
 30
0.0
 11
3.1751968503937
 21
4.956692913385826
 31
0.0
  0
LINE
  5
305C
330
1E
100
AcDbEntity
  8
7
100
AcDbLine
 10
3.125984251968503
 20
5.562992125984251
 30
0.0
 11
3.079724409448818
 21
5.545275590551181
 31
0.0
  0
LINE
  5
305D
330
1E
100
AcDbEntity
  8
7
100
AcDbLine
 10
3.079724409448818
 20
5.545275590551181
 30
0.0
 11
3.036417322834645
 21
5.519685039370078
 31
0.0
  0
LINE
  5
305E
330
1E
100
AcDbEntity
  8
7
100
AcDbLine
 10
3.036417322834645
 20
5.519685039370078
 30
0.0
 11
2.998031496062992
 21
5.488188976377952
 31
0.0
  0
LINE
  5
305F
330
1E
100
AcDbEntity
  8
7
100
AcDbLine
 10
2.998031496062992
 20
5.488188976377952
 30
0.0
 11
2.965551181102362
 21
5.450787401574803
 31
0.0
  0
LINE
  5
3060
330
1E
100
AcDbEntity
  8
7
100
AcDbLine
 10
2.965551181102362
 20
5.450787401574803
 30
0.0
 11
2.938976377952755
 21
5.408464566929134
 31
0.0
  0
LINE
  5
3061
330
1E
100
AcDbEntity
  8
7
100
AcDbLine
 10
2.938976377952755
 20
5.408464566929134
 30
0.0
 11
2.919291338582676
 21
5.363188976377952
 31
0.0
  0
LINE
  5
3062
330
1E
100
AcDbEntity
  8
7
100
AcDbLine
 10
2.919291338582676
 20
5.363188976377952
 30
0.0
 11
2.907480314960629
 21
5.313976377952756
 31
0.0
  0
LINE
  5
3063
330
1E
100
AcDbEntity
  8
7
100
AcDbLine
 10
2.907480314960629
 20
5.313976377952756
 30
0.0
 11
2.903543307086613
 21
5.264763779527559
 31
0.0
  0
LINE
  5
3064
330
1E
100
AcDbEntity
  8
7
100
AcDbLine
 10
2.903543307086613
 20
5.264763779527559
 30
0.0
 11
2.907480314960629
 21
5.215551181102362
 31
0.0
  0
LINE
  5
3065
330
1E
100
AcDbEntity
  8
7
100
AcDbLine
 10
2.907480314960629
 20
5.215551181102362
 30
0.0
 11
2.919291338582676
 21
5.166338582677165
 31
0.0
  0
LINE
  5
3066
330
1E
100
AcDbEntity
  8
7
100
AcDbLine
 10
2.919291338582676
 20
5.166338582677165
 30
0.0
 11
2.938976377952755
 21
5.121062992125984
 31
0.0
  0
LINE
  5
3067
330
1E
100
AcDbEntity
  8
7
100
AcDbLine
 10
2.938976377952755
 20
5.121062992125984
 30
0.0
 11
2.965551181102362
 21
5.078740157480314
 31
0.0
  0
LINE
  5
3068
330
1E
100
AcDbEntity
  8
7
100
AcDbLine
 10
3.523622047244094
 20
5.238188976377952
 30
0.0
 11
3.523622047244094
 21
5.291338582677165
 31
0.0
  0
LINE
  5
3069
330
1E
100
AcDbEntity
  8
7
100
AcDbLine
 10
3.523622047244094
 20
5.291338582677165
 30
0.0
 11
3.514763779527558
 21
5.34251968503937
 31
0.0
  0
LINE
  5
306A
330
1E
100
AcDbEntity
  8
7
100
AcDbLine
 10
3.514763779527558
 20
5.34251968503937
 30
0.0
 11
3.497047244094487
 21
5.392716535433071
 31
0.0
  0
LINE
  5
306B
330
1E
100
AcDbEntity
  8
7
100
AcDbLine
 10
3.497047244094487
 20
5.392716535433071
 30
0.0
 11
3.471456692913385
 21
5.437992125984251
 31
0.0
  0
LINE
  5
306C
330
1E
100
AcDbEntity
  8
7
100
AcDbLine
 10
3.471456692913385
 20
5.437992125984251
 30
0.0
 11
3.438976377952756
 21
5.479330708661417
 31
0.0
  0
LINE
  5
306D
330
1E
100
AcDbEntity
  8
7
100
AcDbLine
 10
3.438976377952756
 20
5.479330708661417
 30
0.0
 11
3.399606299212598
 21
5.513779527559055
 31
0.0
  0
LINE
  5
306E
330
1E
100
AcDbEntity
  8
7
100
AcDbLine
 10
3.399606299212598
 20
5.513779527559055
 30
0.0
 11
3.354330708661417
 21
5.541338582677165
 31
0.0
  0
LINE
  5
306F
330
1E
100
AcDbEntity
  8
7
100
AcDbLine
 10
3.354330708661417
 20
5.541338582677165
 30
0.0
 11
3.306102362204724
 21
5.561023622047244
 31
0.0
  0
LINE
  5
3070
330
1E
100
AcDbEntity
  8
7
100
AcDbLine
 10
3.306102362204724
 20
5.561023622047244
 30
0.0
 11
3.254921259842519
 21
5.571850393700787
 31
0.0
  0
LINE
  5
3071
330
1E
100
AcDbEntity
  8
7
100
AcDbLine
 10
3.254921259842519
 20
4.95767716535433
 30
0.0
 11
3.306102362204724
 21
4.968503937007874
 31
0.0
  0
LINE
  5
3072
330
1E
100
AcDbEntity
  8
7
100
AcDbLine
 10
3.306102362204724
 20
4.968503937007874
 30
0.0
 11
3.354330708661417
 21
4.988188976377952
 31
0.0
  0
LINE
  5
3073
330
1E
100
AcDbEntity
  8
7
100
AcDbLine
 10
3.354330708661417
 20
4.988188976377952
 30
0.0
 11
3.399606299212598
 21
5.015748031496062
 31
0.0
  0
LINE
  5
3074
330
1E
100
AcDbEntity
  8
7
100
AcDbLine
 10
3.399606299212598
 20
5.015748031496062
 30
0.0
 11
3.438976377952756
 21
5.0501968503937
 31
0.0
  0
LINE
  5
3075
330
1E
100
AcDbEntity
  8
7
100
AcDbLine
 10
3.438976377952756
 20
5.0501968503937
 30
0.0
 11
3.471456692913385
 21
5.091535433070866
 31
0.0
  0
LINE
  5
3076
330
1E
100
AcDbEntity
  8
7
100
AcDbLine
 10
3.471456692913385
 20
5.091535433070866
 30
0.0
 11
3.497047244094487
 21
5.136811023622047
 31
0.0
  0
LINE
  5
3077
330
1E
100
AcDbEntity
  8
7
100
AcDbLine
 10
3.497047244094487
 20
5.136811023622047
 30
0.0
 11
3.514763779527558
 21
5.187007874015748
 31
0.0
  0
LINE
  5
3078
330
1E
100
AcDbEntity
  8
7
100
AcDbLine
 10
3.514763779527558
 20
5.187007874015748
 30
0.0
 11
3.523622047244094
 21
5.238188976377952
 31
0.0
  0
LINE
  5
3079
330
1E
100
AcDbEntity
  8
7
100
AcDbLine
 10
2.99015748031496
 20
5.0501968503937
 30
0.0
 11
3.029527559055118
 21
5.015748031496062
 31
0.0
  0
LINE
  5
307A
330
1E
100
AcDbEntity
  8
7
100
AcDbLine
 10
3.029527559055118
 20
5.015748031496062
 30
0.0
 11
3.074803149606299
 21
4.988188976377952
 31
0.0
  0
LINE
  5
307B
330
1E
100
AcDbEntity
  8
7
100
AcDbLine
 10
3.074803149606299
 20
4.988188976377952
 30
0.0
 11
3.123031496062992
 21
4.968503937007874
 31
0.0
  0
LINE
  5
307C
330
1E
100
AcDbEntity
  8
7
100
AcDbLine
 10
3.123031496062992
 20
4.968503937007874
 30
0.0
 11
3.174212598425196
 21
4.95767716535433
 31
0.0
  0
LINE
  5
307D
330
1E
100
AcDbEntity
  8
7
100
AcDbLine
 10
3.174212598425196
 20
5.571850393700787
 30
0.0
 11
3.123031496062992
 21
5.561023622047244
 31
0.0
  0
LINE
  5
307E
330
1E
100
AcDbEntity
  8
7
100
AcDbLine
 10
3.123031496062992
 20
5.561023622047244
 30
0.0
 11
3.074803149606299
 21
5.541338582677165
 31
0.0
  0
LINE
  5
307F
330
1E
100
AcDbEntity
  8
7
100
AcDbLine
 10
3.074803149606299
 20
5.541338582677165
 30
0.0
 11
3.029527559055118
 21
5.513779527559055
 31
0.0
  0
LINE
  5
3080
330
1E
100
AcDbEntity
  8
7
100
AcDbLine
 10
3.029527559055118
 20
5.513779527559055
 30
0.0
 11
2.99015748031496
 21
5.479330708661417
 31
0.0
  0
LINE
  5
3081
330
1E
100
AcDbEntity
  8
7
100
AcDbLine
 10
2.99015748031496
 20
5.479330708661417
 30
0.0
 11
2.95767716535433
 21
5.437992125984251
 31
0.0
  0
LINE
  5
3082
330
1E
100
AcDbEntity
  8
7
100
AcDbLine
 10
2.95767716535433
 20
5.437992125984251
 30
0.0
 11
2.932086614173228
 21
5.392716535433071
 31
0.0
  0
LINE
  5
3083
330
1E
100
AcDbEntity
  8
7
100
AcDbLine
 10
2.932086614173228
 20
5.392716535433071
 30
0.0
 11
2.914370078740157
 21
5.34251968503937
 31
0.0
  0
LINE
  5
3084
330
1E
100
AcDbEntity
  8
7
100
AcDbLine
 10
2.914370078740157
 20
5.34251968503937
 30
0.0
 11
2.905511811023622
 21
5.291338582677165
 31
0.0
  0
LINE
  5
3085
330
1E
100
AcDbEntity
  8
7
100
AcDbLine
 10
2.905511811023622
 20
5.291338582677165
 30
0.0
 11
2.905511811023622
 21
5.238188976377952
 31
0.0
  0
LINE
  5
3086
330
1E
100
AcDbEntity
  8
7
100
AcDbLine
 10
2.905511811023622
 20
5.238188976377952
 30
0.0
 11
2.914370078740157
 21
5.187007874015748
 31
0.0
  0
LINE
  5
3087
330
1E
100
AcDbEntity
  8
7
100
AcDbLine
 10
2.914370078740157
 20
5.187007874015748
 30
0.0
 11
2.932086614173228
 21
5.136811023622047
 31
0.0
  0
LINE
  5
3088
330
1E
100
AcDbEntity
  8
7
100
AcDbLine
 10
2.932086614173228
 20
5.136811023622047
 30
0.0
 11
2.95767716535433
 21
5.091535433070866
 31
0.0
  0
LINE
  5
3089
330
1E
100
AcDbEntity
  8
7
100
AcDbLine
 10
2.95767716535433
 20
5.091535433070866
 30
0.0
 11
2.99015748031496
 21
5.0501968503937
 31
0.0
  0
LINE
  5
308A
330
1E
100
AcDbEntity
  8
7
100
AcDbLine
 10
3.254921259842519
 20
5.346456692913386
 30
0.0
 11
3.254921259842519
 21
5.292322834645669
 31
0.0
  0
LINE
  5
308B
330
1E
100
AcDbEntity
  8
7
100
AcDbLine
 10
3.254921259842519
 20
5.292322834645669
 30
0.0
 11
3.254921259842519
 21
5.237204724409449
 31
0.0
  0
LINE
  5
308C
330
1E
100
AcDbEntity
  8
7
100
AcDbLine
 10
3.254921259842519
 20
5.237204724409449
 30
0.0
 11
3.254921259842519
 21
5.184055118110236
 31
0.0
  0
LINE
  5
308D
330
1E
100
AcDbEntity
  8
7
100
AcDbLine
 10
3.254921259842519
 20
5.184055118110236
 30
0.0
 11
3.254921259842519
 21
5.131889763779527
 31
0.0
  0
LINE
  5
308E
330
1E
100
AcDbEntity
  8
7
100
AcDbLine
 10
3.254921259842519
 20
5.131889763779527
 30
0.0
 11
3.254921259842519
 21
5.08267716535433
 31
0.0
  0
LINE
  5
308F
330
1E
100
AcDbEntity
  8
7
100
AcDbLine
 10
3.254921259842519
 20
5.08267716535433
 30
0.0
 11
3.254921259842519
 21
5.037401574803149
 31
0.0
  0
LINE
  5
3090
330
1E
100
AcDbEntity
  8
7
100
AcDbLine
 10
3.254921259842519
 20
5.037401574803149
 30
0.0
 11
3.254921259842519
 21
4.997047244094487
 31
0.0
  0
LINE
  5
3091
330
1E
100
AcDbEntity
  8
7
100
AcDbLine
 10
3.254921259842519
 20
4.997047244094487
 30
0.0
 11
3.254921259842519
 21
4.963582677165354
 31
0.0
  0
LINE
  5
3092
330
1E
100
AcDbEntity
  8
7
100
AcDbLine
 10
3.254921259842519
 20
4.963582677165354
 30
0.0
 11
3.254921259842519
 21
4.936023622047244
 31
0.0
  0
LINE
  5
3093
330
1E
100
AcDbEntity
  8
7
100
AcDbLine
 10
3.254921259842519
 20
4.936023622047244
 30
0.0
 11
3.254921259842519
 21
4.916338582677165
 31
0.0
  0
LINE
  5
3094
330
1E
100
AcDbEntity
  8
7
100
AcDbLine
 10
3.254921259842519
 20
4.916338582677165
 30
0.0
 11
3.254921259842519
 21
4.903543307086614
 31
0.0
  0
LINE
  5
3095
330
1E
100
AcDbEntity
  8
7
100
AcDbLine
 10
3.254921259842519
 20
4.903543307086614
 30
0.0
 11
3.254921259842519
 21
4.899606299212598
 31
0.0
  0
LINE
  5
3096
330
1E
100
AcDbEntity
  8
7
100
AcDbLine
 10
3.254921259842519
 20
5.629921259842519
 30
0.0
 11
3.254921259842519
 21
5.625984251968503
 31
0.0
  0
LINE
  5
3097
330
1E
100
AcDbEntity
  8
7
100
AcDbLine
 10
3.254921259842519
 20
5.625984251968503
 30
0.0
 11
3.254921259842519
 21
5.613188976377952
 31
0.0
  0
LINE
  5
3098
330
1E
100
AcDbEntity
  8
7
100
AcDbLine
 10
3.254921259842519
 20
5.613188976377952
 30
0.0
 11
3.254921259842519
 21
5.593503937007874
 31
0.0
  0
LINE
  5
3099
330
1E
100
AcDbEntity
  8
7
100
AcDbLine
 10
3.254921259842519
 20
5.593503937007874
 30
0.0
 11
3.254921259842519
 21
5.565944881889763
 31
0.0
  0
LINE
  5
309A
330
1E
100
AcDbEntity
  8
7
100
AcDbLine
 10
3.254921259842519
 20
5.565944881889763
 30
0.0
 11
3.254921259842519
 21
5.53248031496063
 31
0.0
  0
LINE
  5
309B
330
1E
100
AcDbEntity
  8
7
100
AcDbLine
 10
3.254921259842519
 20
5.53248031496063
 30
0.0
 11
3.254921259842519
 21
5.492125984251968
 31
0.0
  0
LINE
  5
309C
330
1E
100
AcDbEntity
  8
7
100
AcDbLine
 10
3.254921259842519
 20
5.492125984251968
 30
0.0
 11
3.254921259842519
 21
5.446850393700787
 31
0.0
  0
LINE
  5
309D
330
1E
100
AcDbEntity
  8
7
100
AcDbLine
 10
3.254921259842519
 20
5.446850393700787
 30
0.0
 11
3.254921259842519
 21
5.398622047244094
 31
0.0
  0
LINE
  5
309E
330
1E
100
AcDbEntity
  8
7
100
AcDbLine
 10
3.254921259842519
 20
5.398622047244094
 30
0.0
 11
3.254921259842519
 21
5.346456692913386
 31
0.0
  0
LINE
  5
309F
330
1E
100
AcDbEntity
  8
7
100
AcDbLine
 10
3.1751968503937
 20
5.492125984251968
 30
0.0
 11
3.1751968503937
 21
5.53248031496063
 31
0.0
  0
LINE
  5
30A0
330
1E
100
AcDbEntity
  8
7
100
AcDbLine
 10
3.1751968503937
 20
5.53248031496063
 30
0.0
 11
3.1751968503937
 21
5.565944881889763
 31
0.0
  0
LINE
  5
30A1
330
1E
100
AcDbEntity
  8
7
100
AcDbLine
 10
3.1751968503937
 20
5.565944881889763
 30
0.0
 11
3.1751968503937
 21
5.593503937007874
 31
0.0
  0
LINE
  5
30A2
330
1E
100
AcDbEntity
  8
7
100
AcDbLine
 10
3.1751968503937
 20
5.593503937007874
 30
0.0
 11
3.1751968503937
 21
5.613188976377952
 31
0.0
  0
LINE
  5
30A3
330
1E
100
AcDbEntity
  8
7
100
AcDbLine
 10
3.1751968503937
 20
5.613188976377952
 30
0.0
 11
3.1751968503937
 21
5.625984251968503
 31
0.0
  0
LINE
  5
30A4
330
1E
100
AcDbEntity
  8
7
100
AcDbLine
 10
3.1751968503937
 20
5.625984251968503
 30
0.0
 11
3.1751968503937
 21
5.629921259842519
 31
0.0
  0
LINE
  5
30A5
330
1E
100
AcDbEntity
  8
7
100
AcDbLine
 10
3.1751968503937
 20
4.899606299212598
 30
0.0
 11
3.1751968503937
 21
4.903543307086614
 31
0.0
  0
LINE
  5
30A6
330
1E
100
AcDbEntity
  8
7
100
AcDbLine
 10
3.1751968503937
 20
4.903543307086614
 30
0.0
 11
3.1751968503937
 21
4.916338582677165
 31
0.0
  0
LINE
  5
30A7
330
1E
100
AcDbEntity
  8
7
100
AcDbLine
 10
3.1751968503937
 20
4.916338582677165
 30
0.0
 11
3.1751968503937
 21
4.936023622047244
 31
0.0
  0
LINE
  5
30A8
330
1E
100
AcDbEntity
  8
7
100
AcDbLine
 10
3.1751968503937
 20
4.936023622047244
 30
0.0
 11
3.1751968503937
 21
4.963582677165354
 31
0.0
  0
LINE
  5
30A9
330
1E
100
AcDbEntity
  8
7
100
AcDbLine
 10
3.1751968503937
 20
4.963582677165354
 30
0.0
 11
3.1751968503937
 21
4.997047244094487
 31
0.0
  0
LINE
  5
30AA
330
1E
100
AcDbEntity
  8
7
100
AcDbLine
 10
3.1751968503937
 20
4.997047244094487
 30
0.0
 11
3.1751968503937
 21
5.037401574803149
 31
0.0
  0
LINE
  5
30AB
330
1E
100
AcDbEntity
  8
7
100
AcDbLine
 10
3.1751968503937
 20
5.037401574803149
 30
0.0
 11
3.1751968503937
 21
5.08267716535433
 31
0.0
  0
LINE
  5
30AC
330
1E
100
AcDbEntity
  8
7
100
AcDbLine
 10
3.1751968503937
 20
5.08267716535433
 30
0.0
 11
3.1751968503937
 21
5.131889763779527
 31
0.0
  0
LINE
  5
30AD
330
1E
100
AcDbEntity
  8
7
100
AcDbLine
 10
3.1751968503937
 20
5.131889763779527
 30
0.0
 11
3.1751968503937
 21
5.184055118110236
 31
0.0
  0
LINE
  5
30AE
330
1E
100
AcDbEntity
  8
7
100
AcDbLine
 10
3.1751968503937
 20
5.184055118110236
 30
0.0
 11
3.1751968503937
 21
5.237204724409449
 31
0.0
  0
LINE
  5
30AF
330
1E
100
AcDbEntity
  8
7
100
AcDbLine
 10
3.1751968503937
 20
5.237204724409449
 30
0.0
 11
3.1751968503937
 21
5.292322834645669
 31
0.0
  0
LINE
  5
30B0
330
1E
100
AcDbEntity
  8
7
100
AcDbLine
 10
3.1751968503937
 20
5.292322834645669
 30
0.0
 11
3.1751968503937
 21
5.346456692913386
 31
0.0
  0
LINE
  5
30B1
330
1E
100
AcDbEntity
  8
7
100
AcDbLine
 10
3.1751968503937
 20
5.346456692913386
 30
0.0
 11
3.1751968503937
 21
5.398622047244094
 31
0.0
  0
LINE
  5
30B2
330
1E
100
AcDbEntity
  8
7
100
AcDbLine
 10
3.1751968503937
 20
5.398622047244094
 30
0.0
 11
3.1751968503937
 21
5.446850393700787
 31
0.0
  0
LINE
  5
30B3
330
1E
100
AcDbEntity
  8
7
100
AcDbLine
 10
3.1751968503937
 20
5.446850393700787
 30
0.0
 11
3.1751968503937
 21
5.492125984251968
 31
0.0
  0
LINE
  5
30B4
330
1E
100
AcDbEntity
  8
7
100
AcDbLine
 10
3.185039370078739
 20
4.906496062992125
 30
0.0
 11
3.185039370078739
 21
4.893700787401574
 31
0.0
  0
LINE
  5
30B5
330
1E
100
AcDbEntity
  8
7
100
AcDbLine
 10
3.185039370078739
 20
4.893700787401574
 30
0.0
 11
3.185039370078739
 21
4.889763779527559
 31
0.0
  0
LINE
  5
30B6
330
1E
100
AcDbEntity
  8
7
100
AcDbLine
 10
3.185039370078739
 20
5.602362204724409
 30
0.0
 11
3.185039370078739
 21
5.574803149606299
 31
0.0
  0
LINE
  5
30B7
330
1E
100
AcDbEntity
  8
7
100
AcDbLine
 10
3.185039370078739
 20
5.574803149606299
 30
0.0
 11
3.185039370078739
 21
5.539370078740157
 31
0.0
  0
LINE
  5
30B8
330
1E
100
AcDbEntity
  8
7
100
AcDbLine
 10
3.185039370078739
 20
5.539370078740157
 30
0.0
 11
3.185039370078739
 21
5.499015748031496
 31
0.0
  0
LINE
  5
30B9
330
1E
100
AcDbEntity
  8
7
100
AcDbLine
 10
3.185039370078739
 20
5.499015748031496
 30
0.0
 11
3.185039370078739
 21
5.452755905511811
 31
0.0
  0
LINE
  5
30BA
330
1E
100
AcDbEntity
  8
7
100
AcDbLine
 10
3.185039370078739
 20
5.452755905511811
 30
0.0
 11
3.185039370078739
 21
5.401574803149606
 31
0.0
  0
LINE
  5
30BB
330
1E
100
AcDbEntity
  8
7
100
AcDbLine
 10
3.185039370078739
 20
5.401574803149606
 30
0.0
 11
3.185039370078739
 21
5.348425196850393
 31
0.0
  0
LINE
  5
30BC
330
1E
100
AcDbEntity
  8
7
100
AcDbLine
 10
3.185039370078739
 20
5.348425196850393
 30
0.0
 11
3.185039370078739
 21
5.293307086614173
 31
0.0
  0
LINE
  5
30BD
330
1E
100
AcDbEntity
  8
7
100
AcDbLine
 10
3.185039370078739
 20
5.293307086614173
 30
0.0
 11
3.185039370078739
 21
5.237204724409449
 31
0.0
  0
LINE
  5
30BE
330
1E
100
AcDbEntity
  8
7
100
AcDbLine
 10
3.185039370078739
 20
5.237204724409449
 30
0.0
 11
3.185039370078739
 21
5.181102362204724
 31
0.0
  0
LINE
  5
30BF
330
1E
100
AcDbEntity
  8
7
100
AcDbLine
 10
3.185039370078739
 20
5.181102362204724
 30
0.0
 11
3.185039370078739
 21
5.127952755905512
 31
0.0
  0
LINE
  5
30C0
330
1E
100
AcDbEntity
  8
7
100
AcDbLine
 10
3.185039370078739
 20
5.127952755905512
 30
0.0
 11
3.185039370078739
 21
5.077755905511811
 31
0.0
  0
LINE
  5
30C1
330
1E
100
AcDbEntity
  8
7
100
AcDbLine
 10
3.185039370078739
 20
5.077755905511811
 30
0.0
 11
3.185039370078739
 21
5.030511811023622
 31
0.0
  0
LINE
  5
30C2
330
1E
100
AcDbEntity
  8
7
100
AcDbLine
 10
3.185039370078739
 20
5.030511811023622
 30
0.0
 11
3.185039370078739
 21
4.990157480314961
 31
0.0
  0
LINE
  5
30C3
330
1E
100
AcDbEntity
  8
7
100
AcDbLine
 10
3.185039370078739
 20
4.990157480314961
 30
0.0
 11
3.185039370078739
 21
4.954724409448819
 31
0.0
  0
LINE
  5
30C4
330
1E
100
AcDbEntity
  8
7
100
AcDbLine
 10
3.185039370078739
 20
4.954724409448819
 30
0.0
 11
3.185039370078739
 21
4.927165354330709
 31
0.0
  0
LINE
  5
30C5
330
1E
100
AcDbEntity
  8
7
100
AcDbLine
 10
3.185039370078739
 20
4.927165354330709
 30
0.0
 11
3.185039370078739
 21
4.906496062992125
 31
0.0
  0
LINE
  5
30C6
330
1E
100
AcDbEntity
  8
7
100
AcDbLine
 10
3.185039370078739
 20
5.639763779527559
 30
0.0
 11
3.185039370078739
 21
5.635826771653543
 31
0.0
  0
LINE
  5
30C7
330
1E
100
AcDbEntity
  8
7
100
AcDbLine
 10
3.185039370078739
 20
5.635826771653543
 30
0.0
 11
3.185039370078739
 21
5.623031496062992
 31
0.0
  0
LINE
  5
30C8
330
1E
100
AcDbEntity
  8
7
100
AcDbLine
 10
3.185039370078739
 20
5.623031496062992
 30
0.0
 11
3.185039370078739
 21
5.602362204724409
 31
0.0
  0
LINE
  5
30C9
330
1E
100
AcDbEntity
  8
7
100
AcDbLine
 10
3.24507874015748
 20
5.077755905511811
 30
0.0
 11
3.24507874015748
 21
5.127952755905512
 31
0.0
  0
LINE
  5
30CA
330
1E
100
AcDbEntity
  8
7
100
AcDbLine
 10
3.24507874015748
 20
5.127952755905512
 30
0.0
 11
3.24507874015748
 21
5.181102362204724
 31
0.0
  0
LINE
  5
30CB
330
1E
100
AcDbEntity
  8
7
100
AcDbLine
 10
3.24507874015748
 20
5.181102362204724
 30
0.0
 11
3.24507874015748
 21
5.237204724409449
 31
0.0
  0
LINE
  5
30CC
330
1E
100
AcDbEntity
  8
7
100
AcDbLine
 10
3.24507874015748
 20
5.237204724409449
 30
0.0
 11
3.24507874015748
 21
5.293307086614173
 31
0.0
  0
LINE
  5
30CD
330
1E
100
AcDbEntity
  8
7
100
AcDbLine
 10
3.24507874015748
 20
5.293307086614173
 30
0.0
 11
3.24507874015748
 21
5.348425196850393
 31
0.0
  0
LINE
  5
30CE
330
1E
100
AcDbEntity
  8
7
100
AcDbLine
 10
3.24507874015748
 20
5.348425196850393
 30
0.0
 11
3.24507874015748
 21
5.401574803149606
 31
0.0
  0
LINE
  5
30CF
330
1E
100
AcDbEntity
  8
7
100
AcDbLine
 10
3.24507874015748
 20
5.401574803149606
 30
0.0
 11
3.24507874015748
 21
5.452755905511811
 31
0.0
  0
LINE
  5
30D0
330
1E
100
AcDbEntity
  8
7
100
AcDbLine
 10
3.24507874015748
 20
5.452755905511811
 30
0.0
 11
3.24507874015748
 21
5.499015748031496
 31
0.0
  0
LINE
  5
30D1
330
1E
100
AcDbEntity
  8
7
100
AcDbLine
 10
3.24507874015748
 20
5.499015748031496
 30
0.0
 11
3.24507874015748
 21
5.539370078740157
 31
0.0
  0
LINE
  5
30D2
330
1E
100
AcDbEntity
  8
7
100
AcDbLine
 10
3.24507874015748
 20
5.539370078740157
 30
0.0
 11
3.24507874015748
 21
5.574803149606299
 31
0.0
  0
LINE
  5
30D3
330
1E
100
AcDbEntity
  8
7
100
AcDbLine
 10
3.24507874015748
 20
5.574803149606299
 30
0.0
 11
3.24507874015748
 21
5.602362204724409
 31
0.0
  0
LINE
  5
30D4
330
1E
100
AcDbEntity
  8
7
100
AcDbLine
 10
3.24507874015748
 20
5.602362204724409
 30
0.0
 11
3.24507874015748
 21
5.623031496062992
 31
0.0
  0
LINE
  5
30D5
330
1E
100
AcDbEntity
  8
7
100
AcDbLine
 10
3.24507874015748
 20
5.623031496062992
 30
0.0
 11
3.24507874015748
 21
5.635826771653543
 31
0.0
  0
LINE
  5
30D6
330
1E
100
AcDbEntity
  8
7
100
AcDbLine
 10
3.24507874015748
 20
5.635826771653543
 30
0.0
 11
3.24507874015748
 21
5.639763779527559
 31
0.0
  0
LINE
  5
30D7
330
1E
100
AcDbEntity
  8
7
100
AcDbLine
 10
3.24507874015748
 20
4.889763779527559
 30
0.0
 11
3.24507874015748
 21
4.893700787401574
 31
0.0
  0
LINE
  5
30D8
330
1E
100
AcDbEntity
  8
7
100
AcDbLine
 10
3.24507874015748
 20
4.893700787401574
 30
0.0
 11
3.24507874015748
 21
4.906496062992125
 31
0.0
  0
LINE
  5
30D9
330
1E
100
AcDbEntity
  8
7
100
AcDbLine
 10
3.24507874015748
 20
4.906496062992125
 30
0.0
 11
3.24507874015748
 21
4.927165354330709
 31
0.0
  0
LINE
  5
30DA
330
1E
100
AcDbEntity
  8
7
100
AcDbLine
 10
3.24507874015748
 20
4.927165354330709
 30
0.0
 11
3.24507874015748
 21
4.954724409448819
 31
0.0
  0
LINE
  5
30DB
330
1E
100
AcDbEntity
  8
7
100
AcDbLine
 10
3.24507874015748
 20
4.954724409448819
 30
0.0
 11
3.24507874015748
 21
4.990157480314961
 31
0.0
  0
LINE
  5
30DC
330
1E
100
AcDbEntity
  8
7
100
AcDbLine
 10
3.24507874015748
 20
4.990157480314961
 30
0.0
 11
3.24507874015748
 21
5.030511811023622
 31
0.0
  0
LINE
  5
30DD
330
1E
100
AcDbEntity
  8
7
100
AcDbLine
 10
3.24507874015748
 20
5.030511811023622
 30
0.0
 11
3.24507874015748
 21
5.077755905511811
 31
0.0
  0
LINE
  5
30DE
330
1E
100
AcDbEntity
  8
7
100
AcDbLine
 10
2.793307086614173
 20
5.408464566929134
 30
0.0
 11
2.780511811023622
 21
5.38779527559055
 31
0.0
  0
LINE
  5
30DF
330
1E
100
AcDbEntity
  8
7
100
AcDbLine
 10
2.780511811023622
 20
5.38779527559055
 30
0.0
 11
2.74507874015748
 21
5.325787401574803
 31
0.0
  0
LINE
  5
30E0
330
1E
100
AcDbEntity
  8
7
100
AcDbLine
 10
2.74507874015748
 20
5.325787401574803
 30
0.0
 11
2.709645669291338
 21
5.264763779527559
 31
0.0
  0
LINE
  5
30E1
330
1E
100
AcDbEntity
  8
7
100
AcDbLine
 10
2.881889763779527
 20
4.96751968503937
 30
0.0
 11
2.891732283464566
 21
4.949803149606299
 31
0.0
  0
LINE
  5
30E2
330
1E
100
AcDbEntity
  8
7
100
AcDbLine
 10
2.891732283464566
 20
4.949803149606299
 30
0.0
 11
2.927165354330708
 21
4.888779527559055
 31
0.0
  0
LINE
  5
30E3
330
1E
100
AcDbEntity
  8
7
100
AcDbLine
 10
2.927165354330708
 20
4.888779527559055
 30
0.0
 11
2.96259842519685
 21
4.827755905511811
 31
0.0
  0
LINE
  5
30E4
330
1E
100
AcDbEntity
  8
7
100
AcDbLine
 10
2.709645669291338
 20
5.264763779527559
 30
0.0
 11
2.753937007874015
 21
5.188976377952756
 31
0.0
  0
LINE
  5
30E5
330
1E
100
AcDbEntity
  8
7
100
AcDbLine
 10
2.753937007874015
 20
5.188976377952756
 30
0.0
 11
2.790354330708661
 21
5.125
 31
0.0
  0
LINE
  5
30E6
330
1E
100
AcDbEntity
  8
7
100
AcDbLine
 10
3.301181102362204
 20
4.827755905511811
 30
0.0
 11
3.361220472440944
 21
4.827755905511811
 31
0.0
  0
LINE
  5
30E7
330
1E
100
AcDbEntity
  8
7
100
AcDbLine
 10
3.361220472440944
 20
4.827755905511811
 30
0.0
 11
3.467519685039369
 21
4.827755905511811
 31
0.0
  0
LINE
  5
30E8
330
1E
100
AcDbEntity
  8
7
100
AcDbLine
 10
2.96259842519685
 20
4.827755905511811
 30
0.0
 11
3.026574803149606
 21
4.827755905511811
 31
0.0
  0
LINE
  5
30E9
330
1E
100
AcDbEntity
  8
7
100
AcDbLine
 10
3.026574803149606
 20
4.827755905511811
 30
0.0
 11
3.128937007874015
 21
4.827755905511811
 31
0.0
  0
LINE
  5
30EA
330
1E
100
AcDbEntity
  8
7
100
AcDbLine
 10
3.638779527559055
 20
5.124015748031496
 30
0.0
 11
3.649606299212598
 21
5.141732283464566
 31
0.0
  0
LINE
  5
30EB
330
1E
100
AcDbEntity
  8
7
100
AcDbLine
 10
3.649606299212598
 20
5.141732283464566
 30
0.0
 11
3.685039370078739
 21
5.203740157480314
 31
0.0
  0
LINE
  5
30EC
330
1E
100
AcDbEntity
  8
7
100
AcDbLine
 10
3.685039370078739
 20
5.203740157480314
 30
0.0
 11
3.720472440944881
 21
5.264763779527559
 31
0.0
  0
LINE
  5
30ED
330
1E
100
AcDbEntity
  8
7
100
AcDbLine
 10
3.467519685039369
 20
4.827755905511811
 30
0.0
 11
3.511811023622047
 21
4.903543307086614
 31
0.0
  0
LINE
  5
30EE
330
1E
100
AcDbEntity
  8
7
100
AcDbLine
 10
3.511811023622047
 20
4.903543307086614
 30
0.0
 11
3.548228346456692
 21
4.966535433070866
 31
0.0
  0
LINE
  5
30EF
330
1E
100
AcDbEntity
  8
7
100
AcDbLine
 10
3.5501968503937
 20
5.558070866141732
 30
0.0
 11
3.538385826771653
 21
5.579724409448819
 31
0.0
  0
LINE
  5
30F0
330
1E
100
AcDbEntity
  8
7
100
AcDbLine
 10
3.538385826771653
 20
5.579724409448819
 30
0.0
 11
3.502952755905511
 21
5.640748031496062
 31
0.0
  0
LINE
  5
30F1
330
1E
100
AcDbEntity
  8
7
100
AcDbLine
 10
3.720472440944881
 20
5.264763779527559
 30
0.0
 11
3.676181102362204
 21
5.341535433070866
 31
0.0
  0
LINE
  5
30F2
330
1E
100
AcDbEntity
  8
7
100
AcDbLine
 10
3.676181102362204
 20
5.341535433070866
 30
0.0
 11
3.636811023622047
 21
5.408464566929134
 31
0.0
  0
LINE
  5
30F3
330
1E
100
AcDbEntity
  8
7
100
AcDbLine
 10
3.125
 20
5.702755905511811
 30
0.0
 11
3.111220472440944
 21
5.702755905511811
 31
0.0
  0
LINE
  5
30F4
330
1E
100
AcDbEntity
  8
7
100
AcDbLine
 10
3.111220472440944
 20
5.702755905511811
 30
0.0
 11
3.026574803149606
 21
5.702755905511811
 31
0.0
  0
LINE
  5
30F5
330
1E
100
AcDbEntity
  8
7
100
AcDbLine
 10
3.026574803149606
 20
5.702755905511811
 30
0.0
 11
2.96259842519685
 21
5.702755905511811
 31
0.0
  0
LINE
  5
30F6
330
1E
100
AcDbEntity
  8
7
100
AcDbLine
 10
3.467519685039369
 20
5.702755905511811
 30
0.0
 11
3.361220472440944
 21
5.702755905511811
 31
0.0
  0
LINE
  5
30F7
330
1E
100
AcDbEntity
  8
7
100
AcDbLine
 10
3.361220472440944
 20
5.702755905511811
 30
0.0
 11
3.307086614173228
 21
5.702755905511811
 31
0.0
  0
LINE
  5
30F8
330
1E
100
AcDbEntity
  8
7
100
AcDbLine
 10
3.24507874015748
 20
4.889763779527559
 30
0.0
 11
3.251968503937007
 21
4.892716535433071
 31
0.0
  0
LINE
  5
30F9
330
1E
100
AcDbEntity
  8
7
100
AcDbLine
 10
3.251968503937007
 20
4.892716535433071
 30
0.0
 11
3.254921259842519
 21
4.899606299212598
 31
0.0
  0
LINE
  5
30FA
330
1E
100
AcDbEntity
  8
7
100
AcDbLine
 10
3.254921259842519
 20
5.629921259842519
 30
0.0
 11
3.251968503937007
 21
5.636811023622047
 31
0.0
  0
LINE
  5
30FB
330
1E
100
AcDbEntity
  8
7
100
AcDbLine
 10
3.251968503937007
 20
5.636811023622047
 30
0.0
 11
3.24507874015748
 21
5.639763779527559
 31
0.0
  0
LINE
  5
30FC
330
1E
100
AcDbEntity
  8
7
100
AcDbLine
 10
3.185039370078739
 20
5.639763779527559
 30
0.0
 11
3.178149606299212
 21
5.636811023622047
 31
0.0
  0
LINE
  5
30FD
330
1E
100
AcDbEntity
  8
7
100
AcDbLine
 10
3.178149606299212
 20
5.636811023622047
 30
0.0
 11
3.1751968503937
 21
5.629921259842519
 31
0.0
  0
LINE
  5
30FE
330
1E
100
AcDbEntity
  8
7
100
AcDbLine
 10
3.1751968503937
 20
4.899606299212598
 30
0.0
 11
3.178149606299212
 21
4.892716535433071
 31
0.0
  0
LINE
  5
30FF
330
1E
100
AcDbEntity
  8
7
100
AcDbLine
 10
3.178149606299212
 20
4.892716535433071
 30
0.0
 11
3.185039370078739
 21
4.889763779527559
 31
0.0
  0
ENDSEC
  0
SECTION
  2
OBJECTS
  0
DICTIONARY
  5
C
330
0
100
AcDbDictionary
  3
ACAD_GROUP
350
D
  3
ACAD_MLINESTYLE
350
16
  3
ACAD_PLOTSETTINGS
350
18
  3
ACAD_LAYOUT
350
19
1001
ACAD
1000
TREAT_AS_HARD
1070
     0
  0
DICTIONARY
  5
4005
330
1E
100
AcDbDictionary
  3
ACAD_LAYOUTSELFREF
350
4006
  0
DICTIONARY
  5
4003
330
1A
100
AcDbDictionary
  3
ACAD_LAYOUTSELFREF
350
4004
  0
DICTIONARY
  5
D
102
{ACAD_REACTORS
330
C
102
}
330
C
100
AcDbDictionary
1001
ACAD
1000
TREAT_AS_HARD
1070
     0
  0
DICTIONARY
  5
16
102
{ACAD_REACTORS
330
C
102
}
330
C
100
AcDbDictionary
  3
STANDARD
350
17
1001
ACAD
1000
TREAT_AS_HARD
1070
     0
  0
DICTIONARY
  5
18
102
{ACAD_REACTORS
330
C
102
}
330
C
100
AcDbDictionary
1001
ACAD
1000
TREAT_AS_HARD
1070
     0
  0
DICTIONARY
  5
19
102
{ACAD_REACTORS
330
C
102
}
330
C
100
AcDbDictionary
1001
ACAD
1000
TREAT_AS_HARD
1070
     0
  0
XRECORD
  5
4006
102
{ACAD_REACTORS
330
4005
102
}
330
4005
100
AcDbXrecord
340
1E
  0
XRECORD
  5
4004
102
{ACAD_REACTORS
330
4003
102
}
330
4003
100
AcDbXrecord
340
1A
  0
MLINESTYLE
  5
17
102
{ACAD_REACTORS
330
16
102
}
330
16
100
AcDbMlineStyle
  2
STANDARD
 70
     0
  3

 62
   256
 51
90.0
 52
90.0
 71
     2
 49
0.5
 62
   256
  6
BYLAYER
 49
-0.5
 62
   256
  6
BYLAYER
  0
ENDSEC
  0
EOF
