  0
SECTION
  2
HEADER
  9
$ACADVER
  1
AC1014
  9
$ACADMAINTVER
 70
     9
  9
$DWGCODEPAGE
  3
ANSI_1252
  9
$INSBASE
 10
0.0
 20
0.0
 30
0.0
  9
$EXTMIN
 10
24.15025329589843
 20
7.171687126159667
 30
0.0
  9
$EXTMAX
 10
71.27855755388736
 20
61.05741119384766
 30
0.0
  9
$LIMMIN
 10
-0.5
 20
-0.5
  9
$LIMMAX
 10
5.0
 20
5.0
  9
$ORTHOMODE
 70
     0
  9
$REGENMODE
 70
     1
  9
$FILLMODE
 70
     1
  9
$QTEXTMODE
 70
     0
  9
$MIRRTEXT
 70
     1
  9
$DRAGMODE
 70
     2
  9
$LTSCALE
 40
1.0
  9
$OSMODE
 70
    37
  9
$ATTMODE
 70
     1
  9
$TEXTSIZE
 40
0.0
  9
$TRACEWID
 40
0.05
  9
$TEXTSTYLE
  7
STANDARD
  9
$CLAYER
  8
0
  9
$CELTYPE
  6
CONTINUOUS
  9
$CECOLOR
 62
   256
  9
$CELTSCALE
 40
1.0
  9
$DELOBJ
 70
     1
  9
$DISPSILH
 70
     0
  9
$DIMSCALE
 40
1.0
  9
$DIMASZ
 40
0.18
  9
$DIMEXO
 40
0.0625
  9
$DIMDLI
 40
0.38
  9
$DIMRND
 40
0.0
  9
$DIMDLE
 40
0.0
  9
$DIMEXE
 40
0.18
  9
$DIMTP
 40
0.0
  9
$DIMTM
 40
0.0
  9
$DIMTXT
 40
0.18
  9
$DIMCEN
 40
0.09
  9
$DIMTSZ
 40
0.0
  9
$DIMTOL
 70
     0
  9
$DIMLIM
 70
     0
  9
$DIMTIH
 70
     1
  9
$DIMTOH
 70
     1
  9
$DIMSE1
 70
     0
  9
$DIMSE2
 70
     0
  9
$DIMTAD
 70
     0
  9
$DIMZIN
 70
     0
  9
$DIMBLK
  1

  9
$DIMASO
 70
     1
  9
$DIMSHO
 70
     1
  9
$DIMPOST
  1

  9
$DIMAPOST
  1

  9
$DIMALT
 70
     0
  9
$DIMALTD
 70
     2
  9
$DIMALTF
 40
25.4
  9
$DIMLFAC
 40
1.0
  9
$DIMTOFL
 70
     0
  9
$DIMTVP
 40
0.0
  9
$DIMTIX
 70
     0
  9
$DIMSOXD
 70
     0
  9
$DIMSAH
 70
     0
  9
$DIMBLK1
  1

  9
$DIMBLK2
  1

  9
$DIMSTYLE
  2
STANDARD
  9
$DIMCLRD
 70
     0
  9
$DIMCLRE
 70
     0
  9
$DIMCLRT
 70
     0
  9
$DIMTFAC
 40
1.0
  9
$DIMGAP
 40
0.09
  9
$DIMJUST
 70
     0
  9
$DIMSD1
 70
     0
  9
$DIMSD2
 70
     0
  9
$DIMTOLJ
 70
     1
  9
$DIMTZIN
 70
     0
  9
$DIMALTZ
 70
     0
  9
$DIMALTTZ
 70
     0
  9
$DIMFIT
 70
     3
  9
$DIMUPT
 70
     0
  9
$DIMUNIT
 70
     2
  9
$DIMDEC
 70
     4
  9
$DIMTDEC
 70
     4
  9
$DIMALTU
 70
     2
  9
$DIMALTTD
 70
     2
  9
$DIMTXSTY
  7
STANDARD
  9
$DIMAUNIT
 70
     0
  9
$LUNITS
 70
     2
  9
$LUPREC
 70
     4
  9
$SKETCHINC
 40
0.1
  9
$FILLETRAD
 40
0.0
  9
$AUNITS
 70
     0
  9
$AUPREC
 70
     0
  9
$MENU
  1
acad
  9
$ELEVATION
 40
0.0
  9
$PELEVATION
 40
0.0
  9
$THICKNESS
 40
0.0
  9
$LIMCHECK
 70
     0
  9
$BLIPMODE
 70
     0
  9
$CHAMFERA
 40
0.0
  9
$CHAMFERB
 40
0.0
  9
$CHAMFERC
 40
0.0
  9
$CHAMFERD
 40
0.0
  9
$SKPOLY
 70
     0
  9
$TDCREATE
 40
2454091.444060150
  9
$TDUPDATE
 40
2454091.445871493
  9
$TDINDWG
 40
0.0018294213
  9
$TDUSRTIMER
 40
0.0018294213
  9
$USRTIMER
 70
     1
  9
$ANGBASE
 50
0.0
  9
$ANGDIR
 70
     0
  9
$PDMODE
 70
     0
  9
$PDSIZE
 40
0.0
  9
$PLINEWID
 40
0.0
  9
$COORDS
 70
     1
  9
$SPLFRAME
 70
     0
  9
$SPLINETYPE
 70
     6
  9
$SPLINESEGS
 70
     8
  9
$ATTDIA
 70
     0
  9
$ATTREQ
 70
     1
  9
$HANDLING
 70
-16383
  9
$HANDSEED
  5
3D8
  9
$SURFTAB1
 70
     6
  9
$SURFTAB2
 70
     6
  9
$SURFTYPE
 70
     6
  9
$SURFU
 70
     6
  9
$SURFV
 70
     6
  9
$UCSNAME
  2

  9
$UCSORG
 10
0.0
 20
0.0
 30
0.0
  9
$UCSXDIR
 10
1.0
 20
0.0
 30
0.0
  9
$UCSYDIR
 10
0.0
 20
1.0
 30
0.0
  9
$PUCSNAME
  2

  9
$PUCSORG
 10
0.0
 20
0.0
 30
0.0
  9
$PUCSXDIR
 10
1.0
 20
0.0
 30
0.0
  9
$PUCSYDIR
 10
0.0
 20
1.0
 30
0.0
  9
$USERI1
 70
     0
  9
$USERI2
 70
     0
  9
$USERI3
 70
     0
  9
$USERI4
 70
     0
  9
$USERI5
 70
     0
  9
$USERR1
 40
0.0
  9
$USERR2
 40
0.0
  9
$USERR3
 40
0.0
  9
$USERR4
 40
0.0
  9
$USERR5
 40
0.0
  9
$WORLDVIEW
 70
     1
  9
$SHADEDGE
 70
     3
  9
$SHADEDIF
 70
    70
  9
$TILEMODE
 70
     1
  9
$MAXACTVP
 70
    64
  9
$PINSBASE
 10
0.0
 20
0.0
 30
0.0
  9
$PLIMCHECK
 70
     0
  9
$PEXTMIN
 10
1.000000000000000E+20
 20
1.000000000000000E+20
 30
1.000000000000000E+20
  9
$PEXTMAX
 10
-1.000000000000000E+20
 20
-1.000000000000000E+20
 30
-1.000000000000000E+20
  9
$PLIMMIN
 10
-0.666666826863927
 20
-0.6666666579058789
  9
$PLIMMAX
 10
10.33333293284018
 20
7.833333101798229
  9
$UNITMODE
 70
     0
  9
$VISRETAIN
 70
     0
  9
$PLINEGEN
 70
     1
  9
$PSLTSCALE
 70
     0
  9
$TREEDEPTH
 70
  3020
  9
$PICKSTYLE
 70
     1
  9
$CMLSTYLE
  2
STANDARD
  9
$CMLJUST
 70
     0
  9
$CMLSCALE
 40
1.0
  9
$PROXYGRAPHICS
 70
     0
  9
$MEASUREMENT
 70
     0
  0
ENDSEC
  0
SECTION
  2
CLASSES
  0
CLASS
  1
LWPOLYLINE
  2
AcDbPolyline
  3
AutoCAD 2000
 90
        0
280
     0
281
     1
  0
CLASS
  1
IMAGE
  2
AcDbRasterImage
  3
ISM
 90
      127
280
     0
281
     1
  0
CLASS
  1
OLE2FRAME
  2
AcDbOle2Frame
  3
AutoCAD 2000
 90
        0
280
     0
281
     1
  0
CLASS
  1
HATCH
  2
AcDbHatch
  3
AutoCAD 2000
 90
        0
280
     0
281
     1
  0
CLASS
  1
DICTIONARYVAR
  2
AcDbDictionaryVar
  3
AutoCAD 2000
 90
        0
280
     0
281
     0
  0
CLASS
  1
RASTERVARIABLES
  2
AcDbRasterVariables
  3
ISM
 90
        0
280
     0
281
     0
  0
CLASS
  1
IMAGEDEF
  2
AcDbRasterImageDef
  3
ISM
 90
        0
280
     0
281
     0
  0
CLASS
  1
IMAGEDEF_REACTOR
  2
AcDbRasterImageDefReactor
  3
ISM
 90
        1
280
     0
281
     0
  0
CLASS
  1
IDBUFFER
  2
AcDbIdBuffer
  3
AutoCAD 2000
 90
        0
280
     0
281
     0
  0
CLASS
  1
SPATIAL_FILTER
  2
AcDbSpatialFilter
  3
AutoCAD 2000
 90
        0
280
     0
281
     0
  0
CLASS
  1
XRECORD
  2
AcDbXrecord
  3
AutoCAD 2000
 90
        0
280
     0
281
     0
  0
CLASS
  1
SORTENTSTABLE
  2
AcDbSortentsTable
  3
AutoCAD 2000
 90
        0
280
     0
281
     0
  0
CLASS
  1
LAYER_INDEX
  2
AcDbLayerIndex
  3
AutoCAD 2000
 90
        0
280
     0
281
     0
  0
CLASS
  1
SPATIAL_INDEX
  2
AcDbSpatialIndex
  3
AutoCAD 2000
 90
        0
280
     0
281
     0
  0
CLASS
  1
OBJECT_PTR
  2
CAseDLPNTableRecord
  3
ASE-LPNTableRecord
 90
        1
280
     0
281
     0
  0
CLASS
  1
LAYOUT
  2
AcDbLayout
  3
AutoCAD 2000
 90
        0
280
     0
281
     0
  0
CLASS
  1
PLOTSETTINGS
  2
AcDbPlotSettings
  3
AutoCAD 2000
 90
        0
280
     0
281
     0
  0
CLASS
  1
ACDBDICTIONARYWDFLT
  2
AcDbDictionaryWithDefault
  3
AutoCAD 2000
 90
        0
280
     0
281
     0
  0
CLASS
  1
ACDBPLACEHOLDER
  2
AcDbPlaceHolder
  3
AutoCAD 2000
 90
        0
280
     0
281
     0
  0
CLASS
  1
VBA_PROJECT
  2
AcDbVbaProject
  3
acadvba
 90
        0
280
     0
281
     0
  0
CLASS
  1
WIPEOUT
  2
AcDbWipeout
  3
WipeOut|AutoCAD Express Tool|expresstools@autodesk.com
 90
      127
280
     0
281
     1
  0
CLASS
  1
WIPEOUTVARIABLES
  2
AcDbWipeoutVariables
  3
WipeOut|AutoCAD Express Tool|expresstools@autodesk.com
 90
        0
280
     0
281
     0
  0
CLASS
  1
RTEXT
  2
RText
  3
RText|AutoCAD Express Tool|expresstools@autodesk.com
 90
        0
280
     0
281
     1
  0
CLASS
  1
ARCALIGNEDTEXT
  2
AcDbArcAlignedText
  3
ATEXT|AutoCAD Express Tool|expresstools@autodesk.com
 90
        0
280
     0
281
     1
  0
CLASS
  1
ACAD_PROXY_OBJECT_WRAPPER
  2
AcDbProxyObjectWrapper
  3
AutoCAD 2000
 90
        0
280
     0
281
     0
  0
CLASS
  1
LONG_TRANSACTION
  2
AcDbLongTransaction
  3
AutoCAD 2000
 90
        0
280
     0
281
     0
  0
CLASS
  1
LWPOLYLINE
  2
AcDbPolyline
  3
AutoCAD 2000
 90
        0
280
     0
281
     1
  0
CLASS
  1
HATCH
  2
AcDbHatch
  3
AutoCAD 2000
 90
        0
280
     0
281
     1
  0
CLASS
  1
XRECORD
  2
AcDbXrecord
  3
AutoCAD 2000
 90
        0
280
     0
281
     0
  0
ENDSEC
  0
SECTION
  2
TABLES
  0
TABLE
  2
VPORT
  5
7
330
0
100
AcDbSymbolTable
 70
    18
  0
VPORT
  5
328
330
7
100
AcDbSymbolTableRecord
100
AcDbViewportTableRecord
  2
L1
 70
     0
 10
0.0
 20
0.0
 11
1.0
 21
1.0
 12
0.0
 22
0.0
 13
0.0
 23
0.0
 14
1.0
 24
1.0
 15
0.0
 25
0.0
 16
0.7188730927569434
 26
-0.5850486126764432
 36
0.3754192287502549
 17
0.0
 27
0.0
 37
0.0
 40
53.49628531230995
 41
0.688564
 42
50.0
 43
26.5766438943501
 44
-26.5766438943501
 50
0.0
 51
0.0
 71
    16
 72
   100
 73
     1
 74
     1
 75
     0
 76
     0
 77
     0
 78
     0
  0
VPORT
  5
329
330
7
100
AcDbSymbolTableRecord
100
AcDbViewportTableRecord
  2
L2
 70
     0
 10
0.0
 20
0.0
 11
0.5
 21
1.0
 12
0.0
 22
0.0
 13
0.0
 23
0.0
 14
1.0
 24
1.0
 15
0.0
 25
0.0
 16
0.0
 26
-1.0
 36
0.0
 17
0.0
 27
0.0
 37
0.0
 40
51.85686613531728
 41
0.688564
 42
50.0
 43
26.50214196425025
 44
-26.50214196425025
 50
0.0
 51
0.0
 71
    16
 72
   100
 73
     1
 74
     1
 75
     0
 76
     0
 77
     0
 78
     0
  0
VPORT
  5
32A
330
7
100
AcDbSymbolTableRecord
100
AcDbViewportTableRecord
  2
L2
 70
     0
 10
0.5
 20
0.0
 11
1.0
 21
1.0
 12
0.0
 22
0.0
 13
0.0
 23
0.0
 14
1.0
 24
1.0
 15
0.0
 25
0.0
 16
1.0
 26
0.0
 36
0.0
 17
0.0
 27
0.0
 37
0.0
 40
51.85686613531728
 41
0.688564
 42
50.0
 43
26.35512832173702
 44
-26.35512832173702
 50
0.0
 51
0.0
 71
    16
 72
   100
 73
     1
 74
     1
 75
     0
 76
     0
 77
     0
 78
     0
  0
VPORT
  5
32B
330
7
100
AcDbSymbolTableRecord
100
AcDbViewportTableRecord
  2
L3
 70
     0
 10
0.0
 20
0.5
 11
1.0
 21
1.0
 12
0.0
 22
0.0
 13
0.0
 23
0.0
 14
1.0
 24
1.0
 15
0.0
 25
0.0
 16
0.0
 26
0.0
 36
1.0
 17
0.0
 27
0.0
 37
0.0
 40
9.446512057086614
 41
0.688564
 42
50.0
 43
25.92843306765864
 44
-25.92843306765864
 50
0.0
 51
0.0
 71
    16
 72
   100
 73
     1
 74
     1
 75
     0
 76
     0
 77
     0
 78
     0
  0
VPORT
  5
32C
330
7
100
AcDbSymbolTableRecord
100
AcDbViewportTableRecord
  2
L3
 70
     0
 10
0.0
 20
0.0
 11
1.0
 21
0.5
 12
0.0
 22
0.0
 13
0.0
 23
0.0
 14
1.0
 24
1.0
 15
0.0
 25
0.0
 16
0.0
 26
-1.0
 36
0.0
 17
0.0
 27
0.0
 37
0.0
 40
51.85686613531728
 41
0.688564
 42
50.0
 43
26.50214196425025
 44
-26.50214196425025
 50
0.0
 51
0.0
 71
    16
 72
   100
 73
     1
 74
     1
 75
     0
 76
     0
 77
     0
 78
     0
  0
VPORT
  5
32D
330
7
100
AcDbSymbolTableRecord
100
AcDbViewportTableRecord
  2
L4
 70
     0
 10
0.0
 20
0.5
 11
0.5
 21
1.0
 12
0.0
 22
0.0
 13
0.0
 23
0.0
 14
1.0
 24
1.0
 15
0.0
 25
0.0
 16
0.0
 26
0.0
 36
1.0
 17
0.0
 27
0.0
 37
0.0
 40
9.446512057086614
 41
0.688564
 42
50.0
 43
25.92843306765864
 44
-25.92843306765864
 50
0.0
 51
0.0
 71
    16
 72
   100
 73
     1
 74
     1
 75
     0
 76
     0
 77
     0
 78
     0
  0
VPORT
  5
32E
330
7
100
AcDbSymbolTableRecord
100
AcDbViewportTableRecord
  2
L4
 70
     0
 10
0.0
 20
0.0
 11
0.5
 21
0.5
 12
0.0
 22
0.0
 13
0.0
 23
0.0
 14
1.0
 24
1.0
 15
0.0
 25
0.0
 16
0.0
 26
-1.0
 36
0.0
 17
0.0
 27
0.0
 37
0.0
 40
51.85686613531728
 41
0.688564
 42
50.0
 43
26.50214196425025
 44
-26.50214196425025
 50
0.0
 51
0.0
 71
    16
 72
   100
 73
     1
 74
     1
 75
     0
 76
     0
 77
     0
 78
     0
  0
VPORT
  5
32F
330
7
100
AcDbSymbolTableRecord
100
AcDbViewportTableRecord
  2
L4
 70
     0
 10
0.5
 20
0.0
 11
1.0
 21
0.5
 12
0.0
 22
0.0
 13
0.0
 23
0.0
 14
1.0
 24
1.0
 15
0.0
 25
0.0
 16
1.0
 26
0.0
 36
0.0
 17
0.0
 27
0.0
 37
0.0
 40
51.85686613531728
 41
0.688564
 42
50.0
 43
26.35512832173702
 44
-26.35512832173702
 50
0.0
 51
0.0
 71
    16
 72
   100
 73
     1
 74
     1
 75
     0
 76
     0
 77
     0
 78
     0
  0
VPORT
  5
330
330
7
100
AcDbSymbolTableRecord
100
AcDbViewportTableRecord
  2
L4
 70
     0
 10
0.5
 20
0.5
 11
1.0
 21
1.0
 12
0.0
 22
0.0
 13
0.0
 23
0.0
 14
1.0
 24
1.0
 15
0.0
 25
0.0
 16
0.5773502691896259
 26
-0.5773502691896259
 36
0.5773502691896259
 17
0.0
 27
0.0
 37
0.0
 40
50.67556274293609
 41
0.688564
 42
50.0
 43
26.34582401990803
 44
-26.34582401990803
 50
0.0
 51
0.0
 71
    16
 72
   100
 73
     1
 74
     1
 75
     0
 76
     0
 77
     0
 78
     0
  0
VPORT
  5
331
330
7
100
AcDbSymbolTableRecord
100
AcDbViewportTableRecord
  2
L6
 70
     0
 10
0.0
 20
0.5
 11
0.3333333333333334
 21
1.0
 12
0.0
 22
0.0
 13
0.0
 23
0.0
 14
1.0
 24
1.0
 15
0.0
 25
0.0
 16
0.7188730927569434
 26
-0.5850486126764432
 36
0.3754192287502549
 17
0.0
 27
0.0
 37
0.0
 40
53.49628531230995
 41
0.688564
 42
50.0
 43
26.5766438943501
 44
-26.5766438943501
 50
0.0
 51
0.0
 71
    16
 72
   100
 73
     1
 74
     1
 75
     0
 76
     0
 77
     0
 78
     0
  0
VPORT
  5
332
330
7
100
AcDbSymbolTableRecord
100
AcDbViewportTableRecord
  2
L6
 70
     0
 10
0.0
 20
0.0
 11
0.3333333333333334
 21
0.5
 12
0.0
 22
0.0
 13
0.0
 23
0.0
 14
1.0
 24
1.0
 15
0.0
 25
0.0
 16
-1.0
 26
0.0
 36
0.0
 17
0.0
 27
0.0
 37
0.0
 40
51.85686613531728
 41
0.688564
 42
50.0
 43
26.35512832173702
 44
-26.35512832173702
 50
0.0
 51
0.0
 71
    16
 72
   100
 73
     1
 74
     1
 75
     0
 76
     0
 77
     0
 78
     0
  0
VPORT
  5
333
330
7
100
AcDbSymbolTableRecord
100
AcDbViewportTableRecord
  2
L6
 70
     0
 10
0.3333333333333334
 20
0.5
 11
0.6666666666666666
 21
1.0
 12
0.0
 22
0.0
 13
0.0
 23
0.0
 14
1.0
 24
1.0
 15
0.0
 25
0.0
 16
0.0
 26
0.0
 36
1.0
 17
0.0
 27
0.0
 37
0.0
 40
9.446512057086614
 41
0.688564
 42
50.0
 43
25.92843306765864
 44
-25.92843306765864
 50
0.0
 51
0.0
 71
    16
 72
   100
 73
     1
 74
     1
 75
     0
 76
     0
 77
     0
 78
     0
  0
VPORT
  5
334
330
7
100
AcDbSymbolTableRecord
100
AcDbViewportTableRecord
  2
L6
 70
     0
 10
0.3333333333333334
 20
0.0
 11
0.6666666666666666
 21
0.5
 12
0.0
 22
0.0
 13
0.0
 23
0.0
 14
1.0
 24
1.0
 15
0.0
 25
0.0
 16
0.0
 26
-1.0
 36
0.0
 17
0.0
 27
0.0
 37
0.0
 40
51.85686613531728
 41
0.688564
 42
50.0
 43
26.50214196425025
 44
-26.50214196425025
 50
0.0
 51
0.0
 71
    16
 72
   100
 73
     1
 74
     1
 75
     0
 76
     0
 77
     0
 78
     0
  0
VPORT
  5
335
330
7
100
AcDbSymbolTableRecord
100
AcDbViewportTableRecord
  2
L6
 70
     0
 10
0.6666666666666666
 20
0.5
 11
1.0
 21
1.0
 12
0.0
 22
0.0
 13
0.0
 23
0.0
 14
1.0
 24
1.0
 15
0.0
 25
0.0
 16
0.5773502691896259
 26
-0.5773502691896259
 36
0.5773502691896259
 17
0.0
 27
0.0
 37
0.0
 40
50.67556274293609
 41
0.688564
 42
50.0
 43
26.34582401990803
 44
-26.34582401990803
 50
0.0
 51
0.0
 71
    16
 72
   100
 73
     1
 74
     1
 75
     0
 76
     0
 77
     0
 78
     0
  0
VPORT
  5
336
330
7
100
AcDbSymbolTableRecord
100
AcDbViewportTableRecord
  2
L6
 70
     0
 10
0.6666666666666666
 20
0.0
 11
1.0
 21
0.5
 12
0.0
 22
0.0
 13
0.0
 23
0.0
 14
1.0
 24
1.0
 15
0.0
 25
0.0
 16
1.0
 26
0.0
 36
0.0
 17
0.0
 27
0.0
 37
0.0
 40
51.85686613531728
 41
0.688564
 42
50.0
 43
26.35512832173702
 44
-26.35512832173702
 50
0.0
 51
0.0
 71
    16
 72
   100
 73
     1
 74
     1
 75
     0
 76
     0
 77
     0
 78
     0
  0
VPORT
  5
3B2
330
7
100
AcDbSymbolTableRecord
100
AcDbViewportTableRecord
  2
*ACTIVE
 70
     0
 10
0.0
 20
0.0
 11
1.0
 21
1.0
 12
47.7144054248929
 22
34.11454916000366
 13
0.0
 23
0.0
 14
1.0
 24
1.0
 15
0.0
 25
0.0
 16
0.0
 26
0.0
 36
1.0
 17
0.0
 27
0.0
 37
0.0
 40
54.30236626408763
 41
1.512258064516128
 42
50.0
 43
26.5766438943501
 44
-26.5766438943501
 50
0.0
 51
0.0
 71
    16
 72
   100
 73
     1
 74
     1
 75
     0
 76
     0
 77
     0
 78
     0
  0
ENDTAB
  0
TABLE
  2
LTYPE
  5
4
330
0
100
AcDbSymbolTable
 70
     7
  0
LTYPE
  5
11
330
4
100
AcDbSymbolTableRecord
100
AcDbLinetypeTableRecord
  2
BYBLOCK
 70
     0
  3

 72
    65
 73
     0
 40
0.0
  0
LTYPE
  5
12
330
4
100
AcDbSymbolTableRecord
100
AcDbLinetypeTableRecord
  2
BYLAYER
 70
     0
  3

 72
    65
 73
     0
 40
0.0
  0
LTYPE
  5
13
330
4
100
AcDbSymbolTableRecord
100
AcDbLinetypeTableRecord
  2
CONTINUOUS
 70
     0
  3
Solid line
 72
    65
 73
     0
 40
0.0
  0
LTYPE
  5
24
330
4
100
AcDbSymbolTableRecord
100
AcDbLinetypeTableRecord
  2
DASHED
 70
     0
  3
__ __ __ __ __ __ __ __ __
 72
    65
 73
     2
 40
25.72
 49
12.86
 74
     0
 49
-12.86
 74
     0
  0
LTYPE
  5
25
330
4
100
AcDbSymbolTableRecord
100
AcDbLinetypeTableRecord
  2
HIDDEN
 70
     0
  3
_ _ _ _ _ _ _ _ _ _ _ _ _ _ _
 72
    65
 73
     2
 40
0.5
 49
0.25
 74
     0
 49
-0.25
 74
     0
  0
LTYPE
  5
26
330
4
100
AcDbSymbolTableRecord
100
AcDbLinetypeTableRecord
  2
PHANTOM
 70
     0
  3
____ _ _ ____ _ _ _____ _ _ ____
 72
    65
 73
     6
 40
50.5
 49
18.0
 74
     0
 49
-6.5
 74
     0
 49
6.5
 74
     0
 49
-6.5
 74
     0
 49
6.5
 74
     0
 49
-6.5
 74
     0
  0
LTYPE
  5
27
330
4
100
AcDbSymbolTableRecord
100
AcDbLinetypeTableRecord
  2
CENTER
 70
     0
  3
____ _ ____ _ ____ _ ____
 72
    65
 73
     4
 40
47.5
 49
22.0
 74
     0
 49
-8.5
 74
     0
 49
8.5
 74
     0
 49
-8.5
 74
     0
  0
LTYPE
  5
28
330
4
100
AcDbSymbolTableRecord
100
AcDbLinetypeTableRecord
  2
DOT
 70
     0
  3
.........................
 72
    65
 73
     2
 40
10.0
 49
0.0
 74
     0
 49
-10.0
 74
     0
  0
LTYPE
  5
29
330
4
100
AcDbSymbolTableRecord
100
AcDbLinetypeTableRecord
  2
DASHDOT
 70
     0
  3
_._._._._._._._._._._._._._._._.
 72
    65
 73
     4
 40
70.0
 49
31.0
 74
     0
 49
-13.0
 74
     0
 49
13.0
 74
     0
 49
-13.0
 74
     0
  0
ENDTAB
  0
TABLE
  2
LAYER
  5
2
330
0
100
AcDbSymbolTable
 70
     2
  0
LAYER
  5
14
330
2
100
AcDbSymbolTableRecord
100
AcDbLayerTableRecord
  2
0
 70
     0
 62
     7
  6
CONTINUOUS
  0
LAYER
  5
2B
330
2
100
AcDbSymbolTableRecord
100
AcDbLayerTableRecord
  2
TFR-TRI
 70
     0
 62
     7
  6
CONTINUOUS
  0
ENDTAB
  0
TABLE
  2
STYLE
  5
3
330
0
100
AcDbSymbolTable
 70
     1
  0
STYLE
  5
17
330
3
100
AcDbSymbolTableRecord
100
AcDbTextStyleTableRecord
  2
STANDARD
 70
     0
 40
0.0
 41
1.0
 50
0.0
 71
     0
 42
0.0
  3
txt
  4

  0
ENDTAB
  0
TABLE
  2
VIEW
  5
5
330
0
100
AcDbSymbolTable
 70
     8
  0
VIEW
  5
31F
330
5
100
AcDbSymbolTableRecord
100
AcDbViewTableRecord
  2
TOP
 70
     0
 40
9.446512057086614
 10
0.0
 20
0.0
 41
10.96902682086614
 11
0.0
 21
0.0
 31
1.0
 12
0.0
 22
0.0
 32
0.0
 42
50.0
 43
25.92843306765864
 44
-25.92843306765864
 50
0.0
 71
    16
  0
VIEW
  5
320
330
5
100
AcDbSymbolTableRecord
100
AcDbViewTableRecord
  2
FRONT
 70
     0
 40
51.85686613531728
 10
0.0
 20
0.0
 41
10.96902682086614
 11
0.0
 21
-1.0
 31
0.0
 12
0.0
 22
0.0
 32
0.0
 42
50.0
 43
26.50214196425025
 44
-26.50214196425025
 50
0.0
 71
    16
  0
VIEW
  5
321
330
5
100
AcDbSymbolTableRecord
100
AcDbViewTableRecord
  2
RIGHT
 70
     0
 40
51.85686613531728
 10
0.0
 20
0.0
 41
9.446512057086614
 11
1.0
 21
0.0
 31
0.0
 12
0.0
 22
0.0
 32
0.0
 42
50.0
 43
26.35512832173702
 44
-26.35512832173702
 50
0.0
 71
    16
  0
VIEW
  5
322
330
5
100
AcDbSymbolTableRecord
100
AcDbViewTableRecord
  2
BACK
 70
     0
 40
51.85686613531728
 10
0.0
 20
0.0
 41
10.96902682086614
 11
0.0
 21
1.0
 31
0.0
 12
0.0
 22
0.0
 32
0.0
 42
50.0
 43
26.50214196425025
 44
-26.50214196425025
 50
0.0
 71
    16
  0
VIEW
  5
323
330
5
100
AcDbSymbolTableRecord
100
AcDbViewTableRecord
  2
BOTTOM
 70
     0
 40
9.446512057086614
 10
0.0
 20
0.0
 41
10.96902682086614
 11
0.0
 21
0.0
 31
-1.0
 12
0.0
 22
0.0
 32
0.0
 42
50.0
 43
25.92843306765864
 44
-25.92843306765864
 50
180.0
 71
    16
  0
VIEW
  5
324
330
5
100
AcDbSymbolTableRecord
100
AcDbViewTableRecord
  2
LEFT
 70
     0
 40
51.85686613531728
 10
0.0
 20
0.0
 41
9.446512057086614
 11
-1.0
 21
0.0
 31
0.0
 12
0.0
 22
0.0
 32
0.0
 42
50.0
 43
26.35512832173702
 44
-26.35512832173702
 50
0.0
 71
    16
  0
VIEW
  5
325
330
5
100
AcDbSymbolTableRecord
100
AcDbViewTableRecord
  2
TFR-ISO
 70
     0
 40
50.67556274293609
 10
0.0
 20
0.0
 41
14.43596598217799
 11
0.5773502691896259
 21
-0.5773502691896259
 31
0.5773502691896259
 12
0.0
 22
0.0
 32
0.0
 42
50.0
 43
26.34582401990803
 44
-26.34582401990803
 50
0.0
 71
    16
  0
VIEW
  5
326
330
5
100
AcDbSymbolTableRecord
100
AcDbViewTableRecord
  2
TFR-TRI
 70
     0
 40
53.49628531230995
 10
0.0
 20
0.0
 41
14.25061701673289
 11
0.7188730927569434
 21
-0.5850486126764432
 31
0.3754192287502549
 12
0.0
 22
0.0
 32
0.0
 42
50.0
 43
26.5766438943501
 44
-26.5766438943501
 50
0.0
 71
    16
  0
ENDTAB
  0
TABLE
  2
UCS
  5
6
330
0
100
AcDbSymbolTable
 70
     0
  0
ENDTAB
  0
TABLE
  2
APPID
  5
8
330
0
100
AcDbSymbolTable
 70
     1
  0
APPID
  5
16
330
8
100
AcDbSymbolTableRecord
100
AcDbRegAppTableRecord
  2
ACAD
 70
     0
  0
ENDTAB
  0
TABLE
  2
DIMSTYLE
  5
9
330
0
100
AcDbSymbolTable
 70
     1
  0
DIMSTYLE
105
18
330
9
100
AcDbSymbolTableRecord
100
AcDbDimStyleTableRecord
  2
STANDARD
 70
     0
  3

  4

  5

  6

  7

 40
1.0
 41
0.18
 42
0.0625
 43
0.38
 44
0.18
 45
0.0
 46
0.0
 47
0.0
 48
0.0
140
0.18
141
0.09
142
0.0
143
25.4
144
1.0
145
0.0
146
1.0
147
0.09
 71
     0
 72
     0
 73
     1
 74
     1
 75
     0
 76
     0
 77
     0
 78
     0
170
     0
171
     2
172
     0
173
     0
174
     0
175
     0
176
     0
177
     0
178
     0
270
     2
271
     4
272
     4
273
     2
274
     2
340
17
275
     0
280
     0
281
     0
282
     0
283
     1
284
     0
285
     0
286
     0
287
     3
288
     0
  0
ENDTAB
  0
TABLE
  2
BLOCK_RECORD
  5
1
330
0
100
AcDbSymbolTable
 70
     0
  0
BLOCK_RECORD
  5
A
102
{ACAD_XDICTIONARY
360
3D4
102
}
330
1
100
AcDbSymbolTableRecord
100
AcDbBlockTableRecord
  2
*MODEL_SPACE
  0
BLOCK_RECORD
  5
B
102
{ACAD_XDICTIONARY
360
3D6
102
}
330
1
100
AcDbSymbolTableRecord
100
AcDbBlockTableRecord
  2
*PAPER_SPACE
  0
ENDTAB
  0
ENDSEC
  0
SECTION
  2
BLOCKS
  0
BLOCK
  5
D
330
A
100
AcDbEntity
  8
0
100
AcDbBlockBegin
  2
*MODEL_SPACE
 70
     0
 10
0.0
 20
0.0
 30
0.0
  3
*MODEL_SPACE
  1

  0
ENDBLK
  5
E
330
A
100
AcDbEntity
  8
0
100
AcDbBlockEnd
  0
BLOCK
  5
F
330
B
100
AcDbEntity
 67
     1
  8
0
100
AcDbBlockBegin
  2
*PAPER_SPACE
 70
     0
 10
0.0
 20
0.0
 30
0.0
  3
*PAPER_SPACE
  1

  0
ENDBLK
  5
10
330
B
100
AcDbEntity
 67
     1
  8
0
100
AcDbBlockEnd
  0
ENDSEC
  0
SECTION
  2
ENTITIES
  0
LINE
  5
2A
330
A
100
AcDbEntity
  8
TFR-TRI
  6
CONTINUOUS
 62
     2
100
AcDbLine
 10
69.25355529785156
 20
33.30109786987304
 30
0.0
 11
69.25355529785156
 21
33.1330451965332
 31
0.0
  0
LINE
  5
2C
330
A
100
AcDbEntity
  8
TFR-TRI
  6
CONTINUOUS
 62
     5
100
AcDbLine
 10
33.67875289916992
 20
53.33891296386719
 30
0.0
 11
33.56175231933594
 21
53.33891296386719
 31
0.0
  0
LINE
  5
2D
330
A
100
AcDbEntity
  8
TFR-TRI
  6
CONTINUOUS
 62
     2
100
AcDbLine
 10
44.39025497436523
 20
47.11541366577148
 30
0.0
 11
44.51525497436523
 21
47.11541366577148
 31
0.0
  0
LINE
  5
2E
330
A
100
AcDbEntity
  8
TFR-TRI
  6
CONTINUOUS
 62
     2
100
AcDbLine
 10
44.64025497436523
 20
33.34481430053711
 30
0.0
 11
25.60025405883789
 21
33.34481430053711
 31
0.0
  0
LINE
  5
2F
330
A
100
AcDbEntity
  8
TFR-TRI
  6
CONTINUOUS
 62
     5
100
AcDbLine
 10
33.7513313293457
 20
54.73141098022461
 30
0.0
 11
33.78820037841796
 21
54.73141098022461
 31
0.0
  0
LINE
  5
30
330
A
100
AcDbEntity
  8
TFR-TRI
  6
CONTINUOUS
 62
     2
100
AcDbLine
 10
25.60025405883789
 20
60.94941329956054
 30
0.0
 11
25.60025405883789
 21
61.05741119384766
 31
0.0
  0
LINE
  5
31
330
A
100
AcDbEntity
  8
TFR-TRI
  6
CONTINUOUS
 62
     2
100
AcDbLine
 10
24.25825309753418
 20
32.20281600952148
 30
0.0
 11
24.15025329589843
 21
32.20281600952148
 31
0.0
  0
LINE
  5
32
330
A
100
AcDbEntity
  8
TFR-TRI
  6
CONTINUOUS
 62
     5
100
AcDbLine
 10
33.65375518798828
 20
54.60941314697265
 30
0.0
 11
33.65375518798828
 21
54.631591796875
 31
0.0
  0
LINE
  5
33
330
A
100
AcDbEntity
  8
TFR-TRI
  6
CONTINUOUS
 62
     2
100
AcDbLine
 10
25.63374710083007
 20
61.05741119384766
 30
0.0
 11
25.72525405883789
 21
61.05741119384766
 31
0.0
  0
LINE
  5
34
330
A
100
AcDbEntity
  8
TFR-TRI
  6
CONTINUOUS
 62
     2
100
AcDbLine
 10
44.39025497436523
 20
35.34481430053711
 30
0.0
 11
25.85025405883789
 21
35.34481430053711
 31
0.0
  0
LINE
  5
35
330
A
100
AcDbEntity
  8
TFR-TRI
  6
CONTINUOUS
 62
     5
100
AcDbLine
 10
33.58675384521484
 20
54.61500930786133
 30
0.0
 11
33.58675384521484
 21
54.60941314697265
 31
0.0
  0
LINE
  5
36
330
A
100
AcDbEntity
  8
TFR-TRI
  6
CONTINUOUS
 62
     2
100
AcDbLine
 10
25.72525405883789
 20
60.94941329956054
 30
0.0
 11
25.63374710083007
 21
60.94941329956054
 31
0.0
  0
LINE
  5
37
330
A
100
AcDbEntity
  8
TFR-TRI
  6
CONTINUOUS
 62
     5
100
AcDbLine
 10
33.43599700927734
 20
54.73141098022461
 30
0.0
 11
33.46374893188476
 21
54.73141098022461
 31
0.0
  0
LINE
  5
38
330
A
100
AcDbEntity
  8
TFR-TRI
  6
CONTINUOUS
 62
     2
100
AcDbLine
 10
24.47002410888671
 20
49.03241348266601
 30
0.0
 11
24.3019733428955
 21
49.03241348266601
 31
0.0
  0
LINE
  5
39
330
A
100
AcDbEntity
  8
TFR-TRI
  6
CONTINUOUS
 62
     5
100
AcDbLine
 10
33.4434700012207
 20
54.79291152954101
 30
0.0
 11
33.43663787841796
 21
54.79291152954101
 31
0.0
  0
LINE
  5
3A
330
A
100
AcDbEntity
  8
TFR-TRI
  6
CONTINUOUS
 62
     2
100
AcDbLine
 10
46.05082321166992
 20
49.03241348266601
 30
0.0
 11
46.09025573730469
 21
49.03241348266601
 31
0.0
  0
LINE
  5
3B
330
A
100
AcDbEntity
  8
TFR-TRI
  6
CONTINUOUS
 62
     2
100
AcDbLine
 10
45.98225402832031
 20
32.23630905151367
 30
0.0
 11
45.98225402832031
 21
32.32781600952148
 31
0.0
  0
LINE
  5
3C
330
A
100
AcDbEntity
  8
TFR-TRI
  6
CONTINUOUS
 62
     2
100
AcDbLine
 10
25.60025405883789
 20
21.0536880493164
 30
0.0
 11
25.60025405883789
 21
21.17248153686523
 31
0.0
  0
LINE
  5
3D
330
A
100
AcDbEntity
  8
TFR-TRI
  6
CONTINUOUS
 62
    31
100
AcDbLine
 10
62.73855590820312
 20
31.84481620788574
 30
0.0
 11
62.48855590820312
 21
31.84481620788574
 31
0.0
  0
LINE
  5
3E
330
A
100
AcDbEntity
  8
TFR-TRI
  6
CONTINUOUS
 62
     5
100
AcDbLine
 10
33.58675384521484
 20
54.9094123840332
 30
0.0
 11
33.58675384521484
 21
54.88723373413086
 31
0.0
  0
LINE
  5
3F
330
A
100
AcDbEntity
  8
TFR-TRI
  6
CONTINUOUS
 62
     2
100
AcDbLine
 10
59.20788192749023
 20
33.45281600952148
 30
0.0
 11
59.25355529785156
 21
33.45281600952148
 31
0.0
  0
LINE
  5
40
330
A
100
AcDbEntity
  8
TFR-TRI
  6
CONTINUOUS
 62
     2
100
AcDbLine
 10
25.60025405883789
 20
47.17541122436523
 30
0.0
 11
25.60025405883789
 21
48.43241119384765
 31
0.0
  0
LINE
  5
41
330
A
100
AcDbEntity
  8
TFR-TRI
  6
CONTINUOUS
 62
     2
100
AcDbLine
 10
44.64025497436523
 20
47.17541122436523
 30
0.0
 11
44.64025497436523
 21
48.43241119384765
 31
0.0
  0
LINE
  5
42
330
A
100
AcDbEntity
  8
TFR-TRI
  6
CONTINUOUS
 62
     5
100
AcDbLine
 10
33.65375518798828
 20
54.90381622314453
 30
0.0
 11
33.65375518798828
 21
54.9094123840332
 31
0.0
  0
LINE
  5
43
330
A
100
AcDbEntity
  8
TFR-TRI
  6
CONTINUOUS
 62
     5
100
AcDbLine
 10
33.6705322265625
 20
53.27602386474609
 30
0.0
 11
33.66322326660156
 21
53.27200317382812
 31
0.0
  0
LINE
  5
44
330
A
100
AcDbEntity
  8
TFR-TRI
  6
CONTINUOUS
 62
     2
100
AcDbLine
 10
44.64025497436523
 20
7.339687347412109
 30
0.0
 11
44.64025497436523
 21
8.596687316894531
 31
0.0
  0
LINE
  5
45
330
A
100
AcDbEntity
  8
TFR-TRI
  6
CONTINUOUS
 62
     5
100
AcDbLine
 10
33.78466033935547
 20
54.79291152954101
 30
0.0
 11
33.74807739257812
 21
54.79291152954101
 31
0.0
  0
LINE
  5
46
330
A
100
AcDbEntity
  8
TFR-TRI
  6
CONTINUOUS
 62
     5
100
AcDbLine
 10
33.58675384521484
 20
53.15541076660156
 30
0.0
 11
33.62025451660156
 21
53.15541076660156
 31
0.0
  0
LINE
  5
47
330
A
100
AcDbEntity
  8
TFR-TRI
  6
CONTINUOUS
 62
     2
100
AcDbLine
 10
25.00025367736816
 20
19.19668769836425
 30
0.0
 11
24.66825485229492
 21
19.19668769836425
 31
0.0
  0
LINE
  5
48
330
A
100
AcDbEntity
  8
TFR-TRI
  6
CONTINUOUS
 62
     2
100
AcDbLine
 10
34.9202537536621
 20
20.4966869354248
 30
0.0
 11
34.9202537536621
 21
17.89668655395507
 31
0.0
  0
LINE
  5
49
330
A
100
AcDbEntity
  8
TFR-TRI
  6
CONTINUOUS
 62
     2
100
AcDbLine
 10
25.60025405883789
 20
60.88941192626953
 30
0.0
 11
25.60025405883789
 21
59.63241195678711
 31
0.0
  0
LINE
  5
4A
330
A
100
AcDbEntity
  8
TFR-TRI
  6
CONTINUOUS
 62
     5
100
AcDbLine
 10
36.56175231933593
 20
54.79291152954101
 30
0.0
 11
36.51891326904296
 21
54.79291152954101
 31
0.0
  0
LINE
  5
4B
330
A
100
AcDbEntity
  8
TFR-TRI
  6
CONTINUOUS
 62
     2
100
AcDbLine
 10
44.64025497436523
 20
21.0536880493164
 30
0.0
 11
44.64025497436523
 21
21.17248153686523
 31
0.0
  0
LINE
  5
4C
330
A
100
AcDbEntity
  8
TFR-TRI
  6
CONTINUOUS
 62
     5
100
AcDbLine
 10
64.89810943603515
 20
33.59456253051757
 30
0.0
 11
64.92755126953125
 21
33.59855651855468
 31
0.0
  0
LINE
  5
4D
330
A
100
AcDbEntity
  8
TFR-TRI
  6
CONTINUOUS
 62
     5
100
AcDbLine
 10
33.57239532470703
 20
53.2750358581543
 30
0.0
 11
33.56432342529297
 21
53.27727890014648
 31
0.0
  0
LINE
  5
4E
330
A
100
AcDbEntity
  8
TFR-TRI
  6
CONTINUOUS
 62
     5
100
AcDbLine
 10
36.6705322265625
 20
54.73002243041992
 30
0.0
 11
36.66322326660156
 21
54.72600173950195
 31
0.0
  0
LINE
  5
4F
330
A
100
AcDbEntity
  8
TFR-TRI
  6
CONTINUOUS
 62
     2
100
AcDbLine
 10
27.53775405883789
 20
57.26991271972656
 30
0.0
 11
25.66275405883789
 21
57.26991271972656
 31
0.0
  0
LINE
  5
50
330
A
100
AcDbEntity
  8
TFR-TRI
  6
CONTINUOUS
 62
     2
100
AcDbLine
 10
44.64025497436523
 20
7.339687347412109
 30
0.0
 11
44.64025497436523
 21
7.220893383026123
 31
0.0
  0
LINE
  5
51
330
A
100
AcDbEntity
  8
TFR-TRI
  6
CONTINUOUS
 62
     5
100
AcDbLine
 10
36.58675384521484
 20
54.60941314697265
 30
0.0
 11
36.62025451660156
 21
54.60941314697265
 31
0.0
  0
LINE
  5
52
330
A
100
AcDbEntity
  8
TFR-TRI
  6
CONTINUOUS
 62
     2
100
AcDbLine
 10
24.15025329589843
 20
9.196687698364257
 30
0.0
 11
24.15025329589843
 21
9.230180740356445
 31
0.0
  0
LINE
  5
53
330
A
100
AcDbEntity
  8
TFR-TRI
  6
CONTINUOUS
 62
     2
100
AcDbLine
 10
59.50355529785156
 20
32.20281600952148
 30
0.0
 11
63.6185531616211
 21
32.20281600952148
 31
0.0
  0
LINE
  5
54
330
A
100
AcDbEntity
  8
TFR-TRI
  6
CONTINUOUS
 62
     2
100
AcDbLine
 10
44.64025497436523
 20
33.39402389526367
 30
0.0
 11
44.64025497436523
 21
33.5128173828125
 31
0.0
  0
LINE
  5
55
330
A
100
AcDbEntity
  8
TFR-TRI
  6
CONTINUOUS
 62
     5
100
AcDbLine
 10
33.57727813720703
 20
53.34431457519531
 30
0.0
 11
33.58287811279296
 21
53.35054016113281
 31
0.0
  0
LINE
  5
56
330
A
100
AcDbEntity
  8
TFR-TRI
  6
CONTINUOUS
 62
     5
100
AcDbLine
 10
36.57927322387695
 20
54.72424697875976
 30
0.0
 11
36.57239532470703
 21
54.72903442382812
 31
0.0
  0
LINE
  5
57
330
A
100
AcDbEntity
  8
TFR-TRI
  6
CONTINUOUS
 62
     2
100
AcDbLine
 10
57.22855377197266
 20
33.5128173828125
 30
0.0
 11
57.22855377197266
 21
35.0948143005371
 31
0.0
  0
LINE
  5
58
330
A
100
AcDbEntity
  8
TFR-TRI
  6
CONTINUOUS
 62
     2
100
AcDbLine
 10
24.15025329589843
 20
19.07168769836425
 30
0.0
 11
24.15025329589843
 21
19.16319274902343
 31
0.0
  0
LINE
  5
59
330
A
100
AcDbEntity
  8
TFR-TRI
  6
CONTINUOUS
 62
     5
100
AcDbLine
 10
33.62025451660156
 20
53.45541381835937
 30
0.0
 11
33.58675384521484
 21
53.45541381835937
 31
0.0
  0
LINE
  5
5A
330
A
100
AcDbEntity
  8
TFR-TRI
  6
CONTINUOUS
 62
     5
100
AcDbLine
 10
64.83055114746093
 20
33.55947875976562
 30
0.0
 11
64.85272979736328
 21
33.57614517211914
 31
0.0
  0
LINE
  5
5B
330
A
100
AcDbEntity
  8
TFR-TRI
  6
CONTINUOUS
 62
     2
100
AcDbLine
 10
25.72525405883789
 20
47.00741195678711
 30
0.0
 11
25.63374710083007
 21
47.00741195678711
 31
0.0
  0
LINE
  5
5C
330
A
100
AcDbEntity
  8
TFR-TRI
  6
CONTINUOUS
 62
     2
100
AcDbLine
 10
71.27855682373047
 20
33.5128173828125
 30
0.0
 11
71.27855682373047
 21
35.0948143005371
 31
0.0
  0
LINE
  5
5D
330
A
100
AcDbEntity
  8
TFR-TRI
  6
CONTINUOUS
 62
     5
100
AcDbLine
 10
33.6653823852539
 20
53.34278869628906
 30
0.0
 11
33.67311859130859
 21
53.33955764770507
 31
0.0
  0
LINE
  5
5E
330
A
100
AcDbEntity
  8
TFR-TRI
  6
CONTINUOUS
 62
     5
100
AcDbLine
 10
65.03905487060547
 20
33.59819793701172
 30
0.0
 11
65.08189392089843
 21
33.58895874023437
 31
0.0
  0
LINE
  5
5F
330
A
100
AcDbEntity
  8
TFR-TRI
  6
CONTINUOUS
 62
     2
100
AcDbLine
 10
46.09025573730469
 20
14.83168697357177
 30
0.0
 11
46.09025573730469
 21
14.78926086425781
 31
0.0
  0
LINE
  5
60
330
A
100
AcDbEntity
  8
TFR-TRI
  6
CONTINUOUS
 62
     5
100
AcDbLine
 10
33.58535766601562
 20
53.26065444946289
 30
0.0
 11
33.58122634887695
 21
53.26809310913086
 31
0.0
  0
LINE
  5
61
330
A
100
AcDbEntity
  8
TFR-TRI
  6
CONTINUOUS
 62
     2
100
AcDbLine
 10
71.17055511474609
 20
35.31132125854492
 30
0.0
 11
71.17055511474609
 21
35.34481430053711
 31
0.0
  0
LINE
  5
62
330
A
100
AcDbEntity
  8
TFR-TRI
  6
CONTINUOUS
 62
     5
100
AcDbLine
 10
36.56175231933593
 20
54.79291152954101
 30
0.0
 11
36.56996917724609
 21
54.79430007934571
 31
0.0
  0
LINE
  5
63
330
A
100
AcDbEntity
  8
TFR-TRI
  6
CONTINUOUS
 62
     2
100
AcDbLine
 10
24.25825309753418
 20
13.60411357879638
 30
0.0
 11
24.25825309753418
 21
13.56168746948242
 31
0.0
  0
LINE
  5
64
330
A
100
AcDbEntity
  8
TFR-TRI
  6
CONTINUOUS
 62
     2
100
AcDbLine
 10
58.88316345214843
 20
33.45281600952148
 30
0.0
 11
59.07781982421875
 21
33.45281600952148
 31
0.0
  0
LINE
  5
65
330
A
100
AcDbEntity
  8
TFR-TRI
  6
CONTINUOUS
 62
     5
100
AcDbLine
 10
36.58675384521484
 20
54.84185409545898
 30
0.0
 11
36.58675384521484
 21
54.81791305541992
 31
0.0
  0
LINE
  5
66
330
A
100
AcDbEntity
  8
TFR-TRI
  6
CONTINUOUS
 62
     2
100
AcDbLine
 10
24.25825309753418
 20
19.07168769836425
 30
0.0
 11
24.25825309753418
 21
18.94668769836425
 31
0.0
  0
LINE
  5
67
330
A
100
AcDbEntity
  8
TFR-TRI
  6
CONTINUOUS
 62
     5
100
AcDbLine
 10
36.6551399230957
 20
54.80970001220703
 30
0.0
 11
36.6591567993164
 21
54.80239105224609
 31
0.0
  0
LINE
  5
68
330
A
100
AcDbEntity
  8
TFR-TRI
  6
CONTINUOUS
 62
     2
100
AcDbLine
 10
63.73855590820312
 20
32.72281646728515
 30
0.0
 11
64.7685546875
 21
32.72281646728515
 31
0.0
  0
LINE
  5
69
330
A
100
AcDbEntity
  8
TFR-TRI
  6
CONTINUOUS
 62
     5
100
AcDbLine
 10
36.70269775390625
 20
54.79291152954101
 30
0.0
 11
36.67875289916992
 21
54.79291152954101
 31
0.0
  0
LINE
  5
6A
330
A
100
AcDbEntity
  8
TFR-TRI
  6
CONTINUOUS
 62
     2
100
AcDbLine
 10
35.32025527954101
 20
7.896687507629394
 30
0.0
 11
35.32025527954101
 21
10.4966869354248
 31
0.0
  0
LINE
  5
6B
330
A
100
AcDbEntity
  8
TFR-TRI
  6
CONTINUOUS
 62
     5
100
AcDbLine
 10
64.95255279541016
 20
33.51381683349609
 30
0.0
 11
64.98334503173828
 21
33.51381683349609
 31
0.0
  0
LINE
  5
6C
330
A
100
AcDbEntity
  8
TFR-TRI
  6
CONTINUOUS
 62
     2
100
AcDbLine
 10
46.09025573730469
 20
9.230180740356445
 30
0.0
 11
46.09025573730469
 21
9.196687698364257
 31
0.0
  0
LINE
  5
6D
330
A
100
AcDbEntity
  8
TFR-TRI
  6
CONTINUOUS
 62
     5
100
AcDbLine
 10
36.67875289916992
 20
53.27741241455078
 30
0.0
 11
36.70532608032226
 21
53.27741241455078
 31
0.0
  0
LINE
  5
6E
330
A
100
AcDbEntity
  8
TFR-TRI
  6
CONTINUOUS
 62
     5
100
AcDbLine
 10
36.65375518798828
 20
53.4498176574707
 30
0.0
 11
36.65375518798828
 21
53.45541381835937
 31
0.0
  0
LINE
  5
6F
330
A
100
AcDbEntity
  8
TFR-TRI
  6
CONTINUOUS
 62
     2
100
AcDbLine
 10
46.09025573730469
 20
14.75411415100097
 30
0.0
 11
46.09025573730469
 21
14.71168708801269
 31
0.0
  0
LINE
  5
70
330
A
100
AcDbEntity
  8
TFR-TRI
  6
CONTINUOUS
 62
     5
100
AcDbLine
 10
36.65928268432617
 20
53.26809310913086
 30
0.0
 11
36.65519332885742
 21
53.26077651977539
 31
0.0
  0
LINE
  5
71
330
A
100
AcDbEntity
  8
TFR-TRI
  6
CONTINUOUS
 62
     2
100
AcDbLine
 10
45.98225402832031
 20
13.6216869354248
 30
0.0
 11
45.98225402832031
 21
13.63926124572754
 31
0.0
  0
LINE
  5
72
330
A
100
AcDbEntity
  8
TFR-TRI
  6
CONTINUOUS
 62
     5
100
AcDbLine
 10
36.58675384521484
 20
53.25241088867187
 30
0.0
 11
36.58675384521484
 21
53.20407104492187
 31
0.0
  0
LINE
  5
73
330
A
100
AcDbEntity
  8
TFR-TRI
  6
CONTINUOUS
 62
     2
100
AcDbLine
 10
45.98225402832031
 20
18.94668769836425
 30
0.0
 11
45.98225402832031
 21
19.07168769836425
 31
0.0
  0
LINE
  5
74
330
A
100
AcDbEntity
  8
TFR-TRI
  6
CONTINUOUS
 62
     5
100
AcDbLine
 10
36.56432342529297
 20
53.27727890014648
 30
0.0
 11
36.56175231933593
 21
53.27741241455078
 31
0.0
  0
LINE
  5
75
330
A
100
AcDbEntity
  8
TFR-TRI
  6
CONTINUOUS
 62
     2
100
AcDbLine
 10
44.64025497436523
 20
33.5128173828125
 30
0.0
 11
44.64025497436523
 21
35.0948143005371
 31
0.0
  0
LINE
  5
76
330
A
100
AcDbEntity
  8
TFR-TRI
  6
CONTINUOUS
 62
     2
100
AcDbLine
 10
24.15025329589843
 20
13.6216869354248
 30
0.0
 11
24.25825309753418
 21
13.6216869354248
 31
0.0
  0
LINE
  5
77
330
A
100
AcDbEntity
  8
TFR-TRI
  6
CONTINUOUS
 62
     5
100
AcDbLine
 10
36.51891326904296
 20
53.33891296386719
 30
0.0
 11
36.47584915161132
 21
53.33891296386719
 31
0.0
  0
LINE
  5
78
330
A
100
AcDbEntity
  8
TFR-TRI
  6
CONTINUOUS
 62
    31
100
AcDbLine
 10
33.12025451660156
 20
12.91018772125244
 30
0.0
 11
33.12025451660156
 21
15.48318767547607
 31
0.0
  0
LINE
  5
79
330
A
100
AcDbEntity
  8
TFR-TRI
  6
CONTINUOUS
 62
     5
100
AcDbLine
 10
36.58287811279297
 20
53.35054016113281
 30
0.0
 11
36.58610916137695
 21
53.3582763671875
 31
0.0
  0
LINE
  5
7A
330
A
100
AcDbEntity
  8
TFR-TRI
  6
CONTINUOUS
 62
     5
100
AcDbLine
 10
33.55021667480468
 20
53.27741241455078
 30
0.0
 11
33.56175231933594
 21
53.27741241455078
 31
0.0
  0
LINE
  5
7B
330
A
100
AcDbEntity
  8
TFR-TRI
  6
CONTINUOUS
 62
     5
100
AcDbLine
 10
63.62789535522461
 20
33.58895874023437
 30
0.0
 11
63.67095947265625
 21
33.56432723999023
 31
0.0
  0
LINE
  5
7C
330
A
100
AcDbEntity
  8
TFR-TRI
  6
CONTINUOUS
 62
    31
100
AcDbLine
 10
37.12025451660156
 20
12.91018772125244
 30
0.0
 11
37.12025451660156
 21
12.86776065826416
 31
0.0
  0
LINE
  5
7D
330
A
100
AcDbEntity
  8
TFR-TRI
  6
CONTINUOUS
 62
     5
100
AcDbLine
 10
65.03905487060547
 20
33.59819793701172
 30
0.0
 11
65.03083801269531
 21
33.59863662719726
 31
0.0
  0
LINE
  5
7E
330
A
100
AcDbEntity
  8
TFR-TRI
  6
CONTINUOUS
 62
     5
100
AcDbLine
 10
36.65375518798828
 20
53.36391067504883
 30
0.0
 11
36.65375518798828
 21
53.40675354003906
 31
0.0
  0
LINE
  5
7F
330
A
100
AcDbEntity
  8
TFR-TRI
  6
CONTINUOUS
 62
     2
100
AcDbLine
 10
57.39655303955078
 20
33.45281600952148
 30
0.0
 11
58.65355300903321
 21
33.45281600952148
 31
0.0
  0
LINE
  5
80
330
A
100
AcDbEntity
  8
TFR-TRI
  6
CONTINUOUS
 62
     2
100
AcDbLine
 10
25.22986412048339
 20
33.45281600952148
 30
0.0
 11
25.00025367736816
 21
33.45281600952148
 31
0.0
  0
LINE
  5
81
330
A
100
AcDbEntity
  8
TFR-TRI
  6
CONTINUOUS
 62
    31
100
AcDbLine
 10
33.12025451660156
 20
15.54318714141845
 30
0.0
 11
33.12025451660156
 21
15.59253978729248
 31
0.0
  0
LINE
  5
82
330
A
100
AcDbEntity
  8
TFR-TRI
  6
CONTINUOUS
 62
     5
100
AcDbLine
 10
36.67311859130859
 20
53.33955764770507
 30
0.0
 11
36.67875289916992
 21
53.33891296386719
 31
0.0
  0
LINE
  5
83
330
A
100
AcDbEntity
  8
TFR-TRI
  6
CONTINUOUS
 62
    31
100
AcDbLine
 10
37.12025451660156
 20
12.85018730163574
 30
0.0
 11
37.12025451660156
 21
12.80083465576171
 31
0.0
  0
LINE
  5
84
330
A
100
AcDbEntity
  8
TFR-TRI
  6
CONTINUOUS
 62
     5
100
AcDbLine
 10
63.49855422973632
 20
33.5411262512207
 30
0.0
 11
63.49855422973632
 21
33.51381683349609
 31
0.0
  0
LINE
  5
85
330
A
100
AcDbEntity
  8
TFR-TRI
  6
CONTINUOUS
 62
     2
100
AcDbLine
 10
44.64025497436523
 20
47.00741195678711
 30
0.0
 11
44.60676193237304
 21
47.00741195678711
 31
0.0
  0
LINE
  5
86
330
A
100
AcDbEntity
  8
TFR-TRI
  6
CONTINUOUS
 62
     2
100
AcDbLine
 10
25.55458259582519
 20
33.45281600952148
 30
0.0
 11
25.42451858520507
 21
33.45281600952148
 31
0.0
  0
LINE
  5
87
330
A
100
AcDbEntity
  8
TFR-TRI
  6
CONTINUOUS
 62
     2
100
AcDbLine
 10
46.09025573730469
 20
32.23630905151367
 30
0.0
 11
46.09025573730469
 21
32.20281600952148
 31
0.0
  0
LINE
  5
88
330
A
100
AcDbEntity
  8
TFR-TRI
  6
CONTINUOUS
 62
     2
100
AcDbLine
 10
45.01064300537109
 20
33.45281600952148
 30
0.0
 11
45.24025344848633
 21
33.45281600952148
 31
0.0
  0
LINE
  5
89
330
A
100
AcDbEntity
  8
TFR-TRI
  6
CONTINUOUS
 62
     5
100
AcDbLine
 10
33.56175231933594
 20
53.27741241455078
 30
0.0
 11
33.67875289916992
 21
53.27741241455078
 31
0.0
  0
LINE
  5
8A
330
A
100
AcDbEntity
  8
TFR-TRI
  6
CONTINUOUS
 62
     2
100
AcDbLine
 10
44.51525497436523
 20
47.11541366577148
 30
0.0
 11
44.60676193237304
 21
47.11541366577148
 31
0.0
  0
LINE
  5
8B
330
A
100
AcDbEntity
  8
TFR-TRI
  6
CONTINUOUS
 62
     2
100
AcDbLine
 10
24.15025329589843
 20
14.78926086425781
 30
0.0
 11
24.15025329589843
 21
14.83168697357177
 31
0.0
  0
LINE
  5
8C
330
A
100
AcDbEntity
  8
TFR-TRI
  6
CONTINUOUS
 62
     5
100
AcDbLine
 10
63.56005477905274
 20
33.51381683349609
 30
0.0
 11
63.56005477905274
 21
33.5443000793457
 31
0.0
  0
LINE
  5
8D
330
A
100
AcDbEntity
  8
TFR-TRI
  6
CONTINUOUS
 62
     2
100
AcDbLine
 10
44.64025497436523
 20
61.05741119384766
 30
0.0
 11
44.64025497436523
 21
60.94941329956054
 31
0.0
  0
LINE
  5
8E
330
A
100
AcDbEntity
  8
TFR-TRI
  6
CONTINUOUS
 62
     2
100
AcDbLine
 10
44.64025497436523
 20
33.34481430053711
 30
0.0
 11
44.64025497436523
 21
33.39402389526367
 31
0.0
  0
LINE
  5
8F
330
A
100
AcDbEntity
  8
TFR-TRI
  6
CONTINUOUS
 62
     5
100
AcDbLine
 10
33.65375518798828
 20
54.631591796875
 30
0.0
 11
33.65375518798828
 21
54.67697143554687
 31
0.0
  0
LINE
  5
90
330
A
100
AcDbEntity
  8
TFR-TRI
  6
CONTINUOUS
 62
     2
100
AcDbLine
 10
25.72525405883789
 20
61.05741119384766
 30
0.0
 11
25.85025405883789
 21
61.05741119384766
 31
0.0
  0
LINE
  5
91
330
A
100
AcDbEntity
  8
TFR-TRI
  6
CONTINUOUS
 62
     2
100
AcDbLine
 10
69.25355529785156
 20
33.45281600952148
 30
0.0
 11
69.25355529785156
 21
33.41338729858398
 31
0.0
  0
LINE
  5
92
330
A
100
AcDbEntity
  8
TFR-TRI
  6
CONTINUOUS
 62
     5
100
AcDbLine
 10
33.58675384521484
 20
54.70641326904297
 30
0.0
 11
33.58535766601562
 21
54.71465301513672
 31
0.0
  0
LINE
  5
93
330
A
100
AcDbEntity
  8
TFR-TRI
  6
CONTINUOUS
 62
     2
100
AcDbLine
 10
25.63374710083007
 20
60.94941329956054
 30
0.0
 11
25.60025405883789
 21
60.94941329956054
 31
0.0
  0
LINE
  5
94
330
A
100
AcDbEntity
  8
TFR-TRI
  6
CONTINUOUS
 62
     2
100
AcDbLine
 10
24.15025329589843
 20
32.23630905151367
 30
0.0
 11
24.15025329589843
 21
32.32781600952148
 31
0.0
  0
LINE
  5
95
330
A
100
AcDbEntity
  8
TFR-TRI
  6
CONTINUOUS
 62
     2
100
AcDbLine
 10
24.3019733428955
 20
49.03241348266601
 30
0.0
 11
24.18968391418457
 21
49.03241348266601
 31
0.0
  0
LINE
  5
96
330
A
100
AcDbEntity
  8
TFR-TRI
  6
CONTINUOUS
 62
     2
100
AcDbLine
 10
45.98225402832031
 20
32.934814453125
 30
0.0
 11
45.98225402832031
 21
32.45281600952148
 31
0.0
  0
LINE
  5
97
330
A
100
AcDbEntity
  8
TFR-TRI
  6
CONTINUOUS
 62
     2
100
AcDbLine
 10
42.70275497436523
 20
58.39491271972656
 30
0.0
 11
44.57775497436523
 21
58.39491271972656
 31
0.0
  0
LINE
  5
98
330
A
100
AcDbEntity
  8
TFR-TRI
  6
CONTINUOUS
 62
     2
100
AcDbLine
 10
45.5722541809082
 20
59.03241348266601
 30
0.0
 11
45.7704849243164
 21
59.03241348266601
 31
0.0
  0
LINE
  5
99
330
A
100
AcDbEntity
  8
TFR-TRI
  6
CONTINUOUS
 62
     2
100
AcDbLine
 10
45.98225402832031
 20
32.32781600952148
 30
0.0
 11
45.98225402832031
 21
32.45281600952148
 31
0.0
  0
LINE
  5
9A
330
A
100
AcDbEntity
  8
TFR-TRI
  6
CONTINUOUS
 62
     2
100
AcDbLine
 10
24.15025329589843
 20
32.934814453125
 30
0.0
 11
24.15025329589843
 21
32.45281600952148
 31
0.0
  0
LINE
  5
9B
330
A
100
AcDbEntity
  8
TFR-TRI
  6
CONTINUOUS
 62
     5
100
AcDbLine
 10
33.58675384521484
 20
54.88723373413086
 30
0.0
 11
33.58675384521484
 21
54.84185409545898
 31
0.0
  0
LINE
  5
9C
330
A
100
AcDbEntity
  8
TFR-TRI
  6
CONTINUOUS
 62
     2
100
AcDbLine
 10
24.25825309753418
 20
13.63926124572754
 30
0.0
 11
24.25825309753418
 21
13.6216869354248
 31
0.0
  0
LINE
  5
9D
330
A
100
AcDbEntity
  8
TFR-TRI
  6
CONTINUOUS
 62
    31
100
AcDbLine
 10
37.12025451660156
 20
33.14631652832031
 30
0.0
 11
37.12025451660156
 21
31.90481567382812
 31
0.0
  0
LINE
  5
9E
330
A
100
AcDbEntity
  8
TFR-TRI
  6
CONTINUOUS
 62
     2
100
AcDbLine
 10
44.57775497436523
 20
18.5591869354248
 30
0.0
 11
42.70275497436523
 21
18.5591869354248
 31
0.0
  0
LINE
  5
9F
330
A
100
AcDbEntity
  8
TFR-TRI
  6
CONTINUOUS
 62
     5
100
AcDbLine
 10
33.65375518798828
 20
54.81791305541992
 30
0.0
 11
33.6551399230957
 21
54.80970001220703
 31
0.0
  0
LINE
  5
A0
330
A
100
AcDbEntity
  8
TFR-TRI
  6
CONTINUOUS
 62
     5
100
AcDbLine
 10
33.66322326660156
 20
53.27200317382812
 30
0.0
 11
33.6612319946289
 21
53.27024459838867
 31
0.0
  0
LINE
  5
A1
330
A
100
AcDbEntity
  8
TFR-TRI
  6
CONTINUOUS
 62
     2
100
AcDbLine
 10
46.09025573730469
 20
13.60411357879638
 30
0.0
 11
46.09025573730469
 21
13.56168746948242
 31
0.0
  0
LINE
  5
A2
330
A
100
AcDbEntity
  8
TFR-TRI
  6
CONTINUOUS
 62
     2
100
AcDbLine
 10
45.24025344848633
 20
9.196687698364257
 30
0.0
 11
45.5722541809082
 21
9.196687698364257
 31
0.0
  0
LINE
  5
A3
330
A
100
AcDbEntity
  8
TFR-TRI
  6
CONTINUOUS
 62
     5
100
AcDbLine
 10
33.74807739257812
 20
54.79291152954101
 30
0.0
 11
33.70269775390625
 21
54.79291152954101
 31
0.0
  0
LINE
  5
A4
330
A
100
AcDbEntity
  8
TFR-TRI
  6
CONTINUOUS
 62
     5
100
AcDbLine
 10
33.62025451660156
 20
53.15541076660156
 30
0.0
 11
33.65375518798828
 21
53.15541076660156
 31
0.0
  0
LINE
  5
A5
330
A
100
AcDbEntity
  8
TFR-TRI
  6
CONTINUOUS
 62
     2
100
AcDbLine
 10
58.65355300903321
 20
33.45281600952148
 30
0.0
 11
58.88316345214843
 21
33.45281600952148
 31
0.0
  0
LINE
  5
A6
330
A
100
AcDbEntity
  8
TFR-TRI
  6
CONTINUOUS
 62
     5
100
AcDbLine
 10
36.51891326904296
 20
54.79291152954101
 30
0.0
 11
36.47584915161132
 21
54.79291152954101
 31
0.0
  0
LINE
  5
A7
330
A
100
AcDbEntity
  8
TFR-TRI
  6
CONTINUOUS
 62
     2
100
AcDbLine
 10
44.64025497436523
 20
21.17248153686523
 30
0.0
 11
44.64025497436523
 21
21.22168731689453
 31
0.0
  0
LINE
  5
A8
330
A
100
AcDbEntity
  8
TFR-TRI
  6
CONTINUOUS
 62
     5
100
AcDbLine
 10
33.56432342529297
 20
53.27727890014648
 30
0.0
 11
33.56175231933594
 21
53.27741241455078
 31
0.0
  0
LINE
  5
A9
330
A
100
AcDbEntity
  8
TFR-TRI
  6
CONTINUOUS
 62
     5
100
AcDbLine
 10
36.66322326660156
 20
54.72600173950195
 30
0.0
 11
36.6612319946289
 21
54.72424697875976
 31
0.0
  0
LINE
  5
AA
330
A
100
AcDbEntity
  8
TFR-TRI
  6
CONTINUOUS
 62
    31
100
AcDbLine
 10
33.12025451660156
 20
31.86239051818847
 30
0.0
 11
33.12025451660156
 21
31.84481620788574
 31
0.0
  0
LINE
  5
AB
330
A
100
AcDbEntity
  8
TFR-TRI
  6
CONTINUOUS
 62
     2
100
AcDbLine
 10
69.29922485351562
 20
33.34481430053711
 30
0.0
 11
69.25355529785156
 21
33.34481430053711
 31
0.0
  0
LINE
  5
AC
330
A
100
AcDbEntity
  8
TFR-TRI
  6
CONTINUOUS
 62
     5
100
AcDbLine
 10
33.56175231933594
 20
53.33891296386719
 30
0.0
 11
33.51891326904297
 21
53.33891296386719
 31
0.0
  0
LINE
  5
AD
330
A
100
AcDbEntity
  8
TFR-TRI
  6
CONTINUOUS
 62
     5
100
AcDbLine
 10
36.62025451660156
 20
54.60941314697265
 30
0.0
 11
36.65375518798828
 21
54.60941314697265
 31
0.0
  0
LINE
  5
AE
330
A
100
AcDbEntity
  8
TFR-TRI
  6
CONTINUOUS
 62
     5
100
AcDbLine
 10
33.58287811279296
 20
53.35054016113281
 30
0.0
 11
33.58610916137695
 21
53.3582763671875
 31
0.0
  0
LINE
  5
AF
330
A
100
AcDbEntity
  8
TFR-TRI
  6
CONTINUOUS
 62
     5
100
AcDbLine
 10
36.57239532470703
 20
54.72903442382812
 30
0.0
 11
36.56432342529297
 21
54.73128128051758
 31
0.0
  0
LINE
  5
B0
330
A
100
AcDbEntity
  8
TFR-TRI
  6
CONTINUOUS
 62
     2
100
AcDbLine
 10
24.15025329589843
 20
19.16319274902343
 30
0.0
 11
24.15025329589843
 21
19.19668769836425
 31
0.0
  0
LINE
  5
B1
330
A
100
AcDbEntity
  8
TFR-TRI
  6
CONTINUOUS
 62
     5
100
AcDbLine
 10
33.65375518798828
 20
53.36391067504883
 30
0.0
 11
33.65375518798828
 21
53.40675354003906
 31
0.0
  0
LINE
  5
B2
330
A
100
AcDbEntity
  8
TFR-TRI
  6
CONTINUOUS
 62
     5
100
AcDbLine
 10
64.85272979736328
 20
33.57614517211914
 30
0.0
 11
64.89810943603515
 21
33.59456253051757
 31
0.0
  0
LINE
  5
B3
330
A
100
AcDbEntity
  8
TFR-TRI
  6
CONTINUOUS
 62
     2
100
AcDbLine
 10
24.15025329589843
 20
13.6216869354248
 30
0.0
 11
24.15025329589843
 21
13.63926124572754
 31
0.0
  0
LINE
  5
B4
330
A
100
AcDbEntity
  8
TFR-TRI
  6
CONTINUOUS
 62
     5
100
AcDbLine
 10
33.67311859130859
 20
53.33955764770507
 30
0.0
 11
33.67875289916992
 21
53.33891296386719
 31
0.0
  0
LINE
  5
B5
330
A
100
AcDbEntity
  8
TFR-TRI
  6
CONTINUOUS
 62
     5
100
AcDbLine
 10
65.08189392089843
 20
33.58895874023437
 30
0.0
 11
65.12496185302734
 21
33.56432723999023
 31
0.0
  0
LINE
  5
B6
330
A
100
AcDbEntity
  8
TFR-TRI
  6
CONTINUOUS
 62
     5
100
AcDbLine
 10
63.56005477905274
 20
33.59456253051757
 30
0.0
 11
63.56005477905274
 21
33.59819793701172
 31
0.0
  0
LINE
  5
B7
330
A
100
AcDbEntity
  8
TFR-TRI
  6
CONTINUOUS
 62
     2
100
AcDbLine
 10
24.25825309753418
 20
14.77168750762939
 30
0.0
 11
24.25825309753418
 21
14.75411415100097
 31
0.0
  0
LINE
  5
B8
330
A
100
AcDbEntity
  8
TFR-TRI
  6
CONTINUOUS
 62
     5
100
AcDbLine
 10
36.56996917724609
 20
54.79430007934571
 30
0.0
 11
36.57727813720703
 21
54.7983169555664
 31
0.0
  0
LINE
  5
B9
330
A
100
AcDbEntity
  8
TFR-TRI
  6
CONTINUOUS
 62
     2
100
AcDbLine
 10
24.25825309753418
 20
13.56168746948242
 30
0.0
 11
24.25825309753418
 21
9.446687698364257
 31
0.0
  0
LINE
  5
BA
330
A
100
AcDbEntity
  8
TFR-TRI
  6
CONTINUOUS
 62
     5
100
AcDbLine
 10
36.65375518798828
 20
54.9094123840332
 30
0.0
 11
36.62025451660156
 21
54.9094123840332
 31
0.0
  0
LINE
  5
BB
330
A
100
AcDbEntity
  8
TFR-TRI
  6
CONTINUOUS
 62
     2
100
AcDbLine
 10
45.5722541809082
 20
19.19668769836425
 30
0.0
 11
45.77725219726562
 21
19.19668769836425
 31
0.0
  0
LINE
  5
BC
330
A
100
AcDbEntity
  8
TFR-TRI
  6
CONTINUOUS
 62
     2
100
AcDbLine
 10
71.17055511474609
 20
35.0948143005371
 30
0.0
 11
71.17055511474609
 21
35.21981430053711
 31
0.0
  0
LINE
  5
BD
330
A
100
AcDbEntity
  8
TFR-TRI
  6
CONTINUOUS
 62
     5
100
AcDbLine
 10
36.6591567993164
 20
54.80239105224609
 30
0.0
 11
36.6653823852539
 21
54.79679107666015
 31
0.0
  0
LINE
  5
BE
330
A
100
AcDbEntity
  8
TFR-TRI
  6
CONTINUOUS
 62
     2
100
AcDbLine
 10
46.09025573730469
 20
9.196687698364257
 30
0.0
 11
45.98225402832031
 21
9.196687698364257
 31
0.0
  0
LINE
  5
BF
330
A
100
AcDbEntity
  8
TFR-TRI
  6
CONTINUOUS
 62
     2
100
AcDbLine
 10
46.09025573730469
 20
19.19668769836425
 30
0.0
 11
46.09025573730469
 21
19.16319274902343
 31
0.0
  0
LINE
  5
C0
330
A
100
AcDbEntity
  8
TFR-TRI
  6
CONTINUOUS
 62
     2
100
AcDbLine
 10
24.31318283081054
 20
19.19668769836425
 30
0.0
 11
24.25825309753418
 21
19.19668769836425
 31
0.0
  0
LINE
  5
C1
330
A
100
AcDbEntity
  8
TFR-TRI
  6
CONTINUOUS
 62
     5
100
AcDbLine
 10
36.70532608032226
 20
53.27741241455078
 30
0.0
 11
36.7513313293457
 21
53.27741241455078
 31
0.0
  0
LINE
  5
C2
330
A
100
AcDbEntity
  8
TFR-TRI
  6
CONTINUOUS
 62
    31
100
AcDbLine
 10
65.7685546875
 20
31.84481620788574
 30
0.0
 11
66.0185546875
 21
31.84481620788574
 31
0.0
  0
LINE
  5
C3
330
A
100
AcDbEntity
  8
TFR-TRI
  6
CONTINUOUS
 62
     5
100
AcDbLine
 10
36.65519332885742
 20
53.26077651977539
 30
0.0
 11
36.65375518798828
 21
53.25241088867187
 31
0.0
  0
LINE
  5
C4
330
A
100
AcDbEntity
  8
TFR-TRI
  6
CONTINUOUS
 62
     5
100
AcDbLine
 10
65.01405334472656
 20
33.59456253051757
 30
0.0
 11
65.01405334472656
 21
33.59819793701172
 31
0.0
  0
LINE
  5
C5
330
A
100
AcDbEntity
  8
TFR-TRI
  6
CONTINUOUS
 62
     5
100
AcDbLine
 10
64.95255279541016
 20
33.59841156005859
 30
0.0
 11
64.95116424560547
 21
33.5987548828125
 31
0.0
  0
LINE
  5
C6
330
A
100
AcDbEntity
  8
TFR-TRI
  6
CONTINUOUS
 62
     5
100
AcDbLine
 10
36.58675384521484
 20
53.20407104492187
 30
0.0
 11
36.58675384521484
 21
53.16100692749023
 31
0.0
  0
LINE
  5
C7
330
A
100
AcDbEntity
  8
TFR-TRI
  6
CONTINUOUS
 62
     2
100
AcDbLine
 10
45.98225402832031
 20
19.07168769836425
 30
0.0
 11
45.98225402832031
 21
19.16319274902343
 31
0.0
  0
LINE
  5
C8
330
A
100
AcDbEntity
  8
TFR-TRI
  6
CONTINUOUS
 62
     5
100
AcDbLine
 10
36.43571853637695
 20
53.27741241455078
 30
0.0
 11
36.43599700927734
 21
53.27741241455078
 31
0.0
  0
LINE
  5
C9
330
A
100
AcDbEntity
  8
TFR-TRI
  6
CONTINUOUS
 62
     2
100
AcDbLine
 10
46.09025573730469
 20
14.77168750762939
 30
0.0
 11
45.98225402832031
 21
14.77168750762939
 31
0.0
  0
LINE
  5
CA
330
A
100
AcDbEntity
  8
TFR-TRI
  6
CONTINUOUS
 62
    31
100
AcDbLine
 10
37.12025451660156
 20
31.7363166809082
 30
0.0
 11
33.12025451660156
 21
31.7363166809082
 31
0.0
  0
LINE
  5
CB
330
A
100
AcDbEntity
  8
TFR-TRI
  6
CONTINUOUS
 62
    31
100
AcDbLine
 10
37.12025451660156
 20
15.48318767547607
 30
0.0
 11
37.12025451660156
 21
12.91018772125244
 31
0.0
  0
LINE
  5
CC
330
A
100
AcDbEntity
  8
TFR-TRI
  6
CONTINUOUS
 62
     5
100
AcDbLine
 10
36.58610916137695
 20
53.3582763671875
 30
0.0
 11
36.58675384521484
 21
53.36391067504883
 31
0.0
  0
LINE
  5
CD
330
A
100
AcDbEntity
  8
TFR-TRI
  6
CONTINUOUS
 62
    31
100
AcDbLine
 10
33.12025451660156
 20
31.7363166809082
 30
0.0
 11
33.12025451660156
 21
31.84481620788574
 31
0.0
  0
LINE
  5
CE
330
A
100
AcDbEntity
  8
TFR-TRI
  6
CONTINUOUS
 62
    31
100
AcDbLine
 10
37.12025451660156
 20
12.86776065826416
 30
0.0
 11
37.12025451660156
 21
12.85018730163574
 31
0.0
  0
LINE
  5
CF
330
A
100
AcDbEntity
  8
TFR-TRI
  6
CONTINUOUS
 62
     5
100
AcDbLine
 10
65.01792907714843
 20
33.5987434387207
 30
0.0
 11
65.01470184326172
 21
33.59854125976562
 31
0.0
  0
LINE
  5
D0
330
A
100
AcDbEntity
  8
TFR-TRI
  6
CONTINUOUS
 62
    31
100
AcDbLine
 10
33.12025451660156
 20
15.59253978729248
 30
0.0
 11
33.12025451660156
 21
15.71168708801269
 31
0.0
  0
LINE
  5
D1
330
A
100
AcDbEntity
  8
TFR-TRI
  6
CONTINUOUS
 62
     2
100
AcDbLine
 10
71.27855682373047
 20
35.31132125854492
 30
0.0
 11
71.27855682373047
 21
35.21981430053711
 31
0.0
  0
LINE
  5
D2
330
A
100
AcDbEntity
  8
TFR-TRI
  6
CONTINUOUS
 62
     5
100
AcDbLine
 10
36.80386734008789
 20
53.33891296386719
 30
0.0
 11
36.78466033935547
 21
53.33891296386719
 31
0.0
  0
LINE
  5
D3
330
A
100
AcDbEntity
  8
TFR-TRI
  6
CONTINUOUS
 62
    31
100
AcDbLine
 10
37.12025451660156
 20
12.80083465576171
 30
0.0
 11
37.12025451660156
 21
12.6816873550415
 31
0.0
  0
LINE
  5
D4
330
A
100
AcDbEntity
  8
TFR-TRI
  6
CONTINUOUS
 62
     5
100
AcDbLine
 10
33.58675384521484
 20
53.25241088867187
 30
0.0
 11
33.58535766601562
 21
53.26065444946289
 31
0.0
  0
LINE
  5
D5
330
A
100
AcDbEntity
  8
TFR-TRI
  6
CONTINUOUS
 62
     5
100
AcDbLine
 10
63.49855422973632
 20
33.59841156005859
 30
0.0
 11
63.49716567993164
 21
33.5987548828125
 31
0.0
  0
LINE
  5
D6
330
A
100
AcDbEntity
  8
TFR-TRI
  6
CONTINUOUS
 62
     2
100
AcDbLine
 10
45.98225402832031
 20
14.71168708801269
 30
0.0
 11
45.98225402832031
 21
14.75411415100097
 31
0.0
  0
LINE
  5
D7
330
A
100
AcDbEntity
  8
TFR-TRI
  6
CONTINUOUS
 62
     5
100
AcDbLine
 10
63.44411087036132
 20
33.59456253051757
 30
0.0
 11
63.47355651855469
 21
33.59855651855468
 31
0.0
  0
LINE
  5
D8
330
A
100
AcDbEntity
  8
TFR-TRI
  6
CONTINUOUS
 62
     2
100
AcDbLine
 10
24.66825485229492
 20
19.19668769836425
 30
0.0
 11
24.46325492858886
 21
19.19668769836425
 31
0.0
  0
LINE
  5
D9
330
A
100
AcDbEntity
  8
TFR-TRI
  6
CONTINUOUS
 62
     5
100
AcDbLine
 10
64.95255279541016
 20
33.59441757202148
 30
0.0
 11
64.95255279541016
 21
33.57492446899414
 31
0.0
  0
LINE
  5
DA
330
A
100
AcDbEntity
  8
TFR-TRI
  6
CONTINUOUS
 62
     5
100
AcDbLine
 10
63.58505630493164
 20
33.59819793701172
 30
0.0
 11
63.62789535522461
 21
33.58895874023437
 31
0.0
  0
LINE
  5
DB
330
A
100
AcDbEntity
  8
TFR-TRI
  6
CONTINUOUS
 62
     2
100
AcDbLine
 10
44.60676193237304
 20
47.11541366577148
 30
0.0
 11
44.64025497436523
 21
47.11541366577148
 31
0.0
  0
LINE
  5
DC
330
A
100
AcDbEntity
  8
TFR-TRI
  6
CONTINUOUS
 62
     2
100
AcDbLine
 10
25.60025405883789
 20
33.34481430053711
 30
0.0
 11
25.55458259582519
 21
33.34481430053711
 31
0.0
  0
LINE
  5
DD
330
A
100
AcDbEntity
  8
TFR-TRI
  6
CONTINUOUS
 62
     5
100
AcDbLine
 10
33.67875289916992
 20
54.73141098022461
 30
0.0
 11
33.6705322265625
 21
54.73002243041992
 31
0.0
  0
LINE
  5
DE
330
A
100
AcDbEntity
  8
TFR-TRI
  6
CONTINUOUS
 62
     2
100
AcDbLine
 10
25.85025405883789
 20
61.05741119384766
 30
0.0
 11
44.39025497436523
 21
61.05741119384766
 31
0.0
  0
LINE
  5
DF
330
A
100
AcDbEntity
  8
TFR-TRI
  6
CONTINUOUS
 62
     2
100
AcDbLine
 10
44.64025497436523
 20
21.0536880493164
 30
0.0
 11
44.64025497436523
 21
19.79668807983398
 31
0.0
  0
LINE
  5
E0
330
A
100
AcDbEntity
  8
TFR-TRI
  6
CONTINUOUS
 62
     5
100
AcDbLine
 10
33.65375518798828
 20
54.67697143554687
 30
0.0
 11
33.65375518798828
 21
54.70641326904297
 31
0.0
  0
LINE
  5
E1
330
A
100
AcDbEntity
  8
TFR-TRI
  6
CONTINUOUS
 62
     2
100
AcDbLine
 10
44.39025497436523
 20
60.94941329956054
 30
0.0
 11
25.85025405883789
 21
60.94941329956054
 31
0.0
  0
LINE
  5
E2
330
A
100
AcDbEntity
  8
TFR-TRI
  6
CONTINUOUS
 62
     2
100
AcDbLine
 10
42.70275497436523
 20
10.83418750762939
 30
0.0
 11
44.57775497436523
 21
10.83418750762939
 31
0.0
  0
LINE
  5
E3
330
A
100
AcDbEntity
  8
TFR-TRI
  6
CONTINUOUS
 62
     5
100
AcDbLine
 10
63.49855422973632
 20
33.59841156005859
 30
0.0
 11
63.49855422973632
 21
33.59441757202148
 31
0.0
  0
LINE
  5
E4
330
A
100
AcDbEntity
  8
TFR-TRI
  6
CONTINUOUS
 62
    31
100
AcDbLine
 10
37.12025451660156
 20
31.84481620788574
 30
0.0
 11
37.12025451660156
 21
31.7363166809082
 31
0.0
  0
LINE
  5
E5
330
A
100
AcDbEntity
  8
TFR-TRI
  6
CONTINUOUS
 62
     5
100
AcDbLine
 10
33.58535766601562
 20
54.71465301513672
 30
0.0
 11
33.58122634887695
 21
54.72209167480468
 31
0.0
  0
LINE
  5
E6
330
A
100
AcDbEntity
  8
TFR-TRI
  6
CONTINUOUS
 62
     2
100
AcDbLine
 10
24.66825485229492
 20
59.03241348266601
 30
0.0
 11
24.47002410888671
 21
59.03241348266601
 31
0.0
  0
LINE
  5
E7
330
A
100
AcDbEntity
  8
TFR-TRI
  6
CONTINUOUS
 62
     5
100
AcDbLine
 10
33.51225280761719
 20
33.34481430053711
 30
0.0
 11
33.51225280761719
 21
33.31481170654297
 31
0.0
  0
LINE
  5
E8
330
A
100
AcDbEntity
  8
TFR-TRI
  6
CONTINUOUS
 62
     5
100
AcDbLine
 10
36.80386734008789
 20
54.79291152954101
 30
0.0
 11
36.78466033935547
 21
54.79291152954101
 31
0.0
  0
LINE
  5
E9
330
A
100
AcDbEntity
  8
TFR-TRI
  6
CONTINUOUS
 62
     5
100
AcDbLine
 10
33.50319671630859
 20
54.73141098022461
 30
0.0
 11
33.55021667480468
 21
54.73141098022461
 31
0.0
  0
LINE
  5
EA
330
A
100
AcDbEntity
  8
TFR-TRI
  6
CONTINUOUS
 62
     2
100
AcDbLine
 10
24.18968391418457
 20
49.03241348266601
 30
0.0
 11
24.15025329589843
 21
49.03241348266601
 31
0.0
  0
LINE
  5
EB
330
A
100
AcDbEntity
  8
TFR-TRI
  6
CONTINUOUS
 62
     2
100
AcDbLine
 10
46.09025573730469
 20
32.934814453125
 30
0.0
 11
46.09025573730469
 21
32.45281600952148
 31
0.0
  0
LINE
  5
EC
330
A
100
AcDbEntity
  8
TFR-TRI
  6
CONTINUOUS
 62
     2
100
AcDbLine
 10
24.25825309753418
 20
14.83168697357177
 30
0.0
 11
24.25825309753418
 21
14.78926086425781
 31
0.0
  0
LINE
  5
ED
330
A
100
AcDbEntity
  8
TFR-TRI
  6
CONTINUOUS
 62
     2
100
AcDbLine
 10
42.70275497436523
 20
17.4341869354248
 30
0.0
 11
44.57775497436523
 21
17.4341869354248
 31
0.0
  0
LINE
  5
EE
330
A
100
AcDbEntity
  8
TFR-TRI
  6
CONTINUOUS
 62
     5
100
AcDbLine
 10
33.56175231933594
 20
54.79291152954101
 30
0.0
 11
33.56996917724609
 21
54.79430007934571
 31
0.0
  0
LINE
  5
EF
330
A
100
AcDbEntity
  8
TFR-TRI
  6
CONTINUOUS
 62
     2
100
AcDbLine
 10
45.7704849243164
 20
59.03241348266601
 30
0.0
 11
45.93853378295898
 21
59.03241348266601
 31
0.0
  0
LINE
  5
F0
330
A
100
AcDbEntity
  8
TFR-TRI
  6
CONTINUOUS
 62
     2
100
AcDbLine
 10
71.17055511474609
 20
33.5128173828125
 30
0.0
 11
71.17055511474609
 21
35.0948143005371
 31
0.0
  0
LINE
  5
F1
330
A
100
AcDbEntity
  8
TFR-TRI
  6
CONTINUOUS
 62
     5
100
AcDbLine
 10
33.58675384521484
 20
54.84185409545898
 30
0.0
 11
33.58675384521484
 21
54.81791305541992
 31
0.0
  0
LINE
  5
F2
330
A
100
AcDbEntity
  8
TFR-TRI
  6
CONTINUOUS
 62
     5
100
AcDbLine
 10
36.57727813720703
 20
53.34431457519531
 30
0.0
 11
36.58287811279297
 21
53.35054016113281
 31
0.0
  0
LINE
  5
F3
330
A
100
AcDbEntity
  8
TFR-TRI
  6
CONTINUOUS
 62
     5
100
AcDbLine
 10
33.6551399230957
 20
54.80970001220703
 30
0.0
 11
33.6591567993164
 21
54.80239105224609
 31
0.0
  0
LINE
  5
F4
330
A
100
AcDbEntity
  8
TFR-TRI
  6
CONTINUOUS
 62
     2
100
AcDbLine
 10
45.98225402832031
 20
13.63926124572754
 30
0.0
 11
45.98225402832031
 21
13.6816873550415
 31
0.0
  0
LINE
  5
F5
330
A
100
AcDbEntity
  8
TFR-TRI
  6
CONTINUOUS
 62
     5
100
AcDbLine
 10
33.65928268432617
 20
53.26809310913086
 30
0.0
 11
33.65519332885742
 21
53.26077651977539
 31
0.0
  0
LINE
  5
F6
330
A
100
AcDbEntity
  8
TFR-TRI
  6
CONTINUOUS
 62
     2
100
AcDbLine
 10
25.85025405883789
 20
47.11541366577148
 30
0.0
 11
44.39025497436523
 21
47.11541366577148
 31
0.0
  0
LINE
  5
F7
330
A
100
AcDbEntity
  8
TFR-TRI
  6
CONTINUOUS
 62
     2
100
AcDbLine
 10
35.32025527954101
 20
60.33241271972656
 30
0.0
 11
35.32025527954101
 21
57.73241424560547
 31
0.0
  0
LINE
  5
F8
330
A
100
AcDbEntity
  8
TFR-TRI
  6
CONTINUOUS
 62
     2
100
AcDbLine
 10
34.9202537536621
 20
47.73241424560547
 30
0.0
 11
34.9202537536621
 21
50.33241271972656
 31
0.0
  0
LINE
  5
F9
330
A
100
AcDbEntity
  8
TFR-TRI
  6
CONTINUOUS
 62
     5
100
AcDbLine
 10
33.70269775390625
 20
54.79291152954101
 30
0.0
 11
33.67875289916992
 21
54.79291152954101
 31
0.0
  0
LINE
  5
FA
330
A
100
AcDbEntity
  8
TFR-TRI
  6
CONTINUOUS
 62
     5
100
AcDbLine
 10
33.58675384521484
 20
53.25241088867187
 30
0.0
 11
33.58675384521484
 21
53.20407104492187
 31
0.0
  0
LINE
  5
FB
330
A
100
AcDbEntity
  8
TFR-TRI
  6
CONTINUOUS
 62
     2
100
AcDbLine
 10
27.53775405883789
 20
10.95918750762939
 30
0.0
 11
25.66275405883789
 21
10.95918750762939
 31
0.0
  0
LINE
  5
FC
330
A
100
AcDbEntity
  8
TFR-TRI
  6
CONTINUOUS
 62
     2
100
AcDbLine
 10
25.00025367736816
 20
9.196687698364257
 30
0.0
 11
24.66825485229492
 21
9.196687698364257
 31
0.0
  0
LINE
  5
FD
330
A
100
AcDbEntity
  8
TFR-TRI
  6
CONTINUOUS
 62
     5
100
AcDbLine
 10
36.67875289916992
 20
54.73141098022461
 30
0.0
 11
36.70532608032226
 21
54.73141098022461
 31
0.0
  0
LINE
  5
FE
330
A
100
AcDbEntity
  8
TFR-TRI
  6
CONTINUOUS
 62
     5
100
AcDbLine
 10
36.47584915161132
 20
54.79291152954101
 30
0.0
 11
36.4434700012207
 21
54.79291152954101
 31
0.0
  0
LINE
  5
FF
330
A
100
AcDbEntity
  8
TFR-TRI
  6
CONTINUOUS
 62
     2
100
AcDbLine
 10
69.42929077148438
 20
33.45281600952148
 30
0.0
 11
69.29922485351562
 21
33.45281600952148
 31
0.0
  0
LINE
  5
100
330
A
100
AcDbEntity
  8
TFR-TRI
  6
CONTINUOUS
 62
     5
100
AcDbLine
 10
36.65928268432617
 20
54.72209167480468
 30
0.0
 11
36.65519332885742
 21
54.71477508544921
 31
0.0
  0
LINE
  5
101
330
A
100
AcDbEntity
  8
TFR-TRI
  6
CONTINUOUS
 62
     2
100
AcDbLine
 10
57.39655303955078
 20
33.34481430053711
 30
0.0
 11
58.65355300903321
 21
33.34481430053711
 31
0.0
  0
LINE
  5
102
330
A
100
AcDbEntity
  8
TFR-TRI
  6
CONTINUOUS
 62
     2
100
AcDbLine
 10
27.53775405883789
 20
58.26991271972656
 30
0.0
 11
25.66275405883789
 21
58.26991271972656
 31
0.0
  0
LINE
  5
103
330
A
100
AcDbEntity
  8
TFR-TRI
  6
CONTINUOUS
 62
     2
100
AcDbLine
 10
27.53775405883789
 20
58.39491271972656
 30
0.0
 11
25.66275405883789
 21
58.39491271972656
 31
0.0
  0
LINE
  5
104
330
A
100
AcDbEntity
  8
TFR-TRI
  6
CONTINUOUS
 62
     5
100
AcDbLine
 10
33.51891326904297
 20
53.33891296386719
 30
0.0
 11
33.47584915161132
 21
53.33891296386719
 31
0.0
  0
LINE
  5
105
330
A
100
AcDbEntity
  8
TFR-TRI
  6
CONTINUOUS
 62
     2
100
AcDbLine
 10
42.70275497436523
 20
57.26991271972656
 30
0.0
 11
44.57775497436523
 21
57.26991271972656
 31
0.0
  0
LINE
  5
106
330
A
100
AcDbEntity
  8
TFR-TRI
  6
CONTINUOUS
 62
     5
100
AcDbLine
 10
36.58675384521484
 20
54.70641326904297
 30
0.0
 11
36.58675384521484
 21
54.6580696105957
 31
0.0
  0
LINE
  5
107
330
A
100
AcDbEntity
  8
TFR-TRI
  6
CONTINUOUS
 62
     2
100
AcDbLine
 10
24.25825309753418
 20
9.196687698364257
 30
0.0
 11
24.15025329589843
 21
9.196687698364257
 31
0.0
  0
LINE
  5
108
330
A
100
AcDbEntity
  8
TFR-TRI
  6
CONTINUOUS
 62
     2
100
AcDbLine
 10
64.88855743408203
 20
32.20281600952148
 30
0.0
 11
69.00355529785156
 21
32.20281600952148
 31
0.0
  0
LINE
  5
109
330
A
100
AcDbEntity
  8
TFR-TRI
  6
CONTINUOUS
 62
     5
100
AcDbLine
 10
33.58610916137695
 20
53.3582763671875
 30
0.0
 11
33.58675384521484
 21
53.36391067504883
 31
0.0
  0
LINE
  5
10A
330
A
100
AcDbEntity
  8
TFR-TRI
  6
CONTINUOUS
 62
     5
100
AcDbLine
 10
36.56432342529297
 20
54.73128128051758
 30
0.0
 11
36.56175231933593
 21
54.73141098022461
 31
0.0
  0
LINE
  5
10B
330
A
100
AcDbEntity
  8
TFR-TRI
  6
CONTINUOUS
 62
     2
100
AcDbLine
 10
57.33655548095703
 20
35.31132125854492
 30
0.0
 11
57.33655548095703
 21
35.21981430053711
 31
0.0
  0
LINE
  5
10C
330
A
100
AcDbEntity
  8
TFR-TRI
  6
CONTINUOUS
 62
    31
100
AcDbLine
 10
65.7685546875
 20
31.7363166809082
 30
0.0
 11
66.0185546875
 21
31.7363166809082
 31
0.0
  0
LINE
  5
10D
330
A
100
AcDbEntity
  8
TFR-TRI
  6
CONTINUOUS
 62
     2
100
AcDbLine
 10
34.9202537536621
 20
60.33241271972656
 30
0.0
 11
34.9202537536621
 21
57.73241424560547
 31
0.0
  0
LINE
  5
10E
330
A
100
AcDbEntity
  8
TFR-TRI
  6
CONTINUOUS
 62
     5
100
AcDbLine
 10
33.65375518798828
 20
53.40675354003906
 30
0.0
 11
33.65375518798828
 21
53.4498176574707
 31
0.0
  0
LINE
  5
10F
330
A
100
AcDbEntity
  8
TFR-TRI
  6
CONTINUOUS
 62
     2
100
AcDbLine
 10
71.27855682373047
 20
35.34481430053711
 30
0.0
 11
71.27855682373047
 21
35.31132125854492
 31
0.0
  0
LINE
  5
110
330
A
100
AcDbEntity
  8
TFR-TRI
  6
CONTINUOUS
 62
     5
100
AcDbLine
 10
65.12496185302734
 20
33.56432723999023
 30
0.0
 11
65.13055419921875
 21
33.55947875976562
 31
0.0
  0
LINE
  5
111
330
A
100
AcDbEntity
  8
TFR-TRI
  6
CONTINUOUS
 62
     2
100
AcDbLine
 10
27.53775405883789
 20
18.5591869354248
 30
0.0
 11
25.66275405883789
 21
18.5591869354248
 31
0.0
  0
LINE
  5
112
330
A
100
AcDbEntity
  8
TFR-TRI
  6
CONTINUOUS
 62
     2
100
AcDbLine
 10
59.25355529785156
 20
33.45281600952148
 30
0.0
 11
59.25355529785156
 21
33.41338729858398
 31
0.0
  0
LINE
  5
113
330
A
100
AcDbEntity
  8
TFR-TRI
  6
CONTINUOUS
 62
     5
100
AcDbLine
 10
36.57727813720703
 20
54.7983169555664
 30
0.0
 11
36.58287811279297
 21
54.80453872680664
 31
0.0
  0
LINE
  5
114
330
A
100
AcDbEntity
  8
TFR-TRI
  6
CONTINUOUS
 62
     2
100
AcDbLine
 10
57.33655548095703
 20
35.21981430053711
 30
0.0
 11
57.33655548095703
 21
35.0948143005371
 31
0.0
  0
LINE
  5
115
330
A
100
AcDbEntity
  8
TFR-TRI
  6
CONTINUOUS
 62
     2
100
AcDbLine
 10
24.25825309753418
 20
9.446687698364257
 30
0.0
 11
24.25825309753418
 21
9.321687698364257
 31
0.0
  0
LINE
  5
116
330
A
100
AcDbEntity
  8
TFR-TRI
  6
CONTINUOUS
 62
     5
100
AcDbLine
 10
36.62025451660156
 20
54.9094123840332
 30
0.0
 11
36.58675384521484
 21
54.9094123840332
 31
0.0
  0
LINE
  5
117
330
A
100
AcDbEntity
  8
TFR-TRI
  6
CONTINUOUS
 62
     2
100
AcDbLine
 10
45.77725219726562
 20
19.19668769836425
 30
0.0
 11
45.92732620239257
 21
19.19668769836425
 31
0.0
  0
LINE
  5
118
330
A
100
AcDbEntity
  8
TFR-TRI
  6
CONTINUOUS
 62
     2
100
AcDbLine
 10
25.00025367736816
 20
59.03241348266601
 30
0.0
 11
24.66825485229492
 21
59.03241348266601
 31
0.0
  0
LINE
  5
119
330
A
100
AcDbEntity
  8
TFR-TRI
  6
CONTINUOUS
 62
     5
100
AcDbLine
 10
36.6653823852539
 20
54.79679107666015
 30
0.0
 11
36.67311859130859
 21
54.79355621337891
 31
0.0
  0
LINE
  5
11A
330
A
100
AcDbEntity
  8
TFR-TRI
  6
CONTINUOUS
 62
     2
100
AcDbLine
 10
25.60025405883789
 20
7.171687126159667
 30
0.0
 11
44.64025497436523
 21
7.171687126159667
 31
0.0
  0
LINE
  5
11B
330
A
100
AcDbEntity
  8
TFR-TRI
  6
CONTINUOUS
 62
    31
100
AcDbLine
 10
62.79855346679688
 20
32.20283508300781
 30
0.0
 11
62.79855346679688
 21
31.90481567382812
 31
0.0
  0
LINE
  5
11C
330
A
100
AcDbEntity
  8
TFR-TRI
  6
CONTINUOUS
 62
     5
100
AcDbLine
 10
36.67875289916992
 20
54.79291152954101
 30
0.0
 11
36.56175231933593
 21
54.79291152954101
 31
0.0
  0
LINE
  5
11D
330
A
100
AcDbEntity
  8
TFR-TRI
  6
CONTINUOUS
 62
     5
100
AcDbLine
 10
64.95255279541016
 20
33.5411262512207
 30
0.0
 11
64.95255279541016
 21
33.51381683349609
 31
0.0
  0
LINE
  5
11E
330
A
100
AcDbEntity
  8
TFR-TRI
  6
CONTINUOUS
 62
     2
100
AcDbLine
 10
46.09025573730469
 20
19.16319274902343
 30
0.0
 11
46.09025573730469
 21
19.07168769836425
 31
0.0
  0
LINE
  5
11F
330
A
100
AcDbEntity
  8
TFR-TRI
  6
CONTINUOUS
 62
     5
100
AcDbLine
 10
36.7513313293457
 20
53.27741241455078
 30
0.0
 11
36.78820037841797
 21
53.27741241455078
 31
0.0
  0
LINE
  5
120
330
A
100
AcDbEntity
  8
TFR-TRI
  6
CONTINUOUS
 62
     2
100
AcDbLine
 10
46.09025573730469
 20
32.20281600952148
 30
0.0
 11
45.98225402832031
 21
32.20281600952148
 31
0.0
  0
LINE
  5
121
330
A
100
AcDbEntity
  8
TFR-TRI
  6
CONTINUOUS
 62
     2
100
AcDbLine
 10
46.09025573730469
 20
13.6816873550415
 30
0.0
 11
46.09025573730469
 21
13.63926124572754
 31
0.0
  0
LINE
  5
122
330
A
100
AcDbEntity
  8
TFR-TRI
  6
CONTINUOUS
 62
     5
100
AcDbLine
 10
36.65375518798828
 20
53.15541076660156
 30
0.0
 11
36.65375518798828
 21
53.1775894165039
 31
0.0
  0
LINE
  5
123
330
A
100
AcDbEntity
  8
TFR-TRI
  6
CONTINUOUS
 62
     2
100
AcDbLine
 10
24.15025329589843
 20
9.321687698364257
 30
0.0
 11
24.15025329589843
 21
9.446687698364257
 31
0.0
  0
LINE
  5
124
330
A
100
AcDbEntity
  8
TFR-TRI
  6
CONTINUOUS
 62
     2
100
AcDbLine
 10
45.98225402832031
 20
14.71168708801269
 30
0.0
 11
45.98225402832031
 21
13.6816873550415
 31
0.0
  0
LINE
  5
125
330
A
100
AcDbEntity
  8
TFR-TRI
  6
CONTINUOUS
 62
     5
100
AcDbLine
 10
63.49716567993164
 20
33.5987548828125
 30
0.0
 11
63.49314498901367
 21
33.59881591796875
 31
0.0
  0
LINE
  5
126
330
A
100
AcDbEntity
  8
TFR-TRI
  6
CONTINUOUS
 62
     5
100
AcDbLine
 10
36.58675384521484
 20
53.16100692749023
 30
0.0
 11
36.58675384521484
 21
53.15541076660156
 31
0.0
  0
LINE
  5
127
330
A
100
AcDbEntity
  8
TFR-TRI
  6
CONTINUOUS
 62
    31
100
AcDbLine
 10
37.12025451660156
 20
31.90481567382812
 30
0.0
 11
37.12025451660156
 21
31.86239051818847
 31
0.0
  0
LINE
  5
128
330
A
100
AcDbEntity
  8
TFR-TRI
  6
CONTINUOUS
 62
     2
100
AcDbLine
 10
45.98225402832031
 20
19.16319274902343
 30
0.0
 11
45.98225402832031
 21
19.19668769836425
 31
0.0
  0
LINE
  5
129
330
A
100
AcDbEntity
  8
TFR-TRI
  6
CONTINUOUS
 62
     5
100
AcDbLine
 10
36.43599700927734
 20
53.27741241455078
 30
0.0
 11
36.46374893188476
 21
53.27741241455078
 31
0.0
  0
LINE
  5
12A
330
A
100
AcDbEntity
  8
TFR-TRI
  6
CONTINUOUS
 62
     2
100
AcDbLine
 10
45.98225402832031
 20
13.6216869354248
 30
0.0
 11
46.09025573730469
 21
13.6216869354248
 31
0.0
  0
LINE
  5
12B
330
A
100
AcDbEntity
  8
TFR-TRI
  6
CONTINUOUS
 62
     5
100
AcDbLine
 10
36.4434700012207
 20
53.33891296386719
 30
0.0
 11
36.43663787841797
 21
53.33891296386719
 31
0.0
  0
LINE
  5
12C
330
A
100
AcDbEntity
  8
TFR-TRI
  6
CONTINUOUS
 62
    31
100
AcDbLine
 10
33.12025451660156
 20
15.48318767547607
 30
0.0
 11
33.12025451660156
 21
15.52561378479003
 31
0.0
  0
LINE
  5
12D
330
A
100
AcDbEntity
  8
TFR-TRI
  6
CONTINUOUS
 62
     5
100
AcDbLine
 10
36.58675384521484
 20
53.45541381835937
 30
0.0
 11
36.58675384521484
 21
53.43323516845703
 31
0.0
  0
LINE
  5
12E
330
A
100
AcDbEntity
  8
TFR-TRI
  6
CONTINUOUS
 62
     2
100
AcDbLine
 10
24.15025329589843
 20
32.20281600952148
 30
0.0
 11
24.15025329589843
 21
32.23630905151367
 31
0.0
  0
LINE
  5
12F
330
A
100
AcDbEntity
  8
TFR-TRI
  6
CONTINUOUS
 62
    31
100
AcDbLine
 10
33.12025451660156
 20
12.91018772125244
 30
0.0
 11
33.12025451660156
 21
12.86776065826416
 31
0.0
  0
LINE
  5
130
330
A
100
AcDbEntity
  8
TFR-TRI
  6
CONTINUOUS
 62
     5
100
AcDbLine
 10
65.01470184326172
 20
33.59854125976562
 30
0.0
 11
65.01405334472656
 21
33.59819793701172
 31
0.0
  0
LINE
  5
131
330
A
100
AcDbEntity
  8
TFR-TRI
  6
CONTINUOUS
 62
    31
100
AcDbLine
 10
37.12025451660156
 20
15.71168708801269
 30
0.0
 11
37.12025451660156
 21
15.96168708801269
 31
0.0
  0
LINE
  5
132
330
A
100
AcDbEntity
  8
TFR-TRI
  6
CONTINUOUS
 62
     5
100
AcDbLine
 10
63.48923492431641
 20
33.59881591796875
 30
0.0
 11
63.49029922485351
 21
33.59881591796875
 31
0.0
  0
LINE
  5
133
330
A
100
AcDbEntity
  8
TFR-TRI
  6
CONTINUOUS
 62
     2
100
AcDbLine
 10
42.70275497436523
 20
57.39491271972656
 30
0.0
 11
44.57775497436523
 21
57.39491271972656
 31
0.0
  0
LINE
  5
134
330
A
100
AcDbEntity
  8
TFR-TRI
  6
CONTINUOUS
 62
    31
100
AcDbLine
 10
33.12025451660156
 20
12.6816873550415
 30
0.0
 11
33.12025451660156
 21
12.4316873550415
 31
0.0
  0
LINE
  5
135
330
A
100
AcDbEntity
  8
TFR-TRI
  6
CONTINUOUS
 62
     5
100
AcDbLine
 10
36.51225280761718
 20
33.34481430053711
 30
0.0
 11
36.51225280761718
 21
33.31481170654297
 31
0.0
  0
LINE
  5
136
330
A
100
AcDbEntity
  8
TFR-TRI
  6
CONTINUOUS
 62
     2
100
AcDbLine
 10
24.15025329589843
 20
32.32781600952148
 30
0.0
 11
24.15025329589843
 21
32.45281600952148
 31
0.0
  0
LINE
  5
137
330
A
100
AcDbEntity
  8
TFR-TRI
  6
CONTINUOUS
 62
     2
100
AcDbLine
 10
25.60025405883789
 20
47.17541122436523
 30
0.0
 11
25.60025405883789
 21
47.13298416137695
 31
0.0
  0
LINE
  5
138
330
A
100
AcDbEntity
  8
TFR-TRI
  6
CONTINUOUS
 62
     5
100
AcDbLine
 10
63.37655639648438
 20
33.56280136108398
 30
0.0
 11
63.37655639648438
 21
33.56281661987305
 31
0.0
  0
LINE
  5
139
330
A
100
AcDbEntity
  8
TFR-TRI
  6
CONTINUOUS
 62
     5
100
AcDbLine
 10
33.78466033935547
 20
53.33891296386719
 30
0.0
 11
33.74807739257812
 21
53.33891296386719
 31
0.0
  0
LINE
  5
13A
330
A
100
AcDbEntity
  8
TFR-TRI
  6
CONTINUOUS
 62
     2
100
AcDbLine
 10
44.64025497436523
 20
33.34481430053711
 30
0.0
 11
44.68592453002929
 21
33.34481430053711
 31
0.0
  0
LINE
  5
13B
330
A
100
AcDbEntity
  8
TFR-TRI
  6
CONTINUOUS
 62
     2
100
AcDbLine
 10
25.60025405883789
 20
7.339687347412109
 30
0.0
 11
25.60025405883789
 21
8.596687316894531
 31
0.0
  0
LINE
  5
13C
330
A
100
AcDbEntity
  8
TFR-TRI
  6
CONTINUOUS
 62
     2
100
AcDbLine
 10
24.25825309753418
 20
9.230180740356445
 30
0.0
 11
24.25825309753418
 21
9.196687698364257
 31
0.0
  0
LINE
  5
13D
330
A
100
AcDbEntity
  8
TFR-TRI
  6
CONTINUOUS
 62
     2
100
AcDbLine
 10
25.60025405883789
 20
60.88941192626953
 30
0.0
 11
25.60025405883789
 21
60.93183898925781
 31
0.0
  0
LINE
  5
13E
330
A
100
AcDbEntity
  8
TFR-TRI
  6
CONTINUOUS
 62
     5
100
AcDbLine
 10
63.56005477905274
 20
33.57614517211914
 30
0.0
 11
63.56005477905274
 21
33.59456253051757
 31
0.0
  0
LINE
  5
13F
330
A
100
AcDbEntity
  8
TFR-TRI
  6
CONTINUOUS
 62
     5
100
AcDbLine
 10
65.01405334472656
 20
33.51381683349609
 30
0.0
 11
65.01405334472656
 21
33.5443000793457
 31
0.0
  0
LINE
  5
140
330
A
100
AcDbEntity
  8
TFR-TRI
  6
CONTINUOUS
 62
    31
100
AcDbLine
 10
33.12025451660156
 20
33.14631652832031
 30
0.0
 11
33.12025451660156
 21
31.90481567382812
 31
0.0
  0
LINE
  5
141
330
A
100
AcDbEntity
  8
TFR-TRI
  6
CONTINUOUS
 62
     5
100
AcDbLine
 10
33.6705322265625
 20
54.73002243041992
 30
0.0
 11
33.66322326660156
 21
54.72600173950195
 31
0.0
  0
LINE
  5
142
330
A
100
AcDbEntity
  8
TFR-TRI
  6
CONTINUOUS
 62
     2
100
AcDbLine
 10
44.39025497436523
 20
61.05741119384766
 30
0.0
 11
44.51525497436523
 21
61.05741119384766
 31
0.0
  0
LINE
  5
143
330
A
100
AcDbEntity
  8
TFR-TRI
  6
CONTINUOUS
 62
     2
100
AcDbLine
 10
25.60025405883789
 20
33.34481430053711
 30
0.0
 11
25.60025405883789
 21
33.39402389526367
 31
0.0
  0
LINE
  5
144
330
A
100
AcDbEntity
  8
TFR-TRI
  6
CONTINUOUS
 62
     5
100
AcDbLine
 10
36.78466033935547
 20
53.33891296386719
 30
0.0
 11
36.74807739257812
 21
53.33891296386719
 31
0.0
  0
LINE
  5
145
330
A
100
AcDbEntity
  8
TFR-TRI
  6
CONTINUOUS
 62
     2
100
AcDbLine
 10
27.53775405883789
 20
17.5591869354248
 30
0.0
 11
25.66275405883789
 21
17.5591869354248
 31
0.0
  0
LINE
  5
146
330
A
100
AcDbEntity
  8
TFR-TRI
  6
CONTINUOUS
 62
     2
100
AcDbLine
 10
42.70275497436523
 20
49.79491424560547
 30
0.0
 11
44.57775497436523
 21
49.79491424560547
 31
0.0
  0
LINE
  5
147
330
A
100
AcDbEntity
  8
TFR-TRI
  6
CONTINUOUS
 62
     5
100
AcDbLine
 10
33.58675384521484
 20
54.60941314697265
 30
0.0
 11
33.62025451660156
 21
54.60941314697265
 31
0.0
  0
LINE
  5
148
330
A
100
AcDbEntity
  8
TFR-TRI
  6
CONTINUOUS
 62
     2
100
AcDbLine
 10
44.64025497436523
 20
60.94941329956054
 30
0.0
 11
44.60676193237304
 21
60.94941329956054
 31
0.0
  0
LINE
  5
149
330
A
100
AcDbEntity
  8
TFR-TRI
  6
CONTINUOUS
 62
     2
100
AcDbLine
 10
24.15025329589843
 20
13.60411357879638
 30
0.0
 11
24.15025329589843
 21
13.6216869354248
 31
0.0
  0
LINE
  5
14A
330
A
100
AcDbEntity
  8
TFR-TRI
  6
CONTINUOUS
 62
     2
100
AcDbLine
 10
24.15025329589843
 20
13.63926124572754
 30
0.0
 11
24.15025329589843
 21
13.6816873550415
 31
0.0
  0
LINE
  5
14B
330
A
100
AcDbEntity
  8
TFR-TRI
  6
CONTINUOUS
 62
     5
100
AcDbLine
 10
33.57927322387695
 20
54.72424697875976
 30
0.0
 11
33.57239532470703
 21
54.72903442382812
 31
0.0
  0
LINE
  5
14C
330
A
100
AcDbEntity
  8
TFR-TRI
  6
CONTINUOUS
 62
     2
100
AcDbLine
 10
24.47002410888671
 20
59.03241348266601
 30
0.0
 11
24.3019733428955
 21
59.03241348266601
 31
0.0
  0
LINE
  5
14D
330
A
100
AcDbEntity
  8
TFR-TRI
  6
CONTINUOUS
 62
     2
100
AcDbLine
 10
24.25825309753418
 20
32.45281600952148
 30
0.0
 11
24.25825309753418
 21
32.32781600952148
 31
0.0
  0
LINE
  5
14E
330
A
100
AcDbEntity
  8
TFR-TRI
  6
CONTINUOUS
 62
     5
100
AcDbLine
 10
33.55021667480468
 20
54.73141098022461
 30
0.0
 11
33.56175231933594
 21
54.73141098022461
 31
0.0
  0
LINE
  5
14F
330
A
100
AcDbEntity
  8
TFR-TRI
  6
CONTINUOUS
 62
     2
100
AcDbLine
 10
24.15025329589843
 20
59.03241348266601
 30
0.0
 11
24.15025329589843
 21
49.03241348266601
 31
0.0
  0
LINE
  5
150
330
A
100
AcDbEntity
  8
TFR-TRI
  6
CONTINUOUS
 62
     2
100
AcDbLine
 10
46.09025573730469
 20
32.45281600952148
 30
0.0
 11
46.09025573730469
 21
32.32781600952148
 31
0.0
  0
LINE
  5
151
330
A
100
AcDbEntity
  8
TFR-TRI
  6
CONTINUOUS
 62
     2
100
AcDbLine
 10
27.53775405883789
 20
50.79491424560547
 30
0.0
 11
25.66275405883789
 21
50.79491424560547
 31
0.0
  0
LINE
  5
152
330
A
100
AcDbEntity
  8
TFR-TRI
  6
CONTINUOUS
 62
     5
100
AcDbLine
 10
33.78820037841796
 20
54.73141098022461
 30
0.0
 11
33.8047866821289
 21
54.73141098022461
 31
0.0
  0
LINE
  5
153
330
A
100
AcDbEntity
  8
TFR-TRI
  6
CONTINUOUS
 62
     5
100
AcDbLine
 10
33.56996917724609
 20
54.79430007934571
 30
0.0
 11
33.57727813720703
 21
54.7983169555664
 31
0.0
  0
LINE
  5
154
330
A
100
AcDbEntity
  8
TFR-TRI
  6
CONTINUOUS
 62
     2
100
AcDbLine
 10
45.93853378295898
 20
59.03241348266601
 30
0.0
 11
46.05082321166992
 21
59.03241348266601
 31
0.0
  0
LINE
  5
155
330
A
100
AcDbEntity
  8
TFR-TRI
  6
CONTINUOUS
 62
     2
100
AcDbLine
 10
34.9202537536621
 20
10.4966869354248
 30
0.0
 11
34.9202537536621
 21
7.896687507629394
 31
0.0
  0
LINE
  5
156
330
A
100
AcDbEntity
  8
TFR-TRI
  6
CONTINUOUS
 62
     2
100
AcDbLine
 10
24.46325492858886
 20
19.19668769836425
 30
0.0
 11
24.31318283081054
 21
19.19668769836425
 31
0.0
  0
LINE
  5
157
330
A
100
AcDbEntity
  8
TFR-TRI
  6
CONTINUOUS
 62
     5
100
AcDbLine
 10
33.65375518798828
 20
54.9094123840332
 30
0.0
 11
33.62025451660156
 21
54.9094123840332
 31
0.0
  0
LINE
  5
158
330
A
100
AcDbEntity
  8
TFR-TRI
  6
CONTINUOUS
 62
     5
100
AcDbLine
 10
33.70532608032226
 20
53.27741241455078
 30
0.0
 11
33.7513313293457
 21
53.27741241455078
 31
0.0
  0
LINE
  5
159
330
A
100
AcDbEntity
  8
TFR-TRI
  6
CONTINUOUS
 62
     2
100
AcDbLine
 10
69.85355377197265
 20
33.45281600952148
 30
0.0
 11
69.62394714355468
 21
33.45281600952148
 31
0.0
  0
LINE
  5
15A
330
A
100
AcDbEntity
  8
TFR-TRI
  6
CONTINUOUS
 62
     5
100
AcDbLine
 10
33.6591567993164
 20
54.80239105224609
 30
0.0
 11
33.6653823852539
 21
54.79679107666015
 31
0.0
  0
LINE
  5
15B
330
A
100
AcDbEntity
  8
TFR-TRI
  6
CONTINUOUS
 62
     5
100
AcDbLine
 10
33.65519332885742
 20
53.26077651977539
 30
0.0
 11
33.65375518798828
 21
53.25241088867187
 31
0.0
  0
LINE
  5
15C
330
A
100
AcDbEntity
  8
TFR-TRI
  6
CONTINUOUS
 62
     2
100
AcDbLine
 10
45.24025344848633
 20
19.19668769836425
 30
0.0
 11
45.5722541809082
 21
19.19668769836425
 31
0.0
  0
LINE
  5
15D
330
A
100
AcDbEntity
  8
TFR-TRI
  6
CONTINUOUS
 62
     5
100
AcDbLine
 10
36.6705322265625
 20
53.27602386474609
 30
0.0
 11
36.66322326660156
 21
53.27200317382812
 31
0.0
  0
LINE
  5
15E
330
A
100
AcDbEntity
  8
TFR-TRI
  6
CONTINUOUS
 62
     5
100
AcDbLine
 10
33.58675384521484
 20
53.20407104492187
 30
0.0
 11
33.58675384521484
 21
53.16100692749023
 31
0.0
  0
LINE
  5
15F
330
A
100
AcDbEntity
  8
TFR-TRI
  6
CONTINUOUS
 62
     2
100
AcDbLine
 10
45.98225402832031
 20
14.83168697357177
 30
0.0
 11
45.98225402832031
 21
18.94668769836425
 31
0.0
  0
LINE
  5
160
330
A
100
AcDbEntity
  8
TFR-TRI
  6
CONTINUOUS
 62
     5
100
AcDbLine
 10
36.70532608032226
 20
54.73141098022461
 30
0.0
 11
36.7513313293457
 21
54.73141098022461
 31
0.0
  0
LINE
  5
161
330
A
100
AcDbEntity
  8
TFR-TRI
  6
CONTINUOUS
 62
     2
100
AcDbLine
 10
25.66275405883789
 20
17.4341869354248
 30
0.0
 11
27.53775405883789
 21
17.4341869354248
 31
0.0
  0
LINE
  5
162
330
A
100
AcDbEntity
  8
TFR-TRI
  6
CONTINUOUS
 62
     2
100
AcDbLine
 10
25.60025405883789
 20
21.17248153686523
 30
0.0
 11
25.60025405883789
 21
21.22168731689453
 31
0.0
  0
LINE
  5
163
330
A
100
AcDbEntity
  8
TFR-TRI
  6
CONTINUOUS
 62
     5
100
AcDbLine
 10
33.43599700927734
 20
53.27741241455078
 30
0.0
 11
33.46374893188476
 21
53.27741241455078
 31
0.0
  0
LINE
  5
164
330
A
100
AcDbEntity
  8
TFR-TRI
  6
CONTINUOUS
 62
     5
100
AcDbLine
 10
36.65519332885742
 20
54.71477508544921
 30
0.0
 11
36.65375518798828
 21
54.70641326904297
 31
0.0
  0
LINE
  5
165
330
A
100
AcDbEntity
  8
TFR-TRI
  6
CONTINUOUS
 62
     2
100
AcDbLine
 10
58.65355300903321
 20
33.34481430053711
 30
0.0
 11
58.88316345214843
 21
33.34481430053711
 31
0.0
  0
LINE
  5
166
330
A
100
AcDbEntity
  8
TFR-TRI
  6
CONTINUOUS
 62
     5
100
AcDbLine
 10
33.47584915161132
 20
53.33891296386719
 30
0.0
 11
33.4434700012207
 21
53.33891296386719
 31
0.0
  0
LINE
  5
167
330
A
100
AcDbEntity
  8
TFR-TRI
  6
CONTINUOUS
 62
     2
100
AcDbLine
 10
42.70275497436523
 20
50.66991424560547
 30
0.0
 11
44.57775497436523
 21
50.66991424560547
 31
0.0
  0
LINE
  5
168
330
A
100
AcDbEntity
  8
TFR-TRI
  6
CONTINUOUS
 62
     5
100
AcDbLine
 10
36.58675384521484
 20
54.6580696105957
 30
0.0
 11
36.58675384521484
 21
54.61500930786133
 31
0.0
  0
LINE
  5
169
330
A
100
AcDbEntity
  8
TFR-TRI
  6
CONTINUOUS
 62
     2
100
AcDbLine
 10
57.33655548095703
 20
33.5128173828125
 30
0.0
 11
57.33655548095703
 21
35.0948143005371
 31
0.0
  0
LINE
  5
16A
330
A
100
AcDbEntity
  8
TFR-TRI
  6
CONTINUOUS
 62
     5
100
AcDbLine
 10
33.58675384521484
 20
53.45541381835937
 30
0.0
 11
33.58675384521484
 21
53.43323516845703
 31
0.0
  0
LINE
  5
16B
330
A
100
AcDbEntity
  8
TFR-TRI
  6
CONTINUOUS
 62
     5
100
AcDbLine
 10
36.43571853637695
 20
54.73141098022461
 30
0.0
 11
36.43599700927734
 21
54.73141098022461
 31
0.0
  0
LINE
  5
16C
330
A
100
AcDbEntity
  8
TFR-TRI
  6
CONTINUOUS
 62
     2
100
AcDbLine
 10
44.64025497436523
 20
47.11541366577148
 30
0.0
 11
44.64025497436523
 21
47.00741195678711
 31
0.0
  0
LINE
  5
16D
330
A
100
AcDbEntity
  8
TFR-TRI
  6
CONTINUOUS
 62
     2
100
AcDbLine
 10
24.15025329589843
 20
9.230180740356445
 30
0.0
 11
24.15025329589843
 21
9.321687698364257
 31
0.0
  0
LINE
  5
16E
330
A
100
AcDbEntity
  8
TFR-TRI
  6
CONTINUOUS
 62
     5
100
AcDbLine
 10
33.65375518798828
 20
53.4498176574707
 30
0.0
 11
33.65375518798828
 21
53.45541381835937
 31
0.0
  0
LINE
  5
16F
330
A
100
AcDbEntity
  8
TFR-TRI
  6
CONTINUOUS
 62
     2
100
AcDbLine
 10
57.22855377197266
 20
35.31132125854492
 30
0.0
 11
57.22855377197266
 21
35.34481430053711
 31
0.0
  0
LINE
  5
170
330
A
100
AcDbEntity
  8
TFR-TRI
  6
CONTINUOUS
 62
     5
100
AcDbLine
 10
64.83055114746093
 20
33.56280136108398
 30
0.0
 11
64.83055114746093
 21
33.56281661987305
 31
0.0
  0
LINE
  5
171
330
A
100
AcDbEntity
  8
TFR-TRI
  6
CONTINUOUS
 62
     2
100
AcDbLine
 10
44.60676193237304
 20
47.00741195678711
 30
0.0
 11
44.51525497436523
 21
47.00741195678711
 31
0.0
  0
LINE
  5
172
330
A
100
AcDbEntity
  8
TFR-TRI
  6
CONTINUOUS
 62
     2
100
AcDbLine
 10
24.15025329589843
 20
13.6816873550415
 30
0.0
 11
24.15025329589843
 21
14.71168708801269
 31
0.0
  0
LINE
  5
173
330
A
100
AcDbEntity
  8
TFR-TRI
  6
CONTINUOUS
 62
     5
100
AcDbLine
 10
33.58675384521484
 20
54.6580696105957
 30
0.0
 11
33.58675384521484
 21
54.61500930786133
 31
0.0
  0
LINE
  5
174
330
A
100
AcDbEntity
  8
TFR-TRI
  6
CONTINUOUS
 62
     5
100
AcDbLine
 10
33.67875289916992
 20
53.27741241455078
 30
0.0
 11
33.70532608032226
 21
53.27741241455078
 31
0.0
  0
LINE
  5
175
330
A
100
AcDbEntity
  8
TFR-TRI
  6
CONTINUOUS
 62
     2
100
AcDbLine
 10
24.25825309753418
 20
13.6816873550415
 30
0.0
 11
24.25825309753418
 21
14.71168708801269
 31
0.0
  0
LINE
  5
176
330
A
100
AcDbEntity
  8
TFR-TRI
  6
CONTINUOUS
 62
     5
100
AcDbLine
 10
36.58287811279297
 20
54.80453872680664
 30
0.0
 11
36.58610916137695
 21
54.81227493286133
 31
0.0
  0
LINE
  5
177
330
A
100
AcDbEntity
  8
TFR-TRI
  6
CONTINUOUS
 62
     2
100
AcDbLine
 10
24.25825309753418
 20
9.321687698364257
 30
0.0
 11
24.25825309753418
 21
9.230180740356445
 31
0.0
  0
LINE
  5
178
330
A
100
AcDbEntity
  8
TFR-TRI
  6
CONTINUOUS
 62
     5
100
AcDbLine
 10
36.65375518798828
 20
54.81791305541992
 30
0.0
 11
36.65375518798828
 21
54.86075210571289
 31
0.0
  0
LINE
  5
179
330
A
100
AcDbEntity
  8
TFR-TRI
  6
CONTINUOUS
 62
     2
100
AcDbLine
 10
59.25355529785156
 20
33.45281600952148
 30
0.0
 11
69.25355529785156
 21
33.45281600952148
 31
0.0
  0
LINE
  5
17A
330
A
100
AcDbEntity
  8
TFR-TRI
  6
CONTINUOUS
 62
     2
100
AcDbLine
 10
45.92732620239257
 20
19.19668769836425
 30
0.0
 11
45.98225402832031
 21
19.19668769836425
 31
0.0
  0
LINE
  5
17B
330
A
100
AcDbEntity
  8
TFR-TRI
  6
CONTINUOUS
 62
     5
100
AcDbLine
 10
36.67311859130859
 20
54.79355621337891
 30
0.0
 11
36.67875289916992
 21
54.79291152954101
 31
0.0
  0
LINE
  5
17C
330
A
100
AcDbEntity
  8
TFR-TRI
  6
CONTINUOUS
 62
    31
100
AcDbLine
 10
62.90705490112305
 20
32.20283508300781
 30
0.0
 11
62.90705490112305
 21
31.90481567382812
 31
0.0
  0
LINE
  5
17D
330
A
100
AcDbEntity
  8
TFR-TRI
  6
CONTINUOUS
 62
     5
100
AcDbLine
 10
36.56175231933593
 20
54.73141098022461
 30
0.0
 11
36.67875289916992
 21
54.73141098022461
 31
0.0
  0
LINE
  5
17E
330
A
100
AcDbEntity
  8
TFR-TRI
  6
CONTINUOUS
 62
     2
100
AcDbLine
 10
46.09025573730469
 20
19.07168769836425
 30
0.0
 11
46.09025573730469
 21
18.94668769836425
 31
0.0
  0
LINE
  5
17F
330
A
100
AcDbEntity
  8
TFR-TRI
  6
CONTINUOUS
 62
     2
100
AcDbLine
 10
69.25355529785156
 20
33.41338729858398
 30
0.0
 11
69.25355529785156
 21
33.30109786987304
 31
0.0
  0
LINE
  5
180
330
A
100
AcDbEntity
  8
TFR-TRI
  6
CONTINUOUS
 62
     5
100
AcDbLine
 10
36.78820037841797
 20
53.27741241455078
 30
0.0
 11
36.8047866821289
 21
53.27741241455078
 31
0.0
  0
LINE
  5
181
330
A
100
AcDbEntity
  8
TFR-TRI
  6
CONTINUOUS
 62
    31
100
AcDbLine
 10
33.12025451660156
 20
33.31481552124023
 30
0.0
 11
33.12025451660156
 21
33.26546478271484
 31
0.0
  0
LINE
  5
182
330
A
100
AcDbEntity
  8
TFR-TRI
  6
CONTINUOUS
 62
     2
100
AcDbLine
 10
46.09025573730469
 20
13.63926124572754
 30
0.0
 11
46.09025573730469
 21
13.6216869354248
 31
0.0
  0
LINE
  5
183
330
A
100
AcDbEntity
  8
TFR-TRI
  6
CONTINUOUS
 62
     5
100
AcDbLine
 10
36.65375518798828
 20
53.1775894165039
 30
0.0
 11
36.65375518798828
 21
53.22296905517578
 31
0.0
  0
LINE
  5
184
330
A
100
AcDbEntity
  8
TFR-TRI
  6
CONTINUOUS
 62
     2
100
AcDbLine
 10
42.70275497436523
 20
50.79491424560547
 30
0.0
 11
44.57775497436523
 21
50.79491424560547
 31
0.0
  0
LINE
  5
185
330
A
100
AcDbEntity
  8
TFR-TRI
  6
CONTINUOUS
 62
     5
100
AcDbLine
 10
64.9471435546875
 20
33.59881591796875
 30
0.0
 11
64.94538879394531
 21
33.59881591796875
 31
0.0
  0
LINE
  5
186
330
A
100
AcDbEntity
  8
TFR-TRI
  6
CONTINUOUS
 62
     5
100
AcDbLine
 10
36.58675384521484
 20
53.25241088867187
 30
0.0
 11
36.58535766601562
 21
53.26065444946289
 31
0.0
  0
LINE
  5
187
330
A
100
AcDbEntity
  8
TFR-TRI
  6
CONTINUOUS
 62
     2
100
AcDbLine
 10
45.98225402832031
 20
9.196687698364257
 30
0.0
 11
45.98225402832031
 21
9.230180740356445
 31
0.0
  0
LINE
  5
188
330
A
100
AcDbEntity
  8
TFR-TRI
  6
CONTINUOUS
 62
     5
100
AcDbLine
 10
33.43571853637695
 20
53.27741241455078
 30
0.0
 11
33.43599700927734
 21
53.27741241455078
 31
0.0
  0
LINE
  5
189
330
A
100
AcDbEntity
  8
TFR-TRI
  6
CONTINUOUS
 62
     5
100
AcDbLine
 10
36.46374893188476
 20
53.27741241455078
 30
0.0
 11
36.50319671630859
 21
53.27741241455078
 31
0.0
  0
LINE
  5
18A
330
A
100
AcDbEntity
  8
TFR-TRI
  6
CONTINUOUS
 62
     2
100
AcDbLine
 10
71.17055511474609
 20
35.34481430053711
 30
0.0
 11
71.27855682373047
 21
35.34481430053711
 31
0.0
  0
LINE
  5
18B
330
A
100
AcDbEntity
  8
TFR-TRI
  6
CONTINUOUS
 62
    31
100
AcDbLine
 10
33.12025451660156
 20
15.52561378479003
 30
0.0
 11
33.12025451660156
 21
15.54318714141845
 31
0.0
  0
LINE
  5
18C
330
A
100
AcDbEntity
  8
TFR-TRI
  6
CONTINUOUS
 62
     5
100
AcDbLine
 10
36.58675384521484
 20
53.43323516845703
 30
0.0
 11
36.58675384521484
 21
53.38785552978515
 31
0.0
  0
LINE
  5
18D
330
A
100
AcDbEntity
  8
TFR-TRI
  6
CONTINUOUS
 62
    31
100
AcDbLine
 10
33.12025451660156
 20
12.86776065826416
 30
0.0
 11
33.12025451660156
 21
12.85018730163574
 31
0.0
  0
LINE
  5
18E
330
A
100
AcDbEntity
  8
TFR-TRI
  6
CONTINUOUS
 62
     5
100
AcDbLine
 10
36.65375518798828
 20
53.36391067504883
 30
0.0
 11
36.6551399230957
 21
53.35569763183594
 31
0.0
  0
LINE
  5
18F
330
A
100
AcDbEntity
  8
TFR-TRI
  6
CONTINUOUS
 62
     2
100
AcDbLine
 10
59.07781982421875
 20
33.45281600952148
 30
0.0
 11
59.20788192749023
 21
33.45281600952148
 31
0.0
  0
LINE
  5
190
330
A
100
AcDbEntity
  8
TFR-TRI
  6
CONTINUOUS
 62
    31
100
AcDbLine
 10
33.12025451660156
 20
15.71168708801269
 30
0.0
 11
33.12025451660156
 21
15.96168708801269
 31
0.0
  0
LINE
  5
191
330
A
100
AcDbEntity
  8
TFR-TRI
  6
CONTINUOUS
 62
     2
100
AcDbLine
 10
44.68592453002929
 20
33.45281600952148
 30
0.0
 11
44.81599044799804
 21
33.45281600952148
 31
0.0
  0
LINE
  5
192
330
A
100
AcDbEntity
  8
TFR-TRI
  6
CONTINUOUS
 62
     5
100
AcDbLine
 10
63.49029922485351
 20
33.59881591796875
 30
0.0
 11
63.49138641357422
 21
33.59881591796875
 31
0.0
  0
LINE
  5
193
330
A
100
AcDbEntity
  8
TFR-TRI
  6
CONTINUOUS
 62
    31
100
AcDbLine
 10
37.12025451660156
 20
12.6816873550415
 30
0.0
 11
37.12025451660156
 21
12.4316873550415
 31
0.0
  0
LINE
  5
194
330
A
100
AcDbEntity
  8
TFR-TRI
  6
CONTINUOUS
 62
     2
100
AcDbLine
 10
42.70275497436523
 20
18.4341869354248
 30
0.0
 11
44.57775497436523
 21
18.4341869354248
 31
0.0
  0
LINE
  5
195
330
A
100
AcDbEntity
  8
TFR-TRI
  6
CONTINUOUS
 62
     5
100
AcDbLine
 10
33.72825241088867
 20
33.31481170654297
 30
0.0
 11
33.72825241088867
 21
33.34481430053711
 31
0.0
  0
LINE
  5
196
330
A
100
AcDbEntity
  8
TFR-TRI
  6
CONTINUOUS
 62
     5
100
AcDbLine
 10
63.37655639648438
 20
33.56281661987305
 30
0.0
 11
63.37655639648438
 21
33.55947875976562
 31
0.0
  0
LINE
  5
197
330
A
100
AcDbEntity
  8
TFR-TRI
  6
CONTINUOUS
 62
     5
100
AcDbLine
 10
33.74807739257812
 20
53.33891296386719
 30
0.0
 11
33.70269775390625
 21
53.33891296386719
 31
0.0
  0
LINE
  5
198
330
A
100
AcDbEntity
  8
TFR-TRI
  6
CONTINUOUS
 62
     5
100
AcDbLine
 10
63.57683944702149
 20
33.59863662719726
 30
0.0
 11
63.56953430175781
 21
33.59876251220703
 31
0.0
  0
LINE
  5
199
330
A
100
AcDbEntity
  8
TFR-TRI
  6
CONTINUOUS
 62
     2
100
AcDbLine
 10
27.53775405883789
 20
49.66991424560546
 30
0.0
 11
25.66275405883789
 21
49.66991424560546
 31
0.0
  0
LINE
  5
19A
330
A
100
AcDbEntity
  8
TFR-TRI
  6
CONTINUOUS
 62
     2
100
AcDbLine
 10
25.60025405883789
 20
60.93183898925781
 30
0.0
 11
25.60025405883789
 21
60.94941329956054
 31
0.0
  0
LINE
  5
19B
330
A
100
AcDbEntity
  8
TFR-TRI
  6
CONTINUOUS
 62
     2
100
AcDbLine
 10
25.42451858520507
 20
33.34481430053711
 30
0.0
 11
25.22986412048339
 21
33.34481430053711
 31
0.0
  0
LINE
  5
19C
330
A
100
AcDbEntity
  8
TFR-TRI
  6
CONTINUOUS
 62
     5
100
AcDbLine
 10
33.66322326660156
 20
54.72600173950195
 30
0.0
 11
33.6612319946289
 21
54.72424697875976
 31
0.0
  0
LINE
  5
19D
330
A
100
AcDbEntity
  8
TFR-TRI
  6
CONTINUOUS
 62
     2
100
AcDbLine
 10
25.60025405883789
 20
33.39402389526367
 30
0.0
 11
25.60025405883789
 21
33.5128173828125
 31
0.0
  0
LINE
  5
19E
330
A
100
AcDbEntity
  8
TFR-TRI
  6
CONTINUOUS
 62
     5
100
AcDbLine
 10
33.62025451660156
 20
54.60941314697265
 30
0.0
 11
33.65375518798828
 21
54.60941314697265
 31
0.0
  0
LINE
  5
19F
330
A
100
AcDbEntity
  8
TFR-TRI
  6
CONTINUOUS
 62
     2
100
AcDbLine
 10
44.60676193237304
 20
60.94941329956054
 30
0.0
 11
44.51525497436523
 21
60.94941329956054
 31
0.0
  0
LINE
  5
1A0
330
A
100
AcDbEntity
  8
TFR-TRI
  6
CONTINUOUS
 62
     2
100
AcDbLine
 10
44.57775497436523
 20
9.959187507629394
 30
0.0
 11
42.70275497436523
 21
9.959187507629394
 31
0.0
  0
LINE
  5
1A1
330
A
100
AcDbEntity
  8
TFR-TRI
  6
CONTINUOUS
 62
     5
100
AcDbLine
 10
33.57239532470703
 20
54.72903442382812
 30
0.0
 11
33.56432342529297
 21
54.73128128051758
 31
0.0
  0
LINE
  5
1A2
330
A
100
AcDbEntity
  8
TFR-TRI
  6
CONTINUOUS
 62
     5
100
AcDbLine
 10
63.56005477905274
 20
33.5443000793457
 30
0.0
 11
63.56005477905274
 21
33.57614517211914
 31
0.0
  0
LINE
  5
1A3
330
A
100
AcDbEntity
  8
TFR-TRI
  6
CONTINUOUS
 62
     2
100
AcDbLine
 10
24.3019733428955
 20
59.03241348266601
 30
0.0
 11
24.18968391418457
 21
59.03241348266601
 31
0.0
  0
LINE
  5
1A4
330
A
100
AcDbEntity
  8
TFR-TRI
  6
CONTINUOUS
 62
     2
100
AcDbLine
 10
24.25825309753418
 20
32.32781600952148
 30
0.0
 11
24.25825309753418
 21
32.23630905151367
 31
0.0
  0
LINE
  5
1A5
330
A
100
AcDbEntity
  8
TFR-TRI
  6
CONTINUOUS
 62
     5
100
AcDbLine
 10
33.56175231933594
 20
54.79291152954101
 30
0.0
 11
33.51891326904297
 21
54.79291152954101
 31
0.0
  0
LINE
  5
1A6
330
A
100
AcDbEntity
  8
TFR-TRI
  6
CONTINUOUS
 62
     2
100
AcDbLine
 10
45.5722541809082
 20
49.03241348266601
 30
0.0
 11
45.7704849243164
 21
49.03241348266601
 31
0.0
  0
LINE
  5
1A7
330
A
100
AcDbEntity
  8
TFR-TRI
  6
CONTINUOUS
 62
     2
100
AcDbLine
 10
44.57775497436523
 20
17.5591869354248
 30
0.0
 11
42.70275497436523
 21
17.5591869354248
 31
0.0
  0
LINE
  5
1A8
330
A
100
AcDbEntity
  8
TFR-TRI
  6
CONTINUOUS
 62
    31
100
AcDbLine
 10
65.70855712890625
 20
32.20283508300781
 30
0.0
 11
65.70855712890625
 21
31.90481567382812
 31
0.0
  0
LINE
  5
1A9
330
A
100
AcDbEntity
  8
TFR-TRI
  6
CONTINUOUS
 62
     5
100
AcDbLine
 10
33.57727813720703
 20
54.7983169555664
 30
0.0
 11
33.58287811279296
 21
54.80453872680664
 31
0.0
  0
LINE
  5
1AA
330
A
100
AcDbEntity
  8
TFR-TRI
  6
CONTINUOUS
 62
     2
100
AcDbLine
 10
46.05082321166992
 20
59.03241348266601
 30
0.0
 11
46.09025573730469
 21
59.03241348266601
 31
0.0
  0
LINE
  5
1AB
330
A
100
AcDbEntity
  8
TFR-TRI
  6
CONTINUOUS
 62
    31
100
AcDbLine
 10
33.12025451660156
 20
33.26546478271484
 30
0.0
 11
33.12025451660156
 21
33.14631652832031
 31
0.0
  0
LINE
  5
1AC
330
A
100
AcDbEntity
  8
TFR-TRI
  6
CONTINUOUS
 62
     5
100
AcDbLine
 10
33.62025451660156
 20
54.9094123840332
 30
0.0
 11
33.58675384521484
 21
54.9094123840332
 31
0.0
  0
LINE
  5
1AD
330
A
100
AcDbEntity
  8
TFR-TRI
  6
CONTINUOUS
 62
     2
100
AcDbLine
 10
25.60025405883789
 20
21.0536880493164
 30
0.0
 11
25.60025405883789
 21
19.79668807983398
 31
0.0
  0
LINE
  5
1AE
330
A
100
AcDbEntity
  8
TFR-TRI
  6
CONTINUOUS
 62
     5
100
AcDbLine
 10
33.7513313293457
 20
53.27741241455078
 30
0.0
 11
33.78820037841796
 21
53.27741241455078
 31
0.0
  0
LINE
  5
1AF
330
A
100
AcDbEntity
  8
TFR-TRI
  6
CONTINUOUS
 62
    31
100
AcDbLine
 10
33.12025451660156
 20
31.90481567382812
 30
0.0
 11
33.12025451660156
 21
31.86239051818847
 31
0.0
  0
LINE
  5
1B0
330
A
100
AcDbEntity
  8
TFR-TRI
  6
CONTINUOUS
 62
     2
100
AcDbLine
 10
44.64025497436523
 20
47.13298416137695
 30
0.0
 11
44.64025497436523
 21
47.11541366577148
 31
0.0
  0
LINE
  5
1B1
330
A
100
AcDbEntity
  8
TFR-TRI
  6
CONTINUOUS
 62
     5
100
AcDbLine
 10
33.6653823852539
 20
54.79679107666015
 30
0.0
 11
33.67311859130859
 21
54.79355621337891
 31
0.0
  0
LINE
  5
1B2
330
A
100
AcDbEntity
  8
TFR-TRI
  6
CONTINUOUS
 62
     5
100
AcDbLine
 10
33.65375518798828
 20
53.15541076660156
 30
0.0
 11
33.65375518798828
 21
53.1775894165039
 31
0.0
  0
LINE
  5
1B3
330
A
100
AcDbEntity
  8
TFR-TRI
  6
CONTINUOUS
 62
     2
100
AcDbLine
 10
59.25355529785156
 20
33.41338729858398
 30
0.0
 11
59.25355529785156
 21
33.30109786987304
 31
0.0
  0
LINE
  5
1B4
330
A
100
AcDbEntity
  8
TFR-TRI
  6
CONTINUOUS
 62
     2
100
AcDbLine
 10
35.32025527954101
 20
47.73241424560547
 30
0.0
 11
35.32025527954101
 21
50.33241271972656
 31
0.0
  0
LINE
  5
1B5
330
A
100
AcDbEntity
  8
TFR-TRI
  6
CONTINUOUS
 62
     5
100
AcDbLine
 10
33.67875289916992
 20
54.79291152954101
 30
0.0
 11
33.56175231933594
 21
54.79291152954101
 31
0.0
  0
LINE
  5
1B6
330
A
100
AcDbEntity
  8
TFR-TRI
  6
CONTINUOUS
 62
     5
100
AcDbLine
 10
36.46374893188476
 20
54.73141098022461
 30
0.0
 11
36.50319671630859
 21
54.73141098022461
 31
0.0
  0
LINE
  5
1B7
330
A
100
AcDbEntity
  8
TFR-TRI
  6
CONTINUOUS
 62
     2
100
AcDbLine
 10
46.09025573730469
 20
18.94668769836425
 30
0.0
 11
46.09025573730469
 21
14.83168697357177
 31
0.0
  0
LINE
  5
1B8
330
A
100
AcDbEntity
  8
TFR-TRI
  6
CONTINUOUS
 62
     5
100
AcDbLine
 10
36.65375518798828
 20
53.40675354003906
 30
0.0
 11
36.65375518798828
 21
53.4498176574707
 31
0.0
  0
LINE
  5
1B9
330
A
100
AcDbEntity
  8
TFR-TRI
  6
CONTINUOUS
 62
     5
100
AcDbLine
 10
36.7513313293457
 20
54.73141098022461
 30
0.0
 11
36.78820037841797
 21
54.73141098022461
 31
0.0
  0
LINE
  5
1BA
330
A
100
AcDbEntity
  8
TFR-TRI
  6
CONTINUOUS
 62
     2
100
AcDbLine
 10
27.53775405883789
 20
49.79491424560547
 30
0.0
 11
25.66275405883789
 21
49.79491424560547
 31
0.0
  0
LINE
  5
1BB
330
A
100
AcDbEntity
  8
TFR-TRI
  6
CONTINUOUS
 62
     5
100
AcDbLine
 10
65.01405334472656
 20
33.5443000793457
 30
0.0
 11
65.01405334472656
 21
33.57614517211914
 31
0.0
  0
LINE
  5
1BC
330
A
100
AcDbEntity
  8
TFR-TRI
  6
CONTINUOUS
 62
     2
100
AcDbLine
 10
71.11055755615234
 20
33.34481430053711
 30
0.0
 11
69.85355377197265
 21
33.34481430053711
 31
0.0
  0
LINE
  5
1BD
330
A
100
AcDbEntity
  8
TFR-TRI
  6
CONTINUOUS
 62
     5
100
AcDbLine
 10
65.03083801269531
 20
33.59863662719726
 30
0.0
 11
65.02352905273437
 21
33.59876251220703
 31
0.0
  0
LINE
  5
1BE
330
A
100
AcDbEntity
  8
TFR-TRI
  6
CONTINUOUS
 62
     5
100
AcDbLine
 10
33.46374893188476
 20
53.27741241455078
 30
0.0
 11
33.50319671630859
 21
53.27741241455078
 31
0.0
  0
LINE
  5
1BF
330
A
100
AcDbEntity
  8
TFR-TRI
  6
CONTINUOUS
 62
     2
100
AcDbLine
 10
24.15025329589843
 20
18.94668769836425
 30
0.0
 11
24.15025329589843
 21
19.07168769836425
 31
0.0
  0
LINE
  5
1C0
330
A
100
AcDbEntity
  8
TFR-TRI
  6
CONTINUOUS
 62
     5
100
AcDbLine
 10
36.65375518798828
 20
54.60941314697265
 30
0.0
 11
36.65375518798828
 21
54.631591796875
 31
0.0
  0
LINE
  5
1C1
330
A
100
AcDbEntity
  8
TFR-TRI
  6
CONTINUOUS
 62
     2
100
AcDbLine
 10
24.46325492858886
 20
9.196687698364257
 30
0.0
 11
24.31318283081054
 21
9.196687698364257
 31
0.0
  0
LINE
  5
1C2
330
A
100
AcDbEntity
  8
TFR-TRI
  6
CONTINUOUS
 62
     5
100
AcDbLine
 10
33.4434700012207
 20
53.33891296386719
 30
0.0
 11
33.43663787841796
 21
53.33891296386719
 31
0.0
  0
LINE
  5
1C3
330
A
100
AcDbEntity
  8
TFR-TRI
  6
CONTINUOUS
 62
     5
100
AcDbLine
 10
36.58675384521484
 20
54.61500930786133
 30
0.0
 11
36.58675384521484
 21
54.60941314697265
 31
0.0
  0
LINE
  5
1C4
330
A
100
AcDbEntity
  8
TFR-TRI
  6
CONTINUOUS
 62
     2
100
AcDbLine
 10
44.64025497436523
 20
60.88941192626953
 30
0.0
 11
44.64025497436523
 21
59.63241195678711
 31
0.0
  0
LINE
  5
1C5
330
A
100
AcDbEntity
  8
TFR-TRI
  6
CONTINUOUS
 62
     2
100
AcDbLine
 10
24.15025329589843
 20
14.77168750762939
 30
0.0
 11
24.15025329589843
 21
14.78926086425781
 31
0.0
  0
LINE
  5
1C6
330
A
100
AcDbEntity
  8
TFR-TRI
  6
CONTINUOUS
 62
     5
100
AcDbLine
 10
33.58675384521484
 20
53.43323516845703
 30
0.0
 11
33.58675384521484
 21
53.38785552978515
 31
0.0
  0
LINE
  5
1C7
330
A
100
AcDbEntity
  8
TFR-TRI
  6
CONTINUOUS
 62
     5
100
AcDbLine
 10
36.43599700927734
 20
54.73141098022461
 30
0.0
 11
36.46374893188476
 21
54.73141098022461
 31
0.0
  0
LINE
  5
1C8
330
A
100
AcDbEntity
  8
TFR-TRI
  6
CONTINUOUS
 62
     2
100
AcDbLine
 10
57.22855377197266
 20
35.34481430053711
 30
0.0
 11
57.33655548095703
 21
35.34481430053711
 31
0.0
  0
LINE
  5
1C9
330
A
100
AcDbEntity
  8
TFR-TRI
  6
CONTINUOUS
 62
     5
100
AcDbLine
 10
33.65375518798828
 20
53.36391067504883
 30
0.0
 11
33.6551399230957
 21
53.35569763183594
 31
0.0
  0
LINE
  5
1CA
330
A
100
AcDbEntity
  8
TFR-TRI
  6
CONTINUOUS
 62
     5
100
AcDbLine
 10
64.83055114746093
 20
33.56281661987305
 30
0.0
 11
64.83055114746093
 21
33.55947875976562
 31
0.0
  0
LINE
  5
1CB
330
A
100
AcDbEntity
  8
TFR-TRI
  6
CONTINUOUS
 62
     2
100
AcDbLine
 10
44.51525497436523
 20
47.00741195678711
 30
0.0
 11
44.39025497436523
 21
47.00741195678711
 31
0.0
  0
LINE
  5
1CC
330
A
100
AcDbEntity
  8
TFR-TRI
  6
CONTINUOUS
 62
     2
100
AcDbLine
 10
24.15025329589843
 20
14.71168708801269
 30
0.0
 11
24.15025329589843
 21
14.75411415100097
 31
0.0
  0
LINE
  5
1CD
330
A
100
AcDbEntity
  8
TFR-TRI
  6
CONTINUOUS
 62
     2
100
AcDbLine
 10
59.25355529785156
 20
33.30109786987304
 30
0.0
 11
59.25355529785156
 21
33.1330451965332
 31
0.0
  0
LINE
  5
1CE
330
A
100
AcDbEntity
  8
TFR-TRI
  6
CONTINUOUS
 62
     2
100
AcDbLine
 10
25.42451858520507
 20
33.45281600952148
 30
0.0
 11
25.22986412048339
 21
33.45281600952148
 31
0.0
  0
LINE
  5
1CF
330
A
100
AcDbEntity
  8
TFR-TRI
  6
CONTINUOUS
 62
     5
100
AcDbLine
 10
36.58610916137695
 20
54.81227493286133
 30
0.0
 11
36.58675384521484
 21
54.81791305541992
 31
0.0
  0
LINE
  5
1D0
330
A
100
AcDbEntity
  8
TFR-TRI
  6
CONTINUOUS
 62
     2
100
AcDbLine
 10
69.25355529785156
 20
32.934814453125
 30
0.0
 11
69.25355529785156
 21
32.45281600952148
 31
0.0
  0
LINE
  5
1D1
330
A
100
AcDbEntity
  8
TFR-TRI
  6
CONTINUOUS
 62
     5
100
AcDbLine
 10
36.65375518798828
 20
54.86075210571289
 30
0.0
 11
36.65375518798828
 21
54.90381622314453
 31
0.0
  0
LINE
  5
1D2
330
A
100
AcDbEntity
  8
TFR-TRI
  6
CONTINUOUS
 62
     5
100
AcDbLine
 10
63.48191833496094
 20
33.59879302978515
 30
0.0
 11
63.47355651855469
 21
33.59855651855468
 31
0.0
  0
LINE
  5
1D3
330
A
100
AcDbEntity
  8
TFR-TRI
  6
CONTINUOUS
 62
     2
100
AcDbLine
 10
45.5722541809082
 20
9.196687698364257
 30
0.0
 11
45.77725219726562
 21
9.196687698364257
 31
0.0
  0
LINE
  5
1D4
330
A
100
AcDbEntity
  8
TFR-TRI
  6
CONTINUOUS
 62
     2
100
AcDbLine
 10
25.63374710083007
 20
47.00741195678711
 30
0.0
 11
25.60025405883789
 21
47.00741195678711
 31
0.0
  0
LINE
  5
1D5
330
A
100
AcDbEntity
  8
TFR-TRI
  6
CONTINUOUS
 62
    31
100
AcDbLine
 10
65.60005187988281
 20
32.20283508300781
 30
0.0
 11
65.60005187988281
 21
31.90481567382812
 31
0.0
  0
LINE
  5
1D6
330
A
100
AcDbEntity
  8
TFR-TRI
  6
CONTINUOUS
 62
     5
100
AcDbLine
 10
63.67655563354492
 20
33.55947875976562
 30
0.0
 11
63.67655563354492
 21
33.56281661987305
 31
0.0
  0
LINE
  5
1D7
330
A
100
AcDbEntity
  8
TFR-TRI
  6
CONTINUOUS
 62
     2
100
AcDbLine
 10
27.53775405883789
 20
50.66991424560547
 30
0.0
 11
25.66275405883789
 21
50.66991424560547
 31
0.0
  0
LINE
  5
1D8
330
A
100
AcDbEntity
  8
TFR-TRI
  6
CONTINUOUS
 62
     2
100
AcDbLine
 10
44.39025497436523
 20
47.00741195678711
 30
0.0
 11
25.85025405883789
 21
47.00741195678711
 31
0.0
  0
LINE
  5
1D9
330
A
100
AcDbEntity
  8
TFR-TRI
  6
CONTINUOUS
 62
     5
100
AcDbLine
 10
36.67875289916992
 20
53.27741241455078
 30
0.0
 11
36.6705322265625
 21
53.27602386474609
 31
0.0
  0
LINE
  5
1DA
330
A
100
AcDbEntity
  8
TFR-TRI
  6
CONTINUOUS
 62
     2
100
AcDbLine
 10
45.98225402832031
 20
9.446687698364257
 30
0.0
 11
45.98225402832031
 21
13.56168746948242
 31
0.0
  0
LINE
  5
1DB
330
A
100
AcDbEntity
  8
TFR-TRI
  6
CONTINUOUS
 62
     2
100
AcDbLine
 10
44.57775497436523
 20
10.95918750762939
 30
0.0
 11
42.70275497436523
 21
10.95918750762939
 31
0.0
  0
LINE
  5
1DC
330
A
100
AcDbEntity
  8
TFR-TRI
  6
CONTINUOUS
 62
     5
100
AcDbLine
 10
36.65375518798828
 20
53.22296905517578
 30
0.0
 11
36.65375518798828
 21
53.25241088867187
 31
0.0
  0
LINE
  5
1DD
330
A
100
AcDbEntity
  8
TFR-TRI
  6
CONTINUOUS
 62
     2
100
AcDbLine
 10
45.24025344848633
 20
33.45281600952148
 30
0.0
 11
45.5722541809082
 21
33.45281600952148
 31
0.0
  0
LINE
  5
1DE
330
A
100
AcDbEntity
  8
TFR-TRI
  6
CONTINUOUS
 62
     2
100
AcDbLine
 10
25.60025405883789
 20
47.13298416137695
 30
0.0
 11
25.60025405883789
 21
47.11541366577148
 31
0.0
  0
LINE
  5
1DF
330
A
100
AcDbEntity
  8
TFR-TRI
  6
CONTINUOUS
 62
     2
100
AcDbLine
 10
45.98225402832031
 20
14.75411415100097
 30
0.0
 11
45.98225402832031
 21
14.77168750762939
 31
0.0
  0
LINE
  5
1E0
330
A
100
AcDbEntity
  8
TFR-TRI
  6
CONTINUOUS
 62
     5
100
AcDbLine
 10
36.58535766601562
 20
53.26065444946289
 30
0.0
 11
36.58122634887695
 21
53.26809310913086
 31
0.0
  0
LINE
  5
1E1
330
A
100
AcDbEntity
  8
TFR-TRI
  6
CONTINUOUS
 62
     2
100
AcDbLine
 10
35.32025527954101
 20
17.89668655395507
 30
0.0
 11
35.32025527954101
 21
20.4966869354248
 31
0.0
  0
LINE
  5
1E2
330
A
100
AcDbEntity
  8
TFR-TRI
  6
CONTINUOUS
 62
     2
100
AcDbLine
 10
45.98225402832031
 20
9.230180740356445
 30
0.0
 11
45.98225402832031
 21
9.321687698364257
 31
0.0
  0
LINE
  5
1E3
330
A
100
AcDbEntity
  8
TFR-TRI
  6
CONTINUOUS
 62
     5
100
AcDbLine
 10
36.50319671630859
 20
53.27741241455078
 30
0.0
 11
36.55021667480468
 21
53.27741241455078
 31
0.0
  0
LINE
  5
1E4
330
A
100
AcDbEntity
  8
TFR-TRI
  6
CONTINUOUS
 62
     2
100
AcDbLine
 10
46.09025573730469
 20
9.321687698364257
 30
0.0
 11
46.09025573730469
 21
9.230180740356445
 31
0.0
  0
LINE
  5
1E5
330
A
100
AcDbEntity
  8
TFR-TRI
  6
CONTINUOUS
 62
     2
100
AcDbLine
 10
25.00025367736816
 20
49.03241348266601
 30
0.0
 11
24.66825485229492
 21
49.03241348266601
 31
0.0
  0
LINE
  5
1E6
330
A
100
AcDbEntity
  8
TFR-TRI
  6
CONTINUOUS
 62
     5
100
AcDbLine
 10
36.56175231933593
 20
53.33891296386719
 30
0.0
 11
36.56996917724609
 21
53.34030151367187
 31
0.0
  0
LINE
  5
1E7
330
A
100
AcDbEntity
  8
TFR-TRI
  6
CONTINUOUS
 62
    31
100
AcDbLine
 10
37.12025451660156
 20
15.48318767547607
 30
0.0
 11
37.12025451660156
 21
15.52561378479003
 31
0.0
  0
LINE
  5
1E8
330
A
100
AcDbEntity
  8
TFR-TRI
  6
CONTINUOUS
 62
     2
100
AcDbLine
 10
44.68592453002929
 20
33.34481430053711
 30
0.0
 11
44.81599044799804
 21
33.34481430053711
 31
0.0
  0
LINE
  5
1E9
330
A
100
AcDbEntity
  8
TFR-TRI
  6
CONTINUOUS
 62
     5
100
AcDbLine
 10
36.58675384521484
 20
53.38785552978515
 30
0.0
 11
36.58675384521484
 21
53.36391067504883
 31
0.0
  0
LINE
  5
1EA
330
A
100
AcDbEntity
  8
TFR-TRI
  6
CONTINUOUS
 62
     2
100
AcDbLine
 10
25.60025405883789
 20
33.45281600952148
 30
0.0
 11
25.55458259582519
 21
33.45281600952148
 31
0.0
  0
LINE
  5
1EB
330
A
100
AcDbEntity
  8
TFR-TRI
  6
CONTINUOUS
 62
    31
100
AcDbLine
 10
33.12025451660156
 20
12.85018730163574
 30
0.0
 11
37.12025451660156
 21
12.85018730163574
 31
0.0
  0
LINE
  5
1EC
330
A
100
AcDbEntity
  8
TFR-TRI
  6
CONTINUOUS
 62
     5
100
AcDbLine
 10
36.6551399230957
 20
53.35569763183594
 30
0.0
 11
36.6591567993164
 21
53.348388671875
 31
0.0
  0
LINE
  5
1ED
330
A
100
AcDbEntity
  8
TFR-TRI
  6
CONTINUOUS
 62
     2
100
AcDbLine
 10
24.25825309753418
 20
13.6816873550415
 30
0.0
 11
24.25825309753418
 21
13.63926124572754
 31
0.0
  0
LINE
  5
1EE
330
A
100
AcDbEntity
  8
TFR-TRI
  6
CONTINUOUS
 62
    31
100
AcDbLine
 10
37.12025451660156
 20
15.96168708801269
 30
0.0
 11
33.12025451660156
 21
15.96168708801269
 31
0.0
  0
LINE
  5
1EF
330
A
100
AcDbEntity
  8
TFR-TRI
  6
CONTINUOUS
 62
     5
100
AcDbLine
 10
36.70269775390625
 20
53.33891296386719
 30
0.0
 11
36.67875289916992
 21
53.33891296386719
 31
0.0
  0
LINE
  5
1F0
330
A
100
AcDbEntity
  8
TFR-TRI
  6
CONTINUOUS
 62
     2
100
AcDbLine
 10
71.17055511474609
 20
35.21981430053711
 30
0.0
 11
71.17055511474609
 21
35.31132125854492
 31
0.0
  0
LINE
  5
1F1
330
A
100
AcDbEntity
  8
TFR-TRI
  6
CONTINUOUS
 62
     5
100
AcDbLine
 10
33.51891326904297
 20
54.79291152954101
 30
0.0
 11
33.47584915161132
 21
54.79291152954101
 31
0.0
  0
LINE
  5
1F2
330
A
100
AcDbEntity
  8
TFR-TRI
  6
CONTINUOUS
 62
    31
100
AcDbLine
 10
33.12025451660156
 20
12.4316873550415
 30
0.0
 11
37.12025451660156
 21
12.4316873550415
 31
0.0
  0
LINE
  5
1F3
330
A
100
AcDbEntity
  8
TFR-TRI
  6
CONTINUOUS
 62
     5
100
AcDbLine
 10
63.48923492431641
 20
33.59881591796875
 30
0.0
 11
63.48191833496094
 21
33.59879302978515
 31
0.0
  0
LINE
  5
1F4
330
A
100
AcDbEntity
  8
TFR-TRI
  6
CONTINUOUS
 62
     2
100
AcDbLine
 10
69.25355529785156
 20
33.1330451965332
 30
0.0
 11
69.25355529785156
 21
32.934814453125
 31
0.0
  0
LINE
  5
1F5
330
A
100
AcDbEntity
  8
TFR-TRI
  6
CONTINUOUS
 62
     2
100
AcDbLine
 10
45.98225402832031
 20
14.78926086425781
 30
0.0
 11
45.98225402832031
 21
14.83168697357177
 31
0.0
  0
LINE
  5
1F6
330
A
100
AcDbEntity
  8
TFR-TRI
  6
CONTINUOUS
 62
     2
100
AcDbLine
 10
44.64025497436523
 20
33.45281600952148
 30
0.0
 11
44.68592453002929
 21
33.45281600952148
 31
0.0
  0
LINE
  5
1F7
330
A
100
AcDbEntity
  8
TFR-TRI
  6
CONTINUOUS
 62
     5
100
AcDbLine
 10
33.70269775390625
 20
53.33891296386719
 30
0.0
 11
33.67875289916992
 21
53.33891296386719
 31
0.0
  0
LINE
  5
1F8
330
A
100
AcDbEntity
  8
TFR-TRI
  6
CONTINUOUS
 62
     2
100
AcDbLine
 10
25.63374710083007
 20
47.11541366577148
 30
0.0
 11
25.72525405883789
 21
47.11541366577148
 31
0.0
  0
LINE
  5
1F9
330
A
100
AcDbEntity
  8
TFR-TRI
  6
CONTINUOUS
 62
     5
100
AcDbLine
 10
63.56953430175781
 20
33.59876251220703
 30
0.0
 11
63.56393051147461
 21
33.5987434387207
 31
0.0
  0
LINE
  5
1FA
330
A
100
AcDbEntity
  8
TFR-TRI
  6
CONTINUOUS
 62
     2
100
AcDbLine
 10
58.88316345214843
 20
33.34481430053711
 30
0.0
 11
59.07781982421875
 21
33.34481430053711
 31
0.0
  0
LINE
  5
1FB
330
A
100
AcDbEntity
  8
TFR-TRI
  6
CONTINUOUS
 62
     5
100
AcDbLine
 10
33.67875289916992
 20
54.73141098022461
 30
0.0
 11
33.70532608032226
 21
54.73141098022461
 31
0.0
  0
LINE
  5
1FC
330
A
100
AcDbEntity
  8
TFR-TRI
  6
CONTINUOUS
 62
     2
100
AcDbLine
 10
44.64025497436523
 20
60.88941192626953
 30
0.0
 11
44.64025497436523
 21
60.93183898925781
 31
0.0
  0
LINE
  5
1FD
330
A
100
AcDbEntity
  8
TFR-TRI
  6
CONTINUOUS
 62
     5
100
AcDbLine
 10
63.49855422973632
 20
33.51381683349609
 30
0.0
 11
63.52934265136719
 21
33.51381683349609
 31
0.0
  0
LINE
  5
1FE
330
A
100
AcDbEntity
  8
TFR-TRI
  6
CONTINUOUS
 62
     5
100
AcDbLine
 10
63.58505630493164
 20
33.59819793701172
 30
0.0
 11
63.57683944702149
 21
33.59863662719726
 31
0.0
  0
LINE
  5
1FF
330
A
100
AcDbEntity
  8
TFR-TRI
  6
CONTINUOUS
 62
     5
100
AcDbLine
 10
33.65928268432617
 20
54.72209167480468
 30
0.0
 11
33.65519332885742
 21
54.71477508544921
 31
0.0
  0
LINE
  5
200
330
A
100
AcDbEntity
  8
TFR-TRI
  6
CONTINUOUS
 62
     2
100
AcDbLine
 10
46.09025573730469
 20
32.32781600952148
 30
0.0
 11
46.09025573730469
 21
32.23630905151367
 31
0.0
  0
LINE
  5
201
330
A
100
AcDbEntity
  8
TFR-TRI
  6
CONTINUOUS
 62
     2
100
AcDbLine
 10
44.60676193237304
 20
61.05741119384766
 30
0.0
 11
44.64025497436523
 21
61.05741119384766
 31
0.0
  0
LINE
  5
202
330
A
100
AcDbEntity
  8
TFR-TRI
  6
CONTINUOUS
 62
     2
100
AcDbLine
 10
45.93853378295898
 20
49.03241348266601
 30
0.0
 11
46.05082321166992
 21
49.03241348266601
 31
0.0
  0
LINE
  5
203
330
A
100
AcDbEntity
  8
TFR-TRI
  6
CONTINUOUS
 62
     2
100
AcDbLine
 10
25.66275405883789
 20
9.834187507629394
 30
0.0
 11
27.53775405883789
 21
9.834187507629394
 31
0.0
  0
LINE
  5
204
330
A
100
AcDbEntity
  8
TFR-TRI
  6
CONTINUOUS
 62
     2
100
AcDbLine
 10
46.09025573730469
 20
13.56168746948242
 30
0.0
 11
46.09025573730469
 21
9.446687698364257
 31
0.0
  0
LINE
  5
205
330
A
100
AcDbEntity
  8
TFR-TRI
  6
CONTINUOUS
 62
     5
100
AcDbLine
 10
33.58675384521484
 20
54.70641326904297
 30
0.0
 11
33.58675384521484
 21
54.6580696105957
 31
0.0
  0
LINE
  5
206
330
A
100
AcDbEntity
  8
TFR-TRI
  6
CONTINUOUS
 62
     2
100
AcDbLine
 10
44.51525497436523
 20
60.94941329956054
 30
0.0
 11
44.39025497436523
 21
60.94941329956054
 31
0.0
  0
LINE
  5
207
330
A
100
AcDbEntity
  8
TFR-TRI
  6
CONTINUOUS
 62
     5
100
AcDbLine
 10
36.65375518798828
 20
54.90381622314453
 30
0.0
 11
36.65375518798828
 21
54.9094123840332
 31
0.0
  0
LINE
  5
208
330
A
100
AcDbEntity
  8
TFR-TRI
  6
CONTINUOUS
 62
     5
100
AcDbLine
 10
64.94429779052734
 20
33.59881591796875
 30
0.0
 11
64.94538879394531
 21
33.59881591796875
 31
0.0
  0
LINE
  5
209
330
A
100
AcDbEntity
  8
TFR-TRI
  6
CONTINUOUS
 62
     5
100
AcDbLine
 10
33.56432342529297
 20
54.73128128051758
 30
0.0
 11
33.56175231933594
 21
54.73141098022461
 31
0.0
  0
LINE
  5
20A
330
A
100
AcDbEntity
  8
TFR-TRI
  6
CONTINUOUS
 62
    31
100
AcDbLine
 10
33.12025451660156
 20
31.84481620788574
 30
0.0
 11
37.12025451660156
 21
31.84481620788574
 31
0.0
  0
LINE
  5
20B
330
A
100
AcDbEntity
  8
TFR-TRI
  6
CONTINUOUS
 62
     2
100
AcDbLine
 10
24.18968391418457
 20
59.03241348266601
 30
0.0
 11
24.15025329589843
 21
59.03241348266601
 31
0.0
  0
LINE
  5
20C
330
A
100
AcDbEntity
  8
TFR-TRI
  6
CONTINUOUS
 62
     2
100
AcDbLine
 10
25.66275405883789
 20
18.4341869354248
 30
0.0
 11
27.53775405883789
 21
18.4341869354248
 31
0.0
  0
LINE
  5
20D
330
A
100
AcDbEntity
  8
TFR-TRI
  6
CONTINUOUS
 62
     5
100
AcDbLine
 10
36.72825241088867
 20
33.31481170654297
 30
0.0
 11
36.72825241088867
 21
33.34481430053711
 31
0.0
  0
LINE
  5
20E
330
A
100
AcDbEntity
  8
TFR-TRI
  6
CONTINUOUS
 62
     2
100
AcDbLine
 10
45.7704849243164
 20
49.03241348266601
 30
0.0
 11
45.93853378295898
 21
49.03241348266601
 31
0.0
  0
LINE
  5
20F
330
A
100
AcDbEntity
  8
TFR-TRI
  6
CONTINUOUS
 62
    31
100
AcDbLine
 10
37.12025451660156
 20
15.54318714141845
 30
0.0
 11
33.12025451660156
 21
15.54318714141845
 31
0.0
  0
LINE
  5
210
330
A
100
AcDbEntity
  8
TFR-TRI
  6
CONTINUOUS
 62
     2
100
AcDbLine
 10
24.25825309753418
 20
14.75411415100097
 30
0.0
 11
24.25825309753418
 21
14.71168708801269
 31
0.0
  0
LINE
  5
211
330
A
100
AcDbEntity
  8
TFR-TRI
  6
CONTINUOUS
 62
     5
100
AcDbLine
 10
33.58287811279296
 20
54.80453872680664
 30
0.0
 11
33.58610916137695
 21
54.81227493286133
 31
0.0
  0
LINE
  5
212
330
A
100
AcDbEntity
  8
TFR-TRI
  6
CONTINUOUS
 62
     2
100
AcDbLine
 10
46.09025573730469
 20
49.03241348266601
 30
0.0
 11
46.09025573730469
 21
59.03241348266601
 31
0.0
  0
LINE
  5
213
330
A
100
AcDbEntity
  8
TFR-TRI
  6
CONTINUOUS
 62
     2
100
AcDbLine
 10
25.60025405883789
 20
47.00741195678711
 30
0.0
 11
25.60025405883789
 21
47.11541366577148
 31
0.0
  0
LINE
  5
214
330
A
100
AcDbEntity
  8
TFR-TRI
  6
CONTINUOUS
 62
    31
100
AcDbLine
 10
37.12025451660156
 20
33.31481552124023
 30
0.0
 11
37.12025451660156
 21
33.26546478271484
 31
0.0
  0
LINE
  5
215
330
A
100
AcDbEntity
  8
TFR-TRI
  6
CONTINUOUS
 62
     2
100
AcDbLine
 10
71.27855682373047
 20
35.21981430053711
 30
0.0
 11
71.27855682373047
 21
35.0948143005371
 31
0.0
  0
LINE
  5
216
330
A
100
AcDbEntity
  8
TFR-TRI
  6
CONTINUOUS
 62
     5
100
AcDbLine
 10
65.02352905273437
 20
33.59876251220703
 30
0.0
 11
65.01792907714843
 21
33.5987434387207
 31
0.0
  0
LINE
  5
217
330
A
100
AcDbEntity
  8
TFR-TRI
  6
CONTINUOUS
 62
     5
100
AcDbLine
 10
33.65375518798828
 20
54.81791305541992
 30
0.0
 11
33.65375518798828
 21
54.86075210571289
 31
0.0
  0
LINE
  5
218
330
A
100
AcDbEntity
  8
TFR-TRI
  6
CONTINUOUS
 62
     5
100
AcDbLine
 10
33.78820037841796
 20
53.27741241455078
 30
0.0
 11
33.8047866821289
 21
53.27741241455078
 31
0.0
  0
LINE
  5
219
330
A
100
AcDbEntity
  8
TFR-TRI
  6
CONTINUOUS
 62
     2
100
AcDbLine
 10
42.70275497436523
 20
49.66991424560546
 30
0.0
 11
44.57775497436523
 21
49.66991424560546
 31
0.0
  0
LINE
  5
21A
330
A
100
AcDbEntity
  8
TFR-TRI
  6
CONTINUOUS
 62
     5
100
AcDbLine
 10
33.67311859130859
 20
54.79355621337891
 30
0.0
 11
33.67875289916992
 21
54.79291152954101
 31
0.0
  0
LINE
  5
21B
330
A
100
AcDbEntity
  8
TFR-TRI
  6
CONTINUOUS
 62
     5
100
AcDbLine
 10
33.65375518798828
 20
53.1775894165039
 30
0.0
 11
33.65375518798828
 21
53.22296905517578
 31
0.0
  0
LINE
  5
21C
330
A
100
AcDbEntity
  8
TFR-TRI
  6
CONTINUOUS
 62
     5
100
AcDbLine
 10
33.56175231933594
 20
54.73141098022461
 30
0.0
 11
33.67875289916992
 21
54.73141098022461
 31
0.0
  0
LINE
  5
21D
330
A
100
AcDbEntity
  8
TFR-TRI
  6
CONTINUOUS
 62
     5
100
AcDbLine
 10
36.50319671630859
 20
54.73141098022461
 30
0.0
 11
36.55021667480468
 21
54.73141098022461
 31
0.0
  0
LINE
  5
21E
330
A
100
AcDbEntity
  8
TFR-TRI
  6
CONTINUOUS
 62
     2
100
AcDbLine
 10
24.15025329589843
 20
14.83168697357177
 30
0.0
 11
24.15025329589843
 21
18.94668769836425
 31
0.0
  0
LINE
  5
21F
330
A
100
AcDbEntity
  8
TFR-TRI
  6
CONTINUOUS
 62
     2
100
AcDbLine
 10
27.53775405883789
 20
9.959187507629394
 30
0.0
 11
25.66275405883789
 21
9.959187507629394
 31
0.0
  0
LINE
  5
220
330
A
100
AcDbEntity
  8
TFR-TRI
  6
CONTINUOUS
 62
     5
100
AcDbLine
 10
36.78820037841797
 20
54.73141098022461
 30
0.0
 11
36.8047866821289
 21
54.73141098022461
 31
0.0
  0
LINE
  5
221
330
A
100
AcDbEntity
  8
TFR-TRI
  6
CONTINUOUS
 62
     2
100
AcDbLine
 10
25.60025405883789
 20
7.339687347412109
 30
0.0
 11
25.60025405883789
 21
7.220893383026123
 31
0.0
  0
LINE
  5
222
330
A
100
AcDbEntity
  8
TFR-TRI
  6
CONTINUOUS
 62
     2
100
AcDbLine
 10
25.22986412048339
 20
33.34481430053711
 30
0.0
 11
25.00025367736816
 21
33.34481430053711
 31
0.0
  0
LINE
  5
223
330
A
100
AcDbEntity
  8
TFR-TRI
  6
CONTINUOUS
 62
     5
100
AcDbLine
 10
33.50319671630859
 20
53.27741241455078
 30
0.0
 11
33.55021667480468
 21
53.27741241455078
 31
0.0
  0
LINE
  5
224
330
A
100
AcDbEntity
  8
TFR-TRI
  6
CONTINUOUS
 62
    31
100
AcDbLine
 10
62.48855590820312
 20
31.84481620788574
 30
0.0
 11
62.48855590820312
 21
31.7363166809082
 31
0.0
  0
LINE
  5
225
330
A
100
AcDbEntity
  8
TFR-TRI
  6
CONTINUOUS
 62
     5
100
AcDbLine
 10
36.65375518798828
 20
54.631591796875
 30
0.0
 11
36.65375518798828
 21
54.67697143554687
 31
0.0
  0
LINE
  5
226
330
A
100
AcDbEntity
  8
TFR-TRI
  6
CONTINUOUS
 62
     2
100
AcDbLine
 10
59.07781982421875
 20
33.34481430053711
 30
0.0
 11
59.20788192749023
 21
33.34481430053711
 31
0.0
  0
LINE
  5
227
330
A
100
AcDbEntity
  8
TFR-TRI
  6
CONTINUOUS
 62
     5
100
AcDbLine
 10
33.56175231933594
 20
53.33891296386719
 30
0.0
 11
33.56996917724609
 21
53.34030151367187
 31
0.0
  0
LINE
  5
228
330
A
100
AcDbEntity
  8
TFR-TRI
  6
CONTINUOUS
 62
     2
100
AcDbLine
 10
46.09025573730469
 20
13.6216869354248
 30
0.0
 11
46.09025573730469
 21
13.60411357879638
 31
0.0
  0
LINE
  5
229
330
A
100
AcDbEntity
  8
TFR-TRI
  6
CONTINUOUS
 62
     5
100
AcDbLine
 10
36.58675384521484
 20
54.70641326904297
 30
0.0
 11
36.58535766601562
 21
54.71465301513672
 31
0.0
  0
LINE
  5
22A
330
A
100
AcDbEntity
  8
TFR-TRI
  6
CONTINUOUS
 62
     2
100
AcDbLine
 10
57.22855377197266
 20
35.0948143005371
 30
0.0
 11
57.22855377197266
 21
35.21981430053711
 31
0.0
  0
LINE
  5
22B
330
A
100
AcDbEntity
  8
TFR-TRI
  6
CONTINUOUS
 62
     5
100
AcDbLine
 10
33.58675384521484
 20
53.38785552978515
 30
0.0
 11
33.58675384521484
 21
53.36391067504883
 31
0.0
  0
LINE
  5
22C
330
A
100
AcDbEntity
  8
TFR-TRI
  6
CONTINUOUS
 62
     5
100
AcDbLine
 10
63.39873123168946
 20
33.57614517211914
 30
0.0
 11
63.44411087036132
 21
33.59456253051757
 31
0.0
  0
LINE
  5
22D
330
A
100
AcDbEntity
  8
TFR-TRI
  6
CONTINUOUS
 62
     5
100
AcDbLine
 10
64.9432373046875
 20
33.59881591796875
 30
0.0
 11
64.93592071533203
 21
33.59879302978515
 31
0.0
  0
LINE
  5
22E
330
A
100
AcDbEntity
  8
TFR-TRI
  6
CONTINUOUS
 62
     2
100
AcDbLine
 10
24.15025329589843
 20
9.446687698364257
 30
0.0
 11
24.15025329589843
 21
13.56168746948242
 31
0.0
  0
LINE
  5
22F
330
A
100
AcDbEntity
  8
TFR-TRI
  6
CONTINUOUS
 62
     5
100
AcDbLine
 10
33.6551399230957
 20
53.35569763183594
 30
0.0
 11
33.6591567993164
 21
53.348388671875
 31
0.0
  0
LINE
  5
230
330
A
100
AcDbEntity
  8
TFR-TRI
  6
CONTINUOUS
 62
    31
100
AcDbLine
 10
37.12025451660156
 20
33.31481552124023
 30
0.0
 11
33.12025451660156
 21
33.31481552124023
 31
0.0
  0
LINE
  5
231
330
A
100
AcDbEntity
  8
TFR-TRI
  6
CONTINUOUS
 62
     5
100
AcDbLine
 10
65.13055419921875
 20
33.55947875976562
 30
0.0
 11
65.13055419921875
 21
33.56281661987305
 31
0.0
  0
LINE
  5
232
330
A
100
AcDbEntity
  8
TFR-TRI
  6
CONTINUOUS
 62
     5
100
AcDbLine
 10
33.58675384521484
 20
53.16100692749023
 30
0.0
 11
33.58675384521484
 21
53.15541076660156
 31
0.0
  0
LINE
  5
233
330
A
100
AcDbEntity
  8
TFR-TRI
  6
CONTINUOUS
 62
     2
100
AcDbLine
 10
24.15025329589843
 20
14.75411415100097
 30
0.0
 11
24.15025329589843
 21
14.77168750762939
 31
0.0
  0
LINE
  5
234
330
A
100
AcDbEntity
  8
TFR-TRI
  6
CONTINUOUS
 62
     5
100
AcDbLine
 10
36.4434700012207
 20
54.79291152954101
 30
0.0
 11
36.43663787841797
 21
54.79291152954101
 31
0.0
  0
LINE
  5
235
330
A
100
AcDbEntity
  8
TFR-TRI
  6
CONTINUOUS
 62
     2
100
AcDbLine
 10
24.25825309753418
 20
14.78926086425781
 30
0.0
 11
24.25825309753418
 21
14.77168750762939
 31
0.0
  0
LINE
  5
236
330
A
100
AcDbEntity
  8
TFR-TRI
  6
CONTINUOUS
 62
     2
100
AcDbLine
 10
59.25355529785156
 20
33.1330451965332
 30
0.0
 11
59.25355529785156
 21
32.934814453125
 31
0.0
  0
LINE
  5
237
330
A
100
AcDbEntity
  8
TFR-TRI
  6
CONTINUOUS
 62
     5
100
AcDbLine
 10
36.58675384521484
 20
54.9094123840332
 30
0.0
 11
36.58675384521484
 21
54.88723373413086
 31
0.0
  0
LINE
  5
238
330
A
100
AcDbEntity
  8
TFR-TRI
  6
CONTINUOUS
 62
     2
100
AcDbLine
 10
24.25825309753418
 20
19.19668769836425
 30
0.0
 11
24.25825309753418
 21
19.16319274902343
 31
0.0
  0
LINE
  5
239
330
A
100
AcDbEntity
  8
TFR-TRI
  6
CONTINUOUS
 62
     2
100
AcDbLine
 10
63.67855453491211
 20
32.2628173828125
 30
0.0
 11
63.67855453491211
 21
32.66281509399414
 31
0.0
  0
LINE
  5
23A
330
A
100
AcDbEntity
  8
TFR-TRI
  6
CONTINUOUS
 62
     5
100
AcDbLine
 10
36.78466033935547
 20
54.79291152954101
 30
0.0
 11
36.74807739257812
 21
54.79291152954101
 31
0.0
  0
LINE
  5
23B
330
A
100
AcDbEntity
  8
TFR-TRI
  6
CONTINUOUS
 62
     5
100
AcDbLine
 10
33.46374893188476
 20
54.73141098022461
 30
0.0
 11
33.50319671630859
 21
54.73141098022461
 31
0.0
  0
LINE
  5
23C
330
A
100
AcDbEntity
  8
TFR-TRI
  6
CONTINUOUS
 62
     2
100
AcDbLine
 10
24.31318283081054
 20
9.196687698364257
 30
0.0
 11
24.25825309753418
 21
9.196687698364257
 31
0.0
  0
LINE
  5
23D
330
A
100
AcDbEntity
  8
TFR-TRI
  6
CONTINUOUS
 62
     2
100
AcDbLine
 10
46.09025573730469
 20
9.446687698364257
 30
0.0
 11
46.09025573730469
 21
9.321687698364257
 31
0.0
  0
LINE
  5
23E
330
A
100
AcDbEntity
  8
TFR-TRI
  6
CONTINUOUS
 62
     5
100
AcDbLine
 10
64.95255279541016
 20
33.59841156005859
 30
0.0
 11
64.95255279541016
 21
33.59441757202148
 31
0.0
  0
LINE
  5
23F
330
A
100
AcDbEntity
  8
TFR-TRI
  6
CONTINUOUS
 62
     2
100
AcDbLine
 10
25.66275405883789
 20
10.83418750762939
 30
0.0
 11
27.53775405883789
 21
10.83418750762939
 31
0.0
  0
LINE
  5
240
330
A
100
AcDbEntity
  8
TFR-TRI
  6
CONTINUOUS
 62
     2
100
AcDbLine
 10
69.42929077148438
 20
33.34481430053711
 30
0.0
 11
69.29922485351562
 21
33.34481430053711
 31
0.0
  0
LINE
  5
241
330
A
100
AcDbEntity
  8
TFR-TRI
  6
CONTINUOUS
 62
     2
100
AcDbLine
 10
46.09025573730469
 20
14.78926086425781
 30
0.0
 11
46.09025573730469
 21
14.77168750762939
 31
0.0
  0
LINE
  5
242
330
A
100
AcDbEntity
  8
TFR-TRI
  6
CONTINUOUS
 62
     2
100
AcDbLine
 10
25.55458259582519
 20
33.34481430053711
 30
0.0
 11
25.42451858520507
 21
33.34481430053711
 31
0.0
  0
LINE
  5
243
330
A
100
AcDbEntity
  8
TFR-TRI
  6
CONTINUOUS
 62
     5
100
AcDbLine
 10
36.58675384521484
 20
53.15541076660156
 30
0.0
 11
36.62025451660156
 21
53.15541076660156
 31
0.0
  0
LINE
  5
244
330
A
100
AcDbEntity
  8
TFR-TRI
  6
CONTINUOUS
 62
     2
100
AcDbLine
 10
45.98225402832031
 20
19.19668769836425
 30
0.0
 11
46.09025573730469
 21
19.19668769836425
 31
0.0
  0
LINE
  5
245
330
A
100
AcDbEntity
  8
TFR-TRI
  6
CONTINUOUS
 62
     2
100
AcDbLine
 10
45.98225402832031
 20
14.77168750762939
 30
0.0
 11
45.98225402832031
 21
14.78926086425781
 31
0.0
  0
LINE
  5
246
330
A
100
AcDbEntity
  8
TFR-TRI
  6
CONTINUOUS
 62
     5
100
AcDbLine
 10
36.57927322387695
 20
53.27024459838867
 30
0.0
 11
36.57239532470703
 21
53.2750358581543
 31
0.0
  0
LINE
  5
247
330
A
100
AcDbEntity
  8
TFR-TRI
  6
CONTINUOUS
 62
     2
100
AcDbLine
 10
45.98225402832031
 20
9.321687698364257
 30
0.0
 11
45.98225402832031
 21
9.446687698364257
 31
0.0
  0
LINE
  5
248
330
A
100
AcDbEntity
  8
TFR-TRI
  6
CONTINUOUS
 62
     5
100
AcDbLine
 10
36.55021667480468
 20
53.27741241455078
 30
0.0
 11
36.56175231933593
 21
53.27741241455078
 31
0.0
  0
LINE
  5
249
330
A
100
AcDbEntity
  8
TFR-TRI
  6
CONTINUOUS
 62
    31
100
AcDbLine
 10
37.12025451660156
 20
15.52561378479003
 30
0.0
 11
37.12025451660156
 21
15.54318714141845
 31
0.0
  0
LINE
  5
24A
330
A
100
AcDbEntity
  8
TFR-TRI
  6
CONTINUOUS
 62
     5
100
AcDbLine
 10
36.65375518798828
 20
53.45541381835937
 30
0.0
 11
36.62025451660156
 21
53.45541381835937
 31
0.0
  0
LINE
  5
24B
330
A
100
AcDbEntity
  8
TFR-TRI
  6
CONTINUOUS
 62
     2
100
AcDbLine
 10
44.81599044799804
 20
33.34481430053711
 30
0.0
 11
45.01064300537109
 21
33.34481430053711
 31
0.0
  0
LINE
  5
24C
330
A
100
AcDbEntity
  8
TFR-TRI
  6
CONTINUOUS
 62
    31
100
AcDbLine
 10
37.12025451660156
 20
15.54318714141845
 30
0.0
 11
37.12025451660156
 21
15.59253978729248
 31
0.0
  0
LINE
  5
24D
330
A
100
AcDbEntity
  8
TFR-TRI
  6
CONTINUOUS
 62
     2
100
AcDbLine
 10
27.53775405883789
 20
57.39491271972656
 30
0.0
 11
25.66275405883789
 21
57.39491271972656
 31
0.0
  0
LINE
  5
24E
330
A
100
AcDbEntity
  8
TFR-TRI
  6
CONTINUOUS
 62
     5
100
AcDbLine
 10
65.01405334472656
 20
33.57614517211914
 30
0.0
 11
65.01405334472656
 21
33.59456253051757
 31
0.0
  0
LINE
  5
24F
330
A
100
AcDbEntity
  8
TFR-TRI
  6
CONTINUOUS
 62
     5
100
AcDbLine
 10
63.49855422973632
 20
33.59441757202148
 30
0.0
 11
63.49855422973632
 21
33.57492446899414
 31
0.0
  0
LINE
  5
250
330
A
100
AcDbEntity
  8
TFR-TRI
  6
CONTINUOUS
 62
     2
100
AcDbLine
 10
24.66825485229492
 20
9.196687698364257
 30
0.0
 11
24.46325492858886
 21
9.196687698364257
 31
0.0
  0
LINE
  5
251
330
A
100
AcDbEntity
  8
TFR-TRI
  6
CONTINUOUS
 62
     2
100
AcDbLine
 10
25.00025367736816
 20
33.45281600952148
 30
0.0
 11
24.66825485229492
 21
33.45281600952148
 31
0.0
  0
LINE
  5
252
330
A
100
AcDbEntity
  8
TFR-TRI
  6
CONTINUOUS
 62
     5
100
AcDbLine
 10
64.9432373046875
 20
33.59881591796875
 30
0.0
 11
64.94429779052734
 21
33.59881591796875
 31
0.0
  0
LINE
  5
253
330
A
100
AcDbEntity
  8
TFR-TRI
  6
CONTINUOUS
 62
     2
100
AcDbLine
 10
69.85355377197265
 20
33.34481430053711
 30
0.0
 11
69.62394714355468
 21
33.34481430053711
 31
0.0
  0
LINE
  5
254
330
A
100
AcDbEntity
  8
TFR-TRI
  6
CONTINUOUS
 62
     2
100
AcDbLine
 10
24.25825309753418
 20
32.23630905151367
 30
0.0
 11
24.25825309753418
 21
32.20281600952148
 31
0.0
  0
LINE
  5
255
330
A
100
AcDbEntity
  8
TFR-TRI
  6
CONTINUOUS
 62
     5
100
AcDbLine
 10
63.67655563354492
 20
33.56281661987305
 30
0.0
 11
63.67655563354492
 21
33.56281280517578
 31
0.0
  0
LINE
  5
256
330
A
100
AcDbEntity
  8
TFR-TRI
  6
CONTINUOUS
 62
     2
100
AcDbLine
 10
25.00025367736816
 20
33.34481430053711
 30
0.0
 11
24.66825485229492
 21
33.34481430053711
 31
0.0
  0
LINE
  5
257
330
A
100
AcDbEntity
  8
TFR-TRI
  6
CONTINUOUS
 62
     2
100
AcDbLine
 10
25.72525405883789
 20
47.11541366577148
 30
0.0
 11
25.85025405883789
 21
47.11541366577148
 31
0.0
  0
LINE
  5
258
330
A
100
AcDbEntity
  8
TFR-TRI
  6
CONTINUOUS
 62
     5
100
AcDbLine
 10
63.56393051147461
 20
33.5987434387207
 30
0.0
 11
63.56069946289062
 21
33.59854125976562
 31
0.0
  0
LINE
  5
259
330
A
100
AcDbEntity
  8
TFR-TRI
  6
CONTINUOUS
 62
     2
100
AcDbLine
 10
45.77725219726562
 20
9.196687698364257
 30
0.0
 11
45.92732620239257
 21
9.196687698364257
 31
0.0
  0
LINE
  5
25A
330
A
100
AcDbEntity
  8
TFR-TRI
  6
CONTINUOUS
 62
     5
100
AcDbLine
 10
33.70532608032226
 20
54.73141098022461
 30
0.0
 11
33.7513313293457
 21
54.73141098022461
 31
0.0
  0
LINE
  5
25B
330
A
100
AcDbEntity
  8
TFR-TRI
  6
CONTINUOUS
 62
     2
100
AcDbLine
 10
44.64025497436523
 20
60.93183898925781
 30
0.0
 11
44.64025497436523
 21
60.94941329956054
 31
0.0
  0
LINE
  5
25C
330
A
100
AcDbEntity
  8
TFR-TRI
  6
CONTINUOUS
 62
     5
100
AcDbLine
 10
63.52934265136719
 20
33.51381683349609
 30
0.0
 11
63.56005477905274
 21
33.51381683349609
 31
0.0
  0
LINE
  5
25D
330
A
100
AcDbEntity
  8
TFR-TRI
  6
CONTINUOUS
 62
     5
100
AcDbLine
 10
64.98334503173828
 20
33.51381683349609
 30
0.0
 11
65.01405334472656
 21
33.51381683349609
 31
0.0
  0
LINE
  5
25E
330
A
100
AcDbEntity
  8
TFR-TRI
  6
CONTINUOUS
 62
     5
100
AcDbLine
 10
36.56996917724609
 20
53.34030151367187
 30
0.0
 11
36.57727813720703
 21
53.34431457519531
 31
0.0
  0
LINE
  5
25F
330
A
100
AcDbEntity
  8
TFR-TRI
  6
CONTINUOUS
 62
     5
100
AcDbLine
 10
63.49314498901367
 20
33.59881591796875
 30
0.0
 11
63.49138641357422
 21
33.59881591796875
 31
0.0
  0
LINE
  5
260
330
A
100
AcDbEntity
  8
TFR-TRI
  6
CONTINUOUS
 62
     5
100
AcDbLine
 10
33.65519332885742
 20
54.71477508544921
 30
0.0
 11
33.65375518798828
 21
54.70641326904297
 31
0.0
  0
LINE
  5
261
330
A
100
AcDbEntity
  8
TFR-TRI
  6
CONTINUOUS
 62
     2
100
AcDbLine
 10
25.60025405883789
 20
61.05741119384766
 30
0.0
 11
25.63374710083007
 21
61.05741119384766
 31
0.0
  0
LINE
  5
262
330
A
100
AcDbEntity
  8
TFR-TRI
  6
CONTINUOUS
 62
    31
100
AcDbLine
 10
37.12025451660156
 20
31.86239051818847
 30
0.0
 11
37.12025451660156
 21
31.84481620788574
 31
0.0
  0
LINE
  5
263
330
A
100
AcDbEntity
  8
TFR-TRI
  6
CONTINUOUS
 62
     2
100
AcDbLine
 10
25.60025405883789
 20
33.5128173828125
 30
0.0
 11
25.60025405883789
 21
35.0948143005371
 31
0.0
  0
LINE
  5
264
330
A
100
AcDbEntity
  8
TFR-TRI
  6
CONTINUOUS
 62
     5
100
AcDbLine
 10
33.47584915161132
 20
54.79291152954101
 30
0.0
 11
33.4434700012207
 21
54.79291152954101
 31
0.0
  0
LINE
  5
265
330
A
100
AcDbEntity
  8
TFR-TRI
  6
CONTINUOUS
 62
     2
100
AcDbLine
 10
25.85025405883789
 20
60.94941329956054
 30
0.0
 11
25.72525405883789
 21
60.94941329956054
 31
0.0
  0
LINE
  5
266
330
A
100
AcDbEntity
  8
TFR-TRI
  6
CONTINUOUS
 62
     2
100
AcDbLine
 10
42.70275497436523
 20
9.834187507629394
 30
0.0
 11
44.57775497436523
 21
9.834187507629394
 31
0.0
  0
LINE
  5
267
330
A
100
AcDbEntity
  8
TFR-TRI
  6
CONTINUOUS
 62
     5
100
AcDbLine
 10
33.43571853637695
 20
54.73141098022461
 30
0.0
 11
33.43599700927734
 21
54.73141098022461
 31
0.0
  0
LINE
  5
268
330
A
100
AcDbEntity
  8
TFR-TRI
  6
CONTINUOUS
 62
     2
100
AcDbLine
 10
24.66825485229492
 20
49.03241348266601
 30
0.0
 11
24.47002410888671
 21
49.03241348266601
 31
0.0
  0
LINE
  5
269
330
A
100
AcDbEntity
  8
TFR-TRI
  6
CONTINUOUS
 62
     2
100
AcDbLine
 10
42.70275497436523
 20
58.26991271972656
 30
0.0
 11
44.57775497436523
 21
58.26991271972656
 31
0.0
  0
LINE
  5
26A
330
A
100
AcDbEntity
  8
TFR-TRI
  6
CONTINUOUS
 62
     2
100
AcDbLine
 10
45.98225402832031
 20
32.20281600952148
 30
0.0
 11
45.98225402832031
 21
32.23630905151367
 31
0.0
  0
LINE
  5
26B
330
A
100
AcDbEntity
  8
TFR-TRI
  6
CONTINUOUS
 62
     5
100
AcDbLine
 10
33.58610916137695
 20
54.81227493286133
 30
0.0
 11
33.58675384521484
 21
54.81791305541992
 31
0.0
  0
LINE
  5
26C
330
A
100
AcDbEntity
  8
TFR-TRI
  6
CONTINUOUS
 62
     2
100
AcDbLine
 10
45.98225402832031
 20
13.56168746948242
 30
0.0
 11
45.98225402832031
 21
13.60411357879638
 31
0.0
  0
LINE
  5
26D
330
A
100
AcDbEntity
  8
TFR-TRI
  6
CONTINUOUS
 62
     5
100
AcDbLine
 10
33.65375518798828
 20
54.86075210571289
 30
0.0
 11
33.65375518798828
 21
54.90381622314453
 31
0.0
  0
LINE
  5
26E
330
A
100
AcDbEntity
  8
TFR-TRI
  6
CONTINUOUS
 62
     5
100
AcDbLine
 10
33.67875289916992
 20
53.27741241455078
 30
0.0
 11
33.6705322265625
 21
53.27602386474609
 31
0.0
  0
LINE
  5
26F
330
A
100
AcDbEntity
  8
TFR-TRI
  6
CONTINUOUS
 62
     2
100
AcDbLine
 10
44.64025497436523
 20
7.220893383026123
 30
0.0
 11
44.64025497436523
 21
7.171687126159667
 31
0.0
  0
LINE
  5
270
330
A
100
AcDbEntity
  8
TFR-TRI
  6
CONTINUOUS
 62
     2
100
AcDbLine
 10
24.15025329589843
 20
19.19668769836425
 30
0.0
 11
24.25825309753418
 21
19.19668769836425
 31
0.0
  0
LINE
  5
271
330
A
100
AcDbEntity
  8
TFR-TRI
  6
CONTINUOUS
 62
    31
100
AcDbLine
 10
66.0185546875
 20
31.7363166809082
 30
0.0
 11
66.0185546875
 21
31.84481620788574
 31
0.0
  0
LINE
  5
272
330
A
100
AcDbEntity
  8
TFR-TRI
  6
CONTINUOUS
 62
     5
100
AcDbLine
 10
33.65375518798828
 20
53.22296905517578
 30
0.0
 11
33.65375518798828
 21
53.25241088867187
 31
0.0
  0
LINE
  5
273
330
A
100
AcDbEntity
  8
TFR-TRI
  6
CONTINUOUS
 62
     2
100
AcDbLine
 10
69.29922485351562
 20
33.45281600952148
 30
0.0
 11
69.25355529785156
 21
33.45281600952148
 31
0.0
  0
LINE
  5
274
330
A
100
AcDbEntity
  8
TFR-TRI
  6
CONTINUOUS
 62
     2
100
AcDbLine
 10
45.01064300537109
 20
33.34481430053711
 30
0.0
 11
45.24025344848633
 21
33.34481430053711
 31
0.0
  0
LINE
  5
275
330
A
100
AcDbEntity
  8
TFR-TRI
  6
CONTINUOUS
 62
     2
100
AcDbLine
 10
44.51525497436523
 20
61.05741119384766
 30
0.0
 11
44.60676193237304
 21
61.05741119384766
 31
0.0
  0
LINE
  5
276
330
A
100
AcDbEntity
  8
TFR-TRI
  6
CONTINUOUS
 62
     5
100
AcDbLine
 10
36.55021667480468
 20
54.73141098022461
 30
0.0
 11
36.56175231933593
 21
54.73141098022461
 31
0.0
  0
LINE
  5
277
330
A
100
AcDbEntity
  8
TFR-TRI
  6
CONTINUOUS
 62
     2
100
AcDbLine
 10
24.25825309753418
 20
18.94668769836425
 30
0.0
 11
24.25825309753418
 21
14.83168697357177
 31
0.0
  0
LINE
  5
278
330
A
100
AcDbEntity
  8
TFR-TRI
  6
CONTINUOUS
 62
     5
100
AcDbLine
 10
36.6591567993164
 20
53.348388671875
 30
0.0
 11
36.6653823852539
 21
53.34278869628906
 31
0.0
  0
LINE
  5
279
330
A
100
AcDbEntity
  8
TFR-TRI
  6
CONTINUOUS
 62
     5
100
AcDbLine
 10
33.57927322387695
 20
53.27024459838867
 30
0.0
 11
33.57239532470703
 21
53.2750358581543
 31
0.0
  0
LINE
  5
27A
330
A
100
AcDbEntity
  8
TFR-TRI
  6
CONTINUOUS
 62
     5
100
AcDbLine
 10
36.67875289916992
 20
54.73141098022461
 30
0.0
 11
36.6705322265625
 21
54.73002243041992
 31
0.0
  0
LINE
  5
27B
330
A
100
AcDbEntity
  8
TFR-TRI
  6
CONTINUOUS
 62
     5
100
AcDbLine
 10
33.80386734008789
 20
54.79291152954101
 30
0.0
 11
33.78466033935547
 21
54.79291152954101
 31
0.0
  0
LINE
  5
27C
330
A
100
AcDbEntity
  8
TFR-TRI
  6
CONTINUOUS
 62
     2
100
AcDbLine
 10
69.62394714355468
 20
33.34481430053711
 30
0.0
 11
69.42929077148438
 21
33.34481430053711
 31
0.0
  0
LINE
  5
27D
330
A
100
AcDbEntity
  8
TFR-TRI
  6
CONTINUOUS
 62
     5
100
AcDbLine
 10
63.67095947265625
 20
33.56432723999023
 30
0.0
 11
63.67655563354492
 21
33.55947875976562
 31
0.0
  0
LINE
  5
27E
330
A
100
AcDbEntity
  8
TFR-TRI
  6
CONTINUOUS
 62
     5
100
AcDbLine
 10
36.56175231933593
 20
53.27741241455078
 30
0.0
 11
36.67875289916992
 21
53.27741241455078
 31
0.0
  0
LINE
  5
27F
330
A
100
AcDbEntity
  8
TFR-TRI
  6
CONTINUOUS
 62
     5
100
AcDbLine
 10
36.65375518798828
 20
54.67697143554687
 30
0.0
 11
36.65375518798828
 21
54.70641326904297
 31
0.0
  0
LINE
  5
280
330
A
100
AcDbEntity
  8
TFR-TRI
  6
CONTINUOUS
 62
    31
100
AcDbLine
 10
62.73855590820312
 20
31.7363166809082
 30
0.0
 11
62.48855590820312
 21
31.7363166809082
 31
0.0
  0
LINE
  5
281
330
A
100
AcDbEntity
  8
TFR-TRI
  6
CONTINUOUS
 62
     2
100
AcDbLine
 10
59.20788192749023
 20
33.34481430053711
 30
0.0
 11
59.25355529785156
 21
33.34481430053711
 31
0.0
  0
LINE
  5
282
330
A
100
AcDbEntity
  8
TFR-TRI
  6
CONTINUOUS
 62
     5
100
AcDbLine
 10
36.58535766601562
 20
54.71465301513672
 30
0.0
 11
36.58122634887695
 21
54.72209167480468
 31
0.0
  0
LINE
  5
283
330
A
100
AcDbEntity
  8
TFR-TRI
  6
CONTINUOUS
 62
     5
100
AcDbLine
 10
36.74807739257812
 20
53.33891296386719
 30
0.0
 11
36.70269775390625
 21
53.33891296386719
 31
0.0
  0
LINE
  5
284
330
A
100
AcDbEntity
  8
TFR-TRI
  6
CONTINUOUS
 62
     2
100
AcDbLine
 10
57.22855377197266
 20
35.21981430053711
 30
0.0
 11
57.22855377197266
 21
35.31132125854492
 31
0.0
  0
LINE
  5
285
330
A
100
AcDbEntity
  8
TFR-TRI
  6
CONTINUOUS
 62
     5
100
AcDbLine
 10
33.65375518798828
 20
53.45541381835937
 30
0.0
 11
33.62025451660156
 21
53.45541381835937
 31
0.0
  0
LINE
  5
286
330
A
100
AcDbEntity
  8
TFR-TRI
  6
CONTINUOUS
 62
     5
100
AcDbLine
 10
64.93592071533203
 20
33.59879302978515
 30
0.0
 11
64.92755126953125
 21
33.59855651855468
 31
0.0
  0
LINE
  5
287
330
A
100
AcDbEntity
  8
TFR-TRI
  6
CONTINUOUS
 62
     2
100
AcDbLine
 10
25.85025405883789
 20
47.00741195678711
 30
0.0
 11
25.72525405883789
 21
47.00741195678711
 31
0.0
  0
LINE
  5
288
330
A
100
AcDbEntity
  8
TFR-TRI
  6
CONTINUOUS
 62
     5
100
AcDbLine
 10
63.49855422973632
 20
33.57492446899414
 30
0.0
 11
63.49855422973632
 21
33.5411262512207
 31
0.0
  0
LINE
  5
289
330
A
100
AcDbEntity
  8
TFR-TRI
  6
CONTINUOUS
 62
     2
100
AcDbLine
 10
45.24025344848633
 20
59.03241348266601
 30
0.0
 11
45.5722541809082
 21
59.03241348266601
 31
0.0
  0
LINE
  5
28A
330
A
100
AcDbEntity
  8
TFR-TRI
  6
CONTINUOUS
 62
     5
100
AcDbLine
 10
33.6591567993164
 20
53.348388671875
 30
0.0
 11
33.6653823852539
 21
53.34278869628906
 31
0.0
  0
LINE
  5
28B
330
A
100
AcDbEntity
  8
TFR-TRI
  6
CONTINUOUS
 62
     5
100
AcDbLine
 10
65.13055419921875
 20
33.56281661987305
 30
0.0
 11
65.13055419921875
 21
33.56281280517578
 31
0.0
  0
LINE
  5
28C
330
A
100
AcDbEntity
  8
TFR-TRI
  6
CONTINUOUS
 62
     5
100
AcDbLine
 10
33.80386734008789
 20
53.33891296386719
 30
0.0
 11
33.78466033935547
 21
53.33891296386719
 31
0.0
  0
LINE
  5
28D
330
A
100
AcDbEntity
  8
TFR-TRI
  6
CONTINUOUS
 62
     5
100
AcDbLine
 10
36.47584915161132
 20
53.33891296386719
 30
0.0
 11
36.4434700012207
 21
53.33891296386719
 31
0.0
  0
LINE
  5
28E
330
A
100
AcDbEntity
  8
TFR-TRI
  6
CONTINUOUS
 62
     2
100
AcDbLine
 10
24.25825309753418
 20
13.6216869354248
 30
0.0
 11
24.25825309753418
 21
13.60411357879638
 31
0.0
  0
LINE
  5
28F
330
A
100
AcDbEntity
  8
TFR-TRI
  6
CONTINUOUS
 62
     5
100
AcDbLine
 10
36.58675384521484
 20
54.88723373413086
 30
0.0
 11
36.58675384521484
 21
54.84185409545898
 31
0.0
  0
LINE
  5
290
330
A
100
AcDbEntity
  8
TFR-TRI
  6
CONTINUOUS
 62
     2
100
AcDbLine
 10
64.82855224609375
 20
32.66281509399414
 30
0.0
 11
64.82855224609375
 21
32.2628173828125
 31
0.0
  0
LINE
  5
291
330
A
100
AcDbEntity
  8
TFR-TRI
  6
CONTINUOUS
 62
     2
100
AcDbLine
 10
25.60025405883789
 20
7.220893383026123
 30
0.0
 11
25.60025405883789
 21
7.171687126159667
 31
0.0
  0
LINE
  5
292
330
A
100
AcDbEntity
  8
TFR-TRI
  6
CONTINUOUS
 62
     5
100
AcDbLine
 10
36.65375518798828
 20
54.81791305541992
 30
0.0
 11
36.6551399230957
 21
54.80970001220703
 31
0.0
  0
LINE
  5
293
330
A
100
AcDbEntity
  8
TFR-TRI
  6
CONTINUOUS
 62
     2
100
AcDbLine
 10
45.92732620239257
 20
9.196687698364257
 30
0.0
 11
45.98225402832031
 21
9.196687698364257
 31
0.0
  0
LINE
  5
294
330
A
100
AcDbEntity
  8
TFR-TRI
  6
CONTINUOUS
 62
     2
100
AcDbLine
 10
69.62394714355468
 20
33.45281600952148
 30
0.0
 11
69.42929077148438
 21
33.45281600952148
 31
0.0
  0
LINE
  5
295
330
A
100
AcDbEntity
  8
TFR-TRI
  6
CONTINUOUS
 62
     5
100
AcDbLine
 10
36.74807739257812
 20
54.79291152954101
 30
0.0
 11
36.70269775390625
 21
54.79291152954101
 31
0.0
  0
LINE
  5
296
330
A
100
AcDbEntity
  8
TFR-TRI
  6
CONTINUOUS
 62
    31
100
AcDbLine
 10
33.12025451660156
 20
12.85018730163574
 30
0.0
 11
33.12025451660156
 21
12.80083465576171
 31
0.0
  0
LINE
  5
297
330
A
100
AcDbEntity
  8
TFR-TRI
  6
CONTINUOUS
 62
     2
100
AcDbLine
 10
46.09025573730469
 20
14.77168750762939
 30
0.0
 11
46.09025573730469
 21
14.75411415100097
 31
0.0
  0
LINE
  5
298
330
A
100
AcDbEntity
  8
TFR-TRI
  6
CONTINUOUS
 62
     5
100
AcDbLine
 10
36.66322326660156
 20
53.27200317382812
 30
0.0
 11
36.6612319946289
 21
53.27024459838867
 31
0.0
  0
LINE
  5
299
330
A
100
AcDbEntity
  8
TFR-TRI
  6
CONTINUOUS
 62
     2
100
AcDbLine
 10
59.25355529785156
 20
32.934814453125
 30
0.0
 11
59.25355529785156
 21
32.45281600952148
 31
0.0
  0
LINE
  5
29A
330
A
100
AcDbEntity
  8
TFR-TRI
  6
CONTINUOUS
 62
     2
100
AcDbLine
 10
45.98225402832031
 20
13.60411357879638
 30
0.0
 11
45.98225402832031
 21
13.6216869354248
 31
0.0
  0
LINE
  5
29B
330
A
100
AcDbEntity
  8
TFR-TRI
  6
CONTINUOUS
 62
    31
100
AcDbLine
 10
37.12025451660156
 20
33.26546478271484
 30
0.0
 11
37.12025451660156
 21
33.14631652832031
 31
0.0
  0
LINE
  5
29C
330
A
100
AcDbEntity
  8
TFR-TRI
  6
CONTINUOUS
 62
     5
100
AcDbLine
 10
36.62025451660156
 20
53.15541076660156
 30
0.0
 11
36.65375518798828
 21
53.15541076660156
 31
0.0
  0
LINE
  5
29D
330
A
100
AcDbEntity
  8
TFR-TRI
  6
CONTINUOUS
 62
     5
100
AcDbLine
 10
36.57239532470703
 20
53.2750358581543
 30
0.0
 11
36.56432342529297
 21
53.27727890014648
 31
0.0
  0
LINE
  5
29E
330
A
100
AcDbEntity
  8
TFR-TRI
  6
CONTINUOUS
 62
     2
100
AcDbLine
 10
24.15025329589843
 20
13.56168746948242
 30
0.0
 11
24.15025329589843
 21
13.60411357879638
 31
0.0
  0
LINE
  5
29F
330
A
100
AcDbEntity
  8
TFR-TRI
  6
CONTINUOUS
 62
     2
100
AcDbLine
 10
24.25825309753418
 20
14.77168750762939
 30
0.0
 11
24.15025329589843
 21
14.77168750762939
 31
0.0
  0
LINE
  5
2A0
330
A
100
AcDbEntity
  8
TFR-TRI
  6
CONTINUOUS
 62
     5
100
AcDbLine
 10
36.56175231933593
 20
53.33891296386719
 30
0.0
 11
36.51891326904296
 21
53.33891296386719
 31
0.0
  0
LINE
  5
2A1
330
A
100
AcDbEntity
  8
TFR-TRI
  6
CONTINUOUS
 62
     2
100
AcDbLine
 10
45.24025344848633
 20
49.03241348266601
 30
0.0
 11
45.5722541809082
 21
49.03241348266601
 31
0.0
  0
LINE
  5
2A2
330
A
100
AcDbEntity
  8
TFR-TRI
  6
CONTINUOUS
 62
     2
100
AcDbLine
 10
57.33655548095703
 20
35.34481430053711
 30
0.0
 11
57.33655548095703
 21
35.31132125854492
 31
0.0
  0
LINE
  5
2A3
330
A
100
AcDbEntity
  8
TFR-TRI
  6
CONTINUOUS
 62
     5
100
AcDbLine
 10
64.95255279541016
 20
33.57492446899414
 30
0.0
 11
64.95255279541016
 21
33.5411262512207
 31
0.0
  0
LINE
  5
2A4
330
A
100
AcDbEntity
  8
TFR-TRI
  6
CONTINUOUS
 62
     5
100
AcDbLine
 10
36.62025451660156
 20
53.45541381835937
 30
0.0
 11
36.58675384521484
 21
53.45541381835937
 31
0.0
  0
LINE
  5
2A5
330
A
100
AcDbEntity
  8
TFR-TRI
  6
CONTINUOUS
 62
     2
100
AcDbLine
 10
46.09025573730469
 20
14.71168708801269
 30
0.0
 11
46.09025573730469
 21
13.6816873550415
 31
0.0
  0
LINE
  5
2A6
330
A
100
AcDbEntity
  8
TFR-TRI
  6
CONTINUOUS
 62
    31
100
AcDbLine
 10
37.12025451660156
 20
15.59253978729248
 30
0.0
 11
37.12025451660156
 21
15.71168708801269
 31
0.0
  0
LINE
  5
2A7
330
A
100
AcDbEntity
  8
TFR-TRI
  6
CONTINUOUS
 62
     2
100
AcDbLine
 10
44.64025497436523
 20
21.22168731689453
 30
0.0
 11
25.60025405883789
 21
21.22168731689453
 31
0.0
  0
LINE
  5
2A8
330
A
100
AcDbEntity
  8
TFR-TRI
  6
CONTINUOUS
 62
     5
100
AcDbLine
 10
36.6653823852539
 20
53.34278869628906
 30
0.0
 11
36.67311859130859
 21
53.33955764770507
 31
0.0
  0
LINE
  5
2A9
330
A
100
AcDbEntity
  8
TFR-TRI
  6
CONTINUOUS
 62
     2
100
AcDbLine
 10
24.25825309753418
 20
32.934814453125
 30
0.0
 11
24.25825309753418
 21
32.45281600952148
 31
0.0
  0
LINE
  5
2AA
330
A
100
AcDbEntity
  8
TFR-TRI
  6
CONTINUOUS
 62
     5
100
AcDbLine
 10
63.56069946289062
 20
33.59854125976562
 30
0.0
 11
63.56005477905274
 21
33.59819793701172
 31
0.0
  0
LINE
  5
2AB
330
A
100
AcDbEntity
  8
TFR-TRI
  6
CONTINUOUS
 62
    31
100
AcDbLine
 10
33.12025451660156
 20
12.80083465576171
 30
0.0
 11
33.12025451660156
 21
12.6816873550415
 31
0.0
  0
LINE
  5
2AC
330
A
100
AcDbEntity
  8
TFR-TRI
  6
CONTINUOUS
 62
     2
100
AcDbLine
 10
71.11055755615234
 20
33.45281600952148
 30
0.0
 11
69.85355377197265
 21
33.45281600952148
 31
0.0
  0
LINE
  5
2AD
330
A
100
AcDbEntity
  8
TFR-TRI
  6
CONTINUOUS
 62
     5
100
AcDbLine
 10
36.67875289916992
 20
53.33891296386719
 30
0.0
 11
36.56175231933593
 21
53.33891296386719
 31
0.0
  0
LINE
  5
2AE
330
A
100
AcDbEntity
  8
TFR-TRI
  6
CONTINUOUS
 62
     5
100
AcDbLine
 10
33.56996917724609
 20
53.34030151367187
 30
0.0
 11
33.57727813720703
 21
53.34431457519531
 31
0.0
  0
LINE
  5
2AF
330
A
100
AcDbEntity
  8
TFR-TRI
  6
CONTINUOUS
 62
     2
100
AcDbLine
 10
45.24025344848633
 20
33.34481430053711
 30
0.0
 11
45.5722541809082
 21
33.34481430053711
 31
0.0
  0
LINE
  5
2B0
330
A
100
AcDbEntity
  8
TFR-TRI
  6
CONTINUOUS
 62
     5
100
AcDbLine
 10
63.37655639648438
 20
33.55947875976562
 30
0.0
 11
63.39873123168946
 21
33.57614517211914
 31
0.0
  0
LINE
  5
2B1
330
A
100
AcDbEntity
  8
TFR-TRI
  6
CONTINUOUS
 62
     2
100
AcDbLine
 10
44.64025497436523
 20
47.17541122436523
 30
0.0
 11
44.64025497436523
 21
47.13298416137695
 31
0.0
  0
LINE
  5
2B2
330
A
100
AcDbEntity
  8
TFR-TRI
  6
CONTINUOUS
 62
     2
100
AcDbLine
 10
24.25825309753418
 20
19.16319274902343
 30
0.0
 11
24.25825309753418
 21
19.07168769836425
 31
0.0
  0
LINE
  5
2B3
330
A
100
AcDbEntity
  8
TFR-TRI
  6
CONTINUOUS
 62
     2
100
AcDbLine
 10
44.81599044799804
 20
33.45281600952148
 30
0.0
 11
45.01064300537109
 21
33.45281600952148
 31
0.0
  0
LINE
  5
2B4
330
A
100
AcDbEntity
  8
TFR-TRI
  6
CONTINUOUS
 62
     2
100
AcDbLine
 10
25.60025405883789
 20
47.11541366577148
 30
0.0
 11
25.63374710083007
 21
47.11541366577148
 31
0.0
  0
LINE
  5
2B5
330
A
100
AcDbEntity
  8
TFR-TRI
  6
CONTINUOUS
 62
     5
100
AcDbLine
 10
64.95116424560547
 20
33.5987548828125
 30
0.0
 11
64.9471435546875
 21
33.59881591796875
 31
0.0
  0
ARC
  5
2B6
330
A
100
AcDbEntity
  8
TFR-TRI
  6
CONTINUOUS
 62
     2
100
AcDbCircle
 10
44.57775497436523
 20
9.896687507629394
 30
0.0
 40
0.0625
100
AcDbArc
 50
270.0
 51
90.0
  0
ARC
  5
2B7
330
A
100
AcDbEntity
  8
TFR-TRI
  6
CONTINUOUS
 62
     2
100
AcDbCircle
 10
44.39025497436523
 20
35.0948143005371
 30
0.0
 40
0.25
100
AcDbArc
 50
0.0
 51
90.0
  0
ARC
  5
2B8
330
A
100
AcDbEntity
  8
TFR-TRI
  6
CONTINUOUS
 62
     2
100
AcDbCircle
 10
45.5722541809082
 20
32.934814453125
 30
0.0
 40
0.4099999964237214
100
AcDbArc
 50
0.0
 51
90.0
  0
ARC
  5
2B9
330
A
100
AcDbEntity
  8
TFR-TRI
  6
CONTINUOUS
 62
     2
100
AcDbCircle
 10
44.57775497436523
 20
57.33241271972656
 30
0.0
 40
0.0625
100
AcDbArc
 50
270.0
 51
90.0
  0
CIRCLE
  5
2BA
330
A
100
AcDbEntity
  8
TFR-TRI
  6
CONTINUOUS
 62
     5
100
AcDbCircle
 10
33.62025451660156
 20
53.30541229248047
 30
0.0
 40
0.2000000029802322
  0
ARC
  5
2BB
330
A
100
AcDbEntity
  8
TFR-TRI
  6
CONTINUOUS
 62
     2
100
AcDbCircle
 10
25.66275405883789
 20
49.73241424560547
 30
0.0
 40
0.0625
100
AcDbArc
 50
90.0
 51
270.0
  0
CIRCLE
  5
2BC
330
A
100
AcDbEntity
  8
TFR-TRI
  6
CONTINUOUS
 62
     5
100
AcDbCircle
 10
36.62025451660156
 20
54.7594108581543
 30
0.0
 40
0.2000000029802322
  0
ARC
  5
2BD
330
A
100
AcDbEntity
  8
TFR-TRI
  6
CONTINUOUS
 62
     2
100
AcDbCircle
 10
27.53775405883789
 20
49.73241424560547
 30
0.0
 40
0.0625
100
AcDbArc
 50
270.0
 51
90.0
  0
ARC
  5
2BE
330
A
100
AcDbEntity
  8
TFR-TRI
  6
CONTINUOUS
 62
     5
100
AcDbCircle
 10
33.62025451660156
 20
53.30541229248047
 30
0.0
 40
0.1866461485624313
100
AcDbArc
 50
169.6602930144593
 51
188.6278823192372
  0
ARC
  5
2BF
330
A
100
AcDbEntity
  8
TFR-TRI
  6
CONTINUOUS
 62
     2
100
AcDbCircle
 10
25.66275405883789
 20
50.73241424560547
 30
0.0
 40
0.0625
100
AcDbArc
 50
90.0
 51
270.0
  0
ARC
  5
2C0
330
A
100
AcDbEntity
  8
TFR-TRI
  6
CONTINUOUS
 62
     2
100
AcDbCircle
 10
63.73855590820312
 20
32.66281509399414
 30
0.0
 40
0.0599999986588955
100
AcDbArc
 50
90.0
 51
180.0
  0
ARC
  5
2C1
330
A
100
AcDbEntity
  8
TFR-TRI
  6
CONTINUOUS
 62
     2
100
AcDbCircle
 10
44.57775497436523
 20
10.89668750762939
 30
0.0
 40
0.0625
100
AcDbArc
 50
270.0
 51
90.0
  0
CIRCLE
  5
2C2
330
A
100
AcDbEntity
  8
TFR-TRI
  6
CONTINUOUS
 62
     5
100
AcDbCircle
 10
33.62025451660156
 20
13.46968746185302
 30
0.0
 40
0.1080000028014183
  0
ARC
  5
2C3
330
A
100
AcDbEntity
  8
TFR-TRI
  6
CONTINUOUS
 62
     2
100
AcDbCircle
 10
27.53775405883789
 20
50.73241424560547
 30
0.0
 40
0.0625
100
AcDbArc
 50
270.0
 51
90.0
  0
ARC
  5
2C4
330
A
100
AcDbEntity
  8
TFR-TRI
  6
CONTINUOUS
 62
     2
100
AcDbCircle
 10
25.66275405883789
 20
9.896687507629394
 30
0.0
 40
0.0625
100
AcDbArc
 50
90.0
 51
270.0
  0
ARC
  5
2C5
330
A
100
AcDbEntity
  8
TFR-TRI
  6
CONTINUOUS
 62
     5
100
AcDbCircle
 10
33.67875289916992
 20
53.25241088867187
 30
0.0
 40
0.025000000372529
100
AcDbArc
 50
134.4941757457152
 51
141.1537435647548
  0
ARC
  5
2C6
330
A
100
AcDbEntity
  8
TFR-TRI
  6
CONTINUOUS
 62
     5
100
AcDbCircle
 10
36.67875289916992
 20
54.70641326904297
 30
0.0
 40
0.025000000372529
100
AcDbArc
 50
134.4941757457152
 51
141.1537435647548
  0
ARC
  5
2C7
330
A
100
AcDbEntity
  8
TFR-TRI
  6
CONTINUOUS
 62
     2
100
AcDbCircle
 10
27.53775405883789
 20
9.896687507629394
 30
0.0
 40
0.0625
100
AcDbArc
 50
270.0
 51
90.0
  0
ARC
  5
2C8
330
A
100
AcDbEntity
  8
TFR-TRI
  6
CONTINUOUS
 62
     2
100
AcDbCircle
 10
57.39655303955078
 20
33.5128173828125
 30
0.0
 40
0.1679999977350235
100
AcDbArc
 50
180.0
 51
270.0
  0
ARC
  5
2C9
330
A
100
AcDbEntity
  8
TFR-TRI
  6
CONTINUOUS
 62
     2
100
AcDbCircle
 10
25.00025367736816
 20
19.79668807983398
 30
0.0
 40
0.6000000238418579
100
AcDbArc
 50
270.0
 51
0.0
  0
ARC
  5
2CA
330
A
100
AcDbEntity
  8
TFR-TRI
  6
CONTINUOUS
 62
     5
100
AcDbCircle
 10
65.03455352783203
 20
33.45281600952148
 30
0.0
 40
0.1459999978542328
100
AcDbArc
 50
0.0
 51
48.87379301660497
  0
ARC
  5
2CB
330
A
100
AcDbEntity
  8
TFR-TRI
  6
CONTINUOUS
 62
     2
100
AcDbCircle
 10
64.88855743408203
 20
32.2628173828125
 30
0.0
 40
0.0599999986588955
100
AcDbArc
 50
180.0
 51
270.0
  0
ARC
  5
2CC
330
A
100
AcDbEntity
  8
TFR-TRI
  6
CONTINUOUS
 62
     5
100
AcDbCircle
 10
36.62025451660156
 20
54.7594108581543
 30
0.0
 40
0.1866461485624313
100
AcDbArc
 50
351.3721176807628
 51
10.33970698554061
  0
ARC
  5
2CD
330
A
100
AcDbEntity
  8
TFR-TRI
  6
CONTINUOUS
 62
     2
100
AcDbCircle
 10
25.66275405883789
 20
10.89668750762939
 30
0.0
 40
0.0625
100
AcDbArc
 50
90.0
 51
270.0
  0
ARC
  5
2CE
330
A
100
AcDbEntity
  8
TFR-TRI
  6
CONTINUOUS
 62
     2
100
AcDbCircle
 10
63.6185531616211
 20
32.2628173828125
 30
0.0
 40
0.0599999986588955
100
AcDbArc
 50
270.0
 51
0.0
  0
CIRCLE
  5
2CF
330
A
100
AcDbEntity
  8
TFR-TRI
  6
CONTINUOUS
 62
     5
100
AcDbCircle
 10
33.62025451660156
 20
13.46968746185302
 30
0.0
 40
0.0727500021457672
  0
ARC
  5
2D0
330
A
100
AcDbEntity
  8
TFR-TRI
  6
CONTINUOUS
 62
     5
100
AcDbCircle
 10
33.56175231933594
 20
54.70641326904297
 30
0.0
 40
0.025000000372529
100
AcDbArc
 50
38.84625643524508
 51
45.50582425428472
  0
ARC
  5
2D1
330
A
100
AcDbEntity
  8
TFR-TRI
  6
CONTINUOUS
 62
     2
100
AcDbCircle
 10
27.53775405883789
 20
10.89668750762939
 30
0.0
 40
0.0625
100
AcDbArc
 50
270.0
 51
90.0
  0
ARC
  5
2D2
330
A
100
AcDbEntity
  8
TFR-TRI
  6
CONTINUOUS
 62
     2
100
AcDbCircle
 10
59.50355529785156
 20
32.45281600952148
 30
0.0
 40
0.25
100
AcDbArc
 50
180.0
 51
270.0
  0
ARC
  5
2D3
330
A
100
AcDbEntity
  8
TFR-TRI
  6
CONTINUOUS
 62
     2
100
AcDbCircle
 10
42.70275497436523
 20
9.896687507629394
 30
0.0
 40
0.0625
100
AcDbArc
 50
90.0
 51
270.0
  0
ARC
  5
2D4
330
A
100
AcDbEntity
  8
TFR-TRI
  6
CONTINUOUS
 62
     2
100
AcDbCircle
 10
42.70275497436523
 20
58.33241271972656
 30
0.0
 40
0.0625
100
AcDbArc
 50
90.0
 51
270.0
  0
ARC
  5
2D5
330
A
100
AcDbEntity
  8
TFR-TRI
  6
CONTINUOUS
 62
     2
100
AcDbCircle
 10
44.57775497436523
 20
50.73241424560547
 30
0.0
 40
0.0625
100
AcDbArc
 50
270.0
 51
90.0
  0
ARC
  5
2D6
330
A
100
AcDbEntity
  8
TFR-TRI
  6
CONTINUOUS
 62
     2
100
AcDbCircle
 10
45.24025344848633
 20
48.43241119384765
 30
0.0
 40
0.6000000238418579
100
AcDbArc
 50
90.0
 51
180.0
  0
ARC
  5
2D7
330
A
100
AcDbEntity
  8
TFR-TRI
  6
CONTINUOUS
 62
     2
100
AcDbCircle
 10
45.24025344848633
 20
8.596687316894531
 30
0.0
 40
0.6000000238418579
100
AcDbArc
 50
90.0
 51
180.0
  0
CIRCLE
  5
2D8
330
A
100
AcDbEntity
  8
TFR-TRI
  6
CONTINUOUS
 62
     5
100
AcDbCircle
 10
33.62025451660156
 20
54.7594108581543
 30
0.0
 40
0.2000000029802322
  0
CIRCLE
  5
2D9
330
A
100
AcDbEntity
  8
TFR-TRI
  6
CONTINUOUS
 62
    31
100
AcDbCircle
 10
33.62025451660156
 20
13.46968746185302
 30
0.0
 40
0.1500000059604645
  0
ARC
  5
2DA
330
A
100
AcDbEntity
  8
TFR-TRI
  6
CONTINUOUS
 62
     2
100
AcDbCircle
 10
24.66825485229492
 20
32.934814453125
 30
0.0
 40
0.4099999964237214
100
AcDbArc
 50
90.0
 51
180.0
  0
ARC
  5
2DB
330
A
100
AcDbEntity
  8
TFR-TRI
  6
CONTINUOUS
 62
     2
100
AcDbCircle
 10
35.12025451660156
 20
20.4966869354248
 30
0.0
 40
0.2000000029802322
100
AcDbArc
 50
0.0
 51
180.0
  0
ARC
  5
2DC
330
A
100
AcDbEntity
  8
TFR-TRI
  6
CONTINUOUS
 62
     2
100
AcDbCircle
 10
27.53775405883789
 20
18.4966869354248
 30
0.0
 40
0.0625
100
AcDbArc
 50
270.0
 51
90.0
  0
ARC
  5
2DD
330
A
100
AcDbEntity
  8
TFR-TRI
  6
CONTINUOUS
 62
     2
100
AcDbCircle
 10
35.12025451660156
 20
57.73241424560547
 30
0.0
 40
0.2000000029802322
100
AcDbArc
 50
180.0
 51
0.0
  0
ARC
  5
2DE
330
A
100
AcDbEntity
  8
TFR-TRI
  6
CONTINUOUS
 62
     5
100
AcDbCircle
 10
33.62025451660156
 20
54.7594108581543
 30
0.0
 40
0.1866461485624313
100
AcDbArc
 50
351.3721176807628
 51
10.33970698554061
  0
ARC
  5
2DF
330
A
100
AcDbEntity
  8
TFR-TRI
  6
CONTINUOUS
 62
     2
100
AcDbCircle
 10
25.00025367736816
 20
59.63241195678711
 30
0.0
 40
0.6000000238418579
100
AcDbArc
 50
270.0
 51
0.0
  0
ARC
  5
2E0
330
A
100
AcDbEntity
  8
TFR-TRI
  6
CONTINUOUS
 62
     2
100
AcDbCircle
 10
35.12025451660156
 20
7.896687507629394
 30
0.0
 40
0.2000000029802322
100
AcDbArc
 50
180.0
 51
0.0
  0
ARC
  5
2E1
330
A
100
AcDbEntity
  8
TFR-TRI
  6
CONTINUOUS
 62
     2
100
AcDbCircle
 10
25.00025367736816
 20
48.43241119384765
 30
0.0
 40
0.6000000238418579
100
AcDbArc
 50
0.0
 51
90.0
  0
ARC
  5
2E2
330
A
100
AcDbEntity
  8
TFR-TRI
  6
CONTINUOUS
 62
     2
100
AcDbCircle
 10
42.70275497436523
 20
50.73241424560547
 30
0.0
 40
0.0625
100
AcDbArc
 50
90.0
 51
270.0
  0
CIRCLE
  5
2E3
330
A
100
AcDbEntity
  8
TFR-TRI
  6
CONTINUOUS
 62
    31
100
AcDbCircle
 10
36.62025451660156
 20
13.46968746185302
 30
0.0
 40
0.1500000059604645
  0
ARC
  5
2E4
330
A
100
AcDbEntity
  8
TFR-TRI
  6
CONTINUOUS
 62
     5
100
AcDbCircle
 10
36.62025451660156
 20
53.30541229248047
 30
0.0
 40
0.1866461485624313
100
AcDbArc
 50
169.6602930144593
 51
188.6278823192372
  0
ARC
  5
2E5
330
A
100
AcDbEntity
  8
TFR-TRI
  6
CONTINUOUS
 62
    31
100
AcDbCircle
 10
62.73855590820312
 20
31.90481567382812
 30
0.0
 40
0.1685000061988831
100
AcDbArc
 50
270.0
 51
0.0
  0
ARC
  5
2E6
330
A
100
AcDbEntity
  8
TFR-TRI
  6
CONTINUOUS
 62
     5
100
AcDbCircle
 10
33.67875289916992
 20
54.70641326904297
 30
0.0
 40
0.025000000372529
100
AcDbArc
 50
134.4941757457152
 51
141.1537435647548
  0
ARC
  5
2E7
330
A
100
AcDbEntity
  8
TFR-TRI
  6
CONTINUOUS
 62
     2
100
AcDbCircle
 10
25.66275405883789
 20
17.4966869354248
 30
0.0
 40
0.0625
100
AcDbArc
 50
90.0
 51
270.0
  0
ARC
  5
2E8
330
A
100
AcDbEntity
  8
TFR-TRI
  6
CONTINUOUS
 62
     2
100
AcDbCircle
 10
44.57775497436523
 20
58.33241271972656
 30
0.0
 40
0.0625
100
AcDbArc
 50
270.0
 51
90.0
  0
ARC
  5
2E9
330
A
100
AcDbEntity
  8
TFR-TRI
  6
CONTINUOUS
 62
     2
100
AcDbCircle
 10
44.57775497436523
 20
18.4966869354248
 30
0.0
 40
0.0625
100
AcDbArc
 50
270.0
 51
90.0
  0
ARC
  5
2EA
330
A
100
AcDbEntity
  8
TFR-TRI
  6
CONTINUOUS
 62
     5
100
AcDbCircle
 10
63.5805549621582
 20
33.45281600952148
 30
0.0
 40
0.1459999978542328
100
AcDbArc
 50
0.0
 51
48.87379301660497
  0
ARC
  5
2EB
330
A
100
AcDbEntity
  8
TFR-TRI
  6
CONTINUOUS
 62
     5
100
AcDbCircle
 10
36.56175231933593
 20
53.25241088867187
 30
0.0
 40
0.025000000372529
100
AcDbArc
 50
38.84625643524508
 51
45.50582425428472
  0
ARC
  5
2EC
330
A
100
AcDbEntity
  8
TFR-TRI
  6
CONTINUOUS
 62
    31
100
AcDbCircle
 10
65.7685546875
 20
31.90481567382812
 30
0.0
 40
0.1685000061988831
100
AcDbArc
 50
180.0
 51
270.0
  0
CIRCLE
  5
2ED
330
A
100
AcDbEntity
  8
TFR-TRI
  6
CONTINUOUS
 62
     5
100
AcDbCircle
 10
36.62025451660156
 20
13.46968746185302
 30
0.0
 40
0.0727500021457672
  0
ARC
  5
2EE
330
A
100
AcDbEntity
  8
TFR-TRI
  6
CONTINUOUS
 62
     2
100
AcDbCircle
 10
64.7685546875
 20
32.66281509399414
 30
0.0
 40
0.0599999986588955
100
AcDbArc
 50
0.0
 51
90.0
  0
ARC
  5
2EF
330
A
100
AcDbEntity
  8
TFR-TRI
  6
CONTINUOUS
 62
     2
100
AcDbCircle
 10
44.57775497436523
 20
17.4966869354248
 30
0.0
 40
0.0625
100
AcDbArc
 50
270.0
 51
90.0
  0
CIRCLE
  5
2F0
330
A
100
AcDbEntity
  8
TFR-TRI
  6
CONTINUOUS
 62
     5
100
AcDbCircle
 10
36.62025451660156
 20
14.92368698120117
 30
0.0
 40
0.1080000028014183
  0
ARC
  5
2F1
330
A
100
AcDbEntity
  8
TFR-TRI
  6
CONTINUOUS
 62
     2
100
AcDbCircle
 10
42.70275497436523
 20
10.89668750762939
 30
0.0
 40
0.0625
100
AcDbArc
 50
90.0
 51
270.0
  0
ARC
  5
2F2
330
A
100
AcDbEntity
  8
TFR-TRI
  6
CONTINUOUS
 62
     2
100
AcDbCircle
 10
42.70275497436523
 20
57.33241271972656
 30
0.0
 40
0.0625
100
AcDbArc
 50
90.0
 51
270.0
  0
ARC
  5
2F3
330
A
100
AcDbEntity
  8
TFR-TRI
  6
CONTINUOUS
 62
     2
100
AcDbCircle
 10
24.66825485229492
 20
32.934814453125
 30
0.0
 40
0.5180000066757203
100
AcDbArc
 50
90.0
 51
180.0
  0
ARC
  5
2F4
330
A
100
AcDbEntity
  8
TFR-TRI
  6
CONTINUOUS
 62
     2
100
AcDbCircle
 10
42.70275497436523
 20
17.4966869354248
 30
0.0
 40
0.0625
100
AcDbArc
 50
90.0
 51
270.0
  0
ARC
  5
2F5
330
A
100
AcDbEntity
  8
TFR-TRI
  6
CONTINUOUS
 62
     5
100
AcDbCircle
 10
63.47255325317383
 20
33.45281600952148
 30
0.0
 40
0.1459999978542328
100
AcDbArc
 50
131.1452650508613
 51
180.0
  0
ARC
  5
2F6
330
A
100
AcDbEntity
  8
TFR-TRI
  6
CONTINUOUS
 62
     2
100
AcDbCircle
 10
35.12025451660156
 20
50.33241271972656
 30
0.0
 40
0.2000000029802322
100
AcDbArc
 50
0.0
 51
180.0
  0
ARC
  5
2F7
330
A
100
AcDbEntity
  8
TFR-TRI
  6
CONTINUOUS
 62
     2
100
AcDbCircle
 10
45.24025344848633
 20
59.63241195678711
 30
0.0
 40
0.6000000238418579
100
AcDbArc
 50
180.0
 51
270.0
  0
CIRCLE
  5
2F8
330
A
100
AcDbEntity
  8
TFR-TRI
  6
CONTINUOUS
 62
     5
100
AcDbCircle
 10
36.62025451660156
 20
53.30541229248047
 30
0.0
 40
0.2000000029802322
  0
ARC
  5
2F9
330
A
100
AcDbEntity
  8
TFR-TRI
  6
CONTINUOUS
 62
     2
100
AcDbCircle
 10
45.24025344848633
 20
19.79668807983398
 30
0.0
 40
0.6000000238418579
100
AcDbArc
 50
180.0
 51
270.0
  0
ARC
  5
2FA
330
A
100
AcDbEntity
  8
TFR-TRI
  6
CONTINUOUS
 62
     2
100
AcDbCircle
 10
69.00355529785156
 20
32.45281600952148
 30
0.0
 40
0.25
100
AcDbArc
 50
270.0
 51
0.0
  0
ARC
  5
2FB
330
A
100
AcDbEntity
  8
TFR-TRI
  6
CONTINUOUS
 62
     2
100
AcDbCircle
 10
35.12025451660156
 20
60.33241271972656
 30
0.0
 40
0.2000000029802322
100
AcDbArc
 50
0.0
 51
180.0
  0
ARC
  5
2FC
330
A
100
AcDbEntity
  8
TFR-TRI
  6
CONTINUOUS
 62
     5
100
AcDbCircle
 10
33.62025451660156
 20
54.7594108581543
 30
0.0
 40
0.1866461485624313
100
AcDbArc
 50
169.6602930144593
 51
188.6278823192372
  0
ARC
  5
2FD
330
A
100
AcDbEntity
  8
TFR-TRI
  6
CONTINUOUS
 62
     2
100
AcDbCircle
 10
42.70275497436523
 20
49.73241424560547
 30
0.0
 40
0.0625
100
AcDbArc
 50
90.0
 51
270.0
  0
ARC
  5
2FE
330
A
100
AcDbEntity
  8
TFR-TRI
  6
CONTINUOUS
 62
     2
100
AcDbCircle
 10
25.66275405883789
 20
18.4966869354248
 30
0.0
 40
0.0625
100
AcDbArc
 50
90.0
 51
270.0
  0
ARC
  5
2FF
330
A
100
AcDbEntity
  8
TFR-TRI
  6
CONTINUOUS
 62
     2
100
AcDbCircle
 10
27.53775405883789
 20
57.33241271972656
 30
0.0
 40
0.0625
100
AcDbArc
 50
270.0
 51
90.0
  0
ARC
  5
300
330
A
100
AcDbEntity
  8
TFR-TRI
  6
CONTINUOUS
 62
     2
100
AcDbCircle
 10
25.66275405883789
 20
58.33241271972656
 30
0.0
 40
0.0625
100
AcDbArc
 50
90.0
 51
270.0
  0
ARC
  5
301
330
A
100
AcDbEntity
  8
TFR-TRI
  6
CONTINUOUS
 62
     2
100
AcDbCircle
 10
27.53775405883789
 20
58.33241271972656
 30
0.0
 40
0.0625
100
AcDbArc
 50
270.0
 51
90.0
  0
CIRCLE
  5
302
330
A
100
AcDbEntity
  8
TFR-TRI
  6
CONTINUOUS
 62
     5
100
AcDbCircle
 10
33.62025451660156
 20
14.92368698120117
 30
0.0
 40
0.1080000028014183
  0
CIRCLE
  5
303
330
A
100
AcDbEntity
  8
TFR-TRI
  6
CONTINUOUS
 62
     5
100
AcDbCircle
 10
36.62025451660156
 20
14.92368698120117
 30
0.0
 40
0.0727500021457672
  0
ARC
  5
304
330
A
100
AcDbEntity
  8
TFR-TRI
  6
CONTINUOUS
 62
     5
100
AcDbCircle
 10
33.62025451660156
 20
53.30541229248047
 30
0.0
 40
0.1866461485624313
100
AcDbArc
 50
351.3721176807628
 51
10.33970698554061
  0
ARC
  5
305
330
A
100
AcDbEntity
  8
TFR-TRI
  6
CONTINUOUS
 62
     2
100
AcDbCircle
 10
57.39655303955078
 20
33.5128173828125
 30
0.0
 40
0.0599999986588955
100
AcDbArc
 50
180.0
 51
270.0
  0
ARC
  5
306
330
A
100
AcDbEntity
  8
TFR-TRI
  6
CONTINUOUS
 62
     5
100
AcDbCircle
 10
36.62025451660156
 20
53.30541229248047
 30
0.0
 40
0.1866461485624313
100
AcDbArc
 50
351.3721176807628
 51
10.33970698554061
  0
ARC
  5
307
330
A
100
AcDbEntity
  8
TFR-TRI
  6
CONTINUOUS
 62
     2
100
AcDbCircle
 10
45.5722541809082
 20
32.934814453125
 30
0.0
 40
0.5180000066757203
100
AcDbArc
 50
0.0
 51
90.0
  0
ARC
  5
308
330
A
100
AcDbEntity
  8
TFR-TRI
  6
CONTINUOUS
 62
     2
100
AcDbCircle
 10
27.53775405883789
 20
17.4966869354248
 30
0.0
 40
0.0625
100
AcDbArc
 50
270.0
 51
90.0
  0
ARC
  5
309
330
A
100
AcDbEntity
  8
TFR-TRI
  6
CONTINUOUS
 62
     2
100
AcDbCircle
 10
71.11055755615234
 20
33.5128173828125
 30
0.0
 40
0.0599999986588955
100
AcDbArc
 50
270.0
 51
0.0
  0
ARC
  5
30A
330
A
100
AcDbEntity
  8
TFR-TRI
  6
CONTINUOUS
 62
     5
100
AcDbCircle
 10
33.56175231933594
 20
53.25241088867187
 30
0.0
 40
0.025000000372529
100
AcDbArc
 50
38.84625643524508
 51
45.50582425428472
  0
ARC
  5
30B
330
A
100
AcDbEntity
  8
TFR-TRI
  6
CONTINUOUS
 62
     2
100
AcDbCircle
 10
35.12025451660156
 20
10.4966869354248
 30
0.0
 40
0.2000000029802322
100
AcDbArc
 50
0.0
 51
180.0
  0
ARC
  5
30C
330
A
100
AcDbEntity
  8
TFR-TRI
  6
CONTINUOUS
 62
     2
100
AcDbCircle
 10
44.57775497436523
 20
49.73241424560547
 30
0.0
 40
0.0625
100
AcDbArc
 50
270.0
 51
90.0
  0
ARC
  5
30D
330
A
100
AcDbEntity
  8
TFR-TRI
  6
CONTINUOUS
 62
     5
100
AcDbCircle
 10
64.92655181884765
 20
33.45281600952148
 30
0.0
 40
0.1459999978542328
100
AcDbArc
 50
131.1452650508613
 51
180.0
  0
ARC
  5
30E
330
A
100
AcDbEntity
  8
TFR-TRI
  6
CONTINUOUS
 62
     2
100
AcDbCircle
 10
35.12025451660156
 20
47.73241424560547
 30
0.0
 40
0.2000000029802322
100
AcDbArc
 50
180.0
 51
0.0
  0
ARC
  5
30F
330
A
100
AcDbEntity
  8
TFR-TRI
  6
CONTINUOUS
 62
     5
100
AcDbCircle
 10
36.56175231933593
 20
54.70641326904297
 30
0.0
 40
0.025000000372529
100
AcDbArc
 50
38.84625643524508
 51
45.50582425428472
  0
ARC
  5
310
330
A
100
AcDbEntity
  8
TFR-TRI
  6
CONTINUOUS
 62
     2
100
AcDbCircle
 10
25.00025367736816
 20
8.596687316894531
 30
0.0
 40
0.6000000238418579
100
AcDbArc
 50
0.0
 51
90.0
  0
CIRCLE
  5
311
330
A
100
AcDbEntity
  8
TFR-TRI
  6
CONTINUOUS
 62
     2
100
AcDbCircle
 10
68.75355529785156
 20
32.57781600952148
 30
0.0
 40
0.0750000029802323
  0
ARC
  5
312
330
A
100
AcDbEntity
  8
TFR-TRI
  6
CONTINUOUS
 62
     2
100
AcDbCircle
 10
25.66275405883789
 20
57.33241271972656
 30
0.0
 40
0.0625
100
AcDbArc
 50
90.0
 51
270.0
  0
CIRCLE
  5
313
330
A
100
AcDbEntity
  8
TFR-TRI
  6
CONTINUOUS
 62
    31
100
AcDbCircle
 10
36.62025451660156
 20
14.92368698120117
 30
0.0
 40
0.1500000059604645
  0
ARC
  5
314
330
A
100
AcDbEntity
  8
TFR-TRI
  6
CONTINUOUS
 62
     2
100
AcDbCircle
 10
71.11055755615234
 20
33.5128173828125
 30
0.0
 40
0.1679999977350235
100
AcDbArc
 50
270.0
 51
0.0
  0
ARC
  5
315
330
A
100
AcDbEntity
  8
TFR-TRI
  6
CONTINUOUS
 62
     2
100
AcDbCircle
 10
25.85025405883789
 20
35.0948143005371
 30
0.0
 40
0.25
100
AcDbArc
 50
90.0
 51
180.0
  0
ARC
  5
316
330
A
100
AcDbEntity
  8
TFR-TRI
  6
CONTINUOUS
 62
     5
100
AcDbCircle
 10
36.62025451660156
 20
54.7594108581543
 30
0.0
 40
0.1866461485624313
100
AcDbArc
 50
169.6602930144593
 51
188.6278823192372
  0
ARC
  5
317
330
A
100
AcDbEntity
  8
TFR-TRI
  6
CONTINUOUS
 62
    31
100
AcDbCircle
 10
65.7685546875
 20
31.90481567382812
 30
0.0
 40
0.0599999986588955
100
AcDbArc
 50
180.0
 51
270.0
  0
ARC
  5
318
330
A
100
AcDbEntity
  8
TFR-TRI
  6
CONTINUOUS
 62
    31
100
AcDbCircle
 10
62.73855590820312
 20
31.90481567382812
 30
0.0
 40
0.0599999986588955
100
AcDbArc
 50
270.0
 51
0.0
  0
ARC
  5
319
330
A
100
AcDbEntity
  8
TFR-TRI
  6
CONTINUOUS
 62
     5
100
AcDbCircle
 10
36.67875289916992
 20
53.25241088867187
 30
0.0
 40
0.025000000372529
100
AcDbArc
 50
134.4941757457152
 51
141.1537435647548
  0
ARC
  5
31A
330
A
100
AcDbEntity
  8
TFR-TRI
  6
CONTINUOUS
 62
     2
100
AcDbCircle
 10
35.12025451660156
 20
17.89668655395507
 30
0.0
 40
0.2000000029802322
100
AcDbArc
 50
180.0
 51
0.0
  0
CIRCLE
  5
31B
330
A
100
AcDbEntity
  8
TFR-TRI
  6
CONTINUOUS
 62
    31
100
AcDbCircle
 10
33.62025451660156
 20
14.92368698120117
 30
0.0
 40
0.1500000059604645
  0
CIRCLE
  5
31C
330
A
100
AcDbEntity
  8
TFR-TRI
  6
CONTINUOUS
 62
     5
100
AcDbCircle
 10
36.62025451660156
 20
13.46968746185302
 30
0.0
 40
0.1080000028014183
  0
CIRCLE
  5
31D
330
A
100
AcDbEntity
  8
TFR-TRI
  6
CONTINUOUS
 62
     5
100
AcDbCircle
 10
33.62025451660156
 20
14.92368698120117
 30
0.0
 40
0.0727500021457672
  0
ARC
  5
31E
330
A
100
AcDbEntity
  8
TFR-TRI
  6
CONTINUOUS
 62
     2
100
AcDbCircle
 10
42.70275497436523
 20
18.4966869354248
 30
0.0
 40
0.0625
100
AcDbArc
 50
90.0
 51
270.0
  0
VIEWPORT
  5
33C
330
B
100
AcDbEntity
 67
     1
  8
0
  6
CONTINUOUS
100
AcDbViewport
 10
3.658709677419354
 20
2.25
 30
0.0
 40
8.317419354838708
 41
5.5
 68
     1
 69
     1
1001
ACAD
1000
MVIEW
1002
{
1070
    16
1010
0.0
1020
0.0
1030
0.0
1010
0.0
1020
0.0
1030
1.0
1040
0.0
1040
5.5
1040
3.658709677419354
1040
2.25
1040
50.0
1040
0.0
1040
0.0
1070
     0
1070
   100
1070
     1
1070
     1
1070
     0
1070
     0
1070
     0
1070
     0
1040
0.0
1040
0.0
1040
0.0
1040
1.0
1040
1.0
1040
0.0
1040
0.0
1070
     0
1002
{
1002
}
1002
}
  0
ENDSEC
  0
SECTION
  2
OBJECTS
  0
DICTIONARY
  5
19
330
0
100
AcDbDictionary
  3
ACAD_GROUP
350
1A
  3
ACAD_LAYOUT
350
1E
  3
ACAD_MLINESTYLE
350
1B
  3
ACAD_PLOTSETTINGS
350
22
  3
ACAD_PLOTSTYLENAME
350
1F
  3
ACAD_WIPEOUT_VARS
350
23
  3
ACDBHEADERROUNDTRIPXREC
350
3B3
  0
DICTIONARY
  5
3D4
330
A
100
AcDbDictionary
280
     1
  3
ACAD_LAYOUTSELFREF
360
3D5
  0
DICTIONARY
  5
3D6
330
B
100
AcDbDictionary
280
     1
  3
ACAD_LAYOUTSELFREF
360
3D7
  0
DICTIONARY
  5
1A
102
{ACAD_REACTORS
330
19
102
}
330
19
100
AcDbDictionary
  0
DICTIONARY
  5
1E
102
{ACAD_REACTORS
330
19
102
}
330
19
100
AcDbDictionary
  0
DICTIONARY
  5
1B
102
{ACAD_REACTORS
330
19
102
}
330
19
100
AcDbDictionary
  3
STANDARD
350
1C
  0
DICTIONARY
  5
22
102
{ACAD_REACTORS
330
19
102
}
330
19
100
AcDbDictionary
  0
ACDBDICTIONARYWDFLT
  5
1F
102
{ACAD_REACTORS
330
19
102
}
330
19
100
AcDbDictionary
281
     1
  3
Normal
350
1D
100
AcDbDictionaryWithDefault
340
1D
  0
ACAD_PROXY_OBJECT
  5
23
330
19
100
AcDbProxyObject
 90
      499
 91
      524
 93
       10
310
4042
 94
        0
1001
ACAD
1000
AcadProxyRoundTripData
1071
      521
1071
   655383
1070
     0
  0
DICTIONARY
  5
3B3
102
{ACAD_REACTORS
330
19
102
}
330
19
100
AcDbDictionary
  3
CEPSNTYPE
350
3BD
  3
DIMSTYLEDATA
350
3C1
  3
FINGERPRINTGUID
350
3BE
  3
HYPERLINKBASE
350
3B6
  3
INSUNITS
350
3BC
  3
LAYOUTDICT
350
3B8
  3
LWETCUNION
350
3BB
  3
PLOTSETDICT
350
3B9
  3
PLOTSTYLNAMDICT
350
3BA
  3
PSVPSCALE
350
3C0
  3
PUCSBASE
350
3C4
  3
PUCSORGBACK
350
3CA
  3
PUCSORGBOTTOM
350
3C6
  3
PUCSORGFRONT
350
3C9
  3
PUCSORGLEFT
350
3C7
  3
PUCSORGRIGHT
350
3C8
  3
PUCSORGTOP
350
3C5
  3
PUCSORTHOREF
350
3C2
  3
PUCSORTHOVIEW
350
3C3
  3
STYLESHEET
350
3B7
  3
TSTACKALIGN
350
3B4
  3
TSTACKSIZE
350
3B5
  3
UCSBASE
350
3CD
  3
UCSORGBACK
350
3D3
  3
UCSORGBOTTOM
350
3CF
  3
UCSORGFRONT
350
3D2
  3
UCSORGLEFT
350
3D0
  3
UCSORGRIGHT
350
3D1
  3
UCSORGTOP
350
3CE
  3
UCSORTHOREF
350
3CB
  3
UCSORTHOVIEW
350
3CC
  3
VERSIONGUID
350
3BF
  0
XRECORD
  5
3D5
102
{ACAD_REACTORS
330
3D4
102
}
330
3D4
100
AcDbXrecord
340
A
  0
XRECORD
  5
3D7
102
{ACAD_REACTORS
330
3D6
102
}
330
3D6
100
AcDbXrecord
340
B
  0
MLINESTYLE
  5
1C
102
{ACAD_REACTORS
330
1B
102
}
330
1B
100
AcDbMlineStyle
  2
STANDARD
 70
     0
  3

 62
     0
 51
90.0
 52
90.0
 71
     2
 49
0.5
 62
   256
  6
BYLAYER
 49
-0.5
 62
   256
  6
BYLAYER
  0
ACDBPLACEHOLDER
  5
1D
102
{ACAD_REACTORS
330
1F
102
}
330
1F
100
AcDbPlaceHolder
280
     0
  0
XRECORD
  5
3BD
102
{ACAD_REACTORS
330
3B3
102
}
330
3B3
100
AcDbXrecord
 90
        0
  0
XRECORD
  5
3C1
102
{ACAD_REACTORS
330
3B3
102
}
330
3B3
100
AcDbXrecord
1000
DSTYLE
1002
{
1070
   278
 70
     0
1070
   371
 70
     0
1070
   372
 70
     0
1002
}
  0
XRECORD
  5
3BE
102
{ACAD_REACTORS
330
3B3
102
}
330
3B3
100
AcDbXrecord
  1

  0
XRECORD
  5
3B6
102
{ACAD_REACTORS
330
3B3
102
}
330
3B3
100
AcDbXrecord
  1

  0
XRECORD
  5
3BC
102
{ACAD_REACTORS
330
3B3
102
}
330
3B3
100
AcDbXrecord
 90
        0
  0
XRECORD
  5
3B8
102
{ACAD_REACTORS
330
3B3
102
}
330
3B3
100
AcDbXrecord
340
1E
  0
XRECORD
  5
3BB
102
{ACAD_REACTORS
330
3B3
102
}
330
3B3
100
AcDbXrecord
 90
    10752
  0
XRECORD
  5
3B9
102
{ACAD_REACTORS
330
3B3
102
}
330
3B3
100
AcDbXrecord
340
22
  0
XRECORD
  5
3BA
102
{ACAD_REACTORS
330
3B3
102
}
330
3B3
100
AcDbXrecord
340
1F
  0
XRECORD
  5
3C0
102
{ACAD_REACTORS
330
3B3
102
}
330
3B3
100
AcDbXrecord
 40
0.0
  0
XRECORD
  5
3C4
102
{ACAD_REACTORS
330
3B3
102
}
330
3B3
100
AcDbXrecord
340
0
  0
XRECORD
  5
3CA
102
{ACAD_REACTORS
330
3B3
102
}
330
3B3
100
AcDbXrecord
 10
0.0
 20
0.0
 30
0.0
  0
XRECORD
  5
3C6
102
{ACAD_REACTORS
330
3B3
102
}
330
3B3
100
AcDbXrecord
 10
0.0
 20
0.0
 30
0.0
  0
XRECORD
  5
3C9
102
{ACAD_REACTORS
330
3B3
102
}
330
3B3
100
AcDbXrecord
 10
0.0
 20
0.0
 30
0.0
  0
XRECORD
  5
3C7
102
{ACAD_REACTORS
330
3B3
102
}
330
3B3
100
AcDbXrecord
 10
0.0
 20
0.0
 30
0.0
  0
XRECORD
  5
3C8
102
{ACAD_REACTORS
330
3B3
102
}
330
3B3
100
AcDbXrecord
 10
0.0
 20
0.0
 30
0.0
  0
XRECORD
  5
3C5
102
{ACAD_REACTORS
330
3B3
102
}
330
3B3
100
AcDbXrecord
 10
0.0
 20
0.0
 30
0.0
  0
XRECORD
  5
3C2
102
{ACAD_REACTORS
330
3B3
102
}
330
3B3
100
AcDbXrecord
340
0
  0
XRECORD
  5
3C3
102
{ACAD_REACTORS
330
3B3
102
}
330
3B3
100
AcDbXrecord
 70
     0
  0
XRECORD
  5
3B7
102
{ACAD_REACTORS
330
3B3
102
}
330
3B3
100
AcDbXrecord
  1

  0
XRECORD
  5
3B4
102
{ACAD_REACTORS
330
3B3
102
}
330
3B3
100
AcDbXrecord
 90
        1
  0
XRECORD
  5
3B5
102
{ACAD_REACTORS
330
3B3
102
}
330
3B3
100
AcDbXrecord
 90
       70
  0
XRECORD
  5
3CD
102
{ACAD_REACTORS
330
3B3
102
}
330
3B3
100
AcDbXrecord
340
0
  0
XRECORD
  5
3D3
102
{ACAD_REACTORS
330
3B3
102
}
330
3B3
100
AcDbXrecord
 10
0.0
 20
0.0
 30
0.0
  0
XRECORD
  5
3CF
102
{ACAD_REACTORS
330
3B3
102
}
330
3B3
100
AcDbXrecord
 10
0.0
 20
0.0
 30
0.0
  0
XRECORD
  5
3D2
102
{ACAD_REACTORS
330
3B3
102
}
330
3B3
100
AcDbXrecord
 10
0.0
 20
0.0
 30
0.0
  0
XRECORD
  5
3D0
102
{ACAD_REACTORS
330
3B3
102
}
330
3B3
100
AcDbXrecord
 10
0.0
 20
0.0
 30
0.0
  0
XRECORD
  5
3D1
102
{ACAD_REACTORS
330
3B3
102
}
330
3B3
100
AcDbXrecord
 10
0.0
 20
0.0
 30
0.0
  0
XRECORD
  5
3CE
102
{ACAD_REACTORS
330
3B3
102
}
330
3B3
100
AcDbXrecord
 10
0.0
 20
0.0
 30
0.0
  0
XRECORD
  5
3CB
102
{ACAD_REACTORS
330
3B3
102
}
330
3B3
100
AcDbXrecord
340
0
  0
XRECORD
  5
3CC
102
{ACAD_REACTORS
330
3B3
102
}
330
3B3
100
AcDbXrecord
 70
     1
  0
XRECORD
  5
3BF
102
{ACAD_REACTORS
330
3B3
102
}
330
3B3
100
AcDbXrecord
  1
{7F075372-CF2A-414F-B236-D566A8A8CD20}
  0
ENDSEC
  0
EOF
