  0
SECTION
  2
HEADER
  9
$ACADVER
  1
AC1014
  9
$ACADMAINTVER
 70
     9
  9
$DWGCODEPAGE
  3
ANSI_1252
  9
$INSBASE
 10
0.0
 20
0.0
 30
0.0
  9
$EXTMIN
 10
1.696105986945454
 20
3.663665796704201
 30
-0.0015258207003583
  9
$EXTMAX
 10
4.296203632252527
 20
7.886535664189764
 30
0.0000000349246037
  9
$LIMMIN
 10
0.0
 20
0.0
  9
$LIMMAX
 10
12.0
 20
9.0
  9
$ORTHOMODE
 70
     0
  9
$REGENMODE
 70
     1
  9
$FILLMODE
 70
     1
  9
$QTEXTMODE
 70
     0
  9
$MIRRTEXT
 70
     1
  9
$DRAGMODE
 70
     2
  9
$LTSCALE
 40
1.0
  9
$OSMODE
 70
    37
  9
$ATTMODE
 70
     1
  9
$TEXTSIZE
 40
0.2
  9
$TRACEWID
 40
0.05
  9
$TEXTSTYLE
  7
STANDARD
  9
$CLAYER
  8
0
  9
$CELTYPE
  6
BYLAYER
  9
$CECOLOR
 62
   256
  9
$CELTSCALE
 40
1.0
  9
$DELOBJ
 70
     1
  9
$DISPSILH
 70
     0
  9
$DIMSCALE
 40
1.0
  9
$DIMASZ
 40
0.18
  9
$DIMEXO
 40
0.0625
  9
$DIMDLI
 40
0.38
  9
$DIMRND
 40
0.0
  9
$DIMDLE
 40
0.0
  9
$DIMEXE
 40
0.18
  9
$DIMTP
 40
0.0
  9
$DIMTM
 40
0.0
  9
$DIMTXT
 40
0.18
  9
$DIMCEN
 40
0.09
  9
$DIMTSZ
 40
0.0
  9
$DIMTOL
 70
     0
  9
$DIMLIM
 70
     0
  9
$DIMTIH
 70
     1
  9
$DIMTOH
 70
     1
  9
$DIMSE1
 70
     0
  9
$DIMSE2
 70
     0
  9
$DIMTAD
 70
     0
  9
$DIMZIN
 70
     0
  9
$DIMBLK
  1

  9
$DIMASO
 70
     1
  9
$DIMSHO
 70
     1
  9
$DIMPOST
  1

  9
$DIMAPOST
  1

  9
$DIMALT
 70
     0
  9
$DIMALTD
 70
     2
  9
$DIMALTF
 40
25.4
  9
$DIMLFAC
 40
1.0
  9
$DIMTOFL
 70
     0
  9
$DIMTVP
 40
0.0
  9
$DIMTIX
 70
     0
  9
$DIMSOXD
 70
     0
  9
$DIMSAH
 70
     0
  9
$DIMBLK1
  1

  9
$DIMBLK2
  1

  9
$DIMSTYLE
  2
STANDARD
  9
$DIMCLRD
 70
     0
  9
$DIMCLRE
 70
     0
  9
$DIMCLRT
 70
     0
  9
$DIMTFAC
 40
1.0
  9
$DIMGAP
 40
0.09
  9
$DIMJUST
 70
     0
  9
$DIMSD1
 70
     0
  9
$DIMSD2
 70
     0
  9
$DIMTOLJ
 70
     1
  9
$DIMTZIN
 70
     0
  9
$DIMALTZ
 70
     0
  9
$DIMALTTZ
 70
     0
  9
$DIMFIT
 70
     5
  9
$DIMUPT
 70
     0
  9
$DIMUNIT
 70
     2
  9
$DIMDEC
 70
     4
  9
$DIMTDEC
 70
     4
  9
$DIMALTU
 70
     2
  9
$DIMALTTD
 70
     2
  9
$DIMTXSTY
  7
STANDARD
  9
$DIMAUNIT
 70
     0
  9
$LUNITS
 70
     2
  9
$LUPREC
 70
     4
  9
$SKETCHINC
 40
0.1
  9
$FILLETRAD
 40
0.0
  9
$AUNITS
 70
     0
  9
$AUPREC
 70
     0
  9
$MENU
  1
acad
  9
$ELEVATION
 40
0.0
  9
$PELEVATION
 40
0.0
  9
$THICKNESS
 40
0.0
  9
$LIMCHECK
 70
     0
  9
$BLIPMODE
 70
     0
  9
$CHAMFERA
 40
0.0
  9
$CHAMFERB
 40
0.0
  9
$CHAMFERC
 40
0.0
  9
$CHAMFERD
 40
0.0
  9
$SKPOLY
 70
     0
  9
$TDCREATE
 40
2452397.650925925
  9
$TDUPDATE
 40
2452397.667175741
  9
$TDINDWG
 40
0.0024395949
  9
$TDUSRTIMER
 40
0.0024395949
  9
$USRTIMER
 70
     1
  9
$ANGBASE
 50
0.0
  9
$ANGDIR
 70
     0
  9
$PDMODE
 70
     0
  9
$PDSIZE
 40
0.0
  9
$PLINEWID
 40
0.0
  9
$COORDS
 70
     2
  9
$SPLFRAME
 70
     0
  9
$SPLINETYPE
 70
     6
  9
$SPLINESEGS
 70
     8
  9
$ATTDIA
 70
     0
  9
$ATTREQ
 70
     1
  9
$HANDLING
 70
-16383
  9
$HANDSEED
  5
2CC4
  9
$SURFTAB1
 70
     6
  9
$SURFTAB2
 70
     6
  9
$SURFTYPE
 70
     6
  9
$SURFU
 70
     6
  9
$SURFV
 70
     6
  9
$UCSNAME
  2

  9
$UCSORG
 10
0.0
 20
0.0
 30
0.0
  9
$UCSXDIR
 10
1.0
 20
0.0
 30
0.0
  9
$UCSYDIR
 10
0.0
 20
1.0
 30
0.0
  9
$PUCSNAME
  2

  9
$PUCSORG
 10
0.0
 20
0.0
 30
0.0
  9
$PUCSXDIR
 10
1.0
 20
0.0
 30
0.0
  9
$PUCSYDIR
 10
0.0
 20
1.0
 30
0.0
  9
$USERI1
 70
     0
  9
$USERI2
 70
     0
  9
$USERI3
 70
     0
  9
$USERI4
 70
     0
  9
$USERI5
 70
     0
  9
$USERR1
 40
0.0
  9
$USERR2
 40
0.0
  9
$USERR3
 40
0.0
  9
$USERR4
 40
0.0
  9
$USERR5
 40
0.0
  9
$WORLDVIEW
 70
     1
  9
$SHADEDGE
 70
     3
  9
$SHADEDIF
 70
    70
  9
$TILEMODE
 70
     1
  9
$MAXACTVP
 70
    16
  9
$PINSBASE
 10
0.0
 20
0.0
 30
0.0
  9
$PLIMCHECK
 70
     0
  9
$PEXTMIN
 10
1.000000000000000E+20
 20
1.000000000000000E+20
 30
1.000000000000000E+20
  9
$PEXTMAX
 10
-1.000000000000000E+20
 20
-1.000000000000000E+20
 30
-1.000000000000000E+20
  9
$PLIMMIN
 10
0.0
 20
0.0
  9
$PLIMMAX
 10
12.0
 20
9.0
  9
$UNITMODE
 70
     0
  9
$VISRETAIN
 70
     0
  9
$PLINEGEN
 70
     0
  9
$PSLTSCALE
 70
     1
  9
$TREEDEPTH
 70
  3020
  9
$PICKSTYLE
 70
     0
  9
$CMLSTYLE
  2
STANDARD
  9
$CMLJUST
 70
     0
  9
$CMLSCALE
 40
1.0
  9
$PROXYGRAPHICS
 70
     1
  9
$MEASUREMENT
 70
     0
  0
ENDSEC
  0
SECTION
  2
CLASSES
  0
CLASS
  1
ACDBDICTIONARYWDFLT
  2
AcDbDictionaryWithDefault
  3
AutoCAD 2000
 90
        0
280
     0
281
     0
  0
CLASS
  1
ACDBPLACEHOLDER
  2
AcDbPlaceHolder
  3
AutoCAD 2000
 90
        0
280
     0
281
     0
  0
CLASS
  1
LAYOUT
  2
AcDbLayout
  3
AutoCAD 2000
 90
        0
280
     0
281
     0
  0
CLASS
  1
LONG_TRANSACTION
  2
AcDbLongTransaction
  3
AutoCAD 2000
 90
        0
280
     0
281
     0
  0
CLASS
  1
LWPOLYLINE
  2
AcDbPolyline
  3
AutoCAD 2000
 90
        0
280
     0
281
     1
  0
CLASS
  1
HATCH
  2
AcDbHatch
  3
AutoCAD 2000
 90
        0
280
     0
281
     1
  0
CLASS
  1
XRECORD
  2
AcDbXrecord
  3
AutoCAD 2000
 90
        0
280
     0
281
     0
  0
ENDSEC
  0
SECTION
  2
TABLES
  0
TABLE
  2
VPORT
  5
8
330
0
100
AcDbSymbolTable
 70
     3
  0
VPORT
  5
2C9E
330
8
100
AcDbSymbolTableRecord
100
AcDbViewportTableRecord
  2
*ACTIVE
 70
     0
 10
0.0
 20
0.0
 11
1.0
 21
1.0
 12
2.996154809598991
 22
5.775100730446983
 13
0.0
 23
0.0
 14
1.0
 24
1.0
 15
0.0
 25
0.0
 16
0.0
 26
0.0
 36
1.0
 17
0.0
 27
0.0
 37
0.0
 40
4.256788500959343
 41
1.498659517426273
 42
50.0
 43
0.0
 44
0.0
 50
0.0
 51
0.0
 71
     0
 72
   100
 73
     1
 74
     1
 75
     0
 76
     0
 77
     0
 78
     0
  0
ENDTAB
  0
TABLE
  2
LTYPE
  5
5
330
0
100
AcDbSymbolTable
 70
    25
  0
LTYPE
  5
13
330
5
100
AcDbSymbolTableRecord
100
AcDbLinetypeTableRecord
  2
BYBLOCK
 70
     0
  3

 72
    65
 73
     0
 40
0.0
  0
LTYPE
  5
14
330
5
100
AcDbSymbolTableRecord
100
AcDbLinetypeTableRecord
  2
BYLAYER
 70
     0
  3

 72
    65
 73
     0
 40
0.0
  0
LTYPE
  5
15
330
5
100
AcDbSymbolTableRecord
100
AcDbLinetypeTableRecord
  2
CONTINUOUS
 70
     0
  3
Solid line
 72
    65
 73
     0
 40
0.0
  0
LTYPE
  5
22
330
5
100
AcDbSymbolTableRecord
100
AcDbLinetypeTableRecord
  2
BORDER
 70
     0
  3
__ __ . __ __ . __ __ . __ __ . __ __ . __ __ .
 72
    65
 73
     6
 40
1.75
 49
0.5
 74
     0
 49
-0.25
 74
     0
 49
0.5
 74
     0
 49
-0.25
 74
     0
 49
0.5
 74
     0
 49
-0.25
 74
     0
  0
LTYPE
  5
23
330
5
100
AcDbSymbolTableRecord
100
AcDbLinetypeTableRecord
  2
BORDER2
 70
     0
  3
__.__.__.__.__.__.__.__.__.__.__.__.__.__.__.__
 72
    65
 73
     6
 40
0.875
 49
0.25
 74
     0
 49
-0.125
 74
     0
 49
0.25
 74
     0
 49
-0.125
 74
     0
 49
0.25
 74
     0
 49
-0.125
 74
     0
  0
LTYPE
  5
24
330
5
100
AcDbSymbolTableRecord
100
AcDbLinetypeTableRecord
  2
BORDERX2
 70
     0
  3
____  ____  .  ____  ____  .  
 72
    65
 73
     6
 40
3.5
 49
1.0
 74
     0
 49
-0.5
 74
     0
 49
1.0
 74
     0
 49
-0.5
 74
     0
 49
1.0
 74
     0
 49
-0.5
 74
     0
  0
LTYPE
  5
25
330
5
100
AcDbSymbolTableRecord
100
AcDbLinetypeTableRecord
  2
CENTER
 70
     0
  3
____ _ ____ _ ____ _ ____ _ ____ _ ____ _ ____
 72
    65
 73
     4
 40
2.0
 49
1.25
 74
     0
 49
-0.25
 74
     0
 49
0.25
 74
     0
 49
-0.25
 74
     0
  0
LTYPE
  5
26
330
5
100
AcDbSymbolTableRecord
100
AcDbLinetypeTableRecord
  2
CENTER2
 70
     0
  3
____ _ ____ _ ____ _ ____ _ ____ _ ____ _ ____
 72
    65
 73
     4
 40
1.125
 49
0.75
 74
     0
 49
-0.125
 74
     0
 49
0.125
 74
     0
 49
-0.125
 74
     0
  0
LTYPE
  5
27
330
5
100
AcDbSymbolTableRecord
100
AcDbLinetypeTableRecord
  2
CENTERX2
 70
     0
  3
________  __  ________  __  ________  __  
 72
    65
 73
     4
 40
4.0
 49
2.5
 74
     0
 49
-0.5
 74
     0
 49
0.5
 74
     0
 49
-0.5
 74
     0
  0
LTYPE
  5
28
330
5
100
AcDbSymbolTableRecord
100
AcDbLinetypeTableRecord
  2
DASHDOT
 70
     0
  3
__ . __ . __ . __ . __ . __ . __ . 
 72
    65
 73
     4
 40
1.0
 49
0.5
 74
     0
 49
-0.25
 74
     0
 49
0.0
 74
     0
 49
-0.25
 74
     0
  0
LTYPE
  5
29
330
5
100
AcDbSymbolTableRecord
100
AcDbLinetypeTableRecord
  2
DASHDOT2
 70
     0
  3
_._._._._._._._._._._._._._._._.
 72
    65
 73
     4
 40
0.5
 49
0.25
 74
     0
 49
-0.125
 74
     0
 49
0.0
 74
     0
 49
-0.125
 74
     0
  0
LTYPE
  5
2A
330
5
100
AcDbSymbolTableRecord
100
AcDbLinetypeTableRecord
  2
DASHDOTX2
 70
     0
  3
____  .  ____  .  ____  .  ____  .  
 72
    65
 73
     4
 40
2.0
 49
1.0
 74
     0
 49
-0.5
 74
     0
 49
0.0
 74
     0
 49
-0.5
 74
     0
  0
LTYPE
  5
2B
330
5
100
AcDbSymbolTableRecord
100
AcDbLinetypeTableRecord
  2
DASHED
 70
     0
  3
__ __ __ __ __ __ __ __ __ __ __ __ 
 72
    65
 73
     2
 40
0.75
 49
0.5
 74
     0
 49
-0.25
 74
     0
  0
LTYPE
  5
2C
330
5
100
AcDbSymbolTableRecord
100
AcDbLinetypeTableRecord
  2
DASHED2
 70
     0
  3
_ _ _ _ _ _ _ _ _ _ _ _ _ _ _ _ _ _ 
 72
    65
 73
     2
 40
0.375
 49
0.25
 74
     0
 49
-0.125
 74
     0
  0
LTYPE
  5
2D
330
5
100
AcDbSymbolTableRecord
100
AcDbLinetypeTableRecord
  2
DASHEDX2
 70
     0
  3
____  ____  ____  ____  ____  ____  
 72
    65
 73
     2
 40
1.5
 49
1.0
 74
     0
 49
-0.5
 74
     0
  0
LTYPE
  5
2E
330
5
100
AcDbSymbolTableRecord
100
AcDbLinetypeTableRecord
  2
DIVIDE
 70
     0
  3
____ . . ____ . . ____ . . ____ . . 
 72
    65
 73
     6
 40
1.25
 49
0.5
 74
     0
 49
-0.25
 74
     0
 49
0.0
 74
     0
 49
-0.25
 74
     0
 49
0.0
 74
     0
 49
-0.25
 74
     0
  0
LTYPE
  5
2F
330
5
100
AcDbSymbolTableRecord
100
AcDbLinetypeTableRecord
  2
DIVIDE2
 70
     0
  3
__..__..__..__..__..__..__..__..__..
 72
    65
 73
     6
 40
0.625
 49
0.25
 74
     0
 49
-0.125
 74
     0
 49
0.0
 74
     0
 49
-0.125
 74
     0
 49
0.0
 74
     0
 49
-0.125
 74
     0
  0
LTYPE
  5
30
330
5
100
AcDbSymbolTableRecord
100
AcDbLinetypeTableRecord
  2
DIVIDEX2
 70
     0
  3
________  .  .  ________  .  .  ________  .  . 
 72
    65
 73
     6
 40
2.5
 49
1.0
 74
     0
 49
-0.5
 74
     0
 49
0.0
 74
     0
 49
-0.5
 74
     0
 49
0.0
 74
     0
 49
-0.5
 74
     0
  0
LTYPE
  5
31
330
5
100
AcDbSymbolTableRecord
100
AcDbLinetypeTableRecord
  2
DOT
 70
     0
  3
. . . . . . . . . . . . . . . . . . 
 72
    65
 73
     2
 40
0.25
 49
0.0
 74
     0
 49
-0.25
 74
     0
  0
LTYPE
  5
32
330
5
100
AcDbSymbolTableRecord
100
AcDbLinetypeTableRecord
  2
DOT2
 70
     0
  3
....................................
 72
    65
 73
     2
 40
0.125
 49
0.0
 74
     0
 49
-0.125
 74
     0
  0
LTYPE
  5
33
330
5
100
AcDbSymbolTableRecord
100
AcDbLinetypeTableRecord
  2
DOTX2
 70
     0
  3
.  .  .  .  .  .  .  .  .  .  .  .  .  
 72
    65
 73
     2
 40
0.5
 49
0.0
 74
     0
 49
-0.5
 74
     0
  0
LTYPE
  5
34
330
5
100
AcDbSymbolTableRecord
100
AcDbLinetypeTableRecord
  2
HIDDEN
 70
     0
  3
__ __ __ __ __ __ __ __ __ __ __ __ 
 72
    65
 73
     2
 40
0.375
 49
0.25
 74
     0
 49
-0.125
 74
     0
  0
LTYPE
  5
35
330
5
100
AcDbSymbolTableRecord
100
AcDbLinetypeTableRecord
  2
HIDDEN2
 70
     0
  3
_ _ _ _ _ _ _ _ _ _ _ _ _ _ _ _ _ _ 
 72
    65
 73
     2
 40
0.1875
 49
0.125
 74
     0
 49
-0.0625
 74
     0
  0
LTYPE
  5
36
330
5
100
AcDbSymbolTableRecord
100
AcDbLinetypeTableRecord
  2
HIDDENX2
 70
     0
  3
____ ____ ____ ____ ____ ____ ____ 
 72
    65
 73
     2
 40
0.75
 49
0.5
 74
     0
 49
-0.25
 74
     0
  0
LTYPE
  5
37
330
5
100
AcDbSymbolTableRecord
100
AcDbLinetypeTableRecord
  2
PHANTOM
 70
     0
  3
______  __  __  ______  __  __  
 72
    65
 73
     6
 40
2.5
 49
1.25
 74
     0
 49
-0.25
 74
     0
 49
0.25
 74
     0
 49
-0.25
 74
     0
 49
0.25
 74
     0
 49
-0.25
 74
     0
  0
LTYPE
  5
38
330
5
100
AcDbSymbolTableRecord
100
AcDbLinetypeTableRecord
  2
PHANTOM2
 70
     0
  3
___ _ _ ___ _ _ ___ _ _ ___ _ _ 
 72
    65
 73
     6
 40
1.25
 49
0.625
 74
     0
 49
-0.125
 74
     0
 49
0.125
 74
     0
 49
-0.125
 74
     0
 49
0.125
 74
     0
 49
-0.125
 74
     0
  0
LTYPE
  5
39
330
5
100
AcDbSymbolTableRecord
100
AcDbLinetypeTableRecord
  2
PHANTOMX2
 70
     0
  3
___ _ _ ___ _ _ ___ _ _ ___ _ _ 
 72
    65
 73
     6
 40
5.0
 49
2.5
 74
     0
 49
-0.5
 74
     0
 49
0.5
 74
     0
 49
-0.5
 74
     0
 49
0.5
 74
     0
 49
-0.5
 74
     0
  0
ENDTAB
  0
TABLE
  2
LAYER
  5
2
330
0
100
AcDbSymbolTable
 70
   256
  0
LAYER
  5
10
330
2
100
AcDbSymbolTableRecord
100
AcDbLayerTableRecord
  2
0
 70
     0
 62
     7
  6
CONTINUOUS
  0
LAYER
  5
3A
330
2
100
AcDbSymbolTableRecord
100
AcDbLayerTableRecord
  2
1
 70
     0
 62
     1
  6
CONTINUOUS
  0
LAYER
  5
3B
330
2
100
AcDbSymbolTableRecord
100
AcDbLayerTableRecord
  2
2
 70
     0
 62
     2
  6
CONTINUOUS
  0
LAYER
  5
3C
330
2
100
AcDbSymbolTableRecord
100
AcDbLayerTableRecord
  2
3
 70
     0
 62
     3
  6
CONTINUOUS
  0
LAYER
  5
3D
330
2
100
AcDbSymbolTableRecord
100
AcDbLayerTableRecord
  2
4
 70
     0
 62
     4
  6
CONTINUOUS
  0
LAYER
  5
3E
330
2
100
AcDbSymbolTableRecord
100
AcDbLayerTableRecord
  2
5
 70
     0
 62
     5
  6
CONTINUOUS
  0
LAYER
  5
3F
330
2
100
AcDbSymbolTableRecord
100
AcDbLayerTableRecord
  2
6
 70
     0
 62
     6
  6
CONTINUOUS
  0
LAYER
  5
40
330
2
100
AcDbSymbolTableRecord
100
AcDbLayerTableRecord
  2
7
 70
     0
 62
     7
  6
CONTINUOUS
  0
LAYER
  5
41
330
2
100
AcDbSymbolTableRecord
100
AcDbLayerTableRecord
  2
8
 70
     0
 62
     8
  6
CONTINUOUS
  0
LAYER
  5
42
330
2
100
AcDbSymbolTableRecord
100
AcDbLayerTableRecord
  2
9
 70
     0
 62
     9
  6
CONTINUOUS
  0
LAYER
  5
43
330
2
100
AcDbSymbolTableRecord
100
AcDbLayerTableRecord
  2
10
 70
     0
 62
    10
  6
CONTINUOUS
  0
LAYER
  5
44
330
2
100
AcDbSymbolTableRecord
100
AcDbLayerTableRecord
  2
11
 70
     0
 62
    11
  6
CONTINUOUS
  0
LAYER
  5
45
330
2
100
AcDbSymbolTableRecord
100
AcDbLayerTableRecord
  2
12
 70
     0
 62
    12
  6
CONTINUOUS
  0
LAYER
  5
46
330
2
100
AcDbSymbolTableRecord
100
AcDbLayerTableRecord
  2
13
 70
     0
 62
    13
  6
CONTINUOUS
  0
LAYER
  5
47
330
2
100
AcDbSymbolTableRecord
100
AcDbLayerTableRecord
  2
14
 70
     0
 62
    14
  6
CONTINUOUS
  0
LAYER
  5
48
330
2
100
AcDbSymbolTableRecord
100
AcDbLayerTableRecord
  2
15
 70
     0
 62
    15
  6
CONTINUOUS
  0
LAYER
  5
49
330
2
100
AcDbSymbolTableRecord
100
AcDbLayerTableRecord
  2
16
 70
     0
 62
    16
  6
CONTINUOUS
  0
LAYER
  5
4A
330
2
100
AcDbSymbolTableRecord
100
AcDbLayerTableRecord
  2
17
 70
     0
 62
    17
  6
CONTINUOUS
  0
LAYER
  5
4B
330
2
100
AcDbSymbolTableRecord
100
AcDbLayerTableRecord
  2
18
 70
     0
 62
    18
  6
CONTINUOUS
  0
LAYER
  5
4C
330
2
100
AcDbSymbolTableRecord
100
AcDbLayerTableRecord
  2
19
 70
     0
 62
    19
  6
CONTINUOUS
  0
LAYER
  5
4D
330
2
100
AcDbSymbolTableRecord
100
AcDbLayerTableRecord
  2
20
 70
     0
 62
    20
  6
CONTINUOUS
  0
LAYER
  5
4E
330
2
100
AcDbSymbolTableRecord
100
AcDbLayerTableRecord
  2
21
 70
     0
 62
    21
  6
CONTINUOUS
  0
LAYER
  5
4F
330
2
100
AcDbSymbolTableRecord
100
AcDbLayerTableRecord
  2
22
 70
     0
 62
    22
  6
CONTINUOUS
  0
LAYER
  5
50
330
2
100
AcDbSymbolTableRecord
100
AcDbLayerTableRecord
  2
23
 70
     0
 62
    23
  6
CONTINUOUS
  0
LAYER
  5
51
330
2
100
AcDbSymbolTableRecord
100
AcDbLayerTableRecord
  2
24
 70
     0
 62
    24
  6
CONTINUOUS
  0
LAYER
  5
52
330
2
100
AcDbSymbolTableRecord
100
AcDbLayerTableRecord
  2
25
 70
     0
 62
    25
  6
CONTINUOUS
  0
LAYER
  5
53
330
2
100
AcDbSymbolTableRecord
100
AcDbLayerTableRecord
  2
26
 70
     0
 62
    26
  6
CONTINUOUS
  0
LAYER
  5
54
330
2
100
AcDbSymbolTableRecord
100
AcDbLayerTableRecord
  2
27
 70
     0
 62
    27
  6
CONTINUOUS
  0
LAYER
  5
55
330
2
100
AcDbSymbolTableRecord
100
AcDbLayerTableRecord
  2
28
 70
     0
 62
    28
  6
CONTINUOUS
  0
LAYER
  5
56
330
2
100
AcDbSymbolTableRecord
100
AcDbLayerTableRecord
  2
29
 70
     0
 62
    29
  6
CONTINUOUS
  0
LAYER
  5
57
330
2
100
AcDbSymbolTableRecord
100
AcDbLayerTableRecord
  2
30
 70
     0
 62
    30
  6
CONTINUOUS
  0
LAYER
  5
58
330
2
100
AcDbSymbolTableRecord
100
AcDbLayerTableRecord
  2
31
 70
     0
 62
    31
  6
CONTINUOUS
  0
LAYER
  5
59
330
2
100
AcDbSymbolTableRecord
100
AcDbLayerTableRecord
  2
32
 70
     0
 62
    32
  6
CONTINUOUS
  0
LAYER
  5
5A
330
2
100
AcDbSymbolTableRecord
100
AcDbLayerTableRecord
  2
33
 70
     0
 62
    33
  6
CONTINUOUS
  0
LAYER
  5
5B
330
2
100
AcDbSymbolTableRecord
100
AcDbLayerTableRecord
  2
34
 70
     0
 62
    34
  6
CONTINUOUS
  0
LAYER
  5
5C
330
2
100
AcDbSymbolTableRecord
100
AcDbLayerTableRecord
  2
35
 70
     0
 62
    35
  6
CONTINUOUS
  0
LAYER
  5
5D
330
2
100
AcDbSymbolTableRecord
100
AcDbLayerTableRecord
  2
36
 70
     0
 62
    36
  6
CONTINUOUS
  0
LAYER
  5
5E
330
2
100
AcDbSymbolTableRecord
100
AcDbLayerTableRecord
  2
37
 70
     0
 62
    37
  6
CONTINUOUS
  0
LAYER
  5
5F
330
2
100
AcDbSymbolTableRecord
100
AcDbLayerTableRecord
  2
38
 70
     0
 62
    38
  6
CONTINUOUS
  0
LAYER
  5
60
330
2
100
AcDbSymbolTableRecord
100
AcDbLayerTableRecord
  2
39
 70
     0
 62
    39
  6
CONTINUOUS
  0
LAYER
  5
61
330
2
100
AcDbSymbolTableRecord
100
AcDbLayerTableRecord
  2
40
 70
     0
 62
    40
  6
CONTINUOUS
  0
LAYER
  5
62
330
2
100
AcDbSymbolTableRecord
100
AcDbLayerTableRecord
  2
41
 70
     0
 62
    41
  6
CONTINUOUS
  0
LAYER
  5
63
330
2
100
AcDbSymbolTableRecord
100
AcDbLayerTableRecord
  2
42
 70
     0
 62
    42
  6
CONTINUOUS
  0
LAYER
  5
64
330
2
100
AcDbSymbolTableRecord
100
AcDbLayerTableRecord
  2
43
 70
     0
 62
    43
  6
CONTINUOUS
  0
LAYER
  5
65
330
2
100
AcDbSymbolTableRecord
100
AcDbLayerTableRecord
  2
44
 70
     0
 62
    44
  6
CONTINUOUS
  0
LAYER
  5
66
330
2
100
AcDbSymbolTableRecord
100
AcDbLayerTableRecord
  2
45
 70
     0
 62
    45
  6
CONTINUOUS
  0
LAYER
  5
67
330
2
100
AcDbSymbolTableRecord
100
AcDbLayerTableRecord
  2
46
 70
     0
 62
    46
  6
CONTINUOUS
  0
LAYER
  5
68
330
2
100
AcDbSymbolTableRecord
100
AcDbLayerTableRecord
  2
47
 70
     0
 62
    47
  6
CONTINUOUS
  0
LAYER
  5
69
330
2
100
AcDbSymbolTableRecord
100
AcDbLayerTableRecord
  2
48
 70
     0
 62
    48
  6
CONTINUOUS
  0
LAYER
  5
6A
330
2
100
AcDbSymbolTableRecord
100
AcDbLayerTableRecord
  2
49
 70
     0
 62
    49
  6
CONTINUOUS
  0
LAYER
  5
6B
330
2
100
AcDbSymbolTableRecord
100
AcDbLayerTableRecord
  2
50
 70
     0
 62
    50
  6
CONTINUOUS
  0
LAYER
  5
6C
330
2
100
AcDbSymbolTableRecord
100
AcDbLayerTableRecord
  2
51
 70
     0
 62
    51
  6
CONTINUOUS
  0
LAYER
  5
6D
330
2
100
AcDbSymbolTableRecord
100
AcDbLayerTableRecord
  2
52
 70
     0
 62
    52
  6
CONTINUOUS
  0
LAYER
  5
6E
330
2
100
AcDbSymbolTableRecord
100
AcDbLayerTableRecord
  2
53
 70
     0
 62
    53
  6
CONTINUOUS
  0
LAYER
  5
6F
330
2
100
AcDbSymbolTableRecord
100
AcDbLayerTableRecord
  2
54
 70
     0
 62
    54
  6
CONTINUOUS
  0
LAYER
  5
70
330
2
100
AcDbSymbolTableRecord
100
AcDbLayerTableRecord
  2
55
 70
     0
 62
    55
  6
CONTINUOUS
  0
LAYER
  5
71
330
2
100
AcDbSymbolTableRecord
100
AcDbLayerTableRecord
  2
56
 70
     0
 62
    56
  6
CONTINUOUS
  0
LAYER
  5
72
330
2
100
AcDbSymbolTableRecord
100
AcDbLayerTableRecord
  2
57
 70
     0
 62
    57
  6
CONTINUOUS
  0
LAYER
  5
73
330
2
100
AcDbSymbolTableRecord
100
AcDbLayerTableRecord
  2
58
 70
     0
 62
    58
  6
CONTINUOUS
  0
LAYER
  5
74
330
2
100
AcDbSymbolTableRecord
100
AcDbLayerTableRecord
  2
59
 70
     0
 62
    59
  6
CONTINUOUS
  0
LAYER
  5
75
330
2
100
AcDbSymbolTableRecord
100
AcDbLayerTableRecord
  2
60
 70
     0
 62
    60
  6
CONTINUOUS
  0
LAYER
  5
76
330
2
100
AcDbSymbolTableRecord
100
AcDbLayerTableRecord
  2
61
 70
     0
 62
    61
  6
CONTINUOUS
  0
LAYER
  5
77
330
2
100
AcDbSymbolTableRecord
100
AcDbLayerTableRecord
  2
62
 70
     0
 62
    62
  6
CONTINUOUS
  0
LAYER
  5
78
330
2
100
AcDbSymbolTableRecord
100
AcDbLayerTableRecord
  2
63
 70
     0
 62
    63
  6
CONTINUOUS
  0
LAYER
  5
79
330
2
100
AcDbSymbolTableRecord
100
AcDbLayerTableRecord
  2
64
 70
     0
 62
    64
  6
CONTINUOUS
  0
LAYER
  5
7A
330
2
100
AcDbSymbolTableRecord
100
AcDbLayerTableRecord
  2
65
 70
     0
 62
    65
  6
CONTINUOUS
  0
LAYER
  5
7B
330
2
100
AcDbSymbolTableRecord
100
AcDbLayerTableRecord
  2
66
 70
     0
 62
    66
  6
CONTINUOUS
  0
LAYER
  5
7C
330
2
100
AcDbSymbolTableRecord
100
AcDbLayerTableRecord
  2
67
 70
     0
 62
    67
  6
CONTINUOUS
  0
LAYER
  5
7D
330
2
100
AcDbSymbolTableRecord
100
AcDbLayerTableRecord
  2
68
 70
     0
 62
    68
  6
CONTINUOUS
  0
LAYER
  5
7E
330
2
100
AcDbSymbolTableRecord
100
AcDbLayerTableRecord
  2
69
 70
     0
 62
    69
  6
CONTINUOUS
  0
LAYER
  5
7F
330
2
100
AcDbSymbolTableRecord
100
AcDbLayerTableRecord
  2
70
 70
     0
 62
    70
  6
CONTINUOUS
  0
LAYER
  5
80
330
2
100
AcDbSymbolTableRecord
100
AcDbLayerTableRecord
  2
71
 70
     0
 62
    71
  6
CONTINUOUS
  0
LAYER
  5
81
330
2
100
AcDbSymbolTableRecord
100
AcDbLayerTableRecord
  2
72
 70
     0
 62
    72
  6
CONTINUOUS
  0
LAYER
  5
82
330
2
100
AcDbSymbolTableRecord
100
AcDbLayerTableRecord
  2
73
 70
     0
 62
    73
  6
CONTINUOUS
  0
LAYER
  5
83
330
2
100
AcDbSymbolTableRecord
100
AcDbLayerTableRecord
  2
74
 70
     0
 62
    74
  6
CONTINUOUS
  0
LAYER
  5
84
330
2
100
AcDbSymbolTableRecord
100
AcDbLayerTableRecord
  2
75
 70
     0
 62
    75
  6
CONTINUOUS
  0
LAYER
  5
85
330
2
100
AcDbSymbolTableRecord
100
AcDbLayerTableRecord
  2
76
 70
     0
 62
    76
  6
CONTINUOUS
  0
LAYER
  5
86
330
2
100
AcDbSymbolTableRecord
100
AcDbLayerTableRecord
  2
77
 70
     0
 62
    77
  6
CONTINUOUS
  0
LAYER
  5
87
330
2
100
AcDbSymbolTableRecord
100
AcDbLayerTableRecord
  2
78
 70
     0
 62
    78
  6
CONTINUOUS
  0
LAYER
  5
88
330
2
100
AcDbSymbolTableRecord
100
AcDbLayerTableRecord
  2
79
 70
     0
 62
    79
  6
CONTINUOUS
  0
LAYER
  5
89
330
2
100
AcDbSymbolTableRecord
100
AcDbLayerTableRecord
  2
80
 70
     0
 62
    80
  6
CONTINUOUS
  0
LAYER
  5
8A
330
2
100
AcDbSymbolTableRecord
100
AcDbLayerTableRecord
  2
81
 70
     0
 62
    81
  6
CONTINUOUS
  0
LAYER
  5
8B
330
2
100
AcDbSymbolTableRecord
100
AcDbLayerTableRecord
  2
82
 70
     0
 62
    82
  6
CONTINUOUS
  0
LAYER
  5
8C
330
2
100
AcDbSymbolTableRecord
100
AcDbLayerTableRecord
  2
83
 70
     0
 62
    83
  6
CONTINUOUS
  0
LAYER
  5
8D
330
2
100
AcDbSymbolTableRecord
100
AcDbLayerTableRecord
  2
84
 70
     0
 62
    84
  6
CONTINUOUS
  0
LAYER
  5
8E
330
2
100
AcDbSymbolTableRecord
100
AcDbLayerTableRecord
  2
85
 70
     0
 62
    85
  6
CONTINUOUS
  0
LAYER
  5
8F
330
2
100
AcDbSymbolTableRecord
100
AcDbLayerTableRecord
  2
86
 70
     0
 62
    86
  6
CONTINUOUS
  0
LAYER
  5
90
330
2
100
AcDbSymbolTableRecord
100
AcDbLayerTableRecord
  2
87
 70
     0
 62
    87
  6
CONTINUOUS
  0
LAYER
  5
91
330
2
100
AcDbSymbolTableRecord
100
AcDbLayerTableRecord
  2
88
 70
     0
 62
    88
  6
CONTINUOUS
  0
LAYER
  5
92
330
2
100
AcDbSymbolTableRecord
100
AcDbLayerTableRecord
  2
89
 70
     0
 62
    89
  6
CONTINUOUS
  0
LAYER
  5
93
330
2
100
AcDbSymbolTableRecord
100
AcDbLayerTableRecord
  2
90
 70
     0
 62
    90
  6
CONTINUOUS
  0
LAYER
  5
94
330
2
100
AcDbSymbolTableRecord
100
AcDbLayerTableRecord
  2
91
 70
     0
 62
    91
  6
CONTINUOUS
  0
LAYER
  5
95
330
2
100
AcDbSymbolTableRecord
100
AcDbLayerTableRecord
  2
92
 70
     0
 62
    92
  6
CONTINUOUS
  0
LAYER
  5
96
330
2
100
AcDbSymbolTableRecord
100
AcDbLayerTableRecord
  2
93
 70
     0
 62
    93
  6
CONTINUOUS
  0
LAYER
  5
97
330
2
100
AcDbSymbolTableRecord
100
AcDbLayerTableRecord
  2
94
 70
     0
 62
    94
  6
CONTINUOUS
  0
LAYER
  5
98
330
2
100
AcDbSymbolTableRecord
100
AcDbLayerTableRecord
  2
95
 70
     0
 62
    95
  6
CONTINUOUS
  0
LAYER
  5
99
330
2
100
AcDbSymbolTableRecord
100
AcDbLayerTableRecord
  2
96
 70
     0
 62
    96
  6
CONTINUOUS
  0
LAYER
  5
9A
330
2
100
AcDbSymbolTableRecord
100
AcDbLayerTableRecord
  2
97
 70
     0
 62
    97
  6
CONTINUOUS
  0
LAYER
  5
9B
330
2
100
AcDbSymbolTableRecord
100
AcDbLayerTableRecord
  2
98
 70
     0
 62
    98
  6
CONTINUOUS
  0
LAYER
  5
9C
330
2
100
AcDbSymbolTableRecord
100
AcDbLayerTableRecord
  2
99
 70
     0
 62
    99
  6
CONTINUOUS
  0
LAYER
  5
9D
330
2
100
AcDbSymbolTableRecord
100
AcDbLayerTableRecord
  2
100
 70
     0
 62
   100
  6
CONTINUOUS
  0
LAYER
  5
9E
330
2
100
AcDbSymbolTableRecord
100
AcDbLayerTableRecord
  2
101
 70
     0
 62
   101
  6
CONTINUOUS
  0
LAYER
  5
9F
330
2
100
AcDbSymbolTableRecord
100
AcDbLayerTableRecord
  2
102
 70
     0
 62
   102
  6
CONTINUOUS
  0
LAYER
  5
A0
330
2
100
AcDbSymbolTableRecord
100
AcDbLayerTableRecord
  2
103
 70
     0
 62
   103
  6
CONTINUOUS
  0
LAYER
  5
A1
330
2
100
AcDbSymbolTableRecord
100
AcDbLayerTableRecord
  2
104
 70
     0
 62
   104
  6
CONTINUOUS
  0
LAYER
  5
A2
330
2
100
AcDbSymbolTableRecord
100
AcDbLayerTableRecord
  2
105
 70
     0
 62
   105
  6
CONTINUOUS
  0
LAYER
  5
A3
330
2
100
AcDbSymbolTableRecord
100
AcDbLayerTableRecord
  2
106
 70
     0
 62
   106
  6
CONTINUOUS
  0
LAYER
  5
A4
330
2
100
AcDbSymbolTableRecord
100
AcDbLayerTableRecord
  2
107
 70
     0
 62
   107
  6
CONTINUOUS
  0
LAYER
  5
A5
330
2
100
AcDbSymbolTableRecord
100
AcDbLayerTableRecord
  2
108
 70
     0
 62
   108
  6
CONTINUOUS
  0
LAYER
  5
A6
330
2
100
AcDbSymbolTableRecord
100
AcDbLayerTableRecord
  2
109
 70
     0
 62
   109
  6
CONTINUOUS
  0
LAYER
  5
A7
330
2
100
AcDbSymbolTableRecord
100
AcDbLayerTableRecord
  2
110
 70
     0
 62
   110
  6
CONTINUOUS
  0
LAYER
  5
A8
330
2
100
AcDbSymbolTableRecord
100
AcDbLayerTableRecord
  2
111
 70
     0
 62
   111
  6
CONTINUOUS
  0
LAYER
  5
A9
330
2
100
AcDbSymbolTableRecord
100
AcDbLayerTableRecord
  2
112
 70
     0
 62
   112
  6
CONTINUOUS
  0
LAYER
  5
AA
330
2
100
AcDbSymbolTableRecord
100
AcDbLayerTableRecord
  2
113
 70
     0
 62
   113
  6
CONTINUOUS
  0
LAYER
  5
AB
330
2
100
AcDbSymbolTableRecord
100
AcDbLayerTableRecord
  2
114
 70
     0
 62
   114
  6
CONTINUOUS
  0
LAYER
  5
AC
330
2
100
AcDbSymbolTableRecord
100
AcDbLayerTableRecord
  2
115
 70
     0
 62
   115
  6
CONTINUOUS
  0
LAYER
  5
AD
330
2
100
AcDbSymbolTableRecord
100
AcDbLayerTableRecord
  2
116
 70
     0
 62
   116
  6
CONTINUOUS
  0
LAYER
  5
AE
330
2
100
AcDbSymbolTableRecord
100
AcDbLayerTableRecord
  2
117
 70
     0
 62
   117
  6
CONTINUOUS
  0
LAYER
  5
AF
330
2
100
AcDbSymbolTableRecord
100
AcDbLayerTableRecord
  2
118
 70
     0
 62
   118
  6
CONTINUOUS
  0
LAYER
  5
B0
330
2
100
AcDbSymbolTableRecord
100
AcDbLayerTableRecord
  2
119
 70
     0
 62
   119
  6
CONTINUOUS
  0
LAYER
  5
B1
330
2
100
AcDbSymbolTableRecord
100
AcDbLayerTableRecord
  2
120
 70
     0
 62
   120
  6
CONTINUOUS
  0
LAYER
  5
B2
330
2
100
AcDbSymbolTableRecord
100
AcDbLayerTableRecord
  2
121
 70
     0
 62
   121
  6
CONTINUOUS
  0
LAYER
  5
B3
330
2
100
AcDbSymbolTableRecord
100
AcDbLayerTableRecord
  2
122
 70
     0
 62
   122
  6
CONTINUOUS
  0
LAYER
  5
B4
330
2
100
AcDbSymbolTableRecord
100
AcDbLayerTableRecord
  2
123
 70
     0
 62
   123
  6
CONTINUOUS
  0
LAYER
  5
B5
330
2
100
AcDbSymbolTableRecord
100
AcDbLayerTableRecord
  2
124
 70
     0
 62
   124
  6
CONTINUOUS
  0
LAYER
  5
B6
330
2
100
AcDbSymbolTableRecord
100
AcDbLayerTableRecord
  2
125
 70
     0
 62
   125
  6
CONTINUOUS
  0
LAYER
  5
B7
330
2
100
AcDbSymbolTableRecord
100
AcDbLayerTableRecord
  2
126
 70
     0
 62
   126
  6
CONTINUOUS
  0
LAYER
  5
B8
330
2
100
AcDbSymbolTableRecord
100
AcDbLayerTableRecord
  2
127
 70
     0
 62
   127
  6
CONTINUOUS
  0
LAYER
  5
B9
330
2
100
AcDbSymbolTableRecord
100
AcDbLayerTableRecord
  2
128
 70
     0
 62
   128
  6
CONTINUOUS
  0
LAYER
  5
BA
330
2
100
AcDbSymbolTableRecord
100
AcDbLayerTableRecord
  2
129
 70
     0
 62
   129
  6
CONTINUOUS
  0
LAYER
  5
BB
330
2
100
AcDbSymbolTableRecord
100
AcDbLayerTableRecord
  2
130
 70
     0
 62
   130
  6
CONTINUOUS
  0
LAYER
  5
BC
330
2
100
AcDbSymbolTableRecord
100
AcDbLayerTableRecord
  2
131
 70
     0
 62
   131
  6
CONTINUOUS
  0
LAYER
  5
BD
330
2
100
AcDbSymbolTableRecord
100
AcDbLayerTableRecord
  2
132
 70
     0
 62
   132
  6
CONTINUOUS
  0
LAYER
  5
BE
330
2
100
AcDbSymbolTableRecord
100
AcDbLayerTableRecord
  2
133
 70
     0
 62
   133
  6
CONTINUOUS
  0
LAYER
  5
BF
330
2
100
AcDbSymbolTableRecord
100
AcDbLayerTableRecord
  2
134
 70
     0
 62
   134
  6
CONTINUOUS
  0
LAYER
  5
C0
330
2
100
AcDbSymbolTableRecord
100
AcDbLayerTableRecord
  2
135
 70
     0
 62
   135
  6
CONTINUOUS
  0
LAYER
  5
C1
330
2
100
AcDbSymbolTableRecord
100
AcDbLayerTableRecord
  2
136
 70
     0
 62
   136
  6
CONTINUOUS
  0
LAYER
  5
C2
330
2
100
AcDbSymbolTableRecord
100
AcDbLayerTableRecord
  2
137
 70
     0
 62
   137
  6
CONTINUOUS
  0
LAYER
  5
C3
330
2
100
AcDbSymbolTableRecord
100
AcDbLayerTableRecord
  2
138
 70
     0
 62
   138
  6
CONTINUOUS
  0
LAYER
  5
C4
330
2
100
AcDbSymbolTableRecord
100
AcDbLayerTableRecord
  2
139
 70
     0
 62
   139
  6
CONTINUOUS
  0
LAYER
  5
C5
330
2
100
AcDbSymbolTableRecord
100
AcDbLayerTableRecord
  2
140
 70
     0
 62
   140
  6
CONTINUOUS
  0
LAYER
  5
C6
330
2
100
AcDbSymbolTableRecord
100
AcDbLayerTableRecord
  2
141
 70
     0
 62
   141
  6
CONTINUOUS
  0
LAYER
  5
C7
330
2
100
AcDbSymbolTableRecord
100
AcDbLayerTableRecord
  2
142
 70
     0
 62
   142
  6
CONTINUOUS
  0
LAYER
  5
C8
330
2
100
AcDbSymbolTableRecord
100
AcDbLayerTableRecord
  2
143
 70
     0
 62
   143
  6
CONTINUOUS
  0
LAYER
  5
C9
330
2
100
AcDbSymbolTableRecord
100
AcDbLayerTableRecord
  2
144
 70
     0
 62
   144
  6
CONTINUOUS
  0
LAYER
  5
CA
330
2
100
AcDbSymbolTableRecord
100
AcDbLayerTableRecord
  2
145
 70
     0
 62
   145
  6
CONTINUOUS
  0
LAYER
  5
CB
330
2
100
AcDbSymbolTableRecord
100
AcDbLayerTableRecord
  2
146
 70
     0
 62
   146
  6
CONTINUOUS
  0
LAYER
  5
CC
330
2
100
AcDbSymbolTableRecord
100
AcDbLayerTableRecord
  2
147
 70
     0
 62
   147
  6
CONTINUOUS
  0
LAYER
  5
CD
330
2
100
AcDbSymbolTableRecord
100
AcDbLayerTableRecord
  2
148
 70
     0
 62
   148
  6
CONTINUOUS
  0
LAYER
  5
CE
330
2
100
AcDbSymbolTableRecord
100
AcDbLayerTableRecord
  2
149
 70
     0
 62
   149
  6
CONTINUOUS
  0
LAYER
  5
CF
330
2
100
AcDbSymbolTableRecord
100
AcDbLayerTableRecord
  2
150
 70
     0
 62
   150
  6
CONTINUOUS
  0
LAYER
  5
D0
330
2
100
AcDbSymbolTableRecord
100
AcDbLayerTableRecord
  2
151
 70
     0
 62
   151
  6
CONTINUOUS
  0
LAYER
  5
D1
330
2
100
AcDbSymbolTableRecord
100
AcDbLayerTableRecord
  2
152
 70
     0
 62
   152
  6
CONTINUOUS
  0
LAYER
  5
D2
330
2
100
AcDbSymbolTableRecord
100
AcDbLayerTableRecord
  2
153
 70
     0
 62
   153
  6
CONTINUOUS
  0
LAYER
  5
D3
330
2
100
AcDbSymbolTableRecord
100
AcDbLayerTableRecord
  2
154
 70
     0
 62
   154
  6
CONTINUOUS
  0
LAYER
  5
D4
330
2
100
AcDbSymbolTableRecord
100
AcDbLayerTableRecord
  2
155
 70
     0
 62
   155
  6
CONTINUOUS
  0
LAYER
  5
D5
330
2
100
AcDbSymbolTableRecord
100
AcDbLayerTableRecord
  2
156
 70
     0
 62
   156
  6
CONTINUOUS
  0
LAYER
  5
D6
330
2
100
AcDbSymbolTableRecord
100
AcDbLayerTableRecord
  2
157
 70
     0
 62
   157
  6
CONTINUOUS
  0
LAYER
  5
D7
330
2
100
AcDbSymbolTableRecord
100
AcDbLayerTableRecord
  2
158
 70
     0
 62
   158
  6
CONTINUOUS
  0
LAYER
  5
D8
330
2
100
AcDbSymbolTableRecord
100
AcDbLayerTableRecord
  2
159
 70
     0
 62
   159
  6
CONTINUOUS
  0
LAYER
  5
D9
330
2
100
AcDbSymbolTableRecord
100
AcDbLayerTableRecord
  2
160
 70
     0
 62
   160
  6
CONTINUOUS
  0
LAYER
  5
DA
330
2
100
AcDbSymbolTableRecord
100
AcDbLayerTableRecord
  2
161
 70
     0
 62
   161
  6
CONTINUOUS
  0
LAYER
  5
DB
330
2
100
AcDbSymbolTableRecord
100
AcDbLayerTableRecord
  2
162
 70
     0
 62
   162
  6
CONTINUOUS
  0
LAYER
  5
DC
330
2
100
AcDbSymbolTableRecord
100
AcDbLayerTableRecord
  2
163
 70
     0
 62
   163
  6
CONTINUOUS
  0
LAYER
  5
DD
330
2
100
AcDbSymbolTableRecord
100
AcDbLayerTableRecord
  2
164
 70
     0
 62
   164
  6
CONTINUOUS
  0
LAYER
  5
DE
330
2
100
AcDbSymbolTableRecord
100
AcDbLayerTableRecord
  2
165
 70
     0
 62
   165
  6
CONTINUOUS
  0
LAYER
  5
DF
330
2
100
AcDbSymbolTableRecord
100
AcDbLayerTableRecord
  2
166
 70
     0
 62
   166
  6
CONTINUOUS
  0
LAYER
  5
E0
330
2
100
AcDbSymbolTableRecord
100
AcDbLayerTableRecord
  2
167
 70
     0
 62
   167
  6
CONTINUOUS
  0
LAYER
  5
E1
330
2
100
AcDbSymbolTableRecord
100
AcDbLayerTableRecord
  2
168
 70
     0
 62
   168
  6
CONTINUOUS
  0
LAYER
  5
E2
330
2
100
AcDbSymbolTableRecord
100
AcDbLayerTableRecord
  2
169
 70
     0
 62
   169
  6
CONTINUOUS
  0
LAYER
  5
E3
330
2
100
AcDbSymbolTableRecord
100
AcDbLayerTableRecord
  2
170
 70
     0
 62
   170
  6
CONTINUOUS
  0
LAYER
  5
E4
330
2
100
AcDbSymbolTableRecord
100
AcDbLayerTableRecord
  2
171
 70
     0
 62
   171
  6
CONTINUOUS
  0
LAYER
  5
E5
330
2
100
AcDbSymbolTableRecord
100
AcDbLayerTableRecord
  2
172
 70
     0
 62
   172
  6
CONTINUOUS
  0
LAYER
  5
E6
330
2
100
AcDbSymbolTableRecord
100
AcDbLayerTableRecord
  2
173
 70
     0
 62
   173
  6
CONTINUOUS
  0
LAYER
  5
E7
330
2
100
AcDbSymbolTableRecord
100
AcDbLayerTableRecord
  2
174
 70
     0
 62
   174
  6
CONTINUOUS
  0
LAYER
  5
E8
330
2
100
AcDbSymbolTableRecord
100
AcDbLayerTableRecord
  2
175
 70
     0
 62
   175
  6
CONTINUOUS
  0
LAYER
  5
E9
330
2
100
AcDbSymbolTableRecord
100
AcDbLayerTableRecord
  2
176
 70
     0
 62
   176
  6
CONTINUOUS
  0
LAYER
  5
EA
330
2
100
AcDbSymbolTableRecord
100
AcDbLayerTableRecord
  2
177
 70
     0
 62
   177
  6
CONTINUOUS
  0
LAYER
  5
EB
330
2
100
AcDbSymbolTableRecord
100
AcDbLayerTableRecord
  2
178
 70
     0
 62
   178
  6
CONTINUOUS
  0
LAYER
  5
EC
330
2
100
AcDbSymbolTableRecord
100
AcDbLayerTableRecord
  2
179
 70
     0
 62
   179
  6
CONTINUOUS
  0
LAYER
  5
ED
330
2
100
AcDbSymbolTableRecord
100
AcDbLayerTableRecord
  2
180
 70
     0
 62
   180
  6
CONTINUOUS
  0
LAYER
  5
EE
330
2
100
AcDbSymbolTableRecord
100
AcDbLayerTableRecord
  2
181
 70
     0
 62
   181
  6
CONTINUOUS
  0
LAYER
  5
EF
330
2
100
AcDbSymbolTableRecord
100
AcDbLayerTableRecord
  2
182
 70
     0
 62
   182
  6
CONTINUOUS
  0
LAYER
  5
F0
330
2
100
AcDbSymbolTableRecord
100
AcDbLayerTableRecord
  2
183
 70
     0
 62
   183
  6
CONTINUOUS
  0
LAYER
  5
F1
330
2
100
AcDbSymbolTableRecord
100
AcDbLayerTableRecord
  2
184
 70
     0
 62
   184
  6
CONTINUOUS
  0
LAYER
  5
F2
330
2
100
AcDbSymbolTableRecord
100
AcDbLayerTableRecord
  2
185
 70
     0
 62
   185
  6
CONTINUOUS
  0
LAYER
  5
F3
330
2
100
AcDbSymbolTableRecord
100
AcDbLayerTableRecord
  2
186
 70
     0
 62
   186
  6
CONTINUOUS
  0
LAYER
  5
F4
330
2
100
AcDbSymbolTableRecord
100
AcDbLayerTableRecord
  2
187
 70
     0
 62
   187
  6
CONTINUOUS
  0
LAYER
  5
F5
330
2
100
AcDbSymbolTableRecord
100
AcDbLayerTableRecord
  2
188
 70
     0
 62
   188
  6
CONTINUOUS
  0
LAYER
  5
F6
330
2
100
AcDbSymbolTableRecord
100
AcDbLayerTableRecord
  2
189
 70
     0
 62
   189
  6
CONTINUOUS
  0
LAYER
  5
F7
330
2
100
AcDbSymbolTableRecord
100
AcDbLayerTableRecord
  2
190
 70
     0
 62
   190
  6
CONTINUOUS
  0
LAYER
  5
F8
330
2
100
AcDbSymbolTableRecord
100
AcDbLayerTableRecord
  2
191
 70
     0
 62
   191
  6
CONTINUOUS
  0
LAYER
  5
F9
330
2
100
AcDbSymbolTableRecord
100
AcDbLayerTableRecord
  2
192
 70
     0
 62
   192
  6
CONTINUOUS
  0
LAYER
  5
FA
330
2
100
AcDbSymbolTableRecord
100
AcDbLayerTableRecord
  2
193
 70
     0
 62
   193
  6
CONTINUOUS
  0
LAYER
  5
FB
330
2
100
AcDbSymbolTableRecord
100
AcDbLayerTableRecord
  2
194
 70
     0
 62
   194
  6
CONTINUOUS
  0
LAYER
  5
FC
330
2
100
AcDbSymbolTableRecord
100
AcDbLayerTableRecord
  2
195
 70
     0
 62
   195
  6
CONTINUOUS
  0
LAYER
  5
FD
330
2
100
AcDbSymbolTableRecord
100
AcDbLayerTableRecord
  2
196
 70
     0
 62
   196
  6
CONTINUOUS
  0
LAYER
  5
FE
330
2
100
AcDbSymbolTableRecord
100
AcDbLayerTableRecord
  2
197
 70
     0
 62
   197
  6
CONTINUOUS
  0
LAYER
  5
FF
330
2
100
AcDbSymbolTableRecord
100
AcDbLayerTableRecord
  2
198
 70
     0
 62
   198
  6
CONTINUOUS
  0
LAYER
  5
100
330
2
100
AcDbSymbolTableRecord
100
AcDbLayerTableRecord
  2
199
 70
     0
 62
   199
  6
CONTINUOUS
  0
LAYER
  5
101
330
2
100
AcDbSymbolTableRecord
100
AcDbLayerTableRecord
  2
200
 70
     0
 62
   200
  6
CONTINUOUS
  0
LAYER
  5
102
330
2
100
AcDbSymbolTableRecord
100
AcDbLayerTableRecord
  2
201
 70
     0
 62
   201
  6
CONTINUOUS
  0
LAYER
  5
103
330
2
100
AcDbSymbolTableRecord
100
AcDbLayerTableRecord
  2
202
 70
     0
 62
   202
  6
CONTINUOUS
  0
LAYER
  5
104
330
2
100
AcDbSymbolTableRecord
100
AcDbLayerTableRecord
  2
203
 70
     0
 62
   203
  6
CONTINUOUS
  0
LAYER
  5
105
330
2
100
AcDbSymbolTableRecord
100
AcDbLayerTableRecord
  2
204
 70
     0
 62
   204
  6
CONTINUOUS
  0
LAYER
  5
106
330
2
100
AcDbSymbolTableRecord
100
AcDbLayerTableRecord
  2
205
 70
     0
 62
   205
  6
CONTINUOUS
  0
LAYER
  5
107
330
2
100
AcDbSymbolTableRecord
100
AcDbLayerTableRecord
  2
206
 70
     0
 62
   206
  6
CONTINUOUS
  0
LAYER
  5
108
330
2
100
AcDbSymbolTableRecord
100
AcDbLayerTableRecord
  2
207
 70
     0
 62
   207
  6
CONTINUOUS
  0
LAYER
  5
109
330
2
100
AcDbSymbolTableRecord
100
AcDbLayerTableRecord
  2
208
 70
     0
 62
   208
  6
CONTINUOUS
  0
LAYER
  5
10A
330
2
100
AcDbSymbolTableRecord
100
AcDbLayerTableRecord
  2
209
 70
     0
 62
   209
  6
CONTINUOUS
  0
LAYER
  5
10B
330
2
100
AcDbSymbolTableRecord
100
AcDbLayerTableRecord
  2
210
 70
     0
 62
   210
  6
CONTINUOUS
  0
LAYER
  5
10C
330
2
100
AcDbSymbolTableRecord
100
AcDbLayerTableRecord
  2
211
 70
     0
 62
   211
  6
CONTINUOUS
  0
LAYER
  5
10D
330
2
100
AcDbSymbolTableRecord
100
AcDbLayerTableRecord
  2
212
 70
     0
 62
   212
  6
CONTINUOUS
  0
LAYER
  5
10E
330
2
100
AcDbSymbolTableRecord
100
AcDbLayerTableRecord
  2
213
 70
     0
 62
   213
  6
CONTINUOUS
  0
LAYER
  5
10F
330
2
100
AcDbSymbolTableRecord
100
AcDbLayerTableRecord
  2
214
 70
     0
 62
   214
  6
CONTINUOUS
  0
LAYER
  5
110
330
2
100
AcDbSymbolTableRecord
100
AcDbLayerTableRecord
  2
215
 70
     0
 62
   215
  6
CONTINUOUS
  0
LAYER
  5
111
330
2
100
AcDbSymbolTableRecord
100
AcDbLayerTableRecord
  2
216
 70
     0
 62
   216
  6
CONTINUOUS
  0
LAYER
  5
112
330
2
100
AcDbSymbolTableRecord
100
AcDbLayerTableRecord
  2
217
 70
     0
 62
   217
  6
CONTINUOUS
  0
LAYER
  5
113
330
2
100
AcDbSymbolTableRecord
100
AcDbLayerTableRecord
  2
218
 70
     0
 62
   218
  6
CONTINUOUS
  0
LAYER
  5
114
330
2
100
AcDbSymbolTableRecord
100
AcDbLayerTableRecord
  2
219
 70
     0
 62
   219
  6
CONTINUOUS
  0
LAYER
  5
115
330
2
100
AcDbSymbolTableRecord
100
AcDbLayerTableRecord
  2
220
 70
     0
 62
   220
  6
CONTINUOUS
  0
LAYER
  5
116
330
2
100
AcDbSymbolTableRecord
100
AcDbLayerTableRecord
  2
221
 70
     0
 62
   221
  6
CONTINUOUS
  0
LAYER
  5
117
330
2
100
AcDbSymbolTableRecord
100
AcDbLayerTableRecord
  2
222
 70
     0
 62
   222
  6
CONTINUOUS
  0
LAYER
  5
118
330
2
100
AcDbSymbolTableRecord
100
AcDbLayerTableRecord
  2
223
 70
     0
 62
   223
  6
CONTINUOUS
  0
LAYER
  5
119
330
2
100
AcDbSymbolTableRecord
100
AcDbLayerTableRecord
  2
224
 70
     0
 62
   224
  6
CONTINUOUS
  0
LAYER
  5
11A
330
2
100
AcDbSymbolTableRecord
100
AcDbLayerTableRecord
  2
225
 70
     0
 62
   225
  6
CONTINUOUS
  0
LAYER
  5
11B
330
2
100
AcDbSymbolTableRecord
100
AcDbLayerTableRecord
  2
226
 70
     0
 62
   226
  6
CONTINUOUS
  0
LAYER
  5
11C
330
2
100
AcDbSymbolTableRecord
100
AcDbLayerTableRecord
  2
227
 70
     0
 62
   227
  6
CONTINUOUS
  0
LAYER
  5
11D
330
2
100
AcDbSymbolTableRecord
100
AcDbLayerTableRecord
  2
228
 70
     0
 62
   228
  6
CONTINUOUS
  0
LAYER
  5
11E
330
2
100
AcDbSymbolTableRecord
100
AcDbLayerTableRecord
  2
229
 70
     0
 62
   229
  6
CONTINUOUS
  0
LAYER
  5
11F
330
2
100
AcDbSymbolTableRecord
100
AcDbLayerTableRecord
  2
230
 70
     0
 62
   230
  6
CONTINUOUS
  0
LAYER
  5
120
330
2
100
AcDbSymbolTableRecord
100
AcDbLayerTableRecord
  2
231
 70
     0
 62
   231
  6
CONTINUOUS
  0
LAYER
  5
121
330
2
100
AcDbSymbolTableRecord
100
AcDbLayerTableRecord
  2
232
 70
     0
 62
   232
  6
CONTINUOUS
  0
LAYER
  5
122
330
2
100
AcDbSymbolTableRecord
100
AcDbLayerTableRecord
  2
233
 70
     0
 62
   233
  6
CONTINUOUS
  0
LAYER
  5
123
330
2
100
AcDbSymbolTableRecord
100
AcDbLayerTableRecord
  2
234
 70
     0
 62
   234
  6
CONTINUOUS
  0
LAYER
  5
124
330
2
100
AcDbSymbolTableRecord
100
AcDbLayerTableRecord
  2
235
 70
     0
 62
   235
  6
CONTINUOUS
  0
LAYER
  5
125
330
2
100
AcDbSymbolTableRecord
100
AcDbLayerTableRecord
  2
236
 70
     0
 62
   236
  6
CONTINUOUS
  0
LAYER
  5
126
330
2
100
AcDbSymbolTableRecord
100
AcDbLayerTableRecord
  2
237
 70
     0
 62
   237
  6
CONTINUOUS
  0
LAYER
  5
127
330
2
100
AcDbSymbolTableRecord
100
AcDbLayerTableRecord
  2
238
 70
     0
 62
   238
  6
CONTINUOUS
  0
LAYER
  5
128
330
2
100
AcDbSymbolTableRecord
100
AcDbLayerTableRecord
  2
239
 70
     0
 62
   239
  6
CONTINUOUS
  0
LAYER
  5
129
330
2
100
AcDbSymbolTableRecord
100
AcDbLayerTableRecord
  2
240
 70
     0
 62
   240
  6
CONTINUOUS
  0
LAYER
  5
12A
330
2
100
AcDbSymbolTableRecord
100
AcDbLayerTableRecord
  2
241
 70
     0
 62
   241
  6
CONTINUOUS
  0
LAYER
  5
12B
330
2
100
AcDbSymbolTableRecord
100
AcDbLayerTableRecord
  2
242
 70
     0
 62
   242
  6
CONTINUOUS
  0
LAYER
  5
12C
330
2
100
AcDbSymbolTableRecord
100
AcDbLayerTableRecord
  2
243
 70
     0
 62
   243
  6
CONTINUOUS
  0
LAYER
  5
12D
330
2
100
AcDbSymbolTableRecord
100
AcDbLayerTableRecord
  2
244
 70
     0
 62
   244
  6
CONTINUOUS
  0
LAYER
  5
12E
330
2
100
AcDbSymbolTableRecord
100
AcDbLayerTableRecord
  2
245
 70
     0
 62
   245
  6
CONTINUOUS
  0
LAYER
  5
12F
330
2
100
AcDbSymbolTableRecord
100
AcDbLayerTableRecord
  2
246
 70
     0
 62
   246
  6
CONTINUOUS
  0
LAYER
  5
130
330
2
100
AcDbSymbolTableRecord
100
AcDbLayerTableRecord
  2
247
 70
     0
 62
   247
  6
CONTINUOUS
  0
LAYER
  5
131
330
2
100
AcDbSymbolTableRecord
100
AcDbLayerTableRecord
  2
248
 70
     0
 62
   248
  6
CONTINUOUS
  0
LAYER
  5
132
330
2
100
AcDbSymbolTableRecord
100
AcDbLayerTableRecord
  2
249
 70
     0
 62
   249
  6
CONTINUOUS
  0
LAYER
  5
133
330
2
100
AcDbSymbolTableRecord
100
AcDbLayerTableRecord
  2
250
 70
     0
 62
   250
  6
CONTINUOUS
  0
LAYER
  5
134
330
2
100
AcDbSymbolTableRecord
100
AcDbLayerTableRecord
  2
251
 70
     0
 62
   251
  6
CONTINUOUS
  0
LAYER
  5
135
330
2
100
AcDbSymbolTableRecord
100
AcDbLayerTableRecord
  2
252
 70
     0
 62
   252
  6
CONTINUOUS
  0
LAYER
  5
136
330
2
100
AcDbSymbolTableRecord
100
AcDbLayerTableRecord
  2
253
 70
     0
 62
   253
  6
CONTINUOUS
  0
LAYER
  5
137
330
2
100
AcDbSymbolTableRecord
100
AcDbLayerTableRecord
  2
254
 70
     0
 62
   254
  6
CONTINUOUS
  0
LAYER
  5
138
330
2
100
AcDbSymbolTableRecord
100
AcDbLayerTableRecord
  2
255
 70
     0
 62
   255
  6
CONTINUOUS
  0
ENDTAB
  0
TABLE
  2
STYLE
  5
3
330
0
100
AcDbSymbolTable
 70
     1
  0
STYLE
  5
11
330
3
100
AcDbSymbolTableRecord
100
AcDbTextStyleTableRecord
  2
STANDARD
 70
     0
 40
0.0
 41
1.0
 50
0.0
 71
     0
 42
0.2
  3
monotxt
  4

  0
ENDTAB
  0
TABLE
  2
VIEW
  5
6
330
0
100
AcDbSymbolTable
 70
     0
  0
ENDTAB
  0
TABLE
  2
UCS
  5
7
330
0
100
AcDbSymbolTable
 70
     0
  0
ENDTAB
  0
TABLE
  2
APPID
  5
9
330
0
100
AcDbSymbolTable
 70
     1
  0
APPID
  5
12
330
9
100
AcDbSymbolTableRecord
100
AcDbRegAppTableRecord
  2
ACAD
 70
     0
  0
ENDTAB
  0
TABLE
  2
DIMSTYLE
  5
A
330
0
100
AcDbSymbolTable
 70
     1
  0
DIMSTYLE
105
2B16
330
A
100
AcDbSymbolTableRecord
100
AcDbDimStyleTableRecord
  2
STANDARD
 70
     0
  3

  4

  5

  6

  7

 40
1.0
 41
0.18
 42
0.0625
 43
0.38
 44
0.18
 45
0.0
 46
0.0
 47
0.0
 48
0.0
140
0.18
141
0.09
142
0.0
143
25.4
144
1.0
145
0.0
146
1.0
147
0.09
 71
     0
 72
     0
 73
     1
 74
     1
 75
     0
 76
     0
 77
     0
 78
     0
170
     0
171
     2
172
     0
173
     0
174
     0
175
     0
176
     0
177
     0
178
     0
270
     2
271
     4
272
     4
273
     2
274
     2
340
11
275
     0
280
     0
281
     0
282
     0
283
     1
284
     0
285
     0
286
     0
287
     3
288
     0
  0
ENDTAB
  0
TABLE
  2
BLOCK_RECORD
  5
1
330
0
100
AcDbSymbolTable
 70
     0
  0
BLOCK_RECORD
  5
1E
102
{ACAD_XDICTIONARY
360
2CC2
102
}
330
1
100
AcDbSymbolTableRecord
100
AcDbBlockTableRecord
  2
*MODEL_SPACE
  0
BLOCK_RECORD
  5
1A
102
{ACAD_XDICTIONARY
360
2CC0
102
}
330
1
100
AcDbSymbolTableRecord
100
AcDbBlockTableRecord
  2
*PAPER_SPACE
  0
ENDTAB
  0
ENDSEC
  0
SECTION
  2
BLOCKS
  0
BLOCK
  5
13B
330
1E
100
AcDbEntity
  8
0
100
AcDbBlockBegin
  2
*MODEL_SPACE
 70
     0
 10
0.0
 20
0.0
 30
0.0
  3
*MODEL_SPACE
  1

  0
ENDBLK
  5
13C
330
1E
100
AcDbEntity
  8
0
100
AcDbBlockEnd
  0
BLOCK
  5
139
330
1A
100
AcDbEntity
 67
     1
  8
0
100
AcDbBlockBegin
  2
*PAPER_SPACE
 70
     0
 10
0.0
 20
0.0
 30
0.0
  3
*PAPER_SPACE
  1

  0
ENDBLK
  5
13A
330
1A
100
AcDbEntity
 67
     1
  8
0
100
AcDbBlockEnd
  0
ENDSEC
  0
SECTION
  2
ENTITIES
  0
LINE
  5
2822
330
1E
100
AcDbEntity
  8
7
100
AcDbLine
 10
1.756339122924505
 20
7.885974730020293
 30
0.0
 11
2.865542361236514
 21
7.885974730020293
 31
0.0
  0
LINE
  5
2823
330
1E
100
AcDbEntity
  8
7
100
AcDbLine
 10
2.865542361236514
 20
7.777519302274229
 30
0.0
 11
1.756339122924505
 21
7.777519302274229
 31
0.0
  0
LINE
  5
2843
330
1E
100
AcDbEntity
  8
7
100
AcDbLine
 10
3.080481299860529
 20
7.675965583566552
 30
0.0
 11
3.126821346261119
 21
7.671035791396276
 31
0.0
  0
LINE
  5
284A
330
1E
100
AcDbEntity
  8
7
100
AcDbLine
 10
3.126821346261119
 20
7.670049832962221
 30
0.0
 11
4.236024584573128
 21
7.670049832962221
 31
0.0
  0
LINE
  5
284B
330
1E
100
AcDbEntity
  8
7
100
AcDbLine
 10
3.126821346261119
 20
7.778505260708284
 30
0.0
 11
4.236024584573128
 21
7.778505260708284
 31
0.0
  0
LINE
  5
285B
330
1E
100
AcDbEntity
  8
7
100
AcDbLine
 10
2.865542361236514
 20
7.140590153874623
 30
0.0
 11
1.756339122924505
 21
7.140590153874623
 31
0.0
  0
LINE
  5
285C
330
1E
100
AcDbEntity
  8
7
100
AcDbLine
 10
1.982123604323128
 20
5.291918090021277
 30
0.0
 11
2.101424574843797
 21
5.291918090021277
 31
0.0
  0
LINE
  5
2870
330
1E
100
AcDbEntity
  8
7
100
AcDbLine
 10
1.982123604323128
 20
5.011905894749624
 30
0.0
 11
2.101424574843797
 21
5.011905894749624
 31
0.0
  0
LINE
  5
2884
330
1E
100
AcDbEntity
  8
7
100
AcDbLine
 10
1.982123604323128
 20
4.039750878771276
 30
0.0
 11
2.101424574843797
 21
4.039750878771276
 31
0.0
  0
LINE
  5
2895
330
1E
100
AcDbEntity
  8
7
100
AcDbLine
 10
1.982123604323128
 20
3.759738683499623
 30
0.0
 11
2.101424574843797
 21
3.759738683499623
 31
0.0
  0
LINE
  5
28A9
330
1E
100
AcDbEntity
  8
7
100
AcDbLine
 10
1.982123604323128
 20
5.792784974521278
 30
0.0
 11
2.101424574843797
 21
5.792784974521278
 31
0.0
  0
LINE
  5
28BD
330
1E
100
AcDbEntity
  8
7
100
AcDbLine
 10
1.982123604323128
 20
5.512772779249623
 30
0.0
 11
2.101424574843797
 21
5.512772779249623
 31
0.0
  0
LINE
  5
28D1
330
1E
100
AcDbEntity
  8
7
100
AcDbLine
 10
1.982123604323128
 20
7.044952185771276
 30
0.0
 11
2.101424574843797
 21
7.044952185771276
 31
0.0
  0
LINE
  5
28E5
330
1E
100
AcDbEntity
  8
7
100
AcDbLine
 10
1.982123604323128
 20
6.764939990499623
 30
0.0
 11
2.101424574843797
 21
6.764939990499623
 31
0.0
  0
LINE
  5
28E6
330
1E
100
AcDbEntity
  8
7
100
AcDbLine
 10
1.982123604323128
 20
7.044952185771276
 30
0.0
 11
1.948601017565254
 21
7.041008352035056
 31
0.0
  0
LINE
  5
28F6
330
1E
100
AcDbEntity
  8
7
100
AcDbLine
 10
1.696195658447144
 20
3.724244179873638
 30
0.0
 11
1.696195658447144
 21
7.080446689397261
 31
0.0
  0
LINE
  5
2910
330
1E
100
AcDbEntity
  8
7
100
AcDbLine
 10
2.865542361236514
 20
3.664100715396276
 30
0.0
 11
2.899064947994387
 21
3.664100715396276
 31
0.0
  0
LINE
  5
2925
330
1E
100
AcDbEntity
  8
7
100
AcDbLine
 10
3.126821346261119
 20
3.664100715396276
 30
0.0
 11
3.126821346261119
 21
7.140590153874623
 31
0.0
  0
LINE
  5
2926
330
1E
100
AcDbEntity
  8
7
100
AcDbLine
 10
3.126821346261119
 20
3.664100715396276
 30
0.0
 11
4.236024584573128
 21
3.664100715396276
 31
0.0
  0
LINE
  5
2927
330
1E
100
AcDbEntity
  8
7
100
AcDbLine
 10
3.126821346261119
 20
7.140590153874623
 30
0.0
 11
4.236024584573128
 21
7.140590153874623
 31
0.0
  0
LINE
  5
29AF
330
1E
100
AcDbEntity
  8
7
100
AcDbLine
 10
4.296168049050489
 20
3.724244179873638
 30
0.0
 11
4.296168049050489
 21
7.080446689397261
 31
0.0
  0
LINE
  5
2B19
330
1E
100
AcDbEntity
  8
7
100
AcDbLine
 10
2.899064947994387
 20
3.664100715396276
 30
0.0
 11
2.930615617884151
 21
3.664100715396276
 31
0.0
  0
LINE
  5
2B1A
330
1E
100
AcDbEntity
  8
7
100
AcDbLine
 10
2.930615617884151
 20
3.664100715396276
 30
0.0
 11
2.958222454037695
 21
3.664100715396276
 31
0.0
  0
LINE
  5
2B1B
330
1E
100
AcDbEntity
  8
7
100
AcDbLine
 10
2.958222454037695
 20
3.664100715396276
 30
0.0
 11
2.958222454037695
 21
7.140590153874623
 31
0.0
  0
LINE
  5
2B1C
330
1E
100
AcDbEntity
  8
7
100
AcDbLine
 10
1.756339122924505
 20
3.664100715396276
 30
0.0
 11
2.865542361236514
 21
3.664100715396276
 31
0.0
  0
LINE
  5
2B1D
330
1E
100
AcDbEntity
  8
7
100
AcDbLine
 10
2.865542361236514
 20
3.664100715396276
 30
0.0
 11
2.865542361236514
 21
7.140590153874623
 31
0.0
  0
LINE
  5
2B1E
330
1E
100
AcDbEntity
  8
7
100
AcDbLine
 10
1.843103465121356
 20
3.882983487756512
 30
0.0
 11
1.850991132593797
 21
3.850446859432693
 31
0.0
  0
LINE
  5
2B1F
330
1E
100
AcDbEntity
  8
7
100
AcDbLine
 10
1.850991132593797
 20
3.850446859432693
 30
0.0
 11
1.866766467538679
 21
3.819882147976985
 31
0.0
  0
LINE
  5
2B20
330
1E
100
AcDbEntity
  8
7
100
AcDbLine
 10
1.866766467538679
 20
3.819882147976985
 30
0.0
 11
1.889443511521946
 21
3.795233187125607
 31
0.0
  0
LINE
  5
2B21
330
1E
100
AcDbEntity
  8
7
100
AcDbLine
 10
1.889443511521946
 20
3.795233187125607
 30
0.0
 11
1.91705034767549
 21
3.775514018444504
 31
0.0
  0
LINE
  5
2B22
330
1E
100
AcDbEntity
  8
7
100
AcDbLine
 10
1.91705034767549
 20
3.775514018444504
 30
0.0
 11
1.948601017565254
 21
3.763682517235843
 31
0.0
  0
LINE
  5
2B23
330
1E
100
AcDbEntity
  8
7
100
AcDbLine
 10
1.948601017565254
 20
3.763682517235843
 30
0.0
 11
1.982123604323128
 21
3.759738683499623
 31
0.0
  0
LINE
  5
2B24
330
1E
100
AcDbEntity
  8
7
100
AcDbLine
 10
2.101424574843797
 20
3.759738683499623
 30
0.0
 11
2.134947161601671
 21
3.763682517235843
 31
0.0
  0
LINE
  5
2B25
330
1E
100
AcDbEntity
  8
7
100
AcDbLine
 10
2.134947161601671
 20
3.763682517235843
 30
0.0
 11
2.166497831491435
 21
3.775514018444504
 31
0.0
  0
LINE
  5
2B26
330
1E
100
AcDbEntity
  8
7
100
AcDbLine
 10
2.166497831491435
 20
3.775514018444504
 30
0.0
 11
2.194104667644978
 21
3.795233187125607
 31
0.0
  0
LINE
  5
2B27
330
1E
100
AcDbEntity
  8
7
100
AcDbLine
 10
2.194104667644978
 20
3.795233187125607
 30
0.0
 11
2.216781711628246
 21
3.819882147976985
 31
0.0
  0
LINE
  5
2B28
330
1E
100
AcDbEntity
  8
7
100
AcDbLine
 10
2.216781711628246
 20
3.819882147976985
 30
0.0
 11
2.232557046573127
 21
3.850446859432693
 31
0.0
  0
LINE
  5
2B29
330
1E
100
AcDbEntity
  8
7
100
AcDbLine
 10
2.232557046573127
 20
3.850446859432693
 30
0.0
 11
2.240444714045568
 21
3.882983487756512
 31
0.0
  0
LINE
  5
2B2A
330
1E
100
AcDbEntity
  8
7
100
AcDbLine
 10
2.240444714045568
 20
3.882983487756512
 30
0.0
 11
2.240444714045568
 21
3.916506074514386
 31
0.0
  0
LINE
  5
2B2B
330
1E
100
AcDbEntity
  8
7
100
AcDbLine
 10
2.240444714045568
 20
3.916506074514386
 30
0.0
 11
2.232557046573127
 21
3.949042702838205
 31
0.0
  0
LINE
  5
2B2C
330
1E
100
AcDbEntity
  8
7
100
AcDbLine
 10
2.232557046573127
 20
3.949042702838205
 30
0.0
 11
2.216781711628246
 21
3.979607414293914
 31
0.0
  0
LINE
  5
2B2D
330
1E
100
AcDbEntity
  8
7
100
AcDbLine
 10
2.216781711628246
 20
3.979607414293914
 30
0.0
 11
2.194104667644978
 21
4.004256375145292
 31
0.0
  0
LINE
  5
2B2E
330
1E
100
AcDbEntity
  8
7
100
AcDbLine
 10
2.194104667644978
 20
4.004256375145292
 30
0.0
 11
2.166497831491435
 21
4.023975543826394
 31
0.0
  0
LINE
  5
2B2F
330
1E
100
AcDbEntity
  8
7
100
AcDbLine
 10
2.166497831491435
 20
4.023975543826394
 30
0.0
 11
2.134947161601671
 21
4.035807045035056
 31
0.0
  0
LINE
  5
2B30
330
1E
100
AcDbEntity
  8
7
100
AcDbLine
 10
2.134947161601671
 20
4.035807045035056
 30
0.0
 11
2.101424574843797
 21
4.039750878771276
 31
0.0
  0
LINE
  5
2B31
330
1E
100
AcDbEntity
  8
7
100
AcDbLine
 10
1.697181616881199
 20
3.724244179873638
 30
0.0
 11
1.702111409051474
 21
3.701567135890371
 31
0.0
  0
LINE
  5
2B32
330
1E
100
AcDbEntity
  8
7
100
AcDbLine
 10
1.702111409051474
 20
3.701567135890371
 30
0.0
 11
1.714928868694191
 21
3.682833925643324
 31
0.0
  0
LINE
  5
2B33
330
1E
100
AcDbEntity
  8
7
100
AcDbLine
 10
1.714928868694191
 20
3.682833925643324
 30
0.0
 11
1.733662078941238
 21
3.670016466000607
 31
0.0
  0
LINE
  5
2B34
330
1E
100
AcDbEntity
  8
7
100
AcDbLine
 10
1.733662078941238
 20
3.670016466000607
 30
0.0
 11
1.756339122924505
 21
3.665086673830332
 31
0.0
  0
LINE
  5
2B35
330
1E
100
AcDbEntity
  8
7
100
AcDbLine
 10
1.982123604323128
 20
4.039750878771276
 30
0.0
 11
1.948601017565254
 21
4.035807045035056
 31
0.0
  0
LINE
  5
2B36
330
1E
100
AcDbEntity
  8
7
100
AcDbLine
 10
1.948601017565254
 20
4.035807045035056
 30
0.0
 11
1.91705034767549
 21
4.023975543826394
 31
0.0
  0
LINE
  5
2B37
330
1E
100
AcDbEntity
  8
7
100
AcDbLine
 10
1.91705034767549
 20
4.023975543826394
 30
0.0
 11
1.889443511521946
 21
4.004256375145292
 31
0.0
  0
LINE
  5
2B38
330
1E
100
AcDbEntity
  8
7
100
AcDbLine
 10
1.889443511521946
 20
4.004256375145292
 30
0.0
 11
1.866766467538679
 21
3.979607414293914
 31
0.0
  0
LINE
  5
2B39
330
1E
100
AcDbEntity
  8
7
100
AcDbLine
 10
1.866766467538679
 20
3.979607414293914
 30
0.0
 11
1.850991132593797
 21
3.949042702838205
 31
0.0
  0
LINE
  5
2B3A
330
1E
100
AcDbEntity
  8
7
100
AcDbLine
 10
1.850991132593797
 20
3.949042702838205
 30
0.0
 11
1.843103465121356
 21
3.916506074514386
 31
0.0
  0
LINE
  5
2B3B
330
1E
100
AcDbEntity
  8
7
100
AcDbLine
 10
1.843103465121356
 20
3.916506074514386
 30
0.0
 11
1.843103465121356
 21
3.882983487756512
 31
0.0
  0
LINE
  5
2B3C
330
1E
100
AcDbEntity
  8
7
100
AcDbLine
 10
4.148274283942221
 20
3.936225243195489
 30
0.0
 11
4.13447086586545
 21
3.961860162480922
 31
0.0
  0
LINE
  5
2B3D
330
1E
100
AcDbEntity
  8
7
100
AcDbLine
 10
4.13447086586545
 20
3.961860162480922
 30
0.0
 11
4.113765738750292
 21
3.983551248030135
 31
0.0
  0
LINE
  5
2B3E
330
1E
100
AcDbEntity
  8
7
100
AcDbLine
 10
4.113765738750292
 20
3.983551248030135
 30
0.0
 11
4.089116777898915
 21
3.999326582975016
 31
0.0
  0
LINE
  5
2B3F
330
1E
100
AcDbEntity
  8
7
100
AcDbLine
 10
4.089116777898915
 20
3.999326582975016
 30
0.0
 11
4.060523983311316
 21
4.007214250447457
 31
0.0
  0
LINE
  5
2B40
330
1E
100
AcDbEntity
  8
7
100
AcDbLine
 10
4.060523983311316
 20
4.007214250447457
 30
0.0
 11
4.030945230289662
 21
4.007214250447457
 31
0.0
  0
LINE
  5
2B41
330
1E
100
AcDbEntity
  8
7
100
AcDbLine
 10
4.030945230289662
 20
4.007214250447457
 30
0.0
 11
4.002352435702064
 21
3.999326582975016
 31
0.0
  0
LINE
  5
2B42
330
1E
100
AcDbEntity
  8
7
100
AcDbLine
 10
4.002352435702064
 20
3.999326582975016
 30
0.0
 11
3.977703474850687
 21
3.983551248030135
 31
0.0
  0
LINE
  5
2B43
330
1E
100
AcDbEntity
  8
7
100
AcDbLine
 10
3.977703474850687
 20
3.983551248030135
 30
0.0
 11
3.95699834773553
 21
3.961860162480922
 31
0.0
  0
LINE
  5
2B44
330
1E
100
AcDbEntity
  8
7
100
AcDbLine
 10
3.95699834773553
 20
3.961860162480922
 30
0.0
 11
3.943194929658758
 21
3.936225243195489
 31
0.0
  0
LINE
  5
2B45
330
1E
100
AcDbEntity
  8
7
100
AcDbLine
 10
3.943194929658758
 20
3.936225243195489
 30
0.0
 11
3.937279179054427
 21
3.907632448607891
 31
0.0
  0
LINE
  5
2B46
330
1E
100
AcDbEntity
  8
7
100
AcDbLine
 10
3.937279179054427
 20
3.907632448607891
 30
0.0
 11
3.939251095922537
 21
3.878053695586237
 31
0.0
  0
LINE
  5
2B47
330
1E
100
AcDbEntity
  8
7
100
AcDbLine
 10
3.939251095922537
 20
3.878053695586237
 30
0.0
 11
3.949110680263089
 21
3.849460900998638
 31
0.0
  0
LINE
  5
2B48
330
1E
100
AcDbEntity
  8
7
100
AcDbLine
 10
3.949110680263089
 20
3.849460900998638
 30
0.0
 11
3.966857932076081
 21
3.825797898581316
 31
0.0
  0
LINE
  5
2B49
330
1E
100
AcDbEntity
  8
7
100
AcDbLine
 10
4.04573460680049
 20
3.791289353389386
 30
0.0
 11
4.075313359822144
 21
3.795233187125607
 31
0.0
  0
LINE
  5
2B4A
330
1E
100
AcDbEntity
  8
7
100
AcDbLine
 10
4.075313359822144
 20
3.795233187125607
 30
0.0
 11
4.101934237541631
 21
3.807064688334268
 31
0.0
  0
LINE
  5
2B4B
330
1E
100
AcDbEntity
  8
7
100
AcDbLine
 10
4.101934237541631
 20
3.807064688334268
 30
0.0
 11
4.124611281524899
 21
3.825797898581316
 31
0.0
  0
LINE
  5
2B4C
330
1E
100
AcDbEntity
  8
7
100
AcDbLine
 10
4.124611281524899
 20
3.825797898581316
 30
0.0
 11
4.142358533337891
 21
3.849460900998638
 31
0.0
  0
LINE
  5
2B4D
330
1E
100
AcDbEntity
  8
7
100
AcDbLine
 10
4.142358533337891
 20
3.849460900998638
 30
0.0
 11
4.152218117678442
 21
3.878053695586237
 31
0.0
  0
LINE
  5
2B4E
330
1E
100
AcDbEntity
  8
7
100
AcDbLine
 10
4.152218117678442
 20
3.878053695586237
 30
0.0
 11
4.154190034546553
 21
3.907632448607891
 31
0.0
  0
LINE
  5
2B4F
330
1E
100
AcDbEntity
  8
7
100
AcDbLine
 10
4.154190034546553
 20
3.907632448607891
 30
0.0
 11
4.148274283942221
 21
3.936225243195489
 31
0.0
  0
LINE
  5
2B50
330
1E
100
AcDbEntity
  8
7
100
AcDbLine
 10
2.958222454037695
 20
3.664100715396276
 30
0.0
 11
2.993716957663679
 21
3.664100715396276
 31
0.0
  0
LINE
  5
2B51
330
1E
100
AcDbEntity
  8
7
100
AcDbLine
 10
2.993716957663679
 20
3.664100715396276
 30
0.0
 11
3.035127211893994
 21
3.664100715396276
 31
0.0
  0
LINE
  5
2B52
330
1E
100
AcDbEntity
  8
7
100
AcDbLine
 10
3.035127211893994
 20
3.664100715396276
 30
0.0
 11
3.079495341426474
 21
3.664100715396276
 31
0.0
  0
LINE
  5
2B53
330
1E
100
AcDbEntity
  8
7
100
AcDbLine
 10
3.079495341426474
 20
3.664100715396276
 30
0.0
 11
3.126821346261119
 21
3.664100715396276
 31
0.0
  0
LINE
  5
2B54
330
1E
100
AcDbEntity
  8
7
100
AcDbLine
 10
3.966857932076081
 20
3.825797898581316
 30
0.0
 11
3.989534976059348
 21
3.807064688334268
 31
0.0
  0
LINE
  5
2B55
330
1E
100
AcDbEntity
  8
7
100
AcDbLine
 10
3.989534976059348
 20
3.807064688334268
 30
0.0
 11
4.016155853778835
 21
3.795233187125607
 31
0.0
  0
LINE
  5
2B56
330
1E
100
AcDbEntity
  8
7
100
AcDbLine
 10
4.016155853778835
 20
3.795233187125607
 30
0.0
 11
4.04573460680049
 21
3.791289353389386
 31
0.0
  0
LINE
  5
2B57
330
1E
100
AcDbEntity
  8
7
100
AcDbLine
 10
4.236024584573128
 20
3.665086673830332
 30
0.0
 11
4.258701628556394
 21
3.670016466000607
 31
0.0
  0
LINE
  5
2B58
330
1E
100
AcDbEntity
  8
7
100
AcDbLine
 10
4.258701628556394
 20
3.670016466000607
 30
0.0
 11
4.277434838803442
 21
3.682833925643324
 31
0.0
  0
LINE
  5
2B59
330
1E
100
AcDbEntity
  8
7
100
AcDbLine
 10
4.277434838803442
 20
3.682833925643324
 30
0.0
 11
4.290252298446159
 21
3.701567135890371
 31
0.0
  0
LINE
  5
2B5A
330
1E
100
AcDbEntity
  8
7
100
AcDbLine
 10
4.290252298446159
 20
3.701567135890371
 30
0.0
 11
4.295182090616435
 21
3.724244179873638
 31
0.0
  0
LINE
  5
2B5B
330
1E
100
AcDbEntity
  8
7
100
AcDbLine
 10
1.889443511521946
 20
5.256423586395293
 30
0.0
 11
1.866766467538679
 21
5.231774625543915
 31
0.0
  0
LINE
  5
2B5C
330
1E
100
AcDbEntity
  8
7
100
AcDbLine
 10
1.866766467538679
 20
5.231774625543915
 30
0.0
 11
1.850991132593797
 21
5.201209914088206
 31
0.0
  0
LINE
  5
2B5D
330
1E
100
AcDbEntity
  8
7
100
AcDbLine
 10
1.850991132593797
 20
5.201209914088206
 30
0.0
 11
1.843103465121356
 21
5.168673285764387
 31
0.0
  0
LINE
  5
2B5E
330
1E
100
AcDbEntity
  8
7
100
AcDbLine
 10
1.843103465121356
 20
5.168673285764387
 30
0.0
 11
1.843103465121356
 21
5.135150699006512
 31
0.0
  0
LINE
  5
2B5F
330
1E
100
AcDbEntity
  8
7
100
AcDbLine
 10
1.843103465121356
 20
5.135150699006512
 30
0.0
 11
1.850991132593797
 21
5.102614070682693
 31
0.0
  0
LINE
  5
2B60
330
1E
100
AcDbEntity
  8
7
100
AcDbLine
 10
1.850991132593797
 20
5.102614070682693
 30
0.0
 11
1.866766467538679
 21
5.072049359226984
 31
0.0
  0
LINE
  5
2B61
330
1E
100
AcDbEntity
  8
7
100
AcDbLine
 10
1.866766467538679
 20
5.072049359226984
 30
0.0
 11
1.889443511521946
 21
5.047400398375606
 31
0.0
  0
LINE
  5
2B62
330
1E
100
AcDbEntity
  8
7
100
AcDbLine
 10
1.889443511521946
 20
5.047400398375606
 30
0.0
 11
1.91705034767549
 21
5.027681229694505
 31
0.0
  0
LINE
  5
2B63
330
1E
100
AcDbEntity
  8
7
100
AcDbLine
 10
1.91705034767549
 20
5.027681229694505
 30
0.0
 11
1.948601017565254
 21
5.015849728485843
 31
0.0
  0
LINE
  5
2B64
330
1E
100
AcDbEntity
  8
7
100
AcDbLine
 10
1.948601017565254
 20
5.015849728485843
 30
0.0
 11
1.982123604323128
 21
5.011905894749624
 31
0.0
  0
LINE
  5
2B65
330
1E
100
AcDbEntity
  8
7
100
AcDbLine
 10
2.101424574843797
 20
5.011905894749624
 30
0.0
 11
2.134947161601671
 21
5.015849728485843
 31
0.0
  0
LINE
  5
2B66
330
1E
100
AcDbEntity
  8
7
100
AcDbLine
 10
2.134947161601671
 20
5.015849728485843
 30
0.0
 11
2.166497831491435
 21
5.027681229694505
 31
0.0
  0
LINE
  5
2B67
330
1E
100
AcDbEntity
  8
7
100
AcDbLine
 10
2.166497831491435
 20
5.027681229694505
 30
0.0
 11
2.194104667644978
 21
5.047400398375606
 31
0.0
  0
LINE
  5
2B68
330
1E
100
AcDbEntity
  8
7
100
AcDbLine
 10
2.194104667644978
 20
5.047400398375606
 30
0.0
 11
2.216781711628246
 21
5.072049359226984
 31
0.0
  0
LINE
  5
2B69
330
1E
100
AcDbEntity
  8
7
100
AcDbLine
 10
2.216781711628246
 20
5.072049359226984
 30
0.0
 11
2.232557046573127
 21
5.102614070682693
 31
0.0
  0
LINE
  5
2B6A
330
1E
100
AcDbEntity
  8
7
100
AcDbLine
 10
2.232557046573127
 20
5.102614070682693
 30
0.0
 11
2.240444714045568
 21
5.135150699006512
 31
0.0
  0
LINE
  5
2B6B
330
1E
100
AcDbEntity
  8
7
100
AcDbLine
 10
2.240444714045568
 20
5.135150699006512
 30
0.0
 11
2.240444714045568
 21
5.168673285764387
 31
0.0
  0
LINE
  5
2B6C
330
1E
100
AcDbEntity
  8
7
100
AcDbLine
 10
2.240444714045568
 20
5.168673285764387
 30
0.0
 11
2.232557046573127
 21
5.201209914088206
 31
0.0
  0
LINE
  5
2B6D
330
1E
100
AcDbEntity
  8
7
100
AcDbLine
 10
2.232557046573127
 20
5.201209914088206
 30
0.0
 11
2.216781711628246
 21
5.231774625543915
 31
0.0
  0
LINE
  5
2B6E
330
1E
100
AcDbEntity
  8
7
100
AcDbLine
 10
2.216781711628246
 20
5.231774625543915
 30
0.0
 11
2.194104667644978
 21
5.256423586395293
 31
0.0
  0
LINE
  5
2B6F
330
1E
100
AcDbEntity
  8
7
100
AcDbLine
 10
1.982123604323128
 20
5.792784974521278
 30
0.0
 11
1.948601017565254
 21
5.788841140785056
 31
0.0
  0
LINE
  5
2B70
330
1E
100
AcDbEntity
  8
7
100
AcDbLine
 10
1.948601017565254
 20
5.788841140785056
 30
0.0
 11
1.91705034767549
 21
5.777009639576394
 31
0.0
  0
LINE
  5
2B71
330
1E
100
AcDbEntity
  8
7
100
AcDbLine
 10
1.91705034767549
 20
5.777009639576394
 30
0.0
 11
1.889443511521946
 21
5.757290470895292
 31
0.0
  0
LINE
  5
2B72
330
1E
100
AcDbEntity
  8
7
100
AcDbLine
 10
1.889443511521946
 20
5.757290470895292
 30
0.0
 11
1.866766467538679
 21
5.732641510043914
 31
0.0
  0
LINE
  5
2B73
330
1E
100
AcDbEntity
  8
7
100
AcDbLine
 10
1.866766467538679
 20
5.732641510043914
 30
0.0
 11
1.850991132593797
 21
5.702076798588206
 31
0.0
  0
LINE
  5
2B74
330
1E
100
AcDbEntity
  8
7
100
AcDbLine
 10
1.850991132593797
 20
5.702076798588206
 30
0.0
 11
1.843103465121356
 21
5.669540170264387
 31
0.0
  0
LINE
  5
2B75
330
1E
100
AcDbEntity
  8
7
100
AcDbLine
 10
1.843103465121356
 20
5.669540170264387
 30
0.0
 11
1.843103465121356
 21
5.636017583506512
 31
0.0
  0
LINE
  5
2B76
330
1E
100
AcDbEntity
  8
7
100
AcDbLine
 10
1.843103465121356
 20
5.636017583506512
 30
0.0
 11
1.850991132593797
 21
5.603480955182693
 31
0.0
  0
LINE
  5
2B77
330
1E
100
AcDbEntity
  8
7
100
AcDbLine
 10
1.850991132593797
 20
5.603480955182693
 30
0.0
 11
1.866766467538679
 21
5.572916243726984
 31
0.0
  0
LINE
  5
2B78
330
1E
100
AcDbEntity
  8
7
100
AcDbLine
 10
1.866766467538679
 20
5.572916243726984
 30
0.0
 11
1.889443511521946
 21
5.548267282875607
 31
0.0
  0
LINE
  5
2B79
330
1E
100
AcDbEntity
  8
7
100
AcDbLine
 10
1.889443511521946
 20
5.548267282875607
 30
0.0
 11
1.91705034767549
 21
5.528548114194505
 31
0.0
  0
LINE
  5
2B7A
330
1E
100
AcDbEntity
  8
7
100
AcDbLine
 10
2.166497831491435
 20
5.528548114194505
 30
0.0
 11
2.194104667644978
 21
5.548267282875607
 31
0.0
  0
LINE
  5
2B7B
330
1E
100
AcDbEntity
  8
7
100
AcDbLine
 10
2.194104667644978
 20
5.548267282875607
 30
0.0
 11
2.216781711628246
 21
5.572916243726984
 31
0.0
  0
LINE
  5
2B7C
330
1E
100
AcDbEntity
  8
7
100
AcDbLine
 10
2.216781711628246
 20
5.572916243726984
 30
0.0
 11
2.232557046573127
 21
5.603480955182693
 31
0.0
  0
LINE
  5
2B7D
330
1E
100
AcDbEntity
  8
7
100
AcDbLine
 10
2.232557046573127
 20
5.603480955182693
 30
0.0
 11
2.240444714045568
 21
5.636017583506512
 31
0.0
  0
LINE
  5
2B7E
330
1E
100
AcDbEntity
  8
7
100
AcDbLine
 10
2.240444714045568
 20
5.636017583506512
 30
0.0
 11
2.240444714045568
 21
5.669540170264387
 31
0.0
  0
LINE
  5
2B7F
330
1E
100
AcDbEntity
  8
7
100
AcDbLine
 10
2.240444714045568
 20
5.669540170264387
 30
0.0
 11
2.232557046573127
 21
5.702076798588206
 31
0.0
  0
LINE
  5
2B80
330
1E
100
AcDbEntity
  8
7
100
AcDbLine
 10
2.232557046573127
 20
5.702076798588206
 30
0.0
 11
2.216781711628246
 21
5.732641510043914
 31
0.0
  0
LINE
  5
2B81
330
1E
100
AcDbEntity
  8
7
100
AcDbLine
 10
2.216781711628246
 20
5.732641510043914
 30
0.0
 11
2.194104667644978
 21
5.757290470895292
 31
0.0
  0
LINE
  5
2B82
330
1E
100
AcDbEntity
  8
7
100
AcDbLine
 10
2.194104667644978
 20
5.757290470895292
 30
0.0
 11
2.166497831491435
 21
5.777009639576394
 31
0.0
  0
LINE
  5
2B83
330
1E
100
AcDbEntity
  8
7
100
AcDbLine
 10
2.166497831491435
 20
5.777009639576394
 30
0.0
 11
2.134947161601671
 21
5.788841140785056
 31
0.0
  0
LINE
  5
2B84
330
1E
100
AcDbEntity
  8
7
100
AcDbLine
 10
2.134947161601671
 20
5.788841140785056
 30
0.0
 11
2.101424574843797
 21
5.792784974521278
 31
0.0
  0
LINE
  5
2B85
330
1E
100
AcDbEntity
  8
7
100
AcDbLine
 10
1.982123604323128
 20
5.291918090021277
 30
0.0
 11
1.948601017565254
 21
5.287974256285056
 31
0.0
  0
LINE
  5
2B86
330
1E
100
AcDbEntity
  8
7
100
AcDbLine
 10
1.948601017565254
 20
5.287974256285056
 30
0.0
 11
1.91705034767549
 21
5.276142755076394
 31
0.0
  0
LINE
  5
2B87
330
1E
100
AcDbEntity
  8
7
100
AcDbLine
 10
1.91705034767549
 20
5.276142755076394
 30
0.0
 11
1.889443511521946
 21
5.256423586395293
 31
0.0
  0
LINE
  5
2B88
330
1E
100
AcDbEntity
  8
7
100
AcDbLine
 10
1.91705034767549
 20
5.528548114194505
 30
0.0
 11
1.948601017565254
 21
5.516716612985843
 31
0.0
  0
LINE
  5
2B89
330
1E
100
AcDbEntity
  8
7
100
AcDbLine
 10
1.948601017565254
 20
5.516716612985843
 30
0.0
 11
1.982123604323128
 21
5.512772779249623
 31
0.0
  0
LINE
  5
2B8A
330
1E
100
AcDbEntity
  8
7
100
AcDbLine
 10
2.194104667644978
 20
5.256423586395293
 30
0.0
 11
2.166497831491435
 21
5.276142755076394
 31
0.0
  0
LINE
  5
2B8B
330
1E
100
AcDbEntity
  8
7
100
AcDbLine
 10
2.166497831491435
 20
5.276142755076394
 30
0.0
 11
2.134947161601671
 21
5.287974256285056
 31
0.0
  0
LINE
  5
2B8C
330
1E
100
AcDbEntity
  8
7
100
AcDbLine
 10
2.134947161601671
 20
5.287974256285056
 30
0.0
 11
2.101424574843797
 21
5.291918090021277
 31
0.0
  0
LINE
  5
2B8D
330
1E
100
AcDbEntity
  8
7
100
AcDbLine
 10
2.101424574843797
 20
5.512772779249623
 30
0.0
 11
2.134947161601671
 21
5.516716612985843
 31
0.0
  0
LINE
  5
2B8E
330
1E
100
AcDbEntity
  8
7
100
AcDbLine
 10
2.134947161601671
 20
5.516716612985843
 30
0.0
 11
2.166497831491435
 21
5.528548114194505
 31
0.0
  0
LINE
  5
2B8F
330
1E
100
AcDbEntity
  8
7
100
AcDbLine
 10
1.756339122924505
 20
7.139604195440568
 30
0.0
 11
1.733662078941238
 21
7.134674403270293
 31
0.0
  0
LINE
  5
2B90
330
1E
100
AcDbEntity
  8
7
100
AcDbLine
 10
1.733662078941238
 20
7.134674403270293
 30
0.0
 11
1.714928868694191
 21
7.121856943627575
 31
0.0
  0
LINE
  5
2B91
330
1E
100
AcDbEntity
  8
7
100
AcDbLine
 10
1.714928868694191
 20
7.121856943627575
 30
0.0
 11
1.702111409051474
 21
7.103123733380528
 31
0.0
  0
LINE
  5
2B92
330
1E
100
AcDbEntity
  8
7
100
AcDbLine
 10
1.702111409051474
 20
7.103123733380528
 30
0.0
 11
1.697181616881199
 21
7.080446689397261
 31
0.0
  0
LINE
  5
2B93
330
1E
100
AcDbEntity
  8
7
100
AcDbLine
 10
1.948601017565254
 20
7.041008352035056
 30
0.0
 11
1.91705034767549
 21
7.029176850826393
 31
0.0
  0
LINE
  5
2B94
330
1E
100
AcDbEntity
  8
7
100
AcDbLine
 10
1.91705034767549
 20
7.029176850826393
 30
0.0
 11
1.889443511521946
 21
7.009457682145292
 31
0.0
  0
LINE
  5
2B95
330
1E
100
AcDbEntity
  8
7
100
AcDbLine
 10
1.889443511521946
 20
7.009457682145292
 30
0.0
 11
1.866766467538679
 21
6.984808721293915
 31
0.0
  0
LINE
  5
2B96
330
1E
100
AcDbEntity
  8
7
100
AcDbLine
 10
1.866766467538679
 20
6.984808721293915
 30
0.0
 11
1.850991132593797
 21
6.954244009838205
 31
0.0
  0
LINE
  5
2B97
330
1E
100
AcDbEntity
  8
7
100
AcDbLine
 10
1.850991132593797
 20
6.954244009838205
 30
0.0
 11
1.843103465121356
 21
6.921707381514387
 31
0.0
  0
LINE
  5
2B98
330
1E
100
AcDbEntity
  8
7
100
AcDbLine
 10
1.843103465121356
 20
6.921707381514387
 30
0.0
 11
1.843103465121356
 21
6.888184794756512
 31
0.0
  0
LINE
  5
2B99
330
1E
100
AcDbEntity
  8
7
100
AcDbLine
 10
1.843103465121356
 20
6.888184794756512
 30
0.0
 11
1.850991132593797
 21
6.855648166432693
 31
0.0
  0
LINE
  5
2B9A
330
1E
100
AcDbEntity
  8
7
100
AcDbLine
 10
1.850991132593797
 20
6.855648166432693
 30
0.0
 11
1.866766467538679
 21
6.825083454976985
 31
0.0
  0
LINE
  5
2B9B
330
1E
100
AcDbEntity
  8
7
100
AcDbLine
 10
1.866766467538679
 20
6.825083454976985
 30
0.0
 11
1.889443511521946
 21
6.800434494125607
 31
0.0
  0
LINE
  5
2B9C
330
1E
100
AcDbEntity
  8
7
100
AcDbLine
 10
1.889443511521946
 20
6.800434494125607
 30
0.0
 11
1.91705034767549
 21
6.780715325444505
 31
0.0
  0
LINE
  5
2B9D
330
1E
100
AcDbEntity
  8
7
100
AcDbLine
 10
1.91705034767549
 20
6.780715325444505
 30
0.0
 11
1.948601017565254
 21
6.768883824235843
 31
0.0
  0
LINE
  5
2B9E
330
1E
100
AcDbEntity
  8
7
100
AcDbLine
 10
1.948601017565254
 20
6.768883824235843
 30
0.0
 11
1.982123604323128
 21
6.764939990499623
 31
0.0
  0
LINE
  5
2B9F
330
1E
100
AcDbEntity
  8
7
100
AcDbLine
 10
2.240444714045568
 20
6.921707381514387
 30
0.0
 11
2.232557046573127
 21
6.954244009838205
 31
0.0
  0
LINE
  5
2BA0
330
1E
100
AcDbEntity
  8
7
100
AcDbLine
 10
2.232557046573127
 20
6.954244009838205
 30
0.0
 11
2.216781711628246
 21
6.984808721293915
 31
0.0
  0
LINE
  5
2BA1
330
1E
100
AcDbEntity
  8
7
100
AcDbLine
 10
2.216781711628246
 20
6.984808721293915
 30
0.0
 11
2.194104667644978
 21
7.009457682145292
 31
0.0
  0
LINE
  5
2BA2
330
1E
100
AcDbEntity
  8
7
100
AcDbLine
 10
2.194104667644978
 20
7.009457682145292
 30
0.0
 11
2.166497831491435
 21
7.029176850826393
 31
0.0
  0
LINE
  5
2BA3
330
1E
100
AcDbEntity
  8
7
100
AcDbLine
 10
2.166497831491435
 20
7.029176850826393
 30
0.0
 11
2.134947161601671
 21
7.041008352035056
 31
0.0
  0
LINE
  5
2BA4
330
1E
100
AcDbEntity
  8
7
100
AcDbLine
 10
2.134947161601671
 20
7.041008352035056
 30
0.0
 11
2.101424574843797
 21
7.044952185771276
 31
0.0
  0
LINE
  5
2BA5
330
1E
100
AcDbEntity
  8
7
100
AcDbLine
 10
2.101424574843797
 20
6.764939990499623
 30
0.0
 11
2.134947161601671
 21
6.768883824235843
 31
0.0
  0
LINE
  5
2BA6
330
1E
100
AcDbEntity
  8
7
100
AcDbLine
 10
2.134947161601671
 20
6.768883824235843
 30
0.0
 11
2.166497831491435
 21
6.780715325444505
 31
0.0
  0
LINE
  5
2BA7
330
1E
100
AcDbEntity
  8
7
100
AcDbLine
 10
2.166497831491435
 20
6.780715325444505
 30
0.0
 11
2.194104667644978
 21
6.800434494125607
 31
0.0
  0
LINE
  5
2BA8
330
1E
100
AcDbEntity
  8
7
100
AcDbLine
 10
2.194104667644978
 20
6.800434494125607
 30
0.0
 11
2.216781711628246
 21
6.825083454976985
 31
0.0
  0
LINE
  5
2BA9
330
1E
100
AcDbEntity
  8
7
100
AcDbLine
 10
2.216781711628246
 20
6.825083454976985
 30
0.0
 11
2.232557046573127
 21
6.855648166432693
 31
0.0
  0
LINE
  5
2BAA
330
1E
100
AcDbEntity
  8
7
100
AcDbLine
 10
2.232557046573127
 20
6.855648166432693
 30
0.0
 11
2.240444714045568
 21
6.888184794756512
 31
0.0
  0
LINE
  5
2BAB
330
1E
100
AcDbEntity
  8
7
100
AcDbLine
 10
2.240444714045568
 20
6.888184794756512
 30
0.0
 11
2.240444714045568
 21
6.921707381514387
 31
0.0
  0
LINE
  5
2BAC
330
1E
100
AcDbEntity
  8
7
100
AcDbLine
 10
1.756339122924505
 20
7.777519302274229
 30
0.0
 11
1.733662078941238
 21
7.777519302274229
 31
0.0
  0
LINE
  5
2BAD
330
1E
100
AcDbEntity
  8
7
100
AcDbLine
 10
1.733662078941238
 20
7.777519302274229
 30
0.0
 11
1.713942910260136
 21
7.777519302274229
 31
0.0
  0
LINE
  5
2BAE
330
1E
100
AcDbEntity
  8
7
100
AcDbLine
 10
1.713942910260136
 20
7.777519302274229
 30
0.0
 11
1.701125450617419
 21
7.777519302274229
 31
0.0
  0
LINE
  5
2BAF
330
1E
100
AcDbEntity
  8
7
100
AcDbLine
 10
1.701125450617419
 20
7.777519302274229
 30
0.0
 11
1.696195658447144
 21
7.777519302274229
 31
0.0
  0
LINE
  5
2BB0
330
1E
100
AcDbEntity
  8
7
100
AcDbLine
 10
1.696195658447144
 20
7.777519302274229
 30
0.0
 11
1.696195658447144
 21
7.885974730020293
 31
0.0
  0
LINE
  5
2BB1
330
1E
100
AcDbEntity
  8
7
100
AcDbLine
 10
1.696195658447144
 20
7.885974730020293
 30
0.0
 11
1.701125450617419
 21
7.885974730020293
 31
0.0
  0
LINE
  5
2BB2
330
1E
100
AcDbEntity
  8
7
100
AcDbLine
 10
1.701125450617419
 20
7.885974730020293
 30
0.0
 11
1.713942910260136
 21
7.885974730020293
 31
0.0
  0
LINE
  5
2BB3
330
1E
100
AcDbEntity
  8
7
100
AcDbLine
 10
1.713942910260136
 20
7.885974730020293
 30
0.0
 11
1.733662078941238
 21
7.885974730020293
 31
0.0
  0
LINE
  5
2BB4
330
1E
100
AcDbEntity
  8
7
100
AcDbLine
 10
1.733662078941238
 20
7.885974730020293
 30
0.0
 11
1.756339122924505
 21
7.885974730020293
 31
0.0
  0
LINE
  5
2BB7
330
1E
100
AcDbEntity
  8
7
100
AcDbLine
 10
4.13447086586545
 20
6.967061469480923
 30
0.0
 11
4.113765738750292
 21
6.988752555030134
 31
0.0
  0
LINE
  5
2BB8
330
1E
100
AcDbEntity
  8
7
100
AcDbLine
 10
4.113765738750292
 20
6.988752555030134
 30
0.0
 11
4.089116777898915
 21
7.004527889975016
 31
0.0
  0
LINE
  5
2BB9
330
1E
100
AcDbEntity
  8
7
100
AcDbLine
 10
4.089116777898915
 20
7.004527889975016
 30
0.0
 11
4.060523983311316
 21
7.012415557447457
 31
0.0
  0
LINE
  5
2BBA
330
1E
100
AcDbEntity
  8
7
100
AcDbLine
 10
4.060523983311316
 20
7.012415557447457
 30
0.0
 11
4.030945230289662
 21
7.012415557447457
 31
0.0
  0
LINE
  5
2BBB
330
1E
100
AcDbEntity
  8
7
100
AcDbLine
 10
4.030945230289662
 20
7.012415557447457
 30
0.0
 11
4.002352435702064
 21
7.004527889975016
 31
0.0
  0
LINE
  5
2BBC
330
1E
100
AcDbEntity
  8
7
100
AcDbLine
 10
4.002352435702064
 20
7.004527889975016
 30
0.0
 11
3.977703474850687
 21
6.988752555030134
 31
0.0
  0
LINE
  5
2BBD
330
1E
100
AcDbEntity
  8
7
100
AcDbLine
 10
3.977703474850687
 20
6.988752555030134
 30
0.0
 11
3.95699834773553
 21
6.967061469480923
 31
0.0
  0
LINE
  5
2BBE
330
1E
100
AcDbEntity
  8
7
100
AcDbLine
 10
3.95699834773553
 20
6.967061469480923
 30
0.0
 11
3.943194929658758
 21
6.941426550195489
 31
0.0
  0
LINE
  5
2BBF
330
1E
100
AcDbEntity
  8
7
100
AcDbLine
 10
3.943194929658758
 20
6.941426550195489
 30
0.0
 11
3.937279179054427
 21
6.912833755607891
 31
0.0
  0
LINE
  5
2BC0
330
1E
100
AcDbEntity
  8
7
100
AcDbLine
 10
3.937279179054427
 20
6.912833755607891
 30
0.0
 11
3.939251095922537
 21
6.883255002586238
 31
0.0
  0
LINE
  5
2BC1
330
1E
100
AcDbEntity
  8
7
100
AcDbLine
 10
3.939251095922537
 20
6.883255002586238
 30
0.0
 11
3.949110680263089
 21
6.854662207998639
 31
0.0
  0
LINE
  5
2BC2
330
1E
100
AcDbEntity
  8
7
100
AcDbLine
 10
3.949110680263089
 20
6.854662207998639
 30
0.0
 11
3.966857932076081
 21
6.830999205581315
 31
0.0
  0
LINE
  5
2BC3
330
1E
100
AcDbEntity
  8
7
100
AcDbLine
 10
3.966857932076081
 20
6.830999205581315
 30
0.0
 11
3.989534976059348
 21
6.812265995334269
 31
0.0
  0
LINE
  5
2BC4
330
1E
100
AcDbEntity
  8
7
100
AcDbLine
 10
4.04573460680049
 20
6.796490660389387
 30
0.0
 11
4.075313359822144
 21
6.800434494125607
 31
0.0
  0
LINE
  5
2BC5
330
1E
100
AcDbEntity
  8
7
100
AcDbLine
 10
4.075313359822144
 20
6.800434494125607
 30
0.0
 11
4.101934237541631
 21
6.812265995334269
 31
0.0
  0
LINE
  5
2BC6
330
1E
100
AcDbEntity
  8
7
100
AcDbLine
 10
4.101934237541631
 20
6.812265995334269
 30
0.0
 11
4.124611281524899
 21
6.830999205581315
 31
0.0
  0
LINE
  5
2BC7
330
1E
100
AcDbEntity
  8
7
100
AcDbLine
 10
4.124611281524899
 20
6.830999205581315
 30
0.0
 11
4.142358533337891
 21
6.854662207998639
 31
0.0
  0
LINE
  5
2BC8
330
1E
100
AcDbEntity
  8
7
100
AcDbLine
 10
4.142358533337891
 20
6.854662207998639
 30
0.0
 11
4.152218117678442
 21
6.883255002586238
 31
0.0
  0
LINE
  5
2BC9
330
1E
100
AcDbEntity
  8
7
100
AcDbLine
 10
4.152218117678442
 20
6.883255002586238
 30
0.0
 11
4.154190034546553
 21
6.912833755607891
 31
0.0
  0
LINE
  5
2BCA
330
1E
100
AcDbEntity
  8
7
100
AcDbLine
 10
4.154190034546553
 20
6.912833755607891
 30
0.0
 11
4.148274283942221
 21
6.941426550195489
 31
0.0
  0
LINE
  5
2BCB
330
1E
100
AcDbEntity
  8
7
100
AcDbLine
 10
4.148274283942221
 20
6.941426550195489
 30
0.0
 11
4.13447086586545
 21
6.967061469480923
 31
0.0
  0
LINE
  5
2BCC
330
1E
100
AcDbEntity
  8
7
100
AcDbLine
 10
4.154190034546553
 20
5.660666544357892
 30
0.0
 11
4.148274283942221
 21
5.689259338945489
 31
0.0
  0
LINE
  5
2BCD
330
1E
100
AcDbEntity
  8
7
100
AcDbLine
 10
4.148274283942221
 20
5.689259338945489
 30
0.0
 11
4.13447086586545
 21
5.714894258230923
 31
0.0
  0
LINE
  5
2BCE
330
1E
100
AcDbEntity
  8
7
100
AcDbLine
 10
4.13447086586545
 20
5.714894258230923
 30
0.0
 11
4.113765738750292
 21
5.736585343780134
 31
0.0
  0
LINE
  5
2BCF
330
1E
100
AcDbEntity
  8
7
100
AcDbLine
 10
4.113765738750292
 20
5.736585343780134
 30
0.0
 11
4.089116777898915
 21
5.752360678725016
 31
0.0
  0
LINE
  5
2BD0
330
1E
100
AcDbEntity
  8
7
100
AcDbLine
 10
4.089116777898915
 20
5.752360678725016
 30
0.0
 11
4.060523983311316
 21
5.760248346197457
 31
0.0
  0
LINE
  5
2BD1
330
1E
100
AcDbEntity
  8
7
100
AcDbLine
 10
4.060523983311316
 20
5.760248346197457
 30
0.0
 11
4.030945230289662
 21
5.760248346197457
 31
0.0
  0
LINE
  5
2BD2
330
1E
100
AcDbEntity
  8
7
100
AcDbLine
 10
4.030945230289662
 20
5.760248346197457
 30
0.0
 11
4.002352435702064
 21
5.752360678725016
 31
0.0
  0
LINE
  5
2BD3
330
1E
100
AcDbEntity
  8
7
100
AcDbLine
 10
4.002352435702064
 20
5.752360678725016
 30
0.0
 11
3.977703474850687
 21
5.736585343780134
 31
0.0
  0
LINE
  5
2BD4
330
1E
100
AcDbEntity
  8
7
100
AcDbLine
 10
3.977703474850687
 20
5.736585343780134
 30
0.0
 11
3.95699834773553
 21
5.714894258230923
 31
0.0
  0
LINE
  5
2BD5
330
1E
100
AcDbEntity
  8
7
100
AcDbLine
 10
3.95699834773553
 20
5.714894258230923
 30
0.0
 11
3.943194929658758
 21
5.689259338945489
 31
0.0
  0
LINE
  5
2BD6
330
1E
100
AcDbEntity
  8
7
100
AcDbLine
 10
3.943194929658758
 20
5.689259338945489
 30
0.0
 11
3.937279179054427
 21
5.660666544357892
 31
0.0
  0
LINE
  5
2BD7
330
1E
100
AcDbEntity
  8
7
100
AcDbLine
 10
3.937279179054427
 20
5.660666544357892
 30
0.0
 11
3.939251095922537
 21
5.631087791336237
 31
0.0
  0
LINE
  5
2BD8
330
1E
100
AcDbEntity
  8
7
100
AcDbLine
 10
3.939251095922537
 20
5.631087791336237
 30
0.0
 11
3.949110680263089
 21
5.602494996748638
 31
0.0
  0
LINE
  5
2BD9
330
1E
100
AcDbEntity
  8
7
100
AcDbLine
 10
4.04573460680049
 20
5.544323449139387
 30
0.0
 11
4.075313359822144
 21
5.548267282875607
 31
0.0
  0
LINE
  5
2BDA
330
1E
100
AcDbEntity
  8
7
100
AcDbLine
 10
4.075313359822144
 20
5.548267282875607
 30
0.0
 11
4.101934237541631
 21
5.560098784084269
 31
0.0
  0
LINE
  5
2BDB
330
1E
100
AcDbEntity
  8
7
100
AcDbLine
 10
4.101934237541631
 20
5.560098784084269
 30
0.0
 11
4.124611281524899
 21
5.578831994331316
 31
0.0
  0
LINE
  5
2BDC
330
1E
100
AcDbEntity
  8
7
100
AcDbLine
 10
4.124611281524899
 20
5.578831994331316
 30
0.0
 11
4.142358533337891
 21
5.602494996748638
 31
0.0
  0
LINE
  5
2BDD
330
1E
100
AcDbEntity
  8
7
100
AcDbLine
 10
4.142358533337891
 20
5.602494996748638
 30
0.0
 11
4.152218117678442
 21
5.631087791336237
 31
0.0
  0
LINE
  5
2BDE
330
1E
100
AcDbEntity
  8
7
100
AcDbLine
 10
4.152218117678442
 20
5.631087791336237
 30
0.0
 11
4.154190034546553
 21
5.660666544357892
 31
0.0
  0
LINE
  5
2BDF
330
1E
100
AcDbEntity
  8
7
100
AcDbLine
 10
4.142358533337891
 20
5.101628112248638
 30
0.0
 11
4.152218117678442
 21
5.130220906836237
 31
0.0
  0
LINE
  5
2BE0
330
1E
100
AcDbEntity
  8
7
100
AcDbLine
 10
4.152218117678442
 20
5.130220906836237
 30
0.0
 11
4.154190034546553
 21
5.159799659857891
 31
0.0
  0
LINE
  5
2BE1
330
1E
100
AcDbEntity
  8
7
100
AcDbLine
 10
4.154190034546553
 20
5.159799659857891
 30
0.0
 11
4.148274283942221
 21
5.188392454445488
 31
0.0
  0
LINE
  5
2BE2
330
1E
100
AcDbEntity
  8
7
100
AcDbLine
 10
4.148274283942221
 20
5.188392454445488
 30
0.0
 11
4.13447086586545
 21
5.214027373730923
 31
0.0
  0
LINE
  5
2BE3
330
1E
100
AcDbEntity
  8
7
100
AcDbLine
 10
4.13447086586545
 20
5.214027373730923
 30
0.0
 11
4.113765738750292
 21
5.235718459280134
 31
0.0
  0
LINE
  5
2BE4
330
1E
100
AcDbEntity
  8
7
100
AcDbLine
 10
4.113765738750292
 20
5.235718459280134
 30
0.0
 11
4.089116777898915
 21
5.251493794225016
 31
0.0
  0
LINE
  5
2BE5
330
1E
100
AcDbEntity
  8
7
100
AcDbLine
 10
4.089116777898915
 20
5.251493794225016
 30
0.0
 11
4.060523983311316
 21
5.259381461697457
 31
0.0
  0
LINE
  5
2BE6
330
1E
100
AcDbEntity
  8
7
100
AcDbLine
 10
4.060523983311316
 20
5.259381461697457
 30
0.0
 11
4.030945230289662
 21
5.259381461697457
 31
0.0
  0
LINE
  5
2BE7
330
1E
100
AcDbEntity
  8
7
100
AcDbLine
 10
4.030945230289662
 20
5.259381461697457
 30
0.0
 11
4.002352435702064
 21
5.251493794225016
 31
0.0
  0
LINE
  5
2BE8
330
1E
100
AcDbEntity
  8
7
100
AcDbLine
 10
4.002352435702064
 20
5.251493794225016
 30
0.0
 11
3.977703474850687
 21
5.235718459280134
 31
0.0
  0
LINE
  5
2BE9
330
1E
100
AcDbEntity
  8
7
100
AcDbLine
 10
3.977703474850687
 20
5.235718459280134
 30
0.0
 11
3.95699834773553
 21
5.214027373730923
 31
0.0
  0
LINE
  5
2BEA
330
1E
100
AcDbEntity
  8
7
100
AcDbLine
 10
3.95699834773553
 20
5.214027373730923
 30
0.0
 11
3.943194929658758
 21
5.188392454445488
 31
0.0
  0
LINE
  5
2BEB
330
1E
100
AcDbEntity
  8
7
100
AcDbLine
 10
3.943194929658758
 20
5.188392454445488
 30
0.0
 11
3.937279179054427
 21
5.159799659857891
 31
0.0
  0
LINE
  5
2BEC
330
1E
100
AcDbEntity
  8
7
100
AcDbLine
 10
3.937279179054427
 20
5.159799659857891
 30
0.0
 11
3.939251095922537
 21
5.130220906836237
 31
0.0
  0
LINE
  5
2BED
330
1E
100
AcDbEntity
  8
7
100
AcDbLine
 10
4.04573460680049
 20
5.043456564639387
 30
0.0
 11
4.075313359822144
 21
5.047400398375606
 31
0.0
  0
LINE
  5
2BEE
330
1E
100
AcDbEntity
  8
7
100
AcDbLine
 10
4.075313359822144
 20
5.047400398375606
 30
0.0
 11
4.101934237541631
 21
5.059231899584268
 31
0.0
  0
LINE
  5
2BEF
330
1E
100
AcDbEntity
  8
7
100
AcDbLine
 10
4.101934237541631
 20
5.059231899584268
 30
0.0
 11
4.124611281524899
 21
5.077965109831316
 31
0.0
  0
LINE
  5
2BF0
330
1E
100
AcDbEntity
  8
7
100
AcDbLine
 10
4.124611281524899
 20
5.077965109831316
 30
0.0
 11
4.142358533337891
 21
5.101628112248638
 31
0.0
  0
LINE
  5
2BF1
330
1E
100
AcDbEntity
  8
7
100
AcDbLine
 10
3.939251095922537
 20
5.130220906836237
 30
0.0
 11
3.949110680263089
 21
5.101628112248638
 31
0.0
  0
LINE
  5
2BF2
330
1E
100
AcDbEntity
  8
7
100
AcDbLine
 10
3.949110680263089
 20
5.101628112248638
 30
0.0
 11
3.966857932076081
 21
5.077965109831316
 31
0.0
  0
LINE
  5
2BF3
330
1E
100
AcDbEntity
  8
7
100
AcDbLine
 10
3.966857932076081
 20
5.077965109831316
 30
0.0
 11
3.989534976059348
 21
5.059231899584268
 31
0.0
  0
LINE
  5
2BF4
330
1E
100
AcDbEntity
  8
7
100
AcDbLine
 10
3.989534976059348
 20
5.059231899584268
 30
0.0
 11
4.016155853778835
 21
5.047400398375606
 31
0.0
  0
LINE
  5
2BF5
330
1E
100
AcDbEntity
  8
7
100
AcDbLine
 10
4.016155853778835
 20
5.047400398375606
 30
0.0
 11
4.04573460680049
 21
5.043456564639387
 31
0.0
  0
LINE
  5
2BF6
330
1E
100
AcDbEntity
  8
7
100
AcDbLine
 10
3.949110680263089
 20
5.602494996748638
 30
0.0
 11
3.966857932076081
 21
5.578831994331316
 31
0.0
  0
LINE
  5
2BF7
330
1E
100
AcDbEntity
  8
7
100
AcDbLine
 10
3.966857932076081
 20
5.578831994331316
 30
0.0
 11
3.989534976059348
 21
5.560098784084269
 31
0.0
  0
LINE
  5
2BF8
330
1E
100
AcDbEntity
  8
7
100
AcDbLine
 10
3.989534976059348
 20
5.560098784084269
 30
0.0
 11
4.016155853778835
 21
5.548267282875607
 31
0.0
  0
LINE
  5
2BF9
330
1E
100
AcDbEntity
  8
7
100
AcDbLine
 10
4.016155853778835
 20
5.548267282875607
 30
0.0
 11
4.04573460680049
 21
5.544323449139387
 31
0.0
  0
LINE
  5
2BFA
330
1E
100
AcDbEntity
  8
7
100
AcDbLine
 10
2.865542361236514
 20
7.140590153874623
 30
0.0
 11
2.899064947994387
 21
7.140590153874623
 31
0.0
  0
LINE
  5
2BFB
330
1E
100
AcDbEntity
  8
7
100
AcDbLine
 10
2.899064947994387
 20
7.140590153874623
 30
0.0
 11
2.930615617884151
 21
7.140590153874623
 31
0.0
  0
LINE
  5
2BFC
330
1E
100
AcDbEntity
  8
7
100
AcDbLine
 10
2.930615617884151
 20
7.140590153874623
 30
0.0
 11
2.958222454037695
 21
7.140590153874623
 31
0.0
  0
LINE
  5
2BFD
330
1E
100
AcDbEntity
  8
7
100
AcDbLine
 10
2.958222454037695
 20
7.140590153874623
 30
0.0
 11
2.993716957663679
 21
7.140590153874623
 31
0.0
  0
LINE
  5
2BFE
330
1E
100
AcDbEntity
  8
7
100
AcDbLine
 10
2.993716957663679
 20
7.140590153874623
 30
0.0
 11
3.035127211893994
 21
7.140590153874623
 31
0.0
  0
LINE
  5
2BFF
330
1E
100
AcDbEntity
  8
7
100
AcDbLine
 10
3.035127211893994
 20
7.140590153874623
 30
0.0
 11
3.079495341426474
 21
7.140590153874623
 31
0.0
  0
LINE
  5
2C00
330
1E
100
AcDbEntity
  8
7
100
AcDbLine
 10
3.079495341426474
 20
7.140590153874623
 30
0.0
 11
3.126821346261119
 21
7.140590153874623
 31
0.0
  0
LINE
  5
2C01
330
1E
100
AcDbEntity
  8
7
100
AcDbLine
 10
3.989534976059348
 20
6.812265995334269
 30
0.0
 11
4.016155853778835
 21
6.800434494125607
 31
0.0
  0
LINE
  5
2C02
330
1E
100
AcDbEntity
  8
7
100
AcDbLine
 10
4.016155853778835
 20
6.800434494125607
 30
0.0
 11
4.04573460680049
 21
6.796490660389387
 31
0.0
  0
LINE
  5
2C03
330
1E
100
AcDbEntity
  8
7
100
AcDbLine
 10
4.295182090616435
 20
7.080446689397261
 30
0.0
 11
4.290252298446159
 21
7.103123733380528
 31
0.0
  0
LINE
  5
2C04
330
1E
100
AcDbEntity
  8
7
100
AcDbLine
 10
4.290252298446159
 20
7.103123733380528
 30
0.0
 11
4.277434838803442
 21
7.121856943627575
 31
0.0
  0
LINE
  5
2C05
330
1E
100
AcDbEntity
  8
7
100
AcDbLine
 10
4.277434838803442
 20
7.121856943627575
 30
0.0
 11
4.258701628556394
 21
7.134674403270293
 31
0.0
  0
LINE
  5
2C06
330
1E
100
AcDbEntity
  8
7
100
AcDbLine
 10
4.258701628556394
 20
7.134674403270293
 30
0.0
 11
4.236024584573128
 21
7.139604195440568
 31
0.0
  0
LINE
  5
2C2B
330
1E
100
AcDbEntity
  8
7
100
AcDbLine
 10
3.033155295025884
 20
7.814985722768324
 30
0.0
 11
2.997660791399899
 21
7.844564475789978
 31
0.0
  0
LINE
  5
2C2C
330
1E
100
AcDbEntity
  8
7
100
AcDbLine
 10
2.997660791399899
 20
7.844564475789978
 30
0.0
 11
2.956250537169585
 21
7.867241519773246
 31
0.0
  0
LINE
  5
2C2D
330
1E
100
AcDbEntity
  8
7
100
AcDbLine
 10
2.956250537169585
 20
7.867241519773246
 30
0.0
 11
2.911882407637104
 21
7.880058979415961
 31
0.0
  0
LINE
  5
2C2E
330
1E
100
AcDbEntity
  8
7
100
AcDbLine
 10
2.911882407637104
 20
7.880058979415961
 30
0.0
 11
2.865542361236514
 21
7.884988771586238
 31
0.0
  0
LINE
  5
2C2F
330
1E
100
AcDbEntity
  8
7
100
AcDbLine
 10
2.957236495603639
 20
7.739066923346079
 30
0.0
 11
2.930615617884151
 21
7.759772050461237
 31
0.0
  0
LINE
  5
2C30
330
1E
100
AcDbEntity
  8
7
100
AcDbLine
 10
2.930615617884151
 20
7.759772050461237
 30
0.0
 11
2.899064947994387
 21
7.77357546853801
 31
0.0
  0
LINE
  5
2C31
330
1E
100
AcDbEntity
  8
7
100
AcDbLine
 10
2.899064947994387
 20
7.77357546853801
 30
0.0
 11
2.865542361236514
 21
7.777519302274229
 31
0.0
  0
LINE
  5
2C32
330
1E
100
AcDbEntity
  8
7
100
AcDbLine
 10
3.035127211893994
 20
7.816957639636434
 30
0.0
 11
3.061748089613482
 21
7.796252512521276
 31
0.0
  0
LINE
  5
2C33
330
1E
100
AcDbEntity
  8
7
100
AcDbLine
 10
3.061748089613482
 20
7.796252512521276
 30
0.0
 11
3.093298759503245
 21
7.782449094444506
 31
0.0
  0
LINE
  5
2C34
330
1E
100
AcDbEntity
  8
7
100
AcDbLine
 10
3.093298759503245
 20
7.782449094444506
 30
0.0
 11
3.126821346261119
 21
7.778505260708284
 31
0.0
  0
LINE
  5
2C35
330
1E
100
AcDbEntity
  8
7
100
AcDbLine
 10
2.95920841247175
 20
7.741038840214189
 30
0.0
 11
2.994702916097734
 21
7.711460087192537
 31
0.0
  0
LINE
  5
2C36
330
1E
100
AcDbEntity
  8
7
100
AcDbLine
 10
2.994702916097734
 20
7.711460087192537
 30
0.0
 11
3.036113170328049
 21
7.688783043209269
 31
0.0
  0
LINE
  5
2C37
330
1E
100
AcDbEntity
  8
7
100
AcDbLine
 10
3.036113170328049
 20
7.688783043209269
 30
0.0
 11
3.080481299860529
 21
7.675965583566552
 31
0.0
  0
LINE
  5
2C5E
330
1E
100
AcDbEntity
  8
7
100
AcDbLine
 10
4.296168049050489
 20
7.670049832962221
 30
0.0
 11
4.291238256880214
 21
7.670049832962221
 31
0.0
  0
LINE
  5
2C5F
330
1E
100
AcDbEntity
  8
7
100
AcDbLine
 10
4.291238256880214
 20
7.670049832962221
 30
0.0
 11
4.278420797237497
 21
7.670049832962221
 31
0.0
  0
LINE
  5
2C60
330
1E
100
AcDbEntity
  8
7
100
AcDbLine
 10
4.278420797237497
 20
7.670049832962221
 30
0.0
 11
4.258701628556394
 21
7.670049832962221
 31
0.0
  0
LINE
  5
2C61
330
1E
100
AcDbEntity
  8
7
100
AcDbLine
 10
4.258701628556394
 20
7.670049832962221
 30
0.0
 11
4.236024584573128
 21
7.670049832962221
 31
0.0
  0
LINE
  5
2C62
330
1E
100
AcDbEntity
  8
7
100
AcDbLine
 10
4.236024584573128
 20
7.778505260708284
 30
0.0
 11
4.258701628556394
 21
7.778505260708284
 31
0.0
  0
LINE
  5
2C63
330
1E
100
AcDbEntity
  8
7
100
AcDbLine
 10
4.258701628556394
 20
7.778505260708284
 30
0.0
 11
4.278420797237497
 21
7.778505260708284
 31
0.0
  0
LINE
  5
2C64
330
1E
100
AcDbEntity
  8
7
100
AcDbLine
 10
4.278420797237497
 20
7.778505260708284
 30
0.0
 11
4.291238256880214
 21
7.778505260708284
 31
0.0
  0
LINE
  5
2C65
330
1E
100
AcDbEntity
  8
7
100
AcDbLine
 10
4.291238256880214
 20
7.778505260708284
 30
0.0
 11
4.296168049050489
 21
7.778505260708284
 31
0.0
  0
LINE
  5
2C66
330
1E
100
AcDbEntity
  8
7
100
AcDbLine
 10
4.296168049050489
 20
7.778505260708284
 30
0.0
 11
4.296168049050489
 21
7.670049832962221
 31
0.0
  0
ENDSEC
  0
SECTION
  2
OBJECTS
  0
DICTIONARY
  5
C
330
0
100
AcDbDictionary
  3
ACAD_GROUP
350
D
  3
ACAD_LAYOUT
350
19
  3
ACAD_MLINESTYLE
350
16
  3
ACAD_PLOTSETTINGS
350
18
  3
ACAD_PLOTSTYLENAME
350
E
  3
ACDBHEADERROUNDTRIPXREC
350
2C9F
  0
DICTIONARY
  5
2CC2
330
1E
100
AcDbDictionary
280
     1
  3
ACAD_LAYOUTSELFREF
360
2CC3
  0
DICTIONARY
  5
2CC0
330
1A
100
AcDbDictionary
280
     1
  3
ACAD_LAYOUTSELFREF
360
2CC1
  0
DICTIONARY
  5
D
102
{ACAD_REACTORS
330
C
102
}
330
C
100
AcDbDictionary
  0
DICTIONARY
  5
19
102
{ACAD_REACTORS
330
C
102
}
330
C
100
AcDbDictionary
  0
DICTIONARY
  5
16
102
{ACAD_REACTORS
330
C
102
}
330
C
100
AcDbDictionary
  3
STANDARD
350
17
  0
DICTIONARY
  5
18
102
{ACAD_REACTORS
330
C
102
}
330
C
100
AcDbDictionary
  0
ACDBDICTIONARYWDFLT
  5
E
102
{ACAD_REACTORS
330
C
102
}
330
C
100
AcDbDictionary
281
     1
  3
Normal
350
F
100
AcDbDictionaryWithDefault
340
F
  0
DICTIONARY
  5
2C9F
102
{ACAD_REACTORS
330
C
102
}
330
C
100
AcDbDictionary
  3
CEPSNTYPE
350
2CA9
  3
DIMSTYLEDATA
350
2CAD
  3
FINGERPRINTGUID
350
2CAA
  3
HYPERLINKBASE
350
2CA2
  3
INSUNITS
350
2CA8
  3
LAYOUTDICT
350
2CA4
  3
LWETCUNION
350
2CA7
  3
PLOTSETDICT
350
2CA5
  3
PLOTSTYLNAMDICT
350
2CA6
  3
PSVPSCALE
350
2CAC
  3
PUCSBASE
350
2CB0
  3
PUCSORGBACK
350
2CB6
  3
PUCSORGBOTTOM
350
2CB2
  3
PUCSORGFRONT
350
2CB5
  3
PUCSORGLEFT
350
2CB3
  3
PUCSORGRIGHT
350
2CB4
  3
PUCSORGTOP
350
2CB1
  3
PUCSORTHOREF
350
2CAE
  3
PUCSORTHOVIEW
350
2CAF
  3
STYLESHEET
350
2CA3
  3
TSTACKALIGN
350
2CA0
  3
TSTACKSIZE
350
2CA1
  3
UCSBASE
350
2CB9
  3
UCSORGBACK
350
2CBF
  3
UCSORGBOTTOM
350
2CBB
  3
UCSORGFRONT
350
2CBE
  3
UCSORGLEFT
350
2CBC
  3
UCSORGRIGHT
350
2CBD
  3
UCSORGTOP
350
2CBA
  3
UCSORTHOREF
350
2CB7
  3
UCSORTHOVIEW
350
2CB8
  3
VERSIONGUID
350
2CAB
  0
XRECORD
  5
2CC3
102
{ACAD_REACTORS
330
2CC2
102
}
330
2CC2
100
AcDbXrecord
340
1E
  0
XRECORD
  5
2CC1
102
{ACAD_REACTORS
330
2CC0
102
}
330
2CC0
100
AcDbXrecord
340
1A
  0
MLINESTYLE
  5
17
102
{ACAD_REACTORS
330
16
102
}
330
16
100
AcDbMlineStyle
  2
STANDARD
 70
     0
  3

 62
   256
 51
90.0
 52
90.0
 71
     2
 49
0.5
 62
   256
  6
BYLAYER
 49
-0.5
 62
   256
  6
BYLAYER
  0
ACDBPLACEHOLDER
  5
F
102
{ACAD_REACTORS
330
E
102
}
330
E
100
AcDbPlaceHolder
280
     0
  0
XRECORD
  5
2CA9
102
{ACAD_REACTORS
330
2C9F
102
}
330
2C9F
100
AcDbXrecord
 90
        0
  0
XRECORD
  5
2CAD
102
{ACAD_REACTORS
330
2C9F
102
}
330
2C9F
100
AcDbXrecord
1000
DSTYLE
1002
{
1070
   279
 70
     2
1002
}
  0
XRECORD
  5
2CAA
102
{ACAD_REACTORS
330
2C9F
102
}
330
2C9F
100
AcDbXrecord
  1
{3A7EC147-5DFF-11D6-B7D2-00B0D0207C23}
  0
XRECORD
  5
2CA2
102
{ACAD_REACTORS
330
2C9F
102
}
330
2C9F
100
AcDbXrecord
  1

  0
XRECORD
  5
2CA8
102
{ACAD_REACTORS
330
2C9F
102
}
330
2C9F
100
AcDbXrecord
 90
        0
  0
XRECORD
  5
2CA4
102
{ACAD_REACTORS
330
2C9F
102
}
330
2C9F
100
AcDbXrecord
340
19
  0
XRECORD
  5
2CA7
102
{ACAD_REACTORS
330
2C9F
102
}
330
2C9F
100
AcDbXrecord
 90
    14877
  0
XRECORD
  5
2CA5
102
{ACAD_REACTORS
330
2C9F
102
}
330
2C9F
100
AcDbXrecord
340
18
  0
XRECORD
  5
2CA6
102
{ACAD_REACTORS
330
2C9F
102
}
330
2C9F
100
AcDbXrecord
340
E
  0
XRECORD
  5
2CAC
102
{ACAD_REACTORS
330
2C9F
102
}
330
2C9F
100
AcDbXrecord
 40
0.0
  0
XRECORD
  5
2CB0
102
{ACAD_REACTORS
330
2C9F
102
}
330
2C9F
100
AcDbXrecord
340
0
  0
XRECORD
  5
2CB6
102
{ACAD_REACTORS
330
2C9F
102
}
330
2C9F
100
AcDbXrecord
 10
0.0
 20
0.0
 30
0.0
  0
XRECORD
  5
2CB2
102
{ACAD_REACTORS
330
2C9F
102
}
330
2C9F
100
AcDbXrecord
 10
0.0
 20
0.0
 30
0.0
  0
XRECORD
  5
2CB5
102
{ACAD_REACTORS
330
2C9F
102
}
330
2C9F
100
AcDbXrecord
 10
0.0
 20
0.0
 30
0.0
  0
XRECORD
  5
2CB3
102
{ACAD_REACTORS
330
2C9F
102
}
330
2C9F
100
AcDbXrecord
 10
0.0
 20
0.0
 30
0.0
  0
XRECORD
  5
2CB4
102
{ACAD_REACTORS
330
2C9F
102
}
330
2C9F
100
AcDbXrecord
 10
0.0
 20
0.0
 30
0.0
  0
XRECORD
  5
2CB1
102
{ACAD_REACTORS
330
2C9F
102
}
330
2C9F
100
AcDbXrecord
 10
0.0
 20
0.0
 30
0.0
  0
XRECORD
  5
2CAE
102
{ACAD_REACTORS
330
2C9F
102
}
330
2C9F
100
AcDbXrecord
340
0
  0
XRECORD
  5
2CAF
102
{ACAD_REACTORS
330
2C9F
102
}
330
2C9F
100
AcDbXrecord
 70
     0
  0
XRECORD
  5
2CA3
102
{ACAD_REACTORS
330
2C9F
102
}
330
2C9F
100
AcDbXrecord
  1

  0
XRECORD
  5
2CA0
102
{ACAD_REACTORS
330
2C9F
102
}
330
2C9F
100
AcDbXrecord
 90
        1
  0
XRECORD
  5
2CA1
102
{ACAD_REACTORS
330
2C9F
102
}
330
2C9F
100
AcDbXrecord
 90
       70
  0
XRECORD
  5
2CB9
102
{ACAD_REACTORS
330
2C9F
102
}
330
2C9F
100
AcDbXrecord
340
0
  0
XRECORD
  5
2CBF
102
{ACAD_REACTORS
330
2C9F
102
}
330
2C9F
100
AcDbXrecord
 10
0.0
 20
0.0
 30
0.0
  0
XRECORD
  5
2CBB
102
{ACAD_REACTORS
330
2C9F
102
}
330
2C9F
100
AcDbXrecord
 10
0.0
 20
0.0
 30
0.0
  0
XRECORD
  5
2CBE
102
{ACAD_REACTORS
330
2C9F
102
}
330
2C9F
100
AcDbXrecord
 10
0.0
 20
0.0
 30
0.0
  0
XRECORD
  5
2CBC
102
{ACAD_REACTORS
330
2C9F
102
}
330
2C9F
100
AcDbXrecord
 10
0.0
 20
0.0
 30
0.0
  0
XRECORD
  5
2CBD
102
{ACAD_REACTORS
330
2C9F
102
}
330
2C9F
100
AcDbXrecord
 10
0.0
 20
0.0
 30
0.0
  0
XRECORD
  5
2CBA
102
{ACAD_REACTORS
330
2C9F
102
}
330
2C9F
100
AcDbXrecord
 10
0.0
 20
0.0
 30
0.0
  0
XRECORD
  5
2CB7
102
{ACAD_REACTORS
330
2C9F
102
}
330
2C9F
100
AcDbXrecord
340
0
  0
XRECORD
  5
2CB8
102
{ACAD_REACTORS
330
2C9F
102
}
330
2C9F
100
AcDbXrecord
 70
     0
  0
XRECORD
  5
2CAB
102
{ACAD_REACTORS
330
2C9F
102
}
330
2C9F
100
AcDbXrecord
  1
{3A7EC149-5DFF-11D6-B7D2-00B0D0207C23}
  0
ENDSEC
  0
EOF
