  0
SECTION
  2
HEADER
  9
$ACADVER
  1
AC1015
  9
$ACADMAINTVER
 70
     6
  9
$DWGCODEPAGE
  3
ANSI_1252
  9
$INSBASE
 10
0.0
 20
0.0
 30
0.0
  9
$EXTMIN
 10
-0.5
 20
-0.5
 30
-0.5
  9
$EXTMAX
 10
5.0
 20
5.0
 30
5.0
  9
$LIMMIN
 10
-0.5
 20
-0.5
  9
$LIMMAX
 10
5.0
 20
5.0
  9
$ORTHOMODE
 70
     0
  9
$REGENMODE
 70
     1
  9
$FILLMODE
 70
     1
  9
$QTEXTMODE
 70
     0
  9
$MIRRTEXT
 70
     1
  9
$LTSCALE
 40
1.0
  9
$ATTMODE
 70
     1
  9
$TEXTSIZE
 40
0.2
  9
$TRACEWID
 40
0.05
  9
$TEXTSTYLE
  7
Standard
  9
$CLAYER
  8
0
  9
$CELTYPE
  6
Continuous
  9
$CECOLOR
 62
   256
  9
$CELTSCALE
 40
1.0
  9
$DISPSILH
 70
     0
  9
$DIMSCALE
 40
1.0
  9
$DIMASZ
 40
0.18
  9
$DIMEXO
 40
0.0625
  9
$DIMDLI
 40
0.38
  9
$DIMRND
 40
0.0
  9
$DIMDLE
 40
0.0
  9
$DIMEXE
 40
0.18
  9
$DIMTP
 40
0.0
  9
$DIMTM
 40
0.0
  9
$DIMTXT
 40
0.18
  9
$DIMCEN
 40
0.09
  9
$DIMTSZ
 40
0.0
  9
$DIMTOL
 70
     0
  9
$DIMLIM
 70
     0
  9
$DIMTIH
 70
     1
  9
$DIMTOH
 70
     1
  9
$DIMSE1
 70
     0
  9
$DIMSE2
 70
     0
  9
$DIMTAD
 70
     0
  9
$DIMZIN
 70
     0
  9
$DIMBLK
  1

  9
$DIMASO
 70
     1
  9
$DIMSHO
 70
     1
  9
$DIMPOST
  1

  9
$DIMAPOST
  1

  9
$DIMALT
 70
     0
  9
$DIMALTD
 70
     2
  9
$DIMALTF
 40
25.4
  9
$DIMLFAC
 40
1.0
  9
$DIMTOFL
 70
     0
  9
$DIMTVP
 40
0.0
  9
$DIMTIX
 70
     0
  9
$DIMSOXD
 70
     0
  9
$DIMSAH
 70
     0
  9
$DIMBLK1
  1

  9
$DIMBLK2
  1

  9
$DIMSTYLE
  2
Standard
  9
$DIMCLRD
 70
     0
  9
$DIMCLRE
 70
     0
  9
$DIMCLRT
 70
     0
  9
$DIMTFAC
 40
1.0
  9
$DIMGAP
 40
0.09
  9
$DIMJUST
 70
     0
  9
$DIMSD1
 70
     0
  9
$DIMSD2
 70
     0
  9
$DIMTOLJ
 70
     1
  9
$DIMTZIN
 70
     0
  9
$DIMALTZ
 70
     0
  9
$DIMALTTZ
 70
     0
  9
$DIMUPT
 70
     0
  9
$DIMDEC
 70
     4
  9
$DIMTDEC
 70
     4
  9
$DIMALTU
 70
     2
  9
$DIMALTTD
 70
     2
  9
$DIMTXSTY
  7
Standard
  9
$DIMAUNIT
 70
     0
  9
$DIMADEC
 70
     0
  9
$DIMALTRND
 40
0.0
  9
$DIMAZIN
 70
     0
  9
$DIMDSEP
 70
     0
  9
$DIMATFIT
 70
     3
  9
$DIMFRAC
 70
     0
  9
$DIMLDRBLK
  1

  9
$DIMLUNIT
 70
     2
  9
$DIMLWD
 70
     0
  9
$DIMLWE
 70
     0
  9
$DIMTMOVE
 70
     0
  9
$LUNITS
 70
     2
  9
$LUPREC
 70
     4
  9
$SKETCHINC
 40
0.1
  9
$FILLETRAD
 40
0.0
  9
$AUNITS
 70
     0
  9
$AUPREC
 70
     0
  9
$MENU
  1
acad
  9
$ELEVATION
 40
0.0
  9
$PELEVATION
 40
0.0
  9
$THICKNESS
 40
0.0
  9
$LIMCHECK
 70
     0
  9
$CHAMFERA
 40
0.0
  9
$CHAMFERB
 40
0.0
  9
$CHAMFERC
 40
0.0
  9
$CHAMFERD
 40
0.0
  9
$SKPOLY
 70
     0
  9
$TDCREATE
 40
0.000000000
  9
$TDUCREATE
 40
0.000000000
  9
$TDUPDATE
 40
0.000000000
  9
$TDUUPDATE
 40
0.000000000
  9
$TDINDWG
 40
0.0000000000
  9
$TDUSRTIMER
 40
0.0000000000
  9
$USRTIMER
 70
     1
  9
$ANGBASE
 50
0.0
  9
$ANGDIR
 70
     0
  9
$PDMODE
 70
     0
  9
$PDSIZE
 40
0.0
  9
$PLINEWID
 40
0.0
  9
$SPLFRAME
 70
     0
  9
$SPLINETYPE
 70
     6
  9
$SPLINESEGS
 70
     8
  9
$HANDSEED
  5
58B
  9
$SURFTAB1
 70
     6
  9
$SURFTAB2
 70
     6
  9
$SURFTYPE
 70
     6
  9
$SURFU
 70
     6
  9
$SURFV
 70
     6
  9
$UCSBASE
  2

  9
$UCSNAME
  2

  9
$UCSORG
 10
0.0
 20
0.0
 30
0.0
  9
$UCSXDIR
 10
1.0
 20
0.0
 30
0.0
  9
$UCSYDIR
 10
0.0
 20
1.0
 30
0.0
  9
$UCSORTHOREF
  2

  9
$UCSORTHOVIEW
 70
     0
  9
$UCSORGTOP
 10
0.0
 20
0.0
 30
0.0
  9
$UCSORGBOTTOM
 10
0.0
 20
0.0
 30
0.0
  9
$UCSORGLEFT
 10
0.0
 20
0.0
 30
0.0
  9
$UCSORGRIGHT
 10
0.0
 20
0.0
 30
0.0
  9
$UCSORGFRONT
 10
0.0
 20
0.0
 30
0.0
  9
$UCSORGBACK
 10
0.0
 20
0.0
 30
0.0
  9
$PUCSBASE
  2

  9
$PUCSNAME
  2

  9
$PUCSORG
 10
0.0
 20
0.0
 30
0.0
  9
$PUCSXDIR
 10
1.0
 20
0.0
 30
0.0
  9
$PUCSYDIR
 10
0.0
 20
1.0
 30
0.0
  9
$PUCSORTHOREF
  2

  9
$PUCSORTHOVIEW
 70
     0
  9
$PUCSORGTOP
 10
0.0
 20
0.0
 30
0.0
  9
$PUCSORGBOTTOM
 10
0.0
 20
0.0
 30
0.0
  9
$PUCSORGLEFT
 10
0.0
 20
0.0
 30
0.0
  9
$PUCSORGRIGHT
 10
0.0
 20
0.0
 30
0.0
  9
$PUCSORGFRONT
 10
0.0
 20
0.0
 30
0.0
  9
$PUCSORGBACK
 10
0.0
 20
0.0
 30
0.0
  9
$USERI1
 70
     0
  9
$USERI2
 70
     0
  9
$USERI3
 70
     0
  9
$USERI4
 70
     0
  9
$USERI5
 70
     0
  9
$USERR1
 40
0.0
  9
$USERR2
 40
0.0
  9
$USERR3
 40
0.0
  9
$USERR4
 40
0.0
  9
$USERR5
 40
0.0
  9
$WORLDVIEW
 70
     1
  9
$SHADEDGE
 70
     3
  9
$SHADEDIF
 70
    70
  9
$TILEMODE
 70
     0
  9
$MAXACTVP
 70
    64
  9
$PINSBASE
 10
0.0
 20
0.0
 30
0.0
  9
$PLIMCHECK
 70
     0
  9
$PEXTMIN
 10
-0.5
 20
-0.5
 30
-0.5
  9
$PEXTMAX
 10
5.0
 20
5.0
 30
5.0
  9
$PLIMMIN
 10
-0.5
 20
-0.5
  9
$PLIMMAX
 10
5.0
 20
5.0
  9
$UNITMODE
 70
     0
  9
$VISRETAIN
 70
     0
  9
$PLINEGEN
 70
     1
  9
$PSLTSCALE
 70
     0
  9
$TREEDEPTH
 70
  3020
  9
$CMLSTYLE
  2
Standard
  9
$CMLJUST
 70
     0
  9
$CMLSCALE
 40
1.0
  9
$PROXYGRAPHICS
 70
     0
  9
$MEASUREMENT
 70
     0
  9
$CELWEIGHT
370
     0
  9
$ENDCAPS
280
     0
  9
$JOINSTYLE
280
     0
  9
$LWDISPLAY
290
     0
  9
$INSUNITS
 70
     0
  9
$HYPERLINKBASE
  1

  9
$STYLESHEET
  1

  9
$XEDIT
290
     1
  9
$CEPSNTYPE
380
     0
  9
$PSTYLEMODE
290
     1
  9
$FINGERPRINTGUID
  2

  9
$VERSIONGUID
  2

  9
$EXTNAMES
290
     1
  9
$PSVPSCALE
 40
0.0
  0
ENDSEC
  0
SECTION
  2
CLASSES
  0
CLASS
  1
LWPOLYLINE
  2
AcDbPolyline
  3
AutoCAD 2000
 90
        0
280
     0
281
     1
  0
CLASS
  1
IMAGE
  2
AcDbRasterImage
  3
ISM
 90
      127
280
     0
281
     1
  0
CLASS
  1
OLE2FRAME
  2
AcDbOle2Frame
  3
AutoCAD 2000
 90
        0
280
     0
281
     1
  0
CLASS
  1
HATCH
  2
AcDbHatch
  3
AutoCAD 2000
 90
        0
280
     0
281
     1
  0
CLASS
  1
DICTIONARYVAR
  2
AcDbDictionaryVar
  3
AutoCAD 2000
 90
        0
280
     0
281
     0
  0
CLASS
  1
RASTERVARIABLES
  2
AcDbRasterVariables
  3
ISM
 90
        0
280
     0
281
     0
  0
CLASS
  1
IMAGEDEF
  2
AcDbRasterImageDef
  3
ISM
 90
        0
280
     0
281
     0
  0
CLASS
  1
IMAGEDEF_REACTOR
  2
AcDbRasterImageDefReactor
  3
ISM
 90
        1
280
     0
281
     0
  0
CLASS
  1
IDBUFFER
  2
AcDbIdBuffer
  3
AutoCAD 2000
 90
        0
280
     0
281
     0
  0
CLASS
  1
SPATIAL_FILTER
  2
AcDbSpatialFilter
  3
AutoCAD 2000
 90
        0
280
     0
281
     0
  0
CLASS
  1
XRECORD
  2
AcDbXrecord
  3
AutoCAD 2000
 90
        0
280
     0
281
     0
  0
CLASS
  1
SORTENTSTABLE
  2
AcDbSortentsTable
  3
AutoCAD 2000
 90
        0
280
     0
281
     0
  0
CLASS
  1
LAYER_INDEX
  2
AcDbLayerIndex
  3
AutoCAD 2000
 90
        0
280
     0
281
     0
  0
CLASS
  1
SPATIAL_INDEX
  2
AcDbSpatialIndex
  3
AutoCAD 2000
 90
        0
280
     0
281
     0
  0
CLASS
  1
OBJECT_PTR
  2
CAseDLPNTableRecord
  3
"ASE-LPNTableRecord"
 90
        1
280
     0
281
     0
  0
CLASS
  1
LAYOUT
  2
AcDbLayout
  3
AutoCAD 2000
 90
        0
280
     0
281
     0
  0
CLASS
  1
PLOTSETTINGS
  2
AcDbPlotSettings
  3
AutoCAD 2000
 90
        0
280
     0
281
     0
  0
CLASS
  1
ACDBDICTIONARYWDFLT
  2
AcDbDictionaryWithDefault
  3
AutoCAD 2000
 90
        0
280
     0
281
     0
  0
CLASS
  1
ACDBPLACEHOLDER
  2
AcDbPlaceHolder
  3
AutoCAD 2000
 90
        0
280
     0
281
     0
  0
CLASS
  1
VBA_PROJECT
  2
AcDbVbaProject
  3
acadvba
 90
        0
280
     0
281
     0
  0
CLASS
  1
WIPEOUT
  2
AcDbWipeout
  3
WipeOut|AutoCAD Express Tool|expresstools@autodesk.com
 90
      127
280
     0
281
     1
  0
CLASS
  1
WIPEOUTVARIABLES
  2
AcDbWipeoutVariables
  3
WipeOut|AutoCAD Express Tool|expresstools@autodesk.com
 90
        0
280
     0
281
     0
  0
CLASS
  1
RTEXT
  2
RText
  3
RText|AutoCAD Express Tool|expresstools@autodesk.com
 90
        0
280
     0
281
     1
  0
CLASS
  1
ARCALIGNEDTEXT
  2
AcDbArcAlignedText
  3
ATEXT|AutoCAD Express Tool|expresstools@autodesk.com
 90
        0
280
     0
281
     1
  0
ENDSEC
  0
SECTION
  2
TABLES
  0
TABLE
  2
VPORT
  5
7
100
AcDbSymbolTable
 70
    16
  0
VPORT
  5
57B
100
AcDbSymbolTableRecord
100
AcDbViewportTableRecord
  2
*ACTIVE
 70
     0
 10
0.0
 20
0.0
 11
1.0
 21
1.0
 12
0.0
 22
0.0
 13
0.0
 23
0.0
 14
1.0
 24
1.0
 15
0.0
 25
0.0
 16
0.718873
 26
-0.585049
 36
0.375419
 17
0.0
 27
0.0
 37
0.0
 40
62.699059
 41
0.688564
 42
50.0
 43
31.026683
 44
-31.026683
 50
0.0
 51
0.0
 71
    16
 72
   100
 73
     1
 74
     1
 75
     0
 76
     0
 77
     0
 78
     0
281
     0
 65
     0
110
0.0
120
0.0
130
0.0
111
1.0
121
0.0
131
0.0
112
0.0
122
1.0
132
0.0
345
0
346
0
 79
     0
146
0.0
  0
VPORT
  5
57C
100
AcDbSymbolTableRecord
100
AcDbViewportTableRecord
  2
L1
 70
     0
 10
0.0
 20
0.0
 11
1.0
 21
1.0
 12
0.0
 22
0.0
 13
0.0
 23
0.0
 14
1.0
 24
1.0
 15
0.0
 25
0.0
 16
0.718873
 26
-0.585049
 36
0.375419
 17
0.0
 27
0.0
 37
0.0
 40
62.699059
 41
0.688564
 42
50.0
 43
31.026683
 44
-31.026683
 50
0.0
 51
0.0
 71
    16
 72
   100
 73
     1
 74
     1
 75
     0
 76
     0
 77
     0
 78
     0
281
     0
 65
     0
110
0.0
120
0.0
130
0.0
111
1.0
121
0.0
131
0.0
112
0.0
122
1.0
132
0.0
345
0
346
0
 79
     0
146
0.0
  0
VPORT
  5
57D
100
AcDbSymbolTableRecord
100
AcDbViewportTableRecord
  2
L2
 70
     0
 10
0.0
 20
0.0
 11
0.5
 21
1.0
 12
0.0
 22
0.0
 13
0.0
 23
0.0
 14
1.0
 24
1.0
 15
0.0
 25
0.0
 16
0.0
 26
-1.0
 36
0.0
 17
0.0
 27
0.0
 37
0.0
 40
60.53987
 41
0.688564
 42
50.0
 43
31.139635
 44
-31.139635
 50
0.0
 51
0.0
 71
    16
 72
   100
 73
     1
 74
     1
 75
     0
 76
     0
 77
     0
 78
     0
281
     0
 65
     0
110
0.0
120
0.0
130
0.0
111
1.0
121
0.0
131
0.0
112
0.0
122
1.0
132
0.0
345
0
346
0
 79
     0
146
0.0
  0
VPORT
  5
57E
100
AcDbSymbolTableRecord
100
AcDbViewportTableRecord
  2
L2
 70
     0
 10
0.5
 20
0.0
 11
1.0
 21
1.0
 12
0.0
 22
0.0
 13
0.0
 23
0.0
 14
1.0
 24
1.0
 15
0.0
 25
0.0
 16
1.0
 26
0.0
 36
0.0
 17
0.0
 27
0.0
 37
0.0
 40
60.53987
 41
0.688564
 42
50.0
 43
30.667064
 44
-30.667064
 50
0.0
 51
0.0
 71
    16
 72
   100
 73
     1
 74
     1
 75
     0
 76
     0
 77
     0
 78
     0
281
     0
 65
     0
110
0.0
120
0.0
130
0.0
111
1.0
121
0.0
131
0.0
112
0.0
122
1.0
132
0.0
345
0
346
0
 79
     0
146
0.0
  0
VPORT
  5
57F
100
AcDbSymbolTableRecord
100
AcDbViewportTableRecord
  2
L3
 70
     0
 10
0.0
 20
0.5
 11
1.0
 21
1.0
 12
0.0
 22
0.0
 13
0.0
 23
0.0
 14
1.0
 24
1.0
 15
0.0
 25
0.0
 16
0.0
 26
0.0
 36
1.0
 17
0.0
 27
0.0
 37
0.0
 40
9.838675
 41
0.688564
 42
50.0
 43
30.269935
 44
-30.269935
 50
0.0
 51
0.0
 71
    16
 72
   100
 73
     1
 74
     1
 75
     0
 76
     0
 77
     0
 78
     0
281
     0
 65
     0
110
0.0
120
0.0
130
0.0
111
1.0
121
0.0
131
0.0
112
0.0
122
1.0
132
0.0
345
0
346
0
 79
     0
146
0.0
  0
VPORT
  5
580
100
AcDbSymbolTableRecord
100
AcDbViewportTableRecord
  2
L3
 70
     0
 10
0.0
 20
0.0
 11
1.0
 21
0.5
 12
0.0
 22
0.0
 13
0.0
 23
0.0
 14
1.0
 24
1.0
 15
0.0
 25
0.0
 16
0.0
 26
-1.0
 36
0.0
 17
0.0
 27
0.0
 37
0.0
 40
60.53987
 41
0.688564
 42
50.0
 43
31.139635
 44
-31.139635
 50
0.0
 51
0.0
 71
    16
 72
   100
 73
     1
 74
     1
 75
     0
 76
     0
 77
     0
 78
     0
281
     0
 65
     0
110
0.0
120
0.0
130
0.0
111
1.0
121
0.0
131
0.0
112
0.0
122
1.0
132
0.0
345
0
346
0
 79
     0
146
0.0
  0
VPORT
  5
581
100
AcDbSymbolTableRecord
100
AcDbViewportTableRecord
  2
L4
 70
     0
 10
0.0
 20
0.5
 11
0.5
 21
1.0
 12
0.0
 22
0.0
 13
0.0
 23
0.0
 14
1.0
 24
1.0
 15
0.0
 25
0.0
 16
0.0
 26
0.0
 36
1.0
 17
0.0
 27
0.0
 37
0.0
 40
9.838675
 41
0.688564
 42
50.0
 43
30.269935
 44
-30.269935
 50
0.0
 51
0.0
 71
    16
 72
   100
 73
     1
 74
     1
 75
     0
 76
     0
 77
     0
 78
     0
281
     0
 65
     0
110
0.0
120
0.0
130
0.0
111
1.0
121
0.0
131
0.0
112
0.0
122
1.0
132
0.0
345
0
346
0
 79
     0
146
0.0
  0
VPORT
  5
582
100
AcDbSymbolTableRecord
100
AcDbViewportTableRecord
  2
L4
 70
     0
 10
0.0
 20
0.0
 11
0.5
 21
0.5
 12
0.0
 22
0.0
 13
0.0
 23
0.0
 14
1.0
 24
1.0
 15
0.0
 25
0.0
 16
0.0
 26
-1.0
 36
0.0
 17
0.0
 27
0.0
 37
0.0
 40
60.53987
 41
0.688564
 42
50.0
 43
31.139635
 44
-31.139635
 50
0.0
 51
0.0
 71
    16
 72
   100
 73
     1
 74
     1
 75
     0
 76
     0
 77
     0
 78
     0
281
     0
 65
     0
110
0.0
120
0.0
130
0.0
111
1.0
121
0.0
131
0.0
112
0.0
122
1.0
132
0.0
345
0
346
0
 79
     0
146
0.0
  0
VPORT
  5
583
100
AcDbSymbolTableRecord
100
AcDbViewportTableRecord
  2
L4
 70
     0
 10
0.5
 20
0.0
 11
1.0
 21
0.5
 12
0.0
 22
0.0
 13
0.0
 23
0.0
 14
1.0
 24
1.0
 15
0.0
 25
0.0
 16
1.0
 26
0.0
 36
0.0
 17
0.0
 27
0.0
 37
0.0
 40
60.53987
 41
0.688564
 42
50.0
 43
30.667064
 44
-30.667064
 50
0.0
 51
0.0
 71
    16
 72
   100
 73
     1
 74
     1
 75
     0
 76
     0
 77
     0
 78
     0
281
     0
 65
     0
110
0.0
120
0.0
130
0.0
111
1.0
121
0.0
131
0.0
112
0.0
122
1.0
132
0.0
345
0
346
0
 79
     0
146
0.0
  0
VPORT
  5
584
100
AcDbSymbolTableRecord
100
AcDbViewportTableRecord
  2
L4
 70
     0
 10
0.5
 20
0.5
 11
1.0
 21
1.0
 12
0.0
 22
0.0
 13
0.0
 23
0.0
 14
1.0
 24
1.0
 15
0.0
 25
0.0
 16
0.57735
 26
-0.57735
 36
0.57735
 17
0.0
 27
0.0
 37
0.0
 40
59.414234
 41
0.688564
 42
50.0
 43
30.939741
 44
-30.939741
 50
0.0
 51
0.0
 71
    16
 72
   100
 73
     1
 74
     1
 75
     0
 76
     0
 77
     0
 78
     0
281
     0
 65
     0
110
0.0
120
0.0
130
0.0
111
1.0
121
0.0
131
0.0
112
0.0
122
1.0
132
0.0
345
0
346
0
 79
     0
146
0.0
  0
VPORT
  5
585
100
AcDbSymbolTableRecord
100
AcDbViewportTableRecord
  2
L6
 70
     0
 10
0.0
 20
0.5
 11
0.333333
 21
1.0
 12
0.0
 22
0.0
 13
0.0
 23
0.0
 14
1.0
 24
1.0
 15
0.0
 25
0.0
 16
0.718873
 26
-0.585049
 36
0.375419
 17
0.0
 27
0.0
 37
0.0
 40
62.699059
 41
0.688564
 42
50.0
 43
31.026683
 44
-31.026683
 50
0.0
 51
0.0
 71
    16
 72
   100
 73
     1
 74
     1
 75
     0
 76
     0
 77
     0
 78
     0
281
     0
 65
     0
110
0.0
120
0.0
130
0.0
111
1.0
121
0.0
131
0.0
112
0.0
122
1.0
132
0.0
345
0
346
0
 79
     0
146
0.0
  0
VPORT
  5
586
100
AcDbSymbolTableRecord
100
AcDbViewportTableRecord
  2
L6
 70
     0
 10
0.0
 20
0.0
 11
0.333333
 21
0.5
 12
0.0
 22
0.0
 13
0.0
 23
0.0
 14
1.0
 24
1.0
 15
0.0
 25
0.0
 16
-1.0
 26
0.0
 36
0.0
 17
0.0
 27
0.0
 37
0.0
 40
60.53987
 41
0.688564
 42
50.0
 43
30.667064
 44
-30.667064
 50
0.0
 51
0.0
 71
    16
 72
   100
 73
     1
 74
     1
 75
     0
 76
     0
 77
     0
 78
     0
281
     0
 65
     0
110
0.0
120
0.0
130
0.0
111
1.0
121
0.0
131
0.0
112
0.0
122
1.0
132
0.0
345
0
346
0
 79
     0
146
0.0
  0
VPORT
  5
587
100
AcDbSymbolTableRecord
100
AcDbViewportTableRecord
  2
L6
 70
     0
 10
0.333333
 20
0.5
 11
0.666667
 21
1.0
 12
0.0
 22
0.0
 13
0.0
 23
0.0
 14
1.0
 24
1.0
 15
0.0
 25
0.0
 16
0.0
 26
0.0
 36
1.0
 17
0.0
 27
0.0
 37
0.0
 40
9.838675
 41
0.688564
 42
50.0
 43
30.269935
 44
-30.269935
 50
0.0
 51
0.0
 71
    16
 72
   100
 73
     1
 74
     1
 75
     0
 76
     0
 77
     0
 78
     0
281
     0
 65
     0
110
0.0
120
0.0
130
0.0
111
1.0
121
0.0
131
0.0
112
0.0
122
1.0
132
0.0
345
0
346
0
 79
     0
146
0.0
  0
VPORT
  5
588
100
AcDbSymbolTableRecord
100
AcDbViewportTableRecord
  2
L6
 70
     0
 10
0.333333
 20
0.0
 11
0.666667
 21
0.5
 12
0.0
 22
0.0
 13
0.0
 23
0.0
 14
1.0
 24
1.0
 15
0.0
 25
0.0
 16
0.0
 26
-1.0
 36
0.0
 17
0.0
 27
0.0
 37
0.0
 40
60.53987
 41
0.688564
 42
50.0
 43
31.139635
 44
-31.139635
 50
0.0
 51
0.0
 71
    16
 72
   100
 73
     1
 74
     1
 75
     0
 76
     0
 77
     0
 78
     0
281
     0
 65
     0
110
0.0
120
0.0
130
0.0
111
1.0
121
0.0
131
0.0
112
0.0
122
1.0
132
0.0
345
0
346
0
 79
     0
146
0.0
  0
VPORT
  5
589
100
AcDbSymbolTableRecord
100
AcDbViewportTableRecord
  2
L6
 70
     0
 10
0.666667
 20
0.5
 11
1.0
 21
1.0
 12
0.0
 22
0.0
 13
0.0
 23
0.0
 14
1.0
 24
1.0
 15
0.0
 25
0.0
 16
0.57735
 26
-0.57735
 36
0.57735
 17
0.0
 27
0.0
 37
0.0
 40
59.414234
 41
0.688564
 42
50.0
 43
30.939741
 44
-30.939741
 50
0.0
 51
0.0
 71
    16
 72
   100
 73
     1
 74
     1
 75
     0
 76
     0
 77
     0
 78
     0
281
     0
 65
     0
110
0.0
120
0.0
130
0.0
111
1.0
121
0.0
131
0.0
112
0.0
122
1.0
132
0.0
345
0
346
0
 79
     0
146
0.0
  0
VPORT
  5
58A
100
AcDbSymbolTableRecord
100
AcDbViewportTableRecord
  2
L6
 70
     0
 10
0.666667
 20
0.0
 11
1.0
 21
0.5
 12
0.0
 22
0.0
 13
0.0
 23
0.0
 14
1.0
 24
1.0
 15
0.0
 25
0.0
 16
1.0
 26
0.0
 36
0.0
 17
0.0
 27
0.0
 37
0.0
 40
60.53987
 41
0.688564
 42
50.0
 43
30.667064
 44
-30.667064
 50
0.0
 51
0.0
 71
    16
 72
   100
 73
     1
 74
     1
 75
     0
 76
     0
 77
     0
 78
     0
281
     0
 65
     0
110
0.0
120
0.0
130
0.0
111
1.0
121
0.0
131
0.0
112
0.0
122
1.0
132
0.0
345
0
346
0
 79
     0
146
0.0
  0
ENDTAB
  0
TABLE
  2
LTYPE
  5
4
100
AcDbSymbolTable
 70
     9
  0
LTYPE
  5
11
100
AcDbSymbolTableRecord
100
AcDbLinetypeTableRecord
  2
ByBlock
 70
    64
  3

 72
    65
 73
     0
 40
0.0
  0
LTYPE
  5
12
100
AcDbSymbolTableRecord
100
AcDbLinetypeTableRecord
  2
ByLayer
 70
    64
  3

 72
    65
 73
     0
 40
0.0
  0
LTYPE
  5
13
100
AcDbSymbolTableRecord
100
AcDbLinetypeTableRecord
  2
Continuous
 70
    64
  3
Solid line
 72
    65
 73
     0
 40
0.0
  0
LTYPE
  5
24
100
AcDbSymbolTableRecord
100
AcDbLinetypeTableRecord
  2
DASHED
 70
    64
  3
__ __ __ __ __ __ __ __ __
 72
    65
 73
     2
 40
25.72
 49
12.86
 74
     0
 49
-12.86
 74
     0
  0
LTYPE
  5
25
100
AcDbSymbolTableRecord
100
AcDbLinetypeTableRecord
  2
HIDDEN
 70
    64
  3
_ _ _ _ _ _ _ _ _ _ _ _ _ _ _
 72
    65
 73
     2
 40
0.5
 49
0.25
 74
     0
 49
-0.25
 74
     0
  0
LTYPE
  5
26
100
AcDbSymbolTableRecord
100
AcDbLinetypeTableRecord
  2
PHANTOM
 70
    64
  3
____ _ _ ____ _ _ _____ _ _ ____
 72
    65
 73
     6
 40
50.5
 49
18.0
 74
     0
 49
-6.5
 74
     0
 49
6.5
 74
     0
 49
-6.5
 74
     0
 49
6.5
 74
     0
 49
-6.5
 74
     0
  0
LTYPE
  5
27
100
AcDbSymbolTableRecord
100
AcDbLinetypeTableRecord
  2
CENTER
 70
    64
  3
____ _ ____ _ ____ _ ____
 72
    65
 73
     4
 40
47.5
 49
22.0
 74
     0
 49
-8.5
 74
     0
 49
8.5
 74
     0
 49
-8.5
 74
     0
  0
LTYPE
  5
28
100
AcDbSymbolTableRecord
100
AcDbLinetypeTableRecord
  2
DOT
 70
    64
  3
.........................
 72
    65
 73
     2
 40
10.0
 49
0.0
 74
     0
 49
-10.0
 74
     0
  0
LTYPE
  5
29
100
AcDbSymbolTableRecord
100
AcDbLinetypeTableRecord
  2
DASHDOT
 70
    64
  3
_._._._._._._._._._._._._._._._.
 72
    65
 73
     4
 40
70.0
 49
31.0
 74
     0
 49
-13.0
 74
     0
 49
13.0
 74
     0
 49
-13.0
 74
     0
  0
ENDTAB
  0
TABLE
  2
LAYER
  5
2
100
AcDbSymbolTable
 70
     2
  0
LAYER
  5
14
100
AcDbSymbolTableRecord
100
AcDbLayerTableRecord
  2
0
 70
     0
 62
     7
  6
Continuous
290
     1
370
    -3
390
1D
  0
LAYER
  5
2B
100
AcDbSymbolTableRecord
100
AcDbLayerTableRecord
  2
TFR-TRI
 70
     0
 62
     7
  6
Continuous
290
     1
370
    -3
390
1D
  0
ENDTAB
  0
TABLE
  2
STYLE
  5
3
100
AcDbSymbolTable
 70
     2
  0
STYLE
  5
17
100
AcDbSymbolTableRecord
100
AcDbTextStyleTableRecord
  2
Standard
 70
     0
 40
0.0
 41
1.0
 50
0.0
 71
     0
 42
0.0
  3
txt
  4

  0
STYLE
  5
519
100
AcDbSymbolTableRecord
100
AcDbTextStyleTableRecord
  2
blockfont
 70
     0
 40
0.0
 41
1.0
 50
0.0
 71
     0
 42
0.2
  3
simplex.shx
  4

  0
ENDTAB
  0
TABLE
  2
VIEW
  5
5
100
AcDbSymbolTable
 70
     8
  0
VIEW
  5
573
100
AcDbSymbolTableRecord
100
AcDbViewTableRecord
  2
TOP
 70
     0
 40
9.838675
 10
0.0
 20
0.0
 41
14.616142
 11
0.0
 21
0.0
 31
1.0
 12
0.0
 22
0.0
 32
0.0
 42
50.0
 43
30.269935
 44
-30.269935
 50
0.0
 71
    16
281
     0
 72
     0
110
0.0
120
0.0
130
0.0
111
1.0
121
0.0
131
0.0
112
0.0
122
1.0
132
0.0
  0
VIEW
  5
574
100
AcDbSymbolTableRecord
100
AcDbViewTableRecord
  2
FRONT
 70
     0
 40
60.53987
 10
0.0
 20
0.0
 41
14.616142
 11
0.0
 21
-1.0
 31
0.0
 12
0.0
 22
0.0
 32
0.0
 42
50.0
 43
31.139635
 44
-31.139635
 50
0.0
 71
    16
281
     0
 72
     0
110
0.0
120
0.0
130
0.0
111
1.0
121
0.0
131
0.0
112
0.0
122
1.0
132
0.0
  0
VIEW
  5
575
100
AcDbSymbolTableRecord
100
AcDbViewTableRecord
  2
RIGHT
 70
     0
 40
60.53987
 10
0.0
 20
0.0
 41
9.838675
 11
1.0
 21
0.0
 31
0.0
 12
0.0
 22
0.0
 32
0.0
 42
50.0
 43
30.667064
 44
-30.667064
 50
0.0
 71
    16
281
     0
 72
     0
110
0.0
120
0.0
130
0.0
111
1.0
121
0.0
131
0.0
112
0.0
122
1.0
132
0.0
  0
VIEW
  5
576
100
AcDbSymbolTableRecord
100
AcDbViewTableRecord
  2
BACK
 70
     0
 40
60.53987
 10
0.0
 20
0.0
 41
14.616142
 11
0.0
 21
1.0
 31
0.0
 12
0.0
 22
0.0
 32
0.0
 42
50.0
 43
31.139635
 44
-31.139635
 50
0.0
 71
    16
281
     0
 72
     0
110
0.0
120
0.0
130
0.0
111
1.0
121
0.0
131
0.0
112
0.0
122
1.0
132
0.0
  0
VIEW
  5
577
100
AcDbSymbolTableRecord
100
AcDbViewTableRecord
  2
BOTTOM
 70
     0
 40
9.838675
 10
0.0
 20
0.0
 41
14.616142
 11
0.0
 21
0.0
 31
-1.0
 12
0.0
 22
0.0
 32
0.0
 42
50.0
 43
30.269935
 44
-30.269935
 50
180.0
 71
    16
281
     0
 72
     0
110
0.0
120
0.0
130
0.0
111
1.0
121
0.0
131
0.0
112
0.0
122
1.0
132
0.0
  0
VIEW
  5
578
100
AcDbSymbolTableRecord
100
AcDbViewTableRecord
  2
LEFT
 70
     0
 40
60.53987
 10
0.0
 20
0.0
 41
9.838675
 11
-1.0
 21
0.0
 31
0.0
 12
0.0
 22
0.0
 32
0.0
 42
50.0
 43
30.667064
 44
-30.667064
 50
0.0
 71
    16
281
     0
 72
     0
110
0.0
120
0.0
130
0.0
111
1.0
121
0.0
131
0.0
112
0.0
122
1.0
132
0.0
  0
VIEW
  5
579
100
AcDbSymbolTableRecord
100
AcDbViewTableRecord
  2
TFR-ISO
 70
     0
 40
59.414234
 10
0.0
 20
0.0
 41
17.292167
 11
0.57735
 21
-0.57735
 31
0.57735
 12
0.0
 22
0.0
 32
0.0
 42
50.0
 43
30.939741
 44
-30.939741
 50
0.0
 71
    16
281
     0
 72
     0
110
0.0
120
0.0
130
0.0
111
1.0
121
0.0
131
0.0
112
0.0
122
1.0
132
0.0
  0
VIEW
  5
57A
100
AcDbSymbolTableRecord
100
AcDbViewTableRecord
  2
TFR-TRI
 70
     0
 40
62.699059
 10
0.0
 20
0.0
 41
16.856909
 11
0.718873
 21
-0.585049
 31
0.375419
 12
0.0
 22
0.0
 32
0.0
 42
50.0
 43
31.026683
 44
-31.026683
 50
0.0
 71
    16
281
     0
 72
     0
110
0.0
120
0.0
130
0.0
111
1.0
121
0.0
131
0.0
112
0.0
122
1.0
132
0.0
  0
ENDTAB
  0
TABLE
  2
UCS
  5
6
100
AcDbSymbolTable
 70
     0
  0
ENDTAB
  0
TABLE
  2
APPID
  5
8
100
AcDbSymbolTable
 70
     1
  0
APPID
  5
16
100
AcDbSymbolTableRecord
100
AcDbRegAppTableRecord
  2
ACAD
 70
     0
  0
ENDTAB
  0
TABLE
  2
DIMSTYLE
  5
9
100
AcDbSymbolTable
 70
     1
100
AcDbDimStyleTable
 71
     0
  0
DIMSTYLE
105
18
100
AcDbSymbolTableRecord
100
AcDbDimStyleTableRecord
  2
Standard
 70
     0
  3

  4

 40
1.0
 41
0.18
 42
0.0625
 43
0.38
 44
0.18
 45
0.0
 46
0.0
 47
0.0
 48
0.0
 71
     0
 72
     0
 73
     1
 74
     1
 75
     0
 76
     0
 77
     0
 78
     0
 79
     0
140
0.18
141
0.09
142
0.0
143
25.4
144
1.0
145
0.0
146
1.0
147
0.09
148
0.0
170
     0
171
     2
172
     0
173
     0
174
     0
175
     0
176
     0
177
     0
178
     0
179
     0
271
     4
272
     4
273
     2
274
     2
275
     0
276
     0
277
     2
278
    46
279
     0
280
     0
281
     0
282
     0
283
     1
284
     0
285
     0
286
     0
288
     0
289
     3
340
17
341
0
342
0
343
0
344
0
371
    -2
372
    -2
  0
ENDTAB
  0
TABLE
  2
BLOCK_RECORD
  5
1
100
AcDbSymbolTable
 70
     0
  0
BLOCK_RECORD
  5
A
100
AcDbSymbolTableRecord
100
AcDbBlockTableRecord
  2
*MODEL_SPACE
340
20
  0
BLOCK_RECORD
  5
B
100
AcDbSymbolTableRecord
100
AcDbBlockTableRecord
  2
*PAPER_SPACE
340
21
  0
ENDTAB
  0
ENDSEC
  0
SECTION
  2
BLOCKS
  0
BLOCK
  5
D
100
AcDbEntity
  8
0
390
0
100
AcDbBlockBegin
  2
*MODEL_SPACE
 70
     0
 10
0.0
 20
0.0
 30
0.0
  3
*MODEL_SPACE
  1

  0
ENDBLK
  5
E
100
AcDbEntity
  8
0
390
0
100
AcDbBlockEnd
  0
BLOCK
  5
F
100
AcDbEntity
 67
     1
  8
0
390
0
100
AcDbBlockBegin
  2
*PAPER_SPACE
 70
     0
 10
0.0
 20
0.0
 30
0.0
  3
*PAPER_SPACE
  1

  0
ENDBLK
  5
10
100
AcDbEntity
 67
     1
  8
0
390
0
100
AcDbBlockEnd
  0
ENDSEC
  0
SECTION
  2
ENTITIES
  0
LINE
  5
2A
100
AcDbEntity
  8
TFR-TRI
390
0
  6
Continuous
 62
    12
100
AcDbLine
 10
7.569328
 20
3.783763
 30
0.0
 11
7.554725
 21
3.779206
 31
0.0
  0
LINE
  5
2C
100
AcDbEntity
  8
TFR-TRI
390
0
  6
Continuous
 62
     3
100
AcDbLine
 10
3.828251
 20
5.990536
 30
0.0
 11
3.889806
 21
5.990536
 31
0.0
  0
LINE
  5
2D
100
AcDbEntity
  8
TFR-TRI
390
0
  6
Continuous
 62
    12
100
AcDbLine
 10
5.988793
 20
3.571263
 30
0.0
 11
5.99509
 21
3.578961
 31
0.0
  0
LINE
  5
2E
100
AcDbEntity
  8
TFR-TRI
390
0
  6
Continuous
 62
    12
100
AcDbLine
 10
2.755501
 20
6.218336
 30
0.0
 11
3.968251
 21
6.218336
 31
0.0
  0
LINE
  5
2F
100
AcDbEntity
  8
TFR-TRI
390
0
  6
Continuous
 62
     7
100
AcDbLine
 10
10.75
 20
2.804295
 30
0.0
 11
6.585438
 21
2.804295
 31
0.0
  0
LINE
  5
30
100
AcDbEntity
  8
TFR-TRI
390
0
  6
Continuous
 62
     3
100
AcDbLine
 10
4.4523
 20
7.468336
 30
0.0
 11
4.4523
 21
7.414245
 31
0.0
  0
LINE
  5
31
100
AcDbEntity
  8
TFR-TRI
390
0
  6
Continuous
 62
    12
100
AcDbLine
 10
7.603054
 20
4.176972
 30
0.0
 11
7.602168
 21
4.199088
 31
0.0
  0
LINE
  5
32
100
AcDbEntity
  8
TFR-TRI
390
0
  6
Continuous
 62
     3
100
AcDbLine
 10
3.891376
 20
6.874586
 30
0.0
 11
3.921376
 21
6.874586
 31
0.0
  0
LINE
  5
33
100
AcDbEntity
  8
TFR-TRI
390
0
  6
Continuous
 62
    12
100
AcDbLine
 10
1.186726
 20
7.530836
 30
0.0
 11
2.641726
 21
7.530836
 31
0.0
  0
LINE
  5
34
100
AcDbEntity
  8
TFR-TRI
390
0
  6
Continuous
 62
    12
100
AcDbLine
 10
5.820814
 20
3.294405
 30
0.0
 11
5.837026
 21
3.28546
 31
0.0
  0
LINE
  5
35
100
AcDbEntity
  8
TFR-TRI
390
0
  6
Continuous
 62
     3
100
AcDbLine
 10
3.828251
 20
5.998536
 30
0.0
 11
3.919662
 21
5.998536
 31
0.0
  0
LINE
  5
36
100
AcDbEntity
  8
TFR-TRI
390
0
  6
Continuous
 62
     3
100
AcDbLine
 10
5.494577
 20
8.25386
 30
0.0
 11
5.557077
 21
8.25386
 31
0.0
  0
LINE
  5
37
100
AcDbEntity
  8
TFR-TRI
390
0
  6
Continuous
 62
     3
100
AcDbLine
 10
4.408299
 20
7.468336
 30
0.0
 11
4.408299
 21
7.436637
 31
0.0
  0
LINE
  5
38
100
AcDbEntity
  8
TFR-TRI
390
0
  6
Continuous
 62
     3
100
AcDbLine
 10
5.557077
 20
0.25
 30
0.0
 11
5.557077
 21
0.165
 31
0.0
  0
LINE
  5
39
100
AcDbEntity
  8
TFR-TRI
390
0
  6
Continuous
 62
     3
100
AcDbLine
 10
4.44726
 20
3.447589
 30
0.0
 11
4.44726
 21
3.445746
 31
0.0
  0
LINE
  5
3A
100
AcDbEntity
  8
TFR-TRI
390
0
  6
Continuous
 62
    12
100
AcDbLine
 10
5.870997
 20
3.900912
 30
0.0
 11
5.873364
 21
3.912068
 31
0.0
  0
LINE
  5
3B
100
AcDbEntity
  8
TFR-TRI
390
0
  6
Continuous
 62
     3
100
AcDbLine
 10
10.835
 20
4.12193
 30
0.0
 11
10.86
 21
4.12193
 31
0.0
  0
LINE
  5
3C
100
AcDbEntity
  8
TFR-TRI
390
0
  6
Continuous
 62
    12
100
AcDbLine
 10
7.107849
 20
3.469117
 30
0.0
 11
7.125479
 21
3.476126
 31
0.0
  0
LINE
  5
3D
100
AcDbEntity
  8
TFR-TRI
390
0
  6
Continuous
 62
    12
100
AcDbLine
 10
6.011273
 20
3.995941
 30
0.0
 11
5.879662
 21
3.919766
 31
0.0
  0
LINE
  5
3E
100
AcDbEntity
  8
TFR-TRI
390
0
  6
Continuous
 62
     3
100
AcDbLine
 10
4.456299
 20
6.749586
 30
0.0
 11
4.456299
 21
6.788749
 31
0.0
  0
LINE
  5
3F
100
AcDbEntity
  8
TFR-TRI
390
0
  6
Continuous
 62
     3
100
AcDbLine
 10
5.494577
 20
0.22375
 30
0.0
 11
5.557077
 21
0.22375
 31
0.0
  0
LINE
  5
40
100
AcDbEntity
  8
TFR-TRI
390
0
  6
Continuous
 62
     3
100
AcDbLine
 10
4.466793
 20
7.468336
 30
0.0
 11
4.399806
 21
7.468336
 31
0.0
  0
LINE
  5
41
100
AcDbEntity
  8
TFR-TRI
390
0
  6
Continuous
 62
     3
100
AcDbLine
 10
10.835
 20
4.28693
 30
0.0
 11
10.91625
 21
4.28693
 31
0.0
  0
LINE
  5
42
100
AcDbEntity
  8
TFR-TRI
390
0
  6
Continuous
 62
     3
100
AcDbLine
 10
3.179363
 20
4.714518
 30
0.0
 11
3.224363
 21
4.714518
 31
0.0
  0
LINE
  5
43
100
AcDbEntity
  8
TFR-TRI
390
0
  6
Continuous
 62
     3
100
AcDbLine
 10
4.030751
 20
5.367593
 30
0.0
 11
4.069913
 21
5.367593
 31
0.0
  0
LINE
  5
44
100
AcDbEntity
  8
TFR-TRI
390
0
  6
Continuous
 62
    12
100
AcDbLine
 10
4.137182
 20
4.486363
 30
0.0
 11
4.114844
 21
4.486363
 31
0.0
  0
LINE
  5
45
100
AcDbEntity
  8
TFR-TRI
390
0
  6
Continuous
 62
    12
100
AcDbLine
 10
6.483976
 20
3.633674
 30
0.0
 11
6.459905
 21
4.42704
 31
0.0
  0
LINE
  5
46
100
AcDbEntity
  8
TFR-TRI
390
0
  6
Continuous
 62
     3
100
AcDbLine
 10
5.653893
 20
6.343336
 30
0.0
 11
5.653893
 21
6.229532
 31
0.0
  0
LINE
  5
47
100
AcDbEntity
  8
TFR-TRI
390
0
  6
Continuous
 62
     7
100
AcDbLine
 10
1.12633
 20
0.25
 30
0.0
 11
1.12633
 21
2.573295
 31
0.0
  0
LINE
  5
48
100
AcDbEntity
  8
TFR-TRI
390
0
  6
Continuous
 62
     3
100
AcDbLine
 10
4.4263
 20
6.749586
 30
0.0
 11
4.4263
 21
6.848462
 31
0.0
  0
LINE
  5
49
100
AcDbEntity
  8
TFR-TRI
390
0
  6
Continuous
 62
     3
100
AcDbLine
 10
3.953251
 20
6.007536
 30
0.0
 11
3.828251
 21
6.04103
 31
0.0
  0
LINE
  5
4A
100
AcDbEntity
  8
TFR-TRI
390
0
  6
Continuous
 62
     3
100
AcDbLine
 10
3.828251
 20
6.002536
 30
0.0
 11
3.93459
 21
6.002536
 31
0.0
  0
LINE
  5
4B
100
AcDbEntity
  8
TFR-TRI
390
0
  6
Continuous
 62
     3
100
AcDbLine
 10
4.290706
 20
7.099697
 30
0.0
 11
4.290706
 21
6.930947
 31
0.0
  0
LINE
  5
4C
100
AcDbEntity
  8
TFR-TRI
390
0
  6
Continuous
 62
    12
100
AcDbLine
 10
7.382558
 20
4.063203
 30
0.0
 11
7.384665
 21
4.070429
 31
0.0
  0
LINE
  5
4D
100
AcDbEntity
  8
TFR-TRI
390
0
  6
Continuous
 62
    12
100
AcDbLine
 10
7.600705
 20
4.503839
 30
0.0
 11
7.61378
 21
4.500191
 31
0.0
  0
LINE
  5
4E
100
AcDbEntity
  8
TFR-TRI
390
0
  6
Continuous
 62
     3
100
AcDbLine
 10
4.030751
 20
5.049268
 30
0.0
 11
4.040057
 21
5.049268
 31
0.0
  0
LINE
  5
4F
100
AcDbEntity
  8
TFR-TRI
390
0
  6
Continuous
 62
     3
100
AcDbLine
 10
4.280751
 20
6.007536
 30
0.0
 11
4.530751
 21
6.007536
 31
0.0
  0
LINE
  5
50
100
AcDbEntity
  8
TFR-TRI
390
0
  6
Continuous
 62
    12
100
AcDbLine
 10
1.017794
 20
3.389864
 30
0.0
 11
1.040132
 21
3.389864
 31
0.0
  0
LINE
  5
51
100
AcDbEntity
  8
TFR-TRI
390
0
  6
Continuous
 62
     3
100
AcDbLine
 10
5.504268
 20
7.094097
 30
0.0
 11
5.459268
 21
7.094097
 31
0.0
  0
LINE
  5
52
100
AcDbEntity
  8
TFR-TRI
390
0
  6
Continuous
 62
     3
100
AcDbLine
 10
1.74451
 20
5.040843
 30
0.0
 11
1.78951
 21
5.040843
 31
0.0
  0
LINE
  5
53
100
AcDbEntity
  8
TFR-TRI
390
0
  6
Continuous
 62
    12
100
AcDbLine
 10
7.55688
 20
4.194047
 30
0.0
 11
7.594699
 21
4.215936
 31
0.0
  0
LINE
  5
54
100
AcDbEntity
  8
TFR-TRI
390
0
  6
Continuous
 62
     3
100
AcDbLine
 10
5.111726
 20
7.218336
 30
0.0
 11
5.111726
 21
7.287355
 31
0.0
  0
LINE
  5
55
100
AcDbEntity
  8
TFR-TRI
390
0
  6
Continuous
 62
    12
100
AcDbLine
 10
2.682264
 20
6.218336
 30
0.0
 11
2.702291
 21
6.218336
 31
0.0
  0
LINE
  5
56
100
AcDbEntity
  8
TFR-TRI
390
0
  6
Continuous
 62
     3
100
AcDbLine
 10
4.45326
 20
3.447589
 30
0.0
 11
4.45326
 21
3.423354
 31
0.0
  0
LINE
  5
57
100
AcDbEntity
  8
TFR-TRI
390
0
  6
Continuous
 62
    12
100
AcDbLine
 10
7.59357
 20
4.482433
 30
0.0
 11
7.587622
 21
4.500119
 31
0.0
  0
LINE
  5
58
100
AcDbEntity
  8
TFR-TRI
390
0
  6
Continuous
 62
    12
100
AcDbLine
 10
2.702291
 20
7.530836
 30
0.0
 11
2.727527
 21
7.530836
 31
0.0
  0
LINE
  5
59
100
AcDbEntity
  8
TFR-TRI
390
0
  6
Continuous
 62
     3
100
AcDbLine
 10
4.280751
 20
6.002536
 30
0.0
 11
4.174411
 21
6.002536
 31
0.0
  0
LINE
  5
5A
100
AcDbEntity
  8
TFR-TRI
390
0
  6
Continuous
 62
     3
100
AcDbLine
 10
5.089726
 20
7.218336
 30
0.0
 11
5.089726
 21
7.317212
 31
0.0
  0
LINE
  5
5B
100
AcDbEntity
  8
TFR-TRI
390
0
  6
Continuous
 62
     3
100
AcDbLine
 10
0.210405
 20
4.34693
 30
0.0
 11
0.216655
 21
4.34693
 31
0.0
  0
LINE
  5
5C
100
AcDbEntity
  8
TFR-TRI
390
0
  6
Continuous
 62
     3
100
AcDbLine
 10
4.50526
 20
4.428638
 30
0.0
 11
4.50526
 21
4.460337
 31
0.0
  0
LINE
  5
5D
100
AcDbEntity
  8
TFR-TRI
390
0
  6
Continuous
 62
     3
100
AcDbLine
 10
5.125726
 20
6.530836
 30
0.0
 11
5.125726
 21
6.514066
 31
0.0
  0
LINE
  5
5E
100
AcDbEntity
  8
TFR-TRI
390
0
  6
Continuous
 62
     3
100
AcDbLine
 10
5.651893
 20
6.343336
 30
0.0
 11
5.651893
 21
6.222068
 31
0.0
  0
LINE
  5
5F
100
AcDbEntity
  8
TFR-TRI
390
0
  6
Continuous
 62
     3
100
AcDbLine
 10
5.525827
 20
8.44511
 30
0.0
 11
5.650827
 21
8.28886
 31
0.0
  0
LINE
  5
60
100
AcDbEntity
  8
TFR-TRI
390
0
  6
Continuous
 62
     7
100
AcDbLine
 10
6.585438
 20
1.799426
 30
0.0
 11
0.301655
 21
1.799426
 31
0.0
  0
LINE
  5
61
100
AcDbEntity
  8
TFR-TRI
390
0
  6
Continuous
 62
     3
100
AcDbLine
 10
4.280751
 20
6.040536
 30
0.0
 11
4.278908
 21
6.040536
 31
0.0
  0
LINE
  5
62
100
AcDbEntity
  8
TFR-TRI
390
0
  6
Continuous
 62
     3
100
AcDbLine
 10
2.664976
 20
5.018268
 30
0.0
 11
2.789976
 21
4.984774
 31
0.0
  0
LINE
  5
63
100
AcDbEntity
  8
TFR-TRI
390
0
  6
Continuous
 62
     3
100
AcDbLine
 10
4.513753
 20
3.447589
 30
0.0
 11
4.446766
 21
3.447589
 31
0.0
  0
LINE
  5
64
100
AcDbEntity
  8
TFR-TRI
390
0
  6
Continuous
 62
     3
100
AcDbLine
 10
4.030751
 20
5.051268
 30
0.0
 11
4.032593
 21
5.051268
 31
0.0
  0
LINE
  5
65
100
AcDbEntity
  8
TFR-TRI
390
0
  6
Continuous
 62
     3
100
AcDbLine
 10
5.876268
 20
6.925347
 30
0.0
 11
5.921268
 21
6.925347
 31
0.0
  0
LINE
  5
66
100
AcDbEntity
  8
TFR-TRI
390
0
  6
Continuous
 62
     3
100
AcDbLine
 10
4.448299
 20
7.468336
 30
0.0
 11
4.448299
 21
7.399317
 31
0.0
  0
LINE
  5
67
100
AcDbEntity
  8
TFR-TRI
390
0
  6
Continuous
 62
     3
100
AcDbLine
 10
5.412827
 20
8.30386
 30
0.0
 11
5.638827
 21
8.30386
 31
0.0
  0
LINE
  5
68
100
AcDbEntity
  8
TFR-TRI
390
0
  6
Continuous
 62
     3
100
AcDbLine
 10
4.030751
 20
5.378087
 30
0.0
 11
4.030751
 21
5.3111
 31
0.0
  0
LINE
  5
69
100
AcDbEntity
  8
TFR-TRI
390
0
  6
Continuous
 62
     3
100
AcDbLine
 10
4.46126
 20
3.447589
 30
0.0
 11
4.46126
 21
3.393498
 31
0.0
  0
LINE
  5
6A
100
AcDbEntity
  8
TFR-TRI
390
0
  6
Continuous
 62
     3
100
AcDbLine
 10
0.091655
 20
4.20193
 30
0.0
 11
0.301655
 21
4.20193
 31
0.0
  0
LINE
  5
6B
100
AcDbEntity
  8
TFR-TRI
390
0
  6
Continuous
 62
     3
100
AcDbLine
 10
2.789976
 20
5.033267
 30
0.0
 11
2.720956
 21
5.033267
 31
0.0
  0
LINE
  5
6C
100
AcDbEntity
  8
TFR-TRI
390
0
  6
Continuous
 62
     3
100
AcDbLine
 10
7.196311
 20
7.905532
 30
0.0
 11
10.279419
 21
7.905532
 31
0.0
  0
LINE
  5
6D
100
AcDbEntity
  8
TFR-TRI
390
0
  6
Continuous
 62
     3
100
AcDbLine
 10
0.097905
 20
4.25693
 30
0.0
 11
0.301655
 21
4.25693
 31
0.0
  0
LINE
  5
6E
100
AcDbEntity
  8
TFR-TRI
390
0
  6
Continuous
 62
    12
100
AcDbLine
 10
7.374886
 20
4.069106
 30
0.0
 11
7.382814
 21
4.086359
 31
0.0
  0
LINE
  5
6F
100
AcDbEntity
  8
TFR-TRI
390
0
  6
Continuous
 62
     3
100
AcDbLine
 10
4.462299
 20
6.749586
 30
0.0
 11
4.462299
 21
6.766357
 31
0.0
  0
LINE
  5
70
100
AcDbEntity
  8
TFR-TRI
390
0
  6
Continuous
 62
     3
100
AcDbLine
 10
0.116655
 20
4.27193
 30
0.0
 11
0.216655
 21
4.27193
 31
0.0
  0
LINE
  5
71
100
AcDbEntity
  8
TFR-TRI
390
0
  6
Continuous
 62
     3
100
AcDbLine
 10
5.500827
 20
8.41386
 30
0.0
 11
5.550828
 21
8.41386
 31
0.0
  0
LINE
  5
72
100
AcDbEntity
  8
TFR-TRI
390
0
  6
Continuous
 62
     3
100
AcDbLine
 10
4.030751
 20
5.021267
 30
0.0
 11
4.144555
 21
5.021267
 31
0.0
  0
LINE
  5
73
100
AcDbEntity
  8
TFR-TRI
390
0
  6
Continuous
 62
    12
100
AcDbLine
 10
1.145003
 20
3.322589
 30
0.0
 11
1.105372
 21
3.322589
 31
0.0
  0
LINE
  5
74
100
AcDbEntity
  8
TFR-TRI
390
0
  6
Continuous
 62
     3
100
AcDbLine
 10
8.606505
 20
1.203949
 30
0.0
 11
8.613068
 21
1.210512
 31
0.0
  0
LINE
  5
75
100
AcDbEntity
  8
TFR-TRI
390
0
  6
Continuous
 62
     3
100
AcDbLine
 10
3.828251
 20
5.984536
 30
0.0
 11
3.867414
 21
5.984536
 31
0.0
  0
LINE
  5
76
100
AcDbEntity
  8
TFR-TRI
390
0
  6
Continuous
 62
    12
100
AcDbLine
 10
4.155751
 20
4.486363
 30
0.0
 11
4.15105
 21
4.486363
 31
0.0
  0
LINE
  5
77
100
AcDbEntity
  8
TFR-TRI
390
0
  6
Continuous
 62
     3
100
AcDbLine
 10
5.063233
 20
7.218336
 30
0.0
 11
5.13022
 21
7.218336
 31
0.0
  0
LINE
  5
78
100
AcDbEntity
  8
TFR-TRI
390
0
  6
Continuous
 62
     3
100
AcDbLine
 10
3.828251
 20
6.024536
 30
0.0
 11
3.889806
 21
6.024536
 31
0.0
  0
LINE
  5
79
100
AcDbEntity
  8
TFR-TRI
390
0
  6
Continuous
 62
     3
100
AcDbLine
 10
1.124226
 20
5.377594
 30
0.0
 11
1.122383
 21
5.377594
 31
0.0
  0
LINE
  5
7A
100
AcDbEntity
  8
TFR-TRI
390
0
  6
Continuous
 62
     3
100
AcDbLine
 10
0.166655
 20
4.14193
 30
0.0
 11
0.216655
 21
4.14193
 31
0.0
  0
LINE
  5
7B
100
AcDbEntity
  8
TFR-TRI
390
0
  6
Continuous
 62
     3
100
AcDbLine
 10
4.4203
 20
6.749586
 30
0.0
 11
4.4203
 21
6.826069
 31
0.0
  0
LINE
  5
7C
100
AcDbEntity
  8
TFR-TRI
390
0
  6
Continuous
 62
    12
100
AcDbLine
 10
7.602168
 20
4.199088
 30
0.0
 11
7.59622
 21
4.216774
 31
0.0
  0
LINE
  5
7D
100
AcDbEntity
  8
TFR-TRI
390
0
  6
Continuous
 62
    12
100
AcDbLine
 10
7.393009
 20
3.97965
 30
0.0
 11
7.382314
 21
3.975001
 31
0.0
  0
LINE
  5
7E
100
AcDbEntity
  8
TFR-TRI
390
0
  6
Continuous
 62
     3
100
AcDbLine
 10
5.367101
 20
6.826783
 30
0.0
 11
5.322101
 21
6.826783
 31
0.0
  0
LINE
  5
7F
100
AcDbEntity
  8
TFR-TRI
390
0
  6
Continuous
 62
     3
100
AcDbLine
 10
4.4333
 20
7.568336
 30
0.0
 11
4.4333
 21
7.343336
 31
0.0
  0
LINE
  5
80
100
AcDbEntity
  8
TFR-TRI
390
0
  6
Continuous
 62
     3
100
AcDbLine
 10
5.473827
 20
0.07375
 30
0.0
 11
5.577827
 21
0.07375
 31
0.0
  0
LINE
  5
81
100
AcDbEntity
  8
TFR-TRI
390
0
  6
Continuous
 62
     3
100
AcDbLine
 10
4.424299
 20
7.468336
 30
0.0
 11
4.424299
 21
7.376925
 31
0.0
  0
LINE
  5
82
100
AcDbEntity
  8
TFR-TRI
390
0
  6
Continuous
 62
     3
100
AcDbLine
 10
1.124226
 20
5.311594
 30
0.0
 11
1.122383
 21
5.311594
 31
0.0
  0
LINE
  5
83
100
AcDbEntity
  8
TFR-TRI
390
0
  6
Continuous
 62
     3
100
AcDbLine
 10
4.44926
 20
4.428638
 30
0.0
 11
4.44926
 21
4.437945
 31
0.0
  0
LINE
  5
84
100
AcDbEntity
  8
TFR-TRI
390
0
  6
Continuous
 62
     3
100
AcDbLine
 10
5.679893
 20
6.343336
 30
0.0
 11
5.679893
 21
6.326566
 31
0.0
  0
LINE
  5
85
100
AcDbEntity
  8
TFR-TRI
390
0
  6
Continuous
 62
     3
100
AcDbLine
 10
4.030751
 20
5.007267
 30
0.0
 11
4.114698
 21
5.007267
 31
0.0
  0
LINE
  5
86
100
AcDbEntity
  8
TFR-TRI
390
0
  6
Continuous
 62
     3
100
AcDbLine
 10
4.030751
 20
5.345593
 30
0.0
 11
4.152019
 21
5.345593
 31
0.0
  0
LINE
  5
87
100
AcDbEntity
  8
TFR-TRI
390
0
  6
Continuous
 62
    12
100
AcDbLine
 10
5.763962
 20
3.34463
 30
0.0
 11
5.760542
 21
3.372265
 31
0.0
  0
LINE
  5
88
100
AcDbEntity
  8
TFR-TRI
390
0
  6
Continuous
 62
     3
100
AcDbLine
 10
5.417828
 20
0.14375
 30
0.0
 11
5.633828
 21
0.14375
 31
0.0
  0
LINE
  5
89
100
AcDbEntity
  8
TFR-TRI
390
0
  6
Continuous
 62
     3
100
AcDbLine
 10
5.621893
 20
7.405836
 30
0.0
 11
5.621893
 21
7.422607
 31
0.0
  0
LINE
  5
8A
100
AcDbEntity
  8
TFR-TRI
390
0
  6
Continuous
 62
     3
100
AcDbLine
 10
10.835
 20
4.16193
 30
0.0
 11
10.91
 21
4.16193
 31
0.0
  0
LINE
  5
8B
100
AcDbEntity
  8
TFR-TRI
390
0
  6
Continuous
 62
     3
100
AcDbLine
 10
3.828251
 20
5.992537
 30
0.0
 11
3.89727
 21
5.992537
 31
0.0
  0
LINE
  5
8C
100
AcDbEntity
  8
TFR-TRI
390
0
  6
Continuous
 62
    12
100
AcDbLine
 10
5.99509
 20
3.578961
 30
0.0
 11
5.997457
 21
3.590117
 31
0.0
  0
LINE
  5
8D
100
AcDbEntity
  8
TFR-TRI
390
0
  6
Continuous
 62
     3
100
AcDbLine
 10
10.75
 20
4.23193
 30
0.0
 11
10.985
 21
4.23193
 31
0.0
  0
LINE
  5
8E
100
AcDbEntity
  8
TFR-TRI
390
0
  6
Continuous
 62
     3
100
AcDbLine
 10
5.650827
 20
8.28886
 30
0.0
 11
5.557077
 21
8.28886
 31
0.0
  0
LINE
  5
8F
100
AcDbEntity
  8
TFR-TRI
390
0
  6
Continuous
 62
     3
100
AcDbLine
 10
5.105726
 20
6.530836
 30
0.0
 11
5.105726
 21
6.439425
 31
0.0
  0
LINE
  5
90
100
AcDbEntity
  8
TFR-TRI
390
0
  6
Continuous
 62
     3
100
AcDbLine
 10
4.280751
 20
5.974536
 30
0.0
 11
4.278908
 21
5.974536
 31
0.0
  0
LINE
  5
91
100
AcDbEntity
  8
TFR-TRI
390
0
  6
Continuous
 62
     3
100
AcDbLine
 10
4.454299
 20
7.468336
 30
0.0
 11
4.454299
 21
7.421709
 31
0.0
  0
LINE
  5
92
100
AcDbEntity
  8
TFR-TRI
390
0
  6
Continuous
 62
     3
100
AcDbLine
 10
4.460299
 20
7.468336
 30
0.0
 11
4.460299
 21
7.444102
 31
0.0
  0
LINE
  5
93
100
AcDbEntity
  8
TFR-TRI
390
0
  6
Continuous
 62
     3
100
AcDbLine
 10
4.410299
 20
7.468336
 30
0.0
 11
4.410299
 21
7.429173
 31
0.0
  0
LINE
  5
94
100
AcDbEntity
  8
TFR-TRI
390
0
  6
Continuous
 62
     3
100
AcDbLine
 10
5.557077
 20
0.25
 30
0.0
 11
5.494577
 21
0.25
 31
0.0
  0
LINE
  5
95
100
AcDbEntity
  8
TFR-TRI
390
0
  6
Continuous
 62
     3
100
AcDbLine
 10
0.154155
 20
4.15193
 30
0.0
 11
0.216655
 21
4.15193
 31
0.0
  0
LINE
  5
96
100
AcDbEntity
  8
TFR-TRI
390
0
  6
Continuous
 62
     3
100
AcDbLine
 10
4.44926
 20
3.447589
 30
0.0
 11
4.44926
 21
3.438282
 31
0.0
  0
LINE
  5
97
100
AcDbEntity
  8
TFR-TRI
390
0
  6
Continuous
 62
     3
100
AcDbLine
 10
10.835
 20
4.12693
 30
0.0
 11
10.86625
 21
4.12693
 31
0.0
  0
LINE
  5
98
100
AcDbEntity
  8
TFR-TRI
390
0
  6
Continuous
 62
    12
100
AcDbLine
 10
7.59064
 20
4.552652
 30
0.0
 11
7.554954
 21
4.563192
 31
0.0
  0
LINE
  5
99
100
AcDbEntity
  8
TFR-TRI
390
0
  6
Continuous
 62
     3
100
AcDbLine
 10
4.280751
 20
5.998536
 30
0.0
 11
4.189339
 21
5.998536
 31
0.0
  0
LINE
  5
9A
100
AcDbEntity
  8
TFR-TRI
390
0
  6
Continuous
 62
     3
100
AcDbLine
 10
3.828251
 20
5.986537
 30
0.0
 11
3.874878
 21
5.986537
 31
0.0
  0
LINE
  5
9B
100
AcDbEntity
  8
TFR-TRI
390
0
  6
Continuous
 62
     3
100
AcDbLine
 10
10.75
 20
4.25693
 30
0.0
 11
10.95375
 21
4.25693
 31
0.0
  0
LINE
  5
9C
100
AcDbEntity
  8
TFR-TRI
390
0
  6
Continuous
 62
     3
100
AcDbLine
 10
5.494577
 20
0.22875
 30
0.0
 11
5.557077
 21
0.22875
 31
0.0
  0
LINE
  5
9D
100
AcDbEntity
  8
TFR-TRI
390
0
  6
Continuous
 62
     3
100
AcDbLine
 10
0.091655
 20
4.25193
 30
0.0
 11
0.301655
 21
4.25193
 31
0.0
  0
LINE
  5
9E
100
AcDbEntity
  8
TFR-TRI
390
0
  6
Continuous
 62
     3
100
AcDbLine
 10
4.399806
 20
7.468336
 30
0.0
 11
4.4333
 21
7.343336
 31
0.0
  0
LINE
  5
9F
100
AcDbEntity
  8
TFR-TRI
390
0
  6
Continuous
 62
    12
100
AcDbLine
 10
7.01687
 20
4.262538
 30
0.0
 11
7.044009
 21
4.278246
 31
0.0
  0
LINE
  5
A0
100
AcDbEntity
  8
TFR-TRI
390
0
  6
Continuous
 62
     3
100
AcDbLine
 10
3.596363
 20
4.714518
 30
0.0
 11
3.641363
 21
4.714518
 31
0.0
  0
LINE
  5
A1
100
AcDbEntity
  8
TFR-TRI
390
0
  6
Continuous
 62
    12
100
AcDbLine
 10
6.483976
 20
3.633674
 30
0.0
 11
7.040942
 21
3.469172
 31
0.0
  0
LINE
  5
A2
100
AcDbEntity
  8
TFR-TRI
390
0
  6
Continuous
 62
     3
100
AcDbLine
 10
3.859501
 20
6.360836
 30
0.0
 11
3.859501
 21
6.240836
 31
0.0
  0
LINE
  5
A3
100
AcDbEntity
  8
TFR-TRI
390
0
  6
Continuous
 62
     3
100
AcDbLine
 10
4.404299
 20
7.468336
 30
0.0
 11
4.404299
 21
7.451566
 31
0.0
  0
LINE
  5
A4
100
AcDbEntity
  8
TFR-TRI
390
0
  6
Continuous
 62
    12
100
AcDbLine
 10
7.53753
 20
4.345896
 30
0.0
 11
7.524456
 21
4.349544
 31
0.0
  0
LINE
  5
A5
100
AcDbEntity
  8
TFR-TRI
390
0
  6
Continuous
 62
    12
100
AcDbLine
 10
7.594699
 20
4.215936
 30
0.0
 11
7.609302
 21
4.220494
 31
0.0
  0
LINE
  5
A6
100
AcDbEntity
  8
TFR-TRI
390
0
  6
Continuous
 62
     3
100
AcDbLine
 10
3.828251
 20
6.04103
 30
0.0
 11
3.828251
 21
5.974043
 31
0.0
  0
LINE
  5
A7
100
AcDbEntity
  8
TFR-TRI
390
0
  6
Continuous
 62
    12
100
AcDbLine
 10
5.763071
 20
4.031919
 30
0.0
 11
5.77819
 21
4.058998
 31
0.0
  0
LINE
  5
A8
100
AcDbEntity
  8
TFR-TRI
390
0
  6
Continuous
 62
     3
100
AcDbLine
 10
3.828251
 20
6.004536
 30
0.0
 11
3.942055
 21
6.004536
 31
0.0
  0
LINE
  5
A9
100
AcDbEntity
  8
TFR-TRI
390
0
  6
Continuous
 62
    12
100
AcDbLine
 10
7.61378
 20
4.500191
 30
0.0
 11
7.623747
 21
4.488778
 31
0.0
  0
LINE
  5
AA
100
AcDbEntity
  8
TFR-TRI
390
0
  6
Continuous
 62
     3
100
AcDbLine
 10
5.494577
 20
8.28886
 30
0.0
 11
5.557077
 21
8.28886
 31
0.0
  0
LINE
  5
AB
100
AcDbEntity
  8
TFR-TRI
390
0
  6
Continuous
 62
     3
100
AcDbLine
 10
4.030751
 20
5.313593
 30
0.0
 11
4.040057
 21
5.313593
 31
0.0
  0
LINE
  5
AC
100
AcDbEntity
  8
TFR-TRI
390
0
  6
Continuous
 62
     3
100
AcDbLine
 10
4.030751
 20
5.047267
 30
0.0
 11
4.047521
 21
5.047267
 31
0.0
  0
LINE
  5
AD
100
AcDbEntity
  8
TFR-TRI
390
0
  6
Continuous
 62
     3
100
AcDbLine
 10
4.155751
 20
6.007536
 30
0.0
 11
4.280751
 21
6.007536
 31
0.0
  0
LINE
  5
AE
100
AcDbEntity
  8
TFR-TRI
390
0
  6
Continuous
 62
     3
100
AcDbLine
 10
5.067726
 20
6.530836
 30
0.0
 11
5.067726
 21
6.514066
 31
0.0
  0
LINE
  5
AF
100
AcDbEntity
  8
TFR-TRI
390
0
  6
Continuous
 62
     3
100
AcDbLine
 10
5.109726
 20
7.218336
 30
0.0
 11
5.109726
 21
7.294819
 31
0.0
  0
LINE
  5
B0
100
AcDbEntity
  8
TFR-TRI
390
0
  6
Continuous
 62
    12
100
AcDbLine
 10
7.514927
 20
4.360155
 30
0.0
 11
7.515688
 21
4.360564
 31
0.0
  0
LINE
  5
B1
100
AcDbEntity
  8
TFR-TRI
390
0
  6
Continuous
 62
    12
100
AcDbLine
 10
6.487044
 20
4.442748
 30
0.0
 11
7.044009
 21
4.278246
 31
0.0
  0
LINE
  5
B2
100
AcDbEntity
  8
TFR-TRI
390
0
  6
Continuous
 62
     3
100
AcDbLine
 10
4.030751
 20
5.019268
 30
0.0
 11
4.152019
 21
5.019268
 31
0.0
  0
LINE
  5
B3
100
AcDbEntity
  8
TFR-TRI
390
0
  6
Continuous
 62
     3
100
AcDbLine
 10
4.50326
 20
4.428638
 30
0.0
 11
4.50326
 21
4.467802
 31
0.0
  0
LINE
  5
B4
100
AcDbEntity
  8
TFR-TRI
390
0
  6
Continuous
 62
     3
100
AcDbLine
 10
5.123726
 20
6.530836
 30
0.0
 11
5.123726
 21
6.506602
 31
0.0
  0
LINE
  5
B5
100
AcDbEntity
  8
TFR-TRI
390
0
  6
Continuous
 62
     3
100
AcDbLine
 10
4.280751
 20
6.038537
 30
0.0
 11
4.271444
 21
6.038537
 31
0.0
  0
LINE
  5
B6
100
AcDbEntity
  8
TFR-TRI
390
0
  6
Continuous
 62
     3
100
AcDbLine
 10
2.789976
 20
4.984774
 30
0.0
 11
2.789976
 21
5.051761
 31
0.0
  0
LINE
  5
B7
100
AcDbEntity
  8
TFR-TRI
390
0
  6
Continuous
 62
     3
100
AcDbLine
 10
4.446766
 20
3.447589
 30
0.0
 11
4.48026
 21
3.322589
 31
0.0
  0
LINE
  5
B8
100
AcDbEntity
  8
TFR-TRI
390
0
  6
Continuous
 62
    12
100
AcDbLine
 10
4.155751
 20
4.553638
 30
0.0
 11
4.155751
 21
4.486363
 31
0.0
  0
LINE
  5
B9
100
AcDbEntity
  8
TFR-TRI
390
0
  6
Continuous
 62
    12
100
AcDbLine
 10
7.645132
 20
4.550413
 30
0.0
 11
7.62892
 21
4.559357
 31
0.0
  0
LINE
  5
BA
100
AcDbEntity
  8
TFR-TRI
390
0
  6
Continuous
 62
    12
100
AcDbLine
 10
7.623747
 20
4.488778
 30
0.0
 11
7.629407
 21
4.470977
 31
0.0
  0
LINE
  5
BB
100
AcDbEntity
  8
TFR-TRI
390
0
  6
Continuous
 62
     3
100
AcDbLine
 10
5.416828
 20
8.30886
 30
0.0
 11
5.634828
 21
8.30886
 31
0.0
  0
LINE
  5
BC
100
AcDbEntity
  8
TFR-TRI
390
0
  6
Continuous
 62
     3
100
AcDbLine
 10
4.4463
 20
6.749586
 30
0.0
 11
4.4463
 21
6.826069
 31
0.0
  0
LINE
  5
BD
100
AcDbEntity
  8
TFR-TRI
390
0
  6
Continuous
 62
     3
100
AcDbLine
 10
4.030751
 20
5.3111
 30
0.0
 11
4.155751
 21
5.344594
 31
0.0
  0
LINE
  5
BE
100
AcDbEntity
  8
TFR-TRI
390
0
  6
Continuous
 62
     3
100
AcDbLine
 10
4.46326
 20
3.447589
 30
0.0
 11
4.46326
 21
3.386034
 31
0.0
  0
LINE
  5
BF
100
AcDbEntity
  8
TFR-TRI
390
0
  6
Continuous
 62
     3
100
AcDbLine
 10
5.089726
 20
6.530836
 30
0.0
 11
5.089726
 21
6.431961
 31
0.0
  0
LINE
  5
C0
100
AcDbEntity
  8
TFR-TRI
390
0
  6
Continuous
 62
     3
100
AcDbLine
 10
2.789976
 20
5.031268
 30
0.0
 11
2.713492
 21
5.031268
 31
0.0
  0
LINE
  5
C1
100
AcDbEntity
  8
TFR-TRI
390
0
  6
Continuous
 62
     3
100
AcDbLine
 10
10.279419
 20
7.905532
 30
0.0
 11
10.279419
 21
7.075195
 31
0.0
  0
LINE
  5
C2
100
AcDbEntity
  8
TFR-TRI
390
0
  6
Continuous
 62
    12
100
AcDbLine
 10
7.044009
 20
4.278246
 30
0.0
 11
7.055477
 21
4.27726
 31
0.0
  0
LINE
  5
C3
100
AcDbEntity
  8
TFR-TRI
390
0
  6
Continuous
 62
     3
100
AcDbLine
 10
5.684386
 20
7.405836
 30
0.0
 11
5.650893
 21
7.530836
 31
0.0
  0
LINE
  5
C4
100
AcDbEntity
  8
TFR-TRI
390
0
  6
Continuous
 62
     3
100
AcDbLine
 10
4.4323
 20
6.749586
 30
0.0
 11
4.4323
 21
6.870854
 31
0.0
  0
LINE
  5
C5
100
AcDbEntity
  8
TFR-TRI
390
0
  6
Continuous
 62
     3
100
AcDbLine
 10
1.124226
 20
5.359593
 30
0.0
 11
1.055206
 21
5.359593
 31
0.0
  0
LINE
  5
C6
100
AcDbEntity
  8
TFR-TRI
390
0
  6
Continuous
 62
     3
100
AcDbLine
 10
0.122905
 20
4.27693
 30
0.0
 11
0.216655
 21
4.27693
 31
0.0
  0
LINE
  5
C7
100
AcDbEntity
  8
TFR-TRI
390
0
  6
Continuous
 62
    12
100
AcDbLine
 10
2.755501
 20
4.486363
 30
0.0
 11
3.968251
 21
4.486363
 31
0.0
  0
LINE
  5
C8
100
AcDbEntity
  8
TFR-TRI
390
0
  6
Continuous
 62
    12
100
AcDbLine
 10
6.438192
 20
4.425254
 30
0.0
 11
6.462265
 21
3.631888
 31
0.0
  0
LINE
  5
C9
100
AcDbEntity
  8
TFR-TRI
390
0
  6
Continuous
 62
     3
100
AcDbLine
 10
4.4323
 20
7.468336
 30
0.0
 11
4.4323
 21
7.347068
 31
0.0
  0
LINE
  5
CA
100
AcDbEntity
  8
TFR-TRI
390
0
  6
Continuous
 62
     3
100
AcDbLine
 10
5.504827
 20
8.41886
 30
0.0
 11
5.546827
 21
8.41886
 31
0.0
  0
LINE
  5
CB
100
AcDbEntity
  8
TFR-TRI
390
0
  6
Continuous
 62
     3
100
AcDbLine
 10
5.641893
 20
7.405836
 30
0.0
 11
5.641893
 21
7.497248
 31
0.0
  0
LINE
  5
CC
100
AcDbEntity
  8
TFR-TRI
390
0
  6
Continuous
 62
    12
100
AcDbLine
 10
1.105372
 20
3.322589
 30
0.0
 11
1.069821
 21
3.322589
 31
0.0
  0
LINE
  5
CD
100
AcDbEntity
  8
TFR-TRI
390
0
  6
Continuous
 62
    12
100
AcDbLine
 10
7.533642
 20
3.794303
 30
0.0
 11
7.571462
 21
3.816192
 31
0.0
  0
LINE
  5
CE
100
AcDbEntity
  8
TFR-TRI
390
0
  6
Continuous
 62
     3
100
AcDbLine
 10
5.13022
 20
7.218336
 30
0.0
 11
5.096726
 21
7.343336
 31
0.0
  0
LINE
  5
CF
100
AcDbEntity
  8
TFR-TRI
390
0
  6
Continuous
 62
     3
100
AcDbLine
 10
3.951376
 20
6.874586
 30
0.0
 11
3.908251
 21
6.874586
 31
0.0
  0
LINE
  5
D0
100
AcDbEntity
  8
TFR-TRI
390
0
  6
Continuous
 62
     7
100
AcDbLine
 10
5.125768
 20
0.511645
 30
0.0
 11
5.125768
 21
2.573295
 31
0.0
  0
LINE
  5
D1
100
AcDbEntity
  8
TFR-TRI
390
0
  6
Continuous
 62
     3
100
AcDbLine
 10
0.160405
 20
4.14693
 30
0.0
 11
0.216655
 21
4.14693
 31
0.0
  0
LINE
  5
D2
100
AcDbEntity
  8
TFR-TRI
390
0
  6
Continuous
 62
    12
100
AcDbLine
 10
7.610765
 20
3.915743
 30
0.0
 11
7.604816
 21
3.933428
 31
0.0
  0
LINE
  5
D3
100
AcDbEntity
  8
TFR-TRI
390
0
  6
Continuous
 62
     3
100
AcDbLine
 10
5.087726
 20
7.218336
 30
0.0
 11
5.087726
 21
7.309748
 31
0.0
  0
LINE
  5
D4
100
AcDbEntity
  8
TFR-TRI
390
0
  6
Continuous
 62
     3
100
AcDbLine
 10
2.789976
 20
4.999268
 30
0.0
 11
2.735885
 21
4.999268
 31
0.0
  0
LINE
  5
D5
100
AcDbEntity
  8
TFR-TRI
390
0
  6
Continuous
 62
     3
100
AcDbLine
 10
1.124226
 20
5.313593
 30
0.0
 11
1.114919
 21
5.313593
 31
0.0
  0
LINE
  5
D6
100
AcDbEntity
  8
TFR-TRI
390
0
  6
Continuous
 62
     3
100
AcDbLine
 10
4.45126
 20
4.428638
 30
0.0
 11
4.45126
 21
4.445409
 31
0.0
  0
LINE
  5
D7
100
AcDbEntity
  8
TFR-TRI
390
0
  6
Continuous
 62
     7
100
AcDbLine
 10
6.585438
 20
1.291514
 30
0.0
 11
0.301655
 21
1.291514
 31
0.0
  0
LINE
  5
D8
100
AcDbEntity
  8
TFR-TRI
390
0
  6
Continuous
 62
     3
100
AcDbLine
 10
5.677893
 20
6.343336
 30
0.0
 11
5.677893
 21
6.319102
 31
0.0
  0
LINE
  5
D9
100
AcDbEntity
  8
TFR-TRI
390
0
  6
Continuous
 62
    12
100
AcDbLine
 10
7.59855
 20
4.088998
 30
0.0
 11
7.560731
 21
4.067108
 31
0.0
  0
LINE
  5
DA
100
AcDbEntity
  8
TFR-TRI
390
0
  6
Continuous
 62
     3
100
AcDbLine
 10
5.413827
 20
0.14875
 30
0.0
 11
5.637827
 21
0.14875
 31
0.0
  0
LINE
  5
DB
100
AcDbEntity
  8
TFR-TRI
390
0
  6
Continuous
 62
     3
100
AcDbLine
 10
10.835
 20
4.16693
 30
0.0
 11
10.91625
 21
4.16693
 31
0.0
  0
LINE
  5
DC
100
AcDbEntity
  8
TFR-TRI
390
0
  6
Continuous
 62
     7
100
AcDbLine
 10
4.511886
 20
0.25
 30
0.0
 11
4.511886
 21
2.573295
 31
0.0
  0
LINE
  5
DD
100
AcDbEntity
  8
TFR-TRI
390
0
  6
Continuous
 62
     3
100
AcDbLine
 10
3.828251
 20
5.994536
 30
0.0
 11
3.904734
 21
5.994536
 31
0.0
  0
LINE
  5
DE
100
AcDbEntity
  8
TFR-TRI
390
0
  6
Continuous
 62
    12
100
AcDbLine
 10
5.985595
 20
3.981074
 30
0.0
 11
5.997457
 21
3.590117
 31
0.0
  0
LINE
  5
DF
100
AcDbEntity
  8
TFR-TRI
390
0
  6
Continuous
 62
     3
100
AcDbLine
 10
5.681893
 20
7.405836
 30
0.0
 11
5.681893
 21
7.415143
 31
0.0
  0
LINE
  5
E0
100
AcDbEntity
  8
TFR-TRI
390
0
  6
Continuous
 62
     3
100
AcDbLine
 10
3.938251
 20
6.405836
 30
0.0
 11
3.968251
 21
6.405836
 31
0.0
  0
LINE
  5
E1
100
AcDbEntity
  8
TFR-TRI
390
0
  6
Continuous
 62
     3
100
AcDbLine
 10
4.030751
 20
5.051268
 30
0.0
 11
4.032593
 21
5.051268
 31
0.0
  0
LINE
  5
E2
100
AcDbEntity
  8
TFR-TRI
390
0
  6
Continuous
 62
     3
100
AcDbLine
 10
10.75
 20
4.23693
 30
0.0
 11
10.97875
 21
4.23693
 31
0.0
  0
LINE
  5
E3
100
AcDbEntity
  8
TFR-TRI
390
0
  6
Continuous
 62
     3
100
AcDbLine
 10
5.557077
 20
8.20386
 30
0.0
 11
5.557077
 21
8.28886
 31
0.0
  0
LINE
  5
E4
100
AcDbEntity
  8
TFR-TRI
390
0
  6
Continuous
 62
     3
100
AcDbLine
 10
4.448299
 20
6.749586
 30
0.0
 11
4.448299
 21
6.818605
 31
0.0
  0
LINE
  5
E5
100
AcDbEntity
  8
TFR-TRI
390
0
  6
Continuous
 62
     3
100
AcDbLine
 10
4.030751
 20
5.337594
 30
0.0
 11
4.129626
 21
5.337594
 31
0.0
  0
LINE
  5
E6
100
AcDbEntity
  8
TFR-TRI
390
0
  6
Continuous
 62
     3
100
AcDbLine
 10
5.647893
 20
6.343336
 30
0.0
 11
5.647893
 21
6.229532
 31
0.0
  0
LINE
  5
E7
100
AcDbEntity
  8
TFR-TRI
390
0
  6
Continuous
 62
     3
100
AcDbLine
 10
4.280751
 20
5.974536
 30
0.0
 11
4.278908
 21
5.974536
 31
0.0
  0
LINE
  5
E8
100
AcDbEntity
  8
TFR-TRI
390
0
  6
Continuous
 62
    12
100
AcDbLine
 10
7.610334
 20
4.560121
 30
0.0
 11
7.59064
 21
4.552652
 31
0.0
  0
LINE
  5
E9
100
AcDbEntity
  8
TFR-TRI
390
0
  6
Continuous
 62
     3
100
AcDbLine
 10
10.835
 20
4.30693
 30
0.0
 11
10.89125
 21
4.30693
 31
0.0
  0
LINE
  5
EA
100
AcDbEntity
  8
TFR-TRI
390
0
  6
Continuous
 62
     3
100
AcDbLine
 10
4.015751
 20
7.343336
 30
0.0
 11
4.5583
 21
7.343336
 31
0.0
  0
LINE
  5
EB
100
AcDbEntity
  8
TFR-TRI
390
0
  6
Continuous
 62
     3
100
AcDbLine
 10
4.4123
 20
7.468336
 30
0.0
 11
4.4123
 21
7.421709
 31
0.0
  0
LINE
  5
EC
100
AcDbEntity
  8
TFR-TRI
390
0
  6
Continuous
 62
     3
100
AcDbLine
 10
5.525827
 20
0.00875
 30
0.0
 11
5.650827
 21
0.165
 31
0.0
  0
LINE
  5
ED
100
AcDbEntity
  8
TFR-TRI
390
0
  6
Continuous
 62
     3
100
AcDbLine
 10
0.147905
 20
4.15693
 30
0.0
 11
0.216655
 21
4.15693
 31
0.0
  0
LINE
  5
EE
100
AcDbEntity
  8
TFR-TRI
390
0
  6
Continuous
 62
     3
100
AcDbLine
 10
4.45126
 20
3.447589
 30
0.0
 11
4.45126
 21
3.430818
 31
0.0
  0
LINE
  5
EF
100
AcDbEntity
  8
TFR-TRI
390
0
  6
Continuous
 62
    12
100
AcDbLine
 10
7.065722
 20
4.280032
 30
0.0
 11
7.554954
 21
4.563192
 31
0.0
  0
LINE
  5
F0
100
AcDbEntity
  8
TFR-TRI
390
0
  6
Continuous
 62
     3
100
AcDbLine
 10
4.280751
 20
6.000536
 30
0.0
 11
4.181875
 21
6.000536
 31
0.0
  0
LINE
  5
F1
100
AcDbEntity
  8
TFR-TRI
390
0
  6
Continuous
 62
    12
100
AcDbLine
 10
7.552134
 20
4.350453
 30
0.0
 11
7.516448
 21
4.360993
 31
0.0
  0
LINE
  5
F2
100
AcDbEntity
  8
TFR-TRI
390
0
  6
Continuous
 62
     3
100
AcDbLine
 10
5.494577
 20
0.23375
 30
0.0
 11
5.557077
 21
0.23375
 31
0.0
  0
LINE
  5
F3
100
AcDbEntity
  8
TFR-TRI
390
0
  6
Continuous
 62
     3
100
AcDbLine
 10
5.093726
 20
7.218336
 30
0.0
 11
5.093726
 21
7.33214
 31
0.0
  0
LINE
  5
F4
100
AcDbEntity
  8
TFR-TRI
390
0
  6
Continuous
 62
     3
100
AcDbLine
 10
4.4663
 20
7.468336
 30
0.0
 11
4.4663
 21
7.466494
 31
0.0
  0
LINE
  5
F5
100
AcDbEntity
  8
TFR-TRI
390
0
  6
Continuous
 62
     3
100
AcDbLine
 10
4.280751
 20
6.028536
 30
0.0
 11
4.234124
 21
6.028536
 31
0.0
  0
LINE
  5
F6
100
AcDbEntity
  8
TFR-TRI
390
0
  6
Continuous
 62
     3
100
AcDbLine
 10
2.789976
 20
5.001267
 30
0.0
 11
2.72842
 21
5.001267
 31
0.0
  0
LINE
  5
F7
100
AcDbEntity
  8
TFR-TRI
390
0
  6
Continuous
 62
     3
100
AcDbLine
 10
3.641363
 20
4.714518
 30
0.0
 11
3.641363
 21
4.883267
 31
0.0
  0
LINE
  5
F8
100
AcDbEntity
  8
TFR-TRI
390
0
  6
Continuous
 62
     3
100
AcDbLine
 10
4.45726
 20
3.447589
 30
0.0
 11
4.45726
 21
3.408426
 31
0.0
  0
LINE
  5
F9
100
AcDbEntity
  8
TFR-TRI
390
0
  6
Continuous
 62
    12
100
AcDbLine
 10
6.459905
 20
4.42704
 30
0.0
 11
7.01687
 21
4.262538
 31
0.0
  0
LINE
  5
FA
100
AcDbEntity
  8
TFR-TRI
390
0
  6
Continuous
 62
     3
100
AcDbLine
 10
5.617893
 20
6.343336
 30
0.0
 11
5.617893
 21
6.341494
 31
0.0
  0
LINE
  5
FB
100
AcDbEntity
  8
TFR-TRI
390
0
  6
Continuous
 62
     3
100
AcDbLine
 10
3.859501
 20
6.450836
 30
0.0
 11
3.859501
 21
6.570836
 31
0.0
  0
LINE
  5
FC
100
AcDbEntity
  8
TFR-TRI
390
0
  6
Continuous
 62
     3
100
AcDbLine
 10
5.095726
 20
6.530836
 30
0.0
 11
5.095726
 21
6.409568
 31
0.0
  0
LINE
  5
FD
100
AcDbEntity
  8
TFR-TRI
390
0
  6
Continuous
 62
     3
100
AcDbLine
 10
4.280751
 20
6.012537
 30
0.0
 11
4.174411
 21
6.012537
 31
0.0
  0
LINE
  5
FE
100
AcDbEntity
  8
TFR-TRI
390
0
  6
Continuous
 62
    12
100
AcDbLine
 10
7.524456
 20
4.349544
 30
0.0
 11
7.514488
 21
4.360957
 31
0.0
  0
LINE
  5
FF
100
AcDbEntity
  8
TFR-TRI
390
0
  6
Continuous
 62
     3
100
AcDbLine
 10
4.462299
 20
7.468336
 30
0.0
 11
4.462299
 21
7.451566
 31
0.0
  0
LINE
  5
100
100
AcDbEntity
  8
TFR-TRI
390
0
  6
Continuous
 62
     3
100
AcDbLine
 10
3.828251
 20
5.974043
 30
0.0
 11
3.953251
 21
6.007536
 31
0.0
  0
LINE
  5
101
100
AcDbEntity
  8
TFR-TRI
390
0
  6
Continuous
 62
     3
100
AcDbLine
 10
3.828251
 20
6.006536
 30
0.0
 11
3.949519
 21
6.006536
 31
0.0
  0
LINE
  5
102
100
AcDbEntity
  8
TFR-TRI
390
0
  6
Continuous
 62
     3
100
AcDbLine
 10
4.707705
 20
6.930947
 30
0.0
 11
4.752706
 21
6.930947
 31
0.0
  0
LINE
  5
103
100
AcDbEntity
  8
TFR-TRI
390
0
  6
Continuous
 62
     3
100
AcDbLine
 10
5.129726
 20
7.218336
 30
0.0
 11
5.129726
 21
7.220179
 31
0.0
  0
LINE
  5
104
100
AcDbEntity
  8
TFR-TRI
390
0
  6
Continuous
 62
     3
100
AcDbLine
 10
4.030751
 20
5.045268
 30
0.0
 11
4.054986
 21
5.045268
 31
0.0
  0
LINE
  5
105
100
AcDbEntity
  8
TFR-TRI
390
0
  6
Continuous
 62
     3
100
AcDbLine
 10
3.953251
 20
6.007536
 30
0.0
 11
3.728251
 21
6.007536
 31
0.0
  0
LINE
  5
106
100
AcDbEntity
  8
TFR-TRI
390
0
  6
Continuous
 62
    12
100
AcDbLine
 10
7.374012
 20
3.995944
 30
0.0
 11
7.372362
 21
4.050346
 31
0.0
  0
LINE
  5
107
100
AcDbEntity
  8
TFR-TRI
390
0
  6
Continuous
 62
     3
100
AcDbLine
 10
1.124226
 20
5.378087
 30
0.0
 11
0.999226
 21
5.344594
 31
0.0
  0
LINE
  5
108
100
AcDbEntity
  8
TFR-TRI
390
0
  6
Continuous
 62
     3
100
AcDbLine
 10
4.030751
 20
4.985268
 30
0.0
 11
4.032593
 21
4.985268
 31
0.0
  0
LINE
  5
109
100
AcDbEntity
  8
TFR-TRI
390
0
  6
Continuous
 62
     3
100
AcDbLine
 10
5.494577
 20
8.20386
 30
0.0
 11
5.557077
 21
8.20386
 31
0.0
  0
LINE
  5
10A
100
AcDbEntity
  8
TFR-TRI
390
0
  6
Continuous
 62
     3
100
AcDbLine
 10
4.50126
 20
4.428638
 30
0.0
 11
4.50126
 21
4.475266
 31
0.0
  0
LINE
  5
10B
100
AcDbEntity
  8
TFR-TRI
390
0
  6
Continuous
 62
     3
100
AcDbLine
 10
1.124226
 20
5.347593
 30
0.0
 11
1.010422
 21
5.347593
 31
0.0
  0
LINE
  5
10C
100
AcDbEntity
  8
TFR-TRI
390
0
  6
Continuous
 62
     3
100
AcDbLine
 10
5.121727
 20
6.530836
 30
0.0
 11
5.121727
 21
6.499137
 31
0.0
  0
LINE
  5
10D
100
AcDbEntity
  8
TFR-TRI
390
0
  6
Continuous
 62
     3
100
AcDbLine
 10
5.494577
 20
8.21886
 30
0.0
 11
5.557077
 21
8.21886
 31
0.0
  0
LINE
  5
10E
100
AcDbEntity
  8
TFR-TRI
390
0
  6
Continuous
 62
     3
100
AcDbLine
 10
5.063726
 20
6.530836
 30
0.0
 11
5.063726
 21
6.528994
 31
0.0
  0
LINE
  5
10F
100
AcDbEntity
  8
TFR-TRI
390
0
  6
Continuous
 62
     3
100
AcDbLine
 10
5.921268
 20
7.094097
 30
0.0
 11
5.876268
 21
7.094097
 31
0.0
  0
LINE
  5
110
100
AcDbEntity
  8
TFR-TRI
390
0
  6
Continuous
 62
     3
100
AcDbLine
 10
5.420827
 20
8.31386
 30
0.0
 11
5.630827
 21
8.31386
 31
0.0
  0
LINE
  5
111
100
AcDbEntity
  8
TFR-TRI
390
0
  6
Continuous
 62
    12
100
AcDbLine
 10
7.419396
 20
4.022211
 30
0.0
 11
7.416872
 21
4.00345
 31
0.0
  0
LINE
  5
112
100
AcDbEntity
  8
TFR-TRI
390
0
  6
Continuous
 62
    12
100
AcDbLine
 10
7.542508
 20
4.181834
 30
0.0
 11
7.55688
 21
4.194047
 31
0.0
  0
LINE
  5
113
100
AcDbEntity
  8
TFR-TRI
390
0
  6
Continuous
 62
     3
100
AcDbLine
 10
5.091726
 20
6.530836
 30
0.0
 11
5.091726
 21
6.424497
 31
0.0
  0
LINE
  5
114
100
AcDbEntity
  8
TFR-TRI
390
0
  6
Continuous
 62
     3
100
AcDbLine
 10
2.789976
 20
5.029268
 30
0.0
 11
2.706028
 21
5.029268
 31
0.0
  0
LINE
  5
115
100
AcDbEntity
  8
TFR-TRI
390
0
  6
Continuous
 62
     3
100
AcDbLine
 10
10.279419
 20
7.075195
 30
0.0
 11
7.196311
 21
7.075195
 31
0.0
  0
LINE
  5
116
100
AcDbEntity
  8
TFR-TRI
390
0
  6
Continuous
 62
    12
100
AcDbLine
 10
2.755501
 20
4.486363
 30
0.0
 11
2.755501
 21
4.553638
 31
0.0
  0
LINE
  5
117
100
AcDbEntity
  8
TFR-TRI
390
0
  6
Continuous
 62
     3
100
AcDbLine
 10
5.617893
 20
7.405836
 30
0.0
 11
5.617893
 21
7.407679
 31
0.0
  0
LINE
  5
118
100
AcDbEntity
  8
TFR-TRI
390
0
  6
Continuous
 62
     3
100
AcDbLine
 10
4.4663
 20
6.749586
 30
0.0
 11
4.4663
 21
6.751429
 31
0.0
  0
LINE
  5
119
100
AcDbEntity
  8
TFR-TRI
390
0
  6
Continuous
 62
     3
100
AcDbLine
 10
3.938251
 20
7.343336
 30
0.0
 11
3.968251
 21
7.343336
 31
0.0
  0
LINE
  5
11A
100
AcDbEntity
  8
TFR-TRI
390
0
  6
Continuous
 62
     3
100
AcDbLine
 10
4.750635
 20
3.932489
 30
0.0
 11
4.705635
 21
3.932489
 31
0.0
  0
LINE
  5
11B
100
AcDbEntity
  8
TFR-TRI
390
0
  6
Continuous
 62
     3
100
AcDbLine
 10
5.508828
 20
8.42386
 30
0.0
 11
5.542828
 21
8.42386
 31
0.0
  0
LINE
  5
11C
100
AcDbEntity
  8
TFR-TRI
390
0
  6
Continuous
 62
     3
100
AcDbLine
 10
5.643893
 20
7.405836
 30
0.0
 11
5.643893
 21
7.504712
 31
0.0
  0
LINE
  5
11D
100
AcDbEntity
  8
TFR-TRI
390
0
  6
Continuous
 62
    12
100
AcDbLine
 10
1.069821
 20
3.322589
 30
0.0
 11
1.040132
 21
3.322589
 31
0.0
  0
LINE
  5
11E
100
AcDbEntity
  8
TFR-TRI
390
0
  6
Continuous
 62
     3
100
AcDbLine
 10
4.280751
 20
6.006536
 30
0.0
 11
4.159482
 21
6.006536
 31
0.0
  0
LINE
  5
11F
100
AcDbEntity
  8
TFR-TRI
390
0
  6
Continuous
 62
     3
100
AcDbLine
 10
5.521828
 20
0.01375
 30
0.0
 11
5.529828
 21
0.01375
 31
0.0
  0
LINE
  5
120
100
AcDbEntity
  8
TFR-TRI
390
0
  6
Continuous
 62
     3
100
AcDbLine
 10
5.121727
 20
7.218336
 30
0.0
 11
5.121727
 21
7.250035
 31
0.0
  0
LINE
  5
121
100
AcDbEntity
  8
TFR-TRI
390
0
  6
Continuous
 62
     3
100
AcDbLine
 10
5.661893
 20
7.405836
 30
0.0
 11
5.661893
 21
7.489784
 31
0.0
  0
LINE
  5
122
100
AcDbEntity
  8
TFR-TRI
390
0
  6
Continuous
 62
     3
100
AcDbLine
 10
1.124226
 20
5.315593
 30
0.0
 11
1.107455
 21
5.315593
 31
0.0
  0
LINE
  5
123
100
AcDbEntity
  8
TFR-TRI
390
0
  6
Continuous
 62
     3
100
AcDbLine
 10
4.45326
 20
4.428638
 30
0.0
 11
4.45326
 21
4.452873
 31
0.0
  0
LINE
  5
124
100
AcDbEntity
  8
TFR-TRI
390
0
  6
Continuous
 62
     3
100
AcDbLine
 10
5.675893
 20
6.343336
 30
0.0
 11
5.675893
 21
6.311637
 31
0.0
  0
LINE
  5
125
100
AcDbEntity
  8
TFR-TRI
390
0
  6
Continuous
 62
     3
100
AcDbLine
 10
3.951376
 20
6.405836
 30
0.0
 11
3.908251
 21
6.405836
 31
0.0
  0
LINE
  5
126
100
AcDbEntity
  8
TFR-TRI
390
0
  6
Continuous
 62
     3
100
AcDbLine
 10
5.409828
 20
0.15375
 30
0.0
 11
5.641828
 21
0.15375
 31
0.0
  0
LINE
  5
127
100
AcDbEntity
  8
TFR-TRI
390
0
  6
Continuous
 62
     7
100
AcDbLine
 10
9.156445
 20
1.51347
 30
0.0
 11
9.156445
 21
0.25
 31
0.0
  0
LINE
  5
128
100
AcDbEntity
  8
TFR-TRI
390
0
  6
Continuous
 62
     3
100
AcDbLine
 10
10.75
 20
4.25193
 30
0.0
 11
10.96
 21
4.25193
 31
0.0
  0
LINE
  5
129
100
AcDbEntity
  8
TFR-TRI
390
0
  6
Continuous
 62
     3
100
AcDbLine
 10
3.938251
 20
6.405836
 30
0.0
 11
3.968251
 21
6.405836
 31
0.0
  0
LINE
  5
12A
100
AcDbEntity
  8
TFR-TRI
390
0
  6
Continuous
 62
    12
100
AcDbLine
 10
7.62892
 20
4.559357
 30
0.0
 11
7.610334
 21
4.560121
 31
0.0
  0
LINE
  5
12B
100
AcDbEntity
  8
TFR-TRI
390
0
  6
Continuous
 62
     3
100
AcDbLine
 10
5.494577
 20
8.20386
 30
0.0
 11
5.494577
 21
8.28886
 31
0.0
  0
LINE
  5
12C
100
AcDbEntity
  8
TFR-TRI
390
0
  6
Continuous
 62
     3
100
AcDbLine
 10
5.639893
 20
7.405836
 30
0.0
 11
5.639893
 21
7.489784
 31
0.0
  0
LINE
  5
12D
100
AcDbEntity
  8
TFR-TRI
390
0
  6
Continuous
 62
    12
100
AcDbLine
 10
7.392166
 20
4.006451
 30
0.0
 11
7.390515
 21
4.060853
 31
0.0
  0
LINE
  5
12E
100
AcDbEntity
  8
TFR-TRI
390
0
  6
Continuous
 62
     3
100
AcDbLine
 10
1.124226
 20
5.335593
 30
0.0
 11
1.032814
 21
5.335593
 31
0.0
  0
LINE
  5
12F
100
AcDbEntity
  8
TFR-TRI
390
0
  6
Continuous
 62
     3
100
AcDbLine
 10
4.414299
 20
7.468336
 30
0.0
 11
4.414299
 21
7.414245
 31
0.0
  0
LINE
  5
130
100
AcDbEntity
  8
TFR-TRI
390
0
  6
Continuous
 62
     3
100
AcDbLine
 10
5.557077
 20
0.165
 30
0.0
 11
5.650827
 21
0.165
 31
0.0
  0
LINE
  5
131
100
AcDbEntity
  8
TFR-TRI
390
0
  6
Continuous
 62
     3
100
AcDbLine
 10
0.141655
 20
4.16193
 30
0.0
 11
0.216655
 21
4.16193
 31
0.0
  0
LINE
  5
132
100
AcDbEntity
  8
TFR-TRI
390
0
  6
Continuous
 62
     3
100
AcDbLine
 10
0.104155
 20
4.19193
 30
0.0
 11
0.216655
 21
4.19193
 31
0.0
  0
LINE
  5
133
100
AcDbEntity
  8
TFR-TRI
390
0
  6
Continuous
 62
     3
100
AcDbLine
 10
2.789976
 20
5.021267
 30
0.0
 11
2.676172
 21
5.021267
 31
0.0
  0
LINE
  5
134
100
AcDbEntity
  8
TFR-TRI
390
0
  6
Continuous
 62
     3
100
AcDbLine
 10
10.835
 20
4.13693
 30
0.0
 11
10.87875
 21
4.13693
 31
0.0
  0
LINE
  5
135
100
AcDbEntity
  8
TFR-TRI
390
0
  6
Continuous
 62
    12
100
AcDbLine
 10
7.571462
 20
3.816192
 30
0.0
 11
7.585957
 21
3.828547
 31
0.0
  0
LINE
  5
136
100
AcDbEntity
  8
TFR-TRI
390
0
  6
Continuous
 62
     3
100
AcDbLine
 10
1.124226
 20
5.349593
 30
0.0
 11
1.017886
 21
5.349593
 31
0.0
  0
LINE
  5
137
100
AcDbEntity
  8
TFR-TRI
390
0
  6
Continuous
 62
    12
100
AcDbLine
 10
7.515688
 20
4.360564
 30
0.0
 11
7.516448
 21
4.360993
 31
0.0
  0
LINE
  5
138
100
AcDbEntity
  8
TFR-TRI
390
0
  6
Continuous
 62
    12
100
AcDbLine
 10
1.003927
 20
3.322589
 30
0.0
 11
0.999226
 21
3.322589
 31
0.0
  0
LINE
  5
139
100
AcDbEntity
  8
TFR-TRI
390
0
  6
Continuous
 62
     3
100
AcDbLine
 10
5.095726
 20
7.218336
 30
0.0
 11
5.095726
 21
7.339604
 31
0.0
  0
LINE
  5
13A
100
AcDbEntity
  8
TFR-TRI
390
0
  6
Continuous
 62
    12
100
AcDbLine
 10
7.581241
 20
4.413867
 30
0.0
 11
7.590171
 21
4.436487
 31
0.0
  0
LINE
  5
13B
100
AcDbEntity
  8
TFR-TRI
390
0
  6
Continuous
 62
     3
100
AcDbLine
 10
4.030751
 20
5.359593
 30
0.0
 11
4.09977
 21
5.359593
 31
0.0
  0
LINE
  5
13C
100
AcDbEntity
  8
TFR-TRI
390
0
  6
Continuous
 62
    12
100
AcDbLine
 10
4.085155
 20
4.486363
 30
0.0
 11
4.049604
 21
4.486363
 31
0.0
  0
LINE
  5
13D
100
AcDbEntity
  8
TFR-TRI
390
0
  6
Continuous
 62
    12
100
AcDbLine
 10
6.024478
 20
3.560723
 30
0.0
 11
5.988793
 21
3.571263
 31
0.0
  0
LINE
  5
13E
100
AcDbEntity
  8
TFR-TRI
390
0
  6
Continuous
 62
     3
100
AcDbLine
 10
4.280751
 20
6.026536
 30
0.0
 11
4.22666
 21
6.026536
 31
0.0
  0
LINE
  5
13F
100
AcDbEntity
  8
TFR-TRI
390
0
  6
Continuous
 62
     3
100
AcDbLine
 10
3.641363
 20
4.883267
 30
0.0
 11
3.596363
 21
4.883267
 31
0.0
  0
LINE
  5
140
100
AcDbEntity
  8
TFR-TRI
390
0
  6
Continuous
 62
     3
100
AcDbLine
 10
5.617893
 20
6.343336
 30
0.0
 11
5.617893
 21
6.341494
 31
0.0
  0
LINE
  5
141
100
AcDbEntity
  8
TFR-TRI
390
0
  6
Continuous
 62
     3
100
AcDbLine
 10
3.953251
 20
6.390836
 30
0.0
 11
3.953251
 21
6.420836
 31
0.0
  0
LINE
  5
142
100
AcDbEntity
  8
TFR-TRI
390
0
  6
Continuous
 62
     3
100
AcDbLine
 10
10.835
 20
4.17693
 30
0.0
 11
10.92875
 21
4.17693
 31
0.0
  0
LINE
  5
143
100
AcDbEntity
  8
TFR-TRI
390
0
  6
Continuous
 62
     3
100
AcDbLine
 10
4.4333
 20
6.874586
 30
0.0
 11
4.399806
 21
6.749586
 31
0.0
  0
LINE
  5
144
100
AcDbEntity
  8
TFR-TRI
390
0
  6
Continuous
 62
    12
100
AcDbLine
 10
7.514488
 20
4.360957
 30
0.0
 11
7.508828
 21
4.378758
 31
0.0
  0
LINE
  5
145
100
AcDbEntity
  8
TFR-TRI
390
0
  6
Continuous
 62
     3
100
AcDbLine
 10
10.835
 20
4.26193
 30
0.0
 11
10.9475
 21
4.26193
 31
0.0
  0
LINE
  5
146
100
AcDbEntity
  8
TFR-TRI
390
0
  6
Continuous
 62
     3
100
AcDbLine
 10
1.124226
 20
5.355593
 30
0.0
 11
1.040278
 21
5.355593
 31
0.0
  0
LINE
  5
147
100
AcDbEntity
  8
TFR-TRI
390
0
  6
Continuous
 62
     3
100
AcDbLine
 10
3.828251
 20
6.040536
 30
0.0
 11
3.830093
 21
6.040536
 31
0.0
  0
LINE
  5
148
100
AcDbEntity
  8
TFR-TRI
390
0
  6
Continuous
 62
     3
100
AcDbLine
 10
1.78951
 20
5.209593
 30
0.0
 11
1.74451
 21
5.209593
 31
0.0
  0
LINE
  5
149
100
AcDbEntity
  8
TFR-TRI
390
0
  6
Continuous
 62
     3
100
AcDbLine
 10
4.752706
 20
6.930947
 30
0.0
 11
4.752706
 21
7.099697
 31
0.0
  0
LINE
  5
14A
100
AcDbEntity
  8
TFR-TRI
390
0
  6
Continuous
 62
     3
100
AcDbLine
 10
2.789976
 20
5.039268
 30
0.0
 11
2.743349
 21
5.039268
 31
0.0
  0
LINE
  5
14B
100
AcDbEntity
  8
TFR-TRI
390
0
  6
Continuous
 62
     3
100
AcDbLine
 10
4.333635
 20
3.932489
 30
0.0
 11
4.288635
 21
3.932489
 31
0.0
  0
LINE
  5
14C
100
AcDbEntity
  8
TFR-TRI
390
0
  6
Continuous
 62
     3
100
AcDbLine
 10
5.494577
 20
8.25886
 30
0.0
 11
5.557077
 21
8.25886
 31
0.0
  0
LINE
  5
14D
100
AcDbEntity
  8
TFR-TRI
390
0
  6
Continuous
 62
     3
100
AcDbLine
 10
5.129726
 20
7.218336
 30
0.0
 11
5.129726
 21
7.220179
 31
0.0
  0
LINE
  5
14E
100
AcDbEntity
  8
TFR-TRI
390
0
  6
Continuous
 62
     3
100
AcDbLine
 10
4.030751
 20
5.043268
 30
0.0
 11
4.062449
 21
5.043268
 31
0.0
  0
LINE
  5
14F
100
AcDbEntity
  8
TFR-TRI
390
0
  6
Continuous
 62
     3
100
AcDbLine
 10
5.105726
 20
7.218336
 30
0.0
 11
5.105726
 21
7.309748
 31
0.0
  0
LINE
  5
150
100
AcDbEntity
  8
TFR-TRI
390
0
  6
Continuous
 62
    12
100
AcDbLine
 10
7.630973
 20
3.933501
 30
0.0
 11
7.640942
 21
3.922088
 31
0.0
  0
LINE
  5
151
100
AcDbEntity
  8
TFR-TRI
390
0
  6
Continuous
 62
    12
100
AcDbLine
 10
7.372362
 20
4.050346
 30
0.0
 11
7.374886
 21
4.069106
 31
0.0
  0
LINE
  5
152
100
AcDbEntity
  8
TFR-TRI
390
0
  6
Continuous
 62
    12
100
AcDbLine
 10
7.512562
 20
4.424426
 30
0.0
 11
7.521506
 21
4.446784
 31
0.0
  0
LINE
  5
153
100
AcDbEntity
  8
TFR-TRI
390
0
  6
Continuous
 62
    12
100
AcDbLine
 10
7.516448
 20
4.360993
 30
0.0
 11
7.554267
 21
4.382883
 31
0.0
  0
LINE
  5
154
100
AcDbEntity
  8
TFR-TRI
390
0
  6
Continuous
 62
     3
100
AcDbLine
 10
4.030751
 20
4.985268
 30
0.0
 11
4.032593
 21
4.985268
 31
0.0
  0
LINE
  5
155
100
AcDbEntity
  8
TFR-TRI
390
0
  6
Continuous
 62
     3
100
AcDbLine
 10
5.111726
 20
6.530836
 30
0.0
 11
5.111726
 21
6.461817
 31
0.0
  0
LINE
  5
156
100
AcDbEntity
  8
TFR-TRI
390
0
  6
Continuous
 62
     3
100
AcDbLine
 10
5.494577
 20
8.20886
 30
0.0
 11
5.557077
 21
8.20886
 31
0.0
  0
LINE
  5
157
100
AcDbEntity
  8
TFR-TRI
390
0
  6
Continuous
 62
     3
100
AcDbLine
 10
4.499259
 20
4.428638
 30
0.0
 11
4.499259
 21
4.482729
 31
0.0
  0
LINE
  5
158
100
AcDbEntity
  8
TFR-TRI
390
0
  6
Continuous
 62
     3
100
AcDbLine
 10
5.119726
 20
6.530836
 30
0.0
 11
5.119726
 21
6.491673
 31
0.0
  0
LINE
  5
159
100
AcDbEntity
  8
TFR-TRI
390
0
  6
Continuous
 62
    12
100
AcDbLine
 10
6.011273
 20
3.995941
 30
0.0
 11
6.017813
 21
3.995672
 31
0.0
  0
LINE
  5
15A
100
AcDbEntity
  8
TFR-TRI
390
0
  6
Continuous
 62
     3
100
AcDbLine
 10
4.905101
 20
6.826783
 30
0.0
 11
4.905101
 21
6.658033
 31
0.0
  0
LINE
  5
15B
100
AcDbEntity
  8
TFR-TRI
390
0
  6
Continuous
 62
     3
100
AcDbLine
 10
4.030751
 20
5.373593
 30
0.0
 11
4.047521
 21
5.373593
 31
0.0
  0
LINE
  5
15C
100
AcDbEntity
  8
TFR-TRI
390
0
  6
Continuous
 62
     3
100
AcDbLine
 10
4.51326
 20
3.447589
 30
0.0
 11
4.51326
 21
3.445746
 31
0.0
  0
LINE
  5
15D
100
AcDbEntity
  8
TFR-TRI
390
0
  6
Continuous
 62
     3
100
AcDbLine
 10
5.065726
 20
6.530836
 30
0.0
 11
5.065726
 21
6.52153
 31
0.0
  0
LINE
  5
15E
100
AcDbEntity
  8
TFR-TRI
390
0
  6
Continuous
 62
     3
100
AcDbLine
 10
4.030751
 20
7.530836
 30
0.0
 11
5.775893
 21
7.530836
 31
0.0
  0
LINE
  5
15F
100
AcDbEntity
  8
TFR-TRI
390
0
  6
Continuous
 62
    12
100
AcDbLine
 10
2.702291
 20
6.218336
 30
0.0
 11
2.727527
 21
6.218336
 31
0.0
  0
LINE
  5
160
100
AcDbEntity
  8
TFR-TRI
390
0
  6
Continuous
 62
     3
100
AcDbLine
 10
5.424828
 20
8.31886
 30
0.0
 11
5.626828
 21
8.31886
 31
0.0
  0
LINE
  5
161
100
AcDbEntity
  8
TFR-TRI
390
0
  6
Continuous
 62
    12
100
AcDbLine
 10
6.017813
 20
3.995672
 30
0.0
 11
6.020763
 21
3.987594
 31
0.0
  0
LINE
  5
162
100
AcDbEntity
  8
TFR-TRI
390
0
  6
Continuous
 62
     7
100
AcDbLine
 10
1.430401
 20
0.25
 30
0.0
 11
1.430401
 21
2.573295
 31
0.0
  0
LINE
  5
163
100
AcDbEntity
  8
TFR-TRI
390
0
  6
Continuous
 62
     3
100
AcDbLine
 10
0.072905
 20
4.21693
 30
0.0
 11
0.301655
 21
4.21693
 31
0.0
  0
LINE
  5
164
100
AcDbEntity
  8
TFR-TRI
390
0
  6
Continuous
 62
     3
100
AcDbLine
 10
4.280751
 20
6.004536
 30
0.0
 11
4.166947
 21
6.004536
 31
0.0
  0
LINE
  5
165
100
AcDbEntity
  8
TFR-TRI
390
0
  6
Continuous
 62
     3
100
AcDbLine
 10
2.789976
 20
5.027267
 30
0.0
 11
2.698564
 21
5.027267
 31
0.0
  0
LINE
  5
166
100
AcDbEntity
  8
TFR-TRI
390
0
  6
Continuous
 62
     3
100
AcDbLine
 10
7.196311
 20
7.075195
 30
0.0
 11
7.196311
 21
7.905532
 31
0.0
  0
LINE
  5
167
100
AcDbEntity
  8
TFR-TRI
390
0
  6
Continuous
 62
     3
100
AcDbLine
 10
5.617893
 20
7.405836
 30
0.0
 11
5.617893
 21
7.407679
 31
0.0
  0
LINE
  5
168
100
AcDbEntity
  8
TFR-TRI
390
0
  6
Continuous
 62
    12
100
AcDbLine
 10
7.5387
 20
3.880094
 30
0.0
 11
7.551105
 21
3.898489
 31
0.0
  0
LINE
  5
169
100
AcDbEntity
  8
TFR-TRI
390
0
  6
Continuous
 62
     3
100
AcDbLine
 10
0.135405
 20
4.28693
 30
0.0
 11
0.216655
 21
4.28693
 31
0.0
  0
LINE
  5
16A
100
AcDbEntity
  8
TFR-TRI
390
0
  6
Continuous
 62
     3
100
AcDbLine
 10
4.030751
 20
5.365593
 30
0.0
 11
4.077378
 21
5.365593
 31
0.0
  0
LINE
  5
16B
100
AcDbEntity
  8
TFR-TRI
390
0
  6
Continuous
 62
     3
100
AcDbLine
 10
5.512827
 20
8.42886
 30
0.0
 11
5.538827
 21
8.42886
 31
0.0
  0
LINE
  5
16C
100
AcDbEntity
  8
TFR-TRI
390
0
  6
Continuous
 62
     3
100
AcDbLine
 10
5.645893
 20
7.405836
 30
0.0
 11
5.645893
 21
7.512176
 31
0.0
  0
LINE
  5
16D
100
AcDbEntity
  8
TFR-TRI
390
0
  6
Continuous
 62
     3
100
AcDbLine
 10
4.4403
 20
6.749586
 30
0.0
 11
4.4403
 21
6.848462
 31
0.0
  0
LINE
  5
16E
100
AcDbEntity
  8
TFR-TRI
390
0
  6
Continuous
 62
     3
100
AcDbLine
 10
4.030751
 20
5.017268
 30
0.0
 11
4.152019
 21
5.017268
 31
0.0
  0
LINE
  5
16F
100
AcDbEntity
  8
TFR-TRI
390
0
  6
Continuous
 62
     3
100
AcDbLine
 10
0.166655
 20
4.31193
 30
0.0
 11
0.216655
 21
4.31193
 31
0.0
  0
LINE
  5
170
100
AcDbEntity
  8
TFR-TRI
390
0
  6
Continuous
 62
     3
100
AcDbLine
 10
5.063726
 20
7.218336
 30
0.0
 11
5.063726
 21
7.220179
 31
0.0
  0
LINE
  5
171
100
AcDbEntity
  8
TFR-TRI
390
0
  6
Continuous
 62
     3
100
AcDbLine
 10
5.517828
 20
0.01875
 30
0.0
 11
5.533827
 21
0.01875
 31
0.0
  0
LINE
  5
172
100
AcDbEntity
  8
TFR-TRI
390
0
  6
Continuous
 62
     3
100
AcDbLine
 10
5.119726
 20
7.218336
 30
0.0
 11
5.119726
 21
7.257499
 31
0.0
  0
LINE
  5
173
100
AcDbEntity
  8
TFR-TRI
390
0
  6
Continuous
 62
     3
100
AcDbLine
 10
5.659893
 20
7.405836
 30
0.0
 11
5.659893
 21
7.497248
 31
0.0
  0
LINE
  5
174
100
AcDbEntity
  8
TFR-TRI
390
0
  6
Continuous
 62
     3
100
AcDbLine
 10
4.030751
 20
5.327593
 30
0.0
 11
4.092306
 21
5.327593
 31
0.0
  0
LINE
  5
175
100
AcDbEntity
  8
TFR-TRI
390
0
  6
Continuous
 62
    12
100
AcDbLine
 10
5.870997
 20
3.900912
 30
0.0
 11
5.883378
 21
3.492895
 31
0.0
  0
LINE
  5
176
100
AcDbEntity
  8
TFR-TRI
390
0
  6
Continuous
 62
     3
100
AcDbLine
 10
5.091726
 20
7.218336
 30
0.0
 11
5.091726
 21
7.324676
 31
0.0
  0
LINE
  5
177
100
AcDbEntity
  8
TFR-TRI
390
0
  6
Continuous
 62
     3
100
AcDbLine
 10
1.124226
 20
5.317594
 30
0.0
 11
1.099991
 21
5.317594
 31
0.0
  0
LINE
  5
178
100
AcDbEntity
  8
TFR-TRI
390
0
  6
Continuous
 62
     3
100
AcDbLine
 10
4.45526
 20
4.428638
 30
0.0
 11
4.45526
 21
4.460337
 31
0.0
  0
LINE
  5
179
100
AcDbEntity
  8
TFR-TRI
390
0
  6
Continuous
 62
     3
100
AcDbLine
 10
5.494577
 20
8.24886
 30
0.0
 11
5.557077
 21
8.24886
 31
0.0
  0
LINE
  5
17A
100
AcDbEntity
  8
TFR-TRI
390
0
  6
Continuous
 62
     3
100
AcDbLine
 10
5.516828
 20
8.43386
 30
0.0
 11
5.534828
 21
8.43386
 31
0.0
  0
LINE
  5
17B
100
AcDbEntity
  8
TFR-TRI
390
0
  6
Continuous
 62
     3
100
AcDbLine
 10
5.673892
 20
6.343336
 30
0.0
 11
5.673892
 21
6.304173
 31
0.0
  0
LINE
  5
17C
100
AcDbEntity
  8
TFR-TRI
390
0
  6
Continuous
 62
    12
100
AcDbLine
 10
5.808081
 20
3.310921
 30
0.0
 11
5.820814
 21
3.294405
 31
0.0
  0
LINE
  5
17D
100
AcDbEntity
  8
TFR-TRI
390
0
  6
Continuous
 62
     3
100
AcDbLine
 10
4.46526
 20
4.428638
 30
0.0
 11
4.46526
 21
4.497658
 31
0.0
  0
LINE
  5
17E
100
AcDbEntity
  8
TFR-TRI
390
0
  6
Continuous
 62
     3
100
AcDbLine
 10
5.405828
 20
0.15875
 30
0.0
 11
5.645827
 21
0.15875
 31
0.0
  0
LINE
  5
17F
100
AcDbEntity
  8
TFR-TRI
390
0
  6
Continuous
 62
     3
100
AcDbLine
 10
8.606505
 20
1.22298
 30
0.0
 11
8.600599
 21
1.22298
 31
0.0
  0
LINE
  5
180
100
AcDbEntity
  8
TFR-TRI
390
0
  6
Continuous
 62
     7
100
AcDbLine
 10
0.301655
 20
1.54347
 30
0.0
 11
6.585438
 21
1.54347
 31
0.0
  0
LINE
  5
181
100
AcDbEntity
  8
TFR-TRI
390
0
  6
Continuous
 62
     3
100
AcDbLine
 10
5.677893
 20
7.405836
 30
0.0
 11
5.677893
 21
7.430071
 31
0.0
  0
LINE
  5
182
100
AcDbEntity
  8
TFR-TRI
390
0
  6
Continuous
 62
     3
100
AcDbLine
 10
3.998251
 20
6.405836
 30
0.0
 11
4.118251
 21
6.405836
 31
0.0
  0
LINE
  5
183
100
AcDbEntity
  8
TFR-TRI
390
0
  6
Continuous
 62
     3
100
AcDbLine
 10
5.469828
 20
0.07875
 30
0.0
 11
5.581828
 21
0.07875
 31
0.0
  0
LINE
  5
184
100
AcDbEntity
  8
TFR-TRI
390
0
  6
Continuous
 62
    12
100
AcDbLine
 10
3.511876
 20
6.919586
 30
0.0
 11
3.511876
 21
6.829586
 31
0.0
  0
LINE
  5
185
100
AcDbEntity
  8
TFR-TRI
390
0
  6
Continuous
 62
     3
100
AcDbLine
 10
4.450299
 20
7.468336
 30
0.0
 11
4.450299
 21
7.406781
 31
0.0
  0
LINE
  5
186
100
AcDbEntity
  8
TFR-TRI
390
0
  6
Continuous
 62
     3
100
AcDbLine
 10
4.030751
 20
5.341593
 30
0.0
 11
4.144555
 21
5.341593
 31
0.0
  0
LINE
  5
187
100
AcDbEntity
  8
TFR-TRI
390
0
  6
Continuous
 62
     3
100
AcDbLine
 10
4.950101
 20
6.826783
 30
0.0
 11
4.905101
 21
6.826783
 31
0.0
  0
LINE
  5
188
100
AcDbEntity
  8
TFR-TRI
390
0
  6
Continuous
 62
    12
100
AcDbLine
 10
2.641726
 20
6.218336
 30
0.0
 11
1.186726
 21
6.218336
 31
0.0
  0
LINE
  5
189
100
AcDbEntity
  8
TFR-TRI
390
0
  6
Continuous
 62
     3
100
AcDbLine
 10
5.679893
 20
7.405836
 30
0.0
 11
5.679893
 21
7.422607
 31
0.0
  0
LINE
  5
18A
100
AcDbEntity
  8
TFR-TRI
390
0
  6
Continuous
 62
     3
100
AcDbLine
 10
4.416299
 20
7.468336
 30
0.0
 11
4.416299
 21
7.406781
 31
0.0
  0
LINE
  5
18B
100
AcDbEntity
  8
TFR-TRI
390
0
  6
Continuous
 62
     3
100
AcDbLine
 10
5.525827
 20
0.00875
 30
0.0
 11
5.400827
 21
0.165
 31
0.0
  0
LINE
  5
18C
100
AcDbEntity
  8
TFR-TRI
390
0
  6
Continuous
 62
     3
100
AcDbLine
 10
10.835
 20
4.14193
 30
0.0
 11
10.885
 21
4.14193
 31
0.0
  0
LINE
  5
18D
100
AcDbEntity
  8
TFR-TRI
390
0
  6
Continuous
 62
    12
100
AcDbLine
 10
1.186726
 20
3.389864
 30
0.0
 11
1.186726
 21
3.322589
 31
0.0
  0
LINE
  5
18E
100
AcDbEntity
  8
TFR-TRI
390
0
  6
Continuous
 62
    12
100
AcDbLine
 10
7.554267
 20
4.382883
 30
0.0
 11
7.568762
 21
4.395237
 31
0.0
  0
LINE
  5
18F
100
AcDbEntity
  8
TFR-TRI
390
0
  6
Continuous
 62
     3
100
AcDbLine
 10
5.494577
 20
0.24375
 30
0.0
 11
5.557077
 21
0.24375
 31
0.0
  0
LINE
  5
190
100
AcDbEntity
  8
TFR-TRI
390
0
  6
Continuous
 62
    12
100
AcDbLine
 10
3.399376
 20
6.829586
 30
0.0
 11
3.399376
 21
6.919586
 31
0.0
  0
LINE
  5
191
100
AcDbEntity
  8
TFR-TRI
390
0
  6
Continuous
 62
     3
100
AcDbLine
 10
2.789976
 20
5.013268
 30
0.0
 11
2.683636
 21
5.013268
 31
0.0
  0
LINE
  5
192
100
AcDbEntity
  8
TFR-TRI
390
0
  6
Continuous
 62
     3
100
AcDbLine
 10
4.030751
 20
5.357594
 30
0.0
 11
4.107234
 21
5.357594
 31
0.0
  0
LINE
  5
193
100
AcDbEntity
  8
TFR-TRI
390
0
  6
Continuous
 62
    12
100
AcDbLine
 10
4.049604
 20
4.486363
 30
0.0
 11
4.009974
 21
4.486363
 31
0.0
  0
LINE
  5
194
100
AcDbEntity
  8
TFR-TRI
390
0
  6
Continuous
 62
     3
100
AcDbLine
 10
4.155751
 20
4.616138
 30
0.0
 11
4.155751
 21
5.143268
 31
0.0
  0
LINE
  5
195
100
AcDbEntity
  8
TFR-TRI
390
0
  6
Continuous
 62
     3
100
AcDbLine
 10
10.75
 20
4.22693
 30
0.0
 11
10.99125
 21
4.22693
 31
0.0
  0
LINE
  5
196
100
AcDbEntity
  8
TFR-TRI
390
0
  6
Continuous
 62
     3
100
AcDbLine
 10
3.953251
 20
6.360836
 30
0.0
 11
3.953251
 21
6.240836
 31
0.0
  0
LINE
  5
197
100
AcDbEntity
  8
TFR-TRI
390
0
  6
Continuous
 62
    12
100
AcDbLine
 10
1.040132
 20
3.389864
 30
0.0
 11
1.069821
 21
3.389864
 31
0.0
  0
LINE
  5
198
100
AcDbEntity
  8
TFR-TRI
390
0
  6
Continuous
 62
     3
100
AcDbLine
 10
4.399806
 20
6.749586
 30
0.0
 11
4.466793
 21
6.749586
 31
0.0
  0
LINE
  5
199
100
AcDbEntity
  8
TFR-TRI
390
0
  6
Continuous
 62
     3
100
AcDbLine
 10
4.422299
 20
6.749586
 30
0.0
 11
4.422299
 21
6.833534
 31
0.0
  0
LINE
  5
19A
100
AcDbEntity
  8
TFR-TRI
390
0
  6
Continuous
 62
     7
100
AcDbLine
 10
0.301655
 20
8.20386
 30
0.0
 11
10.75
 21
8.20386
 31
0.0
  0
LINE
  5
19B
100
AcDbEntity
  8
TFR-TRI
390
0
  6
Continuous
 62
    12
100
AcDbLine
 10
7.61673
 20
4.40295
 30
0.0
 11
7.604324
 21
4.384555
 31
0.0
  0
LINE
  5
19C
100
AcDbEntity
  8
TFR-TRI
390
0
  6
Continuous
 62
    12
100
AcDbLine
 10
2.755501
 20
4.553638
 30
0.0
 11
3.968251
 21
4.553638
 31
0.0
  0
LINE
  5
19D
100
AcDbEntity
  8
TFR-TRI
390
0
  6
Continuous
 62
     3
100
AcDbLine
 10
4.752706
 20
7.099697
 30
0.0
 11
4.707705
 21
7.099697
 31
0.0
  0
LINE
  5
19E
100
AcDbEntity
  8
TFR-TRI
390
0
  6
Continuous
 62
     3
100
AcDbLine
 10
3.938251
 20
6.874586
 30
0.0
 11
3.968251
 21
6.874586
 31
0.0
  0
LINE
  5
19F
100
AcDbEntity
  8
TFR-TRI
390
0
  6
Continuous
 62
     3
100
AcDbLine
 10
8.594037
 20
1.210512
 30
0.0
 11
8.600599
 21
1.203949
 31
0.0
  0
LINE
  5
1A0
100
AcDbEntity
  8
TFR-TRI
390
0
  6
Continuous
 62
     3
100
AcDbLine
 10
5.103726
 20
7.218336
 30
0.0
 11
5.103726
 21
7.317212
 31
0.0
  0
LINE
  5
1A1
100
AcDbEntity
  8
TFR-TRI
390
0
  6
Continuous
 62
    12
100
AcDbLine
 10
7.554954
 20
4.563192
 30
0.0
 11
7.574961
 21
4.570715
 31
0.0
  0
LINE
  5
1A2
100
AcDbEntity
  8
TFR-TRI
390
0
  6
Continuous
 62
     3
100
AcDbLine
 10
2.789976
 20
5.007267
 30
0.0
 11
2.706028
 21
5.007267
 31
0.0
  0
LINE
  5
1A3
100
AcDbEntity
  8
TFR-TRI
390
0
  6
Continuous
 62
     3
100
AcDbLine
 10
5.494577
 20
8.21386
 30
0.0
 11
5.557077
 21
8.21386
 31
0.0
  0
LINE
  5
1A4
100
AcDbEntity
  8
TFR-TRI
390
0
  6
Continuous
 62
     3
100
AcDbLine
 10
5.117726
 20
6.530836
 30
0.0
 11
5.117726
 21
6.484209
 31
0.0
  0
LINE
  5
1A5
100
AcDbEntity
  8
TFR-TRI
390
0
  6
Continuous
 62
     3
100
AcDbLine
 10
3.938251
 20
7.343336
 30
0.0
 11
3.968251
 21
7.343336
 31
0.0
  0
LINE
  5
1A6
100
AcDbEntity
  8
TFR-TRI
390
0
  6
Continuous
 62
     3
100
AcDbLine
 10
4.4583
 20
7.468336
 30
0.0
 11
4.4583
 21
7.436637
 31
0.0
  0
LINE
  5
1A7
100
AcDbEntity
  8
TFR-TRI
390
0
  6
Continuous
 62
     3
100
AcDbLine
 10
10.835
 20
4.29693
 30
0.0
 11
10.90375
 21
4.29693
 31
0.0
  0
LINE
  5
1A8
100
AcDbEntity
  8
TFR-TRI
390
0
  6
Continuous
 62
     3
100
AcDbLine
 10
4.030751
 20
5.371593
 30
0.0
 11
4.054986
 21
5.371593
 31
0.0
  0
LINE
  5
1A9
100
AcDbEntity
  8
TFR-TRI
390
0
  6
Continuous
 62
     3
100
AcDbLine
 10
0.141655
 20
4.29193
 30
0.0
 11
0.216655
 21
4.29193
 31
0.0
  0
LINE
  5
1AA
100
AcDbEntity
  8
TFR-TRI
390
0
  6
Continuous
 62
     3
100
AcDbLine
 10
2.789976
 20
4.985268
 30
0.0
 11
2.788133
 21
4.985268
 31
0.0
  0
LINE
  5
1AB
100
AcDbEntity
  8
TFR-TRI
390
0
  6
Continuous
 62
     3
100
AcDbLine
 10
4.51126
 20
3.447589
 30
0.0
 11
4.51126
 21
3.438282
 31
0.0
  0
LINE
  5
1AC
100
AcDbEntity
  8
TFR-TRI
390
0
  6
Continuous
 62
     3
100
AcDbLine
 10
4.030751
 20
6.218336
 30
0.0
 11
5.775893
 21
6.218336
 31
0.0
  0
LINE
  5
1AD
100
AcDbEntity
  8
TFR-TRI
390
0
  6
Continuous
 62
    12
100
AcDbLine
 10
5.743348
 20
3.938955
 30
0.0
 11
5.760542
 21
3.372265
 31
0.0
  0
LINE
  5
1AE
100
AcDbEntity
  8
TFR-TRI
390
0
  6
Continuous
 62
     3
100
AcDbLine
 10
5.428827
 20
8.32386
 30
0.0
 11
5.622828
 21
8.32386
 31
0.0
  0
LINE
  5
1AF
100
AcDbEntity
  8
TFR-TRI
390
0
  6
Continuous
 62
     3
100
AcDbLine
 10
10.835
 20
4.34693
 30
0.0
 11
10.84125
 21
4.34693
 31
0.0
  0
LINE
  5
1B0
100
AcDbEntity
  8
TFR-TRI
390
0
  6
Continuous
 62
     3
100
AcDbLine
 10
4.46926
 20
3.447589
 30
0.0
 11
4.46926
 21
3.363641
 31
0.0
  0
LINE
  5
1B1
100
AcDbEntity
  8
TFR-TRI
390
0
  6
Continuous
 62
     3
100
AcDbLine
 10
0.066655
 20
4.22193
 30
0.0
 11
0.301655
 21
4.22193
 31
0.0
  0
LINE
  5
1B2
100
AcDbEntity
  8
TFR-TRI
390
0
  6
Continuous
 62
     3
100
AcDbLine
 10
4.030751
 20
5.319593
 30
0.0
 11
4.062449
 21
5.319593
 31
0.0
  0
LINE
  5
1B3
100
AcDbEntity
  8
TFR-TRI
390
0
  6
Continuous
 62
     3
100
AcDbLine
 10
3.828251
 20
5.988536
 30
0.0
 11
3.882342
 21
5.988536
 31
0.0
  0
LINE
  5
1B4
100
AcDbEntity
  8
TFR-TRI
390
0
  6
Continuous
 62
     3
100
AcDbLine
 10
7.196311
 20
7.490364
 30
0.0
 11
10.279419
 21
7.490364
 31
0.0
  0
LINE
  5
1B5
100
AcDbEntity
  8
TFR-TRI
390
0
  6
Continuous
 62
     3
100
AcDbLine
 10
1.124226
 20
5.345593
 30
0.0
 11
1.002958
 21
5.345593
 31
0.0
  0
LINE
  5
1B6
100
AcDbEntity
  8
TFR-TRI
390
0
  6
Continuous
 62
     3
100
AcDbLine
 10
5.619893
 20
7.405836
 30
0.0
 11
5.619893
 21
7.415143
 31
0.0
  0
LINE
  5
1B7
100
AcDbEntity
  8
TFR-TRI
390
0
  6
Continuous
 62
     3
100
AcDbLine
 10
4.335706
 20
7.099697
 30
0.0
 11
4.290706
 21
7.099697
 31
0.0
  0
LINE
  5
1B8
100
AcDbEntity
  8
TFR-TRI
390
0
  6
Continuous
 62
     3
100
AcDbLine
 10
3.828251
 20
6.014536
 30
0.0
 11
3.927126
 21
6.014536
 31
0.0
  0
LINE
  5
1B9
100
AcDbEntity
  8
TFR-TRI
390
0
  6
Continuous
 62
    12
100
AcDbLine
 10
7.551105
 20
3.898489
 30
0.0
 11
7.565476
 21
3.910702
 31
0.0
  0
LINE
  5
1BA
100
AcDbEntity
  8
TFR-TRI
390
0
  6
Continuous
 62
     3
100
AcDbLine
 10
3.998251
 20
7.343336
 30
0.0
 11
4.118251
 21
7.343336
 31
0.0
  0
LINE
  5
1BB
100
AcDbEntity
  8
TFR-TRI
390
0
  6
Continuous
 62
     7
100
AcDbLine
 10
10.75
 20
2.573295
 30
0.0
 11
0.301655
 21
2.573295
 31
0.0
  0
LINE
  5
1BC
100
AcDbEntity
  8
TFR-TRI
390
0
  6
Continuous
 62
     3
100
AcDbLine
 10
5.647893
 20
7.405836
 30
0.0
 11
5.647893
 21
7.51964
 31
0.0
  0
LINE
  5
1BD
100
AcDbEntity
  8
TFR-TRI
390
0
  6
Continuous
 62
    12
100
AcDbLine
 10
7.585957
 20
3.828547
 30
0.0
 11
7.598435
 21
3.847177
 31
0.0
  0
LINE
  5
1BE
100
AcDbEntity
  8
TFR-TRI
390
0
  6
Continuous
 62
     3
100
AcDbLine
 10
8.600599
 20
1.22298
 30
0.0
 11
8.594037
 21
1.216418
 31
0.0
  0
LINE
  5
1BF
100
AcDbEntity
  8
TFR-TRI
390
0
  6
Continuous
 62
     3
100
AcDbLine
 10
4.030751
 20
5.321593
 30
0.0
 11
4.069913
 21
5.321593
 31
0.0
  0
LINE
  5
1C0
100
AcDbEntity
  8
TFR-TRI
390
0
  6
Continuous
 62
     3
100
AcDbLine
 10
5.065726
 20
7.218336
 30
0.0
 11
5.065726
 21
7.227643
 31
0.0
  0
LINE
  5
1C1
100
AcDbEntity
  8
TFR-TRI
390
0
  6
Continuous
 62
     3
100
AcDbLine
 10
5.513827
 20
0.02375
 30
0.0
 11
5.537827
 21
0.02375
 31
0.0
  0
LINE
  5
1C2
100
AcDbEntity
  8
TFR-TRI
390
0
  6
Continuous
 62
     3
100
AcDbLine
 10
4.4063
 20
7.468336
 30
0.0
 11
4.4063
 21
7.444102
 31
0.0
  0
LINE
  5
1C3
100
AcDbEntity
  8
TFR-TRI
390
0
  6
Continuous
 62
     3
100
AcDbLine
 10
5.657893
 20
7.405836
 30
0.0
 11
5.657893
 21
7.504712
 31
0.0
  0
LINE
  5
1C4
100
AcDbEntity
  8
TFR-TRI
390
0
  6
Continuous
 62
     3
100
AcDbLine
 10
5.096726
 20
6.405836
 30
0.0
 11
5.096726
 21
6.595533
 31
0.0
  0
LINE
  5
1C5
100
AcDbEntity
  8
TFR-TRI
390
0
  6
Continuous
 62
     3
100
AcDbLine
 10
4.030751
 20
5.329593
 30
0.0
 11
4.09977
 21
5.329593
 31
0.0
  0
LINE
  5
1C6
100
AcDbEntity
  8
TFR-TRI
390
0
  6
Continuous
 62
     7
100
AcDbLine
 10
10.347526
 20
0.784601
 30
0.0
 11
10.347526
 21
0.25
 31
0.0
  0
LINE
  5
1C7
100
AcDbEntity
  8
TFR-TRI
390
0
  6
Continuous
 62
     3
100
AcDbLine
 10
5.457828
 20
0.09375
 30
0.0
 11
5.593828
 21
0.09375
 31
0.0
  0
LINE
  5
1C8
100
AcDbEntity
  8
TFR-TRI
390
0
  6
Continuous
 62
     3
100
AcDbLine
 10
4.45726
 20
4.428638
 30
0.0
 11
4.45726
 21
4.467802
 31
0.0
  0
LINE
  5
1C9
100
AcDbEntity
  8
TFR-TRI
390
0
  6
Continuous
 62
     3
100
AcDbLine
 10
5.671893
 20
6.343336
 30
0.0
 11
5.671893
 21
6.296709
 31
0.0
  0
LINE
  5
1CA
100
AcDbEntity
  8
TFR-TRI
390
0
  6
Continuous
 62
     3
100
AcDbLine
 10
4.46726
 20
4.428638
 30
0.0
 11
4.46726
 21
4.505122
 31
0.0
  0
LINE
  5
1CB
100
AcDbEntity
  8
TFR-TRI
390
0
  6
Continuous
 62
     3
100
AcDbLine
 10
4.434299
 20
7.468336
 30
0.0
 11
4.434299
 21
7.347068
 31
0.0
  0
LINE
  5
1CC
100
AcDbEntity
  8
TFR-TRI
390
0
  6
Continuous
 62
     3
100
AcDbLine
 10
5.401827
 20
0.16375
 30
0.0
 11
5.649827
 21
0.16375
 31
0.0
  0
LINE
  5
1CD
100
AcDbEntity
  8
TFR-TRI
390
0
  6
Continuous
 62
     3
100
AcDbLine
 10
10.835
 20
4.18193
 30
0.0
 11
10.935
 21
4.18193
 31
0.0
  0
LINE
  5
1CE
100
AcDbEntity
  8
TFR-TRI
390
0
  6
Continuous
 62
     3
100
AcDbLine
 10
4.280751
 20
6.040536
 30
0.0
 11
4.278908
 21
6.040536
 31
0.0
  0
LINE
  5
1CF
100
AcDbEntity
  8
TFR-TRI
390
0
  6
Continuous
 62
     3
100
AcDbLine
 10
5.675893
 20
7.405836
 30
0.0
 11
5.675893
 21
7.437535
 31
0.0
  0
LINE
  5
1D0
100
AcDbEntity
  8
TFR-TRI
390
0
  6
Continuous
 62
    12
100
AcDbLine
 10
7.040942
 20
3.469172
 30
0.0
 11
7.01687
 21
4.262538
 31
0.0
  0
LINE
  5
1D1
100
AcDbEntity
  8
TFR-TRI
390
0
  6
Continuous
 62
     3
100
AcDbLine
 10
4.466793
 20
6.749586
 30
0.0
 11
4.4333
 21
6.874586
 31
0.0
  0
LINE
  5
1D2
100
AcDbEntity
  8
TFR-TRI
390
0
  6
Continuous
 62
    12
100
AcDbLine
 10
5.831774
 20
4.070339
 30
0.0
 11
5.813875
 21
4.048458
 31
0.0
  0
LINE
  5
1D3
100
AcDbEntity
  8
TFR-TRI
390
0
  6
Continuous
 62
     3
100
AcDbLine
 10
4.030751
 20
5.343593
 30
0.0
 11
4.152019
 21
5.343593
 31
0.0
  0
LINE
  5
1D4
100
AcDbEntity
  8
TFR-TRI
390
0
  6
Continuous
 62
     3
100
AcDbLine
 10
5.494577
 20
8.28886
 30
0.0
 11
5.400827
 21
8.28886
 31
0.0
  0
LINE
  5
1D5
100
AcDbEntity
  8
TFR-TRI
390
0
  6
Continuous
 62
     3
100
AcDbLine
 10
4.49526
 20
3.447589
 30
0.0
 11
4.49526
 21
3.378569
 31
0.0
  0
LINE
  5
1D6
100
AcDbEntity
  8
TFR-TRI
390
0
  6
Continuous
 62
     3
100
AcDbLine
 10
5.127727
 20
7.218336
 30
0.0
 11
5.127727
 21
7.227643
 31
0.0
  0
LINE
  5
1D7
100
AcDbEntity
  8
TFR-TRI
390
0
  6
Continuous
 62
    12
100
AcDbLine
 10
7.59855
 20
4.088998
 30
0.0
 11
7.562865
 21
4.099537
 31
0.0
  0
LINE
  5
1D8
100
AcDbEntity
  8
TFR-TRI
390
0
  6
Continuous
 62
    12
100
AcDbLine
 10
2.641726
 20
7.530836
 30
0.0
 11
2.641726
 21
6.218336
 31
0.0
  0
LINE
  5
1D9
100
AcDbEntity
  8
TFR-TRI
390
0
  6
Continuous
 62
     3
100
AcDbLine
 10
4.030751
 20
5.323593
 30
0.0
 11
4.077378
 21
5.323593
 31
0.0
  0
LINE
  5
1DA
100
AcDbEntity
  8
TFR-TRI
390
0
  6
Continuous
 62
    12
100
AcDbLine
 10
7.399152
 20
4.004501
 30
0.0
 11
7.394614
 21
4.001874
 31
0.0
  0
LINE
  5
1DB
100
AcDbEntity
  8
TFR-TRI
390
0
  6
Continuous
 62
     3
100
AcDbLine
 10
4.418299
 20
7.468336
 30
0.0
 11
4.418299
 21
7.399317
 31
0.0
  0
LINE
  5
1DC
100
AcDbEntity
  8
TFR-TRI
390
0
  6
Continuous
 62
     3
100
AcDbLine
 10
5.465827
 20
0.08375
 30
0.0
 11
5.585827
 21
0.08375
 31
0.0
  0
LINE
  5
1DD
100
AcDbEntity
  8
TFR-TRI
390
0
  6
Continuous
 62
     3
100
AcDbLine
 10
4.030751
 20
5.377594
 30
0.0
 11
4.032593
 21
5.377594
 31
0.0
  0
LINE
  5
1DE
100
AcDbEntity
  8
TFR-TRI
390
0
  6
Continuous
 62
     3
100
AcDbLine
 10
0.999226
 20
5.344594
 30
0.0
 11
1.124226
 21
5.3111
 31
0.0
  0
LINE
  5
1DF
100
AcDbEntity
  8
TFR-TRI
390
0
  6
Continuous
 62
    12
100
AcDbLine
 10
7.598435
 20
3.847177
 30
0.0
 11
7.607365
 21
3.869797
 31
0.0
  0
LINE
  5
1E0
100
AcDbEntity
  8
TFR-TRI
390
0
  6
Continuous
 62
    12
100
AcDbLine
 10
2.641726
 20
3.322589
 30
0.0
 11
2.641726
 21
3.389864
 31
0.0
  0
LINE
  5
1E1
100
AcDbEntity
  8
TFR-TRI
390
0
  6
Continuous
 62
    12
100
AcDbLine
 10
5.815548
 20
4.096072
 30
0.0
 11
5.851234
 21
4.085532
 31
0.0
  0
LINE
  5
1E2
100
AcDbEntity
  8
TFR-TRI
390
0
  6
Continuous
 62
     3
100
AcDbLine
 10
2.789976
 20
5.051268
 30
0.0
 11
2.788133
 21
5.051268
 31
0.0
  0
LINE
  5
1E3
100
AcDbEntity
  8
TFR-TRI
390
0
  6
Continuous
 62
     3
100
AcDbLine
 10
5.494577
 20
0.24875
 30
0.0
 11
5.557077
 21
0.24875
 31
0.0
  0
LINE
  5
1E4
100
AcDbEntity
  8
TFR-TRI
390
0
  6
Continuous
 62
     3
100
AcDbLine
 10
4.030751
 20
5.355593
 30
0.0
 11
4.114698
 21
5.355593
 31
0.0
  0
LINE
  5
1E5
100
AcDbEntity
  8
TFR-TRI
390
0
  6
Continuous
 62
    12
100
AcDbLine
 10
4.009974
 20
4.486363
 30
0.0
 11
3.968251
 21
4.486363
 31
0.0
  0
LINE
  5
1E6
100
AcDbEntity
  8
TFR-TRI
390
0
  6
Continuous
 62
     3
100
AcDbLine
 10
4.280751
 20
6.04103
 30
0.0
 11
4.155751
 21
6.007536
 31
0.0
  0
LINE
  5
1E7
100
AcDbEntity
  8
TFR-TRI
390
0
  6
Continuous
 62
     3
100
AcDbLine
 10
2.664976
 20
4.525614
 30
0.0
 11
2.664976
 21
5.143268
 31
0.0
  0
LINE
  5
1E8
100
AcDbEntity
  8
TFR-TRI
390
0
  6
Continuous
 62
     3
100
AcDbLine
 10
0.097905
 20
4.19693
 30
0.0
 11
0.301655
 21
4.19693
 31
0.0
  0
LINE
  5
1E9
100
AcDbEntity
  8
TFR-TRI
390
0
  6
Continuous
 62
     3
100
AcDbLine
 10
3.828251
 20
6.020536
 30
0.0
 11
3.904734
 21
6.020536
 31
0.0
  0
LINE
  5
1EA
100
AcDbEntity
  8
TFR-TRI
390
0
  6
Continuous
 62
     3
100
AcDbLine
 10
3.953251
 20
6.450836
 30
0.0
 11
3.953251
 21
6.570836
 31
0.0
  0
LINE
  5
1EB
100
AcDbEntity
  8
TFR-TRI
390
0
  6
Continuous
 62
    12
100
AcDbLine
 10
6.448437
 20
4.428026
 30
0.0
 11
6.459905
 21
4.42704
 31
0.0
  0
LINE
  5
1EC
100
AcDbEntity
  8
TFR-TRI
390
0
  6
Continuous
 62
     3
100
AcDbLine
 10
1.124226
 20
5.363594
 30
0.0
 11
1.070135
 21
5.363594
 31
0.0
  0
LINE
  5
1ED
100
AcDbEntity
  8
TFR-TRI
390
0
  6
Continuous
 62
     3
100
AcDbLine
 10
3.953251
 20
6.919586
 30
0.0
 11
3.953251
 21
7.039586
 31
0.0
  0
LINE
  5
1EE
100
AcDbEntity
  8
TFR-TRI
390
0
  6
Continuous
 62
    12
100
AcDbLine
 10
7.604324
 20
4.384555
 30
0.0
 11
7.589953
 21
4.372343
 31
0.0
  0
LINE
  5
1EF
100
AcDbEntity
  8
TFR-TRI
390
0
  6
Continuous
 62
     3
100
AcDbLine
 10
4.4463
 20
7.468336
 30
0.0
 11
4.4463
 21
7.391853
 31
0.0
  0
LINE
  5
1F0
100
AcDbEntity
  8
TFR-TRI
390
0
  6
Continuous
 62
     3
100
AcDbLine
 10
3.828251
 20
6.038537
 30
0.0
 11
3.837557
 21
6.038537
 31
0.0
  0
LINE
  5
1F1
100
AcDbEntity
  8
TFR-TRI
390
0
  6
Continuous
 62
    12
100
AcDbLine
 10
3.968251
 20
4.553638
 30
0.0
 11
4.009974
 21
4.553638
 31
0.0
  0
LINE
  5
1F2
100
AcDbEntity
  8
TFR-TRI
390
0
  6
Continuous
 62
    12
100
AcDbLine
 10
4.15105
 20
4.486363
 30
0.0
 11
4.137182
 21
4.486363
 31
0.0
  0
LINE
  5
1F3
100
AcDbEntity
  8
TFR-TRI
390
0
  6
Continuous
 62
    12
100
AcDbLine
 10
7.569328
 20
3.783763
 30
0.0
 11
7.533642
 21
3.794303
 31
0.0
  0
LINE
  5
1F4
100
AcDbEntity
  8
TFR-TRI
390
0
  6
Continuous
 62
    12
100
AcDbLine
 10
7.548282
 20
4.477392
 30
0.0
 11
7.586102
 21
4.499281
 31
0.0
  0
LINE
  5
1F5
100
AcDbEntity
  8
TFR-TRI
390
0
  6
Continuous
 62
     3
100
AcDbLine
 10
4.030751
 20
5.039268
 30
0.0
 11
4.077378
 21
5.039268
 31
0.0
  0
LINE
  5
1F6
100
AcDbEntity
  8
TFR-TRI
390
0
  6
Continuous
 62
     3
100
AcDbLine
 10
4.479259
 20
4.428638
 30
0.0
 11
4.479259
 21
4.549907
 31
0.0
  0
LINE
  5
1F7
100
AcDbEntity
  8
TFR-TRI
390
0
  6
Continuous
 62
     3
100
AcDbLine
 10
5.101727
 20
7.218336
 30
0.0
 11
5.101727
 21
7.324676
 31
0.0
  0
LINE
  5
1F8
100
AcDbEntity
  8
TFR-TRI
390
0
  6
Continuous
 62
    12
100
AcDbLine
 10
7.382814
 20
4.086359
 30
0.0
 11
7.394022
 21
4.097481
 31
0.0
  0
LINE
  5
1F9
100
AcDbEntity
  8
TFR-TRI
390
0
  6
Continuous
 62
    12
100
AcDbLine
 10
7.574961
 20
4.570715
 30
0.0
 11
7.593802
 21
4.569734
 31
0.0
  0
LINE
  5
1FA
100
AcDbEntity
  8
TFR-TRI
390
0
  6
Continuous
 62
     3
100
AcDbLine
 10
2.789976
 20
5.009268
 30
0.0
 11
2.698564
 21
5.009268
 31
0.0
  0
LINE
  5
1FB
100
AcDbEntity
  8
TFR-TRI
390
0
  6
Continuous
 62
     3
100
AcDbLine
 10
2.108448
 20
5.209593
 30
0.0
 11
2.063448
 21
5.209593
 31
0.0
  0
LINE
  5
1FC
100
AcDbEntity
  8
TFR-TRI
390
0
  6
Continuous
 62
     3
100
AcDbLine
 10
4.030751
 20
4.989268
 30
0.0
 11
4.047521
 21
4.989268
 31
0.0
  0
LINE
  5
1FD
100
AcDbEntity
  8
TFR-TRI
390
0
  6
Continuous
 62
    12
100
AcDbLine
 10
7.525045
 20
4.077648
 30
0.0
 11
7.562865
 21
4.099537
 31
0.0
  0
LINE
  5
1FE
100
AcDbEntity
  8
TFR-TRI
390
0
  6
Continuous
 62
     3
100
AcDbLine
 10
10.835
 20
4.26693
 30
0.0
 11
10.94125
 21
4.26693
 31
0.0
  0
LINE
  5
1FF
100
AcDbEntity
  8
TFR-TRI
390
0
  6
Continuous
 62
     3
100
AcDbLine
 10
4.49526
 20
4.428638
 30
0.0
 11
4.49526
 21
4.497658
 31
0.0
  0
LINE
  5
200
100
AcDbEntity
  8
TFR-TRI
390
0
  6
Continuous
 62
     3
100
AcDbLine
 10
0.104155
 20
4.26193
 30
0.0
 11
0.216655
 21
4.26193
 31
0.0
  0
LINE
  5
201
100
AcDbEntity
  8
TFR-TRI
390
0
  6
Continuous
 62
     3
100
AcDbLine
 10
5.115726
 20
6.530836
 30
0.0
 11
5.115726
 21
6.476745
 31
0.0
  0
LINE
  5
202
100
AcDbEntity
  8
TFR-TRI
390
0
  6
Continuous
 62
    12
100
AcDbLine
 10
6.402507
 20
4.435794
 30
0.0
 11
6.438192
 21
4.425254
 31
0.0
  0
LINE
  5
203
100
AcDbEntity
  8
TFR-TRI
390
0
  6
Continuous
 62
     3
100
AcDbLine
 10
4.030751
 20
5.369593
 30
0.0
 11
4.062449
 21
5.369593
 31
0.0
  0
LINE
  5
204
100
AcDbEntity
  8
TFR-TRI
390
0
  6
Continuous
 62
     3
100
AcDbLine
 10
4.015751
 20
6.874586
 30
0.0
 11
4.5583
 21
6.874586
 31
0.0
  0
LINE
  5
205
100
AcDbEntity
  8
TFR-TRI
390
0
  6
Continuous
 62
     3
100
AcDbLine
 10
2.789976
 20
4.987267
 30
0.0
 11
2.780669
 21
4.987267
 31
0.0
  0
LINE
  5
206
100
AcDbEntity
  8
TFR-TRI
390
0
  6
Continuous
 62
     3
100
AcDbLine
 10
5.069726
 20
6.530836
 30
0.0
 11
5.069726
 21
6.506602
 31
0.0
  0
LINE
  5
207
100
AcDbEntity
  8
TFR-TRI
390
0
  6
Continuous
 62
     3
100
AcDbLine
 10
5.650893
 20
7.530836
 30
0.0
 11
5.650893
 21
7.336597
 31
0.0
  0
LINE
  5
208
100
AcDbEntity
  8
TFR-TRI
390
0
  6
Continuous
 62
     3
100
AcDbLine
 10
1.124226
 20
5.311594
 30
0.0
 11
1.122383
 21
5.311594
 31
0.0
  0
LINE
  5
209
100
AcDbEntity
  8
TFR-TRI
390
0
  6
Continuous
 62
     3
100
AcDbLine
 10
0.135405
 20
4.16693
 30
0.0
 11
0.216655
 21
4.16693
 31
0.0
  0
LINE
  5
20A
100
AcDbEntity
  8
TFR-TRI
390
0
  6
Continuous
 62
     3
100
AcDbLine
 10
5.432827
 20
8.32886
 30
0.0
 11
5.618827
 21
8.32886
 31
0.0
  0
LINE
  5
20B
100
AcDbEntity
  8
TFR-TRI
390
0
  6
Continuous
 62
     3
100
AcDbLine
 10
10.835
 20
4.11693
 30
0.0
 11
10.85375
 21
4.11693
 31
0.0
  0
LINE
  5
20C
100
AcDbEntity
  8
TFR-TRI
390
0
  6
Continuous
 62
    12
100
AcDbLine
 10
7.397736
 20
3.975076
 30
0.0
 11
7.386251
 21
3.973064
 31
0.0
  0
LINE
  5
20D
100
AcDbEntity
  8
TFR-TRI
390
0
  6
Continuous
 62
    12
100
AcDbLine
 10
7.589953
 20
4.372343
 30
0.0
 11
7.554267
 21
4.382883
 31
0.0
  0
LINE
  5
20E
100
AcDbEntity
  8
TFR-TRI
390
0
  6
Continuous
 62
     3
100
AcDbLine
 10
4.47126
 20
3.447589
 30
0.0
 11
4.47126
 21
3.356177
 31
0.0
  0
LINE
  5
20F
100
AcDbEntity
  8
TFR-TRI
390
0
  6
Continuous
 62
     3
100
AcDbLine
 10
0.060405
 20
4.22693
 30
0.0
 11
0.301655
 21
4.22693
 31
0.0
  0
LINE
  5
210
100
AcDbEntity
  8
TFR-TRI
390
0
  6
Continuous
 62
    12
100
AcDbLine
 10
2.641726
 20
7.530836
 30
0.0
 11
2.658166
 21
7.530836
 31
0.0
  0
LINE
  5
211
100
AcDbEntity
  8
TFR-TRI
390
0
  6
Continuous
 62
     3
100
AcDbLine
 10
8.737865
 20
7.905532
 30
0.0
 11
8.737865
 21
7.075195
 31
0.0
  0
LINE
  5
212
100
AcDbEntity
  8
TFR-TRI
390
0
  6
Continuous
 62
     3
100
AcDbLine
 10
3.828251
 20
6.012537
 30
0.0
 11
3.93459
 21
6.012537
 31
0.0
  0
LINE
  5
213
100
AcDbEntity
  8
TFR-TRI
390
0
  6
Continuous
 62
     3
100
AcDbLine
 10
2.789976
 20
5.003268
 30
0.0
 11
2.720956
 21
5.003268
 31
0.0
  0
LINE
  5
214
100
AcDbEntity
  8
TFR-TRI
390
0
  6
Continuous
 62
    12
100
AcDbLine
 10
7.565476
 20
3.910702
 30
0.0
 11
7.603296
 21
3.932591
 31
0.0
  0
LINE
  5
215
100
AcDbEntity
  8
TFR-TRI
390
0
  6
Continuous
 62
     3
100
AcDbLine
 10
0.147905
 20
4.29693
 30
0.0
 11
0.216655
 21
4.29693
 31
0.0
  0
LINE
  5
216
100
AcDbEntity
  8
TFR-TRI
390
0
  6
Continuous
 62
     3
100
AcDbLine
 10
4.4333
 20
6.649586
 30
0.0
 11
4.4333
 21
6.874586
 31
0.0
  0
LINE
  5
217
100
AcDbEntity
  8
TFR-TRI
390
0
  6
Continuous
 62
     3
100
AcDbLine
 10
5.520827
 20
8.43886
 30
0.0
 11
5.530828
 21
8.43886
 31
0.0
  0
LINE
  5
218
100
AcDbEntity
  8
TFR-TRI
390
0
  6
Continuous
 62
     3
100
AcDbLine
 10
5.649893
 20
7.405836
 30
0.0
 11
5.649893
 21
7.527104
 31
0.0
  0
LINE
  5
219
100
AcDbEntity
  8
TFR-TRI
390
0
  6
Continuous
 62
     3
100
AcDbLine
 10
8.594037
 20
1.216418
 30
0.0
 11
8.594037
 21
1.210512
 31
0.0
  0
LINE
  5
21A
100
AcDbEntity
  8
TFR-TRI
390
0
  6
Continuous
 62
     3
100
AcDbLine
 10
3.953251
 20
7.298336
 30
0.0
 11
3.953251
 21
7.178336
 31
0.0
  0
LINE
  5
21B
100
AcDbEntity
  8
TFR-TRI
390
0
  6
Continuous
 62
     3
100
AcDbLine
 10
5.067726
 20
7.218336
 30
0.0
 11
5.067726
 21
7.235107
 31
0.0
  0
LINE
  5
21C
100
AcDbEntity
  8
TFR-TRI
390
0
  6
Continuous
 62
     3
100
AcDbLine
 10
5.509828
 20
0.02875
 30
0.0
 11
5.541828
 21
0.02875
 31
0.0
  0
LINE
  5
21D
100
AcDbEntity
  8
TFR-TRI
390
0
  6
Continuous
 62
    12
100
AcDbLine
 10
7.63427
 20
4.141964
 30
0.0
 11
7.625327
 21
4.119605
 31
0.0
  0
LINE
  5
21E
100
AcDbEntity
  8
TFR-TRI
390
0
  6
Continuous
 62
     7
100
AcDbLine
 10
1.734424
 20
0.25
 30
0.0
 11
1.734424
 21
2.573295
 31
0.0
  0
LINE
  5
21F
100
AcDbEntity
  8
TFR-TRI
390
0
  6
Continuous
 62
    12
100
AcDbLine
 10
6.462265
 20
3.631888
 30
0.0
 11
6.472508
 21
3.63466
 31
0.0
  0
LINE
  5
220
100
AcDbEntity
  8
TFR-TRI
390
0
  6
Continuous
 62
     3
100
AcDbLine
 10
5.655893
 20
7.405836
 30
0.0
 11
5.655893
 21
7.512176
 31
0.0
  0
LINE
  5
221
100
AcDbEntity
  8
TFR-TRI
390
0
  6
Continuous
 62
    12
100
AcDbLine
 10
7.625673
 20
4.425309
 30
0.0
 11
7.61673
 21
4.40295
 31
0.0
  0
LINE
  5
222
100
AcDbEntity
  8
TFR-TRI
390
0
  6
Continuous
 62
     3
100
AcDbLine
 10
4.030751
 20
5.331594
 30
0.0
 11
4.107234
 21
5.331594
 31
0.0
  0
LINE
  5
223
100
AcDbEntity
  8
TFR-TRI
390
0
  6
Continuous
 62
     7
100
AcDbLine
 10
6.191659
 20
0.25
 30
0.0
 11
6.191659
 21
2.573295
 31
0.0
  0
LINE
  5
224
100
AcDbEntity
  8
TFR-TRI
390
0
  6
Continuous
 62
    12
100
AcDbLine
 10
5.884718
 20
3.486955
 30
0.0
 11
5.892867
 21
3.484548
 31
0.0
  0
LINE
  5
225
100
AcDbEntity
  8
TFR-TRI
390
0
  6
Continuous
 62
    12
100
AcDbLine
 10
6.033143
 20
3.579577
 30
0.0
 11
6.030776
 21
3.568421
 31
0.0
  0
LINE
  5
226
100
AcDbEntity
  8
TFR-TRI
390
0
  6
Continuous
 62
    12
100
AcDbLine
 10
1.145003
 20
3.389864
 30
0.0
 11
1.186726
 21
3.389864
 31
0.0
  0
LINE
  5
227
100
AcDbEntity
  8
TFR-TRI
390
0
  6
Continuous
 62
     3
100
AcDbLine
 10
4.45926
 20
4.428638
 30
0.0
 11
4.45926
 21
4.475266
 31
0.0
  0
LINE
  5
228
100
AcDbEntity
  8
TFR-TRI
390
0
  6
Continuous
 62
     3
100
AcDbLine
 10
5.669893
 20
6.343336
 30
0.0
 11
5.669893
 21
6.289245
 31
0.0
  0
LINE
  5
229
100
AcDbEntity
  8
TFR-TRI
390
0
  6
Continuous
 62
     3
100
AcDbLine
 10
4.46926
 20
4.428638
 30
0.0
 11
4.46926
 21
4.512586
 31
0.0
  0
LINE
  5
22A
100
AcDbEntity
  8
TFR-TRI
390
0
  6
Continuous
 62
    12
100
AcDbLine
 10
7.397178
 20
4.070673
 30
0.0
 11
7.389221
 21
4.073022
 31
0.0
  0
LINE
  5
22B
100
AcDbEntity
  8
TFR-TRI
390
0
  6
Continuous
 62
     3
100
AcDbLine
 10
5.494577
 20
0.16875
 30
0.0
 11
5.557077
 21
0.16875
 31
0.0
  0
LINE
  5
22C
100
AcDbEntity
  8
TFR-TRI
390
0
  6
Continuous
 62
     3
100
AcDbLine
 10
10.835
 20
4.18693
 30
0.0
 11
10.94125
 21
4.18693
 31
0.0
  0
LINE
  5
22D
100
AcDbEntity
  8
TFR-TRI
390
0
  6
Continuous
 62
     3
100
AcDbLine
 10
3.224363
 20
4.883267
 30
0.0
 11
3.179363
 21
4.883267
 31
0.0
  0
LINE
  5
22E
100
AcDbEntity
  8
TFR-TRI
390
0
  6
Continuous
 62
     3
100
AcDbLine
 10
5.673892
 20
7.405836
 30
0.0
 11
5.673892
 21
7.444999
 31
0.0
  0
LINE
  5
22F
100
AcDbEntity
  8
TFR-TRI
390
0
  6
Continuous
 62
     3
100
AcDbLine
 10
4.593251
 20
5.872536
 30
0.0
 11
4.593251
 21
5.703786
 31
0.0
  0
LINE
  5
230
100
AcDbEntity
  8
TFR-TRI
390
0
  6
Continuous
 62
     3
100
AcDbLine
 10
4.4003
 20
6.749586
 30
0.0
 11
4.4003
 21
6.751429
 31
0.0
  0
LINE
  5
231
100
AcDbEntity
  8
TFR-TRI
390
0
  6
Continuous
 62
    12
100
AcDbLine
 10
1.569976
 20
7.234586
 30
0.0
 11
1.243726
 21
7.234586
 31
0.0
  0
LINE
  5
232
100
AcDbEntity
  8
TFR-TRI
390
0
  6
Continuous
 62
    12
100
AcDbLine
 10
5.813875
 20
4.048458
 30
0.0
 11
5.798757
 21
4.021379
 31
0.0
  0
LINE
  5
233
100
AcDbEntity
  8
TFR-TRI
390
0
  6
Continuous
 62
    12
100
AcDbLine
 10
7.525353
 20
3.83411
 30
0.0
 11
7.529757
 21
3.857736
 31
0.0
  0
LINE
  5
234
100
AcDbEntity
  8
TFR-TRI
390
0
  6
Continuous
 62
     3
100
AcDbLine
 10
0.301655
 20
4.25818
 30
0.0
 11
0.216655
 21
4.25818
 31
0.0
  0
LINE
  5
235
100
AcDbEntity
  8
TFR-TRI
390
0
  6
Continuous
 62
     3
100
AcDbLine
 10
4.49326
 20
3.447589
 30
0.0
 11
4.49326
 21
3.371105
 31
0.0
  0
LINE
  5
236
100
AcDbEntity
  8
TFR-TRI
390
0
  6
Continuous
 62
    12
100
AcDbLine
 10
7.552134
 20
4.350453
 30
0.0
 11
7.53753
 21
4.345896
 31
0.0
  0
LINE
  5
237
100
AcDbEntity
  8
TFR-TRI
390
0
  6
Continuous
 62
    12
100
AcDbLine
 10
2.641726
 20
6.218336
 30
0.0
 11
2.658166
 21
6.218336
 31
0.0
  0
LINE
  5
238
100
AcDbEntity
  8
TFR-TRI
390
0
  6
Continuous
 62
     3
100
AcDbLine
 10
4.513753
 20
4.428638
 30
0.0
 11
4.48026
 21
4.553638
 31
0.0
  0
LINE
  5
239
100
AcDbEntity
  8
TFR-TRI
390
0
  6
Continuous
 62
     3
100
AcDbLine
 10
10.75
 20
4.19568
 30
0.0
 11
10.835
 21
4.19568
 31
0.0
  0
LINE
  5
23A
100
AcDbEntity
  8
TFR-TRI
390
0
  6
Continuous
 62
     3
100
AcDbLine
 10
0.066655
 20
4.23193
 30
0.0
 11
0.301655
 21
4.23193
 31
0.0
  0
LINE
  5
23B
100
AcDbEntity
  8
TFR-TRI
390
0
  6
Continuous
 62
    12
100
AcDbLine
 10
0.999226
 20
3.322589
 30
0.0
 11
0.999226
 21
3.389864
 31
0.0
  0
LINE
  5
23C
100
AcDbEntity
  8
TFR-TRI
390
0
  6
Continuous
 62
     3
100
AcDbLine
 10
4.4663
 20
7.468336
 30
0.0
 11
4.4663
 21
7.466494
 31
0.0
  0
LINE
  5
23D
100
AcDbEntity
  8
TFR-TRI
390
0
  6
Continuous
 62
     3
100
AcDbLine
 10
1.124226
 20
5.353593
 30
0.0
 11
1.032814
 21
5.353593
 31
0.0
  0
LINE
  5
23E
100
AcDbEntity
  8
TFR-TRI
390
0
  6
Continuous
 62
     3
100
AcDbLine
 10
5.107727
 20
7.218336
 30
0.0
 11
5.107727
 21
7.302284
 31
0.0
  0
LINE
  5
23F
100
AcDbEntity
  8
TFR-TRI
390
0
  6
Continuous
 62
     3
100
AcDbLine
 10
4.51326
 20
3.447589
 30
0.0
 11
4.51326
 21
3.445746
 31
0.0
  0
LINE
  5
240
100
AcDbEntity
  8
TFR-TRI
390
0
  6
Continuous
 62
     3
100
AcDbLine
 10
4.155751
 20
5.018268
 30
0.0
 11
3.625113
 21
5.018268
 31
0.0
  0
LINE
  5
241
100
AcDbEntity
  8
TFR-TRI
390
0
  6
Continuous
 62
     3
100
AcDbLine
 10
5.623893
 20
6.343336
 30
0.0
 11
5.623893
 21
6.319102
 31
0.0
  0
LINE
  5
242
100
AcDbEntity
  8
TFR-TRI
390
0
  6
Continuous
 62
     3
100
AcDbLine
 10
3.814501
 20
6.405836
 30
0.0
 11
3.694501
 21
6.405836
 31
0.0
  0
LINE
  5
243
100
AcDbEntity
  8
TFR-TRI
390
0
  6
Continuous
 62
    12
100
AcDbLine
 10
6.459905
 20
4.42704
 30
0.0
 11
6.487044
 21
4.442748
 31
0.0
  0
LINE
  5
244
100
AcDbEntity
  8
TFR-TRI
390
0
  6
Continuous
 62
     3
100
AcDbLine
 10
2.789976
 20
4.991268
 30
0.0
 11
2.765741
 21
4.991268
 31
0.0
  0
LINE
  5
245
100
AcDbEntity
  8
TFR-TRI
390
0
  6
Continuous
 62
     3
100
AcDbLine
 10
10.835
 20
4.27193
 30
0.0
 11
10.935
 21
4.27193
 31
0.0
  0
LINE
  5
246
100
AcDbEntity
  8
TFR-TRI
390
0
  6
Continuous
 62
    12
100
AcDbLine
 10
4.009974
 20
4.553638
 30
0.0
 11
4.049604
 21
4.553638
 31
0.0
  0
LINE
  5
247
100
AcDbEntity
  8
TFR-TRI
390
0
  6
Continuous
 62
     3
100
AcDbLine
 10
4.416299
 20
6.749586
 30
0.0
 11
4.416299
 21
6.811141
 31
0.0
  0
LINE
  5
248
100
AcDbEntity
  8
TFR-TRI
390
0
  6
Continuous
 62
     3
100
AcDbLine
 10
2.063448
 20
5.040843
 30
0.0
 11
2.108448
 21
5.040843
 31
0.0
  0
LINE
  5
249
100
AcDbEntity
  8
TFR-TRI
390
0
  6
Continuous
 62
     3
100
AcDbLine
 10
3.859501
 20
7.328336
 30
0.0
 11
3.859501
 21
7.358336
 31
0.0
  0
LINE
  5
24A
100
AcDbEntity
  8
TFR-TRI
390
0
  6
Continuous
 62
     3
100
AcDbLine
 10
4.48126
 20
4.428638
 30
0.0
 11
4.48126
 21
4.549907
 31
0.0
  0
LINE
  5
24B
100
AcDbEntity
  8
TFR-TRI
390
0
  6
Continuous
 62
     3
100
AcDbLine
 10
4.030751
 20
5.037268
 30
0.0
 11
4.084842
 21
5.037268
 31
0.0
  0
LINE
  5
24C
100
AcDbEntity
  8
TFR-TRI
390
0
  6
Continuous
 62
     3
100
AcDbLine
 10
5.099726
 20
7.218336
 30
0.0
 11
5.099726
 21
7.33214
 31
0.0
  0
LINE
  5
24D
100
AcDbEntity
  8
TFR-TRI
390
0
  6
Continuous
 62
    12
100
AcDbLine
 10
7.394022
 20
4.097481
 30
0.0
 11
7.405506
 21
4.099493
 31
0.0
  0
LINE
  5
24E
100
AcDbEntity
  8
TFR-TRI
390
0
  6
Continuous
 62
     3
100
AcDbLine
 10
5.421827
 20
0.13875
 30
0.0
 11
5.629827
 21
0.13875
 31
0.0
  0
LINE
  5
24F
100
AcDbEntity
  8
TFR-TRI
390
0
  6
Continuous
 62
     3
100
AcDbLine
 10
2.789976
 20
5.011268
 30
0.0
 11
2.6911
 21
5.011268
 31
0.0
  0
LINE
  5
250
100
AcDbEntity
  8
TFR-TRI
390
0
  6
Continuous
 62
     3
100
AcDbLine
 10
4.030751
 20
4.991268
 30
0.0
 11
4.054986
 21
4.991268
 31
0.0
  0
LINE
  5
251
100
AcDbEntity
  8
TFR-TRI
390
0
  6
Continuous
 62
     3
100
AcDbLine
 10
5.494577
 20
8.22386
 30
0.0
 11
5.557077
 21
8.22386
 31
0.0
  0
LINE
  5
252
100
AcDbEntity
  8
TFR-TRI
390
0
  6
Continuous
 62
     3
100
AcDbLine
 10
4.49326
 20
4.428638
 30
0.0
 11
4.49326
 21
4.505122
 31
0.0
  0
LINE
  5
253
100
AcDbEntity
  8
TFR-TRI
390
0
  6
Continuous
 62
     3
100
AcDbLine
 10
1.124226
 20
5.341593
 30
0.0
 11
1.010422
 21
5.341593
 31
0.0
  0
LINE
  5
254
100
AcDbEntity
  8
TFR-TRI
390
0
  6
Continuous
 62
     3
100
AcDbLine
 10
5.633893
 20
6.343336
 30
0.0
 11
5.633893
 21
6.281781
 31
0.0
  0
LINE
  5
255
100
AcDbEntity
  8
TFR-TRI
390
0
  6
Continuous
 62
     3
100
AcDbLine
 10
5.113726
 20
6.530836
 30
0.0
 11
5.113726
 21
6.469281
 31
0.0
  0
LINE
  5
256
100
AcDbEntity
  8
TFR-TRI
390
0
  6
Continuous
 62
    12
100
AcDbLine
 10
7.384209
 20
4.008801
 30
0.0
 11
7.382558
 21
4.063203
 31
0.0
  0
LINE
  5
257
100
AcDbEntity
  8
TFR-TRI
390
0
  6
Continuous
 62
     3
100
AcDbLine
 10
3.938251
 20
6.874586
 30
0.0
 11
3.968251
 21
6.874586
 31
0.0
  0
LINE
  5
258
100
AcDbEntity
  8
TFR-TRI
390
0
  6
Continuous
 62
     3
100
AcDbLine
 10
2.789976
 20
4.989268
 30
0.0
 11
2.773205
 21
4.989268
 31
0.0
  0
LINE
  5
259
100
AcDbEntity
  8
TFR-TRI
390
0
  6
Continuous
 62
     3
100
AcDbLine
 10
4.50726
 20
3.447589
 30
0.0
 11
4.50726
 21
3.423354
 31
0.0
  0
LINE
  5
25A
100
AcDbEntity
  8
TFR-TRI
390
0
  6
Continuous
 62
     3
100
AcDbLine
 10
5.071726
 20
6.530836
 30
0.0
 11
5.071726
 21
6.499137
 31
0.0
  0
LINE
  5
25B
100
AcDbEntity
  8
TFR-TRI
390
0
  6
Continuous
 62
     3
100
AcDbLine
 10
5.650893
 20
6.218336
 30
0.0
 11
5.650893
 21
6.862847
 31
0.0
  0
LINE
  5
25C
100
AcDbEntity
  8
TFR-TRI
390
0
  6
Continuous
 62
    12
100
AcDbLine
 10
0.999226
 20
6.405836
 30
0.0
 11
0.999226
 21
7.343336
 31
0.0
  0
LINE
  5
25D
100
AcDbEntity
  8
TFR-TRI
390
0
  6
Continuous
 62
     3
100
AcDbLine
 10
5.436828
 20
8.33386
 30
0.0
 11
5.614828
 21
8.33386
 31
0.0
  0
LINE
  5
25E
100
AcDbEntity
  8
TFR-TRI
390
0
  6
Continuous
 62
     3
100
AcDbLine
 10
4.280751
 20
6.016536
 30
0.0
 11
4.189339
 21
6.016536
 31
0.0
  0
LINE
  5
25F
100
AcDbEntity
  8
TFR-TRI
390
0
  6
Continuous
 62
     3
100
AcDbLine
 10
4.47326
 20
3.447589
 30
0.0
 11
4.47326
 21
3.348713
 31
0.0
  0
LINE
  5
260
100
AcDbEntity
  8
TFR-TRI
390
0
  6
Continuous
 62
     3
100
AcDbLine
 10
3.859501
 20
7.298336
 30
0.0
 11
3.859501
 21
7.178336
 31
0.0
  0
LINE
  5
261
100
AcDbEntity
  8
TFR-TRI
390
0
  6
Continuous
 62
     3
100
AcDbLine
 10
5.494577
 20
8.23386
 30
0.0
 11
5.557077
 21
8.23386
 31
0.0
  0
LINE
  5
262
100
AcDbEntity
  8
TFR-TRI
390
0
  6
Continuous
 62
     3
100
AcDbLine
 10
5.468828
 20
8.37386
 30
0.0
 11
5.582828
 21
8.37386
 31
0.0
  0
LINE
  5
263
100
AcDbEntity
  8
TFR-TRI
390
0
  6
Continuous
 62
     3
100
AcDbLine
 10
5.623893
 20
7.405836
 30
0.0
 11
5.623893
 21
7.430071
 31
0.0
  0
LINE
  5
264
100
AcDbEntity
  8
TFR-TRI
390
0
  6
Continuous
 62
     3
100
AcDbLine
 10
3.828251
 20
6.010536
 30
0.0
 11
3.942055
 21
6.010536
 31
0.0
  0
LINE
  5
265
100
AcDbEntity
  8
TFR-TRI
390
0
  6
Continuous
 62
     3
100
AcDbLine
 10
10.835
 20
4.30193
 30
0.0
 11
10.8975
 21
4.30193
 31
0.0
  0
LINE
  5
266
100
AcDbEntity
  8
TFR-TRI
390
0
  6
Continuous
 62
     3
100
AcDbLine
 10
5.069726
 20
7.218336
 30
0.0
 11
5.069726
 21
7.242571
 31
0.0
  0
LINE
  5
267
100
AcDbEntity
  8
TFR-TRI
390
0
  6
Continuous
 62
     3
100
AcDbLine
 10
5.494577
 20
8.26386
 30
0.0
 11
5.557077
 21
8.26386
 31
0.0
  0
LINE
  5
268
100
AcDbEntity
  8
TFR-TRI
390
0
  6
Continuous
 62
     3
100
AcDbLine
 10
4.280751
 20
6.034536
 30
0.0
 11
4.256516
 21
6.034536
 31
0.0
  0
LINE
  5
269
100
AcDbEntity
  8
TFR-TRI
390
0
  6
Continuous
 62
     3
100
AcDbLine
 10
5.683893
 20
7.405836
 30
0.0
 11
5.683893
 21
7.407679
 31
0.0
  0
LINE
  5
26A
100
AcDbEntity
  8
TFR-TRI
390
0
  6
Continuous
 62
     3
100
AcDbLine
 10
1.124226
 20
5.367593
 30
0.0
 11
1.085063
 21
5.367593
 31
0.0
  0
LINE
  5
26B
100
AcDbEntity
  8
TFR-TRI
390
0
  6
Continuous
 62
     3
100
AcDbLine
 10
5.505827
 20
0.03375
 30
0.0
 11
5.545827
 21
0.03375
 31
0.0
  0
LINE
  5
26C
100
AcDbEntity
  8
TFR-TRI
390
0
  6
Continuous
 62
     7
100
AcDbLine
 10
6.585438
 20
2.057382
 30
0.0
 11
0.301655
 21
2.057382
 31
0.0
  0
LINE
  5
26D
100
AcDbEntity
  8
TFR-TRI
390
0
  6
Continuous
 62
    12
100
AcDbLine
 10
6.472508
 20
3.63466
 30
0.0
 11
6.483976
 21
3.633674
 31
0.0
  0
LINE
  5
26E
100
AcDbEntity
  8
TFR-TRI
390
0
  6
Continuous
 62
     3
100
AcDbLine
 10
5.653893
 20
7.405836
 30
0.0
 11
5.653893
 21
7.51964
 31
0.0
  0
LINE
  5
26F
100
AcDbEntity
  8
TFR-TRI
390
0
  6
Continuous
 62
     3
100
AcDbLine
 10
4.030751
 20
5.333593
 30
0.0
 11
4.114698
 21
5.333593
 31
0.0
  0
LINE
  5
270
100
AcDbEntity
  8
TFR-TRI
390
0
  6
Continuous
 62
     7
100
AcDbLine
 10
5.827307
 20
0.25
 30
0.0
 11
5.827307
 21
2.573295
 31
0.0
  0
LINE
  5
271
100
AcDbEntity
  8
TFR-TRI
390
0
  6
Continuous
 62
    12
100
AcDbLine
 10
5.997457
 20
3.590117
 30
0.0
 11
6.033143
 21
3.579577
 31
0.0
  0
LINE
  5
272
100
AcDbEntity
  8
TFR-TRI
390
0
  6
Continuous
 62
     7
100
AcDbLine
 10
0.301655
 20
1.037558
 30
0.0
 11
10.75
 21
1.037558
 31
0.0
  0
LINE
  5
273
100
AcDbEntity
  8
TFR-TRI
390
0
  6
Continuous
 62
    12
100
AcDbLine
 10
7.640942
 20
3.922088
 30
0.0
 11
7.646602
 21
3.904287
 31
0.0
  0
LINE
  5
274
100
AcDbEntity
  8
TFR-TRI
390
0
  6
Continuous
 62
     3
100
AcDbLine
 10
4.46126
 20
4.428638
 30
0.0
 11
4.46126
 21
4.482729
 31
0.0
  0
LINE
  5
275
100
AcDbEntity
  8
TFR-TRI
390
0
  6
Continuous
 62
     3
100
AcDbLine
 10
5.667893
 20
6.343336
 30
0.0
 11
5.667893
 21
6.281781
 31
0.0
  0
LINE
  5
276
100
AcDbEntity
  8
TFR-TRI
390
0
  6
Continuous
 62
     3
100
AcDbLine
 10
4.288635
 20
3.932489
 30
0.0
 11
4.288635
 21
3.763739
 31
0.0
  0
LINE
  5
277
100
AcDbEntity
  8
TFR-TRI
390
0
  6
Continuous
 62
     3
100
AcDbLine
 10
4.47126
 20
4.428638
 30
0.0
 11
4.47126
 21
4.52005
 31
0.0
  0
LINE
  5
278
100
AcDbEntity
  8
TFR-TRI
390
0
  6
Continuous
 62
     3
100
AcDbLine
 10
4.47726
 20
4.428638
 30
0.0
 11
4.47726
 21
4.542442
 31
0.0
  0
LINE
  5
279
100
AcDbEntity
  8
TFR-TRI
390
0
  6
Continuous
 62
     3
100
AcDbLine
 10
5.645893
 20
6.343336
 30
0.0
 11
5.645893
 21
6.236997
 31
0.0
  0
LINE
  5
27A
100
AcDbEntity
  8
TFR-TRI
390
0
  6
Continuous
 62
    12
100
AcDbLine
 10
7.386623
 20
4.004234
 30
0.0
 11
7.39458
 21
4.001884
 31
0.0
  0
LINE
  5
27B
100
AcDbEntity
  8
TFR-TRI
390
0
  6
Continuous
 62
     3
100
AcDbLine
 10
5.494577
 20
0.17375
 30
0.0
 11
5.557077
 21
0.17375
 31
0.0
  0
LINE
  5
27C
100
AcDbEntity
  8
TFR-TRI
390
0
  6
Continuous
 62
    12
100
AcDbLine
 10
2.658166
 20
7.530836
 30
0.0
 11
2.664976
 21
7.530836
 31
0.0
  0
LINE
  5
27D
100
AcDbEntity
  8
TFR-TRI
390
0
  6
Continuous
 62
     3
100
AcDbLine
 10
10.835
 20
4.19193
 30
0.0
 11
10.9475
 21
4.19193
 31
0.0
  0
LINE
  5
27E
100
AcDbEntity
  8
TFR-TRI
390
0
  6
Continuous
 62
     3
100
AcDbLine
 10
4.280751
 20
6.030536
 30
0.0
 11
4.241588
 21
6.030536
 31
0.0
  0
LINE
  5
27F
100
AcDbEntity
  8
TFR-TRI
390
0
  6
Continuous
 62
     3
100
AcDbLine
 10
5.671893
 20
7.405836
 30
0.0
 11
5.671893
 21
7.452463
 31
0.0
  0
LINE
  5
280
100
AcDbEntity
  8
TFR-TRI
390
0
  6
Continuous
 62
     3
100
AcDbLine
 10
1.124226
 20
5.375593
 30
0.0
 11
1.114919
 21
5.375593
 31
0.0
  0
LINE
  5
281
100
AcDbEntity
  8
TFR-TRI
390
0
  6
Continuous
 62
     3
100
AcDbLine
 10
4.4003
 20
6.749586
 30
0.0
 11
4.4003
 21
6.751429
 31
0.0
  0
LINE
  5
282
100
AcDbEntity
  8
TFR-TRI
390
0
  6
Continuous
 62
    12
100
AcDbLine
 10
5.798757
 20
4.021379
 30
0.0
 11
5.787448
 21
3.990949
 31
0.0
  0
LINE
  5
283
100
AcDbEntity
  8
TFR-TRI
390
0
  6
Continuous
 62
    12
100
AcDbLine
 10
3.953251
 20
6.300836
 30
0.0
 11
3.859501
 21
6.300836
 31
0.0
  0
LINE
  5
284
100
AcDbEntity
  8
TFR-TRI
390
0
  6
Continuous
 62
     3
100
AcDbLine
 10
0.301655
 20
4.19568
 30
0.0
 11
0.216655
 21
4.19568
 31
0.0
  0
LINE
  5
285
100
AcDbEntity
  8
TFR-TRI
390
0
  6
Continuous
 62
     3
100
AcDbLine
 10
5.619893
 20
6.343336
 30
0.0
 11
5.619893
 21
6.33403
 31
0.0
  0
LINE
  5
286
100
AcDbEntity
  8
TFR-TRI
390
0
  6
Continuous
 62
     3
100
AcDbLine
 10
4.49126
 20
3.447589
 30
0.0
 11
4.49126
 21
3.363641
 31
0.0
  0
LINE
  5
287
100
AcDbEntity
  8
TFR-TRI
390
0
  6
Continuous
 62
     3
100
AcDbLine
 10
4.905101
 20
6.658033
 30
0.0
 11
4.950101
 21
6.658033
 31
0.0
  0
LINE
  5
288
100
AcDbEntity
  8
TFR-TRI
390
0
  6
Continuous
 62
    12
100
AcDbLine
 10
2.658166
 20
6.218336
 30
0.0
 11
2.664976
 21
6.218336
 31
0.0
  0
LINE
  5
289
100
AcDbEntity
  8
TFR-TRI
390
0
  6
Continuous
 62
    12
100
AcDbLine
 10
6.020763
 20
3.987594
 30
0.0
 11
6.033143
 21
3.579577
 31
0.0
  0
LINE
  5
28A
100
AcDbEntity
  8
TFR-TRI
390
0
  6
Continuous
 62
     3
100
AcDbLine
 10
4.4403
 20
7.468336
 30
0.0
 11
4.4403
 21
7.369461
 31
0.0
  0
LINE
  5
28B
100
AcDbEntity
  8
TFR-TRI
390
0
  6
Continuous
 62
     3
100
AcDbLine
 10
4.422299
 20
7.468336
 30
0.0
 11
4.422299
 21
7.384389
 31
0.0
  0
LINE
  5
28C
100
AcDbEntity
  8
TFR-TRI
390
0
  6
Continuous
 62
     3
100
AcDbLine
 10
5.456828
 20
8.35886
 30
0.0
 11
5.594828
 21
8.35886
 31
0.0
  0
LINE
  5
28D
100
AcDbEntity
  8
TFR-TRI
390
0
  6
Continuous
 62
     3
100
AcDbLine
 10
4.280751
 20
5.974043
 30
0.0
 11
4.280751
 21
6.04103
 31
0.0
  0
LINE
  5
28E
100
AcDbEntity
  8
TFR-TRI
390
0
  6
Continuous
 62
     3
100
AcDbLine
 10
4.442299
 20
7.468336
 30
0.0
 11
4.442299
 21
7.376925
 31
0.0
  0
LINE
  5
28F
100
AcDbEntity
  8
TFR-TRI
390
0
  6
Continuous
 62
     3
100
AcDbLine
 10
1.124226
 20
5.351593
 30
0.0
 11
1.02535
 21
5.351593
 31
0.0
  0
LINE
  5
290
100
AcDbEntity
  8
TFR-TRI
390
0
  6
Continuous
 62
    12
100
AcDbLine
 10
2.732251
 20
3.413114
 30
0.0
 11
2.664976
 21
3.413114
 31
0.0
  0
LINE
  5
291
100
AcDbEntity
  8
TFR-TRI
390
0
  6
Continuous
 62
     3
100
AcDbLine
 10
3.859501
 20
7.388336
 30
0.0
 11
3.859501
 21
7.508336
 31
0.0
  0
LINE
  5
292
100
AcDbEntity
  8
TFR-TRI
390
0
  6
Continuous
 62
     3
100
AcDbLine
 10
4.030751
 20
5.363594
 30
0.0
 11
4.084842
 21
5.363594
 31
0.0
  0
LINE
  5
293
100
AcDbEntity
  8
TFR-TRI
390
0
  6
Continuous
 62
     3
100
AcDbLine
 10
2.664976
 20
5.018268
 30
0.0
 11
3.116863
 21
5.018268
 31
0.0
  0
LINE
  5
294
100
AcDbEntity
  8
TFR-TRI
390
0
  6
Continuous
 62
    12
100
AcDbLine
 10
7.562865
 20
4.099537
 30
0.0
 11
7.57736
 21
4.111892
 31
0.0
  0
LINE
  5
295
100
AcDbEntity
  8
TFR-TRI
390
0
  6
Continuous
 62
     3
100
AcDbLine
 10
4.280751
 20
5.978536
 30
0.0
 11
4.26398
 21
5.978536
 31
0.0
  0
LINE
  5
296
100
AcDbEntity
  8
TFR-TRI
390
0
  6
Continuous
 62
     3
100
AcDbLine
 10
4.218251
 20
4.553638
 30
0.0
 11
4.60526
 21
4.553638
 31
0.0
  0
LINE
  5
297
100
AcDbEntity
  8
TFR-TRI
390
0
  6
Continuous
 62
    12
100
AcDbLine
 10
6.402507
 20
4.435794
 30
0.0
 11
6.420137
 21
4.442803
 31
0.0
  0
LINE
  5
298
100
AcDbEntity
  8
TFR-TRI
390
0
  6
Continuous
 62
     7
100
AcDbLine
 10
6.585438
 20
3.035295
 30
0.0
 11
6.585438
 21
0.25
 31
0.0
  0
LINE
  5
299
100
AcDbEntity
  8
TFR-TRI
390
0
  6
Continuous
 62
     3
100
AcDbLine
 10
10.835
 20
4.15193
 30
0.0
 11
10.8975
 21
4.15193
 31
0.0
  0
LINE
  5
29A
100
AcDbEntity
  8
TFR-TRI
390
0
  6
Continuous
 62
     3
100
AcDbLine
 10
4.638251
 20
5.872536
 30
0.0
 11
4.593251
 21
5.872536
 31
0.0
  0
LINE
  5
29B
100
AcDbEntity
  8
TFR-TRI
390
0
  6
Continuous
 62
     3
100
AcDbLine
 10
3.828251
 20
6.034536
 30
0.0
 11
3.852485
 21
6.034536
 31
0.0
  0
LINE
  5
29C
100
AcDbEntity
  8
TFR-TRI
390
0
  6
Continuous
 62
    12
100
AcDbLine
 10
4.049604
 20
4.553638
 30
0.0
 11
4.085155
 21
4.553638
 31
0.0
  0
LINE
  5
29D
100
AcDbEntity
  8
TFR-TRI
390
0
  6
Continuous
 62
    12
100
AcDbLine
 10
7.417745
 20
4.076613
 30
0.0
 11
7.419396
 21
4.022211
 31
0.0
  0
LINE
  5
29E
100
AcDbEntity
  8
TFR-TRI
390
0
  6
Continuous
 62
     3
100
AcDbLine
 10
2.108448
 20
5.040843
 30
0.0
 11
2.108448
 21
5.209593
 31
0.0
  0
LINE
  5
29F
100
AcDbEntity
  8
TFR-TRI
390
0
  6
Continuous
 62
     3
100
AcDbLine
 10
4.444299
 20
7.468336
 30
0.0
 11
4.444299
 21
7.384389
 31
0.0
  0
LINE
  5
2A0
100
AcDbEntity
  8
TFR-TRI
390
0
  6
Continuous
 62
    12
100
AcDbLine
 10
7.101407
 20
4.269492
 30
0.0
 11
7.59064
 21
4.552652
 31
0.0
  0
LINE
  5
2A1
100
AcDbEntity
  8
TFR-TRI
390
0
  6
Continuous
 62
     3
100
AcDbLine
 10
4.030751
 20
5.353593
 30
0.0
 11
4.122162
 21
5.353593
 31
0.0
  0
LINE
  5
2A2
100
AcDbEntity
  8
TFR-TRI
390
0
  6
Continuous
 62
    12
100
AcDbLine
 10
7.401242
 20
4.011704
 30
0.0
 11
7.399152
 21
4.004501
 31
0.0
  0
LINE
  5
2A3
100
AcDbEntity
  8
TFR-TRI
390
0
  6
Continuous
 62
     3
100
AcDbLine
 10
4.030751
 20
5.035268
 30
0.0
 11
4.092306
 21
5.035268
 31
0.0
  0
LINE
  5
2A4
100
AcDbEntity
  8
TFR-TRI
390
0
  6
Continuous
 62
     3
100
AcDbLine
 10
2.789976
 20
5.047267
 30
0.0
 11
2.773205
 21
5.047267
 31
0.0
  0
LINE
  5
2A5
100
AcDbEntity
  8
TFR-TRI
390
0
  6
Continuous
 62
     3
100
AcDbLine
 10
4.50126
 20
3.447589
 30
0.0
 11
4.50126
 21
3.400962
 31
0.0
  0
LINE
  5
2A6
100
AcDbEntity
  8
TFR-TRI
390
0
  6
Continuous
 62
     3
100
AcDbLine
 10
5.635893
 20
6.343336
 30
0.0
 11
5.635893
 21
6.274317
 31
0.0
  0
LINE
  5
2A7
100
AcDbEntity
  8
TFR-TRI
390
0
  6
Continuous
 62
     3
100
AcDbLine
 10
1.124226
 20
5.365593
 30
0.0
 11
1.077599
 21
5.365593
 31
0.0
  0
LINE
  5
2A8
100
AcDbEntity
  8
TFR-TRI
390
0
  6
Continuous
 62
     3
100
AcDbLine
 10
5.097726
 20
7.218336
 30
0.0
 11
5.097726
 21
7.339604
 31
0.0
  0
LINE
  5
2A9
100
AcDbEntity
  8
TFR-TRI
390
0
  6
Continuous
 62
    12
100
AcDbLine
 10
7.405506
 20
4.099493
 30
0.0
 11
7.414189
 21
4.091854
 31
0.0
  0
LINE
  5
2AA
100
AcDbEntity
  8
TFR-TRI
390
0
  6
Continuous
 62
    12
100
AcDbLine
 10
7.377568
 20
3.980702
 30
0.0
 11
7.374012
 21
3.995944
 31
0.0
  0
LINE
  5
2AB
100
AcDbEntity
  8
TFR-TRI
390
0
  6
Continuous
 62
     3
100
AcDbLine
 10
4.030751
 20
4.993268
 30
0.0
 11
4.062449
 21
4.993268
 31
0.0
  0
LINE
  5
2AC
100
AcDbEntity
  8
TFR-TRI
390
0
  6
Continuous
 62
    12
100
AcDbLine
 10
7.568762
 20
4.395237
 30
0.0
 11
7.581241
 21
4.413867
 31
0.0
  0
LINE
  5
2AD
100
AcDbEntity
  8
TFR-TRI
390
0
  6
Continuous
 62
     3
100
AcDbLine
 10
5.494577
 20
8.22886
 30
0.0
 11
5.557077
 21
8.22886
 31
0.0
  0
LINE
  5
2AE
100
AcDbEntity
  8
TFR-TRI
390
0
  6
Continuous
 62
     3
100
AcDbLine
 10
4.49126
 20
4.428638
 30
0.0
 11
4.49126
 21
4.512586
 31
0.0
  0
LINE
  5
2AF
100
AcDbEntity
  8
TFR-TRI
390
0
  6
Continuous
 62
     3
100
AcDbLine
 10
5.459268
 20
7.094097
 30
0.0
 11
5.459268
 21
6.925347
 31
0.0
  0
LINE
  5
2B0
100
AcDbEntity
  8
TFR-TRI
390
0
  6
Continuous
 62
    12
100
AcDbLine
 10
1.569976
 20
6.514586
 30
0.0
 11
1.243726
 21
6.514586
 31
0.0
  0
LINE
  5
2B1
100
AcDbEntity
  8
TFR-TRI
390
0
  6
Continuous
 62
    12
100
AcDbLine
 10
2.664976
 20
3.413114
 30
0.0
 11
2.664976
 21
4.463114
 31
0.0
  0
LINE
  5
2B2
100
AcDbEntity
  8
TFR-TRI
390
0
  6
Continuous
 62
     7
100
AcDbLine
 10
0.301655
 20
8.20386
 30
0.0
 11
0.301655
 21
0.25
 31
0.0
  0
LINE
  5
2B3
100
AcDbEntity
  8
TFR-TRI
390
0
  6
Continuous
 62
     3
100
AcDbLine
 10
4.50526
 20
3.447589
 30
0.0
 11
4.50526
 21
3.41589
 31
0.0
  0
LINE
  5
2B4
100
AcDbEntity
  8
TFR-TRI
390
0
  6
Continuous
 62
     3
100
AcDbLine
 10
5.073726
 20
6.530836
 30
0.0
 11
5.073726
 21
6.491673
 31
0.0
  0
LINE
  5
2B5
100
AcDbEntity
  8
TFR-TRI
390
0
  6
Continuous
 62
     3
100
AcDbLine
 10
10.75
 20
4.25818
 30
0.0
 11
10.835
 21
4.25818
 31
0.0
  0
LINE
  5
2B6
100
AcDbEntity
  8
TFR-TRI
390
0
  6
Continuous
 62
     3
100
AcDbLine
 10
3.828251
 20
6.022536
 30
0.0
 11
3.89727
 21
6.022536
 31
0.0
  0
LINE
  5
2B7
100
AcDbEntity
  8
TFR-TRI
390
0
  6
Continuous
 62
     3
100
AcDbLine
 10
5.440827
 20
8.33886
 30
0.0
 11
5.610827
 21
8.33886
 31
0.0
  0
LINE
  5
2B8
100
AcDbEntity
  8
TFR-TRI
390
0
  6
Continuous
 62
     3
100
AcDbLine
 10
5.494577
 20
8.23886
 30
0.0
 11
5.557077
 21
8.23886
 31
0.0
  0
LINE
  5
2B9
100
AcDbEntity
  8
TFR-TRI
390
0
  6
Continuous
 62
     3
100
AcDbLine
 10
5.472827
 20
8.37886
 30
0.0
 11
5.578827
 21
8.37886
 31
0.0
  0
LINE
  5
2BA
100
AcDbEntity
  8
TFR-TRI
390
0
  6
Continuous
 62
     3
100
AcDbLine
 10
5.625893
 20
7.405836
 30
0.0
 11
5.625893
 21
7.437535
 31
0.0
  0
LINE
  5
2BB
100
AcDbEntity
  8
TFR-TRI
390
0
  6
Continuous
 62
     3
100
AcDbLine
 10
2.789976
 20
5.015268
 30
0.0
 11
2.676172
 21
5.015268
 31
0.0
  0
LINE
  5
2BC
100
AcDbEntity
  8
TFR-TRI
390
0
  6
Continuous
 62
     3
100
AcDbLine
 10
3.828251
 20
6.008536
 30
0.0
 11
3.949519
 21
6.008536
 31
0.0
  0
LINE
  5
2BD
100
AcDbEntity
  8
TFR-TRI
390
0
  6
Continuous
 62
    12
100
AcDbLine
 10
7.609302
 20
4.220494
 30
0.0
 11
7.622376
 21
4.216846
 31
0.0
  0
LINE
  5
2BE
100
AcDbEntity
  8
TFR-TRI
390
0
  6
Continuous
 62
     3
100
AcDbLine
 10
4.280751
 20
6.032537
 30
0.0
 11
4.249052
 21
6.032537
 31
0.0
  0
LINE
  5
2BF
100
AcDbEntity
  8
TFR-TRI
390
0
  6
Continuous
 62
     3
100
AcDbLine
 10
4.48026
 20
4.553638
 30
0.0
 11
4.48026
 21
4.174989
 31
0.0
  0
LINE
  5
2C0
100
AcDbEntity
  8
TFR-TRI
390
0
  6
Continuous
 62
    12
100
AcDbLine
 10
1.069821
 20
3.389864
 30
0.0
 11
1.105372
 21
3.389864
 31
0.0
  0
LINE
  5
2C1
100
AcDbEntity
  8
TFR-TRI
390
0
  6
Continuous
 62
    12
100
AcDbLine
 10
7.630076
 20
4.448935
 30
0.0
 11
7.625673
 21
4.425309
 31
0.0
  0
LINE
  5
2C2
100
AcDbEntity
  8
TFR-TRI
390
0
  6
Continuous
 62
     7
100
AcDbLine
 10
0.301655
 20
0.25
 30
0.0
 11
10.75
 21
0.25
 31
0.0
  0
LINE
  5
2C3
100
AcDbEntity
  8
TFR-TRI
390
0
  6
Continuous
 62
     3
100
AcDbLine
 10
5.501828
 20
0.03875
 30
0.0
 11
5.549828
 21
0.03875
 31
0.0
  0
LINE
  5
2C4
100
AcDbEntity
  8
TFR-TRI
390
0
  6
Continuous
 62
    12
100
AcDbLine
 10
6.462265
 20
3.631888
 30
0.0
 11
5.875306
 21
3.292165
 31
0.0
  0
LINE
  5
2C5
100
AcDbEntity
  8
TFR-TRI
390
0
  6
Continuous
 62
     3
100
AcDbLine
 10
5.494577
 20
8.20386
 30
0.0
 11
5.557077
 21
8.20386
 31
0.0
  0
LINE
  5
2C6
100
AcDbEntity
  8
TFR-TRI
390
0
  6
Continuous
 62
     3
100
AcDbLine
 10
4.030751
 20
5.335593
 30
0.0
 11
4.122162
 21
5.335593
 31
0.0
  0
LINE
  5
2C7
100
AcDbEntity
  8
TFR-TRI
390
0
  6
Continuous
 62
     7
100
AcDbLine
 10
5.450266
 20
0.25
 30
0.0
 11
5.450266
 21
2.573295
 31
0.0
  0
LINE
  5
2C8
100
AcDbEntity
  8
TFR-TRI
390
0
  6
Continuous
 62
    12
100
AcDbLine
 10
6.020763
 20
3.987594
 30
0.0
 11
6.00493
 21
3.99227
 31
0.0
  0
LINE
  5
2C9
100
AcDbEntity
  8
TFR-TRI
390
0
  6
Continuous
 62
    12
100
AcDbLine
 10
5.751762
 20
4.001489
 30
0.0
 11
5.763071
 21
4.031919
 31
0.0
  0
LINE
  5
2CA
100
AcDbEntity
  8
TFR-TRI
390
0
  6
Continuous
 62
     3
100
AcDbLine
 10
5.115726
 20
7.218336
 30
0.0
 11
5.115726
 21
7.272427
 31
0.0
  0
LINE
  5
2CB
100
AcDbEntity
  8
TFR-TRI
390
0
  6
Continuous
 62
    12
100
AcDbLine
 10
7.646602
 20
3.904287
 30
0.0
 11
7.64727
 21
3.882244
 31
0.0
  0
LINE
  5
2CC
100
AcDbEntity
  8
TFR-TRI
390
0
  6
Continuous
 62
     3
100
AcDbLine
 10
5.665893
 20
6.343336
 30
0.0
 11
5.665893
 21
6.274317
 31
0.0
  0
LINE
  5
2CD
100
AcDbEntity
  8
TFR-TRI
390
0
  6
Continuous
 62
     3
100
AcDbLine
 10
4.288635
 20
3.763739
 30
0.0
 11
4.333635
 21
3.763739
 31
0.0
  0
LINE
  5
2CE
100
AcDbEntity
  8
TFR-TRI
390
0
  6
Continuous
 62
     3
100
AcDbLine
 10
4.47326
 20
4.428638
 30
0.0
 11
4.47326
 21
4.527514
 31
0.0
  0
LINE
  5
2CF
100
AcDbEntity
  8
TFR-TRI
390
0
  6
Continuous
 62
     3
100
AcDbLine
 10
4.4123
 20
6.749586
 30
0.0
 11
4.4123
 21
6.796213
 31
0.0
  0
LINE
  5
2D0
100
AcDbEntity
  8
TFR-TRI
390
0
  6
Continuous
 62
    12
100
AcDbLine
 10
7.625327
 20
4.119605
 30
0.0
 11
7.612921
 21
4.10121
 31
0.0
  0
LINE
  5
2D1
100
AcDbEntity
  8
TFR-TRI
390
0
  6
Continuous
 62
    12
100
AcDbLine
 10
7.629486
 20
4.559195
 30
0.0
 11
7.5938
 21
4.569735
 31
0.0
  0
LINE
  5
2D2
100
AcDbEntity
  8
TFR-TRI
390
0
  6
Continuous
 62
     3
100
AcDbLine
 10
5.494577
 20
0.17875
 30
0.0
 11
5.557077
 21
0.17875
 31
0.0
  0
LINE
  5
2D3
100
AcDbEntity
  8
TFR-TRI
390
0
  6
Continuous
 62
     3
100
AcDbLine
 10
4.47526
 20
3.447589
 30
0.0
 11
4.47526
 21
3.341249
 31
0.0
  0
LINE
  5
2D4
100
AcDbEntity
  8
TFR-TRI
390
0
  6
Continuous
 62
     3
100
AcDbLine
 10
10.75
 20
4.19693
 30
0.0
 11
10.95375
 21
4.19693
 31
0.0
  0
LINE
  5
2D5
100
AcDbEntity
  8
TFR-TRI
390
0
  6
Continuous
 62
     3
100
AcDbLine
 10
0.191655
 20
4.33193
 30
0.0
 11
0.216655
 21
4.33193
 31
0.0
  0
LINE
  5
2D6
100
AcDbEntity
  8
TFR-TRI
390
0
  6
Continuous
 62
     3
100
AcDbLine
 10
5.669893
 20
7.405836
 30
0.0
 11
5.669893
 21
7.459927
 31
0.0
  0
LINE
  5
2D7
100
AcDbEntity
  8
TFR-TRI
390
0
  6
Continuous
 62
     3
100
AcDbLine
 10
1.124226
 20
5.373593
 30
0.0
 11
1.107455
 21
5.373593
 31
0.0
  0
LINE
  5
2D8
100
AcDbEntity
  8
TFR-TRI
390
0
  6
Continuous
 62
    12
100
AcDbLine
 10
7.533911
 20
4.465179
 30
0.0
 11
7.548282
 21
4.477392
 31
0.0
  0
LINE
  5
2D9
100
AcDbEntity
  8
TFR-TRI
390
0
  6
Continuous
 62
     3
100
AcDbLine
 10
4.402299
 20
6.749586
 30
0.0
 11
4.402299
 21
6.758893
 31
0.0
  0
LINE
  5
2DA
100
AcDbEntity
  8
TFR-TRI
390
0
  6
Continuous
 62
    12
100
AcDbLine
 10
1.592476
 20
7.212086
 30
0.0
 11
1.592476
 21
6.537086
 31
0.0
  0
LINE
  5
2DB
100
AcDbEntity
  8
TFR-TRI
390
0
  6
Continuous
 62
    12
100
AcDbLine
 10
5.787448
 20
3.990949
 30
0.0
 11
5.780721
 21
3.959241
 31
0.0
  0
LINE
  5
2DC
100
AcDbEntity
  8
TFR-TRI
390
0
  6
Continuous
 62
     3
100
AcDbLine
 10
3.828251
 20
6.040536
 30
0.0
 11
3.830093
 21
6.040536
 31
0.0
  0
LINE
  5
2DD
100
AcDbEntity
  8
TFR-TRI
390
0
  6
Continuous
 62
     3
100
AcDbLine
 10
0.301655
 20
4.19568
 30
0.0
 11
0.301655
 21
4.25818
 31
0.0
  0
LINE
  5
2DE
100
AcDbEntity
  8
TFR-TRI
390
0
  6
Continuous
 62
     3
100
AcDbLine
 10
4.48926
 20
3.447589
 30
0.0
 11
4.48926
 21
3.356177
 31
0.0
  0
LINE
  5
2DF
100
AcDbEntity
  8
TFR-TRI
390
0
  6
Continuous
 62
     3
100
AcDbLine
 10
3.904501
 20
6.874586
 30
0.0
 11
3.861376
 21
6.874586
 31
0.0
  0
LINE
  5
2E0
100
AcDbEntity
  8
TFR-TRI
390
0
  6
Continuous
 62
    12
100
AcDbLine
 10
7.101407
 20
4.269492
 30
0.0
 11
7.065722
 21
4.280032
 31
0.0
  0
LINE
  5
2E1
100
AcDbEntity
  8
TFR-TRI
390
0
  6
Continuous
 62
     3
100
AcDbLine
 10
5.460827
 20
8.36386
 30
0.0
 11
5.590827
 21
8.36386
 31
0.0
  0
LINE
  5
2E2
100
AcDbEntity
  8
TFR-TRI
390
0
  6
Continuous
 62
     3
100
AcDbLine
 10
5.123726
 20
7.218336
 30
0.0
 11
5.123726
 21
7.242571
 31
0.0
  0
LINE
  5
2E3
100
AcDbEntity
  8
TFR-TRI
390
0
  6
Continuous
 62
     3
100
AcDbLine
 10
4.49726
 20
4.428638
 30
0.0
 11
4.49726
 21
4.490194
 31
0.0
  0
LINE
  5
2E4
100
AcDbEntity
  8
TFR-TRI
390
0
  6
Continuous
 62
     3
100
AcDbLine
 10
3.828251
 20
6.028536
 30
0.0
 11
3.874878
 21
6.028536
 31
0.0
  0
LINE
  5
2E5
100
AcDbEntity
  8
TFR-TRI
390
0
  6
Continuous
 62
    12
100
AcDbLine
 10
7.685225
 20
3.885577
 30
0.0
 11
7.686912
 21
3.916403
 31
0.0
  0
LINE
  5
2E6
100
AcDbEntity
  8
TFR-TRI
390
0
  6
Continuous
 62
     3
100
AcDbLine
 10
4.280751
 20
5.984536
 30
0.0
 11
4.241588
 21
5.984536
 31
0.0
  0
LINE
  5
2E7
100
AcDbEntity
  8
TFR-TRI
390
0
  6
Continuous
 62
    12
100
AcDbLine
 10
2.641726
 20
3.389864
 30
0.0
 11
1.186726
 21
3.389864
 31
0.0
  0
LINE
  5
2E8
100
AcDbEntity
  8
TFR-TRI
390
0
  6
Continuous
 62
    12
100
AcDbLine
 10
7.629407
 20
4.470977
 30
0.0
 11
7.630076
 21
4.448935
 31
0.0
  0
LINE
  5
2E9
100
AcDbEntity
  8
TFR-TRI
390
0
  6
Continuous
 62
     3
100
AcDbLine
 10
4.030751
 20
5.361593
 30
0.0
 11
4.092306
 21
5.361593
 31
0.0
  0
LINE
  5
2EA
100
AcDbEntity
  8
TFR-TRI
390
0
  6
Continuous
 62
    12
100
AcDbLine
 10
7.57736
 20
4.111892
 30
0.0
 11
7.589838
 21
4.130522
 31
0.0
  0
LINE
  5
2EB
100
AcDbEntity
  8
TFR-TRI
390
0
  6
Continuous
 62
    12
100
AcDbLine
 10
7.669717
 20
4.483093
 30
0.0
 11
7.66625
 21
4.510935
 31
0.0
  0
LINE
  5
2EC
100
AcDbEntity
  8
TFR-TRI
390
0
  6
Continuous
 62
     3
100
AcDbLine
 10
5.627892
 20
6.343336
 30
0.0
 11
5.627892
 21
6.304173
 31
0.0
  0
LINE
  5
2ED
100
AcDbEntity
  8
TFR-TRI
390
0
  6
Continuous
 62
     3
100
AcDbLine
 10
3.904501
 20
6.405836
 30
0.0
 11
3.861376
 21
6.405836
 31
0.0
  0
LINE
  5
2EE
100
AcDbEntity
  8
TFR-TRI
390
0
  6
Continuous
 62
     3
100
AcDbLine
 10
4.030751
 20
5.375593
 30
0.0
 11
4.040057
 21
5.375593
 31
0.0
  0
LINE
  5
2EF
100
AcDbEntity
  8
TFR-TRI
390
0
  6
Continuous
 62
     3
100
AcDbLine
 10
4.280751
 20
5.980536
 30
0.0
 11
4.256516
 21
5.980536
 31
0.0
  0
LINE
  5
2F0
100
AcDbEntity
  8
TFR-TRI
390
0
  6
Continuous
 62
     3
100
AcDbLine
 10
2.789976
 20
5.017268
 30
0.0
 11
2.668708
 21
5.017268
 31
0.0
  0
LINE
  5
2F1
100
AcDbEntity
  8
TFR-TRI
390
0
  6
Continuous
 62
    12
100
AcDbLine
 10
6.420137
 20
4.442803
 30
0.0
 11
6.442394
 21
4.446586
 31
0.0
  0
LINE
  5
2F2
100
AcDbEntity
  8
TFR-TRI
390
0
  6
Continuous
 62
     3
100
AcDbLine
 10
1.124226
 20
5.323593
 30
0.0
 11
1.077599
 21
5.323593
 31
0.0
  0
LINE
  5
2F3
100
AcDbEntity
  8
TFR-TRI
390
0
  6
Continuous
 62
     3
100
AcDbLine
 10
1.124226
 20
5.377594
 30
0.0
 11
1.122383
 21
5.377594
 31
0.0
  0
LINE
  5
2F4
100
AcDbEntity
  8
TFR-TRI
390
0
  6
Continuous
 62
     3
100
AcDbLine
 10
5.665893
 20
7.405836
 30
0.0
 11
5.665893
 21
7.474855
 31
0.0
  0
LINE
  5
2F5
100
AcDbEntity
  8
TFR-TRI
390
0
  6
Continuous
 62
     3
100
AcDbLine
 10
4.593251
 20
5.703786
 30
0.0
 11
4.638251
 21
5.703786
 31
0.0
  0
LINE
  5
2F6
100
AcDbEntity
  8
TFR-TRI
390
0
  6
Continuous
 62
     3
100
AcDbLine
 10
4.454299
 20
6.749586
 30
0.0
 11
4.454299
 21
6.796213
 31
0.0
  0
LINE
  5
2F7
100
AcDbEntity
  8
TFR-TRI
390
0
  6
Continuous
 62
    12
100
AcDbLine
 10
7.523085
 20
4.077611
 30
0.0
 11
7.517425
 21
4.095413
 31
0.0
  0
LINE
  5
2F8
100
AcDbEntity
  8
TFR-TRI
390
0
  6
Continuous
 62
    12
100
AcDbLine
 10
7.533053
 20
4.066199
 30
0.0
 11
7.523085
 21
4.077611
 31
0.0
  0
LINE
  5
2F9
100
AcDbEntity
  8
TFR-TRI
390
0
  6
Continuous
 62
    12
100
AcDbLine
 10
7.125479
 20
3.476126
 30
0.0
 11
7.101407
 21
4.269492
 31
0.0
  0
LINE
  5
2FA
100
AcDbEntity
  8
TFR-TRI
390
0
  6
Continuous
 62
     3
100
AcDbLine
 10
5.683893
 20
7.405836
 30
0.0
 11
5.683893
 21
7.407679
 31
0.0
  0
LINE
  5
2FB
100
AcDbEntity
  8
TFR-TRI
390
0
  6
Continuous
 62
     3
100
AcDbLine
 10
10.835
 20
4.31693
 30
0.0
 11
10.87875
 21
4.31693
 31
0.0
  0
LINE
  5
2FC
100
AcDbEntity
  8
TFR-TRI
390
0
  6
Continuous
 62
     3
100
AcDbLine
 10
4.030751
 20
5.033267
 30
0.0
 11
4.09977
 21
5.033267
 31
0.0
  0
LINE
  5
2FD
100
AcDbEntity
  8
TFR-TRI
390
0
  6
Continuous
 62
     3
100
AcDbLine
 10
2.789976
 20
5.045268
 30
0.0
 11
2.765741
 21
5.045268
 31
0.0
  0
LINE
  5
2FE
100
AcDbEntity
  8
TFR-TRI
390
0
  6
Continuous
 62
     3
100
AcDbLine
 10
5.637893
 20
6.343336
 30
0.0
 11
5.637893
 21
6.266853
 31
0.0
  0
LINE
  5
2FF
100
AcDbEntity
  8
TFR-TRI
390
0
  6
Continuous
 62
     3
100
AcDbLine
 10
3.859501
 20
6.859586
 30
0.0
 11
3.859501
 21
6.889586
 31
0.0
  0
LINE
  5
300
100
AcDbEntity
  8
TFR-TRI
390
0
  6
Continuous
 62
     3
100
AcDbLine
 10
5.096726
 20
6.405836
 30
0.0
 11
5.13022
 21
6.530836
 31
0.0
  0
LINE
  5
301
100
AcDbEntity
  8
TFR-TRI
390
0
  6
Continuous
 62
     3
100
AcDbLine
 10
4.030751
 20
4.995268
 30
0.0
 11
4.069913
 21
4.995268
 31
0.0
  0
LINE
  5
302
100
AcDbEntity
  8
TFR-TRI
390
0
  6
Continuous
 62
     3
100
AcDbLine
 10
5.494577
 20
0.19375
 30
0.0
 11
5.557077
 21
0.19375
 31
0.0
  0
LINE
  5
303
100
AcDbEntity
  8
TFR-TRI
390
0
  6
Continuous
 62
     3
100
AcDbLine
 10
4.48926
 20
4.428638
 30
0.0
 11
4.48926
 21
4.52005
 31
0.0
  0
LINE
  5
304
100
AcDbEntity
  8
TFR-TRI
390
0
  6
Continuous
 62
     3
100
AcDbLine
 10
5.109726
 20
6.530836
 30
0.0
 11
5.109726
 21
6.454353
 31
0.0
  0
LINE
  5
305
100
AcDbEntity
  8
TFR-TRI
390
0
  6
Continuous
 62
     3
100
AcDbLine
 10
4.030751
 20
5.325593
 30
0.0
 11
4.084842
 21
5.325593
 31
0.0
  0
LINE
  5
306
100
AcDbEntity
  8
TFR-TRI
390
0
  6
Continuous
 62
     3
100
AcDbLine
 10
3.828251
 20
6.016536
 30
0.0
 11
3.919662
 21
6.016536
 31
0.0
  0
LINE
  5
307
100
AcDbEntity
  8
TFR-TRI
390
0
  6
Continuous
 62
     3
100
AcDbLine
 10
5.494577
 20
8.27386
 30
0.0
 11
5.557077
 21
8.27386
 31
0.0
  0
LINE
  5
308
100
AcDbEntity
  8
TFR-TRI
390
0
  6
Continuous
 62
     3
100
AcDbLine
 10
10.835
 20
4.10693
 30
0.0
 11
10.84125
 21
4.10693
 31
0.0
  0
LINE
  5
309
100
AcDbEntity
  8
TFR-TRI
390
0
  6
Continuous
 62
     3
100
AcDbLine
 10
2.789976
 20
4.993268
 30
0.0
 11
2.758277
 21
4.993268
 31
0.0
  0
LINE
  5
30A
100
AcDbEntity
  8
TFR-TRI
390
0
  6
Continuous
 62
     3
100
AcDbLine
 10
4.50326
 20
3.447589
 30
0.0
 11
4.50326
 21
3.408426
 31
0.0
  0
LINE
  5
30B
100
AcDbEntity
  8
TFR-TRI
390
0
  6
Continuous
 62
     3
100
AcDbLine
 10
5.075727
 20
6.530836
 30
0.0
 11
5.075727
 21
6.484209
 31
0.0
  0
LINE
  5
30C
100
AcDbEntity
  8
TFR-TRI
390
0
  6
Continuous
 62
     3
100
AcDbLine
 10
10.75
 20
4.25818
 30
0.0
 11
10.75
 21
4.19568
 31
0.0
  0
LINE
  5
30D
100
AcDbEntity
  8
TFR-TRI
390
0
  6
Continuous
 62
     3
100
AcDbLine
 10
5.681893
 20
6.343336
 30
0.0
 11
5.681893
 21
6.33403
 31
0.0
  0
LINE
  5
30E
100
AcDbEntity
  8
TFR-TRI
390
0
  6
Continuous
 62
     3
100
AcDbLine
 10
4.46326
 20
4.428638
 30
0.0
 11
4.46326
 21
4.490194
 31
0.0
  0
LINE
  5
30F
100
AcDbEntity
  8
TFR-TRI
390
0
  6
Continuous
 62
     3
100
AcDbLine
 10
10.75
 20
4.24193
 30
0.0
 11
10.9725
 21
4.24193
 31
0.0
  0
LINE
  5
310
100
AcDbEntity
  8
TFR-TRI
390
0
  6
Continuous
 62
     3
100
AcDbLine
 10
0.072905
 20
4.23693
 30
0.0
 11
0.301655
 21
4.23693
 31
0.0
  0
LINE
  5
311
100
AcDbEntity
  8
TFR-TRI
390
0
  6
Continuous
 62
     3
100
AcDbLine
 10
3.953251
 20
7.328336
 30
0.0
 11
3.953251
 21
7.358336
 31
0.0
  0
LINE
  5
312
100
AcDbEntity
  8
TFR-TRI
390
0
  6
Continuous
 62
     3
100
AcDbLine
 10
2.789976
 20
5.051268
 30
0.0
 11
2.788133
 21
5.051268
 31
0.0
  0
LINE
  5
313
100
AcDbEntity
  8
TFR-TRI
390
0
  6
Continuous
 62
     3
100
AcDbLine
 10
5.494577
 20
8.24386
 30
0.0
 11
5.557077
 21
8.24386
 31
0.0
  0
LINE
  5
314
100
AcDbEntity
  8
TFR-TRI
390
0
  6
Continuous
 62
     3
100
AcDbLine
 10
5.476828
 20
8.38386
 30
0.0
 11
5.574828
 21
8.38386
 31
0.0
  0
LINE
  5
315
100
AcDbEntity
  8
TFR-TRI
390
0
  6
Continuous
 62
     3
100
AcDbLine
 10
5.627892
 20
7.405836
 30
0.0
 11
5.627892
 21
7.444999
 31
0.0
  0
LINE
  5
316
100
AcDbEntity
  8
TFR-TRI
390
0
  6
Continuous
 62
     3
100
AcDbLine
 10
3.828251
 20
5.974536
 30
0.0
 11
3.830093
 21
5.974536
 31
0.0
  0
LINE
  5
317
100
AcDbEntity
  8
TFR-TRI
390
0
  6
Continuous
 62
     3
100
AcDbLine
 10
3.998251
 20
6.874586
 30
0.0
 11
4.118251
 21
6.874586
 31
0.0
  0
LINE
  5
318
100
AcDbEntity
  8
TFR-TRI
390
0
  6
Continuous
 62
    12
100
AcDbLine
 10
7.622376
 20
4.216846
 30
0.0
 11
7.632345
 21
4.205433
 31
0.0
  0
LINE
  5
319
100
AcDbEntity
  8
TFR-TRI
390
0
  6
Continuous
 62
     3
100
AcDbLine
 10
3.953251
 20
6.859586
 30
0.0
 11
3.953251
 21
6.889586
 31
0.0
  0
LINE
  5
31A
100
AcDbEntity
  8
TFR-TRI
390
0
  6
Continuous
 62
     3
100
AcDbLine
 10
3.828251
 20
6.018536
 30
0.0
 11
3.912198
 21
6.018536
 31
0.0
  0
LINE
  5
31B
100
AcDbEntity
  8
TFR-TRI
390
0
  6
Continuous
 62
     3
100
AcDbLine
 10
3.814501
 20
6.874586
 30
0.0
 11
3.694501
 21
6.874586
 31
0.0
  0
LINE
  5
31C
100
AcDbEntity
  8
TFR-TRI
390
0
  6
Continuous
 62
     3
100
AcDbLine
 10
0.204155
 20
4.11193
 30
0.0
 11
0.216655
 21
4.11193
 31
0.0
  0
LINE
  5
31D
100
AcDbEntity
  8
TFR-TRI
390
0
  6
Continuous
 62
     3
100
AcDbLine
 10
4.48026
 20
3.322589
 30
0.0
 11
4.48026
 21
3.701239
 31
0.0
  0
LINE
  5
31E
100
AcDbEntity
  8
TFR-TRI
390
0
  6
Continuous
 62
    12
100
AcDbLine
 10
1.105372
 20
3.389864
 30
0.0
 11
1.145003
 21
3.389864
 31
0.0
  0
LINE
  5
31F
100
AcDbEntity
  8
TFR-TRI
390
0
  6
Continuous
 62
    12
100
AcDbLine
 10
7.409789
 20
4.078963
 30
0.0
 11
7.417745
 21
4.076613
 31
0.0
  0
LINE
  5
320
100
AcDbEntity
  8
TFR-TRI
390
0
  6
Continuous
 62
     3
100
AcDbLine
 10
5.497828
 20
0.04375
 30
0.0
 11
5.553827
 21
0.04375
 31
0.0
  0
LINE
  5
321
100
AcDbEntity
  8
TFR-TRI
390
0
  6
Continuous
 62
    12
100
AcDbLine
 10
2.732251
 20
3.413114
 30
0.0
 11
2.732251
 21
4.463114
 31
0.0
  0
LINE
  5
322
100
AcDbEntity
  8
TFR-TRI
390
0
  6
Continuous
 62
     3
100
AcDbLine
 10
4.280751
 20
5.992537
 30
0.0
 11
4.211731
 21
5.992537
 31
0.0
  0
LINE
  5
323
100
AcDbEntity
  8
TFR-TRI
390
0
  6
Continuous
 62
     3
100
AcDbLine
 10
4.280751
 20
6.022536
 30
0.0
 11
4.211731
 21
6.022536
 31
0.0
  0
LINE
  5
324
100
AcDbEntity
  8
TFR-TRI
390
0
  6
Continuous
 62
     3
100
AcDbLine
 10
5.441827
 20
0.11375
 30
0.0
 11
5.609828
 21
0.11375
 31
0.0
  0
LINE
  5
325
100
AcDbEntity
  8
TFR-TRI
390
0
  6
Continuous
 62
    12
100
AcDbLine
 10
7.64727
 20
3.882244
 30
0.0
 11
7.642868
 21
3.858619
 31
0.0
  0
LINE
  5
326
100
AcDbEntity
  8
TFR-TRI
390
0
  6
Continuous
 62
     3
100
AcDbLine
 10
5.063726
 20
6.530836
 30
0.0
 11
5.063726
 21
6.528994
 31
0.0
  0
LINE
  5
327
100
AcDbEntity
  8
TFR-TRI
390
0
  6
Continuous
 62
     3
100
AcDbLine
 10
0.185405
 20
4.12693
 30
0.0
 11
0.216655
 21
4.12693
 31
0.0
  0
LINE
  5
328
100
AcDbEntity
  8
TFR-TRI
390
0
  6
Continuous
 62
     3
100
AcDbLine
 10
5.663893
 20
6.343336
 30
0.0
 11
5.663893
 21
6.266853
 31
0.0
  0
LINE
  5
329
100
AcDbEntity
  8
TFR-TRI
390
0
  6
Continuous
 62
     3
100
AcDbLine
 10
0.154155
 20
4.30193
 30
0.0
 11
0.216655
 21
4.30193
 31
0.0
  0
LINE
  5
32A
100
AcDbEntity
  8
TFR-TRI
390
0
  6
Continuous
 62
     3
100
AcDbLine
 10
4.705635
 20
3.763739
 30
0.0
 11
4.750635
 21
3.763739
 31
0.0
  0
LINE
  5
32B
100
AcDbEntity
  8
TFR-TRI
390
0
  6
Continuous
 62
     3
100
AcDbLine
 10
4.47526
 20
4.428638
 30
0.0
 11
4.47526
 21
4.534978
 31
0.0
  0
LINE
  5
32C
100
AcDbEntity
  8
TFR-TRI
390
0
  6
Continuous
 62
    12
100
AcDbLine
 10
5.760542
 20
3.372265
 30
0.0
 11
5.796228
 21
3.361725
 31
0.0
  0
LINE
  5
32D
100
AcDbEntity
  8
TFR-TRI
390
0
  6
Continuous
 62
    12
100
AcDbLine
 10
7.603296
 20
3.932591
 30
0.0
 11
7.617899
 21
3.937148
 31
0.0
  0
LINE
  5
32E
100
AcDbEntity
  8
TFR-TRI
390
0
  6
Continuous
 62
     3
100
AcDbLine
 10
5.494577
 20
0.18375
 30
0.0
 11
5.557077
 21
0.18375
 31
0.0
  0
LINE
  5
32F
100
AcDbEntity
  8
TFR-TRI
390
0
  6
Continuous
 62
     3
100
AcDbLine
 10
3.891376
 20
6.405836
 30
0.0
 11
3.921376
 21
6.405836
 31
0.0
  0
LINE
  5
330
100
AcDbEntity
  8
TFR-TRI
390
0
  6
Continuous
 62
    12
100
AcDbLine
 10
7.638004
 20
4.187632
 30
0.0
 11
7.638673
 21
4.165589
 31
0.0
  0
LINE
  5
331
100
AcDbEntity
  8
TFR-TRI
390
0
  6
Continuous
 62
    12
100
AcDbLine
 10
5.837026
 20
3.28546
 30
0.0
 11
5.855612
 21
3.284697
 31
0.0
  0
LINE
  5
332
100
AcDbEntity
  8
TFR-TRI
390
0
  6
Continuous
 62
     3
100
AcDbLine
 10
4.479259
 20
3.447589
 30
0.0
 11
4.479259
 21
3.326321
 31
0.0
  0
LINE
  5
333
100
AcDbEntity
  8
TFR-TRI
390
0
  6
Continuous
 62
     3
100
AcDbLine
 10
5.667893
 20
7.405836
 30
0.0
 11
5.667893
 21
7.467391
 31
0.0
  0
LINE
  5
334
100
AcDbEntity
  8
TFR-TRI
390
0
  6
Continuous
 62
     3
100
AcDbLine
 10
1.124226
 20
5.371593
 30
0.0
 11
1.099991
 21
5.371593
 31
0.0
  0
LINE
  5
335
100
AcDbEntity
  8
TFR-TRI
390
0
  6
Continuous
 62
     3
100
AcDbLine
 10
4.404299
 20
6.749586
 30
0.0
 11
4.404299
 21
6.766357
 31
0.0
  0
LINE
  5
336
100
AcDbEntity
  8
TFR-TRI
390
0
  6
Continuous
 62
    12
100
AcDbLine
 10
5.780721
 20
3.959241
 30
0.0
 11
5.779034
 21
3.928415
 31
0.0
  0
LINE
  5
337
100
AcDbEntity
  8
TFR-TRI
390
0
  6
Continuous
 62
    12
100
AcDbLine
 10
3.859501
 20
6.510836
 30
0.0
 11
3.953251
 21
6.510836
 31
0.0
  0
LINE
  5
338
100
AcDbEntity
  8
TFR-TRI
390
0
  6
Continuous
 62
     3
100
AcDbLine
 10
0.060405
 20
4.22693
 30
0.0
 11
0.216655
 21
4.35193
 31
0.0
  0
LINE
  5
339
100
AcDbEntity
  8
TFR-TRI
390
0
  6
Continuous
 62
     3
100
AcDbLine
 10
4.48726
 20
3.447589
 30
0.0
 11
4.48726
 21
3.348713
 31
0.0
  0
LINE
  5
33A
100
AcDbEntity
  8
TFR-TRI
390
0
  6
Continuous
 62
    12
100
AcDbLine
 10
7.125479
 20
3.476126
 30
0.0
 11
7.614712
 21
3.759286
 31
0.0
  0
LINE
  5
33B
100
AcDbEntity
  8
TFR-TRI
390
0
  6
Continuous
 62
    12
100
AcDbLine
 10
5.743348
 20
3.938955
 30
0.0
 11
5.745036
 21
3.969781
 31
0.0
  0
LINE
  5
33C
100
AcDbEntity
  8
TFR-TRI
390
0
  6
Continuous
 62
     3
100
AcDbLine
 10
4.4263
 20
7.468336
 30
0.0
 11
4.4263
 21
7.369461
 31
0.0
  0
LINE
  5
33D
100
AcDbEntity
  8
TFR-TRI
390
0
  6
Continuous
 62
     3
100
AcDbLine
 10
5.464828
 20
8.36886
 30
0.0
 11
5.586827
 21
8.36886
 31
0.0
  0
LINE
  5
33E
100
AcDbEntity
  8
TFR-TRI
390
0
  6
Continuous
 62
    12
100
AcDbLine
 10
7.607365
 20
3.869797
 30
0.0
 11
7.61165
 21
3.893627
 31
0.0
  0
LINE
  5
33F
100
AcDbEntity
  8
TFR-TRI
390
0
  6
Continuous
 62
    12
100
AcDbLine
 10
6.030776
 20
3.568421
 30
0.0
 11
6.024478
 21
3.560723
 31
0.0
  0
LINE
  5
340
100
AcDbEntity
  8
TFR-TRI
390
0
  6
Continuous
 62
    12
100
AcDbLine
 10
7.06152
 20
4.2587
 30
0.0
 11
7.083776
 21
4.262483
 31
0.0
  0
LINE
  5
341
100
AcDbEntity
  8
TFR-TRI
390
0
  6
Continuous
 62
     3
100
AcDbLine
 10
5.087726
 20
6.530836
 30
0.0
 11
5.087726
 21
6.439425
 31
0.0
  0
LINE
  5
342
100
AcDbEntity
  8
TFR-TRI
390
0
  6
Continuous
 62
     3
100
AcDbLine
 10
5.621893
 20
6.343336
 30
0.0
 11
5.621893
 21
6.326566
 31
0.0
  0
LINE
  5
343
100
AcDbEntity
  8
TFR-TRI
390
0
  6
Continuous
 62
    12
100
AcDbLine
 10
4.114844
 20
4.486363
 30
0.0
 11
4.085155
 21
4.486363
 31
0.0
  0
LINE
  5
344
100
AcDbEntity
  8
TFR-TRI
390
0
  6
Continuous
 62
    12
100
AcDbLine
 10
7.408943
 20
3.986198
 30
0.0
 11
7.397736
 21
3.975076
 31
0.0
  0
LINE
  5
345
100
AcDbEntity
  8
TFR-TRI
390
0
  6
Continuous
 62
    12
100
AcDbLine
 10
7.589838
 20
4.130522
 30
0.0
 11
7.598768
 21
4.153141
 31
0.0
  0
LINE
  5
346
100
AcDbEntity
  8
TFR-TRI
390
0
  6
Continuous
 62
     3
100
AcDbLine
 10
5.629893
 20
6.343336
 30
0.0
 11
5.629893
 21
6.296709
 31
0.0
  0
LINE
  5
347
100
AcDbEntity
  8
TFR-TRI
390
0
  6
Continuous
 62
     3
100
AcDbLine
 10
4.280751
 20
5.982536
 30
0.0
 11
4.249052
 21
5.982536
 31
0.0
  0
LINE
  5
348
100
AcDbEntity
  8
TFR-TRI
390
0
  6
Continuous
 62
    12
100
AcDbLine
 10
6.442394
 20
4.446586
 30
0.0
 11
6.465888
 21
4.446567
 31
0.0
  0
LINE
  5
349
100
AcDbEntity
  8
TFR-TRI
390
0
  6
Continuous
 62
     3
100
AcDbLine
 10
1.124226
 20
5.325593
 30
0.0
 11
1.070135
 21
5.325593
 31
0.0
  0
LINE
  5
34A
100
AcDbEntity
  8
TFR-TRI
390
0
  6
Continuous
 62
     3
100
AcDbLine
 10
5.117726
 20
7.218336
 30
0.0
 11
5.117726
 21
7.264963
 31
0.0
  0
LINE
  5
34B
100
AcDbEntity
  8
TFR-TRI
390
0
  6
Continuous
 62
     3
100
AcDbLine
 10
5.633893
 20
7.405836
 30
0.0
 11
5.633893
 21
7.467391
 31
0.0
  0
LINE
  5
34C
100
AcDbEntity
  8
TFR-TRI
390
0
  6
Continuous
 62
    12
100
AcDbLine
 10
7.38491
 20
4.005772
 30
0.0
 11
7.384209
 21
4.008801
 31
0.0
  0
LINE
  5
34D
100
AcDbEntity
  8
TFR-TRI
390
0
  6
Continuous
 62
    12
100
AcDbLine
 10
7.414189
 20
4.091854
 30
0.0
 11
7.417745
 21
4.076613
 31
0.0
  0
LINE
  5
34E
100
AcDbEntity
  8
TFR-TRI
390
0
  6
Continuous
 62
     3
100
AcDbLine
 10
3.828251
 20
6.030536
 30
0.0
 11
3.867414
 21
6.030536
 31
0.0
  0
LINE
  5
34F
100
AcDbEntity
  8
TFR-TRI
390
0
  6
Continuous
 62
     3
100
AcDbLine
 10
4.912188
 20
5.703786
 30
0.0
 11
4.957188
 21
5.703786
 31
0.0
  0
LINE
  5
350
100
AcDbEntity
  8
TFR-TRI
390
0
  6
Continuous
 62
    12
100
AcDbLine
 10
4.114844
 20
4.553638
 30
0.0
 11
4.137182
 21
4.553638
 31
0.0
  0
LINE
  5
351
100
AcDbEntity
  8
TFR-TRI
390
0
  6
Continuous
 62
     3
100
AcDbLine
 10
0.999226
 20
3.452364
 30
0.0
 11
0.999226
 21
5.469594
 31
0.0
  0
LINE
  5
352
100
AcDbEntity
  8
TFR-TRI
390
0
  6
Continuous
 62
    12
100
AcDbLine
 10
7.517425
 20
4.095413
 30
0.0
 11
7.516757
 21
4.117455
 31
0.0
  0
LINE
  5
353
100
AcDbEntity
  8
TFR-TRI
390
0
  6
Continuous
 62
     3
100
AcDbLine
 10
4.436299
 20
7.468336
 30
0.0
 11
4.436299
 21
7.354532
 31
0.0
  0
LINE
  5
354
100
AcDbEntity
  8
TFR-TRI
390
0
  6
Continuous
 62
    12
100
AcDbLine
 10
7.607148
 20
3.805653
 30
0.0
 11
7.571462
 21
3.816192
 31
0.0
  0
LINE
  5
355
100
AcDbEntity
  8
TFR-TRI
390
0
  6
Continuous
 62
     3
100
AcDbLine
 10
3.904501
 20
7.343336
 30
0.0
 11
3.861376
 21
7.343336
 31
0.0
  0
LINE
  5
356
100
AcDbEntity
  8
TFR-TRI
390
0
  6
Continuous
 62
    12
100
AcDbLine
 10
7.394614
 20
4.001874
 30
0.0
 11
7.392166
 21
4.006451
 31
0.0
  0
LINE
  5
357
100
AcDbEntity
  8
TFR-TRI
390
0
  6
Continuous
 62
     3
100
AcDbLine
 10
8.613068
 20
1.210512
 30
0.0
 11
8.613068
 21
1.216418
 31
0.0
  0
LINE
  5
358
100
AcDbEntity
  8
TFR-TRI
390
0
  6
Continuous
 62
     3
100
AcDbLine
 10
4.030751
 20
4.987267
 30
0.0
 11
4.040057
 21
4.987267
 31
0.0
  0
LINE
  5
359
100
AcDbEntity
  8
TFR-TRI
390
0
  6
Continuous
 62
     3
100
AcDbLine
 10
4.030751
 20
5.031268
 30
0.0
 11
4.107234
 21
5.031268
 31
0.0
  0
LINE
  5
35A
100
AcDbEntity
  8
TFR-TRI
390
0
  6
Continuous
 62
     3
100
AcDbLine
 10
5.639893
 20
6.343336
 30
0.0
 11
5.639893
 21
6.259389
 31
0.0
  0
LINE
  5
35B
100
AcDbEntity
  8
TFR-TRI
390
0
  6
Continuous
 62
     3
100
AcDbLine
 10
5.13022
 20
6.530836
 30
0.0
 11
5.063233
 21
6.530836
 31
0.0
  0
LINE
  5
35C
100
AcDbEntity
  8
TFR-TRI
390
0
  6
Continuous
 62
     3
100
AcDbLine
 10
10.835
 20
4.17193
 30
0.0
 11
10.9225
 21
4.17193
 31
0.0
  0
LINE
  5
35D
100
AcDbEntity
  8
TFR-TRI
390
0
  6
Continuous
 62
    12
100
AcDbLine
 10
2.755501
 20
7.530836
 30
0.0
 11
3.968251
 21
7.530836
 31
0.0
  0
LINE
  5
35E
100
AcDbEntity
  8
TFR-TRI
390
0
  6
Continuous
 62
     3
100
AcDbLine
 10
4.030751
 20
4.997268
 30
0.0
 11
4.077378
 21
4.997268
 31
0.0
  0
LINE
  5
35F
100
AcDbEntity
  8
TFR-TRI
390
0
  6
Continuous
 62
     3
100
AcDbLine
 10
5.494577
 20
0.19875
 30
0.0
 11
5.557077
 21
0.19875
 31
0.0
  0
LINE
  5
360
100
AcDbEntity
  8
TFR-TRI
390
0
  6
Continuous
 62
     3
100
AcDbLine
 10
0.210405
 20
4.10693
 30
0.0
 11
0.216655
 21
4.10693
 31
0.0
  0
LINE
  5
361
100
AcDbEntity
  8
TFR-TRI
390
0
  6
Continuous
 62
     3
100
AcDbLine
 10
4.48726
 20
4.428638
 30
0.0
 11
4.48726
 21
4.527514
 31
0.0
  0
LINE
  5
362
100
AcDbEntity
  8
TFR-TRI
390
0
  6
Continuous
 62
     3
100
AcDbLine
 10
4.4523
 20
6.749586
 30
0.0
 11
4.4523
 21
6.803677
 31
0.0
  0
LINE
  5
363
100
AcDbEntity
  8
TFR-TRI
390
0
  6
Continuous
 62
     3
100
AcDbLine
 10
1.124226
 20
5.319593
 30
0.0
 11
1.092527
 21
5.319593
 31
0.0
  0
LINE
  5
364
100
AcDbEntity
  8
TFR-TRI
390
0
  6
Continuous
 62
     3
100
AcDbLine
 10
5.629893
 20
7.405836
 30
0.0
 11
5.629893
 21
7.452463
 31
0.0
  0
LINE
  5
365
100
AcDbEntity
  8
TFR-TRI
390
0
  6
Continuous
 62
     3
100
AcDbLine
 10
5.096726
 20
7.343336
 30
0.0
 11
5.096726
 21
7.069283
 31
0.0
  0
LINE
  5
366
100
AcDbEntity
  8
TFR-TRI
390
0
  6
Continuous
 62
     3
100
AcDbLine
 10
5.494577
 20
8.27886
 30
0.0
 11
5.557077
 21
8.27886
 31
0.0
  0
LINE
  5
367
100
AcDbEntity
  8
TFR-TRI
390
0
  6
Continuous
 62
     3
100
AcDbLine
 10
2.789976
 20
4.995268
 30
0.0
 11
2.750813
 21
4.995268
 31
0.0
  0
LINE
  5
368
100
AcDbEntity
  8
TFR-TRI
390
0
  6
Continuous
 62
     3
100
AcDbLine
 10
0.085405
 20
4.20693
 30
0.0
 11
0.301655
 21
4.20693
 31
0.0
  0
LINE
  5
369
100
AcDbEntity
  8
TFR-TRI
390
0
  6
Continuous
 62
     3
100
AcDbLine
 10
5.077726
 20
6.530836
 30
0.0
 11
5.077726
 21
6.476745
 31
0.0
  0
LINE
  5
36A
100
AcDbEntity
  8
TFR-TRI
390
0
  6
Continuous
 62
     3
100
AcDbLine
 10
4.499259
 20
3.447589
 30
0.0
 11
4.499259
 21
3.393498
 31
0.0
  0
LINE
  5
36B
100
AcDbEntity
  8
TFR-TRI
390
0
  6
Continuous
 62
     3
100
AcDbLine
 10
10.99125
 20
4.22693
 30
0.0
 11
10.835
 21
4.35193
 31
0.0
  0
LINE
  5
36C
100
AcDbEntity
  8
TFR-TRI
390
0
  6
Continuous
 62
     3
100
AcDbLine
 10
4.430299
 20
7.468336
 30
0.0
 11
4.430299
 21
7.354532
 31
0.0
  0
LINE
  5
36D
100
AcDbEntity
  8
TFR-TRI
390
0
  6
Continuous
 62
     3
100
AcDbLine
 10
5.448827
 20
8.34886
 30
0.0
 11
5.602828
 21
8.34886
 31
0.0
  0
LINE
  5
36E
100
AcDbEntity
  8
TFR-TRI
390
0
  6
Continuous
 62
     3
100
AcDbLine
 10
0.085405
 20
4.24693
 30
0.0
 11
0.301655
 21
4.24693
 31
0.0
  0
LINE
  5
36F
100
AcDbEntity
  8
TFR-TRI
390
0
  6
Continuous
 62
     3
100
AcDbLine
 10
5.480827
 20
8.38886
 30
0.0
 11
5.570827
 21
8.38886
 31
0.0
  0
LINE
  5
370
100
AcDbEntity
  8
TFR-TRI
390
0
  6
Continuous
 62
     3
100
AcDbLine
 10
5.617399
 20
7.405836
 30
0.0
 11
5.684386
 21
7.405836
 31
0.0
  0
LINE
  5
371
100
AcDbEntity
  8
TFR-TRI
390
0
  6
Continuous
 62
     3
100
AcDbLine
 10
3.828251
 20
5.974536
 30
0.0
 11
3.830093
 21
5.974536
 31
0.0
  0
LINE
  5
372
100
AcDbEntity
  8
TFR-TRI
390
0
  6
Continuous
 62
    12
100
AcDbLine
 10
5.851234
 20
4.085532
 30
0.0
 11
5.831774
 21
4.070339
 31
0.0
  0
LINE
  5
373
100
AcDbEntity
  8
TFR-TRI
390
0
  6
Continuous
 62
    12
100
AcDbLine
 10
7.632345
 20
4.205433
 30
0.0
 11
7.638004
 21
4.187632
 31
0.0
  0
LINE
  5
374
100
AcDbEntity
  8
TFR-TRI
390
0
  6
Continuous
 62
     3
100
AcDbLine
 10
3.953251
 20
6.829586
 30
0.0
 11
3.953251
 21
6.709586
 31
0.0
  0
LINE
  5
375
100
AcDbEntity
  8
TFR-TRI
390
0
  6
Continuous
 62
     3
100
AcDbLine
 10
0.197905
 20
4.11693
 30
0.0
 11
0.216655
 21
4.11693
 31
0.0
  0
LINE
  5
376
100
AcDbEntity
  8
TFR-TRI
390
0
  6
Continuous
 62
     3
100
AcDbLine
 10
10.835
 20
4.32693
 30
0.0
 11
10.86625
 21
4.32693
 31
0.0
  0
LINE
  5
377
100
AcDbEntity
  8
TFR-TRI
390
0
  6
Continuous
 62
     3
100
AcDbLine
 10
3.828251
 20
5.976536
 30
0.0
 11
3.837557
 21
5.976536
 31
0.0
  0
LINE
  5
378
100
AcDbEntity
  8
TFR-TRI
390
0
  6
Continuous
 62
    12
100
AcDbLine
 10
7.409789
 20
4.078963
 30
0.0
 11
7.411439
 21
4.024561
 31
0.0
  0
LINE
  5
379
100
AcDbEntity
  8
TFR-TRI
390
0
  6
Continuous
 62
     3
100
AcDbLine
 10
5.493827
 20
0.04875
 30
0.0
 11
5.557827
 21
0.04875
 31
0.0
  0
LINE
  5
37A
100
AcDbEntity
  8
TFR-TRI
390
0
  6
Continuous
 62
     3
100
AcDbLine
 10
4.030751
 20
5.377594
 30
0.0
 11
4.032593
 21
5.377594
 31
0.0
  0
LINE
  5
37B
100
AcDbEntity
  8
TFR-TRI
390
0
  6
Continuous
 62
     3
100
AcDbLine
 10
4.48026
 20
4.553638
 30
0.0
 11
4.446766
 21
4.428638
 31
0.0
  0
LINE
  5
37C
100
AcDbEntity
  8
TFR-TRI
390
0
  6
Continuous
 62
    12
100
AcDbLine
 10
7.407399
 20
4.091678
 30
0.0
 11
7.409789
 21
4.078963
 31
0.0
  0
LINE
  5
37D
100
AcDbEntity
  8
TFR-TRI
390
0
  6
Continuous
 62
     3
100
AcDbLine
 10
5.684386
 20
6.343336
 30
0.0
 11
5.617399
 21
6.343336
 31
0.0
  0
LINE
  5
37E
100
AcDbEntity
  8
TFR-TRI
390
0
  6
Continuous
 62
     3
100
AcDbLine
 10
10.835
 20
4.27693
 30
0.0
 11
10.92875
 21
4.27693
 31
0.0
  0
LINE
  5
37F
100
AcDbEntity
  8
TFR-TRI
390
0
  6
Continuous
 62
     3
100
AcDbLine
 10
5.649893
 20
6.343336
 30
0.0
 11
5.649893
 21
6.222068
 31
0.0
  0
LINE
  5
380
100
AcDbEntity
  8
TFR-TRI
390
0
  6
Continuous
 62
    12
100
AcDbLine
 10
5.77819
 20
4.058998
 30
0.0
 11
5.796089
 21
4.080879
 31
0.0
  0
LINE
  5
381
100
AcDbEntity
  8
TFR-TRI
390
0
  6
Continuous
 62
     3
100
AcDbLine
 10
4.418299
 20
6.749586
 30
0.0
 11
4.418299
 21
6.818605
 31
0.0
  0
LINE
  5
382
100
AcDbEntity
  8
TFR-TRI
390
0
  6
Continuous
 62
     3
100
AcDbLine
 10
5.437828
 20
0.11875
 30
0.0
 11
5.613828
 21
0.11875
 31
0.0
  0
LINE
  5
383
100
AcDbEntity
  8
TFR-TRI
390
0
  6
Continuous
 62
    12
100
AcDbLine
 10
7.642868
 20
3.858619
 30
0.0
 11
7.633924
 21
3.83626
 31
0.0
  0
LINE
  5
384
100
AcDbEntity
  8
TFR-TRI
390
0
  6
Continuous
 62
     3
100
AcDbLine
 10
4.438299
 20
6.749586
 30
0.0
 11
4.438299
 21
6.855926
 31
0.0
  0
LINE
  5
385
100
AcDbEntity
  8
TFR-TRI
390
0
  6
Continuous
 62
     3
100
AcDbLine
 10
5.661893
 20
6.343336
 30
0.0
 11
5.661893
 21
6.259389
 31
0.0
  0
LINE
  5
386
100
AcDbEntity
  8
TFR-TRI
390
0
  6
Continuous
 62
     3
100
AcDbLine
 10
4.750635
 20
3.763739
 30
0.0
 11
4.750635
 21
3.932489
 31
0.0
  0
LINE
  5
387
100
AcDbEntity
  8
TFR-TRI
390
0
  6
Continuous
 62
    12
100
AcDbLine
 10
6.402507
 20
4.435794
 30
0.0
 11
5.815548
 21
4.096072
 31
0.0
  0
LINE
  5
388
100
AcDbEntity
  8
TFR-TRI
390
0
  6
Continuous
 62
     3
100
AcDbLine
 10
1.124226
 20
5.331594
 30
0.0
 11
1.047742
 21
5.331594
 31
0.0
  0
LINE
  5
389
100
AcDbEntity
  8
TFR-TRI
390
0
  6
Continuous
 62
     3
100
AcDbLine
 10
5.494577
 20
0.18875
 30
0.0
 11
5.557077
 21
0.18875
 31
0.0
  0
LINE
  5
38A
100
AcDbEntity
  8
TFR-TRI
390
0
  6
Continuous
 62
     3
100
AcDbLine
 10
10.75
 20
4.20693
 30
0.0
 11
10.96625
 21
4.20693
 31
0.0
  0
LINE
  5
38B
100
AcDbEntity
  8
TFR-TRI
390
0
  6
Continuous
 62
    12
100
AcDbLine
 10
5.855612
 20
3.284697
 30
0.0
 11
5.875306
 21
3.292165
 31
0.0
  0
LINE
  5
38C
100
AcDbEntity
  8
TFR-TRI
390
0
  6
Continuous
 62
     3
100
AcDbLine
 10
1.124226
 20
5.369593
 30
0.0
 11
1.092527
 21
5.369593
 31
0.0
  0
LINE
  5
38D
100
AcDbEntity
  8
TFR-TRI
390
0
  6
Continuous
 62
    12
100
AcDbLine
 10
7.686912
 20
3.916403
 30
0.0
 11
7.669717
 21
4.483093
 31
0.0
  0
LINE
  5
38E
100
AcDbEntity
  8
TFR-TRI
390
0
  6
Continuous
 62
     3
100
AcDbLine
 10
4.4063
 20
6.749586
 30
0.0
 11
4.4063
 21
6.773821
 31
0.0
  0
LINE
  5
38F
100
AcDbEntity
  8
TFR-TRI
390
0
  6
Continuous
 62
     3
100
AcDbLine
 10
5.071726
 20
7.218336
 30
0.0
 11
5.071726
 21
7.250035
 31
0.0
  0
LINE
  5
390
100
AcDbEntity
  8
TFR-TRI
390
0
  6
Continuous
 62
    12
100
AcDbLine
 10
5.796228
 20
3.361725
 30
0.0
 11
5.779034
 21
3.928415
 31
0.0
  0
LINE
  5
391
100
AcDbEntity
  8
TFR-TRI
390
0
  6
Continuous
 62
     3
100
AcDbLine
 10
1.124226
 20
5.343593
 30
0.0
 11
1.002958
 21
5.343593
 31
0.0
  0
LINE
  5
392
100
AcDbEntity
  8
TFR-TRI
390
0
  6
Continuous
 62
     3
100
AcDbLine
 10
5.445827
 20
0.10875
 30
0.0
 11
5.605827
 21
0.10875
 31
0.0
  0
LINE
  5
393
100
AcDbEntity
  8
TFR-TRI
390
0
  6
Continuous
 62
     3
100
AcDbLine
 10
0.216655
 20
4.35193
 30
0.0
 11
0.216655
 21
4.25818
 31
0.0
  0
LINE
  5
394
100
AcDbEntity
  8
TFR-TRI
390
0
  6
Continuous
 62
     3
100
AcDbLine
 10
4.456299
 20
7.468336
 30
0.0
 11
4.456299
 21
7.429173
 31
0.0
  0
LINE
  5
395
100
AcDbEntity
  8
TFR-TRI
390
0
  6
Continuous
 62
     3
100
AcDbLine
 10
4.015751
 20
7.343336
 30
0.0
 11
5.221726
 21
7.343336
 31
0.0
  0
LINE
  5
396
100
AcDbEntity
  8
TFR-TRI
390
0
  6
Continuous
 62
     3
100
AcDbLine
 10
2.789976
 20
5.025268
 30
0.0
 11
2.6911
 21
5.025268
 31
0.0
  0
LINE
  5
397
100
AcDbEntity
  8
TFR-TRI
390
0
  6
Continuous
 62
     3
100
AcDbLine
 10
2.789976
 20
5.005268
 30
0.0
 11
2.713492
 21
5.005268
 31
0.0
  0
LINE
  5
398
100
AcDbEntity
  8
TFR-TRI
390
0
  6
Continuous
 62
    12
100
AcDbLine
 10
7.055477
 20
4.27726
 30
0.0
 11
7.065722
 21
4.280032
 31
0.0
  0
LINE
  5
399
100
AcDbEntity
  8
TFR-TRI
390
0
  6
Continuous
 62
     3
100
AcDbLine
 10
5.494577
 20
8.26886
 30
0.0
 11
5.557077
 21
8.26886
 31
0.0
  0
LINE
  5
39A
100
AcDbEntity
  8
TFR-TRI
390
0
  6
Continuous
 62
     3
100
AcDbLine
 10
4.428299
 20
7.468336
 30
0.0
 11
4.428299
 21
7.361997
 31
0.0
  0
LINE
  5
39B
100
AcDbEntity
  8
TFR-TRI
390
0
  6
Continuous
 62
    12
100
AcDbLine
 10
3.466876
 20
6.919586
 30
0.0
 11
3.466876
 21
6.829586
 31
0.0
  0
LINE
  5
39C
100
AcDbEntity
  8
TFR-TRI
390
0
  6
Continuous
 62
     3
100
AcDbLine
 10
4.155751
 20
5.344594
 30
0.0
 11
4.030751
 21
5.378087
 31
0.0
  0
LINE
  5
39D
100
AcDbEntity
  8
TFR-TRI
390
0
  6
Continuous
 62
     3
100
AcDbLine
 10
5.085726
 20
7.218336
 30
0.0
 11
5.085726
 21
7.302284
 31
0.0
  0
LINE
  5
39E
100
AcDbEntity
  8
TFR-TRI
390
0
  6
Continuous
 62
     3
100
AcDbLine
 10
4.030751
 20
5.009268
 30
0.0
 11
4.122162
 21
5.009268
 31
0.0
  0
LINE
  5
39F
100
AcDbEntity
  8
TFR-TRI
390
0
  6
Continuous
 62
    12
100
AcDbLine
 10
1.040132
 20
3.322589
 30
0.0
 11
1.017794
 21
3.322589
 31
0.0
  0
LINE
  5
3A0
100
AcDbEntity
  8
TFR-TRI
390
0
  6
Continuous
 62
    12
100
AcDbLine
 10
7.083776
 20
4.262483
 30
0.0
 11
7.101407
 21
4.269492
 31
0.0
  0
LINE
  5
3A1
100
AcDbEntity
  8
TFR-TRI
390
0
  6
Continuous
 62
     3
100
AcDbLine
 10
0.179155
 20
4.32193
 30
0.0
 11
0.216655
 21
4.32193
 31
0.0
  0
LINE
  5
3A2
100
AcDbEntity
  8
TFR-TRI
390
0
  6
Continuous
 62
     3
100
AcDbLine
 10
5.107727
 20
6.530836
 30
0.0
 11
5.107727
 21
6.446889
 31
0.0
  0
LINE
  5
3A3
100
AcDbEntity
  8
TFR-TRI
390
0
  6
Continuous
 62
     3
100
AcDbLine
 10
4.030751
 20
5.351593
 30
0.0
 11
4.129626
 21
5.351593
 31
0.0
  0
LINE
  5
3A4
100
AcDbEntity
  8
TFR-TRI
390
0
  6
Continuous
 62
    12
100
AcDbLine
 10
7.524285
 20
4.077219
 30
0.0
 11
7.525045
 21
4.077648
 31
0.0
  0
LINE
  5
3A5
100
AcDbEntity
  8
TFR-TRI
390
0
  6
Continuous
 62
    12
100
AcDbLine
 10
7.598768
 20
4.153141
 30
0.0
 11
7.603054
 21
4.176972
 31
0.0
  0
LINE
  5
3A6
100
AcDbEntity
  8
TFR-TRI
390
0
  6
Continuous
 62
     3
100
AcDbLine
 10
5.631893
 20
6.343336
 30
0.0
 11
5.631893
 21
6.289245
 31
0.0
  0
LINE
  5
3A7
100
AcDbEntity
  8
TFR-TRI
390
0
  6
Continuous
 62
     3
100
AcDbLine
 10
5.635893
 20
7.405836
 30
0.0
 11
5.635893
 21
7.474855
 31
0.0
  0
LINE
  5
3A8
100
AcDbEntity
  8
TFR-TRI
390
0
  6
Continuous
 62
    12
100
AcDbLine
 10
7.401486
 20
4.099906
 30
0.0
 11
7.407399
 21
4.091678
 31
0.0
  0
LINE
  5
3A9
100
AcDbEntity
  8
TFR-TRI
390
0
  6
Continuous
 62
     3
100
AcDbLine
 10
1.124226
 20
5.327593
 30
0.0
 11
1.06267
 21
5.327593
 31
0.0
  0
LINE
  5
3AA
100
AcDbEntity
  8
TFR-TRI
390
0
  6
Continuous
 62
    12
100
AcDbLine
 10
7.399592
 20
4.066106
 30
0.0
 11
7.401242
 21
4.011704
 31
0.0
  0
LINE
  5
3AB
100
AcDbEntity
  8
TFR-TRI
390
0
  6
Continuous
 62
    12
100
AcDbLine
 10
7.526022
 20
3.812068
 30
0.0
 11
7.525353
 21
3.83411
 31
0.0
  0
LINE
  5
3AC
100
AcDbEntity
  8
TFR-TRI
390
0
  6
Continuous
 62
     3
100
AcDbLine
 10
3.828251
 20
6.036536
 30
0.0
 11
3.845021
 21
6.036536
 31
0.0
  0
LINE
  5
3AD
100
AcDbEntity
  8
TFR-TRI
390
0
  6
Continuous
 62
     3
100
AcDbLine
 10
4.4003
 20
7.468336
 30
0.0
 11
4.4003
 21
7.466494
 31
0.0
  0
LINE
  5
3AE
100
AcDbEntity
  8
TFR-TRI
390
0
  6
Continuous
 62
     3
100
AcDbLine
 10
4.957188
 20
5.703786
 30
0.0
 11
4.957188
 21
5.872536
 31
0.0
  0
LINE
  5
3AF
100
AcDbEntity
  8
TFR-TRI
390
0
  6
Continuous
 62
    12
100
AcDbLine
 10
4.137182
 20
4.553638
 30
0.0
 11
4.15105
 21
4.553638
 31
0.0
  0
LINE
  5
3B0
100
AcDbEntity
  8
TFR-TRI
390
0
  6
Continuous
 62
     3
100
AcDbLine
 10
4.155751
 20
4.616138
 30
0.0
 11
4.155751
 21
5.469594
 31
0.0
  0
LINE
  5
3B1
100
AcDbEntity
  8
TFR-TRI
390
0
  6
Continuous
 62
    12
100
AcDbLine
 10
7.516757
 20
4.117455
 30
0.0
 11
7.521159
 21
4.141081
 31
0.0
  0
LINE
  5
3B2
100
AcDbEntity
  8
TFR-TRI
390
0
  6
Continuous
 62
     3
100
AcDbLine
 10
5.494577
 20
0.23875
 30
0.0
 11
5.557077
 21
0.23875
 31
0.0
  0
LINE
  5
3B3
100
AcDbEntity
  8
TFR-TRI
390
0
  6
Continuous
 62
    12
100
AcDbLine
 10
7.384209
 20
4.008801
 30
0.0
 11
7.392166
 21
4.006451
 31
0.0
  0
LINE
  5
3B4
100
AcDbEntity
  8
TFR-TRI
390
0
  6
Continuous
 62
    12
100
AcDbLine
 10
2.664976
 20
6.218336
 30
0.0
 11
2.664976
 21
7.530836
 31
0.0
  0
LINE
  5
3B5
100
AcDbEntity
  8
TFR-TRI
390
0
  6
Continuous
 62
     3
100
AcDbLine
 10
4.030751
 20
5.029268
 30
0.0
 11
4.114698
 21
5.029268
 31
0.0
  0
LINE
  5
3B6
100
AcDbEntity
  8
TFR-TRI
390
0
  6
Continuous
 62
    12
100
AcDbLine
 10
7.66625
 20
4.510935
 30
0.0
 11
7.657865
 21
4.533897
 31
0.0
  0
LINE
  5
3B7
100
AcDbEntity
  8
TFR-TRI
390
0
  6
Continuous
 62
     3
100
AcDbLine
 10
5.641893
 20
6.343336
 30
0.0
 11
5.641893
 21
6.251925
 31
0.0
  0
LINE
  5
3B8
100
AcDbEntity
  8
TFR-TRI
390
0
  6
Continuous
 62
    12
100
AcDbLine
 10
3.953251
 20
7.238336
 30
0.0
 11
3.859501
 21
7.238336
 31
0.0
  0
LINE
  5
3B9
100
AcDbEntity
  8
TFR-TRI
390
0
  6
Continuous
 62
     3
100
AcDbLine
 10
0.129155
 20
4.17193
 30
0.0
 11
0.216655
 21
4.17193
 31
0.0
  0
LINE
  5
3BA
100
AcDbEntity
  8
TFR-TRI
390
0
  6
Continuous
 62
     3
100
AcDbLine
 10
4.444299
 20
6.749586
 30
0.0
 11
4.444299
 21
6.833534
 31
0.0
  0
LINE
  5
3BB
100
AcDbEntity
  8
TFR-TRI
390
0
  6
Continuous
 62
     3
100
AcDbLine
 10
5.322101
 20
6.658033
 30
0.0
 11
5.367101
 21
6.658033
 31
0.0
  0
LINE
  5
3BC
100
AcDbEntity
  8
TFR-TRI
390
0
  6
Continuous
 62
     3
100
AcDbLine
 10
5.063233
 20
6.530836
 30
0.0
 11
5.096726
 21
6.405836
 31
0.0
  0
LINE
  5
3BD
100
AcDbEntity
  8
TFR-TRI
390
0
  6
Continuous
 62
    12
100
AcDbLine
 10
7.638673
 20
4.165589
 30
0.0
 11
7.63427
 21
4.141964
 31
0.0
  0
LINE
  5
3BE
100
AcDbEntity
  8
TFR-TRI
390
0
  6
Continuous
 62
     3
100
AcDbLine
 10
4.030751
 20
4.999268
 30
0.0
 11
4.084842
 21
4.999268
 31
0.0
  0
LINE
  5
3BF
100
AcDbEntity
  8
TFR-TRI
390
0
  6
Continuous
 62
     3
100
AcDbLine
 10
5.494577
 20
0.20375
 30
0.0
 11
5.557077
 21
0.20375
 31
0.0
  0
LINE
  5
3C0
100
AcDbEntity
  8
TFR-TRI
390
0
  6
Continuous
 62
     3
100
AcDbLine
 10
4.48526
 20
4.428638
 30
0.0
 11
4.48526
 21
4.534978
 31
0.0
  0
LINE
  5
3C1
100
AcDbEntity
  8
TFR-TRI
390
0
  6
Continuous
 62
     3
100
AcDbLine
 10
5.663893
 20
7.405836
 30
0.0
 11
5.663893
 21
7.482319
 31
0.0
  0
LINE
  5
3C2
100
AcDbEntity
  8
TFR-TRI
390
0
  6
Continuous
 62
     3
100
AcDbLine
 10
4.155751
 20
5.018268
 30
0.0
 11
4.030751
 21
5.051761
 31
0.0
  0
LINE
  5
3C3
100
AcDbEntity
  8
TFR-TRI
390
0
  6
Continuous
 62
    12
100
AcDbLine
 10
7.416872
 20
4.00345
 30
0.0
 11
7.408943
 21
3.986198
 31
0.0
  0
LINE
  5
3C4
100
AcDbEntity
  8
TFR-TRI
390
0
  6
Continuous
 62
     3
100
AcDbLine
 10
0.122905
 20
4.17693
 30
0.0
 11
0.216655
 21
4.17693
 31
0.0
  0
LINE
  5
3C5
100
AcDbEntity
  8
TFR-TRI
390
0
  6
Continuous
 62
     3
100
AcDbLine
 10
5.494577
 20
8.28386
 30
0.0
 11
5.557077
 21
8.28386
 31
0.0
  0
LINE
  5
3C6
100
AcDbEntity
  8
TFR-TRI
390
0
  6
Continuous
 62
     3
100
AcDbLine
 10
2.789976
 20
4.997268
 30
0.0
 11
2.743349
 21
4.997268
 31
0.0
  0
LINE
  5
3C7
100
AcDbEntity
  8
TFR-TRI
390
0
  6
Continuous
 62
    12
100
AcDbLine
 10
7.531682
 20
3.794266
 30
0.0
 11
7.526022
 21
3.812068
 31
0.0
  0
LINE
  5
3C8
100
AcDbEntity
  8
TFR-TRI
390
0
  6
Continuous
 62
     3
100
AcDbLine
 10
0.116655
 20
4.18193
 30
0.0
 11
0.216655
 21
4.18193
 31
0.0
  0
LINE
  5
3C9
100
AcDbEntity
  8
TFR-TRI
390
0
  6
Continuous
 62
     3
100
AcDbLine
 10
4.030751
 20
5.311594
 30
0.0
 11
4.032593
 21
5.311594
 31
0.0
  0
LINE
  5
3CA
100
AcDbEntity
  8
TFR-TRI
390
0
  6
Continuous
 62
    12
100
AcDbLine
 10
7.617899
 20
3.937148
 30
0.0
 11
7.630973
 21
3.933501
 31
0.0
  0
LINE
  5
3CB
100
AcDbEntity
  8
TFR-TRI
390
0
  6
Continuous
 62
     3
100
AcDbLine
 10
10.835
 20
4.25818
 30
0.0
 11
10.835
 21
4.35193
 31
0.0
  0
LINE
  5
3CC
100
AcDbEntity
  8
TFR-TRI
390
0
  6
Continuous
 62
     3
100
AcDbLine
 10
3.859501
 20
6.829586
 30
0.0
 11
3.859501
 21
6.709586
 31
0.0
  0
LINE
  5
3CD
100
AcDbEntity
  8
TFR-TRI
390
0
  6
Continuous
 62
     3
100
AcDbLine
 10
5.625893
 20
6.343336
 30
0.0
 11
5.625893
 21
6.311637
 31
0.0
  0
LINE
  5
3CE
100
AcDbEntity
  8
TFR-TRI
390
0
  6
Continuous
 62
     3
100
AcDbLine
 10
5.452827
 20
8.35386
 30
0.0
 11
5.598827
 21
8.35386
 31
0.0
  0
LINE
  5
3CF
100
AcDbEntity
  8
TFR-TRI
390
0
  6
Continuous
 62
     3
100
AcDbLine
 10
5.461827
 20
0.08875
 30
0.0
 11
5.589828
 21
0.08875
 31
0.0
  0
LINE
  5
3D0
100
AcDbEntity
  8
TFR-TRI
390
0
  6
Continuous
 62
     3
100
AcDbLine
 10
3.953251
 20
7.388336
 30
0.0
 11
3.953251
 21
7.508336
 31
0.0
  0
LINE
  5
3D1
100
AcDbEntity
  8
TFR-TRI
390
0
  6
Continuous
 62
     3
100
AcDbLine
 10
5.484828
 20
8.39386
 30
0.0
 11
5.566827
 21
8.39386
 31
0.0
  0
LINE
  5
3D2
100
AcDbEntity
  8
TFR-TRI
390
0
  6
Continuous
 62
    12
100
AcDbLine
 10
7.508828
 20
4.378758
 30
0.0
 11
7.508159
 21
4.400801
 31
0.0
  0
LINE
  5
3D3
100
AcDbEntity
  8
TFR-TRI
390
0
  6
Continuous
 62
     3
100
AcDbLine
 10
5.631893
 20
7.405836
 30
0.0
 11
5.631893
 21
7.459927
 31
0.0
  0
LINE
  5
3D4
100
AcDbEntity
  8
TFR-TRI
390
0
  6
Continuous
 62
    12
100
AcDbLine
 10
7.529757
 20
3.857736
 30
0.0
 11
7.5387
 21
3.880094
 31
0.0
  0
LINE
  5
3D5
100
AcDbEntity
  8
TFR-TRI
390
0
  6
Continuous
 62
    12
100
AcDbLine
 10
5.851234
 20
4.085532
 30
0.0
 11
6.438192
 21
4.425254
 31
0.0
  0
LINE
  5
3D6
100
AcDbEntity
  8
TFR-TRI
390
0
  6
Continuous
 62
     3
100
AcDbLine
 10
3.844501
 20
6.405836
 30
0.0
 11
3.874501
 21
6.405836
 31
0.0
  0
LINE
  5
3D7
100
AcDbEntity
  8
TFR-TRI
390
0
  6
Continuous
 62
     3
100
AcDbLine
 10
0.191655
 20
4.12193
 30
0.0
 11
0.216655
 21
4.12193
 31
0.0
  0
LINE
  5
3D8
100
AcDbEntity
  8
TFR-TRI
390
0
  6
Continuous
 62
     3
100
AcDbLine
 10
10.835
 20
4.33193
 30
0.0
 11
10.86
 21
4.33193
 31
0.0
  0
LINE
  5
3D9
100
AcDbEntity
  8
TFR-TRI
390
0
  6
Continuous
 62
    12
100
AcDbLine
 10
7.411439
 20
4.024561
 30
0.0
 11
7.419396
 21
4.022211
 31
0.0
  0
LINE
  5
3DA
100
AcDbEntity
  8
TFR-TRI
390
0
  6
Continuous
 62
     3
100
AcDbLine
 10
10.75
 20
4.24693
 30
0.0
 11
10.96625
 21
4.24693
 31
0.0
  0
LINE
  5
3DB
100
AcDbEntity
  8
TFR-TRI
390
0
  6
Continuous
 62
     3
100
AcDbLine
 10
5.077726
 20
7.218336
 30
0.0
 11
5.077726
 21
7.272427
 31
0.0
  0
LINE
  5
3DC
100
AcDbEntity
  8
TFR-TRI
390
0
  6
Continuous
 62
     3
100
AcDbLine
 10
5.489828
 20
0.05375
 30
0.0
 11
5.561828
 21
0.05375
 31
0.0
  0
LINE
  5
3DD
100
AcDbEntity
  8
TFR-TRI
390
0
  6
Continuous
 62
     3
100
AcDbLine
 10
0.079155
 20
4.24193
 30
0.0
 11
0.301655
 21
4.24193
 31
0.0
  0
LINE
  5
3DE
100
AcDbEntity
  8
TFR-TRI
390
0
  6
Continuous
 62
    12
100
AcDbLine
 10
7.386623
 20
4.004234
 30
0.0
 11
7.38491
 21
4.005772
 31
0.0
  0
LINE
  5
3DF
100
AcDbEntity
  8
TFR-TRI
390
0
  6
Continuous
 62
     3
100
AcDbLine
 10
4.446766
 20
4.428638
 30
0.0
 11
4.513753
 21
4.428638
 31
0.0
  0
LINE
  5
3E0
100
AcDbEntity
  8
TFR-TRI
390
0
  6
Continuous
 62
     3
100
AcDbLine
 10
5.617399
 20
6.343336
 30
0.0
 11
5.650893
 21
6.218336
 31
0.0
  0
LINE
  5
3E1
100
AcDbEntity
  8
TFR-TRI
390
0
  6
Continuous
 62
    12
100
AcDbLine
 10
5.796089
 20
4.080879
 30
0.0
 11
5.815548
 21
4.096072
 31
0.0
  0
LINE
  5
3E2
100
AcDbEntity
  8
TFR-TRI
390
0
  6
Continuous
 62
     3
100
AcDbLine
 10
4.49726
 20
3.447589
 30
0.0
 11
4.49726
 21
3.386034
 31
0.0
  0
LINE
  5
3E3
100
AcDbEntity
  8
TFR-TRI
390
0
  6
Continuous
 62
     3
100
AcDbLine
 10
5.433827
 20
0.12375
 30
0.0
 11
5.617827
 21
0.12375
 31
0.0
  0
LINE
  5
3E4
100
AcDbEntity
  8
TFR-TRI
390
0
  6
Continuous
 62
    12
100
AcDbLine
 10
7.633924
 20
3.83626
 30
0.0
 11
7.621519
 21
3.817865
 31
0.0
  0
LINE
  5
3E5
100
AcDbEntity
  8
TFR-TRI
390
0
  6
Continuous
 62
     3
100
AcDbLine
 10
3.859501
 20
6.390836
 30
0.0
 11
3.859501
 21
6.420836
 31
0.0
  0
LINE
  5
3E6
100
AcDbEntity
  8
TFR-TRI
390
0
  6
Continuous
 62
     3
100
AcDbLine
 10
5.659893
 20
6.343336
 30
0.0
 11
5.659893
 21
6.251925
 31
0.0
  0
LINE
  5
3E7
100
AcDbEntity
  8
TFR-TRI
390
0
  6
Continuous
 62
     3
100
AcDbLine
 10
4.155751
 20
6.343336
 30
0.0
 11
4.155751
 21
5.882536
 31
0.0
  0
LINE
  5
3E8
100
AcDbEntity
  8
TFR-TRI
390
0
  6
Continuous
 62
     3
100
AcDbLine
 10
4.46526
 20
3.447589
 30
0.0
 11
4.46526
 21
3.378569
 31
0.0
  0
LINE
  5
3E9
100
AcDbEntity
  8
TFR-TRI
390
0
  6
Continuous
 62
    12
100
AcDbLine
 10
7.560731
 20
4.067108
 30
0.0
 11
7.546127
 21
4.062551
 31
0.0
  0
LINE
  5
3EA
100
AcDbEntity
  8
TFR-TRI
390
0
  6
Continuous
 62
     3
100
AcDbLine
 10
10.75
 20
4.21193
 30
0.0
 11
10.9725
 21
4.21193
 31
0.0
  0
LINE
  5
3EB
100
AcDbEntity
  8
TFR-TRI
390
0
  6
Continuous
 62
     3
100
AcDbLine
 10
4.408299
 20
6.749586
 30
0.0
 11
4.408299
 21
6.781285
 31
0.0
  0
LINE
  5
3EC
100
AcDbEntity
  8
TFR-TRI
390
0
  6
Continuous
 62
    12
100
AcDbLine
 10
5.796228
 20
3.361725
 30
0.0
 11
5.799695
 21
3.333882
 31
0.0
  0
LINE
  5
3ED
100
AcDbEntity
  8
TFR-TRI
390
0
  6
Continuous
 62
    12
100
AcDbLine
 10
3.953251
 20
6.769586
 30
0.0
 11
3.859501
 21
6.769586
 31
0.0
  0
LINE
  5
3EE
100
AcDbEntity
  8
TFR-TRI
390
0
  6
Continuous
 62
     3
100
AcDbLine
 10
0.060405
 20
4.22693
 30
0.0
 11
0.216655
 21
4.10193
 31
0.0
  0
LINE
  5
3EF
100
AcDbEntity
  8
TFR-TRI
390
0
  6
Continuous
 62
     3
100
AcDbLine
 10
4.48326
 20
3.447589
 30
0.0
 11
4.48326
 21
3.333785
 31
0.0
  0
LINE
  5
3F0
100
AcDbEntity
  8
TFR-TRI
390
0
  6
Continuous
 62
     3
100
AcDbLine
 10
3.828251
 20
6.032537
 30
0.0
 11
3.859949
 21
6.032537
 31
0.0
  0
LINE
  5
3F1
100
AcDbEntity
  8
TFR-TRI
390
0
  6
Continuous
 62
     3
100
AcDbLine
 10
4.015751
 20
6.405836
 30
0.0
 11
5.221726
 21
6.405836
 31
0.0
  0
LINE
  5
3F2
100
AcDbEntity
  8
TFR-TRI
390
0
  6
Continuous
 62
    12
100
AcDbLine
 10
7.532122
 20
3.793464
 30
0.0
 11
7.532882
 21
3.793874
 31
0.0
  0
LINE
  5
3F3
100
AcDbEntity
  8
TFR-TRI
390
0
  6
Continuous
 62
     3
100
AcDbLine
 10
5.459268
 20
6.925347
 30
0.0
 11
5.504268
 21
6.925347
 31
0.0
  0
LINE
  5
3F4
100
AcDbEntity
  8
TFR-TRI
390
0
  6
Continuous
 62
     3
100
AcDbLine
 10
10.835
 20
4.31193
 30
0.0
 11
10.885
 21
4.31193
 31
0.0
  0
LINE
  5
3F5
100
AcDbEntity
  8
TFR-TRI
390
0
  6
Continuous
 62
    12
100
AcDbLine
 10
7.382558
 20
4.063203
 30
0.0
 11
7.390515
 21
4.060853
 31
0.0
  0
LINE
  5
3F6
100
AcDbEntity
  8
TFR-TRI
390
0
  6
Continuous
 62
     3
100
AcDbLine
 10
5.073726
 20
7.218336
 30
0.0
 11
5.073726
 21
7.257499
 31
0.0
  0
LINE
  5
3F7
100
AcDbEntity
  8
TFR-TRI
390
0
  6
Continuous
 62
     3
100
AcDbLine
 10
0.160405
 20
4.30693
 30
0.0
 11
0.216655
 21
4.30693
 31
0.0
  0
LINE
  5
3F8
100
AcDbEntity
  8
TFR-TRI
390
0
  6
Continuous
 62
    12
100
AcDbLine
 10
7.040942
 20
3.469172
 30
0.0
 11
7.062098
 21
3.465353
 31
0.0
  0
LINE
  5
3F9
100
AcDbEntity
  8
TFR-TRI
390
0
  6
Continuous
 62
     7
100
AcDbLine
 10
10.75
 20
8.20386
 30
0.0
 11
10.75
 21
0.25
 31
0.0
  0
LINE
  5
3FA
100
AcDbEntity
  8
TFR-TRI
390
0
  6
Continuous
 62
    12
100
AcDbLine
 10
3.968251
 20
4.486363
 30
0.0
 11
3.968251
 21
4.553638
 31
0.0
  0
LINE
  5
3FB
100
AcDbEntity
  8
TFR-TRI
390
0
  6
Continuous
 62
     3
100
AcDbLine
 10
5.096726
 20
7.343336
 30
0.0
 11
5.063233
 21
7.218336
 31
0.0
  0
LINE
  5
3FC
100
AcDbEntity
  8
TFR-TRI
390
0
  6
Continuous
 62
    12
100
AcDbLine
 10
7.614712
 20
3.759286
 30
0.0
 11
7.634171
 21
3.774479
 31
0.0
  0
LINE
  5
3FD
100
AcDbEntity
  8
TFR-TRI
390
0
  6
Continuous
 62
     3
100
AcDbLine
 10
4.280751
 20
5.986537
 30
0.0
 11
4.234124
 21
5.986537
 31
0.0
  0
LINE
  5
3FE
100
AcDbEntity
  8
TFR-TRI
390
0
  6
Continuous
 62
    12
100
AcDbLine
 10
4.085155
 20
4.553638
 30
0.0
 11
4.114844
 21
4.553638
 31
0.0
  0
LINE
  5
3FF
100
AcDbEntity
  8
TFR-TRI
390
0
  6
Continuous
 62
     3
100
AcDbLine
 10
3.828251
 20
5.996536
 30
0.0
 11
3.912198
 21
5.996536
 31
0.0
  0
LINE
  5
400
100
AcDbEntity
  8
TFR-TRI
390
0
  6
Continuous
 62
     3
100
AcDbLine
 10
1.124226
 20
5.329593
 30
0.0
 11
1.055206
 21
5.329593
 31
0.0
  0
LINE
  5
401
100
AcDbEntity
  8
TFR-TRI
390
0
  6
Continuous
 62
     3
100
AcDbLine
 10
5.651893
 20
7.405836
 30
0.0
 11
5.651893
 21
7.527104
 31
0.0
  0
LINE
  5
402
100
AcDbEntity
  8
TFR-TRI
390
0
  6
Continuous
 62
    12
100
AcDbLine
 10
7.390515
 20
4.060853
 30
0.0
 11
7.392606
 21
4.068055
 31
0.0
  0
LINE
  5
403
100
AcDbEntity
  8
TFR-TRI
390
0
  6
Continuous
 62
     3
100
AcDbLine
 10
1.124226
 20
5.3111
 30
0.0
 11
1.124226
 21
5.378087
 31
0.0
  0
LINE
  5
404
100
AcDbEntity
  8
TFR-TRI
390
0
  6
Continuous
 62
     3
100
AcDbLine
 10
4.4003
 20
7.468336
 30
0.0
 11
4.4003
 21
7.466494
 31
0.0
  0
LINE
  5
405
100
AcDbEntity
  8
TFR-TRI
390
0
  6
Continuous
 62
     3
100
AcDbLine
 10
4.450299
 20
6.749586
 30
0.0
 11
4.450299
 21
6.811141
 31
0.0
  0
LINE
  5
406
100
AcDbEntity
  8
TFR-TRI
390
0
  6
Continuous
 62
     3
100
AcDbLine
 10
4.280751
 20
6.018536
 30
0.0
 11
4.196803
 21
6.018536
 31
0.0
  0
LINE
  5
407
100
AcDbEntity
  8
TFR-TRI
390
0
  6
Continuous
 62
     3
100
AcDbLine
 10
4.957188
 20
5.872536
 30
0.0
 11
4.912188
 21
5.872536
 31
0.0
  0
LINE
  5
408
100
AcDbEntity
  8
TFR-TRI
390
0
  6
Continuous
 62
    12
100
AcDbLine
 10
4.15105
 20
4.553638
 30
0.0
 11
4.155751
 21
4.553638
 31
0.0
  0
LINE
  5
409
100
AcDbEntity
  8
TFR-TRI
390
0
  6
Continuous
 62
     3
100
AcDbLine
 10
0.999226
 20
5.344594
 30
0.0
 11
1.68201
 21
5.344594
 31
0.0
  0
LINE
  5
40A
100
AcDbEntity
  8
TFR-TRI
390
0
  6
Continuous
 62
    12
100
AcDbLine
 10
7.521159
 20
4.141081
 30
0.0
 11
7.530103
 21
4.163439
 31
0.0
  0
LINE
  5
40B
100
AcDbEntity
  8
TFR-TRI
390
0
  6
Continuous
 62
    12
100
AcDbLine
 10
7.01687
 20
4.262538
 30
0.0
 11
7.038026
 21
4.258719
 31
0.0
  0
LINE
  5
40C
100
AcDbEntity
  8
TFR-TRI
390
0
  6
Continuous
 62
    12
100
AcDbLine
 10
2.727527
 20
7.530836
 30
0.0
 11
2.755501
 21
7.530836
 31
0.0
  0
LINE
  5
40D
100
AcDbEntity
  8
TFR-TRI
390
0
  6
Continuous
 62
     3
100
AcDbLine
 10
4.414299
 20
6.749586
 30
0.0
 11
4.414299
 21
6.803677
 31
0.0
  0
LINE
  5
40E
100
AcDbEntity
  8
TFR-TRI
390
0
  6
Continuous
 62
    12
100
AcDbLine
 10
2.664976
 20
7.530836
 30
0.0
 11
2.669406
 21
7.530836
 31
0.0
  0
LINE
  5
40F
100
AcDbEntity
  8
TFR-TRI
390
0
  6
Continuous
 62
     3
100
AcDbLine
 10
4.030751
 20
5.027267
 30
0.0
 11
4.122162
 21
5.027267
 31
0.0
  0
LINE
  5
410
100
AcDbEntity
  8
TFR-TRI
390
0
  6
Continuous
 62
     3
100
AcDbLine
 10
4.280751
 20
6.036536
 30
0.0
 11
4.26398
 21
6.036536
 31
0.0
  0
LINE
  5
411
100
AcDbEntity
  8
TFR-TRI
390
0
  6
Continuous
 62
     3
100
AcDbLine
 10
5.643893
 20
6.343336
 30
0.0
 11
5.643893
 21
6.244461
 31
0.0
  0
LINE
  5
412
100
AcDbEntity
  8
TFR-TRI
390
0
  6
Continuous
 62
    12
100
AcDbLine
 10
7.554725
 20
3.779206
 30
0.0
 11
7.54165
 21
3.782854
 31
0.0
  0
LINE
  5
413
100
AcDbEntity
  8
TFR-TRI
390
0
  6
Continuous
 62
     3
100
AcDbLine
 10
4.51126
 20
4.428638
 30
0.0
 11
4.51126
 21
4.437945
 31
0.0
  0
LINE
  5
414
100
AcDbEntity
  8
TFR-TRI
390
0
  6
Continuous
 62
     3
100
AcDbLine
 10
4.442299
 20
6.749586
 30
0.0
 11
4.442299
 21
6.840998
 31
0.0
  0
LINE
  5
415
100
AcDbEntity
  8
TFR-TRI
390
0
  6
Continuous
 62
     3
100
AcDbLine
 10
5.129726
 20
6.530836
 30
0.0
 11
5.129726
 21
6.528994
 31
0.0
  0
LINE
  5
416
100
AcDbEntity
  8
TFR-TRI
390
0
  6
Continuous
 62
    12
100
AcDbLine
 10
7.678497
 20
3.853868
 30
0.0
 11
7.685225
 21
3.885577
 31
0.0
  0
LINE
  5
417
100
AcDbEntity
  8
TFR-TRI
390
0
  6
Continuous
 62
     3
100
AcDbLine
 10
4.030751
 20
5.001267
 30
0.0
 11
4.092306
 21
5.001267
 31
0.0
  0
LINE
  5
418
100
AcDbEntity
  8
TFR-TRI
390
0
  6
Continuous
 62
    12
100
AcDbLine
 10
7.508159
 20
4.400801
 30
0.0
 11
7.512562
 21
4.424426
 31
0.0
  0
LINE
  5
419
100
AcDbEntity
  8
TFR-TRI
390
0
  6
Continuous
 62
     3
100
AcDbLine
 10
5.494577
 20
0.20875
 30
0.0
 11
5.557077
 21
0.20875
 31
0.0
  0
LINE
  5
41A
100
AcDbEntity
  8
TFR-TRI
390
0
  6
Continuous
 62
     3
100
AcDbLine
 10
4.48326
 20
4.428638
 30
0.0
 11
4.48326
 21
4.542442
 31
0.0
  0
LINE
  5
41B
100
AcDbEntity
  8
TFR-TRI
390
0
  6
Continuous
 62
     3
100
AcDbLine
 10
4.030751
 20
5.051761
 30
0.0
 11
4.030751
 21
4.984774
 31
0.0
  0
LINE
  5
41C
100
AcDbEntity
  8
TFR-TRI
390
0
  6
Continuous
 62
     3
100
AcDbLine
 10
5.103726
 20
6.530836
 30
0.0
 11
5.103726
 21
6.431961
 31
0.0
  0
LINE
  5
41D
100
AcDbEntity
  8
TFR-TRI
390
0
  6
Continuous
 62
    12
100
AcDbLine
 10
3.444376
 20
6.829586
 30
0.0
 11
3.444376
 21
6.919586
 31
0.0
  0
LINE
  5
41E
100
AcDbEntity
  8
TFR-TRI
390
0
  6
Continuous
 62
     3
100
AcDbLine
 10
3.891376
 20
7.343336
 30
0.0
 11
3.921376
 21
7.343336
 31
0.0
  0
LINE
  5
41F
100
AcDbEntity
  8
TFR-TRI
390
0
  6
Continuous
 62
     3
100
AcDbLine
 10
5.453827
 20
0.09875
 30
0.0
 11
5.597827
 21
0.09875
 31
0.0
  0
LINE
  5
420
100
AcDbEntity
  8
TFR-TRI
390
0
  6
Continuous
 62
     3
100
AcDbLine
 10
8.613068
 20
1.216418
 30
0.0
 11
8.606505
 21
1.22298
 31
0.0
  0
LINE
  5
421
100
AcDbEntity
  8
TFR-TRI
390
0
  6
Continuous
 62
     3
100
AcDbLine
 10
4.45526
 20
3.447589
 30
0.0
 11
4.45526
 21
3.41589
 31
0.0
  0
LINE
  5
422
100
AcDbEntity
  8
TFR-TRI
390
0
  6
Continuous
 62
     3
100
AcDbLine
 10
0.110405
 20
4.18693
 30
0.0
 11
0.216655
 21
4.18693
 31
0.0
  0
LINE
  5
423
100
AcDbEntity
  8
TFR-TRI
390
0
  6
Continuous
 62
     3
100
AcDbLine
 10
10.99125
 20
4.22693
 30
0.0
 11
10.835
 21
4.10193
 31
0.0
  0
LINE
  5
424
100
AcDbEntity
  8
TFR-TRI
390
0
  6
Continuous
 62
    12
100
AcDbLine
 10
6.438192
 20
4.425254
 30
0.0
 11
6.448437
 21
4.428026
 31
0.0
  0
LINE
  5
425
100
AcDbEntity
  8
TFR-TRI
390
0
  6
Continuous
 62
    12
100
AcDbLine
 10
7.409391
 20
4.007526
 30
0.0
 11
7.402756
 21
3.991358
 31
0.0
  0
LINE
  5
426
100
AcDbEntity
  8
TFR-TRI
390
0
  6
Continuous
 62
     3
100
AcDbLine
 10
3.814501
 20
7.343336
 30
0.0
 11
3.694501
 21
7.343336
 31
0.0
  0
LINE
  5
427
100
AcDbEntity
  8
TFR-TRI
390
0
  6
Continuous
 62
     3
100
AcDbLine
 10
4.030751
 20
5.347593
 30
0.0
 11
4.144555
 21
5.347593
 31
0.0
  0
LINE
  5
428
100
AcDbEntity
  8
TFR-TRI
390
0
  6
Continuous
 62
     3
100
AcDbLine
 10
5.488828
 20
8.39886
 30
0.0
 11
5.562828
 21
8.39886
 31
0.0
  0
LINE
  5
429
100
AcDbEntity
  8
TFR-TRI
390
0
  6
Continuous
 62
     3
100
AcDbLine
 10
0.129155
 20
4.28193
 30
0.0
 11
0.216655
 21
4.28193
 31
0.0
  0
LINE
  5
42A
100
AcDbEntity
  8
TFR-TRI
390
0
  6
Continuous
 62
     3
100
AcDbLine
 10
4.030751
 20
5.339593
 30
0.0
 11
4.13709
 21
5.339593
 31
0.0
  0
LINE
  5
42B
100
AcDbEntity
  8
TFR-TRI
390
0
  6
Continuous
 62
     3
100
AcDbLine
 10
3.828251
 20
5.978536
 30
0.0
 11
3.845021
 21
5.978536
 31
0.0
  0
LINE
  5
42C
100
AcDbEntity
  8
TFR-TRI
390
0
  6
Continuous
 62
     3
100
AcDbLine
 10
4.280751
 20
5.976536
 30
0.0
 11
4.271444
 21
5.976536
 31
0.0
  0
LINE
  5
42D
100
AcDbEntity
  8
TFR-TRI
390
0
  6
Continuous
 62
     3
100
AcDbLine
 10
0.185405
 20
4.32693
 30
0.0
 11
0.216655
 21
4.32693
 31
0.0
  0
LINE
  5
42E
100
AcDbEntity
  8
TFR-TRI
390
0
  6
Continuous
 62
     3
100
AcDbLine
 10
5.650893
 20
6.218336
 30
0.0
 11
5.684386
 21
6.343336
 31
0.0
  0
LINE
  5
42F
100
AcDbEntity
  8
TFR-TRI
390
0
  6
Continuous
 62
     3
100
AcDbLine
 10
4.280751
 20
6.024536
 30
0.0
 11
4.219195
 21
6.024536
 31
0.0
  0
LINE
  5
430
100
AcDbEntity
  8
TFR-TRI
390
0
  6
Continuous
 62
     3
100
AcDbLine
 10
10.835
 20
4.32193
 30
0.0
 11
10.8725
 21
4.32193
 31
0.0
  0
LINE
  5
431
100
AcDbEntity
  8
TFR-TRI
390
0
  6
Continuous
 62
     3
100
AcDbLine
 10
0.079155
 20
4.21193
 30
0.0
 11
0.301655
 21
4.21193
 31
0.0
  0
LINE
  5
432
100
AcDbEntity
  8
TFR-TRI
390
0
  6
Continuous
 62
     3
100
AcDbLine
 10
10.835
 20
4.33693
 30
0.0
 11
10.85375
 21
4.33693
 31
0.0
  0
LINE
  5
433
100
AcDbEntity
  8
TFR-TRI
390
0
  6
Continuous
 62
     3
100
AcDbLine
 10
4.280751
 20
5.990536
 30
0.0
 11
4.219195
 21
5.990536
 31
0.0
  0
LINE
  5
434
100
AcDbEntity
  8
TFR-TRI
390
0
  6
Continuous
 62
    12
100
AcDbLine
 10
7.411439
 20
4.024561
 30
0.0
 11
7.409391
 21
4.007526
 31
0.0
  0
LINE
  5
435
100
AcDbEntity
  8
TFR-TRI
390
0
  6
Continuous
 62
    12
100
AcDbLine
 10
6.465888
 20
4.446567
 30
0.0
 11
6.487044
 21
4.442748
 31
0.0
  0
LINE
  5
436
100
AcDbEntity
  8
TFR-TRI
390
0
  6
Continuous
 62
     3
100
AcDbLine
 10
4.428299
 20
6.749586
 30
0.0
 11
4.428299
 21
6.855926
 31
0.0
  0
LINE
  5
437
100
AcDbEntity
  8
TFR-TRI
390
0
  6
Continuous
 62
    12
100
AcDbLine
 10
5.800775
 20
3.296163
 30
0.0
 11
5.83646
 21
3.285623
 31
0.0
  0
LINE
  5
438
100
AcDbEntity
  8
TFR-TRI
390
0
  6
Continuous
 62
     3
100
AcDbLine
 10
5.485827
 20
0.05875
 30
0.0
 11
5.565827
 21
0.05875
 31
0.0
  0
LINE
  5
439
100
AcDbEntity
  8
TFR-TRI
390
0
  6
Continuous
 62
    12
100
AcDbLine
 10
1.221226
 20
7.212086
 30
0.0
 11
1.221226
 21
6.537086
 31
0.0
  0
LINE
  5
43A
100
AcDbEntity
  8
TFR-TRI
390
0
  6
Continuous
 62
     3
100
AcDbLine
 10
4.030751
 20
5.317594
 30
0.0
 11
4.054986
 21
5.317594
 31
0.0
  0
LINE
  5
43B
100
AcDbEntity
  8
TFR-TRI
390
0
  6
Continuous
 62
     3
100
AcDbLine
 10
10.75
 20
4.20193
 30
0.0
 11
10.96
 21
4.20193
 31
0.0
  0
LINE
  5
43C
100
AcDbEntity
  8
TFR-TRI
390
0
  6
Continuous
 62
     3
100
AcDbLine
 10
5.683893
 20
6.343336
 30
0.0
 11
5.683893
 21
6.341494
 31
0.0
  0
LINE
  5
43D
100
AcDbEntity
  8
TFR-TRI
390
0
  6
Continuous
 62
    12
100
AcDbLine
 10
5.800773
 20
3.296163
 30
0.0
 11
5.784775
 21
3.305259
 31
0.0
  0
LINE
  5
43E
100
AcDbEntity
  8
TFR-TRI
390
0
  6
Continuous
 62
     3
100
AcDbLine
 10
5.429828
 20
0.12875
 30
0.0
 11
5.621828
 21
0.12875
 31
0.0
  0
LINE
  5
43F
100
AcDbEntity
  8
TFR-TRI
390
0
  6
Continuous
 62
     3
100
AcDbLine
 10
10.835
 20
4.14693
 30
0.0
 11
10.89125
 21
4.14693
 31
0.0
  0
LINE
  5
440
100
AcDbEntity
  8
TFR-TRI
390
0
  6
Continuous
 62
    12
100
AcDbLine
 10
7.621519
 20
3.817865
 30
0.0
 11
7.607148
 21
3.805653
 31
0.0
  0
LINE
  5
441
100
AcDbEntity
  8
TFR-TRI
390
0
  6
Continuous
 62
     3
100
AcDbLine
 10
4.51326
 20
4.428638
 30
0.0
 11
4.51326
 21
4.430481
 31
0.0
  0
LINE
  5
442
100
AcDbEntity
  8
TFR-TRI
390
0
  6
Continuous
 62
     7
100
AcDbLine
 10
6.585438
 20
2.310338
 30
0.0
 11
0.301655
 21
2.310338
 31
0.0
  0
LINE
  5
443
100
AcDbEntity
  8
TFR-TRI
390
0
  6
Continuous
 62
    12
100
AcDbLine
 10
7.546127
 20
4.062551
 30
0.0
 11
7.533053
 21
4.066199
 31
0.0
  0
LINE
  5
444
100
AcDbEntity
  8
TFR-TRI
390
0
  6
Continuous
 62
     3
100
AcDbLine
 10
10.75
 20
4.21693
 30
0.0
 11
10.97875
 21
4.21693
 31
0.0
  0
LINE
  5
445
100
AcDbEntity
  8
TFR-TRI
390
0
  6
Continuous
 62
     3
100
AcDbLine
 10
2.789976
 20
5.043268
 30
0.0
 11
2.758277
 21
5.043268
 31
0.0
  0
LINE
  5
446
100
AcDbEntity
  8
TFR-TRI
390
0
  6
Continuous
 62
     3
100
AcDbLine
 10
4.155751
 20
6.007536
 30
0.0
 11
4.280751
 21
5.974043
 31
0.0
  0
LINE
  5
447
100
AcDbEntity
  8
TFR-TRI
390
0
  6
Continuous
 62
     3
100
AcDbLine
 10
5.079726
 20
6.530836
 30
0.0
 11
5.079726
 21
6.469281
 31
0.0
  0
LINE
  5
448
100
AcDbEntity
  8
TFR-TRI
390
0
  6
Continuous
 62
     3
100
AcDbLine
 10
4.410299
 20
6.749586
 30
0.0
 11
4.410299
 21
6.788749
 31
0.0
  0
LINE
  5
449
100
AcDbEntity
  8
TFR-TRI
390
0
  6
Continuous
 62
    12
100
AcDbLine
 10
7.54165
 20
3.782854
 30
0.0
 11
7.531682
 21
3.794266
 31
0.0
  0
LINE
  5
44A
100
AcDbEntity
  8
TFR-TRI
390
0
  6
Continuous
 62
    12
100
AcDbLine
 10
5.799695
 20
3.333882
 30
0.0
 11
5.808081
 21
3.310921
 31
0.0
  0
LINE
  5
44B
100
AcDbEntity
  8
TFR-TRI
390
0
  6
Continuous
 62
     3
100
AcDbLine
 10
10.835
 20
4.28193
 30
0.0
 11
10.9225
 21
4.28193
 31
0.0
  0
LINE
  5
44C
100
AcDbEntity
  8
TFR-TRI
390
0
  6
Continuous
 62
     3
100
AcDbLine
 10
5.063726
 20
7.218336
 30
0.0
 11
5.063726
 21
7.220179
 31
0.0
  0
LINE
  5
44D
100
AcDbEntity
  8
TFR-TRI
390
0
  6
Continuous
 62
    12
100
AcDbLine
 10
7.384665
 20
4.070429
 30
0.0
 11
7.389221
 21
4.073022
 31
0.0
  0
LINE
  5
44E
100
AcDbEntity
  8
TFR-TRI
390
0
  6
Continuous
 62
     3
100
AcDbLine
 10
0.216655
 20
4.19568
 30
0.0
 11
0.216655
 21
4.10193
 31
0.0
  0
LINE
  5
44F
100
AcDbEntity
  8
TFR-TRI
390
0
  6
Continuous
 62
     3
100
AcDbLine
 10
4.48126
 20
3.447589
 30
0.0
 11
4.48126
 21
3.326321
 31
0.0
  0
LINE
  5
450
100
AcDbEntity
  8
TFR-TRI
390
0
  6
Continuous
 62
    12
100
AcDbLine
 10
7.532882
 20
3.793874
 30
0.0
 11
7.533642
 21
3.794303
 31
0.0
  0
LINE
  5
451
100
AcDbEntity
  8
TFR-TRI
390
0
  6
Continuous
 62
     7
100
AcDbLine
 10
7.357996
 20
0.25
 30
0.0
 11
7.357996
 21
1.037558
 31
0.0
  0
LINE
  5
452
100
AcDbEntity
  8
TFR-TRI
390
0
  6
Continuous
 62
     3
100
AcDbLine
 10
10.835
 20
4.11193
 30
0.0
 11
10.8475
 21
4.11193
 31
0.0
  0
LINE
  5
453
100
AcDbEntity
  8
TFR-TRI
390
0
  6
Continuous
 62
    12
100
AcDbLine
 10
7.062098
 20
3.465353
 30
0.0
 11
7.085592
 21
3.465334
 31
0.0
  0
LINE
  5
454
100
AcDbEntity
  8
TFR-TRI
390
0
  6
Continuous
 62
    12
100
AcDbLine
 10
5.886328
 20
3.484817
 30
0.0
 11
5.883378
 21
3.492895
 31
0.0
  0
LINE
  5
455
100
AcDbEntity
  8
TFR-TRI
390
0
  6
Continuous
 62
    12
100
AcDbLine
 10
7.386251
 20
3.973064
 30
0.0
 11
7.377568
 21
3.980702
 31
0.0
  0
LINE
  5
456
100
AcDbEntity
  8
TFR-TRI
390
0
  6
Continuous
 62
     3
100
AcDbLine
 10
4.030751
 20
5.013268
 30
0.0
 11
4.13709
 21
5.013268
 31
0.0
  0
LINE
  5
457
100
AcDbEntity
  8
TFR-TRI
390
0
  6
Continuous
 62
     3
100
AcDbLine
 10
5.525827
 20
8.44511
 30
0.0
 11
5.400827
 21
8.28886
 31
0.0
  0
LINE
  5
458
100
AcDbEntity
  8
TFR-TRI
390
0
  6
Continuous
 62
     3
100
AcDbLine
 10
4.460299
 20
6.749586
 30
0.0
 11
4.460299
 21
6.773821
 31
0.0
  0
LINE
  5
459
100
AcDbEntity
  8
TFR-TRI
390
0
  6
Continuous
 62
     3
100
AcDbLine
 10
4.48526
 20
3.447589
 30
0.0
 11
4.48526
 21
3.341249
 31
0.0
  0
LINE
  5
45A
100
AcDbEntity
  8
TFR-TRI
390
0
  6
Continuous
 62
     3
100
AcDbLine
 10
10.835
 20
4.13193
 30
0.0
 11
10.8725
 21
4.13193
 31
0.0
  0
LINE
  5
45B
100
AcDbEntity
  8
TFR-TRI
390
0
  6
Continuous
 62
     3
100
AcDbLine
 10
2.789976
 20
5.041267
 30
0.0
 11
2.750813
 21
5.041267
 31
0.0
  0
LINE
  5
45C
100
AcDbEntity
  8
TFR-TRI
390
0
  6
Continuous
 62
     3
100
AcDbLine
 10
4.030751
 20
5.041267
 30
0.0
 11
4.069913
 21
5.041267
 31
0.0
  0
LINE
  5
45D
100
AcDbEntity
  8
TFR-TRI
390
0
  6
Continuous
 62
     3
100
AcDbLine
 10
2.789976
 20
5.049268
 30
0.0
 11
2.780669
 21
5.049268
 31
0.0
  0
LINE
  5
45E
100
AcDbEntity
  8
TFR-TRI
390
0
  6
Continuous
 62
     3
100
AcDbLine
 10
4.430299
 20
6.749586
 30
0.0
 11
4.430299
 21
6.86339
 31
0.0
  0
LINE
  5
45F
100
AcDbEntity
  8
TFR-TRI
390
0
  6
Continuous
 62
     3
100
AcDbLine
 10
5.921268
 20
6.925347
 30
0.0
 11
5.921268
 21
7.094097
 31
0.0
  0
LINE
  5
460
100
AcDbEntity
  8
TFR-TRI
390
0
  6
Continuous
 62
     3
100
AcDbLine
 10
5.657893
 20
6.343336
 30
0.0
 11
5.657893
 21
6.244461
 31
0.0
  0
LINE
  5
461
100
AcDbEntity
  8
TFR-TRI
390
0
  6
Continuous
 62
    12
100
AcDbLine
 10
7.657865
 20
4.533897
 30
0.0
 11
7.645132
 21
4.550413
 31
0.0
  0
LINE
  5
462
100
AcDbEntity
  8
TFR-TRI
390
0
  6
Continuous
 62
     3
100
AcDbLine
 10
1.74451
 20
5.209593
 30
0.0
 11
1.74451
 21
5.040843
 31
0.0
  0
LINE
  5
463
100
AcDbEntity
  8
TFR-TRI
390
0
  6
Continuous
 62
     3
100
AcDbLine
 10
1.124226
 20
5.337594
 30
0.0
 11
1.02535
 21
5.337594
 31
0.0
  0
LINE
  5
464
100
AcDbEntity
  8
TFR-TRI
390
0
  6
Continuous
 62
     3
100
AcDbLine
 10
0.204155
 20
4.34193
 30
0.0
 11
0.216655
 21
4.34193
 31
0.0
  0
LINE
  5
465
100
AcDbEntity
  8
TFR-TRI
390
0
  6
Continuous
 62
     3
100
AcDbLine
 10
3.179363
 20
4.883267
 30
0.0
 11
3.179363
 21
4.714518
 31
0.0
  0
LINE
  5
466
100
AcDbEntity
  8
TFR-TRI
390
0
  6
Continuous
 62
    12
100
AcDbLine
 10
7.61165
 20
3.893627
 30
0.0
 11
7.610765
 21
3.915743
 31
0.0
  0
LINE
  5
467
100
AcDbEntity
  8
TFR-TRI
390
0
  6
Continuous
 62
     3
100
AcDbLine
 10
4.280751
 20
5.988536
 30
0.0
 11
4.22666
 21
5.988536
 31
0.0
  0
LINE
  5
468
100
AcDbEntity
  8
TFR-TRI
390
0
  6
Continuous
 62
     3
100
AcDbLine
 10
4.280751
 20
6.010536
 30
0.0
 11
4.166947
 21
6.010536
 31
0.0
  0
LINE
  5
469
100
AcDbEntity
  8
TFR-TRI
390
0
  6
Continuous
 62
     3
100
AcDbLine
 10
2.789976
 20
5.019268
 30
0.0
 11
2.668708
 21
5.019268
 31
0.0
  0
LINE
  5
46A
100
AcDbEntity
  8
TFR-TRI
390
0
  6
Continuous
 62
     3
100
AcDbLine
 10
1.124226
 20
5.361593
 30
0.0
 11
1.06267
 21
5.361593
 31
0.0
  0
LINE
  5
46B
100
AcDbEntity
  8
TFR-TRI
390
0
  6
Continuous
 62
    12
100
AcDbLine
 10
7.392606
 20
4.068055
 30
0.0
 11
7.397144
 21
4.070682
 31
0.0
  0
LINE
  5
46C
100
AcDbEntity
  8
TFR-TRI
390
0
  6
Continuous
 62
     3
100
AcDbLine
 10
4.402299
 20
7.468336
 30
0.0
 11
4.402299
 21
7.45903
 31
0.0
  0
LINE
  5
46D
100
AcDbEntity
  8
TFR-TRI
390
0
  6
Continuous
 62
     3
100
AcDbLine
 10
4.030751
 20
5.349593
 30
0.0
 11
4.13709
 21
5.349593
 31
0.0
  0
LINE
  5
46E
100
AcDbEntity
  8
TFR-TRI
390
0
  6
Continuous
 62
    12
100
AcDbLine
 10
0.999226
 20
3.389864
 30
0.0
 11
1.003927
 21
3.389864
 31
0.0
  0
LINE
  5
46F
100
AcDbEntity
  8
TFR-TRI
390
0
  6
Continuous
 62
     3
100
AcDbLine
 10
4.155751
 20
5.344594
 30
0.0
 11
2.092198
 21
5.344594
 31
0.0
  0
LINE
  5
470
100
AcDbEntity
  8
TFR-TRI
390
0
  6
Continuous
 62
    12
100
AcDbLine
 10
7.530103
 20
4.163439
 30
0.0
 11
7.542508
 21
4.181834
 31
0.0
  0
LINE
  5
471
100
AcDbEntity
  8
TFR-TRI
390
0
  6
Continuous
 62
     3
100
AcDbLine
 10
4.438299
 20
7.468336
 30
0.0
 11
4.438299
 21
7.361997
 31
0.0
  0
LINE
  5
472
100
AcDbEntity
  8
TFR-TRI
390
0
  6
Continuous
 62
    12
100
AcDbLine
 10
2.664976
 20
6.218336
 30
0.0
 11
2.669406
 21
6.218336
 31
0.0
  0
LINE
  5
473
100
AcDbEntity
  8
TFR-TRI
390
0
  6
Continuous
 62
    12
100
AcDbLine
 10
7.652071
 20
3.79636
 30
0.0
 11
7.667189
 21
3.823438
 31
0.0
  0
LINE
  5
474
100
AcDbEntity
  8
TFR-TRI
390
0
  6
Continuous
 62
    12
100
AcDbLine
 10
7.590171
 20
4.436487
 30
0.0
 11
7.594456
 21
4.460317
 31
0.0
  0
LINE
  5
475
100
AcDbEntity
  8
TFR-TRI
390
0
  6
Continuous
 62
     3
100
AcDbLine
 10
4.030751
 20
5.025268
 30
0.0
 11
4.129626
 21
5.025268
 31
0.0
  0
LINE
  5
476
100
AcDbEntity
  8
TFR-TRI
390
0
  6
Continuous
 62
     3
100
AcDbLine
 10
2.789976
 20
4.985268
 30
0.0
 11
2.788133
 21
4.985268
 31
0.0
  0
LINE
  5
477
100
AcDbEntity
  8
TFR-TRI
390
0
  6
Continuous
 62
    12
100
AcDbLine
 10
3.859501
 20
7.448336
 30
0.0
 11
3.953251
 21
7.448336
 31
0.0
  0
LINE
  5
478
100
AcDbEntity
  8
TFR-TRI
390
0
  6
Continuous
 62
     3
100
AcDbLine
 10
4.50926
 20
4.428638
 30
0.0
 11
4.50926
 21
4.445409
 31
0.0
  0
LINE
  5
479
100
AcDbEntity
  8
TFR-TRI
390
0
  6
Continuous
 62
     3
100
AcDbLine
 10
5.129726
 20
6.530836
 30
0.0
 11
5.129726
 21
6.528994
 31
0.0
  0
LINE
  5
47A
100
AcDbEntity
  8
TFR-TRI
390
0
  6
Continuous
 62
     3
100
AcDbLine
 10
2.704226
 20
3.322589
 30
0.0
 11
4.60526
 21
3.322589
 31
0.0
  0
LINE
  5
47B
100
AcDbEntity
  8
TFR-TRI
390
0
  6
Continuous
 62
     3
100
AcDbLine
 10
0.179155
 20
4.13193
 30
0.0
 11
0.216655
 21
4.13193
 31
0.0
  0
LINE
  5
47C
100
AcDbEntity
  8
TFR-TRI
390
0
  6
Continuous
 62
    12
100
AcDbLine
 10
6.024478
 20
3.560723
 30
0.0
 11
5.892867
 21
3.484548
 31
0.0
  0
LINE
  5
47D
100
AcDbEntity
  8
TFR-TRI
390
0
  6
Continuous
 62
     3
100
AcDbLine
 10
1.124226
 20
5.357594
 30
0.0
 11
1.047742
 21
5.357594
 31
0.0
  0
LINE
  5
47E
100
AcDbEntity
  8
TFR-TRI
390
0
  6
Continuous
 62
     3
100
AcDbLine
 10
5.494577
 20
0.21375
 30
0.0
 11
5.557077
 21
0.21375
 31
0.0
  0
LINE
  5
47F
100
AcDbEntity
  8
TFR-TRI
390
0
  6
Continuous
 62
     3
100
AcDbLine
 10
4.030751
 20
4.984774
 30
0.0
 11
4.155751
 21
5.018268
 31
0.0
  0
LINE
  5
480
100
AcDbEntity
  8
TFR-TRI
390
0
  6
Continuous
 62
     3
100
AcDbLine
 10
5.101727
 20
6.530836
 30
0.0
 11
5.101727
 21
6.424497
 31
0.0
  0
LINE
  5
481
100
AcDbEntity
  8
TFR-TRI
390
0
  6
Continuous
 62
     3
100
AcDbLine
 10
4.280751
 20
6.014536
 30
0.0
 11
4.181875
 21
6.014536
 31
0.0
  0
LINE
  5
482
100
AcDbEntity
  8
TFR-TRI
390
0
  6
Continuous
 62
     3
100
AcDbLine
 10
5.477828
 20
0.06875
 30
0.0
 11
5.573827
 21
0.06875
 31
0.0
  0
LINE
  5
483
100
AcDbEntity
  8
TFR-TRI
390
0
  6
Continuous
 62
     3
100
AcDbLine
 10
4.436299
 20
6.749586
 30
0.0
 11
4.436299
 21
6.86339
 31
0.0
  0
LINE
  5
484
100
AcDbEntity
  8
TFR-TRI
390
0
  6
Continuous
 62
     3
100
AcDbLine
 10
5.404828
 20
8.29386
 30
0.0
 11
5.646828
 21
8.29386
 31
0.0
  0
LINE
  5
485
100
AcDbEntity
  8
TFR-TRI
390
0
  6
Continuous
 62
    12
100
AcDbLine
 10
5.745036
 20
3.969781
 30
0.0
 11
5.751762
 21
4.001489
 31
0.0
  0
LINE
  5
486
100
AcDbEntity
  8
TFR-TRI
390
0
  6
Continuous
 62
     3
100
AcDbLine
 10
5.083726
 20
6.530836
 30
0.0
 11
5.083726
 21
6.454353
 31
0.0
  0
LINE
  5
487
100
AcDbEntity
  8
TFR-TRI
390
0
  6
Continuous
 62
     3
100
AcDbLine
 10
2.789976
 20
5.037268
 30
0.0
 11
2.735885
 21
5.037268
 31
0.0
  0
LINE
  5
488
100
AcDbEntity
  8
TFR-TRI
390
0
  6
Continuous
 62
     3
100
AcDbLine
 10
10.835
 20
4.10193
 30
0.0
 11
10.835
 21
4.19568
 31
0.0
  0
LINE
  5
489
100
AcDbEntity
  8
TFR-TRI
390
0
  6
Continuous
 62
    12
100
AcDbLine
 10
5.784775
 20
3.305259
 30
0.0
 11
5.772224
 21
3.321784
 31
0.0
  0
LINE
  5
48A
100
AcDbEntity
  8
TFR-TRI
390
0
  6
Continuous
 62
     3
100
AcDbLine
 10
5.367101
 20
6.658033
 30
0.0
 11
5.367101
 21
6.826783
 31
0.0
  0
LINE
  5
48B
100
AcDbEntity
  8
TFR-TRI
390
0
  6
Continuous
 62
     3
100
AcDbLine
 10
4.4663
 20
6.749586
 30
0.0
 11
4.4663
 21
6.751429
 31
0.0
  0
LINE
  5
48C
100
AcDbEntity
  8
TFR-TRI
390
0
  6
Continuous
 62
    12
100
AcDbLine
 10
7.560731
 20
4.067108
 30
0.0
 11
7.525045
 21
4.077648
 31
0.0
  0
LINE
  5
48D
100
AcDbEntity
  8
TFR-TRI
390
0
  6
Continuous
 62
     3
100
AcDbLine
 10
5.081727
 20
6.530836
 30
0.0
 11
5.081727
 21
6.461817
 31
0.0
  0
LINE
  5
48E
100
AcDbEntity
  8
TFR-TRI
390
0
  6
Continuous
 62
     3
100
AcDbLine
 10
5.400827
 20
0.165
 30
0.0
 11
5.494577
 21
0.165
 31
0.0
  0
LINE
  5
48F
100
AcDbEntity
  8
TFR-TRI
390
0
  6
Continuous
 62
     3
100
AcDbLine
 10
3.844501
 20
7.343336
 30
0.0
 11
3.874501
 21
7.343336
 31
0.0
  0
LINE
  5
490
100
AcDbEntity
  8
TFR-TRI
390
0
  6
Continuous
 62
     3
100
AcDbLine
 10
5.492827
 20
8.40386
 30
0.0
 11
5.558827
 21
8.40386
 31
0.0
  0
LINE
  5
491
100
AcDbEntity
  8
TFR-TRI
390
0
  6
Continuous
 62
     3
100
AcDbLine
 10
5.079726
 20
7.218336
 30
0.0
 11
5.079726
 21
7.279891
 31
0.0
  0
LINE
  5
492
100
AcDbEntity
  8
TFR-TRI
390
0
  6
Continuous
 62
    12
100
AcDbLine
 10
1.186726
 20
3.322589
 30
0.0
 11
2.641726
 21
3.322589
 31
0.0
  0
LINE
  5
493
100
AcDbEntity
  8
TFR-TRI
390
0
  6
Continuous
 62
     3
100
AcDbLine
 10
3.828251
 20
5.980536
 30
0.0
 11
3.852485
 21
5.980536
 31
0.0
  0
LINE
  5
494
100
AcDbEntity
  8
TFR-TRI
390
0
  6
Continuous
 62
     3
100
AcDbLine
 10
4.50926
 20
3.447589
 30
0.0
 11
4.50926
 21
3.430818
 31
0.0
  0
LINE
  5
495
100
AcDbEntity
  8
TFR-TRI
390
0
  6
Continuous
 62
     3
100
AcDbLine
 10
3.844501
 20
6.874586
 30
0.0
 11
3.874501
 21
6.874586
 31
0.0
  0
LINE
  5
496
100
AcDbEntity
  8
TFR-TRI
390
0
  6
Continuous
 62
    12
100
AcDbLine
 10
7.521506
 20
4.446784
 30
0.0
 11
7.533911
 21
4.465179
 31
0.0
  0
LINE
  5
497
100
AcDbEntity
  8
TFR-TRI
390
0
  6
Continuous
 62
     3
100
AcDbLine
 10
10.835
 20
4.34193
 30
0.0
 11
10.8475
 21
4.34193
 31
0.0
  0
LINE
  5
498
100
AcDbEntity
  8
TFR-TRI
390
0
  6
Continuous
 62
     3
100
AcDbLine
 10
0.172905
 20
4.31693
 30
0.0
 11
0.216655
 21
4.31693
 31
0.0
  0
LINE
  5
499
100
AcDbEntity
  8
TFR-TRI
390
0
  6
Continuous
 62
     3
100
AcDbLine
 10
4.280751
 20
6.020536
 30
0.0
 11
4.204268
 21
6.020536
 31
0.0
  0
LINE
  5
49A
100
AcDbEntity
  8
TFR-TRI
390
0
  6
Continuous
 62
     3
100
AcDbLine
 10
3.859501
 20
6.919586
 30
0.0
 11
3.859501
 21
7.039586
 31
0.0
  0
LINE
  5
49B
100
AcDbEntity
  8
TFR-TRI
390
0
  6
Continuous
 62
     3
100
AcDbLine
 10
5.081727
 20
7.218336
 30
0.0
 11
5.081727
 21
7.287355
 31
0.0
  0
LINE
  5
49C
100
AcDbEntity
  8
TFR-TRI
390
0
  6
Continuous
 62
     3
100
AcDbLine
 10
5.481828
 20
0.06375
 30
0.0
 11
5.569828
 21
0.06375
 31
0.0
  0
LINE
  5
49D
100
AcDbEntity
  8
TFR-TRI
390
0
  6
Continuous
 62
     3
100
AcDbLine
 10
4.44726
 20
4.428638
 30
0.0
 11
4.44726
 21
4.430481
 31
0.0
  0
LINE
  5
49E
100
AcDbEntity
  8
TFR-TRI
390
0
  6
Continuous
 62
     7
100
AcDbLine
 10
0.301655
 20
0.511645
 30
0.0
 11
7.357996
 21
0.511645
 31
0.0
  0
LINE
  5
49F
100
AcDbEntity
  8
TFR-TRI
390
0
  6
Continuous
 62
     3
100
AcDbLine
 10
5.125726
 20
7.218336
 30
0.0
 11
5.125726
 21
7.235107
 31
0.0
  0
LINE
  5
4A0
100
AcDbEntity
  8
TFR-TRI
390
0
  6
Continuous
 62
     3
100
AcDbLine
 10
5.683893
 20
6.343336
 30
0.0
 11
5.683893
 21
6.341494
 31
0.0
  0
LINE
  5
4A1
100
AcDbEntity
  8
TFR-TRI
390
0
  6
Continuous
 62
     7
100
AcDbLine
 10
6.585438
 20
2.057382
 30
0.0
 11
10.75
 21
2.057382
 31
0.0
  0
LINE
  5
4A2
100
AcDbEntity
  8
TFR-TRI
390
0
  6
Continuous
 62
     3
100
AcDbLine
 10
5.097726
 20
6.530836
 30
0.0
 11
5.097726
 21
6.409568
 31
0.0
  0
LINE
  5
4A3
100
AcDbEntity
  8
TFR-TRI
390
0
  6
Continuous
 62
     3
100
AcDbLine
 10
5.425828
 20
0.13375
 30
0.0
 11
5.625827
 21
0.13375
 31
0.0
  0
LINE
  5
4A4
100
AcDbEntity
  8
TFR-TRI
390
0
  6
Continuous
 62
    12
100
AcDbLine
 10
7.607148
 20
3.805653
 30
0.0
 11
7.569328
 21
3.783763
 31
0.0
  0
LINE
  5
4A5
100
AcDbEntity
  8
TFR-TRI
390
0
  6
Continuous
 62
     3
100
AcDbLine
 10
4.51326
 20
4.428638
 30
0.0
 11
4.51326
 21
4.430481
 31
0.0
  0
LINE
  5
4A6
100
AcDbEntity
  8
TFR-TRI
390
0
  6
Continuous
 62
    12
100
AcDbLine
 10
5.988793
 20
3.571263
 30
0.0
 11
5.882862
 21
3.509952
 31
0.0
  0
LINE
  5
4A7
100
AcDbEntity
  8
TFR-TRI
390
0
  6
Continuous
 62
    12
100
AcDbLine
 10
2.755501
 20
6.218336
 30
0.0
 11
2.755501
 21
7.530836
 31
0.0
  0
LINE
  5
4A8
100
AcDbEntity
  8
TFR-TRI
390
0
  6
Continuous
 62
     3
100
AcDbLine
 10
10.75
 20
4.22193
 30
0.0
 11
10.985
 21
4.22193
 31
0.0
  0
LINE
  5
4A9
100
AcDbEntity
  8
TFR-TRI
390
0
  6
Continuous
 62
    12
100
AcDbLine
 10
2.669406
 20
7.530836
 30
0.0
 11
2.682264
 21
7.530836
 31
0.0
  0
LINE
  5
4AA
100
AcDbEntity
  8
TFR-TRI
390
0
  6
Continuous
 62
     3
100
AcDbLine
 10
10.835
 20
4.29193
 30
0.0
 11
10.91
 21
4.29193
 31
0.0
  0
LINE
  5
4AB
100
AcDbEntity
  8
TFR-TRI
390
0
  6
Continuous
 62
    12
100
AcDbLine
 10
3.859501
 20
6.979586
 30
0.0
 11
3.953251
 21
6.979586
 31
0.0
  0
LINE
  5
4AC
100
AcDbEntity
  8
TFR-TRI
390
0
  6
Continuous
 62
     3
100
AcDbLine
 10
5.494577
 20
0.25
 30
0.0
 11
5.494577
 21
0.165
 31
0.0
  0
LINE
  5
4AD
100
AcDbEntity
  8
TFR-TRI
390
0
  6
Continuous
 62
     3
100
AcDbLine
 10
4.44726
 20
3.447589
 30
0.0
 11
4.44726
 21
3.445746
 31
0.0
  0
LINE
  5
4AE
100
AcDbEntity
  8
TFR-TRI
390
0
  6
Continuous
 62
     3
100
AcDbLine
 10
1.124226
 20
5.321593
 30
0.0
 11
1.085063
 21
5.321593
 31
0.0
  0
LINE
  5
4AF
100
AcDbEntity
  8
TFR-TRI
390
0
  6
Continuous
 62
     3
100
AcDbLine
 10
4.464299
 20
7.468336
 30
0.0
 11
4.464299
 21
7.45903
 31
0.0
  0
LINE
  5
4B0
100
AcDbEntity
  8
TFR-TRI
390
0
  6
Continuous
 62
     3
100
AcDbLine
 10
4.030751
 20
5.015268
 30
0.0
 11
4.144555
 21
5.015268
 31
0.0
  0
LINE
  5
4B1
100
AcDbEntity
  8
TFR-TRI
390
0
  6
Continuous
 62
    12
100
AcDbLine
 10
7.085592
 20
3.465334
 30
0.0
 11
7.107849
 21
3.469117
 31
0.0
  0
LINE
  5
4B2
100
AcDbEntity
  8
TFR-TRI
390
0
  6
Continuous
 62
     3
100
AcDbLine
 10
4.280751
 20
5.994536
 30
0.0
 11
4.204268
 21
5.994536
 31
0.0
  0
LINE
  5
4B3
100
AcDbEntity
  8
TFR-TRI
390
0
  6
Continuous
 62
     3
100
AcDbLine
 10
4.030751
 20
5.003268
 30
0.0
 11
4.09977
 21
5.003268
 31
0.0
  0
LINE
  5
4B4
100
AcDbEntity
  8
TFR-TRI
390
0
  6
Continuous
 62
     3
100
AcDbLine
 10
4.4583
 20
6.749586
 30
0.0
 11
4.4583
 21
6.781285
 31
0.0
  0
LINE
  5
4B5
100
AcDbEntity
  8
TFR-TRI
390
0
  6
Continuous
 62
     3
100
AcDbLine
 10
4.4333
 20
7.343336
 30
0.0
 11
4.466793
 21
7.468336
 31
0.0
  0
LINE
  5
4B6
100
AcDbEntity
  8
TFR-TRI
390
0
  6
Continuous
 62
     3
100
AcDbLine
 10
4.030751
 20
5.011268
 30
0.0
 11
4.129626
 21
5.011268
 31
0.0
  0
LINE
  5
4B7
100
AcDbEntity
  8
TFR-TRI
390
0
  6
Continuous
 62
     3
100
AcDbLine
 10
4.280751
 20
5.996536
 30
0.0
 11
4.196803
 21
5.996536
 31
0.0
  0
LINE
  5
4B8
100
AcDbEntity
  8
TFR-TRI
390
0
  6
Continuous
 62
    12
100
AcDbLine
 10
7.038026
 20
4.258719
 30
0.0
 11
7.06152
 21
4.2587
 31
0.0
  0
LINE
  5
4B9
100
AcDbEntity
  8
TFR-TRI
390
0
  6
Continuous
 62
     3
100
AcDbLine
 10
2.789976
 20
5.051761
 30
0.0
 11
2.664976
 21
5.018268
 31
0.0
  0
LINE
  5
4BA
100
AcDbEntity
  8
TFR-TRI
390
0
  6
Continuous
 62
     7
100
AcDbLine
 10
10.75
 20
1.54347
 30
0.0
 11
6.585438
 21
1.54347
 31
0.0
  0
LINE
  5
4BB
100
AcDbEntity
  8
TFR-TRI
390
0
  6
Continuous
 62
     3
100
AcDbLine
 10
5.655893
 20
6.343336
 30
0.0
 11
5.655893
 21
6.236997
 31
0.0
  0
LINE
  5
4BC
100
AcDbEntity
  8
TFR-TRI
390
0
  6
Continuous
 62
     3
100
AcDbLine
 10
5.075727
 20
7.218336
 30
0.0
 11
5.075727
 21
7.264963
 31
0.0
  0
LINE
  5
4BD
100
AcDbEntity
  8
TFR-TRI
390
0
  6
Continuous
 62
     3
100
AcDbLine
 10
4.424299
 20
6.749586
 30
0.0
 11
4.424299
 21
6.840998
 31
0.0
  0
LINE
  5
4BE
100
AcDbEntity
  8
TFR-TRI
390
0
  6
Continuous
 62
     7
100
AcDbLine
 10
0.646582
 20
0.25
 30
0.0
 11
0.646582
 21
2.573295
 31
0.0
  0
LINE
  5
4BF
100
AcDbEntity
  8
TFR-TRI
390
0
  6
Continuous
 62
    12
100
AcDbLine
 10
7.523524
 20
4.076809
 30
0.0
 11
7.524285
 21
4.077219
 31
0.0
  0
LINE
  5
4C0
100
AcDbEntity
  8
TFR-TRI
390
0
  6
Continuous
 62
     3
100
AcDbLine
 10
1.124226
 20
5.339593
 30
0.0
 11
1.017886
 21
5.339593
 31
0.0
  0
LINE
  5
4C1
100
AcDbEntity
  8
TFR-TRI
390
0
  6
Continuous
 62
     3
100
AcDbLine
 10
4.280751
 20
6.008536
 30
0.0
 11
4.159482
 21
6.008536
 31
0.0
  0
LINE
  5
4C2
100
AcDbEntity
  8
TFR-TRI
390
0
  6
Continuous
 62
    12
100
AcDbLine
 10
2.727527
 20
6.218336
 30
0.0
 11
2.755501
 21
6.218336
 31
0.0
  0
LINE
  5
4C3
100
AcDbEntity
  8
TFR-TRI
390
0
  6
Continuous
 62
     3
100
AcDbLine
 10
3.828251
 20
6.000536
 30
0.0
 11
3.927126
 21
6.000536
 31
0.0
  0
LINE
  5
4C4
100
AcDbEntity
  8
TFR-TRI
390
0
  6
Continuous
 62
    12
100
AcDbLine
 10
7.397144
 20
4.070682
 30
0.0
 11
7.399592
 21
4.066106
 31
0.0
  0
LINE
  5
4C5
100
AcDbEntity
  8
TFR-TRI
390
0
  6
Continuous
 62
    12
100
AcDbLine
 10
7.586102
 20
4.499281
 30
0.0
 11
7.600705
 21
4.503839
 31
0.0
  0
LINE
  5
4C6
100
AcDbEntity
  8
TFR-TRI
390
0
  6
Continuous
 62
     3
100
AcDbLine
 10
3.953251
 20
6.178336
 30
0.0
 11
3.953251
 21
5.882536
 31
0.0
  0
LINE
  5
4C7
100
AcDbEntity
  8
TFR-TRI
390
0
  6
Continuous
 62
    12
100
AcDbLine
 10
1.003927
 20
3.389864
 30
0.0
 11
1.017794
 21
3.389864
 31
0.0
  0
LINE
  5
4C8
100
AcDbEntity
  8
TFR-TRI
390
0
  6
Continuous
 62
    12
100
AcDbLine
 10
2.732251
 20
4.463114
 30
0.0
 11
2.664976
 21
4.463114
 31
0.0
  0
LINE
  5
4C9
100
AcDbEntity
  8
TFR-TRI
390
0
  6
Continuous
 62
     3
100
AcDbLine
 10
5.113726
 20
7.218336
 30
0.0
 11
5.113726
 21
7.279891
 31
0.0
  0
LINE
  5
4CA
100
AcDbEntity
  8
TFR-TRI
390
0
  6
Continuous
 62
    12
100
AcDbLine
 10
2.669406
 20
6.218336
 30
0.0
 11
2.682264
 21
6.218336
 31
0.0
  0
LINE
  5
4CB
100
AcDbEntity
  8
TFR-TRI
390
0
  6
Continuous
 62
    12
100
AcDbLine
 10
7.667189
 20
3.823438
 30
0.0
 11
7.678497
 21
3.853868
 31
0.0
  0
LINE
  5
4CC
100
AcDbEntity
  8
TFR-TRI
390
0
  6
Continuous
 62
    12
100
AcDbLine
 10
7.634171
 20
3.774479
 30
0.0
 11
7.652071
 21
3.79636
 31
0.0
  0
LINE
  5
4CD
100
AcDbEntity
  8
TFR-TRI
390
0
  6
Continuous
 62
    12
100
AcDbLine
 10
7.594456
 20
4.460317
 30
0.0
 11
7.59357
 21
4.482433
 31
0.0
  0
LINE
  5
4CE
100
AcDbEntity
  8
TFR-TRI
390
0
  6
Continuous
 62
     3
100
AcDbLine
 10
4.47726
 20
3.447589
 30
0.0
 11
4.47726
 21
3.333785
 31
0.0
  0
LINE
  5
4CF
100
AcDbEntity
  8
TFR-TRI
390
0
  6
Continuous
 62
    12
100
AcDbLine
 10
2.682264
 20
7.530836
 30
0.0
 11
2.702291
 21
7.530836
 31
0.0
  0
LINE
  5
4D0
100
AcDbEntity
  8
TFR-TRI
390
0
  6
Continuous
 62
     3
100
AcDbLine
 10
4.030751
 20
5.023268
 30
0.0
 11
4.13709
 21
5.023268
 31
0.0
  0
LINE
  5
4D1
100
AcDbEntity
  8
TFR-TRI
390
0
  6
Continuous
 62
     3
100
AcDbLine
 10
5.524827
 20
8.44386
 30
0.0
 11
5.526827
 21
8.44386
 31
0.0
  0
LINE
  5
4D2
100
AcDbEntity
  8
TFR-TRI
390
0
  6
Continuous
 62
    12
100
AcDbLine
 10
5.892867
 20
3.484548
 30
0.0
 11
5.886328
 21
3.484817
 31
0.0
  0
LINE
  5
4D3
100
AcDbEntity
  8
TFR-TRI
390
0
  6
Continuous
 62
    12
100
AcDbLine
 10
4.155751
 20
6.405836
 30
0.0
 11
4.155751
 21
7.343336
 31
0.0
  0
LINE
  5
4D4
100
AcDbEntity
  8
TFR-TRI
390
0
  6
Continuous
 62
     3
100
AcDbLine
 10
4.50726
 20
4.428638
 30
0.0
 11
4.50726
 21
4.452873
 31
0.0
  0
LINE
  5
4D5
100
AcDbEntity
  8
TFR-TRI
390
0
  6
Continuous
 62
     3
100
AcDbLine
 10
5.127727
 20
6.530836
 30
0.0
 11
5.127727
 21
6.52153
 31
0.0
  0
LINE
  5
4D6
100
AcDbEntity
  8
TFR-TRI
390
0
  6
Continuous
 62
     3
100
AcDbLine
 10
4.46726
 20
3.447589
 30
0.0
 11
4.46726
 21
3.371105
 31
0.0
  0
LINE
  5
4D7
100
AcDbEntity
  8
TFR-TRI
390
0
  6
Continuous
 62
     3
100
AcDbLine
 10
4.4203
 20
7.468336
 30
0.0
 11
4.4203
 21
7.391853
 31
0.0
  0
LINE
  5
4D8
100
AcDbEntity
  8
TFR-TRI
390
0
  6
Continuous
 62
     3
100
AcDbLine
 10
4.030751
 20
5.005268
 30
0.0
 11
4.107234
 21
5.005268
 31
0.0
  0
LINE
  5
4D9
100
AcDbEntity
  8
TFR-TRI
390
0
  6
Continuous
 62
     3
100
AcDbLine
 10
1.124226
 20
5.333593
 30
0.0
 11
1.040278
 21
5.333593
 31
0.0
  0
LINE
  5
4DA
100
AcDbEntity
  8
TFR-TRI
390
0
  6
Continuous
 62
     3
100
AcDbLine
 10
5.494577
 20
0.21875
 30
0.0
 11
5.557077
 21
0.21875
 31
0.0
  0
LINE
  5
4DB
100
AcDbEntity
  8
TFR-TRI
390
0
  6
Continuous
 62
     3
100
AcDbLine
 10
5.099726
 20
6.530836
 30
0.0
 11
5.099726
 21
6.417032
 31
0.0
  0
LINE
  5
4DC
100
AcDbEntity
  8
TFR-TRI
390
0
  6
Continuous
 62
     3
100
AcDbLine
 10
2.789976
 20
5.023268
 30
0.0
 11
2.683636
 21
5.023268
 31
0.0
  0
LINE
  5
4DD
100
AcDbEntity
  8
TFR-TRI
390
0
  6
Continuous
 62
     3
100
AcDbLine
 10
4.434299
 20
6.749586
 30
0.0
 11
4.434299
 21
6.870854
 31
0.0
  0
LINE
  5
4DE
100
AcDbEntity
  8
TFR-TRI
390
0
  6
Continuous
 62
     3
100
AcDbLine
 10
5.408827
 20
8.29886
 30
0.0
 11
5.642828
 21
8.29886
 31
0.0
  0
LINE
  5
4DF
100
AcDbEntity
  8
TFR-TRI
390
0
  6
Continuous
 62
    12
100
AcDbLine
 10
7.589953
 20
4.372343
 30
0.0
 11
7.552134
 21
4.350453
 31
0.0
  0
LINE
  5
4E0
100
AcDbEntity
  8
TFR-TRI
390
0
  6
Continuous
 62
     3
100
AcDbLine
 10
4.45926
 20
3.447589
 30
0.0
 11
4.45926
 21
3.400962
 31
0.0
  0
LINE
  5
4E1
100
AcDbEntity
  8
TFR-TRI
390
0
  6
Continuous
 62
     3
100
AcDbLine
 10
5.085726
 20
6.530836
 30
0.0
 11
5.085726
 21
6.446889
 31
0.0
  0
LINE
  5
4E2
100
AcDbEntity
  8
TFR-TRI
390
0
  6
Continuous
 62
     3
100
AcDbLine
 10
4.030751
 20
5.315593
 30
0.0
 11
4.047521
 21
5.315593
 31
0.0
  0
LINE
  5
4E3
100
AcDbEntity
  8
TFR-TRI
390
0
  6
Continuous
 62
     3
100
AcDbLine
 10
2.789976
 20
5.035268
 30
0.0
 11
2.72842
 21
5.035268
 31
0.0
  0
LINE
  5
4E4
100
AcDbEntity
  8
TFR-TRI
390
0
  6
Continuous
 62
     7
100
AcDbLine
 10
10.75
 20
3.035295
 30
0.0
 11
6.585438
 21
3.035295
 31
0.0
  0
LINE
  5
4E5
100
AcDbEntity
  8
TFR-TRI
390
0
  6
Continuous
 62
    12
100
AcDbLine
 10
1.017794
 20
3.322589
 30
0.0
 11
1.003927
 21
3.322589
 31
0.0
  0
LINE
  5
4E6
100
AcDbEntity
  8
TFR-TRI
390
0
  6
Continuous
 62
     3
100
AcDbLine
 10
4.030751
 20
5.311594
 30
0.0
 11
4.032593
 21
5.311594
 31
0.0
  0
LINE
  5
4E7
100
AcDbEntity
  8
TFR-TRI
390
0
  6
Continuous
 62
     3
100
AcDbLine
 10
5.650893
 20
7.530836
 30
0.0
 11
5.617399
 21
7.405836
 31
0.0
  0
LINE
  5
4E8
100
AcDbEntity
  8
TFR-TRI
390
0
  6
Continuous
 62
     3
100
AcDbLine
 10
4.464299
 20
6.749586
 30
0.0
 11
4.464299
 21
6.758893
 31
0.0
  0
LINE
  5
4E9
100
AcDbEntity
  8
TFR-TRI
390
0
  6
Continuous
 62
     3
100
AcDbLine
 10
10.835
 20
4.15693
 30
0.0
 11
10.90375
 21
4.15693
 31
0.0
  0
LINE
  5
4EA
100
AcDbEntity
  8
TFR-TRI
390
0
  6
Continuous
 62
     3
100
AcDbLine
 10
0.110405
 20
4.26693
 30
0.0
 11
0.216655
 21
4.26693
 31
0.0
  0
LINE
  5
4EB
100
AcDbEntity
  8
TFR-TRI
390
0
  6
Continuous
 62
     3
100
AcDbLine
 10
4.48026
 20
3.322589
 30
0.0
 11
4.513753
 21
3.447589
 31
0.0
  0
LINE
  5
4EC
100
AcDbEntity
  8
TFR-TRI
390
0
  6
Continuous
 62
    12
100
AcDbLine
 10
7.612921
 20
4.10121
 30
0.0
 11
7.59855
 21
4.088998
 31
0.0
  0
LINE
  5
4ED
100
AcDbEntity
  8
TFR-TRI
390
0
  6
Continuous
 62
     3
100
AcDbLine
 10
4.290706
 20
6.930947
 30
0.0
 11
4.335706
 21
6.930947
 31
0.0
  0
LINE
  5
4EE
100
AcDbEntity
  8
TFR-TRI
390
0
  6
Continuous
 62
     3
100
AcDbLine
 10
5.093726
 20
6.530836
 30
0.0
 11
5.093726
 21
6.417032
 31
0.0
  0
LINE
  5
4EF
100
AcDbEntity
  8
TFR-TRI
390
0
  6
Continuous
 62
     3
100
AcDbLine
 10
5.496828
 20
8.40886
 30
0.0
 11
5.554828
 21
8.40886
 31
0.0
  0
LINE
  5
4F0
100
AcDbEntity
  8
TFR-TRI
390
0
  6
Continuous
 62
     3
100
AcDbLine
 10
5.637893
 20
7.405836
 30
0.0
 11
5.637893
 21
7.482319
 31
0.0
  0
LINE
  5
4F1
100
AcDbEntity
  8
TFR-TRI
390
0
  6
Continuous
 62
    12
100
AcDbLine
 10
5.779034
 20
3.928415
 30
0.0
 11
5.743348
 21
3.938955
 31
0.0
  0
LINE
  5
4F2
100
AcDbEntity
  8
TFR-TRI
390
0
  6
Continuous
 62
    12
100
AcDbLine
 10
1.186726
 20
3.322589
 30
0.0
 11
1.145003
 21
3.322589
 31
0.0
  0
LINE
  5
4F3
100
AcDbEntity
  8
TFR-TRI
390
0
  6
Continuous
 62
     3
100
AcDbLine
 10
8.600599
 20
1.203949
 30
0.0
 11
8.606505
 21
1.203949
 31
0.0
  0
LINE
  5
4F4
100
AcDbEntity
  8
TFR-TRI
390
0
  6
Continuous
 62
     3
100
AcDbLine
 10
3.828251
 20
5.982536
 30
0.0
 11
3.859949
 21
5.982536
 31
0.0
  0
LINE
  5
4F5
100
AcDbEntity
  8
TFR-TRI
390
0
  6
Continuous
 62
     3
100
AcDbLine
 10
0.197905
 20
4.33693
 30
0.0
 11
0.216655
 21
4.33693
 31
0.0
  0
LINE
  5
4F6
100
AcDbEntity
  8
TFR-TRI
390
0
  6
Continuous
 62
     3
100
AcDbLine
 10
3.951376
 20
7.343336
 30
0.0
 11
3.908251
 21
7.343336
 31
0.0
  0
LINE
  5
4F7
100
AcDbEntity
  8
TFR-TRI
390
0
  6
Continuous
 62
     3
100
AcDbLine
 10
3.828251
 20
6.026536
 30
0.0
 11
3.882342
 21
6.026536
 31
0.0
  0
LINE
  5
4F8
100
AcDbEntity
  8
TFR-TRI
390
0
  6
Continuous
 62
     3
100
AcDbLine
 10
5.449828
 20
0.10375
 30
0.0
 11
5.601828
 21
0.10375
 31
0.0
  0
LINE
  5
4F9
100
AcDbEntity
  8
TFR-TRI
390
0
  6
Continuous
 62
     3
100
AcDbLine
 10
0.172905
 20
4.13693
 30
0.0
 11
0.216655
 21
4.13693
 31
0.0
  0
LINE
  5
4FA
100
AcDbEntity
  8
TFR-TRI
390
0
  6
Continuous
 62
    12
100
AcDbLine
 10
5.873364
 20
3.912068
 30
0.0
 11
5.879662
 21
3.919766
 31
0.0
  0
LINE
  5
4FB
100
AcDbEntity
  8
TFR-TRI
390
0
  6
Continuous
 62
    12
100
AcDbLine
 10
7.402756
 20
3.991358
 30
0.0
 11
7.393009
 21
3.97965
 31
0.0
  0
LINE
  5
4FC
100
AcDbEntity
  8
TFR-TRI
390
0
  6
Continuous
 62
     3
100
AcDbLine
 10
5.444828
 20
8.34386
 30
0.0
 11
5.606828
 21
8.34386
 31
0.0
  0
LINE
  5
4FD
100
AcDbEntity
  8
TFR-TRI
390
0
  6
Continuous
 62
     3
100
AcDbLine
 10
5.083726
 20
7.218336
 30
0.0
 11
5.083726
 21
7.294819
 31
0.0
  0
LINE
  5
4FE
100
AcDbEntity
  8
TFR-TRI
390
0
  6
Continuous
 62
     3
100
AcDbLine
 10
4.44726
 20
4.428638
 30
0.0
 11
4.44726
 21
4.430481
 31
0.0
  0
LINE
  5
4FF
100
AcDbEntity
  8
TFR-TRI
390
0
  6
Continuous
 62
     7
100
AcDbLine
 10
0.301655
 20
0.784601
 30
0.0
 11
7.357996
 21
0.784601
 31
0.0
  0
LINE
  5
500
100
AcDbEntity
  8
TFR-TRI
390
0
  6
Continuous
 62
     7
100
AcDbLine
 10
9.156445
 20
0.784601
 30
0.0
 11
10.75
 21
0.784601
 31
0.0
  0
LINE
  5
501
100
AcDbEntity
  8
TFR-TRI
390
0
  6
Continuous
 62
    12
100
AcDbLine
 10
5.772224
 20
3.321784
 30
0.0
 11
5.763962
 21
3.34463
 31
0.0
  0
ARC
  5
502
100
AcDbEntity
  8
TFR-TRI
390
0
  6
Continuous
 62
    12
100
AcDbCircle
 10
3.455626
 20
6.829586
 30
0.0
 40
0.01125
100
AcDbArc
 50
180.0
 51
360.0
  0
ARC
  5
503
100
AcDbEntity
  8
TFR-TRI
390
0
  6
Continuous
 62
    12
100
AcDbCircle
 10
3.968251
 20
7.343336
 30
0.0
 40
0.1875
100
AcDbArc
 50
0.0
 51
90.0
  0
ARC
  5
504
100
AcDbEntity
  8
TFR-TRI
390
0
  6
Continuous
 62
    12
100
AcDbCircle
 10
3.968251
 20
6.405836
 30
0.0
 40
0.1875
100
AcDbArc
 50
270.0
 51
360.0
  0
ARC
  5
505
100
AcDbEntity
  8
TFR-TRI
390
0
  6
Continuous
 62
    12
100
AcDbCircle
 10
1.186726
 20
7.343336
 30
0.0
 40
0.1875
100
AcDbArc
 50
90.0
 51
180.0
  0
ARC
  5
506
100
AcDbEntity
  8
TFR-TRI
390
0
  6
Continuous
 62
    12
100
AcDbCircle
 10
1.569976
 20
6.537086
 30
0.0
 40
0.0225
100
AcDbArc
 50
270.0
 51
360.0
  0
ARC
  5
507
100
AcDbEntity
  8
TFR-TRI
390
0
  6
Continuous
 62
    12
100
AcDbCircle
 10
3.455626
 20
6.829586
 30
0.0
 40
0.05625
100
AcDbArc
 50
180.0
 51
360.0
  0
ARC
  5
508
100
AcDbEntity
  8
TFR-TRI
390
0
  6
Continuous
 62
    12
100
AcDbCircle
 10
2.641726
 20
3.413114
 30
0.0
 40
0.02325
100
AcDbArc
 50
270.0
 51
360.0
  0
ARC
  5
509
100
AcDbEntity
  8
TFR-TRI
390
0
  6
Continuous
 62
    12
100
AcDbCircle
 10
3.953251
 20
6.405836
 30
0.0
 40
0.105
100
AcDbArc
 50
270.0
 51
450.0
  0
ARC
  5
50A
100
AcDbEntity
  8
TFR-TRI
390
0
  6
Continuous
 62
    12
100
AcDbCircle
 10
1.569976
 20
7.212086
 30
0.0
 40
0.0225
100
AcDbArc
 50
0.0
 51
90.0
  0
ARC
  5
50B
100
AcDbEntity
  8
TFR-TRI
390
0
  6
Continuous
 62
    12
100
AcDbCircle
 10
3.953251
 20
6.874586
 30
0.0
 40
0.105
100
AcDbArc
 50
270.0
 51
450.0
  0
ARC
  5
50C
100
AcDbEntity
  8
TFR-TRI
390
0
  6
Continuous
 62
    12
100
AcDbCircle
 10
3.859501
 20
6.405836
 30
0.0
 40
0.105
100
AcDbArc
 50
90.0
 51
270.0
  0
ARC
  5
50D
100
AcDbEntity
  8
TFR-TRI
390
0
  6
Continuous
 62
    12
100
AcDbCircle
 10
2.755501
 20
4.463114
 30
0.0
 40
0.02325
100
AcDbArc
 50
90.0
 51
180.0
  0
ARC
  5
50E
100
AcDbEntity
  8
TFR-TRI
390
0
  6
Continuous
 62
    12
100
AcDbCircle
 10
1.243726
 20
6.537086
 30
0.0
 40
0.0225
100
AcDbArc
 50
180.0
 51
270.0
  0
ARC
  5
50F
100
AcDbEntity
  8
TFR-TRI
390
0
  6
Continuous
 62
    12
100
AcDbCircle
 10
2.755501
 20
4.463114
 30
0.0
 40
0.090525
100
AcDbArc
 50
90.0
 51
180.0
  0
ARC
  5
510
100
AcDbEntity
  8
TFR-TRI
390
0
  6
Continuous
 62
    12
100
AcDbCircle
 10
3.859501
 20
7.343336
 30
0.0
 40
0.105
100
AcDbArc
 50
90.0
 51
270.0
  0
ARC
  5
511
100
AcDbEntity
  8
TFR-TRI
390
0
  6
Continuous
 62
    12
100
AcDbCircle
 10
1.186726
 20
6.405836
 30
0.0
 40
0.1875
100
AcDbArc
 50
180.0
 51
270.0
  0
ARC
  5
512
100
AcDbEntity
  8
TFR-TRI
390
0
  6
Continuous
 62
    12
100
AcDbCircle
 10
3.859501
 20
6.874586
 30
0.0
 40
0.105
100
AcDbArc
 50
90.0
 51
270.0
  0
ARC
  5
513
100
AcDbEntity
  8
TFR-TRI
390
0
  6
Continuous
 62
    12
100
AcDbCircle
 10
3.455626
 20
6.919586
 30
0.0
 40
0.01125
100
AcDbArc
 50
0.0
 51
180.0
  0
ARC
  5
514
100
AcDbEntity
  8
TFR-TRI
390
0
  6
Continuous
 62
    12
100
AcDbCircle
 10
1.243726
 20
7.212086
 30
0.0
 40
0.0225
100
AcDbArc
 50
90.0
 51
180.0
  0
ARC
  5
515
100
AcDbEntity
  8
TFR-TRI
390
0
  6
Continuous
 62
    12
100
AcDbCircle
 10
3.455626
 20
6.919586
 30
0.0
 40
0.05625
100
AcDbArc
 50
0.0
 51
180.0
  0
ARC
  5
516
100
AcDbEntity
  8
TFR-TRI
390
0
  6
Continuous
 62
    12
100
AcDbCircle
 10
3.953251
 20
7.343336
 30
0.0
 40
0.105
100
AcDbArc
 50
270.0
 51
450.0
  0
ARC
  5
517
100
AcDbEntity
  8
TFR-TRI
390
0
  6
Continuous
 62
    12
100
AcDbCircle
 10
2.641726
 20
3.413114
 30
0.0
 40
0.090525
100
AcDbArc
 50
270.0
 51
360.0
  0
MTEXT
  5
518
100
AcDbEntity
  8
TFR-TRI
390
0
  6
Continuous
 62
     3
100
AcDbMText
 10
9.004707
 20
7.133334
 30
0.0
 40
0.09
 41
0.0
 71
     7
 72
     5
  1
\W01.000;\Fsimplex.shx;104  g/EACH
  7
blockfont
210
0.0
220
0.0
230
1.0
 73
     2
 44
0.903614
  0
MTEXT
  5
51A
100
AcDbEntity
  8
TFR-TRI
390
0
  6
Continuous
 62
     7
100
AcDbMText
 10
6.295973
 20
0.314102
 30
0.0
 40
0.059805
 41
0.0
 71
     7
 72
     5
  1
\W01.000;\Fsimplex.shx;OTH
  7
blockfont
210
0.0
220
0.0
230
1.0
 73
     2
 44
0.903614
  0
MTEXT
  5
51B
100
AcDbEntity
  8
TFR-TRI
390
0
  6
Continuous
 62
     3
100
AcDbMText
 10
7.81293
 20
2.834469
 30
0.0
 40
0.093
 41
0.0
 71
     7
 72
     5
  1
\W01.000;\Fsimplex.shx;V10475BA_WMPVCMB_01.PRT
  7
blockfont
210
0.0
220
0.0
230
1.0
 73
     2
 44
0.903614
  0
MTEXT
  5
51C
100
AcDbEntity
  8
TFR-TRI
390
0
  6
Continuous
 62
     3
100
AcDbMText
 10
6.799987
 20
5.747489
 30
0.0
 40
0.09
 41
0.0
 71
     7
 72
     5
  1
\W01.000;\Fsimplex.shx;     8 - #10-32 X 1/2" SCREWS
  7
blockfont
210
0.0
220
0.0
230
1.0
 73
     2
 44
0.903614
  0
MTEXT
  5
51D
100
AcDbEntity
  8
TFR-TRI
390
0
  6
Continuous
 62
     3
100
AcDbMText
 10
6.799987
 20
6.827489
 30
0.0
 40
0.09
 41
0.0
 71
     7
 72
     5
  1
\W01.000;\Fsimplex.shx;NOTES: 
  7
blockfont
210
0.0
220
0.0
230
1.0
 73
     2
 44
0.903614
  0
MTEXT
  5
51E
100
AcDbEntity
  8
TFR-TRI
390
0
  6
Continuous
 62
     7
100
AcDbMText
 10
5.233606
 20
0.314102
 30
0.0
 40
0.059805
 41
0.0
 71
     7
 72
     5
  1
\W01.000;\Fsimplex.shx;R
  7
blockfont
210
0.0
220
0.0
230
1.0
 73
     2
 44
0.903614
  0
MTEXT
  5
51F
100
AcDbEntity
  8
TFR-TRI
390
0
  6
Continuous
 62
     3
100
AcDbMText
 10
6.799987
 20
5.207489
 30
0.0
 40
0.09
 41
0.0
 71
     7
 72
     5
  1
\W01.000;\Fsimplex.shx;  4. THE CENTER BRACKET KIT ALLOWS THE 
  7
blockfont
210
0.0
220
0.0
230
1.0
 73
     2
 44
0.903614
  0
MTEXT
  5
520
100
AcDbEntity
  8
TFR-TRI
390
0
  6
Continuous
 62
     3
100
AcDbMText
 10
6.799987
 20
6.017489
 30
0.0
 40
0.09
 41
0.0
 71
     7
 72
     5
  1
\W01.000;\Fsimplex.shx;     4 - BRACKETS
  7
blockfont
210
0.0
220
0.0
230
1.0
 73
     2
 44
0.903614
  0
MTEXT
  5
521
100
AcDbEntity
  8
TFR-TRI
390
0
  6
Continuous
 62
     3
100
AcDbMText
 10
8.252193
 20
1.719348
 30
0.0
 40
0.09
 41
0.0
 71
     7
 72
     5
  1
\W01.000;\Fsimplex.shx;(WMPVCMB)
  7
blockfont
210
0.0
220
0.0
230
1.0
 73
     2
 44
0.903614
  0
MTEXT
  5
522
100
AcDbEntity
  8
TFR-TRI
390
0
  6
Continuous
 62
     3
100
AcDbMText
 10
7.909069
 20
1.584348
 30
0.0
 40
0.09
 41
0.0
 71
     7
 72
     5
  1
\W01.000;\Fsimplex.shx;CUSTOMER DRAWING
  7
blockfont
210
0.0
220
0.0
230
1.0
 73
     2
 44
0.903614
  0
MTEXT
  5
523
100
AcDbEntity
  8
TFR-TRI
390
0
  6
Continuous
 62
     3
100
AcDbMText
 10
6.799987
 20
4.93749
 30
0.0
 40
0.09
 41
0.0
 71
     7
 72
     5
  1
\W01.000;\Fsimplex.shx;     BETWEEN TWO RACKS.
  7
blockfont
210
0.0
220
0.0
230
1.0
 73
     2
 44
0.903614
  0
MTEXT
  5
524
100
AcDbEntity
  8
TFR-TRI
390
0
  6
Continuous
 62
     7
100
AcDbMText
 10
8.663751
 20
2.106225
 30
0.0
 40
0.074756
 41
0.0
 71
     7
 72
     5
  1
\W01.000;\Fsimplex.shx;CORP.
  7
blockfont
210
0.0
220
0.0
230
1.0
 73
     2
 44
0.903614
  0
MTEXT
  5
525
100
AcDbEntity
  8
TFR-TRI
390
0
  6
Continuous
 62
     7
100
AcDbMText
 10
9.223091
 20
1.409566
 30
0.0
 40
0.037378
 41
0.0
 71
     7
 72
     5
  1
\W01.000;\Fsimplex.shx;UNLESS OTHERWISE SPECIFIED,
  7
blockfont
210
0.0
220
0.0
230
1.0
 73
     2
 44
0.903614
  0
MTEXT
  5
526
100
AcDbEntity
  8
TFR-TRI
390
0
  6
Continuous
 62
     3
100
AcDbMText
 10
3.241238
 20
4.72483
 30
0.0
 40
0.09
 41
0.0
 71
     7
 72
     5
  1
\W01.000;\Fsimplex.shx;50.5
  7
blockfont
210
0.0
220
0.0
230
1.0
 73
     2
 44
0.903614
  0
MTEXT
  5
527
100
AcDbEntity
  8
TFR-TRI
390
0
  6
Continuous
 62
     7
100
AcDbMText
 10
9.219542
 20
1.254298
 30
0.0
 40
0.037378
 41
0.0
 71
     7
 72
     5
  1
\W01.000;\Fsimplex.shx;ALL DIMENSIONS ARE GIVEN
  7
blockfont
210
0.0
220
0.0
230
1.0
 73
     2
 44
0.903614
  0
MTEXT
  5
528
100
AcDbEntity
  8
TFR-TRI
390
0
  6
Continuous
 62
     3
100
AcDbMText
 10
6.799987
 20
6.15249
 30
0.0
 40
0.09
 41
0.0
 71
     7
 72
     5
  1
\W01.000;\Fsimplex.shx;  2. COMPONENTS:
  7
blockfont
210
0.0
220
0.0
230
1.0
 73
     2
 44
0.903614
  0
MTEXT
  5
529
100
AcDbEntity
  8
TFR-TRI
390
0
  6
Continuous
 62
     3
100
AcDbMText
 10
7.451004
 20
1.06023
 30
0.0
 40
0.063
 41
0.0
 71
     7
 72
     5
  1
\W01.000;\Fsimplex.shx;.015
  7
blockfont
210
0.0
220
0.0
230
1.0
 73
     2
 44
0.903614
  0
MTEXT
  5
52A
100
AcDbEntity
  8
TFR-TRI
390
0
  6
Continuous
 62
     3
100
AcDbMText
 10
6.799987
 20
6.42249
 30
0.0
 40
0.09
 41
0.0
 71
     7
 72
     5
  1
\W01.000;\Fsimplex.shx;     OF PRODUCTS APPLICABLE FOR USE
  7
blockfont
210
0.0
220
0.0
230
1.0
 73
     2
 44
0.903614
  0
MTEXT
  5
52B
100
AcDbEntity
  8
TFR-TRI
390
0
  6
Continuous
 62
     7
100
AcDbMText
 10
0.395758
 20
0.314102
 30
0.0
 40
0.059805
 41
0.0
 71
     7
 72
     5
  1
\W01.000;\Fsimplex.shx;REV
  7
blockfont
210
0.0
220
0.0
230
1.0
 73
     2
 44
0.903614
  0
MTEXT
  5
52C
100
AcDbEntity
  8
TFR-TRI
390
0
  6
Continuous
 62
     7
100
AcDbMText
 10
5.049683
 20
0.314102
 30
0.0
 40
0.059805
 41
0.0
 71
     7
 72
     5
  1
\W01.000;\Fsimplex.shx;-
  7
blockfont
210
0.0
220
0.0
230
1.0
 73
     2
 44
0.903614
  0
MTEXT
  5
52D
100
AcDbEntity
  8
TFR-TRI
390
0
  6
Continuous
 62
     7
100
AcDbMText
 10
5.484391
 20
0.314102
 30
0.0
 40
0.059805
 41
0.0
 71
     7
 72
     5
  1
\W01.000;\Fsimplex.shx;CUST
  7
blockfont
210
0.0
220
0.0
230
1.0
 73
     2
 44
0.903614
  0
MTEXT
  5
52E
100
AcDbEntity
  8
TFR-TRI
390
0
  6
Continuous
 62
     7
100
AcDbMText
 10
5.901821
 20
0.314102
 30
0.0
 40
0.059805
 41
0.0
 71
     7
 72
     5
  1
\W01.000;\Fsimplex.shx;SUP
  7
blockfont
210
0.0
220
0.0
230
1.0
 73
     2
 44
0.903614
  0
MTEXT
  5
52F
100
AcDbEntity
  8
TFR-TRI
390
0
  6
Continuous
 62
     7
100
AcDbMText
 10
6.814517
 20
1.394327
 30
0.0
 40
0.059805
 41
0.0
 71
     7
 72
     5
  1
\W01.000;\Fsimplex.shx;UNLESS OTHERWISE SPECIFIED,
  7
blockfont
210
0.0
220
0.0
230
1.0
 73
     2
 44
0.903614
  0
MTEXT
  5
530
100
AcDbEntity
  8
TFR-TRI
390
0
  6
Continuous
 62
     7
100
AcDbMText
 10
6.814517
 20
1.290371
 30
0.0
 40
0.059805
 41
0.0
 71
     7
 72
     5
  1
\W01.000;\Fsimplex.shx;DIMENSIONAL TOLERANCES ARE:
  7
blockfont
210
0.0
220
0.0
230
1.0
 73
     2
 44
0.903614
  0
MTEXT
  5
531
100
AcDbEntity
  8
TFR-TRI
390
0
  6
Continuous
 62
     7
100
AcDbMText
 10
6.821076
 20
1.066465
 30
0.0
 40
0.059805
 41
0.0
 71
     7
 72
     5
  1
\W01.000;\Fsimplex.shx;(.XX) +
  7
blockfont
210
0.0
220
0.0
230
1.0
 73
     2
 44
0.903614
  0
MTEXT
  5
532
100
AcDbEntity
  8
TFR-TRI
390
0
  6
Continuous
 62
     7
100
AcDbMText
 10
7.780139
 20
1.149465
 30
0.0
 40
0.059805
 41
0.0
 71
     7
 72
     5
  1
\W01.000;\Fsimplex.shx;ANGLES +
  7
blockfont
210
0.0
220
0.0
230
1.0
 73
     2
 44
0.903614
  0
MTEXT
  5
533
100
AcDbEntity
  8
TFR-TRI
390
0
  6
Continuous
 62
     7
100
AcDbMText
 10
10.497983
 20
0.386425
 30
0.0
 40
0.149512
 41
0.0
 71
     7
 72
     5
  1
\W01.000;\Fsimplex.shx;A
  7
blockfont
210
0.0
220
0.0
230
1.0
 73
     2
 44
0.903614
  0
MTEXT
  5
534
100
AcDbEntity
  8
TFR-TRI
390
0
  6
Continuous
 62
     3
100
AcDbMText
 10
4.55547
 20
0.599561
 30
0.0
 40
0.065
 41
0.0
 71
     7
 72
     5
  1
\W01.000;\Fsimplex.shx;10475-02
  7
blockfont
210
0.0
220
0.0
230
1.0
 73
     2
 44
0.903614
  0
MTEXT
  5
535
100
AcDbEntity
  8
TFR-TRI
390
0
  6
Continuous
 62
     3
100
AcDbMText
 10
7.468759
 20
7.65279
 30
0.0
 40
0.09
 41
0.0
 71
     7
 72
     5
  1
\W01.000;\Fsimplex.shx;PANDUIT P/N
  7
blockfont
210
0.0
220
0.0
230
1.0
 73
     2
 44
0.903614
  0
MTEXT
  5
536
100
AcDbEntity
  8
TFR-TRI
390
0
  6
Continuous
 62
     3
100
AcDbMText
 10
6.799987
 20
5.61249
 30
0.0
 40
0.09
 41
0.0
 71
     7
 72
     5
  1
\W01.000;\Fsimplex.shx;     8 - M6 X 15mm SCREWS 
  7
blockfont
210
0.0
220
0.0
230
1.0
 73
     2
 44
0.903614
  0
MTEXT
  5
537
100
AcDbEntity
  8
TFR-TRI
390
0
  6
Continuous
 62
     7
100
AcDbMText
 10
9.223891
 20
0.683192
 30
0.0
 40
0.037378
 41
0.0
 71
     7
 72
     5
  1
\W01.000;\Fsimplex.shx;DRAWING NO.
  7
blockfont
210
0.0
220
0.0
230
1.0
 73
     2
 44
0.903614
  0
MTEXT
  5
538
100
AcDbEntity
  8
TFR-TRI
390
0
  6
Continuous
 62
     3
100
AcDbMText
 10
0.422721
 20
0.595446
 30
0.0
 40
0.07
 41
0.0
 71
     7
 72
     5
  1
\W01.000;\Fsimplex.shx;00
  7
blockfont
210
0.0
220
0.0
230
1.0
 73
     2
 44
0.903614
  0
MTEXT
  5
539
100
AcDbEntity
  8
TFR-TRI
390
0
  6
Continuous
 62
     7
100
AcDbMText
 10
0.737996
 20
0.314102
 30
0.0
 40
0.059805
 41
0.0
 71
     7
 72
     5
  1
\W01.000;\Fsimplex.shx;DATE
  7
blockfont
210
0.0
220
0.0
230
1.0
 73
     2
 44
0.903614
  0
MTEXT
  5
53A
100
AcDbEntity
  8
TFR-TRI
390
0
  6
Continuous
 62
     3
100
AcDbMText
 10
4.927601
 20
6.887721
 30
0.0
 40
0.09
 41
0.0
 71
     7
 72
     5
  1
\W01.000;\Fsimplex.shx;1.25
  7
blockfont
210
0.0
220
0.0
230
1.0
 73
     2
 44
0.903614
  0
MTEXT
  5
53B
100
AcDbEntity
  8
TFR-TRI
390
0
  6
Continuous
 62
     3
100
AcDbMText
 10
4.313206
 20
7.160635
 30
0.0
 40
0.09
 41
0.0
 71
     7
 72
     5
  1
\W01.000;\Fsimplex.shx;.62
  7
blockfont
210
0.0
220
0.0
230
1.0
 73
     2
 44
0.903614
  0
MTEXT
  5
53C
100
AcDbEntity
  8
TFR-TRI
390
0
  6
Continuous
 62
     7
100
AcDbMText
 10
9.204498
 20
1.095031
 30
0.0
 40
0.037378
 41
0.0
 71
     7
 72
     5
  1
\W01.000;\Fsimplex.shx;IN INCHES, THIRD ANGLE PROJECTION.
  7
blockfont
210
0.0
220
0.0
230
1.0
 73
     2
 44
0.903614
  0
MTEXT
  5
53D
100
AcDbEntity
  8
TFR-TRI
390
0
  6
Continuous
 62
     3
100
AcDbMText
 10
6.799987
 20
5.34249
 30
0.0
 40
0.09
 41
0.0
 71
     7
 72
     5
  1
\W01.000;\Fsimplex.shx;     ARE METRIC.
  7
blockfont
210
0.0
220
0.0
230
1.0
 73
     2
 44
0.903614
  0
MTEXT
  5
53E
100
AcDbEntity
  8
TFR-TRI
390
0
  6
Continuous
 62
     7
100
AcDbMText
 10
6.758117
 20
2.025067
 30
0.0
 40
0.336401
 41
0.0
 71
     7
 72
     5
  1
\W01.000;\Fsimplex.shx;P
  7
blockfont
210
0.0
220
0.0
230
1.0
 73
     2
 44
0.903614
  0
MTEXT
  5
53F
100
AcDbEntity
  8
TFR-TRI
390
0
  6
Continuous
 62
     3
100
AcDbMText
 10
5.481768
 20
7.155035
 30
0.0
 40
0.09
 41
0.0
 71
     7
 72
     5
  1
\W01.000;\Fsimplex.shx;1.75
  7
blockfont
210
0.0
220
0.0
230
1.0
 73
     2
 44
0.903614
  0
MTEXT
  5
540
100
AcDbEntity
  8
TFR-TRI
390
0
  6
Continuous
 62
     7
100
AcDbMText
 10
9.187264
 20
2.11226
 30
0.0
 40
0.056067
 41
0.0
 71
     7
 72
     5
  1
\W01.000;\Fsimplex.shx;TINLEY PARK, ILLINOIS
  7
blockfont
210
0.0
220
0.0
230
1.0
 73
     2
 44
0.903614
  0
MTEXT
  5
541
100
AcDbEntity
  8
TFR-TRI
390
0
  6
Continuous
 62
     7
100
AcDbMText
 10
7.422528
 20
0.885736
 30
0.0
 40
0.056067
 41
0.0
 71
     7
 72
     5
  1
\W01.000;\Fsimplex.shx;MAT'L:
  7
blockfont
210
0.0
220
0.0
230
1.0
 73
     2
 44
0.903614
  0
MTEXT
  5
542
100
AcDbEntity
  8
TFR-TRI
390
0
  6
Continuous
 62
     7
100
AcDbMText
 10
0.689637
 20
8.015177
 30
0.0
 40
0.070866
 41
0.0
 71
     7
 72
     5
  1
\W01.000;\Fsimplex.shx;THIS COPY IS PROVIDED ON A RESTRICTED BASIS AND IS NOT TO BE USED IN ANY WAY DETRIMENTAL TO THE INTERESTS OF PANDUIT CORP.
  7
blockfont
210
0.0
220
0.0
230
1.0
 73
     2
 44
0.903614
  0
MTEXT
  5
543
100
AcDbEntity
  8
TFR-TRI
390
0
  6
Continuous
 62
     7
100
AcDbMText
 10
7.211317
 20
1.124026
 30
0.0
 40
0.06728
 41
0.0
 71
     7
 72
     5
  1
\W01.000;\Fsimplex.shx;-
  7
blockfont
210
0.0
220
0.0
230
1.0
 73
     2
 44
0.903614
  0
MTEXT
  5
544
100
AcDbEntity
  8
TFR-TRI
390
0
  6
Continuous
 62
     7
100
AcDbMText
 10
8.233554
 20
1.111733
 30
0.0
 40
0.06728
 41
0.0
 71
     7
 72
     5
  1
\W01.000;\Fsimplex.shx;-
  7
blockfont
210
0.0
220
0.0
230
1.0
 73
     2
 44
0.903614
  0
MTEXT
  5
545
100
AcDbEntity
  8
TFR-TRI
390
0
  6
Continuous
 62
     3
100
AcDbMText
 10
6.799987
 20
6.557489
 30
0.0
 40
0.09
 41
0.0
 71
     7
 72
     5
  1
\W01.000;\Fsimplex.shx;     WWW.PANDUIT.COM FOR A CURRENT LIST
  7
blockfont
210
0.0
220
0.0
230
1.0
 73
     2
 44
0.903614
  0
MTEXT
  5
546
100
AcDbEntity
  8
TFR-TRI
390
0
  6
Continuous
 62
     7
100
AcDbMText
 10
7.211317
 20
1.028733
 30
0.0
 40
0.06728
 41
0.0
 71
     7
 72
     5
  1
\W01.000;\Fsimplex.shx;-
  7
blockfont
210
0.0
220
0.0
230
1.0
 73
     2
 44
0.903614
  0
MTEXT
  5
547
100
AcDbEntity
  8
TFR-TRI
390
0
  6
Continuous
 62
     7
100
AcDbMText
 10
6.622451
 20
2.722241
 30
0.0
 40
0.037378
 41
0.0
 71
     7
 72
     5
  1
\W01.000;\Fsimplex.shx;CAD FILENAME/LAYERS
  7
blockfont
210
0.0
220
0.0
230
1.0
 73
     2
 44
0.903614
  0
MTEXT
  5
548
100
AcDbEntity
  8
TFR-TRI
390
0
  6
Continuous
 62
     3
100
AcDbMText
 10
4.615751
 20
5.933474
 30
0.0
 40
0.09
 41
0.0
 71
     7
 72
     5
  1
\W01.000;\Fsimplex.shx;.27
  7
blockfont
210
0.0
220
0.0
230
1.0
 73
     2
 44
0.903614
  0
MTEXT
  5
549
100
AcDbEntity
  8
TFR-TRI
390
0
  6
Continuous
 62
     3
100
AcDbMText
 10
9.148961
 20
7.65279
 30
0.0
 40
0.09
 41
0.0
 71
     7
 72
     5
  1
\W01.000;\Fsimplex.shx;WEIGHT
  7
blockfont
210
0.0
220
0.0
230
1.0
 73
     2
 44
0.903614
  0
MTEXT
  5
54A
100
AcDbEntity
  8
TFR-TRI
390
0
  6
Continuous
 62
     3
100
AcDbMText
 10
7.6654
 20
7.200834
 30
0.0
 40
0.09
 41
0.0
 71
     7
 72
     5
  1
\W01.000;\Fsimplex.shx;WMPVCMB
  7
blockfont
210
0.0
220
0.0
230
1.0
 73
     2
 44
0.903614
  0
MTEXT
  5
54B
100
AcDbEntity
  8
TFR-TRI
390
0
  6
Continuous
 62
     3
100
AcDbMText
 10
9.004707
 20
7.268334
 30
0.0
 40
0.09
 41
0.0
 71
     7
 72
     5
  1
\W01.000;\Fsimplex.shx;.23 LB/EACH
  7
blockfont
210
0.0
220
0.0
230
1.0
 73
     2
 44
0.903614
  0
MTEXT
  5
54C
100
AcDbEntity
  8
TFR-TRI
390
0
  6
Continuous
 62
     3
100
AcDbMText
 10
6.693744
 20
0.547597
 30
0.0
 40
0.07
 41
0.0
 71
     7
 72
     5
  1
\W01.000;\Fsimplex.shx;01-23-07
  7
blockfont
210
0.0
220
0.0
230
1.0
 73
     2
 44
0.903614
  0
MTEXT
  5
54D
100
AcDbEntity
  8
TFR-TRI
390
0
  6
Continuous
 62
     3
100
AcDbMText
 10
4.655126
 20
5.714099
 30
0.0
 40
0.09
 41
0.0
 71
     7
 72
     5
  1
\W01.000;\Fsimplex.shx;6.9
  7
blockfont
210
0.0
220
0.0
230
1.0
 73
     2
 44
0.903614
  0
MTEXT
  5
54E
100
AcDbEntity
  8
TFR-TRI
390
0
  6
Continuous
 62
     3
100
AcDbMText
 10
8.062207
 20
0.551218
 30
0.0
 40
0.09
 41
0.0
 71
     7
 72
     5
  1
\W01.000;\Fsimplex.shx;STEEL
  7
blockfont
210
0.0
220
0.0
230
1.0
 73
     2
 44
0.903614
  0
MTEXT
  5
54F
100
AcDbEntity
  8
TFR-TRI
390
0
  6
Continuous
 62
     3
100
AcDbMText
 10
4.311135
 20
3.993426
 30
0.0
 40
0.09
 41
0.0
 71
     7
 72
     5
  1
\W01.000;\Fsimplex.shx;1.64
  7
blockfont
210
0.0
220
0.0
230
1.0
 73
     2
 44
0.903614
  0
MTEXT
  5
550
100
AcDbEntity
  8
TFR-TRI
390
0
  6
Continuous
 62
     3
100
AcDbMText
 10
4.35051
 20
3.774051
 30
0.0
 40
0.09
 41
0.0
 71
     7
 72
     5
  1
\W01.000;\Fsimplex.shx;41.7
  7
blockfont
210
0.0
220
0.0
230
1.0
 73
     2
 44
0.903614
  0
MTEXT
  5
551
100
AcDbEntity
  8
TFR-TRI
390
0
  6
Continuous
 62
     3
100
AcDbMText
 10
4.966976
 20
6.668346
 30
0.0
 40
0.09
 41
0.0
 71
     7
 72
     5
  1
\W01.000;\Fsimplex.shx;31.8
  7
blockfont
210
0.0
220
0.0
230
1.0
 73
     2
 44
0.903614
  0
MTEXT
  5
552
100
AcDbEntity
  8
TFR-TRI
390
0
  6
Continuous
 62
     7
100
AcDbMText
 10
6.821076
 20
1.162425
 30
0.0
 40
0.059805
 41
0.0
 71
     7
 72
     5
  1
\W01.000;\Fsimplex.shx;(.X)  +
  7
blockfont
210
0.0
220
0.0
230
1.0
 73
     2
 44
0.903614
  0
MTEXT
  5
553
100
AcDbEntity
  8
TFR-TRI
390
0
  6
Continuous
 62
     3
100
AcDbMText
 10
6.799987
 20
5.477489
 30
0.0
 40
0.09
 41
0.0
 71
     7
 72
     5
  1
\W01.000;\Fsimplex.shx;  3. DIMENSIONS IN PARENTHESIS
  7
blockfont
210
0.0
220
0.0
230
1.0
 73
     2
 44
0.903614
  0
MTEXT
  5
554
100
AcDbEntity
  8
TFR-TRI
390
0
  6
Continuous
 62
     3
100
AcDbMText
 10
1.156273
 20
0.599561
 30
0.0
 40
0.065
 41
0.0
 71
     7
 72
     5
  1
\W01.000;\Fsimplex.shx;NAGL
  7
blockfont
210
0.0
220
0.0
230
1.0
 73
     2
 44
0.903614
  0
MTEXT
  5
555
100
AcDbEntity
  8
TFR-TRI
390
0
  6
Continuous
 62
     3
100
AcDbMText
 10
1.797027
 20
0.5938
 30
0.0
 40
0.072
 41
0.0
 71
     7
 72
     5
  1
\W01.000;\Fsimplex.shx;RELEASED TO PRODUCTION
  7
blockfont
210
0.0
220
0.0
230
1.0
 73
     2
 44
0.903614
  0
MTEXT
  5
556
100
AcDbEntity
  8
TFR-TRI
390
0
  6
Continuous
 62
     3
100
AcDbMText
 10
8.115641
 20
2.603469
 30
0.0
 40
0.093
 41
0.0
 71
     7
 72
     5
  1
\W01.000;\Fsimplex.shx;V10475BA_DC_01A.PRT
  7
blockfont
210
0.0
220
0.0
230
1.0
 73
     2
 44
0.903614
  0
MTEXT
  5
557
100
AcDbEntity
  8
TFR-TRI
390
0
  6
Continuous
 62
     3
100
AcDbMText
 10
6.73274
 20
1.854348
 30
0.0
 40
0.09
 41
0.0
 71
     7
 72
     5
  1
\W01.000;\Fsimplex.shx;NETRUNNER CANADIAN RACK MOUNTING BRACKET
  7
blockfont
210
0.0
220
0.0
230
1.0
 73
     2
 44
0.903614
  0
MTEXT
  5
558
100
AcDbEntity
  8
TFR-TRI
390
0
  6
Continuous
 62
     7
100
AcDbMText
 10
6.991983
 20
2.049207
 30
0.0
 40
0.261645
 41
0.0
 71
     7
 72
     5
  1
\W01.000;\Fsimplex.shx;ANDUIT
  7
blockfont
210
0.0
220
0.0
230
1.0
 73
     2
 44
0.903614
  0
MTEXT
  5
559
100
AcDbEntity
  8
TFR-TRI
390
0
  6
Continuous
 62
     3
100
AcDbMText
 10
5.521143
 20
6.935659
 30
0.0
 40
0.09
 41
0.0
 71
     7
 72
     5
  1
\W01.000;\Fsimplex.shx;44.4
  7
blockfont
210
0.0
220
0.0
230
1.0
 73
     2
 44
0.903614
  0
MTEXT
  5
55A
100
AcDbEntity
  8
TFR-TRI
390
0
  6
Continuous
 62
     7
100
AcDbMText
 10
6.624519
 20
2.953241
 30
0.0
 40
0.037378
 41
0.0
 71
     7
 72
     5
  1
\W01.000;\Fsimplex.shx;MODEL FILENAME
  7
blockfont
210
0.0
220
0.0
230
1.0
 73
     2
 44
0.903614
  0
MTEXT
  5
55B
100
AcDbEntity
  8
TFR-TRI
390
0
  6
Continuous
 62
     3
100
AcDbMText
 10
4.352581
 20
6.941259
 30
0.0
 40
0.09
 41
0.0
 71
     7
 72
     5
  1
\W01.000;\Fsimplex.shx;15.9
  7
blockfont
210
0.0
220
0.0
230
1.0
 73
     2
 44
0.903614
  0
MTEXT
  5
55C
100
AcDbEntity
  8
TFR-TRI
390
0
  6
Continuous
 62
     7
100
AcDbMText
 10
1.490291
 20
0.314102
 30
0.0
 40
0.059805
 41
0.0
 71
     7
 72
     5
  1
\W01.000;\Fsimplex.shx;CHK
  7
blockfont
210
0.0
220
0.0
230
1.0
 73
     2
 44
0.903614
  0
MTEXT
  5
55D
100
AcDbEntity
  8
TFR-TRI
390
0
  6
Continuous
 62
     7
100
AcDbMText
 10
2.764402
 20
0.314102
 30
0.0
 40
0.059805
 41
0.0
 71
     7
 72
     5
  1
\W01.000;\Fsimplex.shx;DESCRIPTION
  7
blockfont
210
0.0
220
0.0
230
1.0
 73
     2
 44
0.903614
  0
MTEXT
  5
55E
100
AcDbEntity
  8
TFR-TRI
390
0
  6
Continuous
 62
     3
100
AcDbMText
 10
7.449041
 20
1.155463
 30
0.0
 40
0.063
 41
0.0
 71
     7
 72
     5
  1
\W01.000;\Fsimplex.shx;.03
  7
blockfont
210
0.0
220
0.0
230
1.0
 73
     2
 44
0.903614
  0
MTEXT
  5
55F
100
AcDbEntity
  8
TFR-TRI
390
0
  6
Continuous
 62
     7
100
AcDbMText
 10
10.484706
 20
0.649206
 30
0.0
 40
0.037378
 41
0.0
 71
     7
 72
     5
  1
\W01.000;\Fsimplex.shx;DWG
  7
blockfont
210
0.0
220
0.0
230
1.0
 73
     2
 44
0.903614
  0
MTEXT
  5
560
100
AcDbEntity
  8
TFR-TRI
390
0
  6
Continuous
 62
     7
100
AcDbMText
 10
9.223454
 20
0.927089
 30
0.0
 40
0.037378
 41
0.0
 71
     7
 72
     5
  1
\W01.000;\Fsimplex.shx;SCALE
  7
blockfont
210
0.0
220
0.0
230
1.0
 73
     2
 44
0.903614
  0
MTEXT
  5
561
100
AcDbEntity
  8
TFR-TRI
390
0
  6
Continuous
 62
     7
100
AcDbMText
 10
6.636288
 20
0.931754
 30
0.0
 40
0.037378
 41
0.0
 71
     7
 72
     5
  1
\W01.000;\Fsimplex.shx;DRAWN BY
  7
blockfont
210
0.0
220
0.0
230
1.0
 73
     2
 44
0.903614
  0
MTEXT
  5
562
100
AcDbEntity
  8
TFR-TRI
390
0
  6
Continuous
 62
     7
100
AcDbMText
 10
6.638441
 20
0.683858
 30
0.0
 40
0.037378
 41
0.0
 71
     7
 72
     5
  1
\W01.000;\Fsimplex.shx;DATE
  7
blockfont
210
0.0
220
0.0
230
1.0
 73
     2
 44
0.903614
  0
MTEXT
  5
563
100
AcDbEntity
  8
TFR-TRI
390
0
  6
Continuous
 62
     7
100
AcDbMText
 10
6.637402
 20
0.440627
 30
0.0
 40
0.037378
 41
0.0
 71
     7
 72
     5
  1
\W01.000;\Fsimplex.shx;CHK'D
  7
blockfont
210
0.0
220
0.0
230
1.0
 73
     2
 44
0.903614
  0
MTEXT
  5
564
100
AcDbEntity
  8
TFR-TRI
390
0
  6
Continuous
 62
     3
100
AcDbMText
 10
0.683545
 20
0.611905
 30
0.0
 40
0.05
 41
0.0
 71
     7
 72
     5
  1
\W01.000;\Fsimplex.shx;01-23-07
  7
blockfont
210
0.0
220
0.0
230
1.0
 73
     2
 44
0.903614
  0
MTEXT
  5
565
100
AcDbEntity
  8
TFR-TRI
390
0
  6
Continuous
 62
     3
100
AcDbMText
 10
9.385078
 20
0.395938
 30
0.0
 40
0.09
 41
0.0
 71
     7
 72
     5
  1
\W01.000;\Fsimplex.shx;10475-02
  7
blockfont
210
0.0
220
0.0
230
1.0
 73
     2
 44
0.903614
  0
MTEXT
  5
566
100
AcDbEntity
  8
TFR-TRI
390
0
  6
Continuous
 62
     3
100
AcDbMText
 10
6.799987
 20
6.69249
 30
0.0
 40
0.09
 41
0.0
 71
     7
 72
     5
  1
\W01.000;\Fsimplex.shx;  1. VISIT OUR ON-LINE CATALOG AT
  7
blockfont
210
0.0
220
0.0
230
1.0
 73
     2
 44
0.903614
  0
MTEXT
  5
567
100
AcDbEntity
  8
TFR-TRI
390
0
  6
Continuous
 62
     3
100
AcDbMText
 10
6.799987
 20
6.287489
 30
0.0
 40
0.09
 41
0.0
 71
     7
 72
     5
  1
\W01.000;\Fsimplex.shx;     WITH THIS PART.
  7
blockfont
210
0.0
220
0.0
230
1.0
 73
     2
 44
0.903614
  0
MTEXT
  5
568
100
AcDbEntity
  8
TFR-TRI
390
0
  6
Continuous
 62
     3
100
AcDbMText
 10
6.842573
 20
0.803783
 30
0.0
 40
0.072
 41
0.0
 71
     7
 72
     5
  1
\W01.000;\Fsimplex.shx;NAGL
  7
blockfont
210
0.0
220
0.0
230
1.0
 73
     2
 44
0.903614
  0
MTEXT
  5
569
100
AcDbEntity
  8
TFR-TRI
390
0
  6
Continuous
 62
     7
100
AcDbMText
 10
4.725964
 20
0.314102
 30
0.0
 40
0.059805
 41
0.0
 71
     7
 72
     5
  1
\W01.000;\Fsimplex.shx;ECN
  7
blockfont
210
0.0
220
0.0
230
1.0
 73
     2
 44
0.903614
  0
MTEXT
  5
56A
100
AcDbEntity
  8
TFR-TRI
390
0
  6
Continuous
 62
     3
100
AcDbMText
 10
6.799987
 20
5.88249
 30
0.0
 40
0.09
 41
0.0
 71
     7
 72
     5
  1
\W01.000;\Fsimplex.shx;     8 - #12-24 X 1/2" SCREWS
  7
blockfont
210
0.0
220
0.0
230
1.0
 73
     2
 44
0.903614
  0
MTEXT
  5
56B
100
AcDbEntity
  8
TFR-TRI
390
0
  6
Continuous
 62
     3
100
AcDbMText
 10
8.535236
 20
1.139637
 30
0.0
 40
0.063
 41
0.0
 71
     7
 72
     5
  1
\W01.000;\Fsimplex.shx;1
  7
blockfont
210
0.0
220
0.0
230
1.0
 73
     2
 44
0.903614
  0
MTEXT
  5
56C
100
AcDbEntity
  8
TFR-TRI
390
0
  6
Continuous
 62
     3
100
AcDbMText
 10
1.76701
 20
5.270531
 30
0.0
 40
0.09
 41
0.0
 71
     7
 72
     5
  1
\W01.000;\Fsimplex.shx;4.2
  7
blockfont
210
0.0
220
0.0
230
1.0
 73
     2
 44
0.903614
  0
MTEXT
  5
56D
100
AcDbEntity
  8
TFR-TRI
390
0
  6
Continuous
 62
     3
100
AcDbMText
 10
1.806385
 20
5.051156
 30
0.0
 40
0.09
 41
0.0
 71
     7
 72
     5
  1
\W01.000;\Fsimplex.shx;107
  7
blockfont
210
0.0
220
0.0
230
1.0
 73
     2
 44
0.903614
  0
MTEXT
  5
56E
100
AcDbEntity
  8
TFR-TRI
390
0
  6
Continuous
 62
     7
100
AcDbMText
 10
10.464342
 20
0.308016
 30
0.0
 40
0.037378
 41
0.0
 71
     7
 72
     5
  1
\W01.000;\Fsimplex.shx;SIZE
  7
blockfont
210
0.0
220
0.0
230
1.0
 73
     2
 44
0.903614
  0
MTEXT
  5
56F
100
AcDbEntity
  8
TFR-TRI
390
0
  6
Continuous
 62
     3
100
AcDbMText
 10
3.201863
 20
4.944205
 30
0.0
 40
0.09
 41
0.0
 71
     7
 72
     5
  1
\W01.000;\Fsimplex.shx;1.99
  7
blockfont
210
0.0
220
0.0
230
1.0
 73
     2
 44
0.903614
  0
MTEXT
  5
570
100
AcDbEntity
  8
TFR-TRI
390
0
  6
Continuous
 62
     7
100
AcDbMText
 10
1.181665
 20
0.314102
 30
0.0
 40
0.059805
 41
0.0
 71
     7
 72
     5
  1
\W01.000;\Fsimplex.shx;BY
  7
blockfont
210
0.0
220
0.0
230
1.0
 73
     2
 44
0.903614
  0
MTEXT
  5
571
100
AcDbEntity
  8
TFR-TRI
390
0
  6
Continuous
 62
     3
100
AcDbMText
 10
6.799987
 20
5.07249
 30
0.0
 40
0.09
 41
0.0
 71
     7
 72
     5
  1
\W01.000;\Fsimplex.shx;     USER TO FULLY SECURE NETRUNNER 
  7
blockfont
210
0.0
220
0.0
230
1.0
 73
     2
 44
0.903614
  0
MTEXT
  5
572
100
AcDbEntity
  8
TFR-TRI
390
0
  6
Continuous
 62
     3
100
AcDbMText
 10
9.826343
 20
0.83017
 30
0.0
 40
0.09
 41
0.0
 71
     7
 72
     5
  1
\W01.000;\Fsimplex.shx;NONE
  7
blockfont
210
0.0
220
0.0
230
1.0
 73
     2
 44
0.903614
  0
ENDSEC
  0
SECTION
  2
OBJECTS
  0
DICTIONARY
  5
19
100
AcDbDictionary
280
     0
281
     1
  3
ACAD_GROUP
350
1A
  3
ACAD_MLINESTYLE
350
1B
  3
ACAD_LAYOUT
350
1E
  3
ACAD_PLOTSETTINGS
350
22
  3
ACAD_PLOTSTYLENAME
350
1F
  3
ACAD_WIPEOUT_VARS
350
23
  0
DICTIONARY
  5
1A
102
{ACAD_REACTORS
330
19
102
}
100
AcDbDictionary
280
     0
281
     1
  0
DICTIONARY
  5
1B
102
{ACAD_REACTORS
330
19
102
}
100
AcDbDictionary
280
     0
281
     1
  3
Standard
350
1C
  0
MLINESTYLE
  5
1C
102
{ACAD_REACTORS
330
1B
102
}
100
AcDbMlineStyle
  2
Standard
 70
     0
  3

 62
     0
 51
90.0
 52
90.0
 71
     2
 49
0.5
 62
   256
  6
ByLayer
 49
-0.5
 62
   256
  6
ByLayer
  0
ACDBDICTIONARYWDFLT
  5
1F
102
{ACAD_REACTORS
330
19
102
}
100
AcDbDictionary
281
     1
  3
Normal
350
1D
100
AcDbDictionaryWithDefault
340
1D
  0
ACDBPLACEHOLDER
  5
1D
102
{ACAD_REACTORS
330
1F
102
}
  0
LAYOUT
  5
20
102
{ACAD_REACTORS
330
1E
102
}
100
AcDbPlotSettings
  1

  2

  4

  6

 40
0.0
 41
0.0
 42
0.0
 43
0.0
 44
0.0
 45
0.0
 46
0.0
 47
0.0
 48
0.0
 49
0.0
140
0.0
141
0.0
142
1.0
143
1.0
 70
  1024
 72
     0
 73
     0
 74
     0
  7

 75
     0
147
1.0
148
0.0
149
0.0
100
AcDbLayout
  1
Model
 70
     0
 71
     0
 10
0.0
 20
0.0
 11
0.0
 21
0.0
 12
0.0
 22
0.0
 32
0.0
 14
0.0
 24
0.0
 34
0.0
 15
0.0
 25
0.0
 35
0.0
146
0.0
 13
0.0
 23
0.0
 33
0.0
 16
0.0
 26
0.0
 36
0.0
 17
0.0
 27
0.0
 37
0.0
 76
     0
330
A
331
0
345
0
346
0
  0
LAYOUT
  5
21
102
{ACAD_REACTORS
330
1E
102
}
100
AcDbPlotSettings
  1

  2

  4

  6

 40
0.0
 41
0.0
 42
0.0
 43
0.0
 44
0.0
 45
0.0
 46
0.0
 47
0.0
 48
0.0
 49
0.0
140
0.0
141
0.0
142
1.0
143
1.0
 70
     0
 72
     0
 73
     0
 74
     0
  7

 75
     0
147
1.0
148
0.0
149
0.0
100
AcDbLayout
  1
Layout1
 70
     0
 71
     0
 10
0.0
 20
0.0
 11
0.0
 21
0.0
 12
0.0
 22
0.0
 32
0.0
 14
0.0
 24
0.0
 34
0.0
 15
0.0
 25
0.0
 35
0.0
146
0.0
 13
0.0
 23
0.0
 33
0.0
 16
0.0
 26
0.0
 36
0.0
 17
0.0
 27
0.0
 37
0.0
 76
     0
330
B
331
0
345
0
346
0
  0
DICTIONARY
  5
1E
102
{ACAD_REACTORS
330
19
102
}
100
AcDbDictionary
280
     0
281
     1
  3
Layout1
350
21
  3
Model
350
20
  0
DICTIONARY
  5
22
102
{ACAD_REACTORS
330
19
102
}
100
AcDbDictionary
280
     0
281
     1
  0
WIPEOUTVARIABLES
  5
23
100
AcDbWipeoutVariables
 70
     1
  0
ENDSEC
  0
EOF
