  0
SECTION
  2
HEADER
  9
$ACADVER
  1
AC1012
  9
$DWGCODEPAGE
  3
ANSI_1252
  9
$INSBASE
 10
0.0
 20
0.0
 30
0.0
  9
$EXTMIN
 10
1.208661417322834
 20
3.403543307086614
 30
0.0
  9
$EXTMAX
 10
3.386811023622047
 20
7.37007874015748
 30
0.0
  9
$LIMMIN
 10
0.0
 20
0.0
  9
$LIMMAX
 10
12.0
 20
9.0
  9
$ORTHOMODE
 70
     0
  9
$REGENMODE
 70
     1
  9
$FILLMODE
 70
     1
  9
$QTEXTMODE
 70
     0
  9
$MIRRTEXT
 70
     1
  9
$DRAGMODE
 70
     2
  9
$LTSCALE
 40
1.0
  9
$OSMODE
 70
   547
  9
$ATTMODE
 70
     1
  9
$TEXTSIZE
 40
0.2
  9
$TRACEWID
 40
0.05
  9
$TEXTSTYLE
  7
STANDARD
  9
$CLAYER
  8
0
  9
$CELTYPE
  6
BYLAYER
  9
$CECOLOR
 62
   256
  9
$CELTSCALE
 40
1.0
  9
$DELOBJ
 70
     1
  9
$DISPSILH
 70
     0
  9
$DIMSCALE
 40
1.0
  9
$DIMASZ
 40
0.18
  9
$DIMEXO
 40
0.0625
  9
$DIMDLI
 40
0.38
  9
$DIMRND
 40
0.0
  9
$DIMDLE
 40
0.0
  9
$DIMEXE
 40
0.18
  9
$DIMTP
 40
0.0
  9
$DIMTM
 40
0.0
  9
$DIMTXT
 40
0.18
  9
$DIMCEN
 40
0.09
  9
$DIMTSZ
 40
0.0
  9
$DIMTOL
 70
     0
  9
$DIMLIM
 70
     0
  9
$DIMTIH
 70
     1
  9
$DIMTOH
 70
     1
  9
$DIMSE1
 70
     0
  9
$DIMSE2
 70
     0
  9
$DIMTAD
 70
     0
  9
$DIMZIN
 70
     0
  9
$DIMBLK
  1

  9
$DIMASO
 70
     1
  9
$DIMSHO
 70
     1
  9
$DIMPOST
  1

  9
$DIMAPOST
  1

  9
$DIMALT
 70
     0
  9
$DIMALTD
 70
     2
  9
$DIMALTF
 40
25.4
  9
$DIMLFAC
 40
1.0
  9
$DIMTOFL
 70
     0
  9
$DIMTVP
 40
0.0
  9
$DIMTIX
 70
     0
  9
$DIMSOXD
 70
     0
  9
$DIMSAH
 70
     0
  9
$DIMBLK1
  1

  9
$DIMBLK2
  1

  9
$DIMSTYLE
  2
STANDARD
  9
$DIMCLRD
 70
     0
  9
$DIMCLRE
 70
     0
  9
$DIMCLRT
 70
     0
  9
$DIMTFAC
 40
1.0
  9
$DIMGAP
 40
0.09
  9
$DIMJUST
 70
     0
  9
$DIMSD1
 70
     0
  9
$DIMSD2
 70
     0
  9
$DIMTOLJ
 70
     1
  9
$DIMTZIN
 70
     0
  9
$DIMALTZ
 70
     0
  9
$DIMALTTZ
 70
     0
  9
$DIMFIT
 70
     5
  9
$DIMUPT
 70
     0
  9
$DIMUNIT
 70
     2
  9
$DIMDEC
 70
     4
  9
$DIMTDEC
 70
     4
  9
$DIMALTU
 70
     2
  9
$DIMALTTD
 70
     2
  9
$DIMTXSTY
  7
STANDARD
  9
$DIMAUNIT
 70
     0
  9
$LUNITS
 70
     2
  9
$LUPREC
 70
     4
  9
$SKETCHINC
 40
0.1
  9
$FILLETRAD
 40
0.0
  9
$AUNITS
 70
     0
  9
$AUPREC
 70
     0
  9
$MENU
  1
acad
  9
$ELEVATION
 40
0.0
  9
$PELEVATION
 40
0.0
  9
$THICKNESS
 40
0.0
  9
$LIMCHECK
 70
     0
  9
$BLIPMODE
 70
     0
  9
$CHAMFERA
 40
0.0
  9
$CHAMFERB
 40
0.0
  9
$CHAMFERC
 40
0.0
  9
$CHAMFERD
 40
0.0
  9
$SKPOLY
 70
     0
  9
$TDCREATE
 40
2452569.542511574
  9
$TDUPDATE
 40
2453776.649975520
  9
$TDINDWG
 40
0.0008590278
  9
$TDUSRTIMER
 40
0.0008590278
  9
$USRTIMER
 70
     1
  9
$ANGBASE
 50
0.0
  9
$ANGDIR
 70
     0
  9
$PDMODE
 70
     0
  9
$PDSIZE
 40
0.0
  9
$PLINEWID
 40
0.0
  9
$COORDS
 70
     1
  9
$SPLFRAME
 70
     0
  9
$SPLINETYPE
 70
     6
  9
$SPLINESEGS
 70
     8
  9
$ATTDIA
 70
     0
  9
$ATTREQ
 70
     1
  9
$HANDLING
 70
  4097
  9
$HANDSEED
  5
4851
  9
$SURFTAB1
 70
     6
  9
$SURFTAB2
 70
     6
  9
$SURFTYPE
 70
     6
  9
$SURFU
 70
     6
  9
$SURFV
 70
     6
  9
$UCSNAME
  2

  9
$UCSORG
 10
0.0
 20
0.0
 30
0.0
  9
$UCSXDIR
 10
1.0
 20
0.0
 30
0.0
  9
$UCSYDIR
 10
0.0
 20
1.0
 30
0.0
  9
$PUCSNAME
  2

  9
$PUCSORG
 10
0.0
 20
0.0
 30
0.0
  9
$PUCSXDIR
 10
1.0
 20
0.0
 30
0.0
  9
$PUCSYDIR
 10
0.0
 20
1.0
 30
0.0
  9
$USERI1
 70
     0
  9
$USERI2
 70
     0
  9
$USERI3
 70
     0
  9
$USERI4
 70
     0
  9
$USERI5
 70
     0
  9
$USERR1
 40
0.0
  9
$USERR2
 40
0.0
  9
$USERR3
 40
0.0
  9
$USERR4
 40
0.0
  9
$USERR5
 40
0.0
  9
$WORLDVIEW
 70
     1
  9
$SHADEDGE
 70
     3
  9
$SHADEDIF
 70
    70
  9
$TILEMODE
 70
     1
  9
$MAXACTVP
 70
    16
  9
$PINSBASE
 10
0.0
 20
0.0
 30
0.0
  9
$PLIMCHECK
 70
     0
  9
$PEXTMIN
 10
1.000000000000000E+20
 20
1.000000000000000E+20
 30
1.000000000000000E+20
  9
$PEXTMAX
 10
-1.000000000000000E+20
 20
-1.000000000000000E+20
 30
-1.000000000000000E+20
  9
$PLIMMIN
 10
0.0
 20
0.0
  9
$PLIMMAX
 10
12.0
 20
9.0
  9
$UNITMODE
 70
     0
  9
$VISRETAIN
 70
     0
  9
$PLINEGEN
 70
     0
  9
$PSLTSCALE
 70
     1
  9
$TREEDEPTH
 70
  3020
  9
$PICKSTYLE
 70
     1
  9
$CMLSTYLE
  2
STANDARD
  9
$CMLJUST
 70
     0
  9
$CMLSCALE
 40
1.0
  9
$SAVEIMAGES
 70
     1
  0
ENDSEC
  0
SECTION
  2
CLASSES
  0
CLASS
  1
ACDBDICTIONARYWDFLT
  2
AcDbDictionaryWithDefault
  3
AutoCAD 2000
 90
    32768
280
     0
281
     0
  0
CLASS
  1
ACDBPLACEHOLDER
  2
AcDbPlaceHolder
  3
AutoCAD 2000
 90
    32768
280
     0
281
     0
  0
CLASS
  1
LAYOUT
  2
AcDbLayout
  3
AutoCAD 2000
 90
    32768
280
     0
281
     0
  0
CLASS
  1
LONG_TRANSACTION
  2
AcDbLongTransaction
  3
AutoCAD 2000
 90
    32768
280
     0
281
     0
  0
CLASS
  1
LWPOLYLINE
  2
AcDbPolyline
  3
AutoCAD 2000
 90
    32768
280
     0
281
     1
  0
CLASS
  1
HATCH
  2
AcDbHatch
  3
AutoCAD 2000
 90
    32768
280
     0
281
     1
  0
CLASS
  1
XRECORD
  2
AcDbXrecord
  3
AutoCAD 2000
 90
    32768
280
     0
281
     0
  0
CLASS
  1
LONG_TRANSACTION
  2
AcDbLongTransaction
  3
AutoCAD 2000
 90
    32768
280
     0
281
     0
  0
CLASS
  1
LWPOLYLINE
  2
AcDbPolyline
  3
AutoCAD 2000
 90
    32768
280
     0
281
     1
  0
CLASS
  1
HATCH
  2
AcDbHatch
  3
AutoCAD 2000
 90
    32768
280
     0
281
     1
  0
CLASS
  1
XRECORD
  2
AcDbXrecord
  3
AutoCAD 2000
 90
    32768
280
     0
281
     0
  0
ENDSEC
  0
SECTION
  2
TABLES
  0
TABLE
  2
VPORT
  5
8
330
0
100
AcDbSymbolTable
 70
     2
  0
VPORT
  5
484E
330
8
100
AcDbSymbolTableRecord
100
AcDbViewportTableRecord
  2
*ACTIVE
 70
     0
 10
0.0
 20
0.0
 11
1.0
 21
1.0
 12
2.535188523394587
 22
5.386802695326975
 13
0.0
 23
0.0
 14
1.0
 24
1.0
 15
0.0
 25
0.0
 16
0.0
 26
0.0
 36
1.0
 17
0.0
 27
0.0
 37
0.0
 40
3.998108808921745
 41
1.748134328358208
 42
50.0
 43
0.0
 44
0.0
 50
0.0
 51
0.0
 71
     0
 72
   100
 73
     1
 74
     1
 75
     0
 76
     0
 77
     0
 78
     0
  0
ENDTAB
  0
TABLE
  2
LTYPE
  5
5
330
0
100
AcDbSymbolTable
 70
    25
  0
LTYPE
  5
13
330
5
100
AcDbSymbolTableRecord
100
AcDbLinetypeTableRecord
  2
BYBLOCK
 70
     0
  3

 72
    65
 73
     0
 40
0.0
  0
LTYPE
  5
14
330
5
100
AcDbSymbolTableRecord
100
AcDbLinetypeTableRecord
  2
BYLAYER
 70
     0
  3

 72
    65
 73
     0
 40
0.0
  0
LTYPE
  5
15
330
5
100
AcDbSymbolTableRecord
100
AcDbLinetypeTableRecord
  2
CONTINUOUS
 70
     0
  3
Solid line
 72
    65
 73
     0
 40
0.0
  0
LTYPE
  5
22
330
5
100
AcDbSymbolTableRecord
100
AcDbLinetypeTableRecord
  2
BORDER
 70
     0
  3
__ __ . __ __ . __ __ . __ __ . __ __ . __ __ .
 72
    65
 73
     6
 40
1.75
 49
0.5
 74
     0
 49
-0.25
 74
     0
 49
0.5
 74
     0
 49
-0.25
 74
     0
 49
0.5
 74
     0
 49
-0.25
 74
     0
  0
LTYPE
  5
23
330
5
100
AcDbSymbolTableRecord
100
AcDbLinetypeTableRecord
  2
BORDER2
 70
     0
  3
__.__.__.__.__.__.__.__.__.__.__.__.__.__.__.__
 72
    65
 73
     6
 40
0.875
 49
0.25
 74
     0
 49
-0.125
 74
     0
 49
0.25
 74
     0
 49
-0.125
 74
     0
 49
0.25
 74
     0
 49
-0.125
 74
     0
  0
LTYPE
  5
24
330
5
100
AcDbSymbolTableRecord
100
AcDbLinetypeTableRecord
  2
BORDERX2
 70
     0
  3
____  ____  .  ____  ____  .  
 72
    65
 73
     6
 40
3.5
 49
1.0
 74
     0
 49
-0.5
 74
     0
 49
1.0
 74
     0
 49
-0.5
 74
     0
 49
1.0
 74
     0
 49
-0.5
 74
     0
  0
LTYPE
  5
25
330
5
100
AcDbSymbolTableRecord
100
AcDbLinetypeTableRecord
  2
CENTER
 70
     0
  3
____ _ ____ _ ____ _ ____ _ ____ _ ____ _ ____
 72
    65
 73
     4
 40
2.0
 49
1.25
 74
     0
 49
-0.25
 74
     0
 49
0.25
 74
     0
 49
-0.25
 74
     0
  0
LTYPE
  5
26
330
5
100
AcDbSymbolTableRecord
100
AcDbLinetypeTableRecord
  2
CENTER2
 70
     0
  3
____ _ ____ _ ____ _ ____ _ ____ _ ____ _ ____
 72
    65
 73
     4
 40
1.125
 49
0.75
 74
     0
 49
-0.125
 74
     0
 49
0.125
 74
     0
 49
-0.125
 74
     0
  0
LTYPE
  5
27
330
5
100
AcDbSymbolTableRecord
100
AcDbLinetypeTableRecord
  2
CENTERX2
 70
     0
  3
________  __  ________  __  ________  __  
 72
    65
 73
     4
 40
4.0
 49
2.5
 74
     0
 49
-0.5
 74
     0
 49
0.5
 74
     0
 49
-0.5
 74
     0
  0
LTYPE
  5
28
330
5
100
AcDbSymbolTableRecord
100
AcDbLinetypeTableRecord
  2
DASHDOT
 70
     0
  3
__ . __ . __ . __ . __ . __ . __ . 
 72
    65
 73
     4
 40
1.0
 49
0.5
 74
     0
 49
-0.25
 74
     0
 49
0.0
 74
     0
 49
-0.25
 74
     0
  0
LTYPE
  5
29
330
5
100
AcDbSymbolTableRecord
100
AcDbLinetypeTableRecord
  2
DASHDOT2
 70
     0
  3
_._._._._._._._._._._._._._._._.
 72
    65
 73
     4
 40
0.5
 49
0.25
 74
     0
 49
-0.125
 74
     0
 49
0.0
 74
     0
 49
-0.125
 74
     0
  0
LTYPE
  5
2A
330
5
100
AcDbSymbolTableRecord
100
AcDbLinetypeTableRecord
  2
DASHDOTX2
 70
     0
  3
____  .  ____  .  ____  .  ____  .  
 72
    65
 73
     4
 40
2.0
 49
1.0
 74
     0
 49
-0.5
 74
     0
 49
0.0
 74
     0
 49
-0.5
 74
     0
  0
LTYPE
  5
2B
330
5
100
AcDbSymbolTableRecord
100
AcDbLinetypeTableRecord
  2
DASHED
 70
     0
  3
__ __ __ __ __ __ __ __ __ __ __ __ 
 72
    65
 73
     2
 40
0.75
 49
0.5
 74
     0
 49
-0.25
 74
     0
  0
LTYPE
  5
2C
330
5
100
AcDbSymbolTableRecord
100
AcDbLinetypeTableRecord
  2
DASHED2
 70
     0
  3
_ _ _ _ _ _ _ _ _ _ _ _ _ _ _ _ _ _ 
 72
    65
 73
     2
 40
0.375
 49
0.25
 74
     0
 49
-0.125
 74
     0
  0
LTYPE
  5
2D
330
5
100
AcDbSymbolTableRecord
100
AcDbLinetypeTableRecord
  2
DASHEDX2
 70
     0
  3
____  ____  ____  ____  ____  ____  
 72
    65
 73
     2
 40
1.5
 49
1.0
 74
     0
 49
-0.5
 74
     0
  0
LTYPE
  5
2E
330
5
100
AcDbSymbolTableRecord
100
AcDbLinetypeTableRecord
  2
DIVIDE
 70
     0
  3
____ . . ____ . . ____ . . ____ . . 
 72
    65
 73
     6
 40
1.25
 49
0.5
 74
     0
 49
-0.25
 74
     0
 49
0.0
 74
     0
 49
-0.25
 74
     0
 49
0.0
 74
     0
 49
-0.25
 74
     0
  0
LTYPE
  5
2F
330
5
100
AcDbSymbolTableRecord
100
AcDbLinetypeTableRecord
  2
DIVIDE2
 70
     0
  3
__..__..__..__..__..__..__..__..__..
 72
    65
 73
     6
 40
0.625
 49
0.25
 74
     0
 49
-0.125
 74
     0
 49
0.0
 74
     0
 49
-0.125
 74
     0
 49
0.0
 74
     0
 49
-0.125
 74
     0
  0
LTYPE
  5
30
330
5
100
AcDbSymbolTableRecord
100
AcDbLinetypeTableRecord
  2
DIVIDEX2
 70
     0
  3
________  .  .  ________  .  .  ________  .  . 
 72
    65
 73
     6
 40
2.5
 49
1.0
 74
     0
 49
-0.5
 74
     0
 49
0.0
 74
     0
 49
-0.5
 74
     0
 49
0.0
 74
     0
 49
-0.5
 74
     0
  0
LTYPE
  5
31
330
5
100
AcDbSymbolTableRecord
100
AcDbLinetypeTableRecord
  2
DOT
 70
     0
  3
. . . . . . . . . . . . . . . . . . 
 72
    65
 73
     2
 40
0.25
 49
0.0
 74
     0
 49
-0.25
 74
     0
  0
LTYPE
  5
32
330
5
100
AcDbSymbolTableRecord
100
AcDbLinetypeTableRecord
  2
DOT2
 70
     0
  3
....................................
 72
    65
 73
     2
 40
0.125
 49
0.0
 74
     0
 49
-0.125
 74
     0
  0
LTYPE
  5
33
330
5
100
AcDbSymbolTableRecord
100
AcDbLinetypeTableRecord
  2
DOTX2
 70
     0
  3
.  .  .  .  .  .  .  .  .  .  .  .  .  
 72
    65
 73
     2
 40
0.5
 49
0.0
 74
     0
 49
-0.5
 74
     0
  0
LTYPE
  5
34
330
5
100
AcDbSymbolTableRecord
100
AcDbLinetypeTableRecord
  2
HIDDEN
 70
     0
  3
__ __ __ __ __ __ __ __ __ __ __ __ 
 72
    65
 73
     2
 40
0.375
 49
0.25
 74
     0
 49
-0.125
 74
     0
  0
LTYPE
  5
35
330
5
100
AcDbSymbolTableRecord
100
AcDbLinetypeTableRecord
  2
HIDDEN2
 70
     0
  3
_ _ _ _ _ _ _ _ _ _ _ _ _ _ _ _ _ _ 
 72
    65
 73
     2
 40
0.1875
 49
0.125
 74
     0
 49
-0.0625
 74
     0
  0
LTYPE
  5
36
330
5
100
AcDbSymbolTableRecord
100
AcDbLinetypeTableRecord
  2
HIDDENX2
 70
     0
  3
____ ____ ____ ____ ____ ____ ____ 
 72
    65
 73
     2
 40
0.75
 49
0.5
 74
     0
 49
-0.25
 74
     0
  0
LTYPE
  5
37
330
5
100
AcDbSymbolTableRecord
100
AcDbLinetypeTableRecord
  2
PHANTOM
 70
     0
  3
______  __  __  ______  __  __  
 72
    65
 73
     6
 40
2.5
 49
1.25
 74
     0
 49
-0.25
 74
     0
 49
0.25
 74
     0
 49
-0.25
 74
     0
 49
0.25
 74
     0
 49
-0.25
 74
     0
  0
LTYPE
  5
38
330
5
100
AcDbSymbolTableRecord
100
AcDbLinetypeTableRecord
  2
PHANTOM2
 70
     0
  3
___ _ _ ___ _ _ ___ _ _ ___ _ _ 
 72
    65
 73
     6
 40
1.25
 49
0.625
 74
     0
 49
-0.125
 74
     0
 49
0.125
 74
     0
 49
-0.125
 74
     0
 49
0.125
 74
     0
 49
-0.125
 74
     0
  0
LTYPE
  5
39
330
5
100
AcDbSymbolTableRecord
100
AcDbLinetypeTableRecord
  2
PHANTOMX2
 70
     0
  3
___ _ _ ___ _ _ ___ _ _ ___ _ _ 
 72
    65
 73
     6
 40
5.0
 49
2.5
 74
     0
 49
-0.5
 74
     0
 49
0.5
 74
     0
 49
-0.5
 74
     0
 49
0.5
 74
     0
 49
-0.5
 74
     0
  0
ENDTAB
  0
TABLE
  2
LAYER
  5
2
330
0
100
AcDbSymbolTable
 70
   256
  0
LAYER
  5
10
330
2
100
AcDbSymbolTableRecord
100
AcDbLayerTableRecord
  2
0
 70
     0
 62
     7
  6
CONTINUOUS
  0
LAYER
  5
3A
330
2
100
AcDbSymbolTableRecord
100
AcDbLayerTableRecord
  2
1
 70
     0
 62
     1
  6
CONTINUOUS
  0
LAYER
  5
3B
330
2
100
AcDbSymbolTableRecord
100
AcDbLayerTableRecord
  2
2
 70
     0
 62
     2
  6
CONTINUOUS
  0
LAYER
  5
3C
330
2
100
AcDbSymbolTableRecord
100
AcDbLayerTableRecord
  2
3
 70
     0
 62
     3
  6
CONTINUOUS
  0
LAYER
  5
3D
330
2
100
AcDbSymbolTableRecord
100
AcDbLayerTableRecord
  2
4
 70
     0
 62
     4
  6
CONTINUOUS
  0
LAYER
  5
3E
330
2
100
AcDbSymbolTableRecord
100
AcDbLayerTableRecord
  2
5
 70
     0
 62
     5
  6
CONTINUOUS
  0
LAYER
  5
3F
330
2
100
AcDbSymbolTableRecord
100
AcDbLayerTableRecord
  2
6
 70
     0
 62
     6
  6
CONTINUOUS
  0
LAYER
  5
40
330
2
100
AcDbSymbolTableRecord
100
AcDbLayerTableRecord
  2
7
 70
     0
 62
     7
  6
CONTINUOUS
  0
LAYER
  5
41
330
2
100
AcDbSymbolTableRecord
100
AcDbLayerTableRecord
  2
8
 70
     0
 62
     8
  6
CONTINUOUS
  0
LAYER
  5
42
330
2
100
AcDbSymbolTableRecord
100
AcDbLayerTableRecord
  2
9
 70
     0
 62
     9
  6
CONTINUOUS
  0
LAYER
  5
43
330
2
100
AcDbSymbolTableRecord
100
AcDbLayerTableRecord
  2
10
 70
     0
 62
    10
  6
CONTINUOUS
  0
LAYER
  5
44
330
2
100
AcDbSymbolTableRecord
100
AcDbLayerTableRecord
  2
11
 70
     0
 62
    11
  6
CONTINUOUS
  0
LAYER
  5
45
330
2
100
AcDbSymbolTableRecord
100
AcDbLayerTableRecord
  2
12
 70
     0
 62
    12
  6
CONTINUOUS
  0
LAYER
  5
46
330
2
100
AcDbSymbolTableRecord
100
AcDbLayerTableRecord
  2
13
 70
     0
 62
    13
  6
CONTINUOUS
  0
LAYER
  5
47
330
2
100
AcDbSymbolTableRecord
100
AcDbLayerTableRecord
  2
14
 70
     0
 62
    14
  6
CONTINUOUS
  0
LAYER
  5
48
330
2
100
AcDbSymbolTableRecord
100
AcDbLayerTableRecord
  2
15
 70
     0
 62
    15
  6
CONTINUOUS
  0
LAYER
  5
49
330
2
100
AcDbSymbolTableRecord
100
AcDbLayerTableRecord
  2
16
 70
     0
 62
    16
  6
CONTINUOUS
  0
LAYER
  5
4A
330
2
100
AcDbSymbolTableRecord
100
AcDbLayerTableRecord
  2
17
 70
     0
 62
    17
  6
CONTINUOUS
  0
LAYER
  5
4B
330
2
100
AcDbSymbolTableRecord
100
AcDbLayerTableRecord
  2
18
 70
     0
 62
    18
  6
CONTINUOUS
  0
LAYER
  5
4C
330
2
100
AcDbSymbolTableRecord
100
AcDbLayerTableRecord
  2
19
 70
     0
 62
    19
  6
CONTINUOUS
  0
LAYER
  5
4D
330
2
100
AcDbSymbolTableRecord
100
AcDbLayerTableRecord
  2
20
 70
     0
 62
    20
  6
CONTINUOUS
  0
LAYER
  5
4E
330
2
100
AcDbSymbolTableRecord
100
AcDbLayerTableRecord
  2
21
 70
     0
 62
    21
  6
CONTINUOUS
  0
LAYER
  5
4F
330
2
100
AcDbSymbolTableRecord
100
AcDbLayerTableRecord
  2
22
 70
     0
 62
    22
  6
CONTINUOUS
  0
LAYER
  5
50
330
2
100
AcDbSymbolTableRecord
100
AcDbLayerTableRecord
  2
23
 70
     0
 62
    23
  6
CONTINUOUS
  0
LAYER
  5
51
330
2
100
AcDbSymbolTableRecord
100
AcDbLayerTableRecord
  2
24
 70
     0
 62
    24
  6
CONTINUOUS
  0
LAYER
  5
52
330
2
100
AcDbSymbolTableRecord
100
AcDbLayerTableRecord
  2
25
 70
     0
 62
    25
  6
CONTINUOUS
  0
LAYER
  5
53
330
2
100
AcDbSymbolTableRecord
100
AcDbLayerTableRecord
  2
26
 70
     0
 62
    26
  6
CONTINUOUS
  0
LAYER
  5
54
330
2
100
AcDbSymbolTableRecord
100
AcDbLayerTableRecord
  2
27
 70
     0
 62
    27
  6
CONTINUOUS
  0
LAYER
  5
55
330
2
100
AcDbSymbolTableRecord
100
AcDbLayerTableRecord
  2
28
 70
     0
 62
    28
  6
CONTINUOUS
  0
LAYER
  5
56
330
2
100
AcDbSymbolTableRecord
100
AcDbLayerTableRecord
  2
29
 70
     0
 62
    29
  6
CONTINUOUS
  0
LAYER
  5
57
330
2
100
AcDbSymbolTableRecord
100
AcDbLayerTableRecord
  2
30
 70
     0
 62
    30
  6
CONTINUOUS
  0
LAYER
  5
58
330
2
100
AcDbSymbolTableRecord
100
AcDbLayerTableRecord
  2
31
 70
     0
 62
    31
  6
CONTINUOUS
  0
LAYER
  5
59
330
2
100
AcDbSymbolTableRecord
100
AcDbLayerTableRecord
  2
32
 70
     0
 62
    32
  6
CONTINUOUS
  0
LAYER
  5
5A
330
2
100
AcDbSymbolTableRecord
100
AcDbLayerTableRecord
  2
33
 70
     0
 62
    33
  6
CONTINUOUS
  0
LAYER
  5
5B
330
2
100
AcDbSymbolTableRecord
100
AcDbLayerTableRecord
  2
34
 70
     0
 62
    34
  6
CONTINUOUS
  0
LAYER
  5
5C
330
2
100
AcDbSymbolTableRecord
100
AcDbLayerTableRecord
  2
35
 70
     0
 62
    35
  6
CONTINUOUS
  0
LAYER
  5
5D
330
2
100
AcDbSymbolTableRecord
100
AcDbLayerTableRecord
  2
36
 70
     0
 62
    36
  6
CONTINUOUS
  0
LAYER
  5
5E
330
2
100
AcDbSymbolTableRecord
100
AcDbLayerTableRecord
  2
37
 70
     0
 62
    37
  6
CONTINUOUS
  0
LAYER
  5
5F
330
2
100
AcDbSymbolTableRecord
100
AcDbLayerTableRecord
  2
38
 70
     0
 62
    38
  6
CONTINUOUS
  0
LAYER
  5
60
330
2
100
AcDbSymbolTableRecord
100
AcDbLayerTableRecord
  2
39
 70
     0
 62
    39
  6
CONTINUOUS
  0
LAYER
  5
61
330
2
100
AcDbSymbolTableRecord
100
AcDbLayerTableRecord
  2
40
 70
     0
 62
    40
  6
CONTINUOUS
  0
LAYER
  5
62
330
2
100
AcDbSymbolTableRecord
100
AcDbLayerTableRecord
  2
41
 70
     0
 62
    41
  6
CONTINUOUS
  0
LAYER
  5
63
330
2
100
AcDbSymbolTableRecord
100
AcDbLayerTableRecord
  2
42
 70
     0
 62
    42
  6
CONTINUOUS
  0
LAYER
  5
64
330
2
100
AcDbSymbolTableRecord
100
AcDbLayerTableRecord
  2
43
 70
     0
 62
    43
  6
CONTINUOUS
  0
LAYER
  5
65
330
2
100
AcDbSymbolTableRecord
100
AcDbLayerTableRecord
  2
44
 70
     0
 62
    44
  6
CONTINUOUS
  0
LAYER
  5
66
330
2
100
AcDbSymbolTableRecord
100
AcDbLayerTableRecord
  2
45
 70
     0
 62
    45
  6
CONTINUOUS
  0
LAYER
  5
67
330
2
100
AcDbSymbolTableRecord
100
AcDbLayerTableRecord
  2
46
 70
     0
 62
    46
  6
CONTINUOUS
  0
LAYER
  5
68
330
2
100
AcDbSymbolTableRecord
100
AcDbLayerTableRecord
  2
47
 70
     0
 62
    47
  6
CONTINUOUS
  0
LAYER
  5
69
330
2
100
AcDbSymbolTableRecord
100
AcDbLayerTableRecord
  2
48
 70
     0
 62
    48
  6
CONTINUOUS
  0
LAYER
  5
6A
330
2
100
AcDbSymbolTableRecord
100
AcDbLayerTableRecord
  2
49
 70
     0
 62
    49
  6
CONTINUOUS
  0
LAYER
  5
6B
330
2
100
AcDbSymbolTableRecord
100
AcDbLayerTableRecord
  2
50
 70
     0
 62
    50
  6
CONTINUOUS
  0
LAYER
  5
6C
330
2
100
AcDbSymbolTableRecord
100
AcDbLayerTableRecord
  2
51
 70
     0
 62
    51
  6
CONTINUOUS
  0
LAYER
  5
6D
330
2
100
AcDbSymbolTableRecord
100
AcDbLayerTableRecord
  2
52
 70
     0
 62
    52
  6
CONTINUOUS
  0
LAYER
  5
6E
330
2
100
AcDbSymbolTableRecord
100
AcDbLayerTableRecord
  2
53
 70
     0
 62
    53
  6
CONTINUOUS
  0
LAYER
  5
6F
330
2
100
AcDbSymbolTableRecord
100
AcDbLayerTableRecord
  2
54
 70
     0
 62
    54
  6
CONTINUOUS
  0
LAYER
  5
70
330
2
100
AcDbSymbolTableRecord
100
AcDbLayerTableRecord
  2
55
 70
     0
 62
    55
  6
CONTINUOUS
  0
LAYER
  5
71
330
2
100
AcDbSymbolTableRecord
100
AcDbLayerTableRecord
  2
56
 70
     0
 62
    56
  6
CONTINUOUS
  0
LAYER
  5
72
330
2
100
AcDbSymbolTableRecord
100
AcDbLayerTableRecord
  2
57
 70
     0
 62
    57
  6
CONTINUOUS
  0
LAYER
  5
73
330
2
100
AcDbSymbolTableRecord
100
AcDbLayerTableRecord
  2
58
 70
     0
 62
    58
  6
CONTINUOUS
  0
LAYER
  5
74
330
2
100
AcDbSymbolTableRecord
100
AcDbLayerTableRecord
  2
59
 70
     0
 62
    59
  6
CONTINUOUS
  0
LAYER
  5
75
330
2
100
AcDbSymbolTableRecord
100
AcDbLayerTableRecord
  2
60
 70
     0
 62
    60
  6
CONTINUOUS
  0
LAYER
  5
76
330
2
100
AcDbSymbolTableRecord
100
AcDbLayerTableRecord
  2
61
 70
     0
 62
    61
  6
CONTINUOUS
  0
LAYER
  5
77
330
2
100
AcDbSymbolTableRecord
100
AcDbLayerTableRecord
  2
62
 70
     0
 62
    62
  6
CONTINUOUS
  0
LAYER
  5
78
330
2
100
AcDbSymbolTableRecord
100
AcDbLayerTableRecord
  2
63
 70
     0
 62
    63
  6
CONTINUOUS
  0
LAYER
  5
79
330
2
100
AcDbSymbolTableRecord
100
AcDbLayerTableRecord
  2
64
 70
     0
 62
    64
  6
CONTINUOUS
  0
LAYER
  5
7A
330
2
100
AcDbSymbolTableRecord
100
AcDbLayerTableRecord
  2
65
 70
     0
 62
    65
  6
CONTINUOUS
  0
LAYER
  5
7B
330
2
100
AcDbSymbolTableRecord
100
AcDbLayerTableRecord
  2
66
 70
     0
 62
    66
  6
CONTINUOUS
  0
LAYER
  5
7C
330
2
100
AcDbSymbolTableRecord
100
AcDbLayerTableRecord
  2
67
 70
     0
 62
    67
  6
CONTINUOUS
  0
LAYER
  5
7D
330
2
100
AcDbSymbolTableRecord
100
AcDbLayerTableRecord
  2
68
 70
     0
 62
    68
  6
CONTINUOUS
  0
LAYER
  5
7E
330
2
100
AcDbSymbolTableRecord
100
AcDbLayerTableRecord
  2
69
 70
     0
 62
    69
  6
CONTINUOUS
  0
LAYER
  5
7F
330
2
100
AcDbSymbolTableRecord
100
AcDbLayerTableRecord
  2
70
 70
     0
 62
    70
  6
CONTINUOUS
  0
LAYER
  5
80
330
2
100
AcDbSymbolTableRecord
100
AcDbLayerTableRecord
  2
71
 70
     0
 62
    71
  6
CONTINUOUS
  0
LAYER
  5
81
330
2
100
AcDbSymbolTableRecord
100
AcDbLayerTableRecord
  2
72
 70
     0
 62
    72
  6
CONTINUOUS
  0
LAYER
  5
82
330
2
100
AcDbSymbolTableRecord
100
AcDbLayerTableRecord
  2
73
 70
     0
 62
    73
  6
CONTINUOUS
  0
LAYER
  5
83
330
2
100
AcDbSymbolTableRecord
100
AcDbLayerTableRecord
  2
74
 70
     0
 62
    74
  6
CONTINUOUS
  0
LAYER
  5
84
330
2
100
AcDbSymbolTableRecord
100
AcDbLayerTableRecord
  2
75
 70
     0
 62
    75
  6
CONTINUOUS
  0
LAYER
  5
85
330
2
100
AcDbSymbolTableRecord
100
AcDbLayerTableRecord
  2
76
 70
     0
 62
    76
  6
CONTINUOUS
  0
LAYER
  5
86
330
2
100
AcDbSymbolTableRecord
100
AcDbLayerTableRecord
  2
77
 70
     0
 62
    77
  6
CONTINUOUS
  0
LAYER
  5
87
330
2
100
AcDbSymbolTableRecord
100
AcDbLayerTableRecord
  2
78
 70
     0
 62
    78
  6
CONTINUOUS
  0
LAYER
  5
88
330
2
100
AcDbSymbolTableRecord
100
AcDbLayerTableRecord
  2
79
 70
     0
 62
    79
  6
CONTINUOUS
  0
LAYER
  5
89
330
2
100
AcDbSymbolTableRecord
100
AcDbLayerTableRecord
  2
80
 70
     0
 62
    80
  6
CONTINUOUS
  0
LAYER
  5
8A
330
2
100
AcDbSymbolTableRecord
100
AcDbLayerTableRecord
  2
81
 70
     0
 62
    81
  6
CONTINUOUS
  0
LAYER
  5
8B
330
2
100
AcDbSymbolTableRecord
100
AcDbLayerTableRecord
  2
82
 70
     0
 62
    82
  6
CONTINUOUS
  0
LAYER
  5
8C
330
2
100
AcDbSymbolTableRecord
100
AcDbLayerTableRecord
  2
83
 70
     0
 62
    83
  6
CONTINUOUS
  0
LAYER
  5
8D
330
2
100
AcDbSymbolTableRecord
100
AcDbLayerTableRecord
  2
84
 70
     0
 62
    84
  6
CONTINUOUS
  0
LAYER
  5
8E
330
2
100
AcDbSymbolTableRecord
100
AcDbLayerTableRecord
  2
85
 70
     0
 62
    85
  6
CONTINUOUS
  0
LAYER
  5
8F
330
2
100
AcDbSymbolTableRecord
100
AcDbLayerTableRecord
  2
86
 70
     0
 62
    86
  6
CONTINUOUS
  0
LAYER
  5
90
330
2
100
AcDbSymbolTableRecord
100
AcDbLayerTableRecord
  2
87
 70
     0
 62
    87
  6
CONTINUOUS
  0
LAYER
  5
91
330
2
100
AcDbSymbolTableRecord
100
AcDbLayerTableRecord
  2
88
 70
     0
 62
    88
  6
CONTINUOUS
  0
LAYER
  5
92
330
2
100
AcDbSymbolTableRecord
100
AcDbLayerTableRecord
  2
89
 70
     0
 62
    89
  6
CONTINUOUS
  0
LAYER
  5
93
330
2
100
AcDbSymbolTableRecord
100
AcDbLayerTableRecord
  2
90
 70
     0
 62
    90
  6
CONTINUOUS
  0
LAYER
  5
94
330
2
100
AcDbSymbolTableRecord
100
AcDbLayerTableRecord
  2
91
 70
     0
 62
    91
  6
CONTINUOUS
  0
LAYER
  5
95
330
2
100
AcDbSymbolTableRecord
100
AcDbLayerTableRecord
  2
92
 70
     0
 62
    92
  6
CONTINUOUS
  0
LAYER
  5
96
330
2
100
AcDbSymbolTableRecord
100
AcDbLayerTableRecord
  2
93
 70
     0
 62
    93
  6
CONTINUOUS
  0
LAYER
  5
97
330
2
100
AcDbSymbolTableRecord
100
AcDbLayerTableRecord
  2
94
 70
     0
 62
    94
  6
CONTINUOUS
  0
LAYER
  5
98
330
2
100
AcDbSymbolTableRecord
100
AcDbLayerTableRecord
  2
95
 70
     0
 62
    95
  6
CONTINUOUS
  0
LAYER
  5
99
330
2
100
AcDbSymbolTableRecord
100
AcDbLayerTableRecord
  2
96
 70
     0
 62
    96
  6
CONTINUOUS
  0
LAYER
  5
9A
330
2
100
AcDbSymbolTableRecord
100
AcDbLayerTableRecord
  2
97
 70
     0
 62
    97
  6
CONTINUOUS
  0
LAYER
  5
9B
330
2
100
AcDbSymbolTableRecord
100
AcDbLayerTableRecord
  2
98
 70
     0
 62
    98
  6
CONTINUOUS
  0
LAYER
  5
9C
330
2
100
AcDbSymbolTableRecord
100
AcDbLayerTableRecord
  2
99
 70
     0
 62
    99
  6
CONTINUOUS
  0
LAYER
  5
9D
330
2
100
AcDbSymbolTableRecord
100
AcDbLayerTableRecord
  2
100
 70
     0
 62
   100
  6
CONTINUOUS
  0
LAYER
  5
9E
330
2
100
AcDbSymbolTableRecord
100
AcDbLayerTableRecord
  2
101
 70
     0
 62
   101
  6
CONTINUOUS
  0
LAYER
  5
9F
330
2
100
AcDbSymbolTableRecord
100
AcDbLayerTableRecord
  2
102
 70
     0
 62
   102
  6
CONTINUOUS
  0
LAYER
  5
A0
330
2
100
AcDbSymbolTableRecord
100
AcDbLayerTableRecord
  2
103
 70
     0
 62
   103
  6
CONTINUOUS
  0
LAYER
  5
A1
330
2
100
AcDbSymbolTableRecord
100
AcDbLayerTableRecord
  2
104
 70
     0
 62
   104
  6
CONTINUOUS
  0
LAYER
  5
A2
330
2
100
AcDbSymbolTableRecord
100
AcDbLayerTableRecord
  2
105
 70
     0
 62
   105
  6
CONTINUOUS
  0
LAYER
  5
A3
330
2
100
AcDbSymbolTableRecord
100
AcDbLayerTableRecord
  2
106
 70
     0
 62
   106
  6
CONTINUOUS
  0
LAYER
  5
A4
330
2
100
AcDbSymbolTableRecord
100
AcDbLayerTableRecord
  2
107
 70
     0
 62
   107
  6
CONTINUOUS
  0
LAYER
  5
A5
330
2
100
AcDbSymbolTableRecord
100
AcDbLayerTableRecord
  2
108
 70
     0
 62
   108
  6
CONTINUOUS
  0
LAYER
  5
A6
330
2
100
AcDbSymbolTableRecord
100
AcDbLayerTableRecord
  2
109
 70
     0
 62
   109
  6
CONTINUOUS
  0
LAYER
  5
A7
330
2
100
AcDbSymbolTableRecord
100
AcDbLayerTableRecord
  2
110
 70
     0
 62
   110
  6
CONTINUOUS
  0
LAYER
  5
A8
330
2
100
AcDbSymbolTableRecord
100
AcDbLayerTableRecord
  2
111
 70
     0
 62
   111
  6
CONTINUOUS
  0
LAYER
  5
A9
330
2
100
AcDbSymbolTableRecord
100
AcDbLayerTableRecord
  2
112
 70
     0
 62
   112
  6
CONTINUOUS
  0
LAYER
  5
AA
330
2
100
AcDbSymbolTableRecord
100
AcDbLayerTableRecord
  2
113
 70
     0
 62
   113
  6
CONTINUOUS
  0
LAYER
  5
AB
330
2
100
AcDbSymbolTableRecord
100
AcDbLayerTableRecord
  2
114
 70
     0
 62
   114
  6
CONTINUOUS
  0
LAYER
  5
AC
330
2
100
AcDbSymbolTableRecord
100
AcDbLayerTableRecord
  2
115
 70
     0
 62
   115
  6
CONTINUOUS
  0
LAYER
  5
AD
330
2
100
AcDbSymbolTableRecord
100
AcDbLayerTableRecord
  2
116
 70
     0
 62
   116
  6
CONTINUOUS
  0
LAYER
  5
AE
330
2
100
AcDbSymbolTableRecord
100
AcDbLayerTableRecord
  2
117
 70
     0
 62
   117
  6
CONTINUOUS
  0
LAYER
  5
AF
330
2
100
AcDbSymbolTableRecord
100
AcDbLayerTableRecord
  2
118
 70
     0
 62
   118
  6
CONTINUOUS
  0
LAYER
  5
B0
330
2
100
AcDbSymbolTableRecord
100
AcDbLayerTableRecord
  2
119
 70
     0
 62
   119
  6
CONTINUOUS
  0
LAYER
  5
B1
330
2
100
AcDbSymbolTableRecord
100
AcDbLayerTableRecord
  2
120
 70
     0
 62
   120
  6
CONTINUOUS
  0
LAYER
  5
B2
330
2
100
AcDbSymbolTableRecord
100
AcDbLayerTableRecord
  2
121
 70
     0
 62
   121
  6
CONTINUOUS
  0
LAYER
  5
B3
330
2
100
AcDbSymbolTableRecord
100
AcDbLayerTableRecord
  2
122
 70
     0
 62
   122
  6
CONTINUOUS
  0
LAYER
  5
B4
330
2
100
AcDbSymbolTableRecord
100
AcDbLayerTableRecord
  2
123
 70
     0
 62
   123
  6
CONTINUOUS
  0
LAYER
  5
B5
330
2
100
AcDbSymbolTableRecord
100
AcDbLayerTableRecord
  2
124
 70
     0
 62
   124
  6
CONTINUOUS
  0
LAYER
  5
B6
330
2
100
AcDbSymbolTableRecord
100
AcDbLayerTableRecord
  2
125
 70
     0
 62
   125
  6
CONTINUOUS
  0
LAYER
  5
B7
330
2
100
AcDbSymbolTableRecord
100
AcDbLayerTableRecord
  2
126
 70
     0
 62
   126
  6
CONTINUOUS
  0
LAYER
  5
B8
330
2
100
AcDbSymbolTableRecord
100
AcDbLayerTableRecord
  2
127
 70
     0
 62
   127
  6
CONTINUOUS
  0
LAYER
  5
B9
330
2
100
AcDbSymbolTableRecord
100
AcDbLayerTableRecord
  2
128
 70
     0
 62
   128
  6
CONTINUOUS
  0
LAYER
  5
BA
330
2
100
AcDbSymbolTableRecord
100
AcDbLayerTableRecord
  2
129
 70
     0
 62
   129
  6
CONTINUOUS
  0
LAYER
  5
BB
330
2
100
AcDbSymbolTableRecord
100
AcDbLayerTableRecord
  2
130
 70
     0
 62
   130
  6
CONTINUOUS
  0
LAYER
  5
BC
330
2
100
AcDbSymbolTableRecord
100
AcDbLayerTableRecord
  2
131
 70
     0
 62
   131
  6
CONTINUOUS
  0
LAYER
  5
BD
330
2
100
AcDbSymbolTableRecord
100
AcDbLayerTableRecord
  2
132
 70
     0
 62
   132
  6
CONTINUOUS
  0
LAYER
  5
BE
330
2
100
AcDbSymbolTableRecord
100
AcDbLayerTableRecord
  2
133
 70
     0
 62
   133
  6
CONTINUOUS
  0
LAYER
  5
BF
330
2
100
AcDbSymbolTableRecord
100
AcDbLayerTableRecord
  2
134
 70
     0
 62
   134
  6
CONTINUOUS
  0
LAYER
  5
C0
330
2
100
AcDbSymbolTableRecord
100
AcDbLayerTableRecord
  2
135
 70
     0
 62
   135
  6
CONTINUOUS
  0
LAYER
  5
C1
330
2
100
AcDbSymbolTableRecord
100
AcDbLayerTableRecord
  2
136
 70
     0
 62
   136
  6
CONTINUOUS
  0
LAYER
  5
C2
330
2
100
AcDbSymbolTableRecord
100
AcDbLayerTableRecord
  2
137
 70
     0
 62
   137
  6
CONTINUOUS
  0
LAYER
  5
C3
330
2
100
AcDbSymbolTableRecord
100
AcDbLayerTableRecord
  2
138
 70
     0
 62
   138
  6
CONTINUOUS
  0
LAYER
  5
C4
330
2
100
AcDbSymbolTableRecord
100
AcDbLayerTableRecord
  2
139
 70
     0
 62
   139
  6
CONTINUOUS
  0
LAYER
  5
C5
330
2
100
AcDbSymbolTableRecord
100
AcDbLayerTableRecord
  2
140
 70
     0
 62
   140
  6
CONTINUOUS
  0
LAYER
  5
C6
330
2
100
AcDbSymbolTableRecord
100
AcDbLayerTableRecord
  2
141
 70
     0
 62
   141
  6
CONTINUOUS
  0
LAYER
  5
C7
330
2
100
AcDbSymbolTableRecord
100
AcDbLayerTableRecord
  2
142
 70
     0
 62
   142
  6
CONTINUOUS
  0
LAYER
  5
C8
330
2
100
AcDbSymbolTableRecord
100
AcDbLayerTableRecord
  2
143
 70
     0
 62
   143
  6
CONTINUOUS
  0
LAYER
  5
C9
330
2
100
AcDbSymbolTableRecord
100
AcDbLayerTableRecord
  2
144
 70
     0
 62
   144
  6
CONTINUOUS
  0
LAYER
  5
CA
330
2
100
AcDbSymbolTableRecord
100
AcDbLayerTableRecord
  2
145
 70
     0
 62
   145
  6
CONTINUOUS
  0
LAYER
  5
CB
330
2
100
AcDbSymbolTableRecord
100
AcDbLayerTableRecord
  2
146
 70
     0
 62
   146
  6
CONTINUOUS
  0
LAYER
  5
CC
330
2
100
AcDbSymbolTableRecord
100
AcDbLayerTableRecord
  2
147
 70
     0
 62
   147
  6
CONTINUOUS
  0
LAYER
  5
CD
330
2
100
AcDbSymbolTableRecord
100
AcDbLayerTableRecord
  2
148
 70
     0
 62
   148
  6
CONTINUOUS
  0
LAYER
  5
CE
330
2
100
AcDbSymbolTableRecord
100
AcDbLayerTableRecord
  2
149
 70
     0
 62
   149
  6
CONTINUOUS
  0
LAYER
  5
CF
330
2
100
AcDbSymbolTableRecord
100
AcDbLayerTableRecord
  2
150
 70
     0
 62
   150
  6
CONTINUOUS
  0
LAYER
  5
D0
330
2
100
AcDbSymbolTableRecord
100
AcDbLayerTableRecord
  2
151
 70
     0
 62
   151
  6
CONTINUOUS
  0
LAYER
  5
D1
330
2
100
AcDbSymbolTableRecord
100
AcDbLayerTableRecord
  2
152
 70
     0
 62
   152
  6
CONTINUOUS
  0
LAYER
  5
D2
330
2
100
AcDbSymbolTableRecord
100
AcDbLayerTableRecord
  2
153
 70
     0
 62
   153
  6
CONTINUOUS
  0
LAYER
  5
D3
330
2
100
AcDbSymbolTableRecord
100
AcDbLayerTableRecord
  2
154
 70
     0
 62
   154
  6
CONTINUOUS
  0
LAYER
  5
D4
330
2
100
AcDbSymbolTableRecord
100
AcDbLayerTableRecord
  2
155
 70
     0
 62
   155
  6
CONTINUOUS
  0
LAYER
  5
D5
330
2
100
AcDbSymbolTableRecord
100
AcDbLayerTableRecord
  2
156
 70
     0
 62
   156
  6
CONTINUOUS
  0
LAYER
  5
D6
330
2
100
AcDbSymbolTableRecord
100
AcDbLayerTableRecord
  2
157
 70
     0
 62
   157
  6
CONTINUOUS
  0
LAYER
  5
D7
330
2
100
AcDbSymbolTableRecord
100
AcDbLayerTableRecord
  2
158
 70
     0
 62
   158
  6
CONTINUOUS
  0
LAYER
  5
D8
330
2
100
AcDbSymbolTableRecord
100
AcDbLayerTableRecord
  2
159
 70
     0
 62
   159
  6
CONTINUOUS
  0
LAYER
  5
D9
330
2
100
AcDbSymbolTableRecord
100
AcDbLayerTableRecord
  2
160
 70
     0
 62
   160
  6
CONTINUOUS
  0
LAYER
  5
DA
330
2
100
AcDbSymbolTableRecord
100
AcDbLayerTableRecord
  2
161
 70
     0
 62
   161
  6
CONTINUOUS
  0
LAYER
  5
DB
330
2
100
AcDbSymbolTableRecord
100
AcDbLayerTableRecord
  2
162
 70
     0
 62
   162
  6
CONTINUOUS
  0
LAYER
  5
DC
330
2
100
AcDbSymbolTableRecord
100
AcDbLayerTableRecord
  2
163
 70
     0
 62
   163
  6
CONTINUOUS
  0
LAYER
  5
DD
330
2
100
AcDbSymbolTableRecord
100
AcDbLayerTableRecord
  2
164
 70
     0
 62
   164
  6
CONTINUOUS
  0
LAYER
  5
DE
330
2
100
AcDbSymbolTableRecord
100
AcDbLayerTableRecord
  2
165
 70
     0
 62
   165
  6
CONTINUOUS
  0
LAYER
  5
DF
330
2
100
AcDbSymbolTableRecord
100
AcDbLayerTableRecord
  2
166
 70
     0
 62
   166
  6
CONTINUOUS
  0
LAYER
  5
E0
330
2
100
AcDbSymbolTableRecord
100
AcDbLayerTableRecord
  2
167
 70
     0
 62
   167
  6
CONTINUOUS
  0
LAYER
  5
E1
330
2
100
AcDbSymbolTableRecord
100
AcDbLayerTableRecord
  2
168
 70
     0
 62
   168
  6
CONTINUOUS
  0
LAYER
  5
E2
330
2
100
AcDbSymbolTableRecord
100
AcDbLayerTableRecord
  2
169
 70
     0
 62
   169
  6
CONTINUOUS
  0
LAYER
  5
E3
330
2
100
AcDbSymbolTableRecord
100
AcDbLayerTableRecord
  2
170
 70
     0
 62
   170
  6
CONTINUOUS
  0
LAYER
  5
E4
330
2
100
AcDbSymbolTableRecord
100
AcDbLayerTableRecord
  2
171
 70
     0
 62
   171
  6
CONTINUOUS
  0
LAYER
  5
E5
330
2
100
AcDbSymbolTableRecord
100
AcDbLayerTableRecord
  2
172
 70
     0
 62
   172
  6
CONTINUOUS
  0
LAYER
  5
E6
330
2
100
AcDbSymbolTableRecord
100
AcDbLayerTableRecord
  2
173
 70
     0
 62
   173
  6
CONTINUOUS
  0
LAYER
  5
E7
330
2
100
AcDbSymbolTableRecord
100
AcDbLayerTableRecord
  2
174
 70
     0
 62
   174
  6
CONTINUOUS
  0
LAYER
  5
E8
330
2
100
AcDbSymbolTableRecord
100
AcDbLayerTableRecord
  2
175
 70
     0
 62
   175
  6
CONTINUOUS
  0
LAYER
  5
E9
330
2
100
AcDbSymbolTableRecord
100
AcDbLayerTableRecord
  2
176
 70
     0
 62
   176
  6
CONTINUOUS
  0
LAYER
  5
EA
330
2
100
AcDbSymbolTableRecord
100
AcDbLayerTableRecord
  2
177
 70
     0
 62
   177
  6
CONTINUOUS
  0
LAYER
  5
EB
330
2
100
AcDbSymbolTableRecord
100
AcDbLayerTableRecord
  2
178
 70
     0
 62
   178
  6
CONTINUOUS
  0
LAYER
  5
EC
330
2
100
AcDbSymbolTableRecord
100
AcDbLayerTableRecord
  2
179
 70
     0
 62
   179
  6
CONTINUOUS
  0
LAYER
  5
ED
330
2
100
AcDbSymbolTableRecord
100
AcDbLayerTableRecord
  2
180
 70
     0
 62
   180
  6
CONTINUOUS
  0
LAYER
  5
EE
330
2
100
AcDbSymbolTableRecord
100
AcDbLayerTableRecord
  2
181
 70
     0
 62
   181
  6
CONTINUOUS
  0
LAYER
  5
EF
330
2
100
AcDbSymbolTableRecord
100
AcDbLayerTableRecord
  2
182
 70
     0
 62
   182
  6
CONTINUOUS
  0
LAYER
  5
F0
330
2
100
AcDbSymbolTableRecord
100
AcDbLayerTableRecord
  2
183
 70
     0
 62
   183
  6
CONTINUOUS
  0
LAYER
  5
F1
330
2
100
AcDbSymbolTableRecord
100
AcDbLayerTableRecord
  2
184
 70
     0
 62
   184
  6
CONTINUOUS
  0
LAYER
  5
F2
330
2
100
AcDbSymbolTableRecord
100
AcDbLayerTableRecord
  2
185
 70
     0
 62
   185
  6
CONTINUOUS
  0
LAYER
  5
F3
330
2
100
AcDbSymbolTableRecord
100
AcDbLayerTableRecord
  2
186
 70
     0
 62
   186
  6
CONTINUOUS
  0
LAYER
  5
F4
330
2
100
AcDbSymbolTableRecord
100
AcDbLayerTableRecord
  2
187
 70
     0
 62
   187
  6
CONTINUOUS
  0
LAYER
  5
F5
330
2
100
AcDbSymbolTableRecord
100
AcDbLayerTableRecord
  2
188
 70
     0
 62
   188
  6
CONTINUOUS
  0
LAYER
  5
F6
330
2
100
AcDbSymbolTableRecord
100
AcDbLayerTableRecord
  2
189
 70
     0
 62
   189
  6
CONTINUOUS
  0
LAYER
  5
F7
330
2
100
AcDbSymbolTableRecord
100
AcDbLayerTableRecord
  2
190
 70
     0
 62
   190
  6
CONTINUOUS
  0
LAYER
  5
F8
330
2
100
AcDbSymbolTableRecord
100
AcDbLayerTableRecord
  2
191
 70
     0
 62
   191
  6
CONTINUOUS
  0
LAYER
  5
F9
330
2
100
AcDbSymbolTableRecord
100
AcDbLayerTableRecord
  2
192
 70
     0
 62
   192
  6
CONTINUOUS
  0
LAYER
  5
FA
330
2
100
AcDbSymbolTableRecord
100
AcDbLayerTableRecord
  2
193
 70
     0
 62
   193
  6
CONTINUOUS
  0
LAYER
  5
FB
330
2
100
AcDbSymbolTableRecord
100
AcDbLayerTableRecord
  2
194
 70
     0
 62
   194
  6
CONTINUOUS
  0
LAYER
  5
FC
330
2
100
AcDbSymbolTableRecord
100
AcDbLayerTableRecord
  2
195
 70
     0
 62
   195
  6
CONTINUOUS
  0
LAYER
  5
FD
330
2
100
AcDbSymbolTableRecord
100
AcDbLayerTableRecord
  2
196
 70
     0
 62
   196
  6
CONTINUOUS
  0
LAYER
  5
FE
330
2
100
AcDbSymbolTableRecord
100
AcDbLayerTableRecord
  2
197
 70
     0
 62
   197
  6
CONTINUOUS
  0
LAYER
  5
FF
330
2
100
AcDbSymbolTableRecord
100
AcDbLayerTableRecord
  2
198
 70
     0
 62
   198
  6
CONTINUOUS
  0
LAYER
  5
100
330
2
100
AcDbSymbolTableRecord
100
AcDbLayerTableRecord
  2
199
 70
     0
 62
   199
  6
CONTINUOUS
  0
LAYER
  5
101
330
2
100
AcDbSymbolTableRecord
100
AcDbLayerTableRecord
  2
200
 70
     0
 62
   200
  6
CONTINUOUS
  0
LAYER
  5
102
330
2
100
AcDbSymbolTableRecord
100
AcDbLayerTableRecord
  2
201
 70
     0
 62
   201
  6
CONTINUOUS
  0
LAYER
  5
103
330
2
100
AcDbSymbolTableRecord
100
AcDbLayerTableRecord
  2
202
 70
     0
 62
   202
  6
CONTINUOUS
  0
LAYER
  5
104
330
2
100
AcDbSymbolTableRecord
100
AcDbLayerTableRecord
  2
203
 70
     0
 62
   203
  6
CONTINUOUS
  0
LAYER
  5
105
330
2
100
AcDbSymbolTableRecord
100
AcDbLayerTableRecord
  2
204
 70
     0
 62
   204
  6
CONTINUOUS
  0
LAYER
  5
106
330
2
100
AcDbSymbolTableRecord
100
AcDbLayerTableRecord
  2
205
 70
     0
 62
   205
  6
CONTINUOUS
  0
LAYER
  5
107
330
2
100
AcDbSymbolTableRecord
100
AcDbLayerTableRecord
  2
206
 70
     0
 62
   206
  6
CONTINUOUS
  0
LAYER
  5
108
330
2
100
AcDbSymbolTableRecord
100
AcDbLayerTableRecord
  2
207
 70
     0
 62
   207
  6
CONTINUOUS
  0
LAYER
  5
109
330
2
100
AcDbSymbolTableRecord
100
AcDbLayerTableRecord
  2
208
 70
     0
 62
   208
  6
CONTINUOUS
  0
LAYER
  5
10A
330
2
100
AcDbSymbolTableRecord
100
AcDbLayerTableRecord
  2
209
 70
     0
 62
   209
  6
CONTINUOUS
  0
LAYER
  5
10B
330
2
100
AcDbSymbolTableRecord
100
AcDbLayerTableRecord
  2
210
 70
     0
 62
   210
  6
CONTINUOUS
  0
LAYER
  5
10C
330
2
100
AcDbSymbolTableRecord
100
AcDbLayerTableRecord
  2
211
 70
     0
 62
   211
  6
CONTINUOUS
  0
LAYER
  5
10D
330
2
100
AcDbSymbolTableRecord
100
AcDbLayerTableRecord
  2
212
 70
     0
 62
   212
  6
CONTINUOUS
  0
LAYER
  5
10E
330
2
100
AcDbSymbolTableRecord
100
AcDbLayerTableRecord
  2
213
 70
     0
 62
   213
  6
CONTINUOUS
  0
LAYER
  5
10F
330
2
100
AcDbSymbolTableRecord
100
AcDbLayerTableRecord
  2
214
 70
     0
 62
   214
  6
CONTINUOUS
  0
LAYER
  5
110
330
2
100
AcDbSymbolTableRecord
100
AcDbLayerTableRecord
  2
215
 70
     0
 62
   215
  6
CONTINUOUS
  0
LAYER
  5
111
330
2
100
AcDbSymbolTableRecord
100
AcDbLayerTableRecord
  2
216
 70
     0
 62
   216
  6
CONTINUOUS
  0
LAYER
  5
112
330
2
100
AcDbSymbolTableRecord
100
AcDbLayerTableRecord
  2
217
 70
     0
 62
   217
  6
CONTINUOUS
  0
LAYER
  5
113
330
2
100
AcDbSymbolTableRecord
100
AcDbLayerTableRecord
  2
218
 70
     0
 62
   218
  6
CONTINUOUS
  0
LAYER
  5
114
330
2
100
AcDbSymbolTableRecord
100
AcDbLayerTableRecord
  2
219
 70
     0
 62
   219
  6
CONTINUOUS
  0
LAYER
  5
115
330
2
100
AcDbSymbolTableRecord
100
AcDbLayerTableRecord
  2
220
 70
     0
 62
   220
  6
CONTINUOUS
  0
LAYER
  5
116
330
2
100
AcDbSymbolTableRecord
100
AcDbLayerTableRecord
  2
221
 70
     0
 62
   221
  6
CONTINUOUS
  0
LAYER
  5
117
330
2
100
AcDbSymbolTableRecord
100
AcDbLayerTableRecord
  2
222
 70
     0
 62
   222
  6
CONTINUOUS
  0
LAYER
  5
118
330
2
100
AcDbSymbolTableRecord
100
AcDbLayerTableRecord
  2
223
 70
     0
 62
   223
  6
CONTINUOUS
  0
LAYER
  5
119
330
2
100
AcDbSymbolTableRecord
100
AcDbLayerTableRecord
  2
224
 70
     0
 62
   224
  6
CONTINUOUS
  0
LAYER
  5
11A
330
2
100
AcDbSymbolTableRecord
100
AcDbLayerTableRecord
  2
225
 70
     0
 62
   225
  6
CONTINUOUS
  0
LAYER
  5
11B
330
2
100
AcDbSymbolTableRecord
100
AcDbLayerTableRecord
  2
226
 70
     0
 62
   226
  6
CONTINUOUS
  0
LAYER
  5
11C
330
2
100
AcDbSymbolTableRecord
100
AcDbLayerTableRecord
  2
227
 70
     0
 62
   227
  6
CONTINUOUS
  0
LAYER
  5
11D
330
2
100
AcDbSymbolTableRecord
100
AcDbLayerTableRecord
  2
228
 70
     0
 62
   228
  6
CONTINUOUS
  0
LAYER
  5
11E
330
2
100
AcDbSymbolTableRecord
100
AcDbLayerTableRecord
  2
229
 70
     0
 62
   229
  6
CONTINUOUS
  0
LAYER
  5
11F
330
2
100
AcDbSymbolTableRecord
100
AcDbLayerTableRecord
  2
230
 70
     0
 62
   230
  6
CONTINUOUS
  0
LAYER
  5
120
330
2
100
AcDbSymbolTableRecord
100
AcDbLayerTableRecord
  2
231
 70
     0
 62
   231
  6
CONTINUOUS
  0
LAYER
  5
121
330
2
100
AcDbSymbolTableRecord
100
AcDbLayerTableRecord
  2
232
 70
     0
 62
   232
  6
CONTINUOUS
  0
LAYER
  5
122
330
2
100
AcDbSymbolTableRecord
100
AcDbLayerTableRecord
  2
233
 70
     0
 62
   233
  6
CONTINUOUS
  0
LAYER
  5
123
330
2
100
AcDbSymbolTableRecord
100
AcDbLayerTableRecord
  2
234
 70
     0
 62
   234
  6
CONTINUOUS
  0
LAYER
  5
124
330
2
100
AcDbSymbolTableRecord
100
AcDbLayerTableRecord
  2
235
 70
     0
 62
   235
  6
CONTINUOUS
  0
LAYER
  5
125
330
2
100
AcDbSymbolTableRecord
100
AcDbLayerTableRecord
  2
236
 70
     0
 62
   236
  6
CONTINUOUS
  0
LAYER
  5
126
330
2
100
AcDbSymbolTableRecord
100
AcDbLayerTableRecord
  2
237
 70
     0
 62
   237
  6
CONTINUOUS
  0
LAYER
  5
127
330
2
100
AcDbSymbolTableRecord
100
AcDbLayerTableRecord
  2
238
 70
     0
 62
   238
  6
CONTINUOUS
  0
LAYER
  5
128
330
2
100
AcDbSymbolTableRecord
100
AcDbLayerTableRecord
  2
239
 70
     0
 62
   239
  6
CONTINUOUS
  0
LAYER
  5
129
330
2
100
AcDbSymbolTableRecord
100
AcDbLayerTableRecord
  2
240
 70
     0
 62
   240
  6
CONTINUOUS
  0
LAYER
  5
12A
330
2
100
AcDbSymbolTableRecord
100
AcDbLayerTableRecord
  2
241
 70
     0
 62
   241
  6
CONTINUOUS
  0
LAYER
  5
12B
330
2
100
AcDbSymbolTableRecord
100
AcDbLayerTableRecord
  2
242
 70
     0
 62
   242
  6
CONTINUOUS
  0
LAYER
  5
12C
330
2
100
AcDbSymbolTableRecord
100
AcDbLayerTableRecord
  2
243
 70
     0
 62
   243
  6
CONTINUOUS
  0
LAYER
  5
12D
330
2
100
AcDbSymbolTableRecord
100
AcDbLayerTableRecord
  2
244
 70
     0
 62
   244
  6
CONTINUOUS
  0
LAYER
  5
12E
330
2
100
AcDbSymbolTableRecord
100
AcDbLayerTableRecord
  2
245
 70
     0
 62
   245
  6
CONTINUOUS
  0
LAYER
  5
12F
330
2
100
AcDbSymbolTableRecord
100
AcDbLayerTableRecord
  2
246
 70
     0
 62
   246
  6
CONTINUOUS
  0
LAYER
  5
130
330
2
100
AcDbSymbolTableRecord
100
AcDbLayerTableRecord
  2
247
 70
     0
 62
   247
  6
CONTINUOUS
  0
LAYER
  5
131
330
2
100
AcDbSymbolTableRecord
100
AcDbLayerTableRecord
  2
248
 70
     0
 62
   248
  6
CONTINUOUS
  0
LAYER
  5
132
330
2
100
AcDbSymbolTableRecord
100
AcDbLayerTableRecord
  2
249
 70
     0
 62
   249
  6
CONTINUOUS
  0
LAYER
  5
133
330
2
100
AcDbSymbolTableRecord
100
AcDbLayerTableRecord
  2
250
 70
     0
 62
   250
  6
CONTINUOUS
  0
LAYER
  5
134
330
2
100
AcDbSymbolTableRecord
100
AcDbLayerTableRecord
  2
251
 70
     0
 62
   251
  6
CONTINUOUS
  0
LAYER
  5
135
330
2
100
AcDbSymbolTableRecord
100
AcDbLayerTableRecord
  2
252
 70
     0
 62
   252
  6
CONTINUOUS
  0
LAYER
  5
136
330
2
100
AcDbSymbolTableRecord
100
AcDbLayerTableRecord
  2
253
 70
     0
 62
   253
  6
CONTINUOUS
  0
LAYER
  5
137
330
2
100
AcDbSymbolTableRecord
100
AcDbLayerTableRecord
  2
254
 70
     0
 62
   254
  6
CONTINUOUS
  0
LAYER
  5
138
330
2
100
AcDbSymbolTableRecord
100
AcDbLayerTableRecord
  2
255
 70
     0
 62
   255
  6
CONTINUOUS
  0
ENDTAB
  0
TABLE
  2
STYLE
  5
3
330
0
100
AcDbSymbolTable
 70
     1
  0
STYLE
  5
11
330
3
100
AcDbSymbolTableRecord
100
AcDbTextStyleTableRecord
  2
STANDARD
 70
     0
 40
0.0
 41
1.0
 50
0.0
 71
     0
 42
0.2
  3
monotxt
  4

  0
ENDTAB
  0
TABLE
  2
VIEW
  5
6
330
0
100
AcDbSymbolTable
 70
     0
  0
ENDTAB
  0
TABLE
  2
UCS
  5
7
330
0
100
AcDbSymbolTable
 70
     0
  0
ENDTAB
  0
TABLE
  2
APPID
  5
9
330
0
100
AcDbSymbolTable
 70
     1
  0
APPID
  5
12
330
9
100
AcDbSymbolTableRecord
100
AcDbRegAppTableRecord
  2
ACAD
 70
     0
  0
ENDTAB
  0
TABLE
  2
DIMSTYLE
  5
A
330
0
100
AcDbSymbolTable
 70
     1
  0
DIMSTYLE
105
30B4
330
A
100
AcDbSymbolTableRecord
100
AcDbDimStyleTableRecord
  2
STANDARD
 70
     0
  3

  4

  5

  6

  7

 40
1.0
 41
0.18
 42
0.0625
 43
0.38
 44
0.18
 45
0.0
 46
0.0
 47
0.0
 48
0.0
140
0.18
141
0.09
142
0.0
143
25.4
144
1.0
145
0.0
146
1.0
147
0.09
 71
     0
 72
     0
 73
     1
 74
     1
 75
     0
 76
     0
 77
     0
 78
     0
170
     0
171
     2
172
     0
173
     0
174
     0
175
     0
176
     0
177
     0
178
     0
270
     2
271
     4
272
     4
273
     2
274
     2
340
11
275
     0
280
     0
281
     0
282
     0
283
     1
284
     0
285
     0
286
     0
287
     3
288
     0
  0
ENDTAB
  0
TABLE
  2
BLOCK_RECORD
  5
1
330
0
100
AcDbSymbolTable
 70
     0
  0
BLOCK_RECORD
  5
1E
102
{ACAD_XDICTIONARY
360
4818
102
}
330
1
100
AcDbSymbolTableRecord
100
AcDbBlockTableRecord
  2
*MODEL_SPACE
  0
BLOCK_RECORD
  5
1A
102
{ACAD_XDICTIONARY
360
481A
102
}
330
1
100
AcDbSymbolTableRecord
100
AcDbBlockTableRecord
  2
*PAPER_SPACE
  0
ENDTAB
  0
ENDSEC
  0
SECTION
  2
BLOCKS
  0
BLOCK
  5
13B
330
1E
100
AcDbEntity
  8
0
100
AcDbBlockBegin
  2
*MODEL_SPACE
 70
     0
 10
0.0
 20
0.0
 30
0.0
  3
*MODEL_SPACE
  1

  0
ENDBLK
  5
13C
330
1E
100
AcDbEntity
  8
0
100
AcDbBlockEnd
  0
BLOCK
  5
139
330
1A
100
AcDbEntity
 67
     1
  8
0
100
AcDbBlockBegin
  2
*PAPER_SPACE
 70
     0
 10
0.0
 20
0.0
 30
0.0
  3
*PAPER_SPACE
  1

  0
ENDBLK
  5
13A
330
1A
100
AcDbEntity
 67
     1
  8
0
100
AcDbBlockEnd
  0
ENDSEC
  0
SECTION
  2
ENTITIES
  0
LINE
  5
2378
330
1E
100
AcDbEntity
  8
7
100
AcDbLine
 10
2.029527559055118
 20
5.993110236220472
 30
0.0
 11
2.029527559055118
 21
6.179133858267716
 31
0.0
  0
LINE
  5
237E
330
1E
100
AcDbEntity
  8
7
100
AcDbLine
 10
2.029527559055118
 20
5.993110236220472
 30
0.0
 11
2.028543307086614
 21
5.993110236220472
 31
0.0
  0
LINE
  5
2396
330
1E
100
AcDbEntity
  8
7
100
AcDbLine
 10
1.773622047244094
 20
7.15255905511811
 30
0.0
 11
1.781496062992125
 21
7.151574803149606
 31
0.0
  0
LINE
  5
24F3
330
1E
100
AcDbEntity
  8
7
100
AcDbLine
 10
1.318897637795275
 20
6.621062992125984
 30
0.0
 11
1.330708661417322
 21
6.604330708661417
 31
0.0
  0
LINE
  5
2519
330
1E
100
AcDbEntity
  8
7
100
AcDbLine
 10
1.387795275590551
 20
6.567913385826771
 30
0.0
 11
1.410433070866141
 21
6.580708661417323
 31
0.0
  0
LINE
  5
25E2
330
1E
100
AcDbEntity
  8
7
100
AcDbLine
 10
1.704724409448818
 20
7.141732283464566
 30
0.0
 11
1.624015748031496
 21
7.079724409448818
 31
0.0
  0
LINE
  5
261F
330
1E
100
AcDbEntity
  8
7
100
AcDbLine
 10
2.825787401574803
 20
5.411417322834645
 30
0.0
 11
2.844488188976377
 21
5.404527559055117
 31
0.0
  0
LINE
  5
2675
330
1E
100
AcDbEntity
  8
7
100
AcDbLine
 10
1.326771653543307
 20
6.093503937007874
 30
0.0
 11
1.349409448818897
 21
6.000984251968503
 31
0.0
  0
LINE
  5
2693
330
1E
100
AcDbEntity
  8
7
100
AcDbLine
 10
1.308070866141732
 20
6.054133858267716
 30
0.0
 11
1.33267716535433
 21
5.965551181102362
 31
0.0
  0
LINE
  5
2707
330
1E
100
AcDbEntity
  8
7
100
AcDbLine
 10
2.885826771653542
 20
5.418307086614173
 30
0.0
 11
2.889763779527558
 21
5.424212598425197
 31
0.0
  0
LINE
  5
2772
330
1E
100
AcDbEntity
  8
7
100
AcDbLine
 10
2.802165354330708
 20
6.643700787401574
 30
0.0
 11
1.792322834645669
 21
6.643700787401574
 31
0.0
  0
LINE
  5
2773
330
1E
100
AcDbEntity
  8
7
100
AcDbLine
 10
2.802165354330708
 20
5.922244094488188
 30
0.0
 11
2.802165354330708
 21
6.643700787401574
 31
0.0
  0
LINE
  5
2774
330
1E
100
AcDbEntity
  8
7
100
AcDbLine
 10
1.792322834645669
 20
5.922244094488188
 30
0.0
 11
2.802165354330708
 21
5.922244094488188
 31
0.0
  0
LINE
  5
2775
330
1E
100
AcDbEntity
  8
7
100
AcDbLine
 10
1.792322834645669
 20
6.643700787401574
 30
0.0
 11
1.792322834645669
 21
5.922244094488188
 31
0.0
  0
LINE
  5
278D
330
1E
100
AcDbEntity
  8
7
100
AcDbLine
 10
1.75
 20
5.524606299212598
 30
0.0
 11
1.724409448818897
 21
5.521653543307086
 31
0.0
  0
LINE
  5
27C5
330
1E
100
AcDbEntity
  8
7
100
AcDbLine
 10
2.252952755905511
 20
5.609251968503937
 30
0.0
 11
2.281496062992125
 21
5.609251968503937
 31
0.0
  0
LINE
  5
27C6
330
1E
100
AcDbEntity
  8
7
100
AcDbLine
 10
2.297244094488188
 20
5.578740157480314
 30
0.0
 11
2.281496062992125
 21
5.609251968503937
 31
0.0
  0
LINE
  5
27C7
330
1E
100
AcDbEntity
  8
7
100
AcDbLine
 10
2.297244094488188
 20
5.609251968503937
 30
0.0
 11
2.318897637795275
 21
5.609251968503937
 31
0.0
  0
LINE
  5
27C8
330
1E
100
AcDbEntity
  8
7
100
AcDbLine
 10
2.170275590551181
 20
5.523622047244094
 30
0.0
 11
2.186023622047243
 21
5.562992125984251
 31
0.0
  0
LINE
  5
27C9
330
1E
100
AcDbEntity
  8
7
100
AcDbLine
 10
2.091535433070866
 20
5.635826771653543
 30
0.0
 11
2.169291338582677
 21
5.635826771653543
 31
0.0
  0
LINE
  5
27CA
330
1E
100
AcDbEntity
  8
7
100
AcDbLine
 10
2.333661417322834
 20
5.609251968503937
 30
0.0
 11
2.381889763779527
 21
5.609251968503937
 31
0.0
  0
LINE
  5
27D0
330
1E
100
AcDbEntity
  8
7
100
AcDbLine
 10
2.454724409448818
 20
5.609251968503937
 30
0.0
 11
2.472440944881889
 21
5.609251968503937
 31
0.0
  0
LINE
  5
27D1
330
1E
100
AcDbEntity
  8
7
100
AcDbLine
 10
2.411417322834645
 20
5.609251968503937
 30
0.0
 11
2.439960629921259
 21
5.609251968503937
 31
0.0
  0
LINE
  5
27D8
330
1E
100
AcDbEntity
  8
7
100
AcDbLine
 10
2.487204724409448
 20
5.609251968503937
 30
0.0
 11
2.510826771653543
 21
5.609251968503937
 31
0.0
  0
LINE
  5
27D9
330
1E
100
AcDbEntity
  8
7
100
AcDbLine
 10
2.525590551181102
 20
5.609251968503937
 30
0.0
 11
2.588582677165354
 21
5.609251968503937
 31
0.0
  0
LINE
  5
27EA
330
1E
100
AcDbEntity
  8
7
100
AcDbLine
 10
1.773622047244094
 20
5.413385826771653
 30
0.0
 11
1.854330708661417
 21
5.369094488188975
 31
0.0
  0
LINE
  5
2860
330
1E
100
AcDbEntity
  8
7
100
AcDbLine
 10
3.229330708661417
 20
5.880905511811023
 30
0.0
 11
3.222440944881889
 21
5.876968503937007
 31
0.0
  0
LINE
  5
286E
330
1E
100
AcDbEntity
  8
7
100
AcDbLine
 10
1.690944881889763
 20
5.501968503937007
 30
0.0
 11
1.691929133858267
 21
5.503937007874015
 31
0.0
  0
LINE
  5
28A1
330
1E
100
AcDbEntity
  8
7
100
AcDbLine
 10
2.372047244094487
 20
5.586614173228346
 30
0.0
 11
2.372047244094487
 21
5.548228346456692
 31
0.0
  0
LINE
  5
28A2
330
1E
100
AcDbEntity
  8
7
100
AcDbLine
 10
2.368110236220472
 20
5.543307086614173
 30
0.0
 11
2.372047244094487
 21
5.548228346456692
 31
0.0
  0
LINE
  5
28A8
330
1E
100
AcDbEntity
  8
7
100
AcDbLine
 10
2.359251968503937
 20
5.543307086614173
 30
0.0
 11
2.368110236220472
 21
5.543307086614173
 31
0.0
  0
LINE
  5
28A9
330
1E
100
AcDbEntity
  8
7
100
AcDbLine
 10
2.359251968503937
 20
5.543307086614173
 30
0.0
 11
2.368110236220472
 21
5.543307086614173
 31
0.0
  0
LINE
  5
28B4
330
1E
100
AcDbEntity
  8
7
100
AcDbLine
 10
2.333661417322834
 20
5.609251968503937
 30
0.0
 11
2.381889763779527
 21
5.609251968503937
 31
0.0
  0
LINE
  5
28B5
330
1E
100
AcDbEntity
  8
7
100
AcDbLine
 10
2.333661417322834
 20
5.523622047244094
 30
0.0
 11
2.333661417322834
 21
5.609251968503937
 31
0.0
  0
LINE
  5
28B6
330
1E
100
AcDbEntity
  8
7
100
AcDbLine
 10
2.381889763779527
 20
5.523622047244094
 30
0.0
 11
2.333661417322834
 21
5.523622047244094
 31
0.0
  0
LINE
  5
28BC
330
1E
100
AcDbEntity
  8
7
100
AcDbLine
 10
2.396653543307086
 20
5.593503937007874
 30
0.0
 11
2.396653543307086
 21
5.594488188976377
 31
0.0
  0
LINE
  5
28BD
330
1E
100
AcDbEntity
  8
7
100
AcDbLine
 10
2.396653543307086
 20
5.593503937007874
 30
0.0
 11
2.396653543307086
 21
5.539370078740157
 31
0.0
  0
LINE
  5
28C3
330
1E
100
AcDbEntity
  8
7
100
AcDbLine
 10
2.472440944881889
 20
5.609251968503937
 30
0.0
 11
2.472440944881889
 21
5.539370078740157
 31
0.0
  0
LINE
  5
28C4
330
1E
100
AcDbEntity
  8
7
100
AcDbLine
 10
2.454724409448818
 20
5.609251968503937
 30
0.0
 11
2.472440944881889
 21
5.609251968503937
 31
0.0
  0
LINE
  5
28C5
330
1E
100
AcDbEntity
  8
7
100
AcDbLine
 10
2.454724409448818
 20
5.548228346456692
 30
0.0
 11
2.454724409448818
 21
5.609251968503937
 31
0.0
  0
LINE
  5
28CB
330
1E
100
AcDbEntity
  8
7
100
AcDbLine
 10
2.443897637795275
 20
5.543307086614173
 30
0.0
 11
2.450787401574803
 21
5.543307086614173
 31
0.0
  0
LINE
  5
28D1
330
1E
100
AcDbEntity
  8
7
100
AcDbLine
 10
2.439960629921259
 20
5.609251968503937
 30
0.0
 11
2.439960629921259
 21
5.548228346456692
 31
0.0
  0
LINE
  5
28D2
330
1E
100
AcDbEntity
  8
7
100
AcDbLine
 10
2.411417322834645
 20
5.609251968503937
 30
0.0
 11
2.439960629921259
 21
5.609251968503937
 31
0.0
  0
LINE
  5
28D3
330
1E
100
AcDbEntity
  8
7
100
AcDbLine
 10
2.411417322834645
 20
5.539370078740157
 30
0.0
 11
2.411417322834645
 21
5.609251968503937
 31
0.0
  0
LINE
  5
28DC
330
1E
100
AcDbEntity
  8
7
100
AcDbLine
 10
2.487204724409448
 20
5.609251968503937
 30
0.0
 11
2.510826771653543
 21
5.609251968503937
 31
0.0
  0
LINE
  5
28DD
330
1E
100
AcDbEntity
  8
7
100
AcDbLine
 10
2.510826771653543
 20
5.523622047244094
 30
0.0
 11
2.510826771653543
 21
5.609251968503937
 31
0.0
  0
LINE
  5
28E3
330
1E
100
AcDbEntity
  8
7
100
AcDbLine
 10
2.588582677165354
 20
5.591535433070865
 30
0.0
 11
2.588582677165354
 21
5.609251968503937
 31
0.0
  0
LINE
  5
28E4
330
1E
100
AcDbEntity
  8
7
100
AcDbLine
 10
2.588582677165354
 20
5.591535433070865
 30
0.0
 11
2.568897637795275
 21
5.591535433070865
 31
0.0
  0
LINE
  5
28E5
330
1E
100
AcDbEntity
  8
7
100
AcDbLine
 10
2.568897637795275
 20
5.523622047244094
 30
0.0
 11
2.568897637795275
 21
5.591535433070865
 31
0.0
  0
LINE
  5
28EB
330
1E
100
AcDbEntity
  8
7
100
AcDbLine
 10
2.525590551181102
 20
5.591535433070865
 30
0.0
 11
2.542322834645669
 21
5.591535433070865
 31
0.0
  0
LINE
  5
28EC
330
1E
100
AcDbEntity
  8
7
100
AcDbLine
 10
2.525590551181102
 20
5.609251968503937
 30
0.0
 11
2.525590551181102
 21
5.591535433070865
 31
0.0
  0
LINE
  5
28ED
330
1E
100
AcDbEntity
  8
7
100
AcDbLine
 10
2.525590551181102
 20
5.609251968503937
 30
0.0
 11
2.588582677165354
 21
5.609251968503937
 31
0.0
  0
LINE
  5
28EE
330
1E
100
AcDbEntity
  8
7
100
AcDbLine
 10
2.216535433070866
 20
5.578740157480314
 30
0.0
 11
2.227362204724409
 21
5.554133858267716
 31
0.0
  0
LINE
  5
28EF
330
1E
100
AcDbEntity
  8
7
100
AcDbLine
 10
2.205708661417322
 20
5.554133858267716
 30
0.0
 11
2.216535433070866
 21
5.578740157480314
 31
0.0
  0
LINE
  5
28F0
330
1E
100
AcDbEntity
  8
7
100
AcDbLine
 10
2.205708661417322
 20
5.55511811023622
 30
0.0
 11
2.227362204724409
 21
5.55511811023622
 31
0.0
  0
LINE
  5
28F1
330
1E
100
AcDbEntity
  8
7
100
AcDbLine
 10
2.227362204724409
 20
5.554133858267716
 30
0.0
 11
2.205708661417322
 21
5.554133858267716
 31
0.0
  0
LINE
  5
28F2
330
1E
100
AcDbEntity
  8
7
100
AcDbLine
 10
2.15255905511811
 20
5.576771653543307
 30
0.0
 11
2.158464566929133
 21
5.581692913385826
 31
0.0
  0
LINE
  5
28FB
330
1E
100
AcDbEntity
  8
7
100
AcDbLine
 10
2.141732283464567
 20
5.616141732283464
 30
0.0
 11
2.15255905511811
 21
5.616141732283464
 31
0.0
  0
LINE
  5
28FC
330
1E
100
AcDbEntity
  8
7
100
AcDbLine
 10
2.141732283464567
 20
5.576771653543307
 30
0.0
 11
2.141732283464567
 21
5.616141732283464
 31
0.0
  0
LINE
  5
2902
330
1E
100
AcDbEntity
  8
7
100
AcDbLine
 10
2.297244094488188
 20
5.578740157480314
 30
0.0
 11
2.281496062992125
 21
5.609251968503937
 31
0.0
  0
LINE
  5
2903
330
1E
100
AcDbEntity
  8
7
100
AcDbLine
 10
2.252952755905511
 20
5.609251968503937
 30
0.0
 11
2.281496062992125
 21
5.609251968503937
 31
0.0
  0
LINE
  5
2904
330
1E
100
AcDbEntity
  8
7
100
AcDbLine
 10
2.252952755905511
 20
5.554133858267716
 30
0.0
 11
2.252952755905511
 21
5.609251968503937
 31
0.0
  0
LINE
  5
2905
330
1E
100
AcDbEntity
  8
7
100
AcDbLine
 10
2.228346456692913
 20
5.609251968503937
 30
0.0
 11
2.252952755905511
 21
5.554133858267716
 31
0.0
  0
LINE
  5
2906
330
1E
100
AcDbEntity
  8
7
100
AcDbLine
 10
2.205708661417322
 20
5.609251968503937
 30
0.0
 11
2.228346456692913
 21
5.609251968503937
 31
0.0
  0
LINE
  5
290C
330
1E
100
AcDbEntity
  8
7
100
AcDbLine
 10
2.091535433070866
 20
5.523622047244094
 30
0.0
 11
2.091535433070866
 21
5.635826771653543
 31
0.0
  0
LINE
  5
290D
330
1E
100
AcDbEntity
  8
7
100
AcDbLine
 10
2.141732283464567
 20
5.523622047244094
 30
0.0
 11
2.091535433070866
 21
5.523622047244094
 31
0.0
  0
LINE
  5
290E
330
1E
100
AcDbEntity
  8
7
100
AcDbLine
 10
2.141732283464567
 20
5.559055118110236
 30
0.0
 11
2.141732283464567
 21
5.523622047244094
 31
0.0
  0
LINE
  5
2915
330
1E
100
AcDbEntity
  8
7
100
AcDbLine
 10
2.170275590551181
 20
5.523622047244094
 30
0.0
 11
2.186023622047243
 21
5.562992125984251
 31
0.0
  0
LINE
  5
2916
330
1E
100
AcDbEntity
  8
7
100
AcDbLine
 10
2.195866141732283
 20
5.523622047244094
 30
0.0
 11
2.170275590551181
 21
5.523622047244094
 31
0.0
  0
LINE
  5
2917
330
1E
100
AcDbEntity
  8
7
100
AcDbLine
 10
2.195866141732283
 20
5.523622047244094
 30
0.0
 11
2.200787401574803
 21
5.536417322834645
 31
0.0
  0
LINE
  5
291D
330
1E
100
AcDbEntity
  8
7
100
AcDbLine
 10
2.27755905511811
 20
5.523622047244094
 30
0.0
 11
2.239173228346456
 21
5.523622047244094
 31
0.0
  0
LINE
  5
2923
330
1E
100
AcDbEntity
  8
7
100
AcDbLine
 10
2.318897637795275
 20
5.523622047244094
 30
0.0
 11
2.293307086614173
 21
5.523622047244094
 31
0.0
  0
LINE
  5
2924
330
1E
100
AcDbEntity
  8
7
100
AcDbLine
 10
2.318897637795275
 20
5.609251968503937
 30
0.0
 11
2.318897637795275
 21
5.523622047244094
 31
0.0
  0
LINE
  5
2925
330
1E
100
AcDbEntity
  8
7
100
AcDbLine
 10
2.297244094488188
 20
5.609251968503937
 30
0.0
 11
2.318897637795275
 21
5.609251968503937
 31
0.0
  0
LINE
  5
2926
330
1E
100
AcDbEntity
  8
7
100
AcDbLine
 10
2.297244094488188
 20
5.578740157480314
 30
0.0
 11
2.297244094488188
 21
5.609251968503937
 31
0.0
  0
LINE
  5
2927
330
1E
100
AcDbEntity
  8
7
100
AcDbLine
 10
2.091535433070866
 20
5.635826771653543
 30
0.0
 11
2.169291338582677
 21
5.635826771653543
 31
0.0
  0
LINE
  5
292D
330
1E
100
AcDbEntity
  8
7
100
AcDbLine
 10
1.792322834645669
 20
6.643700787401574
 30
0.0
 11
1.815944881889763
 21
6.62007874015748
 31
0.0
  0
LINE
  5
292E
330
1E
100
AcDbEntity
  8
7
100
AcDbLine
 10
2.802165354330708
 20
5.922244094488188
 30
0.0
 11
2.779527559055118
 21
5.945866141732283
 31
0.0
  0
LINE
  5
292F
330
1E
100
AcDbEntity
  8
7
100
AcDbLine
 10
2.802165354330708
 20
6.643700787401574
 30
0.0
 11
2.779527559055118
 21
6.62007874015748
 31
0.0
  0
LINE
  5
2930
330
1E
100
AcDbEntity
  8
7
100
AcDbLine
 10
2.779527559055118
 20
5.945866141732283
 30
0.0
 11
2.779527559055118
 21
6.62007874015748
 31
0.0
  0
LINE
  5
293A
330
1E
100
AcDbEntity
  8
7
100
AcDbLine
 10
1.913385826771653
 20
5.942913385826771
 30
0.0
 11
2.681102362204724
 21
5.942913385826771
 31
0.0
  0
LINE
  5
293B
330
1E
100
AcDbEntity
  8
7
100
AcDbLine
 10
1.913385826771653
 20
5.943897637795275
 30
0.0
 11
1.913385826771653
 21
5.942913385826771
 31
0.0
  0
LINE
  5
294C
330
1E
100
AcDbEntity
  8
7
100
AcDbLine
 10
2.779527559055118
 20
6.62007874015748
 30
0.0
 11
2.741141732283464
 21
6.62007874015748
 31
0.0
  0
LINE
  5
294D
330
1E
100
AcDbEntity
  8
7
100
AcDbLine
 10
1.853346456692913
 20
6.62007874015748
 30
0.0
 11
1.815944881889763
 21
6.62007874015748
 31
0.0
  0
LINE
  5
2955
330
1E
100
AcDbEntity
  8
7
100
AcDbLine
 10
1.913385826771653
 20
6.623031496062991
 30
0.0
 11
1.913385826771653
 21
6.622047244094487
 31
0.0
  0
LINE
  5
2956
330
1E
100
AcDbEntity
  8
7
100
AcDbLine
 10
2.681102362204724
 20
6.623031496062991
 30
0.0
 11
1.913385826771653
 21
6.623031496062991
 31
0.0
  0
LINE
  5
2964
330
1E
100
AcDbEntity
  8
7
100
AcDbLine
 10
1.879921259842519
 20
6.219488188976377
 30
0.0
 11
1.884842519685039
 21
6.219488188976377
 31
0.0
  0
LINE
  5
296E
330
1E
100
AcDbEntity
  8
7
100
AcDbLine
 10
1.884842519685039
 20
6.346456692913386
 30
0.0
 11
1.879921259842519
 21
6.346456692913386
 31
0.0
  0
LINE
  5
2974
330
1E
100
AcDbEntity
  8
7
100
AcDbLine
 10
1.913385826771653
 20
6.199803149606299
 30
0.0
 11
1.913385826771653
 21
5.943897637795275
 31
0.0
  0
LINE
  5
2975
330
1E
100
AcDbEntity
  8
7
100
AcDbLine
 10
1.913385826771653
 20
5.942913385826771
 30
0.0
 11
1.913385826771653
 21
5.989173228346456
 31
0.0
  0
LINE
  5
2976
330
1E
100
AcDbEntity
  8
7
100
AcDbLine
 10
1.914370078740157
 20
5.99015748031496
 30
0.0
 11
1.913385826771653
 21
5.989173228346456
 31
0.0
  0
LINE
  5
2977
330
1E
100
AcDbEntity
  8
7
100
AcDbLine
 10
1.914370078740157
 20
6.199803149606299
 30
0.0
 11
1.914370078740157
 21
5.99015748031496
 31
0.0
  0
LINE
  5
2978
330
1E
100
AcDbEntity
  8
7
100
AcDbLine
 10
1.913385826771653
 20
6.199803149606299
 30
0.0
 11
1.914370078740157
 21
6.199803149606299
 31
0.0
  0
LINE
  5
297E
330
1E
100
AcDbEntity
  8
7
100
AcDbLine
 10
1.922244094488188
 20
5.992125984251968
 30
0.0
 11
1.914370078740157
 21
5.992125984251968
 31
0.0
  0
LINE
  5
297F
330
1E
100
AcDbEntity
  8
7
100
AcDbLine
 10
2.68011811023622
 20
5.99015748031496
 30
0.0
 11
2.681102362204724
 21
5.989173228346456
 31
0.0
  0
LINE
  5
2980
330
1E
100
AcDbEntity
  8
7
100
AcDbLine
 10
2.68011811023622
 20
5.992125984251968
 30
0.0
 11
2.676181102362204
 21
5.992125984251968
 31
0.0
  0
LINE
  5
2981
330
1E
100
AcDbEntity
  8
7
100
AcDbLine
 10
2.674212598425196
 20
5.993110236220472
 30
0.0
 11
2.676181102362204
 21
5.992125984251968
 31
0.0
  0
LINE
  5
2982
330
1E
100
AcDbEntity
  8
7
100
AcDbLine
 10
2.674212598425196
 20
5.993110236220472
 30
0.0
 11
2.029527559055118
 21
5.993110236220472
 31
0.0
  0
LINE
  5
2983
330
1E
100
AcDbEntity
  8
7
100
AcDbLine
 10
2.028543307086614
 20
5.993110236220472
 30
0.0
 11
1.922244094488188
 21
5.992125984251968
 31
0.0
  0
LINE
  5
2984
330
1E
100
AcDbEntity
  8
7
100
AcDbLine
 10
1.922244094488188
 20
6.573818897637795
 30
0.0
 11
1.914370078740157
 21
6.573818897637795
 31
0.0
  0
LINE
  5
2985
330
1E
100
AcDbEntity
  8
7
100
AcDbLine
 10
1.922244094488188
 20
6.573818897637795
 30
0.0
 11
2.028543307086614
 21
6.572834645669291
 31
0.0
  0
LINE
  5
2986
330
1E
100
AcDbEntity
  8
7
100
AcDbLine
 10
2.029527559055118
 20
6.572834645669291
 30
0.0
 11
2.028543307086614
 21
6.572834645669291
 31
0.0
  0
LINE
  5
2987
330
1E
100
AcDbEntity
  8
7
100
AcDbLine
 10
2.674212598425196
 20
6.572834645669291
 30
0.0
 11
2.029527559055118
 21
6.572834645669291
 31
0.0
  0
LINE
  5
2988
330
1E
100
AcDbEntity
  8
7
100
AcDbLine
 10
2.674212598425196
 20
6.572834645669291
 30
0.0
 11
2.676181102362204
 21
6.573818897637795
 31
0.0
  0
LINE
  5
2989
330
1E
100
AcDbEntity
  8
7
100
AcDbLine
 10
2.68011811023622
 20
6.573818897637795
 30
0.0
 11
2.676181102362204
 21
6.573818897637795
 31
0.0
  0
LINE
  5
298A
330
1E
100
AcDbEntity
  8
7
100
AcDbLine
 10
2.681102362204724
 20
6.575787401574802
 30
0.0
 11
2.68011811023622
 21
6.575787401574802
 31
0.0
  0
LINE
  5
2990
330
1E
100
AcDbEntity
  8
7
100
AcDbLine
 10
2.681102362204724
 20
6.575787401574802
 30
0.0
 11
2.681102362204724
 21
6.623031496062991
 31
0.0
  0
LINE
  5
2991
330
1E
100
AcDbEntity
  8
7
100
AcDbLine
 10
1.913385826771653
 20
6.575787401574802
 30
0.0
 11
1.913385826771653
 21
6.623031496062991
 31
0.0
  0
LINE
  5
2998
330
1E
100
AcDbEntity
  8
7
100
AcDbLine
 10
2.674212598425196
 20
6.366141732283464
 30
0.0
 11
2.674212598425196
 21
6.572834645669291
 31
0.0
  0
LINE
  5
2999
330
1E
100
AcDbEntity
  8
7
100
AcDbLine
 10
2.674212598425196
 20
6.199803149606299
 30
0.0
 11
2.674212598425196
 21
6.366141732283464
 31
0.0
  0
LINE
  5
299A
330
1E
100
AcDbEntity
  8
7
100
AcDbLine
 10
2.674212598425196
 20
5.993110236220472
 30
0.0
 11
2.674212598425196
 21
6.199803149606299
 31
0.0
  0
LINE
  5
299B
330
1E
100
AcDbEntity
  8
7
100
AcDbLine
 10
2.676181102362204
 20
6.573818897637795
 30
0.0
 11
2.676181102362204
 21
5.992125984251968
 31
0.0
  0
LINE
  5
299C
330
1E
100
AcDbEntity
  8
7
100
AcDbLine
 10
1.95767716535433
 20
6.176181102362204
 30
0.0
 11
2.028543307086614
 21
6.178149606299212
 31
0.0
  0
LINE
  5
299D
330
1E
100
AcDbEntity
  8
7
100
AcDbLine
 10
1.95767716535433
 20
6.389763779527559
 30
0.0
 11
1.95767716535433
 21
6.176181102362204
 31
0.0
  0
LINE
  5
299E
330
1E
100
AcDbEntity
  8
7
100
AcDbLine
 10
2.028543307086614
 20
6.38779527559055
 30
0.0
 11
1.95767716535433
 21
6.389763779527559
 31
0.0
  0
LINE
  5
299F
330
1E
100
AcDbEntity
  8
7
100
AcDbLine
 10
1.922244094488188
 20
5.992125984251968
 30
0.0
 11
1.922244094488188
 21
6.573818897637795
 31
0.0
  0
LINE
  5
29A0
330
1E
100
AcDbEntity
  8
7
100
AcDbLine
 10
1.914370078740157
 20
6.575787401574802
 30
0.0
 11
1.914370078740157
 21
6.366141732283464
 31
0.0
  0
LINE
  5
29A1
330
1E
100
AcDbEntity
  8
7
100
AcDbLine
 10
1.884842519685039
 20
6.346456692913386
 30
0.0
 11
1.884842519685039
 21
6.219488188976377
 31
0.0
  0
LINE
  5
29A2
330
1E
100
AcDbEntity
  8
7
100
AcDbLine
 10
1.913385826771653
 20
6.622047244094487
 30
0.0
 11
1.913385826771653
 21
6.366141732283464
 31
0.0
  0
LINE
  5
29A3
330
1E
100
AcDbEntity
  8
7
100
AcDbLine
 10
1.914370078740157
 20
6.366141732283464
 30
0.0
 11
1.913385826771653
 21
6.366141732283464
 31
0.0
  0
LINE
  5
29A4
330
1E
100
AcDbEntity
  8
7
100
AcDbLine
 10
1.853346456692913
 20
6.62007874015748
 30
0.0
 11
1.853346456692913
 21
5.945866141732283
 31
0.0
  0
LINE
  5
29A5
330
1E
100
AcDbEntity
  8
7
100
AcDbLine
 10
1.913385826771653
 20
6.199803149606299
 30
0.0
 11
1.909448818897637
 21
6.199803149606299
 31
0.0
  0
LINE
  5
29A6
330
1E
100
AcDbEntity
  8
7
100
AcDbLine
 10
1.909448818897637
 20
6.199803149606299
 30
0.0
 11
1.900590551181102
 21
6.199803149606299
 31
0.0
  0
LINE
  5
29A7
330
1E
100
AcDbEntity
  8
7
100
AcDbLine
 10
1.879921259842519
 20
6.219488188976377
 30
0.0
 11
1.879921259842519
 21
6.346456692913386
 31
0.0
  0
LINE
  5
29AD
330
1E
100
AcDbEntity
  8
7
100
AcDbLine
 10
2.68011811023622
 20
6.575787401574802
 30
0.0
 11
2.68011811023622
 21
5.99015748031496
 31
0.0
  0
LINE
  5
29AE
330
1E
100
AcDbEntity
  8
7
100
AcDbLine
 10
2.681102362204724
 20
6.622047244094487
 30
0.0
 11
2.681102362204724
 21
5.943897637795275
 31
0.0
  0
LINE
  5
29AF
330
1E
100
AcDbEntity
  8
7
100
AcDbLine
 10
2.741141732283464
 20
6.62007874015748
 30
0.0
 11
2.741141732283464
 21
5.945866141732283
 31
0.0
  0
LINE
  5
29B0
330
1E
100
AcDbEntity
  8
7
100
AcDbLine
 10
1.961614173228346
 20
6.179133858267716
 30
0.0
 11
1.961614173228346
 21
6.386811023622047
 31
0.0
  0
LINE
  5
29C5
330
1E
100
AcDbEntity
  8
7
100
AcDbLine
 10
2.388779527559055
 20
6.065944881889763
 30
0.0
 11
2.258858267716535
 21
6.065944881889763
 31
0.0
  0
LINE
  5
29CD
330
1E
100
AcDbEntity
  8
7
100
AcDbLine
 10
2.216535433070866
 20
6.070866141732283
 30
0.0
 11
2.258858267716535
 21
6.065944881889763
 31
0.0
  0
LINE
  5
29DB
330
1E
100
AcDbEntity
  8
7
100
AcDbLine
 10
2.674212598425196
 20
6.366141732283464
 30
0.0
 11
2.584645669291338
 21
6.366141732283464
 31
0.0
  0
LINE
  5
29F4
330
1E
100
AcDbEntity
  8
7
100
AcDbLine
 10
2.388779527559055
 20
6.5
 30
0.0
 11
2.258858267716535
 21
6.5
 31
0.0
  0
LINE
  5
2A05
330
1E
100
AcDbEntity
  8
7
100
AcDbLine
 10
1.961614173228346
 20
6.179133858267716
 30
0.0
 11
1.95767716535433
 21
6.176181102362204
 31
0.0
  0
LINE
  5
2A06
330
1E
100
AcDbEntity
  8
7
100
AcDbLine
 10
1.961614173228346
 20
6.386811023622047
 30
0.0
 11
1.95767716535433
 21
6.389763779527559
 31
0.0
  0
LINE
  5
2A15
330
1E
100
AcDbEntity
  8
7
100
AcDbLine
 10
2.558070866141732
 20
6.882874015748031
 30
0.0
 11
2.511811023622047
 21
6.882874015748031
 31
0.0
  0
LINE
  5
2A16
330
1E
100
AcDbEntity
  8
7
100
AcDbLine
 10
2.562007874015748
 20
6.888779527559054
 30
0.0
 11
2.558070866141732
 21
6.882874015748031
 31
0.0
  0
LINE
  5
2A17
330
1E
100
AcDbEntity
  8
7
100
AcDbLine
 10
2.562007874015748
 20
6.910433070866141
 30
0.0
 11
2.562007874015748
 21
6.888779527559054
 31
0.0
  0
LINE
  5
2A18
330
1E
100
AcDbEntity
  8
7
100
AcDbLine
 10
2.558070866141732
 20
6.915354330708661
 30
0.0
 11
2.562007874015748
 21
6.910433070866141
 31
0.0
  0
LINE
  5
2A19
330
1E
100
AcDbEntity
  8
7
100
AcDbLine
 10
2.511811023622047
 20
6.915354330708661
 30
0.0
 11
2.558070866141732
 21
6.915354330708661
 31
0.0
  0
LINE
  5
2A1A
330
1E
100
AcDbEntity
  8
7
100
AcDbLine
 10
2.511811023622047
 20
6.875
 30
0.0
 11
2.557086614173228
 21
6.875
 31
0.0
  0
LINE
  5
2A1B
330
1E
100
AcDbEntity
  8
7
100
AcDbLine
 10
2.511811023622047
 20
6.833661417322834
 30
0.0
 11
2.511811023622047
 21
6.875
 31
0.0
  0
LINE
  5
2A1C
330
1E
100
AcDbEntity
  8
7
100
AcDbLine
 10
2.557086614173228
 20
6.833661417322834
 30
0.0
 11
2.511811023622047
 21
6.833661417322834
 31
0.0
  0
LINE
  5
2A1D
330
1E
100
AcDbEntity
  8
7
100
AcDbLine
 10
2.570866141732283
 20
6.84251968503937
 30
0.0
 11
2.557086614173228
 21
6.833661417322834
 31
0.0
  0
LINE
  5
2A1E
330
1E
100
AcDbEntity
  8
7
100
AcDbLine
 10
2.570866141732283
 20
6.86515748031496
 30
0.0
 11
2.570866141732283
 21
6.84251968503937
 31
0.0
  0
LINE
  5
2A1F
330
1E
100
AcDbEntity
  8
7
100
AcDbLine
 10
2.511811023622047
 20
6.882874015748031
 30
0.0
 11
2.511811023622047
 21
6.915354330708661
 31
0.0
  0
LINE
  5
2A20
330
1E
100
AcDbEntity
  8
7
100
AcDbLine
 10
2.557086614173228
 20
6.875
 30
0.0
 11
2.570866141732283
 21
6.86515748031496
 31
0.0
  0
LINE
  5
2A21
330
1E
100
AcDbEntity
  8
7
100
AcDbLine
 10
2.574803149606299
 20
6.882874015748031
 30
0.0
 11
2.572834645669291
 21
6.879921259842519
 31
0.0
  0
LINE
  5
2A2F
330
1E
100
AcDbEntity
  8
7
100
AcDbLine
 10
2.428149606299212
 20
6.878937007874015
 30
0.0
 11
2.389763779527559
 21
6.878937007874015
 31
0.0
  0
LINE
  5
2A30
330
1E
100
AcDbEntity
  8
7
100
AcDbLine
 10
2.448818897637795
 20
6.889763779527559
 30
0.0
 11
2.428149606299212
 21
6.878937007874015
 31
0.0
  0
LINE
  5
2A31
330
1E
100
AcDbEntity
  8
7
100
AcDbLine
 10
2.448818897637795
 20
6.904527559055117
 30
0.0
 11
2.448818897637795
 21
6.889763779527559
 31
0.0
  0
LINE
  5
2A32
330
1E
100
AcDbEntity
  8
7
100
AcDbLine
 10
2.428149606299212
 20
6.915354330708661
 30
0.0
 11
2.448818897637795
 21
6.904527559055117
 31
0.0
  0
LINE
  5
2A33
330
1E
100
AcDbEntity
  8
7
100
AcDbLine
 10
2.389763779527559
 20
6.915354330708661
 30
0.0
 11
2.428149606299212
 21
6.915354330708661
 31
0.0
  0
LINE
  5
2A34
330
1E
100
AcDbEntity
  8
7
100
AcDbLine
 10
2.389763779527559
 20
6.878937007874015
 30
0.0
 11
2.389763779527559
 21
6.915354330708661
 31
0.0
  0
LINE
  5
2A35
330
1E
100
AcDbEntity
  8
7
100
AcDbLine
 10
2.461614173228346
 20
6.880905511811023
 30
0.0
 11
2.438976377952756
 21
6.87007874015748
 31
0.0
  0
LINE
  5
2A7D
330
1E
100
AcDbEntity
  8
7
100
AcDbLine
 10
3.386811023622047
 20
3.521653543307086
 30
0.0
 11
3.361220472440944
 21
4.008858267716535
 31
0.0
  0
LINE
  5
2A7E
330
1E
100
AcDbEntity
  8
7
100
AcDbLine
 10
1.234251968503937
 20
4.008858267716535
 30
0.0
 11
1.208661417322834
 21
3.521653543307086
 31
0.0
  0
LINE
  5
2B6D
330
1E
100
AcDbEntity
  8
7
100
AcDbLine
 10
1.812007874015747
 20
4.028543307086613
 30
0.0
 11
1.815944881889763
 21
4.135826771653543
 31
0.0
  0
LINE
  5
2B78
330
1E
100
AcDbEntity
  8
7
100
AcDbLine
 10
1.913385826771653
 20
4.06496062992126
 30
0.0
 11
2.681102362204724
 21
4.06496062992126
 31
0.0
  0
LINE
  5
2B79
330
1E
100
AcDbEntity
  8
7
100
AcDbLine
 10
1.913385826771653
 20
4.076771653543307
 30
0.0
 11
1.913385826771653
 21
4.06496062992126
 31
0.0
  0
LINE
  5
33ED
330
1E
100
AcDbEntity
  8
7
100
AcDbLine
 10
1.913385826771653
 20
4.076771653543307
 30
0.0
 11
1.908464566929133
 21
4.099409448818897
 31
0.0
  0
LINE
  5
33EE
330
1E
100
AcDbEntity
  8
7
100
AcDbLine
 10
1.908464566929133
 20
4.099409448818897
 30
0.0
 11
1.895669291338582
 21
4.119094488188975
 31
0.0
  0
LINE
  5
33EF
330
1E
100
AcDbEntity
  8
7
100
AcDbLine
 10
1.895669291338582
 20
4.119094488188975
 30
0.0
 11
1.875984251968503
 21
4.131889763779527
 31
0.0
  0
LINE
  5
33F0
330
1E
100
AcDbEntity
  8
7
100
AcDbLine
 10
1.875984251968503
 20
4.131889763779527
 30
0.0
 11
1.853346456692913
 21
4.135826771653543
 31
0.0
  0
LINE
  5
33F1
330
1E
100
AcDbEntity
  8
7
100
AcDbLine
 10
1.853346456692913
 20
4.135826771653543
 30
0.0
 11
1.815944881889763
 21
4.135826771653543
 31
0.0
  0
LINE
  5
33F2
330
1E
100
AcDbEntity
  8
7
100
AcDbLine
 10
2.78248031496063
 20
4.028543307086613
 30
0.0
 11
2.779527559055118
 21
4.135826771653543
 31
0.0
  0
LINE
  5
33F3
330
1E
100
AcDbEntity
  8
7
100
AcDbLine
 10
2.779527559055118
 20
4.135826771653543
 30
0.0
 11
2.741141732283464
 21
4.135826771653543
 31
0.0
  0
LINE
  5
33F4
330
1E
100
AcDbEntity
  8
7
100
AcDbLine
 10
2.741141732283464
 20
4.135826771653543
 30
0.0
 11
2.718503937007874
 21
4.131889763779527
 31
0.0
  0
LINE
  5
33F5
330
1E
100
AcDbEntity
  8
7
100
AcDbLine
 10
2.718503937007874
 20
4.131889763779527
 30
0.0
 11
2.699803149606299
 21
4.119094488188975
 31
0.0
  0
LINE
  5
33F6
330
1E
100
AcDbEntity
  8
7
100
AcDbLine
 10
2.699803149606299
 20
4.119094488188975
 30
0.0
 11
2.686023622047243
 21
4.099409448818897
 31
0.0
  0
LINE
  5
33F7
330
1E
100
AcDbEntity
  8
7
100
AcDbLine
 10
2.686023622047243
 20
4.099409448818897
 30
0.0
 11
2.681102362204724
 21
4.076771653543307
 31
0.0
  0
LINE
  5
33F8
330
1E
100
AcDbEntity
  8
7
100
AcDbLine
 10
2.681102362204724
 20
4.076771653543307
 30
0.0
 11
2.681102362204724
 21
4.06496062992126
 31
0.0
  0
LINE
  5
33F9
330
1E
100
AcDbEntity
  8
7
100
AcDbLine
 10
1.354330708661417
 20
3.521653543307086
 30
0.0
 11
1.405511811023622
 21
3.521653543307086
 31
0.0
  0
LINE
  5
33FA
330
1E
100
AcDbEntity
  8
7
100
AcDbLine
 10
1.405511811023622
 20
3.521653543307086
 30
0.0
 11
1.463582677165354
 21
3.521653543307086
 31
0.0
  0
LINE
  5
33FB
330
1E
100
AcDbEntity
  8
7
100
AcDbLine
 10
1.463582677165354
 20
3.521653543307086
 30
0.0
 11
1.52755905511811
 21
3.521653543307086
 31
0.0
  0
LINE
  5
33FC
330
1E
100
AcDbEntity
  8
7
100
AcDbLine
 10
1.52755905511811
 20
3.521653543307086
 30
0.0
 11
1.597440944881889
 21
3.521653543307086
 31
0.0
  0
LINE
  5
33FD
330
1E
100
AcDbEntity
  8
7
100
AcDbLine
 10
1.597440944881889
 20
3.521653543307086
 30
0.0
 11
1.672244094488188
 21
3.521653543307086
 31
0.0
  0
LINE
  5
33FE
330
1E
100
AcDbEntity
  8
7
100
AcDbLine
 10
1.672244094488188
 20
3.521653543307086
 30
0.0
 11
1.752952755905511
 21
3.521653543307086
 31
0.0
  0
LINE
  5
33FF
330
1E
100
AcDbEntity
  8
7
100
AcDbLine
 10
1.752952755905511
 20
3.521653543307086
 30
0.0
 11
1.83759842519685
 21
3.521653543307086
 31
0.0
  0
LINE
  5
3400
330
1E
100
AcDbEntity
  8
7
100
AcDbLine
 10
1.83759842519685
 20
3.521653543307086
 30
0.0
 11
1.9251968503937
 21
3.521653543307086
 31
0.0
  0
LINE
  5
3401
330
1E
100
AcDbEntity
  8
7
100
AcDbLine
 10
1.9251968503937
 20
3.521653543307086
 30
0.0
 11
2.015748031496062
 21
3.521653543307086
 31
0.0
  0
LINE
  5
3402
330
1E
100
AcDbEntity
  8
7
100
AcDbLine
 10
2.015748031496062
 20
3.521653543307086
 30
0.0
 11
2.108267716535432
 21
3.521653543307086
 31
0.0
  0
LINE
  5
3403
330
1E
100
AcDbEntity
  8
7
100
AcDbLine
 10
2.108267716535432
 20
3.521653543307086
 30
0.0
 11
2.202755905511811
 21
3.521653543307086
 31
0.0
  0
LINE
  5
3404
330
1E
100
AcDbEntity
  8
7
100
AcDbLine
 10
2.202755905511811
 20
3.521653543307086
 30
0.0
 11
2.297244094488188
 21
3.521653543307086
 31
0.0
  0
LINE
  5
3405
330
1E
100
AcDbEntity
  8
7
100
AcDbLine
 10
1.208661417322834
 20
3.521653543307086
 30
0.0
 11
1.21259842519685
 21
3.521653543307086
 31
0.0
  0
LINE
  5
3406
330
1E
100
AcDbEntity
  8
7
100
AcDbLine
 10
1.21259842519685
 20
3.521653543307086
 30
0.0
 11
1.224409448818897
 21
3.521653543307086
 31
0.0
  0
LINE
  5
3407
330
1E
100
AcDbEntity
  8
7
100
AcDbLine
 10
1.224409448818897
 20
3.521653543307086
 30
0.0
 11
1.24507874015748
 21
3.521653543307086
 31
0.0
  0
LINE
  5
3408
330
1E
100
AcDbEntity
  8
7
100
AcDbLine
 10
1.24507874015748
 20
3.521653543307086
 30
0.0
 11
1.273622047244094
 21
3.521653543307086
 31
0.0
  0
LINE
  5
3409
330
1E
100
AcDbEntity
  8
7
100
AcDbLine
 10
1.273622047244094
 20
3.521653543307086
 30
0.0
 11
1.31003937007874
 21
3.521653543307086
 31
0.0
  0
LINE
  5
340A
330
1E
100
AcDbEntity
  8
7
100
AcDbLine
 10
1.31003937007874
 20
3.521653543307086
 30
0.0
 11
1.354330708661417
 21
3.521653543307086
 31
0.0
  0
LINE
  5
340B
330
1E
100
AcDbEntity
  8
7
100
AcDbLine
 10
2.922244094488188
 20
3.521653543307086
 30
0.0
 11
2.997047244094487
 21
3.521653543307086
 31
0.0
  0
LINE
  5
340C
330
1E
100
AcDbEntity
  8
7
100
AcDbLine
 10
2.997047244094487
 20
3.521653543307086
 30
0.0
 11
3.067913385826771
 21
3.521653543307086
 31
0.0
  0
LINE
  5
340D
330
1E
100
AcDbEntity
  8
7
100
AcDbLine
 10
3.067913385826771
 20
3.521653543307086
 30
0.0
 11
3.131889763779527
 21
3.521653543307086
 31
0.0
  0
LINE
  5
340E
330
1E
100
AcDbEntity
  8
7
100
AcDbLine
 10
3.131889763779527
 20
3.521653543307086
 30
0.0
 11
3.188976377952756
 21
3.521653543307086
 31
0.0
  0
LINE
  5
340F
330
1E
100
AcDbEntity
  8
7
100
AcDbLine
 10
3.188976377952756
 20
3.521653543307086
 30
0.0
 11
3.24015748031496
 21
3.521653543307086
 31
0.0
  0
LINE
  5
3410
330
1E
100
AcDbEntity
  8
7
100
AcDbLine
 10
3.24015748031496
 20
3.521653543307086
 30
0.0
 11
3.284448818897637
 21
3.521653543307086
 31
0.0
  0
LINE
  5
3411
330
1E
100
AcDbEntity
  8
7
100
AcDbLine
 10
3.284448818897637
 20
3.521653543307086
 30
0.0
 11
3.320866141732283
 21
3.521653543307086
 31
0.0
  0
LINE
  5
3412
330
1E
100
AcDbEntity
  8
7
100
AcDbLine
 10
3.320866141732283
 20
3.521653543307086
 30
0.0
 11
3.349409448818897
 21
3.521653543307086
 31
0.0
  0
LINE
  5
3413
330
1E
100
AcDbEntity
  8
7
100
AcDbLine
 10
3.349409448818897
 20
3.521653543307086
 30
0.0
 11
3.37007874015748
 21
3.521653543307086
 31
0.0
  0
LINE
  5
3414
330
1E
100
AcDbEntity
  8
7
100
AcDbLine
 10
3.37007874015748
 20
3.521653543307086
 30
0.0
 11
3.381889763779527
 21
3.521653543307086
 31
0.0
  0
LINE
  5
3415
330
1E
100
AcDbEntity
  8
7
100
AcDbLine
 10
3.381889763779527
 20
3.521653543307086
 30
0.0
 11
3.386811023622047
 21
3.521653543307086
 31
0.0
  0
LINE
  5
3416
330
1E
100
AcDbEntity
  8
7
100
AcDbLine
 10
2.297244094488188
 20
3.521653543307086
 30
0.0
 11
2.39271653543307
 21
3.521653543307086
 31
0.0
  0
LINE
  5
3417
330
1E
100
AcDbEntity
  8
7
100
AcDbLine
 10
2.39271653543307
 20
3.521653543307086
 30
0.0
 11
2.486220472440944
 21
3.521653543307086
 31
0.0
  0
LINE
  5
3418
330
1E
100
AcDbEntity
  8
7
100
AcDbLine
 10
2.486220472440944
 20
3.521653543307086
 30
0.0
 11
2.579724409448818
 21
3.521653543307086
 31
0.0
  0
LINE
  5
3419
330
1E
100
AcDbEntity
  8
7
100
AcDbLine
 10
2.579724409448818
 20
3.521653543307086
 30
0.0
 11
2.670275590551181
 21
3.521653543307086
 31
0.0
  0
LINE
  5
341A
330
1E
100
AcDbEntity
  8
7
100
AcDbLine
 10
2.670275590551181
 20
3.521653543307086
 30
0.0
 11
2.757874015748031
 21
3.521653543307086
 31
0.0
  0
LINE
  5
341B
330
1E
100
AcDbEntity
  8
7
100
AcDbLine
 10
2.757874015748031
 20
3.521653543307086
 30
0.0
 11
2.841535433070866
 21
3.521653543307086
 31
0.0
  0
LINE
  5
341C
330
1E
100
AcDbEntity
  8
7
100
AcDbLine
 10
2.841535433070866
 20
3.521653543307086
 30
0.0
 11
2.922244094488188
 21
3.521653543307086
 31
0.0
  0
LINE
  5
341D
330
1E
100
AcDbEntity
  8
7
100
AcDbLine
 10
1.315944881889763
 20
4.028543307086613
 30
0.0
 11
1.316929133858267
 21
4.02755905511811
 31
0.0
  0
LINE
  5
341E
330
1E
100
AcDbEntity
  8
7
100
AcDbLine
 10
1.316929133858267
 20
4.02755905511811
 30
0.0
 11
1.323818897637795
 21
4.028543307086613
 31
0.0
  0
LINE
  5
341F
330
1E
100
AcDbEntity
  8
7
100
AcDbLine
 10
1.323818897637795
 20
4.028543307086613
 30
0.0
 11
1.327755905511811
 21
4.028543307086613
 31
0.0
  0
LINE
  5
3420
330
1E
100
AcDbEntity
  8
7
100
AcDbLine
 10
1.704724409448818
 20
4.028543307086613
 30
0.0
 11
1.713582677165354
 21
4.02755905511811
 31
0.0
  0
LINE
  5
3421
330
1E
100
AcDbEntity
  8
7
100
AcDbLine
 10
1.713582677165354
 20
4.02755905511811
 30
0.0
 11
1.727362204724409
 21
4.028543307086613
 31
0.0
  0
LINE
  5
3422
330
1E
100
AcDbEntity
  8
7
100
AcDbLine
 10
1.727362204724409
 20
4.028543307086613
 30
0.0
 11
1.734251968503937
 21
4.028543307086613
 31
0.0
  0
LINE
  5
3423
330
1E
100
AcDbEntity
  8
7
100
AcDbLine
 10
2.86023622047244
 20
4.028543307086613
 30
0.0
 11
2.873031496062992
 21
4.02755905511811
 31
0.0
  0
LINE
  5
3424
330
1E
100
AcDbEntity
  8
7
100
AcDbLine
 10
2.873031496062992
 20
4.02755905511811
 30
0.0
 11
2.885826771653542
 21
4.028543307086613
 31
0.0
  0
LINE
  5
3425
330
1E
100
AcDbEntity
  8
7
100
AcDbLine
 10
2.885826771653542
 20
4.028543307086613
 30
0.0
 11
2.889763779527558
 21
4.028543307086613
 31
0.0
  0
LINE
  5
3426
330
1E
100
AcDbEntity
  8
7
100
AcDbLine
 10
3.266732283464566
 20
4.028543307086613
 30
0.0
 11
3.274606299212598
 21
4.02755905511811
 31
0.0
  0
LINE
  5
3427
330
1E
100
AcDbEntity
  8
7
100
AcDbLine
 10
3.274606299212598
 20
4.02755905511811
 30
0.0
 11
3.279527559055118
 21
4.028543307086613
 31
0.0
  0
LINE
  5
3428
330
1E
100
AcDbEntity
  8
7
100
AcDbLine
 10
1.482283464566929
 20
4.008858267716535
 30
0.0
 11
1.426181102362204
 21
4.008858267716535
 31
0.0
  0
LINE
  5
3429
330
1E
100
AcDbEntity
  8
7
100
AcDbLine
 10
1.426181102362204
 20
4.008858267716535
 30
0.0
 11
1.375984251968503
 21
4.008858267716535
 31
0.0
  0
LINE
  5
342A
330
1E
100
AcDbEntity
  8
7
100
AcDbLine
 10
1.375984251968503
 20
4.008858267716535
 30
0.0
 11
1.333661417322834
 21
4.008858267716535
 31
0.0
  0
LINE
  5
342B
330
1E
100
AcDbEntity
  8
7
100
AcDbLine
 10
1.333661417322834
 20
4.008858267716535
 30
0.0
 11
1.298228346456692
 21
4.008858267716535
 31
0.0
  0
LINE
  5
342C
330
1E
100
AcDbEntity
  8
7
100
AcDbLine
 10
1.298228346456692
 20
4.008858267716535
 30
0.0
 11
1.269685039370078
 21
4.008858267716535
 31
0.0
  0
LINE
  5
342D
330
1E
100
AcDbEntity
  8
7
100
AcDbLine
 10
1.269685039370078
 20
4.008858267716535
 30
0.0
 11
1.25
 21
4.008858267716535
 31
0.0
  0
LINE
  5
342E
330
1E
100
AcDbEntity
  8
7
100
AcDbLine
 10
1.25
 20
4.008858267716535
 30
0.0
 11
1.238188976377952
 21
4.008858267716535
 31
0.0
  0
LINE
  5
342F
330
1E
100
AcDbEntity
  8
7
100
AcDbLine
 10
1.238188976377952
 20
4.008858267716535
 30
0.0
 11
1.234251968503937
 21
4.008858267716535
 31
0.0
  0
LINE
  5
3430
330
1E
100
AcDbEntity
  8
7
100
AcDbLine
 10
2.828740157480314
 20
4.008858267716535
 30
0.0
 11
2.747047244094487
 21
4.008858267716535
 31
0.0
  0
LINE
  5
3431
330
1E
100
AcDbEntity
  8
7
100
AcDbLine
 10
2.747047244094487
 20
4.008858267716535
 30
0.0
 11
2.661417322834645
 21
4.008858267716535
 31
0.0
  0
LINE
  5
3432
330
1E
100
AcDbEntity
  8
7
100
AcDbLine
 10
2.661417322834645
 20
4.008858267716535
 30
0.0
 11
2.572834645669291
 21
4.008858267716535
 31
0.0
  0
LINE
  5
3433
330
1E
100
AcDbEntity
  8
7
100
AcDbLine
 10
2.572834645669291
 20
4.008858267716535
 30
0.0
 11
2.482283464566929
 21
4.008858267716535
 31
0.0
  0
LINE
  5
3434
330
1E
100
AcDbEntity
  8
7
100
AcDbLine
 10
2.482283464566929
 20
4.008858267716535
 30
0.0
 11
2.389763779527559
 21
4.008858267716535
 31
0.0
  0
LINE
  5
3435
330
1E
100
AcDbEntity
  8
7
100
AcDbLine
 10
2.389763779527559
 20
4.008858267716535
 30
0.0
 11
2.297244094488188
 21
4.008858267716535
 31
0.0
  0
LINE
  5
3436
330
1E
100
AcDbEntity
  8
7
100
AcDbLine
 10
2.297244094488188
 20
4.008858267716535
 30
0.0
 11
2.204724409448818
 21
4.008858267716535
 31
0.0
  0
LINE
  5
3437
330
1E
100
AcDbEntity
  8
7
100
AcDbLine
 10
2.204724409448818
 20
4.008858267716535
 30
0.0
 11
2.112204724409448
 21
4.008858267716535
 31
0.0
  0
LINE
  5
3438
330
1E
100
AcDbEntity
  8
7
100
AcDbLine
 10
2.112204724409448
 20
4.008858267716535
 30
0.0
 11
2.021653543307086
 21
4.008858267716535
 31
0.0
  0
LINE
  5
3439
330
1E
100
AcDbEntity
  8
7
100
AcDbLine
 10
2.021653543307086
 20
4.008858267716535
 30
0.0
 11
1.934055118110236
 21
4.008858267716535
 31
0.0
  0
LINE
  5
343A
330
1E
100
AcDbEntity
  8
7
100
AcDbLine
 10
1.934055118110236
 20
4.008858267716535
 30
0.0
 11
1.847440944881889
 21
4.008858267716535
 31
0.0
  0
LINE
  5
343B
330
1E
100
AcDbEntity
  8
7
100
AcDbLine
 10
1.847440944881889
 20
4.008858267716535
 30
0.0
 11
1.765748031496062
 21
4.008858267716535
 31
0.0
  0
LINE
  5
343C
330
1E
100
AcDbEntity
  8
7
100
AcDbLine
 10
1.765748031496062
 20
4.008858267716535
 30
0.0
 11
1.687007874015747
 21
4.008858267716535
 31
0.0
  0
LINE
  5
343D
330
1E
100
AcDbEntity
  8
7
100
AcDbLine
 10
1.687007874015747
 20
4.008858267716535
 30
0.0
 11
1.614173228346456
 21
4.008858267716535
 31
0.0
  0
LINE
  5
343E
330
1E
100
AcDbEntity
  8
7
100
AcDbLine
 10
1.614173228346456
 20
4.008858267716535
 30
0.0
 11
1.545275590551181
 21
4.008858267716535
 31
0.0
  0
LINE
  5
343F
330
1E
100
AcDbEntity
  8
7
100
AcDbLine
 10
1.545275590551181
 20
4.008858267716535
 30
0.0
 11
1.482283464566929
 21
4.008858267716535
 31
0.0
  0
LINE
  5
3440
330
1E
100
AcDbEntity
  8
7
100
AcDbLine
 10
3.361220472440944
 20
4.008858267716535
 30
0.0
 11
3.357283464566929
 21
4.008858267716535
 31
0.0
  0
LINE
  5
3441
330
1E
100
AcDbEntity
  8
7
100
AcDbLine
 10
3.357283464566929
 20
4.008858267716535
 30
0.0
 11
3.344488188976377
 21
4.008858267716535
 31
0.0
  0
LINE
  5
3442
330
1E
100
AcDbEntity
  8
7
100
AcDbLine
 10
3.344488188976377
 20
4.008858267716535
 30
0.0
 11
3.324803149606299
 21
4.008858267716535
 31
0.0
  0
LINE
  5
3443
330
1E
100
AcDbEntity
  8
7
100
AcDbLine
 10
3.324803149606299
 20
4.008858267716535
 30
0.0
 11
3.296259842519685
 21
4.008858267716535
 31
0.0
  0
LINE
  5
3444
330
1E
100
AcDbEntity
  8
7
100
AcDbLine
 10
3.296259842519685
 20
4.008858267716535
 30
0.0
 11
3.260826771653543
 21
4.008858267716535
 31
0.0
  0
LINE
  5
3445
330
1E
100
AcDbEntity
  8
7
100
AcDbLine
 10
3.260826771653543
 20
4.008858267716535
 30
0.0
 11
3.218503937007874
 21
4.008858267716535
 31
0.0
  0
LINE
  5
3446
330
1E
100
AcDbEntity
  8
7
100
AcDbLine
 10
3.218503937007874
 20
4.008858267716535
 30
0.0
 11
3.168307086614173
 21
4.008858267716535
 31
0.0
  0
LINE
  5
3447
330
1E
100
AcDbEntity
  8
7
100
AcDbLine
 10
3.168307086614173
 20
4.008858267716535
 30
0.0
 11
3.112204724409448
 21
4.008858267716535
 31
0.0
  0
LINE
  5
3448
330
1E
100
AcDbEntity
  8
7
100
AcDbLine
 10
3.112204724409448
 20
4.008858267716535
 30
0.0
 11
3.049212598425196
 21
4.008858267716535
 31
0.0
  0
LINE
  5
3449
330
1E
100
AcDbEntity
  8
7
100
AcDbLine
 10
3.049212598425196
 20
4.008858267716535
 30
0.0
 11
2.981299212598425
 21
4.008858267716535
 31
0.0
  0
LINE
  5
344A
330
1E
100
AcDbEntity
  8
7
100
AcDbLine
 10
2.981299212598425
 20
4.008858267716535
 30
0.0
 11
2.907480314960629
 21
4.008858267716535
 31
0.0
  0
LINE
  5
344B
330
1E
100
AcDbEntity
  8
7
100
AcDbLine
 10
2.907480314960629
 20
4.008858267716535
 30
0.0
 11
2.828740157480314
 21
4.008858267716535
 31
0.0
  0
LINE
  5
344C
330
1E
100
AcDbEntity
  8
7
100
AcDbLine
 10
3.279527559055118
 20
4.028543307086613
 30
0.0
 11
3.312992125984251
 21
4.028543307086613
 31
0.0
  0
LINE
  5
344D
330
1E
100
AcDbEntity
  8
7
100
AcDbLine
 10
3.312992125984251
 20
4.028543307086613
 30
0.0
 11
3.333661417322834
 21
4.028543307086613
 31
0.0
  0
LINE
  5
344E
330
1E
100
AcDbEntity
  8
7
100
AcDbLine
 10
3.333661417322834
 20
4.028543307086613
 30
0.0
 11
3.340551181102362
 21
4.028543307086613
 31
0.0
  0
LINE
  5
344F
330
1E
100
AcDbEntity
  8
7
100
AcDbLine
 10
2.070866141732283
 20
4.028543307086613
 30
0.0
 11
2.160433070866141
 21
4.028543307086613
 31
0.0
  0
LINE
  5
3450
330
1E
100
AcDbEntity
  8
7
100
AcDbLine
 10
2.160433070866141
 20
4.028543307086613
 30
0.0
 11
2.251968503937007
 21
4.028543307086613
 31
0.0
  0
LINE
  5
3451
330
1E
100
AcDbEntity
  8
7
100
AcDbLine
 10
2.251968503937007
 20
4.028543307086613
 30
0.0
 11
2.343503937007874
 21
4.028543307086613
 31
0.0
  0
LINE
  5
3452
330
1E
100
AcDbEntity
  8
7
100
AcDbLine
 10
2.343503937007874
 20
4.028543307086613
 30
0.0
 11
2.434055118110236
 21
4.028543307086613
 31
0.0
  0
LINE
  5
3453
330
1E
100
AcDbEntity
  8
7
100
AcDbLine
 10
2.434055118110236
 20
4.028543307086613
 30
0.0
 11
2.524606299212598
 21
4.028543307086613
 31
0.0
  0
LINE
  5
3454
330
1E
100
AcDbEntity
  8
7
100
AcDbLine
 10
2.524606299212598
 20
4.028543307086613
 30
0.0
 11
2.612204724409448
 21
4.028543307086613
 31
0.0
  0
LINE
  5
3455
330
1E
100
AcDbEntity
  8
7
100
AcDbLine
 10
2.612204724409448
 20
4.028543307086613
 30
0.0
 11
2.698818897637795
 21
4.028543307086613
 31
0.0
  0
LINE
  5
3456
330
1E
100
AcDbEntity
  8
7
100
AcDbLine
 10
2.698818897637795
 20
4.028543307086613
 30
0.0
 11
2.781496062992125
 21
4.028543307086613
 31
0.0
  0
LINE
  5
3457
330
1E
100
AcDbEntity
  8
7
100
AcDbLine
 10
2.781496062992125
 20
4.028543307086613
 30
0.0
 11
2.86023622047244
 21
4.028543307086613
 31
0.0
  0
LINE
  5
3458
330
1E
100
AcDbEntity
  8
7
100
AcDbLine
 10
2.86023622047244
 20
4.028543307086613
 30
0.0
 11
2.876968503937007
 21
4.028543307086613
 31
0.0
  0
LINE
  5
3459
330
1E
100
AcDbEntity
  8
7
100
AcDbLine
 10
2.876968503937007
 20
4.028543307086613
 30
0.0
 11
2.889763779527558
 21
4.028543307086613
 31
0.0
  0
LINE
  5
345A
330
1E
100
AcDbEntity
  8
7
100
AcDbLine
 10
2.889763779527558
 20
4.028543307086613
 30
0.0
 11
2.971456692913385
 21
4.028543307086613
 31
0.0
  0
LINE
  5
345B
330
1E
100
AcDbEntity
  8
7
100
AcDbLine
 10
2.971456692913385
 20
4.028543307086613
 30
0.0
 11
3.045275590551181
 21
4.028543307086613
 31
0.0
  0
LINE
  5
345C
330
1E
100
AcDbEntity
  8
7
100
AcDbLine
 10
3.045275590551181
 20
4.028543307086613
 30
0.0
 11
3.113188976377952
 21
4.028543307086613
 31
0.0
  0
LINE
  5
345D
330
1E
100
AcDbEntity
  8
7
100
AcDbLine
 10
3.113188976377952
 20
4.028543307086613
 30
0.0
 11
3.173228346456693
 21
4.028543307086613
 31
0.0
  0
LINE
  5
345E
330
1E
100
AcDbEntity
  8
7
100
AcDbLine
 10
3.173228346456693
 20
4.028543307086613
 30
0.0
 11
3.224409448818897
 21
4.028543307086613
 31
0.0
  0
LINE
  5
345F
330
1E
100
AcDbEntity
  8
7
100
AcDbLine
 10
3.224409448818897
 20
4.028543307086613
 30
0.0
 11
3.266732283464566
 21
4.028543307086613
 31
0.0
  0
LINE
  5
3460
330
1E
100
AcDbEntity
  8
7
100
AcDbLine
 10
3.266732283464566
 20
4.028543307086613
 30
0.0
 11
3.275590551181102
 21
4.028543307086613
 31
0.0
  0
LINE
  5
3461
330
1E
100
AcDbEntity
  8
7
100
AcDbLine
 10
3.275590551181102
 20
4.028543307086613
 30
0.0
 11
3.279527559055118
 21
4.028543307086613
 31
0.0
  0
LINE
  5
3462
330
1E
100
AcDbEntity
  8
7
100
AcDbLine
 10
1.253937007874015
 20
4.028543307086613
 30
0.0
 11
1.260826771653543
 21
4.028543307086613
 31
0.0
  0
LINE
  5
3463
330
1E
100
AcDbEntity
  8
7
100
AcDbLine
 10
1.260826771653543
 20
4.028543307086613
 30
0.0
 11
1.281496062992125
 21
4.028543307086613
 31
0.0
  0
LINE
  5
3464
330
1E
100
AcDbEntity
  8
7
100
AcDbLine
 10
1.281496062992125
 20
4.028543307086613
 30
0.0
 11
1.314960629921259
 21
4.028543307086613
 31
0.0
  0
LINE
  5
3465
330
1E
100
AcDbEntity
  8
7
100
AcDbLine
 10
1.314960629921259
 20
4.028543307086613
 30
0.0
 11
1.318897637795275
 21
4.028543307086613
 31
0.0
  0
LINE
  5
3466
330
1E
100
AcDbEntity
  8
7
100
AcDbLine
 10
1.318897637795275
 20
4.028543307086613
 30
0.0
 11
1.327755905511811
 21
4.028543307086613
 31
0.0
  0
LINE
  5
3467
330
1E
100
AcDbEntity
  8
7
100
AcDbLine
 10
1.327755905511811
 20
4.028543307086613
 30
0.0
 11
1.37007874015748
 21
4.028543307086613
 31
0.0
  0
LINE
  5
3468
330
1E
100
AcDbEntity
  8
7
100
AcDbLine
 10
1.37007874015748
 20
4.028543307086613
 30
0.0
 11
1.422244094488188
 21
4.028543307086613
 31
0.0
  0
LINE
  5
3469
330
1E
100
AcDbEntity
  8
7
100
AcDbLine
 10
1.422244094488188
 20
4.028543307086613
 30
0.0
 11
1.481299212598425
 21
4.028543307086613
 31
0.0
  0
LINE
  5
346A
330
1E
100
AcDbEntity
  8
7
100
AcDbLine
 10
1.481299212598425
 20
4.028543307086613
 30
0.0
 11
1.549212598425196
 21
4.028543307086613
 31
0.0
  0
LINE
  5
346B
330
1E
100
AcDbEntity
  8
7
100
AcDbLine
 10
1.549212598425196
 20
4.028543307086613
 30
0.0
 11
1.624015748031496
 21
4.028543307086613
 31
0.0
  0
LINE
  5
346C
330
1E
100
AcDbEntity
  8
7
100
AcDbLine
 10
1.624015748031496
 20
4.028543307086613
 30
0.0
 11
1.704724409448818
 21
4.028543307086613
 31
0.0
  0
LINE
  5
346D
330
1E
100
AcDbEntity
  8
7
100
AcDbLine
 10
1.704724409448818
 20
4.028543307086613
 30
0.0
 11
1.71751968503937
 21
4.028543307086613
 31
0.0
  0
LINE
  5
346E
330
1E
100
AcDbEntity
  8
7
100
AcDbLine
 10
1.71751968503937
 20
4.028543307086613
 30
0.0
 11
1.734251968503937
 21
4.028543307086613
 31
0.0
  0
LINE
  5
346F
330
1E
100
AcDbEntity
  8
7
100
AcDbLine
 10
1.734251968503937
 20
4.028543307086613
 30
0.0
 11
1.813976377952755
 21
4.028543307086613
 31
0.0
  0
LINE
  5
3470
330
1E
100
AcDbEntity
  8
7
100
AcDbLine
 10
1.813976377952755
 20
4.028543307086613
 30
0.0
 11
1.896653543307086
 21
4.028543307086613
 31
0.0
  0
LINE
  5
3471
330
1E
100
AcDbEntity
  8
7
100
AcDbLine
 10
1.896653543307086
 20
4.028543307086613
 30
0.0
 11
1.982283464566929
 21
4.028543307086613
 31
0.0
  0
LINE
  5
3472
330
1E
100
AcDbEntity
  8
7
100
AcDbLine
 10
1.982283464566929
 20
4.028543307086613
 30
0.0
 11
2.070866141732283
 21
4.028543307086613
 31
0.0
  0
LINE
  5
3473
330
1E
100
AcDbEntity
  8
7
100
AcDbLine
 10
2.20767716535433
 20
3.403543307086614
 30
0.0
 11
2.118110236220472
 21
3.403543307086614
 31
0.0
  0
LINE
  5
3474
330
1E
100
AcDbEntity
  8
7
100
AcDbLine
 10
2.118110236220472
 20
3.403543307086614
 30
0.0
 11
2.030511811023622
 21
3.403543307086614
 31
0.0
  0
LINE
  5
3475
330
1E
100
AcDbEntity
  8
7
100
AcDbLine
 10
2.030511811023622
 20
3.403543307086614
 30
0.0
 11
1.944881889763779
 21
3.403543307086614
 31
0.0
  0
LINE
  5
3476
330
1E
100
AcDbEntity
  8
7
100
AcDbLine
 10
1.944881889763779
 20
3.403543307086614
 30
0.0
 11
1.862204724409448
 21
3.403543307086614
 31
0.0
  0
LINE
  5
3477
330
1E
100
AcDbEntity
  8
7
100
AcDbLine
 10
1.862204724409448
 20
3.403543307086614
 30
0.0
 11
1.783464566929133
 21
3.403543307086614
 31
0.0
  0
LINE
  5
3478
330
1E
100
AcDbEntity
  8
7
100
AcDbLine
 10
1.783464566929133
 20
3.403543307086614
 30
0.0
 11
1.708661417322834
 21
3.403543307086614
 31
0.0
  0
LINE
  5
3479
330
1E
100
AcDbEntity
  8
7
100
AcDbLine
 10
1.708661417322834
 20
3.403543307086614
 30
0.0
 11
1.639763779527559
 21
3.403543307086614
 31
0.0
  0
LINE
  5
347A
330
1E
100
AcDbEntity
  8
7
100
AcDbLine
 10
1.639763779527559
 20
3.403543307086614
 30
0.0
 11
1.575787401574803
 21
3.403543307086614
 31
0.0
  0
LINE
  5
347B
330
1E
100
AcDbEntity
  8
7
100
AcDbLine
 10
1.575787401574803
 20
3.403543307086614
 30
0.0
 11
1.51771653543307
 21
3.403543307086614
 31
0.0
  0
LINE
  5
347C
330
1E
100
AcDbEntity
  8
7
100
AcDbLine
 10
1.51771653543307
 20
3.403543307086614
 30
0.0
 11
1.466535433070866
 21
3.403543307086614
 31
0.0
  0
LINE
  5
347D
330
1E
100
AcDbEntity
  8
7
100
AcDbLine
 10
1.466535433070866
 20
3.403543307086614
 30
0.0
 11
1.423228346456692
 21
3.403543307086614
 31
0.0
  0
LINE
  5
347E
330
1E
100
AcDbEntity
  8
7
100
AcDbLine
 10
1.423228346456692
 20
3.403543307086614
 30
0.0
 11
1.386811023622047
 21
3.403543307086614
 31
0.0
  0
LINE
  5
347F
330
1E
100
AcDbEntity
  8
7
100
AcDbLine
 10
1.386811023622047
 20
3.403543307086614
 30
0.0
 11
1.358267716535433
 21
3.403543307086614
 31
0.0
  0
LINE
  5
3480
330
1E
100
AcDbEntity
  8
7
100
AcDbLine
 10
1.358267716535433
 20
3.403543307086614
 30
0.0
 11
1.33759842519685
 21
3.403543307086614
 31
0.0
  0
LINE
  5
3481
330
1E
100
AcDbEntity
  8
7
100
AcDbLine
 10
1.33759842519685
 20
3.403543307086614
 30
0.0
 11
1.324803149606299
 21
3.403543307086614
 31
0.0
  0
LINE
  5
3482
330
1E
100
AcDbEntity
  8
7
100
AcDbLine
 10
1.324803149606299
 20
3.403543307086614
 30
0.0
 11
1.320866141732283
 21
3.403543307086614
 31
0.0
  0
LINE
  5
3483
330
1E
100
AcDbEntity
  8
7
100
AcDbLine
 10
3.257874015748031
 20
3.403543307086614
 30
0.0
 11
3.237204724409448
 21
3.403543307086614
 31
0.0
  0
LINE
  5
3484
330
1E
100
AcDbEntity
  8
7
100
AcDbLine
 10
3.237204724409448
 20
3.403543307086614
 30
0.0
 11
3.20767716535433
 21
3.403543307086614
 31
0.0
  0
LINE
  5
3485
330
1E
100
AcDbEntity
  8
7
100
AcDbLine
 10
3.20767716535433
 20
3.403543307086614
 30
0.0
 11
3.171259842519685
 21
3.403543307086614
 31
0.0
  0
LINE
  5
3486
330
1E
100
AcDbEntity
  8
7
100
AcDbLine
 10
3.171259842519685
 20
3.403543307086614
 30
0.0
 11
3.127952755905511
 21
3.403543307086614
 31
0.0
  0
LINE
  5
3487
330
1E
100
AcDbEntity
  8
7
100
AcDbLine
 10
3.127952755905511
 20
3.403543307086614
 30
0.0
 11
3.076771653543306
 21
3.403543307086614
 31
0.0
  0
LINE
  5
3488
330
1E
100
AcDbEntity
  8
7
100
AcDbLine
 10
3.076771653543306
 20
3.403543307086614
 30
0.0
 11
3.018700787401574
 21
3.403543307086614
 31
0.0
  0
LINE
  5
3489
330
1E
100
AcDbEntity
  8
7
100
AcDbLine
 10
3.018700787401574
 20
3.403543307086614
 30
0.0
 11
2.955708661417322
 21
3.403543307086614
 31
0.0
  0
LINE
  5
348A
330
1E
100
AcDbEntity
  8
7
100
AcDbLine
 10
2.955708661417322
 20
3.403543307086614
 30
0.0
 11
2.885826771653542
 21
3.403543307086614
 31
0.0
  0
LINE
  5
348B
330
1E
100
AcDbEntity
  8
7
100
AcDbLine
 10
2.885826771653542
 20
3.403543307086614
 30
0.0
 11
2.812007874015748
 21
3.403543307086614
 31
0.0
  0
LINE
  5
348C
330
1E
100
AcDbEntity
  8
7
100
AcDbLine
 10
2.812007874015748
 20
3.403543307086614
 30
0.0
 11
2.732283464566929
 21
3.403543307086614
 31
0.0
  0
LINE
  5
348D
330
1E
100
AcDbEntity
  8
7
100
AcDbLine
 10
2.732283464566929
 20
3.403543307086614
 30
0.0
 11
2.650590551181102
 21
3.403543307086614
 31
0.0
  0
LINE
  5
348E
330
1E
100
AcDbEntity
  8
7
100
AcDbLine
 10
2.650590551181102
 20
3.403543307086614
 30
0.0
 11
2.564960629921259
 21
3.403543307086614
 31
0.0
  0
LINE
  5
348F
330
1E
100
AcDbEntity
  8
7
100
AcDbLine
 10
2.564960629921259
 20
3.403543307086614
 30
0.0
 11
2.476377952755905
 21
3.403543307086614
 31
0.0
  0
LINE
  5
3490
330
1E
100
AcDbEntity
  8
7
100
AcDbLine
 10
2.476377952755905
 20
3.403543307086614
 30
0.0
 11
2.387795275590551
 21
3.403543307086614
 31
0.0
  0
LINE
  5
3491
330
1E
100
AcDbEntity
  8
7
100
AcDbLine
 10
2.387795275590551
 20
3.403543307086614
 30
0.0
 11
2.297244094488188
 21
3.403543307086614
 31
0.0
  0
LINE
  5
3492
330
1E
100
AcDbEntity
  8
7
100
AcDbLine
 10
2.297244094488188
 20
3.403543307086614
 30
0.0
 11
2.20767716535433
 21
3.403543307086614
 31
0.0
  0
LINE
  5
3493
330
1E
100
AcDbEntity
  8
7
100
AcDbLine
 10
3.273622047244094
 20
3.403543307086614
 30
0.0
 11
3.269685039370078
 21
3.403543307086614
 31
0.0
  0
LINE
  5
3494
330
1E
100
AcDbEntity
  8
7
100
AcDbLine
 10
3.269685039370078
 20
3.403543307086614
 30
0.0
 11
3.257874015748031
 21
3.403543307086614
 31
0.0
  0
LINE
  5
3495
330
1E
100
AcDbEntity
  8
7
100
AcDbLine
 10
3.36023622047244
 20
4.008858267716535
 30
0.0
 11
3.354330708661417
 21
4.02263779527559
 31
0.0
  0
LINE
  5
3496
330
1E
100
AcDbEntity
  8
7
100
AcDbLine
 10
3.354330708661417
 20
4.02263779527559
 30
0.0
 11
3.340551181102362
 21
4.02755905511811
 31
0.0
  0
LINE
  5
3497
330
1E
100
AcDbEntity
  8
7
100
AcDbLine
 10
1.253937007874015
 20
4.02755905511811
 30
0.0
 11
1.24015748031496
 21
4.02263779527559
 31
0.0
  0
LINE
  5
3498
330
1E
100
AcDbEntity
  8
7
100
AcDbLine
 10
1.24015748031496
 20
4.02263779527559
 30
0.0
 11
1.234251968503937
 21
4.008858267716535
 31
0.0
  0
LINE
  5
3499
330
1E
100
AcDbEntity
  8
7
100
AcDbLine
 10
1.208661417322834
 20
3.521653543307086
 30
0.0
 11
1.211614173228346
 21
3.491141732283464
 31
0.0
  0
LINE
  5
349A
330
1E
100
AcDbEntity
  8
7
100
AcDbLine
 10
1.211614173228346
 20
3.491141732283464
 30
0.0
 11
1.221456692913385
 21
3.46259842519685
 31
0.0
  0
LINE
  5
349B
330
1E
100
AcDbEntity
  8
7
100
AcDbLine
 10
1.221456692913385
 20
3.46259842519685
 30
0.0
 11
1.239173228346456
 21
3.438976377952756
 31
0.0
  0
LINE
  5
349C
330
1E
100
AcDbEntity
  8
7
100
AcDbLine
 10
1.239173228346456
 20
3.438976377952756
 30
0.0
 11
1.262795275590551
 21
3.419291338582677
 31
0.0
  0
LINE
  5
349D
330
1E
100
AcDbEntity
  8
7
100
AcDbLine
 10
1.262795275590551
 20
3.419291338582677
 30
0.0
 11
1.291338582677165
 21
3.40748031496063
 31
0.0
  0
LINE
  5
349E
330
1E
100
AcDbEntity
  8
7
100
AcDbLine
 10
1.291338582677165
 20
3.40748031496063
 30
0.0
 11
1.320866141732283
 21
3.403543307086614
 31
0.0
  0
LINE
  5
349F
330
1E
100
AcDbEntity
  8
7
100
AcDbLine
 10
3.355314960629921
 20
3.438976377952756
 30
0.0
 11
3.373031496062992
 21
3.46259842519685
 31
0.0
  0
LINE
  5
34A0
330
1E
100
AcDbEntity
  8
7
100
AcDbLine
 10
3.373031496062992
 20
3.46259842519685
 30
0.0
 11
3.382874015748031
 21
3.491141732283464
 31
0.0
  0
LINE
  5
34A1
330
1E
100
AcDbEntity
  8
7
100
AcDbLine
 10
3.382874015748031
 20
3.491141732283464
 30
0.0
 11
3.385826771653543
 21
3.521653543307086
 31
0.0
  0
LINE
  5
34A2
330
1E
100
AcDbEntity
  8
7
100
AcDbLine
 10
3.273622047244094
 20
3.403543307086614
 30
0.0
 11
3.303149606299212
 21
3.40748031496063
 31
0.0
  0
LINE
  5
34A3
330
1E
100
AcDbEntity
  8
7
100
AcDbLine
 10
3.303149606299212
 20
3.40748031496063
 30
0.0
 11
3.331692913385826
 21
3.419291338582677
 31
0.0
  0
LINE
  5
34A4
330
1E
100
AcDbEntity
  8
7
100
AcDbLine
 10
3.331692913385826
 20
3.419291338582677
 30
0.0
 11
3.355314960629921
 21
3.438976377952756
 31
0.0
  0
LINE
  5
34A5
330
1E
100
AcDbEntity
  8
7
100
AcDbLine
 10
2.029527559055118
 20
6.824803149606299
 30
0.0
 11
2.029527559055118
 21
6.924212598425196
 31
0.0
  0
LINE
  5
34A6
330
1E
100
AcDbEntity
  8
7
100
AcDbLine
 10
2.029527559055118
 20
6.924212598425196
 30
0.0
 11
2.041338582677165
 21
6.924212598425196
 31
0.0
  0
LINE
  5
34A7
330
1E
100
AcDbEntity
  8
7
100
AcDbLine
 10
2.041338582677165
 20
6.924212598425196
 30
0.0
 11
2.100393700787401
 21
6.847440944881889
 31
0.0
  0
LINE
  5
34A8
330
1E
100
AcDbEntity
  8
7
100
AcDbLine
 10
2.100393700787401
 20
6.847440944881889
 30
0.0
 11
2.100393700787401
 21
6.924212598425196
 31
0.0
  0
LINE
  5
34A9
330
1E
100
AcDbEntity
  8
7
100
AcDbLine
 10
2.100393700787401
 20
6.924212598425196
 30
0.0
 11
2.113188976377952
 21
6.924212598425196
 31
0.0
  0
LINE
  5
34AA
330
1E
100
AcDbEntity
  8
7
100
AcDbLine
 10
2.113188976377952
 20
6.924212598425196
 30
0.0
 11
2.113188976377952
 21
6.824803149606299
 31
0.0
  0
LINE
  5
34AB
330
1E
100
AcDbEntity
  8
7
100
AcDbLine
 10
2.113188976377952
 20
6.824803149606299
 30
0.0
 11
2.100393700787401
 21
6.824803149606299
 31
0.0
  0
LINE
  5
34AC
330
1E
100
AcDbEntity
  8
7
100
AcDbLine
 10
2.100393700787401
 20
6.824803149606299
 30
0.0
 11
2.041338582677165
 21
6.901574803149606
 31
0.0
  0
LINE
  5
34AD
330
1E
100
AcDbEntity
  8
7
100
AcDbLine
 10
2.041338582677165
 20
6.901574803149606
 30
0.0
 11
2.041338582677165
 21
6.824803149606299
 31
0.0
  0
LINE
  5
34AE
330
1E
100
AcDbEntity
  8
7
100
AcDbLine
 10
2.041338582677165
 20
6.824803149606299
 30
0.0
 11
2.029527559055118
 21
6.824803149606299
 31
0.0
  0
LINE
  5
34AF
330
1E
100
AcDbEntity
  8
7
100
AcDbLine
 10
2.188976377952756
 20
6.882874015748031
 30
0.0
 11
2.224409448818897
 21
6.824803149606299
 31
0.0
  0
LINE
  5
34B0
330
1E
100
AcDbEntity
  8
7
100
AcDbLine
 10
2.224409448818897
 20
6.824803149606299
 30
0.0
 11
2.209645669291338
 21
6.824803149606299
 31
0.0
  0
LINE
  5
34B1
330
1E
100
AcDbEntity
  8
7
100
AcDbLine
 10
2.209645669291338
 20
6.824803149606299
 30
0.0
 11
2.18011811023622
 21
6.874015748031496
 31
0.0
  0
LINE
  5
34B2
330
1E
100
AcDbEntity
  8
7
100
AcDbLine
 10
2.18011811023622
 20
6.874015748031496
 30
0.0
 11
2.162401574803149
 21
6.852362204724409
 31
0.0
  0
LINE
  5
34B3
330
1E
100
AcDbEntity
  8
7
100
AcDbLine
 10
2.162401574803149
 20
6.852362204724409
 30
0.0
 11
2.162401574803149
 21
6.824803149606299
 31
0.0
  0
LINE
  5
34B4
330
1E
100
AcDbEntity
  8
7
100
AcDbLine
 10
2.162401574803149
 20
6.824803149606299
 30
0.0
 11
2.151574803149606
 21
6.824803149606299
 31
0.0
  0
LINE
  5
34B5
330
1E
100
AcDbEntity
  8
7
100
AcDbLine
 10
2.151574803149606
 20
6.824803149606299
 30
0.0
 11
2.151574803149606
 21
6.924212598425196
 31
0.0
  0
LINE
  5
34B6
330
1E
100
AcDbEntity
  8
7
100
AcDbLine
 10
2.151574803149606
 20
6.924212598425196
 30
0.0
 11
2.162401574803149
 21
6.924212598425196
 31
0.0
  0
LINE
  5
34B7
330
1E
100
AcDbEntity
  8
7
100
AcDbLine
 10
2.162401574803149
 20
6.924212598425196
 30
0.0
 11
2.162401574803149
 21
6.872047244094487
 31
0.0
  0
LINE
  5
34B8
330
1E
100
AcDbEntity
  8
7
100
AcDbLine
 10
2.162401574803149
 20
6.872047244094487
 30
0.0
 11
2.20767716535433
 21
6.924212598425196
 31
0.0
  0
LINE
  5
34B9
330
1E
100
AcDbEntity
  8
7
100
AcDbLine
 10
2.20767716535433
 20
6.924212598425196
 30
0.0
 11
2.224409448818897
 21
6.924212598425196
 31
0.0
  0
LINE
  5
34BA
330
1E
100
AcDbEntity
  8
7
100
AcDbLine
 10
2.224409448818897
 20
6.924212598425196
 30
0.0
 11
2.188976377952756
 21
6.882874015748031
 31
0.0
  0
LINE
  5
34BB
330
1E
100
AcDbEntity
  8
7
100
AcDbLine
 10
2.317913385826771
 20
6.924212598425196
 30
0.0
 11
2.339566929133858
 21
6.914370078740157
 31
0.0
  0
LINE
  5
34BC
330
1E
100
AcDbEntity
  8
7
100
AcDbLine
 10
2.339566929133858
 20
6.914370078740157
 30
0.0
 11
2.339566929133858
 21
6.896653543307086
 31
0.0
  0
LINE
  5
34BD
330
1E
100
AcDbEntity
  8
7
100
AcDbLine
 10
2.339566929133858
 20
6.896653543307086
 30
0.0
 11
2.326771653543306
 21
6.896653543307086
 31
0.0
  0
LINE
  5
34BE
330
1E
100
AcDbEntity
  8
7
100
AcDbLine
 10
2.326771653543306
 20
6.896653543307086
 30
0.0
 11
2.326771653543306
 21
6.904527559055117
 31
0.0
  0
LINE
  5
34BF
330
1E
100
AcDbEntity
  8
7
100
AcDbLine
 10
2.326771653543306
 20
6.904527559055117
 30
0.0
 11
2.307086614173228
 21
6.915354330708661
 31
0.0
  0
LINE
  5
34C0
330
1E
100
AcDbEntity
  8
7
100
AcDbLine
 10
2.307086614173228
 20
6.915354330708661
 30
0.0
 11
2.288385826771653
 21
6.915354330708661
 31
0.0
  0
LINE
  5
34C1
330
1E
100
AcDbEntity
  8
7
100
AcDbLine
 10
2.339566929133858
 20
6.834645669291338
 30
0.0
 11
2.317913385826771
 21
6.824803149606299
 31
0.0
  0
LINE
  5
34C2
330
1E
100
AcDbEntity
  8
7
100
AcDbLine
 10
2.317913385826771
 20
6.824803149606299
 30
0.0
 11
2.276574803149606
 21
6.824803149606299
 31
0.0
  0
LINE
  5
34C3
330
1E
100
AcDbEntity
  8
7
100
AcDbLine
 10
2.276574803149606
 20
6.824803149606299
 30
0.0
 11
2.254921259842519
 21
6.834645669291338
 31
0.0
  0
LINE
  5
34C4
330
1E
100
AcDbEntity
  8
7
100
AcDbLine
 10
2.254921259842519
 20
6.834645669291338
 30
0.0
 11
2.254921259842519
 21
6.852362204724409
 31
0.0
  0
LINE
  5
34C5
330
1E
100
AcDbEntity
  8
7
100
AcDbLine
 10
2.254921259842519
 20
6.852362204724409
 30
0.0
 11
2.26771653543307
 21
6.852362204724409
 31
0.0
  0
LINE
  5
34C6
330
1E
100
AcDbEntity
  8
7
100
AcDbLine
 10
2.26771653543307
 20
6.852362204724409
 30
0.0
 11
2.26771653543307
 21
6.844488188976377
 31
0.0
  0
LINE
  5
34C7
330
1E
100
AcDbEntity
  8
7
100
AcDbLine
 10
2.26771653543307
 20
6.844488188976377
 30
0.0
 11
2.288385826771653
 21
6.833661417322834
 31
0.0
  0
LINE
  5
34C8
330
1E
100
AcDbEntity
  8
7
100
AcDbLine
 10
2.288385826771653
 20
6.833661417322834
 30
0.0
 11
2.307086614173228
 21
6.833661417322834
 31
0.0
  0
LINE
  5
34C9
330
1E
100
AcDbEntity
  8
7
100
AcDbLine
 10
2.307086614173228
 20
6.833661417322834
 30
0.0
 11
2.326771653543306
 21
6.844488188976377
 31
0.0
  0
LINE
  5
34CA
330
1E
100
AcDbEntity
  8
7
100
AcDbLine
 10
2.326771653543306
 20
6.844488188976377
 30
0.0
 11
2.326771653543306
 21
6.861220472440944
 31
0.0
  0
LINE
  5
34CB
330
1E
100
AcDbEntity
  8
7
100
AcDbLine
 10
2.326771653543306
 20
6.861220472440944
 30
0.0
 11
2.311023622047243
 21
6.87007874015748
 31
0.0
  0
LINE
  5
34CC
330
1E
100
AcDbEntity
  8
7
100
AcDbLine
 10
2.311023622047243
 20
6.87007874015748
 30
0.0
 11
2.27263779527559
 21
6.87007874015748
 31
0.0
  0
LINE
  5
34CD
330
1E
100
AcDbEntity
  8
7
100
AcDbLine
 10
2.27263779527559
 20
6.87007874015748
 30
0.0
 11
2.254921259842519
 21
6.878937007874015
 31
0.0
  0
LINE
  5
34CE
330
1E
100
AcDbEntity
  8
7
100
AcDbLine
 10
2.254921259842519
 20
6.878937007874015
 30
0.0
 11
2.254921259842519
 21
6.914370078740157
 31
0.0
  0
LINE
  5
34CF
330
1E
100
AcDbEntity
  8
7
100
AcDbLine
 10
2.254921259842519
 20
6.914370078740157
 30
0.0
 11
2.276574803149606
 21
6.924212598425196
 31
0.0
  0
LINE
  5
34D0
330
1E
100
AcDbEntity
  8
7
100
AcDbLine
 10
2.276574803149606
 20
6.924212598425196
 30
0.0
 11
2.317913385826771
 21
6.924212598425196
 31
0.0
  0
LINE
  5
34D1
330
1E
100
AcDbEntity
  8
7
100
AcDbLine
 10
2.288385826771653
 20
6.915354330708661
 30
0.0
 11
2.26771653543307
 21
6.904527559055117
 31
0.0
  0
LINE
  5
34D2
330
1E
100
AcDbEntity
  8
7
100
AcDbLine
 10
2.26771653543307
 20
6.904527559055117
 30
0.0
 11
2.26771653543307
 21
6.88779527559055
 31
0.0
  0
LINE
  5
34D3
330
1E
100
AcDbEntity
  8
7
100
AcDbLine
 10
2.26771653543307
 20
6.88779527559055
 30
0.0
 11
2.285433070866141
 21
6.878937007874015
 31
0.0
  0
LINE
  5
34D4
330
1E
100
AcDbEntity
  8
7
100
AcDbLine
 10
2.285433070866141
 20
6.878937007874015
 30
0.0
 11
2.321850393700787
 21
6.878937007874015
 31
0.0
  0
LINE
  5
34D5
330
1E
100
AcDbEntity
  8
7
100
AcDbLine
 10
2.321850393700787
 20
6.878937007874015
 30
0.0
 11
2.339566929133858
 21
6.87007874015748
 31
0.0
  0
LINE
  5
34D6
330
1E
100
AcDbEntity
  8
7
100
AcDbLine
 10
2.339566929133858
 20
6.87007874015748
 30
0.0
 11
2.339566929133858
 21
6.834645669291338
 31
0.0
  0
LINE
  5
34D7
330
1E
100
AcDbEntity
  8
7
100
AcDbLine
 10
2.376968503937007
 20
6.924212598425196
 30
0.0
 11
2.438976377952756
 21
6.924212598425196
 31
0.0
  0
LINE
  5
34D8
330
1E
100
AcDbEntity
  8
7
100
AcDbLine
 10
2.438976377952756
 20
6.924212598425196
 30
0.0
 11
2.461614173228346
 21
6.913385826771653
 31
0.0
  0
LINE
  5
34D9
330
1E
100
AcDbEntity
  8
7
100
AcDbLine
 10
2.461614173228346
 20
6.913385826771653
 30
0.0
 11
2.461614173228346
 21
6.880905511811023
 31
0.0
  0
LINE
  5
34DA
330
1E
100
AcDbEntity
  8
7
100
AcDbLine
 10
2.438976377952756
 20
6.87007874015748
 30
0.0
 11
2.389763779527559
 21
6.87007874015748
 31
0.0
  0
LINE
  5
34DB
330
1E
100
AcDbEntity
  8
7
100
AcDbLine
 10
2.389763779527559
 20
6.87007874015748
 30
0.0
 11
2.389763779527559
 21
6.824803149606299
 31
0.0
  0
LINE
  5
34DC
330
1E
100
AcDbEntity
  8
7
100
AcDbLine
 10
2.389763779527559
 20
6.824803149606299
 30
0.0
 11
2.376968503937007
 21
6.824803149606299
 31
0.0
  0
LINE
  5
34DD
330
1E
100
AcDbEntity
  8
7
100
AcDbLine
 10
2.376968503937007
 20
6.824803149606299
 30
0.0
 11
2.376968503937007
 21
6.924212598425196
 31
0.0
  0
LINE
  5
34DE
330
1E
100
AcDbEntity
  8
7
100
AcDbLine
 10
2.583661417322834
 20
6.834645669291338
 30
0.0
 11
2.566929133858267
 21
6.824803149606299
 31
0.0
  0
LINE
  5
34DF
330
1E
100
AcDbEntity
  8
7
100
AcDbLine
 10
2.566929133858267
 20
6.824803149606299
 30
0.0
 11
2.499015748031495
 21
6.824803149606299
 31
0.0
  0
LINE
  5
34E0
330
1E
100
AcDbEntity
  8
7
100
AcDbLine
 10
2.499015748031495
 20
6.824803149606299
 30
0.0
 11
2.499015748031495
 21
6.924212598425196
 31
0.0
  0
LINE
  5
34E1
330
1E
100
AcDbEntity
  8
7
100
AcDbLine
 10
2.499015748031495
 20
6.924212598425196
 30
0.0
 11
2.566929133858267
 21
6.924212598425196
 31
0.0
  0
LINE
  5
34E2
330
1E
100
AcDbEntity
  8
7
100
AcDbLine
 10
2.566929133858267
 20
6.924212598425196
 30
0.0
 11
2.574803149606299
 21
6.915354330708661
 31
0.0
  0
LINE
  5
34E3
330
1E
100
AcDbEntity
  8
7
100
AcDbLine
 10
2.574803149606299
 20
6.915354330708661
 30
0.0
 11
2.574803149606299
 21
6.882874015748031
 31
0.0
  0
LINE
  5
34E4
330
1E
100
AcDbEntity
  8
7
100
AcDbLine
 10
2.572834645669291
 20
6.879921259842519
 30
0.0
 11
2.583661417322834
 21
6.874015748031496
 31
0.0
  0
LINE
  5
34E5
330
1E
100
AcDbEntity
  8
7
100
AcDbLine
 10
2.583661417322834
 20
6.874015748031496
 30
0.0
 11
2.583661417322834
 21
6.834645669291338
 31
0.0
  0
LINE
  5
34E6
330
1E
100
AcDbEntity
  8
7
100
AcDbLine
 10
2.071850393700787
 20
6.386811023622047
 30
0.0
 11
2.073818897637795
 21
6.386811023622047
 31
0.0
  0
LINE
  5
34E7
330
1E
100
AcDbEntity
  8
7
100
AcDbLine
 10
2.073818897637795
 20
6.386811023622047
 30
0.0
 11
2.078740157480314
 21
6.38779527559055
 31
0.0
  0
LINE
  5
34E8
330
1E
100
AcDbEntity
  8
7
100
AcDbLine
 10
2.078740157480314
 20
6.38779527559055
 30
0.0
 11
2.079724409448818
 21
6.388779527559054
 31
0.0
  0
LINE
  5
34E9
330
1E
100
AcDbEntity
  8
7
100
AcDbLine
 10
2.079724409448818
 20
6.388779527559054
 30
0.0
 11
2.083661417322834
 21
6.39271653543307
 31
0.0
  0
LINE
  5
34EA
330
1E
100
AcDbEntity
  8
7
100
AcDbLine
 10
2.083661417322834
 20
6.39271653543307
 30
0.0
 11
2.084645669291338
 21
6.393700787401574
 31
0.0
  0
LINE
  5
34EB
330
1E
100
AcDbEntity
  8
7
100
AcDbLine
 10
2.258858267716535
 20
6.5
 30
0.0
 11
2.216535433070866
 21
6.49507874015748
 31
0.0
  0
LINE
  5
34EC
330
1E
100
AcDbEntity
  8
7
100
AcDbLine
 10
2.216535433070866
 20
6.49507874015748
 30
0.0
 11
2.176181102362204
 21
6.481299212598425
 31
0.0
  0
LINE
  5
34ED
330
1E
100
AcDbEntity
  8
7
100
AcDbLine
 10
2.176181102362204
 20
6.481299212598425
 30
0.0
 11
2.139763779527559
 21
6.459645669291338
 31
0.0
  0
LINE
  5
34EE
330
1E
100
AcDbEntity
  8
7
100
AcDbLine
 10
2.139763779527559
 20
6.459645669291338
 30
0.0
 11
2.108267716535432
 21
6.43011811023622
 31
0.0
  0
LINE
  5
34EF
330
1E
100
AcDbEntity
  8
7
100
AcDbLine
 10
2.108267716535432
 20
6.43011811023622
 30
0.0
 11
2.084645669291338
 21
6.393700787401574
 31
0.0
  0
LINE
  5
34F0
330
1E
100
AcDbEntity
  8
7
100
AcDbLine
 10
2.479330708661417
 20
6.478346456692912
 30
0.0
 11
2.43503937007874
 21
6.494094488188975
 31
0.0
  0
LINE
  5
34F1
330
1E
100
AcDbEntity
  8
7
100
AcDbLine
 10
2.43503937007874
 20
6.494094488188975
 30
0.0
 11
2.388779527559055
 21
6.5
 31
0.0
  0
LINE
  5
34F2
330
1E
100
AcDbEntity
  8
7
100
AcDbLine
 10
2.570866141732283
 20
6.375984251968503
 30
0.0
 11
2.549212598425196
 21
6.417322834645669
 31
0.0
  0
LINE
  5
34F3
330
1E
100
AcDbEntity
  8
7
100
AcDbLine
 10
2.549212598425196
 20
6.417322834645669
 30
0.0
 11
2.51771653543307
 21
6.451771653543307
 31
0.0
  0
LINE
  5
34F4
330
1E
100
AcDbEntity
  8
7
100
AcDbLine
 10
2.51771653543307
 20
6.451771653543307
 30
0.0
 11
2.479330708661417
 21
6.478346456692912
 31
0.0
  0
LINE
  5
34F5
330
1E
100
AcDbEntity
  8
7
100
AcDbLine
 10
2.571850393700787
 20
6.375
 30
0.0
 11
2.571850393700787
 21
6.374015748031496
 31
0.0
  0
LINE
  5
34F6
330
1E
100
AcDbEntity
  8
7
100
AcDbLine
 10
2.571850393700787
 20
6.374015748031496
 30
0.0
 11
2.574803149606299
 21
6.37007874015748
 31
0.0
  0
LINE
  5
34F7
330
1E
100
AcDbEntity
  8
7
100
AcDbLine
 10
2.574803149606299
 20
6.37007874015748
 30
0.0
 11
2.576771653543306
 21
6.369094488188975
 31
0.0
  0
LINE
  5
34F8
330
1E
100
AcDbEntity
  8
7
100
AcDbLine
 10
2.576771653543306
 20
6.369094488188975
 30
0.0
 11
2.581692913385826
 21
6.367125984251968
 31
0.0
  0
LINE
  5
34F9
330
1E
100
AcDbEntity
  8
7
100
AcDbLine
 10
2.581692913385826
 20
6.367125984251968
 30
0.0
 11
2.584645669291338
 21
6.366141732283464
 31
0.0
  0
LINE
  5
34FA
330
1E
100
AcDbEntity
  8
7
100
AcDbLine
 10
1.961614173228346
 20
6.386811023622047
 30
0.0
 11
2.029527559055118
 21
6.386811023622047
 31
0.0
  0
LINE
  5
34FB
330
1E
100
AcDbEntity
  8
7
100
AcDbLine
 10
2.029527559055118
 20
6.386811023622047
 30
0.0
 11
2.071850393700787
 21
6.386811023622047
 31
0.0
  0
LINE
  5
34FC
330
1E
100
AcDbEntity
  8
7
100
AcDbLine
 10
1.961614173228346
 20
6.179133858267716
 30
0.0
 11
2.029527559055118
 21
6.179133858267716
 31
0.0
  0
LINE
  5
34FD
330
1E
100
AcDbEntity
  8
7
100
AcDbLine
 10
2.029527559055118
 20
6.179133858267716
 30
0.0
 11
2.071850393700787
 21
6.179133858267716
 31
0.0
  0
LINE
  5
34FE
330
1E
100
AcDbEntity
  8
7
100
AcDbLine
 10
2.084645669291338
 20
6.172244094488188
 30
0.0
 11
2.08267716535433
 21
6.174212598425197
 31
0.0
  0
LINE
  5
34FF
330
1E
100
AcDbEntity
  8
7
100
AcDbLine
 10
2.08267716535433
 20
6.174212598425197
 30
0.0
 11
2.079724409448818
 21
6.177165354330708
 31
0.0
  0
LINE
  5
3500
330
1E
100
AcDbEntity
  8
7
100
AcDbLine
 10
2.079724409448818
 20
6.177165354330708
 30
0.0
 11
2.077755905511811
 21
6.178149606299212
 31
0.0
  0
LINE
  5
3501
330
1E
100
AcDbEntity
  8
7
100
AcDbLine
 10
2.077755905511811
 20
6.178149606299212
 30
0.0
 11
2.073818897637795
 21
6.179133858267716
 31
0.0
  0
LINE
  5
3502
330
1E
100
AcDbEntity
  8
7
100
AcDbLine
 10
2.073818897637795
 20
6.179133858267716
 30
0.0
 11
2.071850393700787
 21
6.179133858267716
 31
0.0
  0
LINE
  5
3503
330
1E
100
AcDbEntity
  8
7
100
AcDbLine
 10
2.084645669291338
 20
6.172244094488188
 30
0.0
 11
2.108267716535432
 21
6.135826771653543
 31
0.0
  0
LINE
  5
3504
330
1E
100
AcDbEntity
  8
7
100
AcDbLine
 10
2.108267716535432
 20
6.135826771653543
 30
0.0
 11
2.139763779527559
 21
6.106299212598425
 31
0.0
  0
LINE
  5
3505
330
1E
100
AcDbEntity
  8
7
100
AcDbLine
 10
2.139763779527559
 20
6.106299212598425
 30
0.0
 11
2.176181102362204
 21
6.084645669291338
 31
0.0
  0
LINE
  5
3506
330
1E
100
AcDbEntity
  8
7
100
AcDbLine
 10
2.176181102362204
 20
6.084645669291338
 30
0.0
 11
2.216535433070866
 21
6.070866141732283
 31
0.0
  0
LINE
  5
3507
330
1E
100
AcDbEntity
  8
7
100
AcDbLine
 10
2.479330708661417
 20
6.08759842519685
 30
0.0
 11
2.51771653543307
 21
6.114173228346456
 31
0.0
  0
LINE
  5
3508
330
1E
100
AcDbEntity
  8
7
100
AcDbLine
 10
2.51771653543307
 20
6.114173228346456
 30
0.0
 11
2.549212598425196
 21
6.148622047244094
 31
0.0
  0
LINE
  5
3509
330
1E
100
AcDbEntity
  8
7
100
AcDbLine
 10
2.549212598425196
 20
6.148622047244094
 30
0.0
 11
2.570866141732283
 21
6.18996062992126
 31
0.0
  0
LINE
  5
350A
330
1E
100
AcDbEntity
  8
7
100
AcDbLine
 10
2.388779527559055
 20
6.065944881889763
 30
0.0
 11
2.43503937007874
 21
6.071850393700787
 31
0.0
  0
LINE
  5
350B
330
1E
100
AcDbEntity
  8
7
100
AcDbLine
 10
2.43503937007874
 20
6.071850393700787
 30
0.0
 11
2.479330708661417
 21
6.08759842519685
 31
0.0
  0
LINE
  5
350C
330
1E
100
AcDbEntity
  8
7
100
AcDbLine
 10
2.674212598425196
 20
6.199803149606299
 30
0.0
 11
2.584645669291338
 21
6.199803149606299
 31
0.0
  0
LINE
  5
350D
330
1E
100
AcDbEntity
  8
7
100
AcDbLine
 10
2.584645669291338
 20
6.199803149606299
 30
0.0
 11
2.58267716535433
 21
6.198818897637795
 31
0.0
  0
LINE
  5
350E
330
1E
100
AcDbEntity
  8
7
100
AcDbLine
 10
2.58267716535433
 20
6.198818897637795
 30
0.0
 11
2.578740157480314
 21
6.197834645669291
 31
0.0
  0
LINE
  5
350F
330
1E
100
AcDbEntity
  8
7
100
AcDbLine
 10
2.578740157480314
 20
6.197834645669291
 30
0.0
 11
2.575787401574803
 21
6.196850393700787
 31
0.0
  0
LINE
  5
3510
330
1E
100
AcDbEntity
  8
7
100
AcDbLine
 10
2.575787401574803
 20
6.196850393700787
 30
0.0
 11
2.572834645669291
 21
6.192913385826771
 31
0.0
  0
LINE
  5
3511
330
1E
100
AcDbEntity
  8
7
100
AcDbLine
 10
2.572834645669291
 20
6.192913385826771
 30
0.0
 11
2.571850393700787
 21
6.190944881889763
 31
0.0
  0
LINE
  5
3512
330
1E
100
AcDbEntity
  8
7
100
AcDbLine
 10
1.900590551181102
 20
6.366141732283464
 30
0.0
 11
1.909448818897637
 21
6.366141732283464
 31
0.0
  0
LINE
  5
3513
330
1E
100
AcDbEntity
  8
7
100
AcDbLine
 10
1.909448818897637
 20
6.366141732283464
 30
0.0
 11
1.913385826771653
 21
6.366141732283464
 31
0.0
  0
LINE
  5
3514
330
1E
100
AcDbEntity
  8
7
100
AcDbLine
 10
2.028543307086614
 20
6.572834645669291
 30
0.0
 11
2.028543307086614
 21
6.38779527559055
 31
0.0
  0
LINE
  5
3515
330
1E
100
AcDbEntity
  8
7
100
AcDbLine
 10
2.028543307086614
 20
6.38779527559055
 30
0.0
 11
2.029527559055118
 21
6.386811023622047
 31
0.0
  0
LINE
  5
3516
330
1E
100
AcDbEntity
  8
7
100
AcDbLine
 10
2.029527559055118
 20
6.386811023622047
 30
0.0
 11
2.029527559055118
 21
6.572834645669291
 31
0.0
  0
LINE
  5
3517
330
1E
100
AcDbEntity
  8
7
100
AcDbLine
 10
2.681102362204724
 20
6.575787401574802
 30
0.0
 11
1.913385826771653
 21
6.575787401574802
 31
0.0
  0
LINE
  5
3518
330
1E
100
AcDbEntity
  8
7
100
AcDbLine
 10
1.913385826771653
 20
6.575787401574802
 30
0.0
 11
1.914370078740157
 21
6.575787401574802
 31
0.0
  0
LINE
  5
3519
330
1E
100
AcDbEntity
  8
7
100
AcDbLine
 10
2.681102362204724
 20
5.942913385826771
 30
0.0
 11
2.681102362204724
 21
5.989173228346456
 31
0.0
  0
LINE
  5
351A
330
1E
100
AcDbEntity
  8
7
100
AcDbLine
 10
2.681102362204724
 20
5.989173228346456
 30
0.0
 11
1.913385826771653
 21
5.989173228346456
 31
0.0
  0
LINE
  5
351B
330
1E
100
AcDbEntity
  8
7
100
AcDbLine
 10
1.903543307086614
 20
6.366141732283464
 30
0.0
 11
1.889763779527559
 21
6.36023622047244
 31
0.0
  0
LINE
  5
351C
330
1E
100
AcDbEntity
  8
7
100
AcDbLine
 10
1.889763779527559
 20
6.36023622047244
 30
0.0
 11
1.884842519685039
 21
6.346456692913386
 31
0.0
  0
LINE
  5
351D
330
1E
100
AcDbEntity
  8
7
100
AcDbLine
 10
1.879921259842519
 20
6.346456692913386
 30
0.0
 11
1.880905511811023
 21
6.352362204724409
 31
0.0
  0
LINE
  5
351E
330
1E
100
AcDbEntity
  8
7
100
AcDbLine
 10
1.880905511811023
 20
6.352362204724409
 30
0.0
 11
1.883858267716535
 21
6.357283464566928
 31
0.0
  0
LINE
  5
351F
330
1E
100
AcDbEntity
  8
7
100
AcDbLine
 10
1.883858267716535
 20
6.357283464566928
 30
0.0
 11
1.887795275590551
 21
6.361220472440944
 31
0.0
  0
LINE
  5
3520
330
1E
100
AcDbEntity
  8
7
100
AcDbLine
 10
1.887795275590551
 20
6.361220472440944
 30
0.0
 11
1.891732283464566
 21
6.364173228346456
 31
0.0
  0
LINE
  5
3521
330
1E
100
AcDbEntity
  8
7
100
AcDbLine
 10
1.891732283464566
 20
6.364173228346456
 30
0.0
 11
1.899606299212598
 21
6.366141732283464
 31
0.0
  0
LINE
  5
3522
330
1E
100
AcDbEntity
  8
7
100
AcDbLine
 10
1.899606299212598
 20
6.366141732283464
 30
0.0
 11
1.900590551181102
 21
6.366141732283464
 31
0.0
  0
LINE
  5
3523
330
1E
100
AcDbEntity
  8
7
100
AcDbLine
 10
1.884842519685039
 20
6.219488188976377
 30
0.0
 11
1.889763779527559
 21
6.205708661417323
 31
0.0
  0
LINE
  5
3524
330
1E
100
AcDbEntity
  8
7
100
AcDbLine
 10
1.889763779527559
 20
6.205708661417323
 30
0.0
 11
1.903543307086614
 21
6.199803149606299
 31
0.0
  0
LINE
  5
3525
330
1E
100
AcDbEntity
  8
7
100
AcDbLine
 10
1.900590551181102
 20
6.199803149606299
 30
0.0
 11
1.893700787401574
 21
6.201771653543307
 31
0.0
  0
LINE
  5
3526
330
1E
100
AcDbEntity
  8
7
100
AcDbLine
 10
1.893700787401574
 20
6.201771653543307
 30
0.0
 11
1.887795275590551
 21
6.204724409448818
 31
0.0
  0
LINE
  5
3527
330
1E
100
AcDbEntity
  8
7
100
AcDbLine
 10
1.887795275590551
 20
6.204724409448818
 30
0.0
 11
1.882874015748031
 21
6.209645669291338
 31
0.0
  0
LINE
  5
3528
330
1E
100
AcDbEntity
  8
7
100
AcDbLine
 10
1.882874015748031
 20
6.209645669291338
 30
0.0
 11
1.880905511811023
 21
6.215551181102362
 31
0.0
  0
LINE
  5
3529
330
1E
100
AcDbEntity
  8
7
100
AcDbLine
 10
1.880905511811023
 20
6.215551181102362
 30
0.0
 11
1.879921259842519
 21
6.219488188976377
 31
0.0
  0
LINE
  5
352A
330
1E
100
AcDbEntity
  8
7
100
AcDbLine
 10
1.853346456692913
 20
6.62007874015748
 30
0.0
 11
1.875984251968503
 21
6.62007874015748
 31
0.0
  0
LINE
  5
352B
330
1E
100
AcDbEntity
  8
7
100
AcDbLine
 10
1.875984251968503
 20
6.62007874015748
 30
0.0
 11
1.895669291338582
 21
6.621062992125984
 31
0.0
  0
LINE
  5
352C
330
1E
100
AcDbEntity
  8
7
100
AcDbLine
 10
1.895669291338582
 20
6.621062992125984
 30
0.0
 11
1.908464566929133
 21
6.622047244094487
 31
0.0
  0
LINE
  5
352D
330
1E
100
AcDbEntity
  8
7
100
AcDbLine
 10
1.908464566929133
 20
6.622047244094487
 30
0.0
 11
1.913385826771653
 21
6.622047244094487
 31
0.0
  0
LINE
  5
352E
330
1E
100
AcDbEntity
  8
7
100
AcDbLine
 10
2.681102362204724
 20
6.623031496062991
 30
0.0
 11
2.681102362204724
 21
6.622047244094487
 31
0.0
  0
LINE
  5
352F
330
1E
100
AcDbEntity
  8
7
100
AcDbLine
 10
2.681102362204724
 20
6.622047244094487
 30
0.0
 11
2.686023622047243
 21
6.622047244094487
 31
0.0
  0
LINE
  5
3530
330
1E
100
AcDbEntity
  8
7
100
AcDbLine
 10
2.686023622047243
 20
6.622047244094487
 30
0.0
 11
2.699803149606299
 21
6.621062992125984
 31
0.0
  0
LINE
  5
3531
330
1E
100
AcDbEntity
  8
7
100
AcDbLine
 10
2.699803149606299
 20
6.621062992125984
 30
0.0
 11
2.718503937007874
 21
6.62007874015748
 31
0.0
  0
LINE
  5
3532
330
1E
100
AcDbEntity
  8
7
100
AcDbLine
 10
2.718503937007874
 20
6.62007874015748
 30
0.0
 11
2.741141732283464
 21
6.62007874015748
 31
0.0
  0
LINE
  5
3533
330
1E
100
AcDbEntity
  8
7
100
AcDbLine
 10
1.913385826771653
 20
5.943897637795275
 30
0.0
 11
1.908464566929133
 21
5.943897637795275
 31
0.0
  0
LINE
  5
3534
330
1E
100
AcDbEntity
  8
7
100
AcDbLine
 10
1.908464566929133
 20
5.943897637795275
 30
0.0
 11
1.895669291338582
 21
5.944881889763779
 31
0.0
  0
LINE
  5
3535
330
1E
100
AcDbEntity
  8
7
100
AcDbLine
 10
1.895669291338582
 20
5.944881889763779
 30
0.0
 11
1.875984251968503
 21
5.945866141732283
 31
0.0
  0
LINE
  5
3536
330
1E
100
AcDbEntity
  8
7
100
AcDbLine
 10
1.875984251968503
 20
5.945866141732283
 30
0.0
 11
1.853346456692913
 21
5.945866141732283
 31
0.0
  0
LINE
  5
3537
330
1E
100
AcDbEntity
  8
7
100
AcDbLine
 10
1.853346456692913
 20
5.945866141732283
 30
0.0
 11
1.815944881889763
 21
5.945866141732283
 31
0.0
  0
LINE
  5
3538
330
1E
100
AcDbEntity
  8
7
100
AcDbLine
 10
2.779527559055118
 20
5.945866141732283
 30
0.0
 11
2.741141732283464
 21
5.945866141732283
 31
0.0
  0
LINE
  5
3539
330
1E
100
AcDbEntity
  8
7
100
AcDbLine
 10
2.741141732283464
 20
5.945866141732283
 30
0.0
 11
2.718503937007874
 21
5.945866141732283
 31
0.0
  0
LINE
  5
353A
330
1E
100
AcDbEntity
  8
7
100
AcDbLine
 10
2.718503937007874
 20
5.945866141732283
 30
0.0
 11
2.699803149606299
 21
5.944881889763779
 31
0.0
  0
LINE
  5
353B
330
1E
100
AcDbEntity
  8
7
100
AcDbLine
 10
2.699803149606299
 20
5.944881889763779
 30
0.0
 11
2.686023622047243
 21
5.943897637795275
 31
0.0
  0
LINE
  5
353C
330
1E
100
AcDbEntity
  8
7
100
AcDbLine
 10
2.686023622047243
 20
5.943897637795275
 30
0.0
 11
2.681102362204724
 21
5.943897637795275
 31
0.0
  0
LINE
  5
353D
330
1E
100
AcDbEntity
  8
7
100
AcDbLine
 10
2.681102362204724
 20
5.943897637795275
 30
0.0
 11
2.681102362204724
 21
5.942913385826771
 31
0.0
  0
LINE
  5
353E
330
1E
100
AcDbEntity
  8
7
100
AcDbLine
 10
1.792322834645669
 20
5.922244094488188
 30
0.0
 11
1.815944881889763
 21
5.945866141732283
 31
0.0
  0
LINE
  5
353F
330
1E
100
AcDbEntity
  8
7
100
AcDbLine
 10
1.815944881889763
 20
5.945866141732283
 30
0.0
 11
1.815944881889763
 21
6.62007874015748
 31
0.0
  0
LINE
  5
3540
330
1E
100
AcDbEntity
  8
7
100
AcDbLine
 10
2.27755905511811
 20
5.523622047244094
 30
0.0
 11
2.27755905511811
 21
5.560039370078739
 31
0.0
  0
LINE
  5
3541
330
1E
100
AcDbEntity
  8
7
100
AcDbLine
 10
2.27755905511811
 20
5.560039370078739
 30
0.0
 11
2.293307086614173
 21
5.523622047244094
 31
0.0
  0
LINE
  5
3542
330
1E
100
AcDbEntity
  8
7
100
AcDbLine
 10
2.200787401574803
 20
5.536417322834645
 30
0.0
 11
2.233267716535432
 21
5.536417322834645
 31
0.0
  0
LINE
  5
3543
330
1E
100
AcDbEntity
  8
7
100
AcDbLine
 10
2.233267716535432
 20
5.536417322834645
 30
0.0
 11
2.239173228346456
 21
5.523622047244094
 31
0.0
  0
LINE
  5
3544
330
1E
100
AcDbEntity
  8
7
100
AcDbLine
 10
2.141732283464567
 20
5.559055118110236
 30
0.0
 11
2.169291338582677
 21
5.559055118110236
 31
0.0
  0
LINE
  5
3545
330
1E
100
AcDbEntity
  8
7
100
AcDbLine
 10
2.169291338582677
 20
5.559055118110236
 30
0.0
 11
2.178149606299212
 21
5.560039370078739
 31
0.0
  0
LINE
  5
3546
330
1E
100
AcDbEntity
  8
7
100
AcDbLine
 10
2.178149606299212
 20
5.560039370078739
 30
0.0
 11
2.186023622047243
 21
5.562992125984251
 31
0.0
  0
LINE
  5
3547
330
1E
100
AcDbEntity
  8
7
100
AcDbLine
 10
2.205708661417322
 20
5.609251968503937
 30
0.0
 11
2.191929133858267
 21
5.627952755905512
 31
0.0
  0
LINE
  5
3548
330
1E
100
AcDbEntity
  8
7
100
AcDbLine
 10
2.191929133858267
 20
5.627952755905512
 30
0.0
 11
2.169291338582677
 21
5.635826771653543
 31
0.0
  0
LINE
  5
3549
330
1E
100
AcDbEntity
  8
7
100
AcDbLine
 10
2.141732283464567
 20
5.576771653543307
 30
0.0
 11
2.15255905511811
 21
5.576771653543307
 31
0.0
  0
LINE
  5
354A
330
1E
100
AcDbEntity
  8
7
100
AcDbLine
 10
2.15255905511811
 20
5.576771653543307
 30
0.0
 11
2.141732283464567
 21
5.576771653543307
 31
0.0
  0
LINE
  5
354B
330
1E
100
AcDbEntity
  8
7
100
AcDbLine
 10
2.15255905511811
 20
5.576771653543307
 30
0.0
 11
2.156496062992125
 21
5.577755905511811
 31
0.0
  0
LINE
  5
354C
330
1E
100
AcDbEntity
  8
7
100
AcDbLine
 10
2.156496062992125
 20
5.577755905511811
 30
0.0
 11
2.158464566929133
 21
5.581692913385826
 31
0.0
  0
LINE
  5
354D
330
1E
100
AcDbEntity
  8
7
100
AcDbLine
 10
2.158464566929133
 20
5.581692913385826
 30
0.0
 11
2.158464566929133
 21
5.61023622047244
 31
0.0
  0
LINE
  5
354E
330
1E
100
AcDbEntity
  8
7
100
AcDbLine
 10
2.158464566929133
 20
5.61023622047244
 30
0.0
 11
2.156496062992125
 21
5.614173228346456
 31
0.0
  0
LINE
  5
354F
330
1E
100
AcDbEntity
  8
7
100
AcDbLine
 10
2.156496062992125
 20
5.614173228346456
 30
0.0
 11
2.15255905511811
 21
5.616141732283464
 31
0.0
  0
LINE
  5
3550
330
1E
100
AcDbEntity
  8
7
100
AcDbLine
 10
2.568897637795275
 20
5.523622047244094
 30
0.0
 11
2.542322834645669
 21
5.523622047244094
 31
0.0
  0
LINE
  5
3551
330
1E
100
AcDbEntity
  8
7
100
AcDbLine
 10
2.542322834645669
 20
5.523622047244094
 30
0.0
 11
2.542322834645669
 21
5.591535433070865
 31
0.0
  0
LINE
  5
3552
330
1E
100
AcDbEntity
  8
7
100
AcDbLine
 10
2.510826771653543
 20
5.523622047244094
 30
0.0
 11
2.487204724409448
 21
5.523622047244094
 31
0.0
  0
LINE
  5
3553
330
1E
100
AcDbEntity
  8
7
100
AcDbLine
 10
2.487204724409448
 20
5.523622047244094
 30
0.0
 11
2.487204724409448
 21
5.609251968503937
 31
0.0
  0
LINE
  5
3554
330
1E
100
AcDbEntity
  8
7
100
AcDbLine
 10
2.411417322834645
 20
5.539370078740157
 30
0.0
 11
2.416338582677165
 21
5.528543307086613
 31
0.0
  0
LINE
  5
3555
330
1E
100
AcDbEntity
  8
7
100
AcDbLine
 10
2.416338582677165
 20
5.528543307086613
 30
0.0
 11
2.427165354330708
 21
5.523622047244094
 31
0.0
  0
LINE
  5
3556
330
1E
100
AcDbEntity
  8
7
100
AcDbLine
 10
2.427165354330708
 20
5.523622047244094
 30
0.0
 11
2.45767716535433
 21
5.523622047244094
 31
0.0
  0
LINE
  5
3557
330
1E
100
AcDbEntity
  8
7
100
AcDbLine
 10
2.45767716535433
 20
5.523622047244094
 30
0.0
 11
2.468503937007874
 21
5.528543307086613
 31
0.0
  0
LINE
  5
3558
330
1E
100
AcDbEntity
  8
7
100
AcDbLine
 10
2.468503937007874
 20
5.528543307086613
 30
0.0
 11
2.472440944881889
 21
5.539370078740157
 31
0.0
  0
LINE
  5
3559
330
1E
100
AcDbEntity
  8
7
100
AcDbLine
 10
2.439960629921259
 20
5.548228346456692
 30
0.0
 11
2.440944881889763
 21
5.544291338582676
 31
0.0
  0
LINE
  5
355A
330
1E
100
AcDbEntity
  8
7
100
AcDbLine
 10
2.440944881889763
 20
5.544291338582676
 30
0.0
 11
2.443897637795275
 21
5.543307086614173
 31
0.0
  0
LINE
  5
355B
330
1E
100
AcDbEntity
  8
7
100
AcDbLine
 10
2.450787401574803
 20
5.543307086614173
 30
0.0
 11
2.453740157480314
 21
5.544291338582676
 31
0.0
  0
LINE
  5
355C
330
1E
100
AcDbEntity
  8
7
100
AcDbLine
 10
2.453740157480314
 20
5.544291338582676
 30
0.0
 11
2.454724409448818
 21
5.548228346456692
 31
0.0
  0
LINE
  5
355D
330
1E
100
AcDbEntity
  8
7
100
AcDbLine
 10
2.396653543307086
 20
5.593503937007874
 30
0.0
 11
2.39271653543307
 21
5.604330708661417
 31
0.0
  0
LINE
  5
355E
330
1E
100
AcDbEntity
  8
7
100
AcDbLine
 10
2.39271653543307
 20
5.604330708661417
 30
0.0
 11
2.381889763779527
 21
5.609251968503937
 31
0.0
  0
LINE
  5
355F
330
1E
100
AcDbEntity
  8
7
100
AcDbLine
 10
2.381889763779527
 20
5.523622047244094
 30
0.0
 11
2.39271653543307
 21
5.528543307086613
 31
0.0
  0
LINE
  5
3560
330
1E
100
AcDbEntity
  8
7
100
AcDbLine
 10
2.39271653543307
 20
5.528543307086613
 30
0.0
 11
2.396653543307086
 21
5.539370078740157
 31
0.0
  0
LINE
  5
3561
330
1E
100
AcDbEntity
  8
7
100
AcDbLine
 10
2.372047244094487
 20
5.586614173228346
 30
0.0
 11
2.371062992125984
 21
5.590551181102362
 31
0.0
  0
LINE
  5
3562
330
1E
100
AcDbEntity
  8
7
100
AcDbLine
 10
2.371062992125984
 20
5.590551181102362
 30
0.0
 11
2.368110236220472
 21
5.591535433070865
 31
0.0
  0
LINE
  5
3563
330
1E
100
AcDbEntity
  8
7
100
AcDbLine
 10
2.359251968503937
 20
5.543307086614173
 30
0.0
 11
2.359251968503937
 21
5.591535433070865
 31
0.0
  0
LINE
  5
3564
330
1E
100
AcDbEntity
  8
7
100
AcDbLine
 10
2.359251968503937
 20
5.591535433070865
 30
0.0
 11
2.368110236220472
 21
5.591535433070865
 31
0.0
  0
LINE
  5
3565
330
1E
100
AcDbEntity
  8
7
100
AcDbLine
 10
2.368110236220472
 20
5.543307086614173
 30
0.0
 11
2.371062992125984
 21
5.544291338582676
 31
0.0
  0
LINE
  5
3566
330
1E
100
AcDbEntity
  8
7
100
AcDbLine
 10
2.371062992125984
 20
5.544291338582676
 30
0.0
 11
2.372047244094487
 21
5.548228346456692
 31
0.0
  0
LINE
  5
3567
330
1E
100
AcDbEntity
  8
7
100
AcDbLine
 10
2.871062992125984
 20
5.523622047244094
 30
0.0
 11
2.881889763779527
 21
5.519685039370078
 31
0.0
  0
LINE
  5
3568
330
1E
100
AcDbEntity
  8
7
100
AcDbLine
 10
2.881889763779527
 20
5.519685039370078
 30
0.0
 11
2.89271653543307
 21
5.51279527559055
 31
0.0
  0
LINE
  5
3569
330
1E
100
AcDbEntity
  8
7
100
AcDbLine
 10
2.89271653543307
 20
5.51279527559055
 30
0.0
 11
2.899606299212598
 21
5.507874015748031
 31
0.0
  0
LINE
  5
356A
330
1E
100
AcDbEntity
  8
7
100
AcDbLine
 10
2.899606299212598
 20
5.507874015748031
 30
0.0
 11
2.90255905511811
 21
5.503937007874015
 31
0.0
  0
LINE
  5
356B
330
1E
100
AcDbEntity
  8
7
100
AcDbLine
 10
2.90255905511811
 20
5.503937007874015
 30
0.0
 11
2.904527559055118
 21
5.501968503937007
 31
0.0
  0
LINE
  5
356C
330
1E
100
AcDbEntity
  8
7
100
AcDbLine
 10
3.193897637795275
 20
5.86515748031496
 30
0.0
 11
3.191929133858267
 21
5.866141732283464
 31
0.0
  0
LINE
  5
356D
330
1E
100
AcDbEntity
  8
7
100
AcDbLine
 10
3.191929133858267
 20
5.866141732283464
 30
0.0
 11
3.186023622047243
 21
5.869094488188975
 31
0.0
  0
LINE
  5
356E
330
1E
100
AcDbEntity
  8
7
100
AcDbLine
 10
3.186023622047243
 20
5.869094488188975
 30
0.0
 11
3.179133858267716
 21
5.875
 31
0.0
  0
LINE
  5
356F
330
1E
100
AcDbEntity
  8
7
100
AcDbLine
 10
3.179133858267716
 20
5.875
 30
0.0
 11
3.172244094488188
 21
5.883858267716535
 31
0.0
  0
LINE
  5
3570
330
1E
100
AcDbEntity
  8
7
100
AcDbLine
 10
3.172244094488188
 20
5.883858267716535
 30
0.0
 11
3.165354330708661
 21
5.89271653543307
 31
0.0
  0
LINE
  5
3571
330
1E
100
AcDbEntity
  8
7
100
AcDbLine
 10
2.783464566929133
 20
5.421259842519685
 30
0.0
 11
2.781496062992125
 21
5.423228346456692
 31
0.0
  0
LINE
  5
3572
330
1E
100
AcDbEntity
  8
7
100
AcDbLine
 10
2.781496062992125
 20
5.423228346456692
 30
0.0
 11
2.779527559055118
 21
5.429133858267716
 31
0.0
  0
LINE
  5
3573
330
1E
100
AcDbEntity
  8
7
100
AcDbLine
 10
2.779527559055118
 20
5.429133858267716
 30
0.0
 11
2.776574803149606
 21
5.437992125984251
 31
0.0
  0
LINE
  5
3574
330
1E
100
AcDbEntity
  8
7
100
AcDbLine
 10
2.776574803149606
 20
5.437992125984251
 30
0.0
 11
2.775590551181102
 21
5.448818897637795
 31
0.0
  0
LINE
  5
3575
330
1E
100
AcDbEntity
  8
7
100
AcDbLine
 10
2.775590551181102
 20
5.448818897637795
 30
0.0
 11
2.775590551181102
 21
5.459645669291338
 31
0.0
  0
LINE
  5
3576
330
1E
100
AcDbEntity
  8
7
100
AcDbLine
 10
1.814960629921259
 20
5.428149606299212
 30
0.0
 11
1.812992125984251
 21
5.423228346456692
 31
0.0
  0
LINE
  5
3577
330
1E
100
AcDbEntity
  8
7
100
AcDbLine
 10
1.812992125984251
 20
5.423228346456692
 30
0.0
 11
1.812007874015747
 21
5.421259842519685
 31
0.0
  0
LINE
  5
3578
330
1E
100
AcDbEntity
  8
7
100
AcDbLine
 10
1.818897637795275
 20
5.459645669291338
 30
0.0
 11
1.818897637795275
 21
5.448818897637795
 31
0.0
  0
LINE
  5
3579
330
1E
100
AcDbEntity
  8
7
100
AcDbLine
 10
1.818897637795275
 20
5.448818897637795
 30
0.0
 11
1.817913385826771
 21
5.436023622047244
 31
0.0
  0
LINE
  5
357A
330
1E
100
AcDbEntity
  8
7
100
AcDbLine
 10
1.817913385826771
 20
5.436023622047244
 30
0.0
 11
1.814960629921259
 21
5.428149606299212
 31
0.0
  0
LINE
  5
357B
330
1E
100
AcDbEntity
  8
7
100
AcDbLine
 10
1.429133858267716
 20
5.89271653543307
 30
0.0
 11
1.423228346456692
 21
5.883858267716535
 31
0.0
  0
LINE
  5
357C
330
1E
100
AcDbEntity
  8
7
100
AcDbLine
 10
1.423228346456692
 20
5.883858267716535
 30
0.0
 11
1.414370078740157
 21
5.874015748031496
 31
0.0
  0
LINE
  5
357D
330
1E
100
AcDbEntity
  8
7
100
AcDbLine
 10
1.414370078740157
 20
5.874015748031496
 30
0.0
 11
1.407480314960629
 21
5.869094488188975
 31
0.0
  0
LINE
  5
357E
330
1E
100
AcDbEntity
  8
7
100
AcDbLine
 10
1.407480314960629
 20
5.869094488188975
 30
0.0
 11
1.40255905511811
 21
5.866141732283464
 31
0.0
  0
LINE
  5
357F
330
1E
100
AcDbEntity
  8
7
100
AcDbLine
 10
1.40255905511811
 20
5.866141732283464
 30
0.0
 11
1.400590551181102
 21
5.86515748031496
 31
0.0
  0
LINE
  5
3580
330
1E
100
AcDbEntity
  8
7
100
AcDbLine
 10
1.691929133858267
 20
5.503937007874015
 30
0.0
 11
1.696850393700787
 21
5.508858267716535
 31
0.0
  0
LINE
  5
3581
330
1E
100
AcDbEntity
  8
7
100
AcDbLine
 10
1.696850393700787
 20
5.508858267716535
 30
0.0
 11
1.703740157480314
 21
5.513779527559054
 31
0.0
  0
LINE
  5
3582
330
1E
100
AcDbEntity
  8
7
100
AcDbLine
 10
1.703740157480314
 20
5.513779527559054
 30
0.0
 11
1.713582677165354
 21
5.519685039370078
 31
0.0
  0
LINE
  5
3583
330
1E
100
AcDbEntity
  8
7
100
AcDbLine
 10
1.713582677165354
 20
5.519685039370078
 30
0.0
 11
1.723425196850393
 21
5.523622047244094
 31
0.0
  0
LINE
  5
3584
330
1E
100
AcDbEntity
  8
7
100
AcDbLine
 10
2.903543307086614
 20
5.500984251968503
 30
0.0
 11
2.975393700787401
 21
5.562007874015748
 31
0.0
  0
LINE
  5
3585
330
1E
100
AcDbEntity
  8
7
100
AcDbLine
 10
2.975393700787401
 20
5.562007874015748
 30
0.0
 11
3.040354330708661
 21
5.629921259842519
 31
0.0
  0
LINE
  5
3586
330
1E
100
AcDbEntity
  8
7
100
AcDbLine
 10
3.040354330708661
 20
5.629921259842519
 30
0.0
 11
3.099409448818897
 21
5.702755905511811
 31
0.0
  0
LINE
  5
3587
330
1E
100
AcDbEntity
  8
7
100
AcDbLine
 10
3.099409448818897
 20
5.702755905511811
 30
0.0
 11
3.150590551181102
 21
5.781496062992125
 31
0.0
  0
LINE
  5
3588
330
1E
100
AcDbEntity
  8
7
100
AcDbLine
 10
3.150590551181102
 20
5.781496062992125
 30
0.0
 11
3.193897637795275
 21
5.86515748031496
 31
0.0
  0
LINE
  5
3589
330
1E
100
AcDbEntity
  8
7
100
AcDbLine
 10
3.222440944881889
 20
5.876968503937007
 30
0.0
 11
3.196850393700787
 21
5.866141732283464
 31
0.0
  0
LINE
  5
358A
330
1E
100
AcDbEntity
  8
7
100
AcDbLine
 10
3.196850393700787
 20
5.866141732283464
 30
0.0
 11
3.193897637795275
 21
5.86515748031496
 31
0.0
  0
LINE
  5
358B
330
1E
100
AcDbEntity
  8
7
100
AcDbLine
 10
2.904527559055118
 20
5.501968503937007
 30
0.0
 11
2.903543307086614
 21
5.491141732283464
 31
0.0
  0
LINE
  5
358C
330
1E
100
AcDbEntity
  8
7
100
AcDbLine
 10
2.903543307086614
 20
5.491141732283464
 30
0.0
 11
2.896653543307086
 21
5.463582677165354
 31
0.0
  0
LINE
  5
358D
330
1E
100
AcDbEntity
  8
7
100
AcDbLine
 10
2.896653543307086
 20
5.438976377952755
 30
0.0
 11
2.89763779527559
 21
5.441929133858267
 31
0.0
  0
LINE
  5
358E
330
1E
100
AcDbEntity
  8
7
100
AcDbLine
 10
2.89763779527559
 20
5.441929133858267
 30
0.0
 11
2.89763779527559
 21
5.449803149606299
 31
0.0
  0
LINE
  5
358F
330
1E
100
AcDbEntity
  8
7
100
AcDbLine
 10
2.89763779527559
 20
5.449803149606299
 30
0.0
 11
2.89763779527559
 21
5.456692913385826
 31
0.0
  0
LINE
  5
3590
330
1E
100
AcDbEntity
  8
7
100
AcDbLine
 10
2.89763779527559
 20
5.456692913385826
 30
0.0
 11
2.89763779527559
 21
5.460629921259842
 31
0.0
  0
LINE
  5
3591
330
1E
100
AcDbEntity
  8
7
100
AcDbLine
 10
2.89763779527559
 20
5.460629921259842
 30
0.0
 11
2.896653543307086
 21
5.463582677165354
 31
0.0
  0
LINE
  5
3592
330
1E
100
AcDbEntity
  8
7
100
AcDbLine
 10
3.123031496062992
 20
5.692913385826771
 30
0.0
 11
3.181102362204724
 21
5.783464566929133
 31
0.0
  0
LINE
  5
3593
330
1E
100
AcDbEntity
  8
7
100
AcDbLine
 10
3.181102362204724
 20
5.783464566929133
 30
0.0
 11
3.229330708661417
 21
5.880905511811023
 31
0.0
  0
LINE
  5
3594
330
1E
100
AcDbEntity
  8
7
100
AcDbLine
 10
2.896653543307086
 20
5.463582677165354
 30
0.0
 11
2.980314960629921
 21
5.531496062992125
 31
0.0
  0
LINE
  5
3595
330
1E
100
AcDbEntity
  8
7
100
AcDbLine
 10
2.980314960629921
 20
5.531496062992125
 30
0.0
 11
3.056102362204724
 21
5.608267716535433
 31
0.0
  0
LINE
  5
3596
330
1E
100
AcDbEntity
  8
7
100
AcDbLine
 10
3.056102362204724
 20
5.608267716535433
 30
0.0
 11
3.123031496062992
 21
5.692913385826771
 31
0.0
  0
LINE
  5
3597
330
1E
100
AcDbEntity
  8
7
100
AcDbLine
 10
3.229330708661417
 20
5.880905511811023
 30
0.0
 11
3.231299212598425
 21
5.880905511811023
 31
0.0
  0
LINE
  5
3598
330
1E
100
AcDbEntity
  8
7
100
AcDbLine
 10
3.231299212598425
 20
5.880905511811023
 30
0.0
 11
3.23523622047244
 21
5.880905511811023
 31
0.0
  0
LINE
  5
3599
330
1E
100
AcDbEntity
  8
7
100
AcDbLine
 10
3.23523622047244
 20
5.880905511811023
 30
0.0
 11
3.24015748031496
 21
5.881889763779527
 31
0.0
  0
LINE
  5
359A
330
1E
100
AcDbEntity
  8
7
100
AcDbLine
 10
3.24015748031496
 20
5.881889763779527
 30
0.0
 11
3.246062992125984
 21
5.883858267716535
 31
0.0
  0
LINE
  5
359B
330
1E
100
AcDbEntity
  8
7
100
AcDbLine
 10
3.246062992125984
 20
5.883858267716535
 30
0.0
 11
3.253937007874015
 21
5.886811023622047
 31
0.0
  0
LINE
  5
359C
330
1E
100
AcDbEntity
  8
7
100
AcDbLine
 10
2.614173228346456
 20
5.345472440944881
 30
0.0
 11
2.700787401574803
 21
5.378937007874015
 31
0.0
  0
LINE
  5
359D
330
1E
100
AcDbEntity
  8
7
100
AcDbLine
 10
2.700787401574803
 20
5.378937007874015
 30
0.0
 11
2.783464566929133
 21
5.421259842519685
 31
0.0
  0
LINE
  5
359E
330
1E
100
AcDbEntity
  8
7
100
AcDbLine
 10
1.811023622047244
 20
5.421259842519685
 30
0.0
 11
1.893700787401574
 21
5.378937007874015
 31
0.0
  0
LINE
  5
359F
330
1E
100
AcDbEntity
  8
7
100
AcDbLine
 10
1.893700787401574
 20
5.378937007874015
 30
0.0
 11
1.980314960629921
 21
5.345472440944881
 31
0.0
  0
LINE
  5
35A0
330
1E
100
AcDbEntity
  8
7
100
AcDbLine
 10
1.980314960629921
 20
5.345472440944881
 30
0.0
 11
2.068897637795275
 21
5.319881889763779
 31
0.0
  0
LINE
  5
35A1
330
1E
100
AcDbEntity
  8
7
100
AcDbLine
 10
2.068897637795275
 20
5.319881889763779
 30
0.0
 11
2.159448818897637
 21
5.303149606299212
 31
0.0
  0
LINE
  5
35A2
330
1E
100
AcDbEntity
  8
7
100
AcDbLine
 10
2.159448818897637
 20
5.303149606299212
 30
0.0
 11
2.250984251968503
 21
5.294291338582676
 31
0.0
  0
LINE
  5
35A3
330
1E
100
AcDbEntity
  8
7
100
AcDbLine
 10
2.250984251968503
 20
5.294291338582676
 30
0.0
 11
2.343503937007874
 21
5.294291338582676
 31
0.0
  0
LINE
  5
35A4
330
1E
100
AcDbEntity
  8
7
100
AcDbLine
 10
2.343503937007874
 20
5.294291338582676
 30
0.0
 11
2.43503937007874
 21
5.303149606299212
 31
0.0
  0
LINE
  5
35A5
330
1E
100
AcDbEntity
  8
7
100
AcDbLine
 10
2.43503937007874
 20
5.303149606299212
 30
0.0
 11
2.525590551181102
 21
5.319881889763779
 31
0.0
  0
LINE
  5
35A6
330
1E
100
AcDbEntity
  8
7
100
AcDbLine
 10
2.525590551181102
 20
5.319881889763779
 30
0.0
 11
2.614173228346456
 21
5.345472440944881
 31
0.0
  0
LINE
  5
35A7
330
1E
100
AcDbEntity
  8
7
100
AcDbLine
 10
2.820866141732283
 20
5.413385826771653
 30
0.0
 11
2.812992125984251
 21
5.413385826771653
 31
0.0
  0
LINE
  5
35A8
330
1E
100
AcDbEntity
  8
7
100
AcDbLine
 10
2.812992125984251
 20
5.413385826771653
 30
0.0
 11
2.786417322834645
 21
5.420275590551181
 31
0.0
  0
LINE
  5
35A9
330
1E
100
AcDbEntity
  8
7
100
AcDbLine
 10
2.786417322834645
 20
5.420275590551181
 30
0.0
 11
2.783464566929133
 21
5.421259842519685
 31
0.0
  0
LINE
  5
35AA
330
1E
100
AcDbEntity
  8
7
100
AcDbLine
 10
1.812007874015747
 20
5.421259842519685
 30
0.0
 11
1.802165354330708
 21
5.418307086614173
 31
0.0
  0
LINE
  5
35AB
330
1E
100
AcDbEntity
  8
7
100
AcDbLine
 10
1.802165354330708
 20
5.418307086614173
 30
0.0
 11
1.773622047244094
 21
5.413385826771653
 31
0.0
  0
LINE
  5
35AC
330
1E
100
AcDbEntity
  8
7
100
AcDbLine
 10
1.400590551181102
 20
5.86515748031496
 30
0.0
 11
1.443897637795275
 21
5.781496062992125
 31
0.0
  0
LINE
  5
35AD
330
1E
100
AcDbEntity
  8
7
100
AcDbLine
 10
1.443897637795275
 20
5.781496062992125
 30
0.0
 11
1.49507874015748
 21
5.702755905511811
 31
0.0
  0
LINE
  5
35AE
330
1E
100
AcDbEntity
  8
7
100
AcDbLine
 10
1.49507874015748
 20
5.702755905511811
 30
0.0
 11
1.554133858267716
 21
5.629921259842519
 31
0.0
  0
LINE
  5
35AF
330
1E
100
AcDbEntity
  8
7
100
AcDbLine
 10
1.554133858267716
 20
5.629921259842519
 30
0.0
 11
1.619094488188976
 21
5.562007874015748
 31
0.0
  0
LINE
  5
35B0
330
1E
100
AcDbEntity
  8
7
100
AcDbLine
 10
1.619094488188976
 20
5.562007874015748
 30
0.0
 11
1.690944881889763
 21
5.500984251968503
 31
0.0
  0
LINE
  5
35B1
330
1E
100
AcDbEntity
  8
7
100
AcDbLine
 10
1.697834645669291
 20
5.463582677165354
 30
0.0
 11
1.695866141732283
 21
5.471456692913386
 31
0.0
  0
LINE
  5
35B2
330
1E
100
AcDbEntity
  8
7
100
AcDbLine
 10
1.695866141732283
 20
5.471456692913386
 30
0.0
 11
1.690944881889763
 21
5.498031496062991
 31
0.0
  0
LINE
  5
35B3
330
1E
100
AcDbEntity
  8
7
100
AcDbLine
 10
1.690944881889763
 20
5.498031496062991
 30
0.0
 11
1.690944881889763
 21
5.501968503937007
 31
0.0
  0
LINE
  5
35B4
330
1E
100
AcDbEntity
  8
7
100
AcDbLine
 10
1.400590551181102
 20
5.86515748031496
 30
0.0
 11
1.390748031496062
 21
5.868110236220472
 31
0.0
  0
LINE
  5
35B5
330
1E
100
AcDbEntity
  8
7
100
AcDbLine
 10
1.390748031496062
 20
5.868110236220472
 30
0.0
 11
1.36515748031496
 21
5.880905511811023
 31
0.0
  0
LINE
  5
35B6
330
1E
100
AcDbEntity
  8
7
100
AcDbLine
 10
1.340551181102362
 20
5.886811023622047
 30
0.0
 11
1.343503937007874
 21
5.885826771653543
 31
0.0
  0
LINE
  5
35B7
330
1E
100
AcDbEntity
  8
7
100
AcDbLine
 10
1.343503937007874
 20
5.885826771653543
 30
0.0
 11
1.351377952755905
 21
5.882874015748031
 31
0.0
  0
LINE
  5
35B8
330
1E
100
AcDbEntity
  8
7
100
AcDbLine
 10
1.351377952755905
 20
5.882874015748031
 30
0.0
 11
1.358267716535433
 21
5.881889763779527
 31
0.0
  0
LINE
  5
35B9
330
1E
100
AcDbEntity
  8
7
100
AcDbLine
 10
1.358267716535433
 20
5.881889763779527
 30
0.0
 11
1.362204724409448
 21
5.880905511811023
 31
0.0
  0
LINE
  5
35BA
330
1E
100
AcDbEntity
  8
7
100
AcDbLine
 10
1.362204724409448
 20
5.880905511811023
 30
0.0
 11
1.36515748031496
 21
5.880905511811023
 31
0.0
  0
LINE
  5
35BB
330
1E
100
AcDbEntity
  8
7
100
AcDbLine
 10
1.36515748031496
 20
5.880905511811023
 30
0.0
 11
1.413385826771653
 21
5.783464566929133
 31
0.0
  0
LINE
  5
35BC
330
1E
100
AcDbEntity
  8
7
100
AcDbLine
 10
1.413385826771653
 20
5.783464566929133
 30
0.0
 11
1.471456692913385
 21
5.692913385826771
 31
0.0
  0
LINE
  5
35BD
330
1E
100
AcDbEntity
  8
7
100
AcDbLine
 10
1.471456692913385
 20
5.692913385826771
 30
0.0
 11
1.538385826771653
 21
5.608267716535433
 31
0.0
  0
LINE
  5
35BE
330
1E
100
AcDbEntity
  8
7
100
AcDbLine
 10
1.538385826771653
 20
5.608267716535433
 30
0.0
 11
1.614173228346456
 21
5.531496062992125
 31
0.0
  0
LINE
  5
35BF
330
1E
100
AcDbEntity
  8
7
100
AcDbLine
 10
1.614173228346456
 20
5.531496062992125
 30
0.0
 11
1.697834645669291
 21
5.463582677165354
 31
0.0
  0
LINE
  5
35C0
330
1E
100
AcDbEntity
  8
7
100
AcDbLine
 10
1.697834645669291
 20
5.463582677165354
 30
0.0
 11
1.697834645669291
 21
5.461614173228346
 31
0.0
  0
LINE
  5
35C1
330
1E
100
AcDbEntity
  8
7
100
AcDbLine
 10
1.697834645669291
 20
5.461614173228346
 30
0.0
 11
1.696850393700787
 21
5.458661417322834
 31
0.0
  0
LINE
  5
35C2
330
1E
100
AcDbEntity
  8
7
100
AcDbLine
 10
1.696850393700787
 20
5.458661417322834
 30
0.0
 11
1.696850393700787
 21
5.453740157480314
 31
0.0
  0
LINE
  5
35C3
330
1E
100
AcDbEntity
  8
7
100
AcDbLine
 10
1.696850393700787
 20
5.453740157480314
 30
0.0
 11
1.696850393700787
 21
5.446850393700787
 31
0.0
  0
LINE
  5
35C4
330
1E
100
AcDbEntity
  8
7
100
AcDbLine
 10
1.696850393700787
 20
5.446850393700787
 30
0.0
 11
1.697834645669291
 21
5.438976377952755
 31
0.0
  0
LINE
  5
35C5
330
1E
100
AcDbEntity
  8
7
100
AcDbLine
 10
1.854330708661417
 20
5.369094488188975
 30
0.0
 11
1.938976377952755
 21
5.333661417322834
 31
0.0
  0
LINE
  5
35C6
330
1E
100
AcDbEntity
  8
7
100
AcDbLine
 10
1.938976377952755
 20
5.333661417322834
 30
0.0
 11
2.025590551181102
 21
5.30511811023622
 31
0.0
  0
LINE
  5
35C7
330
1E
100
AcDbEntity
  8
7
100
AcDbLine
 10
2.025590551181102
 20
5.30511811023622
 30
0.0
 11
2.11515748031496
 21
5.284448818897637
 31
0.0
  0
LINE
  5
35C8
330
1E
100
AcDbEntity
  8
7
100
AcDbLine
 10
2.11515748031496
 20
5.284448818897637
 30
0.0
 11
2.205708661417322
 21
5.271653543307086
 31
0.0
  0
LINE
  5
35C9
330
1E
100
AcDbEntity
  8
7
100
AcDbLine
 10
2.205708661417322
 20
5.271653543307086
 30
0.0
 11
2.297244094488188
 21
5.26771653543307
 31
0.0
  0
LINE
  5
35CA
330
1E
100
AcDbEntity
  8
7
100
AcDbLine
 10
2.297244094488188
 20
5.26771653543307
 30
0.0
 11
2.388779527559055
 21
5.271653543307086
 31
0.0
  0
LINE
  5
35CB
330
1E
100
AcDbEntity
  8
7
100
AcDbLine
 10
2.388779527559055
 20
5.271653543307086
 30
0.0
 11
2.479330708661417
 21
5.284448818897637
 31
0.0
  0
LINE
  5
35CC
330
1E
100
AcDbEntity
  8
7
100
AcDbLine
 10
2.479330708661417
 20
5.284448818897637
 30
0.0
 11
2.568897637795275
 21
5.30511811023622
 31
0.0
  0
LINE
  5
35CD
330
1E
100
AcDbEntity
  8
7
100
AcDbLine
 10
2.568897637795275
 20
5.30511811023622
 30
0.0
 11
2.655511811023622
 21
5.333661417322834
 31
0.0
  0
LINE
  5
35CE
330
1E
100
AcDbEntity
  8
7
100
AcDbLine
 10
2.655511811023622
 20
5.333661417322834
 30
0.0
 11
2.74015748031496
 21
5.369094488188975
 31
0.0
  0
LINE
  5
35CF
330
1E
100
AcDbEntity
  8
7
100
AcDbLine
 10
2.74015748031496
 20
5.369094488188975
 30
0.0
 11
2.820866141732283
 21
5.413385826771653
 31
0.0
  0
LINE
  5
35D0
330
1E
100
AcDbEntity
  8
7
100
AcDbLine
 10
2.820866141732283
 20
5.413385826771653
 30
0.0
 11
2.822834645669291
 21
5.412401574803149
 31
0.0
  0
LINE
  5
35D1
330
1E
100
AcDbEntity
  8
7
100
AcDbLine
 10
2.822834645669291
 20
5.412401574803149
 30
0.0
 11
2.825787401574803
 21
5.410433070866141
 31
0.0
  0
LINE
  5
35D2
330
1E
100
AcDbEntity
  8
7
100
AcDbLine
 10
2.825787401574803
 20
5.410433070866141
 30
0.0
 11
2.829724409448818
 21
5.408464566929133
 31
0.0
  0
LINE
  5
35D3
330
1E
100
AcDbEntity
  8
7
100
AcDbLine
 10
2.829724409448818
 20
5.408464566929133
 30
0.0
 11
2.835629921259842
 21
5.405511811023622
 31
0.0
  0
LINE
  5
35D4
330
1E
100
AcDbEntity
  8
7
100
AcDbLine
 10
2.835629921259842
 20
5.405511811023622
 30
0.0
 11
2.844488188976377
 21
5.403543307086613
 31
0.0
  0
LINE
  5
35D5
330
1E
100
AcDbEntity
  8
7
100
AcDbLine
 10
1.750984251968503
 20
5.403543307086613
 30
0.0
 11
1.753937007874015
 21
5.404527559055117
 31
0.0
  0
LINE
  5
35D6
330
1E
100
AcDbEntity
  8
7
100
AcDbLine
 10
1.753937007874015
 20
5.404527559055117
 30
0.0
 11
1.761811023622047
 21
5.406496062992125
 31
0.0
  0
LINE
  5
35D7
330
1E
100
AcDbEntity
  8
7
100
AcDbLine
 10
1.761811023622047
 20
5.406496062992125
 30
0.0
 11
1.76771653543307
 21
5.409448818897637
 31
0.0
  0
LINE
  5
35D8
330
1E
100
AcDbEntity
  8
7
100
AcDbLine
 10
1.76771653543307
 20
5.409448818897637
 30
0.0
 11
1.771653543307086
 21
5.411417322834645
 31
0.0
  0
LINE
  5
35D9
330
1E
100
AcDbEntity
  8
7
100
AcDbLine
 10
1.771653543307086
 20
5.411417322834645
 30
0.0
 11
1.773622047244094
 21
5.413385826771653
 31
0.0
  0
LINE
  5
35DA
330
1E
100
AcDbEntity
  8
7
100
AcDbLine
 10
2.439960629921259
 20
5.548228346456692
 30
0.0
 11
2.443897637795275
 21
5.543307086614173
 31
0.0
  0
LINE
  5
35DB
330
1E
100
AcDbEntity
  8
7
100
AcDbLine
 10
2.443897637795275
 20
5.543307086614173
 30
0.0
 11
2.450787401574803
 21
5.543307086614173
 31
0.0
  0
LINE
  5
35DC
330
1E
100
AcDbEntity
  8
7
100
AcDbLine
 10
2.450787401574803
 20
5.543307086614173
 30
0.0
 11
2.454724409448818
 21
5.548228346456692
 31
0.0
  0
LINE
  5
35DD
330
1E
100
AcDbEntity
  8
7
100
AcDbLine
 10
2.396653543307086
 20
5.594488188976377
 30
0.0
 11
2.39271653543307
 21
5.604330708661417
 31
0.0
  0
LINE
  5
35DE
330
1E
100
AcDbEntity
  8
7
100
AcDbLine
 10
2.39271653543307
 20
5.604330708661417
 30
0.0
 11
2.381889763779527
 21
5.609251968503937
 31
0.0
  0
LINE
  5
35DF
330
1E
100
AcDbEntity
  8
7
100
AcDbLine
 10
2.205708661417322
 20
5.609251968503937
 30
0.0
 11
2.228346456692913
 21
5.609251968503937
 31
0.0
  0
LINE
  5
35E0
330
1E
100
AcDbEntity
  8
7
100
AcDbLine
 10
2.228346456692913
 20
5.609251968503937
 30
0.0
 11
2.252952755905511
 21
5.554133858267716
 31
0.0
  0
LINE
  5
35E1
330
1E
100
AcDbEntity
  8
7
100
AcDbLine
 10
2.205708661417322
 20
5.609251968503937
 30
0.0
 11
2.197834645669291
 21
5.623031496062991
 31
0.0
  0
LINE
  5
35E2
330
1E
100
AcDbEntity
  8
7
100
AcDbLine
 10
2.197834645669291
 20
5.623031496062991
 30
0.0
 11
2.18503937007874
 21
5.631889763779527
 31
0.0
  0
LINE
  5
35E3
330
1E
100
AcDbEntity
  8
7
100
AcDbLine
 10
2.18503937007874
 20
5.631889763779527
 30
0.0
 11
2.169291338582677
 21
5.635826771653543
 31
0.0
  0
LINE
  5
35E4
330
1E
100
AcDbEntity
  8
7
100
AcDbLine
 10
3.158464566929133
 20
5.941929133858267
 30
0.0
 11
3.158464566929133
 21
5.917322834645669
 31
0.0
  0
LINE
  5
35E5
330
1E
100
AcDbEntity
  8
7
100
AcDbLine
 10
3.158464566929133
 20
5.917322834645669
 30
0.0
 11
3.166338582677165
 21
5.89271653543307
 31
0.0
  0
LINE
  5
35E6
330
1E
100
AcDbEntity
  8
7
100
AcDbLine
 10
3.206692913385826
 20
5.998031496062991
 30
0.0
 11
3.184055118110236
 21
5.98523622047244
 31
0.0
  0
LINE
  5
35E7
330
1E
100
AcDbEntity
  8
7
100
AcDbLine
 10
3.184055118110236
 20
5.98523622047244
 30
0.0
 11
3.168307086614173
 21
5.966535433070865
 31
0.0
  0
LINE
  5
35E8
330
1E
100
AcDbEntity
  8
7
100
AcDbLine
 10
3.168307086614173
 20
5.966535433070865
 30
0.0
 11
3.158464566929133
 21
5.941929133858267
 31
0.0
  0
LINE
  5
35E9
330
1E
100
AcDbEntity
  8
7
100
AcDbLine
 10
2.871062992125984
 20
5.52263779527559
 30
0.0
 11
2.943897637795275
 21
5.584645669291338
 31
0.0
  0
LINE
  5
35EA
330
1E
100
AcDbEntity
  8
7
100
AcDbLine
 10
2.943897637795275
 20
5.584645669291338
 30
0.0
 11
3.010826771653543
 21
5.65255905511811
 31
0.0
  0
LINE
  5
35EB
330
1E
100
AcDbEntity
  8
7
100
AcDbLine
 10
3.010826771653543
 20
5.65255905511811
 30
0.0
 11
3.069881889763779
 21
5.727362204724409
 31
0.0
  0
LINE
  5
35EC
330
1E
100
AcDbEntity
  8
7
100
AcDbLine
 10
3.069881889763779
 20
5.727362204724409
 30
0.0
 11
3.122047244094487
 21
5.807086614173228
 31
0.0
  0
LINE
  5
35ED
330
1E
100
AcDbEntity
  8
7
100
AcDbLine
 10
3.122047244094487
 20
5.807086614173228
 30
0.0
 11
3.165354330708661
 21
5.89271653543307
 31
0.0
  0
LINE
  5
35EE
330
1E
100
AcDbEntity
  8
7
100
AcDbLine
 10
2.871062992125984
 20
5.521653543307086
 30
0.0
 11
2.845472440944881
 21
5.524606299212598
 31
0.0
  0
LINE
  5
35EF
330
1E
100
AcDbEntity
  8
7
100
AcDbLine
 10
2.845472440944881
 20
5.524606299212598
 30
0.0
 11
2.820866141732283
 21
5.518700787401574
 31
0.0
  0
LINE
  5
35F0
330
1E
100
AcDbEntity
  8
7
100
AcDbLine
 10
2.820866141732283
 20
5.518700787401574
 30
0.0
 11
2.8001968503937
 21
5.503937007874015
 31
0.0
  0
LINE
  5
35F1
330
1E
100
AcDbEntity
  8
7
100
AcDbLine
 10
2.8001968503937
 20
5.503937007874015
 30
0.0
 11
2.784448818897637
 21
5.484251968503937
 31
0.0
  0
LINE
  5
35F2
330
1E
100
AcDbEntity
  8
7
100
AcDbLine
 10
2.784448818897637
 20
5.484251968503937
 30
0.0
 11
2.77755905511811
 21
5.459645669291338
 31
0.0
  0
LINE
  5
35F3
330
1E
100
AcDbEntity
  8
7
100
AcDbLine
 10
2.61023622047244
 20
5.383858267716535
 30
0.0
 11
2.694881889763779
 21
5.417322834645669
 31
0.0
  0
LINE
  5
35F4
330
1E
100
AcDbEntity
  8
7
100
AcDbLine
 10
2.694881889763779
 20
5.417322834645669
 30
0.0
 11
2.775590551181102
 21
5.459645669291338
 31
0.0
  0
LINE
  5
35F5
330
1E
100
AcDbEntity
  8
7
100
AcDbLine
 10
1.818897637795275
 20
5.459645669291338
 30
0.0
 11
1.899606299212598
 21
5.417322834645669
 31
0.0
  0
LINE
  5
35F6
330
1E
100
AcDbEntity
  8
7
100
AcDbLine
 10
1.899606299212598
 20
5.417322834645669
 30
0.0
 11
1.984251968503937
 21
5.383858267716535
 31
0.0
  0
LINE
  5
35F7
330
1E
100
AcDbEntity
  8
7
100
AcDbLine
 10
1.984251968503937
 20
5.383858267716535
 30
0.0
 11
2.071850393700787
 21
5.358267716535433
 31
0.0
  0
LINE
  5
35F8
330
1E
100
AcDbEntity
  8
7
100
AcDbLine
 10
2.071850393700787
 20
5.358267716535433
 30
0.0
 11
2.161417322834645
 21
5.340551181102362
 31
0.0
  0
LINE
  5
35F9
330
1E
100
AcDbEntity
  8
7
100
AcDbLine
 10
2.161417322834645
 20
5.340551181102362
 30
0.0
 11
2.251968503937007
 21
5.331692913385826
 31
0.0
  0
LINE
  5
35FA
330
1E
100
AcDbEntity
  8
7
100
AcDbLine
 10
2.251968503937007
 20
5.331692913385826
 30
0.0
 11
2.342519685039369
 21
5.331692913385826
 31
0.0
  0
LINE
  5
35FB
330
1E
100
AcDbEntity
  8
7
100
AcDbLine
 10
2.342519685039369
 20
5.331692913385826
 30
0.0
 11
2.433070866141732
 21
5.340551181102362
 31
0.0
  0
LINE
  5
35FC
330
1E
100
AcDbEntity
  8
7
100
AcDbLine
 10
2.433070866141732
 20
5.340551181102362
 30
0.0
 11
2.52263779527559
 21
5.358267716535433
 31
0.0
  0
LINE
  5
35FD
330
1E
100
AcDbEntity
  8
7
100
AcDbLine
 10
2.52263779527559
 20
5.358267716535433
 30
0.0
 11
2.61023622047244
 21
5.383858267716535
 31
0.0
  0
LINE
  5
35FE
330
1E
100
AcDbEntity
  8
7
100
AcDbLine
 10
1.817913385826771
 20
5.459645669291338
 30
0.0
 11
1.811023622047244
 21
5.484251968503937
 31
0.0
  0
LINE
  5
35FF
330
1E
100
AcDbEntity
  8
7
100
AcDbLine
 10
1.811023622047244
 20
5.484251968503937
 30
0.0
 11
1.795275590551181
 21
5.503937007874015
 31
0.0
  0
LINE
  5
3600
330
1E
100
AcDbEntity
  8
7
100
AcDbLine
 10
1.795275590551181
 20
5.503937007874015
 30
0.0
 11
1.774606299212598
 21
5.518700787401574
 31
0.0
  0
LINE
  5
3601
330
1E
100
AcDbEntity
  8
7
100
AcDbLine
 10
1.774606299212598
 20
5.518700787401574
 30
0.0
 11
1.75
 21
5.524606299212598
 31
0.0
  0
LINE
  5
3602
330
1E
100
AcDbEntity
  8
7
100
AcDbLine
 10
1.429133858267716
 20
5.89271653543307
 30
0.0
 11
1.472440944881889
 21
5.807086614173228
 31
0.0
  0
LINE
  5
3603
330
1E
100
AcDbEntity
  8
7
100
AcDbLine
 10
1.472440944881889
 20
5.807086614173228
 30
0.0
 11
1.524606299212598
 21
5.727362204724409
 31
0.0
  0
LINE
  5
3604
330
1E
100
AcDbEntity
  8
7
100
AcDbLine
 10
1.524606299212598
 20
5.727362204724409
 30
0.0
 11
1.583661417322834
 21
5.65255905511811
 31
0.0
  0
LINE
  5
3605
330
1E
100
AcDbEntity
  8
7
100
AcDbLine
 10
1.583661417322834
 20
5.65255905511811
 30
0.0
 11
1.650590551181102
 21
5.584645669291338
 31
0.0
  0
LINE
  5
3606
330
1E
100
AcDbEntity
  8
7
100
AcDbLine
 10
1.650590551181102
 20
5.584645669291338
 30
0.0
 11
1.723425196850393
 21
5.52263779527559
 31
0.0
  0
LINE
  5
3607
330
1E
100
AcDbEntity
  8
7
100
AcDbLine
 10
1.428149606299212
 20
5.89271653543307
 30
0.0
 11
1.436023622047243
 21
5.917322834645669
 31
0.0
  0
LINE
  5
3608
330
1E
100
AcDbEntity
  8
7
100
AcDbLine
 10
1.436023622047243
 20
5.917322834645669
 30
0.0
 11
1.436023622047243
 21
5.941929133858267
 31
0.0
  0
LINE
  5
3609
330
1E
100
AcDbEntity
  8
7
100
AcDbLine
 10
1.436023622047243
 20
5.941929133858267
 30
0.0
 11
1.426181102362204
 21
5.966535433070865
 31
0.0
  0
LINE
  5
360A
330
1E
100
AcDbEntity
  8
7
100
AcDbLine
 10
1.426181102362204
 20
5.966535433070865
 30
0.0
 11
1.410433070866141
 21
5.98523622047244
 31
0.0
  0
LINE
  5
360B
330
1E
100
AcDbEntity
  8
7
100
AcDbLine
 10
1.410433070866141
 20
5.98523622047244
 30
0.0
 11
1.387795275590551
 21
5.998031496062991
 31
0.0
  0
LINE
  5
360C
330
1E
100
AcDbEntity
  8
7
100
AcDbLine
 10
1.93011811023622
 20
5.257874015748031
 30
0.0
 11
2.019685039370078
 21
5.230314960629921
 31
0.0
  0
LINE
  5
360D
330
1E
100
AcDbEntity
  8
7
100
AcDbLine
 10
2.019685039370078
 20
5.230314960629921
 30
0.0
 11
2.111220472440944
 21
5.209645669291338
 31
0.0
  0
LINE
  5
360E
330
1E
100
AcDbEntity
  8
7
100
AcDbLine
 10
2.111220472440944
 20
5.209645669291338
 30
0.0
 11
2.203740157480314
 21
5.197834645669291
 31
0.0
  0
LINE
  5
360F
330
1E
100
AcDbEntity
  8
7
100
AcDbLine
 10
2.203740157480314
 20
5.197834645669291
 30
0.0
 11
2.297244094488188
 21
5.193897637795275
 31
0.0
  0
LINE
  5
3610
330
1E
100
AcDbEntity
  8
7
100
AcDbLine
 10
1.214566929133858
 20
6.165354330708661
 30
0.0
 11
1.229330708661417
 21
6.072834645669291
 31
0.0
  0
LINE
  5
3611
330
1E
100
AcDbEntity
  8
7
100
AcDbLine
 10
1.229330708661417
 20
6.072834645669291
 30
0.0
 11
1.250984251968503
 21
5.982283464566928
 31
0.0
  0
LINE
  5
3612
330
1E
100
AcDbEntity
  8
7
100
AcDbLine
 10
1.250984251968503
 20
5.982283464566928
 30
0.0
 11
1.280511811023622
 21
5.89271653543307
 31
0.0
  0
LINE
  5
3613
330
1E
100
AcDbEntity
  8
7
100
AcDbLine
 10
1.280511811023622
 20
5.89271653543307
 30
0.0
 11
1.317913385826771
 21
5.807086614173228
 31
0.0
  0
LINE
  5
3614
330
1E
100
AcDbEntity
  8
7
100
AcDbLine
 10
1.317913385826771
 20
5.807086614173228
 30
0.0
 11
1.362204724409448
 21
5.724409448818897
 31
0.0
  0
LINE
  5
3615
330
1E
100
AcDbEntity
  8
7
100
AcDbLine
 10
1.362204724409448
 20
5.724409448818897
 30
0.0
 11
1.413385826771653
 21
5.646653543307086
 31
0.0
  0
LINE
  5
3616
330
1E
100
AcDbEntity
  8
7
100
AcDbLine
 10
1.413385826771653
 20
5.646653543307086
 30
0.0
 11
1.471456692913385
 21
5.572834645669291
 31
0.0
  0
LINE
  5
3617
330
1E
100
AcDbEntity
  8
7
100
AcDbLine
 10
1.471456692913385
 20
5.572834645669291
 30
0.0
 11
1.535433070866141
 21
5.504921259842519
 31
0.0
  0
LINE
  5
3618
330
1E
100
AcDbEntity
  8
7
100
AcDbLine
 10
1.535433070866141
 20
5.504921259842519
 30
0.0
 11
1.605314960629921
 21
5.441929133858267
 31
0.0
  0
LINE
  5
3619
330
1E
100
AcDbEntity
  8
7
100
AcDbLine
 10
1.605314960629921
 20
5.441929133858267
 30
0.0
 11
1.68011811023622
 21
5.385826771653543
 31
0.0
  0
LINE
  5
361A
330
1E
100
AcDbEntity
  8
7
100
AcDbLine
 10
1.68011811023622
 20
5.385826771653543
 30
0.0
 11
1.759842519685039
 21
5.335629921259842
 31
0.0
  0
LINE
  5
361B
330
1E
100
AcDbEntity
  8
7
100
AcDbLine
 10
1.759842519685039
 20
5.335629921259842
 30
0.0
 11
1.843503937007874
 21
5.293307086614173
 31
0.0
  0
LINE
  5
361C
330
1E
100
AcDbEntity
  8
7
100
AcDbLine
 10
1.843503937007874
 20
5.293307086614173
 30
0.0
 11
1.93011811023622
 21
5.257874015748031
 31
0.0
  0
LINE
  5
361D
330
1E
100
AcDbEntity
  8
7
100
AcDbLine
 10
1.64271653543307
 20
7.151574803149606
 30
0.0
 11
1.569881889763779
 21
7.09251968503937
 31
0.0
  0
LINE
  5
361E
330
1E
100
AcDbEntity
  8
7
100
AcDbLine
 10
1.569881889763779
 20
7.09251968503937
 30
0.0
 11
1.502952755905511
 21
7.026574803149606
 31
0.0
  0
LINE
  5
361F
330
1E
100
AcDbEntity
  8
7
100
AcDbLine
 10
1.502952755905511
 20
7.026574803149606
 30
0.0
 11
1.441929133858267
 21
6.955708661417323
 31
0.0
  0
LINE
  5
3620
330
1E
100
AcDbEntity
  8
7
100
AcDbLine
 10
1.441929133858267
 20
6.955708661417323
 30
0.0
 11
1.386811023622047
 21
6.879921259842519
 31
0.0
  0
LINE
  5
3621
330
1E
100
AcDbEntity
  8
7
100
AcDbLine
 10
1.386811023622047
 20
6.879921259842519
 30
0.0
 11
1.339566929133858
 21
6.799212598425196
 31
0.0
  0
LINE
  5
3622
330
1E
100
AcDbEntity
  8
7
100
AcDbLine
 10
1.339566929133858
 20
6.799212598425196
 30
0.0
 11
1.298228346456692
 21
6.715551181102362
 31
0.0
  0
LINE
  5
3623
330
1E
100
AcDbEntity
  8
7
100
AcDbLine
 10
1.298228346456692
 20
6.715551181102362
 30
0.0
 11
1.264763779527559
 21
6.627952755905512
 31
0.0
  0
LINE
  5
3624
330
1E
100
AcDbEntity
  8
7
100
AcDbLine
 10
1.264763779527559
 20
6.627952755905512
 30
0.0
 11
1.239173228346456
 21
6.537401574803149
 31
0.0
  0
LINE
  5
3625
330
1E
100
AcDbEntity
  8
7
100
AcDbLine
 10
1.239173228346456
 20
6.537401574803149
 30
0.0
 11
1.221456692913385
 21
6.445866141732283
 31
0.0
  0
LINE
  5
3626
330
1E
100
AcDbEntity
  8
7
100
AcDbLine
 10
1.221456692913385
 20
6.445866141732283
 30
0.0
 11
1.210629921259842
 21
6.352362204724409
 31
0.0
  0
LINE
  5
3627
330
1E
100
AcDbEntity
  8
7
100
AcDbLine
 10
1.210629921259842
 20
6.352362204724409
 30
0.0
 11
1.208661417322834
 21
6.258858267716535
 31
0.0
  0
LINE
  5
3628
330
1E
100
AcDbEntity
  8
7
100
AcDbLine
 10
1.208661417322834
 20
6.258858267716535
 30
0.0
 11
1.214566929133858
 21
6.165354330708661
 31
0.0
  0
LINE
  5
3629
330
1E
100
AcDbEntity
  8
7
100
AcDbLine
 10
2.793307086614173
 20
7.250984251968503
 30
0.0
 11
2.708661417322834
 21
7.290354330708661
 31
0.0
  0
LINE
  5
362A
330
1E
100
AcDbEntity
  8
7
100
AcDbLine
 10
2.708661417322834
 20
7.290354330708661
 30
0.0
 11
2.62007874015748
 21
7.321850393700787
 31
0.0
  0
LINE
  5
362B
330
1E
100
AcDbEntity
  8
7
100
AcDbLine
 10
2.62007874015748
 20
7.321850393700787
 30
0.0
 11
2.529527559055118
 21
7.345472440944881
 31
0.0
  0
LINE
  5
362C
330
1E
100
AcDbEntity
  8
7
100
AcDbLine
 10
2.529527559055118
 20
7.345472440944881
 30
0.0
 11
2.437007874015748
 21
7.362204724409449
 31
0.0
  0
LINE
  5
362D
330
1E
100
AcDbEntity
  8
7
100
AcDbLine
 10
2.437007874015748
 20
7.362204724409449
 30
0.0
 11
2.344488188976377
 21
7.37007874015748
 31
0.0
  0
LINE
  5
362E
330
1E
100
AcDbEntity
  8
7
100
AcDbLine
 10
2.344488188976377
 20
7.37007874015748
 30
0.0
 11
2.25
 21
7.37007874015748
 31
0.0
  0
LINE
  5
362F
330
1E
100
AcDbEntity
  8
7
100
AcDbLine
 10
2.25
 20
7.37007874015748
 30
0.0
 11
2.15748031496063
 21
7.362204724409449
 31
0.0
  0
LINE
  5
3630
330
1E
100
AcDbEntity
  8
7
100
AcDbLine
 10
2.15748031496063
 20
7.362204724409449
 30
0.0
 11
2.064960629921259
 21
7.345472440944881
 31
0.0
  0
LINE
  5
3631
330
1E
100
AcDbEntity
  8
7
100
AcDbLine
 10
2.064960629921259
 20
7.345472440944881
 30
0.0
 11
1.974409448818897
 21
7.321850393700787
 31
0.0
  0
LINE
  5
3632
330
1E
100
AcDbEntity
  8
7
100
AcDbLine
 10
1.974409448818897
 20
7.321850393700787
 30
0.0
 11
1.885826771653543
 21
7.290354330708661
 31
0.0
  0
LINE
  5
3633
330
1E
100
AcDbEntity
  8
7
100
AcDbLine
 10
1.885826771653543
 20
7.290354330708661
 30
0.0
 11
1.801181102362204
 21
7.250984251968503
 31
0.0
  0
LINE
  5
3634
330
1E
100
AcDbEntity
  8
7
100
AcDbLine
 10
1.801181102362204
 20
7.250984251968503
 30
0.0
 11
1.719488188976377
 21
7.204724409448818
 31
0.0
  0
LINE
  5
3635
330
1E
100
AcDbEntity
  8
7
100
AcDbLine
 10
1.719488188976377
 20
7.204724409448818
 30
0.0
 11
1.64271653543307
 21
7.151574803149606
 31
0.0
  0
LINE
  5
3636
330
1E
100
AcDbEntity
  8
7
100
AcDbLine
 10
3.385826771653543
 20
6.258858267716535
 30
0.0
 11
3.383858267716535
 21
6.352362204724409
 31
0.0
  0
LINE
  5
3637
330
1E
100
AcDbEntity
  8
7
100
AcDbLine
 10
3.383858267716535
 20
6.352362204724409
 30
0.0
 11
3.373031496062992
 21
6.445866141732283
 31
0.0
  0
LINE
  5
3638
330
1E
100
AcDbEntity
  8
7
100
AcDbLine
 10
3.373031496062992
 20
6.445866141732283
 30
0.0
 11
3.355314960629921
 21
6.537401574803149
 31
0.0
  0
LINE
  5
3639
330
1E
100
AcDbEntity
  8
7
100
AcDbLine
 10
3.355314960629921
 20
6.537401574803149
 30
0.0
 11
3.329724409448818
 21
6.627952755905512
 31
0.0
  0
LINE
  5
363A
330
1E
100
AcDbEntity
  8
7
100
AcDbLine
 10
3.329724409448818
 20
6.627952755905512
 30
0.0
 11
3.296259842519685
 21
6.715551181102362
 31
0.0
  0
LINE
  5
363B
330
1E
100
AcDbEntity
  8
7
100
AcDbLine
 10
3.296259842519685
 20
6.715551181102362
 30
0.0
 11
3.254921259842519
 21
6.799212598425196
 31
0.0
  0
LINE
  5
363C
330
1E
100
AcDbEntity
  8
7
100
AcDbLine
 10
3.254921259842519
 20
6.799212598425196
 30
0.0
 11
3.20767716535433
 21
6.879921259842519
 31
0.0
  0
LINE
  5
363D
330
1E
100
AcDbEntity
  8
7
100
AcDbLine
 10
3.20767716535433
 20
6.879921259842519
 30
0.0
 11
3.15255905511811
 21
6.955708661417323
 31
0.0
  0
LINE
  5
363E
330
1E
100
AcDbEntity
  8
7
100
AcDbLine
 10
3.15255905511811
 20
6.955708661417323
 30
0.0
 11
3.091535433070866
 21
7.026574803149606
 31
0.0
  0
LINE
  5
363F
330
1E
100
AcDbEntity
  8
7
100
AcDbLine
 10
3.091535433070866
 20
7.026574803149606
 30
0.0
 11
3.024606299212598
 21
7.09251968503937
 31
0.0
  0
LINE
  5
3640
330
1E
100
AcDbEntity
  8
7
100
AcDbLine
 10
3.024606299212598
 20
7.09251968503937
 30
0.0
 11
2.951771653543307
 21
7.151574803149606
 31
0.0
  0
LINE
  5
3641
330
1E
100
AcDbEntity
  8
7
100
AcDbLine
 10
2.951771653543307
 20
7.151574803149606
 30
0.0
 11
2.875
 21
7.204724409448818
 31
0.0
  0
LINE
  5
3642
330
1E
100
AcDbEntity
  8
7
100
AcDbLine
 10
2.875
 20
7.204724409448818
 30
0.0
 11
2.793307086614173
 21
7.250984251968503
 31
0.0
  0
LINE
  5
3643
330
1E
100
AcDbEntity
  8
7
100
AcDbLine
 10
2.483267716535432
 20
5.209645669291338
 30
0.0
 11
2.574803149606299
 21
5.230314960629921
 31
0.0
  0
LINE
  5
3644
330
1E
100
AcDbEntity
  8
7
100
AcDbLine
 10
2.574803149606299
 20
5.230314960629921
 30
0.0
 11
2.664370078740157
 21
5.257874015748031
 31
0.0
  0
LINE
  5
3645
330
1E
100
AcDbEntity
  8
7
100
AcDbLine
 10
2.664370078740157
 20
5.257874015748031
 30
0.0
 11
2.750984251968503
 21
5.293307086614173
 31
0.0
  0
LINE
  5
3646
330
1E
100
AcDbEntity
  8
7
100
AcDbLine
 10
2.750984251968503
 20
5.293307086614173
 30
0.0
 11
2.834645669291338
 21
5.335629921259842
 31
0.0
  0
LINE
  5
3647
330
1E
100
AcDbEntity
  8
7
100
AcDbLine
 10
2.834645669291338
 20
5.335629921259842
 30
0.0
 11
2.914370078740157
 21
5.385826771653543
 31
0.0
  0
LINE
  5
3648
330
1E
100
AcDbEntity
  8
7
100
AcDbLine
 10
2.914370078740157
 20
5.385826771653543
 30
0.0
 11
2.989173228346456
 21
5.441929133858267
 31
0.0
  0
LINE
  5
3649
330
1E
100
AcDbEntity
  8
7
100
AcDbLine
 10
2.989173228346456
 20
5.441929133858267
 30
0.0
 11
3.059055118110236
 21
5.504921259842519
 31
0.0
  0
LINE
  5
364A
330
1E
100
AcDbEntity
  8
7
100
AcDbLine
 10
3.059055118110236
 20
5.504921259842519
 30
0.0
 11
3.123031496062992
 21
5.572834645669291
 31
0.0
  0
LINE
  5
364B
330
1E
100
AcDbEntity
  8
7
100
AcDbLine
 10
3.123031496062992
 20
5.572834645669291
 30
0.0
 11
3.181102362204724
 21
5.646653543307086
 31
0.0
  0
LINE
  5
364C
330
1E
100
AcDbEntity
  8
7
100
AcDbLine
 10
3.181102362204724
 20
5.646653543307086
 30
0.0
 11
3.232283464566929
 21
5.724409448818897
 31
0.0
  0
LINE
  5
364D
330
1E
100
AcDbEntity
  8
7
100
AcDbLine
 10
3.232283464566929
 20
5.724409448818897
 30
0.0
 11
3.276574803149606
 21
5.807086614173228
 31
0.0
  0
LINE
  5
364E
330
1E
100
AcDbEntity
  8
7
100
AcDbLine
 10
3.276574803149606
 20
5.807086614173228
 30
0.0
 11
3.313976377952756
 21
5.89271653543307
 31
0.0
  0
LINE
  5
364F
330
1E
100
AcDbEntity
  8
7
100
AcDbLine
 10
3.313976377952756
 20
5.89271653543307
 30
0.0
 11
3.343503937007874
 21
5.982283464566928
 31
0.0
  0
LINE
  5
3650
330
1E
100
AcDbEntity
  8
7
100
AcDbLine
 10
3.343503937007874
 20
5.982283464566928
 30
0.0
 11
3.36515748031496
 21
6.072834645669291
 31
0.0
  0
LINE
  5
3651
330
1E
100
AcDbEntity
  8
7
100
AcDbLine
 10
3.36515748031496
 20
6.072834645669291
 30
0.0
 11
3.379921259842519
 21
6.165354330708661
 31
0.0
  0
LINE
  5
3652
330
1E
100
AcDbEntity
  8
7
100
AcDbLine
 10
3.379921259842519
 20
6.165354330708661
 30
0.0
 11
3.385826771653543
 21
6.258858267716535
 31
0.0
  0
LINE
  5
3653
330
1E
100
AcDbEntity
  8
7
100
AcDbLine
 10
2.297244094488188
 20
5.193897637795275
 30
0.0
 11
2.390748031496062
 21
5.197834645669291
 31
0.0
  0
LINE
  5
3654
330
1E
100
AcDbEntity
  8
7
100
AcDbLine
 10
2.390748031496062
 20
5.197834645669291
 30
0.0
 11
2.483267716535432
 21
5.209645669291338
 31
0.0
  0
LINE
  5
3655
330
1E
100
AcDbEntity
  8
7
100
AcDbLine
 10
1.314960629921259
 20
5.93011811023622
 30
0.0
 11
1.316929133858267
 21
5.916338582677164
 31
0.0
  0
LINE
  5
3656
330
1E
100
AcDbEntity
  8
7
100
AcDbLine
 10
1.316929133858267
 20
5.916338582677164
 30
0.0
 11
1.323818897637795
 21
5.90255905511811
 31
0.0
  0
LINE
  5
3657
330
1E
100
AcDbEntity
  8
7
100
AcDbLine
 10
1.323818897637795
 20
5.90255905511811
 30
0.0
 11
1.327755905511811
 21
5.896653543307086
 31
0.0
  0
LINE
  5
3658
330
1E
100
AcDbEntity
  8
7
100
AcDbLine
 10
1.704724409448818
 20
5.424212598425197
 30
0.0
 11
1.713582677165354
 21
5.414370078740157
 31
0.0
  0
LINE
  5
3659
330
1E
100
AcDbEntity
  8
7
100
AcDbLine
 10
1.713582677165354
 20
5.414370078740157
 30
0.0
 11
1.727362204724409
 21
5.406496062992125
 31
0.0
  0
LINE
  5
365A
330
1E
100
AcDbEntity
  8
7
100
AcDbLine
 10
1.727362204724409
 20
5.406496062992125
 30
0.0
 11
1.734251968503937
 21
5.404527559055117
 31
0.0
  0
LINE
  5
365B
330
1E
100
AcDbEntity
  8
7
100
AcDbLine
 10
2.86023622047244
 20
5.404527559055117
 30
0.0
 11
2.873031496062992
 21
5.408464566929133
 31
0.0
  0
LINE
  5
365C
330
1E
100
AcDbEntity
  8
7
100
AcDbLine
 10
2.873031496062992
 20
5.408464566929133
 30
0.0
 11
2.885826771653542
 21
5.418307086614173
 31
0.0
  0
LINE
  5
365D
330
1E
100
AcDbEntity
  8
7
100
AcDbLine
 10
3.266732283464566
 20
5.896653543307086
 30
0.0
 11
3.274606299212598
 21
5.907480314960629
 31
0.0
  0
LINE
  5
365E
330
1E
100
AcDbEntity
  8
7
100
AcDbLine
 10
3.274606299212598
 20
5.907480314960629
 30
0.0
 11
3.278543307086614
 21
5.922244094488188
 31
0.0
  0
LINE
  5
365F
330
1E
100
AcDbEntity
  8
7
100
AcDbLine
 10
3.278543307086614
 20
5.922244094488188
 30
0.0
 11
3.279527559055118
 21
5.93011811023622
 31
0.0
  0
LINE
  5
3660
330
1E
100
AcDbEntity
  8
7
100
AcDbLine
 10
2.746062992125984
 20
7.246062992125984
 30
0.0
 11
2.660433070866141
 21
7.281496062992125
 31
0.0
  0
LINE
  5
3661
330
1E
100
AcDbEntity
  8
7
100
AcDbLine
 10
2.660433070866141
 20
7.281496062992125
 30
0.0
 11
2.572834645669291
 21
7.309055118110236
 31
0.0
  0
LINE
  5
3662
330
1E
100
AcDbEntity
  8
7
100
AcDbLine
 10
2.572834645669291
 20
7.309055118110236
 30
0.0
 11
2.482283464566929
 21
7.329724409448818
 31
0.0
  0
LINE
  5
3663
330
1E
100
AcDbEntity
  8
7
100
AcDbLine
 10
2.482283464566929
 20
7.329724409448818
 30
0.0
 11
2.389763779527559
 21
7.341535433070865
 31
0.0
  0
LINE
  5
3664
330
1E
100
AcDbEntity
  8
7
100
AcDbLine
 10
2.389763779527559
 20
7.341535433070865
 30
0.0
 11
2.297244094488188
 21
7.345472440944881
 31
0.0
  0
LINE
  5
3665
330
1E
100
AcDbEntity
  8
7
100
AcDbLine
 10
3.36023622047244
 20
6.282480314960629
 30
0.0
 11
3.356299212598425
 21
6.375
 31
0.0
  0
LINE
  5
3666
330
1E
100
AcDbEntity
  8
7
100
AcDbLine
 10
3.356299212598425
 20
6.375
 30
0.0
 11
3.344488188976377
 21
6.46751968503937
 31
0.0
  0
LINE
  5
3667
330
1E
100
AcDbEntity
  8
7
100
AcDbLine
 10
3.344488188976377
 20
6.46751968503937
 30
0.0
 11
3.323818897637795
 21
6.558070866141732
 31
0.0
  0
LINE
  5
3668
330
1E
100
AcDbEntity
  8
7
100
AcDbLine
 10
3.323818897637795
 20
6.558070866141732
 30
0.0
 11
3.296259842519685
 21
6.645669291338582
 31
0.0
  0
LINE
  5
3669
330
1E
100
AcDbEntity
  8
7
100
AcDbLine
 10
3.296259842519685
 20
6.645669291338582
 30
0.0
 11
3.260826771653543
 21
6.731299212598425
 31
0.0
  0
LINE
  5
366A
330
1E
100
AcDbEntity
  8
7
100
AcDbLine
 10
3.260826771653543
 20
6.731299212598425
 30
0.0
 11
3.217519685039369
 21
6.813976377952755
 31
0.0
  0
LINE
  5
366B
330
1E
100
AcDbEntity
  8
7
100
AcDbLine
 10
3.217519685039369
 20
6.813976377952755
 30
0.0
 11
3.168307086614173
 21
6.891732283464566
 31
0.0
  0
LINE
  5
366C
330
1E
100
AcDbEntity
  8
7
100
AcDbLine
 10
3.168307086614173
 20
6.891732283464566
 30
0.0
 11
3.111220472440944
 21
6.965551181102362
 31
0.0
  0
LINE
  5
366D
330
1E
100
AcDbEntity
  8
7
100
AcDbLine
 10
3.111220472440944
 20
6.965551181102362
 30
0.0
 11
3.049212598425196
 21
7.034448818897637
 31
0.0
  0
LINE
  5
366E
330
1E
100
AcDbEntity
  8
7
100
AcDbLine
 10
3.049212598425196
 20
7.034448818897637
 30
0.0
 11
2.980314960629921
 21
7.096456692913386
 31
0.0
  0
LINE
  5
366F
330
1E
100
AcDbEntity
  8
7
100
AcDbLine
 10
2.980314960629921
 20
7.096456692913386
 30
0.0
 11
2.906496062992125
 21
7.153543307086613
 31
0.0
  0
LINE
  5
3670
330
1E
100
AcDbEntity
  8
7
100
AcDbLine
 10
2.906496062992125
 20
7.153543307086613
 30
0.0
 11
2.828740157480314
 21
7.202755905511811
 31
0.0
  0
LINE
  5
3671
330
1E
100
AcDbEntity
  8
7
100
AcDbLine
 10
2.828740157480314
 20
7.202755905511811
 30
0.0
 11
2.746062992125984
 21
7.246062992125984
 31
0.0
  0
LINE
  5
3672
330
1E
100
AcDbEntity
  8
7
100
AcDbLine
 10
2.482283464566929
 20
5.23523622047244
 30
0.0
 11
2.572834645669291
 21
5.255905511811023
 31
0.0
  0
LINE
  5
3673
330
1E
100
AcDbEntity
  8
7
100
AcDbLine
 10
2.572834645669291
 20
5.255905511811023
 30
0.0
 11
2.660433070866141
 21
5.283464566929133
 31
0.0
  0
LINE
  5
3674
330
1E
100
AcDbEntity
  8
7
100
AcDbLine
 10
2.660433070866141
 20
5.283464566929133
 30
0.0
 11
2.746062992125984
 21
5.318897637795275
 31
0.0
  0
LINE
  5
3675
330
1E
100
AcDbEntity
  8
7
100
AcDbLine
 10
2.746062992125984
 20
5.318897637795275
 30
0.0
 11
2.828740157480314
 21
5.362204724409449
 31
0.0
  0
LINE
  5
3676
330
1E
100
AcDbEntity
  8
7
100
AcDbLine
 10
2.828740157480314
 20
5.362204724409449
 30
0.0
 11
2.906496062992125
 21
5.411417322834645
 31
0.0
  0
LINE
  5
3677
330
1E
100
AcDbEntity
  8
7
100
AcDbLine
 10
2.906496062992125
 20
5.411417322834645
 30
0.0
 11
2.980314960629921
 21
5.468503937007874
 31
0.0
  0
LINE
  5
3678
330
1E
100
AcDbEntity
  8
7
100
AcDbLine
 10
2.980314960629921
 20
5.468503937007874
 30
0.0
 11
3.049212598425196
 21
5.530511811023622
 31
0.0
  0
LINE
  5
3679
330
1E
100
AcDbEntity
  8
7
100
AcDbLine
 10
3.049212598425196
 20
5.530511811023622
 30
0.0
 11
3.111220472440944
 21
5.599409448818897
 31
0.0
  0
LINE
  5
367A
330
1E
100
AcDbEntity
  8
7
100
AcDbLine
 10
3.111220472440944
 20
5.599409448818897
 30
0.0
 11
3.168307086614173
 21
5.673228346456692
 31
0.0
  0
LINE
  5
367B
330
1E
100
AcDbEntity
  8
7
100
AcDbLine
 10
3.168307086614173
 20
5.673228346456692
 30
0.0
 11
3.217519685039369
 21
5.750984251968503
 31
0.0
  0
LINE
  5
367C
330
1E
100
AcDbEntity
  8
7
100
AcDbLine
 10
3.217519685039369
 20
5.750984251968503
 30
0.0
 11
3.260826771653543
 21
5.833661417322834
 31
0.0
  0
LINE
  5
367D
330
1E
100
AcDbEntity
  8
7
100
AcDbLine
 10
3.260826771653543
 20
5.833661417322834
 30
0.0
 11
3.296259842519685
 21
5.919291338582676
 31
0.0
  0
LINE
  5
367E
330
1E
100
AcDbEntity
  8
7
100
AcDbLine
 10
3.296259842519685
 20
5.919291338582676
 30
0.0
 11
3.323818897637795
 21
6.006889763779527
 31
0.0
  0
LINE
  5
367F
330
1E
100
AcDbEntity
  8
7
100
AcDbLine
 10
3.323818897637795
 20
6.006889763779527
 30
0.0
 11
3.344488188976377
 21
6.097440944881889
 31
0.0
  0
LINE
  5
3680
330
1E
100
AcDbEntity
  8
7
100
AcDbLine
 10
3.344488188976377
 20
6.097440944881889
 30
0.0
 11
3.356299212598425
 21
6.18996062992126
 31
0.0
  0
LINE
  5
3681
330
1E
100
AcDbEntity
  8
7
100
AcDbLine
 10
3.356299212598425
 20
6.18996062992126
 30
0.0
 11
3.36023622047244
 21
6.282480314960629
 31
0.0
  0
LINE
  5
3682
330
1E
100
AcDbEntity
  8
7
100
AcDbLine
 10
1.376968503937007
 20
5.750984251968503
 30
0.0
 11
1.426181102362204
 21
5.673228346456692
 31
0.0
  0
LINE
  5
3683
330
1E
100
AcDbEntity
  8
7
100
AcDbLine
 10
1.426181102362204
 20
5.673228346456692
 30
0.0
 11
1.483267716535433
 21
5.599409448818897
 31
0.0
  0
LINE
  5
3684
330
1E
100
AcDbEntity
  8
7
100
AcDbLine
 10
1.483267716535433
 20
5.599409448818897
 30
0.0
 11
1.545275590551181
 21
5.530511811023622
 31
0.0
  0
LINE
  5
3685
330
1E
100
AcDbEntity
  8
7
100
AcDbLine
 10
1.545275590551181
 20
5.530511811023622
 30
0.0
 11
1.614173228346456
 21
5.468503937007874
 31
0.0
  0
LINE
  5
3686
330
1E
100
AcDbEntity
  8
7
100
AcDbLine
 10
1.614173228346456
 20
5.468503937007874
 30
0.0
 11
1.687992125984251
 21
5.411417322834645
 31
0.0
  0
LINE
  5
3687
330
1E
100
AcDbEntity
  8
7
100
AcDbLine
 10
1.687992125984251
 20
5.411417322834645
 30
0.0
 11
1.765748031496062
 21
5.362204724409449
 31
0.0
  0
LINE
  5
3688
330
1E
100
AcDbEntity
  8
7
100
AcDbLine
 10
1.765748031496062
 20
5.362204724409449
 30
0.0
 11
1.848425196850393
 21
5.318897637795275
 31
0.0
  0
LINE
  5
3689
330
1E
100
AcDbEntity
  8
7
100
AcDbLine
 10
1.848425196850393
 20
5.318897637795275
 30
0.0
 11
1.934055118110236
 21
5.283464566929133
 31
0.0
  0
LINE
  5
368A
330
1E
100
AcDbEntity
  8
7
100
AcDbLine
 10
1.934055118110236
 20
5.283464566929133
 30
0.0
 11
2.021653543307086
 21
5.255905511811023
 31
0.0
  0
LINE
  5
368B
330
1E
100
AcDbEntity
  8
7
100
AcDbLine
 10
2.021653543307086
 20
5.255905511811023
 30
0.0
 11
2.112204724409448
 21
5.23523622047244
 31
0.0
  0
LINE
  5
368C
330
1E
100
AcDbEntity
  8
7
100
AcDbLine
 10
2.112204724409448
 20
5.23523622047244
 30
0.0
 11
2.204724409448818
 21
5.223425196850393
 31
0.0
  0
LINE
  5
368D
330
1E
100
AcDbEntity
  8
7
100
AcDbLine
 10
2.204724409448818
 20
5.223425196850393
 30
0.0
 11
2.297244094488188
 21
5.219488188976377
 31
0.0
  0
LINE
  5
368E
330
1E
100
AcDbEntity
  8
7
100
AcDbLine
 10
2.297244094488188
 20
5.219488188976377
 30
0.0
 11
2.389763779527559
 21
5.223425196850393
 31
0.0
  0
LINE
  5
368F
330
1E
100
AcDbEntity
  8
7
100
AcDbLine
 10
2.389763779527559
 20
5.223425196850393
 30
0.0
 11
2.482283464566929
 21
5.23523622047244
 31
0.0
  0
LINE
  5
3690
330
1E
100
AcDbEntity
  8
7
100
AcDbLine
 10
1.426181102362204
 20
6.891732283464566
 30
0.0
 11
1.376968503937007
 21
6.813976377952755
 31
0.0
  0
LINE
  5
3691
330
1E
100
AcDbEntity
  8
7
100
AcDbLine
 10
1.376968503937007
 20
6.813976377952755
 30
0.0
 11
1.333661417322834
 21
6.731299212598425
 31
0.0
  0
LINE
  5
3692
330
1E
100
AcDbEntity
  8
7
100
AcDbLine
 10
1.333661417322834
 20
6.731299212598425
 30
0.0
 11
1.298228346456692
 21
6.645669291338582
 31
0.0
  0
LINE
  5
3693
330
1E
100
AcDbEntity
  8
7
100
AcDbLine
 10
1.298228346456692
 20
6.645669291338582
 30
0.0
 11
1.270669291338582
 21
6.558070866141732
 31
0.0
  0
LINE
  5
3694
330
1E
100
AcDbEntity
  8
7
100
AcDbLine
 10
1.270669291338582
 20
6.558070866141732
 30
0.0
 11
1.25
 21
6.46751968503937
 31
0.0
  0
LINE
  5
3695
330
1E
100
AcDbEntity
  8
7
100
AcDbLine
 10
1.25
 20
6.46751968503937
 30
0.0
 11
1.238188976377952
 21
6.375
 31
0.0
  0
LINE
  5
3696
330
1E
100
AcDbEntity
  8
7
100
AcDbLine
 10
1.238188976377952
 20
6.375
 30
0.0
 11
1.234251968503937
 21
6.282480314960629
 31
0.0
  0
LINE
  5
3697
330
1E
100
AcDbEntity
  8
7
100
AcDbLine
 10
1.234251968503937
 20
6.282480314960629
 30
0.0
 11
1.238188976377952
 21
6.18996062992126
 31
0.0
  0
LINE
  5
3698
330
1E
100
AcDbEntity
  8
7
100
AcDbLine
 10
1.238188976377952
 20
6.18996062992126
 30
0.0
 11
1.25
 21
6.097440944881889
 31
0.0
  0
LINE
  5
3699
330
1E
100
AcDbEntity
  8
7
100
AcDbLine
 10
1.25
 20
6.097440944881889
 30
0.0
 11
1.270669291338582
 21
6.006889763779527
 31
0.0
  0
LINE
  5
369A
330
1E
100
AcDbEntity
  8
7
100
AcDbLine
 10
1.270669291338582
 20
6.006889763779527
 30
0.0
 11
1.298228346456692
 21
5.919291338582676
 31
0.0
  0
LINE
  5
369B
330
1E
100
AcDbEntity
  8
7
100
AcDbLine
 10
1.298228346456692
 20
5.919291338582676
 30
0.0
 11
1.333661417322834
 21
5.833661417322834
 31
0.0
  0
LINE
  5
369C
330
1E
100
AcDbEntity
  8
7
100
AcDbLine
 10
1.333661417322834
 20
5.833661417322834
 30
0.0
 11
1.376968503937007
 21
5.750984251968503
 31
0.0
  0
LINE
  5
369D
330
1E
100
AcDbEntity
  8
7
100
AcDbLine
 10
2.297244094488188
 20
7.345472440944881
 30
0.0
 11
2.204724409448818
 21
7.341535433070865
 31
0.0
  0
LINE
  5
369E
330
1E
100
AcDbEntity
  8
7
100
AcDbLine
 10
2.204724409448818
 20
7.341535433070865
 30
0.0
 11
2.112204724409448
 21
7.329724409448818
 31
0.0
  0
LINE
  5
369F
330
1E
100
AcDbEntity
  8
7
100
AcDbLine
 10
2.112204724409448
 20
7.329724409448818
 30
0.0
 11
2.021653543307086
 21
7.309055118110236
 31
0.0
  0
LINE
  5
36A0
330
1E
100
AcDbEntity
  8
7
100
AcDbLine
 10
2.021653543307086
 20
7.309055118110236
 30
0.0
 11
1.934055118110236
 21
7.281496062992125
 31
0.0
  0
LINE
  5
36A1
330
1E
100
AcDbEntity
  8
7
100
AcDbLine
 10
1.934055118110236
 20
7.281496062992125
 30
0.0
 11
1.848425196850393
 21
7.246062992125984
 31
0.0
  0
LINE
  5
36A2
330
1E
100
AcDbEntity
  8
7
100
AcDbLine
 10
1.848425196850393
 20
7.246062992125984
 30
0.0
 11
1.765748031496062
 21
7.202755905511811
 31
0.0
  0
LINE
  5
36A3
330
1E
100
AcDbEntity
  8
7
100
AcDbLine
 10
1.765748031496062
 20
7.202755905511811
 30
0.0
 11
1.687992125984251
 21
7.153543307086613
 31
0.0
  0
LINE
  5
36A4
330
1E
100
AcDbEntity
  8
7
100
AcDbLine
 10
1.687992125984251
 20
7.153543307086613
 30
0.0
 11
1.614173228346456
 21
7.096456692913386
 31
0.0
  0
LINE
  5
36A5
330
1E
100
AcDbEntity
  8
7
100
AcDbLine
 10
1.614173228346456
 20
7.096456692913386
 30
0.0
 11
1.545275590551181
 21
7.034448818897637
 31
0.0
  0
LINE
  5
36A6
330
1E
100
AcDbEntity
  8
7
100
AcDbLine
 10
1.545275590551181
 20
7.034448818897637
 30
0.0
 11
1.483267716535433
 21
6.965551181102362
 31
0.0
  0
LINE
  5
36A7
330
1E
100
AcDbEntity
  8
7
100
AcDbLine
 10
1.483267716535433
 20
6.965551181102362
 30
0.0
 11
1.426181102362204
 21
6.891732283464566
 31
0.0
  0
LINE
  5
36A8
330
1E
100
AcDbEntity
  8
7
100
AcDbLine
 10
1.33267716535433
 20
5.966535433070865
 30
0.0
 11
1.331692913385826
 21
5.964566929133858
 31
0.0
  0
LINE
  5
36A9
330
1E
100
AcDbEntity
  8
7
100
AcDbLine
 10
1.331692913385826
 20
5.964566929133858
 30
0.0
 11
1.329724409448818
 21
5.96259842519685
 31
0.0
  0
LINE
  5
36AA
330
1E
100
AcDbEntity
  8
7
100
AcDbLine
 10
1.329724409448818
 20
5.96259842519685
 30
0.0
 11
1.325787401574803
 21
5.958661417322834
 31
0.0
  0
LINE
  5
36AB
330
1E
100
AcDbEntity
  8
7
100
AcDbLine
 10
1.325787401574803
 20
5.958661417322834
 30
0.0
 11
1.321850393700787
 21
5.952755905511811
 31
0.0
  0
LINE
  5
36AC
330
1E
100
AcDbEntity
  8
7
100
AcDbLine
 10
1.321850393700787
 20
5.952755905511811
 30
0.0
 11
1.318897637795275
 21
5.945866141732283
 31
0.0
  0
LINE
  5
36AD
330
1E
100
AcDbEntity
  8
7
100
AcDbLine
 10
1.33267716535433
 20
5.966535433070865
 30
0.0
 11
1.335629921259842
 21
5.973425196850393
 31
0.0
  0
LINE
  5
36AE
330
1E
100
AcDbEntity
  8
7
100
AcDbLine
 10
1.335629921259842
 20
5.973425196850393
 30
0.0
 11
1.347440944881889
 21
5.999015748031496
 31
0.0
  0
LINE
  5
36AF
330
1E
100
AcDbEntity
  8
7
100
AcDbLine
 10
1.347440944881889
 20
5.999015748031496
 30
0.0
 11
1.349409448818897
 21
6.000984251968503
 31
0.0
  0
LINE
  5
36B0
330
1E
100
AcDbEntity
  8
7
100
AcDbLine
 10
1.33267716535433
 20
6.599409448818897
 30
0.0
 11
1.308070866141732
 21
6.510826771653543
 31
0.0
  0
LINE
  5
36B1
330
1E
100
AcDbEntity
  8
7
100
AcDbLine
 10
1.308070866141732
 20
6.510826771653543
 30
0.0
 11
1.292322834645669
 21
6.42027559055118
 31
0.0
  0
LINE
  5
36B2
330
1E
100
AcDbEntity
  8
7
100
AcDbLine
 10
1.292322834645669
 20
6.42027559055118
 30
0.0
 11
1.283464566929133
 21
6.328740157480314
 31
0.0
  0
LINE
  5
36B3
330
1E
100
AcDbEntity
  8
7
100
AcDbLine
 10
1.283464566929133
 20
6.328740157480314
 30
0.0
 11
1.283464566929133
 21
6.236220472440944
 31
0.0
  0
LINE
  5
36B4
330
1E
100
AcDbEntity
  8
7
100
AcDbLine
 10
1.283464566929133
 20
6.236220472440944
 30
0.0
 11
1.292322834645669
 21
6.144685039370078
 31
0.0
  0
LINE
  5
36B5
330
1E
100
AcDbEntity
  8
7
100
AcDbLine
 10
1.292322834645669
 20
6.144685039370078
 30
0.0
 11
1.308070866141732
 21
6.054133858267716
 31
0.0
  0
LINE
  5
36B6
330
1E
100
AcDbEntity
  8
7
100
AcDbLine
 10
1.350393700787401
 20
6.377952755905512
 30
0.0
 11
1.345472440944881
 21
6.282480314960629
 31
0.0
  0
LINE
  5
36B7
330
1E
100
AcDbEntity
  8
7
100
AcDbLine
 10
1.345472440944881
 20
6.282480314960629
 30
0.0
 11
1.350393700787401
 21
6.187007874015748
 31
0.0
  0
LINE
  5
36B8
330
1E
100
AcDbEntity
  8
7
100
AcDbLine
 10
1.350393700787401
 20
6.187007874015748
 30
0.0
 11
1.36515748031496
 21
6.091535433070865
 31
0.0
  0
LINE
  5
36B9
330
1E
100
AcDbEntity
  8
7
100
AcDbLine
 10
1.36515748031496
 20
6.091535433070865
 30
0.0
 11
1.388779527559055
 21
5.999015748031496
 31
0.0
  0
LINE
  5
36BA
330
1E
100
AcDbEntity
  8
7
100
AcDbLine
 10
1.388779527559055
 20
6.565944881889763
 30
0.0
 11
1.36515748031496
 21
6.473425196850393
 31
0.0
  0
LINE
  5
36BB
330
1E
100
AcDbEntity
  8
7
100
AcDbLine
 10
1.36515748031496
 20
6.473425196850393
 30
0.0
 11
1.350393700787401
 21
6.377952755905512
 31
0.0
  0
LINE
  5
36BC
330
1E
100
AcDbEntity
  8
7
100
AcDbLine
 10
1.349409448818897
 20
6.000984251968503
 30
0.0
 11
1.351377952755905
 21
6.001968503937007
 31
0.0
  0
LINE
  5
36BD
330
1E
100
AcDbEntity
  8
7
100
AcDbLine
 10
1.351377952755905
 20
6.001968503937007
 30
0.0
 11
1.358267716535433
 21
6.002952755905512
 31
0.0
  0
LINE
  5
36BE
330
1E
100
AcDbEntity
  8
7
100
AcDbLine
 10
1.358267716535433
 20
6.002952755905512
 30
0.0
 11
1.367125984251968
 21
6.003937007874015
 31
0.0
  0
LINE
  5
36BF
330
1E
100
AcDbEntity
  8
7
100
AcDbLine
 10
1.367125984251968
 20
6.003937007874015
 30
0.0
 11
1.377952755905511
 21
6.002952755905512
 31
0.0
  0
LINE
  5
36C0
330
1E
100
AcDbEntity
  8
7
100
AcDbLine
 10
1.377952755905511
 20
6.002952755905512
 30
0.0
 11
1.388779527559055
 21
5.999015748031496
 31
0.0
  0
LINE
  5
36C1
330
1E
100
AcDbEntity
  8
7
100
AcDbLine
 10
1.349409448818897
 20
6.563976377952755
 30
0.0
 11
1.326771653543307
 21
6.471456692913386
 31
0.0
  0
LINE
  5
36C2
330
1E
100
AcDbEntity
  8
7
100
AcDbLine
 10
1.326771653543307
 20
6.471456692913386
 30
0.0
 11
1.312992125984251
 21
6.377952755905512
 31
0.0
  0
LINE
  5
36C3
330
1E
100
AcDbEntity
  8
7
100
AcDbLine
 10
1.312992125984251
 20
6.377952755905512
 30
0.0
 11
1.308070866141732
 21
6.282480314960629
 31
0.0
  0
LINE
  5
36C4
330
1E
100
AcDbEntity
  8
7
100
AcDbLine
 10
1.308070866141732
 20
6.282480314960629
 30
0.0
 11
1.312992125984251
 21
6.187007874015748
 31
0.0
  0
LINE
  5
36C5
330
1E
100
AcDbEntity
  8
7
100
AcDbLine
 10
1.312992125984251
 20
6.187007874015748
 30
0.0
 11
1.326771653543307
 21
6.093503937007874
 31
0.0
  0
LINE
  5
36C6
330
1E
100
AcDbEntity
  8
7
100
AcDbLine
 10
3.276574803149606
 20
5.945866141732283
 30
0.0
 11
3.274606299212598
 21
5.948818897637795
 31
0.0
  0
LINE
  5
36C7
330
1E
100
AcDbEntity
  8
7
100
AcDbLine
 10
3.274606299212598
 20
5.948818897637795
 30
0.0
 11
3.270669291338582
 21
5.955708661417323
 31
0.0
  0
LINE
  5
36C8
330
1E
100
AcDbEntity
  8
7
100
AcDbLine
 10
3.270669291338582
 20
5.955708661417323
 30
0.0
 11
3.266732283464566
 21
5.960629921259842
 31
0.0
  0
LINE
  5
36C9
330
1E
100
AcDbEntity
  8
7
100
AcDbLine
 10
3.266732283464566
 20
5.960629921259842
 30
0.0
 11
3.263779527559055
 21
5.964566929133858
 31
0.0
  0
LINE
  5
36CA
330
1E
100
AcDbEntity
  8
7
100
AcDbLine
 10
3.263779527559055
 20
5.964566929133858
 30
0.0
 11
3.261811023622047
 21
5.965551181102362
 31
0.0
  0
LINE
  5
36CB
330
1E
100
AcDbEntity
  8
7
100
AcDbLine
 10
3.261811023622047
 20
5.965551181102362
 30
0.0
 11
3.261811023622047
 21
5.966535433070865
 31
0.0
  0
LINE
  5
36CC
330
1E
100
AcDbEntity
  8
7
100
AcDbLine
 10
1.318897637795275
 20
6.62007874015748
 30
0.0
 11
1.291338582677165
 21
6.525590551181101
 31
0.0
  0
LINE
  5
36CD
330
1E
100
AcDbEntity
  8
7
100
AcDbLine
 10
1.291338582677165
 20
6.525590551181101
 30
0.0
 11
1.273622047244094
 21
6.429133858267716
 31
0.0
  0
LINE
  5
36CE
330
1E
100
AcDbEntity
  8
7
100
AcDbLine
 10
1.273622047244094
 20
6.429133858267716
 30
0.0
 11
1.263779527559055
 21
6.331692913385826
 31
0.0
  0
LINE
  5
36CF
330
1E
100
AcDbEntity
  8
7
100
AcDbLine
 10
1.263779527559055
 20
6.331692913385826
 30
0.0
 11
1.263779527559055
 21
6.233267716535433
 31
0.0
  0
LINE
  5
36D0
330
1E
100
AcDbEntity
  8
7
100
AcDbLine
 10
1.263779527559055
 20
6.233267716535433
 30
0.0
 11
1.273622047244094
 21
6.135826771653543
 31
0.0
  0
LINE
  5
36D1
330
1E
100
AcDbEntity
  8
7
100
AcDbLine
 10
1.273622047244094
 20
6.135826771653543
 30
0.0
 11
1.291338582677165
 21
6.039370078740157
 31
0.0
  0
LINE
  5
36D2
330
1E
100
AcDbEntity
  8
7
100
AcDbLine
 10
1.291338582677165
 20
6.039370078740157
 30
0.0
 11
1.318897637795275
 21
5.944881889763779
 31
0.0
  0
LINE
  5
36D3
330
1E
100
AcDbEntity
  8
7
100
AcDbLine
 10
1.340551181102362
 20
5.886811023622047
 30
0.0
 11
1.36023622047244
 21
5.881889763779527
 31
0.0
  0
LINE
  5
36D4
330
1E
100
AcDbEntity
  8
7
100
AcDbLine
 10
1.36023622047244
 20
5.881889763779527
 30
0.0
 11
1.379921259842519
 21
5.885826771653543
 31
0.0
  0
LINE
  5
36D5
330
1E
100
AcDbEntity
  8
7
100
AcDbLine
 10
1.379921259842519
 20
5.885826771653543
 30
0.0
 11
1.396653543307086
 21
5.89763779527559
 31
0.0
  0
LINE
  5
36D6
330
1E
100
AcDbEntity
  8
7
100
AcDbLine
 10
1.396653543307086
 20
5.89763779527559
 30
0.0
 11
1.406496062992125
 21
5.914370078740157
 31
0.0
  0
LINE
  5
36D7
330
1E
100
AcDbEntity
  8
7
100
AcDbLine
 10
1.406496062992125
 20
5.914370078740157
 30
0.0
 11
1.408464566929133
 21
5.935039370078739
 31
0.0
  0
LINE
  5
36D8
330
1E
100
AcDbEntity
  8
7
100
AcDbLine
 10
1.408464566929133
 20
5.935039370078739
 30
0.0
 11
1.400590551181102
 21
5.953740157480314
 31
0.0
  0
LINE
  5
36D9
330
1E
100
AcDbEntity
  8
7
100
AcDbLine
 10
1.400590551181102
 20
5.953740157480314
 30
0.0
 11
1.386811023622047
 21
5.96751968503937
 31
0.0
  0
LINE
  5
36DA
330
1E
100
AcDbEntity
  8
7
100
AcDbLine
 10
1.386811023622047
 20
5.96751968503937
 30
0.0
 11
1.367125984251968
 21
5.974409448818897
 31
0.0
  0
LINE
  5
36DB
330
1E
100
AcDbEntity
  8
7
100
AcDbLine
 10
1.367125984251968
 20
5.974409448818897
 30
0.0
 11
1.347440944881889
 21
5.972440944881889
 31
0.0
  0
LINE
  5
36DC
330
1E
100
AcDbEntity
  8
7
100
AcDbLine
 10
1.347440944881889
 20
5.972440944881889
 30
0.0
 11
1.330708661417322
 21
5.961614173228346
 31
0.0
  0
LINE
  5
36DD
330
1E
100
AcDbEntity
  8
7
100
AcDbLine
 10
1.330708661417322
 20
5.961614173228346
 30
0.0
 11
1.318897637795275
 21
5.944881889763779
 31
0.0
  0
LINE
  5
36DE
330
1E
100
AcDbEntity
  8
7
100
AcDbLine
 10
1.341535433070866
 20
5.886811023622047
 30
0.0
 11
1.382874015748031
 21
5.799212598425197
 31
0.0
  0
LINE
  5
36DF
330
1E
100
AcDbEntity
  8
7
100
AcDbLine
 10
1.382874015748031
 20
5.799212598425197
 30
0.0
 11
1.432086614173228
 21
5.715551181102362
 31
0.0
  0
LINE
  5
36E0
330
1E
100
AcDbEntity
  8
7
100
AcDbLine
 10
1.432086614173228
 20
5.715551181102362
 30
0.0
 11
1.488188976377952
 21
5.63779527559055
 31
0.0
  0
LINE
  5
36E1
330
1E
100
AcDbEntity
  8
7
100
AcDbLine
 10
1.488188976377952
 20
5.63779527559055
 30
0.0
 11
1.552165354330708
 21
5.56496062992126
 31
0.0
  0
LINE
  5
36E2
330
1E
100
AcDbEntity
  8
7
100
AcDbLine
 10
1.552165354330708
 20
5.56496062992126
 30
0.0
 11
1.622047244094488
 21
5.498031496062991
 31
0.0
  0
LINE
  5
36E3
330
1E
100
AcDbEntity
  8
7
100
AcDbLine
 10
1.622047244094488
 20
5.498031496062991
 30
0.0
 11
1.698818897637795
 21
5.438976377952755
 31
0.0
  0
LINE
  5
36E4
330
1E
100
AcDbEntity
  8
7
100
AcDbLine
 10
1.721456692913385
 20
5.49015748031496
 30
0.0
 11
1.706692913385826
 21
5.476377952755905
 31
0.0
  0
LINE
  5
36E5
330
1E
100
AcDbEntity
  8
7
100
AcDbLine
 10
1.706692913385826
 20
5.476377952755905
 30
0.0
 11
1.698818897637795
 21
5.458661417322834
 31
0.0
  0
LINE
  5
36E6
330
1E
100
AcDbEntity
  8
7
100
AcDbLine
 10
1.698818897637795
 20
5.458661417322834
 30
0.0
 11
1.698818897637795
 21
5.437992125984251
 31
0.0
  0
LINE
  5
36E7
330
1E
100
AcDbEntity
  8
7
100
AcDbLine
 10
1.750984251968503
 20
5.404527559055117
 30
0.0
 11
1.769685039370078
 21
5.411417322834645
 31
0.0
  0
LINE
  5
36E8
330
1E
100
AcDbEntity
  8
7
100
AcDbLine
 10
1.769685039370078
 20
5.411417322834645
 30
0.0
 11
1.783464566929133
 21
5.4251968503937
 31
0.0
  0
LINE
  5
36E9
330
1E
100
AcDbEntity
  8
7
100
AcDbLine
 10
1.783464566929133
 20
5.4251968503937
 30
0.0
 11
1.790354330708661
 21
5.444881889763779
 31
0.0
  0
LINE
  5
36EA
330
1E
100
AcDbEntity
  8
7
100
AcDbLine
 10
1.790354330708661
 20
5.444881889763779
 30
0.0
 11
1.788385826771653
 21
5.464566929133858
 31
0.0
  0
LINE
  5
36EB
330
1E
100
AcDbEntity
  8
7
100
AcDbLine
 10
1.788385826771653
 20
5.464566929133858
 30
0.0
 11
1.77755905511811
 21
5.482283464566928
 31
0.0
  0
LINE
  5
36EC
330
1E
100
AcDbEntity
  8
7
100
AcDbLine
 10
1.77755905511811
 20
5.482283464566928
 30
0.0
 11
1.760826771653543
 21
5.493110236220472
 31
0.0
  0
LINE
  5
36ED
330
1E
100
AcDbEntity
  8
7
100
AcDbLine
 10
1.760826771653543
 20
5.493110236220472
 30
0.0
 11
1.741141732283464
 21
5.496062992125984
 31
0.0
  0
LINE
  5
36EE
330
1E
100
AcDbEntity
  8
7
100
AcDbLine
 10
1.741141732283464
 20
5.496062992125984
 30
0.0
 11
1.721456692913385
 21
5.49015748031496
 31
0.0
  0
LINE
  5
36EF
330
1E
100
AcDbEntity
  8
7
100
AcDbLine
 10
2.581692913385826
 20
5.287401574803149
 30
0.0
 11
2.672244094488188
 21
5.317913385826771
 31
0.0
  0
LINE
  5
36F0
330
1E
100
AcDbEntity
  8
7
100
AcDbLine
 10
2.672244094488188
 20
5.317913385826771
 30
0.0
 11
2.759842519685039
 21
5.357283464566928
 31
0.0
  0
LINE
  5
36F1
330
1E
100
AcDbEntity
  8
7
100
AcDbLine
 10
2.759842519685039
 20
5.357283464566928
 30
0.0
 11
2.843503937007874
 21
5.404527559055117
 31
0.0
  0
LINE
  5
36F2
330
1E
100
AcDbEntity
  8
7
100
AcDbLine
 10
1.750984251968503
 20
5.404527559055117
 30
0.0
 11
1.834645669291338
 21
5.357283464566928
 31
0.0
  0
LINE
  5
36F3
330
1E
100
AcDbEntity
  8
7
100
AcDbLine
 10
1.834645669291338
 20
5.357283464566928
 30
0.0
 11
1.922244094488188
 21
5.317913385826771
 31
0.0
  0
LINE
  5
36F4
330
1E
100
AcDbEntity
  8
7
100
AcDbLine
 10
1.922244094488188
 20
5.317913385826771
 30
0.0
 11
2.012795275590551
 21
5.287401574803149
 31
0.0
  0
LINE
  5
36F5
330
1E
100
AcDbEntity
  8
7
100
AcDbLine
 10
2.012795275590551
 20
5.287401574803149
 30
0.0
 11
2.106299212598425
 21
5.265748031496062
 31
0.0
  0
LINE
  5
36F6
330
1E
100
AcDbEntity
  8
7
100
AcDbLine
 10
2.106299212598425
 20
5.265748031496062
 30
0.0
 11
2.201771653543306
 21
5.252952755905512
 31
0.0
  0
LINE
  5
36F7
330
1E
100
AcDbEntity
  8
7
100
AcDbLine
 10
2.201771653543306
 20
5.252952755905512
 30
0.0
 11
2.297244094488188
 21
5.248031496062991
 31
0.0
  0
LINE
  5
36F8
330
1E
100
AcDbEntity
  8
7
100
AcDbLine
 10
2.297244094488188
 20
5.248031496062991
 30
0.0
 11
2.39271653543307
 21
5.252952755905512
 31
0.0
  0
LINE
  5
36F9
330
1E
100
AcDbEntity
  8
7
100
AcDbLine
 10
2.39271653543307
 20
5.252952755905512
 30
0.0
 11
2.488188976377952
 21
5.265748031496062
 31
0.0
  0
LINE
  5
36FA
330
1E
100
AcDbEntity
  8
7
100
AcDbLine
 10
2.488188976377952
 20
5.265748031496062
 30
0.0
 11
2.581692913385826
 21
5.287401574803149
 31
0.0
  0
LINE
  5
36FB
330
1E
100
AcDbEntity
  8
7
100
AcDbLine
 10
2.896653543307086
 20
5.437992125984251
 30
0.0
 11
2.896653543307086
 21
5.458661417322834
 31
0.0
  0
LINE
  5
36FC
330
1E
100
AcDbEntity
  8
7
100
AcDbLine
 10
2.896653543307086
 20
5.458661417322834
 30
0.0
 11
2.888779527559055
 21
5.476377952755905
 31
0.0
  0
LINE
  5
36FD
330
1E
100
AcDbEntity
  8
7
100
AcDbLine
 10
2.888779527559055
 20
5.476377952755905
 30
0.0
 11
2.874015748031495
 21
5.49015748031496
 31
0.0
  0
LINE
  5
36FE
330
1E
100
AcDbEntity
  8
7
100
AcDbLine
 10
2.874015748031495
 20
5.49015748031496
 30
0.0
 11
2.854330708661417
 21
5.496062992125984
 31
0.0
  0
LINE
  5
36FF
330
1E
100
AcDbEntity
  8
7
100
AcDbLine
 10
2.854330708661417
 20
5.496062992125984
 30
0.0
 11
2.834645669291338
 21
5.493110236220472
 31
0.0
  0
LINE
  5
3700
330
1E
100
AcDbEntity
  8
7
100
AcDbLine
 10
2.834645669291338
 20
5.493110236220472
 30
0.0
 11
2.817913385826771
 21
5.482283464566928
 31
0.0
  0
LINE
  5
3701
330
1E
100
AcDbEntity
  8
7
100
AcDbLine
 10
2.817913385826771
 20
5.482283464566928
 30
0.0
 11
2.807086614173228
 21
5.464566929133858
 31
0.0
  0
LINE
  5
3702
330
1E
100
AcDbEntity
  8
7
100
AcDbLine
 10
2.807086614173228
 20
5.464566929133858
 30
0.0
 11
2.80511811023622
 21
5.444881889763779
 31
0.0
  0
LINE
  5
3703
330
1E
100
AcDbEntity
  8
7
100
AcDbLine
 10
2.80511811023622
 20
5.444881889763779
 30
0.0
 11
2.812007874015748
 21
5.4251968503937
 31
0.0
  0
LINE
  5
3704
330
1E
100
AcDbEntity
  8
7
100
AcDbLine
 10
2.812007874015748
 20
5.4251968503937
 30
0.0
 11
2.825787401574803
 21
5.411417322834645
 31
0.0
  0
LINE
  5
3705
330
1E
100
AcDbEntity
  8
7
100
AcDbLine
 10
2.895669291338582
 20
5.438976377952755
 30
0.0
 11
2.972440944881889
 21
5.498031496062991
 31
0.0
  0
LINE
  5
3706
330
1E
100
AcDbEntity
  8
7
100
AcDbLine
 10
2.972440944881889
 20
5.498031496062991
 30
0.0
 11
3.042322834645669
 21
5.56496062992126
 31
0.0
  0
LINE
  5
3707
330
1E
100
AcDbEntity
  8
7
100
AcDbLine
 10
3.042322834645669
 20
5.56496062992126
 30
0.0
 11
3.106299212598425
 21
5.63779527559055
 31
0.0
  0
LINE
  5
3708
330
1E
100
AcDbEntity
  8
7
100
AcDbLine
 10
3.106299212598425
 20
5.63779527559055
 30
0.0
 11
3.162401574803149
 21
5.715551181102362
 31
0.0
  0
LINE
  5
3709
330
1E
100
AcDbEntity
  8
7
100
AcDbLine
 10
3.162401574803149
 20
5.715551181102362
 30
0.0
 11
3.211614173228346
 21
5.799212598425197
 31
0.0
  0
LINE
  5
370A
330
1E
100
AcDbEntity
  8
7
100
AcDbLine
 10
3.211614173228346
 20
5.799212598425197
 30
0.0
 11
3.252952755905511
 21
5.886811023622047
 31
0.0
  0
LINE
  5
370B
330
1E
100
AcDbEntity
  8
7
100
AcDbLine
 10
3.187992125984251
 20
5.914370078740157
 30
0.0
 11
3.197834645669291
 21
5.89763779527559
 31
0.0
  0
LINE
  5
370C
330
1E
100
AcDbEntity
  8
7
100
AcDbLine
 10
3.197834645669291
 20
5.89763779527559
 30
0.0
 11
3.214566929133858
 21
5.885826771653543
 31
0.0
  0
LINE
  5
370D
330
1E
100
AcDbEntity
  8
7
100
AcDbLine
 10
3.214566929133858
 20
5.885826771653543
 30
0.0
 11
3.234251968503937
 21
5.881889763779527
 31
0.0
  0
LINE
  5
370E
330
1E
100
AcDbEntity
  8
7
100
AcDbLine
 10
3.234251968503937
 20
5.881889763779527
 30
0.0
 11
3.253937007874015
 21
5.886811023622047
 31
0.0
  0
LINE
  5
370F
330
1E
100
AcDbEntity
  8
7
100
AcDbLine
 10
3.275590551181102
 20
5.944881889763779
 30
0.0
 11
3.263779527559055
 21
5.961614173228346
 31
0.0
  0
LINE
  5
3710
330
1E
100
AcDbEntity
  8
7
100
AcDbLine
 10
3.263779527559055
 20
5.961614173228346
 30
0.0
 11
3.247047244094487
 21
5.972440944881889
 31
0.0
  0
LINE
  5
3711
330
1E
100
AcDbEntity
  8
7
100
AcDbLine
 10
3.247047244094487
 20
5.972440944881889
 30
0.0
 11
3.227362204724409
 21
5.974409448818897
 31
0.0
  0
LINE
  5
3712
330
1E
100
AcDbEntity
  8
7
100
AcDbLine
 10
3.227362204724409
 20
5.974409448818897
 30
0.0
 11
3.20767716535433
 21
5.96751968503937
 31
0.0
  0
LINE
  5
3713
330
1E
100
AcDbEntity
  8
7
100
AcDbLine
 10
3.20767716535433
 20
5.96751968503937
 30
0.0
 11
3.193897637795275
 21
5.953740157480314
 31
0.0
  0
LINE
  5
3714
330
1E
100
AcDbEntity
  8
7
100
AcDbLine
 10
3.193897637795275
 20
5.953740157480314
 30
0.0
 11
3.186023622047243
 21
5.935039370078739
 31
0.0
  0
LINE
  5
3715
330
1E
100
AcDbEntity
  8
7
100
AcDbLine
 10
3.186023622047243
 20
5.935039370078739
 30
0.0
 11
3.187992125984251
 21
5.914370078740157
 31
0.0
  0
LINE
  5
3716
330
1E
100
AcDbEntity
  8
7
100
AcDbLine
 10
3.320866141732283
 20
6.429133858267716
 30
0.0
 11
3.303149606299212
 21
6.525590551181101
 31
0.0
  0
LINE
  5
3717
330
1E
100
AcDbEntity
  8
7
100
AcDbLine
 10
3.303149606299212
 20
6.525590551181101
 30
0.0
 11
3.275590551181102
 21
6.62007874015748
 31
0.0
  0
LINE
  5
3718
330
1E
100
AcDbEntity
  8
7
100
AcDbLine
 10
3.275590551181102
 20
5.944881889763779
 30
0.0
 11
3.303149606299212
 21
6.039370078740157
 31
0.0
  0
LINE
  5
3719
330
1E
100
AcDbEntity
  8
7
100
AcDbLine
 10
3.303149606299212
 20
6.039370078740157
 30
0.0
 11
3.320866141732283
 21
6.135826771653543
 31
0.0
  0
LINE
  5
371A
330
1E
100
AcDbEntity
  8
7
100
AcDbLine
 10
3.320866141732283
 20
6.135826771653543
 30
0.0
 11
3.330708661417322
 21
6.233267716535433
 31
0.0
  0
LINE
  5
371B
330
1E
100
AcDbEntity
  8
7
100
AcDbLine
 10
3.330708661417322
 20
6.233267716535433
 30
0.0
 11
3.330708661417322
 21
6.331692913385826
 31
0.0
  0
LINE
  5
371C
330
1E
100
AcDbEntity
  8
7
100
AcDbLine
 10
3.330708661417322
 20
6.331692913385826
 30
0.0
 11
3.320866141732283
 21
6.429133858267716
 31
0.0
  0
LINE
  5
371D
330
1E
100
AcDbEntity
  8
7
100
AcDbLine
 10
1.624015748031496
 20
7.079724409448818
 30
0.0
 11
1.549212598425196
 21
7.009842519685038
 31
0.0
  0
LINE
  5
371E
330
1E
100
AcDbEntity
  8
7
100
AcDbLine
 10
1.549212598425196
 20
7.009842519685038
 30
0.0
 11
1.481299212598425
 21
6.933070866141732
 31
0.0
  0
LINE
  5
371F
330
1E
100
AcDbEntity
  8
7
100
AcDbLine
 10
1.481299212598425
 20
6.933070866141732
 30
0.0
 11
1.422244094488188
 21
6.850393700787401
 31
0.0
  0
LINE
  5
3720
330
1E
100
AcDbEntity
  8
7
100
AcDbLine
 10
1.422244094488188
 20
6.850393700787401
 30
0.0
 11
1.37007874015748
 21
6.761811023622047
 31
0.0
  0
LINE
  5
3721
330
1E
100
AcDbEntity
  8
7
100
AcDbLine
 10
1.37007874015748
 20
6.761811023622047
 30
0.0
 11
1.327755905511811
 21
6.668307086614173
 31
0.0
  0
LINE
  5
3722
330
1E
100
AcDbEntity
  8
7
100
AcDbLine
 10
2.523622047244094
 20
7.301181102362204
 30
0.0
 11
2.434055118110236
 21
7.316929133858267
 31
0.0
  0
LINE
  5
3723
330
1E
100
AcDbEntity
  8
7
100
AcDbLine
 10
2.434055118110236
 20
7.316929133858267
 30
0.0
 11
2.342519685039369
 21
7.324803149606299
 31
0.0
  0
LINE
  5
3724
330
1E
100
AcDbEntity
  8
7
100
AcDbLine
 10
2.342519685039369
 20
7.324803149606299
 30
0.0
 11
2.251968503937007
 21
7.324803149606299
 31
0.0
  0
LINE
  5
3725
330
1E
100
AcDbEntity
  8
7
100
AcDbLine
 10
2.251968503937007
 20
7.324803149606299
 30
0.0
 11
2.160433070866141
 21
7.316929133858267
 31
0.0
  0
LINE
  5
3726
330
1E
100
AcDbEntity
  8
7
100
AcDbLine
 10
2.160433070866141
 20
7.316929133858267
 30
0.0
 11
2.070866141732283
 21
7.301181102362204
 31
0.0
  0
LINE
  5
3727
330
1E
100
AcDbEntity
  8
7
100
AcDbLine
 10
2.070866141732283
 20
7.301181102362204
 30
0.0
 11
1.982283464566929
 21
7.27755905511811
 31
0.0
  0
LINE
  5
3728
330
1E
100
AcDbEntity
  8
7
100
AcDbLine
 10
1.982283464566929
 20
7.27755905511811
 30
0.0
 11
1.896653543307086
 21
7.246062992125984
 31
0.0
  0
LINE
  5
3729
330
1E
100
AcDbEntity
  8
7
100
AcDbLine
 10
1.896653543307086
 20
7.246062992125984
 30
0.0
 11
1.813976377952755
 21
7.206692913385826
 31
0.0
  0
LINE
  5
372A
330
1E
100
AcDbEntity
  8
7
100
AcDbLine
 10
1.813976377952755
 20
7.206692913385826
 30
0.0
 11
1.734251968503937
 21
7.161417322834645
 31
0.0
  0
LINE
  5
372B
330
1E
100
AcDbEntity
  8
7
100
AcDbLine
 10
2.86023622047244
 20
7.161417322834645
 30
0.0
 11
2.780511811023622
 21
7.206692913385826
 31
0.0
  0
LINE
  5
372C
330
1E
100
AcDbEntity
  8
7
100
AcDbLine
 10
2.780511811023622
 20
7.206692913385826
 30
0.0
 11
2.697834645669291
 21
7.246062992125984
 31
0.0
  0
LINE
  5
372D
330
1E
100
AcDbEntity
  8
7
100
AcDbLine
 10
2.697834645669291
 20
7.246062992125984
 30
0.0
 11
2.612204724409448
 21
7.27755905511811
 31
0.0
  0
LINE
  5
372E
330
1E
100
AcDbEntity
  8
7
100
AcDbLine
 10
2.612204724409448
 20
7.27755905511811
 30
0.0
 11
2.523622047244094
 21
7.301181102362204
 31
0.0
  0
LINE
  5
372F
330
1E
100
AcDbEntity
  8
7
100
AcDbLine
 10
3.266732283464566
 20
6.668307086614173
 30
0.0
 11
3.224409448818897
 21
6.761811023622047
 31
0.0
  0
LINE
  5
3730
330
1E
100
AcDbEntity
  8
7
100
AcDbLine
 10
3.224409448818897
 20
6.761811023622047
 30
0.0
 11
3.172244094488188
 21
6.850393700787401
 31
0.0
  0
LINE
  5
3731
330
1E
100
AcDbEntity
  8
7
100
AcDbLine
 10
3.172244094488188
 20
6.850393700787401
 30
0.0
 11
3.113188976377952
 21
6.933070866141732
 31
0.0
  0
LINE
  5
3732
330
1E
100
AcDbEntity
  8
7
100
AcDbLine
 10
3.113188976377952
 20
6.933070866141732
 30
0.0
 11
3.045275590551181
 21
7.009842519685038
 31
0.0
  0
LINE
  5
3733
330
1E
100
AcDbEntity
  8
7
100
AcDbLine
 10
3.045275590551181
 20
7.009842519685038
 30
0.0
 11
2.970472440944881
 21
7.079724409448818
 31
0.0
  0
LINE
  5
3734
330
1E
100
AcDbEntity
  8
7
100
AcDbLine
 10
2.970472440944881
 20
7.079724409448818
 30
0.0
 11
2.889763779527558
 21
7.141732283464566
 31
0.0
  0
LINE
  5
3735
330
1E
100
AcDbEntity
  8
7
100
AcDbLine
 10
3.278543307086614
 20
5.929133858267716
 30
0.0
 11
3.309055118110236
 21
6.02755905511811
 31
0.0
  0
LINE
  5
3736
330
1E
100
AcDbEntity
  8
7
100
AcDbLine
 10
3.309055118110236
 20
6.02755905511811
 30
0.0
 11
3.328740157480314
 21
6.128937007874015
 31
0.0
  0
LINE
  5
3737
330
1E
100
AcDbEntity
  8
7
100
AcDbLine
 10
3.328740157480314
 20
6.128937007874015
 30
0.0
 11
3.339566929133858
 21
6.231299212598425
 31
0.0
  0
LINE
  5
3738
330
1E
100
AcDbEntity
  8
7
100
AcDbLine
 10
3.339566929133858
 20
6.231299212598425
 30
0.0
 11
3.339566929133858
 21
6.333661417322834
 31
0.0
  0
LINE
  5
3739
330
1E
100
AcDbEntity
  8
7
100
AcDbLine
 10
3.339566929133858
 20
6.333661417322834
 30
0.0
 11
3.328740157480314
 21
6.436023622047244
 31
0.0
  0
LINE
  5
373A
330
1E
100
AcDbEntity
  8
7
100
AcDbLine
 10
3.328740157480314
 20
6.436023622047244
 30
0.0
 11
3.309055118110236
 21
6.537401574803149
 31
0.0
  0
LINE
  5
373B
330
1E
100
AcDbEntity
  8
7
100
AcDbLine
 10
3.309055118110236
 20
6.537401574803149
 30
0.0
 11
3.278543307086614
 21
6.635826771653543
 31
0.0
  0
LINE
  5
373C
330
1E
100
AcDbEntity
  8
7
100
AcDbLine
 10
3.265748031496062
 20
5.896653543307086
 30
0.0
 11
3.275590551181102
 21
5.911417322834645
 31
0.0
  0
LINE
  5
373D
330
1E
100
AcDbEntity
  8
7
100
AcDbLine
 10
3.275590551181102
 20
5.911417322834645
 30
0.0
 11
3.278543307086614
 21
5.929133858267716
 31
0.0
  0
LINE
  5
373E
330
1E
100
AcDbEntity
  8
7
100
AcDbLine
 10
2.889763779527558
 20
5.423228346456692
 30
0.0
 11
2.970472440944881
 21
5.48523622047244
 31
0.0
  0
LINE
  5
373F
330
1E
100
AcDbEntity
  8
7
100
AcDbLine
 10
2.970472440944881
 20
5.48523622047244
 30
0.0
 11
3.045275590551181
 21
5.55511811023622
 31
0.0
  0
LINE
  5
3740
330
1E
100
AcDbEntity
  8
7
100
AcDbLine
 10
3.045275590551181
 20
5.55511811023622
 30
0.0
 11
3.113188976377952
 21
5.631889763779527
 31
0.0
  0
LINE
  5
3741
330
1E
100
AcDbEntity
  8
7
100
AcDbLine
 10
3.113188976377952
 20
5.631889763779527
 30
0.0
 11
3.172244094488188
 21
5.714566929133858
 31
0.0
  0
LINE
  5
3742
330
1E
100
AcDbEntity
  8
7
100
AcDbLine
 10
3.172244094488188
 20
5.714566929133858
 30
0.0
 11
3.224409448818897
 21
5.803149606299212
 31
0.0
  0
LINE
  5
3743
330
1E
100
AcDbEntity
  8
7
100
AcDbLine
 10
3.224409448818897
 20
5.803149606299212
 30
0.0
 11
3.266732283464566
 21
5.896653543307086
 31
0.0
  0
LINE
  5
3744
330
1E
100
AcDbEntity
  8
7
100
AcDbLine
 10
2.86023622047244
 20
5.404527559055117
 30
0.0
 11
2.876968503937007
 21
5.411417322834645
 31
0.0
  0
LINE
  5
3745
330
1E
100
AcDbEntity
  8
7
100
AcDbLine
 10
2.876968503937007
 20
5.411417322834645
 30
0.0
 11
2.889763779527558
 21
5.424212598425197
 31
0.0
  0
LINE
  5
3746
330
1E
100
AcDbEntity
  8
7
100
AcDbLine
 10
2.160433070866141
 20
5.248031496062991
 30
0.0
 11
2.251968503937007
 21
5.24015748031496
 31
0.0
  0
LINE
  5
3747
330
1E
100
AcDbEntity
  8
7
100
AcDbLine
 10
2.251968503937007
 20
5.24015748031496
 30
0.0
 11
2.342519685039369
 21
5.24015748031496
 31
0.0
  0
LINE
  5
3748
330
1E
100
AcDbEntity
  8
7
100
AcDbLine
 10
2.342519685039369
 20
5.24015748031496
 30
0.0
 11
2.434055118110236
 21
5.248031496062991
 31
0.0
  0
LINE
  5
3749
330
1E
100
AcDbEntity
  8
7
100
AcDbLine
 10
2.434055118110236
 20
5.248031496062991
 30
0.0
 11
2.523622047244094
 21
5.263779527559054
 31
0.0
  0
LINE
  5
374A
330
1E
100
AcDbEntity
  8
7
100
AcDbLine
 10
2.523622047244094
 20
5.263779527559054
 30
0.0
 11
2.612204724409448
 21
5.287401574803149
 31
0.0
  0
LINE
  5
374B
330
1E
100
AcDbEntity
  8
7
100
AcDbLine
 10
2.612204724409448
 20
5.287401574803149
 30
0.0
 11
2.697834645669291
 21
5.318897637795275
 31
0.0
  0
LINE
  5
374C
330
1E
100
AcDbEntity
  8
7
100
AcDbLine
 10
2.697834645669291
 20
5.318897637795275
 30
0.0
 11
2.780511811023622
 21
5.358267716535433
 31
0.0
  0
LINE
  5
374D
330
1E
100
AcDbEntity
  8
7
100
AcDbLine
 10
2.780511811023622
 20
5.358267716535433
 30
0.0
 11
2.86023622047244
 21
5.403543307086613
 31
0.0
  0
LINE
  5
374E
330
1E
100
AcDbEntity
  8
7
100
AcDbLine
 10
1.734251968503937
 20
5.403543307086613
 30
0.0
 11
1.813976377952755
 21
5.358267716535433
 31
0.0
  0
LINE
  5
374F
330
1E
100
AcDbEntity
  8
7
100
AcDbLine
 10
1.813976377952755
 20
5.358267716535433
 30
0.0
 11
1.896653543307086
 21
5.318897637795275
 31
0.0
  0
LINE
  5
3750
330
1E
100
AcDbEntity
  8
7
100
AcDbLine
 10
1.896653543307086
 20
5.318897637795275
 30
0.0
 11
1.982283464566929
 21
5.287401574803149
 31
0.0
  0
LINE
  5
3751
330
1E
100
AcDbEntity
  8
7
100
AcDbLine
 10
1.982283464566929
 20
5.287401574803149
 30
0.0
 11
2.070866141732283
 21
5.263779527559054
 31
0.0
  0
LINE
  5
3752
330
1E
100
AcDbEntity
  8
7
100
AcDbLine
 10
2.070866141732283
 20
5.263779527559054
 30
0.0
 11
2.160433070866141
 21
5.248031496062991
 31
0.0
  0
LINE
  5
3753
330
1E
100
AcDbEntity
  8
7
100
AcDbLine
 10
1.705708661417322
 20
5.424212598425197
 30
0.0
 11
1.718503937007874
 21
5.411417322834645
 31
0.0
  0
LINE
  5
3754
330
1E
100
AcDbEntity
  8
7
100
AcDbLine
 10
1.718503937007874
 20
5.411417322834645
 30
0.0
 11
1.73523622047244
 21
5.404527559055117
 31
0.0
  0
LINE
  5
3755
330
1E
100
AcDbEntity
  8
7
100
AcDbLine
 10
1.327755905511811
 20
5.896653543307086
 30
0.0
 11
1.37007874015748
 21
5.803149606299212
 31
0.0
  0
LINE
  5
3756
330
1E
100
AcDbEntity
  8
7
100
AcDbLine
 10
1.37007874015748
 20
5.803149606299212
 30
0.0
 11
1.422244094488188
 21
5.714566929133858
 31
0.0
  0
LINE
  5
3757
330
1E
100
AcDbEntity
  8
7
100
AcDbLine
 10
1.422244094488188
 20
5.714566929133858
 30
0.0
 11
1.481299212598425
 21
5.631889763779527
 31
0.0
  0
LINE
  5
3758
330
1E
100
AcDbEntity
  8
7
100
AcDbLine
 10
1.481299212598425
 20
5.631889763779527
 30
0.0
 11
1.549212598425196
 21
5.55511811023622
 31
0.0
  0
LINE
  5
3759
330
1E
100
AcDbEntity
  8
7
100
AcDbLine
 10
1.549212598425196
 20
5.55511811023622
 30
0.0
 11
1.624015748031496
 21
5.48523622047244
 31
0.0
  0
LINE
  5
375A
330
1E
100
AcDbEntity
  8
7
100
AcDbLine
 10
1.624015748031496
 20
5.48523622047244
 30
0.0
 11
1.704724409448818
 21
5.423228346456692
 31
0.0
  0
LINE
  5
375B
330
1E
100
AcDbEntity
  8
7
100
AcDbLine
 10
1.315944881889763
 20
5.929133858267716
 30
0.0
 11
1.318897637795275
 21
5.911417322834645
 31
0.0
  0
LINE
  5
375C
330
1E
100
AcDbEntity
  8
7
100
AcDbLine
 10
1.318897637795275
 20
5.911417322834645
 30
0.0
 11
1.328740157480315
 21
5.896653543307086
 31
0.0
  0
LINE
  5
375D
330
1E
100
AcDbEntity
  8
7
100
AcDbLine
 10
1.315944881889763
 20
6.635826771653543
 30
0.0
 11
1.285433070866141
 21
6.537401574803149
 31
0.0
  0
LINE
  5
375E
330
1E
100
AcDbEntity
  8
7
100
AcDbLine
 10
1.285433070866141
 20
6.537401574803149
 30
0.0
 11
1.265748031496062
 21
6.436023622047244
 31
0.0
  0
LINE
  5
375F
330
1E
100
AcDbEntity
  8
7
100
AcDbLine
 10
1.265748031496062
 20
6.436023622047244
 30
0.0
 11
1.254921259842519
 21
6.333661417322834
 31
0.0
  0
LINE
  5
3760
330
1E
100
AcDbEntity
  8
7
100
AcDbLine
 10
1.254921259842519
 20
6.333661417322834
 30
0.0
 11
1.254921259842519
 21
6.231299212598425
 31
0.0
  0
LINE
  5
3761
330
1E
100
AcDbEntity
  8
7
100
AcDbLine
 10
1.254921259842519
 20
6.231299212598425
 30
0.0
 11
1.265748031496062
 21
6.128937007874015
 31
0.0
  0
LINE
  5
3762
330
1E
100
AcDbEntity
  8
7
100
AcDbLine
 10
1.265748031496062
 20
6.128937007874015
 30
0.0
 11
1.285433070866141
 21
6.02755905511811
 31
0.0
  0
LINE
  5
3763
330
1E
100
AcDbEntity
  8
7
100
AcDbLine
 10
1.285433070866141
 20
6.02755905511811
 30
0.0
 11
1.315944881889763
 21
5.929133858267716
 31
0.0
  0
LINE
  5
3764
330
1E
100
AcDbEntity
  8
7
100
AcDbLine
 10
3.261811023622047
 20
5.965551181102362
 30
0.0
 11
3.286417322834645
 21
6.054133858267716
 31
0.0
  0
LINE
  5
3765
330
1E
100
AcDbEntity
  8
7
100
AcDbLine
 10
3.286417322834645
 20
6.054133858267716
 30
0.0
 11
3.302165354330708
 21
6.144685039370078
 31
0.0
  0
LINE
  5
3766
330
1E
100
AcDbEntity
  8
7
100
AcDbLine
 10
3.302165354330708
 20
6.144685039370078
 30
0.0
 11
3.311023622047243
 21
6.236220472440944
 31
0.0
  0
LINE
  5
3767
330
1E
100
AcDbEntity
  8
7
100
AcDbLine
 10
3.311023622047243
 20
6.236220472440944
 30
0.0
 11
3.311023622047243
 21
6.328740157480314
 31
0.0
  0
LINE
  5
3768
330
1E
100
AcDbEntity
  8
7
100
AcDbLine
 10
3.311023622047243
 20
6.328740157480314
 30
0.0
 11
3.302165354330708
 21
6.42027559055118
 31
0.0
  0
LINE
  5
3769
330
1E
100
AcDbEntity
  8
7
100
AcDbLine
 10
3.302165354330708
 20
6.42027559055118
 30
0.0
 11
3.286417322834645
 21
6.510826771653543
 31
0.0
  0
LINE
  5
376A
330
1E
100
AcDbEntity
  8
7
100
AcDbLine
 10
3.286417322834645
 20
6.510826771653543
 30
0.0
 11
3.261811023622047
 21
6.599409448818897
 31
0.0
  0
LINE
  5
376B
330
1E
100
AcDbEntity
  8
7
100
AcDbLine
 10
3.246062992125984
 20
6.000984251968503
 30
0.0
 11
3.250984251968503
 21
5.992125984251968
 31
0.0
  0
LINE
  5
376C
330
1E
100
AcDbEntity
  8
7
100
AcDbLine
 10
3.250984251968503
 20
5.992125984251968
 30
0.0
 11
3.261811023622047
 21
5.966535433070865
 31
0.0
  0
LINE
  5
376D
330
1E
100
AcDbEntity
  8
7
100
AcDbLine
 10
3.24507874015748
 20
6.000984251968503
 30
0.0
 11
3.26771653543307
 21
6.093503937007874
 31
0.0
  0
LINE
  5
376E
330
1E
100
AcDbEntity
  8
7
100
AcDbLine
 10
3.26771653543307
 20
6.093503937007874
 30
0.0
 11
3.281496062992125
 21
6.187007874015748
 31
0.0
  0
LINE
  5
376F
330
1E
100
AcDbEntity
  8
7
100
AcDbLine
 10
3.281496062992125
 20
6.187007874015748
 30
0.0
 11
3.286417322834645
 21
6.282480314960629
 31
0.0
  0
LINE
  5
3770
330
1E
100
AcDbEntity
  8
7
100
AcDbLine
 10
3.286417322834645
 20
6.282480314960629
 30
0.0
 11
3.281496062992125
 21
6.377952755905512
 31
0.0
  0
LINE
  5
3771
330
1E
100
AcDbEntity
  8
7
100
AcDbLine
 10
3.281496062992125
 20
6.377952755905512
 30
0.0
 11
3.26771653543307
 21
6.471456692913386
 31
0.0
  0
LINE
  5
3772
330
1E
100
AcDbEntity
  8
7
100
AcDbLine
 10
3.26771653543307
 20
6.471456692913386
 30
0.0
 11
3.24507874015748
 21
6.563976377952755
 31
0.0
  0
LINE
  5
3773
330
1E
100
AcDbEntity
  8
7
100
AcDbLine
 10
3.238188976377952
 20
6.002952755905512
 30
0.0
 11
3.244094488188976
 21
6.001968503937007
 31
0.0
  0
LINE
  5
3774
330
1E
100
AcDbEntity
  8
7
100
AcDbLine
 10
3.244094488188976
 20
6.001968503937007
 30
0.0
 11
3.246062992125984
 21
6.000984251968503
 31
0.0
  0
LINE
  5
3775
330
1E
100
AcDbEntity
  8
7
100
AcDbLine
 10
3.205708661417322
 20
5.999015748031496
 30
0.0
 11
3.216535433070866
 21
6.002952755905512
 31
0.0
  0
LINE
  5
3776
330
1E
100
AcDbEntity
  8
7
100
AcDbLine
 10
3.216535433070866
 20
6.002952755905512
 30
0.0
 11
3.229330708661417
 21
6.003937007874015
 31
0.0
  0
LINE
  5
3777
330
1E
100
AcDbEntity
  8
7
100
AcDbLine
 10
3.229330708661417
 20
6.003937007874015
 30
0.0
 11
3.238188976377952
 21
6.002952755905512
 31
0.0
  0
LINE
  5
3778
330
1E
100
AcDbEntity
  8
7
100
AcDbLine
 10
3.205708661417322
 20
5.999015748031496
 30
0.0
 11
3.229330708661417
 21
6.091535433070865
 31
0.0
  0
LINE
  5
3779
330
1E
100
AcDbEntity
  8
7
100
AcDbLine
 10
3.229330708661417
 20
6.091535433070865
 30
0.0
 11
3.244094488188976
 21
6.187007874015748
 31
0.0
  0
LINE
  5
377A
330
1E
100
AcDbEntity
  8
7
100
AcDbLine
 10
3.244094488188976
 20
6.187007874015748
 30
0.0
 11
3.249015748031495
 21
6.282480314960629
 31
0.0
  0
LINE
  5
377B
330
1E
100
AcDbEntity
  8
7
100
AcDbLine
 10
3.249015748031495
 20
6.282480314960629
 30
0.0
 11
3.244094488188976
 21
6.377952755905512
 31
0.0
  0
LINE
  5
377C
330
1E
100
AcDbEntity
  8
7
100
AcDbLine
 10
3.244094488188976
 20
6.377952755905512
 30
0.0
 11
3.229330708661417
 21
6.473425196850393
 31
0.0
  0
LINE
  5
377D
330
1E
100
AcDbEntity
  8
7
100
AcDbLine
 10
3.229330708661417
 20
6.473425196850393
 30
0.0
 11
3.205708661417322
 21
6.565944881889763
 31
0.0
  0
LINE
  5
377E
330
1E
100
AcDbEntity
  8
7
100
AcDbLine
 10
3.246062992125984
 20
6.56496062992126
 30
0.0
 11
3.243110236220472
 21
6.563976377952755
 31
0.0
  0
LINE
  5
377F
330
1E
100
AcDbEntity
  8
7
100
AcDbLine
 10
3.243110236220472
 20
6.563976377952755
 30
0.0
 11
3.237204724409448
 21
6.562007874015748
 31
0.0
  0
LINE
  5
3780
330
1E
100
AcDbEntity
  8
7
100
AcDbLine
 10
3.237204724409448
 20
6.562007874015748
 30
0.0
 11
3.227362204724409
 21
6.562007874015748
 31
0.0
  0
LINE
  5
3781
330
1E
100
AcDbEntity
  8
7
100
AcDbLine
 10
3.227362204724409
 20
6.562007874015748
 30
0.0
 11
3.216535433070866
 21
6.562992125984251
 31
0.0
  0
LINE
  5
3782
330
1E
100
AcDbEntity
  8
7
100
AcDbLine
 10
3.216535433070866
 20
6.562992125984251
 30
0.0
 11
3.205708661417322
 21
6.565944881889763
 31
0.0
  0
LINE
  5
3783
330
1E
100
AcDbEntity
  8
7
100
AcDbLine
 10
3.166338582677165
 20
6.673228346456692
 30
0.0
 11
3.158464566929133
 21
6.648622047244094
 31
0.0
  0
LINE
  5
3784
330
1E
100
AcDbEntity
  8
7
100
AcDbLine
 10
3.158464566929133
 20
6.648622047244094
 30
0.0
 11
3.158464566929133
 21
6.624015748031496
 31
0.0
  0
LINE
  5
3785
330
1E
100
AcDbEntity
  8
7
100
AcDbLine
 10
3.158464566929133
 20
6.624015748031496
 30
0.0
 11
3.168307086614173
 21
6.599409448818897
 31
0.0
  0
LINE
  5
3786
330
1E
100
AcDbEntity
  8
7
100
AcDbLine
 10
3.168307086614173
 20
6.599409448818897
 30
0.0
 11
3.184055118110236
 21
6.580708661417323
 31
0.0
  0
LINE
  5
3787
330
1E
100
AcDbEntity
  8
7
100
AcDbLine
 10
3.184055118110236
 20
6.580708661417323
 30
0.0
 11
3.206692913385826
 21
6.567913385826771
 31
0.0
  0
LINE
  5
3788
330
1E
100
AcDbEntity
  8
7
100
AcDbLine
 10
3.253937007874015
 20
6.679133858267716
 30
0.0
 11
3.234251968503937
 21
6.684055118110236
 31
0.0
  0
LINE
  5
3789
330
1E
100
AcDbEntity
  8
7
100
AcDbLine
 10
3.234251968503937
 20
6.684055118110236
 30
0.0
 11
3.214566929133858
 21
6.68011811023622
 31
0.0
  0
LINE
  5
378A
330
1E
100
AcDbEntity
  8
7
100
AcDbLine
 10
3.214566929133858
 20
6.68011811023622
 30
0.0
 11
3.197834645669291
 21
6.668307086614173
 31
0.0
  0
LINE
  5
378B
330
1E
100
AcDbEntity
  8
7
100
AcDbLine
 10
3.197834645669291
 20
6.668307086614173
 30
0.0
 11
3.187992125984251
 21
6.651574803149606
 31
0.0
  0
LINE
  5
378C
330
1E
100
AcDbEntity
  8
7
100
AcDbLine
 10
3.187992125984251
 20
6.651574803149606
 30
0.0
 11
3.186023622047243
 21
6.630905511811023
 31
0.0
  0
LINE
  5
378D
330
1E
100
AcDbEntity
  8
7
100
AcDbLine
 10
3.186023622047243
 20
6.630905511811023
 30
0.0
 11
3.193897637795275
 21
6.612204724409449
 31
0.0
  0
LINE
  5
378E
330
1E
100
AcDbEntity
  8
7
100
AcDbLine
 10
3.193897637795275
 20
6.612204724409449
 30
0.0
 11
3.20767716535433
 21
6.598425196850393
 31
0.0
  0
LINE
  5
378F
330
1E
100
AcDbEntity
  8
7
100
AcDbLine
 10
3.20767716535433
 20
6.598425196850393
 30
0.0
 11
3.227362204724409
 21
6.591535433070865
 31
0.0
  0
LINE
  5
3790
330
1E
100
AcDbEntity
  8
7
100
AcDbLine
 10
3.227362204724409
 20
6.591535433070865
 30
0.0
 11
3.247047244094487
 21
6.593503937007874
 31
0.0
  0
LINE
  5
3791
330
1E
100
AcDbEntity
  8
7
100
AcDbLine
 10
3.247047244094487
 20
6.593503937007874
 30
0.0
 11
3.263779527559055
 21
6.604330708661417
 31
0.0
  0
LINE
  5
3792
330
1E
100
AcDbEntity
  8
7
100
AcDbLine
 10
3.263779527559055
 20
6.604330708661417
 30
0.0
 11
3.275590551181102
 21
6.621062992125984
 31
0.0
  0
LINE
  5
3793
330
1E
100
AcDbEntity
  8
7
100
AcDbLine
 10
3.261811023622047
 20
6.599409448818897
 30
0.0
 11
3.26279527559055
 21
6.601377952755905
 31
0.0
  0
LINE
  5
3794
330
1E
100
AcDbEntity
  8
7
100
AcDbLine
 10
3.26279527559055
 20
6.601377952755905
 30
0.0
 11
3.265748031496062
 21
6.603346456692912
 31
0.0
  0
LINE
  5
3795
330
1E
100
AcDbEntity
  8
7
100
AcDbLine
 10
3.265748031496062
 20
6.603346456692912
 30
0.0
 11
3.268700787401574
 21
6.607283464566928
 31
0.0
  0
LINE
  5
3796
330
1E
100
AcDbEntity
  8
7
100
AcDbLine
 10
3.268700787401574
 20
6.607283464566928
 30
0.0
 11
3.27263779527559
 21
6.612204724409449
 31
0.0
  0
LINE
  5
3797
330
1E
100
AcDbEntity
  8
7
100
AcDbLine
 10
3.27263779527559
 20
6.612204724409449
 30
0.0
 11
3.276574803149606
 21
6.62007874015748
 31
0.0
  0
LINE
  5
3798
330
1E
100
AcDbEntity
  8
7
100
AcDbLine
 10
3.261811023622047
 20
6.599409448818897
 30
0.0
 11
3.259842519685039
 21
6.59251968503937
 31
0.0
  0
LINE
  5
3799
330
1E
100
AcDbEntity
  8
7
100
AcDbLine
 10
3.259842519685039
 20
6.59251968503937
 30
0.0
 11
3.247047244094487
 21
6.566929133858267
 31
0.0
  0
LINE
  5
379A
330
1E
100
AcDbEntity
  8
7
100
AcDbLine
 10
3.247047244094487
 20
6.566929133858267
 30
0.0
 11
3.246062992125984
 21
6.56496062992126
 31
0.0
  0
LINE
  5
379B
330
1E
100
AcDbEntity
  8
7
100
AcDbLine
 10
1.410433070866141
 20
6.580708661417323
 30
0.0
 11
1.426181102362204
 21
6.599409448818897
 31
0.0
  0
LINE
  5
379C
330
1E
100
AcDbEntity
  8
7
100
AcDbLine
 10
1.426181102362204
 20
6.599409448818897
 30
0.0
 11
1.436023622047243
 21
6.624015748031496
 31
0.0
  0
LINE
  5
379D
330
1E
100
AcDbEntity
  8
7
100
AcDbLine
 10
1.436023622047243
 20
6.624015748031496
 30
0.0
 11
1.436023622047243
 21
6.648622047244094
 31
0.0
  0
LINE
  5
379E
330
1E
100
AcDbEntity
  8
7
100
AcDbLine
 10
1.436023622047243
 20
6.648622047244094
 30
0.0
 11
1.428149606299212
 21
6.673228346456692
 31
0.0
  0
LINE
  5
379F
330
1E
100
AcDbEntity
  8
7
100
AcDbLine
 10
1.388779527559055
 20
6.565944881889763
 30
0.0
 11
1.377952755905511
 21
6.562992125984251
 31
0.0
  0
LINE
  5
37A0
330
1E
100
AcDbEntity
  8
7
100
AcDbLine
 10
1.377952755905511
 20
6.562992125984251
 30
0.0
 11
1.36515748031496
 21
6.562007874015748
 31
0.0
  0
LINE
  5
37A1
330
1E
100
AcDbEntity
  8
7
100
AcDbLine
 10
1.36515748031496
 20
6.562007874015748
 30
0.0
 11
1.356299212598425
 21
6.562992125984251
 31
0.0
  0
LINE
  5
37A2
330
1E
100
AcDbEntity
  8
7
100
AcDbLine
 10
1.356299212598425
 20
6.562992125984251
 30
0.0
 11
1.351377952755905
 21
6.563976377952755
 31
0.0
  0
LINE
  5
37A3
330
1E
100
AcDbEntity
  8
7
100
AcDbLine
 10
1.351377952755905
 20
6.563976377952755
 30
0.0
 11
1.349409448818897
 21
6.56496062992126
 31
0.0
  0
LINE
  5
37A4
330
1E
100
AcDbEntity
  8
7
100
AcDbLine
 10
1.349409448818897
 20
6.56496062992126
 30
0.0
 11
1.343503937007874
 21
6.573818897637795
 31
0.0
  0
LINE
  5
37A5
330
1E
100
AcDbEntity
  8
7
100
AcDbLine
 10
1.343503937007874
 20
6.573818897637795
 30
0.0
 11
1.33267716535433
 21
6.599409448818897
 31
0.0
  0
LINE
  5
37A6
330
1E
100
AcDbEntity
  8
7
100
AcDbLine
 10
1.327755905511811
 20
6.605314960629921
 30
0.0
 11
1.330708661417322
 21
6.601377952755905
 31
0.0
  0
LINE
  5
37A7
330
1E
100
AcDbEntity
  8
7
100
AcDbLine
 10
1.330708661417322
 20
6.601377952755905
 30
0.0
 11
1.33267716535433
 21
6.599409448818897
 31
0.0
  0
LINE
  5
37A8
330
1E
100
AcDbEntity
  8
7
100
AcDbLine
 10
1.318897637795275
 20
6.62007874015748
 30
0.0
 11
1.319881889763779
 21
6.617125984251968
 31
0.0
  0
LINE
  5
37A9
330
1E
100
AcDbEntity
  8
7
100
AcDbLine
 10
1.319881889763779
 20
6.617125984251968
 30
0.0
 11
1.323818897637795
 21
6.61023622047244
 31
0.0
  0
LINE
  5
37AA
330
1E
100
AcDbEntity
  8
7
100
AcDbLine
 10
1.323818897637795
 20
6.61023622047244
 30
0.0
 11
1.327755905511811
 21
6.605314960629921
 31
0.0
  0
LINE
  5
37AB
330
1E
100
AcDbEntity
  8
7
100
AcDbLine
 10
1.330708661417322
 20
6.604330708661417
 30
0.0
 11
1.347440944881889
 21
6.593503937007874
 31
0.0
  0
LINE
  5
37AC
330
1E
100
AcDbEntity
  8
7
100
AcDbLine
 10
1.347440944881889
 20
6.593503937007874
 30
0.0
 11
1.367125984251968
 21
6.591535433070865
 31
0.0
  0
LINE
  5
37AD
330
1E
100
AcDbEntity
  8
7
100
AcDbLine
 10
1.367125984251968
 20
6.591535433070865
 30
0.0
 11
1.386811023622047
 21
6.598425196850393
 31
0.0
  0
LINE
  5
37AE
330
1E
100
AcDbEntity
  8
7
100
AcDbLine
 10
1.386811023622047
 20
6.598425196850393
 30
0.0
 11
1.400590551181102
 21
6.612204724409449
 31
0.0
  0
LINE
  5
37AF
330
1E
100
AcDbEntity
  8
7
100
AcDbLine
 10
1.400590551181102
 20
6.612204724409449
 30
0.0
 11
1.408464566929133
 21
6.630905511811023
 31
0.0
  0
LINE
  5
37B0
330
1E
100
AcDbEntity
  8
7
100
AcDbLine
 10
1.408464566929133
 20
6.630905511811023
 30
0.0
 11
1.406496062992125
 21
6.651574803149606
 31
0.0
  0
LINE
  5
37B1
330
1E
100
AcDbEntity
  8
7
100
AcDbLine
 10
1.406496062992125
 20
6.651574803149606
 30
0.0
 11
1.396653543307086
 21
6.668307086614173
 31
0.0
  0
LINE
  5
37B2
330
1E
100
AcDbEntity
  8
7
100
AcDbLine
 10
1.396653543307086
 20
6.668307086614173
 30
0.0
 11
1.379921259842519
 21
6.68011811023622
 31
0.0
  0
LINE
  5
37B3
330
1E
100
AcDbEntity
  8
7
100
AcDbLine
 10
1.379921259842519
 20
6.68011811023622
 30
0.0
 11
1.36023622047244
 21
6.684055118110236
 31
0.0
  0
LINE
  5
37B4
330
1E
100
AcDbEntity
  8
7
100
AcDbLine
 10
1.36023622047244
 20
6.684055118110236
 30
0.0
 11
1.340551181102362
 21
6.679133858267716
 31
0.0
  0
LINE
  5
37B5
330
1E
100
AcDbEntity
  8
7
100
AcDbLine
 10
3.279527559055118
 20
6.635826771653543
 30
0.0
 11
3.27755905511811
 21
6.649606299212598
 31
0.0
  0
LINE
  5
37B6
330
1E
100
AcDbEntity
  8
7
100
AcDbLine
 10
3.27755905511811
 20
6.649606299212598
 30
0.0
 11
3.271653543307086
 21
6.663385826771653
 31
0.0
  0
LINE
  5
37B7
330
1E
100
AcDbEntity
  8
7
100
AcDbLine
 10
3.271653543307086
 20
6.663385826771653
 30
0.0
 11
3.266732283464566
 21
6.669291338582676
 31
0.0
  0
LINE
  5
37B8
330
1E
100
AcDbEntity
  8
7
100
AcDbLine
 10
3.278543307086614
 20
6.636811023622047
 30
0.0
 11
3.275590551181102
 21
6.654527559055117
 31
0.0
  0
LINE
  5
37B9
330
1E
100
AcDbEntity
  8
7
100
AcDbLine
 10
3.275590551181102
 20
6.654527559055117
 30
0.0
 11
3.265748031496062
 21
6.669291338582676
 31
0.0
  0
LINE
  5
37BA
330
1E
100
AcDbEntity
  8
7
100
AcDbLine
 10
2.889763779527558
 20
7.141732283464566
 30
0.0
 11
2.880905511811023
 21
7.151574803149606
 31
0.0
  0
LINE
  5
37BB
330
1E
100
AcDbEntity
  8
7
100
AcDbLine
 10
2.880905511811023
 20
7.151574803149606
 30
0.0
 11
2.867125984251968
 21
7.159448818897637
 31
0.0
  0
LINE
  5
37BC
330
1E
100
AcDbEntity
  8
7
100
AcDbLine
 10
2.867125984251968
 20
7.159448818897637
 30
0.0
 11
2.86023622047244
 21
7.161417322834645
 31
0.0
  0
LINE
  5
37BD
330
1E
100
AcDbEntity
  8
7
100
AcDbLine
 10
2.889763779527558
 20
7.140748031496062
 30
0.0
 11
2.876968503937007
 21
7.153543307086613
 31
0.0
  0
LINE
  5
37BE
330
1E
100
AcDbEntity
  8
7
100
AcDbLine
 10
2.876968503937007
 20
7.153543307086613
 30
0.0
 11
2.86023622047244
 21
7.160433070866141
 31
0.0
  0
LINE
  5
37BF
330
1E
100
AcDbEntity
  8
7
100
AcDbLine
 10
1.734251968503937
 20
7.161417322834645
 30
0.0
 11
1.721456692913385
 21
7.157480314960629
 31
0.0
  0
LINE
  5
37C0
330
1E
100
AcDbEntity
  8
7
100
AcDbLine
 10
1.721456692913385
 20
7.157480314960629
 30
0.0
 11
1.709645669291338
 21
7.14763779527559
 31
0.0
  0
LINE
  5
37C1
330
1E
100
AcDbEntity
  8
7
100
AcDbLine
 10
1.709645669291338
 20
7.14763779527559
 30
0.0
 11
1.704724409448818
 21
7.141732283464566
 31
0.0
  0
LINE
  5
37C2
330
1E
100
AcDbEntity
  8
7
100
AcDbLine
 10
1.73523622047244
 20
7.160433070866141
 30
0.0
 11
1.718503937007874
 21
7.153543307086613
 31
0.0
  0
LINE
  5
37C3
330
1E
100
AcDbEntity
  8
7
100
AcDbLine
 10
1.718503937007874
 20
7.153543307086613
 30
0.0
 11
1.705708661417322
 21
7.140748031496062
 31
0.0
  0
LINE
  5
37C4
330
1E
100
AcDbEntity
  8
7
100
AcDbLine
 10
1.327755905511811
 20
6.669291338582676
 30
0.0
 11
1.319881889763779
 21
6.658464566929133
 31
0.0
  0
LINE
  5
37C5
330
1E
100
AcDbEntity
  8
7
100
AcDbLine
 10
1.319881889763779
 20
6.658464566929133
 30
0.0
 11
1.315944881889763
 21
6.64271653543307
 31
0.0
  0
LINE
  5
37C6
330
1E
100
AcDbEntity
  8
7
100
AcDbLine
 10
1.315944881889763
 20
6.64271653543307
 30
0.0
 11
1.314960629921259
 21
6.635826771653543
 31
0.0
  0
LINE
  5
37C7
330
1E
100
AcDbEntity
  8
7
100
AcDbLine
 10
1.328740157480315
 20
6.669291338582676
 30
0.0
 11
1.318897637795275
 21
6.654527559055117
 31
0.0
  0
LINE
  5
37C8
330
1E
100
AcDbEntity
  8
7
100
AcDbLine
 10
1.318897637795275
 20
6.654527559055117
 30
0.0
 11
1.315944881889763
 21
6.636811023622047
 31
0.0
  0
LINE
  5
37C9
330
1E
100
AcDbEntity
  8
7
100
AcDbLine
 10
1.698818897637795
 20
7.125984251968503
 30
0.0
 11
1.622047244094488
 21
7.066929133858267
 31
0.0
  0
LINE
  5
37CA
330
1E
100
AcDbEntity
  8
7
100
AcDbLine
 10
1.622047244094488
 20
7.066929133858267
 30
0.0
 11
1.552165354330708
 21
7.0
 31
0.0
  0
LINE
  5
37CB
330
1E
100
AcDbEntity
  8
7
100
AcDbLine
 10
1.552165354330708
 20
7.0
 30
0.0
 11
1.488188976377952
 21
6.927165354330708
 31
0.0
  0
LINE
  5
37CC
330
1E
100
AcDbEntity
  8
7
100
AcDbLine
 10
1.488188976377952
 20
6.927165354330708
 30
0.0
 11
1.432086614173228
 21
6.849409448818897
 31
0.0
  0
LINE
  5
37CD
330
1E
100
AcDbEntity
  8
7
100
AcDbLine
 10
1.432086614173228
 20
6.849409448818897
 30
0.0
 11
1.382874015748031
 21
6.765748031496062
 31
0.0
  0
LINE
  5
37CE
330
1E
100
AcDbEntity
  8
7
100
AcDbLine
 10
1.382874015748031
 20
6.765748031496062
 30
0.0
 11
1.341535433070866
 21
6.678149606299212
 31
0.0
  0
LINE
  5
37CF
330
1E
100
AcDbEntity
  8
7
100
AcDbLine
 10
1.36515748031496
 20
6.685039370078739
 30
0.0
 11
1.363188976377952
 21
6.685039370078739
 31
0.0
  0
LINE
  5
37D0
330
1E
100
AcDbEntity
  8
7
100
AcDbLine
 10
1.363188976377952
 20
6.685039370078739
 30
0.0
 11
1.36023622047244
 21
6.684055118110236
 31
0.0
  0
LINE
  5
37D1
330
1E
100
AcDbEntity
  8
7
100
AcDbLine
 10
1.36023622047244
 20
6.684055118110236
 30
0.0
 11
1.355314960629921
 21
6.684055118110236
 31
0.0
  0
LINE
  5
37D2
330
1E
100
AcDbEntity
  8
7
100
AcDbLine
 10
1.355314960629921
 20
6.684055118110236
 30
0.0
 11
1.348425196850393
 21
6.682086614173228
 31
0.0
  0
LINE
  5
37D3
330
1E
100
AcDbEntity
  8
7
100
AcDbLine
 10
1.348425196850393
 20
6.682086614173228
 30
0.0
 11
1.340551181102362
 21
6.679133858267716
 31
0.0
  0
LINE
  5
37D4
330
1E
100
AcDbEntity
  8
7
100
AcDbLine
 10
1.724409448818897
 20
7.043307086614173
 30
0.0
 11
1.75
 21
7.040354330708661
 31
0.0
  0
LINE
  5
37D5
330
1E
100
AcDbEntity
  8
7
100
AcDbLine
 10
1.75
 20
7.040354330708661
 30
0.0
 11
1.774606299212598
 21
7.046259842519685
 31
0.0
  0
LINE
  5
37D6
330
1E
100
AcDbEntity
  8
7
100
AcDbLine
 10
1.774606299212598
 20
7.046259842519685
 30
0.0
 11
1.795275590551181
 21
7.061023622047244
 31
0.0
  0
LINE
  5
37D7
330
1E
100
AcDbEntity
  8
7
100
AcDbLine
 10
1.795275590551181
 20
7.061023622047244
 30
0.0
 11
1.811023622047244
 21
7.080708661417323
 31
0.0
  0
LINE
  5
37D8
330
1E
100
AcDbEntity
  8
7
100
AcDbLine
 10
1.811023622047244
 20
7.080708661417323
 30
0.0
 11
1.817913385826771
 21
7.105314960629921
 31
0.0
  0
LINE
  5
37D9
330
1E
100
AcDbEntity
  8
7
100
AcDbLine
 10
1.697834645669291
 20
7.126968503937007
 30
0.0
 11
1.697834645669291
 21
7.124015748031496
 31
0.0
  0
LINE
  5
37DA
330
1E
100
AcDbEntity
  8
7
100
AcDbLine
 10
1.697834645669291
 20
7.124015748031496
 30
0.0
 11
1.696850393700787
 21
7.116141732283464
 31
0.0
  0
LINE
  5
37DB
330
1E
100
AcDbEntity
  8
7
100
AcDbLine
 10
1.696850393700787
 20
7.116141732283464
 30
0.0
 11
1.696850393700787
 21
7.109251968503937
 31
0.0
  0
LINE
  5
37DC
330
1E
100
AcDbEntity
  8
7
100
AcDbLine
 10
1.696850393700787
 20
7.109251968503937
 30
0.0
 11
1.697834645669291
 21
7.104330708661417
 31
0.0
  0
LINE
  5
37DD
330
1E
100
AcDbEntity
  8
7
100
AcDbLine
 10
1.697834645669291
 20
7.104330708661417
 30
0.0
 11
1.697834645669291
 21
7.102362204724409
 31
0.0
  0
LINE
  5
37DE
330
1E
100
AcDbEntity
  8
7
100
AcDbLine
 10
1.721456692913385
 20
7.074803149606299
 30
0.0
 11
1.741141732283464
 21
7.068897637795275
 31
0.0
  0
LINE
  5
37DF
330
1E
100
AcDbEntity
  8
7
100
AcDbLine
 10
1.741141732283464
 20
7.068897637795275
 30
0.0
 11
1.760826771653543
 21
7.071850393700787
 31
0.0
  0
LINE
  5
37E0
330
1E
100
AcDbEntity
  8
7
100
AcDbLine
 10
1.760826771653543
 20
7.071850393700787
 30
0.0
 11
1.77755905511811
 21
7.08267716535433
 31
0.0
  0
LINE
  5
37E1
330
1E
100
AcDbEntity
  8
7
100
AcDbLine
 10
1.77755905511811
 20
7.08267716535433
 30
0.0
 11
1.788385826771653
 21
7.100393700787401
 31
0.0
  0
LINE
  5
37E2
330
1E
100
AcDbEntity
  8
7
100
AcDbLine
 10
1.788385826771653
 20
7.100393700787401
 30
0.0
 11
1.790354330708661
 21
7.12007874015748
 31
0.0
  0
LINE
  5
37E3
330
1E
100
AcDbEntity
  8
7
100
AcDbLine
 10
1.790354330708661
 20
7.12007874015748
 30
0.0
 11
1.783464566929133
 21
7.139763779527559
 31
0.0
  0
LINE
  5
37E4
330
1E
100
AcDbEntity
  8
7
100
AcDbLine
 10
1.783464566929133
 20
7.139763779527559
 30
0.0
 11
1.769685039370078
 21
7.153543307086613
 31
0.0
  0
LINE
  5
37E5
330
1E
100
AcDbEntity
  8
7
100
AcDbLine
 10
1.769685039370078
 20
7.153543307086613
 30
0.0
 11
1.750984251968503
 21
7.160433070866141
 31
0.0
  0
LINE
  5
37E6
330
1E
100
AcDbEntity
  8
7
100
AcDbLine
 10
1.698818897637795
 20
7.126968503937007
 30
0.0
 11
1.698818897637795
 21
7.106299212598425
 31
0.0
  0
LINE
  5
37E7
330
1E
100
AcDbEntity
  8
7
100
AcDbLine
 10
1.698818897637795
 20
7.106299212598425
 30
0.0
 11
1.706692913385826
 21
7.088582677165354
 31
0.0
  0
LINE
  5
37E8
330
1E
100
AcDbEntity
  8
7
100
AcDbLine
 10
1.706692913385826
 20
7.088582677165354
 30
0.0
 11
1.721456692913385
 21
7.074803149606299
 31
0.0
  0
LINE
  5
37E9
330
1E
100
AcDbEntity
  8
7
100
AcDbLine
 10
2.297244094488188
 20
7.316929133858267
 30
0.0
 11
2.201771653543306
 21
7.312007874015748
 31
0.0
  0
LINE
  5
37EA
330
1E
100
AcDbEntity
  8
7
100
AcDbLine
 10
2.201771653543306
 20
7.312007874015748
 30
0.0
 11
2.106299212598425
 21
7.299212598425196
 31
0.0
  0
LINE
  5
37EB
330
1E
100
AcDbEntity
  8
7
100
AcDbLine
 10
2.106299212598425
 20
7.299212598425196
 30
0.0
 11
2.012795275590551
 21
7.27755905511811
 31
0.0
  0
LINE
  5
37EC
330
1E
100
AcDbEntity
  8
7
100
AcDbLine
 10
2.012795275590551
 20
7.27755905511811
 30
0.0
 11
1.922244094488188
 21
7.247047244094487
 31
0.0
  0
LINE
  5
37ED
330
1E
100
AcDbEntity
  8
7
100
AcDbLine
 10
1.922244094488188
 20
7.247047244094487
 30
0.0
 11
1.834645669291338
 21
7.20767716535433
 31
0.0
  0
LINE
  5
37EE
330
1E
100
AcDbEntity
  8
7
100
AcDbLine
 10
1.834645669291338
 20
7.20767716535433
 30
0.0
 11
1.750984251968503
 21
7.160433070866141
 31
0.0
  0
LINE
  5
37EF
330
1E
100
AcDbEntity
  8
7
100
AcDbLine
 10
2.843503937007874
 20
7.160433070866141
 30
0.0
 11
2.759842519685039
 21
7.20767716535433
 31
0.0
  0
LINE
  5
37F0
330
1E
100
AcDbEntity
  8
7
100
AcDbLine
 10
2.759842519685039
 20
7.20767716535433
 30
0.0
 11
2.672244094488188
 21
7.247047244094487
 31
0.0
  0
LINE
  5
37F1
330
1E
100
AcDbEntity
  8
7
100
AcDbLine
 10
2.672244094488188
 20
7.247047244094487
 30
0.0
 11
2.581692913385826
 21
7.27755905511811
 31
0.0
  0
LINE
  5
37F2
330
1E
100
AcDbEntity
  8
7
100
AcDbLine
 10
2.581692913385826
 20
7.27755905511811
 30
0.0
 11
2.488188976377952
 21
7.299212598425196
 31
0.0
  0
LINE
  5
37F3
330
1E
100
AcDbEntity
  8
7
100
AcDbLine
 10
2.488188976377952
 20
7.299212598425196
 30
0.0
 11
2.39271653543307
 21
7.312007874015748
 31
0.0
  0
LINE
  5
37F4
330
1E
100
AcDbEntity
  8
7
100
AcDbLine
 10
2.39271653543307
 20
7.312007874015748
 30
0.0
 11
2.297244094488188
 21
7.316929133858267
 31
0.0
  0
LINE
  5
37F5
330
1E
100
AcDbEntity
  8
7
100
AcDbLine
 10
1.773622047244094
 20
7.15255905511811
 30
0.0
 11
1.77263779527559
 21
7.153543307086613
 31
0.0
  0
LINE
  5
37F6
330
1E
100
AcDbEntity
  8
7
100
AcDbLine
 10
1.77263779527559
 20
7.153543307086613
 30
0.0
 11
1.769685039370078
 21
7.155511811023622
 31
0.0
  0
LINE
  5
37F7
330
1E
100
AcDbEntity
  8
7
100
AcDbLine
 10
1.769685039370078
 20
7.155511811023622
 30
0.0
 11
1.764763779527559
 21
7.157480314960629
 31
0.0
  0
LINE
  5
37F8
330
1E
100
AcDbEntity
  8
7
100
AcDbLine
 10
1.764763779527559
 20
7.157480314960629
 30
0.0
 11
1.758858267716535
 21
7.160433070866141
 31
0.0
  0
LINE
  5
37F9
330
1E
100
AcDbEntity
  8
7
100
AcDbLine
 10
1.758858267716535
 20
7.160433070866141
 30
0.0
 11
1.750984251968503
 21
7.162401574803149
 31
0.0
  0
LINE
  5
37FA
330
1E
100
AcDbEntity
  8
7
100
AcDbLine
 10
2.77755905511811
 20
7.105314960629921
 30
0.0
 11
2.784448818897637
 21
7.080708661417323
 31
0.0
  0
LINE
  5
37FB
330
1E
100
AcDbEntity
  8
7
100
AcDbLine
 10
2.784448818897637
 20
7.080708661417323
 30
0.0
 11
2.8001968503937
 21
7.061023622047244
 31
0.0
  0
LINE
  5
37FC
330
1E
100
AcDbEntity
  8
7
100
AcDbLine
 10
2.8001968503937
 20
7.061023622047244
 30
0.0
 11
2.820866141732283
 21
7.046259842519685
 31
0.0
  0
LINE
  5
37FD
330
1E
100
AcDbEntity
  8
7
100
AcDbLine
 10
2.820866141732283
 20
7.046259842519685
 30
0.0
 11
2.845472440944881
 21
7.040354330708661
 31
0.0
  0
LINE
  5
37FE
330
1E
100
AcDbEntity
  8
7
100
AcDbLine
 10
2.845472440944881
 20
7.040354330708661
 30
0.0
 11
2.871062992125984
 21
7.043307086614173
 31
0.0
  0
LINE
  5
37FF
330
1E
100
AcDbEntity
  8
7
100
AcDbLine
 10
2.844488188976377
 20
7.162401574803149
 30
0.0
 11
2.840551181102362
 21
7.161417322834645
 31
0.0
  0
LINE
  5
3800
330
1E
100
AcDbEntity
  8
7
100
AcDbLine
 10
2.840551181102362
 20
7.161417322834645
 30
0.0
 11
2.83267716535433
 21
7.159448818897637
 31
0.0
  0
LINE
  5
3801
330
1E
100
AcDbEntity
  8
7
100
AcDbLine
 10
2.83267716535433
 20
7.159448818897637
 30
0.0
 11
2.826771653543307
 21
7.156496062992125
 31
0.0
  0
LINE
  5
3802
330
1E
100
AcDbEntity
  8
7
100
AcDbLine
 10
2.826771653543307
 20
7.156496062992125
 30
0.0
 11
2.822834645669291
 21
7.153543307086613
 31
0.0
  0
LINE
  5
3803
330
1E
100
AcDbEntity
  8
7
100
AcDbLine
 10
2.822834645669291
 20
7.153543307086613
 30
0.0
 11
2.820866141732283
 21
7.15255905511811
 31
0.0
  0
LINE
  5
3804
330
1E
100
AcDbEntity
  8
7
100
AcDbLine
 10
2.844488188976377
 20
7.160433070866141
 30
0.0
 11
2.825787401574803
 21
7.153543307086613
 31
0.0
  0
LINE
  5
3805
330
1E
100
AcDbEntity
  8
7
100
AcDbLine
 10
2.825787401574803
 20
7.153543307086613
 30
0.0
 11
2.812007874015748
 21
7.139763779527559
 31
0.0
  0
LINE
  5
3806
330
1E
100
AcDbEntity
  8
7
100
AcDbLine
 10
2.812007874015748
 20
7.139763779527559
 30
0.0
 11
2.80511811023622
 21
7.12007874015748
 31
0.0
  0
LINE
  5
3807
330
1E
100
AcDbEntity
  8
7
100
AcDbLine
 10
2.80511811023622
 20
7.12007874015748
 30
0.0
 11
2.807086614173228
 21
7.100393700787401
 31
0.0
  0
LINE
  5
3808
330
1E
100
AcDbEntity
  8
7
100
AcDbLine
 10
2.807086614173228
 20
7.100393700787401
 30
0.0
 11
2.817913385826771
 21
7.08267716535433
 31
0.0
  0
LINE
  5
3809
330
1E
100
AcDbEntity
  8
7
100
AcDbLine
 10
2.817913385826771
 20
7.08267716535433
 30
0.0
 11
2.834645669291338
 21
7.071850393700787
 31
0.0
  0
LINE
  5
380A
330
1E
100
AcDbEntity
  8
7
100
AcDbLine
 10
2.834645669291338
 20
7.071850393700787
 30
0.0
 11
2.854330708661417
 21
7.068897637795275
 31
0.0
  0
LINE
  5
380B
330
1E
100
AcDbEntity
  8
7
100
AcDbLine
 10
2.854330708661417
 20
7.068897637795275
 30
0.0
 11
2.874015748031495
 21
7.074803149606299
 31
0.0
  0
LINE
  5
380C
330
1E
100
AcDbEntity
  8
7
100
AcDbLine
 10
2.874015748031495
 20
7.074803149606299
 30
0.0
 11
2.888779527559055
 21
7.088582677165354
 31
0.0
  0
LINE
  5
380D
330
1E
100
AcDbEntity
  8
7
100
AcDbLine
 10
2.888779527559055
 20
7.088582677165354
 30
0.0
 11
2.896653543307086
 21
7.106299212598425
 31
0.0
  0
LINE
  5
380E
330
1E
100
AcDbEntity
  8
7
100
AcDbLine
 10
2.896653543307086
 20
7.106299212598425
 30
0.0
 11
2.896653543307086
 21
7.126968503937007
 31
0.0
  0
LINE
  5
380F
330
1E
100
AcDbEntity
  8
7
100
AcDbLine
 10
3.252952755905511
 20
6.678149606299212
 30
0.0
 11
3.211614173228346
 21
6.765748031496062
 31
0.0
  0
LINE
  5
3810
330
1E
100
AcDbEntity
  8
7
100
AcDbLine
 10
3.211614173228346
 20
6.765748031496062
 30
0.0
 11
3.162401574803149
 21
6.849409448818897
 31
0.0
  0
LINE
  5
3811
330
1E
100
AcDbEntity
  8
7
100
AcDbLine
 10
3.162401574803149
 20
6.849409448818897
 30
0.0
 11
3.106299212598425
 21
6.927165354330708
 31
0.0
  0
LINE
  5
3812
330
1E
100
AcDbEntity
  8
7
100
AcDbLine
 10
3.106299212598425
 20
6.927165354330708
 30
0.0
 11
3.042322834645669
 21
7.0
 31
0.0
  0
LINE
  5
3813
330
1E
100
AcDbEntity
  8
7
100
AcDbLine
 10
3.042322834645669
 20
7.0
 30
0.0
 11
2.972440944881889
 21
7.066929133858267
 31
0.0
  0
LINE
  5
3814
330
1E
100
AcDbEntity
  8
7
100
AcDbLine
 10
2.972440944881889
 20
7.066929133858267
 30
0.0
 11
2.895669291338582
 21
7.125984251968503
 31
0.0
  0
LINE
  5
3815
330
1E
100
AcDbEntity
  8
7
100
AcDbLine
 10
3.243110236220472
 20
6.683070866141732
 30
0.0
 11
3.237204724409448
 21
6.684055118110236
 31
0.0
  0
LINE
  5
3816
330
1E
100
AcDbEntity
  8
7
100
AcDbLine
 10
3.237204724409448
 20
6.684055118110236
 30
0.0
 11
3.232283464566929
 21
6.685039370078739
 31
0.0
  0
LINE
  5
3817
330
1E
100
AcDbEntity
  8
7
100
AcDbLine
 10
3.232283464566929
 20
6.685039370078739
 30
0.0
 11
3.230314960629921
 21
6.685039370078739
 31
0.0
  0
LINE
  5
3818
330
1E
100
AcDbEntity
  8
7
100
AcDbLine
 10
3.230314960629921
 20
6.685039370078739
 30
0.0
 11
3.229330708661417
 21
6.685039370078739
 31
0.0
  0
LINE
  5
3819
330
1E
100
AcDbEntity
  8
7
100
AcDbLine
 10
3.253937007874015
 20
6.679133858267716
 30
0.0
 11
3.250984251968503
 21
6.68011811023622
 31
0.0
  0
LINE
  5
381A
330
1E
100
AcDbEntity
  8
7
100
AcDbLine
 10
3.250984251968503
 20
6.68011811023622
 30
0.0
 11
3.243110236220472
 21
6.683070866141732
 31
0.0
  0
LINE
  5
381B
330
1E
100
AcDbEntity
  8
7
100
AcDbLine
 10
2.896653543307086
 20
7.102362204724409
 30
0.0
 11
2.896653543307086
 21
7.104330708661417
 31
0.0
  0
LINE
  5
381C
330
1E
100
AcDbEntity
  8
7
100
AcDbLine
 10
2.896653543307086
 20
7.104330708661417
 30
0.0
 11
2.89763779527559
 21
7.107283464566928
 31
0.0
  0
LINE
  5
381D
330
1E
100
AcDbEntity
  8
7
100
AcDbLine
 10
2.89763779527559
 20
7.107283464566928
 30
0.0
 11
2.89763779527559
 21
7.112204724409449
 31
0.0
  0
LINE
  5
381E
330
1E
100
AcDbEntity
  8
7
100
AcDbLine
 10
2.89763779527559
 20
7.112204724409449
 30
0.0
 11
2.89763779527559
 21
7.119094488188975
 31
0.0
  0
LINE
  5
381F
330
1E
100
AcDbEntity
  8
7
100
AcDbLine
 10
2.89763779527559
 20
7.119094488188975
 30
0.0
 11
2.896653543307086
 21
7.126968503937007
 31
0.0
  0
LINE
  5
3820
330
1E
100
AcDbEntity
  8
7
100
AcDbLine
 10
3.165354330708661
 20
6.673228346456692
 30
0.0
 11
3.171259842519685
 21
6.682086614173228
 31
0.0
  0
LINE
  5
3821
330
1E
100
AcDbEntity
  8
7
100
AcDbLine
 10
3.171259842519685
 20
6.682086614173228
 30
0.0
 11
3.18011811023622
 21
6.691929133858267
 31
0.0
  0
LINE
  5
3822
330
1E
100
AcDbEntity
  8
7
100
AcDbLine
 10
3.18011811023622
 20
6.691929133858267
 30
0.0
 11
3.187007874015748
 21
6.696850393700787
 31
0.0
  0
LINE
  5
3823
330
1E
100
AcDbEntity
  8
7
100
AcDbLine
 10
3.187007874015748
 20
6.696850393700787
 30
0.0
 11
3.191929133858267
 21
6.699803149606299
 31
0.0
  0
LINE
  5
3824
330
1E
100
AcDbEntity
  8
7
100
AcDbLine
 10
3.191929133858267
 20
6.699803149606299
 30
0.0
 11
3.193897637795275
 21
6.700787401574802
 31
0.0
  0
LINE
  5
3825
330
1E
100
AcDbEntity
  8
7
100
AcDbLine
 10
3.165354330708661
 20
6.672244094488188
 30
0.0
 11
3.122047244094487
 21
6.757874015748031
 31
0.0
  0
LINE
  5
3826
330
1E
100
AcDbEntity
  8
7
100
AcDbLine
 10
3.122047244094487
 20
6.757874015748031
 30
0.0
 11
3.069881889763779
 21
6.83759842519685
 31
0.0
  0
LINE
  5
3827
330
1E
100
AcDbEntity
  8
7
100
AcDbLine
 10
3.069881889763779
 20
6.83759842519685
 30
0.0
 11
3.010826771653543
 21
6.912401574803149
 31
0.0
  0
LINE
  5
3828
330
1E
100
AcDbEntity
  8
7
100
AcDbLine
 10
3.010826771653543
 20
6.912401574803149
 30
0.0
 11
2.943897637795275
 21
6.980314960629921
 31
0.0
  0
LINE
  5
3829
330
1E
100
AcDbEntity
  8
7
100
AcDbLine
 10
2.943897637795275
 20
6.980314960629921
 30
0.0
 11
2.871062992125984
 21
7.042322834645669
 31
0.0
  0
LINE
  5
382A
330
1E
100
AcDbEntity
  8
7
100
AcDbLine
 10
2.904527559055118
 20
7.063976377952755
 30
0.0
 11
2.90255905511811
 21
7.062007874015748
 31
0.0
  0
LINE
  5
382B
330
1E
100
AcDbEntity
  8
7
100
AcDbLine
 10
2.90255905511811
 20
7.062007874015748
 30
0.0
 11
2.898622047244094
 21
7.057086614173228
 31
0.0
  0
LINE
  5
382C
330
1E
100
AcDbEntity
  8
7
100
AcDbLine
 10
2.898622047244094
 20
7.057086614173228
 30
0.0
 11
2.890748031496062
 21
7.051181102362204
 31
0.0
  0
LINE
  5
382D
330
1E
100
AcDbEntity
  8
7
100
AcDbLine
 10
2.890748031496062
 20
7.051181102362204
 30
0.0
 11
2.881889763779527
 21
7.046259842519685
 31
0.0
  0
LINE
  5
382E
330
1E
100
AcDbEntity
  8
7
100
AcDbLine
 10
2.881889763779527
 20
7.046259842519685
 30
0.0
 11
2.871062992125984
 21
7.042322834645669
 31
0.0
  0
LINE
  5
382F
330
1E
100
AcDbEntity
  8
7
100
AcDbLine
 10
2.775590551181102
 20
7.105314960629921
 30
0.0
 11
2.775590551181102
 21
7.117125984251968
 31
0.0
  0
LINE
  5
3830
330
1E
100
AcDbEntity
  8
7
100
AcDbLine
 10
2.775590551181102
 20
7.117125984251968
 30
0.0
 11
2.776574803149606
 21
7.129921259842519
 31
0.0
  0
LINE
  5
3831
330
1E
100
AcDbEntity
  8
7
100
AcDbLine
 10
2.776574803149606
 20
7.129921259842519
 30
0.0
 11
2.779527559055118
 21
7.13779527559055
 31
0.0
  0
LINE
  5
3832
330
1E
100
AcDbEntity
  8
7
100
AcDbLine
 10
2.779527559055118
 20
7.13779527559055
 30
0.0
 11
2.781496062992125
 21
7.14271653543307
 31
0.0
  0
LINE
  5
3833
330
1E
100
AcDbEntity
  8
7
100
AcDbLine
 10
2.781496062992125
 20
7.14271653543307
 30
0.0
 11
2.783464566929133
 21
7.144685039370078
 31
0.0
  0
LINE
  5
3834
330
1E
100
AcDbEntity
  8
7
100
AcDbLine
 10
2.251968503937007
 20
7.233267716535433
 30
0.0
 11
2.161417322834645
 21
7.224409448818897
 31
0.0
  0
LINE
  5
3835
330
1E
100
AcDbEntity
  8
7
100
AcDbLine
 10
2.161417322834645
 20
7.224409448818897
 30
0.0
 11
2.071850393700787
 21
7.206692913385826
 31
0.0
  0
LINE
  5
3836
330
1E
100
AcDbEntity
  8
7
100
AcDbLine
 10
2.071850393700787
 20
7.206692913385826
 30
0.0
 11
1.984251968503937
 21
7.181102362204724
 31
0.0
  0
LINE
  5
3837
330
1E
100
AcDbEntity
  8
7
100
AcDbLine
 10
1.984251968503937
 20
7.181102362204724
 30
0.0
 11
1.899606299212598
 21
7.14763779527559
 31
0.0
  0
LINE
  5
3838
330
1E
100
AcDbEntity
  8
7
100
AcDbLine
 10
1.899606299212598
 20
7.14763779527559
 30
0.0
 11
1.818897637795275
 21
7.105314960629921
 31
0.0
  0
LINE
  5
3839
330
1E
100
AcDbEntity
  8
7
100
AcDbLine
 10
2.775590551181102
 20
7.105314960629921
 30
0.0
 11
2.694881889763779
 21
7.14763779527559
 31
0.0
  0
LINE
  5
383A
330
1E
100
AcDbEntity
  8
7
100
AcDbLine
 10
2.694881889763779
 20
7.14763779527559
 30
0.0
 11
2.61023622047244
 21
7.181102362204724
 31
0.0
  0
LINE
  5
383B
330
1E
100
AcDbEntity
  8
7
100
AcDbLine
 10
2.61023622047244
 20
7.181102362204724
 30
0.0
 11
2.52263779527559
 21
7.206692913385826
 31
0.0
  0
LINE
  5
383C
330
1E
100
AcDbEntity
  8
7
100
AcDbLine
 10
2.52263779527559
 20
7.206692913385826
 30
0.0
 11
2.433070866141732
 21
7.224409448818897
 31
0.0
  0
LINE
  5
383D
330
1E
100
AcDbEntity
  8
7
100
AcDbLine
 10
2.433070866141732
 20
7.224409448818897
 30
0.0
 11
2.342519685039369
 21
7.233267716535433
 31
0.0
  0
LINE
  5
383E
330
1E
100
AcDbEntity
  8
7
100
AcDbLine
 10
2.342519685039369
 20
7.233267716535433
 30
0.0
 11
2.251968503937007
 21
7.233267716535433
 31
0.0
  0
LINE
  5
383F
330
1E
100
AcDbEntity
  8
7
100
AcDbLine
 10
1.812007874015747
 20
7.144685039370078
 30
0.0
 11
1.812992125984251
 21
7.14271653543307
 31
0.0
  0
LINE
  5
3840
330
1E
100
AcDbEntity
  8
7
100
AcDbLine
 10
1.812992125984251
 20
7.14271653543307
 30
0.0
 11
1.815944881889763
 21
7.136811023622047
 31
0.0
  0
LINE
  5
3841
330
1E
100
AcDbEntity
  8
7
100
AcDbLine
 10
1.815944881889763
 20
7.136811023622047
 30
0.0
 11
1.817913385826771
 21
7.127952755905512
 31
0.0
  0
LINE
  5
3842
330
1E
100
AcDbEntity
  8
7
100
AcDbLine
 10
1.817913385826771
 20
7.127952755905512
 30
0.0
 11
1.818897637795275
 21
7.117125984251968
 31
0.0
  0
LINE
  5
3843
330
1E
100
AcDbEntity
  8
7
100
AcDbLine
 10
1.818897637795275
 20
7.117125984251968
 30
0.0
 11
1.818897637795275
 21
7.105314960629921
 31
0.0
  0
LINE
  5
3844
330
1E
100
AcDbEntity
  8
7
100
AcDbLine
 10
1.723425196850393
 20
7.042322834645669
 30
0.0
 11
1.713582677165354
 21
7.046259842519685
 31
0.0
  0
LINE
  5
3845
330
1E
100
AcDbEntity
  8
7
100
AcDbLine
 10
1.713582677165354
 20
7.046259842519685
 30
0.0
 11
1.702755905511811
 21
7.053149606299212
 31
0.0
  0
LINE
  5
3846
330
1E
100
AcDbEntity
  8
7
100
AcDbLine
 10
1.702755905511811
 20
7.053149606299212
 30
0.0
 11
1.695866141732283
 21
7.058070866141732
 31
0.0
  0
LINE
  5
3847
330
1E
100
AcDbEntity
  8
7
100
AcDbLine
 10
1.695866141732283
 20
7.058070866141732
 30
0.0
 11
1.691929133858267
 21
7.062007874015748
 31
0.0
  0
LINE
  5
3848
330
1E
100
AcDbEntity
  8
7
100
AcDbLine
 10
1.691929133858267
 20
7.062007874015748
 30
0.0
 11
1.690944881889763
 21
7.063976377952755
 31
0.0
  0
LINE
  5
3849
330
1E
100
AcDbEntity
  8
7
100
AcDbLine
 10
1.723425196850393
 20
7.042322834645669
 30
0.0
 11
1.650590551181102
 21
6.980314960629921
 31
0.0
  0
LINE
  5
384A
330
1E
100
AcDbEntity
  8
7
100
AcDbLine
 10
1.650590551181102
 20
6.980314960629921
 30
0.0
 11
1.583661417322834
 21
6.912401574803149
 31
0.0
  0
LINE
  5
384B
330
1E
100
AcDbEntity
  8
7
100
AcDbLine
 10
1.583661417322834
 20
6.912401574803149
 30
0.0
 11
1.524606299212598
 21
6.83759842519685
 31
0.0
  0
LINE
  5
384C
330
1E
100
AcDbEntity
  8
7
100
AcDbLine
 10
1.524606299212598
 20
6.83759842519685
 30
0.0
 11
1.472440944881889
 21
6.757874015748031
 31
0.0
  0
LINE
  5
384D
330
1E
100
AcDbEntity
  8
7
100
AcDbLine
 10
1.472440944881889
 20
6.757874015748031
 30
0.0
 11
1.429133858267716
 21
6.672244094488188
 31
0.0
  0
LINE
  5
384E
330
1E
100
AcDbEntity
  8
7
100
AcDbLine
 10
1.400590551181102
 20
6.700787401574802
 30
0.0
 11
1.40255905511811
 21
6.699803149606299
 31
0.0
  0
LINE
  5
384F
330
1E
100
AcDbEntity
  8
7
100
AcDbLine
 10
1.40255905511811
 20
6.699803149606299
 30
0.0
 11
1.408464566929133
 21
6.695866141732283
 31
0.0
  0
LINE
  5
3850
330
1E
100
AcDbEntity
  8
7
100
AcDbLine
 10
1.408464566929133
 20
6.695866141732283
 30
0.0
 11
1.415354330708661
 21
6.68996062992126
 31
0.0
  0
LINE
  5
3851
330
1E
100
AcDbEntity
  8
7
100
AcDbLine
 10
1.415354330708661
 20
6.68996062992126
 30
0.0
 11
1.423228346456692
 21
6.682086614173228
 31
0.0
  0
LINE
  5
3852
330
1E
100
AcDbEntity
  8
7
100
AcDbLine
 10
1.423228346456692
 20
6.682086614173228
 30
0.0
 11
1.429133858267716
 21
6.673228346456692
 31
0.0
  0
LINE
  5
3853
330
1E
100
AcDbEntity
  8
7
100
AcDbLine
 10
3.099409448818897
 20
6.862204724409449
 30
0.0
 11
3.040354330708661
 21
6.935039370078739
 31
0.0
  0
LINE
  5
3854
330
1E
100
AcDbEntity
  8
7
100
AcDbLine
 10
3.040354330708661
 20
6.935039370078739
 30
0.0
 11
2.975393700787401
 21
7.002952755905512
 31
0.0
  0
LINE
  5
3855
330
1E
100
AcDbEntity
  8
7
100
AcDbLine
 10
2.975393700787401
 20
7.002952755905512
 30
0.0
 11
2.903543307086614
 21
7.063976377952755
 31
0.0
  0
LINE
  5
3856
330
1E
100
AcDbEntity
  8
7
100
AcDbLine
 10
3.193897637795275
 20
6.699803149606299
 30
0.0
 11
3.150590551181102
 21
6.783464566929133
 31
0.0
  0
LINE
  5
3857
330
1E
100
AcDbEntity
  8
7
100
AcDbLine
 10
3.150590551181102
 20
6.783464566929133
 30
0.0
 11
3.099409448818897
 21
6.862204724409449
 31
0.0
  0
LINE
  5
3858
330
1E
100
AcDbEntity
  8
7
100
AcDbLine
 10
2.896653543307086
 20
7.102362204724409
 30
0.0
 11
2.899606299212598
 21
7.094488188976377
 31
0.0
  0
LINE
  5
3859
330
1E
100
AcDbEntity
  8
7
100
AcDbLine
 10
2.899606299212598
 20
7.094488188976377
 30
0.0
 11
2.903543307086614
 21
7.066929133858267
 31
0.0
  0
LINE
  5
385A
330
1E
100
AcDbEntity
  8
7
100
AcDbLine
 10
2.903543307086614
 20
7.066929133858267
 30
0.0
 11
2.904527559055118
 21
7.063976377952755
 31
0.0
  0
LINE
  5
385B
330
1E
100
AcDbEntity
  8
7
100
AcDbLine
 10
3.123031496062992
 20
6.872047244094487
 30
0.0
 11
3.056102362204724
 21
6.956692913385826
 31
0.0
  0
LINE
  5
385C
330
1E
100
AcDbEntity
  8
7
100
AcDbLine
 10
3.056102362204724
 20
6.956692913385826
 30
0.0
 11
2.980314960629921
 21
7.033464566929133
 31
0.0
  0
LINE
  5
385D
330
1E
100
AcDbEntity
  8
7
100
AcDbLine
 10
2.980314960629921
 20
7.033464566929133
 30
0.0
 11
2.896653543307086
 21
7.101377952755905
 31
0.0
  0
LINE
  5
385E
330
1E
100
AcDbEntity
  8
7
100
AcDbLine
 10
3.229330708661417
 20
6.684055118110236
 30
0.0
 11
3.181102362204724
 21
6.781496062992125
 31
0.0
  0
LINE
  5
385F
330
1E
100
AcDbEntity
  8
7
100
AcDbLine
 10
3.181102362204724
 20
6.781496062992125
 30
0.0
 11
3.123031496062992
 21
6.872047244094487
 31
0.0
  0
LINE
  5
3860
330
1E
100
AcDbEntity
  8
7
100
AcDbLine
 10
3.193897637795275
 20
6.700787401574802
 30
0.0
 11
3.203740157480314
 21
6.696850393700787
 31
0.0
  0
LINE
  5
3861
330
1E
100
AcDbEntity
  8
7
100
AcDbLine
 10
3.203740157480314
 20
6.696850393700787
 30
0.0
 11
3.229330708661417
 21
6.685039370078739
 31
0.0
  0
LINE
  5
3862
330
1E
100
AcDbEntity
  8
7
100
AcDbLine
 10
1.554133858267716
 20
6.935039370078739
 30
0.0
 11
1.49507874015748
 21
6.862204724409449
 31
0.0
  0
LINE
  5
3863
330
1E
100
AcDbEntity
  8
7
100
AcDbLine
 10
1.49507874015748
 20
6.862204724409449
 30
0.0
 11
1.443897637795275
 21
6.783464566929133
 31
0.0
  0
LINE
  5
3864
330
1E
100
AcDbEntity
  8
7
100
AcDbLine
 10
1.443897637795275
 20
6.783464566929133
 30
0.0
 11
1.400590551181102
 21
6.699803149606299
 31
0.0
  0
LINE
  5
3865
330
1E
100
AcDbEntity
  8
7
100
AcDbLine
 10
1.690944881889763
 20
7.063976377952755
 30
0.0
 11
1.619094488188976
 21
7.002952755905512
 31
0.0
  0
LINE
  5
3866
330
1E
100
AcDbEntity
  8
7
100
AcDbLine
 10
1.619094488188976
 20
7.002952755905512
 30
0.0
 11
1.554133858267716
 21
6.935039370078739
 31
0.0
  0
LINE
  5
3867
330
1E
100
AcDbEntity
  8
7
100
AcDbLine
 10
1.36515748031496
 20
6.685039370078739
 30
0.0
 11
1.372047244094488
 21
6.688976377952755
 31
0.0
  0
LINE
  5
3868
330
1E
100
AcDbEntity
  8
7
100
AcDbLine
 10
1.372047244094488
 20
6.688976377952755
 30
0.0
 11
1.39763779527559
 21
6.699803149606299
 31
0.0
  0
LINE
  5
3869
330
1E
100
AcDbEntity
  8
7
100
AcDbLine
 10
1.39763779527559
 20
6.699803149606299
 30
0.0
 11
1.400590551181102
 21
6.700787401574802
 31
0.0
  0
LINE
  5
386A
330
1E
100
AcDbEntity
  8
7
100
AcDbLine
 10
1.471456692913385
 20
6.872047244094487
 30
0.0
 11
1.413385826771653
 21
6.781496062992125
 31
0.0
  0
LINE
  5
386B
330
1E
100
AcDbEntity
  8
7
100
AcDbLine
 10
1.413385826771653
 20
6.781496062992125
 30
0.0
 11
1.36515748031496
 21
6.684055118110236
 31
0.0
  0
LINE
  5
386C
330
1E
100
AcDbEntity
  8
7
100
AcDbLine
 10
1.697834645669291
 20
7.101377952755905
 30
0.0
 11
1.614173228346456
 21
7.033464566929133
 31
0.0
  0
LINE
  5
386D
330
1E
100
AcDbEntity
  8
7
100
AcDbLine
 10
1.614173228346456
 20
7.033464566929133
 30
0.0
 11
1.538385826771653
 21
6.956692913385826
 31
0.0
  0
LINE
  5
386E
330
1E
100
AcDbEntity
  8
7
100
AcDbLine
 10
1.538385826771653
 20
6.956692913385826
 30
0.0
 11
1.471456692913385
 21
6.872047244094487
 31
0.0
  0
LINE
  5
386F
330
1E
100
AcDbEntity
  8
7
100
AcDbLine
 10
1.690944881889763
 20
7.063976377952755
 30
0.0
 11
1.691929133858267
 21
7.074803149606299
 31
0.0
  0
LINE
  5
3870
330
1E
100
AcDbEntity
  8
7
100
AcDbLine
 10
1.691929133858267
 20
7.074803149606299
 30
0.0
 11
1.697834645669291
 21
7.102362204724409
 31
0.0
  0
LINE
  5
3871
330
1E
100
AcDbEntity
  8
7
100
AcDbLine
 10
1.980314960629921
 20
7.219488188976377
 30
0.0
 11
1.893700787401574
 21
7.186023622047244
 31
0.0
  0
LINE
  5
3872
330
1E
100
AcDbEntity
  8
7
100
AcDbLine
 10
1.893700787401574
 20
7.186023622047244
 30
0.0
 11
1.811023622047244
 21
7.143700787401574
 31
0.0
  0
LINE
  5
3873
330
1E
100
AcDbEntity
  8
7
100
AcDbLine
 10
2.783464566929133
 20
7.143700787401574
 30
0.0
 11
2.700787401574803
 21
7.186023622047244
 31
0.0
  0
LINE
  5
3874
330
1E
100
AcDbEntity
  8
7
100
AcDbLine
 10
2.700787401574803
 20
7.186023622047244
 30
0.0
 11
2.614173228346456
 21
7.219488188976377
 31
0.0
  0
LINE
  5
3875
330
1E
100
AcDbEntity
  8
7
100
AcDbLine
 10
2.614173228346456
 20
7.219488188976377
 30
0.0
 11
2.525590551181102
 21
7.24507874015748
 31
0.0
  0
LINE
  5
3876
330
1E
100
AcDbEntity
  8
7
100
AcDbLine
 10
2.525590551181102
 20
7.24507874015748
 30
0.0
 11
2.43503937007874
 21
7.261811023622047
 31
0.0
  0
LINE
  5
3877
330
1E
100
AcDbEntity
  8
7
100
AcDbLine
 10
2.43503937007874
 20
7.261811023622047
 30
0.0
 11
2.343503937007874
 21
7.270669291338582
 31
0.0
  0
LINE
  5
3878
330
1E
100
AcDbEntity
  8
7
100
AcDbLine
 10
2.343503937007874
 20
7.270669291338582
 30
0.0
 11
2.250984251968503
 21
7.270669291338582
 31
0.0
  0
LINE
  5
3879
330
1E
100
AcDbEntity
  8
7
100
AcDbLine
 10
2.250984251968503
 20
7.270669291338582
 30
0.0
 11
2.159448818897637
 21
7.261811023622047
 31
0.0
  0
LINE
  5
387A
330
1E
100
AcDbEntity
  8
7
100
AcDbLine
 10
2.159448818897637
 20
7.261811023622047
 30
0.0
 11
2.068897637795275
 21
7.24507874015748
 31
0.0
  0
LINE
  5
387B
330
1E
100
AcDbEntity
  8
7
100
AcDbLine
 10
2.068897637795275
 20
7.24507874015748
 30
0.0
 11
1.980314960629921
 21
7.219488188976377
 31
0.0
  0
LINE
  5
387C
330
1E
100
AcDbEntity
  8
7
100
AcDbLine
 10
1.781496062992125
 20
7.151574803149606
 30
0.0
 11
1.809055118110236
 21
7.145669291338582
 31
0.0
  0
LINE
  5
387D
330
1E
100
AcDbEntity
  8
7
100
AcDbLine
 10
1.809055118110236
 20
7.145669291338582
 30
0.0
 11
1.812007874015747
 21
7.144685039370078
 31
0.0
  0
LINE
  5
387E
330
1E
100
AcDbEntity
  8
7
100
AcDbLine
 10
2.568897637795275
 20
7.259842519685038
 30
0.0
 11
2.479330708661417
 21
7.280511811023622
 31
0.0
  0
LINE
  5
387F
330
1E
100
AcDbEntity
  8
7
100
AcDbLine
 10
2.479330708661417
 20
7.280511811023622
 30
0.0
 11
2.388779527559055
 21
7.293307086614173
 31
0.0
  0
LINE
  5
3880
330
1E
100
AcDbEntity
  8
7
100
AcDbLine
 10
2.388779527559055
 20
7.293307086614173
 30
0.0
 11
2.297244094488188
 21
7.297244094488188
 31
0.0
  0
LINE
  5
3881
330
1E
100
AcDbEntity
  8
7
100
AcDbLine
 10
2.297244094488188
 20
7.297244094488188
 30
0.0
 11
2.205708661417322
 21
7.293307086614173
 31
0.0
  0
LINE
  5
3882
330
1E
100
AcDbEntity
  8
7
100
AcDbLine
 10
2.205708661417322
 20
7.293307086614173
 30
0.0
 11
2.11515748031496
 21
7.280511811023622
 31
0.0
  0
LINE
  5
3883
330
1E
100
AcDbEntity
  8
7
100
AcDbLine
 10
2.11515748031496
 20
7.280511811023622
 30
0.0
 11
2.025590551181102
 21
7.259842519685038
 31
0.0
  0
LINE
  5
3884
330
1E
100
AcDbEntity
  8
7
100
AcDbLine
 10
2.025590551181102
 20
7.259842519685038
 30
0.0
 11
1.938976377952755
 21
7.231299212598425
 31
0.0
  0
LINE
  5
3885
330
1E
100
AcDbEntity
  8
7
100
AcDbLine
 10
1.938976377952755
 20
7.231299212598425
 30
0.0
 11
1.854330708661417
 21
7.195866141732283
 31
0.0
  0
LINE
  5
3886
330
1E
100
AcDbEntity
  8
7
100
AcDbLine
 10
1.854330708661417
 20
7.195866141732283
 30
0.0
 11
1.773622047244094
 21
7.151574803149606
 31
0.0
  0
LINE
  5
3887
330
1E
100
AcDbEntity
  8
7
100
AcDbLine
 10
2.820866141732283
 20
7.151574803149606
 30
0.0
 11
2.74015748031496
 21
7.195866141732283
 31
0.0
  0
LINE
  5
3888
330
1E
100
AcDbEntity
  8
7
100
AcDbLine
 10
2.74015748031496
 20
7.195866141732283
 30
0.0
 11
2.655511811023622
 21
7.231299212598425
 31
0.0
  0
LINE
  5
3889
330
1E
100
AcDbEntity
  8
7
100
AcDbLine
 10
2.655511811023622
 20
7.231299212598425
 30
0.0
 11
2.568897637795275
 21
7.259842519685038
 31
0.0
  0
LINE
  5
388A
330
1E
100
AcDbEntity
  8
7
100
AcDbLine
 10
2.783464566929133
 20
7.144685039370078
 30
0.0
 11
2.793307086614173
 21
7.14763779527559
 31
0.0
  0
LINE
  5
388B
330
1E
100
AcDbEntity
  8
7
100
AcDbLine
 10
2.793307086614173
 20
7.14763779527559
 30
0.0
 11
2.820866141732283
 21
7.15255905511811
 31
0.0
  0
LINE
  5
388C
330
1E
100
AcDbEntity
  8
7
100
AcDbLine
 10
2.029527559055118
 20
6.179133858267716
 30
0.0
 11
2.028543307086614
 21
6.178149606299212
 31
0.0
  0
LINE
  5
388D
330
1E
100
AcDbEntity
  8
7
100
AcDbLine
 10
2.028543307086614
 20
6.178149606299212
 30
0.0
 11
2.028543307086614
 21
5.993110236220472
 31
0.0
  0
LINE
  5
388E
330
1E
100
AcDbEntity
  8
7
100
AcDbLine
 10
1.471456692913385
 20
5.572834645669291
 30
0.0
 11
1.535433070866141
 21
5.504921259842519
 31
0.0
  0
LINE
  5
388F
330
1E
100
AcDbEntity
  8
7
100
AcDbLine
 10
1.535433070866141
 20
5.504921259842519
 30
0.0
 11
1.605314960629921
 21
5.441929133858267
 31
0.0
  0
LINE
  5
3890
330
1E
100
AcDbEntity
  8
7
100
AcDbLine
 10
1.605314960629921
 20
5.441929133858267
 30
0.0
 11
1.68011811023622
 21
5.385826771653543
 31
0.0
  0
LINE
  5
3891
330
1E
100
AcDbEntity
  8
7
100
AcDbLine
 10
1.68011811023622
 20
5.385826771653543
 30
0.0
 11
1.759842519685039
 21
5.335629921259842
 31
0.0
  0
LINE
  5
3892
330
1E
100
AcDbEntity
  8
7
100
AcDbLine
 10
1.759842519685039
 20
5.335629921259842
 30
0.0
 11
1.843503937007874
 21
5.293307086614173
 31
0.0
  0
LINE
  5
3893
330
1E
100
AcDbEntity
  8
7
100
AcDbLine
 10
1.843503937007874
 20
5.293307086614173
 30
0.0
 11
1.93011811023622
 21
5.257874015748031
 31
0.0
  0
LINE
  5
3894
330
1E
100
AcDbEntity
  8
7
100
AcDbLine
 10
1.93011811023622
 20
5.257874015748031
 30
0.0
 11
2.019685039370078
 21
5.230314960629921
 31
0.0
  0
LINE
  5
3895
330
1E
100
AcDbEntity
  8
7
100
AcDbLine
 10
2.019685039370078
 20
5.230314960629921
 30
0.0
 11
2.111220472440944
 21
5.209645669291338
 31
0.0
  0
LINE
  5
3896
330
1E
100
AcDbEntity
  8
7
100
AcDbLine
 10
2.111220472440944
 20
5.209645669291338
 30
0.0
 11
2.203740157480314
 21
5.197834645669291
 31
0.0
  0
LINE
  5
3897
330
1E
100
AcDbEntity
  8
7
100
AcDbLine
 10
2.203740157480314
 20
5.197834645669291
 30
0.0
 11
2.297244094488188
 21
5.193897637795275
 31
0.0
  0
LINE
  5
3898
330
1E
100
AcDbEntity
  8
7
100
AcDbLine
 10
1.298228346456692
 20
6.715551181102362
 30
0.0
 11
1.264763779527559
 21
6.627952755905512
 31
0.0
  0
LINE
  5
3899
330
1E
100
AcDbEntity
  8
7
100
AcDbLine
 10
1.264763779527559
 20
6.627952755905512
 30
0.0
 11
1.239173228346456
 21
6.537401574803149
 31
0.0
  0
LINE
  5
389A
330
1E
100
AcDbEntity
  8
7
100
AcDbLine
 10
1.239173228346456
 20
6.537401574803149
 30
0.0
 11
1.221456692913385
 21
6.445866141732283
 31
0.0
  0
LINE
  5
389B
330
1E
100
AcDbEntity
  8
7
100
AcDbLine
 10
1.221456692913385
 20
6.445866141732283
 30
0.0
 11
1.210629921259842
 21
6.352362204724409
 31
0.0
  0
LINE
  5
389C
330
1E
100
AcDbEntity
  8
7
100
AcDbLine
 10
1.210629921259842
 20
6.352362204724409
 30
0.0
 11
1.208661417322834
 21
6.258858267716535
 31
0.0
  0
LINE
  5
389D
330
1E
100
AcDbEntity
  8
7
100
AcDbLine
 10
1.208661417322834
 20
6.258858267716535
 30
0.0
 11
1.214566929133858
 21
6.165354330708661
 31
0.0
  0
LINE
  5
389E
330
1E
100
AcDbEntity
  8
7
100
AcDbLine
 10
1.214566929133858
 20
6.165354330708661
 30
0.0
 11
1.229330708661417
 21
6.072834645669291
 31
0.0
  0
LINE
  5
389F
330
1E
100
AcDbEntity
  8
7
100
AcDbLine
 10
1.229330708661417
 20
6.072834645669291
 30
0.0
 11
1.250984251968503
 21
5.982283464566928
 31
0.0
  0
LINE
  5
38A0
330
1E
100
AcDbEntity
  8
7
100
AcDbLine
 10
1.250984251968503
 20
5.982283464566928
 30
0.0
 11
1.280511811023622
 21
5.89271653543307
 31
0.0
  0
LINE
  5
38A1
330
1E
100
AcDbEntity
  8
7
100
AcDbLine
 10
1.280511811023622
 20
5.89271653543307
 30
0.0
 11
1.317913385826771
 21
5.807086614173228
 31
0.0
  0
LINE
  5
38A2
330
1E
100
AcDbEntity
  8
7
100
AcDbLine
 10
1.317913385826771
 20
5.807086614173228
 30
0.0
 11
1.362204724409448
 21
5.724409448818897
 31
0.0
  0
LINE
  5
38A3
330
1E
100
AcDbEntity
  8
7
100
AcDbLine
 10
1.362204724409448
 20
5.724409448818897
 30
0.0
 11
1.413385826771653
 21
5.646653543307086
 31
0.0
  0
LINE
  5
38A4
330
1E
100
AcDbEntity
  8
7
100
AcDbLine
 10
1.413385826771653
 20
5.646653543307086
 30
0.0
 11
1.471456692913385
 21
5.572834645669291
 31
0.0
  0
LINE
  5
38A5
330
1E
100
AcDbEntity
  8
7
100
AcDbLine
 10
2.15748031496063
 20
7.362204724409449
 30
0.0
 11
2.064960629921259
 21
7.345472440944881
 31
0.0
  0
LINE
  5
38A6
330
1E
100
AcDbEntity
  8
7
100
AcDbLine
 10
2.064960629921259
 20
7.345472440944881
 30
0.0
 11
1.974409448818897
 21
7.321850393700787
 31
0.0
  0
LINE
  5
38A7
330
1E
100
AcDbEntity
  8
7
100
AcDbLine
 10
1.974409448818897
 20
7.321850393700787
 30
0.0
 11
1.885826771653543
 21
7.290354330708661
 31
0.0
  0
LINE
  5
38A8
330
1E
100
AcDbEntity
  8
7
100
AcDbLine
 10
1.885826771653543
 20
7.290354330708661
 30
0.0
 11
1.801181102362204
 21
7.250984251968503
 31
0.0
  0
LINE
  5
38A9
330
1E
100
AcDbEntity
  8
7
100
AcDbLine
 10
1.801181102362204
 20
7.250984251968503
 30
0.0
 11
1.719488188976377
 21
7.204724409448818
 31
0.0
  0
LINE
  5
38AA
330
1E
100
AcDbEntity
  8
7
100
AcDbLine
 10
1.719488188976377
 20
7.204724409448818
 30
0.0
 11
1.64271653543307
 21
7.151574803149606
 31
0.0
  0
LINE
  5
38AB
330
1E
100
AcDbEntity
  8
7
100
AcDbLine
 10
1.64271653543307
 20
7.151574803149606
 30
0.0
 11
1.569881889763779
 21
7.09251968503937
 31
0.0
  0
LINE
  5
38AC
330
1E
100
AcDbEntity
  8
7
100
AcDbLine
 10
1.569881889763779
 20
7.09251968503937
 30
0.0
 11
1.502952755905511
 21
7.026574803149606
 31
0.0
  0
LINE
  5
38AD
330
1E
100
AcDbEntity
  8
7
100
AcDbLine
 10
1.502952755905511
 20
7.026574803149606
 30
0.0
 11
1.441929133858267
 21
6.955708661417323
 31
0.0
  0
LINE
  5
38AE
330
1E
100
AcDbEntity
  8
7
100
AcDbLine
 10
1.441929133858267
 20
6.955708661417323
 30
0.0
 11
1.386811023622047
 21
6.879921259842519
 31
0.0
  0
LINE
  5
38AF
330
1E
100
AcDbEntity
  8
7
100
AcDbLine
 10
1.386811023622047
 20
6.879921259842519
 30
0.0
 11
1.339566929133858
 21
6.799212598425196
 31
0.0
  0
LINE
  5
38B0
330
1E
100
AcDbEntity
  8
7
100
AcDbLine
 10
1.339566929133858
 20
6.799212598425196
 30
0.0
 11
1.298228346456692
 21
6.715551181102362
 31
0.0
  0
LINE
  5
38B1
330
1E
100
AcDbEntity
  8
7
100
AcDbLine
 10
3.254921259842519
 20
6.799212598425196
 30
0.0
 11
3.20767716535433
 21
6.879921259842519
 31
0.0
  0
LINE
  5
38B2
330
1E
100
AcDbEntity
  8
7
100
AcDbLine
 10
3.20767716535433
 20
6.879921259842519
 30
0.0
 11
3.15255905511811
 21
6.955708661417323
 31
0.0
  0
LINE
  5
38B3
330
1E
100
AcDbEntity
  8
7
100
AcDbLine
 10
3.15255905511811
 20
6.955708661417323
 30
0.0
 11
3.091535433070866
 21
7.026574803149606
 31
0.0
  0
LINE
  5
38B4
330
1E
100
AcDbEntity
  8
7
100
AcDbLine
 10
3.091535433070866
 20
7.026574803149606
 30
0.0
 11
3.024606299212598
 21
7.09251968503937
 31
0.0
  0
LINE
  5
38B5
330
1E
100
AcDbEntity
  8
7
100
AcDbLine
 10
3.024606299212598
 20
7.09251968503937
 30
0.0
 11
2.951771653543307
 21
7.151574803149606
 31
0.0
  0
LINE
  5
38B6
330
1E
100
AcDbEntity
  8
7
100
AcDbLine
 10
2.951771653543307
 20
7.151574803149606
 30
0.0
 11
2.875
 21
7.204724409448818
 31
0.0
  0
LINE
  5
38B7
330
1E
100
AcDbEntity
  8
7
100
AcDbLine
 10
2.875
 20
7.204724409448818
 30
0.0
 11
2.793307086614173
 21
7.250984251968503
 31
0.0
  0
LINE
  5
38B8
330
1E
100
AcDbEntity
  8
7
100
AcDbLine
 10
2.793307086614173
 20
7.250984251968503
 30
0.0
 11
2.708661417322834
 21
7.290354330708661
 31
0.0
  0
LINE
  5
38B9
330
1E
100
AcDbEntity
  8
7
100
AcDbLine
 10
2.708661417322834
 20
7.290354330708661
 30
0.0
 11
2.62007874015748
 21
7.321850393700787
 31
0.0
  0
LINE
  5
38BA
330
1E
100
AcDbEntity
  8
7
100
AcDbLine
 10
2.62007874015748
 20
7.321850393700787
 30
0.0
 11
2.529527559055118
 21
7.345472440944881
 31
0.0
  0
LINE
  5
38BB
330
1E
100
AcDbEntity
  8
7
100
AcDbLine
 10
2.529527559055118
 20
7.345472440944881
 30
0.0
 11
2.437007874015748
 21
7.362204724409449
 31
0.0
  0
LINE
  5
38BC
330
1E
100
AcDbEntity
  8
7
100
AcDbLine
 10
2.437007874015748
 20
7.362204724409449
 30
0.0
 11
2.344488188976377
 21
7.37007874015748
 31
0.0
  0
LINE
  5
38BD
330
1E
100
AcDbEntity
  8
7
100
AcDbLine
 10
2.344488188976377
 20
7.37007874015748
 30
0.0
 11
2.25
 21
7.37007874015748
 31
0.0
  0
LINE
  5
38BE
330
1E
100
AcDbEntity
  8
7
100
AcDbLine
 10
2.25
 20
7.37007874015748
 30
0.0
 11
2.15748031496063
 21
7.362204724409449
 31
0.0
  0
LINE
  5
38BF
330
1E
100
AcDbEntity
  8
7
100
AcDbLine
 10
3.059055118110236
 20
5.504921259842519
 30
0.0
 11
3.123031496062992
 21
5.572834645669291
 31
0.0
  0
LINE
  5
38C0
330
1E
100
AcDbEntity
  8
7
100
AcDbLine
 10
3.123031496062992
 20
5.572834645669291
 30
0.0
 11
3.181102362204724
 21
5.646653543307086
 31
0.0
  0
LINE
  5
38C1
330
1E
100
AcDbEntity
  8
7
100
AcDbLine
 10
3.181102362204724
 20
5.646653543307086
 30
0.0
 11
3.232283464566929
 21
5.724409448818897
 31
0.0
  0
LINE
  5
38C2
330
1E
100
AcDbEntity
  8
7
100
AcDbLine
 10
3.232283464566929
 20
5.724409448818897
 30
0.0
 11
3.276574803149606
 21
5.807086614173228
 31
0.0
  0
LINE
  5
38C3
330
1E
100
AcDbEntity
  8
7
100
AcDbLine
 10
3.276574803149606
 20
5.807086614173228
 30
0.0
 11
3.313976377952756
 21
5.89271653543307
 31
0.0
  0
LINE
  5
38C4
330
1E
100
AcDbEntity
  8
7
100
AcDbLine
 10
3.313976377952756
 20
5.89271653543307
 30
0.0
 11
3.343503937007874
 21
5.982283464566928
 31
0.0
  0
LINE
  5
38C5
330
1E
100
AcDbEntity
  8
7
100
AcDbLine
 10
3.343503937007874
 20
5.982283464566928
 30
0.0
 11
3.36515748031496
 21
6.072834645669291
 31
0.0
  0
LINE
  5
38C6
330
1E
100
AcDbEntity
  8
7
100
AcDbLine
 10
3.36515748031496
 20
6.072834645669291
 30
0.0
 11
3.379921259842519
 21
6.165354330708661
 31
0.0
  0
LINE
  5
38C7
330
1E
100
AcDbEntity
  8
7
100
AcDbLine
 10
3.379921259842519
 20
6.165354330708661
 30
0.0
 11
3.385826771653543
 21
6.258858267716535
 31
0.0
  0
LINE
  5
38C8
330
1E
100
AcDbEntity
  8
7
100
AcDbLine
 10
3.385826771653543
 20
6.258858267716535
 30
0.0
 11
3.383858267716535
 21
6.352362204724409
 31
0.0
  0
LINE
  5
38C9
330
1E
100
AcDbEntity
  8
7
100
AcDbLine
 10
3.383858267716535
 20
6.352362204724409
 30
0.0
 11
3.373031496062992
 21
6.445866141732283
 31
0.0
  0
LINE
  5
38CA
330
1E
100
AcDbEntity
  8
7
100
AcDbLine
 10
3.373031496062992
 20
6.445866141732283
 30
0.0
 11
3.355314960629921
 21
6.537401574803149
 31
0.0
  0
LINE
  5
38CB
330
1E
100
AcDbEntity
  8
7
100
AcDbLine
 10
3.355314960629921
 20
6.537401574803149
 30
0.0
 11
3.329724409448818
 21
6.627952755905512
 31
0.0
  0
LINE
  5
38CC
330
1E
100
AcDbEntity
  8
7
100
AcDbLine
 10
3.329724409448818
 20
6.627952755905512
 30
0.0
 11
3.296259842519685
 21
6.715551181102362
 31
0.0
  0
LINE
  5
38CD
330
1E
100
AcDbEntity
  8
7
100
AcDbLine
 10
3.296259842519685
 20
6.715551181102362
 30
0.0
 11
3.254921259842519
 21
6.799212598425196
 31
0.0
  0
LINE
  5
38CE
330
1E
100
AcDbEntity
  8
7
100
AcDbLine
 10
2.297244094488188
 20
5.193897637795275
 30
0.0
 11
2.390748031496062
 21
5.197834645669291
 31
0.0
  0
LINE
  5
38CF
330
1E
100
AcDbEntity
  8
7
100
AcDbLine
 10
2.390748031496062
 20
5.197834645669291
 30
0.0
 11
2.483267716535432
 21
5.209645669291338
 31
0.0
  0
LINE
  5
38D0
330
1E
100
AcDbEntity
  8
7
100
AcDbLine
 10
2.483267716535432
 20
5.209645669291338
 30
0.0
 11
2.574803149606299
 21
5.230314960629921
 31
0.0
  0
LINE
  5
38D1
330
1E
100
AcDbEntity
  8
7
100
AcDbLine
 10
2.574803149606299
 20
5.230314960629921
 30
0.0
 11
2.664370078740157
 21
5.257874015748031
 31
0.0
  0
LINE
  5
38D2
330
1E
100
AcDbEntity
  8
7
100
AcDbLine
 10
2.664370078740157
 20
5.257874015748031
 30
0.0
 11
2.750984251968503
 21
5.293307086614173
 31
0.0
  0
LINE
  5
38D3
330
1E
100
AcDbEntity
  8
7
100
AcDbLine
 10
2.750984251968503
 20
5.293307086614173
 30
0.0
 11
2.834645669291338
 21
5.335629921259842
 31
0.0
  0
LINE
  5
38D4
330
1E
100
AcDbEntity
  8
7
100
AcDbLine
 10
2.834645669291338
 20
5.335629921259842
 30
0.0
 11
2.914370078740157
 21
5.385826771653543
 31
0.0
  0
LINE
  5
38D5
330
1E
100
AcDbEntity
  8
7
100
AcDbLine
 10
2.914370078740157
 20
5.385826771653543
 30
0.0
 11
2.989173228346456
 21
5.441929133858267
 31
0.0
  0
LINE
  5
38D6
330
1E
100
AcDbEntity
  8
7
100
AcDbLine
 10
2.989173228346456
 20
5.441929133858267
 30
0.0
 11
3.059055118110236
 21
5.504921259842519
 31
0.0
  0
ENDSEC
  0
SECTION
  2
OBJECTS
  0
DICTIONARY
  5
C
330
0
100
AcDbDictionary
  3
ACAD_GROUP
350
D
  3
ACAD_LAYOUT
350
19
  3
ACAD_MLINESTYLE
350
16
  3
ACAD_PLOTSETTINGS
350
18
1001
ACAD
1000
TREAT_AS_HARD
1070
     0
  0
DICTIONARY
  5
4818
330
1E
100
AcDbDictionary
  3
ACAD_LAYOUTSELFREF
350
4850
1001
ACAD
1000
TREAT_AS_HARD
1070
     1
  0
DICTIONARY
  5
481A
330
1A
100
AcDbDictionary
  3
ACAD_LAYOUTSELFREF
350
484F
1001
ACAD
1000
TREAT_AS_HARD
1070
     1
  0
DICTIONARY
  5
D
102
{ACAD_REACTORS
330
C
102
}
330
C
100
AcDbDictionary
1001
ACAD
1000
TREAT_AS_HARD
1070
     0
  0
DICTIONARY
  5
19
102
{ACAD_REACTORS
330
C
102
}
330
C
100
AcDbDictionary
1001
ACAD
1000
TREAT_AS_HARD
1070
     0
  0
DICTIONARY
  5
16
102
{ACAD_REACTORS
330
C
102
}
330
C
100
AcDbDictionary
  3
STANDARD
350
17
1001
ACAD
1000
TREAT_AS_HARD
1070
     0
  0
DICTIONARY
  5
18
102
{ACAD_REACTORS
330
C
102
}
330
C
100
AcDbDictionary
1001
ACAD
1000
TREAT_AS_HARD
1070
     0
  0
XRECORD
  5
4850
102
{ACAD_REACTORS
330
4818
102
}
330
4818
100
AcDbXrecord
340
1E
  0
XRECORD
  5
484F
102
{ACAD_REACTORS
330
481A
102
}
330
481A
100
AcDbXrecord
340
1A
  0
MLINESTYLE
  5
17
102
{ACAD_REACTORS
330
16
102
}
330
16
100
AcDbMlineStyle
  2
STANDARD
 70
     0
  3

 62
   256
 51
90.0
 52
90.0
 71
     2
 49
0.5
 62
   256
  6
BYLAYER
 49
-0.5
 62
   256
  6
BYLAYER
  0
ENDSEC
  0
EOF
