  0
SECTION
  2
HEADER
  9
$ACADVER
  1
AC1012
  9
$DWGCODEPAGE
  3
ANSI_1252
  9
$INSBASE
 10
0.0
 20
0.0
 30
0.0
  9
$EXTMIN
 10
4.04538988983203
 20
5.943317283501336
 30
-0.0000000349181948
  9
$EXTMAX
 10
8.304991483271088
 20
9.251026283056564
 30
0.0000000814935746
  9
$LIMMIN
 10
0.0
 20
0.0
  9
$LIMMAX
 10
12.0
 20
9.0
  9
$ORTHOMODE
 70
     0
  9
$REGENMODE
 70
     1
  9
$FILLMODE
 70
     1
  9
$QTEXTMODE
 70
     0
  9
$MIRRTEXT
 70
     1
  9
$DRAGMODE
 70
     2
  9
$LTSCALE
 40
1.0
  9
$OSMODE
 70
    33
  9
$ATTMODE
 70
     1
  9
$TEXTSIZE
 40
0.2
  9
$TRACEWID
 40
0.05
  9
$TEXTSTYLE
  7
STANDARD
  9
$CLAYER
  8
0
  9
$CELTYPE
  6
BYLAYER
  9
$CECOLOR
 62
   256
  9
$CELTSCALE
 40
1.0
  9
$DELOBJ
 70
     1
  9
$DISPSILH
 70
     0
  9
$DIMSCALE
 40
1.0
  9
$DIMASZ
 40
0.18
  9
$DIMEXO
 40
0.0625
  9
$DIMDLI
 40
0.38
  9
$DIMRND
 40
0.0
  9
$DIMDLE
 40
0.0
  9
$DIMEXE
 40
0.18
  9
$DIMTP
 40
0.0
  9
$DIMTM
 40
0.0
  9
$DIMTXT
 40
0.18
  9
$DIMCEN
 40
0.09
  9
$DIMTSZ
 40
0.0
  9
$DIMTOL
 70
     0
  9
$DIMLIM
 70
     0
  9
$DIMTIH
 70
     1
  9
$DIMTOH
 70
     1
  9
$DIMSE1
 70
     0
  9
$DIMSE2
 70
     0
  9
$DIMTAD
 70
     0
  9
$DIMZIN
 70
     0
  9
$DIMBLK
  1

  9
$DIMASO
 70
     1
  9
$DIMSHO
 70
     1
  9
$DIMPOST
  1

  9
$DIMAPOST
  1

  9
$DIMALT
 70
     0
  9
$DIMALTD
 70
     2
  9
$DIMALTF
 40
25.4
  9
$DIMLFAC
 40
1.0
  9
$DIMTOFL
 70
     0
  9
$DIMTVP
 40
0.0
  9
$DIMTIX
 70
     0
  9
$DIMSOXD
 70
     0
  9
$DIMSAH
 70
     0
  9
$DIMBLK1
  1

  9
$DIMBLK2
  1

  9
$DIMSTYLE
  2
STANDARD
  9
$DIMCLRD
 70
     0
  9
$DIMCLRE
 70
     0
  9
$DIMCLRT
 70
     0
  9
$DIMTFAC
 40
1.0
  9
$DIMGAP
 40
0.09
  9
$DIMJUST
 70
     0
  9
$DIMSD1
 70
     0
  9
$DIMSD2
 70
     0
  9
$DIMTOLJ
 70
     1
  9
$DIMTZIN
 70
     0
  9
$DIMALTZ
 70
     0
  9
$DIMALTTZ
 70
     0
  9
$DIMFIT
 70
     5
  9
$DIMUPT
 70
     0
  9
$DIMUNIT
 70
     2
  9
$DIMDEC
 70
     4
  9
$DIMTDEC
 70
     4
  9
$DIMALTU
 70
     2
  9
$DIMALTTD
 70
     2
  9
$DIMTXSTY
  7
STANDARD
  9
$DIMAUNIT
 70
     0
  9
$LUNITS
 70
     2
  9
$LUPREC
 70
     4
  9
$SKETCHINC
 40
0.1
  9
$FILLETRAD
 40
0.0
  9
$AUNITS
 70
     0
  9
$AUPREC
 70
     0
  9
$MENU
  1
acad
  9
$ELEVATION
 40
0.0
  9
$PELEVATION
 40
0.0
  9
$THICKNESS
 40
0.0
  9
$LIMCHECK
 70
     0
  9
$BLIPMODE
 70
     0
  9
$CHAMFERA
 40
0.0
  9
$CHAMFERB
 40
0.0
  9
$CHAMFERC
 40
0.0
  9
$CHAMFERD
 40
0.0
  9
$SKPOLY
 70
     0
  9
$TDCREATE
 40
2451901.484201389
  9
$TDUPDATE
 40
2452347.369065404
  9
$TDINDWG
 40
0.0011150810
  9
$TDUSRTIMER
 40
0.0011150810
  9
$USRTIMER
 70
     1
  9
$ANGBASE
 50
0.0
  9
$ANGDIR
 70
     0
  9
$PDMODE
 70
     0
  9
$PDSIZE
 40
0.0
  9
$PLINEWID
 40
0.0
  9
$COORDS
 70
     2
  9
$SPLFRAME
 70
     0
  9
$SPLINETYPE
 70
     6
  9
$SPLINESEGS
 70
     8
  9
$ATTDIA
 70
     0
  9
$ATTREQ
 70
     1
  9
$HANDLING
 70
  4097
  9
$HANDSEED
  5
3A12
  9
$SURFTAB1
 70
     6
  9
$SURFTAB2
 70
     6
  9
$SURFTYPE
 70
     6
  9
$SURFU
 70
     6
  9
$SURFV
 70
     6
  9
$UCSNAME
  2

  9
$UCSORG
 10
0.0
 20
0.0
 30
0.0
  9
$UCSXDIR
 10
1.0
 20
0.0
 30
0.0
  9
$UCSYDIR
 10
0.0
 20
1.0
 30
0.0
  9
$PUCSNAME
  2

  9
$PUCSORG
 10
0.0
 20
0.0
 30
0.0
  9
$PUCSXDIR
 10
1.0
 20
0.0
 30
0.0
  9
$PUCSYDIR
 10
0.0
 20
1.0
 30
0.0
  9
$USERI1
 70
     0
  9
$USERI2
 70
     0
  9
$USERI3
 70
     0
  9
$USERI4
 70
     0
  9
$USERI5
 70
     0
  9
$USERR1
 40
0.0
  9
$USERR2
 40
0.0
  9
$USERR3
 40
0.0
  9
$USERR4
 40
0.0
  9
$USERR5
 40
0.0
  9
$WORLDVIEW
 70
     1
  9
$SHADEDGE
 70
     3
  9
$SHADEDIF
 70
    70
  9
$TILEMODE
 70
     1
  9
$MAXACTVP
 70
    16
  9
$PINSBASE
 10
0.0
 20
0.0
 30
0.0
  9
$PLIMCHECK
 70
     0
  9
$PEXTMIN
 10
1.000000000000000E+20
 20
1.000000000000000E+20
 30
1.000000000000000E+20
  9
$PEXTMAX
 10
-1.000000000000000E+20
 20
-1.000000000000000E+20
 30
-1.000000000000000E+20
  9
$PLIMMIN
 10
0.0
 20
0.0
  9
$PLIMMAX
 10
12.0
 20
9.0
  9
$UNITMODE
 70
     0
  9
$VISRETAIN
 70
     0
  9
$PLINEGEN
 70
     0
  9
$PSLTSCALE
 70
     1
  9
$TREEDEPTH
 70
  3020
  9
$PICKSTYLE
 70
     1
  9
$CMLSTYLE
  2
STANDARD
  9
$CMLJUST
 70
     0
  9
$CMLSCALE
 40
1.0
  9
$SAVEIMAGES
 70
     1
  0
ENDSEC
  0
SECTION
  2
CLASSES
  0
CLASS
  1
ACDBDICTIONARYWDFLT
  2
AcDbDictionaryWithDefault
  3
AutoCAD 2000
 90
    32768
280
     0
281
     0
  0
CLASS
  1
ACDBPLACEHOLDER
  2
AcDbPlaceHolder
  3
AutoCAD 2000
 90
    32768
280
     0
281
     0
  0
CLASS
  1
LAYOUT
  2
AcDbLayout
  3
AutoCAD 2000
 90
    32768
280
     0
281
     0
  0
CLASS
  1
LONG_TRANSACTION
  2
AcDbLongTransaction
  3
AutoCAD 2000
 90
    32768
280
     0
281
     0
  0
CLASS
  1
LWPOLYLINE
  2
AcDbPolyline
  3
AutoCAD 2000
 90
    32768
280
     0
281
     1
  0
CLASS
  1
HATCH
  2
AcDbHatch
  3
AutoCAD 2000
 90
    32768
280
     0
281
     1
  0
CLASS
  1
XRECORD
  2
AcDbXrecord
  3
AutoCAD 2000
 90
    32768
280
     0
281
     0
  0
ENDSEC
  0
SECTION
  2
TABLES
  0
TABLE
  2
VPORT
  5
8
330
0
100
AcDbSymbolTable
 70
     3
  0
VPORT
  5
3A0D
330
8
100
AcDbSymbolTableRecord
100
AcDbViewportTableRecord
  2
*ACTIVE
 70
     0
 10
0.0
 20
0.0
 11
1.0
 21
1.0
 12
6.175190686551558
 22
7.59717178327895
 13
0.0
 23
0.0
 14
1.0
 24
1.0
 15
0.0
 25
0.0
 16
0.0
 26
0.0
 36
1.0
 17
0.0
 27
0.0
 37
0.0
 40
3.333856896784912
 41
1.608179419525066
 42
50.0
 43
0.0
 44
0.0
 50
0.0
 51
0.0
 71
     0
 72
   100
 73
     1
 74
     1
 75
     0
 76
     0
 77
     0
 78
     0
  0
ENDTAB
  0
TABLE
  2
LTYPE
  5
5
330
0
100
AcDbSymbolTable
 70
    25
  0
LTYPE
  5
13
330
5
100
AcDbSymbolTableRecord
100
AcDbLinetypeTableRecord
  2
BYBLOCK
 70
     0
  3

 72
    65
 73
     0
 40
0.0
  0
LTYPE
  5
14
330
5
100
AcDbSymbolTableRecord
100
AcDbLinetypeTableRecord
  2
BYLAYER
 70
     0
  3

 72
    65
 73
     0
 40
0.0
  0
LTYPE
  5
15
330
5
100
AcDbSymbolTableRecord
100
AcDbLinetypeTableRecord
  2
CONTINUOUS
 70
     0
  3
Solid line
 72
    65
 73
     0
 40
0.0
  0
LTYPE
  5
22
330
5
100
AcDbSymbolTableRecord
100
AcDbLinetypeTableRecord
  2
BORDER
 70
     0
  3
__ __ . __ __ . __ __ . __ __ . __ __ . __ __ .
 72
    65
 73
     6
 40
1.75
 49
0.5
 74
     0
 49
-0.25
 74
     0
 49
0.5
 74
     0
 49
-0.25
 74
     0
 49
0.5
 74
     0
 49
-0.25
 74
     0
  0
LTYPE
  5
23
330
5
100
AcDbSymbolTableRecord
100
AcDbLinetypeTableRecord
  2
BORDER2
 70
     0
  3
__.__.__.__.__.__.__.__.__.__.__.__.__.__.__.__
 72
    65
 73
     6
 40
0.875
 49
0.25
 74
     0
 49
-0.125
 74
     0
 49
0.25
 74
     0
 49
-0.125
 74
     0
 49
0.25
 74
     0
 49
-0.125
 74
     0
  0
LTYPE
  5
24
330
5
100
AcDbSymbolTableRecord
100
AcDbLinetypeTableRecord
  2
BORDERX2
 70
     0
  3
____  ____  .  ____  ____  .  
 72
    65
 73
     6
 40
3.5
 49
1.0
 74
     0
 49
-0.5
 74
     0
 49
1.0
 74
     0
 49
-0.5
 74
     0
 49
1.0
 74
     0
 49
-0.5
 74
     0
  0
LTYPE
  5
25
330
5
100
AcDbSymbolTableRecord
100
AcDbLinetypeTableRecord
  2
CENTER
 70
     0
  3
____ _ ____ _ ____ _ ____ _ ____ _ ____ _ ____
 72
    65
 73
     4
 40
2.0
 49
1.25
 74
     0
 49
-0.25
 74
     0
 49
0.25
 74
     0
 49
-0.25
 74
     0
  0
LTYPE
  5
26
330
5
100
AcDbSymbolTableRecord
100
AcDbLinetypeTableRecord
  2
CENTER2
 70
     0
  3
____ _ ____ _ ____ _ ____ _ ____ _ ____ _ ____
 72
    65
 73
     4
 40
1.125
 49
0.75
 74
     0
 49
-0.125
 74
     0
 49
0.125
 74
     0
 49
-0.125
 74
     0
  0
LTYPE
  5
27
330
5
100
AcDbSymbolTableRecord
100
AcDbLinetypeTableRecord
  2
CENTERX2
 70
     0
  3
________  __  ________  __  ________  __  
 72
    65
 73
     4
 40
4.0
 49
2.5
 74
     0
 49
-0.5
 74
     0
 49
0.5
 74
     0
 49
-0.5
 74
     0
  0
LTYPE
  5
28
330
5
100
AcDbSymbolTableRecord
100
AcDbLinetypeTableRecord
  2
DASHDOT
 70
     0
  3
__ . __ . __ . __ . __ . __ . __ . 
 72
    65
 73
     4
 40
1.0
 49
0.5
 74
     0
 49
-0.25
 74
     0
 49
0.0
 74
     0
 49
-0.25
 74
     0
  0
LTYPE
  5
29
330
5
100
AcDbSymbolTableRecord
100
AcDbLinetypeTableRecord
  2
DASHDOT2
 70
     0
  3
_._._._._._._._._._._._._._._._.
 72
    65
 73
     4
 40
0.5
 49
0.25
 74
     0
 49
-0.125
 74
     0
 49
0.0
 74
     0
 49
-0.125
 74
     0
  0
LTYPE
  5
2A
330
5
100
AcDbSymbolTableRecord
100
AcDbLinetypeTableRecord
  2
DASHDOTX2
 70
     0
  3
____  .  ____  .  ____  .  ____  .  
 72
    65
 73
     4
 40
2.0
 49
1.0
 74
     0
 49
-0.5
 74
     0
 49
0.0
 74
     0
 49
-0.5
 74
     0
  0
LTYPE
  5
2B
330
5
100
AcDbSymbolTableRecord
100
AcDbLinetypeTableRecord
  2
DASHED
 70
     0
  3
__ __ __ __ __ __ __ __ __ __ __ __ 
 72
    65
 73
     2
 40
0.75
 49
0.5
 74
     0
 49
-0.25
 74
     0
  0
LTYPE
  5
2C
330
5
100
AcDbSymbolTableRecord
100
AcDbLinetypeTableRecord
  2
DASHED2
 70
     0
  3
_ _ _ _ _ _ _ _ _ _ _ _ _ _ _ _ _ _ 
 72
    65
 73
     2
 40
0.375
 49
0.25
 74
     0
 49
-0.125
 74
     0
  0
LTYPE
  5
2D
330
5
100
AcDbSymbolTableRecord
100
AcDbLinetypeTableRecord
  2
DASHEDX2
 70
     0
  3
____  ____  ____  ____  ____  ____  
 72
    65
 73
     2
 40
1.5
 49
1.0
 74
     0
 49
-0.5
 74
     0
  0
LTYPE
  5
2E
330
5
100
AcDbSymbolTableRecord
100
AcDbLinetypeTableRecord
  2
DIVIDE
 70
     0
  3
____ . . ____ . . ____ . . ____ . . 
 72
    65
 73
     6
 40
1.25
 49
0.5
 74
     0
 49
-0.25
 74
     0
 49
0.0
 74
     0
 49
-0.25
 74
     0
 49
0.0
 74
     0
 49
-0.25
 74
     0
  0
LTYPE
  5
2F
330
5
100
AcDbSymbolTableRecord
100
AcDbLinetypeTableRecord
  2
DIVIDE2
 70
     0
  3
__..__..__..__..__..__..__..__..__..
 72
    65
 73
     6
 40
0.625
 49
0.25
 74
     0
 49
-0.125
 74
     0
 49
0.0
 74
     0
 49
-0.125
 74
     0
 49
0.0
 74
     0
 49
-0.125
 74
     0
  0
LTYPE
  5
30
330
5
100
AcDbSymbolTableRecord
100
AcDbLinetypeTableRecord
  2
DIVIDEX2
 70
     0
  3
________  .  .  ________  .  .  ________  .  . 
 72
    65
 73
     6
 40
2.5
 49
1.0
 74
     0
 49
-0.5
 74
     0
 49
0.0
 74
     0
 49
-0.5
 74
     0
 49
0.0
 74
     0
 49
-0.5
 74
     0
  0
LTYPE
  5
31
330
5
100
AcDbSymbolTableRecord
100
AcDbLinetypeTableRecord
  2
DOT
 70
     0
  3
. . . . . . . . . . . . . . . . . . 
 72
    65
 73
     2
 40
0.25
 49
0.0
 74
     0
 49
-0.25
 74
     0
  0
LTYPE
  5
32
330
5
100
AcDbSymbolTableRecord
100
AcDbLinetypeTableRecord
  2
DOT2
 70
     0
  3
....................................
 72
    65
 73
     2
 40
0.125
 49
0.0
 74
     0
 49
-0.125
 74
     0
  0
LTYPE
  5
33
330
5
100
AcDbSymbolTableRecord
100
AcDbLinetypeTableRecord
  2
DOTX2
 70
     0
  3
.  .  .  .  .  .  .  .  .  .  .  .  .  
 72
    65
 73
     2
 40
0.5
 49
0.0
 74
     0
 49
-0.5
 74
     0
  0
LTYPE
  5
34
330
5
100
AcDbSymbolTableRecord
100
AcDbLinetypeTableRecord
  2
HIDDEN
 70
     0
  3
__ __ __ __ __ __ __ __ __ __ __ __ 
 72
    65
 73
     2
 40
0.375
 49
0.25
 74
     0
 49
-0.125
 74
     0
  0
LTYPE
  5
35
330
5
100
AcDbSymbolTableRecord
100
AcDbLinetypeTableRecord
  2
HIDDEN2
 70
     0
  3
_ _ _ _ _ _ _ _ _ _ _ _ _ _ _ _ _ _ 
 72
    65
 73
     2
 40
0.1875
 49
0.125
 74
     0
 49
-0.0625
 74
     0
  0
LTYPE
  5
36
330
5
100
AcDbSymbolTableRecord
100
AcDbLinetypeTableRecord
  2
HIDDENX2
 70
     0
  3
____ ____ ____ ____ ____ ____ ____ 
 72
    65
 73
     2
 40
0.75
 49
0.5
 74
     0
 49
-0.25
 74
     0
  0
LTYPE
  5
37
330
5
100
AcDbSymbolTableRecord
100
AcDbLinetypeTableRecord
  2
PHANTOM
 70
     0
  3
______  __  __  ______  __  __  
 72
    65
 73
     6
 40
2.5
 49
1.25
 74
     0
 49
-0.25
 74
     0
 49
0.25
 74
     0
 49
-0.25
 74
     0
 49
0.25
 74
     0
 49
-0.25
 74
     0
  0
LTYPE
  5
38
330
5
100
AcDbSymbolTableRecord
100
AcDbLinetypeTableRecord
  2
PHANTOM2
 70
     0
  3
___ _ _ ___ _ _ ___ _ _ ___ _ _ 
 72
    65
 73
     6
 40
1.25
 49
0.625
 74
     0
 49
-0.125
 74
     0
 49
0.125
 74
     0
 49
-0.125
 74
     0
 49
0.125
 74
     0
 49
-0.125
 74
     0
  0
LTYPE
  5
39
330
5
100
AcDbSymbolTableRecord
100
AcDbLinetypeTableRecord
  2
PHANTOMX2
 70
     0
  3
___ _ _ ___ _ _ ___ _ _ ___ _ _ 
 72
    65
 73
     6
 40
5.0
 49
2.5
 74
     0
 49
-0.5
 74
     0
 49
0.5
 74
     0
 49
-0.5
 74
     0
 49
0.5
 74
     0
 49
-0.5
 74
     0
  0
ENDTAB
  0
TABLE
  2
LAYER
  5
2
330
0
100
AcDbSymbolTable
 70
   256
  0
LAYER
  5
10
330
2
100
AcDbSymbolTableRecord
100
AcDbLayerTableRecord
  2
0
 70
     0
 62
     7
  6
CONTINUOUS
  0
LAYER
  5
3A
330
2
100
AcDbSymbolTableRecord
100
AcDbLayerTableRecord
  2
1
 70
     0
 62
     1
  6
CONTINUOUS
  0
LAYER
  5
3B
330
2
100
AcDbSymbolTableRecord
100
AcDbLayerTableRecord
  2
2
 70
     0
 62
     2
  6
CONTINUOUS
  0
LAYER
  5
3C
330
2
100
AcDbSymbolTableRecord
100
AcDbLayerTableRecord
  2
3
 70
     0
 62
     3
  6
CONTINUOUS
  0
LAYER
  5
3D
330
2
100
AcDbSymbolTableRecord
100
AcDbLayerTableRecord
  2
4
 70
     0
 62
     4
  6
CONTINUOUS
  0
LAYER
  5
3E
330
2
100
AcDbSymbolTableRecord
100
AcDbLayerTableRecord
  2
5
 70
     0
 62
     5
  6
CONTINUOUS
  0
LAYER
  5
3F
330
2
100
AcDbSymbolTableRecord
100
AcDbLayerTableRecord
  2
6
 70
     0
 62
     6
  6
CONTINUOUS
  0
LAYER
  5
40
330
2
100
AcDbSymbolTableRecord
100
AcDbLayerTableRecord
  2
7
 70
     0
 62
     7
  6
CONTINUOUS
  0
LAYER
  5
41
330
2
100
AcDbSymbolTableRecord
100
AcDbLayerTableRecord
  2
8
 70
     0
 62
     8
  6
CONTINUOUS
  0
LAYER
  5
42
330
2
100
AcDbSymbolTableRecord
100
AcDbLayerTableRecord
  2
9
 70
     0
 62
     9
  6
CONTINUOUS
  0
LAYER
  5
43
330
2
100
AcDbSymbolTableRecord
100
AcDbLayerTableRecord
  2
10
 70
     0
 62
    10
  6
CONTINUOUS
  0
LAYER
  5
44
330
2
100
AcDbSymbolTableRecord
100
AcDbLayerTableRecord
  2
11
 70
     0
 62
    11
  6
CONTINUOUS
  0
LAYER
  5
45
330
2
100
AcDbSymbolTableRecord
100
AcDbLayerTableRecord
  2
12
 70
     0
 62
    12
  6
CONTINUOUS
  0
LAYER
  5
46
330
2
100
AcDbSymbolTableRecord
100
AcDbLayerTableRecord
  2
13
 70
     0
 62
    13
  6
CONTINUOUS
  0
LAYER
  5
47
330
2
100
AcDbSymbolTableRecord
100
AcDbLayerTableRecord
  2
14
 70
     0
 62
    14
  6
CONTINUOUS
  0
LAYER
  5
48
330
2
100
AcDbSymbolTableRecord
100
AcDbLayerTableRecord
  2
15
 70
     0
 62
    15
  6
CONTINUOUS
  0
LAYER
  5
49
330
2
100
AcDbSymbolTableRecord
100
AcDbLayerTableRecord
  2
16
 70
     0
 62
    16
  6
CONTINUOUS
  0
LAYER
  5
4A
330
2
100
AcDbSymbolTableRecord
100
AcDbLayerTableRecord
  2
17
 70
     0
 62
    17
  6
CONTINUOUS
  0
LAYER
  5
4B
330
2
100
AcDbSymbolTableRecord
100
AcDbLayerTableRecord
  2
18
 70
     0
 62
    18
  6
CONTINUOUS
  0
LAYER
  5
4C
330
2
100
AcDbSymbolTableRecord
100
AcDbLayerTableRecord
  2
19
 70
     0
 62
    19
  6
CONTINUOUS
  0
LAYER
  5
4D
330
2
100
AcDbSymbolTableRecord
100
AcDbLayerTableRecord
  2
20
 70
     0
 62
    20
  6
CONTINUOUS
  0
LAYER
  5
4E
330
2
100
AcDbSymbolTableRecord
100
AcDbLayerTableRecord
  2
21
 70
     0
 62
    21
  6
CONTINUOUS
  0
LAYER
  5
4F
330
2
100
AcDbSymbolTableRecord
100
AcDbLayerTableRecord
  2
22
 70
     0
 62
    22
  6
CONTINUOUS
  0
LAYER
  5
50
330
2
100
AcDbSymbolTableRecord
100
AcDbLayerTableRecord
  2
23
 70
     0
 62
    23
  6
CONTINUOUS
  0
LAYER
  5
51
330
2
100
AcDbSymbolTableRecord
100
AcDbLayerTableRecord
  2
24
 70
     0
 62
    24
  6
CONTINUOUS
  0
LAYER
  5
52
330
2
100
AcDbSymbolTableRecord
100
AcDbLayerTableRecord
  2
25
 70
     0
 62
    25
  6
CONTINUOUS
  0
LAYER
  5
53
330
2
100
AcDbSymbolTableRecord
100
AcDbLayerTableRecord
  2
26
 70
     0
 62
    26
  6
CONTINUOUS
  0
LAYER
  5
54
330
2
100
AcDbSymbolTableRecord
100
AcDbLayerTableRecord
  2
27
 70
     0
 62
    27
  6
CONTINUOUS
  0
LAYER
  5
55
330
2
100
AcDbSymbolTableRecord
100
AcDbLayerTableRecord
  2
28
 70
     0
 62
    28
  6
CONTINUOUS
  0
LAYER
  5
56
330
2
100
AcDbSymbolTableRecord
100
AcDbLayerTableRecord
  2
29
 70
     0
 62
    29
  6
CONTINUOUS
  0
LAYER
  5
57
330
2
100
AcDbSymbolTableRecord
100
AcDbLayerTableRecord
  2
30
 70
     0
 62
    30
  6
CONTINUOUS
  0
LAYER
  5
58
330
2
100
AcDbSymbolTableRecord
100
AcDbLayerTableRecord
  2
31
 70
     0
 62
    31
  6
CONTINUOUS
  0
LAYER
  5
59
330
2
100
AcDbSymbolTableRecord
100
AcDbLayerTableRecord
  2
32
 70
     0
 62
    32
  6
CONTINUOUS
  0
LAYER
  5
5A
330
2
100
AcDbSymbolTableRecord
100
AcDbLayerTableRecord
  2
33
 70
     0
 62
    33
  6
CONTINUOUS
  0
LAYER
  5
5B
330
2
100
AcDbSymbolTableRecord
100
AcDbLayerTableRecord
  2
34
 70
     0
 62
    34
  6
CONTINUOUS
  0
LAYER
  5
5C
330
2
100
AcDbSymbolTableRecord
100
AcDbLayerTableRecord
  2
35
 70
     0
 62
    35
  6
CONTINUOUS
  0
LAYER
  5
5D
330
2
100
AcDbSymbolTableRecord
100
AcDbLayerTableRecord
  2
36
 70
     0
 62
    36
  6
CONTINUOUS
  0
LAYER
  5
5E
330
2
100
AcDbSymbolTableRecord
100
AcDbLayerTableRecord
  2
37
 70
     0
 62
    37
  6
CONTINUOUS
  0
LAYER
  5
5F
330
2
100
AcDbSymbolTableRecord
100
AcDbLayerTableRecord
  2
38
 70
     0
 62
    38
  6
CONTINUOUS
  0
LAYER
  5
60
330
2
100
AcDbSymbolTableRecord
100
AcDbLayerTableRecord
  2
39
 70
     0
 62
    39
  6
CONTINUOUS
  0
LAYER
  5
61
330
2
100
AcDbSymbolTableRecord
100
AcDbLayerTableRecord
  2
40
 70
     0
 62
    40
  6
CONTINUOUS
  0
LAYER
  5
62
330
2
100
AcDbSymbolTableRecord
100
AcDbLayerTableRecord
  2
41
 70
     0
 62
    41
  6
CONTINUOUS
  0
LAYER
  5
63
330
2
100
AcDbSymbolTableRecord
100
AcDbLayerTableRecord
  2
42
 70
     0
 62
    42
  6
CONTINUOUS
  0
LAYER
  5
64
330
2
100
AcDbSymbolTableRecord
100
AcDbLayerTableRecord
  2
43
 70
     0
 62
    43
  6
CONTINUOUS
  0
LAYER
  5
65
330
2
100
AcDbSymbolTableRecord
100
AcDbLayerTableRecord
  2
44
 70
     0
 62
    44
  6
CONTINUOUS
  0
LAYER
  5
66
330
2
100
AcDbSymbolTableRecord
100
AcDbLayerTableRecord
  2
45
 70
     0
 62
    45
  6
CONTINUOUS
  0
LAYER
  5
67
330
2
100
AcDbSymbolTableRecord
100
AcDbLayerTableRecord
  2
46
 70
     0
 62
    46
  6
CONTINUOUS
  0
LAYER
  5
68
330
2
100
AcDbSymbolTableRecord
100
AcDbLayerTableRecord
  2
47
 70
     0
 62
    47
  6
CONTINUOUS
  0
LAYER
  5
69
330
2
100
AcDbSymbolTableRecord
100
AcDbLayerTableRecord
  2
48
 70
     0
 62
    48
  6
CONTINUOUS
  0
LAYER
  5
6A
330
2
100
AcDbSymbolTableRecord
100
AcDbLayerTableRecord
  2
49
 70
     0
 62
    49
  6
CONTINUOUS
  0
LAYER
  5
6B
330
2
100
AcDbSymbolTableRecord
100
AcDbLayerTableRecord
  2
50
 70
     0
 62
    50
  6
CONTINUOUS
  0
LAYER
  5
6C
330
2
100
AcDbSymbolTableRecord
100
AcDbLayerTableRecord
  2
51
 70
     0
 62
    51
  6
CONTINUOUS
  0
LAYER
  5
6D
330
2
100
AcDbSymbolTableRecord
100
AcDbLayerTableRecord
  2
52
 70
     0
 62
    52
  6
CONTINUOUS
  0
LAYER
  5
6E
330
2
100
AcDbSymbolTableRecord
100
AcDbLayerTableRecord
  2
53
 70
     0
 62
    53
  6
CONTINUOUS
  0
LAYER
  5
6F
330
2
100
AcDbSymbolTableRecord
100
AcDbLayerTableRecord
  2
54
 70
     0
 62
    54
  6
CONTINUOUS
  0
LAYER
  5
70
330
2
100
AcDbSymbolTableRecord
100
AcDbLayerTableRecord
  2
55
 70
     0
 62
    55
  6
CONTINUOUS
  0
LAYER
  5
71
330
2
100
AcDbSymbolTableRecord
100
AcDbLayerTableRecord
  2
56
 70
     0
 62
    56
  6
CONTINUOUS
  0
LAYER
  5
72
330
2
100
AcDbSymbolTableRecord
100
AcDbLayerTableRecord
  2
57
 70
     0
 62
    57
  6
CONTINUOUS
  0
LAYER
  5
73
330
2
100
AcDbSymbolTableRecord
100
AcDbLayerTableRecord
  2
58
 70
     0
 62
    58
  6
CONTINUOUS
  0
LAYER
  5
74
330
2
100
AcDbSymbolTableRecord
100
AcDbLayerTableRecord
  2
59
 70
     0
 62
    59
  6
CONTINUOUS
  0
LAYER
  5
75
330
2
100
AcDbSymbolTableRecord
100
AcDbLayerTableRecord
  2
60
 70
     0
 62
    60
  6
CONTINUOUS
  0
LAYER
  5
76
330
2
100
AcDbSymbolTableRecord
100
AcDbLayerTableRecord
  2
61
 70
     0
 62
    61
  6
CONTINUOUS
  0
LAYER
  5
77
330
2
100
AcDbSymbolTableRecord
100
AcDbLayerTableRecord
  2
62
 70
     0
 62
    62
  6
CONTINUOUS
  0
LAYER
  5
78
330
2
100
AcDbSymbolTableRecord
100
AcDbLayerTableRecord
  2
63
 70
     0
 62
    63
  6
CONTINUOUS
  0
LAYER
  5
79
330
2
100
AcDbSymbolTableRecord
100
AcDbLayerTableRecord
  2
64
 70
     0
 62
    64
  6
CONTINUOUS
  0
LAYER
  5
7A
330
2
100
AcDbSymbolTableRecord
100
AcDbLayerTableRecord
  2
65
 70
     0
 62
    65
  6
CONTINUOUS
  0
LAYER
  5
7B
330
2
100
AcDbSymbolTableRecord
100
AcDbLayerTableRecord
  2
66
 70
     0
 62
    66
  6
CONTINUOUS
  0
LAYER
  5
7C
330
2
100
AcDbSymbolTableRecord
100
AcDbLayerTableRecord
  2
67
 70
     0
 62
    67
  6
CONTINUOUS
  0
LAYER
  5
7D
330
2
100
AcDbSymbolTableRecord
100
AcDbLayerTableRecord
  2
68
 70
     0
 62
    68
  6
CONTINUOUS
  0
LAYER
  5
7E
330
2
100
AcDbSymbolTableRecord
100
AcDbLayerTableRecord
  2
69
 70
     0
 62
    69
  6
CONTINUOUS
  0
LAYER
  5
7F
330
2
100
AcDbSymbolTableRecord
100
AcDbLayerTableRecord
  2
70
 70
     0
 62
    70
  6
CONTINUOUS
  0
LAYER
  5
80
330
2
100
AcDbSymbolTableRecord
100
AcDbLayerTableRecord
  2
71
 70
     0
 62
    71
  6
CONTINUOUS
  0
LAYER
  5
81
330
2
100
AcDbSymbolTableRecord
100
AcDbLayerTableRecord
  2
72
 70
     0
 62
    72
  6
CONTINUOUS
  0
LAYER
  5
82
330
2
100
AcDbSymbolTableRecord
100
AcDbLayerTableRecord
  2
73
 70
     0
 62
    73
  6
CONTINUOUS
  0
LAYER
  5
83
330
2
100
AcDbSymbolTableRecord
100
AcDbLayerTableRecord
  2
74
 70
     0
 62
    74
  6
CONTINUOUS
  0
LAYER
  5
84
330
2
100
AcDbSymbolTableRecord
100
AcDbLayerTableRecord
  2
75
 70
     0
 62
    75
  6
CONTINUOUS
  0
LAYER
  5
85
330
2
100
AcDbSymbolTableRecord
100
AcDbLayerTableRecord
  2
76
 70
     0
 62
    76
  6
CONTINUOUS
  0
LAYER
  5
86
330
2
100
AcDbSymbolTableRecord
100
AcDbLayerTableRecord
  2
77
 70
     0
 62
    77
  6
CONTINUOUS
  0
LAYER
  5
87
330
2
100
AcDbSymbolTableRecord
100
AcDbLayerTableRecord
  2
78
 70
     0
 62
    78
  6
CONTINUOUS
  0
LAYER
  5
88
330
2
100
AcDbSymbolTableRecord
100
AcDbLayerTableRecord
  2
79
 70
     0
 62
    79
  6
CONTINUOUS
  0
LAYER
  5
89
330
2
100
AcDbSymbolTableRecord
100
AcDbLayerTableRecord
  2
80
 70
     0
 62
    80
  6
CONTINUOUS
  0
LAYER
  5
8A
330
2
100
AcDbSymbolTableRecord
100
AcDbLayerTableRecord
  2
81
 70
     0
 62
    81
  6
CONTINUOUS
  0
LAYER
  5
8B
330
2
100
AcDbSymbolTableRecord
100
AcDbLayerTableRecord
  2
82
 70
     0
 62
    82
  6
CONTINUOUS
  0
LAYER
  5
8C
330
2
100
AcDbSymbolTableRecord
100
AcDbLayerTableRecord
  2
83
 70
     0
 62
    83
  6
CONTINUOUS
  0
LAYER
  5
8D
330
2
100
AcDbSymbolTableRecord
100
AcDbLayerTableRecord
  2
84
 70
     0
 62
    84
  6
CONTINUOUS
  0
LAYER
  5
8E
330
2
100
AcDbSymbolTableRecord
100
AcDbLayerTableRecord
  2
85
 70
     0
 62
    85
  6
CONTINUOUS
  0
LAYER
  5
8F
330
2
100
AcDbSymbolTableRecord
100
AcDbLayerTableRecord
  2
86
 70
     0
 62
    86
  6
CONTINUOUS
  0
LAYER
  5
90
330
2
100
AcDbSymbolTableRecord
100
AcDbLayerTableRecord
  2
87
 70
     0
 62
    87
  6
CONTINUOUS
  0
LAYER
  5
91
330
2
100
AcDbSymbolTableRecord
100
AcDbLayerTableRecord
  2
88
 70
     0
 62
    88
  6
CONTINUOUS
  0
LAYER
  5
92
330
2
100
AcDbSymbolTableRecord
100
AcDbLayerTableRecord
  2
89
 70
     0
 62
    89
  6
CONTINUOUS
  0
LAYER
  5
93
330
2
100
AcDbSymbolTableRecord
100
AcDbLayerTableRecord
  2
90
 70
     0
 62
    90
  6
CONTINUOUS
  0
LAYER
  5
94
330
2
100
AcDbSymbolTableRecord
100
AcDbLayerTableRecord
  2
91
 70
     0
 62
    91
  6
CONTINUOUS
  0
LAYER
  5
95
330
2
100
AcDbSymbolTableRecord
100
AcDbLayerTableRecord
  2
92
 70
     0
 62
    92
  6
CONTINUOUS
  0
LAYER
  5
96
330
2
100
AcDbSymbolTableRecord
100
AcDbLayerTableRecord
  2
93
 70
     0
 62
    93
  6
CONTINUOUS
  0
LAYER
  5
97
330
2
100
AcDbSymbolTableRecord
100
AcDbLayerTableRecord
  2
94
 70
     0
 62
    94
  6
CONTINUOUS
  0
LAYER
  5
98
330
2
100
AcDbSymbolTableRecord
100
AcDbLayerTableRecord
  2
95
 70
     0
 62
    95
  6
CONTINUOUS
  0
LAYER
  5
99
330
2
100
AcDbSymbolTableRecord
100
AcDbLayerTableRecord
  2
96
 70
     0
 62
    96
  6
CONTINUOUS
  0
LAYER
  5
9A
330
2
100
AcDbSymbolTableRecord
100
AcDbLayerTableRecord
  2
97
 70
     0
 62
    97
  6
CONTINUOUS
  0
LAYER
  5
9B
330
2
100
AcDbSymbolTableRecord
100
AcDbLayerTableRecord
  2
98
 70
     0
 62
    98
  6
CONTINUOUS
  0
LAYER
  5
9C
330
2
100
AcDbSymbolTableRecord
100
AcDbLayerTableRecord
  2
99
 70
     0
 62
    99
  6
CONTINUOUS
  0
LAYER
  5
9D
330
2
100
AcDbSymbolTableRecord
100
AcDbLayerTableRecord
  2
100
 70
     0
 62
   100
  6
CONTINUOUS
  0
LAYER
  5
9E
330
2
100
AcDbSymbolTableRecord
100
AcDbLayerTableRecord
  2
101
 70
     0
 62
   101
  6
CONTINUOUS
  0
LAYER
  5
9F
330
2
100
AcDbSymbolTableRecord
100
AcDbLayerTableRecord
  2
102
 70
     0
 62
   102
  6
CONTINUOUS
  0
LAYER
  5
A0
330
2
100
AcDbSymbolTableRecord
100
AcDbLayerTableRecord
  2
103
 70
     0
 62
   103
  6
CONTINUOUS
  0
LAYER
  5
A1
330
2
100
AcDbSymbolTableRecord
100
AcDbLayerTableRecord
  2
104
 70
     0
 62
   104
  6
CONTINUOUS
  0
LAYER
  5
A2
330
2
100
AcDbSymbolTableRecord
100
AcDbLayerTableRecord
  2
105
 70
     0
 62
   105
  6
CONTINUOUS
  0
LAYER
  5
A3
330
2
100
AcDbSymbolTableRecord
100
AcDbLayerTableRecord
  2
106
 70
     0
 62
   106
  6
CONTINUOUS
  0
LAYER
  5
A4
330
2
100
AcDbSymbolTableRecord
100
AcDbLayerTableRecord
  2
107
 70
     0
 62
   107
  6
CONTINUOUS
  0
LAYER
  5
A5
330
2
100
AcDbSymbolTableRecord
100
AcDbLayerTableRecord
  2
108
 70
     0
 62
   108
  6
CONTINUOUS
  0
LAYER
  5
A6
330
2
100
AcDbSymbolTableRecord
100
AcDbLayerTableRecord
  2
109
 70
     0
 62
   109
  6
CONTINUOUS
  0
LAYER
  5
A7
330
2
100
AcDbSymbolTableRecord
100
AcDbLayerTableRecord
  2
110
 70
     0
 62
   110
  6
CONTINUOUS
  0
LAYER
  5
A8
330
2
100
AcDbSymbolTableRecord
100
AcDbLayerTableRecord
  2
111
 70
     0
 62
   111
  6
CONTINUOUS
  0
LAYER
  5
A9
330
2
100
AcDbSymbolTableRecord
100
AcDbLayerTableRecord
  2
112
 70
     0
 62
   112
  6
CONTINUOUS
  0
LAYER
  5
AA
330
2
100
AcDbSymbolTableRecord
100
AcDbLayerTableRecord
  2
113
 70
     0
 62
   113
  6
CONTINUOUS
  0
LAYER
  5
AB
330
2
100
AcDbSymbolTableRecord
100
AcDbLayerTableRecord
  2
114
 70
     0
 62
   114
  6
CONTINUOUS
  0
LAYER
  5
AC
330
2
100
AcDbSymbolTableRecord
100
AcDbLayerTableRecord
  2
115
 70
     0
 62
   115
  6
CONTINUOUS
  0
LAYER
  5
AD
330
2
100
AcDbSymbolTableRecord
100
AcDbLayerTableRecord
  2
116
 70
     0
 62
   116
  6
CONTINUOUS
  0
LAYER
  5
AE
330
2
100
AcDbSymbolTableRecord
100
AcDbLayerTableRecord
  2
117
 70
     0
 62
   117
  6
CONTINUOUS
  0
LAYER
  5
AF
330
2
100
AcDbSymbolTableRecord
100
AcDbLayerTableRecord
  2
118
 70
     0
 62
   118
  6
CONTINUOUS
  0
LAYER
  5
B0
330
2
100
AcDbSymbolTableRecord
100
AcDbLayerTableRecord
  2
119
 70
     0
 62
   119
  6
CONTINUOUS
  0
LAYER
  5
B1
330
2
100
AcDbSymbolTableRecord
100
AcDbLayerTableRecord
  2
120
 70
     0
 62
   120
  6
CONTINUOUS
  0
LAYER
  5
B2
330
2
100
AcDbSymbolTableRecord
100
AcDbLayerTableRecord
  2
121
 70
     0
 62
   121
  6
CONTINUOUS
  0
LAYER
  5
B3
330
2
100
AcDbSymbolTableRecord
100
AcDbLayerTableRecord
  2
122
 70
     0
 62
   122
  6
CONTINUOUS
  0
LAYER
  5
B4
330
2
100
AcDbSymbolTableRecord
100
AcDbLayerTableRecord
  2
123
 70
     0
 62
   123
  6
CONTINUOUS
  0
LAYER
  5
B5
330
2
100
AcDbSymbolTableRecord
100
AcDbLayerTableRecord
  2
124
 70
     0
 62
   124
  6
CONTINUOUS
  0
LAYER
  5
B6
330
2
100
AcDbSymbolTableRecord
100
AcDbLayerTableRecord
  2
125
 70
     0
 62
   125
  6
CONTINUOUS
  0
LAYER
  5
B7
330
2
100
AcDbSymbolTableRecord
100
AcDbLayerTableRecord
  2
126
 70
     0
 62
   126
  6
CONTINUOUS
  0
LAYER
  5
B8
330
2
100
AcDbSymbolTableRecord
100
AcDbLayerTableRecord
  2
127
 70
     0
 62
   127
  6
CONTINUOUS
  0
LAYER
  5
B9
330
2
100
AcDbSymbolTableRecord
100
AcDbLayerTableRecord
  2
128
 70
     0
 62
   128
  6
CONTINUOUS
  0
LAYER
  5
BA
330
2
100
AcDbSymbolTableRecord
100
AcDbLayerTableRecord
  2
129
 70
     0
 62
   129
  6
CONTINUOUS
  0
LAYER
  5
BB
330
2
100
AcDbSymbolTableRecord
100
AcDbLayerTableRecord
  2
130
 70
     0
 62
   130
  6
CONTINUOUS
  0
LAYER
  5
BC
330
2
100
AcDbSymbolTableRecord
100
AcDbLayerTableRecord
  2
131
 70
     0
 62
   131
  6
CONTINUOUS
  0
LAYER
  5
BD
330
2
100
AcDbSymbolTableRecord
100
AcDbLayerTableRecord
  2
132
 70
     0
 62
   132
  6
CONTINUOUS
  0
LAYER
  5
BE
330
2
100
AcDbSymbolTableRecord
100
AcDbLayerTableRecord
  2
133
 70
     0
 62
   133
  6
CONTINUOUS
  0
LAYER
  5
BF
330
2
100
AcDbSymbolTableRecord
100
AcDbLayerTableRecord
  2
134
 70
     0
 62
   134
  6
CONTINUOUS
  0
LAYER
  5
C0
330
2
100
AcDbSymbolTableRecord
100
AcDbLayerTableRecord
  2
135
 70
     0
 62
   135
  6
CONTINUOUS
  0
LAYER
  5
C1
330
2
100
AcDbSymbolTableRecord
100
AcDbLayerTableRecord
  2
136
 70
     0
 62
   136
  6
CONTINUOUS
  0
LAYER
  5
C2
330
2
100
AcDbSymbolTableRecord
100
AcDbLayerTableRecord
  2
137
 70
     0
 62
   137
  6
CONTINUOUS
  0
LAYER
  5
C3
330
2
100
AcDbSymbolTableRecord
100
AcDbLayerTableRecord
  2
138
 70
     0
 62
   138
  6
CONTINUOUS
  0
LAYER
  5
C4
330
2
100
AcDbSymbolTableRecord
100
AcDbLayerTableRecord
  2
139
 70
     0
 62
   139
  6
CONTINUOUS
  0
LAYER
  5
C5
330
2
100
AcDbSymbolTableRecord
100
AcDbLayerTableRecord
  2
140
 70
     0
 62
   140
  6
CONTINUOUS
  0
LAYER
  5
C6
330
2
100
AcDbSymbolTableRecord
100
AcDbLayerTableRecord
  2
141
 70
     0
 62
   141
  6
CONTINUOUS
  0
LAYER
  5
C7
330
2
100
AcDbSymbolTableRecord
100
AcDbLayerTableRecord
  2
142
 70
     0
 62
   142
  6
CONTINUOUS
  0
LAYER
  5
C8
330
2
100
AcDbSymbolTableRecord
100
AcDbLayerTableRecord
  2
143
 70
     0
 62
   143
  6
CONTINUOUS
  0
LAYER
  5
C9
330
2
100
AcDbSymbolTableRecord
100
AcDbLayerTableRecord
  2
144
 70
     0
 62
   144
  6
CONTINUOUS
  0
LAYER
  5
CA
330
2
100
AcDbSymbolTableRecord
100
AcDbLayerTableRecord
  2
145
 70
     0
 62
   145
  6
CONTINUOUS
  0
LAYER
  5
CB
330
2
100
AcDbSymbolTableRecord
100
AcDbLayerTableRecord
  2
146
 70
     0
 62
   146
  6
CONTINUOUS
  0
LAYER
  5
CC
330
2
100
AcDbSymbolTableRecord
100
AcDbLayerTableRecord
  2
147
 70
     0
 62
   147
  6
CONTINUOUS
  0
LAYER
  5
CD
330
2
100
AcDbSymbolTableRecord
100
AcDbLayerTableRecord
  2
148
 70
     0
 62
   148
  6
CONTINUOUS
  0
LAYER
  5
CE
330
2
100
AcDbSymbolTableRecord
100
AcDbLayerTableRecord
  2
149
 70
     0
 62
   149
  6
CONTINUOUS
  0
LAYER
  5
CF
330
2
100
AcDbSymbolTableRecord
100
AcDbLayerTableRecord
  2
150
 70
     0
 62
   150
  6
CONTINUOUS
  0
LAYER
  5
D0
330
2
100
AcDbSymbolTableRecord
100
AcDbLayerTableRecord
  2
151
 70
     0
 62
   151
  6
CONTINUOUS
  0
LAYER
  5
D1
330
2
100
AcDbSymbolTableRecord
100
AcDbLayerTableRecord
  2
152
 70
     0
 62
   152
  6
CONTINUOUS
  0
LAYER
  5
D2
330
2
100
AcDbSymbolTableRecord
100
AcDbLayerTableRecord
  2
153
 70
     0
 62
   153
  6
CONTINUOUS
  0
LAYER
  5
D3
330
2
100
AcDbSymbolTableRecord
100
AcDbLayerTableRecord
  2
154
 70
     0
 62
   154
  6
CONTINUOUS
  0
LAYER
  5
D4
330
2
100
AcDbSymbolTableRecord
100
AcDbLayerTableRecord
  2
155
 70
     0
 62
   155
  6
CONTINUOUS
  0
LAYER
  5
D5
330
2
100
AcDbSymbolTableRecord
100
AcDbLayerTableRecord
  2
156
 70
     0
 62
   156
  6
CONTINUOUS
  0
LAYER
  5
D6
330
2
100
AcDbSymbolTableRecord
100
AcDbLayerTableRecord
  2
157
 70
     0
 62
   157
  6
CONTINUOUS
  0
LAYER
  5
D7
330
2
100
AcDbSymbolTableRecord
100
AcDbLayerTableRecord
  2
158
 70
     0
 62
   158
  6
CONTINUOUS
  0
LAYER
  5
D8
330
2
100
AcDbSymbolTableRecord
100
AcDbLayerTableRecord
  2
159
 70
     0
 62
   159
  6
CONTINUOUS
  0
LAYER
  5
D9
330
2
100
AcDbSymbolTableRecord
100
AcDbLayerTableRecord
  2
160
 70
     0
 62
   160
  6
CONTINUOUS
  0
LAYER
  5
DA
330
2
100
AcDbSymbolTableRecord
100
AcDbLayerTableRecord
  2
161
 70
     0
 62
   161
  6
CONTINUOUS
  0
LAYER
  5
DB
330
2
100
AcDbSymbolTableRecord
100
AcDbLayerTableRecord
  2
162
 70
     0
 62
   162
  6
CONTINUOUS
  0
LAYER
  5
DC
330
2
100
AcDbSymbolTableRecord
100
AcDbLayerTableRecord
  2
163
 70
     0
 62
   163
  6
CONTINUOUS
  0
LAYER
  5
DD
330
2
100
AcDbSymbolTableRecord
100
AcDbLayerTableRecord
  2
164
 70
     0
 62
   164
  6
CONTINUOUS
  0
LAYER
  5
DE
330
2
100
AcDbSymbolTableRecord
100
AcDbLayerTableRecord
  2
165
 70
     0
 62
   165
  6
CONTINUOUS
  0
LAYER
  5
DF
330
2
100
AcDbSymbolTableRecord
100
AcDbLayerTableRecord
  2
166
 70
     0
 62
   166
  6
CONTINUOUS
  0
LAYER
  5
E0
330
2
100
AcDbSymbolTableRecord
100
AcDbLayerTableRecord
  2
167
 70
     0
 62
   167
  6
CONTINUOUS
  0
LAYER
  5
E1
330
2
100
AcDbSymbolTableRecord
100
AcDbLayerTableRecord
  2
168
 70
     0
 62
   168
  6
CONTINUOUS
  0
LAYER
  5
E2
330
2
100
AcDbSymbolTableRecord
100
AcDbLayerTableRecord
  2
169
 70
     0
 62
   169
  6
CONTINUOUS
  0
LAYER
  5
E3
330
2
100
AcDbSymbolTableRecord
100
AcDbLayerTableRecord
  2
170
 70
     0
 62
   170
  6
CONTINUOUS
  0
LAYER
  5
E4
330
2
100
AcDbSymbolTableRecord
100
AcDbLayerTableRecord
  2
171
 70
     0
 62
   171
  6
CONTINUOUS
  0
LAYER
  5
E5
330
2
100
AcDbSymbolTableRecord
100
AcDbLayerTableRecord
  2
172
 70
     0
 62
   172
  6
CONTINUOUS
  0
LAYER
  5
E6
330
2
100
AcDbSymbolTableRecord
100
AcDbLayerTableRecord
  2
173
 70
     0
 62
   173
  6
CONTINUOUS
  0
LAYER
  5
E7
330
2
100
AcDbSymbolTableRecord
100
AcDbLayerTableRecord
  2
174
 70
     0
 62
   174
  6
CONTINUOUS
  0
LAYER
  5
E8
330
2
100
AcDbSymbolTableRecord
100
AcDbLayerTableRecord
  2
175
 70
     0
 62
   175
  6
CONTINUOUS
  0
LAYER
  5
E9
330
2
100
AcDbSymbolTableRecord
100
AcDbLayerTableRecord
  2
176
 70
     0
 62
   176
  6
CONTINUOUS
  0
LAYER
  5
EA
330
2
100
AcDbSymbolTableRecord
100
AcDbLayerTableRecord
  2
177
 70
     0
 62
   177
  6
CONTINUOUS
  0
LAYER
  5
EB
330
2
100
AcDbSymbolTableRecord
100
AcDbLayerTableRecord
  2
178
 70
     0
 62
   178
  6
CONTINUOUS
  0
LAYER
  5
EC
330
2
100
AcDbSymbolTableRecord
100
AcDbLayerTableRecord
  2
179
 70
     0
 62
   179
  6
CONTINUOUS
  0
LAYER
  5
ED
330
2
100
AcDbSymbolTableRecord
100
AcDbLayerTableRecord
  2
180
 70
     0
 62
   180
  6
CONTINUOUS
  0
LAYER
  5
EE
330
2
100
AcDbSymbolTableRecord
100
AcDbLayerTableRecord
  2
181
 70
     0
 62
   181
  6
CONTINUOUS
  0
LAYER
  5
EF
330
2
100
AcDbSymbolTableRecord
100
AcDbLayerTableRecord
  2
182
 70
     0
 62
   182
  6
CONTINUOUS
  0
LAYER
  5
F0
330
2
100
AcDbSymbolTableRecord
100
AcDbLayerTableRecord
  2
183
 70
     0
 62
   183
  6
CONTINUOUS
  0
LAYER
  5
F1
330
2
100
AcDbSymbolTableRecord
100
AcDbLayerTableRecord
  2
184
 70
     0
 62
   184
  6
CONTINUOUS
  0
LAYER
  5
F2
330
2
100
AcDbSymbolTableRecord
100
AcDbLayerTableRecord
  2
185
 70
     0
 62
   185
  6
CONTINUOUS
  0
LAYER
  5
F3
330
2
100
AcDbSymbolTableRecord
100
AcDbLayerTableRecord
  2
186
 70
     0
 62
   186
  6
CONTINUOUS
  0
LAYER
  5
F4
330
2
100
AcDbSymbolTableRecord
100
AcDbLayerTableRecord
  2
187
 70
     0
 62
   187
  6
CONTINUOUS
  0
LAYER
  5
F5
330
2
100
AcDbSymbolTableRecord
100
AcDbLayerTableRecord
  2
188
 70
     0
 62
   188
  6
CONTINUOUS
  0
LAYER
  5
F6
330
2
100
AcDbSymbolTableRecord
100
AcDbLayerTableRecord
  2
189
 70
     0
 62
   189
  6
CONTINUOUS
  0
LAYER
  5
F7
330
2
100
AcDbSymbolTableRecord
100
AcDbLayerTableRecord
  2
190
 70
     0
 62
   190
  6
CONTINUOUS
  0
LAYER
  5
F8
330
2
100
AcDbSymbolTableRecord
100
AcDbLayerTableRecord
  2
191
 70
     0
 62
   191
  6
CONTINUOUS
  0
LAYER
  5
F9
330
2
100
AcDbSymbolTableRecord
100
AcDbLayerTableRecord
  2
192
 70
     0
 62
   192
  6
CONTINUOUS
  0
LAYER
  5
FA
330
2
100
AcDbSymbolTableRecord
100
AcDbLayerTableRecord
  2
193
 70
     0
 62
   193
  6
CONTINUOUS
  0
LAYER
  5
FB
330
2
100
AcDbSymbolTableRecord
100
AcDbLayerTableRecord
  2
194
 70
     0
 62
   194
  6
CONTINUOUS
  0
LAYER
  5
FC
330
2
100
AcDbSymbolTableRecord
100
AcDbLayerTableRecord
  2
195
 70
     0
 62
   195
  6
CONTINUOUS
  0
LAYER
  5
FD
330
2
100
AcDbSymbolTableRecord
100
AcDbLayerTableRecord
  2
196
 70
     0
 62
   196
  6
CONTINUOUS
  0
LAYER
  5
FE
330
2
100
AcDbSymbolTableRecord
100
AcDbLayerTableRecord
  2
197
 70
     0
 62
   197
  6
CONTINUOUS
  0
LAYER
  5
FF
330
2
100
AcDbSymbolTableRecord
100
AcDbLayerTableRecord
  2
198
 70
     0
 62
   198
  6
CONTINUOUS
  0
LAYER
  5
100
330
2
100
AcDbSymbolTableRecord
100
AcDbLayerTableRecord
  2
199
 70
     0
 62
   199
  6
CONTINUOUS
  0
LAYER
  5
101
330
2
100
AcDbSymbolTableRecord
100
AcDbLayerTableRecord
  2
200
 70
     0
 62
   200
  6
CONTINUOUS
  0
LAYER
  5
102
330
2
100
AcDbSymbolTableRecord
100
AcDbLayerTableRecord
  2
201
 70
     0
 62
   201
  6
CONTINUOUS
  0
LAYER
  5
103
330
2
100
AcDbSymbolTableRecord
100
AcDbLayerTableRecord
  2
202
 70
     0
 62
   202
  6
CONTINUOUS
  0
LAYER
  5
104
330
2
100
AcDbSymbolTableRecord
100
AcDbLayerTableRecord
  2
203
 70
     0
 62
   203
  6
CONTINUOUS
  0
LAYER
  5
105
330
2
100
AcDbSymbolTableRecord
100
AcDbLayerTableRecord
  2
204
 70
     0
 62
   204
  6
CONTINUOUS
  0
LAYER
  5
106
330
2
100
AcDbSymbolTableRecord
100
AcDbLayerTableRecord
  2
205
 70
     0
 62
   205
  6
CONTINUOUS
  0
LAYER
  5
107
330
2
100
AcDbSymbolTableRecord
100
AcDbLayerTableRecord
  2
206
 70
     0
 62
   206
  6
CONTINUOUS
  0
LAYER
  5
108
330
2
100
AcDbSymbolTableRecord
100
AcDbLayerTableRecord
  2
207
 70
     0
 62
   207
  6
CONTINUOUS
  0
LAYER
  5
109
330
2
100
AcDbSymbolTableRecord
100
AcDbLayerTableRecord
  2
208
 70
     0
 62
   208
  6
CONTINUOUS
  0
LAYER
  5
10A
330
2
100
AcDbSymbolTableRecord
100
AcDbLayerTableRecord
  2
209
 70
     0
 62
   209
  6
CONTINUOUS
  0
LAYER
  5
10B
330
2
100
AcDbSymbolTableRecord
100
AcDbLayerTableRecord
  2
210
 70
     0
 62
   210
  6
CONTINUOUS
  0
LAYER
  5
10C
330
2
100
AcDbSymbolTableRecord
100
AcDbLayerTableRecord
  2
211
 70
     0
 62
   211
  6
CONTINUOUS
  0
LAYER
  5
10D
330
2
100
AcDbSymbolTableRecord
100
AcDbLayerTableRecord
  2
212
 70
     0
 62
   212
  6
CONTINUOUS
  0
LAYER
  5
10E
330
2
100
AcDbSymbolTableRecord
100
AcDbLayerTableRecord
  2
213
 70
     0
 62
   213
  6
CONTINUOUS
  0
LAYER
  5
10F
330
2
100
AcDbSymbolTableRecord
100
AcDbLayerTableRecord
  2
214
 70
     0
 62
   214
  6
CONTINUOUS
  0
LAYER
  5
110
330
2
100
AcDbSymbolTableRecord
100
AcDbLayerTableRecord
  2
215
 70
     0
 62
   215
  6
CONTINUOUS
  0
LAYER
  5
111
330
2
100
AcDbSymbolTableRecord
100
AcDbLayerTableRecord
  2
216
 70
     0
 62
   216
  6
CONTINUOUS
  0
LAYER
  5
112
330
2
100
AcDbSymbolTableRecord
100
AcDbLayerTableRecord
  2
217
 70
     0
 62
   217
  6
CONTINUOUS
  0
LAYER
  5
113
330
2
100
AcDbSymbolTableRecord
100
AcDbLayerTableRecord
  2
218
 70
     0
 62
   218
  6
CONTINUOUS
  0
LAYER
  5
114
330
2
100
AcDbSymbolTableRecord
100
AcDbLayerTableRecord
  2
219
 70
     0
 62
   219
  6
CONTINUOUS
  0
LAYER
  5
115
330
2
100
AcDbSymbolTableRecord
100
AcDbLayerTableRecord
  2
220
 70
     0
 62
   220
  6
CONTINUOUS
  0
LAYER
  5
116
330
2
100
AcDbSymbolTableRecord
100
AcDbLayerTableRecord
  2
221
 70
     0
 62
   221
  6
CONTINUOUS
  0
LAYER
  5
117
330
2
100
AcDbSymbolTableRecord
100
AcDbLayerTableRecord
  2
222
 70
     0
 62
   222
  6
CONTINUOUS
  0
LAYER
  5
118
330
2
100
AcDbSymbolTableRecord
100
AcDbLayerTableRecord
  2
223
 70
     0
 62
   223
  6
CONTINUOUS
  0
LAYER
  5
119
330
2
100
AcDbSymbolTableRecord
100
AcDbLayerTableRecord
  2
224
 70
     0
 62
   224
  6
CONTINUOUS
  0
LAYER
  5
11A
330
2
100
AcDbSymbolTableRecord
100
AcDbLayerTableRecord
  2
225
 70
     0
 62
   225
  6
CONTINUOUS
  0
LAYER
  5
11B
330
2
100
AcDbSymbolTableRecord
100
AcDbLayerTableRecord
  2
226
 70
     0
 62
   226
  6
CONTINUOUS
  0
LAYER
  5
11C
330
2
100
AcDbSymbolTableRecord
100
AcDbLayerTableRecord
  2
227
 70
     0
 62
   227
  6
CONTINUOUS
  0
LAYER
  5
11D
330
2
100
AcDbSymbolTableRecord
100
AcDbLayerTableRecord
  2
228
 70
     0
 62
   228
  6
CONTINUOUS
  0
LAYER
  5
11E
330
2
100
AcDbSymbolTableRecord
100
AcDbLayerTableRecord
  2
229
 70
     0
 62
   229
  6
CONTINUOUS
  0
LAYER
  5
11F
330
2
100
AcDbSymbolTableRecord
100
AcDbLayerTableRecord
  2
230
 70
     0
 62
   230
  6
CONTINUOUS
  0
LAYER
  5
120
330
2
100
AcDbSymbolTableRecord
100
AcDbLayerTableRecord
  2
231
 70
     0
 62
   231
  6
CONTINUOUS
  0
LAYER
  5
121
330
2
100
AcDbSymbolTableRecord
100
AcDbLayerTableRecord
  2
232
 70
     0
 62
   232
  6
CONTINUOUS
  0
LAYER
  5
122
330
2
100
AcDbSymbolTableRecord
100
AcDbLayerTableRecord
  2
233
 70
     0
 62
   233
  6
CONTINUOUS
  0
LAYER
  5
123
330
2
100
AcDbSymbolTableRecord
100
AcDbLayerTableRecord
  2
234
 70
     0
 62
   234
  6
CONTINUOUS
  0
LAYER
  5
124
330
2
100
AcDbSymbolTableRecord
100
AcDbLayerTableRecord
  2
235
 70
     0
 62
   235
  6
CONTINUOUS
  0
LAYER
  5
125
330
2
100
AcDbSymbolTableRecord
100
AcDbLayerTableRecord
  2
236
 70
     0
 62
   236
  6
CONTINUOUS
  0
LAYER
  5
126
330
2
100
AcDbSymbolTableRecord
100
AcDbLayerTableRecord
  2
237
 70
     0
 62
   237
  6
CONTINUOUS
  0
LAYER
  5
127
330
2
100
AcDbSymbolTableRecord
100
AcDbLayerTableRecord
  2
238
 70
     0
 62
   238
  6
CONTINUOUS
  0
LAYER
  5
128
330
2
100
AcDbSymbolTableRecord
100
AcDbLayerTableRecord
  2
239
 70
     0
 62
   239
  6
CONTINUOUS
  0
LAYER
  5
129
330
2
100
AcDbSymbolTableRecord
100
AcDbLayerTableRecord
  2
240
 70
     0
 62
   240
  6
CONTINUOUS
  0
LAYER
  5
12A
330
2
100
AcDbSymbolTableRecord
100
AcDbLayerTableRecord
  2
241
 70
     0
 62
   241
  6
CONTINUOUS
  0
LAYER
  5
12B
330
2
100
AcDbSymbolTableRecord
100
AcDbLayerTableRecord
  2
242
 70
     0
 62
   242
  6
CONTINUOUS
  0
LAYER
  5
12C
330
2
100
AcDbSymbolTableRecord
100
AcDbLayerTableRecord
  2
243
 70
     0
 62
   243
  6
CONTINUOUS
  0
LAYER
  5
12D
330
2
100
AcDbSymbolTableRecord
100
AcDbLayerTableRecord
  2
244
 70
     0
 62
   244
  6
CONTINUOUS
  0
LAYER
  5
12E
330
2
100
AcDbSymbolTableRecord
100
AcDbLayerTableRecord
  2
245
 70
     0
 62
   245
  6
CONTINUOUS
  0
LAYER
  5
12F
330
2
100
AcDbSymbolTableRecord
100
AcDbLayerTableRecord
  2
246
 70
     0
 62
   246
  6
CONTINUOUS
  0
LAYER
  5
130
330
2
100
AcDbSymbolTableRecord
100
AcDbLayerTableRecord
  2
247
 70
     0
 62
   247
  6
CONTINUOUS
  0
LAYER
  5
131
330
2
100
AcDbSymbolTableRecord
100
AcDbLayerTableRecord
  2
248
 70
     0
 62
   248
  6
CONTINUOUS
  0
LAYER
  5
132
330
2
100
AcDbSymbolTableRecord
100
AcDbLayerTableRecord
  2
249
 70
     0
 62
   249
  6
CONTINUOUS
  0
LAYER
  5
133
330
2
100
AcDbSymbolTableRecord
100
AcDbLayerTableRecord
  2
250
 70
     0
 62
   250
  6
CONTINUOUS
  0
LAYER
  5
134
330
2
100
AcDbSymbolTableRecord
100
AcDbLayerTableRecord
  2
251
 70
     0
 62
   251
  6
CONTINUOUS
  0
LAYER
  5
135
330
2
100
AcDbSymbolTableRecord
100
AcDbLayerTableRecord
  2
252
 70
     0
 62
   252
  6
CONTINUOUS
  0
LAYER
  5
136
330
2
100
AcDbSymbolTableRecord
100
AcDbLayerTableRecord
  2
253
 70
     0
 62
   253
  6
CONTINUOUS
  0
LAYER
  5
137
330
2
100
AcDbSymbolTableRecord
100
AcDbLayerTableRecord
  2
254
 70
     0
 62
   254
  6
CONTINUOUS
  0
LAYER
  5
138
330
2
100
AcDbSymbolTableRecord
100
AcDbLayerTableRecord
  2
255
 70
     0
 62
   255
  6
CONTINUOUS
  0
ENDTAB
  0
TABLE
  2
STYLE
  5
3
330
0
100
AcDbSymbolTable
 70
     1
  0
STYLE
  5
11
330
3
100
AcDbSymbolTableRecord
100
AcDbTextStyleTableRecord
  2
STANDARD
 70
     0
 40
0.0
 41
1.0
 50
0.0
 71
     0
 42
0.2
  3
monotxt
  4

  0
ENDTAB
  0
TABLE
  2
VIEW
  5
6
330
0
100
AcDbSymbolTable
 70
     0
  0
ENDTAB
  0
TABLE
  2
UCS
  5
7
330
0
100
AcDbSymbolTable
 70
     0
  0
ENDTAB
  0
TABLE
  2
APPID
  5
9
330
0
100
AcDbSymbolTable
 70
     1
  0
APPID
  5
12
330
9
100
AcDbSymbolTableRecord
100
AcDbRegAppTableRecord
  2
ACAD
 70
     0
  0
ENDTAB
  0
TABLE
  2
DIMSTYLE
  5
A
330
0
100
AcDbSymbolTable
 70
     1
  0
DIMSTYLE
105
316B
330
A
100
AcDbSymbolTableRecord
100
AcDbDimStyleTableRecord
  2
STANDARD
 70
     0
  3

  4

  5

  6

  7

 40
1.0
 41
0.18
 42
0.0625
 43
0.38
 44
0.18
 45
0.0
 46
0.0
 47
0.0
 48
0.0
140
0.18
141
0.09
142
0.0
143
25.4
144
1.0
145
0.0
146
1.0
147
0.09
 71
     0
 72
     0
 73
     1
 74
     1
 75
     0
 76
     0
 77
     0
 78
     0
170
     0
171
     2
172
     0
173
     0
174
     0
175
     0
176
     0
177
     0
178
     0
270
     2
271
     4
272
     4
273
     2
274
     2
340
11
275
     0
280
     0
281
     0
282
     0
283
     1
284
     0
285
     0
286
     0
287
     3
288
     0
  0
ENDTAB
  0
TABLE
  2
BLOCK_RECORD
  5
1
330
0
100
AcDbSymbolTable
 70
     0
  0
BLOCK_RECORD
  5
1E
102
{ACAD_XDICTIONARY
360
3A10
102
}
330
1
100
AcDbSymbolTableRecord
100
AcDbBlockTableRecord
  2
*MODEL_SPACE
  0
BLOCK_RECORD
  5
1A
102
{ACAD_XDICTIONARY
360
3A0E
102
}
330
1
100
AcDbSymbolTableRecord
100
AcDbBlockTableRecord
  2
*PAPER_SPACE
  0
ENDTAB
  0
ENDSEC
  0
SECTION
  2
BLOCKS
  0
BLOCK
  5
13B
330
1E
100
AcDbEntity
  8
0
100
AcDbBlockBegin
  2
*MODEL_SPACE
 70
     0
 10
0.0
 20
0.0
 30
0.0
  3
*MODEL_SPACE
  1

  0
ENDBLK
  5
13C
330
1E
100
AcDbEntity
  8
0
100
AcDbBlockEnd
  0
BLOCK
  5
139
330
1A
100
AcDbEntity
 67
     1
  8
0
100
AcDbBlockBegin
  2
*PAPER_SPACE
 70
     0
 10
0.0
 20
0.0
 30
0.0
  3
*PAPER_SPACE
  1

  0
ENDBLK
  5
13A
330
1A
100
AcDbEntity
 67
     1
  8
0
100
AcDbBlockEnd
  0
ENDSEC
  0
SECTION
  2
ENTITIES
  0
LINE
  5
935
330
1E
100
AcDbEntity
  8
7
100
AcDbLine
 10
7.501968503937008
 20
6.205708661417322
 30
0.0
 11
7.511811023622047
 21
6.221456692913385
 31
0.0
  0
LINE
  5
936
330
1E
100
AcDbEntity
  8
7
100
AcDbLine
 10
7.612204724409449
 20
6.150590551181101
 30
0.0
 11
7.622047244094487
 21
6.14271653543307
 31
0.0
  0
LINE
  5
937
330
1E
100
AcDbEntity
  8
7
100
AcDbLine
 10
7.641732283464565
 20
6.221456692913385
 30
0.0
 11
7.650590551181102
 21
6.214566929133858
 31
0.0
  0
LINE
  5
938
330
1E
100
AcDbEntity
  8
7
100
AcDbLine
 10
7.723425196850393
 20
6.214566929133858
 30
0.0
 11
7.733267716535432
 21
6.221456692913385
 31
0.0
  0
LINE
  5
939
330
1E
100
AcDbEntity
  8
7
100
AcDbLine
 10
7.641732283464565
 20
6.183070866141732
 30
0.0
 11
7.622047244094487
 21
6.183070866141732
 31
0.0
  0
LINE
  5
93A
330
1E
100
AcDbEntity
  8
7
100
AcDbLine
 10
7.595472440944882
 20
6.14271653543307
 30
0.0
 11
7.595472440944882
 21
6.221456692913385
 31
0.0
  0
LINE
  5
93B
330
1E
100
AcDbEntity
  8
7
100
AcDbLine
 10
7.733267716535432
 20
6.14271653543307
 30
0.0
 11
7.751968503937008
 21
6.14271653543307
 31
0.0
  0
LINE
  5
93C
330
1E
100
AcDbEntity
  8
7
100
AcDbLine
 10
7.761811023622047
 20
6.150590551181101
 30
0.0
 11
7.761811023622047
 21
6.174212598425196
 31
0.0
  0
LINE
  5
93D
330
1E
100
AcDbEntity
  8
7
100
AcDbLine
 10
7.612204724409449
 20
6.189960629921259
 30
0.0
 11
7.612204724409449
 21
6.214566929133858
 31
0.0
  0
LINE
  5
943
330
1E
100
AcDbEntity
  8
7
100
AcDbLine
 10
7.529527559055117
 20
6.14271653543307
 30
0.0
 11
7.511811023622047
 21
6.14271653543307
 31
0.0
  0
LINE
  5
944
330
1E
100
AcDbEntity
  8
7
100
AcDbLine
 10
7.530511811023621
 20
6.221456692913385
 30
0.0
 11
7.539370078740156
 21
6.205708661417322
 31
0.0
  0
LINE
  5
945
330
1E
100
AcDbEntity
  8
7
100
AcDbLine
 10
7.723425196850393
 20
6.150590551181101
 30
0.0
 11
7.733267716535432
 21
6.14271653543307
 31
0.0
  0
LINE
  5
946
330
1E
100
AcDbEntity
  8
7
100
AcDbLine
 10
7.650590551181102
 20
6.174212598425196
 30
0.0
 11
7.641732283464565
 21
6.183070866141732
 31
0.0
  0
LINE
  5
947
330
1E
100
AcDbEntity
  8
7
100
AcDbLine
 10
7.650590551181102
 20
6.150590551181101
 30
0.0
 11
7.650590551181102
 21
6.174212598425196
 31
0.0
  0
LINE
  5
948
330
1E
100
AcDbEntity
  8
7
100
AcDbLine
 10
7.557086614173228
 20
6.14271653543307
 30
0.0
 11
7.557086614173228
 21
6.221456692913385
 31
0.0
  0
LINE
  5
949
330
1E
100
AcDbEntity
  8
7
100
AcDbLine
 10
7.501968503937008
 20
6.158464566929133
 30
0.0
 11
7.501968503937008
 21
6.205708661417322
 31
0.0
  0
LINE
  5
94A
330
1E
100
AcDbEntity
  8
7
100
AcDbLine
 10
7.683070866141732
 20
6.215551181102362
 30
0.0
 11
7.687007874015747
 21
6.221456692913385
 31
0.0
  0
LINE
  5
94B
330
1E
100
AcDbEntity
  8
7
100
AcDbLine
 10
7.681102362204723
 20
6.14271653543307
 30
0.0
 11
7.692913385826771
 21
6.14271653543307
 31
0.0
  0
LINE
  5
94C
330
1E
100
AcDbEntity
  8
7
100
AcDbLine
 10
7.733267716535432
 20
6.183070866141732
 30
0.0
 11
7.723425196850393
 21
6.189960629921259
 31
0.0
  0
LINE
  5
94D
330
1E
100
AcDbEntity
  8
7
100
AcDbLine
 10
7.751968503937008
 20
6.14271653543307
 30
0.0
 11
7.761811023622047
 21
6.150590551181101
 31
0.0
  0
LINE
  5
94E
330
1E
100
AcDbEntity
  8
7
100
AcDbLine
 10
7.595472440944882
 20
6.183070866141732
 30
0.0
 11
7.557086614173228
 21
6.183070866141732
 31
0.0
  0
LINE
  5
94F
330
1E
100
AcDbEntity
  8
7
100
AcDbLine
 10
7.751968503937008
 20
6.221456692913385
 30
0.0
 11
7.761811023622047
 21
6.214566929133858
 31
0.0
  0
LINE
  5
950
330
1E
100
AcDbEntity
  8
7
100
AcDbLine
 10
7.733267716535432
 20
6.221456692913385
 30
0.0
 11
7.751968503937008
 21
6.221456692913385
 31
0.0
  0
LINE
  5
951
330
1E
100
AcDbEntity
  8
7
100
AcDbLine
 10
7.539370078740156
 20
6.158464566929133
 30
0.0
 11
7.529527559055117
 21
6.14271653543307
 31
0.0
  0
LINE
  5
952
330
1E
100
AcDbEntity
  8
7
100
AcDbLine
 10
7.641732283464565
 20
6.14271653543307
 30
0.0
 11
7.650590551181102
 21
6.150590551181101
 31
0.0
  0
LINE
  5
953
330
1E
100
AcDbEntity
  8
7
100
AcDbLine
 10
7.511811023622047
 20
6.14271653543307
 30
0.0
 11
7.501968503937008
 21
6.158464566929133
 31
0.0
  0
LINE
  5
954
330
1E
100
AcDbEntity
  8
7
100
AcDbLine
 10
7.687007874015747
 20
6.221456692913385
 30
0.0
 11
7.687007874015747
 21
6.14271653543307
 31
0.0
  0
LINE
  5
955
330
1E
100
AcDbEntity
  8
7
100
AcDbLine
 10
7.723425196850393
 20
6.189960629921259
 30
0.0
 11
7.723425196850393
 21
6.214566929133858
 31
0.0
  0
LINE
  5
956
330
1E
100
AcDbEntity
  8
7
100
AcDbLine
 10
7.622047244094487
 20
6.14271653543307
 30
0.0
 11
7.641732283464565
 21
6.14271653543307
 31
0.0
  0
LINE
  5
957
330
1E
100
AcDbEntity
  8
7
100
AcDbLine
 10
7.622047244094487
 20
6.221456692913385
 30
0.0
 11
7.641732283464565
 21
6.221456692913385
 31
0.0
  0
LINE
  5
958
330
1E
100
AcDbEntity
  8
7
100
AcDbLine
 10
7.612204724409449
 20
6.214566929133858
 30
0.0
 11
7.622047244094487
 21
6.221456692913385
 31
0.0
  0
LINE
  5
959
330
1E
100
AcDbEntity
  8
7
100
AcDbLine
 10
7.622047244094487
 20
6.183070866141732
 30
0.0
 11
7.612204724409449
 21
6.189960629921259
 31
0.0
  0
LINE
  5
95A
330
1E
100
AcDbEntity
  8
7
100
AcDbLine
 10
7.511811023622047
 20
6.221456692913385
 30
0.0
 11
7.530511811023621
 21
6.221456692913385
 31
0.0
  0
LINE
  5
95B
330
1E
100
AcDbEntity
  8
7
100
AcDbLine
 10
8.304133858267716
 20
6.274606299212598
 30
0.0
 11
8.304133858267716
 21
6.461614173228346
 31
0.0
  0
LINE
  5
95C
330
1E
100
AcDbEntity
  8
7
100
AcDbLine
 10
7.233267716535432
 20
6.628937007874015
 30
0.0
 11
7.610236220472439
 21
7.005905511811023
 31
0.0
  0
LINE
  5
965
330
1E
100
AcDbEntity
  8
7
100
AcDbLine
 10
7.74015748031496
 20
7.006889763779526
 30
0.0
 11
8.304133858267716
 21
6.461614173228346
 31
0.0
  0
LINE
  5
966
330
1E
100
AcDbEntity
  8
7
100
AcDbLine
 10
6.969488188976377
 20
6.461614173228346
 30
0.0
 11
6.969488188976377
 21
6.274606299212598
 31
0.0
  0
LINE
  5
967
330
1E
100
AcDbEntity
  8
7
100
AcDbLine
 10
6.969488188976377
 20
6.461614173228346
 30
0.0
 11
6.969488188976377
 21
6.463582677165353
 31
0.0
  0
LINE
  5
968
330
1E
100
AcDbEntity
  8
7
100
AcDbLine
 10
7.797244094488188
 20
6.274606299212598
 30
0.0
 11
8.304133858267716
 21
6.274606299212598
 31
0.0
  0
LINE
  5
969
330
1E
100
AcDbEntity
  8
7
100
AcDbLine
 10
6.969488188976377
 20
6.274606299212598
 30
0.0
 11
7.477362204724408
 21
6.274606299212598
 31
0.0
  0
LINE
  5
96A
330
1E
100
AcDbEntity
  8
7
100
AcDbLine
 10
7.109251968503937
 20
6.204724409448818
 30
0.0
 11
7.099409448818897
 21
6.194881889763779
 31
0.0
  0
LINE
  5
96B
330
1E
100
AcDbEntity
  8
7
100
AcDbLine
 10
7.109251968503937
 20
6.204724409448818
 30
0.0
 11
7.109251968503937
 21
6.274606299212598
 31
0.0
  0
LINE
  5
96C
330
1E
100
AcDbEntity
  8
7
100
AcDbLine
 10
7.099409448818897
 20
6.194881889763779
 30
0.0
 11
7.020669291338582
 21
6.274606299212598
 31
0.0
  0
LINE
  5
976
330
1E
100
AcDbEntity
  8
7
100
AcDbLine
 10
8.170275590551181
 20
6.461614173228346
 30
0.0
 11
7.673228346456691
 21
6.941929133858267
 31
0.0
  0
LINE
  5
97F
330
1E
100
AcDbEntity
  8
7
100
AcDbLine
 10
7.477362204724408
 20
6.274606299212598
 30
0.0
 11
7.483267716535432
 21
6.092519685039369
 31
0.0
  0
LINE
  5
980
330
1E
100
AcDbEntity
  8
7
100
AcDbLine
 10
7.797244094488188
 20
6.274606299212598
 30
0.0
 11
7.79035433070866
 21
6.092519685039369
 31
0.0
  0
LINE
  5
981
330
1E
100
AcDbEntity
  8
7
100
AcDbLine
 10
6.969488188976377
 20
6.461614173228346
 30
0.0
 11
8.304133858267716
 21
6.461614173228346
 31
0.0
  0
LINE
  5
982
330
1E
100
AcDbEntity
  8
7
100
AcDbLine
 10
7.785433070866141
 20
5.943897637795275
 30
0.0
 11
7.488188976377952
 21
5.943897637795275
 31
0.0
  0
LINE
  5
983
330
1E
100
AcDbEntity
  8
7
100
AcDbLine
 10
7.789370078740156
 20
6.073818897637795
 30
0.0
 11
7.484251968503936
 21
6.073818897637795
 31
0.0
  0
LINE
  5
984
330
1E
100
AcDbEntity
  8
7
100
AcDbLine
 10
7.488188976377952
 20
5.943897637795275
 30
0.0
 11
7.484251968503936
 21
6.073818897637795
 31
0.0
  0
LINE
  5
985
330
1E
100
AcDbEntity
  8
7
100
AcDbLine
 10
7.785433070866141
 20
5.943897637795275
 30
0.0
 11
7.789370078740156
 21
6.073818897637795
 31
0.0
  0
LINE
  5
98B
330
1E
100
AcDbEntity
  8
7
100
AcDbLine
 10
7.79035433070866
 20
6.092519685039369
 30
0.0
 11
7.789370078740156
 21
6.073818897637795
 31
0.0
  0
LINE
  5
996
330
1E
100
AcDbEntity
  8
7
100
AcDbLine
 10
7.344488188976377
 20
6.613188976377952
 30
0.0
 11
7.330708661417322
 21
6.619094488188975
 31
0.0
  0
LINE
  5
9AC
330
1E
100
AcDbEntity
  8
7
100
AcDbLine
 10
7.613188976377952
 20
7.002952755905511
 30
0.0
 11
7.610236220472439
 21
7.005905511811023
 31
0.0
  0
LINE
  5
9AD
330
1E
100
AcDbEntity
  8
7
100
AcDbLine
 10
4.506889763779526
 20
8.505905511811024
 30
0.0
 11
5.210629921259842
 21
8.505905511811024
 31
0.0
  0
LINE
  5
9AE
330
1E
100
AcDbEntity
  8
7
100
AcDbLine
 10
5.113188976377952
 20
8.075787401574803
 30
0.0
 11
5.208661417322834
 21
8.075787401574803
 31
0.0
  0
LINE
  5
9AF
330
1E
100
AcDbEntity
  8
7
100
AcDbLine
 10
4.528543307086613
 20
8.182086614173227
 30
0.0
 11
4.533464566929133
 21
8.182086614173227
 31
0.0
  0
LINE
  5
9B0
330
1E
100
AcDbEntity
  8
7
100
AcDbLine
 10
4.376968503937007
 20
8.464566929133857
 30
0.0
 11
4.376968503937007
 21
8.457677165354329
 31
0.0
  0
LINE
  5
9B1
330
1E
100
AcDbEntity
  8
7
100
AcDbLine
 10
4.451771653543306
 20
8.398622047244094
 30
0.0
 11
4.502952755905511
 21
8.398622047244094
 31
0.0
  0
LINE
  5
9B2
330
1E
100
AcDbEntity
  8
7
100
AcDbLine
 10
5.059055118110236
 20
8.076771653543307
 30
0.0
 11
5.108267716535432
 21
8.076771653543307
 31
0.0
  0
LINE
  5
9B3
330
1E
100
AcDbEntity
  8
7
100
AcDbLine
 10
4.553149606299212
 20
8.076771653543307
 30
0.0
 11
4.58267716535433
 21
8.076771653543307
 31
0.0
  0
LINE
  5
9B4
330
1E
100
AcDbEntity
  8
7
100
AcDbLine
 10
4.533464566929133
 20
8.161417322834644
 30
0.0
 11
4.526574803149605
 21
8.161417322834644
 31
0.0
  0
LINE
  5
9B5
330
1E
100
AcDbEntity
  8
7
100
AcDbLine
 10
4.523622047244094
 20
8.081692913385825
 30
0.0
 11
4.539370078740157
 21
8.081692913385825
 31
0.0
  0
LINE
  5
9B6
330
1E
100
AcDbEntity
  8
7
100
AcDbLine
 10
4.58267716535433
 20
8.082677165354329
 30
0.0
 11
5.059055118110236
 21
8.082677165354329
 31
0.0
  0
LINE
  5
9DA
330
1E
100
AcDbEntity
  8
7
100
AcDbLine
 10
4.444881889763779
 20
8.398622047244094
 30
0.0
 11
4.451771653543306
 21
8.398622047244094
 31
0.0
  0
LINE
  5
9E8
330
1E
100
AcDbEntity
  8
7
100
AcDbLine
 10
4.502952755905511
 20
8.398622047244094
 30
0.0
 11
4.506889763779526
 21
8.398622047244094
 31
0.0
  0
LINE
  5
9FD
330
1E
100
AcDbEntity
  8
7
100
AcDbLine
 10
5.108267716535432
 20
8.082677165354329
 30
0.0
 11
5.108267716535432
 21
8.076771653543307
 31
0.0
  0
LINE
  5
A08
330
1E
100
AcDbEntity
  8
7
100
AcDbLine
 10
4.533464566929133
 20
8.302165354330707
 30
0.0
 11
4.533464566929133
 21
8.309055118110235
 31
0.0
  0
LINE
  5
A09
330
1E
100
AcDbEntity
  8
7
100
AcDbLine
 10
4.543307086614173
 20
8.296259842519685
 30
0.0
 11
4.543307086614173
 21
8.357283464566929
 31
0.0
  0
LINE
  5
A0A
330
1E
100
AcDbEntity
  8
7
100
AcDbLine
 10
4.533464566929133
 20
8.375984251968503
 30
0.0
 11
4.535433070866141
 21
8.367125984251968
 31
0.0
  0
LINE
  5
A0B
330
1E
100
AcDbEntity
  8
7
100
AcDbLine
 10
4.535433070866141
 20
8.367125984251968
 30
0.0
 11
4.543307086614173
 21
8.357283464566929
 31
0.0
  0
LINE
  5
A0C
330
1E
100
AcDbEntity
  8
7
100
AcDbLine
 10
4.533464566929133
 20
8.375984251968503
 30
0.0
 11
4.533464566929133
 21
8.382874015748031
 31
0.0
  0
LINE
  5
A47
330
1E
100
AcDbEntity
  8
7
100
AcDbLine
 10
4.533464566929133
 20
8.149606299212598
 30
0.0
 11
4.533464566929133
 21
8.150590551181101
 31
0.0
  0
LINE
  5
A48
330
1E
100
AcDbEntity
  8
7
100
AcDbLine
 10
4.58267716535433
 20
8.136811023622046
 30
0.0
 11
4.553149606299212
 21
8.136811023622046
 31
0.0
  0
LINE
  5
A49
330
1E
100
AcDbEntity
  8
7
100
AcDbLine
 10
4.58267716535433
 20
8.122047244094487
 30
0.0
 11
4.553149606299212
 21
8.122047244094487
 31
0.0
  0
LINE
  5
A4A
330
1E
100
AcDbEntity
  8
7
100
AcDbLine
 10
4.533464566929133
 20
8.150590551181101
 30
0.0
 11
4.533464566929133
 21
8.302165354330707
 31
0.0
  0
LINE
  5
A4B
330
1E
100
AcDbEntity
  8
7
100
AcDbLine
 10
4.524606299212598
 20
8.114173228346455
 30
0.0
 11
4.534448818897637
 21
8.114173228346455
 31
0.0
  0
LINE
  5
A4C
330
1E
100
AcDbEntity
  8
7
100
AcDbLine
 10
4.523622047244094
 20
8.089566929133857
 30
0.0
 11
4.534448818897637
 21
8.089566929133857
 31
0.0
  0
LINE
  5
A58
330
1E
100
AcDbEntity
  8
7
100
AcDbLine
 10
5.059055118110236
 20
8.122047244094487
 30
0.0
 11
5.108267716535432
 21
8.122047244094487
 31
0.0
  0
LINE
  5
A64
330
1E
100
AcDbEntity
  8
7
100
AcDbLine
 10
5.171259842519684
 20
8.14271653543307
 30
0.0
 11
5.116141732283463
 21
8.14271653543307
 31
0.0
  0
LINE
  5
A7A
330
1E
100
AcDbEntity
  8
7
100
AcDbLine
 10
4.58267716535433
 20
8.089566929133857
 30
0.0
 11
5.059055118110236
 21
8.089566929133857
 31
0.0
  0
LINE
  5
A9B
330
1E
100
AcDbEntity
  8
7
100
AcDbLine
 10
4.451771653543306
 20
8.509842519685038
 30
0.0
 11
4.476377952755905
 21
8.509842519685038
 31
0.0
  0
LINE
  5
AA8
330
1E
100
AcDbEntity
  8
7
100
AcDbLine
 10
5.190944881889763
 20
8.496062992125983
 30
0.0
 11
5.190944881889763
 21
8.156496062992125
 31
0.0
  0
LINE
  5
ABB
330
1E
100
AcDbEntity
  8
7
100
AcDbLine
 10
5.190944881889763
 20
8.502952755905511
 30
0.0
 11
5.190944881889763
 21
8.496062992125983
 31
0.0
  0
LINE
  5
ABC
330
1E
100
AcDbEntity
  8
7
100
AcDbLine
 10
4.451771653543306
 20
8.51771653543307
 30
0.0
 11
4.451771653543306
 21
8.509842519685038
 31
0.0
  0
LINE
  5
ABD
330
1E
100
AcDbEntity
  8
7
100
AcDbLine
 10
5.648622047244094
 20
8.448818897637794
 30
0.0
 11
5.648622047244094
 21
8.458661417322835
 31
0.0
  0
LINE
  5
ABE
330
1E
100
AcDbEntity
  8
7
100
AcDbLine
 10
5.648622047244094
 20
8.559055118110235
 30
0.0
 11
5.648622047244094
 21
8.568897637795275
 31
0.0
  0
LINE
  5
ABF
330
1E
100
AcDbEntity
  8
7
100
AcDbLine
 10
5.648622047244094
 20
8.588582677165353
 30
0.0
 11
5.648622047244094
 21
8.597440944881888
 31
0.0
  0
LINE
  5
AC0
330
1E
100
AcDbEntity
  8
7
100
AcDbLine
 10
5.648622047244094
 20
8.670275590551181
 30
0.0
 11
5.648622047244094
 21
8.68011811023622
 31
0.0
  0
LINE
  5
AC1
330
1E
100
AcDbEntity
  8
7
100
AcDbLine
 10
5.648622047244094
 20
8.588582677165353
 30
0.0
 11
5.648622047244094
 21
8.568897637795275
 31
0.0
  0
LINE
  5
AC2
330
1E
100
AcDbEntity
  8
7
100
AcDbLine
 10
5.648622047244094
 20
8.68011811023622
 30
0.0
 11
5.648622047244094
 21
8.698818897637794
 31
0.0
  0
LINE
  5
AC8
330
1E
100
AcDbEntity
  8
7
100
AcDbLine
 10
5.648622047244094
 20
8.476377952755905
 30
0.0
 11
5.648622047244094
 21
8.458661417322835
 31
0.0
  0
LINE
  5
AC9
330
1E
100
AcDbEntity
  8
7
100
AcDbLine
 10
5.648622047244094
 20
8.477362204724409
 30
0.0
 11
5.648622047244094
 21
8.487204724409448
 31
0.0
  0
LINE
  5
ACA
330
1E
100
AcDbEntity
  8
7
100
AcDbLine
 10
5.648622047244094
 20
8.670275590551181
 30
0.0
 11
5.648622047244094
 21
8.68011811023622
 31
0.0
  0
LINE
  5
ACB
330
1E
100
AcDbEntity
  8
7
100
AcDbLine
 10
5.648622047244094
 20
8.597440944881888
 30
0.0
 11
5.648622047244094
 21
8.588582677165353
 31
0.0
  0
LINE
  5
ACC
330
1E
100
AcDbEntity
  8
7
100
AcDbLine
 10
5.648622047244094
 20
8.629921259842518
 30
0.0
 11
5.648622047244094
 21
8.633858267716535
 31
0.0
  0
LINE
  5
ACD
330
1E
100
AcDbEntity
  8
7
100
AcDbLine
 10
5.648622047244094
 20
8.627952755905511
 30
0.0
 11
5.648622047244094
 21
8.639763779527559
 31
0.0
  0
LINE
  5
ACE
330
1E
100
AcDbEntity
  8
7
100
AcDbLine
 10
5.648622047244094
 20
8.68011811023622
 30
0.0
 11
5.648622047244094
 21
8.670275590551181
 31
0.0
  0
LINE
  5
ACF
330
1E
100
AcDbEntity
  8
7
100
AcDbLine
 10
5.648622047244094
 20
8.698818897637794
 30
0.0
 11
5.648622047244094
 21
8.708661417322835
 31
0.0
  0
LINE
  5
AD0
330
1E
100
AcDbEntity
  8
7
100
AcDbLine
 10
5.648622047244094
 20
8.542322834645668
 30
0.0
 11
5.648622047244094
 21
8.503937007874014
 31
0.0
  0
LINE
  5
AD1
330
1E
100
AcDbEntity
  8
7
100
AcDbLine
 10
5.648622047244094
 20
8.698818897637794
 30
0.0
 11
5.648622047244094
 21
8.708661417322835
 31
0.0
  0
LINE
  5
AD2
330
1E
100
AcDbEntity
  8
7
100
AcDbLine
 10
5.648622047244094
 20
8.68011811023622
 30
0.0
 11
5.648622047244094
 21
8.698818897637794
 31
0.0
  0
LINE
  5
AD3
330
1E
100
AcDbEntity
  8
7
100
AcDbLine
 10
5.648622047244094
 20
8.486220472440944
 30
0.0
 11
5.648622047244094
 21
8.476377952755905
 31
0.0
  0
LINE
  5
AD4
330
1E
100
AcDbEntity
  8
7
100
AcDbLine
 10
5.648622047244094
 20
8.588582677165353
 30
0.0
 11
5.648622047244094
 21
8.597440944881888
 31
0.0
  0
LINE
  5
AD5
330
1E
100
AcDbEntity
  8
7
100
AcDbLine
 10
5.648622047244094
 20
8.458661417322835
 30
0.0
 11
5.648622047244094
 21
8.448818897637794
 31
0.0
  0
LINE
  5
AD6
330
1E
100
AcDbEntity
  8
7
100
AcDbLine
 10
5.648622047244094
 20
8.568897637795275
 30
0.0
 11
5.648622047244094
 21
8.588582677165353
 31
0.0
  0
LINE
  5
AD7
330
1E
100
AcDbEntity
  8
7
100
AcDbLine
 10
5.648622047244094
 20
8.568897637795275
 30
0.0
 11
5.648622047244094
 21
8.588582677165353
 31
0.0
  0
LINE
  5
ADD
330
1E
100
AcDbEntity
  8
7
100
AcDbLine
 10
5.648622047244094
 20
8.458661417322835
 30
0.0
 11
5.648622047244094
 21
8.477362204724409
 31
0.0
  0
LINE
  5
AEC
330
1E
100
AcDbEntity
  8
7
100
AcDbLine
 10
4.526574803149605
 20
8.054133858267716
 30
0.0
 11
4.524606299212598
 21
8.054133858267716
 31
0.0
  0
LINE
  5
AED
330
1E
100
AcDbEntity
  8
7
100
AcDbLine
 10
5.205708661417322
 20
8.172244094488188
 30
0.0
 11
5.205708661417322
 21
8.505905511811024
 31
0.0
  0
LINE
  5
AFB
330
1E
100
AcDbEntity
  8
7
100
AcDbLine
 10
5.20767716535433
 20
8.06791338582677
 30
0.0
 11
5.20767716535433
 21
8.075787401574803
 31
0.0
  0
LINE
  5
AFC
330
1E
100
AcDbEntity
  8
7
100
AcDbLine
 10
5.20767716535433
 20
8.044291338582675
 30
0.0
 11
5.20767716535433
 21
8.06791338582677
 31
0.0
  0
LINE
  5
B0D
330
1E
100
AcDbEntity
  8
7
100
AcDbLine
 10
5.211614173228346
 20
7.916338582677164
 30
0.0
 11
5.210629921259842
 21
7.916338582677164
 31
0.0
  0
LINE
  5
B0E
330
1E
100
AcDbEntity
  8
7
100
AcDbLine
 10
5.211614173228346
 20
8.059055118110235
 30
0.0
 11
5.211614173228346
 21
7.916338582677164
 31
0.0
  0
LINE
  5
B15
330
1E
100
AcDbEntity
  8
7
100
AcDbLine
 10
5.20767716535433
 20
8.184055118110235
 30
0.0
 11
5.210629921259842
 21
8.121062992125983
 31
0.0
  0
LINE
  5
B16
330
1E
100
AcDbEntity
  8
7
100
AcDbLine
 10
5.20767716535433
 20
8.505905511811024
 30
0.0
 11
5.20767716535433
 21
8.184055118110235
 31
0.0
  0
LINE
  5
B17
330
1E
100
AcDbEntity
  8
7
100
AcDbLine
 10
5.113188976377952
 20
8.06791338582677
 30
0.0
 11
5.113188976377952
 21
8.064960629921259
 31
0.0
  0
LINE
  5
B18
330
1E
100
AcDbEntity
  8
7
100
AcDbLine
 10
4.554133858267715
 20
8.064960629921259
 30
0.0
 11
5.113188976377952
 21
8.064960629921259
 31
0.0
  0
LINE
  5
B19
330
1E
100
AcDbEntity
  8
7
100
AcDbLine
 10
4.554133858267715
 20
8.071850393700787
 30
0.0
 11
4.554133858267715
 21
8.064960629921259
 31
0.0
  0
LINE
  5
B1A
330
1E
100
AcDbEntity
  8
7
100
AcDbLine
 10
4.526574803149605
 20
8.071850393700787
 30
0.0
 11
4.554133858267715
 21
8.071850393700787
 31
0.0
  0
LINE
  5
B1B
330
1E
100
AcDbEntity
  8
7
100
AcDbLine
 10
4.526574803149605
 20
8.054133858267716
 30
0.0
 11
4.526574803149605
 21
8.071850393700787
 31
0.0
  0
LINE
  5
B1C
330
1E
100
AcDbEntity
  8
7
100
AcDbLine
 10
4.526574803149605
 20
8.044291338582675
 30
0.0
 11
4.526574803149605
 21
8.054133858267716
 31
0.0
  0
LINE
  5
B1D
330
1E
100
AcDbEntity
  8
7
100
AcDbLine
 10
4.526574803149605
 20
8.044291338582675
 30
0.0
 11
5.20767716535433
 21
8.044291338582675
 31
0.0
  0
LINE
  5
B1E
330
1E
100
AcDbEntity
  8
7
100
AcDbLine
 10
5.20767716535433
 20
8.06791338582677
 30
0.0
 11
5.113188976377952
 21
8.06791338582677
 31
0.0
  0
LINE
  5
B1F
330
1E
100
AcDbEntity
  8
7
100
AcDbLine
 10
4.523622047244094
 20
7.916338582677164
 30
0.0
 11
5.210629921259842
 21
7.916338582677164
 31
0.0
  0
LINE
  5
B20
330
1E
100
AcDbEntity
  8
7
100
AcDbLine
 10
4.978346456692912
 20
7.966535433070866
 30
0.0
 11
5.210629921259842
 21
7.966535433070866
 31
0.0
  0
LINE
  5
B2E
330
1E
100
AcDbEntity
  8
7
100
AcDbLine
 10
4.755905511811023
 20
7.966535433070866
 30
0.0
 11
4.523622047244094
 21
7.966535433070866
 31
0.0
  0
LINE
  5
B43
330
1E
100
AcDbEntity
  8
7
100
AcDbLine
 10
4.978346456692912
 20
7.966535433070866
 30
0.0
 11
4.9753937007874
 21
8.002952755905511
 31
0.0
  0
LINE
  5
B44
330
1E
100
AcDbEntity
  8
7
100
AcDbLine
 10
4.526574803149605
 20
8.044291338582675
 30
0.0
 11
4.526574803149605
 21
8.029527559055118
 31
0.0
  0
LINE
  5
B45
330
1E
100
AcDbEntity
  8
7
100
AcDbLine
 10
4.526574803149605
 20
8.029527559055118
 30
0.0
 11
4.525590551181101
 21
8.011811023622046
 31
0.0
  0
LINE
  5
B46
330
1E
100
AcDbEntity
  8
7
100
AcDbLine
 10
5.206692913385826
 20
8.153543307086613
 30
0.0
 11
5.189960629921259
 21
8.153543307086613
 31
0.0
  0
LINE
  5
B47
330
1E
100
AcDbEntity
  8
7
100
AcDbLine
 10
5.190944881889763
 20
8.172244094488188
 30
0.0
 11
5.205708661417322
 21
8.172244094488188
 31
0.0
  0
LINE
  5
B5F
330
1E
100
AcDbEntity
  8
7
100
AcDbLine
 10
4.528543307086613
 20
8.184055118110235
 30
0.0
 11
4.528543307086613
 21
8.390748031496062
 31
0.0
  0
LINE
  5
B60
330
1E
100
AcDbEntity
  8
7
100
AcDbLine
 10
4.528543307086613
 20
8.184055118110235
 30
0.0
 11
4.533464566929133
 21
8.184055118110235
 31
0.0
  0
LINE
  5
B61
330
1E
100
AcDbEntity
  8
7
100
AcDbLine
 10
4.085629921259842
 20
9.250984251968503
 30
0.0
 11
4.480314960629921
 21
9.250984251968503
 31
0.0
  0
LINE
  5
B62
330
1E
100
AcDbEntity
  8
7
100
AcDbLine
 10
5.253937007874015
 20
9.250984251968503
 30
0.0
 11
4.480314960629921
 21
9.250984251968503
 31
0.0
  0
LINE
  5
B63
330
1E
100
AcDbEntity
  8
7
100
AcDbLine
 10
5.648622047244094
 20
9.250984251968503
 30
0.0
 11
5.253937007874015
 21
9.250984251968503
 31
0.0
  0
LINE
  5
B69
330
1E
100
AcDbEntity
  8
7
100
AcDbLine
 10
4.506889763779526
 20
8.557086614173227
 30
0.0
 11
5.227362204724409
 21
8.557086614173227
 31
0.0
  0
LINE
  5
B6F
330
1E
100
AcDbEntity
  8
7
100
AcDbLine
 10
5.217519685039369
 20
8.18011811023622
 30
0.0
 11
5.217519685039369
 21
8.508858267716535
 31
0.0
  0
LINE
  5
B70
330
1E
100
AcDbEntity
  8
7
100
AcDbLine
 10
5.218503937007874
 20
8.18011811023622
 30
0.0
 11
5.217519685039369
 21
8.18011811023622
 31
0.0
  0
LINE
  5
B82
330
1E
100
AcDbEntity
  8
7
100
AcDbLine
 10
5.227362204724409
 20
8.687007874015748
 30
0.0
 11
5.253937007874015
 21
9.250984251968503
 31
0.0
  0
LINE
  5
B83
330
1E
100
AcDbEntity
  8
7
100
AcDbLine
 10
4.480314960629921
 20
9.250984251968503
 30
0.0
 11
4.506889763779526
 21
8.687007874015748
 31
0.0
  0
LINE
  5
B89
330
1E
100
AcDbEntity
  8
7
100
AcDbLine
 10
5.306102362204724
 20
7.916338582677164
 30
0.0
 11
5.648622047244094
 21
7.916338582677164
 31
0.0
  0
LINE
  5
B94
330
1E
100
AcDbEntity
  8
7
100
AcDbLine
 10
4.522637795275589
 20
7.916338582677164
 30
0.0
 11
4.523622047244094
 21
7.916338582677164
 31
0.0
  0
LINE
  5
B9A
330
1E
100
AcDbEntity
  8
7
100
AcDbLine
 10
4.435039370078739
 20
7.916338582677164
 30
0.0
 11
4.51279527559055
 21
7.916338582677164
 31
0.0
  0
LINE
  5
BC0
330
1E
100
AcDbEntity
  8
7
100
AcDbLine
 10
4.526574803149605
 20
8.184055118110235
 30
0.0
 11
4.523622047244094
 21
8.121062992125983
 31
0.0
  0
LINE
  5
BC6
330
1E
100
AcDbEntity
  8
7
100
AcDbLine
 10
4.526574803149605
 20
8.376968503937007
 30
0.0
 11
4.526574803149605
 21
8.184055118110235
 31
0.0
  0
LINE
  5
BDA
330
1E
100
AcDbEntity
  8
7
100
AcDbLine
 10
4.435039370078739
 20
8.052165354330707
 30
0.0
 11
4.435039370078739
 21
7.916338582677164
 31
0.0
  0
LINE
  5
BDB
330
1E
100
AcDbEntity
  8
7
100
AcDbLine
 10
4.51279527559055
 20
7.916338582677164
 30
0.0
 11
4.51279527559055
 21
8.052165354330707
 31
0.0
  0
LINE
  5
BDC
330
1E
100
AcDbEntity
  8
7
100
AcDbLine
 10
4.522637795275589
 20
8.059055118110235
 30
0.0
 11
4.522637795275589
 21
7.916338582677164
 31
0.0
  0
LINE
  5
BDD
330
1E
100
AcDbEntity
  8
7
100
AcDbLine
 10
4.58267716535433
 20
8.078740157480314
 30
0.0
 11
5.059055118110236
 21
8.078740157480314
 31
0.0
  0
LINE
  5
BDE
330
1E
100
AcDbEntity
  8
7
100
AcDbLine
 10
5.108267716535432
 20
8.078740157480314
 30
0.0
 11
5.113188976377952
 21
8.078740157480314
 31
0.0
  0
LINE
  5
BDF
330
1E
100
AcDbEntity
  8
7
100
AcDbLine
 10
4.528543307086613
 20
8.184055118110235
 30
0.0
 11
4.528543307086613
 21
8.182086614173227
 31
0.0
  0
LINE
  5
BE7
330
1E
100
AcDbEntity
  8
7
100
AcDbLine
 10
4.389763779527558
 20
9.117125984251968
 30
0.0
 11
4.405511811023621
 21
8.510826771653542
 31
0.0
  0
LINE
  5
BF7
330
1E
100
AcDbEntity
  8
7
100
AcDbLine
 10
4.526574803149605
 20
8.081692913385825
 30
0.0
 11
4.526574803149605
 21
8.071850393700787
 31
0.0
  0
LINE
  5
BF8
330
1E
100
AcDbEntity
  8
7
100
AcDbLine
 10
4.554133858267715
 20
8.076771653543307
 30
0.0
 11
4.554133858267715
 21
8.071850393700787
 31
0.0
  0
LINE
  5
BF9
330
1E
100
AcDbEntity
  8
7
100
AcDbLine
 10
4.554133858267715
 20
8.076771653543307
 30
0.0
 11
4.554133858267715
 21
8.064960629921259
 31
0.0
  0
LINE
  5
BFA
330
1E
100
AcDbEntity
  8
7
100
AcDbLine
 10
4.52755905511811
 20
8.391732283464566
 30
0.0
 11
4.526574803149605
 21
8.376968503937007
 31
0.0
  0
LINE
  5
BFB
330
1E
100
AcDbEntity
  8
7
100
AcDbLine
 10
4.764763779527558
 20
8.002952755905511
 30
0.0
 11
4.754921259842519
 21
7.924212598425196
 31
0.0
  0
LINE
  5
BFC
330
1E
100
AcDbEntity
  8
7
100
AcDbLine
 10
4.969488188976377
 20
8.002952755905511
 30
0.0
 11
4.979330708661416
 21
7.924212598425196
 31
0.0
  0
LINE
  5
BFD
330
1E
100
AcDbEntity
  8
7
100
AcDbLine
 10
5.319881889763779
 20
8.620078740157479
 30
0.0
 11
5.319881889763779
 21
8.291338582677164
 31
0.0
  0
LINE
  5
C0D
330
1E
100
AcDbEntity
  8
7
100
AcDbLine
 10
5.221456692913385
 20
7.916338582677164
 30
0.0
 11
5.221456692913385
 21
8.052165354330707
 31
0.0
  0
LINE
  5
C23
330
1E
100
AcDbEntity
  8
7
100
AcDbLine
 10
5.220472440944881
 20
8.121062992125983
 30
0.0
 11
5.218503937007874
 21
8.18011811023622
 31
0.0
  0
LINE
  5
C24
330
1E
100
AcDbEntity
  8
7
100
AcDbLine
 10
5.217519685039369
 20
8.508858267716535
 30
0.0
 11
5.210629921259842
 21
8.505905511811024
 31
0.0
  0
LINE
  5
C33
330
1E
100
AcDbEntity
  8
7
100
AcDbLine
 10
5.249015748031495
 20
8.184055118110235
 30
0.0
 11
5.227362204724409
 21
8.18011811023622
 31
0.0
  0
LINE
  5
C34
330
1E
100
AcDbEntity
  8
7
100
AcDbLine
 10
5.648622047244094
 20
7.916338582677164
 30
0.0
 11
5.648622047244094
 21
9.250984251968503
 31
0.0
  0
LINE
  5
C46
330
1E
100
AcDbEntity
  8
7
100
AcDbLine
 10
5.687992125984251
 20
8.737204724409448
 30
0.0
 11
5.687992125984251
 21
8.43011811023622
 31
0.0
  0
LINE
  5
C47
330
1E
100
AcDbEntity
  8
7
100
AcDbLine
 10
5.648622047244094
 20
8.43011811023622
 30
0.0
 11
5.687992125984251
 21
8.43011811023622
 31
0.0
  0
LINE
  5
C48
330
1E
100
AcDbEntity
  8
7
100
AcDbLine
 10
5.648622047244094
 20
8.737204724409448
 30
0.0
 11
5.687992125984251
 21
8.737204724409448
 31
0.0
  0
LINE
  5
C49
330
1E
100
AcDbEntity
  8
7
100
AcDbLine
 10
4.085629921259842
 20
8.43011811023622
 30
0.0
 11
4.046259842519684
 21
8.43011811023622
 31
0.0
  0
LINE
  5
C5D
330
1E
100
AcDbEntity
  8
7
100
AcDbLine
 10
4.085629921259842
 20
7.916338582677164
 30
0.0
 11
4.085629921259842
 21
9.250984251968503
 31
0.0
  0
LINE
  5
C6B
330
1E
100
AcDbEntity
  8
7
100
AcDbLine
 10
4.506889763779526
 20
8.557086614173227
 30
0.0
 11
4.479330708661416
 21
8.560039370078738
 31
0.0
  0
LINE
  5
C7D
330
1E
100
AcDbEntity
  8
7
100
AcDbLine
 10
4.435039370078739
 20
8.052165354330707
 30
0.0
 11
4.424212598425196
 21
8.05511811023622
 31
0.0
  0
LINE
  5
C7E
330
1E
100
AcDbEntity
  8
7
100
AcDbLine
 10
4.424212598425196
 20
8.05511811023622
 30
0.0
 11
4.419291338582676
 21
8.062992125984251
 31
0.0
  0
LINE
  5
CB7
330
1E
100
AcDbEntity
  8
7
100
AcDbLine
 10
5.113188976377952
 20
6.499015748031495
 30
0.0
 11
4.554133858267715
 21
6.499015748031495
 31
0.0
  0
LINE
  5
CB8
330
1E
100
AcDbEntity
  8
7
100
AcDbLine
 10
4.554133858267715
 20
6.506889763779526
 30
0.0
 11
4.526574803149605
 21
6.506889763779526
 31
0.0
  0
LINE
  5
CB9
330
1E
100
AcDbEntity
  8
7
100
AcDbLine
 10
5.208661417322834
 20
6.575787401574802
 30
0.0
 11
5.113188976377952
 21
6.575787401574802
 31
0.0
  0
LINE
  5
CBA
330
1E
100
AcDbEntity
  8
7
100
AcDbLine
 10
4.515748031496062
 20
6.821850393700787
 30
0.0
 11
4.506889763779526
 21
6.821850393700787
 31
0.0
  0
LINE
  5
CBB
330
1E
100
AcDbEntity
  8
7
100
AcDbLine
 10
4.528543307086613
 20
6.780511811023621
 30
0.0
 11
4.526574803149605
 21
6.812007874015748
 31
0.0
  0
LINE
  5
CBC
330
1E
100
AcDbEntity
  8
7
100
AcDbLine
 10
5.227362204724409
 20
7.032480314960629
 30
0.0
 11
4.506889763779526
 21
7.032480314960629
 31
0.0
  0
LINE
  5
CBD
330
1E
100
AcDbEntity
  8
7
100
AcDbLine
 10
4.414370078740157
 20
6.944881889763779
 30
0.0
 11
4.413385826771652
 21
6.924212598425196
 31
0.0
  0
LINE
  5
CBE
330
1E
100
AcDbEntity
  8
7
100
AcDbLine
 10
4.408464566929133
 20
6.818897637795275
 30
0.0
 11
4.389763779527558
 21
6.461614173228346
 31
0.0
  0
LINE
  5
CBF
330
1E
100
AcDbEntity
  8
7
100
AcDbLine
 10
5.344488188976377
 20
6.461614173228346
 30
0.0
 11
5.319881889763779
 21
6.944881889763779
 31
0.0
  0
LINE
  5
CC0
330
1E
100
AcDbEntity
  8
7
100
AcDbLine
 10
5.108267716535432
 20
6.575787401574802
 30
0.0
 11
5.059055118110236
 21
6.575787401574802
 31
0.0
  0
LINE
  5
CC1
330
1E
100
AcDbEntity
  8
7
100
AcDbLine
 10
4.58267716535433
 20
6.575787401574802
 30
0.0
 11
4.553149606299212
 21
6.575787401574802
 31
0.0
  0
LINE
  5
CC2
330
1E
100
AcDbEntity
  8
7
100
AcDbLine
 10
4.537401574803149
 20
6.570866141732283
 30
0.0
 11
4.523622047244094
 21
6.570866141732283
 31
0.0
  0
LINE
  5
CC3
330
1E
100
AcDbEntity
  8
7
100
AcDbLine
 10
4.376968503937007
 20
6.874015748031495
 30
0.0
 11
4.376968503937007
 21
6.867125984251968
 31
0.0
  0
LINE
  5
CC4
330
1E
100
AcDbEntity
  8
7
100
AcDbLine
 10
5.171259842519684
 20
6.933070866141731
 30
0.0
 11
4.451771653543306
 21
6.933070866141731
 31
0.0
  0
LINE
  5
CF7
330
1E
100
AcDbEntity
  8
7
100
AcDbLine
 10
4.437007874015748
 20
6.799212598425196
 30
0.0
 11
4.423228346456692
 21
6.782480314960629
 31
0.0
  0
LINE
  5
D32
330
1E
100
AcDbEntity
  8
7
100
AcDbLine
 10
4.45767716535433
 20
6.265748031496062
 30
0.0
 11
4.45767716535433
 21
6.274606299212598
 31
0.0
  0
LINE
  5
D51
330
1E
100
AcDbEntity
  8
7
100
AcDbLine
 10
4.533464566929133
 20
6.793307086614173
 30
0.0
 11
4.533464566929133
 21
6.785433070866141
 31
0.0
  0
LINE
  5
D5C
330
1E
100
AcDbEntity
  8
7
100
AcDbLine
 10
4.533464566929133
 20
6.793307086614173
 30
0.0
 11
4.533464566929133
 21
6.8001968503937
 31
0.0
  0
LINE
  5
D97
330
1E
100
AcDbEntity
  8
7
100
AcDbLine
 10
4.58267716535433
 20
6.581692913385826
 30
0.0
 11
4.553149606299212
 21
6.581692913385826
 31
0.0
  0
LINE
  5
D98
330
1E
100
AcDbEntity
  8
7
100
AcDbLine
 10
4.533464566929133
 20
6.570866141732283
 30
0.0
 11
4.533464566929133
 21
6.718503937007874
 31
0.0
  0
LINE
  5
D99
330
1E
100
AcDbEntity
  8
7
100
AcDbLine
 10
4.523622047244094
 20
6.562992125984251
 30
0.0
 11
4.534448818897637
 21
6.562992125984251
 31
0.0
  0
LINE
  5
D9A
330
1E
100
AcDbEntity
  8
7
100
AcDbLine
 10
4.524606299212598
 20
6.538385826771652
 30
0.0
 11
4.534448818897637
 21
6.538385826771652
 31
0.0
  0
LINE
  5
DB6
330
1E
100
AcDbEntity
  8
7
100
AcDbLine
 10
5.171259842519684
 20
6.58759842519685
 30
0.0
 11
5.116141732283463
 21
6.58759842519685
 31
0.0
  0
LINE
  5
DB7
330
1E
100
AcDbEntity
  8
7
100
AcDbLine
 10
5.171259842519684
 20
6.58759842519685
 30
0.0
 11
5.171259842519684
 21
6.927165354330708
 31
0.0
  0
LINE
  5
DC9
330
1E
100
AcDbEntity
  8
7
100
AcDbLine
 10
4.58267716535433
 20
6.534448818897637
 30
0.0
 11
5.059055118110236
 21
6.534448818897637
 31
0.0
  0
LINE
  5
DD9
330
1E
100
AcDbEntity
  8
7
100
AcDbLine
 10
4.451771653543306
 20
6.820866141732283
 30
0.0
 11
4.451771653543306
 21
6.835629921259842
 31
0.0
  0
LINE
  5
DDA
330
1E
100
AcDbEntity
  8
7
100
AcDbLine
 10
4.451771653543306
 20
6.835629921259842
 30
0.0
 11
4.451771653543306
 21
6.849409448818897
 31
0.0
  0
LINE
  5
DDB
330
1E
100
AcDbEntity
  8
7
100
AcDbLine
 10
4.5
 20
6.820866141732283
 30
0.0
 11
4.451771653543306
 21
6.820866141732283
 31
0.0
  0
LINE
  5
DE8
330
1E
100
AcDbEntity
  8
7
100
AcDbLine
 10
5.171259842519684
 20
6.933070866141731
 30
0.0
 11
5.171259842519684
 21
6.931102362204724
 31
0.0
  0
LINE
  5
DE9
330
1E
100
AcDbEntity
  8
7
100
AcDbLine
 10
5.171259842519684
 20
6.931102362204724
 30
0.0
 11
5.171259842519684
 21
6.927165354330708
 31
0.0
  0
LINE
  5
DF4
330
1E
100
AcDbEntity
  8
7
100
AcDbLine
 10
5.190944881889763
 20
6.913385826771652
 30
0.0
 11
5.190944881889763
 21
6.575787401574802
 31
0.0
  0
LINE
  5
E07
330
1E
100
AcDbEntity
  8
7
100
AcDbLine
 10
5.116141732283463
 20
6.575787401574802
 30
0.0
 11
5.116141732283463
 21
6.58759842519685
 31
0.0
  0
LINE
  5
E08
330
1E
100
AcDbEntity
  8
7
100
AcDbLine
 10
4.451771653543306
 20
6.813976377952755
 30
0.0
 11
4.451771653543306
 21
6.820866141732283
 31
0.0
  0
LINE
  5
E09
330
1E
100
AcDbEntity
  8
7
100
AcDbLine
 10
5.648622047244094
 20
6.205708661417322
 30
0.0
 11
5.648622047244094
 21
6.221456692913385
 31
0.0
  0
LINE
  5
E0A
330
1E
100
AcDbEntity
  8
7
100
AcDbLine
 10
5.648622047244094
 20
6.150590551181101
 30
0.0
 11
5.648622047244094
 21
6.14271653543307
 31
0.0
  0
LINE
  5
E10
330
1E
100
AcDbEntity
  8
7
100
AcDbLine
 10
5.648622047244094
 20
6.14271653543307
 30
0.0
 11
5.648622047244094
 21
6.221456692913385
 31
0.0
  0
LINE
  5
E11
330
1E
100
AcDbEntity
  8
7
100
AcDbLine
 10
5.648622047244094
 20
6.150590551181101
 30
0.0
 11
5.648622047244094
 21
6.174212598425196
 31
0.0
  0
LINE
  5
E12
330
1E
100
AcDbEntity
  8
7
100
AcDbLine
 10
5.648622047244094
 20
6.189960629921259
 30
0.0
 11
5.648622047244094
 21
6.214566929133858
 31
0.0
  0
LINE
  5
E13
330
1E
100
AcDbEntity
  8
7
100
AcDbLine
 10
5.648622047244094
 20
6.174212598425196
 30
0.0
 11
5.648622047244094
 21
6.183070866141732
 31
0.0
  0
LINE
  5
E14
330
1E
100
AcDbEntity
  8
7
100
AcDbLine
 10
5.648622047244094
 20
6.221456692913385
 30
0.0
 11
5.648622047244094
 21
6.205708661417322
 31
0.0
  0
LINE
  5
E15
330
1E
100
AcDbEntity
  8
7
100
AcDbLine
 10
5.648622047244094
 20
6.150590551181101
 30
0.0
 11
5.648622047244094
 21
6.14271653543307
 31
0.0
  0
LINE
  5
E16
330
1E
100
AcDbEntity
  8
7
100
AcDbLine
 10
5.648622047244094
 20
6.174212598425196
 30
0.0
 11
5.648622047244094
 21
6.183070866141732
 31
0.0
  0
LINE
  5
E17
330
1E
100
AcDbEntity
  8
7
100
AcDbLine
 10
5.648622047244094
 20
6.150590551181101
 30
0.0
 11
5.648622047244094
 21
6.174212598425196
 31
0.0
  0
LINE
  5
E18
330
1E
100
AcDbEntity
  8
7
100
AcDbLine
 10
5.648622047244094
 20
6.14271653543307
 30
0.0
 11
5.648622047244094
 21
6.221456692913385
 31
0.0
  0
LINE
  5
E19
330
1E
100
AcDbEntity
  8
7
100
AcDbLine
 10
5.648622047244094
 20
6.158464566929133
 30
0.0
 11
5.648622047244094
 21
6.205708661417322
 31
0.0
  0
LINE
  5
E1A
330
1E
100
AcDbEntity
  8
7
100
AcDbLine
 10
5.648622047244094
 20
6.215551181102362
 30
0.0
 11
5.648622047244094
 21
6.221456692913385
 31
0.0
  0
LINE
  5
E1B
330
1E
100
AcDbEntity
  8
7
100
AcDbLine
 10
5.648622047244094
 20
6.183070866141732
 30
0.0
 11
5.648622047244094
 21
6.189960629921259
 31
0.0
  0
LINE
  5
E1C
330
1E
100
AcDbEntity
  8
7
100
AcDbLine
 10
5.648622047244094
 20
6.14271653543307
 30
0.0
 11
5.648622047244094
 21
6.150590551181101
 31
0.0
  0
LINE
  5
E1D
330
1E
100
AcDbEntity
  8
7
100
AcDbLine
 10
5.648622047244094
 20
6.221456692913385
 30
0.0
 11
5.648622047244094
 21
6.214566929133858
 31
0.0
  0
LINE
  5
E23
330
1E
100
AcDbEntity
  8
7
100
AcDbLine
 10
5.648622047244094
 20
6.14271653543307
 30
0.0
 11
5.648622047244094
 21
6.158464566929133
 31
0.0
  0
LINE
  5
E24
330
1E
100
AcDbEntity
  8
7
100
AcDbLine
 10
5.648622047244094
 20
6.221456692913385
 30
0.0
 11
5.648622047244094
 21
6.14271653543307
 31
0.0
  0
LINE
  5
E25
330
1E
100
AcDbEntity
  8
7
100
AcDbLine
 10
5.648622047244094
 20
6.189960629921259
 30
0.0
 11
5.648622047244094
 21
6.214566929133858
 31
0.0
  0
LINE
  5
E26
330
1E
100
AcDbEntity
  8
7
100
AcDbLine
 10
5.648622047244094
 20
6.214566929133858
 30
0.0
 11
5.648622047244094
 21
6.221456692913385
 31
0.0
  0
LINE
  5
E27
330
1E
100
AcDbEntity
  8
7
100
AcDbLine
 10
5.648622047244094
 20
6.183070866141732
 30
0.0
 11
5.648622047244094
 21
6.189960629921259
 31
0.0
  0
LINE
  5
E2E
330
1E
100
AcDbEntity
  8
7
100
AcDbLine
 10
4.526574803149605
 20
6.48523622047244
 30
0.0
 11
4.524606299212598
 21
6.531496062992125
 31
0.0
  0
LINE
  5
E2F
330
1E
100
AcDbEntity
  8
7
100
AcDbLine
 10
5.205708661417322
 20
6.575787401574802
 30
0.0
 11
5.205708661417322
 21
6.911417322834645
 31
0.0
  0
LINE
  5
E3F
330
1E
100
AcDbEntity
  8
7
100
AcDbLine
 10
5.20767716535433
 20
6.4753937007874
 30
0.0
 11
5.20767716535433
 21
6.499015748031495
 31
0.0
  0
LINE
  5
E4B
330
1E
100
AcDbEntity
  8
7
100
AcDbLine
 10
5.210629921259842
 20
6.458661417322834
 30
0.0
 11
5.210629921259842
 21
6.461614173228346
 31
0.0
  0
LINE
  5
E4C
330
1E
100
AcDbEntity
  8
7
100
AcDbLine
 10
5.211614173228346
 20
6.450787401574802
 30
0.0
 11
5.210629921259842
 21
6.412401574803149
 31
0.0
  0
LINE
  5
E4D
330
1E
100
AcDbEntity
  8
7
100
AcDbLine
 10
5.211614173228346
 20
6.593503937007874
 30
0.0
 11
5.211614173228346
 21
6.450787401574802
 31
0.0
  0
LINE
  5
E54
330
1E
100
AcDbEntity
  8
7
100
AcDbLine
 10
5.20767716535433
 20
6.619094488188975
 30
0.0
 11
5.210629921259842
 21
6.619094488188975
 31
0.0
  0
LINE
  5
E55
330
1E
100
AcDbEntity
  8
7
100
AcDbLine
 10
5.20767716535433
 20
6.943897637795275
 30
0.0
 11
5.20767716535433
 21
6.619094488188975
 31
0.0
  0
LINE
  5
E56
330
1E
100
AcDbEntity
  8
7
100
AcDbLine
 10
5.205708661417322
 20
6.911417322834645
 30
0.0
 11
5.20767716535433
 21
6.943897637795275
 31
0.0
  0
LINE
  5
E57
330
1E
100
AcDbEntity
  8
7
100
AcDbLine
 10
5.113188976377952
 20
6.499015748031495
 30
0.0
 11
5.113188976377952
 21
6.496062992125984
 31
0.0
  0
LINE
  5
E58
330
1E
100
AcDbEntity
  8
7
100
AcDbLine
 10
4.554133858267715
 20
6.496062992125984
 30
0.0
 11
5.113188976377952
 21
6.496062992125984
 31
0.0
  0
LINE
  5
E59
330
1E
100
AcDbEntity
  8
7
100
AcDbLine
 10
4.554133858267715
 20
6.503937007874015
 30
0.0
 11
4.554133858267715
 21
6.496062992125984
 31
0.0
  0
LINE
  5
E5A
330
1E
100
AcDbEntity
  8
7
100
AcDbLine
 10
4.526574803149605
 20
6.503937007874015
 30
0.0
 11
4.554133858267715
 21
6.503937007874015
 31
0.0
  0
LINE
  5
E5B
330
1E
100
AcDbEntity
  8
7
100
AcDbLine
 10
4.526574803149605
 20
6.48523622047244
 30
0.0
 11
4.526574803149605
 21
6.503937007874015
 31
0.0
  0
LINE
  5
E5C
330
1E
100
AcDbEntity
  8
7
100
AcDbLine
 10
4.526574803149605
 20
6.4753937007874
 30
0.0
 11
4.526574803149605
 21
6.48523622047244
 31
0.0
  0
LINE
  5
E5D
330
1E
100
AcDbEntity
  8
7
100
AcDbLine
 10
4.526574803149605
 20
6.4753937007874
 30
0.0
 11
5.20767716535433
 21
6.4753937007874
 31
0.0
  0
LINE
  5
E5E
330
1E
100
AcDbEntity
  8
7
100
AcDbLine
 10
5.20767716535433
 20
6.499015748031495
 30
0.0
 11
5.113188976377952
 21
6.499015748031495
 31
0.0
  0
LINE
  5
E5F
330
1E
100
AcDbEntity
  8
7
100
AcDbLine
 10
4.523622047244094
 20
6.412401574803149
 30
0.0
 11
5.210629921259842
 21
6.412401574803149
 31
0.0
  0
LINE
  5
E60
330
1E
100
AcDbEntity
  8
7
100
AcDbLine
 10
4.978346456692912
 20
6.461614173228346
 30
0.0
 11
5.210629921259842
 21
6.461614173228346
 31
0.0
  0
LINE
  5
E6E
330
1E
100
AcDbEntity
  8
7
100
AcDbLine
 10
4.755905511811023
 20
6.461614173228346
 30
0.0
 11
4.523622047244094
 21
6.461614173228346
 31
0.0
  0
LINE
  5
E7B
330
1E
100
AcDbEntity
  8
7
100
AcDbLine
 10
4.978346456692912
 20
6.461614173228346
 30
0.0
 11
4.9753937007874
 21
6.461614173228346
 31
0.0
  0
LINE
  5
E81
330
1E
100
AcDbEntity
  8
7
100
AcDbLine
 10
5.113188976377952
 20
6.575787401574802
 30
0.0
 11
5.113188976377952
 21
6.57283464566929
 31
0.0
  0
LINE
  5
E82
330
1E
100
AcDbEntity
  8
7
100
AcDbLine
 10
5.113188976377952
 20
6.57283464566929
 30
0.0
 11
5.113188976377952
 21
6.562992125984251
 31
0.0
  0
LINE
  5
E89
330
1E
100
AcDbEntity
  8
7
100
AcDbLine
 10
5.208661417322834
 20
6.524606299212598
 30
0.0
 11
5.113188976377952
 21
6.524606299212598
 31
0.0
  0
LINE
  5
E8F
330
1E
100
AcDbEntity
  8
7
100
AcDbLine
 10
5.190944881889763
 20
6.911417322834645
 30
0.0
 11
5.205708661417322
 21
6.911417322834645
 31
0.0
  0
LINE
  5
E96
330
1E
100
AcDbEntity
  8
7
100
AcDbLine
 10
4.528543307086613
 20
6.570866141732283
 30
0.0
 11
4.528543307086613
 21
6.780511811023621
 31
0.0
  0
LINE
  5
E9D
330
1E
100
AcDbEntity
  8
7
100
AcDbLine
 10
5.227362204724409
 20
6.628937007874015
 30
0.0
 11
5.227362204724409
 21
7.005905511811023
 31
0.0
  0
LINE
  5
E9E
330
1E
100
AcDbEntity
  8
7
100
AcDbLine
 10
4.506889763779526
 20
7.005905511811023
 30
0.0
 11
5.227362204724409
 21
7.005905511811023
 31
0.0
  0
LINE
  5
EA4
330
1E
100
AcDbEntity
  8
7
100
AcDbLine
 10
5.217519685039369
 20
6.628937007874015
 30
0.0
 11
5.217519685039369
 21
6.95767716535433
 31
0.0
  0
LINE
  5
EA5
330
1E
100
AcDbEntity
  8
7
100
AcDbLine
 10
5.218503937007874
 20
6.628937007874015
 30
0.0
 11
5.217519685039369
 21
6.628937007874015
 31
0.0
  0
LINE
  5
EB6
330
1E
100
AcDbEntity
  8
7
100
AcDbLine
 10
5.648622047244094
 20
6.274606299212598
 30
0.0
 11
4.085629921259842
 21
6.274606299212598
 31
0.0
  0
LINE
  5
EB7
330
1E
100
AcDbEntity
  8
7
100
AcDbLine
 10
5.648622047244094
 20
6.461614173228346
 30
0.0
 11
5.648622047244094
 21
6.274606299212598
 31
0.0
  0
LINE
  5
EB8
330
1E
100
AcDbEntity
  8
7
100
AcDbLine
 10
5.306102362204724
 20
6.461614173228346
 30
0.0
 11
5.648622047244094
 21
6.461614173228346
 31
0.0
  0
LINE
  5
EC3
330
1E
100
AcDbEntity
  8
7
100
AcDbLine
 10
4.522637795275589
 20
6.450787401574802
 30
0.0
 11
4.523622047244094
 21
6.412401574803149
 31
0.0
  0
LINE
  5
EC9
330
1E
100
AcDbEntity
  8
7
100
AcDbLine
 10
4.435039370078739
 20
6.463582677165353
 30
0.0
 11
4.51279527559055
 21
6.463582677165353
 31
0.0
  0
LINE
  5
ECA
330
1E
100
AcDbEntity
  8
7
100
AcDbLine
 10
5.211614173228346
 20
6.393700787401574
 30
0.0
 11
5.210629921259842
 21
6.324803149606299
 31
0.0
  0
LINE
  5
ECB
330
1E
100
AcDbEntity
  8
7
100
AcDbLine
 10
4.897637795275589
 20
6.324803149606299
 30
0.0
 11
5.210629921259842
 21
6.324803149606299
 31
0.0
  0
LINE
  5
ED1
330
1E
100
AcDbEntity
  8
7
100
AcDbLine
 10
4.523622047244094
 20
6.324803149606299
 30
0.0
 11
4.836614173228346
 21
6.324803149606299
 31
0.0
  0
LINE
  5
ED2
330
1E
100
AcDbEntity
  8
7
100
AcDbLine
 10
4.522637795275589
 20
6.393700787401574
 30
0.0
 11
4.523622047244094
 21
6.324803149606299
 31
0.0
  0
LINE
  5
ED3
330
1E
100
AcDbEntity
  8
7
100
AcDbLine
 10
4.522637795275589
 20
6.393700787401574
 30
0.0
 11
4.83759842519685
 21
6.393700787401574
 31
0.0
  0
LINE
  5
ED4
330
1E
100
AcDbEntity
  8
7
100
AcDbLine
 10
4.836614173228346
 20
6.324803149606299
 30
0.0
 11
4.83759842519685
 21
6.393700787401574
 31
0.0
  0
LINE
  5
EE5
330
1E
100
AcDbEntity
  8
7
100
AcDbLine
 10
5.102362204724409
 20
6.194881889763779
 30
0.0
 11
5.157480314960629
 21
6.194881889763779
 31
0.0
  0
LINE
  5
EE6
330
1E
100
AcDbEntity
  8
7
100
AcDbLine
 10
4.554133858267715
 20
6.499015748031495
 30
0.0
 11
4.554133858267715
 21
6.503937007874015
 31
0.0
  0
LINE
  5
EEC
330
1E
100
AcDbEntity
  8
7
100
AcDbLine
 10
4.522637795275589
 20
6.593503937007874
 30
0.0
 11
4.519685039370078
 21
6.598425196850393
 31
0.0
  0
LINE
  5
EED
330
1E
100
AcDbEntity
  8
7
100
AcDbLine
 10
4.519685039370078
 20
6.598425196850393
 30
0.0
 11
4.51279527559055
 21
6.6003937007874
 31
0.0
  0
LINE
  5
EF4
330
1E
100
AcDbEntity
  8
7
100
AcDbLine
 10
4.526574803149605
 20
6.619094488188975
 30
0.0
 11
4.523622047244094
 21
6.619094488188975
 31
0.0
  0
LINE
  5
EFA
330
1E
100
AcDbEntity
  8
7
100
AcDbLine
 10
4.526574803149605
 20
6.812007874015748
 30
0.0
 11
4.526574803149605
 21
6.619094488188975
 31
0.0
  0
LINE
  5
F0A
330
1E
100
AcDbEntity
  8
7
100
AcDbLine
 10
5.157480314960629
 20
6.194881889763779
 30
0.0
 11
5.159448818897637
 21
6.274606299212598
 31
0.0
  0
LINE
  5
F0B
330
1E
100
AcDbEntity
  8
7
100
AcDbLine
 10
5.1003937007874
 20
6.274606299212598
 30
0.0
 11
5.102362204724409
 21
6.194881889763779
 31
0.0
  0
LINE
  5
F0C
330
1E
100
AcDbEntity
  8
7
100
AcDbLine
 10
4.435039370078739
 20
6.6003937007874
 30
0.0
 11
4.435039370078739
 21
6.463582677165353
 31
0.0
  0
LINE
  5
F0D
330
1E
100
AcDbEntity
  8
7
100
AcDbLine
 10
4.51279527559055
 20
6.463582677165353
 30
0.0
 11
4.51279527559055
 21
6.6003937007874
 31
0.0
  0
LINE
  5
F0E
330
1E
100
AcDbEntity
  8
7
100
AcDbLine
 10
4.522637795275589
 20
6.593503937007874
 30
0.0
 11
4.522637795275589
 21
6.450787401574802
 31
0.0
  0
LINE
  5
F14
330
1E
100
AcDbEntity
  8
7
100
AcDbLine
 10
4.523622047244094
 20
6.371062992125984
 30
0.0
 11
4.522637795275589
 21
6.393700787401574
 31
0.0
  0
LINE
  5
F15
330
1E
100
AcDbEntity
  8
7
100
AcDbLine
 10
4.523622047244094
 20
6.371062992125984
 30
0.0
 11
4.836614173228346
 21
6.371062992125984
 31
0.0
  0
LINE
  5
F16
330
1E
100
AcDbEntity
  8
7
100
AcDbLine
 10
4.523622047244094
 20
6.324803149606299
 30
0.0
 11
4.523622047244094
 21
6.371062992125984
 31
0.0
  0
LINE
  5
F25
330
1E
100
AcDbEntity
  8
7
100
AcDbLine
 10
4.408464566929133
 20
6.818897637795275
 30
0.0
 11
4.389763779527558
 21
6.461614173228346
 31
0.0
  0
LINE
  5
F26
330
1E
100
AcDbEntity
  8
7
100
AcDbLine
 10
4.973425196850393
 20
6.438976377952755
 30
0.0
 11
4.9753937007874
 21
6.461614173228346
 31
0.0
  0
LINE
  5
F27
330
1E
100
AcDbEntity
  8
7
100
AcDbLine
 10
4.760826771653542
 20
6.438976377952755
 30
0.0
 11
4.757874015748031
 21
6.461614173228346
 31
0.0
  0
LINE
  5
F28
330
1E
100
AcDbEntity
  8
7
100
AcDbLine
 10
4.526574803149605
 20
6.506889763779526
 30
0.0
 11
4.526574803149605
 21
6.503937007874015
 31
0.0
  0
LINE
  5
F2E
330
1E
100
AcDbEntity
  8
7
100
AcDbLine
 10
4.554133858267715
 20
6.499015748031495
 30
0.0
 11
4.554133858267715
 21
6.496062992125984
 31
0.0
  0
LINE
  5
F2F
330
1E
100
AcDbEntity
  8
7
100
AcDbLine
 10
4.528543307086613
 20
6.780511811023621
 30
0.0
 11
4.526574803149605
 21
6.812007874015748
 31
0.0
  0
LINE
  5
F39
330
1E
100
AcDbEntity
  8
7
100
AcDbLine
 10
5.344488188976377
 20
6.461614173228346
 30
0.0
 11
5.319881889763779
 21
6.941929133858267
 31
0.0
  0
LINE
  5
F3F
330
1E
100
AcDbEntity
  8
7
100
AcDbLine
 10
5.221456692913385
 20
6.463582677165353
 30
0.0
 11
5.221456692913385
 21
6.6003937007874
 31
0.0
  0
LINE
  5
F4F
330
1E
100
AcDbEntity
  8
7
100
AcDbLine
 10
5.221456692913385
 20
6.625
 30
0.0
 11
5.220472440944881
 21
6.628937007874015
 31
0.0
  0
LINE
  5
F55
330
1E
100
AcDbEntity
  8
7
100
AcDbLine
 10
5.220472440944881
 20
6.628937007874015
 30
0.0
 11
5.218503937007874
 21
6.628937007874015
 31
0.0
  0
LINE
  5
F62
330
1E
100
AcDbEntity
  8
7
100
AcDbLine
 10
5.3001968503937
 20
6.628937007874015
 30
0.0
 11
5.303149606299212
 21
6.628937007874015
 31
0.0
  0
LINE
  5
F63
330
1E
100
AcDbEntity
  8
7
100
AcDbLine
 10
5.210629921259842
 20
6.371062992125984
 30
0.0
 11
4.897637795275589
 21
6.371062992125984
 31
0.0
  0
LINE
  5
F64
330
1E
100
AcDbEntity
  8
7
100
AcDbLine
 10
5.210629921259842
 20
6.371062992125984
 30
0.0
 11
5.211614173228346
 21
6.393700787401574
 31
0.0
  0
LINE
  5
F65
330
1E
100
AcDbEntity
  8
7
100
AcDbLine
 10
4.896653543307086
 20
6.393700787401574
 30
0.0
 11
4.897637795275589
 21
6.371062992125984
 31
0.0
  0
LINE
  5
F66
330
1E
100
AcDbEntity
  8
7
100
AcDbLine
 10
5.210629921259842
 20
6.371062992125984
 30
0.0
 11
5.210629921259842
 21
6.324803149606299
 31
0.0
  0
LINE
  5
F67
330
1E
100
AcDbEntity
  8
7
100
AcDbLine
 10
4.898622047244094
 20
6.324803149606299
 30
0.0
 11
4.897637795275589
 21
6.371062992125984
 31
0.0
  0
LINE
  5
F68
330
1E
100
AcDbEntity
  8
7
100
AcDbLine
 10
5.648622047244094
 20
6.274606299212598
 30
0.0
 11
5.648622047244094
 21
6.092519685039369
 31
0.0
  0
LINE
  5
F6E
330
1E
100
AcDbEntity
  8
7
100
AcDbLine
 10
5.687992125984251
 20
6.092519685039369
 30
0.0
 11
5.687992125984251
 21
6.073818897637795
 31
0.0
  0
LINE
  5
F6F
330
1E
100
AcDbEntity
  8
7
100
AcDbLine
 10
5.648622047244094
 20
6.092519685039369
 30
0.0
 11
5.687992125984251
 21
6.092519685039369
 31
0.0
  0
LINE
  5
F70
330
1E
100
AcDbEntity
  8
7
100
AcDbLine
 10
5.574803149606299
 20
6.274606299212598
 30
0.0
 11
5.574803149606299
 21
5.943897637795275
 31
0.0
  0
LINE
  5
F71
330
1E
100
AcDbEntity
  8
7
100
AcDbLine
 10
4.159448818897637
 20
5.943897637795275
 30
0.0
 11
4.121062992125984
 21
5.943897637795275
 31
0.0
  0
LINE
  5
F72
330
1E
100
AcDbEntity
  8
7
100
AcDbLine
 10
4.159448818897637
 20
6.274606299212598
 30
0.0
 11
4.159448818897637
 21
5.943897637795275
 31
0.0
  0
LINE
  5
F79
330
1E
100
AcDbEntity
  8
7
100
AcDbLine
 10
4.121062992125984
 20
5.943897637795275
 30
0.0
 11
4.046259842519684
 21
6.073818897637795
 31
0.0
  0
LINE
  5
FCD
330
1E
100
AcDbEntity
  8
7
100
AcDbLine
 10
5.319881889763779
 20
6.941929133858267
 30
0.0
 11
5.314960629921259
 21
6.961614173228346
 31
0.0
  0
LINE
  5
33FA
330
1E
100
AcDbEntity
  8
7
100
AcDbLine
 10
5.314960629921259
 20
6.961614173228346
 30
0.0
 11
5.301181102362204
 21
6.979330708661416
 31
0.0
  0
LINE
  5
33FB
330
1E
100
AcDbEntity
  8
7
100
AcDbLine
 10
5.301181102362204
 20
6.979330708661416
 30
0.0
 11
5.280511811023621
 21
6.993110236220472
 31
0.0
  0
LINE
  5
33FC
330
1E
100
AcDbEntity
  8
7
100
AcDbLine
 10
5.280511811023621
 20
6.993110236220472
 30
0.0
 11
5.254921259842519
 21
7.002952755905511
 31
0.0
  0
LINE
  5
33FD
330
1E
100
AcDbEntity
  8
7
100
AcDbLine
 10
5.254921259842519
 20
7.002952755905511
 30
0.0
 11
5.227362204724409
 21
7.005905511811023
 31
0.0
  0
LINE
  5
33FE
330
1E
100
AcDbEntity
  8
7
100
AcDbLine
 10
5.319881889763779
 20
6.941929133858267
 30
0.0
 11
5.319881889763779
 21
6.942913385826771
 31
0.0
  0
LINE
  5
33FF
330
1E
100
AcDbEntity
  8
7
100
AcDbLine
 10
5.319881889763779
 20
6.942913385826771
 30
0.0
 11
5.319881889763779
 21
6.944881889763779
 31
0.0
  0
LINE
  5
3400
330
1E
100
AcDbEntity
  8
7
100
AcDbLine
 10
5.319881889763779
 20
6.613188976377952
 30
0.0
 11
5.317913385826771
 21
6.619094488188975
 31
0.0
  0
LINE
  5
3401
330
1E
100
AcDbEntity
  8
7
100
AcDbLine
 10
5.317913385826771
 20
6.619094488188975
 30
0.0
 11
5.314960629921259
 21
6.624015748031495
 31
0.0
  0
LINE
  5
3402
330
1E
100
AcDbEntity
  8
7
100
AcDbLine
 10
5.314960629921259
 20
6.624015748031495
 30
0.0
 11
5.309055118110236
 21
6.626968503937007
 31
0.0
  0
LINE
  5
3403
330
1E
100
AcDbEntity
  8
7
100
AcDbLine
 10
5.309055118110236
 20
6.626968503937007
 30
0.0
 11
5.303149606299212
 21
6.628937007874015
 31
0.0
  0
LINE
  5
3404
330
1E
100
AcDbEntity
  8
7
100
AcDbLine
 10
5.3001968503937
 20
6.628937007874015
 30
0.0
 11
5.311023622047243
 21
6.624015748031495
 31
0.0
  0
LINE
  5
3405
330
1E
100
AcDbEntity
  8
7
100
AcDbLine
 10
5.311023622047243
 20
6.624015748031495
 30
0.0
 11
5.315944881889762
 21
6.613188976377952
 31
0.0
  0
LINE
  5
3406
330
1E
100
AcDbEntity
  8
7
100
AcDbLine
 10
5.299212598425196
 20
6.6003937007874
 30
0.0
 11
5.310039370078739
 21
6.597440944881889
 31
0.0
  0
LINE
  5
3407
330
1E
100
AcDbEntity
  8
7
100
AcDbLine
 10
5.310039370078739
 20
6.597440944881889
 30
0.0
 11
5.314960629921259
 21
6.589566929133858
 31
0.0
  0
LINE
  5
3408
330
1E
100
AcDbEntity
  8
7
100
AcDbLine
 10
4.506889763779526
 20
6.818897637795275
 30
0.0
 11
4.506889763779526
 21
6.820866141732283
 31
0.0
  0
LINE
  5
3409
330
1E
100
AcDbEntity
  8
7
100
AcDbLine
 10
4.506889763779526
 20
6.820866141732283
 30
0.0
 11
4.506889763779526
 21
6.821850393700787
 31
0.0
  0
LINE
  5
340A
330
1E
100
AcDbEntity
  8
7
100
AcDbLine
 10
4.515748031496062
 20
6.818897637795275
 30
0.0
 11
4.515748031496062
 21
6.820866141732283
 31
0.0
  0
LINE
  5
340B
330
1E
100
AcDbEntity
  8
7
100
AcDbLine
 10
4.515748031496062
 20
6.820866141732283
 30
0.0
 11
4.515748031496062
 21
6.821850393700787
 31
0.0
  0
LINE
  5
340C
330
1E
100
AcDbEntity
  8
7
100
AcDbLine
 10
4.506889763779526
 20
6.943897637795275
 30
0.0
 11
4.506889763779526
 21
6.950787401574802
 31
0.0
  0
LINE
  5
340D
330
1E
100
AcDbEntity
  8
7
100
AcDbLine
 10
4.506889763779526
 20
6.950787401574802
 30
0.0
 11
4.506889763779526
 21
6.95767716535433
 31
0.0
  0
LINE
  5
340E
330
1E
100
AcDbEntity
  8
7
100
AcDbLine
 10
4.435039370078739
 20
6.6003937007874
 30
0.0
 11
4.424212598425196
 21
6.597440944881889
 31
0.0
  0
LINE
  5
340F
330
1E
100
AcDbEntity
  8
7
100
AcDbLine
 10
4.424212598425196
 20
6.597440944881889
 30
0.0
 11
4.419291338582676
 21
6.589566929133858
 31
0.0
  0
LINE
  5
3410
330
1E
100
AcDbEntity
  8
7
100
AcDbLine
 10
4.434055118110236
 20
6.628937007874015
 30
0.0
 11
4.423228346456692
 21
6.624015748031495
 31
0.0
  0
LINE
  5
3411
330
1E
100
AcDbEntity
  8
7
100
AcDbLine
 10
4.423228346456692
 20
6.624015748031495
 30
0.0
 11
4.418307086614173
 21
6.613188976377952
 31
0.0
  0
LINE
  5
3412
330
1E
100
AcDbEntity
  8
7
100
AcDbLine
 10
4.414370078740157
 20
6.941929133858267
 30
0.0
 11
4.414370078740157
 21
6.942913385826771
 31
0.0
  0
LINE
  5
3413
330
1E
100
AcDbEntity
  8
7
100
AcDbLine
 10
4.414370078740157
 20
6.942913385826771
 30
0.0
 11
4.414370078740157
 21
6.944881889763779
 31
0.0
  0
LINE
  5
3414
330
1E
100
AcDbEntity
  8
7
100
AcDbLine
 10
4.414370078740157
 20
6.613188976377952
 30
0.0
 11
4.416338582677164
 21
6.619094488188975
 31
0.0
  0
LINE
  5
3415
330
1E
100
AcDbEntity
  8
7
100
AcDbLine
 10
4.416338582677164
 20
6.619094488188975
 30
0.0
 11
4.419291338582676
 21
6.624015748031495
 31
0.0
  0
LINE
  5
3416
330
1E
100
AcDbEntity
  8
7
100
AcDbLine
 10
4.419291338582676
 20
6.624015748031495
 30
0.0
 11
4.424212598425196
 21
6.626968503937007
 31
0.0
  0
LINE
  5
3417
330
1E
100
AcDbEntity
  8
7
100
AcDbLine
 10
4.424212598425196
 20
6.626968503937007
 30
0.0
 11
4.431102362204724
 21
6.628937007874015
 31
0.0
  0
LINE
  5
3418
330
1E
100
AcDbEntity
  8
7
100
AcDbLine
 10
4.433070866141731
 20
6.979330708661416
 30
0.0
 11
4.419291338582676
 21
6.961614173228346
 31
0.0
  0
LINE
  5
3419
330
1E
100
AcDbEntity
  8
7
100
AcDbLine
 10
4.419291338582676
 20
6.961614173228346
 30
0.0
 11
4.414370078740157
 21
6.941929133858267
 31
0.0
  0
LINE
  5
341A
330
1E
100
AcDbEntity
  8
7
100
AcDbLine
 10
4.506889763779526
 20
7.005905511811023
 30
0.0
 11
4.479330708661416
 21
7.002952755905511
 31
0.0
  0
LINE
  5
341B
330
1E
100
AcDbEntity
  8
7
100
AcDbLine
 10
4.479330708661416
 20
7.002952755905511
 30
0.0
 11
4.453740157480314
 21
6.993110236220472
 31
0.0
  0
LINE
  5
341C
330
1E
100
AcDbEntity
  8
7
100
AcDbLine
 10
4.453740157480314
 20
6.993110236220472
 30
0.0
 11
4.433070866141731
 21
6.979330708661416
 31
0.0
  0
LINE
  5
341D
330
1E
100
AcDbEntity
  8
7
100
AcDbLine
 10
4.433070866141731
 20
6.931102362204724
 30
0.0
 11
4.453740157480314
 21
6.945866141732283
 31
0.0
  0
LINE
  5
341E
330
1E
100
AcDbEntity
  8
7
100
AcDbLine
 10
4.453740157480314
 20
6.945866141732283
 30
0.0
 11
4.479330708661416
 21
6.954724409448818
 31
0.0
  0
LINE
  5
341F
330
1E
100
AcDbEntity
  8
7
100
AcDbLine
 10
4.479330708661416
 20
6.954724409448818
 30
0.0
 11
4.506889763779526
 21
6.95767716535433
 31
0.0
  0
LINE
  5
3420
330
1E
100
AcDbEntity
  8
7
100
AcDbLine
 10
4.506889763779526
 20
6.818897637795275
 30
0.0
 11
4.481299212598425
 21
6.815944881889763
 31
0.0
  0
LINE
  5
3421
330
1E
100
AcDbEntity
  8
7
100
AcDbLine
 10
4.481299212598425
 20
6.815944881889763
 30
0.0
 11
4.456692913385826
 21
6.808070866141731
 31
0.0
  0
LINE
  5
3422
330
1E
100
AcDbEntity
  8
7
100
AcDbLine
 10
4.456692913385826
 20
6.808070866141731
 30
0.0
 11
4.437007874015748
 21
6.796259842519684
 31
0.0
  0
LINE
  5
3423
330
1E
100
AcDbEntity
  8
7
100
AcDbLine
 10
4.437007874015748
 20
6.796259842519684
 30
0.0
 11
4.422244094488188
 21
6.780511811023621
 31
0.0
  0
LINE
  5
3424
330
1E
100
AcDbEntity
  8
7
100
AcDbLine
 10
4.085629921259842
 20
6.274606299212598
 30
0.0
 11
4.085629921259842
 21
6.092519685039369
 31
0.0
  0
LINE
  5
3425
330
1E
100
AcDbEntity
  8
7
100
AcDbLine
 10
4.085629921259842
 20
6.092519685039369
 30
0.0
 11
4.046259842519684
 21
6.092519685039369
 31
0.0
  0
LINE
  5
3426
330
1E
100
AcDbEntity
  8
7
100
AcDbLine
 10
4.046259842519684
 20
6.092519685039369
 30
0.0
 11
4.046259842519684
 21
6.073818897637795
 31
0.0
  0
LINE
  5
3427
330
1E
100
AcDbEntity
  8
7
100
AcDbLine
 10
5.574803149606299
 20
5.943897637795275
 30
0.0
 11
5.613188976377952
 21
5.943897637795275
 31
0.0
  0
LINE
  5
3428
330
1E
100
AcDbEntity
  8
7
100
AcDbLine
 10
5.613188976377952
 20
5.943897637795275
 30
0.0
 11
5.687992125984251
 21
6.073818897637795
 31
0.0
  0
LINE
  5
3429
330
1E
100
AcDbEntity
  8
7
100
AcDbLine
 10
5.299212598425196
 20
6.6003937007874
 30
0.0
 11
5.299212598425196
 21
6.61515748031496
 31
0.0
  0
LINE
  5
342A
330
1E
100
AcDbEntity
  8
7
100
AcDbLine
 10
5.299212598425196
 20
6.61515748031496
 30
0.0
 11
5.299212598425196
 21
6.625
 31
0.0
  0
LINE
  5
342B
330
1E
100
AcDbEntity
  8
7
100
AcDbLine
 10
5.299212598425196
 20
6.625
 30
0.0
 11
5.3001968503937
 21
6.628937007874015
 31
0.0
  0
LINE
  5
342C
330
1E
100
AcDbEntity
  8
7
100
AcDbLine
 10
5.3001968503937
 20
6.628937007874015
 30
0.0
 11
5.220472440944881
 21
6.628937007874015
 31
0.0
  0
LINE
  5
342D
330
1E
100
AcDbEntity
  8
7
100
AcDbLine
 10
5.217519685039369
 20
6.95767716535433
 30
0.0
 11
5.210629921259842
 21
6.950787401574802
 31
0.0
  0
LINE
  5
342E
330
1E
100
AcDbEntity
  8
7
100
AcDbLine
 10
5.210629921259842
 20
6.950787401574802
 30
0.0
 11
5.20767716535433
 21
6.943897637795275
 31
0.0
  0
LINE
  5
342F
330
1E
100
AcDbEntity
  8
7
100
AcDbLine
 10
5.20767716535433
 20
6.619094488188975
 30
0.0
 11
5.210629921259842
 21
6.625984251968503
 31
0.0
  0
LINE
  5
3430
330
1E
100
AcDbEntity
  8
7
100
AcDbLine
 10
5.210629921259842
 20
6.625984251968503
 30
0.0
 11
5.217519685039369
 21
6.628937007874015
 31
0.0
  0
LINE
  5
3431
330
1E
100
AcDbEntity
  8
7
100
AcDbLine
 10
5.221456692913385
 20
6.6003937007874
 30
0.0
 11
5.221456692913385
 21
6.61515748031496
 31
0.0
  0
LINE
  5
3432
330
1E
100
AcDbEntity
  8
7
100
AcDbLine
 10
5.221456692913385
 20
6.61515748031496
 30
0.0
 11
5.221456692913385
 21
6.625
 31
0.0
  0
LINE
  5
3433
330
1E
100
AcDbEntity
  8
7
100
AcDbLine
 10
5.210629921259842
 20
6.619094488188975
 30
0.0
 11
5.213582677165353
 21
6.625984251968503
 31
0.0
  0
LINE
  5
3434
330
1E
100
AcDbEntity
  8
7
100
AcDbLine
 10
5.213582677165353
 20
6.625984251968503
 30
0.0
 11
5.220472440944881
 21
6.628937007874015
 31
0.0
  0
LINE
  5
3435
330
1E
100
AcDbEntity
  8
7
100
AcDbLine
 10
5.211614173228346
 20
6.593503937007874
 30
0.0
 11
5.214566929133858
 21
6.598425196850393
 31
0.0
  0
LINE
  5
3436
330
1E
100
AcDbEntity
  8
7
100
AcDbLine
 10
5.214566929133858
 20
6.598425196850393
 30
0.0
 11
5.221456692913385
 21
6.6003937007874
 31
0.0
  0
LINE
  5
3437
330
1E
100
AcDbEntity
  8
7
100
AcDbLine
 10
5.299212598425196
 20
6.463582677165353
 30
0.0
 11
5.299212598425196
 21
6.6003937007874
 31
0.0
  0
LINE
  5
3438
330
1E
100
AcDbEntity
  8
7
100
AcDbLine
 10
5.299212598425196
 20
6.6003937007874
 30
0.0
 11
5.221456692913385
 21
6.6003937007874
 31
0.0
  0
LINE
  5
3439
330
1E
100
AcDbEntity
  8
7
100
AcDbLine
 10
5.319881889763779
 20
6.941929133858267
 30
0.0
 11
5.319881889763779
 21
6.613188976377952
 31
0.0
  0
LINE
  5
343A
330
1E
100
AcDbEntity
  8
7
100
AcDbLine
 10
5.319881889763779
 20
6.613188976377952
 30
0.0
 11
5.315944881889762
 21
6.613188976377952
 31
0.0
  0
LINE
  5
343B
330
1E
100
AcDbEntity
  8
7
100
AcDbLine
 10
5.315944881889762
 20
6.613188976377952
 30
0.0
 11
5.314960629921259
 21
6.61023622047244
 31
0.0
  0
LINE
  5
343C
330
1E
100
AcDbEntity
  8
7
100
AcDbLine
 10
5.314960629921259
 20
6.61023622047244
 30
0.0
 11
5.314960629921259
 21
6.602362204724409
 31
0.0
  0
LINE
  5
343D
330
1E
100
AcDbEntity
  8
7
100
AcDbLine
 10
5.314960629921259
 20
6.602362204724409
 30
0.0
 11
5.314960629921259
 21
6.589566929133858
 31
0.0
  0
LINE
  5
343E
330
1E
100
AcDbEntity
  8
7
100
AcDbLine
 10
5.314960629921259
 20
6.589566929133858
 30
0.0
 11
5.314960629921259
 21
6.461614173228346
 31
0.0
  0
LINE
  5
343F
330
1E
100
AcDbEntity
  8
7
100
AcDbLine
 10
4.554133858267715
 20
6.503937007874015
 30
0.0
 11
4.554133858267715
 21
6.506889763779526
 31
0.0
  0
LINE
  5
3440
330
1E
100
AcDbEntity
  8
7
100
AcDbLine
 10
4.554133858267715
 20
6.506889763779526
 30
0.0
 11
4.554133858267715
 21
6.503937007874015
 31
0.0
  0
LINE
  5
3441
330
1E
100
AcDbEntity
  8
7
100
AcDbLine
 10
4.414370078740157
 20
6.9251968503937
 30
0.0
 11
4.414370078740157
 21
6.941929133858267
 31
0.0
  0
LINE
  5
3442
330
1E
100
AcDbEntity
  8
7
100
AcDbLine
 10
4.414370078740157
 20
6.941929133858267
 30
0.0
 11
4.413385826771652
 21
6.924212598425196
 31
0.0
  0
LINE
  5
3443
330
1E
100
AcDbEntity
  8
7
100
AcDbLine
 10
4.419291338582676
 20
6.461614173228346
 30
0.0
 11
4.419291338582676
 21
6.589566929133858
 31
0.0
  0
LINE
  5
3444
330
1E
100
AcDbEntity
  8
7
100
AcDbLine
 10
4.419291338582676
 20
6.589566929133858
 30
0.0
 11
4.419291338582676
 21
6.602362204724409
 31
0.0
  0
LINE
  5
3445
330
1E
100
AcDbEntity
  8
7
100
AcDbLine
 10
4.419291338582676
 20
6.602362204724409
 30
0.0
 11
4.419291338582676
 21
6.61023622047244
 31
0.0
  0
LINE
  5
3446
330
1E
100
AcDbEntity
  8
7
100
AcDbLine
 10
4.419291338582676
 20
6.61023622047244
 30
0.0
 11
4.418307086614173
 21
6.613188976377952
 31
0.0
  0
LINE
  5
3447
330
1E
100
AcDbEntity
  8
7
100
AcDbLine
 10
4.418307086614173
 20
6.613188976377952
 30
0.0
 11
4.414370078740157
 21
6.613188976377952
 31
0.0
  0
LINE
  5
3448
330
1E
100
AcDbEntity
  8
7
100
AcDbLine
 10
4.414370078740157
 20
6.613188976377952
 30
0.0
 11
4.414370078740157
 21
6.815944881889763
 31
0.0
  0
LINE
  5
3449
330
1E
100
AcDbEntity
  8
7
100
AcDbLine
 10
4.83759842519685
 20
6.393700787401574
 30
0.0
 11
4.836614173228346
 21
6.371062992125984
 31
0.0
  0
LINE
  5
344A
330
1E
100
AcDbEntity
  8
7
100
AcDbLine
 10
4.836614173228346
 20
6.371062992125984
 30
0.0
 11
4.835629921259842
 21
6.324803149606299
 31
0.0
  0
LINE
  5
344B
330
1E
100
AcDbEntity
  8
7
100
AcDbLine
 10
4.524606299212598
 20
6.531496062992125
 30
0.0
 11
4.523622047244094
 21
6.55511811023622
 31
0.0
  0
LINE
  5
344C
330
1E
100
AcDbEntity
  8
7
100
AcDbLine
 10
4.523622047244094
 20
6.55511811023622
 30
0.0
 11
4.523622047244094
 21
6.575787401574802
 31
0.0
  0
LINE
  5
344D
330
1E
100
AcDbEntity
  8
7
100
AcDbLine
 10
4.523622047244094
 20
6.575787401574802
 30
0.0
 11
4.523622047244094
 21
6.590551181102362
 31
0.0
  0
LINE
  5
344E
330
1E
100
AcDbEntity
  8
7
100
AcDbLine
 10
4.523622047244094
 20
6.590551181102362
 30
0.0
 11
4.524606299212598
 21
6.598425196850393
 31
0.0
  0
LINE
  5
344F
330
1E
100
AcDbEntity
  8
7
100
AcDbLine
 10
4.524606299212598
 20
6.598425196850393
 30
0.0
 11
4.525590551181101
 21
6.597440944881889
 31
0.0
  0
LINE
  5
3450
330
1E
100
AcDbEntity
  8
7
100
AcDbLine
 10
4.525590551181101
 20
6.597440944881889
 30
0.0
 11
4.526574803149605
 21
6.58759842519685
 31
0.0
  0
LINE
  5
3451
330
1E
100
AcDbEntity
  8
7
100
AcDbLine
 10
4.526574803149605
 20
6.58759842519685
 30
0.0
 11
4.52755905511811
 21
6.570866141732283
 31
0.0
  0
LINE
  5
3452
330
1E
100
AcDbEntity
  8
7
100
AcDbLine
 10
4.526574803149605
 20
6.812007874015748
 30
0.0
 11
4.522637795275589
 21
6.816929133858267
 31
0.0
  0
LINE
  5
3453
330
1E
100
AcDbEntity
  8
7
100
AcDbLine
 10
4.522637795275589
 20
6.816929133858267
 30
0.0
 11
4.515748031496062
 21
6.818897637795275
 31
0.0
  0
LINE
  5
3454
330
1E
100
AcDbEntity
  8
7
100
AcDbLine
 10
4.526574803149605
 20
6.619094488188975
 30
0.0
 11
4.522637795275589
 21
6.625984251968503
 31
0.0
  0
LINE
  5
3455
330
1E
100
AcDbEntity
  8
7
100
AcDbLine
 10
4.522637795275589
 20
6.625984251968503
 30
0.0
 11
4.515748031496062
 21
6.628937007874015
 31
0.0
  0
LINE
  5
3456
330
1E
100
AcDbEntity
  8
7
100
AcDbLine
 10
4.523622047244094
 20
6.619094488188975
 30
0.0
 11
4.523622047244094
 21
6.616141732283463
 31
0.0
  0
LINE
  5
3457
330
1E
100
AcDbEntity
  8
7
100
AcDbLine
 10
4.523622047244094
 20
6.616141732283463
 30
0.0
 11
4.522637795275589
 21
6.607283464566928
 31
0.0
  0
LINE
  5
3458
330
1E
100
AcDbEntity
  8
7
100
AcDbLine
 10
4.522637795275589
 20
6.607283464566928
 30
0.0
 11
4.522637795275589
 21
6.593503937007874
 31
0.0
  0
LINE
  5
3459
330
1E
100
AcDbEntity
  8
7
100
AcDbLine
 10
4.523622047244094
 20
6.619094488188975
 30
0.0
 11
4.520669291338582
 21
6.625984251968503
 31
0.0
  0
LINE
  5
345A
330
1E
100
AcDbEntity
  8
7
100
AcDbLine
 10
4.520669291338582
 20
6.625984251968503
 30
0.0
 11
4.513779527559054
 21
6.628937007874015
 31
0.0
  0
LINE
  5
345B
330
1E
100
AcDbEntity
  8
7
100
AcDbLine
 10
4.515748031496062
 20
6.628937007874015
 30
0.0
 11
4.515748031496062
 21
6.818897637795275
 31
0.0
  0
LINE
  5
345C
330
1E
100
AcDbEntity
  8
7
100
AcDbLine
 10
4.515748031496062
 20
6.818897637795275
 30
0.0
 11
4.506889763779526
 21
6.818897637795275
 31
0.0
  0
LINE
  5
345D
330
1E
100
AcDbEntity
  8
7
100
AcDbLine
 10
4.506889763779526
 20
6.818897637795275
 30
0.0
 11
4.506889763779526
 21
6.628937007874015
 31
0.0
  0
LINE
  5
345E
330
1E
100
AcDbEntity
  8
7
100
AcDbLine
 10
4.434055118110236
 20
6.628937007874015
 30
0.0
 11
4.435039370078739
 21
6.625
 31
0.0
  0
LINE
  5
345F
330
1E
100
AcDbEntity
  8
7
100
AcDbLine
 10
4.435039370078739
 20
6.625
 30
0.0
 11
4.435039370078739
 21
6.61515748031496
 31
0.0
  0
LINE
  5
3460
330
1E
100
AcDbEntity
  8
7
100
AcDbLine
 10
4.435039370078739
 20
6.61515748031496
 30
0.0
 11
4.435039370078739
 21
6.6003937007874
 31
0.0
  0
LINE
  5
3461
330
1E
100
AcDbEntity
  8
7
100
AcDbLine
 10
4.435039370078739
 20
6.6003937007874
 30
0.0
 11
4.51279527559055
 21
6.6003937007874
 31
0.0
  0
LINE
  5
3462
330
1E
100
AcDbEntity
  8
7
100
AcDbLine
 10
4.51279527559055
 20
6.6003937007874
 30
0.0
 11
4.51279527559055
 21
6.61515748031496
 31
0.0
  0
LINE
  5
3463
330
1E
100
AcDbEntity
  8
7
100
AcDbLine
 10
4.51279527559055
 20
6.61515748031496
 30
0.0
 11
4.51279527559055
 21
6.625
 31
0.0
  0
LINE
  5
3464
330
1E
100
AcDbEntity
  8
7
100
AcDbLine
 10
4.51279527559055
 20
6.625
 30
0.0
 11
4.513779527559054
 21
6.628937007874015
 31
0.0
  0
LINE
  5
3465
330
1E
100
AcDbEntity
  8
7
100
AcDbLine
 10
4.897637795275589
 20
6.324803149606299
 30
0.0
 11
4.896653543307086
 21
6.393700787401574
 31
0.0
  0
LINE
  5
3466
330
1E
100
AcDbEntity
  8
7
100
AcDbLine
 10
4.896653543307086
 20
6.393700787401574
 30
0.0
 11
5.211614173228346
 21
6.393700787401574
 31
0.0
  0
LINE
  5
3467
330
1E
100
AcDbEntity
  8
7
100
AcDbLine
 10
4.522637795275589
 20
6.450787401574802
 30
0.0
 11
4.519685039370078
 21
6.459645669291337
 31
0.0
  0
LINE
  5
3468
330
1E
100
AcDbEntity
  8
7
100
AcDbLine
 10
4.519685039370078
 20
6.459645669291337
 30
0.0
 11
4.51279527559055
 21
6.463582677165353
 31
0.0
  0
LINE
  5
3469
330
1E
100
AcDbEntity
  8
7
100
AcDbLine
 10
5.211614173228346
 20
6.450787401574802
 30
0.0
 11
5.214566929133858
 21
6.459645669291337
 31
0.0
  0
LINE
  5
346A
330
1E
100
AcDbEntity
  8
7
100
AcDbLine
 10
5.214566929133858
 20
6.459645669291337
 30
0.0
 11
5.221456692913385
 21
6.463582677165353
 31
0.0
  0
LINE
  5
346B
330
1E
100
AcDbEntity
  8
7
100
AcDbLine
 10
5.306102362204724
 20
6.461614173228346
 30
0.0
 11
5.299212598425196
 21
6.463582677165353
 31
0.0
  0
LINE
  5
346C
330
1E
100
AcDbEntity
  8
7
100
AcDbLine
 10
5.299212598425196
 20
6.463582677165353
 30
0.0
 11
5.221456692913385
 21
6.463582677165353
 31
0.0
  0
LINE
  5
346D
330
1E
100
AcDbEntity
  8
7
100
AcDbLine
 10
4.435039370078739
 20
6.463582677165353
 30
0.0
 11
4.428149606299212
 21
6.461614173228346
 31
0.0
  0
LINE
  5
346E
330
1E
100
AcDbEntity
  8
7
100
AcDbLine
 10
4.428149606299212
 20
6.461614173228346
 30
0.0
 11
4.085629921259842
 21
6.461614173228346
 31
0.0
  0
LINE
  5
346F
330
1E
100
AcDbEntity
  8
7
100
AcDbLine
 10
4.085629921259842
 20
6.461614173228346
 30
0.0
 11
4.085629921259842
 21
6.274606299212598
 31
0.0
  0
LINE
  5
3470
330
1E
100
AcDbEntity
  8
7
100
AcDbLine
 10
4.506889763779526
 20
7.032480314960629
 30
0.0
 11
4.506889763779526
 21
7.025590551181101
 31
0.0
  0
LINE
  5
3471
330
1E
100
AcDbEntity
  8
7
100
AcDbLine
 10
4.506889763779526
 20
7.025590551181101
 30
0.0
 11
4.506889763779526
 21
7.005905511811023
 31
0.0
  0
LINE
  5
3472
330
1E
100
AcDbEntity
  8
7
100
AcDbLine
 10
5.227362204724409
 20
7.005905511811023
 30
0.0
 11
5.227362204724409
 21
7.025590551181101
 31
0.0
  0
LINE
  5
3473
330
1E
100
AcDbEntity
  8
7
100
AcDbLine
 10
5.227362204724409
 20
7.025590551181101
 30
0.0
 11
5.227362204724409
 21
7.032480314960629
 31
0.0
  0
LINE
  5
3474
330
1E
100
AcDbEntity
  8
7
100
AcDbLine
 10
4.506889763779526
 20
7.005905511811023
 30
0.0
 11
4.506889763779526
 21
6.95767716535433
 31
0.0
  0
LINE
  5
3475
330
1E
100
AcDbEntity
  8
7
100
AcDbLine
 10
4.506889763779526
 20
6.95767716535433
 30
0.0
 11
5.217519685039369
 21
6.95767716535433
 31
0.0
  0
LINE
  5
3476
330
1E
100
AcDbEntity
  8
7
100
AcDbLine
 10
5.20767716535433
 20
6.943897637795275
 30
0.0
 11
4.506889763779526
 21
6.943897637795275
 31
0.0
  0
LINE
  5
3477
330
1E
100
AcDbEntity
  8
7
100
AcDbLine
 10
4.506889763779526
 20
6.943897637795275
 30
0.0
 11
4.482283464566928
 21
6.940944881889763
 31
0.0
  0
LINE
  5
3478
330
1E
100
AcDbEntity
  8
7
100
AcDbLine
 10
4.482283464566928
 20
6.940944881889763
 30
0.0
 11
4.459645669291337
 21
6.933070866141731
 31
0.0
  0
LINE
  5
3479
330
1E
100
AcDbEntity
  8
7
100
AcDbLine
 10
4.422244094488188
 20
6.812992125984251
 30
0.0
 11
4.422244094488188
 21
6.780511811023621
 31
0.0
  0
LINE
  5
347A
330
1E
100
AcDbEntity
  8
7
100
AcDbLine
 10
4.422244094488188
 20
6.780511811023621
 30
0.0
 11
4.423228346456692
 21
6.782480314960629
 31
0.0
  0
LINE
  5
347B
330
1E
100
AcDbEntity
  8
7
100
AcDbLine
 10
4.423228346456692
 20
6.782480314960629
 30
0.0
 11
4.423228346456692
 21
6.783464566929133
 31
0.0
  0
LINE
  5
347C
330
1E
100
AcDbEntity
  8
7
100
AcDbLine
 10
5.113188976377952
 20
6.499015748031495
 30
0.0
 11
5.113188976377952
 21
6.510826771653542
 31
0.0
  0
LINE
  5
347D
330
1E
100
AcDbEntity
  8
7
100
AcDbLine
 10
5.113188976377952
 20
6.510826771653542
 30
0.0
 11
5.113188976377952
 21
6.524606299212598
 31
0.0
  0
LINE
  5
347E
330
1E
100
AcDbEntity
  8
7
100
AcDbLine
 10
5.209645669291337
 20
6.562992125984251
 30
0.0
 11
5.113188976377952
 21
6.562992125984251
 31
0.0
  0
LINE
  5
347F
330
1E
100
AcDbEntity
  8
7
100
AcDbLine
 10
5.113188976377952
 20
6.562992125984251
 30
0.0
 11
5.113188976377952
 21
6.54527559055118
 31
0.0
  0
LINE
  5
3480
330
1E
100
AcDbEntity
  8
7
100
AcDbLine
 10
5.113188976377952
 20
6.54527559055118
 30
0.0
 11
5.113188976377952
 21
6.524606299212598
 31
0.0
  0
LINE
  5
3481
330
1E
100
AcDbEntity
  8
7
100
AcDbLine
 10
4.526574803149605
 20
6.4753937007874
 30
0.0
 11
4.526574803149605
 21
6.465551181102362
 31
0.0
  0
LINE
  5
3482
330
1E
100
AcDbEntity
  8
7
100
AcDbLine
 10
4.526574803149605
 20
6.465551181102362
 30
0.0
 11
4.525590551181101
 21
6.461614173228346
 31
0.0
  0
LINE
  5
3483
330
1E
100
AcDbEntity
  8
7
100
AcDbLine
 10
4.755905511811023
 20
6.461614173228346
 30
0.0
 11
4.757874015748031
 21
6.461614173228346
 31
0.0
  0
LINE
  5
3484
330
1E
100
AcDbEntity
  8
7
100
AcDbLine
 10
4.757874015748031
 20
6.461614173228346
 30
0.0
 11
4.9753937007874
 21
6.461614173228346
 31
0.0
  0
LINE
  5
3485
330
1E
100
AcDbEntity
  8
7
100
AcDbLine
 10
4.523622047244094
 20
6.412401574803149
 30
0.0
 11
4.523622047244094
 21
6.431102362204724
 31
0.0
  0
LINE
  5
3486
330
1E
100
AcDbEntity
  8
7
100
AcDbLine
 10
4.523622047244094
 20
6.431102362204724
 30
0.0
 11
4.523622047244094
 21
6.44783464566929
 31
0.0
  0
LINE
  5
3487
330
1E
100
AcDbEntity
  8
7
100
AcDbLine
 10
4.523622047244094
 20
6.44783464566929
 30
0.0
 11
4.523622047244094
 21
6.458661417322834
 31
0.0
  0
LINE
  5
3488
330
1E
100
AcDbEntity
  8
7
100
AcDbLine
 10
4.523622047244094
 20
6.458661417322834
 30
0.0
 11
4.523622047244094
 21
6.461614173228346
 31
0.0
  0
LINE
  5
3489
330
1E
100
AcDbEntity
  8
7
100
AcDbLine
 10
4.755905511811023
 20
6.461614173228346
 30
0.0
 11
4.754921259842519
 21
6.459645669291337
 31
0.0
  0
LINE
  5
348A
330
1E
100
AcDbEntity
  8
7
100
AcDbLine
 10
4.754921259842519
 20
6.459645669291337
 30
0.0
 11
4.754921259842519
 21
6.450787401574802
 31
0.0
  0
LINE
  5
348B
330
1E
100
AcDbEntity
  8
7
100
AcDbLine
 10
4.754921259842519
 20
6.450787401574802
 30
0.0
 11
4.754921259842519
 21
6.438976377952755
 31
0.0
  0
LINE
  5
348C
330
1E
100
AcDbEntity
  8
7
100
AcDbLine
 10
4.978346456692912
 20
6.461614173228346
 30
0.0
 11
4.979330708661416
 21
6.459645669291337
 31
0.0
  0
LINE
  5
348D
330
1E
100
AcDbEntity
  8
7
100
AcDbLine
 10
4.979330708661416
 20
6.459645669291337
 30
0.0
 11
4.979330708661416
 21
6.450787401574802
 31
0.0
  0
LINE
  5
348E
330
1E
100
AcDbEntity
  8
7
100
AcDbLine
 10
4.979330708661416
 20
6.450787401574802
 30
0.0
 11
4.979330708661416
 21
6.438976377952755
 31
0.0
  0
LINE
  5
348F
330
1E
100
AcDbEntity
  8
7
100
AcDbLine
 10
4.979330708661416
 20
6.438976377952755
 30
0.0
 11
4.754921259842519
 21
6.438976377952755
 31
0.0
  0
LINE
  5
3490
330
1E
100
AcDbEntity
  8
7
100
AcDbLine
 10
5.210629921259842
 20
6.619094488188975
 30
0.0
 11
5.210629921259842
 21
6.616141732283463
 31
0.0
  0
LINE
  5
3491
330
1E
100
AcDbEntity
  8
7
100
AcDbLine
 10
5.210629921259842
 20
6.616141732283463
 30
0.0
 11
5.211614173228346
 21
6.607283464566928
 31
0.0
  0
LINE
  5
3492
330
1E
100
AcDbEntity
  8
7
100
AcDbLine
 10
5.211614173228346
 20
6.607283464566928
 30
0.0
 11
5.211614173228346
 21
6.593503937007874
 31
0.0
  0
LINE
  5
3493
330
1E
100
AcDbEntity
  8
7
100
AcDbLine
 10
5.210629921259842
 20
6.412401574803149
 30
0.0
 11
5.210629921259842
 21
6.431102362204724
 31
0.0
  0
LINE
  5
3494
330
1E
100
AcDbEntity
  8
7
100
AcDbLine
 10
5.210629921259842
 20
6.431102362204724
 30
0.0
 11
5.210629921259842
 21
6.44783464566929
 31
0.0
  0
LINE
  5
3495
330
1E
100
AcDbEntity
  8
7
100
AcDbLine
 10
5.210629921259842
 20
6.44783464566929
 30
0.0
 11
5.210629921259842
 21
6.458661417322834
 31
0.0
  0
LINE
  5
3496
330
1E
100
AcDbEntity
  8
7
100
AcDbLine
 10
5.20767716535433
 20
6.4753937007874
 30
0.0
 11
5.20767716535433
 21
6.465551181102362
 31
0.0
  0
LINE
  5
3497
330
1E
100
AcDbEntity
  8
7
100
AcDbLine
 10
5.20767716535433
 20
6.465551181102362
 30
0.0
 11
5.208661417322834
 21
6.461614173228346
 31
0.0
  0
LINE
  5
3498
330
1E
100
AcDbEntity
  8
7
100
AcDbLine
 10
5.20767716535433
 20
6.499015748031495
 30
0.0
 11
5.20767716535433
 21
6.510826771653542
 31
0.0
  0
LINE
  5
3499
330
1E
100
AcDbEntity
  8
7
100
AcDbLine
 10
5.20767716535433
 20
6.510826771653542
 30
0.0
 11
5.208661417322834
 21
6.524606299212598
 31
0.0
  0
LINE
  5
349A
330
1E
100
AcDbEntity
  8
7
100
AcDbLine
 10
5.209645669291337
 20
6.562992125984251
 30
0.0
 11
5.209645669291337
 21
6.54527559055118
 31
0.0
  0
LINE
  5
349B
330
1E
100
AcDbEntity
  8
7
100
AcDbLine
 10
5.209645669291337
 20
6.54527559055118
 30
0.0
 11
5.208661417322834
 21
6.524606299212598
 31
0.0
  0
LINE
  5
349C
330
1E
100
AcDbEntity
  8
7
100
AcDbLine
 10
5.208661417322834
 20
6.575787401574802
 30
0.0
 11
5.209645669291337
 21
6.57283464566929
 31
0.0
  0
LINE
  5
349D
330
1E
100
AcDbEntity
  8
7
100
AcDbLine
 10
5.209645669291337
 20
6.57283464566929
 30
0.0
 11
5.209645669291337
 21
6.562992125984251
 31
0.0
  0
LINE
  5
349E
330
1E
100
AcDbEntity
  8
7
100
AcDbLine
 10
4.431102362204724
 20
6.628937007874015
 30
0.0
 11
4.434055118110236
 21
6.628937007874015
 31
0.0
  0
LINE
  5
349F
330
1E
100
AcDbEntity
  8
7
100
AcDbLine
 10
4.434055118110236
 20
6.628937007874015
 30
0.0
 11
4.513779527559054
 21
6.628937007874015
 31
0.0
  0
LINE
  5
34A0
330
1E
100
AcDbEntity
  8
7
100
AcDbLine
 10
4.513779527559054
 20
6.628937007874015
 30
0.0
 11
4.515748031496062
 21
6.628937007874015
 31
0.0
  0
LINE
  5
34A1
330
1E
100
AcDbEntity
  8
7
100
AcDbLine
 10
5.648622047244094
 20
6.158464566929133
 30
0.0
 11
5.648622047244094
 21
6.14271653543307
 31
0.0
  0
LINE
  5
34A2
330
1E
100
AcDbEntity
  8
7
100
AcDbLine
 10
5.648622047244094
 20
6.14271653543307
 30
0.0
 11
5.648622047244094
 21
6.150590551181101
 31
0.0
  0
LINE
  5
34A3
330
1E
100
AcDbEntity
  8
7
100
AcDbLine
 10
5.648622047244094
 20
6.221456692913385
 30
0.0
 11
5.648622047244094
 21
6.214566929133858
 31
0.0
  0
LINE
  5
34A4
330
1E
100
AcDbEntity
  8
7
100
AcDbLine
 10
5.648622047244094
 20
6.214566929133858
 30
0.0
 11
5.648622047244094
 21
6.221456692913385
 31
0.0
  0
LINE
  5
34A5
330
1E
100
AcDbEntity
  8
7
100
AcDbLine
 10
4.526574803149605
 20
6.806102362204724
 30
0.0
 11
4.531496062992125
 21
6.799212598425196
 31
0.0
  0
LINE
  5
34A6
330
1E
100
AcDbEntity
  8
7
100
AcDbLine
 10
4.531496062992125
 20
6.799212598425196
 30
0.0
 11
4.533464566929133
 21
6.792322834645668
 31
0.0
  0
LINE
  5
34A7
330
1E
100
AcDbEntity
  8
7
100
AcDbLine
 10
4.376968503937007
 20
6.867125984251968
 30
0.0
 11
4.381889763779526
 21
6.846456692913385
 31
0.0
  0
LINE
  5
34A8
330
1E
100
AcDbEntity
  8
7
100
AcDbLine
 10
4.381889763779526
 20
6.846456692913385
 30
0.0
 11
4.398622047244094
 21
6.829724409448818
 31
0.0
  0
LINE
  5
34A9
330
1E
100
AcDbEntity
  8
7
100
AcDbLine
 10
4.398622047244094
 20
6.829724409448818
 30
0.0
 11
4.423228346456692
 21
6.817913385826771
 31
0.0
  0
LINE
  5
34AA
330
1E
100
AcDbEntity
  8
7
100
AcDbLine
 10
4.423228346456692
 20
6.817913385826771
 30
0.0
 11
4.451771653543306
 21
6.813976377952755
 31
0.0
  0
LINE
  5
34AB
330
1E
100
AcDbEntity
  8
7
100
AcDbLine
 10
4.451771653543306
 20
6.813976377952755
 30
0.0
 11
4.465551181102362
 21
6.813976377952755
 31
0.0
  0
LINE
  5
34AC
330
1E
100
AcDbEntity
  8
7
100
AcDbLine
 10
4.451771653543306
 20
6.813976377952755
 30
0.0
 11
4.451771653543306
 21
6.810039370078739
 31
0.0
  0
LINE
  5
34AD
330
1E
100
AcDbEntity
  8
7
100
AcDbLine
 10
4.451771653543306
 20
6.810039370078739
 30
0.0
 11
4.451771653543306
 21
6.808070866141731
 31
0.0
  0
LINE
  5
34AE
330
1E
100
AcDbEntity
  8
7
100
AcDbLine
 10
5.190944881889763
 20
6.575787401574802
 30
0.0
 11
5.184055118110236
 21
6.584645669291337
 31
0.0
  0
LINE
  5
34AF
330
1E
100
AcDbEntity
  8
7
100
AcDbLine
 10
5.184055118110236
 20
6.584645669291337
 30
0.0
 11
5.171259842519684
 21
6.58759842519685
 31
0.0
  0
LINE
  5
34B0
330
1E
100
AcDbEntity
  8
7
100
AcDbLine
 10
5.190944881889763
 20
6.913385826771652
 30
0.0
 11
5.185039370078739
 21
6.923228346456692
 31
0.0
  0
LINE
  5
34B1
330
1E
100
AcDbEntity
  8
7
100
AcDbLine
 10
5.185039370078739
 20
6.923228346456692
 30
0.0
 11
5.171259842519684
 21
6.927165354330708
 31
0.0
  0
LINE
  5
34B2
330
1E
100
AcDbEntity
  8
7
100
AcDbLine
 10
4.451771653543306
 20
6.820866141732283
 30
0.0
 11
4.422244094488188
 21
6.824803149606299
 31
0.0
  0
LINE
  5
34B3
330
1E
100
AcDbEntity
  8
7
100
AcDbLine
 10
4.422244094488188
 20
6.824803149606299
 30
0.0
 11
4.398622047244094
 21
6.836614173228346
 31
0.0
  0
LINE
  5
34B4
330
1E
100
AcDbEntity
  8
7
100
AcDbLine
 10
4.398622047244094
 20
6.836614173228346
 30
0.0
 11
4.381889763779526
 21
6.854330708661416
 31
0.0
  0
LINE
  5
34B5
330
1E
100
AcDbEntity
  8
7
100
AcDbLine
 10
4.381889763779526
 20
6.854330708661416
 30
0.0
 11
4.376968503937007
 21
6.875
 31
0.0
  0
LINE
  5
34B6
330
1E
100
AcDbEntity
  8
7
100
AcDbLine
 10
4.451771653543306
 20
6.933070866141731
 30
0.0
 11
4.451771653543306
 21
6.931102362204724
 31
0.0
  0
LINE
  5
34B7
330
1E
100
AcDbEntity
  8
7
100
AcDbLine
 10
4.451771653543306
 20
6.931102362204724
 30
0.0
 11
4.451771653543306
 21
6.927165354330708
 31
0.0
  0
LINE
  5
34B8
330
1E
100
AcDbEntity
  8
7
100
AcDbLine
 10
4.533464566929133
 20
6.8001968503937
 30
0.0
 11
4.531496062992125
 21
6.807086614173227
 31
0.0
  0
LINE
  5
34B9
330
1E
100
AcDbEntity
  8
7
100
AcDbLine
 10
4.531496062992125
 20
6.807086614173227
 30
0.0
 11
4.525590551181101
 21
6.812992125984251
 31
0.0
  0
LINE
  5
34BA
330
1E
100
AcDbEntity
  8
7
100
AcDbLine
 10
4.502952755905511
 20
6.820866141732283
 30
0.0
 11
4.502952755905511
 21
6.835629921259842
 31
0.0
  0
LINE
  5
34BB
330
1E
100
AcDbEntity
  8
7
100
AcDbLine
 10
4.502952755905511
 20
6.835629921259842
 30
0.0
 11
4.502952755905511
 21
6.849409448818897
 31
0.0
  0
LINE
  5
34BC
330
1E
100
AcDbEntity
  8
7
100
AcDbLine
 10
4.533464566929133
 20
6.8001968503937
 30
0.0
 11
4.539370078740157
 21
6.810039370078739
 31
0.0
  0
LINE
  5
34BD
330
1E
100
AcDbEntity
  8
7
100
AcDbLine
 10
4.539370078740157
 20
6.810039370078739
 30
0.0
 11
4.553149606299212
 21
6.813976377952755
 31
0.0
  0
LINE
  5
34BE
330
1E
100
AcDbEntity
  8
7
100
AcDbLine
 10
5.171259842519684
 20
6.927165354330708
 30
0.0
 11
4.451771653543306
 21
6.927165354330708
 31
0.0
  0
LINE
  5
34BF
330
1E
100
AcDbEntity
  8
7
100
AcDbLine
 10
4.451771653543306
 20
6.927165354330708
 30
0.0
 11
4.43011811023622
 21
6.924212598425196
 31
0.0
  0
LINE
  5
34C0
330
1E
100
AcDbEntity
  8
7
100
AcDbLine
 10
4.43011811023622
 20
6.924212598425196
 30
0.0
 11
4.412401574803149
 21
6.915354330708661
 31
0.0
  0
LINE
  5
34C1
330
1E
100
AcDbEntity
  8
7
100
AcDbLine
 10
4.412401574803149
 20
6.915354330708661
 30
0.0
 11
4.400590551181101
 21
6.903543307086613
 31
0.0
  0
LINE
  5
34C2
330
1E
100
AcDbEntity
  8
7
100
AcDbLine
 10
4.400590551181101
 20
6.903543307086613
 30
0.0
 11
4.396653543307086
 21
6.88779527559055
 31
0.0
  0
LINE
  5
34C3
330
1E
100
AcDbEntity
  8
7
100
AcDbLine
 10
4.396653543307086
 20
6.88779527559055
 30
0.0
 11
4.400590551181101
 21
6.873031496062991
 31
0.0
  0
LINE
  5
34C4
330
1E
100
AcDbEntity
  8
7
100
AcDbLine
 10
4.400590551181101
 20
6.873031496062991
 30
0.0
 11
4.412401574803149
 21
6.86023622047244
 31
0.0
  0
LINE
  5
34C5
330
1E
100
AcDbEntity
  8
7
100
AcDbLine
 10
4.412401574803149
 20
6.86023622047244
 30
0.0
 11
4.43011811023622
 21
6.852362204724409
 31
0.0
  0
LINE
  5
34C6
330
1E
100
AcDbEntity
  8
7
100
AcDbLine
 10
4.43011811023622
 20
6.852362204724409
 30
0.0
 11
4.451771653543306
 21
6.849409448818897
 31
0.0
  0
LINE
  5
34C7
330
1E
100
AcDbEntity
  8
7
100
AcDbLine
 10
4.451771653543306
 20
6.849409448818897
 30
0.0
 11
4.502952755905511
 21
6.849409448818897
 31
0.0
  0
LINE
  5
34C8
330
1E
100
AcDbEntity
  8
7
100
AcDbLine
 10
4.502952755905511
 20
6.849409448818897
 30
0.0
 11
4.528543307086613
 21
6.844488188976377
 31
0.0
  0
LINE
  5
34C9
330
1E
100
AcDbEntity
  8
7
100
AcDbLine
 10
4.528543307086613
 20
6.844488188976377
 30
0.0
 11
4.546259842519684
 21
6.831692913385826
 31
0.0
  0
LINE
  5
34CA
330
1E
100
AcDbEntity
  8
7
100
AcDbLine
 10
4.546259842519684
 20
6.831692913385826
 30
0.0
 11
4.553149606299212
 21
6.813976377952755
 31
0.0
  0
LINE
  5
34CB
330
1E
100
AcDbEntity
  8
7
100
AcDbLine
 10
4.553149606299212
 20
6.813976377952755
 30
0.0
 11
4.553149606299212
 21
6.581692913385826
 31
0.0
  0
LINE
  5
34CC
330
1E
100
AcDbEntity
  8
7
100
AcDbLine
 10
5.116141732283463
 20
6.58759842519685
 30
0.0
 11
5.111220472440944
 21
6.585629921259842
 31
0.0
  0
LINE
  5
34CD
330
1E
100
AcDbEntity
  8
7
100
AcDbLine
 10
5.111220472440944
 20
6.585629921259842
 30
0.0
 11
5.108267716535432
 21
6.581692913385826
 31
0.0
  0
LINE
  5
34CE
330
1E
100
AcDbEntity
  8
7
100
AcDbLine
 10
5.059055118110236
 20
6.575787401574802
 30
0.0
 11
5.059055118110236
 21
6.577755905511811
 31
0.0
  0
LINE
  5
34CF
330
1E
100
AcDbEntity
  8
7
100
AcDbLine
 10
5.059055118110236
 20
6.577755905511811
 30
0.0
 11
5.059055118110236
 21
6.581692913385826
 31
0.0
  0
LINE
  5
34D0
330
1E
100
AcDbEntity
  8
7
100
AcDbLine
 10
5.059055118110236
 20
6.581692913385826
 30
0.0
 11
5.108267716535432
 21
6.581692913385826
 31
0.0
  0
LINE
  5
34D1
330
1E
100
AcDbEntity
  8
7
100
AcDbLine
 10
5.059055118110236
 20
6.557086614173227
 30
0.0
 11
5.059055118110236
 21
6.538385826771652
 31
0.0
  0
LINE
  5
34D2
330
1E
100
AcDbEntity
  8
7
100
AcDbLine
 10
5.059055118110236
 20
6.538385826771652
 30
0.0
 11
5.059055118110236
 21
6.516732283464566
 31
0.0
  0
LINE
  5
34D3
330
1E
100
AcDbEntity
  8
7
100
AcDbLine
 10
5.059055118110236
 20
6.516732283464566
 30
0.0
 11
5.059055118110236
 21
6.499015748031495
 31
0.0
  0
LINE
  5
34D4
330
1E
100
AcDbEntity
  8
7
100
AcDbLine
 10
5.059055118110236
 20
6.575787401574802
 30
0.0
 11
5.059055118110236
 21
6.570866141732283
 31
0.0
  0
LINE
  5
34D5
330
1E
100
AcDbEntity
  8
7
100
AcDbLine
 10
5.059055118110236
 20
6.570866141732283
 30
0.0
 11
5.059055118110236
 21
6.557086614173227
 31
0.0
  0
LINE
  5
34D6
330
1E
100
AcDbEntity
  8
7
100
AcDbLine
 10
4.524606299212598
 20
6.546259842519684
 30
0.0
 11
4.526574803149605
 21
6.5501968503937
 31
0.0
  0
LINE
  5
34D7
330
1E
100
AcDbEntity
  8
7
100
AcDbLine
 10
4.526574803149605
 20
6.5501968503937
 30
0.0
 11
4.523622047244094
 21
6.554133858267715
 31
0.0
  0
LINE
  5
34D8
330
1E
100
AcDbEntity
  8
7
100
AcDbLine
 10
4.553149606299212
 20
6.581692913385826
 30
0.0
 11
4.540354330708661
 21
6.578740157480314
 31
0.0
  0
LINE
  5
34D9
330
1E
100
AcDbEntity
  8
7
100
AcDbLine
 10
4.540354330708661
 20
6.578740157480314
 30
0.0
 11
4.533464566929133
 21
6.570866141732283
 31
0.0
  0
LINE
  5
34DA
330
1E
100
AcDbEntity
  8
7
100
AcDbLine
 10
4.553149606299212
 20
6.581692913385826
 30
0.0
 11
4.553149606299212
 21
6.577755905511811
 31
0.0
  0
LINE
  5
34DB
330
1E
100
AcDbEntity
  8
7
100
AcDbLine
 10
4.553149606299212
 20
6.577755905511811
 30
0.0
 11
4.553149606299212
 21
6.575787401574802
 31
0.0
  0
LINE
  5
34DC
330
1E
100
AcDbEntity
  8
7
100
AcDbLine
 10
4.537401574803149
 20
6.568897637795275
 30
0.0
 11
4.538385826771652
 21
6.569881889763779
 31
0.0
  0
LINE
  5
34DD
330
1E
100
AcDbEntity
  8
7
100
AcDbLine
 10
4.538385826771652
 20
6.569881889763779
 30
0.0
 11
4.537401574803149
 21
6.570866141732283
 31
0.0
  0
LINE
  5
34DE
330
1E
100
AcDbEntity
  8
7
100
AcDbLine
 10
4.553149606299212
 20
6.560039370078739
 30
0.0
 11
4.553149606299212
 21
6.543307086614173
 31
0.0
  0
LINE
  5
34DF
330
1E
100
AcDbEntity
  8
7
100
AcDbLine
 10
4.553149606299212
 20
6.543307086614173
 30
0.0
 11
4.553149606299212
 21
6.524606299212598
 31
0.0
  0
LINE
  5
34E0
330
1E
100
AcDbEntity
  8
7
100
AcDbLine
 10
4.553149606299212
 20
6.524606299212598
 30
0.0
 11
4.553149606299212
 21
6.506889763779526
 31
0.0
  0
LINE
  5
34E1
330
1E
100
AcDbEntity
  8
7
100
AcDbLine
 10
4.553149606299212
 20
6.575787401574802
 30
0.0
 11
4.553149606299212
 21
6.571850393700787
 31
0.0
  0
LINE
  5
34E2
330
1E
100
AcDbEntity
  8
7
100
AcDbLine
 10
4.553149606299212
 20
6.571850393700787
 30
0.0
 11
4.553149606299212
 21
6.560039370078739
 31
0.0
  0
LINE
  5
34E3
330
1E
100
AcDbEntity
  8
7
100
AcDbLine
 10
4.548228346456692
 20
6.506889763779526
 30
0.0
 11
4.543307086614173
 21
6.516732283464566
 31
0.0
  0
LINE
  5
34E4
330
1E
100
AcDbEntity
  8
7
100
AcDbLine
 10
4.543307086614173
 20
6.516732283464566
 30
0.0
 11
4.538385826771652
 21
6.52755905511811
 31
0.0
  0
LINE
  5
34E5
330
1E
100
AcDbEntity
  8
7
100
AcDbLine
 10
4.538385826771652
 20
6.52755905511811
 30
0.0
 11
4.535433070866141
 21
6.536417322834645
 31
0.0
  0
LINE
  5
34E6
330
1E
100
AcDbEntity
  8
7
100
AcDbLine
 10
4.535433070866141
 20
6.536417322834645
 30
0.0
 11
4.534448818897637
 21
6.538385826771652
 31
0.0
  0
LINE
  5
34E7
330
1E
100
AcDbEntity
  8
7
100
AcDbLine
 10
4.534448818897637
 20
6.538385826771652
 30
0.0
 11
4.533464566929133
 21
6.547244094488188
 31
0.0
  0
LINE
  5
34E8
330
1E
100
AcDbEntity
  8
7
100
AcDbLine
 10
4.533464566929133
 20
6.547244094488188
 30
0.0
 11
4.533464566929133
 21
6.5501968503937
 31
0.0
  0
LINE
  5
34E9
330
1E
100
AcDbEntity
  8
7
100
AcDbLine
 10
4.533464566929133
 20
6.5501968503937
 30
0.0
 11
4.534448818897637
 21
6.562007874015748
 31
0.0
  0
LINE
  5
34EA
330
1E
100
AcDbEntity
  8
7
100
AcDbLine
 10
4.534448818897637
 20
6.562007874015748
 30
0.0
 11
4.534448818897637
 21
6.562992125984251
 31
0.0
  0
LINE
  5
34EB
330
1E
100
AcDbEntity
  8
7
100
AcDbLine
 10
4.534448818897637
 20
6.562992125984251
 30
0.0
 11
4.536417322834645
 21
6.567913385826771
 31
0.0
  0
LINE
  5
34EC
330
1E
100
AcDbEntity
  8
7
100
AcDbLine
 10
4.536417322834645
 20
6.567913385826771
 30
0.0
 11
4.537401574803149
 21
6.568897637795275
 31
0.0
  0
LINE
  5
34ED
330
1E
100
AcDbEntity
  8
7
100
AcDbLine
 10
4.58267716535433
 20
6.575787401574802
 30
0.0
 11
4.58267716535433
 21
6.570866141732283
 31
0.0
  0
LINE
  5
34EE
330
1E
100
AcDbEntity
  8
7
100
AcDbLine
 10
4.58267716535433
 20
6.570866141732283
 30
0.0
 11
4.58267716535433
 21
6.557086614173227
 31
0.0
  0
LINE
  5
34EF
330
1E
100
AcDbEntity
  8
7
100
AcDbLine
 10
4.58267716535433
 20
6.557086614173227
 30
0.0
 11
4.58267716535433
 21
6.538385826771652
 31
0.0
  0
LINE
  5
34F0
330
1E
100
AcDbEntity
  8
7
100
AcDbLine
 10
4.58267716535433
 20
6.538385826771652
 30
0.0
 11
4.58267716535433
 21
6.516732283464566
 31
0.0
  0
LINE
  5
34F1
330
1E
100
AcDbEntity
  8
7
100
AcDbLine
 10
4.58267716535433
 20
6.516732283464566
 30
0.0
 11
4.58267716535433
 21
6.499015748031495
 31
0.0
  0
LINE
  5
34F2
330
1E
100
AcDbEntity
  8
7
100
AcDbLine
 10
4.58267716535433
 20
6.575787401574802
 30
0.0
 11
4.58267716535433
 21
6.577755905511811
 31
0.0
  0
LINE
  5
34F3
330
1E
100
AcDbEntity
  8
7
100
AcDbLine
 10
4.58267716535433
 20
6.577755905511811
 30
0.0
 11
4.58267716535433
 21
6.581692913385826
 31
0.0
  0
LINE
  5
34F4
330
1E
100
AcDbEntity
  8
7
100
AcDbLine
 10
4.533464566929133
 20
6.793307086614173
 30
0.0
 11
4.535433070866141
 21
6.798228346456692
 31
0.0
  0
LINE
  5
34F5
330
1E
100
AcDbEntity
  8
7
100
AcDbLine
 10
4.535433070866141
 20
6.798228346456692
 30
0.0
 11
4.543307086614173
 21
6.798228346456692
 31
0.0
  0
LINE
  5
34F6
330
1E
100
AcDbEntity
  8
7
100
AcDbLine
 10
4.543307086614173
 20
6.766732283464566
 30
0.0
 11
4.535433070866141
 21
6.776574803149605
 31
0.0
  0
LINE
  5
34F7
330
1E
100
AcDbEntity
  8
7
100
AcDbLine
 10
4.535433070866141
 20
6.776574803149605
 30
0.0
 11
4.533464566929133
 21
6.785433070866141
 31
0.0
  0
LINE
  5
34F8
330
1E
100
AcDbEntity
  8
7
100
AcDbLine
 10
4.533464566929133
 20
6.718503937007874
 30
0.0
 11
4.535433070866141
 21
6.727362204724409
 31
0.0
  0
LINE
  5
34F9
330
1E
100
AcDbEntity
  8
7
100
AcDbLine
 10
4.535433070866141
 20
6.727362204724409
 30
0.0
 11
4.543307086614173
 21
6.738188976377952
 31
0.0
  0
LINE
  5
34FA
330
1E
100
AcDbEntity
  8
7
100
AcDbLine
 10
4.543307086614173
 20
6.738188976377952
 30
0.0
 11
4.543307086614173
 21
6.798228346456692
 31
0.0
  0
LINE
  5
34FB
330
1E
100
AcDbEntity
  8
7
100
AcDbLine
 10
5.108267716535432
 20
6.575787401574802
 30
0.0
 11
5.108267716535432
 21
6.570866141732283
 31
0.0
  0
LINE
  5
34FC
330
1E
100
AcDbEntity
  8
7
100
AcDbLine
 10
5.108267716535432
 20
6.570866141732283
 30
0.0
 11
5.108267716535432
 21
6.557086614173227
 31
0.0
  0
LINE
  5
34FD
330
1E
100
AcDbEntity
  8
7
100
AcDbLine
 10
5.108267716535432
 20
6.557086614173227
 30
0.0
 11
5.108267716535432
 21
6.537401574803149
 31
0.0
  0
LINE
  5
34FE
330
1E
100
AcDbEntity
  8
7
100
AcDbLine
 10
5.108267716535432
 20
6.537401574803149
 30
0.0
 11
5.108267716535432
 21
6.516732283464566
 31
0.0
  0
LINE
  5
34FF
330
1E
100
AcDbEntity
  8
7
100
AcDbLine
 10
5.108267716535432
 20
6.516732283464566
 30
0.0
 11
5.108267716535432
 21
6.499015748031495
 31
0.0
  0
LINE
  5
3500
330
1E
100
AcDbEntity
  8
7
100
AcDbLine
 10
5.108267716535432
 20
6.575787401574802
 30
0.0
 11
5.108267716535432
 21
6.577755905511811
 31
0.0
  0
LINE
  5
3501
330
1E
100
AcDbEntity
  8
7
100
AcDbLine
 10
5.108267716535432
 20
6.577755905511811
 30
0.0
 11
5.108267716535432
 21
6.581692913385826
 31
0.0
  0
LINE
  5
3502
330
1E
100
AcDbEntity
  8
7
100
AcDbLine
 10
4.445866141732283
 20
6.257874015748031
 30
0.0
 11
4.446850393700787
 21
6.255905511811023
 31
0.0
  0
LINE
  5
3503
330
1E
100
AcDbEntity
  8
7
100
AcDbLine
 10
4.446850393700787
 20
6.255905511811023
 30
0.0
 11
4.44783464566929
 21
6.254921259842519
 31
0.0
  0
LINE
  5
3504
330
1E
100
AcDbEntity
  8
7
100
AcDbLine
 10
4.44783464566929
 20
6.254921259842519
 30
0.0
 11
4.449803149606299
 21
6.253937007874015
 31
0.0
  0
LINE
  5
3505
330
1E
100
AcDbEntity
  8
7
100
AcDbLine
 10
4.449803149606299
 20
6.253937007874015
 30
0.0
 11
4.451771653543306
 21
6.253937007874015
 31
0.0
  0
LINE
  5
3506
330
1E
100
AcDbEntity
  8
7
100
AcDbLine
 10
4.451771653543306
 20
6.253937007874015
 30
0.0
 11
4.453740157480314
 21
6.253937007874015
 31
0.0
  0
LINE
  5
3507
330
1E
100
AcDbEntity
  8
7
100
AcDbLine
 10
4.453740157480314
 20
6.253937007874015
 30
0.0
 11
4.454724409448818
 21
6.254921259842519
 31
0.0
  0
LINE
  5
3508
330
1E
100
AcDbEntity
  8
7
100
AcDbLine
 10
4.454724409448818
 20
6.254921259842519
 30
0.0
 11
4.455708661417322
 21
6.255905511811023
 31
0.0
  0
LINE
  5
3509
330
1E
100
AcDbEntity
  8
7
100
AcDbLine
 10
4.455708661417322
 20
6.255905511811023
 30
0.0
 11
4.456692913385826
 21
6.257874015748031
 31
0.0
  0
LINE
  5
350A
330
1E
100
AcDbEntity
  8
7
100
AcDbLine
 10
4.456692913385826
 20
6.256889763779526
 30
0.0
 11
4.456692913385826
 21
6.258858267716535
 31
0.0
  0
LINE
  5
350B
330
1E
100
AcDbEntity
  8
7
100
AcDbLine
 10
4.456692913385826
 20
6.258858267716535
 30
0.0
 11
4.45767716535433
 21
6.265748031496062
 31
0.0
  0
LINE
  5
350C
330
1E
100
AcDbEntity
  8
7
100
AcDbLine
 10
4.45767716535433
 20
6.258858267716535
 30
0.0
 11
4.45767716535433
 21
6.26279527559055
 31
0.0
  0
LINE
  5
350D
330
1E
100
AcDbEntity
  8
7
100
AcDbLine
 10
4.45767716535433
 20
6.26279527559055
 30
0.0
 11
4.45767716535433
 21
6.270669291338582
 31
0.0
  0
LINE
  5
350E
330
1E
100
AcDbEntity
  8
7
100
AcDbLine
 10
4.45767716535433
 20
6.270669291338582
 30
0.0
 11
4.45767716535433
 21
6.273622047244094
 31
0.0
  0
LINE
  5
350F
330
1E
100
AcDbEntity
  8
7
100
AcDbLine
 10
4.445866141732283
 20
6.274606299212598
 30
0.0
 11
4.445866141732283
 21
6.264763779527558
 31
0.0
  0
LINE
  5
3510
330
1E
100
AcDbEntity
  8
7
100
AcDbLine
 10
4.445866141732283
 20
6.264763779527558
 30
0.0
 11
4.445866141732283
 21
6.258858267716535
 31
0.0
  0
LINE
  5
3511
330
1E
100
AcDbEntity
  8
7
100
AcDbLine
 10
4.445866141732283
 20
6.258858267716535
 30
0.0
 11
4.446850393700787
 21
6.256889763779526
 31
0.0
  0
LINE
  5
3512
330
1E
100
AcDbEntity
  8
7
100
AcDbLine
 10
4.445866141732283
 20
6.274606299212598
 30
0.0
 11
4.445866141732283
 21
6.272637795275589
 31
0.0
  0
LINE
  5
3513
330
1E
100
AcDbEntity
  8
7
100
AcDbLine
 10
4.445866141732283
 20
6.272637795275589
 30
0.0
 11
4.445866141732283
 21
6.26771653543307
 31
0.0
  0
LINE
  5
3514
330
1E
100
AcDbEntity
  8
7
100
AcDbLine
 10
4.445866141732283
 20
6.26771653543307
 30
0.0
 11
4.445866141732283
 21
6.261811023622047
 31
0.0
  0
LINE
  5
3515
330
1E
100
AcDbEntity
  8
7
100
AcDbLine
 10
4.445866141732283
 20
6.261811023622047
 30
0.0
 11
4.445866141732283
 21
6.258858267716535
 31
0.0
  0
LINE
  5
3516
330
1E
100
AcDbEntity
  8
7
100
AcDbLine
 10
4.376968503937007
 20
6.867125984251968
 30
0.0
 11
4.376968503937007
 21
6.86515748031496
 31
0.0
  0
LINE
  5
3517
330
1E
100
AcDbEntity
  8
7
100
AcDbLine
 10
4.376968503937007
 20
6.86515748031496
 30
0.0
 11
4.377952755905511
 21
6.855314960629921
 31
0.0
  0
LINE
  5
3518
330
1E
100
AcDbEntity
  8
7
100
AcDbLine
 10
4.377952755905511
 20
6.855314960629921
 30
0.0
 11
4.380905511811023
 21
6.846456692913385
 31
0.0
  0
LINE
  5
3519
330
1E
100
AcDbEntity
  8
7
100
AcDbLine
 10
4.380905511811023
 20
6.846456692913385
 30
0.0
 11
4.385826771653542
 21
6.83759842519685
 31
0.0
  0
LINE
  5
351A
330
1E
100
AcDbEntity
  8
7
100
AcDbLine
 10
4.385826771653542
 20
6.83759842519685
 30
0.0
 11
4.39271653543307
 21
6.830708661417322
 31
0.0
  0
LINE
  5
351B
330
1E
100
AcDbEntity
  8
7
100
AcDbLine
 10
4.39271653543307
 20
6.830708661417322
 30
0.0
 11
4.400590551181101
 21
6.823818897637795
 31
0.0
  0
LINE
  5
351C
330
1E
100
AcDbEntity
  8
7
100
AcDbLine
 10
4.400590551181101
 20
6.823818897637795
 30
0.0
 11
4.410433070866141
 21
6.817913385826771
 31
0.0
  0
LINE
  5
351D
330
1E
100
AcDbEntity
  8
7
100
AcDbLine
 10
4.410433070866141
 20
6.817913385826771
 30
0.0
 11
4.421259842519684
 21
6.812992125984251
 31
0.0
  0
LINE
  5
351E
330
1E
100
AcDbEntity
  8
7
100
AcDbLine
 10
4.421259842519684
 20
6.812992125984251
 30
0.0
 11
4.432086614173227
 21
6.810039370078739
 31
0.0
  0
LINE
  5
351F
330
1E
100
AcDbEntity
  8
7
100
AcDbLine
 10
4.432086614173227
 20
6.810039370078739
 30
0.0
 11
4.444881889763779
 21
6.808070866141731
 31
0.0
  0
LINE
  5
3520
330
1E
100
AcDbEntity
  8
7
100
AcDbLine
 10
4.444881889763779
 20
6.808070866141731
 30
0.0
 11
4.451771653543306
 21
6.808070866141731
 31
0.0
  0
LINE
  5
3521
330
1E
100
AcDbEntity
  8
7
100
AcDbLine
 10
4.52755905511811
 20
6.801181102362204
 30
0.0
 11
4.529527559055117
 21
6.799212598425196
 31
0.0
  0
LINE
  5
3522
330
1E
100
AcDbEntity
  8
7
100
AcDbLine
 10
4.529527559055117
 20
6.799212598425196
 30
0.0
 11
4.531496062992125
 21
6.796259842519684
 31
0.0
  0
LINE
  5
3523
330
1E
100
AcDbEntity
  8
7
100
AcDbLine
 10
4.531496062992125
 20
6.796259842519684
 30
0.0
 11
4.532480314960629
 21
6.794291338582676
 31
0.0
  0
LINE
  5
3524
330
1E
100
AcDbEntity
  8
7
100
AcDbLine
 10
4.532480314960629
 20
6.794291338582676
 30
0.0
 11
4.533464566929133
 21
6.792322834645668
 31
0.0
  0
LINE
  5
3525
330
1E
100
AcDbEntity
  8
7
100
AcDbLine
 10
4.451771653543306
 20
6.933070866141731
 30
0.0
 11
4.444881889763779
 21
6.933070866141731
 31
0.0
  0
LINE
  5
3526
330
1E
100
AcDbEntity
  8
7
100
AcDbLine
 10
4.444881889763779
 20
6.933070866141731
 30
0.0
 11
4.433070866141731
 21
6.931102362204724
 31
0.0
  0
LINE
  5
3527
330
1E
100
AcDbEntity
  8
7
100
AcDbLine
 10
4.433070866141731
 20
6.931102362204724
 30
0.0
 11
4.421259842519684
 21
6.928149606299212
 31
0.0
  0
LINE
  5
3528
330
1E
100
AcDbEntity
  8
7
100
AcDbLine
 10
4.421259842519684
 20
6.928149606299212
 30
0.0
 11
4.410433070866141
 21
6.923228346456692
 31
0.0
  0
LINE
  5
3529
330
1E
100
AcDbEntity
  8
7
100
AcDbLine
 10
4.410433070866141
 20
6.923228346456692
 30
0.0
 11
4.400590551181101
 21
6.917322834645668
 31
0.0
  0
LINE
  5
352A
330
1E
100
AcDbEntity
  8
7
100
AcDbLine
 10
4.400590551181101
 20
6.917322834645668
 30
0.0
 11
4.391732283464566
 21
6.909448818897637
 31
0.0
  0
LINE
  5
352B
330
1E
100
AcDbEntity
  8
7
100
AcDbLine
 10
4.391732283464566
 20
6.909448818897637
 30
0.0
 11
4.384842519685038
 21
6.901574803149605
 31
0.0
  0
LINE
  5
352C
330
1E
100
AcDbEntity
  8
7
100
AcDbLine
 10
4.384842519685038
 20
6.901574803149605
 30
0.0
 11
4.379921259842519
 21
6.891732283464566
 31
0.0
  0
LINE
  5
352D
330
1E
100
AcDbEntity
  8
7
100
AcDbLine
 10
4.379921259842519
 20
6.891732283464566
 30
0.0
 11
4.376968503937007
 21
6.881889763779526
 31
0.0
  0
LINE
  5
352E
330
1E
100
AcDbEntity
  8
7
100
AcDbLine
 10
4.376968503937007
 20
6.881889763779526
 30
0.0
 11
4.376968503937007
 21
6.875
 31
0.0
  0
LINE
  5
352F
330
1E
100
AcDbEntity
  8
7
100
AcDbLine
 10
4.506889763779526
 20
6.821850393700787
 30
0.0
 11
4.481299212598425
 21
6.818897637795275
 31
0.0
  0
LINE
  5
3530
330
1E
100
AcDbEntity
  8
7
100
AcDbLine
 10
4.481299212598425
 20
6.818897637795275
 30
0.0
 11
4.45767716535433
 21
6.811023622047243
 31
0.0
  0
LINE
  5
3531
330
1E
100
AcDbEntity
  8
7
100
AcDbLine
 10
4.45767716535433
 20
6.811023622047243
 30
0.0
 11
4.437007874015748
 21
6.799212598425196
 31
0.0
  0
LINE
  5
3532
330
1E
100
AcDbEntity
  8
7
100
AcDbLine
 10
5.190944881889763
 20
6.913385826771652
 30
0.0
 11
5.185039370078739
 21
6.927165354330708
 31
0.0
  0
LINE
  5
3533
330
1E
100
AcDbEntity
  8
7
100
AcDbLine
 10
5.185039370078739
 20
6.927165354330708
 30
0.0
 11
5.171259842519684
 21
6.933070866141731
 31
0.0
  0
LINE
  5
3534
330
1E
100
AcDbEntity
  8
7
100
AcDbLine
 10
4.553149606299212
 20
6.575787401574802
 30
0.0
 11
4.544291338582676
 21
6.573818897637795
 31
0.0
  0
LINE
  5
3535
330
1E
100
AcDbEntity
  8
7
100
AcDbLine
 10
4.544291338582676
 20
6.573818897637795
 30
0.0
 11
4.537401574803149
 21
6.567913385826771
 31
0.0
  0
LINE
  5
3536
330
1E
100
AcDbEntity
  8
7
100
AcDbLine
 10
5.319881889763779
 20
6.944881889763779
 30
0.0
 11
5.313976377952755
 21
6.972440944881889
 31
0.0
  0
LINE
  5
3537
330
1E
100
AcDbEntity
  8
7
100
AcDbLine
 10
5.313976377952755
 20
6.972440944881889
 30
0.0
 11
5.3001968503937
 21
6.997047244094487
 31
0.0
  0
LINE
  5
3538
330
1E
100
AcDbEntity
  8
7
100
AcDbLine
 10
5.3001968503937
 20
6.997047244094487
 30
0.0
 11
5.280511811023621
 21
7.015748031496062
 31
0.0
  0
LINE
  5
3539
330
1E
100
AcDbEntity
  8
7
100
AcDbLine
 10
5.280511811023621
 20
7.015748031496062
 30
0.0
 11
5.254921259842519
 21
7.028543307086613
 31
0.0
  0
LINE
  5
353A
330
1E
100
AcDbEntity
  8
7
100
AcDbLine
 10
5.254921259842519
 20
7.028543307086613
 30
0.0
 11
5.227362204724409
 21
7.032480314960629
 31
0.0
  0
LINE
  5
353B
330
1E
100
AcDbEntity
  8
7
100
AcDbLine
 10
4.434055118110236
 20
6.997047244094487
 30
0.0
 11
4.42027559055118
 21
6.972440944881889
 31
0.0
  0
LINE
  5
353C
330
1E
100
AcDbEntity
  8
7
100
AcDbLine
 10
4.42027559055118
 20
6.972440944881889
 30
0.0
 11
4.414370078740157
 21
6.944881889763779
 31
0.0
  0
LINE
  5
353D
330
1E
100
AcDbEntity
  8
7
100
AcDbLine
 10
4.506889763779526
 20
7.032480314960629
 30
0.0
 11
4.479330708661416
 21
7.028543307086613
 31
0.0
  0
LINE
  5
353E
330
1E
100
AcDbEntity
  8
7
100
AcDbLine
 10
4.479330708661416
 20
7.028543307086613
 30
0.0
 11
4.453740157480314
 21
7.015748031496062
 31
0.0
  0
LINE
  5
353F
330
1E
100
AcDbEntity
  8
7
100
AcDbLine
 10
4.453740157480314
 20
7.015748031496062
 30
0.0
 11
4.434055118110236
 21
6.997047244094487
 31
0.0
  0
LINE
  5
3540
330
1E
100
AcDbEntity
  8
7
100
AcDbLine
 10
4.525590551181101
 20
6.812992125984251
 30
0.0
 11
4.522637795275589
 21
6.818897637795275
 31
0.0
  0
LINE
  5
3541
330
1E
100
AcDbEntity
  8
7
100
AcDbLine
 10
4.522637795275589
 20
6.818897637795275
 30
0.0
 11
4.515748031496062
 21
6.821850393700787
 31
0.0
  0
LINE
  5
3542
330
1E
100
AcDbEntity
  8
7
100
AcDbLine
 10
5.108267716535432
 20
6.506889763779526
 30
0.0
 11
5.111220472440944
 21
6.504921259842519
 31
0.0
  0
LINE
  5
3543
330
1E
100
AcDbEntity
  8
7
100
AcDbLine
 10
5.111220472440944
 20
6.504921259842519
 30
0.0
 11
5.113188976377952
 21
6.503937007874015
 31
0.0
  0
LINE
  5
3544
330
1E
100
AcDbEntity
  8
7
100
AcDbLine
 10
5.113188976377952
 20
6.559055118110236
 30
0.0
 11
5.111220472440944
 21
6.558070866141731
 31
0.0
  0
LINE
  5
3545
330
1E
100
AcDbEntity
  8
7
100
AcDbLine
 10
5.111220472440944
 20
6.558070866141731
 30
0.0
 11
5.108267716535432
 21
6.556102362204724
 31
0.0
  0
LINE
  5
3546
330
1E
100
AcDbEntity
  8
7
100
AcDbLine
 10
5.319881889763779
 20
8.620078740157479
 30
0.0
 11
5.314960629921259
 21
8.600393700787401
 31
0.0
  0
LINE
  5
3547
330
1E
100
AcDbEntity
  8
7
100
AcDbLine
 10
5.314960629921259
 20
8.600393700787401
 30
0.0
 11
5.301181102362204
 21
8.582677165354329
 31
0.0
  0
LINE
  5
3548
330
1E
100
AcDbEntity
  8
7
100
AcDbLine
 10
5.301181102362204
 20
8.582677165354329
 30
0.0
 11
5.280511811023621
 21
8.568897637795275
 31
0.0
  0
LINE
  5
3549
330
1E
100
AcDbEntity
  8
7
100
AcDbLine
 10
5.280511811023621
 20
8.568897637795275
 30
0.0
 11
5.254921259842519
 21
8.560039370078738
 31
0.0
  0
LINE
  5
354A
330
1E
100
AcDbEntity
  8
7
100
AcDbLine
 10
5.254921259842519
 20
8.560039370078738
 30
0.0
 11
5.227362204724409
 21
8.557086614173227
 31
0.0
  0
LINE
  5
354B
330
1E
100
AcDbEntity
  8
7
100
AcDbLine
 10
5.302165354330708
 20
8.658464566929133
 30
0.0
 11
5.281496062992125
 21
8.673228346456692
 31
0.0
  0
LINE
  5
354C
330
1E
100
AcDbEntity
  8
7
100
AcDbLine
 10
5.281496062992125
 20
8.673228346456692
 30
0.0
 11
5.255905511811023
 21
8.683070866141731
 31
0.0
  0
LINE
  5
354D
330
1E
100
AcDbEntity
  8
7
100
AcDbLine
 10
5.255905511811023
 20
8.683070866141731
 30
0.0
 11
5.227362204724409
 21
8.687007874015748
 31
0.0
  0
LINE
  5
354E
330
1E
100
AcDbEntity
  8
7
100
AcDbLine
 10
5.319881889763779
 20
8.620078740157479
 30
0.0
 11
5.314960629921259
 21
8.640748031496062
 31
0.0
  0
LINE
  5
354F
330
1E
100
AcDbEntity
  8
7
100
AcDbLine
 10
5.314960629921259
 20
8.640748031496062
 30
0.0
 11
5.302165354330708
 21
8.658464566929133
 31
0.0
  0
LINE
  5
3550
330
1E
100
AcDbEntity
  8
7
100
AcDbLine
 10
5.319881889763779
 20
8.291338582677164
 30
0.0
 11
5.317913385826771
 21
8.277559055118109
 31
0.0
  0
LINE
  5
3551
330
1E
100
AcDbEntity
  8
7
100
AcDbLine
 10
5.317913385826771
 20
8.277559055118109
 30
0.0
 11
5.314960629921259
 21
8.26279527559055
 31
0.0
  0
LINE
  5
3552
330
1E
100
AcDbEntity
  8
7
100
AcDbLine
 10
5.314960629921259
 20
8.26279527559055
 30
0.0
 11
5.309055118110236
 21
8.249015748031496
 31
0.0
  0
LINE
  5
3553
330
1E
100
AcDbEntity
  8
7
100
AcDbLine
 10
5.309055118110236
 20
8.249015748031496
 30
0.0
 11
5.303149606299212
 21
8.23523622047244
 31
0.0
  0
LINE
  5
3554
330
1E
100
AcDbEntity
  8
7
100
AcDbLine
 10
5.3001968503937
 20
8.121062992125983
 30
0.0
 11
5.311023622047243
 21
8.121062992125983
 31
0.0
  0
LINE
  5
3555
330
1E
100
AcDbEntity
  8
7
100
AcDbLine
 10
5.311023622047243
 20
8.121062992125983
 30
0.0
 11
5.315944881889762
 21
8.121062992125983
 31
0.0
  0
LINE
  5
3556
330
1E
100
AcDbEntity
  8
7
100
AcDbLine
 10
5.299212598425196
 20
8.052165354330707
 30
0.0
 11
5.310039370078739
 21
8.05511811023622
 31
0.0
  0
LINE
  5
3557
330
1E
100
AcDbEntity
  8
7
100
AcDbLine
 10
5.310039370078739
 20
8.05511811023622
 30
0.0
 11
5.314960629921259
 21
8.062992125984251
 31
0.0
  0
LINE
  5
3558
330
1E
100
AcDbEntity
  8
7
100
AcDbLine
 10
4.506889763779526
 20
8.370078740157479
 30
0.0
 11
4.506889763779526
 21
8.376968503937007
 31
0.0
  0
LINE
  5
3559
330
1E
100
AcDbEntity
  8
7
100
AcDbLine
 10
4.506889763779526
 20
8.376968503937007
 30
0.0
 11
4.506889763779526
 21
8.383858267716535
 31
0.0
  0
LINE
  5
355A
330
1E
100
AcDbEntity
  8
7
100
AcDbLine
 10
4.515748031496062
 20
8.370078740157479
 30
0.0
 11
4.515748031496062
 21
8.376968503937007
 31
0.0
  0
LINE
  5
355B
330
1E
100
AcDbEntity
  8
7
100
AcDbLine
 10
4.515748031496062
 20
8.376968503937007
 30
0.0
 11
4.515748031496062
 21
8.383858267716535
 31
0.0
  0
LINE
  5
355C
330
1E
100
AcDbEntity
  8
7
100
AcDbLine
 10
4.526574803149605
 20
8.376968503937007
 30
0.0
 11
4.523622047244094
 21
8.381889763779527
 31
0.0
  0
LINE
  5
355D
330
1E
100
AcDbEntity
  8
7
100
AcDbLine
 10
4.523622047244094
 20
8.381889763779527
 30
0.0
 11
4.515748031496062
 21
8.383858267716535
 31
0.0
  0
LINE
  5
355E
330
1E
100
AcDbEntity
  8
7
100
AcDbLine
 10
4.506889763779526
 20
8.505905511811024
 30
0.0
 11
4.506889763779526
 21
8.506889763779527
 31
0.0
  0
LINE
  5
355F
330
1E
100
AcDbEntity
  8
7
100
AcDbLine
 10
4.506889763779526
 20
8.506889763779527
 30
0.0
 11
4.506889763779526
 21
8.508858267716535
 31
0.0
  0
LINE
  5
3560
330
1E
100
AcDbEntity
  8
7
100
AcDbLine
 10
4.434055118110236
 20
8.121062992125983
 30
0.0
 11
4.423228346456692
 21
8.121062992125983
 31
0.0
  0
LINE
  5
3561
330
1E
100
AcDbEntity
  8
7
100
AcDbLine
 10
4.423228346456692
 20
8.121062992125983
 30
0.0
 11
4.418307086614173
 21
8.121062992125983
 31
0.0
  0
LINE
  5
3562
330
1E
100
AcDbEntity
  8
7
100
AcDbLine
 10
4.479330708661416
 20
8.560039370078738
 30
0.0
 11
4.453740157480314
 21
8.568897637795275
 31
0.0
  0
LINE
  5
3563
330
1E
100
AcDbEntity
  8
7
100
AcDbLine
 10
4.453740157480314
 20
8.568897637795275
 30
0.0
 11
4.433070866141731
 21
8.582677165354329
 31
0.0
  0
LINE
  5
3564
330
1E
100
AcDbEntity
  8
7
100
AcDbLine
 10
4.433070866141731
 20
8.582677165354329
 30
0.0
 11
4.419291338582676
 21
8.600393700787401
 31
0.0
  0
LINE
  5
3565
330
1E
100
AcDbEntity
  8
7
100
AcDbLine
 10
4.419291338582676
 20
8.600393700787401
 30
0.0
 11
4.414370078740157
 21
8.620078740157479
 31
0.0
  0
LINE
  5
3566
330
1E
100
AcDbEntity
  8
7
100
AcDbLine
 10
4.414370078740157
 20
8.620078740157479
 30
0.0
 11
4.419291338582676
 21
8.640748031496062
 31
0.0
  0
LINE
  5
3567
330
1E
100
AcDbEntity
  8
7
100
AcDbLine
 10
4.419291338582676
 20
8.640748031496062
 30
0.0
 11
4.432086614173227
 21
8.658464566929133
 31
0.0
  0
LINE
  5
3568
330
1E
100
AcDbEntity
  8
7
100
AcDbLine
 10
4.432086614173227
 20
8.658464566929133
 30
0.0
 11
4.452755905511811
 21
8.673228346456692
 31
0.0
  0
LINE
  5
3569
330
1E
100
AcDbEntity
  8
7
100
AcDbLine
 10
4.452755905511811
 20
8.673228346456692
 30
0.0
 11
4.478346456692912
 21
8.683070866141731
 31
0.0
  0
LINE
  5
356A
330
1E
100
AcDbEntity
  8
7
100
AcDbLine
 10
4.478346456692912
 20
8.683070866141731
 30
0.0
 11
4.506889763779526
 21
8.687007874015748
 31
0.0
  0
LINE
  5
356B
330
1E
100
AcDbEntity
  8
7
100
AcDbLine
 10
4.422244094488188
 20
8.547244094488188
 30
0.0
 11
4.437007874015748
 21
8.531496062992125
 31
0.0
  0
LINE
  5
356C
330
1E
100
AcDbEntity
  8
7
100
AcDbLine
 10
4.437007874015748
 20
8.531496062992125
 30
0.0
 11
4.456692913385826
 21
8.519685039370077
 31
0.0
  0
LINE
  5
356D
330
1E
100
AcDbEntity
  8
7
100
AcDbLine
 10
4.456692913385826
 20
8.519685039370077
 30
0.0
 11
4.481299212598425
 21
8.511811023622046
 31
0.0
  0
LINE
  5
356E
330
1E
100
AcDbEntity
  8
7
100
AcDbLine
 10
4.481299212598425
 20
8.511811023622046
 30
0.0
 11
4.506889763779526
 21
8.508858267716535
 31
0.0
  0
LINE
  5
356F
330
1E
100
AcDbEntity
  8
7
100
AcDbLine
 10
4.506889763779526
 20
8.370078740157479
 30
0.0
 11
4.476377952755905
 21
8.374015748031496
 31
0.0
  0
LINE
  5
3570
330
1E
100
AcDbEntity
  8
7
100
AcDbLine
 10
4.476377952755905
 20
8.374015748031496
 30
0.0
 11
4.449803149606299
 21
8.384842519685038
 31
0.0
  0
LINE
  5
3571
330
1E
100
AcDbEntity
  8
7
100
AcDbLine
 10
4.449803149606299
 20
8.384842519685038
 30
0.0
 11
4.429133858267715
 21
8.400590551181101
 31
0.0
  0
LINE
  5
3572
330
1E
100
AcDbEntity
  8
7
100
AcDbLine
 10
4.389763779527558
 20
9.117125984251968
 30
0.0
 11
4.39271653543307
 21
9.152559055118109
 31
0.0
  0
LINE
  5
3573
330
1E
100
AcDbEntity
  8
7
100
AcDbLine
 10
4.39271653543307
 20
9.152559055118109
 30
0.0
 11
4.400590551181101
 21
9.184055118110235
 31
0.0
  0
LINE
  5
3574
330
1E
100
AcDbEntity
  8
7
100
AcDbLine
 10
4.400590551181101
 20
9.184055118110235
 30
0.0
 11
4.415354330708661
 21
9.211614173228346
 31
0.0
  0
LINE
  5
3575
330
1E
100
AcDbEntity
  8
7
100
AcDbLine
 10
4.415354330708661
 20
9.211614173228346
 30
0.0
 11
4.434055118110236
 21
9.233267716535433
 31
0.0
  0
LINE
  5
3576
330
1E
100
AcDbEntity
  8
7
100
AcDbLine
 10
4.434055118110236
 20
9.233267716535433
 30
0.0
 11
4.455708661417322
 21
9.247047244094487
 31
0.0
  0
LINE
  5
3577
330
1E
100
AcDbEntity
  8
7
100
AcDbLine
 10
4.455708661417322
 20
9.247047244094487
 30
0.0
 11
4.480314960629921
 21
9.250984251968503
 31
0.0
  0
LINE
  5
3578
330
1E
100
AcDbEntity
  8
7
100
AcDbLine
 10
4.428149606299212
 20
7.916338582677164
 30
0.0
 11
4.422244094488188
 21
7.924212598425196
 31
0.0
  0
LINE
  5
3579
330
1E
100
AcDbEntity
  8
7
100
AcDbLine
 10
4.422244094488188
 20
7.924212598425196
 30
0.0
 11
4.419291338582676
 21
7.936023622047244
 31
0.0
  0
LINE
  5
357A
330
1E
100
AcDbEntity
  8
7
100
AcDbLine
 10
4.085629921259842
 20
8.737204724409448
 30
0.0
 11
4.046259842519684
 21
8.737204724409448
 31
0.0
  0
LINE
  5
357B
330
1E
100
AcDbEntity
  8
7
100
AcDbLine
 10
4.046259842519684
 20
8.737204724409448
 30
0.0
 11
4.046259842519684
 21
8.43011811023622
 31
0.0
  0
LINE
  5
357C
330
1E
100
AcDbEntity
  8
7
100
AcDbLine
 10
5.333661417322834
 20
9.184055118110235
 30
0.0
 11
5.341535433070865
 21
9.152559055118109
 31
0.0
  0
LINE
  5
357D
330
1E
100
AcDbEntity
  8
7
100
AcDbLine
 10
5.341535433070865
 20
9.152559055118109
 30
0.0
 11
5.344488188976377
 21
9.117125984251968
 31
0.0
  0
LINE
  5
357E
330
1E
100
AcDbEntity
  8
7
100
AcDbLine
 10
5.253937007874015
 20
9.250984251968503
 30
0.0
 11
5.278543307086613
 21
9.247047244094487
 31
0.0
  0
LINE
  5
357F
330
1E
100
AcDbEntity
  8
7
100
AcDbLine
 10
5.278543307086613
 20
9.247047244094487
 30
0.0
 11
5.3001968503937
 21
9.233267716535433
 31
0.0
  0
LINE
  5
3580
330
1E
100
AcDbEntity
  8
7
100
AcDbLine
 10
5.3001968503937
 20
9.233267716535433
 30
0.0
 11
5.318897637795275
 21
9.211614173228346
 31
0.0
  0
LINE
  5
3581
330
1E
100
AcDbEntity
  8
7
100
AcDbLine
 10
5.318897637795275
 20
9.211614173228346
 30
0.0
 11
5.333661417322834
 21
9.184055118110235
 31
0.0
  0
LINE
  5
3582
330
1E
100
AcDbEntity
  8
7
100
AcDbLine
 10
5.314960629921259
 20
7.936023622047244
 30
0.0
 11
5.312007874015747
 21
7.924212598425196
 31
0.0
  0
LINE
  5
3583
330
1E
100
AcDbEntity
  8
7
100
AcDbLine
 10
5.312007874015747
 20
7.924212598425196
 30
0.0
 11
5.306102362204724
 21
7.916338582677164
 31
0.0
  0
LINE
  5
3584
330
1E
100
AcDbEntity
  8
7
100
AcDbLine
 10
5.3001968503937
 20
8.121062992125983
 30
0.0
 11
5.303149606299212
 21
8.23523622047244
 31
0.0
  0
LINE
  5
3585
330
1E
100
AcDbEntity
  8
7
100
AcDbLine
 10
5.303149606299212
 20
8.23523622047244
 30
0.0
 11
5.288385826771652
 21
8.21259842519685
 31
0.0
  0
LINE
  5
3586
330
1E
100
AcDbEntity
  8
7
100
AcDbLine
 10
5.288385826771652
 20
8.21259842519685
 30
0.0
 11
5.269685039370078
 21
8.194881889763779
 31
0.0
  0
LINE
  5
3587
330
1E
100
AcDbEntity
  8
7
100
AcDbLine
 10
5.269685039370078
 20
8.194881889763779
 30
0.0
 11
5.249015748031495
 21
8.184055118110235
 31
0.0
  0
LINE
  5
3588
330
1E
100
AcDbEntity
  8
7
100
AcDbLine
 10
5.299212598425196
 20
8.052165354330707
 30
0.0
 11
5.299212598425196
 21
8.07283464566929
 31
0.0
  0
LINE
  5
3589
330
1E
100
AcDbEntity
  8
7
100
AcDbLine
 10
5.299212598425196
 20
8.07283464566929
 30
0.0
 11
5.299212598425196
 21
8.096456692913385
 31
0.0
  0
LINE
  5
358A
330
1E
100
AcDbEntity
  8
7
100
AcDbLine
 10
5.299212598425196
 20
8.096456692913385
 30
0.0
 11
5.3001968503937
 21
8.121062992125983
 31
0.0
  0
LINE
  5
358B
330
1E
100
AcDbEntity
  8
7
100
AcDbLine
 10
5.3001968503937
 20
8.121062992125983
 30
0.0
 11
5.220472440944881
 21
8.121062992125983
 31
0.0
  0
LINE
  5
358C
330
1E
100
AcDbEntity
  8
7
100
AcDbLine
 10
5.20767716535433
 20
8.184055118110235
 30
0.0
 11
5.210629921259842
 21
8.181102362204724
 31
0.0
  0
LINE
  5
358D
330
1E
100
AcDbEntity
  8
7
100
AcDbLine
 10
5.210629921259842
 20
8.181102362204724
 30
0.0
 11
5.217519685039369
 21
8.18011811023622
 31
0.0
  0
LINE
  5
358E
330
1E
100
AcDbEntity
  8
7
100
AcDbLine
 10
5.221456692913385
 20
8.052165354330707
 30
0.0
 11
5.221456692913385
 21
8.07283464566929
 31
0.0
  0
LINE
  5
358F
330
1E
100
AcDbEntity
  8
7
100
AcDbLine
 10
5.221456692913385
 20
8.07283464566929
 30
0.0
 11
5.221456692913385
 21
8.096456692913385
 31
0.0
  0
LINE
  5
3590
330
1E
100
AcDbEntity
  8
7
100
AcDbLine
 10
5.221456692913385
 20
8.096456692913385
 30
0.0
 11
5.220472440944881
 21
8.121062992125983
 31
0.0
  0
LINE
  5
3591
330
1E
100
AcDbEntity
  8
7
100
AcDbLine
 10
5.210629921259842
 20
8.121062992125983
 30
0.0
 11
5.213582677165353
 21
8.121062992125983
 31
0.0
  0
LINE
  5
3592
330
1E
100
AcDbEntity
  8
7
100
AcDbLine
 10
5.213582677165353
 20
8.121062992125983
 30
0.0
 11
5.220472440944881
 21
8.121062992125983
 31
0.0
  0
LINE
  5
3593
330
1E
100
AcDbEntity
  8
7
100
AcDbLine
 10
5.211614173228346
 20
8.059055118110235
 30
0.0
 11
5.214566929133858
 21
8.054133858267716
 31
0.0
  0
LINE
  5
3594
330
1E
100
AcDbEntity
  8
7
100
AcDbLine
 10
5.214566929133858
 20
8.054133858267716
 30
0.0
 11
5.221456692913385
 21
8.052165354330707
 31
0.0
  0
LINE
  5
3595
330
1E
100
AcDbEntity
  8
7
100
AcDbLine
 10
5.299212598425196
 20
7.916338582677164
 30
0.0
 11
5.299212598425196
 21
8.052165354330707
 31
0.0
  0
LINE
  5
3596
330
1E
100
AcDbEntity
  8
7
100
AcDbLine
 10
5.299212598425196
 20
8.052165354330707
 30
0.0
 11
5.221456692913385
 21
8.052165354330707
 31
0.0
  0
LINE
  5
3597
330
1E
100
AcDbEntity
  8
7
100
AcDbLine
 10
5.319881889763779
 20
8.291338582677164
 30
0.0
 11
5.315944881889762
 21
8.121062992125983
 31
0.0
  0
LINE
  5
3598
330
1E
100
AcDbEntity
  8
7
100
AcDbLine
 10
5.315944881889762
 20
8.121062992125983
 30
0.0
 11
5.314960629921259
 21
8.099409448818898
 31
0.0
  0
LINE
  5
3599
330
1E
100
AcDbEntity
  8
7
100
AcDbLine
 10
5.314960629921259
 20
8.099409448818898
 30
0.0
 11
5.314960629921259
 21
8.079724409448818
 31
0.0
  0
LINE
  5
359A
330
1E
100
AcDbEntity
  8
7
100
AcDbLine
 10
5.314960629921259
 20
8.079724409448818
 30
0.0
 11
5.314960629921259
 21
8.062992125984251
 31
0.0
  0
LINE
  5
359B
330
1E
100
AcDbEntity
  8
7
100
AcDbLine
 10
5.314960629921259
 20
8.062992125984251
 30
0.0
 11
5.314960629921259
 21
7.936023622047244
 31
0.0
  0
LINE
  5
359C
330
1E
100
AcDbEntity
  8
7
100
AcDbLine
 10
5.314960629921259
 20
7.936023622047244
 30
0.0
 11
5.344488188976377
 21
9.117125984251968
 31
0.0
  0
LINE
  5
359D
330
1E
100
AcDbEntity
  8
7
100
AcDbLine
 10
5.344488188976377
 20
9.117125984251968
 30
0.0
 11
5.319881889763779
 21
8.620078740157479
 31
0.0
  0
LINE
  5
359E
330
1E
100
AcDbEntity
  8
7
100
AcDbLine
 10
4.414370078740157
 20
8.515748031496062
 30
0.0
 11
4.414370078740157
 21
8.620078740157479
 31
0.0
  0
LINE
  5
359F
330
1E
100
AcDbEntity
  8
7
100
AcDbLine
 10
4.414370078740157
 20
8.620078740157479
 30
0.0
 11
4.389763779527558
 21
9.117125984251968
 31
0.0
  0
LINE
  5
35A0
330
1E
100
AcDbEntity
  8
7
100
AcDbLine
 10
4.407480314960629
 20
8.409448818897637
 30
0.0
 11
4.419291338582676
 21
7.936023622047244
 31
0.0
  0
LINE
  5
35A1
330
1E
100
AcDbEntity
  8
7
100
AcDbLine
 10
4.419291338582676
 20
7.936023622047244
 30
0.0
 11
4.419291338582676
 21
8.062992125984251
 31
0.0
  0
LINE
  5
35A2
330
1E
100
AcDbEntity
  8
7
100
AcDbLine
 10
4.419291338582676
 20
8.062992125984251
 30
0.0
 11
4.419291338582676
 21
8.079724409448818
 31
0.0
  0
LINE
  5
35A3
330
1E
100
AcDbEntity
  8
7
100
AcDbLine
 10
4.419291338582676
 20
8.079724409448818
 30
0.0
 11
4.419291338582676
 21
8.099409448818898
 31
0.0
  0
LINE
  5
35A4
330
1E
100
AcDbEntity
  8
7
100
AcDbLine
 10
4.419291338582676
 20
8.099409448818898
 30
0.0
 11
4.418307086614173
 21
8.121062992125983
 31
0.0
  0
LINE
  5
35A5
330
1E
100
AcDbEntity
  8
7
100
AcDbLine
 10
4.418307086614173
 20
8.121062992125983
 30
0.0
 11
4.414370078740157
 21
8.291338582677164
 31
0.0
  0
LINE
  5
35A6
330
1E
100
AcDbEntity
  8
7
100
AcDbLine
 10
4.414370078740157
 20
8.291338582677164
 30
0.0
 11
4.414370078740157
 21
8.406496062992125
 31
0.0
  0
LINE
  5
35A7
330
1E
100
AcDbEntity
  8
7
100
AcDbLine
 10
4.452755905511811
 20
8.398622047244094
 30
0.0
 11
4.478346456692912
 21
8.38779527559055
 31
0.0
  0
LINE
  5
35A8
330
1E
100
AcDbEntity
  8
7
100
AcDbLine
 10
4.478346456692912
 20
8.38779527559055
 30
0.0
 11
4.506889763779526
 21
8.383858267716535
 31
0.0
  0
LINE
  5
35A9
330
1E
100
AcDbEntity
  8
7
100
AcDbLine
 10
4.506889763779526
 20
8.383858267716535
 30
0.0
 11
4.515748031496062
 21
8.383858267716535
 31
0.0
  0
LINE
  5
35AA
330
1E
100
AcDbEntity
  8
7
100
AcDbLine
 10
4.515748031496062
 20
8.383858267716535
 30
0.0
 11
4.516732283464566
 21
8.396653543307087
 31
0.0
  0
LINE
  5
35AB
330
1E
100
AcDbEntity
  8
7
100
AcDbLine
 10
4.523622047244094
 20
8.08759842519685
 30
0.0
 11
4.524606299212598
 21
8.109251968503937
 31
0.0
  0
LINE
  5
35AC
330
1E
100
AcDbEntity
  8
7
100
AcDbLine
 10
4.524606299212598
 20
8.109251968503937
 30
0.0
 11
4.524606299212598
 21
8.131889763779527
 31
0.0
  0
LINE
  5
35AD
330
1E
100
AcDbEntity
  8
7
100
AcDbLine
 10
4.524606299212598
 20
8.131889763779527
 30
0.0
 11
4.526574803149605
 21
8.154527559055118
 31
0.0
  0
LINE
  5
35AE
330
1E
100
AcDbEntity
  8
7
100
AcDbLine
 10
4.526574803149605
 20
8.154527559055118
 30
0.0
 11
4.52755905511811
 21
8.172244094488188
 31
0.0
  0
LINE
  5
35AF
330
1E
100
AcDbEntity
  8
7
100
AcDbLine
 10
4.52755905511811
 20
8.172244094488188
 30
0.0
 11
4.528543307086613
 21
8.184055118110235
 31
0.0
  0
LINE
  5
35B0
330
1E
100
AcDbEntity
  8
7
100
AcDbLine
 10
4.524606299212598
 20
8.054133858267716
 30
0.0
 11
4.523622047244094
 21
8.058070866141731
 31
0.0
  0
LINE
  5
35B1
330
1E
100
AcDbEntity
  8
7
100
AcDbLine
 10
4.523622047244094
 20
8.058070866141731
 30
0.0
 11
4.523622047244094
 21
8.069881889763779
 31
0.0
  0
LINE
  5
35B2
330
1E
100
AcDbEntity
  8
7
100
AcDbLine
 10
4.523622047244094
 20
8.069881889763779
 30
0.0
 11
4.523622047244094
 21
8.08759842519685
 31
0.0
  0
LINE
  5
35B3
330
1E
100
AcDbEntity
  8
7
100
AcDbLine
 10
4.526574803149605
 20
8.376968503937007
 30
0.0
 11
4.522637795275589
 21
8.372047244094487
 31
0.0
  0
LINE
  5
35B4
330
1E
100
AcDbEntity
  8
7
100
AcDbLine
 10
4.522637795275589
 20
8.372047244094487
 30
0.0
 11
4.515748031496062
 21
8.370078740157479
 31
0.0
  0
LINE
  5
35B5
330
1E
100
AcDbEntity
  8
7
100
AcDbLine
 10
4.526574803149605
 20
8.184055118110235
 30
0.0
 11
4.522637795275589
 21
8.181102362204724
 31
0.0
  0
LINE
  5
35B6
330
1E
100
AcDbEntity
  8
7
100
AcDbLine
 10
4.522637795275589
 20
8.181102362204724
 30
0.0
 11
4.515748031496062
 21
8.18011811023622
 31
0.0
  0
LINE
  5
35B7
330
1E
100
AcDbEntity
  8
7
100
AcDbLine
 10
4.523622047244094
 20
8.121062992125983
 30
0.0
 11
4.523622047244094
 21
8.098425196850392
 31
0.0
  0
LINE
  5
35B8
330
1E
100
AcDbEntity
  8
7
100
AcDbLine
 10
4.523622047244094
 20
8.098425196850392
 30
0.0
 11
4.522637795275589
 21
8.076771653543307
 31
0.0
  0
LINE
  5
35B9
330
1E
100
AcDbEntity
  8
7
100
AcDbLine
 10
4.522637795275589
 20
8.076771653543307
 30
0.0
 11
4.522637795275589
 21
8.059055118110235
 31
0.0
  0
LINE
  5
35BA
330
1E
100
AcDbEntity
  8
7
100
AcDbLine
 10
4.522637795275589
 20
8.059055118110235
 30
0.0
 11
4.519685039370078
 21
8.054133858267716
 31
0.0
  0
LINE
  5
35BB
330
1E
100
AcDbEntity
  8
7
100
AcDbLine
 10
4.519685039370078
 20
8.054133858267716
 30
0.0
 11
4.51279527559055
 21
8.052165354330707
 31
0.0
  0
LINE
  5
35BC
330
1E
100
AcDbEntity
  8
7
100
AcDbLine
 10
4.523622047244094
 20
8.121062992125983
 30
0.0
 11
4.520669291338582
 21
8.121062992125983
 31
0.0
  0
LINE
  5
35BD
330
1E
100
AcDbEntity
  8
7
100
AcDbLine
 10
4.520669291338582
 20
8.121062992125983
 30
0.0
 11
4.513779527559054
 21
8.121062992125983
 31
0.0
  0
LINE
  5
35BE
330
1E
100
AcDbEntity
  8
7
100
AcDbLine
 10
4.529527559055117
 20
8.161417322834644
 30
0.0
 11
4.529527559055117
 21
8.1751968503937
 31
0.0
  0
LINE
  5
35BF
330
1E
100
AcDbEntity
  8
7
100
AcDbLine
 10
4.529527559055117
 20
8.1751968503937
 30
0.0
 11
4.529527559055117
 21
8.182086614173227
 31
0.0
  0
LINE
  5
35C0
330
1E
100
AcDbEntity
  8
7
100
AcDbLine
 10
4.515748031496062
 20
8.18011811023622
 30
0.0
 11
4.515748031496062
 21
8.370078740157479
 31
0.0
  0
LINE
  5
35C1
330
1E
100
AcDbEntity
  8
7
100
AcDbLine
 10
4.515748031496062
 20
8.370078740157479
 30
0.0
 11
4.506889763779526
 21
8.370078740157479
 31
0.0
  0
LINE
  5
35C2
330
1E
100
AcDbEntity
  8
7
100
AcDbLine
 10
4.506889763779526
 20
8.370078740157479
 30
0.0
 11
4.506889763779526
 21
8.18011811023622
 31
0.0
  0
LINE
  5
35C3
330
1E
100
AcDbEntity
  8
7
100
AcDbLine
 10
4.434055118110236
 20
8.121062992125983
 30
0.0
 11
4.435039370078739
 21
8.096456692913385
 31
0.0
  0
LINE
  5
35C4
330
1E
100
AcDbEntity
  8
7
100
AcDbLine
 10
4.435039370078739
 20
8.096456692913385
 30
0.0
 11
4.435039370078739
 21
8.07283464566929
 31
0.0
  0
LINE
  5
35C5
330
1E
100
AcDbEntity
  8
7
100
AcDbLine
 10
4.435039370078739
 20
8.07283464566929
 30
0.0
 11
4.435039370078739
 21
8.052165354330707
 31
0.0
  0
LINE
  5
35C6
330
1E
100
AcDbEntity
  8
7
100
AcDbLine
 10
4.435039370078739
 20
8.052165354330707
 30
0.0
 11
4.51279527559055
 21
8.052165354330707
 31
0.0
  0
LINE
  5
35C7
330
1E
100
AcDbEntity
  8
7
100
AcDbLine
 10
4.51279527559055
 20
8.052165354330707
 30
0.0
 11
4.51279527559055
 21
8.07283464566929
 31
0.0
  0
LINE
  5
35C8
330
1E
100
AcDbEntity
  8
7
100
AcDbLine
 10
4.51279527559055
 20
8.07283464566929
 30
0.0
 11
4.51279527559055
 21
8.096456692913385
 31
0.0
  0
LINE
  5
35C9
330
1E
100
AcDbEntity
  8
7
100
AcDbLine
 10
4.51279527559055
 20
8.096456692913385
 30
0.0
 11
4.513779527559054
 21
8.121062992125983
 31
0.0
  0
LINE
  5
35CA
330
1E
100
AcDbEntity
  8
7
100
AcDbLine
 10
4.522637795275589
 20
7.916338582677164
 30
0.0
 11
4.519685039370078
 21
7.916338582677164
 31
0.0
  0
LINE
  5
35CB
330
1E
100
AcDbEntity
  8
7
100
AcDbLine
 10
4.519685039370078
 20
7.916338582677164
 30
0.0
 11
4.51279527559055
 21
7.916338582677164
 31
0.0
  0
LINE
  5
35CC
330
1E
100
AcDbEntity
  8
7
100
AcDbLine
 10
5.211614173228346
 20
7.916338582677164
 30
0.0
 11
5.214566929133858
 21
7.916338582677164
 31
0.0
  0
LINE
  5
35CD
330
1E
100
AcDbEntity
  8
7
100
AcDbLine
 10
5.214566929133858
 20
7.916338582677164
 30
0.0
 11
5.221456692913385
 21
7.916338582677164
 31
0.0
  0
LINE
  5
35CE
330
1E
100
AcDbEntity
  8
7
100
AcDbLine
 10
5.306102362204724
 20
7.916338582677164
 30
0.0
 11
5.299212598425196
 21
7.916338582677164
 31
0.0
  0
LINE
  5
35CF
330
1E
100
AcDbEntity
  8
7
100
AcDbLine
 10
5.299212598425196
 20
7.916338582677164
 30
0.0
 11
5.221456692913385
 21
7.916338582677164
 31
0.0
  0
LINE
  5
35D0
330
1E
100
AcDbEntity
  8
7
100
AcDbLine
 10
4.435039370078739
 20
7.916338582677164
 30
0.0
 11
4.428149606299212
 21
7.916338582677164
 31
0.0
  0
LINE
  5
35D1
330
1E
100
AcDbEntity
  8
7
100
AcDbLine
 10
4.428149606299212
 20
7.916338582677164
 30
0.0
 11
4.085629921259842
 21
7.916338582677164
 31
0.0
  0
LINE
  5
35D2
330
1E
100
AcDbEntity
  8
7
100
AcDbLine
 10
4.506889763779526
 20
8.663385826771653
 30
0.0
 11
4.506889763779526
 21
8.635826771653542
 31
0.0
  0
LINE
  5
35D3
330
1E
100
AcDbEntity
  8
7
100
AcDbLine
 10
4.506889763779526
 20
8.635826771653542
 30
0.0
 11
4.506889763779526
 21
8.607283464566929
 31
0.0
  0
LINE
  5
35D4
330
1E
100
AcDbEntity
  8
7
100
AcDbLine
 10
4.506889763779526
 20
8.607283464566929
 30
0.0
 11
4.506889763779526
 21
8.579724409448818
 31
0.0
  0
LINE
  5
35D5
330
1E
100
AcDbEntity
  8
7
100
AcDbLine
 10
4.506889763779526
 20
8.579724409448818
 30
0.0
 11
4.506889763779526
 21
8.557086614173227
 31
0.0
  0
LINE
  5
35D6
330
1E
100
AcDbEntity
  8
7
100
AcDbLine
 10
5.227362204724409
 20
8.557086614173227
 30
0.0
 11
5.227362204724409
 21
8.579724409448818
 31
0.0
  0
LINE
  5
35D7
330
1E
100
AcDbEntity
  8
7
100
AcDbLine
 10
5.227362204724409
 20
8.579724409448818
 30
0.0
 11
5.227362204724409
 21
8.607283464566929
 31
0.0
  0
LINE
  5
35D8
330
1E
100
AcDbEntity
  8
7
100
AcDbLine
 10
5.227362204724409
 20
8.607283464566929
 30
0.0
 11
5.227362204724409
 21
8.635826771653542
 31
0.0
  0
LINE
  5
35D9
330
1E
100
AcDbEntity
  8
7
100
AcDbLine
 10
5.227362204724409
 20
8.635826771653542
 30
0.0
 11
5.227362204724409
 21
8.663385826771653
 31
0.0
  0
LINE
  5
35DA
330
1E
100
AcDbEntity
  8
7
100
AcDbLine
 10
5.227362204724409
 20
8.663385826771653
 30
0.0
 11
5.227362204724409
 21
8.687007874015748
 31
0.0
  0
LINE
  5
35DB
330
1E
100
AcDbEntity
  8
7
100
AcDbLine
 10
5.227362204724409
 20
8.687007874015748
 30
0.0
 11
4.506889763779526
 21
8.687007874015748
 31
0.0
  0
LINE
  5
35DC
330
1E
100
AcDbEntity
  8
7
100
AcDbLine
 10
4.506889763779526
 20
8.687007874015748
 30
0.0
 11
4.506889763779526
 21
8.663385826771653
 31
0.0
  0
LINE
  5
35DD
330
1E
100
AcDbEntity
  8
7
100
AcDbLine
 10
4.506889763779526
 20
8.557086614173227
 30
0.0
 11
4.506889763779526
 21
8.508858267716535
 31
0.0
  0
LINE
  5
35DE
330
1E
100
AcDbEntity
  8
7
100
AcDbLine
 10
4.506889763779526
 20
8.508858267716535
 30
0.0
 11
5.217519685039369
 21
8.508858267716535
 31
0.0
  0
LINE
  5
35DF
330
1E
100
AcDbEntity
  8
7
100
AcDbLine
 10
5.218503937007874
 20
8.18011811023622
 30
0.0
 11
5.227362204724409
 21
8.18011811023622
 31
0.0
  0
LINE
  5
35E0
330
1E
100
AcDbEntity
  8
7
100
AcDbLine
 10
5.227362204724409
 20
8.18011811023622
 30
0.0
 11
5.227362204724409
 21
8.557086614173227
 31
0.0
  0
LINE
  5
35E1
330
1E
100
AcDbEntity
  8
7
100
AcDbLine
 10
4.423228346456692
 20
8.544291338582675
 30
0.0
 11
4.422244094488188
 21
8.546259842519685
 31
0.0
  0
LINE
  5
35E2
330
1E
100
AcDbEntity
  8
7
100
AcDbLine
 10
4.422244094488188
 20
8.546259842519685
 30
0.0
 11
4.422244094488188
 21
8.547244094488188
 31
0.0
  0
LINE
  5
35E3
330
1E
100
AcDbEntity
  8
7
100
AcDbLine
 10
4.422244094488188
 20
8.547244094488188
 30
0.0
 11
4.422244094488188
 21
8.518700787401574
 31
0.0
  0
LINE
  5
35E4
330
1E
100
AcDbEntity
  8
7
100
AcDbLine
 10
5.113188976377952
 20
8.06791338582677
 30
0.0
 11
5.113188976377952
 21
8.07283464566929
 31
0.0
  0
LINE
  5
35E5
330
1E
100
AcDbEntity
  8
7
100
AcDbLine
 10
5.113188976377952
 20
8.07283464566929
 30
0.0
 11
5.113188976377952
 21
8.075787401574803
 31
0.0
  0
LINE
  5
35E6
330
1E
100
AcDbEntity
  8
7
100
AcDbLine
 10
5.209645669291337
 20
8.089566929133857
 30
0.0
 11
5.113188976377952
 21
8.089566929133857
 31
0.0
  0
LINE
  5
35E7
330
1E
100
AcDbEntity
  8
7
100
AcDbLine
 10
5.113188976377952
 20
8.089566929133857
 30
0.0
 11
5.113188976377952
 21
8.079724409448818
 31
0.0
  0
LINE
  5
35E8
330
1E
100
AcDbEntity
  8
7
100
AcDbLine
 10
5.113188976377952
 20
8.079724409448818
 30
0.0
 11
5.113188976377952
 21
8.075787401574803
 31
0.0
  0
LINE
  5
35E9
330
1E
100
AcDbEntity
  8
7
100
AcDbLine
 10
5.113188976377952
 20
8.141732283464566
 30
0.0
 11
5.113188976377952
 21
8.124015748031496
 31
0.0
  0
LINE
  5
35EA
330
1E
100
AcDbEntity
  8
7
100
AcDbLine
 10
5.113188976377952
 20
8.124015748031496
 30
0.0
 11
5.113188976377952
 21
8.10531496062992
 31
0.0
  0
LINE
  5
35EB
330
1E
100
AcDbEntity
  8
7
100
AcDbLine
 10
5.113188976377952
 20
8.10531496062992
 30
0.0
 11
5.113188976377952
 21
8.089566929133857
 31
0.0
  0
LINE
  5
35EC
330
1E
100
AcDbEntity
  8
7
100
AcDbLine
 10
4.755905511811023
 20
7.966535433070866
 30
0.0
 11
4.757874015748031
 21
8.002952755905511
 31
0.0
  0
LINE
  5
35ED
330
1E
100
AcDbEntity
  8
7
100
AcDbLine
 10
4.757874015748031
 20
8.002952755905511
 30
0.0
 11
4.9753937007874
 21
8.002952755905511
 31
0.0
  0
LINE
  5
35EE
330
1E
100
AcDbEntity
  8
7
100
AcDbLine
 10
5.208661417322834
 20
8.011811023622046
 30
0.0
 11
4.525590551181101
 21
8.011811023622046
 31
0.0
  0
LINE
  5
35EF
330
1E
100
AcDbEntity
  8
7
100
AcDbLine
 10
4.525590551181101
 20
8.011811023622046
 30
0.0
 11
4.523622047244094
 21
7.966535433070866
 31
0.0
  0
LINE
  5
35F0
330
1E
100
AcDbEntity
  8
7
100
AcDbLine
 10
4.523622047244094
 20
7.931102362204724
 30
0.0
 11
4.523622047244094
 21
7.946850393700787
 31
0.0
  0
LINE
  5
35F1
330
1E
100
AcDbEntity
  8
7
100
AcDbLine
 10
4.523622047244094
 20
7.946850393700787
 30
0.0
 11
4.523622047244094
 21
7.966535433070866
 31
0.0
  0
LINE
  5
35F2
330
1E
100
AcDbEntity
  8
7
100
AcDbLine
 10
4.523622047244094
 20
7.916338582677164
 30
0.0
 11
4.523622047244094
 21
7.920275590551181
 31
0.0
  0
LINE
  5
35F3
330
1E
100
AcDbEntity
  8
7
100
AcDbLine
 10
4.523622047244094
 20
7.920275590551181
 30
0.0
 11
4.523622047244094
 21
7.931102362204724
 31
0.0
  0
LINE
  5
35F4
330
1E
100
AcDbEntity
  8
7
100
AcDbLine
 10
4.755905511811023
 20
7.966535433070866
 30
0.0
 11
4.754921259842519
 21
7.949803149606298
 31
0.0
  0
LINE
  5
35F5
330
1E
100
AcDbEntity
  8
7
100
AcDbLine
 10
4.754921259842519
 20
7.949803149606298
 30
0.0
 11
4.754921259842519
 21
7.935039370078738
 31
0.0
  0
LINE
  5
35F6
330
1E
100
AcDbEntity
  8
7
100
AcDbLine
 10
4.754921259842519
 20
7.935039370078738
 30
0.0
 11
4.754921259842519
 21
7.924212598425196
 31
0.0
  0
LINE
  5
35F7
330
1E
100
AcDbEntity
  8
7
100
AcDbLine
 10
4.978346456692912
 20
7.966535433070866
 30
0.0
 11
4.979330708661416
 21
7.949803149606298
 31
0.0
  0
LINE
  5
35F8
330
1E
100
AcDbEntity
  8
7
100
AcDbLine
 10
4.979330708661416
 20
7.949803149606298
 30
0.0
 11
4.979330708661416
 21
7.935039370078738
 31
0.0
  0
LINE
  5
35F9
330
1E
100
AcDbEntity
  8
7
100
AcDbLine
 10
4.979330708661416
 20
7.935039370078738
 30
0.0
 11
4.979330708661416
 21
7.924212598425196
 31
0.0
  0
LINE
  5
35FA
330
1E
100
AcDbEntity
  8
7
100
AcDbLine
 10
4.979330708661416
 20
7.924212598425196
 30
0.0
 11
4.754921259842519
 21
7.924212598425196
 31
0.0
  0
LINE
  5
35FB
330
1E
100
AcDbEntity
  8
7
100
AcDbLine
 10
5.210629921259842
 20
8.121062992125983
 30
0.0
 11
5.210629921259842
 21
8.098425196850392
 31
0.0
  0
LINE
  5
35FC
330
1E
100
AcDbEntity
  8
7
100
AcDbLine
 10
5.210629921259842
 20
8.098425196850392
 30
0.0
 11
5.211614173228346
 21
8.076771653543307
 31
0.0
  0
LINE
  5
35FD
330
1E
100
AcDbEntity
  8
7
100
AcDbLine
 10
5.211614173228346
 20
8.076771653543307
 30
0.0
 11
5.211614173228346
 21
8.059055118110235
 31
0.0
  0
LINE
  5
35FE
330
1E
100
AcDbEntity
  8
7
100
AcDbLine
 10
5.210629921259842
 20
7.931102362204724
 30
0.0
 11
5.210629921259842
 21
7.946850393700787
 31
0.0
  0
LINE
  5
35FF
330
1E
100
AcDbEntity
  8
7
100
AcDbLine
 10
5.210629921259842
 20
7.946850393700787
 30
0.0
 11
5.210629921259842
 21
7.966535433070866
 31
0.0
  0
LINE
  5
3600
330
1E
100
AcDbEntity
  8
7
100
AcDbLine
 10
5.210629921259842
 20
7.916338582677164
 30
0.0
 11
5.210629921259842
 21
7.920275590551181
 31
0.0
  0
LINE
  5
3601
330
1E
100
AcDbEntity
  8
7
100
AcDbLine
 10
5.210629921259842
 20
7.920275590551181
 30
0.0
 11
5.210629921259842
 21
7.931102362204724
 31
0.0
  0
LINE
  5
3602
330
1E
100
AcDbEntity
  8
7
100
AcDbLine
 10
5.20767716535433
 20
8.044291338582675
 30
0.0
 11
5.20767716535433
 21
8.029527559055118
 31
0.0
  0
LINE
  5
3603
330
1E
100
AcDbEntity
  8
7
100
AcDbLine
 10
5.20767716535433
 20
8.029527559055118
 30
0.0
 11
5.208661417322834
 21
8.011811023622046
 31
0.0
  0
LINE
  5
3604
330
1E
100
AcDbEntity
  8
7
100
AcDbLine
 10
5.208661417322834
 20
8.011811023622046
 30
0.0
 11
5.210629921259842
 21
7.966535433070866
 31
0.0
  0
LINE
  5
3605
330
1E
100
AcDbEntity
  8
7
100
AcDbLine
 10
5.209645669291337
 20
8.104330708661416
 30
0.0
 11
5.209645669291337
 21
8.089566929133857
 31
0.0
  0
LINE
  5
3606
330
1E
100
AcDbEntity
  8
7
100
AcDbLine
 10
5.209645669291337
 20
8.089566929133857
 30
0.0
 11
5.209645669291337
 21
8.079724409448818
 31
0.0
  0
LINE
  5
3607
330
1E
100
AcDbEntity
  8
7
100
AcDbLine
 10
5.209645669291337
 20
8.079724409448818
 30
0.0
 11
5.208661417322834
 21
8.075787401574803
 31
0.0
  0
LINE
  5
3608
330
1E
100
AcDbEntity
  8
7
100
AcDbLine
 10
5.205708661417322
 20
8.172244094488188
 30
0.0
 11
5.206692913385826
 21
8.153543307086613
 31
0.0
  0
LINE
  5
3609
330
1E
100
AcDbEntity
  8
7
100
AcDbLine
 10
5.206692913385826
 20
8.153543307086613
 30
0.0
 11
5.20767716535433
 21
8.138779527559055
 31
0.0
  0
LINE
  5
360A
330
1E
100
AcDbEntity
  8
7
100
AcDbLine
 10
5.20767716535433
 20
8.138779527559055
 30
0.0
 11
5.208661417322834
 21
8.121062992125983
 31
0.0
  0
LINE
  5
360B
330
1E
100
AcDbEntity
  8
7
100
AcDbLine
 10
5.208661417322834
 20
8.121062992125983
 30
0.0
 11
5.209645669291337
 21
8.104330708661416
 31
0.0
  0
LINE
  5
360C
330
1E
100
AcDbEntity
  8
7
100
AcDbLine
 10
4.431102362204724
 20
8.23523622047244
 30
0.0
 11
4.434055118110236
 21
8.121062992125983
 31
0.0
  0
LINE
  5
360D
330
1E
100
AcDbEntity
  8
7
100
AcDbLine
 10
4.434055118110236
 20
8.121062992125983
 30
0.0
 11
4.513779527559054
 21
8.121062992125983
 31
0.0
  0
LINE
  5
360E
330
1E
100
AcDbEntity
  8
7
100
AcDbLine
 10
4.513779527559054
 20
8.121062992125983
 30
0.0
 11
4.515748031496062
 21
8.18011811023622
 31
0.0
  0
LINE
  5
360F
330
1E
100
AcDbEntity
  8
7
100
AcDbLine
 10
4.515748031496062
 20
8.18011811023622
 30
0.0
 11
4.506889763779526
 21
8.18011811023622
 31
0.0
  0
LINE
  5
3610
330
1E
100
AcDbEntity
  8
7
100
AcDbLine
 10
4.506889763779526
 20
8.18011811023622
 30
0.0
 11
4.48523622047244
 21
8.184055118110235
 31
0.0
  0
LINE
  5
3611
330
1E
100
AcDbEntity
  8
7
100
AcDbLine
 10
4.48523622047244
 20
8.184055118110235
 30
0.0
 11
4.464566929133858
 21
8.194881889763779
 31
0.0
  0
LINE
  5
3612
330
1E
100
AcDbEntity
  8
7
100
AcDbLine
 10
4.464566929133858
 20
8.194881889763779
 30
0.0
 11
4.445866141732283
 21
8.21259842519685
 31
0.0
  0
LINE
  5
3613
330
1E
100
AcDbEntity
  8
7
100
AcDbLine
 10
4.445866141732283
 20
8.21259842519685
 30
0.0
 11
4.431102362204724
 21
8.23523622047244
 31
0.0
  0
LINE
  5
3614
330
1E
100
AcDbEntity
  8
7
100
AcDbLine
 10
5.648622047244094
 20
8.559055118110235
 30
0.0
 11
5.648622047244094
 21
8.568897637795275
 31
0.0
  0
LINE
  5
3615
330
1E
100
AcDbEntity
  8
7
100
AcDbLine
 10
5.648622047244094
 20
8.568897637795275
 30
0.0
 11
5.648622047244094
 21
8.559055118110235
 31
0.0
  0
LINE
  5
3616
330
1E
100
AcDbEntity
  8
7
100
AcDbLine
 10
5.648622047244094
 20
8.708661417322835
 30
0.0
 11
5.648622047244094
 21
8.698818897637794
 31
0.0
  0
LINE
  5
3617
330
1E
100
AcDbEntity
  8
7
100
AcDbLine
 10
5.648622047244094
 20
8.698818897637794
 30
0.0
 11
5.648622047244094
 21
8.68011811023622
 31
0.0
  0
LINE
  5
3618
330
1E
100
AcDbEntity
  8
7
100
AcDbLine
 10
4.455708661417322
 20
8.51771653543307
 30
0.0
 11
4.451771653543306
 21
8.51771653543307
 31
0.0
  0
LINE
  5
3619
330
1E
100
AcDbEntity
  8
7
100
AcDbLine
 10
4.451771653543306
 20
8.51771653543307
 30
0.0
 11
4.423228346456692
 21
8.513779527559055
 31
0.0
  0
LINE
  5
361A
330
1E
100
AcDbEntity
  8
7
100
AcDbLine
 10
4.423228346456692
 20
8.513779527559055
 30
0.0
 11
4.398622047244094
 21
8.501968503937007
 31
0.0
  0
LINE
  5
361B
330
1E
100
AcDbEntity
  8
7
100
AcDbLine
 10
4.398622047244094
 20
8.501968503937007
 30
0.0
 11
4.381889763779526
 21
8.484251968503937
 31
0.0
  0
LINE
  5
361C
330
1E
100
AcDbEntity
  8
7
100
AcDbLine
 10
4.381889763779526
 20
8.484251968503937
 30
0.0
 11
4.376968503937007
 21
8.464566929133857
 31
0.0
  0
LINE
  5
361D
330
1E
100
AcDbEntity
  8
7
100
AcDbLine
 10
4.451771653543306
 20
8.51771653543307
 30
0.0
 11
4.451771653543306
 21
8.518700787401574
 31
0.0
  0
LINE
  5
361E
330
1E
100
AcDbEntity
  8
7
100
AcDbLine
 10
4.451771653543306
 20
8.518700787401574
 30
0.0
 11
4.451771653543306
 21
8.520669291338581
 31
0.0
  0
LINE
  5
361F
330
1E
100
AcDbEntity
  8
7
100
AcDbLine
 10
5.190944881889763
 20
8.502952755905511
 30
0.0
 11
5.190944881889763
 21
8.504921259842518
 31
0.0
  0
LINE
  5
3620
330
1E
100
AcDbEntity
  8
7
100
AcDbLine
 10
5.190944881889763
 20
8.504921259842518
 30
0.0
 11
5.190944881889763
 21
8.505905511811024
 31
0.0
  0
LINE
  5
3621
330
1E
100
AcDbEntity
  8
7
100
AcDbLine
 10
5.190944881889763
 20
8.156496062992125
 30
0.0
 11
5.185039370078739
 21
8.146653543307087
 31
0.0
  0
LINE
  5
3622
330
1E
100
AcDbEntity
  8
7
100
AcDbLine
 10
5.185039370078739
 20
8.146653543307087
 30
0.0
 11
5.171259842519684
 21
8.14271653543307
 31
0.0
  0
LINE
  5
3623
330
1E
100
AcDbEntity
  8
7
100
AcDbLine
 10
5.185039370078739
 20
8.505905511811024
 30
0.0
 11
5.189960629921259
 21
8.501968503937007
 31
0.0
  0
LINE
  5
3624
330
1E
100
AcDbEntity
  8
7
100
AcDbLine
 10
5.189960629921259
 20
8.501968503937007
 30
0.0
 11
5.190944881889763
 21
8.496062992125983
 31
0.0
  0
LINE
  5
3625
330
1E
100
AcDbEntity
  8
7
100
AcDbLine
 10
5.190944881889763
 20
8.496062992125983
 30
0.0
 11
5.185039370078739
 21
8.486220472440944
 31
0.0
  0
LINE
  5
3626
330
1E
100
AcDbEntity
  8
7
100
AcDbLine
 10
5.185039370078739
 20
8.486220472440944
 30
0.0
 11
5.171259842519684
 21
8.482283464566929
 31
0.0
  0
LINE
  5
3627
330
1E
100
AcDbEntity
  8
7
100
AcDbLine
 10
5.171259842519684
 20
8.505905511811024
 30
0.0
 11
5.171259842519684
 21
8.493110236220472
 31
0.0
  0
LINE
  5
3628
330
1E
100
AcDbEntity
  8
7
100
AcDbLine
 10
5.171259842519684
 20
8.493110236220472
 30
0.0
 11
5.171259842519684
 21
8.482283464566929
 31
0.0
  0
LINE
  5
3629
330
1E
100
AcDbEntity
  8
7
100
AcDbLine
 10
4.376968503937007
 20
8.457677165354329
 30
0.0
 11
4.382874015748031
 21
8.478346456692912
 31
0.0
  0
LINE
  5
362A
330
1E
100
AcDbEntity
  8
7
100
AcDbLine
 10
4.382874015748031
 20
8.478346456692912
 30
0.0
 11
4.398622047244094
 21
8.495078740157479
 31
0.0
  0
LINE
  5
362B
330
1E
100
AcDbEntity
  8
7
100
AcDbLine
 10
4.398622047244094
 20
8.495078740157479
 30
0.0
 11
4.423228346456692
 21
8.505905511811024
 31
0.0
  0
LINE
  5
362C
330
1E
100
AcDbEntity
  8
7
100
AcDbLine
 10
4.423228346456692
 20
8.505905511811024
 30
0.0
 11
4.451771653543306
 21
8.509842519685038
 31
0.0
  0
LINE
  5
362D
330
1E
100
AcDbEntity
  8
7
100
AcDbLine
 10
4.451771653543306
 20
8.509842519685038
 30
0.0
 11
4.451771653543306
 21
8.496062992125983
 31
0.0
  0
LINE
  5
362E
330
1E
100
AcDbEntity
  8
7
100
AcDbLine
 10
4.451771653543306
 20
8.496062992125983
 30
0.0
 11
4.451771653543306
 21
8.482283464566929
 31
0.0
  0
LINE
  5
362F
330
1E
100
AcDbEntity
  8
7
100
AcDbLine
 10
4.451771653543306
 20
8.398622047244094
 30
0.0
 11
4.451771653543306
 21
8.399606299212598
 31
0.0
  0
LINE
  5
3630
330
1E
100
AcDbEntity
  8
7
100
AcDbLine
 10
4.451771653543306
 20
8.399606299212598
 30
0.0
 11
4.451771653543306
 21
8.404527559055118
 31
0.0
  0
LINE
  5
3631
330
1E
100
AcDbEntity
  8
7
100
AcDbLine
 10
4.502952755905511
 20
8.398622047244094
 30
0.0
 11
4.502952755905511
 21
8.399606299212598
 31
0.0
  0
LINE
  5
3632
330
1E
100
AcDbEntity
  8
7
100
AcDbLine
 10
4.502952755905511
 20
8.399606299212598
 30
0.0
 11
4.502952755905511
 21
8.404527559055118
 31
0.0
  0
LINE
  5
3633
330
1E
100
AcDbEntity
  8
7
100
AcDbLine
 10
4.533464566929133
 20
8.382874015748031
 30
0.0
 11
4.539370078740157
 21
8.373031496062992
 31
0.0
  0
LINE
  5
3634
330
1E
100
AcDbEntity
  8
7
100
AcDbLine
 10
4.539370078740157
 20
8.373031496062992
 30
0.0
 11
4.553149606299212
 21
8.369094488188975
 31
0.0
  0
LINE
  5
3635
330
1E
100
AcDbEntity
  8
7
100
AcDbLine
 10
4.546259842519684
 20
8.386811023622046
 30
0.0
 11
4.553149606299212
 21
8.369094488188975
 31
0.0
  0
LINE
  5
3636
330
1E
100
AcDbEntity
  8
7
100
AcDbLine
 10
4.553149606299212
 20
8.369094488188975
 30
0.0
 11
4.553149606299212
 21
8.136811023622046
 31
0.0
  0
LINE
  5
3637
330
1E
100
AcDbEntity
  8
7
100
AcDbLine
 10
5.171259842519684
 20
8.14271653543307
 30
0.0
 11
5.171259842519684
 21
8.482283464566929
 31
0.0
  0
LINE
  5
3638
330
1E
100
AcDbEntity
  8
7
100
AcDbLine
 10
5.171259842519684
 20
8.482283464566929
 30
0.0
 11
4.451771653543306
 21
8.482283464566929
 31
0.0
  0
LINE
  5
3639
330
1E
100
AcDbEntity
  8
7
100
AcDbLine
 10
4.451771653543306
 20
8.482283464566929
 30
0.0
 11
4.43011811023622
 21
8.479330708661416
 31
0.0
  0
LINE
  5
363A
330
1E
100
AcDbEntity
  8
7
100
AcDbLine
 10
4.43011811023622
 20
8.479330708661416
 30
0.0
 11
4.412401574803149
 21
8.470472440944881
 31
0.0
  0
LINE
  5
363B
330
1E
100
AcDbEntity
  8
7
100
AcDbLine
 10
4.412401574803149
 20
8.470472440944881
 30
0.0
 11
4.400590551181101
 21
8.457677165354329
 31
0.0
  0
LINE
  5
363C
330
1E
100
AcDbEntity
  8
7
100
AcDbLine
 10
4.400590551181101
 20
8.457677165354329
 30
0.0
 11
4.396653543307086
 21
8.44291338582677
 31
0.0
  0
LINE
  5
363D
330
1E
100
AcDbEntity
  8
7
100
AcDbLine
 10
4.396653543307086
 20
8.44291338582677
 30
0.0
 11
4.400590551181101
 21
8.428149606299212
 31
0.0
  0
LINE
  5
363E
330
1E
100
AcDbEntity
  8
7
100
AcDbLine
 10
4.400590551181101
 20
8.428149606299212
 30
0.0
 11
4.412401574803149
 21
8.415354330708661
 31
0.0
  0
LINE
  5
363F
330
1E
100
AcDbEntity
  8
7
100
AcDbLine
 10
4.412401574803149
 20
8.415354330708661
 30
0.0
 11
4.43011811023622
 21
8.407480314960629
 31
0.0
  0
LINE
  5
3640
330
1E
100
AcDbEntity
  8
7
100
AcDbLine
 10
4.43011811023622
 20
8.407480314960629
 30
0.0
 11
4.451771653543306
 21
8.404527559055118
 31
0.0
  0
LINE
  5
3641
330
1E
100
AcDbEntity
  8
7
100
AcDbLine
 10
4.451771653543306
 20
8.404527559055118
 30
0.0
 11
4.502952755905511
 21
8.404527559055118
 31
0.0
  0
LINE
  5
3642
330
1E
100
AcDbEntity
  8
7
100
AcDbLine
 10
4.502952755905511
 20
8.404527559055118
 30
0.0
 11
4.528543307086613
 21
8.399606299212598
 31
0.0
  0
LINE
  5
3643
330
1E
100
AcDbEntity
  8
7
100
AcDbLine
 10
4.528543307086613
 20
8.399606299212598
 30
0.0
 11
4.546259842519684
 21
8.386811023622046
 31
0.0
  0
LINE
  5
3644
330
1E
100
AcDbEntity
  8
7
100
AcDbLine
 10
5.116141732283463
 20
8.14271653543307
 30
0.0
 11
5.111220472440944
 21
8.140748031496062
 31
0.0
  0
LINE
  5
3645
330
1E
100
AcDbEntity
  8
7
100
AcDbLine
 10
5.111220472440944
 20
8.140748031496062
 30
0.0
 11
5.108267716535432
 21
8.136811023622046
 31
0.0
  0
LINE
  5
3646
330
1E
100
AcDbEntity
  8
7
100
AcDbLine
 10
5.059055118110236
 20
8.122047244094487
 30
0.0
 11
5.059055118110236
 21
8.129921259842518
 31
0.0
  0
LINE
  5
3647
330
1E
100
AcDbEntity
  8
7
100
AcDbLine
 10
5.059055118110236
 20
8.129921259842518
 30
0.0
 11
5.059055118110236
 21
8.136811023622046
 31
0.0
  0
LINE
  5
3648
330
1E
100
AcDbEntity
  8
7
100
AcDbLine
 10
5.059055118110236
 20
8.136811023622046
 30
0.0
 11
5.108267716535432
 21
8.136811023622046
 31
0.0
  0
LINE
  5
3649
330
1E
100
AcDbEntity
  8
7
100
AcDbLine
 10
5.059055118110236
 20
8.122047244094487
 30
0.0
 11
5.059055118110236
 21
8.099409448818898
 31
0.0
  0
LINE
  5
364A
330
1E
100
AcDbEntity
  8
7
100
AcDbLine
 10
5.059055118110236
 20
8.099409448818898
 30
0.0
 11
5.059055118110236
 21
8.082677165354329
 31
0.0
  0
LINE
  5
364B
330
1E
100
AcDbEntity
  8
7
100
AcDbLine
 10
5.059055118110236
 20
8.082677165354329
 30
0.0
 11
5.059055118110236
 21
8.076771653543307
 31
0.0
  0
LINE
  5
364C
330
1E
100
AcDbEntity
  8
7
100
AcDbLine
 10
4.523622047244094
 20
8.097440944881888
 30
0.0
 11
4.526574803149605
 21
8.102362204724409
 31
0.0
  0
LINE
  5
364D
330
1E
100
AcDbEntity
  8
7
100
AcDbLine
 10
4.526574803149605
 20
8.102362204724409
 30
0.0
 11
4.524606299212598
 21
8.106299212598424
 31
0.0
  0
LINE
  5
364E
330
1E
100
AcDbEntity
  8
7
100
AcDbLine
 10
4.553149606299212
 20
8.136811023622046
 30
0.0
 11
4.539370078740157
 21
8.140748031496062
 31
0.0
  0
LINE
  5
364F
330
1E
100
AcDbEntity
  8
7
100
AcDbLine
 10
4.539370078740157
 20
8.140748031496062
 30
0.0
 11
4.533464566929133
 21
8.150590551181101
 31
0.0
  0
LINE
  5
3650
330
1E
100
AcDbEntity
  8
7
100
AcDbLine
 10
4.553149606299212
 20
8.136811023622046
 30
0.0
 11
4.553149606299212
 21
8.129921259842518
 31
0.0
  0
LINE
  5
3651
330
1E
100
AcDbEntity
  8
7
100
AcDbLine
 10
4.553149606299212
 20
8.129921259842518
 30
0.0
 11
4.553149606299212
 21
8.122047244094487
 31
0.0
  0
LINE
  5
3652
330
1E
100
AcDbEntity
  8
7
100
AcDbLine
 10
4.537401574803149
 20
8.122047244094487
 30
0.0
 11
4.537401574803149
 21
8.123031496062992
 31
0.0
  0
LINE
  5
3653
330
1E
100
AcDbEntity
  8
7
100
AcDbLine
 10
4.537401574803149
 20
8.123031496062992
 30
0.0
 11
4.538385826771652
 21
8.126968503937007
 31
0.0
  0
LINE
  5
3654
330
1E
100
AcDbEntity
  8
7
100
AcDbLine
 10
4.538385826771652
 20
8.126968503937007
 30
0.0
 11
4.538385826771652
 21
8.131889763779527
 31
0.0
  0
LINE
  5
3655
330
1E
100
AcDbEntity
  8
7
100
AcDbLine
 10
4.538385826771652
 20
8.131889763779527
 30
0.0
 11
4.535433070866141
 21
8.139763779527559
 31
0.0
  0
LINE
  5
3656
330
1E
100
AcDbEntity
  8
7
100
AcDbLine
 10
4.535433070866141
 20
8.139763779527559
 30
0.0
 11
4.533464566929133
 21
8.146653543307087
 31
0.0
  0
LINE
  5
3657
330
1E
100
AcDbEntity
  8
7
100
AcDbLine
 10
4.533464566929133
 20
8.146653543307087
 30
0.0
 11
4.533464566929133
 21
8.149606299212598
 31
0.0
  0
LINE
  5
3658
330
1E
100
AcDbEntity
  8
7
100
AcDbLine
 10
4.537401574803149
 20
8.122047244094487
 30
0.0
 11
4.544291338582676
 21
8.122047244094487
 31
0.0
  0
LINE
  5
3659
330
1E
100
AcDbEntity
  8
7
100
AcDbLine
 10
4.544291338582676
 20
8.122047244094487
 30
0.0
 11
4.553149606299212
 21
8.122047244094487
 31
0.0
  0
LINE
  5
365A
330
1E
100
AcDbEntity
  8
7
100
AcDbLine
 10
4.553149606299212
 20
8.122047244094487
 30
0.0
 11
4.553149606299212
 21
8.099409448818898
 31
0.0
  0
LINE
  5
365B
330
1E
100
AcDbEntity
  8
7
100
AcDbLine
 10
4.553149606299212
 20
8.099409448818898
 30
0.0
 11
4.553149606299212
 21
8.082677165354329
 31
0.0
  0
LINE
  5
365C
330
1E
100
AcDbEntity
  8
7
100
AcDbLine
 10
4.553149606299212
 20
8.082677165354329
 30
0.0
 11
4.553149606299212
 21
8.076771653543307
 31
0.0
  0
LINE
  5
365D
330
1E
100
AcDbEntity
  8
7
100
AcDbLine
 10
4.537401574803149
 20
8.084645669291338
 30
0.0
 11
4.535433070866141
 21
8.08759842519685
 31
0.0
  0
LINE
  5
365E
330
1E
100
AcDbEntity
  8
7
100
AcDbLine
 10
4.535433070866141
 20
8.08759842519685
 30
0.0
 11
4.534448818897637
 21
8.089566929133857
 31
0.0
  0
LINE
  5
365F
330
1E
100
AcDbEntity
  8
7
100
AcDbLine
 10
4.534448818897637
 20
8.089566929133857
 30
0.0
 11
4.533464566929133
 21
8.099409448818898
 31
0.0
  0
LINE
  5
3660
330
1E
100
AcDbEntity
  8
7
100
AcDbLine
 10
4.533464566929133
 20
8.099409448818898
 30
0.0
 11
4.533464566929133
 21
8.102362204724409
 31
0.0
  0
LINE
  5
3661
330
1E
100
AcDbEntity
  8
7
100
AcDbLine
 10
4.533464566929133
 20
8.102362204724409
 30
0.0
 11
4.534448818897637
 21
8.113188976377951
 31
0.0
  0
LINE
  5
3662
330
1E
100
AcDbEntity
  8
7
100
AcDbLine
 10
4.534448818897637
 20
8.113188976377951
 30
0.0
 11
4.534448818897637
 21
8.114173228346455
 31
0.0
  0
LINE
  5
3663
330
1E
100
AcDbEntity
  8
7
100
AcDbLine
 10
4.534448818897637
 20
8.114173228346455
 30
0.0
 11
4.536417322834645
 21
8.121062992125983
 31
0.0
  0
LINE
  5
3664
330
1E
100
AcDbEntity
  8
7
100
AcDbLine
 10
4.536417322834645
 20
8.121062992125983
 30
0.0
 11
4.537401574803149
 21
8.122047244094487
 31
0.0
  0
LINE
  5
3665
330
1E
100
AcDbEntity
  8
7
100
AcDbLine
 10
4.58267716535433
 20
8.122047244094487
 30
0.0
 11
4.58267716535433
 21
8.099409448818898
 31
0.0
  0
LINE
  5
3666
330
1E
100
AcDbEntity
  8
7
100
AcDbLine
 10
4.58267716535433
 20
8.099409448818898
 30
0.0
 11
4.58267716535433
 21
8.082677165354329
 31
0.0
  0
LINE
  5
3667
330
1E
100
AcDbEntity
  8
7
100
AcDbLine
 10
4.58267716535433
 20
8.082677165354329
 30
0.0
 11
4.58267716535433
 21
8.076771653543307
 31
0.0
  0
LINE
  5
3668
330
1E
100
AcDbEntity
  8
7
100
AcDbLine
 10
4.58267716535433
 20
8.122047244094487
 30
0.0
 11
4.58267716535433
 21
8.129921259842518
 31
0.0
  0
LINE
  5
3669
330
1E
100
AcDbEntity
  8
7
100
AcDbLine
 10
4.58267716535433
 20
8.129921259842518
 30
0.0
 11
4.58267716535433
 21
8.136811023622046
 31
0.0
  0
LINE
  5
366A
330
1E
100
AcDbEntity
  8
7
100
AcDbLine
 10
4.543307086614173
 20
8.327755905511811
 30
0.0
 11
4.535433070866141
 21
8.31791338582677
 31
0.0
  0
LINE
  5
366B
330
1E
100
AcDbEntity
  8
7
100
AcDbLine
 10
4.535433070866141
 20
8.31791338582677
 30
0.0
 11
4.533464566929133
 21
8.309055118110235
 31
0.0
  0
LINE
  5
366C
330
1E
100
AcDbEntity
  8
7
100
AcDbLine
 10
4.533464566929133
 20
8.302165354330707
 30
0.0
 11
4.535433070866141
 21
8.296259842519685
 31
0.0
  0
LINE
  5
366D
330
1E
100
AcDbEntity
  8
7
100
AcDbLine
 10
4.535433070866141
 20
8.296259842519685
 30
0.0
 11
4.543307086614173
 21
8.296259842519685
 31
0.0
  0
LINE
  5
366E
330
1E
100
AcDbEntity
  8
7
100
AcDbLine
 10
5.108267716535432
 20
8.122047244094487
 30
0.0
 11
5.108267716535432
 21
8.099409448818898
 31
0.0
  0
LINE
  5
366F
330
1E
100
AcDbEntity
  8
7
100
AcDbLine
 10
5.108267716535432
 20
8.099409448818898
 30
0.0
 11
5.108267716535432
 21
8.082677165354329
 31
0.0
  0
LINE
  5
3670
330
1E
100
AcDbEntity
  8
7
100
AcDbLine
 10
5.108267716535432
 20
8.122047244094487
 30
0.0
 11
5.108267716535432
 21
8.129921259842518
 31
0.0
  0
LINE
  5
3671
330
1E
100
AcDbEntity
  8
7
100
AcDbLine
 10
5.108267716535432
 20
8.129921259842518
 30
0.0
 11
5.108267716535432
 21
8.136811023622046
 31
0.0
  0
LINE
  5
3672
330
1E
100
AcDbEntity
  8
7
100
AcDbLine
 10
4.506889763779526
 20
8.398622047244094
 30
0.0
 11
4.513779527559054
 21
8.39763779527559
 31
0.0
  0
LINE
  5
3673
330
1E
100
AcDbEntity
  8
7
100
AcDbLine
 10
4.513779527559054
 20
8.39763779527559
 30
0.0
 11
4.520669291338582
 21
8.394685039370077
 31
0.0
  0
LINE
  5
3674
330
1E
100
AcDbEntity
  8
7
100
AcDbLine
 10
4.520669291338582
 20
8.394685039370077
 30
0.0
 11
4.525590551181101
 21
8.39271653543307
 31
0.0
  0
LINE
  5
3675
330
1E
100
AcDbEntity
  8
7
100
AcDbLine
 10
4.525590551181101
 20
8.39271653543307
 30
0.0
 11
4.529527559055117
 21
8.389763779527559
 31
0.0
  0
LINE
  5
3676
330
1E
100
AcDbEntity
  8
7
100
AcDbLine
 10
4.529527559055117
 20
8.389763779527559
 30
0.0
 11
4.531496062992125
 21
8.386811023622046
 31
0.0
  0
LINE
  5
3677
330
1E
100
AcDbEntity
  8
7
100
AcDbLine
 10
4.531496062992125
 20
8.386811023622046
 30
0.0
 11
4.532480314960629
 21
8.384842519685038
 31
0.0
  0
LINE
  5
3678
330
1E
100
AcDbEntity
  8
7
100
AcDbLine
 10
4.532480314960629
 20
8.384842519685038
 30
0.0
 11
4.533464566929133
 21
8.382874015748031
 31
0.0
  0
LINE
  5
3679
330
1E
100
AcDbEntity
  8
7
100
AcDbLine
 10
4.446850393700787
 20
8.523622047244094
 30
0.0
 11
4.444881889763779
 21
8.52263779527559
 31
0.0
  0
LINE
  5
367A
330
1E
100
AcDbEntity
  8
7
100
AcDbLine
 10
4.444881889763779
 20
8.52263779527559
 30
0.0
 11
4.433070866141731
 21
8.521653543307087
 31
0.0
  0
LINE
  5
367B
330
1E
100
AcDbEntity
  8
7
100
AcDbLine
 10
4.433070866141731
 20
8.521653543307087
 30
0.0
 11
4.421259842519684
 21
8.518700787401574
 31
0.0
  0
LINE
  5
367C
330
1E
100
AcDbEntity
  8
7
100
AcDbLine
 10
4.421259842519684
 20
8.518700787401574
 30
0.0
 11
4.410433070866141
 21
8.513779527559055
 31
0.0
  0
LINE
  5
367D
330
1E
100
AcDbEntity
  8
7
100
AcDbLine
 10
4.410433070866141
 20
8.513779527559055
 30
0.0
 11
4.400590551181101
 21
8.507874015748031
 31
0.0
  0
LINE
  5
367E
330
1E
100
AcDbEntity
  8
7
100
AcDbLine
 10
4.400590551181101
 20
8.507874015748031
 30
0.0
 11
4.391732283464566
 21
8.5
 31
0.0
  0
LINE
  5
367F
330
1E
100
AcDbEntity
  8
7
100
AcDbLine
 10
4.391732283464566
 20
8.5
 30
0.0
 11
4.384842519685038
 21
8.491141732283464
 31
0.0
  0
LINE
  5
3680
330
1E
100
AcDbEntity
  8
7
100
AcDbLine
 10
4.384842519685038
 20
8.491141732283464
 30
0.0
 11
4.379921259842519
 21
8.482283464566929
 31
0.0
  0
LINE
  5
3681
330
1E
100
AcDbEntity
  8
7
100
AcDbLine
 10
4.379921259842519
 20
8.482283464566929
 30
0.0
 11
4.376968503937007
 21
8.472440944881888
 31
0.0
  0
LINE
  5
3682
330
1E
100
AcDbEntity
  8
7
100
AcDbLine
 10
4.376968503937007
 20
8.472440944881888
 30
0.0
 11
4.376968503937007
 21
8.464566929133857
 31
0.0
  0
LINE
  5
3683
330
1E
100
AcDbEntity
  8
7
100
AcDbLine
 10
4.376968503937007
 20
8.458661417322835
 30
0.0
 11
4.376968503937007
 21
8.455708661417322
 31
0.0
  0
LINE
  5
3684
330
1E
100
AcDbEntity
  8
7
100
AcDbLine
 10
4.376968503937007
 20
8.455708661417322
 30
0.0
 11
4.377952755905511
 21
8.445866141732283
 31
0.0
  0
LINE
  5
3685
330
1E
100
AcDbEntity
  8
7
100
AcDbLine
 10
4.377952755905511
 20
8.445866141732283
 30
0.0
 11
4.380905511811023
 21
8.437007874015748
 31
0.0
  0
LINE
  5
3686
330
1E
100
AcDbEntity
  8
7
100
AcDbLine
 10
4.380905511811023
 20
8.437007874015748
 30
0.0
 11
4.385826771653542
 21
8.428149606299212
 31
0.0
  0
LINE
  5
3687
330
1E
100
AcDbEntity
  8
7
100
AcDbLine
 10
4.385826771653542
 20
8.428149606299212
 30
0.0
 11
4.39271653543307
 21
8.420275590551181
 31
0.0
  0
LINE
  5
3688
330
1E
100
AcDbEntity
  8
7
100
AcDbLine
 10
4.39271653543307
 20
8.420275590551181
 30
0.0
 11
4.400590551181101
 21
8.413385826771653
 31
0.0
  0
LINE
  5
3689
330
1E
100
AcDbEntity
  8
7
100
AcDbLine
 10
4.400590551181101
 20
8.413385826771653
 30
0.0
 11
4.410433070866141
 21
8.408464566929133
 31
0.0
  0
LINE
  5
368A
330
1E
100
AcDbEntity
  8
7
100
AcDbLine
 10
4.410433070866141
 20
8.408464566929133
 30
0.0
 11
4.421259842519684
 21
8.403543307086613
 31
0.0
  0
LINE
  5
368B
330
1E
100
AcDbEntity
  8
7
100
AcDbLine
 10
4.421259842519684
 20
8.403543307086613
 30
0.0
 11
4.432086614173227
 21
8.400590551181101
 31
0.0
  0
LINE
  5
368C
330
1E
100
AcDbEntity
  8
7
100
AcDbLine
 10
4.432086614173227
 20
8.400590551181101
 30
0.0
 11
4.444881889763779
 21
8.398622047244094
 31
0.0
  0
LINE
  5
368D
330
1E
100
AcDbEntity
  8
7
100
AcDbLine
 10
4.423228346456692
 20
8.545275590551181
 30
0.0
 11
4.437007874015748
 21
8.529527559055118
 31
0.0
  0
LINE
  5
368E
330
1E
100
AcDbEntity
  8
7
100
AcDbLine
 10
4.437007874015748
 20
8.529527559055118
 30
0.0
 11
4.45767716535433
 21
8.516732283464566
 31
0.0
  0
LINE
  5
368F
330
1E
100
AcDbEntity
  8
7
100
AcDbLine
 10
4.45767716535433
 20
8.516732283464566
 30
0.0
 11
4.481299212598425
 21
8.508858267716535
 31
0.0
  0
LINE
  5
3690
330
1E
100
AcDbEntity
  8
7
100
AcDbLine
 10
4.481299212598425
 20
8.508858267716535
 30
0.0
 11
4.506889763779526
 21
8.505905511811024
 31
0.0
  0
LINE
  5
3691
330
1E
100
AcDbEntity
  8
7
100
AcDbLine
 10
4.537401574803149
 20
8.084645669291338
 30
0.0
 11
4.544291338582676
 21
8.078740157480314
 31
0.0
  0
LINE
  5
3692
330
1E
100
AcDbEntity
  8
7
100
AcDbLine
 10
4.544291338582676
 20
8.078740157480314
 30
0.0
 11
4.553149606299212
 21
8.076771653543307
 31
0.0
  0
LINE
  5
3693
330
1E
100
AcDbEntity
  8
7
100
AcDbLine
 10
5.190944881889763
 20
8.502952755905511
 30
0.0
 11
5.190944881889763
 21
8.503937007874014
 31
0.0
  0
LINE
  5
3694
330
1E
100
AcDbEntity
  8
7
100
AcDbLine
 10
5.190944881889763
 20
8.503937007874014
 30
0.0
 11
5.190944881889763
 21
8.505905511811024
 31
0.0
  0
LINE
  5
3695
330
1E
100
AcDbEntity
  8
7
100
AcDbLine
 10
5.108267716535432
 20
8.096456692913385
 30
0.0
 11
5.111220472440944
 21
8.094488188976377
 31
0.0
  0
LINE
  5
3696
330
1E
100
AcDbEntity
  8
7
100
AcDbLine
 10
5.111220472440944
 20
8.094488188976377
 30
0.0
 11
5.113188976377952
 21
8.093503937007874
 31
0.0
  0
LINE
  5
3697
330
1E
100
AcDbEntity
  8
7
100
AcDbLine
 10
7.673228346456691
 20
6.941929133858267
 30
0.0
 11
7.653543307086613
 21
6.961614173228346
 31
0.0
  0
LINE
  5
3698
330
1E
100
AcDbEntity
  8
7
100
AcDbLine
 10
7.653543307086613
 20
6.961614173228346
 30
0.0
 11
7.635826771653543
 21
6.979330708661416
 31
0.0
  0
LINE
  5
3699
330
1E
100
AcDbEntity
  8
7
100
AcDbLine
 10
7.635826771653543
 20
6.979330708661416
 30
0.0
 11
7.622047244094487
 21
6.993110236220472
 31
0.0
  0
LINE
  5
369A
330
1E
100
AcDbEntity
  8
7
100
AcDbLine
 10
7.622047244094487
 20
6.993110236220472
 30
0.0
 11
7.613188976377952
 21
7.002952755905511
 31
0.0
  0
LINE
  5
369B
330
1E
100
AcDbEntity
  8
7
100
AcDbLine
 10
7.673228346456691
 20
6.941929133858267
 30
0.0
 11
7.693897637795275
 21
6.96259842519685
 31
0.0
  0
LINE
  5
369C
330
1E
100
AcDbEntity
  8
7
100
AcDbLine
 10
7.693897637795275
 20
6.96259842519685
 30
0.0
 11
7.711614173228345
 21
6.981299212598425
 31
0.0
  0
LINE
  5
369D
330
1E
100
AcDbEntity
  8
7
100
AcDbLine
 10
7.711614173228345
 20
6.981299212598425
 30
0.0
 11
7.726377952755904
 21
6.995078740157479
 31
0.0
  0
LINE
  5
369E
330
1E
100
AcDbEntity
  8
7
100
AcDbLine
 10
7.726377952755904
 20
6.995078740157479
 30
0.0
 11
7.736220472440945
 21
7.003937007874015
 31
0.0
  0
LINE
  5
369F
330
1E
100
AcDbEntity
  8
7
100
AcDbLine
 10
7.736220472440945
 20
7.003937007874015
 30
0.0
 11
7.74015748031496
 21
7.006889763779526
 31
0.0
  0
LINE
  5
36A0
330
1E
100
AcDbEntity
  8
7
100
AcDbLine
 10
7.330708661417322
 20
6.619094488188975
 30
0.0
 11
7.315944881889762
 21
6.624015748031495
 31
0.0
  0
LINE
  5
36A1
330
1E
100
AcDbEntity
  8
7
100
AcDbLine
 10
7.315944881889762
 20
6.624015748031495
 30
0.0
 11
7.302165354330708
 21
6.626968503937007
 31
0.0
  0
LINE
  5
36A2
330
1E
100
AcDbEntity
  8
7
100
AcDbLine
 10
7.302165354330708
 20
6.626968503937007
 30
0.0
 11
7.288385826771652
 21
6.628937007874015
 31
0.0
  0
LINE
  5
36A3
330
1E
100
AcDbEntity
  8
7
100
AcDbLine
 10
7.174212598425196
 20
6.628937007874015
 30
0.0
 11
7.174212598425196
 21
6.624015748031495
 31
0.0
  0
LINE
  5
36A4
330
1E
100
AcDbEntity
  8
7
100
AcDbLine
 10
7.174212598425196
 20
6.624015748031495
 30
0.0
 11
7.174212598425196
 21
6.613188976377952
 31
0.0
  0
LINE
  5
36A5
330
1E
100
AcDbEntity
  8
7
100
AcDbLine
 10
7.105314960629921
 20
6.6003937007874
 30
0.0
 11
7.108267716535432
 21
6.597440944881889
 31
0.0
  0
LINE
  5
36A6
330
1E
100
AcDbEntity
  8
7
100
AcDbLine
 10
7.108267716535432
 20
6.597440944881889
 30
0.0
 11
7.116141732283463
 21
6.589566929133858
 31
0.0
  0
LINE
  5
36A7
330
1E
100
AcDbEntity
  8
7
100
AcDbLine
 10
7.79035433070866
 20
6.092519685039369
 30
0.0
 11
7.483267716535432
 21
6.092519685039369
 31
0.0
  0
LINE
  5
36A8
330
1E
100
AcDbEntity
  8
7
100
AcDbLine
 10
7.483267716535432
 20
6.092519685039369
 30
0.0
 11
7.484251968503936
 21
6.073818897637795
 31
0.0
  0
LINE
  5
36A9
330
1E
100
AcDbEntity
  8
7
100
AcDbLine
 10
6.969488188976377
 20
6.463582677165353
 30
0.0
 11
7.105314960629921
 21
6.6003937007874
 31
0.0
  0
LINE
  5
36AA
330
1E
100
AcDbEntity
  8
7
100
AcDbLine
 10
7.105314960629921
 20
6.6003937007874
 30
0.0
 11
7.125984251968503
 21
6.61515748031496
 31
0.0
  0
LINE
  5
36AB
330
1E
100
AcDbEntity
  8
7
100
AcDbLine
 10
7.125984251968503
 20
6.61515748031496
 30
0.0
 11
7.149606299212598
 21
6.625
 31
0.0
  0
LINE
  5
36AC
330
1E
100
AcDbEntity
  8
7
100
AcDbLine
 10
7.149606299212598
 20
6.625
 30
0.0
 11
7.174212598425196
 21
6.628937007874015
 31
0.0
  0
LINE
  5
36AD
330
1E
100
AcDbEntity
  8
7
100
AcDbLine
 10
7.174212598425196
 20
6.628937007874015
 30
0.0
 11
7.288385826771652
 21
6.628937007874015
 31
0.0
  0
LINE
  5
36AE
330
1E
100
AcDbEntity
  8
7
100
AcDbLine
 10
7.673228346456691
 20
6.941929133858267
 30
0.0
 11
7.344488188976377
 21
6.613188976377952
 31
0.0
  0
LINE
  5
36AF
330
1E
100
AcDbEntity
  8
7
100
AcDbLine
 10
7.344488188976377
 20
6.613188976377952
 30
0.0
 11
7.174212598425196
 21
6.613188976377952
 31
0.0
  0
LINE
  5
36B0
330
1E
100
AcDbEntity
  8
7
100
AcDbLine
 10
7.174212598425196
 20
6.613188976377952
 30
0.0
 11
7.15255905511811
 21
6.61023622047244
 31
0.0
  0
LINE
  5
36B1
330
1E
100
AcDbEntity
  8
7
100
AcDbLine
 10
7.15255905511811
 20
6.61023622047244
 30
0.0
 11
7.132874015748031
 21
6.602362204724409
 31
0.0
  0
LINE
  5
36B2
330
1E
100
AcDbEntity
  8
7
100
AcDbLine
 10
7.132874015748031
 20
6.602362204724409
 30
0.0
 11
7.116141732283463
 21
6.589566929133858
 31
0.0
  0
LINE
  5
36B3
330
1E
100
AcDbEntity
  8
7
100
AcDbLine
 10
7.116141732283463
 20
6.589566929133858
 30
0.0
 11
6.988188976377952
 21
6.461614173228346
 31
0.0
  0
LINE
  5
36B4
330
1E
100
AcDbEntity
  8
7
100
AcDbLine
 10
7.739173228346456
 20
7.006889763779526
 30
0.0
 11
7.716535433070865
 21
7.022637795275589
 31
0.0
  0
LINE
  5
36B5
330
1E
100
AcDbEntity
  8
7
100
AcDbLine
 10
7.716535433070865
 20
7.022637795275589
 30
0.0
 11
7.688976377952754
 21
7.031496062992125
 31
0.0
  0
LINE
  5
36B6
330
1E
100
AcDbEntity
  8
7
100
AcDbLine
 10
7.688976377952754
 20
7.031496062992125
 30
0.0
 11
7.660433070866141
 21
7.031496062992125
 31
0.0
  0
LINE
  5
36B7
330
1E
100
AcDbEntity
  8
7
100
AcDbLine
 10
7.660433070866141
 20
7.031496062992125
 30
0.0
 11
7.63287401574803
 21
7.022637795275589
 31
0.0
  0
LINE
  5
36B8
330
1E
100
AcDbEntity
  8
7
100
AcDbLine
 10
7.63287401574803
 20
7.022637795275589
 30
0.0
 11
7.610236220472439
 21
7.004921259842519
 31
0.0
  0
LINE
  5
36B9
330
1E
100
AcDbEntity
  8
7
100
AcDbLine
 10
7.761811023622047
 20
6.174212598425196
 30
0.0
 11
7.751968503937008
 21
6.183070866141732
 31
0.0
  0
LINE
  5
36BA
330
1E
100
AcDbEntity
  8
7
100
AcDbLine
 10
7.751968503937008
 20
6.183070866141732
 30
0.0
 11
7.733267716535432
 21
6.183070866141732
 31
0.0
  0
LINE
  5
36BB
330
1E
100
AcDbEntity
  8
7
100
AcDbLine
 10
7.185039370078739
 20
6.274606299212598
 30
0.0
 11
7.187007874015747
 21
6.270669291338582
 31
0.0
  0
LINE
  5
36BC
330
1E
100
AcDbEntity
  8
7
100
AcDbLine
 10
7.187007874015747
 20
6.270669291338582
 30
0.0
 11
7.19783464566929
 21
6.259842519685038
 31
0.0
  0
LINE
  5
36BD
330
1E
100
AcDbEntity
  8
7
100
AcDbLine
 10
7.19783464566929
 20
6.259842519685038
 30
0.0
 11
7.206692913385826
 21
6.255905511811023
 31
0.0
  0
LINE
  5
36BE
330
1E
100
AcDbEntity
  8
7
100
AcDbLine
 10
7.206692913385826
 20
6.255905511811023
 30
0.0
 11
7.214566929133858
 21
6.253937007874015
 31
0.0
  0
LINE
  5
36BF
330
1E
100
AcDbEntity
  8
7
100
AcDbLine
 10
7.214566929133858
 20
6.253937007874015
 30
0.0
 11
7.2253937007874
 21
6.254921259842519
 31
0.0
  0
LINE
  5
36C0
330
1E
100
AcDbEntity
  8
7
100
AcDbLine
 10
7.2253937007874
 20
6.254921259842519
 30
0.0
 11
7.238188976377952
 21
6.259842519685038
 31
0.0
  0
LINE
  5
36C1
330
1E
100
AcDbEntity
  8
7
100
AcDbLine
 10
7.238188976377952
 20
6.259842519685038
 30
0.0
 11
7.245078740157479
 21
6.264763779527558
 31
0.0
  0
LINE
  5
36C2
330
1E
100
AcDbEntity
  8
7
100
AcDbLine
 10
7.245078740157479
 20
6.264763779527558
 30
0.0
 11
7.25
 21
6.272637795275589
 31
0.0
  0
LINE
  5
36C3
330
1E
100
AcDbEntity
  8
7
100
AcDbLine
 10
7.25
 20
6.272637795275589
 30
0.0
 11
7.250984251968503
 21
6.274606299212598
 31
0.0
  0
LINE
  5
36C4
330
1E
100
AcDbEntity
  8
7
100
AcDbLine
 10
7.237204724409448
 20
6.274606299212598
 30
0.0
 11
7.23523622047244
 21
6.272637795275589
 31
0.0
  0
LINE
  5
36C5
330
1E
100
AcDbEntity
  8
7
100
AcDbLine
 10
7.23523622047244
 20
6.272637795275589
 30
0.0
 11
7.229330708661416
 21
6.268700787401574
 31
0.0
  0
LINE
  5
36C6
330
1E
100
AcDbEntity
  8
7
100
AcDbLine
 10
7.229330708661416
 20
6.268700787401574
 30
0.0
 11
7.223425196850393
 21
6.266732283464566
 31
0.0
  0
LINE
  5
36C7
330
1E
100
AcDbEntity
  8
7
100
AcDbLine
 10
7.223425196850393
 20
6.266732283464566
 30
0.0
 11
7.216535433070865
 21
6.265748031496062
 31
0.0
  0
LINE
  5
36C8
330
1E
100
AcDbEntity
  8
7
100
AcDbLine
 10
7.216535433070865
 20
6.265748031496062
 30
0.0
 11
7.20767716535433
 21
6.26771653543307
 31
0.0
  0
LINE
  5
36C9
330
1E
100
AcDbEntity
  8
7
100
AcDbLine
 10
7.20767716535433
 20
6.26771653543307
 30
0.0
 11
7.20275590551181
 21
6.270669291338582
 31
0.0
  0
LINE
  5
36CA
330
1E
100
AcDbEntity
  8
7
100
AcDbLine
 10
7.20275590551181
 20
6.270669291338582
 30
0.0
 11
7.198818897637794
 21
6.274606299212598
 31
0.0
  0
ENDSEC
  0
SECTION
  2
OBJECTS
  0
DICTIONARY
  5
C
330
0
100
AcDbDictionary
  3
ACAD_GROUP
350
D
  3
ACAD_LAYOUT
350
19
  3
ACAD_MLINESTYLE
350
16
  3
ACAD_PLOTSETTINGS
350
18
1001
ACAD
1000
TREAT_AS_HARD
1070
     0
  0
DICTIONARY
  5
3A10
330
1E
100
AcDbDictionary
  3
ACAD_LAYOUTSELFREF
350
3A11
  0
DICTIONARY
  5
3A0E
330
1A
100
AcDbDictionary
  3
ACAD_LAYOUTSELFREF
350
3A0F
  0
DICTIONARY
  5
D
102
{ACAD_REACTORS
330
C
102
}
330
C
100
AcDbDictionary
1001
ACAD
1000
TREAT_AS_HARD
1070
     0
  0
DICTIONARY
  5
19
102
{ACAD_REACTORS
330
C
102
}
330
C
100
AcDbDictionary
1001
ACAD
1000
TREAT_AS_HARD
1070
     0
  0
DICTIONARY
  5
16
102
{ACAD_REACTORS
330
C
102
}
330
C
100
AcDbDictionary
  3
STANDARD
350
17
1001
ACAD
1000
TREAT_AS_HARD
1070
     0
  0
DICTIONARY
  5
18
102
{ACAD_REACTORS
330
C
102
}
330
C
100
AcDbDictionary
1001
ACAD
1000
TREAT_AS_HARD
1070
     0
  0
XRECORD
  5
3A11
102
{ACAD_REACTORS
330
3A10
102
}
330
3A10
100
AcDbXrecord
340
1E
  0
XRECORD
  5
3A0F
102
{ACAD_REACTORS
330
3A0E
102
}
330
3A0E
100
AcDbXrecord
340
1A
  0
MLINESTYLE
  5
17
102
{ACAD_REACTORS
330
16
102
}
330
16
100
AcDbMlineStyle
  2
STANDARD
 70
     0
  3

 62
   256
 51
90.0
 52
90.0
 71
     2
 49
0.5
 62
   256
  6
BYLAYER
 49
-0.5
 62
   256
  6
BYLAYER
  0
ENDSEC
  0
EOF
