  0
SECTION
  2
HEADER
  9
$ACADVER
  1
AC1015
  9
$ACADMAINTVER
 70
    20
  9
$DWGCODEPAGE
  3
ANSI_1252
  9
$INSBASE
 10
0.0
 20
0.0
 30
0.0
  9
$EXTMIN
 10
-0.5
 20
-0.5
 30
-0.5
  9
$EXTMAX
 10
5.0
 20
5.0
 30
5.0
  9
$LIMMIN
 10
-0.5
 20
-0.5
  9
$LIMMAX
 10
5.0
 20
5.0
  9
$ORTHOMODE
 70
     0
  9
$REGENMODE
 70
     1
  9
$FILLMODE
 70
     1
  9
$QTEXTMODE
 70
     0
  9
$MIRRTEXT
 70
     1
  9
$LTSCALE
 40
1.0
  9
$ATTMODE
 70
     1
  9
$TEXTSIZE
 40
0.0
  9
$TRACEWID
 40
0.05
  9
$TEXTSTYLE
  7
Standard
  9
$CLAYER
  8
0
  9
$CELTYPE
  6
Continuous
  9
$CECOLOR
 62
   256
  9
$CELTSCALE
 40
1.0
  9
$DISPSILH
 70
     0
  9
$DIMSCALE
 40
1.0
  9
$DIMASZ
 40
0.18
  9
$DIMEXO
 40
0.0625
  9
$DIMDLI
 40
0.38
  9
$DIMRND
 40
0.0
  9
$DIMDLE
 40
0.0
  9
$DIMEXE
 40
0.18
  9
$DIMTP
 40
0.0
  9
$DIMTM
 40
0.0
  9
$DIMTXT
 40
0.18
  9
$DIMCEN
 40
0.09
  9
$DIMTSZ
 40
0.0
  9
$DIMTOL
 70
     0
  9
$DIMLIM
 70
     0
  9
$DIMTIH
 70
     1
  9
$DIMTOH
 70
     1
  9
$DIMSE1
 70
     0
  9
$DIMSE2
 70
     0
  9
$DIMTAD
 70
     0
  9
$DIMZIN
 70
     0
  9
$DIMBLK
  1

  9
$DIMASO
 70
     1
  9
$DIMSHO
 70
     1
  9
$DIMPOST
  1

  9
$DIMAPOST
  1

  9
$DIMALT
 70
     0
  9
$DIMALTD
 70
     2
  9
$DIMALTF
 40
25.4
  9
$DIMLFAC
 40
1.0
  9
$DIMTOFL
 70
     0
  9
$DIMTVP
 40
0.0
  9
$DIMTIX
 70
     0
  9
$DIMSOXD
 70
     0
  9
$DIMSAH
 70
     0
  9
$DIMBLK1
  1

  9
$DIMBLK2
  1

  9
$DIMSTYLE
  2
Standard
  9
$DIMCLRD
 70
     0
  9
$DIMCLRE
 70
     0
  9
$DIMCLRT
 70
     0
  9
$DIMTFAC
 40
1.0
  9
$DIMGAP
 40
0.09
  9
$DIMJUST
 70
     0
  9
$DIMSD1
 70
     0
  9
$DIMSD2
 70
     0
  9
$DIMTOLJ
 70
     1
  9
$DIMTZIN
 70
     0
  9
$DIMALTZ
 70
     0
  9
$DIMALTTZ
 70
     0
  9
$DIMUPT
 70
     0
  9
$DIMDEC
 70
     4
  9
$DIMTDEC
 70
     4
  9
$DIMALTU
 70
     2
  9
$DIMALTTD
 70
     2
  9
$DIMTXSTY
  7
Standard
  9
$DIMAUNIT
 70
     0
  9
$DIMADEC
 70
     0
  9
$DIMALTRND
 40
0.0
  9
$DIMAZIN
 70
     0
  9
$DIMDSEP
 70
     0
  9
$DIMATFIT
 70
     3
  9
$DIMFRAC
 70
     0
  9
$DIMLDRBLK
  1

  9
$DIMLUNIT
 70
     2
  9
$DIMLWD
 70
     0
  9
$DIMLWE
 70
     0
  9
$DIMTMOVE
 70
     0
  9
$LUNITS
 70
     2
  9
$LUPREC
 70
     4
  9
$SKETCHINC
 40
0.1
  9
$FILLETRAD
 40
0.0
  9
$AUNITS
 70
     0
  9
$AUPREC
 70
     0
  9
$MENU
  1
acad
  9
$ELEVATION
 40
0.0
  9
$PELEVATION
 40
0.0
  9
$THICKNESS
 40
0.0
  9
$LIMCHECK
 70
     0
  9
$CHAMFERA
 40
0.0
  9
$CHAMFERB
 40
0.0
  9
$CHAMFERC
 40
0.0
  9
$CHAMFERD
 40
0.0
  9
$SKPOLY
 70
     0
  9
$TDCREATE
 40
2455735.559495706
  9
$TDUCREATE
 40
2455735.767829039
  9
$TDUPDATE
 40
2455735.559942570
  9
$TDUUPDATE
 40
2455735.768275903
  9
$TDINDWG
 40
0.0004647685
  9
$TDUSRTIMER
 40
0.0004640394
  9
$USRTIMER
 70
     1
  9
$ANGBASE
 50
0.0
  9
$ANGDIR
 70
     0
  9
$PDMODE
 70
     0
  9
$PDSIZE
 40
0.0
  9
$PLINEWID
 40
0.0
  9
$SPLFRAME
 70
     0
  9
$SPLINETYPE
 70
     6
  9
$SPLINESEGS
 70
     8
  9
$HANDSEED
  5
2C6
  9
$SURFTAB1
 70
     6
  9
$SURFTAB2
 70
     6
  9
$SURFTYPE
 70
     6
  9
$SURFU
 70
     6
  9
$SURFV
 70
     6
  9
$UCSBASE
  2

  9
$UCSNAME
  2

  9
$UCSORG
 10
0.0
 20
0.0
 30
0.0
  9
$UCSXDIR
 10
1.0
 20
0.0
 30
0.0
  9
$UCSYDIR
 10
0.0
 20
1.0
 30
0.0
  9
$UCSORTHOREF
  2

  9
$UCSORTHOVIEW
 70
     0
  9
$UCSORGTOP
 10
0.0
 20
0.0
 30
0.0
  9
$UCSORGBOTTOM
 10
0.0
 20
0.0
 30
0.0
  9
$UCSORGLEFT
 10
0.0
 20
0.0
 30
0.0
  9
$UCSORGRIGHT
 10
0.0
 20
0.0
 30
0.0
  9
$UCSORGFRONT
 10
0.0
 20
0.0
 30
0.0
  9
$UCSORGBACK
 10
0.0
 20
0.0
 30
0.0
  9
$PUCSBASE
  2

  9
$PUCSNAME
  2

  9
$PUCSORG
 10
0.0
 20
0.0
 30
0.0
  9
$PUCSXDIR
 10
1.0
 20
0.0
 30
0.0
  9
$PUCSYDIR
 10
0.0
 20
1.0
 30
0.0
  9
$PUCSORTHOREF
  2

  9
$PUCSORTHOVIEW
 70
     0
  9
$PUCSORGTOP
 10
0.0
 20
0.0
 30
0.0
  9
$PUCSORGBOTTOM
 10
0.0
 20
0.0
 30
0.0
  9
$PUCSORGLEFT
 10
0.0
 20
0.0
 30
0.0
  9
$PUCSORGRIGHT
 10
0.0
 20
0.0
 30
0.0
  9
$PUCSORGFRONT
 10
0.0
 20
0.0
 30
0.0
  9
$PUCSORGBACK
 10
0.0
 20
0.0
 30
0.0
  9
$USERI1
 70
     0
  9
$USERI2
 70
     0
  9
$USERI3
 70
     0
  9
$USERI4
 70
     0
  9
$USERI5
 70
     0
  9
$USERR1
 40
0.0
  9
$USERR2
 40
0.0
  9
$USERR3
 40
0.0
  9
$USERR4
 40
0.0
  9
$USERR5
 40
0.0
  9
$WORLDVIEW
 70
     1
  9
$SHADEDGE
 70
     3
  9
$SHADEDIF
 70
    70
  9
$TILEMODE
 70
     0
  9
$MAXACTVP
 70
    64
  9
$PINSBASE
 10
0.0
 20
0.0
 30
0.0
  9
$PLIMCHECK
 70
     0
  9
$PEXTMIN
 10
1.361450224255033
 20
3.679336573671708
 30
-0.0004043445228632
  9
$PEXTMAX
 10
6.128257772568911
 20
6.828979511196934
 30
0.0000152657740013
  9
$PLIMMIN
 10
1.247954692193926
 20
3.565841152405067
  9
$PLIMMAX
 10
6.241753193835553
 20
7.424685424334974
  9
$UNITMODE
 70
     0
  9
$VISRETAIN
 70
     0
  9
$PLINEGEN
 70
     1
  9
$PSLTSCALE
 70
     0
  9
$TREEDEPTH
 70
  3020
  9
$CMLSTYLE
  2
Standard
  9
$CMLJUST
 70
     0
  9
$CMLSCALE
 40
1.0
  9
$PROXYGRAPHICS
 70
     0
  9
$MEASUREMENT
 70
     0
  9
$CELWEIGHT
370
     0
  9
$ENDCAPS
280
     0
  9
$JOINSTYLE
280
     0
  9
$LWDISPLAY
290
     0
  9
$INSUNITS
 70
     0
  9
$HYPERLINKBASE
  1

  9
$STYLESHEET
  1

  9
$XEDIT
290
     1
  9
$CEPSNTYPE
380
     0
  9
$PSTYLEMODE
290
     1
  9
$FINGERPRINTGUID
  2

  9
$VERSIONGUID
  2
{06D71CD2-C06F-4FC9-81B5-44EA2A6A8DBC}
  9
$EXTNAMES
290
     1
  9
$PSVPSCALE
 40
0.0
  9
$OLESTARTUP
290
     0
  0
ENDSEC
  0
SECTION
  2
CLASSES
  0
CLASS
  1
IMAGE
  2
AcDbRasterImage
  3
ISM
 90
    34943
280
     0
281
     1
  0
CLASS
  1
DICTIONARYVAR
  2
AcDbDictionaryVar
  3
ObjectDBX Classes
 90
        0
280
     0
281
     0
  0
CLASS
  1
RASTERVARIABLES
  2
AcDbRasterVariables
  3
ISM
 90
    32768
280
     0
281
     0
  0
CLASS
  1
IMAGEDEF
  2
AcDbRasterImageDef
  3
ISM
 90
    32768
280
     0
281
     0
  0
CLASS
  1
IMAGEDEF_REACTOR
  2
AcDbRasterImageDefReactor
  3
ISM
 90
    32769
280
     0
281
     0
  0
CLASS
  1
IDBUFFER
  2
AcDbIdBuffer
  3
ObjectDBX Classes
 90
    32768
280
     0
281
     0
  0
CLASS
  1
SPATIAL_FILTER
  2
AcDbSpatialFilter
  3
ObjectDBX Classes
 90
    32768
280
     0
281
     0
  0
CLASS
  1
SORTENTSTABLE
  2
AcDbSortentsTable
  3
ObjectDBX Classes
 90
    32768
280
     0
281
     0
  0
CLASS
  1
LAYER_INDEX
  2
AcDbLayerIndex
  3
ObjectDBX Classes
 90
    32768
280
     0
281
     0
  0
CLASS
  1
SPATIAL_INDEX
  2
AcDbSpatialIndex
  3
ObjectDBX Classes
 90
    32768
280
     0
281
     0
  0
CLASS
  1
OBJECT_PTR
  2
CAseDLPNTableRecord
  3
ASE-LPNTableRecord
 90
    32769
280
     0
281
     0
  0
CLASS
  1
LAYOUT
  2
AcDbLayout
  3
ObjectDBX Classes
 90
        0
280
     0
281
     0
  0
CLASS
  1
PLOTSETTINGS
  2
AcDbPlotSettings
  3
ObjectDBX Classes
 90
    32768
280
     0
281
     0
  0
CLASS
  1
ACDBDICTIONARYWDFLT
  2
AcDbDictionaryWithDefault
  3
ObjectDBX Classes
 90
        0
280
     0
281
     0
  0
CLASS
  1
ACDBPLACEHOLDER
  2
AcDbPlaceHolder
  3
ObjectDBX Classes
 90
        0
280
     0
281
     0
  0
CLASS
  1
VBA_PROJECT
  2
AcDbVbaProject
  3
acad
 90
    32768
280
     0
281
     0
  0
CLASS
  1
WIPEOUT
  2
AcDbWipeout
  3
"WipeOut|Product Desc: Object Enabler for WipeOut entity                        |Company: Autodesk, Inc.                        |WEB Address: www.autodesk.com"
 90
    34943
280
     0
281
     1
  0
CLASS
  1
WIPEOUTVARIABLES
  2
AcDbWipeoutVariables
  3
"WipeOut|Product Desc:     WipeOut Dbx Application|Company:          Autodesk, Inc.|WEB Address:      www.autodesk.com"
 90
        0
280
     0
281
     0
  0
CLASS
  1
RTEXT
  2
RText
  3
RText|AutoCAD Express Tool|expresstools@autodesk.com
 90
    35839
280
     0
281
     1
  0
CLASS
  1
ARCALIGNEDTEXT
  2
AcDbArcAlignedText
  3
ATEXT|AutoCAD Express Tool|expresstools@autodesk.com
 90
    32768
280
     0
281
     1
  0
CLASS
  1
MATERIAL
  2
AcDbMaterial
  3
ObjectDBX Classes
 90
     1024
280
     0
281
     0
  0
CLASS
  1
VISUALSTYLE
  2
AcDbVisualStyle
  3
ObjectDBX Classes
 90
     4095
280
     0
281
     0
  0
CLASS
  1
TABLESTYLE
  2
AcDbTableStyle
  3
ObjectDBX Classes
 90
     4095
280
     0
281
     0
  0
ENDSEC
  0
SECTION
  2
TABLES
  0
TABLE
  2
VPORT
  5
7
330
0
100
AcDbSymbolTable
 70
    16
  0
VPORT
  5
27D
330
7
100
AcDbSymbolTableRecord
100
AcDbViewportTableRecord
  2
*ACTIVE
 70
     0
 10
0.0
 20
0.0
 11
1.0
 21
1.0
 12
0.0
 22
0.0
 13
0.0
 23
0.0
 14
1.0
 24
1.0
 15
0.0
 25
0.0
 16
0.718873
 26
-0.5850489999999999
 36
0.375419
 17
0.0
 27
0.0
 37
0.0
 40
46.267976
 41
0.6885640000000001
 42
50.0
 43
22.857141
 44
-22.857141
 50
0.0
 51
0.0
 71
    16
 72
   100
 73
     1
 74
     1
 75
     0
 76
     0
 77
     0
 78
     0
281
     0
 65
     0
110
0.0
120
0.0
130
0.0
111
1.0
121
0.0
131
0.0
112
0.0
122
1.0
132
0.0
 79
     0
146
0.0
  0
VPORT
  5
27E
330
7
100
AcDbSymbolTableRecord
100
AcDbViewportTableRecord
  2
L1
 70
     0
 10
0.0
 20
0.0
 11
1.0
 21
1.0
 12
0.0
 22
0.0
 13
0.0
 23
0.0
 14
1.0
 24
1.0
 15
0.0
 25
0.0
 16
0.718873
 26
-0.5850489999999999
 36
0.375419
 17
0.0
 27
0.0
 37
0.0
 40
46.267976
 41
0.6885640000000001
 42
50.0
 43
22.857141
 44
-22.857141
 50
0.0
 51
0.0
 71
    16
 72
   100
 73
     1
 74
     1
 75
     0
 76
     0
 77
     0
 78
     0
281
     0
 65
     0
110
0.0
120
0.0
130
0.0
111
1.0
121
0.0
131
0.0
112
0.0
122
1.0
132
0.0
 79
     0
146
0.0
  0
VPORT
  5
27F
330
7
100
AcDbSymbolTableRecord
100
AcDbViewportTableRecord
  2
L2
 70
     0
 10
0.0
 20
0.0
 11
0.5
 21
1.0
 12
0.0
 22
0.0
 13
0.0
 23
0.0
 14
1.0
 24
1.0
 15
0.0
 25
0.0
 16
0.0
 26
-1.0
 36
0.0
 17
0.0
 27
0.0
 37
0.0
 40
44.59929999999999
 41
0.6885640000000001
 42
50.0
 43
23.034414
 44
-23.034414
 50
0.0
 51
0.0
 71
    16
 72
   100
 73
     1
 74
     1
 75
     0
 76
     0
 77
     0
 78
     0
281
     0
 65
     0
110
0.0
120
0.0
130
0.0
111
1.0
121
0.0
131
0.0
112
0.0
122
1.0
132
0.0
 79
     0
146
0.0
  0
VPORT
  5
280
330
7
100
AcDbSymbolTableRecord
100
AcDbViewportTableRecord
  2
L2
 70
     0
 10
0.5
 20
0.0
 11
1.0
 21
1.0
 12
0.0
 22
0.0
 13
0.0
 23
0.0
 14
1.0
 24
1.0
 15
0.0
 25
0.0
 16
1.0
 26
0.0
 36
0.0
 17
0.0
 27
0.0
 37
0.0
 40
44.59929999999999
 41
0.6885640000000001
 42
50.0
 43
22.544309
 44
-22.544309
 50
0.0
 51
0.0
 71
    16
 72
   100
 73
     1
 74
     1
 75
     0
 76
     0
 77
     0
 78
     0
281
     0
 65
     0
110
0.0
120
0.0
130
0.0
111
1.0
121
0.0
131
0.0
112
0.0
122
1.0
132
0.0
 79
     0
146
0.0
  0
VPORT
  5
281
330
7
100
AcDbSymbolTableRecord
100
AcDbViewportTableRecord
  2
L3
 70
     0
 10
0.0
 20
0.5
 11
1.0
 21
1.0
 12
0.0
 22
0.0
 13
0.0
 23
0.0
 14
1.0
 24
1.0
 15
0.0
 25
0.0
 16
0.0
 26
0.0
 36
1.0
 17
0.0
 27
0.0
 37
0.0
 40
6.624633999999999
 41
0.6885640000000001
 42
50.0
 43
22.29965
 44
-22.29965
 50
0.0
 51
0.0
 71
    16
 72
   100
 73
     1
 74
     1
 75
     0
 76
     0
 77
     0
 78
     0
281
     0
 65
     0
110
0.0
120
0.0
130
0.0
111
1.0
121
0.0
131
0.0
112
0.0
122
1.0
132
0.0
 79
     0
146
0.0
  0
VPORT
  5
282
330
7
100
AcDbSymbolTableRecord
100
AcDbViewportTableRecord
  2
L3
 70
     0
 10
0.0
 20
0.0
 11
1.0
 21
0.5
 12
0.0
 22
0.0
 13
0.0
 23
0.0
 14
1.0
 24
1.0
 15
0.0
 25
0.0
 16
0.0
 26
-1.0
 36
0.0
 17
0.0
 27
0.0
 37
0.0
 40
44.59929999999999
 41
0.6885640000000001
 42
50.0
 43
23.034414
 44
-23.034414
 50
0.0
 51
0.0
 71
    16
 72
   100
 73
     1
 74
     1
 75
     0
 76
     0
 77
     0
 78
     0
281
     0
 65
     0
110
0.0
120
0.0
130
0.0
111
1.0
121
0.0
131
0.0
112
0.0
122
1.0
132
0.0
 79
     0
146
0.0
  0
VPORT
  5
283
330
7
100
AcDbSymbolTableRecord
100
AcDbViewportTableRecord
  2
L4
 70
     0
 10
0.0
 20
0.5
 11
0.5
 21
1.0
 12
0.0
 22
0.0
 13
0.0
 23
0.0
 14
1.0
 24
1.0
 15
0.0
 25
0.0
 16
0.0
 26
0.0
 36
1.0
 17
0.0
 27
0.0
 37
0.0
 40
6.624633999999999
 41
0.6885640000000001
 42
50.0
 43
22.29965
 44
-22.29965
 50
0.0
 51
0.0
 71
    16
 72
   100
 73
     1
 74
     1
 75
     0
 76
     0
 77
     0
 78
     0
281
     0
 65
     0
110
0.0
120
0.0
130
0.0
111
1.0
121
0.0
131
0.0
112
0.0
122
1.0
132
0.0
 79
     0
146
0.0
  0
VPORT
  5
284
330
7
100
AcDbSymbolTableRecord
100
AcDbViewportTableRecord
  2
L4
 70
     0
 10
0.0
 20
0.0
 11
0.5
 21
0.5
 12
0.0
 22
0.0
 13
0.0
 23
0.0
 14
1.0
 24
1.0
 15
0.0
 25
0.0
 16
0.0
 26
-1.0
 36
0.0
 17
0.0
 27
0.0
 37
0.0
 40
44.59929999999999
 41
0.6885640000000001
 42
50.0
 43
23.034414
 44
-23.034414
 50
0.0
 51
0.0
 71
    16
 72
   100
 73
     1
 74
     1
 75
     0
 76
     0
 77
     0
 78
     0
281
     0
 65
     0
110
0.0
120
0.0
130
0.0
111
1.0
121
0.0
131
0.0
112
0.0
122
1.0
132
0.0
 79
     0
146
0.0
  0
VPORT
  5
285
330
7
100
AcDbSymbolTableRecord
100
AcDbViewportTableRecord
  2
L4
 70
     0
 10
0.5
 20
0.0
 11
1.0
 21
0.5
 12
0.0
 22
0.0
 13
0.0
 23
0.0
 14
1.0
 24
1.0
 15
0.0
 25
0.0
 16
1.0
 26
0.0
 36
0.0
 17
0.0
 27
0.0
 37
0.0
 40
44.59929999999999
 41
0.6885640000000001
 42
50.0
 43
22.544309
 44
-22.544309
 50
0.0
 51
0.0
 71
    16
 72
   100
 73
     1
 74
     1
 75
     0
 76
     0
 77
     0
 78
     0
281
     0
 65
     0
110
0.0
120
0.0
130
0.0
111
1.0
121
0.0
131
0.0
112
0.0
122
1.0
132
0.0
 79
     0
146
0.0
  0
VPORT
  5
286
330
7
100
AcDbSymbolTableRecord
100
AcDbViewportTableRecord
  2
L4
 70
     0
 10
0.5
 20
0.5
 11
1.0
 21
1.0
 12
0.0
 22
0.0
 13
0.0
 23
0.0
 14
1.0
 24
1.0
 15
0.0
 25
0.0
 16
0.5773500000000001
 26
-0.5773500000000001
 36
0.5773500000000001
 17
0.0
 27
0.0
 37
0.0
 40
43.832054
 41
0.6885640000000001
 42
50.0
 43
22.837903
 44
-22.837903
 50
0.0
 51
0.0
 71
    16
 72
   100
 73
     1
 74
     1
 75
     0
 76
     0
 77
     0
 78
     0
281
     0
 65
     0
110
0.0
120
0.0
130
0.0
111
1.0
121
0.0
131
0.0
112
0.0
122
1.0
132
0.0
 79
     0
146
0.0
  0
VPORT
  5
287
330
7
100
AcDbSymbolTableRecord
100
AcDbViewportTableRecord
  2
L6
 70
     0
 10
0.0
 20
0.5
 11
0.333333
 21
1.0
 12
0.0
 22
0.0
 13
0.0
 23
0.0
 14
1.0
 24
1.0
 15
0.0
 25
0.0
 16
0.718873
 26
-0.5850489999999999
 36
0.375419
 17
0.0
 27
0.0
 37
0.0
 40
46.267976
 41
0.6885640000000001
 42
50.0
 43
22.857141
 44
-22.857141
 50
0.0
 51
0.0
 71
    16
 72
   100
 73
     1
 74
     1
 75
     0
 76
     0
 77
     0
 78
     0
281
     0
 65
     0
110
0.0
120
0.0
130
0.0
111
1.0
121
0.0
131
0.0
112
0.0
122
1.0
132
0.0
 79
     0
146
0.0
  0
VPORT
  5
288
330
7
100
AcDbSymbolTableRecord
100
AcDbViewportTableRecord
  2
L6
 70
     0
 10
0.0
 20
0.0
 11
0.333333
 21
0.5
 12
0.0
 22
0.0
 13
0.0
 23
0.0
 14
1.0
 24
1.0
 15
0.0
 25
0.0
 16
-1.0
 26
0.0
 36
0.0
 17
0.0
 27
0.0
 37
0.0
 40
44.59929999999999
 41
0.6885640000000001
 42
50.0
 43
22.544309
 44
-22.544309
 50
0.0
 51
0.0
 71
    16
 72
   100
 73
     1
 74
     1
 75
     0
 76
     0
 77
     0
 78
     0
281
     0
 65
     0
110
0.0
120
0.0
130
0.0
111
1.0
121
0.0
131
0.0
112
0.0
122
1.0
132
0.0
 79
     0
146
0.0
  0
VPORT
  5
289
330
7
100
AcDbSymbolTableRecord
100
AcDbViewportTableRecord
  2
L6
 70
     0
 10
0.333333
 20
0.5
 11
0.666667
 21
1.0
 12
0.0
 22
0.0
 13
0.0
 23
0.0
 14
1.0
 24
1.0
 15
0.0
 25
0.0
 16
0.0
 26
0.0
 36
1.0
 17
0.0
 27
0.0
 37
0.0
 40
6.624633999999999
 41
0.6885640000000001
 42
50.0
 43
22.29965
 44
-22.29965
 50
0.0
 51
0.0
 71
    16
 72
   100
 73
     1
 74
     1
 75
     0
 76
     0
 77
     0
 78
     0
281
     0
 65
     0
110
0.0
120
0.0
130
0.0
111
1.0
121
0.0
131
0.0
112
0.0
122
1.0
132
0.0
 79
     0
146
0.0
  0
VPORT
  5
28A
330
7
100
AcDbSymbolTableRecord
100
AcDbViewportTableRecord
  2
L6
 70
     0
 10
0.333333
 20
0.0
 11
0.666667
 21
0.5
 12
0.0
 22
0.0
 13
0.0
 23
0.0
 14
1.0
 24
1.0
 15
0.0
 25
0.0
 16
0.0
 26
-1.0
 36
0.0
 17
0.0
 27
0.0
 37
0.0
 40
44.59929999999999
 41
0.6885640000000001
 42
50.0
 43
23.034414
 44
-23.034414
 50
0.0
 51
0.0
 71
    16
 72
   100
 73
     1
 74
     1
 75
     0
 76
     0
 77
     0
 78
     0
281
     0
 65
     0
110
0.0
120
0.0
130
0.0
111
1.0
121
0.0
131
0.0
112
0.0
122
1.0
132
0.0
 79
     0
146
0.0
  0
VPORT
  5
28B
330
7
100
AcDbSymbolTableRecord
100
AcDbViewportTableRecord
  2
L6
 70
     0
 10
0.666667
 20
0.5
 11
1.0
 21
1.0
 12
0.0
 22
0.0
 13
0.0
 23
0.0
 14
1.0
 24
1.0
 15
0.0
 25
0.0
 16
0.5773500000000001
 26
-0.5773500000000001
 36
0.5773500000000001
 17
0.0
 27
0.0
 37
0.0
 40
43.832054
 41
0.6885640000000001
 42
50.0
 43
22.837903
 44
-22.837903
 50
0.0
 51
0.0
 71
    16
 72
   100
 73
     1
 74
     1
 75
     0
 76
     0
 77
     0
 78
     0
281
     0
 65
     0
110
0.0
120
0.0
130
0.0
111
1.0
121
0.0
131
0.0
112
0.0
122
1.0
132
0.0
 79
     0
146
0.0
  0
VPORT
  5
28C
330
7
100
AcDbSymbolTableRecord
100
AcDbViewportTableRecord
  2
L6
 70
     0
 10
0.666667
 20
0.0
 11
1.0
 21
0.5
 12
0.0
 22
0.0
 13
0.0
 23
0.0
 14
1.0
 24
1.0
 15
0.0
 25
0.0
 16
1.0
 26
0.0
 36
0.0
 17
0.0
 27
0.0
 37
0.0
 40
44.59929999999999
 41
0.6885640000000001
 42
50.0
 43
22.544309
 44
-22.544309
 50
0.0
 51
0.0
 71
    16
 72
   100
 73
     1
 74
     1
 75
     0
 76
     0
 77
     0
 78
     0
281
     0
 65
     0
110
0.0
120
0.0
130
0.0
111
1.0
121
0.0
131
0.0
112
0.0
122
1.0
132
0.0
 79
     0
146
0.0
  0
ENDTAB
  0
TABLE
  2
LTYPE
  5
4
330
0
100
AcDbSymbolTable
 70
     7
  0
LTYPE
  5
11
330
4
100
AcDbSymbolTableRecord
100
AcDbLinetypeTableRecord
  2
ByBlock
 70
     0
  3

 72
    65
 73
     0
 40
0.0
  0
LTYPE
  5
12
330
4
100
AcDbSymbolTableRecord
100
AcDbLinetypeTableRecord
  2
ByLayer
 70
     0
  3

 72
    65
 73
     0
 40
0.0
  0
LTYPE
  5
13
330
4
100
AcDbSymbolTableRecord
100
AcDbLinetypeTableRecord
  2
Continuous
 70
     0
  3
Solid line
 72
    65
 73
     0
 40
0.0
  0
LTYPE
  5
24
330
4
100
AcDbSymbolTableRecord
100
AcDbLinetypeTableRecord
  2
DASHED
 70
     0
  3
__ __ __ __ __ __ __ __ __
 72
    65
 73
     2
 40
25.72
 49
12.86
 74
     0
 49
-12.86
 74
     0
  0
LTYPE
  5
25
330
4
100
AcDbSymbolTableRecord
100
AcDbLinetypeTableRecord
  2
HIDDEN
 70
     0
  3
_ _ _ _ _ _ _ _ _ _ _ _ _ _ _
 72
    65
 73
     2
 40
0.5
 49
0.25
 74
     0
 49
-0.25
 74
     0
  0
LTYPE
  5
26
330
4
100
AcDbSymbolTableRecord
100
AcDbLinetypeTableRecord
  2
PHANTOM
 70
     0
  3
____ _ _ ____ _ _ _____ _ _ ____
 72
    65
 73
     6
 40
50.5
 49
18.0
 74
     0
 49
-6.5
 74
     0
 49
6.5
 74
     0
 49
-6.5
 74
     0
 49
6.5
 74
     0
 49
-6.5
 74
     0
  0
LTYPE
  5
27
330
4
100
AcDbSymbolTableRecord
100
AcDbLinetypeTableRecord
  2
CENTER
 70
     0
  3
____ _ ____ _ ____ _ ____
 72
    65
 73
     4
 40
47.5
 49
22.0
 74
     0
 49
-8.5
 74
     0
 49
8.5
 74
     0
 49
-8.5
 74
     0
  0
LTYPE
  5
28
330
4
100
AcDbSymbolTableRecord
100
AcDbLinetypeTableRecord
  2
DOT
 70
     0
  3
.........................
 72
    65
 73
     2
 40
10.0
 49
0.0
 74
     0
 49
-10.0
 74
     0
  0
LTYPE
  5
29
330
4
100
AcDbSymbolTableRecord
100
AcDbLinetypeTableRecord
  2
DASHDOT
 70
     0
  3
_._._._._._._._._._._._._._._._.
 72
    65
 73
     4
 40
70.0
 49
31.0
 74
     0
 49
-13.0
 74
     0
 49
13.0
 74
     0
 49
-13.0
 74
     0
  0
ENDTAB
  0
TABLE
  2
LAYER
  5
2
330
0
100
AcDbSymbolTable
 70
     2
  0
LAYER
  5
14
330
2
100
AcDbSymbolTableRecord
100
AcDbLayerTableRecord
  2
0
 70
     0
 62
     7
  6
Continuous
370
    -3
390
1D
  0
LAYER
  5
34
330
2
100
AcDbSymbolTableRecord
100
AcDbLayerTableRecord
  2
1
 70
     0
 62
     7
  6
Continuous
370
    -3
390
1D
  0
ENDTAB
  0
TABLE
  2
STYLE
  5
3
330
0
100
AcDbSymbolTable
 70
     1
  0
STYLE
  5
17
330
3
100
AcDbSymbolTableRecord
100
AcDbTextStyleTableRecord
  2
Standard
 70
     0
 40
0.0
 41
1.0
 50
0.0
 71
     0
 42
0.0
  3
txt
  4

  0
ENDTAB
  0
TABLE
  2
VIEW
  5
5
330
0
100
AcDbSymbolTable
 70
     8
  0
VIEW
  5
2A
330
5
100
AcDbSymbolTableRecord
100
AcDbViewTableRecord
  2
TOP
 70
     0
 40
6.624633999999999
 10
0.0
 20
0.0
 41
11.542932
 11
0.0
 21
0.0
 31
1.0
 12
0.0
 22
0.0
 32
0.0
 42
50.0
 43
22.29965
 44
-22.29965
 50
0.0
 71
    16
281
     0
 72
     0
  0
VIEW
  5
2B
330
5
100
AcDbSymbolTableRecord
100
AcDbViewTableRecord
  2
FRONT
 70
     0
 40
44.59929999999999
 10
0.0
 20
0.0
 41
11.542932
 11
0.0
 21
-1.0
 31
0.0
 12
0.0
 22
0.0
 32
0.0
 42
50.0
 43
23.034414
 44
-23.034414
 50
0.0
 71
    16
281
     0
 72
     0
  0
VIEW
  5
2C
330
5
100
AcDbSymbolTableRecord
100
AcDbViewTableRecord
  2
RIGHT
 70
     0
 40
44.59929999999999
 10
0.0
 20
0.0
 41
6.624633999999999
 11
1.0
 21
0.0
 31
0.0
 12
0.0
 22
0.0
 32
0.0
 42
50.0
 43
22.544309
 44
-22.544309
 50
0.0
 71
    16
281
     0
 72
     0
  0
VIEW
  5
2D
330
5
100
AcDbSymbolTableRecord
100
AcDbViewTableRecord
  2
BACK
 70
     0
 40
44.59929999999999
 10
0.0
 20
0.0
 41
11.542932
 11
0.0
 21
1.0
 31
0.0
 12
0.0
 22
0.0
 32
0.0
 42
50.0
 43
23.034414
 44
-23.034414
 50
0.0
 71
    16
281
     0
 72
     0
  0
VIEW
  5
2E
330
5
100
AcDbSymbolTableRecord
100
AcDbViewTableRecord
  2
BOTTOM
 70
     0
 40
6.624633999999999
 10
0.0
 20
0.0
 41
11.542932
 11
0.0
 21
0.0
 31
-1.0
 12
0.0
 22
0.0
 32
0.0
 42
50.0
 43
22.29965
 44
-22.29965
 50
180.0
 71
    16
281
     0
 72
     0
  0
VIEW
  5
2F
330
5
100
AcDbSymbolTableRecord
100
AcDbViewTableRecord
  2
LEFT
 70
     0
 40
44.59929999999999
 10
0.0
 20
0.0
 41
6.624633999999999
 11
-1.0
 21
0.0
 31
0.0
 12
0.0
 22
0.0
 32
0.0
 42
50.0
 43
22.544309
 44
-22.544309
 50
0.0
 71
    16
281
     0
 72
     0
  0
VIEW
  5
30
330
5
100
AcDbSymbolTableRecord
100
AcDbViewTableRecord
  2
TFR-ISO
 70
     0
 40
43.832054
 10
0.0
 20
0.0
 41
12.84641
 11
0.5773500000000001
 21
-0.5773500000000001
 31
0.5773500000000001
 12
0.0
 22
0.0
 32
0.0
 42
50.0
 43
22.837903
 44
-22.837903
 50
0.0
 71
    16
281
     0
 72
     0
  0
VIEW
  5
31
330
5
100
AcDbSymbolTableRecord
100
AcDbViewTableRecord
  2
TFR-TRI
 70
     0
 40
46.267976
 10
0.0
 20
0.0
 41
12.424216
 11
0.718873
 21
-0.5850489999999999
 31
0.375419
 12
0.0
 22
0.0
 32
0.0
 42
50.0
 43
22.857141
 44
-22.857141
 50
0.0
 71
    16
281
     0
 72
     0
  0
ENDTAB
  0
TABLE
  2
UCS
  5
6
330
0
100
AcDbSymbolTable
 70
     0
  0
ENDTAB
  0
TABLE
  2
APPID
  5
8
330
0
100
AcDbSymbolTable
 70
     3
  0
APPID
  5
16
330
8
100
AcDbSymbolTableRecord
100
AcDbRegAppTableRecord
  2
ACAD
 70
     0
  0
APPID
  5
2AB
330
8
100
AcDbSymbolTableRecord
100
AcDbRegAppTableRecord
  2
ACAD_PSEXT
 70
     0
  0
APPID
  5
2AE
330
8
100
AcDbSymbolTableRecord
100
AcDbRegAppTableRecord
  2
DCO15
 70
     0
  0
ENDTAB
  0
TABLE
  2
DIMSTYLE
  5
9
330
0
100
AcDbSymbolTable
 70
     1
100
AcDbDimStyleTable
 71
     0
  0
DIMSTYLE
105
18
330
9
100
AcDbSymbolTableRecord
100
AcDbDimStyleTableRecord
  2
Standard
 70
     0
340
17
  0
ENDTAB
  0
TABLE
  2
BLOCK_RECORD
  5
1
330
0
100
AcDbSymbolTable
 70
     0
  0
BLOCK_RECORD
  5
A
330
1
100
AcDbSymbolTableRecord
100
AcDbBlockTableRecord
  2
*MODEL_SPACE
340
20
  0
BLOCK_RECORD
  5
B
330
1
100
AcDbSymbolTableRecord
100
AcDbBlockTableRecord
  2
*PAPER_SPACE
340
21
  0
ENDTAB
  0
ENDSEC
  0
SECTION
  2
BLOCKS
  0
BLOCK
  5
D
330
A
100
AcDbEntity
  8
0
100
AcDbBlockBegin
  2
*MODEL_SPACE
 70
     0
 10
0.0
 20
0.0
 30
0.0
  3
*MODEL_SPACE
  1

  0
ENDBLK
  5
E
330
A
100
AcDbEntity
  8
0
100
AcDbBlockEnd
  0
BLOCK
  5
F
330
B
100
AcDbEntity
 67
     1
  8
0
100
AcDbBlockBegin
  2
*PAPER_SPACE
 70
     0
 10
0.0
 20
0.0
 30
0.0
  3
*PAPER_SPACE
  1

  0
ENDBLK
  5
10
330
B
100
AcDbEntity
 67
     1
  8
0
100
AcDbBlockEnd
  0
ENDSEC
  0
SECTION
  2
ENTITIES
  0
VIEWPORT
  5
32
102
{ACAD_XDICTIONARY
360
2BA
102
}
330
B
100
AcDbEntity
 67
     1
  8
0
100
AcDbViewport
 10
7.594715447154472
 20
4.25
 30
0.0
 40
15.18943089430894
 41
8.5
 68
     1
 69
     1
 12
7.594715447154472
 22
4.25
 13
0.0
 23
0.0
 14
0.0
 24
0.0
 15
0.0
 25
0.0
 16
0.0
 26
0.0
 36
1.0
 17
0.0
 27
0.0
 37
0.0
 42
26.277896
 43
0.0
 44
0.0
 45
8.5
 50
0.0
 51
0.0
 72
   100
 90
    32800
  1

281
     0
 71
     0
 74
     1
110
0.0
120
0.0
130
0.0
111
1.0
121
0.0
131
0.0
112
0.0
122
1.0
132
0.0
 79
     0
146
0.0
  0
LINE
  5
33
330
B
100
AcDbEntity
 67
     1
  8
1
  6
Continuous
 62
    18
100
AcDbLine
 10
4.245184
 20
6.819902
 30
0.0
 11
4.210842999999999
 21
6.821724
 31
0.0
  0
LINE
  5
35
330
B
100
AcDbEntity
 67
     1
  8
1
  6
Continuous
 62
    18
100
AcDbLine
 10
3.036052999999999
 20
3.680487
 30
0.0
 11
3.036052999999999
 21
3.686096
 31
0.0
  0
LINE
  5
36
330
B
100
AcDbEntity
 67
     1
  8
1
  6
Continuous
 62
    18
100
AcDbLine
 10
5.92635
 20
3.721983
 30
0.0
 11
5.924737
 21
3.714905999999999
 31
0.0
  0
LINE
  5
37
330
B
100
AcDbEntity
 67
     1
  8
1
  6
Continuous
 62
    18
100
AcDbLine
 10
1.600141999999999
 20
6.669607
 30
0.0
 11
1.628359999999999
 21
6.67193
 31
0.0
  0
LINE
  5
38
330
B
100
AcDbEntity
 67
     1
  8
1
  6
Continuous
 62
    18
100
AcDbLine
 10
1.63857
 20
6.775246
 30
0.0
 11
1.645279
 21
6.799196
 31
0.0
  0
LINE
  5
39
330
B
100
AcDbEntity
 67
     1
  8
1
  6
Continuous
 62
    18
100
AcDbLine
 10
3.827012999999999
 20
4.363217999999999
 30
0.0
 11
3.82438
 21
4.36585
 31
0.0
  0
LINE
  5
3A
330
B
100
AcDbEntity
 67
     1
  8
1
  6
Continuous
 62
    18
100
AcDbLine
 10
4.013855999999999
 20
6.819574
 30
0.0
 11
4.020942999999999
 21
6.812866
 31
0.0
  0
LINE
  5
3B
330
B
100
AcDbEntity
 67
     1
  8
1
  6
Continuous
 62
    18
100
AcDbLine
 10
2.159583
 20
6.668278999999999
 30
0.0
 11
3.712523999999999
 21
6.668278999999999
 31
0.0
  0
LINE
  5
3C
330
B
100
AcDbEntity
 67
     1
  8
1
  6
Continuous
 62
    18
100
AcDbLine
 10
1.571193
 20
3.700276999999999
 30
0.0
 11
1.553773999999999
 21
3.706398
 31
0.0
  0
LINE
  5
3D
330
B
100
AcDbEntity
 67
     1
  8
1
  6
Continuous
 62
    18
100
AcDbLine
 10
1.547452
 20
3.85908
 30
0.0
 11
1.572929
 21
3.846373999999999
 31
0.0
  0
LINE
  5
3E
330
B
100
AcDbEntity
 67
     1
  8
1
  6
Continuous
 62
    18
100
AcDbLine
 10
3.712523999999999
 20
6.811336999999999
 30
0.0
 11
3.712523999999999
 21
6.795486
 31
0.0
  0
LINE
  5
3F
330
B
100
AcDbEntity
 67
     1
  8
1
  6
Continuous
 62
    18
100
AcDbLine
 10
3.827012999999999
 20
6.145135999999999
 30
0.0
 11
3.82438
 21
6.142503999999999
 31
0.0
  0
LINE
  5
40
330
B
100
AcDbEntity
 67
     1
  8
1
  6
Continuous
 62
    18
100
AcDbLine
 10
4.505399999999999
 20
3.979387
 30
0.0
 11
4.510423999999999
 21
3.979387
 31
0.0
  0
LINE
  5
41
330
B
100
AcDbEntity
 67
     1
  8
1
  6
Continuous
 62
    18
100
AcDbLine
 10
1.633309
 20
6.744702
 30
0.0
 11
1.63857
 21
6.775246
 31
0.0
  0
LINE
  5
42
330
B
100
AcDbEntity
 67
     1
  8
1
  6
Continuous
 62
    18
100
AcDbLine
 10
2.135774
 20
4.453898
 30
0.0
 11
2.135774
 21
6.054456
 31
0.0
  0
LINE
  5
43
330
B
100
AcDbEntity
 67
     1
  8
1
  6
Continuous
 62
    18
100
AcDbLine
 10
1.661263
 20
6.828547
 30
0.0
 11
4.210842999999999
 21
6.828547
 31
0.0
  0
LINE
  5
44
330
B
100
AcDbEntity
 67
     1
  8
1
  6
Continuous
 62
    18
100
AcDbLine
 10
5.698596
 20
3.840075
 30
0.0
 11
5.702085
 21
3.839907
 31
0.0
  0
LINE
  5
45
330
B
100
AcDbEntity
 67
     1
  8
1
  6
Continuous
 62
    18
100
AcDbLine
 10
4.273157
 20
6.815385
 30
0.0
 11
4.245184
 21
6.819902
 31
0.0
  0
LINE
  5
46
330
B
100
AcDbEntity
 67
     1
  8
1
  6
Continuous
 62
    18
100
AcDbLine
 10
2.159583
 20
6.771532999999999
 30
0.0
 11
2.159583
 21
6.741000999999999
 31
0.0
  0
LINE
  5
47
330
B
100
AcDbEntity
 67
     1
  8
1
  6
Continuous
 62
    18
100
AcDbLine
 10
3.036052999999999
 20
3.680487
 30
0.0
 11
2.836052999999999
 21
3.680487
 31
0.0
  0
LINE
  5
48
330
B
100
AcDbEntity
 67
     1
  8
1
  6
Continuous
 62
    18
100
AcDbLine
 10
2.159583
 20
3.697016999999999
 30
0.0
 11
2.159583
 21
3.712866999999999
 31
0.0
  0
LINE
  5
49
330
B
100
AcDbEntity
 67
     1
  8
1
  6
Continuous
 62
    18
100
AcDbLine
 10
1.553773999999999
 20
3.706398
 30
0.0
 11
1.550145999999999
 21
3.70783
 31
0.0
  0
LINE
  5
4A
330
B
100
AcDbEntity
 67
     1
  8
1
  6
Continuous
 62
    18
100
AcDbLine
 10
5.702344999999999
 20
6.145135999999999
 30
0.0
 11
5.698596
 21
6.145005
 31
0.0
  0
LINE
  5
4B
330
B
100
AcDbEntity
 67
     1
  8
1
  6
Continuous
 62
    18
100
AcDbLine
 10
1.844528
 20
6.79703
 30
0.0
 11
1.851163
 21
6.812866
 31
0.0
  0
LINE
  5
4C
330
B
100
AcDbEntity
 67
     1
  8
1
  6
Continuous
 62
    18
100
AcDbLine
 10
3.033958
 20
3.682583
 30
0.0
 11
3.036052999999999
 21
3.680487
 31
0.0
  0
LINE
  5
4D
330
B
100
AcDbEntity
 67
     1
  8
1
  6
Continuous
 62
    18
100
AcDbLine
 10
1.520251999999999
 20
3.721876
 30
0.0
 11
1.494811
 21
3.737351999999999
 31
0.0
  0
LINE
  5
4E
330
B
100
AcDbEntity
 67
     1
  8
1
  6
Continuous
 62
    18
100
AcDbLine
 10
5.944732
 20
3.979387
 30
0.0
 11
5.907232999999999
 21
3.979387
 31
0.0
  0
LINE
  5
4F
330
B
100
AcDbEntity
 67
     1
  8
1
  6
Continuous
 62
    18
100
AcDbLine
 10
3.077916999999999
 20
4.160809999999999
 30
0.0
 11
3.077916999999999
 21
4.098963999999999
 31
0.0
  0
LINE
  5
50
330
B
100
AcDbEntity
 67
     1
  8
1
  6
Continuous
 62
    18
100
AcDbLine
 10
4.505399999999999
 20
3.979387
 30
0.0
 11
4.500323
 21
3.925120999999999
 31
0.0
  0
LINE
  5
51
330
B
100
AcDbEntity
 67
     1
  8
1
  6
Continuous
 62
    18
100
AcDbLine
 10
5.840480999999999
 20
3.709157999999999
 30
0.0
 11
5.811895999999999
 21
3.733108999999999
 31
0.0
  0
LINE
  5
52
330
B
100
AcDbEntity
 67
     1
  8
1
  6
Continuous
 62
    18
100
AcDbLine
 10
6.124789999999999
 20
4.42835
 30
0.0
 11
6.127595999999999
 21
4.42835
 31
0.0
  0
LINE
  5
53
330
B
100
AcDbEntity
 67
     1
  8
1
  6
Continuous
 62
    18
100
AcDbLine
 10
4.377470999999999
 20
3.737470999999999
 30
0.0
 11
4.352052999999999
 21
3.721983
 31
0.0
  0
LINE
  5
54
330
B
100
AcDbEntity
 67
     1
  8
1
  6
Continuous
 62
    18
100
AcDbLine
 10
5.770223999999999
 20
3.735275
 30
0.0
 11
5.748269999999999
 21
3.765815
 31
0.0
  0
LINE
  5
55
330
B
100
AcDbEntity
 67
     1
  8
1
  6
Continuous
 62
    18
100
AcDbLine
 10
4.323820999999999
 20
3.708587
 30
0.0
 11
4.323583999999999
 21
3.70849
 31
0.0
  0
LINE
  5
56
330
B
100
AcDbEntity
 67
     1
  8
1
  6
Continuous
 62
    18
100
AcDbLine
 10
5.910398
 20
6.821724
 30
0.0
 11
5.869377
 21
6.819574
 31
0.0
  0
LINE
  5
57
330
B
100
AcDbEntity
 67
     1
  8
1
  6
Continuous
 62
    18
100
AcDbLine
 10
4.323081
 20
3.708283999999999
 30
0.0
 11
4.321087
 21
3.70748
 31
0.0
  0
LINE
  5
58
330
B
100
AcDbEntity
 67
     1
  8
1
  6
Continuous
 62
    18
100
AcDbLine
 10
5.935888999999999
 20
6.721889999999999
 30
0.0
 11
5.934207999999999
 21
6.736871999999999
 31
0.0
  0
LINE
  5
59
330
B
100
AcDbEntity
 67
     1
  8
1
  6
Continuous
 62
    18
100
AcDbLine
 10
1.629831999999999
 20
6.709514999999999
 30
0.0
 11
1.633309
 21
6.744702
 31
0.0
  0
LINE
  5
5A
330
B
100
AcDbEntity
 67
     1
  8
1
  6
Continuous
 62
    18
100
AcDbLine
 10
2.787965
 20
4.166212999999999
 30
0.0
 11
2.787965
 21
4.133872
 31
0.0
  0
LINE
  5
5B
330
B
100
AcDbEntity
 67
     1
  8
1
  6
Continuous
 62
    18
100
AcDbLine
 10
2.045093999999999
 20
6.145135999999999
 30
0.0
 11
2.045093999999999
 21
4.363217999999999
 31
0.0
  0
LINE
  5
5C
330
B
100
AcDbEntity
 67
     1
  8
1
  6
Continuous
 62
    18
100
AcDbLine
 10
5.923254
 20
6.799180999999999
 30
0.0
 11
5.923146
 21
6.799572
 31
0.0
  0
LINE
  5
5D
330
B
100
AcDbEntity
 67
     1
  8
1
  6
Continuous
 62
    18
100
AcDbLine
 10
2.798451
 20
4.083344
 30
0.0
 11
2.813142
 21
4.118782
 31
0.0
  0
LINE
  5
5E
330
B
100
AcDbEntity
 67
     1
  8
1
  6
Continuous
 62
    18
100
AcDbLine
 10
1.939128
 20
3.839406999999999
 30
0.0
 11
2.049134999999999
 21
3.839907
 31
0.0
  0
LINE
  5
5F
330
B
100
AcDbEntity
 67
     1
  8
1
  6
Continuous
 62
    18
100
AcDbLine
 10
5.923038
 20
6.79996
 30
0.0
 11
5.923005999999999
 21
6.800069999999999
 31
0.0
  0
LINE
  5
60
330
B
100
AcDbEntity
 67
     1
  8
1
  6
Continuous
 62
    18
100
AcDbLine
 10
2.896954999999999
 20
4.125951
 30
0.0
 11
2.915345999999999
 21
4.083344
 31
0.0
  0
LINE
  5
61
330
B
100
AcDbEntity
 67
     1
  8
1
  6
Continuous
 62
    18
100
AcDbLine
 10
3.822970999999999
 20
6.668447
 30
0.0
 11
3.932977999999999
 21
6.668947
 31
0.0
  0
LINE
  5
62
330
B
100
AcDbEntity
 67
     1
  8
1
  6
Continuous
 62
    18
100
AcDbLine
 10
5.910398
 20
6.821724
 30
0.0
 11
5.874029
 21
6.815025999999999
 31
0.0
  0
LINE
  5
63
330
B
100
AcDbEntity
 67
     1
  8
1
  6
Continuous
 62
    18
100
AcDbLine
 10
2.045093999999999
 20
4.363217999999999
 30
0.0
 11
2.047725999999999
 21
4.36585
 31
0.0
  0
LINE
  5
64
330
B
100
AcDbEntity
 67
     1
  8
1
  6
Continuous
 62
    18
100
AcDbLine
 10
2.877479
 20
4.100346
 30
0.0
 11
2.877479
 21
4.160809999999999
 31
0.0
  0
LINE
  5
65
330
B
100
AcDbEntity
 67
     1
  8
1
  6
Continuous
 62
    18
100
AcDbLine
 10
4.482541999999999
 20
6.528966999999999
 30
0.0
 11
4.458302999999999
 21
6.528966999999999
 31
0.0
  0
LINE
  5
66
330
B
100
AcDbEntity
 67
     1
  8
1
  6
Continuous
 62
    18
100
AcDbLine
 10
5.832773
 20
6.812866
 30
0.0
 11
5.799004
 21
6.79703
 31
0.0
  0
LINE
  5
67
330
B
100
AcDbEntity
 67
     1
  8
1
  6
Continuous
 62
    18
100
AcDbLine
 10
3.745468
 20
4.444761999999999
 30
0.0
 11
3.752413999999999
 21
4.437816
 31
0.0
  0
LINE
  5
68
330
B
100
AcDbEntity
 67
     1
  8
1
  6
Continuous
 62
    18
100
AcDbLine
 10
4.427433999999999
 20
3.979387
 30
0.0
 11
4.391928
 21
3.979387
 31
0.0
  0
LINE
  5
69
330
B
100
AcDbEntity
 67
     1
  8
1
  6
Continuous
 62
    18
100
AcDbLine
 10
5.683595999999999
 20
4.185502999999999
 30
0.0
 11
5.683595999999999
 21
4.178714
 31
0.0
  0
LINE
  5
6A
330
B
100
AcDbEntity
 67
     1
  8
1
  6
Continuous
 62
    18
100
AcDbLine
 10
3.742420999999999
 20
6.060544
 30
0.0
 11
3.736331999999999
 21
6.054456
 31
0.0
  0
LINE
  5
6B
330
B
100
AcDbEntity
 67
     1
  8
1
  6
Continuous
 62
    18
100
AcDbLine
 10
3.138324
 20
4.083344
 30
0.0
 11
3.138324
 21
4.147505999999999
 31
0.0
  0
LINE
  5
6C
330
B
100
AcDbEntity
 67
     1
  8
1
  6
Continuous
 62
    18
100
AcDbLine
 10
6.127595999999999
 20
4.410701
 30
0.0
 11
6.127595999999999
 21
4.42835
 31
0.0
  0
LINE
  5
6D
330
B
100
AcDbEntity
 67
     1
  8
1
  6
Continuous
 62
    18
100
AcDbLine
 10
4.013855999999999
 20
3.68878
 30
0.0
 11
4.020942999999999
 21
3.695487999999999
 31
0.0
  0
LINE
  5
6E
330
B
100
AcDbEntity
 67
     1
  8
1
  6
Continuous
 62
    18
100
AcDbLine
 10
5.698596
 20
4.147505999999999
 30
0.0
 11
5.683595999999999
 21
4.147505999999999
 31
0.0
  0
LINE
  5
6F
330
B
100
AcDbEntity
 67
     1
  8
1
  6
Continuous
 62
    18
100
AcDbLine
 10
6.127595999999999
 20
6.097652
 30
0.0
 11
6.127595999999999
 21
6.110572
 31
0.0
  0
LINE
  5
70
330
B
100
AcDbEntity
 67
     1
  8
1
  6
Continuous
 62
    18
100
AcDbLine
 10
1.444671999999999
 20
6.528966999999999
 30
0.0
 11
1.413804
 21
6.528966999999999
 31
0.0
  0
LINE
  5
71
330
B
100
AcDbEntity
 67
     1
  8
1
  6
Continuous
 62
    18
100
AcDbLine
 10
5.980596
 20
3.682583
 30
0.0
 11
5.980596
 21
3.682951999999999
 31
0.0
  0
LINE
  5
72
330
B
100
AcDbEntity
 67
     1
  8
1
  6
Continuous
 62
    18
100
AcDbLine
 10
5.843935
 20
3.690112999999999
 30
0.0
 11
5.840746
 21
3.69028
 31
0.0
  0
LINE
  5
73
330
B
100
AcDbEntity
 67
     1
  8
1
  6
Continuous
 62
    18
100
AcDbLine
 10
1.623242
 20
6.819466
 30
0.0
 11
1.593233999999999
 21
6.814116
 31
0.0
  0
LINE
  5
74
330
B
100
AcDbEntity
 67
     1
  8
1
  6
Continuous
 62
    18
100
AcDbLine
 10
5.800637999999999
 20
6.610205
 30
0.0
 11
5.804101999999999
 21
6.585294
 31
0.0
  0
LINE
  5
75
330
B
100
AcDbEntity
 67
     1
  8
1
  6
Continuous
 62
    18
100
AcDbLine
 10
5.778325999999999
 20
3.838758
 30
0.0
 11
5.784647
 21
3.846417999999999
 31
0.0
  0
LINE
  5
76
330
B
100
AcDbEntity
 67
     1
  8
1
  6
Continuous
 62
    18
100
AcDbLine
 10
1.831265
 20
3.800995999999999
 30
0.0
 11
1.834252
 21
3.765815
 31
0.0
  0
LINE
  5
77
330
B
100
AcDbEntity
 67
     1
  8
1
  6
Continuous
 62
    18
100
AcDbLine
 10
6.040595999999999
 20
3.979387
 30
0.0
 11
6.040595999999999
 21
6.528966999999999
 31
0.0
  0
LINE
  5
78
330
B
100
AcDbEntity
 67
     1
  8
1
  6
Continuous
 62
    18
100
AcDbLine
 10
1.958024
 20
6.818741999999999
 30
0.0
 11
1.858249999999999
 21
6.819574
 31
0.0
  0
LINE
  5
79
330
B
100
AcDbEntity
 67
     1
  8
1
  6
Continuous
 62
    18
100
AcDbLine
 10
4.033337999999999
 20
6.773078999999999
 30
0.0
 11
4.037855
 21
6.742538999999999
 31
0.0
  0
LINE
  5
7A
330
B
100
AcDbEntity
 67
     1
  8
1
  6
Continuous
 62
    18
100
AcDbLine
 10
4.323081
 20
6.800069999999999
 30
0.0
 11
4.321087
 21
6.800874
 31
0.0
  0
LINE
  5
7B
330
B
100
AcDbEntity
 67
     1
  8
1
  6
Continuous
 62
    18
100
AcDbLine
 10
6.040595999999999
 20
6.678757
 30
0.0
 11
6.040595999999999
 21
6.721533999999999
 31
0.0
  0
LINE
  5
7C
330
B
100
AcDbEntity
 67
     1
  8
1
  6
Continuous
 62
    18
100
AcDbLine
 10
1.661263
 20
6.821724
 30
0.0
 11
1.661263
 21
6.828547
 31
0.0
  0
LINE
  5
7D
330
B
100
AcDbEntity
 67
     1
  8
1
  6
Continuous
 62
    18
100
AcDbLine
 10
6.040595999999999
 20
3.927366
 30
0.0
 11
6.040595999999999
 21
3.876924999999999
 31
0.0
  0
LINE
  5
7E
330
B
100
AcDbEntity
 67
     1
  8
1
  6
Continuous
 62
    18
100
AcDbLine
 10
4.210842999999999
 20
3.68663
 30
0.0
 11
4.013855999999999
 21
3.68878
 31
0.0
  0
LINE
  5
7F
330
B
100
AcDbEntity
 67
     1
  8
1
  6
Continuous
 62
    18
100
AcDbLine
 10
6.040595999999999
 20
3.684358
 30
0.0
 11
6.040595999999999
 21
3.679805999999999
 31
0.0
  0
LINE
  5
80
330
B
100
AcDbEntity
 67
     1
  8
1
  6
Continuous
 62
    18
100
AcDbLine
 10
1.958024
 20
3.689612
 30
0.0
 11
1.858249999999999
 21
3.68878
 31
0.0
  0
LINE
  5
81
330
B
100
AcDbEntity
 67
     1
  8
1
  6
Continuous
 62
    18
100
AcDbLine
 10
4.380082999999999
 20
3.923059999999999
 30
0.0
 11
4.388964999999999
 21
3.950626
 31
0.0
  0
LINE
  5
82
330
B
100
AcDbEntity
 67
     1
  8
1
  6
Continuous
 62
    18
100
AcDbLine
 10
5.934207999999999
 20
3.771481999999999
 30
0.0
 11
5.929317
 21
3.737470999999999
 31
0.0
  0
LINE
  5
83
330
B
100
AcDbEntity
 67
     1
  8
1
  6
Continuous
 62
    18
100
AcDbLine
 10
4.272022999999999
 20
6.669596
 30
0.0
 11
4.299292999999999
 21
6.661935999999999
 31
0.0
  0
LINE
  5
84
330
B
100
AcDbEntity
 67
     1
  8
1
  6
Continuous
 62
    18
100
AcDbLine
 10
5.923146
 20
3.708781999999999
 30
0.0
 11
5.923091
 21
3.708587
 31
0.0
  0
LINE
  5
85
330
B
100
AcDbEntity
 67
     1
  8
1
  6
Continuous
 62
    18
100
AcDbLine
 10
4.042105999999999
 20
6.66978
 30
0.0
 11
4.243745999999999
 21
6.67193
 31
0.0
  0
LINE
  5
86
330
B
100
AcDbEntity
 67
     1
  8
1
  6
Continuous
 62
    18
100
AcDbLine
 10
3.121861999999999
 20
4.160809999999999
 30
0.0
 11
3.121861999999999
 21
4.147505999999999
 31
0.0
  0
LINE
  5
87
330
B
100
AcDbEntity
 67
     1
  8
1
  6
Continuous
 62
    18
100
AcDbLine
 10
3.712523999999999
 20
6.771532999999999
 30
0.0
 11
3.712523999999999
 21
6.741000999999999
 31
0.0
  0
LINE
  5
88
330
B
100
AcDbEntity
 67
     1
  8
1
  6
Continuous
 62
    18
100
AcDbLine
 10
4.323351
 20
6.79996
 30
0.0
 11
4.323081
 21
6.800069999999999
 31
0.0
  0
LINE
  5
89
330
B
100
AcDbEntity
 67
     1
  8
1
  6
Continuous
 62
    18
100
AcDbLine
 10
1.480177999999999
 20
6.528966999999999
 30
0.0
 11
1.480177999999999
 21
3.979387
 31
0.0
  0
LINE
  5
8A
330
B
100
AcDbEntity
 67
     1
  8
1
  6
Continuous
 62
    18
100
AcDbLine
 10
4.020942999999999
 20
6.812866
 30
0.0
 11
4.027578
 21
6.79703
 31
0.0
  0
LINE
  5
8B
330
B
100
AcDbEntity
 67
     1
  8
1
  6
Continuous
 62
    18
100
AcDbLine
 10
1.572929
 20
3.846373999999999
 30
0.0
 11
1.600141999999999
 21
3.838747
 31
0.0
  0
LINE
  5
8C
330
B
100
AcDbEntity
 67
     1
  8
1
  6
Continuous
 62
    18
100
AcDbLine
 10
3.82438
 20
4.36585
 30
0.0
 11
3.82438
 21
6.142503999999999
 31
0.0
  0
LINE
  5
8D
330
B
100
AcDbEntity
 67
     1
  8
1
  6
Continuous
 62
    18
100
AcDbLine
 10
1.366706999999999
 20
3.979387
 30
0.0
 11
1.366706999999999
 21
6.528966999999999
 31
0.0
  0
LINE
  5
8E
330
B
100
AcDbEntity
 67
     1
  8
1
  6
Continuous
 62
    18
100
AcDbLine
 10
5.922772
 20
3.70748
 30
0.0
 11
5.922132
 21
3.705362999999999
 31
0.0
  0
LINE
  5
8F
330
B
100
AcDbEntity
 67
     1
  8
1
  6
Continuous
 62
    18
100
AcDbLine
 10
2.129685999999999
 20
6.060544
 30
0.0
 11
2.129685999999999
 21
4.447809999999999
 31
0.0
  0
LINE
  5
90
330
B
100
AcDbEntity
 67
     1
  8
1
  6
Continuous
 62
    18
100
AcDbLine
 10
5.702085
 20
3.839907
 30
0.0
 11
5.712537
 21
3.839406999999999
 31
0.0
  0
LINE
  5
91
330
B
100
AcDbEntity
 67
     1
  8
1
  6
Continuous
 62
    18
100
AcDbLine
 10
2.159583
 20
6.741000999999999
 30
0.0
 11
2.159583
 21
6.705835999999999
 31
0.0
  0
LINE
  5
92
330
B
100
AcDbEntity
 67
     1
  8
1
  6
Continuous
 62
    18
100
AcDbLine
 10
2.836052999999999
 20
3.680487
 30
0.0
 11
2.836052999999999
 21
3.686096
 31
0.0
  0
LINE
  5
93
330
B
100
AcDbEntity
 67
     1
  8
1
  6
Continuous
 62
    18
100
AcDbLine
 10
1.550145999999999
 20
3.70783
 30
0.0
 11
1.549313999999999
 21
3.708166999999999
 31
0.0
  0
LINE
  5
94
330
B
100
AcDbEntity
 67
     1
  8
1
  6
Continuous
 62
    18
100
AcDbLine
 10
5.702344999999999
 20
4.363217999999999
 30
0.0
 11
5.702344999999999
 21
6.145135999999999
 31
0.0
  0
LINE
  5
95
330
B
100
AcDbEntity
 67
     1
  8
1
  6
Continuous
 62
    18
100
AcDbLine
 10
2.159583
 20
4.363348999999999
 30
0.0
 11
3.712523999999999
 21
4.363348999999999
 31
0.0
  0
LINE
  5
96
330
B
100
AcDbEntity
 67
     1
  8
1
  6
Continuous
 62
    18
100
AcDbLine
 10
1.494811
 20
3.737351999999999
 30
0.0
 11
1.472611999999999
 21
3.754044999999999
 31
0.0
  0
LINE
  5
97
330
B
100
AcDbEntity
 67
     1
  8
1
  6
Continuous
 62
    18
100
AcDbLine
 10
5.907232999999999
 20
3.979387
 30
0.0
 11
5.872662999999999
 21
3.979387
 31
0.0
  0
LINE
  5
98
330
B
100
AcDbEntity
 67
     1
  8
1
  6
Continuous
 62
    18
100
AcDbLine
 10
3.077916999999999
 20
4.160809999999999
 30
0.0
 11
3.064243999999999
 21
4.160809999999999
 31
0.0
  0
LINE
  5
99
330
B
100
AcDbEntity
 67
     1
  8
1
  6
Continuous
 62
    18
100
AcDbLine
 10
5.811895999999999
 20
3.733108999999999
 30
0.0
 11
5.790098
 21
3.763651999999999
 31
0.0
  0
LINE
  5
9A
330
B
100
AcDbEntity
 67
     1
  8
1
  6
Continuous
 62
    18
100
AcDbLine
 10
3.094081999999999
 20
4.083344
 30
0.0
 11
3.094081999999999
 21
4.160809999999999
 31
0.0
  0
LINE
  5
9B
330
B
100
AcDbEntity
 67
     1
  8
1
  6
Continuous
 62
    18
100
AcDbLine
 10
5.748269999999999
 20
3.765815
 30
0.0
 11
5.734539999999999
 21
3.800995999999999
 31
0.0
  0
LINE
  5
9C
330
B
100
AcDbEntity
 67
     1
  8
1
  6
Continuous
 62
    18
100
AcDbLine
 10
1.483154
 20
6.557783999999999
 30
0.0
 11
1.492073999999999
 21
6.585408
 31
0.0
  0
LINE
  5
9D
330
B
100
AcDbEntity
 67
     1
  8
1
  6
Continuous
 62
    18
100
AcDbLine
 10
2.992456
 20
4.083344
 30
0.0
 11
2.951558999999999
 21
4.083344
 31
0.0
  0
LINE
  5
9E
330
B
100
AcDbEntity
 67
     1
  8
1
  6
Continuous
 62
    18
100
AcDbLine
 10
4.323583999999999
 20
3.70849
 30
0.0
 11
4.323466
 21
3.708441
 31
0.0
  0
LINE
  5
9F
330
B
100
AcDbEntity
 67
     1
  8
1
  6
Continuous
 62
    18
100
AcDbLine
 10
6.040595999999999
 20
6.828547
 30
0.0
 11
5.910398
 21
6.821724
 31
0.0
  0
LINE
  5
A0
330
B
100
AcDbEntity
 67
     1
  8
1
  6
Continuous
 62
    18
100
AcDbLine
 10
2.972249999999999
 20
4.098705
 30
0.0
 11
2.984854999999999
 21
4.098705
 31
0.0
  0
LINE
  5
A1
330
B
100
AcDbEntity
 67
     1
  8
1
  6
Continuous
 62
    18
100
AcDbLine
 10
4.321087
 20
3.70748
 30
0.0
 11
4.315618999999999
 21
3.705362999999999
 31
0.0
  0
LINE
  5
A2
330
B
100
AcDbEntity
 67
     1
  8
1
  6
Continuous
 62
    18
100
AcDbLine
 10
5.934207999999999
 20
6.736871999999999
 30
0.0
 11
5.929317
 21
6.770883
 31
0.0
  0
LINE
  5
A3
330
B
100
AcDbEntity
 67
     1
  8
1
  6
Continuous
 62
    18
100
AcDbLine
 10
2.793962
 20
4.185502999999999
 30
0.0
 11
2.725201999999999
 21
4.185502999999999
 31
0.0
  0
LINE
  5
A4
330
B
100
AcDbEntity
 67
     1
  8
1
  6
Continuous
 62
    18
100
AcDbLine
 10
2.159583
 20
6.145005
 30
0.0
 11
2.045093999999999
 21
6.145135999999999
 31
0.0
  0
LINE
  5
A5
330
B
100
AcDbEntity
 67
     1
  8
1
  6
Continuous
 62
    18
100
AcDbLine
 10
5.923146
 20
6.799572
 30
0.0
 11
5.923091
 21
6.799767
 31
0.0
  0
LINE
  5
A6
330
B
100
AcDbEntity
 67
     1
  8
1
  6
Continuous
 62
    18
100
AcDbLine
 10
2.819255
 20
4.083344
 30
0.0
 11
2.798451
 21
4.083344
 31
0.0
  0
LINE
  5
A7
330
B
100
AcDbEntity
 67
     1
  8
1
  6
Continuous
 62
    18
100
AcDbLine
 10
2.049134999999999
 20
3.839907
 30
0.0
 11
2.159583
 21
3.840075
 31
0.0
  0
LINE
  5
A8
330
B
100
AcDbEntity
 67
     1
  8
1
  6
Continuous
 62
    18
100
AcDbLine
 10
5.923005999999999
 20
6.800069999999999
 30
0.0
 11
5.922772
 21
6.800874
 31
0.0
  0
LINE
  5
A9
330
B
100
AcDbEntity
 67
     1
  8
1
  6
Continuous
 62
    18
100
AcDbLine
 10
3.712523999999999
 20
3.802518
 30
0.0
 11
3.712523999999999
 21
3.840075
 31
0.0
  0
LINE
  5
AA
330
B
100
AcDbEntity
 67
     1
  8
1
  6
Continuous
 62
    18
100
AcDbLine
 10
2.936052999999999
 20
4.083344
 30
0.0
 11
2.915345999999999
 21
4.083344
 31
0.0
  0
LINE
  5
AB
330
B
100
AcDbEntity
 67
     1
  8
1
  6
Continuous
 62
    18
100
AcDbLine
 10
3.932977999999999
 20
6.668947
 30
0.0
 11
4.042105999999999
 21
6.66978
 31
0.0
  0
LINE
  5
AC
330
B
100
AcDbEntity
 67
     1
  8
1
  6
Continuous
 62
    18
100
AcDbLine
 10
5.874029
 20
6.815025999999999
 30
0.0
 11
5.840480999999999
 21
6.799196
 31
0.0
  0
LINE
  5
AD
330
B
100
AcDbEntity
 67
     1
  8
1
  6
Continuous
 62
    18
100
AcDbLine
 10
2.129685999999999
 20
4.447809999999999
 30
0.0
 11
3.742420999999999
 21
4.447809999999999
 31
0.0
  0
LINE
  5
AE
330
B
100
AcDbEntity
 67
     1
  8
1
  6
Continuous
 62
    18
100
AcDbLine
 10
1.628359999999999
 20
6.67193
 30
0.0
 11
1.83
 21
6.66978
 31
0.0
  0
LINE
  5
AF
330
B
100
AcDbEntity
 67
     1
  8
1
  6
Continuous
 62
    18
100
AcDbLine
 10
2.850328999999999
 20
4.160809999999999
 30
0.0
 11
2.877479
 21
4.100346
 31
0.0
  0
LINE
  5
B0
330
B
100
AcDbEntity
 67
     1
  8
1
  6
Continuous
 62
    18
100
AcDbLine
 10
4.458302999999999
 20
6.528966999999999
 30
0.0
 11
4.427433999999999
 21
6.528966999999999
 31
0.0
  0
LINE
  5
B1
330
B
100
AcDbEntity
 67
     1
  8
1
  6
Continuous
 62
    18
100
AcDbLine
 10
5.799004
 20
6.79703
 30
0.0
 11
5.770223999999999
 21
6.773078999999999
 31
0.0
  0
LINE
  5
B2
330
B
100
AcDbEntity
 67
     1
  8
1
  6
Continuous
 62
    18
100
AcDbLine
 10
2.129685999999999
 20
4.447809999999999
 30
0.0
 11
2.126638
 21
4.444761999999999
 31
0.0
  0
LINE
  5
B3
330
B
100
AcDbEntity
 67
     1
  8
1
  6
Continuous
 62
    18
100
AcDbLine
 10
1.494811
 20
6.771002
 30
0.0
 11
1.472611999999999
 21
6.754308999999999
 31
0.0
  0
LINE
  5
B4
330
B
100
AcDbEntity
 67
     1
  8
1
  6
Continuous
 62
    18
100
AcDbLine
 10
4.210842999999999
 20
3.68663
 30
0.0
 11
4.219098999999999
 21
3.693327999999999
 31
0.0
  0
LINE
  5
B5
330
B
100
AcDbEntity
 67
     1
  8
1
  6
Continuous
 62
    18
100
AcDbLine
 10
5.683595999999999
 20
4.178714
 30
0.0
 11
5.683595999999999
 21
4.160809999999999
 31
0.0
  0
LINE
  5
B6
330
B
100
AcDbEntity
 67
     1
  8
1
  6
Continuous
 62
    18
100
AcDbLine
 10
3.736331999999999
 20
4.453898
 30
0.0
 11
3.736331999999999
 21
6.054456
 31
0.0
  0
LINE
  5
B7
330
B
100
AcDbEntity
 67
     1
  8
1
  6
Continuous
 62
    18
100
AcDbLine
 10
6.127595999999999
 20
4.42835
 30
0.0
 11
6.127595999999999
 21
6.080003999999999
 31
0.0
  0
LINE
  5
B8
330
B
100
AcDbEntity
 67
     1
  8
1
  6
Continuous
 62
    18
100
AcDbLine
 10
4.020942999999999
 20
3.695487999999999
 30
0.0
 11
4.027578
 21
3.711323
 31
0.0
  0
LINE
  5
B9
330
B
100
AcDbEntity
 67
     1
  8
1
  6
Continuous
 62
    18
100
AcDbLine
 10
5.698596
 20
4.160809999999999
 30
0.0
 11
5.683595999999999
 21
4.160809999999999
 31
0.0
  0
LINE
  5
BA
330
B
100
AcDbEntity
 67
     1
  8
1
  6
Continuous
 62
    18
100
AcDbLine
 10
6.127595999999999
 20
6.110572
 30
0.0
 11
6.127595999999999
 21
6.115301999999999
 31
0.0
  0
LINE
  5
BB
330
B
100
AcDbEntity
 67
     1
  8
1
  6
Continuous
 62
    18
100
AcDbLine
 10
1.413804
 20
6.528966999999999
 30
0.0
 11
1.389564999999999
 21
6.528966999999999
 31
0.0
  0
LINE
  5
BC
330
B
100
AcDbEntity
 67
     1
  8
1
  6
Continuous
 62
    18
100
AcDbLine
 10
5.980596
 20
3.682583
 30
0.0
 11
6.001668
 21
3.681847
 31
0.0
  0
LINE
  5
BD
330
B
100
AcDbEntity
 67
     1
  8
1
  6
Continuous
 62
    18
100
AcDbLine
 10
5.807045999999999
 20
3.979387
 30
0.0
 11
5.807045999999999
 21
6.528966999999999
 31
0.0
  0
LINE
  5
BE
330
B
100
AcDbEntity
 67
     1
  8
1
  6
Continuous
 62
    18
100
AcDbLine
 10
1.628359999999999
 20
3.836423999999999
 30
0.0
 11
1.629831999999999
 21
3.798839
 31
0.0
  0
LINE
  5
BF
330
B
100
AcDbEntity
 67
     1
  8
1
  6
Continuous
 62
    18
100
AcDbLine
 10
5.804101999999999
 20
6.585294
 30
0.0
 11
5.806307
 21
6.557728
 31
0.0
  0
LINE
  5
C0
330
B
100
AcDbEntity
 67
     1
  8
1
  6
Continuous
 62
    18
100
AcDbLine
 10
4.233537
 20
6.775246
 30
0.0
 11
4.238798
 21
6.744702
 31
0.0
  0
LINE
  5
C1
330
B
100
AcDbEntity
 67
     1
  8
1
  6
Continuous
 62
    18
100
AcDbLine
 10
5.784647
 20
3.846417999999999
 30
0.0
 11
5.790658
 21
3.859137
 31
0.0
  0
LINE
  5
C2
330
B
100
AcDbEntity
 67
     1
  8
1
  6
Continuous
 62
    18
100
AcDbLine
 10
1.834252
 20
3.765815
 30
0.0
 11
1.838768999999999
 21
3.735275
 31
0.0
  0
LINE
  5
C3
330
B
100
AcDbEntity
 67
     1
  8
1
  6
Continuous
 62
    18
100
AcDbLine
 10
5.944732
 20
6.528966999999999
 30
0.0
 11
6.040595999999999
 21
6.528966999999999
 31
0.0
  0
LINE
  5
C4
330
B
100
AcDbEntity
 67
     1
  8
1
  6
Continuous
 62
    18
100
AcDbLine
 10
3.712523999999999
 20
6.818074
 30
0.0
 11
2.159583
 21
6.818074
 31
0.0
  0
LINE
  5
C5
330
B
100
AcDbEntity
 67
     1
  8
1
  6
Continuous
 62
    18
100
AcDbLine
 10
2.852489999999999
 20
4.109221999999999
 30
0.0
 11
2.830249
 21
4.109221999999999
 31
0.0
  0
LINE
  5
C6
330
B
100
AcDbEntity
 67
     1
  8
1
  6
Continuous
 62
    18
100
AcDbLine
 10
6.127595999999999
 20
4.393053
 30
0.0
 11
6.127595999999999
 21
4.397781
 31
0.0
  0
LINE
  5
C7
330
B
100
AcDbEntity
 67
     1
  8
1
  6
Continuous
 62
    18
100
AcDbLine
 10
6.040595999999999
 20
6.721533999999999
 30
0.0
 11
6.040595999999999
 21
6.758458999999999
 31
0.0
  0
LINE
  5
C8
330
B
100
AcDbEntity
 67
     1
  8
1
  6
Continuous
 62
    18
100
AcDbLine
 10
1.628359999999999
 20
6.67193
 30
0.0
 11
1.629831999999999
 21
6.709514999999999
 31
0.0
  0
LINE
  5
C9
330
B
100
AcDbEntity
 67
     1
  8
1
  6
Continuous
 62
    18
100
AcDbLine
 10
1.834252
 20
6.742538999999999
 30
0.0
 11
1.838768999999999
 21
6.773078999999999
 31
0.0
  0
LINE
  5
CA
330
B
100
AcDbEntity
 67
     1
  8
1
  6
Continuous
 62
    18
100
AcDbLine
 10
6.040595999999999
 20
3.876924999999999
 30
0.0
 11
6.040595999999999
 21
3.829597
 31
0.0
  0
LINE
  5
CB
330
B
100
AcDbEntity
 67
     1
  8
1
  6
Continuous
 62
    18
100
AcDbLine
 10
1.548987999999999
 20
6.800055
 30
0.0
 11
1.520251999999999
 21
6.786477999999999
 31
0.0
  0
LINE
  5
CC
330
B
100
AcDbEntity
 67
     1
  8
1
  6
Continuous
 62
    18
100
AcDbLine
 10
4.013855999999999
 20
3.68878
 30
0.0
 11
3.914082
 21
3.689612
 31
0.0
  0
LINE
  5
CD
330
B
100
AcDbEntity
 67
     1
  8
1
  6
Continuous
 62
    18
100
AcDbLine
 10
5.944732
 20
3.979387
 30
0.0
 11
5.944073999999999
 21
3.925120999999999
 31
0.0
  0
LINE
  5
CE
330
B
100
AcDbEntity
 67
     1
  8
1
  6
Continuous
 62
    18
100
AcDbLine
 10
1.520251999999999
 20
6.786477999999999
 30
0.0
 11
1.494811
 21
6.771002
 31
0.0
  0
LINE
  5
CF
330
B
100
AcDbEntity
 67
     1
  8
1
  6
Continuous
 62
    18
100
AcDbLine
 10
1.858249999999999
 20
3.68878
 30
0.0
 11
1.661263
 21
3.68663
 31
0.0
  0
LINE
  5
D0
330
B
100
AcDbEntity
 67
     1
  8
1
  6
Continuous
 62
    18
100
AcDbLine
 10
5.929317
 20
3.737470999999999
 30
0.0
 11
5.92635
 21
3.721983
 31
0.0
  0
LINE
  5
D1
330
B
100
AcDbEntity
 67
     1
  8
1
  6
Continuous
 62
    18
100
AcDbLine
 10
4.505399999999999
 20
6.528966999999999
 30
0.0
 11
4.500323
 21
6.583232999999999
 31
0.0
  0
LINE
  5
D2
330
B
100
AcDbEntity
 67
     1
  8
1
  6
Continuous
 62
    18
100
AcDbLine
 10
3.159858
 20
4.083344
 30
0.0
 11
3.138324
 21
4.083344
 31
0.0
  0
LINE
  5
D3
330
B
100
AcDbEntity
 67
     1
  8
1
  6
Continuous
 62
    18
100
AcDbLine
 10
4.299292999999999
 20
6.661935999999999
 30
0.0
 11
4.324745
 21
6.649217
 31
0.0
  0
LINE
  5
D4
330
B
100
AcDbEntity
 67
     1
  8
1
  6
Continuous
 62
    18
100
AcDbLine
 10
5.923091
 20
3.708587
 30
0.0
 11
5.923064
 21
3.70849
 31
0.0
  0
LINE
  5
D5
330
B
100
AcDbEntity
 67
     1
  8
1
  6
Continuous
 62
    18
100
AcDbLine
 10
6.040595999999999
 20
4.380358
 30
0.0
 11
6.117944999999999
 21
4.383058999999999
 31
0.0
  0
LINE
  5
D6
330
B
100
AcDbEntity
 67
     1
  8
1
  6
Continuous
 62
    18
100
AcDbLine
 10
4.323820999999999
 20
6.799767
 30
0.0
 11
4.323583999999999
 21
6.799864
 31
0.0
  0
LINE
  5
D7
330
B
100
AcDbEntity
 67
     1
  8
1
  6
Continuous
 62
    18
100
AcDbLine
 10
4.219098999999999
 20
6.815025999999999
 30
0.0
 11
4.226828
 21
6.799196
 31
0.0
  0
LINE
  5
D8
330
B
100
AcDbEntity
 67
     1
  8
1
  6
Continuous
 62
    18
100
AcDbLine
 10
4.324294
 20
6.799572
 30
0.0
 11
4.323820999999999
 21
6.799767
 31
0.0
  0
LINE
  5
D9
330
B
100
AcDbEntity
 67
     1
  8
1
  6
Continuous
 62
    18
100
AcDbLine
 10
1.480177999999999
 20
3.979387
 30
0.0
 11
1.483154
 21
3.950569999999999
 31
0.0
  0
LINE
  5
DA
330
B
100
AcDbEntity
 67
     1
  8
1
  6
Continuous
 62
    18
100
AcDbLine
 10
4.027578
 20
6.79703
 30
0.0
 11
4.033337999999999
 21
6.773078999999999
 31
0.0
  0
LINE
  5
DB
330
B
100
AcDbEntity
 67
     1
  8
1
  6
Continuous
 62
    18
100
AcDbLine
 10
1.600141999999999
 20
3.838747
 30
0.0
 11
1.628359999999999
 21
3.836423999999999
 31
0.0
  0
LINE
  5
DC
330
B
100
AcDbEntity
 67
     1
  8
1
  6
Continuous
 62
    18
100
AcDbLine
 10
4.366023999999999
 20
3.898148999999999
 30
0.0
 11
4.380082999999999
 21
3.923059999999999
 31
0.0
  0
LINE
  5
DD
330
B
100
AcDbEntity
 67
     1
  8
1
  6
Continuous
 62
    18
100
AcDbLine
 10
3.82438
 20
6.142503999999999
 30
0.0
 11
2.047725999999999
 21
6.142503999999999
 31
0.0
  0
LINE
  5
DE
330
B
100
AcDbEntity
 67
     1
  8
1
  6
Continuous
 62
    18
100
AcDbLine
 10
1.361682999999999
 20
6.528966999999999
 30
0.0
 11
1.366706999999999
 21
6.528966999999999
 31
0.0
  0
LINE
  5
DF
330
B
100
AcDbEntity
 67
     1
  8
1
  6
Continuous
 62
    18
100
AcDbLine
 10
5.922132
 20
3.705362999999999
 30
0.0
 11
5.919723999999999
 21
3.698401999999999
 31
0.0
  0
LINE
  5
E0
330
B
100
AcDbEntity
 67
     1
  8
1
  6
Continuous
 62
    18
100
AcDbLine
 10
1.645279
 20
6.799196
 30
0.0
 11
1.653008
 21
6.815025999999999
 31
0.0
  0
LINE
  5
E1
330
B
100
AcDbEntity
 67
     1
  8
1
  6
Continuous
 62
    18
100
AcDbLine
 10
2.119691999999999
 20
6.070539
 30
0.0
 11
2.126638
 21
6.063591999999999
 31
0.0
  0
LINE
  5
E2
330
B
100
AcDbEntity
 67
     1
  8
1
  6
Continuous
 62
    18
100
AcDbLine
 10
5.712537
 20
3.839406999999999
 30
0.0
 11
5.729912
 21
3.838573999999999
 31
0.0
  0
LINE
  5
E3
330
B
100
AcDbEntity
 67
     1
  8
1
  6
Continuous
 62
    18
100
AcDbLine
 10
3.742420999999999
 20
6.060544
 30
0.0
 11
2.129685999999999
 21
6.060544
 31
0.0
  0
LINE
  5
E4
330
B
100
AcDbEntity
 67
     1
  8
1
  6
Continuous
 62
    18
100
AcDbLine
 10
1.549313999999999
 20
3.708166999999999
 30
0.0
 11
1.549094
 21
3.708255999999999
 31
0.0
  0
LINE
  5
E5
330
B
100
AcDbEntity
 67
     1
  8
1
  6
Continuous
 62
    18
100
AcDbLine
 10
5.944732
 20
6.528966999999999
 30
0.0
 11
5.907232999999999
 21
6.528966999999999
 31
0.0
  0
LINE
  5
E6
330
B
100
AcDbEntity
 67
     1
  8
1
  6
Continuous
 62
    18
100
AcDbLine
 10
3.023581999999999
 20
4.160809999999999
 30
0.0
 11
3.04705
 21
4.160809999999999
 31
0.0
  0
LINE
  5
E7
330
B
100
AcDbEntity
 67
     1
  8
1
  6
Continuous
 62
    18
100
AcDbLine
 10
2.159583
 20
4.363348999999999
 30
0.0
 11
2.159583
 21
3.840075
 31
0.0
  0
LINE
  5
E8
330
B
100
AcDbEntity
 67
     1
  8
1
  6
Continuous
 62
    18
100
AcDbLine
 10
1.472611999999999
 20
3.754044999999999
 30
0.0
 11
1.453519
 21
3.771347
 31
0.0
  0
LINE
  5
E9
330
B
100
AcDbEntity
 67
     1
  8
1
  6
Continuous
 62
    18
100
AcDbLine
 10
5.872662999999999
 20
3.979387
 30
0.0
 11
5.843251
 21
3.979387
 31
0.0
  0
LINE
  5
EA
330
B
100
AcDbEntity
 67
     1
  8
1
  6
Continuous
 62
    18
100
AcDbLine
 10
6.117944999999999
 20
4.42835
 30
0.0
 11
6.040595999999999
 21
4.42835
 31
0.0
  0
LINE
  5
EB
330
B
100
AcDbEntity
 67
     1
  8
1
  6
Continuous
 62
    18
100
AcDbLine
 10
3.064243999999999
 20
4.160809999999999
 30
0.0
 11
3.064243999999999
 21
4.101605999999999
 31
0.0
  0
LINE
  5
EC
330
B
100
AcDbEntity
 67
     1
  8
1
  6
Continuous
 62
    18
100
AcDbLine
 10
4.484478
 20
3.87073
 30
0.0
 11
4.457284999999999
 21
3.818616
 31
0.0
  0
LINE
  5
ED
330
B
100
AcDbEntity
 67
     1
  8
1
  6
Continuous
 62
    18
100
AcDbLine
 10
5.790098
 20
3.763651999999999
 30
0.0
 11
5.776476
 21
3.798839
 31
0.0
  0
LINE
  5
EE
330
B
100
AcDbEntity
 67
     1
  8
1
  6
Continuous
 62
    18
100
AcDbLine
 10
3.112528999999999
 20
4.083344
 30
0.0
 11
3.094081999999999
 21
4.083344
 31
0.0
  0
LINE
  5
EF
330
B
100
AcDbEntity
 67
     1
  8
1
  6
Continuous
 62
    18
100
AcDbLine
 10
4.338109999999999
 20
3.714905999999999
 30
0.0
 11
4.330830999999999
 21
3.711573
 31
0.0
  0
LINE
  5
F0
330
B
100
AcDbEntity
 67
     1
  8
1
  6
Continuous
 62
    18
100
AcDbLine
 10
5.734539999999999
 20
3.800995999999999
 30
0.0
 11
5.729912
 21
3.838573999999999
 31
0.0
  0
LINE
  5
F1
330
B
100
AcDbEntity
 67
     1
  8
1
  6
Continuous
 62
    18
100
AcDbLine
 10
2.951558999999999
 20
4.083344
 30
0.0
 11
2.951558999999999
 21
4.160809999999999
 31
0.0
  0
LINE
  5
F2
330
B
100
AcDbEntity
 67
     1
  8
1
  6
Continuous
 62
    18
100
AcDbLine
 10
4.323466
 20
3.708441
 30
0.0
 11
4.323406999999999
 21
3.708416999999999
 31
0.0
  0
LINE
  5
F3
330
B
100
AcDbEntity
 67
     1
  8
1
  6
Continuous
 62
    18
100
AcDbLine
 10
5.944732
 20
6.528966999999999
 30
0.0
 11
5.944073999999999
 21
6.583232999999999
 31
0.0
  0
LINE
  5
F4
330
B
100
AcDbEntity
 67
     1
  8
1
  6
Continuous
 62
    18
100
AcDbLine
 10
4.315618999999999
 20
3.705362999999999
 30
0.0
 11
4.294750999999999
 21
3.698401999999999
 31
0.0
  0
LINE
  5
F5
330
B
100
AcDbEntity
 67
     1
  8
1
  6
Continuous
 62
    18
100
AcDbLine
 10
5.929317
 20
6.770883
 30
0.0
 11
5.92635
 21
6.786371
 31
0.0
  0
LINE
  5
F6
330
B
100
AcDbEntity
 67
     1
  8
1
  6
Continuous
 62
    18
100
AcDbLine
 10
1.37352
 20
3.979387
 30
0.0
 11
1.366706999999999
 21
3.979387
 31
0.0
  0
LINE
  5
F7
330
B
100
AcDbEntity
 67
     1
  8
1
  6
Continuous
 62
    18
100
AcDbLine
 10
2.725201999999999
 20
4.083344
 30
0.0
 11
2.725201999999999
 21
4.185502999999999
 31
0.0
  0
LINE
  5
F8
330
B
100
AcDbEntity
 67
     1
  8
1
  6
Continuous
 62
    18
100
AcDbLine
 10
2.159583
 20
6.145005
 30
0.0
 11
2.159583
 21
6.668278999999999
 31
0.0
  0
LINE
  5
F9
330
B
100
AcDbEntity
 67
     1
  8
1
  6
Continuous
 62
    18
100
AcDbLine
 10
5.923091
 20
6.799767
 30
0.0
 11
5.923064
 21
6.799864
 31
0.0
  0
LINE
  5
FA
330
B
100
AcDbEntity
 67
     1
  8
1
  6
Continuous
 62
    18
100
AcDbLine
 10
2.819255
 20
4.083344
 30
0.0
 11
2.824173
 21
4.094971
 31
0.0
  0
LINE
  5
FB
330
B
100
AcDbEntity
 67
     1
  8
1
  6
Continuous
 62
    18
100
AcDbLine
 10
3.712523999999999
 20
4.363348999999999
 30
0.0
 11
3.827012999999999
 21
4.363217999999999
 31
0.0
  0
LINE
  5
FC
330
B
100
AcDbEntity
 67
     1
  8
1
  6
Continuous
 62
    18
100
AcDbLine
 10
5.922772
 20
6.800874
 30
0.0
 11
5.922132
 21
6.802991
 31
0.0
  0
LINE
  5
FD
330
B
100
AcDbEntity
 67
     1
  8
1
  6
Continuous
 62
    18
100
AcDbLine
 10
2.936052999999999
 20
4.160809999999999
 30
0.0
 11
2.936052999999999
 21
4.083344
 31
0.0
  0
LINE
  5
FE
330
B
100
AcDbEntity
 67
     1
  8
1
  6
Continuous
 62
    18
100
AcDbLine
 10
3.712523999999999
 20
6.668278999999999
 30
0.0
 11
3.712523999999999
 21
6.145005
 31
0.0
  0
LINE
  5
FF
330
B
100
AcDbEntity
 67
     1
  8
1
  6
Continuous
 62
    18
100
AcDbLine
 10
5.840480999999999
 20
6.799196
 30
0.0
 11
5.811895999999999
 21
6.775246
 31
0.0
  0
LINE
  5
100
330
B
100
AcDbEntity
 67
     1
  8
1
  6
Continuous
 62
    18
100
AcDbLine
 10
3.736331999999999
 20
4.453898
 30
0.0
 11
3.742420999999999
 21
4.447809999999999
 31
0.0
  0
LINE
  5
101
330
B
100
AcDbEntity
 67
     1
  8
1
  6
Continuous
 62
    18
100
AcDbLine
 10
2.829159999999999
 20
4.160809999999999
 30
0.0
 11
2.850328999999999
 21
4.160809999999999
 31
0.0
  0
LINE
  5
102
330
B
100
AcDbEntity
 67
     1
  8
1
  6
Continuous
 62
    18
100
AcDbLine
 10
4.427433999999999
 20
6.528966999999999
 30
0.0
 11
4.391928
 21
6.528966999999999
 31
0.0
  0
LINE
  5
103
330
B
100
AcDbEntity
 67
     1
  8
1
  6
Continuous
 62
    18
100
AcDbLine
 10
5.770223999999999
 20
6.773078999999999
 30
0.0
 11
5.748269999999999
 21
6.742538999999999
 31
0.0
  0
LINE
  5
104
330
B
100
AcDbEntity
 67
     1
  8
1
  6
Continuous
 62
    18
100
AcDbLine
 10
2.126638
 20
4.444761999999999
 30
0.0
 11
2.119691999999999
 21
4.437816
 31
0.0
  0
LINE
  5
105
330
B
100
AcDbEntity
 67
     1
  8
1
  6
Continuous
 62
    18
100
AcDbLine
 10
4.219098999999999
 20
3.693327999999999
 30
0.0
 11
4.226828
 21
3.709157999999999
 31
0.0
  0
LINE
  5
106
330
B
100
AcDbEntity
 67
     1
  8
1
  6
Continuous
 62
    18
100
AcDbLine
 10
5.683595999999999
 20
4.083344
 30
0.0
 11
5.683595999999999
 21
4.147505999999999
 31
0.0
  0
LINE
  5
107
330
B
100
AcDbEntity
 67
     1
  8
1
  6
Continuous
 62
    18
100
AcDbLine
 10
6.117944999999999
 20
6.080003999999999
 30
0.0
 11
6.124789999999999
 21
6.080003999999999
 31
0.0
  0
LINE
  5
108
330
B
100
AcDbEntity
 67
     1
  8
1
  6
Continuous
 62
    18
100
AcDbLine
 10
4.027578
 20
3.711323
 30
0.0
 11
4.033337999999999
 21
3.735275
 31
0.0
  0
LINE
  5
109
330
B
100
AcDbEntity
 67
     1
  8
1
  6
Continuous
 62
    18
100
AcDbLine
 10
5.698596
 20
3.840075
 30
0.0
 11
5.698596
 21
4.363348999999999
 31
0.0
  0
LINE
  5
10A
330
B
100
AcDbEntity
 67
     1
  8
1
  6
Continuous
 62
    18
100
AcDbLine
 10
3.712523999999999
 20
3.69028
 30
0.0
 11
3.712523999999999
 21
3.697016999999999
 31
0.0
  0
LINE
  5
10B
330
B
100
AcDbEntity
 67
     1
  8
1
  6
Continuous
 62
    18
100
AcDbLine
 10
5.771901999999999
 20
6.67193
 30
0.0
 11
5.778325999999999
 21
6.669596
 31
0.0
  0
LINE
  5
10C
330
B
100
AcDbEntity
 67
     1
  8
1
  6
Continuous
 62
    18
100
AcDbLine
 10
4.338109999999999
 20
6.793447999999999
 30
0.0
 11
4.330830999999999
 21
6.796781
 31
0.0
  0
LINE
  5
10D
330
B
100
AcDbEntity
 67
     1
  8
1
  6
Continuous
 62
    18
100
AcDbLine
 10
1.413804
 20
3.979387
 30
0.0
 11
1.389564999999999
 21
3.979387
 31
0.0
  0
LINE
  5
10E
330
B
100
AcDbEntity
 67
     1
  8
1
  6
Continuous
 62
    18
100
AcDbLine
 10
5.806307
 20
6.557728
 30
0.0
 11
5.807045999999999
 21
6.528966999999999
 31
0.0
  0
LINE
  5
10F
330
B
100
AcDbEntity
 67
     1
  8
1
  6
Continuous
 62
    18
100
AcDbLine
 10
4.272022999999999
 20
3.838758
 30
0.0
 11
4.299292999999999
 21
3.846417999999999
 31
0.0
  0
LINE
  5
110
330
B
100
AcDbEntity
 67
     1
  8
1
  6
Continuous
 62
    18
100
AcDbLine
 10
5.790658
 20
3.859137
 30
0.0
 11
5.796037999999999
 21
3.876480999999999
 31
0.0
  0
LINE
  5
111
330
B
100
AcDbEntity
 67
     1
  8
1
  6
Continuous
 62
    18
100
AcDbLine
 10
1.838768999999999
 20
3.735275
 30
0.0
 11
1.844528
 21
3.711323
 31
0.0
  0
LINE
  5
112
330
B
100
AcDbEntity
 67
     1
  8
1
  6
Continuous
 62
    18
100
AcDbLine
 10
4.013855999999999
 20
6.819574
 30
0.0
 11
3.914082
 21
6.818741999999999
 31
0.0
  0
LINE
  5
113
330
B
100
AcDbEntity
 67
     1
  8
1
  6
Continuous
 62
    18
100
AcDbLine
 10
1.553773999999999
 20
6.801955999999999
 30
0.0
 11
1.550145999999999
 21
6.800524
 31
0.0
  0
LINE
  5
114
330
B
100
AcDbEntity
 67
     1
  8
1
  6
Continuous
 62
    18
100
AcDbLine
 10
6.040595999999999
 20
6.758458999999999
 30
0.0
 11
6.040595999999999
 21
6.788410999999999
 31
0.0
  0
LINE
  5
115
330
B
100
AcDbEntity
 67
     1
  8
1
  6
Continuous
 62
    18
100
AcDbLine
 10
3.712523999999999
 20
6.145005
 30
0.0
 11
2.159583
 21
6.145005
 31
0.0
  0
LINE
  5
116
330
B
100
AcDbEntity
 67
     1
  8
1
  6
Continuous
 62
    18
100
AcDbLine
 10
3.712523999999999
 20
3.840075
 30
0.0
 11
3.712523999999999
 21
4.363348999999999
 31
0.0
  0
LINE
  5
117
330
B
100
AcDbEntity
 67
     1
  8
1
  6
Continuous
 62
    18
100
AcDbLine
 10
6.040595999999999
 20
3.829597
 30
0.0
 11
6.040595999999999
 21
3.786819999999999
 31
0.0
  0
LINE
  5
118
330
B
100
AcDbEntity
 67
     1
  8
1
  6
Continuous
 62
    18
100
AcDbLine
 10
1.550145999999999
 20
6.800524
 30
0.0
 11
1.549313999999999
 21
6.800186999999999
 31
0.0
  0
LINE
  5
119
330
B
100
AcDbEntity
 67
     1
  8
1
  6
Continuous
 62
    18
100
AcDbLine
 10
3.914082
 20
3.689612
 30
0.0
 11
3.813504
 21
3.690112999999999
 31
0.0
  0
LINE
  5
11A
330
B
100
AcDbEntity
 67
     1
  8
1
  6
Continuous
 62
    18
100
AcDbLine
 10
5.944073999999999
 20
3.925120999999999
 30
0.0
 11
5.942101
 21
3.87073
 31
0.0
  0
LINE
  5
11B
330
B
100
AcDbEntity
 67
     1
  8
1
  6
Continuous
 62
    18
100
AcDbLine
 10
1.661263
 20
3.68663
 30
0.0
 11
1.661263
 21
3.679805999999999
 31
0.0
  0
LINE
  5
11C
330
B
100
AcDbEntity
 67
     1
  8
1
  6
Continuous
 62
    18
100
AcDbLine
 10
1.83
 20
3.838573999999999
 30
0.0
 11
1.831265
 21
3.800995999999999
 31
0.0
  0
LINE
  5
11D
330
B
100
AcDbEntity
 67
     1
  8
1
  6
Continuous
 62
    18
100
AcDbLine
 10
3.159858
 20
4.083344
 30
0.0
 11
3.159858
 21
4.147505999999999
 31
0.0
  0
LINE
  5
11E
330
B
100
AcDbEntity
 67
     1
  8
1
  6
Continuous
 62
    18
100
AcDbLine
 10
4.324745
 20
6.649217
 30
0.0
 11
4.347144999999999
 21
6.631872999999999
 31
0.0
  0
LINE
  5
11F
330
B
100
AcDbEntity
 67
     1
  8
1
  6
Continuous
 62
    18
100
AcDbLine
 10
5.923064
 20
3.70849
 30
0.0
 11
5.923051
 21
3.708441
 31
0.0
  0
LINE
  5
120
330
B
100
AcDbEntity
 67
     1
  8
1
  6
Continuous
 62
    18
100
AcDbLine
 10
4.352052999999999
 20
6.786371
 30
0.0
 11
4.338109999999999
 21
6.793447999999999
 31
0.0
  0
LINE
  5
121
330
B
100
AcDbEntity
 67
     1
  8
1
  6
Continuous
 62
    18
100
AcDbLine
 10
4.323583999999999
 20
6.799864
 30
0.0
 11
4.323466
 21
6.799911999999999
 31
0.0
  0
LINE
  5
122
330
B
100
AcDbEntity
 67
     1
  8
1
  6
Continuous
 62
    18
100
AcDbLine
 10
4.377470999999999
 20
6.770883
 30
0.0
 11
4.352052999999999
 21
6.786371
 31
0.0
  0
LINE
  5
123
330
B
100
AcDbEntity
 67
     1
  8
1
  6
Continuous
 62
    18
100
AcDbLine
 10
1.480177999999999
 20
3.979387
 30
0.0
 11
1.444671999999999
 21
3.979387
 31
0.0
  0
LINE
  5
124
330
B
100
AcDbEntity
 67
     1
  8
1
  6
Continuous
 62
    18
100
AcDbLine
 10
4.321087
 20
6.800874
 30
0.0
 11
4.315618999999999
 21
6.802991
 31
0.0
  0
LINE
  5
125
330
B
100
AcDbEntity
 67
     1
  8
1
  6
Continuous
 62
    18
100
AcDbLine
 10
1.506142999999999
 20
6.610291
 30
0.0
 11
1.525035
 21
6.631941999999999
 31
0.0
  0
LINE
  5
126
330
B
100
AcDbEntity
 67
     1
  8
1
  6
Continuous
 62
    18
100
AcDbLine
 10
4.042105999999999
 20
3.838573999999999
 30
0.0
 11
4.243745999999999
 21
3.836423999999999
 31
0.0
  0
LINE
  5
127
330
B
100
AcDbEntity
 67
     1
  8
1
  6
Continuous
 62
    18
100
AcDbLine
 10
1.483154
 20
3.950569999999999
 30
0.0
 11
1.492073999999999
 21
3.922945999999999
 31
0.0
  0
LINE
  5
128
330
B
100
AcDbEntity
 67
     1
  8
1
  6
Continuous
 62
    18
100
AcDbLine
 10
1.628359999999999
 20
3.836423999999999
 30
0.0
 11
1.83
 21
3.838573999999999
 31
0.0
  0
LINE
  5
129
330
B
100
AcDbEntity
 67
     1
  8
1
  6
Continuous
 62
    18
100
AcDbLine
 10
3.712523999999999
 20
6.741000999999999
 30
0.0
 11
3.712523999999999
 21
6.705835999999999
 31
0.0
  0
LINE
  5
12A
330
B
100
AcDbEntity
 67
     1
  8
1
  6
Continuous
 62
    18
100
AcDbLine
 10
2.047725999999999
 20
4.36585
 30
0.0
 11
2.047725999999999
 21
6.142503999999999
 31
0.0
  0
LINE
  5
12B
330
B
100
AcDbEntity
 67
     1
  8
1
  6
Continuous
 62
    18
100
AcDbLine
 10
1.361682999999999
 20
6.528966999999999
 30
0.0
 11
1.361682999999999
 21
3.979387
 31
0.0
  0
LINE
  5
12C
330
B
100
AcDbEntity
 67
     1
  8
1
  6
Continuous
 62
    18
100
AcDbLine
 10
5.919723999999999
 20
3.698401999999999
 30
0.0
 11
5.917283
 21
3.692969
 31
0.0
  0
LINE
  5
12D
330
B
100
AcDbEntity
 67
     1
  8
1
  6
Continuous
 62
    18
100
AcDbLine
 10
1.661263
 20
3.68663
 30
0.0
 11
1.623242
 21
3.688887999999999
 31
0.0
  0
LINE
  5
12E
330
B
100
AcDbEntity
 67
     1
  8
1
  6
Continuous
 62
    18
100
AcDbLine
 10
5.698596
 20
6.668278999999999
 30
0.0
 11
5.702085
 21
6.668447
 31
0.0
  0
LINE
  5
12F
330
B
100
AcDbEntity
 67
     1
  8
1
  6
Continuous
 62
    18
100
AcDbLine
 10
1.83
 20
6.66978
 30
0.0
 11
1.831265
 21
6.707358
 31
0.0
  0
LINE
  5
130
330
B
100
AcDbEntity
 67
     1
  8
1
  6
Continuous
 62
    18
100
AcDbLine
 10
3.033958
 20
3.682583
 30
0.0
 11
3.033958
 21
3.686096
 31
0.0
  0
LINE
  5
131
330
B
100
AcDbEntity
 67
     1
  8
1
  6
Continuous
 62
    18
100
AcDbLine
 10
1.549094
 20
3.708255999999999
 30
0.0
 11
1.549026
 21
3.708283999999999
 31
0.0
  0
LINE
  5
132
330
B
100
AcDbEntity
 67
     1
  8
1
  6
Continuous
 62
    18
100
AcDbLine
 10
5.907232999999999
 20
6.528966999999999
 30
0.0
 11
5.872662999999999
 21
6.528966999999999
 31
0.0
  0
LINE
  5
133
330
B
100
AcDbEntity
 67
     1
  8
1
  6
Continuous
 62
    18
100
AcDbLine
 10
3.023581999999999
 20
4.160809999999999
 30
0.0
 11
3.023581999999999
 21
4.098963999999999
 31
0.0
  0
LINE
  5
134
330
B
100
AcDbEntity
 67
     1
  8
1
  6
Continuous
 62
    18
100
AcDbLine
 10
2.159583
 20
3.840075
 30
0.0
 11
3.712523999999999
 21
3.840075
 31
0.0
  0
LINE
  5
135
330
B
100
AcDbEntity
 67
     1
  8
1
  6
Continuous
 62
    18
100
AcDbLine
 10
1.453519
 20
3.771347
 30
0.0
 11
1.414896999999999
 21
3.818501
 31
0.0
  0
LINE
  5
136
330
B
100
AcDbEntity
 67
     1
  8
1
  6
Continuous
 62
    18
100
AcDbLine
 10
5.843251
 20
3.979387
 30
0.0
 11
5.820898
 21
3.979387
 31
0.0
  0
LINE
  5
137
330
B
100
AcDbEntity
 67
     1
  8
1
  6
Continuous
 62
    18
100
AcDbLine
 10
6.117944999999999
 20
4.42835
 30
0.0
 11
6.117944999999999
 21
4.405704
 31
0.0
  0
LINE
  5
138
330
B
100
AcDbEntity
 67
     1
  8
1
  6
Continuous
 62
    18
100
AcDbLine
 10
4.457284999999999
 20
3.818616
 30
0.0
 11
4.445676
 21
3.802211
 31
0.0
  0
LINE
  5
139
330
B
100
AcDbEntity
 67
     1
  8
1
  6
Continuous
 62
    18
100
AcDbLine
 10
5.776476
 20
3.798839
 30
0.0
 11
5.771901999999999
 21
3.836423999999999
 31
0.0
  0
LINE
  5
13A
330
B
100
AcDbEntity
 67
     1
  8
1
  6
Continuous
 62
    18
100
AcDbLine
 10
3.112528999999999
 20
4.083344
 30
0.0
 11
3.112528999999999
 21
4.160809999999999
 31
0.0
  0
LINE
  5
13B
330
B
100
AcDbEntity
 67
     1
  8
1
  6
Continuous
 62
    18
100
AcDbLine
 10
4.330830999999999
 20
3.711573
 30
0.0
 11
4.327115
 21
3.709962999999999
 31
0.0
  0
LINE
  5
13C
330
B
100
AcDbEntity
 67
     1
  8
1
  6
Continuous
 62
    18
100
AcDbLine
 10
1.389564999999999
 20
6.528966999999999
 30
0.0
 11
1.37352
 21
6.528966999999999
 31
0.0
  0
LINE
  5
13D
330
B
100
AcDbEntity
 67
     1
  8
1
  6
Continuous
 62
    18
100
AcDbLine
 10
2.972249999999999
 20
4.098705
 30
0.0
 11
2.972249999999999
 21
4.147135999999999
 31
0.0
  0
LINE
  5
13E
330
B
100
AcDbEntity
 67
     1
  8
1
  6
Continuous
 62
    18
100
AcDbLine
 10
4.323406999999999
 20
3.708416999999999
 30
0.0
 11
4.323376999999999
 21
3.708405
 31
0.0
  0
LINE
  5
13F
330
B
100
AcDbEntity
 67
     1
  8
1
  6
Continuous
 62
    18
100
AcDbLine
 10
5.944073999999999
 20
6.583232999999999
 30
0.0
 11
5.942101
 21
6.637624
 31
0.0
  0
LINE
  5
140
330
B
100
AcDbEntity
 67
     1
  8
1
  6
Continuous
 62
    18
100
AcDbLine
 10
2.784034999999999
 20
4.129942999999999
 30
0.0
 11
2.769372
 21
4.129942999999999
 31
0.0
  0
LINE
  5
141
330
B
100
AcDbEntity
 67
     1
  8
1
  6
Continuous
 62
    18
100
AcDbLine
 10
4.294750999999999
 20
3.698401999999999
 30
0.0
 11
4.273157
 21
3.692969
 31
0.0
  0
LINE
  5
142
330
B
100
AcDbEntity
 67
     1
  8
1
  6
Continuous
 62
    18
100
AcDbLine
 10
5.92635
 20
6.786371
 30
0.0
 11
5.924737
 21
6.793447999999999
 31
0.0
  0
LINE
  5
143
330
B
100
AcDbEntity
 67
     1
  8
1
  6
Continuous
 62
    18
100
AcDbLine
 10
2.769372
 20
4.083344
 30
0.0
 11
2.725201999999999
 21
4.083344
 31
0.0
  0
LINE
  5
144
330
B
100
AcDbEntity
 67
     1
  8
1
  6
Continuous
 62
    18
100
AcDbLine
 10
1.83
 20
6.66978
 30
0.0
 11
1.939128
 21
6.668947
 31
0.0
  0
LINE
  5
145
330
B
100
AcDbEntity
 67
     1
  8
1
  6
Continuous
 62
    18
100
AcDbLine
 10
5.923064
 20
6.799864
 30
0.0
 11
5.923051
 21
6.799911999999999
 31
0.0
  0
LINE
  5
146
330
B
100
AcDbEntity
 67
     1
  8
1
  6
Continuous
 62
    18
100
AcDbLine
 10
2.824173
 20
4.094971
 30
0.0
 11
2.858839
 21
4.094971
 31
0.0
  0
LINE
  5
147
330
B
100
AcDbEntity
 67
     1
  8
1
  6
Continuous
 62
    18
100
AcDbLine
 10
3.712523999999999
 20
3.840075
 30
0.0
 11
3.822970999999999
 21
3.839907
 31
0.0
  0
LINE
  5
148
330
B
100
AcDbEntity
 67
     1
  8
1
  6
Continuous
 62
    18
100
AcDbLine
 10
5.922132
 20
6.802991
 30
0.0
 11
5.919723999999999
 21
6.809952
 31
0.0
  0
LINE
  5
149
330
B
100
AcDbEntity
 67
     1
  8
1
  6
Continuous
 62
    18
100
AcDbLine
 10
2.918633999999999
 20
4.160809999999999
 30
0.0
 11
2.936052999999999
 21
4.160809999999999
 31
0.0
  0
LINE
  5
14A
330
B
100
AcDbEntity
 67
     1
  8
1
  6
Continuous
 62
    18
100
AcDbLine
 10
3.827012999999999
 20
6.145135999999999
 30
0.0
 11
3.712523999999999
 21
6.145005
 31
0.0
  0
LINE
  5
14B
330
B
100
AcDbEntity
 67
     1
  8
1
  6
Continuous
 62
    18
100
AcDbLine
 10
5.811895999999999
 20
6.775246
 30
0.0
 11
5.790098
 21
6.744702
 31
0.0
  0
LINE
  5
14C
330
B
100
AcDbEntity
 67
     1
  8
1
  6
Continuous
 62
    18
100
AcDbLine
 10
3.736331999999999
 20
4.453898
 30
0.0
 11
2.135774
 21
4.453898
 31
0.0
  0
LINE
  5
14D
330
B
100
AcDbEntity
 67
     1
  8
1
  6
Continuous
 62
    18
100
AcDbLine
 10
4.505399999999999
 20
3.979387
 30
0.0
 11
4.498586
 21
3.979387
 31
0.0
  0
LINE
  5
14E
330
B
100
AcDbEntity
 67
     1
  8
1
  6
Continuous
 62
    18
100
AcDbLine
 10
5.748269999999999
 20
6.742538999999999
 30
0.0
 11
5.734539999999999
 21
6.707358
 31
0.0
  0
LINE
  5
14F
330
B
100
AcDbEntity
 67
     1
  8
1
  6
Continuous
 62
    18
100
AcDbLine
 10
3.752413999999999
 20
4.437816
 30
0.0
 11
3.752413999999999
 21
6.070539
 31
0.0
  0
LINE
  5
150
330
B
100
AcDbEntity
 67
     1
  8
1
  6
Continuous
 62
    18
100
AcDbLine
 10
2.159583
 20
3.712866999999999
 30
0.0
 11
2.159583
 21
3.736820999999999
 31
0.0
  0
LINE
  5
151
330
B
100
AcDbEntity
 67
     1
  8
1
  6
Continuous
 62
    18
100
AcDbLine
 10
4.226828
 20
3.709157999999999
 30
0.0
 11
4.233537
 21
3.733108999999999
 31
0.0
  0
LINE
  5
152
330
B
100
AcDbEntity
 67
     1
  8
1
  6
Continuous
 62
    18
100
AcDbLine
 10
5.683595999999999
 20
4.083344
 30
0.0
 11
5.683595999999999
 21
4.147505999999999
 31
0.0
  0
LINE
  5
153
330
B
100
AcDbEntity
 67
     1
  8
1
  6
Continuous
 62
    18
100
AcDbLine
 10
6.124789999999999
 20
6.080003999999999
 30
0.0
 11
6.127595999999999
 21
6.080003999999999
 31
0.0
  0
LINE
  5
154
330
B
100
AcDbEntity
 67
     1
  8
1
  6
Continuous
 62
    18
100
AcDbLine
 10
4.033337999999999
 20
3.735275
 30
0.0
 11
4.037855
 21
3.765815
 31
0.0
  0
LINE
  5
155
330
B
100
AcDbEntity
 67
     1
  8
1
  6
Continuous
 62
    18
100
AcDbLine
 10
6.117944999999999
 20
6.125295999999999
 30
0.0
 11
6.040595999999999
 21
6.127995999999999
 31
0.0
  0
LINE
  5
156
330
B
100
AcDbEntity
 67
     1
  8
1
  6
Continuous
 62
    18
100
AcDbLine
 10
4.457284999999999
 20
6.689738
 30
0.0
 11
4.445676
 21
6.706142999999999
 31
0.0
  0
LINE
  5
157
330
B
100
AcDbEntity
 67
     1
  8
1
  6
Continuous
 62
    18
100
AcDbLine
 10
6.040595999999999
 20
3.679805999999999
 30
0.0
 11
5.910398
 21
3.68663
 31
0.0
  0
LINE
  5
158
330
B
100
AcDbEntity
 67
     1
  8
1
  6
Continuous
 62
    18
100
AcDbLine
 10
3.712523999999999
 20
3.697016999999999
 30
0.0
 11
3.712523999999999
 21
3.712866999999999
 31
0.0
  0
LINE
  5
159
330
B
100
AcDbEntity
 67
     1
  8
1
  6
Continuous
 62
    18
100
AcDbLine
 10
5.778325999999999
 20
6.669596
 30
0.0
 11
5.784647
 21
6.661935999999999
 31
0.0
  0
LINE
  5
15A
330
B
100
AcDbEntity
 67
     1
  8
1
  6
Continuous
 62
    18
100
AcDbLine
 10
5.729912
 20
6.66978
 30
0.0
 11
5.771901999999999
 21
6.67193
 31
0.0
  0
LINE
  5
15B
330
B
100
AcDbEntity
 67
     1
  8
1
  6
Continuous
 62
    18
100
AcDbLine
 10
5.796037999999999
 20
3.876480999999999
 30
0.0
 11
5.800637999999999
 21
3.898148999999999
 31
0.0
  0
LINE
  5
15C
330
B
100
AcDbEntity
 67
     1
  8
1
  6
Continuous
 62
    18
100
AcDbLine
 10
1.844528
 20
3.711323
 30
0.0
 11
1.851163
 21
3.695487999999999
 31
0.0
  0
LINE
  5
15D
330
B
100
AcDbEntity
 67
     1
  8
1
  6
Continuous
 62
    18
100
AcDbLine
 10
5.944732
 20
3.979387
 30
0.0
 11
6.040595999999999
 21
3.979387
 31
0.0
  0
LINE
  5
15E
330
B
100
AcDbEntity
 67
     1
  8
1
  6
Continuous
 62
    18
100
AcDbLine
 10
3.914082
 20
6.818741999999999
 30
0.0
 11
3.813504
 21
6.818241
 31
0.0
  0
LINE
  5
15F
330
B
100
AcDbEntity
 67
     1
  8
1
  6
Continuous
 62
    18
100
AcDbLine
 10
6.040595999999999
 20
6.788410999999999
 30
0.0
 11
6.040595999999999
 21
6.810480999999999
 31
0.0
  0
LINE
  5
160
330
B
100
AcDbEntity
 67
     1
  8
1
  6
Continuous
 62
    18
100
AcDbLine
 10
2.824968999999999
 20
3.686094999999999
 30
0.0
 11
3.047137999999999
 21
3.686094999999999
 31
0.0
  0
LINE
  5
161
330
B
100
AcDbEntity
 67
     1
  8
1
  6
Continuous
 62
    18
100
AcDbLine
 10
2.159583
 20
3.69028
 30
0.0
 11
2.159583
 21
3.697016999999999
 31
0.0
  0
LINE
  5
162
330
B
100
AcDbEntity
 67
     1
  8
1
  6
Continuous
 62
    18
100
AcDbLine
 10
6.040595999999999
 20
3.786819999999999
 30
0.0
 11
6.040595999999999
 21
3.749894999999999
 31
0.0
  0
LINE
  5
163
330
B
100
AcDbEntity
 67
     1
  8
1
  6
Continuous
 62
    18
100
AcDbLine
 10
1.549313999999999
 20
6.800186999999999
 30
0.0
 11
1.549094
 21
6.800097999999999
 31
0.0
  0
LINE
  5
164
330
B
100
AcDbEntity
 67
     1
  8
1
  6
Continuous
 62
    18
100
AcDbLine
 10
3.813504
 20
3.690112999999999
 30
0.0
 11
3.712523999999999
 21
3.69028
 31
0.0
  0
LINE
  5
165
330
B
100
AcDbEntity
 67
     1
  8
1
  6
Continuous
 62
    18
100
AcDbLine
 10
5.942101
 20
3.87073
 30
0.0
 11
5.938812
 21
3.818616
 31
0.0
  0
LINE
  5
166
330
B
100
AcDbEntity
 67
     1
  8
1
  6
Continuous
 62
    18
100
AcDbLine
 10
1.472611999999999
 20
6.754308999999999
 30
0.0
 11
1.453519
 21
6.737007000000001
 31
0.0
  0
LINE
  5
167
330
B
100
AcDbEntity
 67
     1
  8
1
  6
Continuous
 62
    18
100
AcDbLine
 10
1.661263
 20
3.679805999999999
 30
0.0
 11
2.818670999999999
 21
3.679805999999999
 31
0.0
  0
LINE
  5
168
330
B
100
AcDbEntity
 67
     1
  8
1
  6
Continuous
 62
    18
100
AcDbLine
 10
5.924737
 20
3.714905999999999
 30
0.0
 11
5.923898
 21
3.711573
 31
0.0
  0
LINE
  5
169
330
B
100
AcDbEntity
 67
     1
  8
1
  6
Continuous
 62
    18
100
AcDbLine
 10
4.484478
 20
6.637624
 30
0.0
 11
4.457284999999999
 21
6.689738
 31
0.0
  0
LINE
  5
16A
330
B
100
AcDbEntity
 67
     1
  8
1
  6
Continuous
 62
    18
100
AcDbLine
 10
3.178379
 20
4.147505999999999
 30
0.0
 11
3.159858
 21
4.147505999999999
 31
0.0
  0
LINE
  5
16B
330
B
100
AcDbEntity
 67
     1
  8
1
  6
Continuous
 62
    18
100
AcDbLine
 10
4.347144999999999
 20
6.631872999999999
 30
0.0
 11
4.366023999999999
 21
6.610205
 31
0.0
  0
LINE
  5
16C
330
B
100
AcDbEntity
 67
     1
  8
1
  6
Continuous
 62
    18
100
AcDbLine
 10
4.500323
 20
6.583232999999999
 30
0.0
 11
4.484478
 21
6.637624
 31
0.0
  0
LINE
  5
16D
330
B
100
AcDbEntity
 67
     1
  8
1
  6
Continuous
 62
    18
100
AcDbLine
 10
5.923051
 20
3.708441
 30
0.0
 11
5.923043999999999
 21
3.708416999999999
 31
0.0
  0
LINE
  5
16E
330
B
100
AcDbEntity
 67
     1
  8
1
  6
Continuous
 62
    18
100
AcDbLine
 10
4.500323
 20
3.925120999999999
 30
0.0
 11
4.484478
 21
3.87073
 31
0.0
  0
LINE
  5
16F
330
B
100
AcDbEntity
 67
     1
  8
1
  6
Continuous
 62
    18
100
AcDbLine
 10
2.126638
 20
6.063591999999999
 30
0.0
 11
2.129685999999999
 21
6.060544
 31
0.0
  0
LINE
  5
170
330
B
100
AcDbEntity
 67
     1
  8
1
  6
Continuous
 62
    18
100
AcDbLine
 10
4.315618999999999
 20
6.802991
 30
0.0
 11
4.294750999999999
 21
6.809952
 31
0.0
  0
LINE
  5
171
330
B
100
AcDbEntity
 67
     1
  8
1
  6
Continuous
 62
    18
100
AcDbLine
 10
4.510423999999999
 20
3.979387
 30
0.0
 11
4.510423999999999
 21
6.528966999999999
 31
0.0
  0
LINE
  5
172
330
B
100
AcDbEntity
 67
     1
  8
1
  6
Continuous
 62
    18
100
AcDbLine
 10
3.712523999999999
 20
6.705835999999999
 30
0.0
 11
3.712523999999999
 21
6.668278999999999
 31
0.0
  0
LINE
  5
173
330
B
100
AcDbEntity
 67
     1
  8
1
  6
Continuous
 62
    18
100
AcDbLine
 10
2.119691999999999
 20
4.437816
 30
0.0
 11
2.119691999999999
 21
6.070539
 31
0.0
  0
LINE
  5
174
330
B
100
AcDbEntity
 67
     1
  8
1
  6
Continuous
 62
    18
100
AcDbLine
 10
5.917283
 20
3.692969
 30
0.0
 11
5.914175
 21
3.688451999999999
 31
0.0
  0
LINE
  5
175
330
B
100
AcDbEntity
 67
     1
  8
1
  6
Continuous
 62
    18
100
AcDbLine
 10
1.645279
 20
3.709157999999999
 30
0.0
 11
1.653008
 21
3.693327999999999
 31
0.0
  0
LINE
  5
176
330
B
100
AcDbEntity
 67
     1
  8
1
  6
Continuous
 62
    18
100
AcDbLine
 10
2.159583
 20
6.818074
 30
0.0
 11
2.159583
 21
6.811336999999999
 31
0.0
  0
LINE
  5
177
330
B
100
AcDbEntity
 67
     1
  8
1
  6
Continuous
 62
    18
100
AcDbLine
 10
2.129685999999999
 20
6.060544
 30
0.0
 11
2.135774
 21
6.054456
 31
0.0
  0
LINE
  5
178
330
B
100
AcDbEntity
 67
     1
  8
1
  6
Continuous
 62
    18
100
AcDbLine
 10
5.702085
 20
6.668447
 30
0.0
 11
5.712537
 21
6.668947
 31
0.0
  0
LINE
  5
179
330
B
100
AcDbEntity
 67
     1
  8
1
  6
Continuous
 62
    18
100
AcDbLine
 10
1.525035
 20
6.631941999999999
 30
0.0
 11
1.547452
 21
6.649274
 31
0.0
  0
LINE
  5
17A
330
B
100
AcDbEntity
 67
     1
  8
1
  6
Continuous
 62
    18
100
AcDbLine
 10
2.838148999999999
 20
3.682583
 30
0.0
 11
2.838148999999999
 21
3.686096
 31
0.0
  0
LINE
  5
17B
330
B
100
AcDbEntity
 67
     1
  8
1
  6
Continuous
 62
    18
100
AcDbLine
 10
1.549026
 20
3.708283999999999
 30
0.0
 11
1.549001999999999
 21
3.708294
 31
0.0
  0
LINE
  5
17C
330
B
100
AcDbEntity
 67
     1
  8
1
  6
Continuous
 62
    18
100
AcDbLine
 10
5.872662999999999
 20
6.528966999999999
 30
0.0
 11
5.843251
 21
6.528966999999999
 31
0.0
  0
LINE
  5
17D
330
B
100
AcDbEntity
 67
     1
  8
1
  6
Continuous
 62
    18
100
AcDbLine
 10
1.414896999999999
 20
3.818501
 30
0.0
 11
1.387661
 21
3.870649999999999
 31
0.0
  0
LINE
  5
17E
330
B
100
AcDbEntity
 67
     1
  8
1
  6
Continuous
 62
    18
100
AcDbLine
 10
5.820898
 20
3.979387
 30
0.0
 11
5.807045999999999
 21
3.979387
 31
0.0
  0
LINE
  5
17F
330
B
100
AcDbEntity
 67
     1
  8
1
  6
Continuous
 62
    18
100
AcDbLine
 10
1.371790999999999
 20
6.583274
 30
0.0
 11
1.366706999999999
 21
6.528966999999999
 31
0.0
  0
LINE
  5
180
330
B
100
AcDbEntity
 67
     1
  8
1
  6
Continuous
 62
    18
100
AcDbLine
 10
6.117944999999999
 20
4.405704
 30
0.0
 11
6.117944999999999
 21
4.389126999999999
 31
0.0
  0
LINE
  5
181
330
B
100
AcDbEntity
 67
     1
  8
1
  6
Continuous
 62
    18
100
AcDbLine
 10
3.061342999999999
 20
4.098705
 30
0.0
 11
3.049950999999999
 21
4.098705
 31
0.0
  0
LINE
  5
182
330
B
100
AcDbEntity
 67
     1
  8
1
  6
Continuous
 62
    18
100
AcDbLine
 10
5.923038
 20
3.708394999999999
 30
0.0
 11
5.923005999999999
 21
3.708283999999999
 31
0.0
  0
LINE
  5
183
330
B
100
AcDbEntity
 67
     1
  8
1
  6
Continuous
 62
    18
100
AcDbLine
 10
4.445676
 20
3.802211
 30
0.0
 11
4.432814999999999
 21
3.786464
 31
0.0
  0
LINE
  5
184
330
B
100
AcDbEntity
 67
     1
  8
1
  6
Continuous
 62
    18
100
AcDbLine
 10
5.869377
 20
3.68878
 30
0.0
 11
5.832773
 21
3.695487999999999
 31
0.0
  0
LINE
  5
185
330
B
100
AcDbEntity
 67
     1
  8
1
  6
Continuous
 62
    18
100
AcDbLine
 10
2.951558999999999
 20
4.160809999999999
 30
0.0
 11
2.992456
 21
4.160809999999999
 31
0.0
  0
LINE
  5
186
330
B
100
AcDbEntity
 67
     1
  8
1
  6
Continuous
 62
    18
100
AcDbLine
 10
4.327115
 20
3.709962999999999
 30
0.0
 11
4.325237
 21
3.709173
 31
0.0
  0
LINE
  5
187
330
B
100
AcDbEntity
 67
     1
  8
1
  6
Continuous
 62
    18
100
AcDbLine
 10
5.869377
 20
6.819574
 30
0.0
 11
5.853492
 21
6.818741999999999
 31
0.0
  0
LINE
  5
188
330
B
100
AcDbEntity
 67
     1
  8
1
  6
Continuous
 62
    18
100
AcDbLine
 10
2.972249999999999
 20
4.147135999999999
 30
0.0
 11
2.984854999999999
 21
4.147135999999999
 31
0.0
  0
LINE
  5
189
330
B
100
AcDbEntity
 67
     1
  8
1
  6
Continuous
 62
    18
100
AcDbLine
 10
4.323376999999999
 20
3.708405
 30
0.0
 11
4.323362
 21
3.708399
 31
0.0
  0
LINE
  5
18A
330
B
100
AcDbEntity
 67
     1
  8
1
  6
Continuous
 62
    18
100
AcDbLine
 10
5.942101
 20
6.637624
 30
0.0
 11
5.938812
 21
6.689738
 31
0.0
  0
LINE
  5
18B
330
B
100
AcDbEntity
 67
     1
  8
1
  6
Continuous
 62
    18
100
AcDbLine
 10
2.769372
 20
4.170142
 30
0.0
 11
2.769372
 21
4.129942999999999
 31
0.0
  0
LINE
  5
18C
330
B
100
AcDbEntity
 67
     1
  8
1
  6
Continuous
 62
    18
100
AcDbLine
 10
4.273157
 20
3.692969
 30
0.0
 11
4.245184
 21
3.688451999999999
 31
0.0
  0
LINE
  5
18D
330
B
100
AcDbEntity
 67
     1
  8
1
  6
Continuous
 62
    18
100
AcDbLine
 10
5.924737
 20
6.793447999999999
 30
0.0
 11
5.923898
 21
6.796781
 31
0.0
  0
LINE
  5
18E
330
B
100
AcDbEntity
 67
     1
  8
1
  6
Continuous
 62
    18
100
AcDbLine
 10
1.361682999999999
 20
3.979387
 30
0.0
 11
1.366706999999999
 21
3.979387
 31
0.0
  0
LINE
  5
18F
330
B
100
AcDbEntity
 67
     1
  8
1
  6
Continuous
 62
    18
100
AcDbLine
 10
2.769372
 20
4.116227999999999
 30
0.0
 11
2.769372
 21
4.083344
 31
0.0
  0
LINE
  5
190
330
B
100
AcDbEntity
 67
     1
  8
1
  6
Continuous
 62
    18
100
AcDbLine
 10
1.939128
 20
6.668947
 30
0.0
 11
2.049134999999999
 21
6.668447
 31
0.0
  0
LINE
  5
191
330
B
100
AcDbEntity
 67
     1
  8
1
  6
Continuous
 62
    18
100
AcDbLine
 10
5.923051
 20
6.799911999999999
 30
0.0
 11
5.923043999999999
 21
6.799936999999999
 31
0.0
  0
LINE
  5
192
330
B
100
AcDbEntity
 67
     1
  8
1
  6
Continuous
 62
    18
100
AcDbLine
 10
2.858839
 20
4.094971
 30
0.0
 11
2.864517999999999
 21
4.083344
 31
0.0
  0
LINE
  5
193
330
B
100
AcDbEntity
 67
     1
  8
1
  6
Continuous
 62
    18
100
AcDbLine
 10
5.944732
 20
6.528966999999999
 30
0.0
 11
5.944732
 21
3.979387
 31
0.0
  0
LINE
  5
194
330
B
100
AcDbEntity
 67
     1
  8
1
  6
Continuous
 62
    18
100
AcDbLine
 10
3.822970999999999
 20
3.839907
 30
0.0
 11
3.932977999999999
 21
3.839406999999999
 31
0.0
  0
LINE
  5
195
330
B
100
AcDbEntity
 67
     1
  8
1
  6
Continuous
 62
    18
100
AcDbLine
 10
5.919723999999999
 20
6.809952
 30
0.0
 11
5.917283
 21
6.815385
 31
0.0
  0
LINE
  5
196
330
B
100
AcDbEntity
 67
     1
  8
1
  6
Continuous
 62
    18
100
AcDbLine
 10
2.918633999999999
 20
4.124169999999999
 30
0.0
 11
2.918633999999999
 21
4.160809999999999
 31
0.0
  0
LINE
  5
197
330
B
100
AcDbEntity
 67
     1
  8
1
  6
Continuous
 62
    18
100
AcDbLine
 10
1.633309
 20
3.763651999999999
 30
0.0
 11
1.63857
 21
3.733108999999999
 31
0.0
  0
LINE
  5
198
330
B
100
AcDbEntity
 67
     1
  8
1
  6
Continuous
 62
    18
100
AcDbLine
 10
3.827012999999999
 20
4.363217999999999
 30
0.0
 11
3.827012999999999
 21
6.145135999999999
 31
0.0
  0
LINE
  5
199
330
B
100
AcDbEntity
 67
     1
  8
1
  6
Continuous
 62
    18
100
AcDbLine
 10
5.790098
 20
6.744702
 30
0.0
 11
5.776476
 21
6.709514999999999
 31
0.0
  0
LINE
  5
19A
330
B
100
AcDbEntity
 67
     1
  8
1
  6
Continuous
 62
    18
100
AcDbLine
 10
2.135774
 20
4.453898
 30
0.0
 11
2.129685999999999
 21
4.447809999999999
 31
0.0
  0
LINE
  5
19B
330
B
100
AcDbEntity
 67
     1
  8
1
  6
Continuous
 62
    18
100
AcDbLine
 10
4.498586
 20
3.979387
 30
0.0
 11
4.482541999999999
 21
3.979387
 31
0.0
  0
LINE
  5
19C
330
B
100
AcDbEntity
 67
     1
  8
1
  6
Continuous
 62
    18
100
AcDbLine
 10
5.734539999999999
 20
6.707358
 30
0.0
 11
5.729912
 21
6.66978
 31
0.0
  0
LINE
  5
19D
330
B
100
AcDbEntity
 67
     1
  8
1
  6
Continuous
 62
    18
100
AcDbLine
 10
3.752413999999999
 20
6.070539
 30
0.0
 11
3.745468
 21
6.063591999999999
 31
0.0
  0
LINE
  5
19E
330
B
100
AcDbEntity
 67
     1
  8
1
  6
Continuous
 62
    18
100
AcDbLine
 10
4.233537
 20
3.733108999999999
 30
0.0
 11
4.238798
 21
3.763651999999999
 31
0.0
  0
LINE
  5
19F
330
B
100
AcDbEntity
 67
     1
  8
1
  6
Continuous
 62
    18
100
AcDbLine
 10
5.683595999999999
 20
4.147505999999999
 30
0.0
 11
5.683595999999999
 21
4.160809999999999
 31
0.0
  0
LINE
  5
1A0
330
B
100
AcDbEntity
 67
     1
  8
1
  6
Continuous
 62
    18
100
AcDbLine
 10
6.117944999999999
 20
6.080003999999999
 30
0.0
 11
6.117944999999999
 21
4.42835
 31
0.0
  0
LINE
  5
1A1
330
B
100
AcDbEntity
 67
     1
  8
1
  6
Continuous
 62
    18
100
AcDbLine
 10
4.037855
 20
3.765815
 30
0.0
 11
4.040841
 21
3.800995999999999
 31
0.0
  0
LINE
  5
1A2
330
B
100
AcDbEntity
 67
     1
  8
1
  6
Continuous
 62
    18
100
AcDbLine
 10
6.117944999999999
 20
6.125295999999999
 30
0.0
 11
6.117944999999999
 21
6.119226999999999
 31
0.0
  0
LINE
  5
1A3
330
B
100
AcDbEntity
 67
     1
  8
1
  6
Continuous
 62
    18
100
AcDbLine
 10
5.910398
 20
3.68663
 30
0.0
 11
5.869377
 21
3.68878
 31
0.0
  0
LINE
  5
1A4
330
B
100
AcDbEntity
 67
     1
  8
1
  6
Continuous
 62
    18
100
AcDbLine
 10
3.712523999999999
 20
3.712866999999999
 30
0.0
 11
3.712523999999999
 21
3.736820999999999
 31
0.0
  0
LINE
  5
1A5
330
B
100
AcDbEntity
 67
     1
  8
1
  6
Continuous
 62
    18
100
AcDbLine
 10
3.712523999999999
 20
6.795486
 30
0.0
 11
3.712523999999999
 21
6.771532999999999
 31
0.0
  0
LINE
  5
1A6
330
B
100
AcDbEntity
 67
     1
  8
1
  6
Continuous
 62
    18
100
AcDbLine
 10
5.784647
 20
6.661935999999999
 30
0.0
 11
5.790658
 21
6.649217
 31
0.0
  0
LINE
  5
1A7
330
B
100
AcDbEntity
 67
     1
  8
1
  6
Continuous
 62
    18
100
AcDbLine
 10
1.63857
 20
3.733108999999999
 30
0.0
 11
1.645279
 21
3.709157999999999
 31
0.0
  0
LINE
  5
1A8
330
B
100
AcDbEntity
 67
     1
  8
1
  6
Continuous
 62
    18
100
AcDbLine
 10
5.729912
 20
6.66978
 30
0.0
 11
5.729912
 21
3.838573999999999
 31
0.0
  0
LINE
  5
1A9
330
B
100
AcDbEntity
 67
     1
  8
1
  6
Continuous
 62
    18
100
AcDbLine
 10
2.159583
 20
3.767352999999999
 30
0.0
 11
2.159583
 21
3.802518
 31
0.0
  0
LINE
  5
1AA
330
B
100
AcDbEntity
 67
     1
  8
1
  6
Continuous
 62
    18
100
AcDbLine
 10
5.800637999999999
 20
3.898148999999999
 30
0.0
 11
5.804101999999999
 21
3.923059999999999
 31
0.0
  0
LINE
  5
1AB
330
B
100
AcDbEntity
 67
     1
  8
1
  6
Continuous
 62
    18
100
AcDbLine
 10
1.851163
 20
3.695487999999999
 30
0.0
 11
1.858249999999999
 21
3.68878
 31
0.0
  0
LINE
  5
1AC
330
B
100
AcDbEntity
 67
     1
  8
1
  6
Continuous
 62
    18
100
AcDbLine
 10
6.040595999999999
 20
6.528966999999999
 30
0.0
 11
6.040595999999999
 21
6.580988
 31
0.0
  0
LINE
  5
1AD
330
B
100
AcDbEntity
 67
     1
  8
1
  6
Continuous
 62
    18
100
AcDbLine
 10
3.813504
 20
6.818241
 30
0.0
 11
3.712523999999999
 21
6.818074
 31
0.0
  0
LINE
  5
1AE
330
B
100
AcDbEntity
 67
     1
  8
1
  6
Continuous
 62
    18
100
AcDbLine
 10
6.040595999999999
 20
6.810480999999999
 30
0.0
 11
6.040595999999999
 21
6.823996000000001
 31
0.0
  0
LINE
  5
1AF
330
B
100
AcDbEntity
 67
     1
  8
1
  6
Continuous
 62
    18
100
AcDbLine
 10
1.480177999999999
 20
6.528966999999999
 30
0.0
 11
1.483154
 21
6.557783999999999
 31
0.0
  0
LINE
  5
1B0
330
B
100
AcDbEntity
 67
     1
  8
1
  6
Continuous
 62
    18
100
AcDbLine
 10
1.661263
 20
6.821724
 30
0.0
 11
1.623242
 21
6.819466
 31
0.0
  0
LINE
  5
1B1
330
B
100
AcDbEntity
 67
     1
  8
1
  6
Continuous
 62
    18
100
AcDbLine
 10
3.047137999999999
 20
3.686094999999999
 30
0.0
 11
3.053434999999999
 21
3.679805999999999
 31
0.0
  0
LINE
  5
1B2
330
B
100
AcDbEntity
 67
     1
  8
1
  6
Continuous
 62
    18
100
AcDbLine
 10
6.040595999999999
 20
3.749894999999999
 30
0.0
 11
6.040595999999999
 21
3.719943
 31
0.0
  0
LINE
  5
1B3
330
B
100
AcDbEntity
 67
     1
  8
1
  6
Continuous
 62
    18
100
AcDbLine
 10
1.851163
 20
6.812866
 30
0.0
 11
1.858249999999999
 21
6.819574
 31
0.0
  0
LINE
  5
1B4
330
B
100
AcDbEntity
 67
     1
  8
1
  6
Continuous
 62
    18
100
AcDbLine
 10
3.712523999999999
 20
3.69028
 30
0.0
 11
2.159583
 21
3.69028
 31
0.0
  0
LINE
  5
1B5
330
B
100
AcDbEntity
 67
     1
  8
1
  6
Continuous
 62
    18
100
AcDbLine
 10
5.938812
 20
3.818616
 30
0.0
 11
5.937424
 21
3.802211
 31
0.0
  0
LINE
  5
1B6
330
B
100
AcDbEntity
 67
     1
  8
1
  6
Continuous
 62
    18
100
AcDbLine
 10
1.453519
 20
6.737007000000001
 30
0.0
 11
1.414896999999999
 21
6.689853
 31
0.0
  0
LINE
  5
1B7
330
B
100
AcDbEntity
 67
     1
  8
1
  6
Continuous
 62
    18
100
AcDbLine
 10
2.818670999999999
 20
3.679805999999999
 30
0.0
 11
2.824968999999999
 21
3.686094999999999
 31
0.0
  0
LINE
  5
1B8
330
B
100
AcDbEntity
 67
     1
  8
1
  6
Continuous
 62
    18
100
AcDbLine
 10
5.923898
 20
3.711573
 30
0.0
 11
5.92347
 21
3.709962999999999
 31
0.0
  0
LINE
  5
1B9
330
B
100
AcDbEntity
 67
     1
  8
1
  6
Continuous
 62
    18
100
AcDbLine
 10
4.366023999999999
 20
6.610205
 30
0.0
 11
4.380082999999999
 21
6.585294
 31
0.0
  0
LINE
  5
1BA
330
B
100
AcDbEntity
 67
     1
  8
1
  6
Continuous
 62
    18
100
AcDbLine
 10
5.923043999999999
 20
3.708416999999999
 30
0.0
 11
5.92304
 21
3.708405
 31
0.0
  0
LINE
  5
1BB
330
B
100
AcDbEntity
 67
     1
  8
1
  6
Continuous
 62
    18
100
AcDbLine
 10
4.323406999999999
 20
6.799936999999999
 30
0.0
 11
4.323376999999999
 21
6.799949
 31
0.0
  0
LINE
  5
1BC
330
B
100
AcDbEntity
 67
     1
  8
1
  6
Continuous
 62
    18
100
AcDbLine
 10
1.629831999999999
 20
3.798839
 30
0.0
 11
1.633309
 21
3.763651999999999
 31
0.0
  0
LINE
  5
1BD
330
B
100
AcDbEntity
 67
     1
  8
1
  6
Continuous
 62
    18
100
AcDbLine
 10
4.294750999999999
 20
6.809952
 30
0.0
 11
4.273157
 21
6.815385
 31
0.0
  0
LINE
  5
1BE
330
B
100
AcDbEntity
 67
     1
  8
1
  6
Continuous
 62
    18
100
AcDbLine
 10
1.547452
 20
6.649274
 30
0.0
 11
1.572929
 21
6.66198
 31
0.0
  0
LINE
  5
1BF
330
B
100
AcDbEntity
 67
     1
  8
1
  6
Continuous
 62
    18
100
AcDbLine
 10
1.571193
 20
6.808077
 30
0.0
 11
1.553773999999999
 21
6.801955999999999
 31
0.0
  0
LINE
  5
1C0
330
B
100
AcDbEntity
 67
     1
  8
1
  6
Continuous
 62
    18
100
AcDbLine
 10
4.238798
 20
6.744702
 30
0.0
 11
4.242275
 21
6.709514999999999
 31
0.0
  0
LINE
  5
1C1
330
B
100
AcDbEntity
 67
     1
  8
1
  6
Continuous
 62
    18
100
AcDbLine
 10
1.506142999999999
 20
3.898062999999999
 30
0.0
 11
1.525035
 21
3.876412
 31
0.0
  0
LINE
  5
1C2
330
B
100
AcDbEntity
 67
     1
  8
1
  6
Continuous
 62
    18
100
AcDbLine
 10
4.323466
 20
6.799911999999999
 30
0.0
 11
4.323406999999999
 21
6.799936999999999
 31
0.0
  0
LINE
  5
1C3
330
B
100
AcDbEntity
 67
     1
  8
1
  6
Continuous
 62
    18
100
AcDbLine
 10
4.040841
 20
6.707358
 30
0.0
 11
4.042105999999999
 21
6.66978
 31
0.0
  0
LINE
  5
1C4
330
B
100
AcDbEntity
 67
     1
  8
1
  6
Continuous
 62
    18
100
AcDbLine
 10
4.505399999999999
 20
6.528966999999999
 30
0.0
 11
4.510423999999999
 21
6.528966999999999
 31
0.0
  0
LINE
  5
1C5
330
B
100
AcDbEntity
 67
     1
  8
1
  6
Continuous
 62
    18
100
AcDbLine
 10
1.83
 20
3.838573999999999
 30
0.0
 11
1.83
 21
6.66978
 31
0.0
  0
LINE
  5
1C6
330
B
100
AcDbEntity
 67
     1
  8
1
  6
Continuous
 62
    18
100
AcDbLine
 10
2.119691999999999
 20
6.070539
 30
0.0
 11
3.752413999999999
 21
6.070539
 31
0.0
  0
LINE
  5
1C7
330
B
100
AcDbEntity
 67
     1
  8
1
  6
Continuous
 62
    18
100
AcDbLine
 10
5.914175
 20
3.688451999999999
 30
0.0
 11
5.910398
 21
3.68663
 31
0.0
  0
LINE
  5
1C8
330
B
100
AcDbEntity
 67
     1
  8
1
  6
Continuous
 62
    18
100
AcDbLine
 10
2.045093999999999
 20
6.145135999999999
 30
0.0
 11
2.047725999999999
 21
6.142503999999999
 31
0.0
  0
LINE
  5
1C9
330
B
100
AcDbEntity
 67
     1
  8
1
  6
Continuous
 62
    18
100
AcDbLine
 10
1.593233999999999
 20
3.694237999999999
 30
0.0
 11
1.571193
 21
3.700276999999999
 31
0.0
  0
LINE
  5
1CA
330
B
100
AcDbEntity
 67
     1
  8
1
  6
Continuous
 62
    18
100
AcDbLine
 10
5.712537
 20
6.668947
 30
0.0
 11
5.729912
 21
6.66978
 31
0.0
  0
LINE
  5
1CB
330
B
100
AcDbEntity
 67
     1
  8
1
  6
Continuous
 62
    18
100
AcDbLine
 10
2.838148999999999
 20
3.682583
 30
0.0
 11
3.033958
 21
3.682583
 31
0.0
  0
LINE
  5
1CC
330
B
100
AcDbEntity
 67
     1
  8
1
  6
Continuous
 62
    18
100
AcDbLine
 10
1.549001999999999
 20
3.708294
 30
0.0
 11
1.548987999999999
 21
3.708299999999999
 31
0.0
  0
LINE
  5
1CD
330
B
100
AcDbEntity
 67
     1
  8
1
  6
Continuous
 62
    18
100
AcDbLine
 10
5.843251
 20
6.528966999999999
 30
0.0
 11
5.820898
 21
6.528966999999999
 31
0.0
  0
LINE
  5
1CE
330
B
100
AcDbEntity
 67
     1
  8
1
  6
Continuous
 62
    18
100
AcDbLine
 10
3.062297999999999
 20
4.083344
 30
0.0
 11
3.039200999999999
 21
4.083344
 31
0.0
  0
LINE
  5
1CF
330
B
100
AcDbEntity
 67
     1
  8
1
  6
Continuous
 62
    18
100
AcDbLine
 10
1.387661
 20
3.870649999999999
 30
0.0
 11
1.371790999999999
 21
3.92508
 31
0.0
  0
LINE
  5
1D0
330
B
100
AcDbEntity
 67
     1
  8
1
  6
Continuous
 62
    18
100
AcDbLine
 10
5.910398
 20
3.68663
 30
0.0
 11
5.874029
 21
3.693327999999999
 31
0.0
  0
LINE
  5
1D1
330
B
100
AcDbEntity
 67
     1
  8
1
  6
Continuous
 62
    18
100
AcDbLine
 10
4.432814999999999
 20
3.786464
 30
0.0
 11
4.418724
 21
3.771481999999999
 31
0.0
  0
LINE
  5
1D2
330
B
100
AcDbEntity
 67
     1
  8
1
  6
Continuous
 62
    18
100
AcDbLine
 10
5.832773
 20
3.695487999999999
 30
0.0
 11
5.799004
 21
3.711323
 31
0.0
  0
LINE
  5
1D3
330
B
100
AcDbEntity
 67
     1
  8
1
  6
Continuous
 62
    18
100
AcDbLine
 10
3.121861999999999
 20
4.147505999999999
 30
0.0
 11
3.138324
 21
4.147505999999999
 31
0.0
  0
LINE
  5
1D4
330
B
100
AcDbEntity
 67
     1
  8
1
  6
Continuous
 62
    18
100
AcDbLine
 10
6.127595999999999
 20
4.397781
 30
0.0
 11
6.127595999999999
 21
4.410701
 31
0.0
  0
LINE
  5
1D5
330
B
100
AcDbEntity
 67
     1
  8
1
  6
Continuous
 62
    18
100
AcDbLine
 10
4.325237
 20
3.709173
 30
0.0
 11
4.324294
 21
3.708781999999999
 31
0.0
  0
LINE
  5
1D6
330
B
100
AcDbEntity
 67
     1
  8
1
  6
Continuous
 62
    18
100
AcDbLine
 10
5.853492
 20
6.818741999999999
 30
0.0
 11
5.843935
 21
6.818241
 31
0.0
  0
LINE
  5
1D7
330
B
100
AcDbEntity
 67
     1
  8
1
  6
Continuous
 62
    18
100
AcDbLine
 10
4.323362
 20
3.708399
 30
0.0
 11
4.323351
 21
3.708394999999999
 31
0.0
  0
LINE
  5
1D8
330
B
100
AcDbEntity
 67
     1
  8
1
  6
Continuous
 62
    18
100
AcDbLine
 10
5.938812
 20
6.689738
 30
0.0
 11
5.937424
 21
6.706142999999999
 31
0.0
  0
LINE
  5
1D9
330
B
100
AcDbEntity
 67
     1
  8
1
  6
Continuous
 62
    18
100
AcDbLine
 10
2.784034999999999
 20
4.170142
 30
0.0
 11
2.769372
 21
4.170142
 31
0.0
  0
LINE
  5
1DA
330
B
100
AcDbEntity
 67
     1
  8
1
  6
Continuous
 62
    18
100
AcDbLine
 10
4.245184
 20
3.688451999999999
 30
0.0
 11
4.210842999999999
 21
3.68663
 31
0.0
  0
LINE
  5
1DB
330
B
100
AcDbEntity
 67
     1
  8
1
  6
Continuous
 62
    18
100
AcDbLine
 10
5.923898
 20
6.796781
 30
0.0
 11
5.92347
 21
6.798391
 31
0.0
  0
LINE
  5
1DC
330
B
100
AcDbEntity
 67
     1
  8
1
  6
Continuous
 62
    18
100
AcDbLine
 10
2.769372
 20
4.116227999999999
 30
0.0
 11
2.799550999999999
 21
4.116227999999999
 31
0.0
  0
LINE
  5
1DD
330
B
100
AcDbEntity
 67
     1
  8
1
  6
Continuous
 62
    18
100
AcDbLine
 10
2.049134999999999
 20
6.668447
 30
0.0
 11
2.159583
 21
6.668278999999999
 31
0.0
  0
LINE
  5
1DE
330
B
100
AcDbEntity
 67
     1
  8
1
  6
Continuous
 62
    18
100
AcDbLine
 10
5.923043999999999
 20
6.799936999999999
 30
0.0
 11
5.92304
 21
6.799949
 31
0.0
  0
LINE
  5
1DF
330
B
100
AcDbEntity
 67
     1
  8
1
  6
Continuous
 62
    18
100
AcDbLine
 10
2.896954999999999
 20
4.083344
 30
0.0
 11
2.864517999999999
 21
4.083344
 31
0.0
  0
LINE
  5
1E0
330
B
100
AcDbEntity
 67
     1
  8
1
  6
Continuous
 62
    18
100
AcDbLine
 10
3.932977999999999
 20
3.839406999999999
 30
0.0
 11
4.042105999999999
 21
3.838573999999999
 31
0.0
  0
LINE
  5
1E1
330
B
100
AcDbEntity
 67
     1
  8
1
  6
Continuous
 62
    18
100
AcDbLine
 10
5.917283
 20
6.815385
 30
0.0
 11
5.914175
 21
6.819902
 31
0.0
  0
LINE
  5
1E2
330
B
100
AcDbEntity
 67
     1
  8
1
  6
Continuous
 62
    18
100
AcDbLine
 10
2.918633999999999
 20
4.124169999999999
 30
0.0
 11
2.900822
 21
4.160809999999999
 31
0.0
  0
LINE
  5
1E3
330
B
100
AcDbEntity
 67
     1
  8
1
  6
Continuous
 62
    18
100
AcDbLine
 10
4.505399999999999
 20
6.528966999999999
 30
0.0
 11
4.498586
 21
6.528966999999999
 31
0.0
  0
LINE
  5
1E4
330
B
100
AcDbEntity
 67
     1
  8
1
  6
Continuous
 62
    18
100
AcDbLine
 10
5.776476
 20
6.709514999999999
 30
0.0
 11
5.771901999999999
 21
6.67193
 31
0.0
  0
LINE
  5
1E5
330
B
100
AcDbEntity
 67
     1
  8
1
  6
Continuous
 62
    18
100
AcDbLine
 10
3.752413999999999
 20
4.437816
 30
0.0
 11
2.119691999999999
 21
4.437816
 31
0.0
  0
LINE
  5
1E6
330
B
100
AcDbEntity
 67
     1
  8
1
  6
Continuous
 62
    18
100
AcDbLine
 10
2.841368999999999
 20
4.134126
 30
0.0
 11
2.852489999999999
 21
4.109221999999999
 31
0.0
  0
LINE
  5
1E7
330
B
100
AcDbEntity
 67
     1
  8
1
  6
Continuous
 62
    18
100
AcDbLine
 10
4.482541999999999
 20
3.979387
 30
0.0
 11
4.458302999999999
 21
3.979387
 31
0.0
  0
LINE
  5
1E8
330
B
100
AcDbEntity
 67
     1
  8
1
  6
Continuous
 62
    18
100
AcDbLine
 10
3.745468
 20
6.063591999999999
 30
0.0
 11
3.742420999999999
 21
6.060544
 31
0.0
  0
LINE
  5
1E9
330
B
100
AcDbEntity
 67
     1
  8
1
  6
Continuous
 62
    18
100
AcDbLine
 10
4.238798
 20
3.763651999999999
 30
0.0
 11
4.242275
 21
3.798839
 31
0.0
  0
LINE
  5
1EA
330
B
100
AcDbEntity
 67
     1
  8
1
  6
Continuous
 62
    18
100
AcDbLine
 10
5.683595999999999
 20
4.160809999999999
 30
0.0
 11
5.683595999999999
 21
4.147505999999999
 31
0.0
  0
LINE
  5
1EB
330
B
100
AcDbEntity
 67
     1
  8
1
  6
Continuous
 62
    18
100
AcDbLine
 10
6.040595999999999
 20
6.080003999999999
 30
0.0
 11
6.117944999999999
 21
6.080003999999999
 31
0.0
  0
LINE
  5
1EC
330
B
100
AcDbEntity
 67
     1
  8
1
  6
Continuous
 62
    18
100
AcDbLine
 10
4.040841
 20
3.800995999999999
 30
0.0
 11
4.042105999999999
 21
3.838573999999999
 31
0.0
  0
LINE
  5
1ED
330
B
100
AcDbEntity
 67
     1
  8
1
  6
Continuous
 62
    18
100
AcDbLine
 10
6.117944999999999
 20
6.119226999999999
 30
0.0
 11
6.117944999999999
 21
6.102649999999999
 31
0.0
  0
LINE
  5
1EE
330
B
100
AcDbEntity
 67
     1
  8
1
  6
Continuous
 62
    18
100
AcDbLine
 10
5.869377
 20
3.68878
 30
0.0
 11
5.853492
 21
3.689612
 31
0.0
  0
LINE
  5
1EF
330
B
100
AcDbEntity
 67
     1
  8
1
  6
Continuous
 62
    18
100
AcDbLine
 10
3.712523999999999
 20
3.736820999999999
 30
0.0
 11
3.712523999999999
 21
3.767352999999999
 31
0.0
  0
LINE
  5
1F0
330
B
100
AcDbEntity
 67
     1
  8
1
  6
Continuous
 62
    18
100
AcDbLine
 10
5.790658
 20
6.649217
 30
0.0
 11
5.796037999999999
 21
6.631872999999999
 31
0.0
  0
LINE
  5
1F1
330
B
100
AcDbEntity
 67
     1
  8
1
  6
Continuous
 62
    18
100
AcDbLine
 10
5.729912
 20
3.838573999999999
 30
0.0
 11
5.771901999999999
 21
3.836423999999999
 31
0.0
  0
LINE
  5
1F2
330
B
100
AcDbEntity
 67
     1
  8
1
  6
Continuous
 62
    18
100
AcDbLine
 10
5.804101999999999
 20
3.923059999999999
 30
0.0
 11
5.806307
 21
3.950626
 31
0.0
  0
LINE
  5
1F3
330
B
100
AcDbEntity
 67
     1
  8
1
  6
Continuous
 62
    18
100
AcDbLine
 10
2.159583
 20
6.818074
 30
0.0
 11
2.058602
 21
6.818241
 31
0.0
  0
LINE
  5
1F4
330
B
100
AcDbEntity
 67
     1
  8
1
  6
Continuous
 62
    18
100
AcDbLine
 10
4.347144999999999
 20
3.876480999999999
 30
0.0
 11
4.366023999999999
 21
3.898148999999999
 31
0.0
  0
LINE
  5
1F5
330
B
100
AcDbEntity
 67
     1
  8
1
  6
Continuous
 62
    18
100
AcDbLine
 10
6.040595999999999
 20
6.580988
 30
0.0
 11
6.040595999999999
 21
6.631429999999999
 31
0.0
  0
LINE
  5
1F6
330
B
100
AcDbEntity
 67
     1
  8
1
  6
Continuous
 62
    18
100
AcDbLine
 10
4.210842999999999
 20
6.821724
 30
0.0
 11
4.013855999999999
 21
6.819574
 31
0.0
  0
LINE
  5
1F7
330
B
100
AcDbEntity
 67
     1
  8
1
  6
Continuous
 62
    18
100
AcDbLine
 10
2.159583
 20
6.705835999999999
 30
0.0
 11
2.159583
 21
6.668278999999999
 31
0.0
  0
LINE
  5
1F8
330
B
100
AcDbEntity
 67
     1
  8
1
  6
Continuous
 62
    18
100
AcDbLine
 10
1.549094
 20
6.800097999999999
 30
0.0
 11
1.549026
 21
6.800069999999999
 31
0.0
  0
LINE
  5
1F9
330
B
100
AcDbEntity
 67
     1
  8
1
  6
Continuous
 62
    18
100
AcDbLine
 10
6.040595999999999
 20
6.823996000000001
 30
0.0
 11
6.040595999999999
 21
6.828547
 31
0.0
  0
LINE
  5
1FA
330
B
100
AcDbEntity
 67
     1
  8
1
  6
Continuous
 62
    18
100
AcDbLine
 10
3.053434999999999
 20
3.679805999999999
 30
0.0
 11
4.210842999999999
 21
3.679805999999999
 31
0.0
  0
LINE
  5
1FB
330
B
100
AcDbEntity
 67
     1
  8
1
  6
Continuous
 62
    18
100
AcDbLine
 10
6.040595999999999
 20
3.719943
 30
0.0
 11
6.040595999999999
 21
3.697873
 31
0.0
  0
LINE
  5
1FC
330
B
100
AcDbEntity
 67
     1
  8
1
  6
Continuous
 62
    18
100
AcDbLine
 10
1.549026
 20
6.800069999999999
 30
0.0
 11
1.549001999999999
 21
6.80006
 31
0.0
  0
LINE
  5
1FD
330
B
100
AcDbEntity
 67
     1
  8
1
  6
Continuous
 62
    18
100
AcDbLine
 10
5.923005999999999
 20
3.708283999999999
 30
0.0
 11
5.922772
 21
3.70748
 31
0.0
  0
LINE
  5
1FE
330
B
100
AcDbEntity
 67
     1
  8
1
  6
Continuous
 62
    18
100
AcDbLine
 10
2.159583
 20
3.69028
 30
0.0
 11
2.058602
 21
3.690112999999999
 31
0.0
  0
LINE
  5
1FF
330
B
100
AcDbEntity
 67
     1
  8
1
  6
Continuous
 62
    18
100
AcDbLine
 10
5.937424
 20
3.802211
 30
0.0
 11
5.935888999999999
 21
3.786464
 31
0.0
  0
LINE
  5
200
330
B
100
AcDbEntity
 67
     1
  8
1
  6
Continuous
 62
    18
100
AcDbLine
 10
1.414896999999999
 20
6.689853
 30
0.0
 11
1.387661
 21
6.637703999999999
 31
0.0
  0
LINE
  5
201
330
B
100
AcDbEntity
 67
     1
  8
1
  6
Continuous
 62
    18
100
AcDbLine
 10
4.391928
 20
3.979387
 30
0.0
 11
4.391928
 21
6.528966999999999
 31
0.0
  0
LINE
  5
202
330
B
100
AcDbEntity
 67
     1
  8
1
  6
Continuous
 62
    18
100
AcDbLine
 10
5.92347
 20
3.709962999999999
 30
0.0
 11
5.923254
 21
3.709173
 31
0.0
  0
LINE
  5
203
330
B
100
AcDbEntity
 67
     1
  8
1
  6
Continuous
 62
    18
100
AcDbLine
 10
4.445676
 20
6.706142999999999
 30
0.0
 11
4.432814999999999
 21
6.721889999999999
 31
0.0
  0
LINE
  5
204
330
B
100
AcDbEntity
 67
     1
  8
1
  6
Continuous
 62
    18
100
AcDbLine
 10
4.380082999999999
 20
6.585294
 30
0.0
 11
4.388964999999999
 21
6.557728
 31
0.0
  0
LINE
  5
205
330
B
100
AcDbEntity
 67
     1
  8
1
  6
Continuous
 62
    18
100
AcDbLine
 10
3.178379
 20
4.147505999999999
 30
0.0
 11
3.178379
 21
4.160809999999999
 31
0.0
  0
LINE
  5
206
330
B
100
AcDbEntity
 67
     1
  8
1
  6
Continuous
 62
    18
100
AcDbLine
 10
5.92304
 20
3.708405
 30
0.0
 11
5.923038
 21
3.708394999999999
 31
0.0
  0
LINE
  5
207
330
B
100
AcDbEntity
 67
     1
  8
1
  6
Continuous
 62
    18
100
AcDbLine
 10
4.327115
 20
6.798391
 30
0.0
 11
4.325237
 21
6.799180999999999
 31
0.0
  0
LINE
  5
208
330
B
100
AcDbEntity
 67
     1
  8
1
  6
Continuous
 62
    18
100
AcDbLine
 10
1.858249999999999
 20
6.819574
 30
0.0
 11
1.661263
 21
6.821724
 31
0.0
  0
LINE
  5
209
330
B
100
AcDbEntity
 67
     1
  8
1
  6
Continuous
 62
    18
100
AcDbLine
 10
4.323376999999999
 20
6.799949
 30
0.0
 11
4.323362
 21
6.799955
 31
0.0
  0
LINE
  5
20A
330
B
100
AcDbEntity
 67
     1
  8
1
  6
Continuous
 62
    18
100
AcDbLine
 10
4.330830999999999
 20
6.796781
 30
0.0
 11
4.327115
 21
6.798391
 31
0.0
  0
LINE
  5
20B
330
B
100
AcDbEntity
 67
     1
  8
1
  6
Continuous
 62
    18
100
AcDbLine
 10
1.389564999999999
 20
3.979387
 30
0.0
 11
1.37352
 21
3.979387
 31
0.0
  0
LINE
  5
20C
330
B
100
AcDbEntity
 67
     1
  8
1
  6
Continuous
 62
    18
100
AcDbLine
 10
1.572929
 20
6.66198
 30
0.0
 11
1.600141999999999
 21
6.669607
 31
0.0
  0
LINE
  5
20D
330
B
100
AcDbEntity
 67
     1
  8
1
  6
Continuous
 62
    18
100
AcDbLine
 10
4.242275
 20
6.709514999999999
 30
0.0
 11
4.243745999999999
 21
6.67193
 31
0.0
  0
LINE
  5
20E
330
B
100
AcDbEntity
 67
     1
  8
1
  6
Continuous
 62
    18
100
AcDbLine
 10
4.299292999999999
 20
3.846417999999999
 30
0.0
 11
4.324745
 21
3.859137
 31
0.0
  0
LINE
  5
20F
330
B
100
AcDbEntity
 67
     1
  8
1
  6
Continuous
 62
    18
100
AcDbLine
 10
1.525035
 20
3.876412
 30
0.0
 11
1.547452
 21
3.85908
 31
0.0
  0
LINE
  5
210
330
B
100
AcDbEntity
 67
     1
  8
1
  6
Continuous
 62
    18
100
AcDbLine
 10
2.841368999999999
 20
4.134126
 30
0.0
 11
2.830249
 21
4.109221999999999
 31
0.0
  0
LINE
  5
211
330
B
100
AcDbEntity
 67
     1
  8
1
  6
Continuous
 62
    18
100
AcDbLine
 10
3.712523999999999
 20
6.818074
 30
0.0
 11
3.712523999999999
 21
6.811336999999999
 31
0.0
  0
LINE
  5
212
330
B
100
AcDbEntity
 67
     1
  8
1
  6
Continuous
 62
    18
100
AcDbLine
 10
4.505399999999999
 20
6.528966999999999
 30
0.0
 11
4.505399999999999
 21
3.979387
 31
0.0
  0
LINE
  5
213
330
B
100
AcDbEntity
 67
     1
  8
1
  6
Continuous
 62
    18
100
AcDbLine
 10
2.135774
 20
6.054456
 30
0.0
 11
3.736331999999999
 21
6.054456
 31
0.0
  0
LINE
  5
214
330
B
100
AcDbEntity
 67
     1
  8
1
  6
Continuous
 62
    18
100
AcDbLine
 10
5.698596
 20
4.363348999999999
 30
0.0
 11
5.702344999999999
 21
4.363217999999999
 31
0.0
  0
LINE
  5
215
330
B
100
AcDbEntity
 67
     1
  8
1
  6
Continuous
 62
    18
100
AcDbLine
 10
5.698596
 20
6.668278999999999
 30
0.0
 11
5.698596
 21
6.145005
 31
0.0
  0
LINE
  5
216
330
B
100
AcDbEntity
 67
     1
  8
1
  6
Continuous
 62
    18
100
AcDbLine
 10
1.838768999999999
 20
6.773078999999999
 30
0.0
 11
1.844528
 21
6.79703
 31
0.0
  0
LINE
  5
217
330
B
100
AcDbEntity
 67
     1
  8
1
  6
Continuous
 62
    18
100
AcDbLine
 10
2.836052999999999
 20
3.680487
 30
0.0
 11
2.838148999999999
 21
3.682583
 31
0.0
  0
LINE
  5
218
330
B
100
AcDbEntity
 67
     1
  8
1
  6
Continuous
 62
    18
100
AcDbLine
 10
1.548987999999999
 20
3.708299999999999
 30
0.0
 11
1.520251999999999
 21
3.721876
 31
0.0
  0
LINE
  5
219
330
B
100
AcDbEntity
 67
     1
  8
1
  6
Continuous
 62
    18
100
AcDbLine
 10
5.820898
 20
6.528966999999999
 30
0.0
 11
5.807045999999999
 21
6.528966999999999
 31
0.0
  0
LINE
  5
21A
330
B
100
AcDbEntity
 67
     1
  8
1
  6
Continuous
 62
    18
100
AcDbLine
 10
1.371790999999999
 20
3.92508
 30
0.0
 11
1.366706999999999
 21
3.979387
 31
0.0
  0
LINE
  5
21B
330
B
100
AcDbEntity
 67
     1
  8
1
  6
Continuous
 62
    18
100
AcDbLine
 10
5.874029
 20
3.693327999999999
 30
0.0
 11
5.840480999999999
 21
3.709157999999999
 31
0.0
  0
LINE
  5
21C
330
B
100
AcDbEntity
 67
     1
  8
1
  6
Continuous
 62
    18
100
AcDbLine
 10
6.117944999999999
 20
4.42835
 30
0.0
 11
6.124789999999999
 21
4.42835
 31
0.0
  0
LINE
  5
21D
330
B
100
AcDbEntity
 67
     1
  8
1
  6
Continuous
 62
    18
100
AcDbLine
 10
3.04705
 20
4.160809999999999
 30
0.0
 11
3.04705
 21
4.101605999999999
 31
0.0
  0
LINE
  5
21E
330
B
100
AcDbEntity
 67
     1
  8
1
  6
Continuous
 62
    18
100
AcDbLine
 10
4.418724
 20
3.771481999999999
 30
0.0
 11
4.377470999999999
 21
3.737470999999999
 31
0.0
  0
LINE
  5
21F
330
B
100
AcDbEntity
 67
     1
  8
1
  6
Continuous
 62
    18
100
AcDbLine
 10
5.799004
 20
3.711323
 30
0.0
 11
5.770223999999999
 21
3.735275
 31
0.0
  0
LINE
  5
220
330
B
100
AcDbEntity
 67
     1
  8
1
  6
Continuous
 62
    18
100
AcDbLine
 10
3.008075999999999
 20
4.14519
 30
0.0
 11
3.008075999999999
 21
4.098963999999999
 31
0.0
  0
LINE
  5
221
330
B
100
AcDbEntity
 67
     1
  8
1
  6
Continuous
 62
    18
100
AcDbLine
 10
3.094081999999999
 20
4.160809999999999
 30
0.0
 11
3.112528999999999
 21
4.160809999999999
 31
0.0
  0
LINE
  5
222
330
B
100
AcDbEntity
 67
     1
  8
1
  6
Continuous
 62
    18
100
AcDbLine
 10
4.324294
 20
3.708781999999999
 30
0.0
 11
4.323820999999999
 21
3.708587
 31
0.0
  0
LINE
  5
223
330
B
100
AcDbEntity
 67
     1
  8
1
  6
Continuous
 62
    18
100
AcDbLine
 10
5.843935
 20
6.818241
 30
0.0
 11
5.840746
 21
6.818074
 31
0.0
  0
LINE
  5
224
330
B
100
AcDbEntity
 67
     1
  8
1
  6
Continuous
 62
    18
100
AcDbLine
 10
2.987756
 20
4.101605999999999
 30
0.0
 11
2.987756
 21
4.144235
 31
0.0
  0
LINE
  5
225
330
B
100
AcDbEntity
 67
     1
  8
1
  6
Continuous
 62
    18
100
AcDbLine
 10
1.444671999999999
 20
3.979387
 30
0.0
 11
1.413804
 21
3.979387
 31
0.0
  0
LINE
  5
226
330
B
100
AcDbEntity
 67
     1
  8
1
  6
Continuous
 62
    18
100
AcDbLine
 10
4.323351
 20
3.708394999999999
 30
0.0
 11
4.323081
 21
3.708283999999999
 31
0.0
  0
LINE
  5
227
330
B
100
AcDbEntity
 67
     1
  8
1
  6
Continuous
 62
    18
100
AcDbLine
 10
5.937424
 20
6.706142999999999
 30
0.0
 11
5.935888999999999
 21
6.721889999999999
 31
0.0
  0
LINE
  5
228
330
B
100
AcDbEntity
 67
     1
  8
1
  6
Continuous
 62
    18
100
AcDbLine
 10
2.159583
 20
6.795486
 30
0.0
 11
2.159583
 21
6.771532999999999
 31
0.0
  0
LINE
  5
229
330
B
100
AcDbEntity
 67
     1
  8
1
  6
Continuous
 62
    18
100
AcDbLine
 10
4.352052999999999
 20
3.721983
 30
0.0
 11
4.338109999999999
 21
3.714905999999999
 31
0.0
  0
LINE
  5
22A
330
B
100
AcDbEntity
 67
     1
  8
1
  6
Continuous
 62
    18
100
AcDbLine
 10
2.045093999999999
 20
4.363217999999999
 30
0.0
 11
2.159583
 21
4.363348999999999
 31
0.0
  0
LINE
  5
22B
330
B
100
AcDbEntity
 67
     1
  8
1
  6
Continuous
 62
    18
100
AcDbLine
 10
4.243745999999999
 20
3.836423999999999
 30
0.0
 11
4.272022999999999
 21
3.838758
 31
0.0
  0
LINE
  5
22C
330
B
100
AcDbEntity
 67
     1
  8
1
  6
Continuous
 62
    18
100
AcDbLine
 10
1.83
 20
3.838573999999999
 30
0.0
 11
1.939128
 21
3.839406999999999
 31
0.0
  0
LINE
  5
22D
330
B
100
AcDbEntity
 67
     1
  8
1
  6
Continuous
 62
    18
100
AcDbLine
 10
5.92304
 20
6.799949
 30
0.0
 11
5.923038
 21
6.79996
 31
0.0
  0
LINE
  5
22E
330
B
100
AcDbEntity
 67
     1
  8
1
  6
Continuous
 62
    18
100
AcDbLine
 10
2.159583
 20
6.811336999999999
 30
0.0
 11
2.159583
 21
6.795486
 31
0.0
  0
LINE
  5
22F
330
B
100
AcDbEntity
 67
     1
  8
1
  6
Continuous
 62
    18
100
AcDbLine
 10
2.896954999999999
 20
4.083344
 30
0.0
 11
2.896954999999999
 21
4.125951
 31
0.0
  0
LINE
  5
230
330
B
100
AcDbEntity
 67
     1
  8
1
  6
Continuous
 62
    18
100
AcDbLine
 10
3.712523999999999
 20
6.668278999999999
 30
0.0
 11
3.822970999999999
 21
6.668447
 31
0.0
  0
LINE
  5
231
330
B
100
AcDbEntity
 67
     1
  8
1
  6
Continuous
 62
    18
100
AcDbLine
 10
5.914175
 20
6.819902
 30
0.0
 11
5.910398
 21
6.821724
 31
0.0
  0
LINE
  5
232
330
B
100
AcDbEntity
 67
     1
  8
1
  6
Continuous
 62
    18
100
AcDbLine
 10
2.047725999999999
 20
4.36585
 30
0.0
 11
3.82438
 21
4.36585
 31
0.0
  0
LINE
  5
233
330
B
100
AcDbEntity
 67
     1
  8
1
  6
Continuous
 62
    18
100
AcDbLine
 10
4.037855
 20
6.742538999999999
 30
0.0
 11
4.040841
 21
6.707358
 31
0.0
  0
LINE
  5
234
330
B
100
AcDbEntity
 67
     1
  8
1
  6
Continuous
 62
    18
100
AcDbLine
 10
2.877479
 20
4.160809999999999
 30
0.0
 11
2.900822
 21
4.160809999999999
 31
0.0
  0
LINE
  5
235
330
B
100
AcDbEntity
 67
     1
  8
1
  6
Continuous
 62
    18
100
AcDbLine
 10
4.498586
 20
6.528966999999999
 30
0.0
 11
4.482541999999999
 21
6.528966999999999
 31
0.0
  0
LINE
  5
236
330
B
100
AcDbEntity
 67
     1
  8
1
  6
Continuous
 62
    18
100
AcDbLine
 10
5.869377
 20
6.819574
 30
0.0
 11
5.832773
 21
6.812866
 31
0.0
  0
LINE
  5
237
330
B
100
AcDbEntity
 67
     1
  8
1
  6
Continuous
 62
    18
100
AcDbLine
 10
3.742420999999999
 20
4.447809999999999
 30
0.0
 11
3.745468
 21
4.444761999999999
 31
0.0
  0
LINE
  5
238
330
B
100
AcDbEntity
 67
     1
  8
1
  6
Continuous
 62
    18
100
AcDbLine
 10
4.458302999999999
 20
3.979387
 30
0.0
 11
4.427433999999999
 21
3.979387
 31
0.0
  0
LINE
  5
239
330
B
100
AcDbEntity
 67
     1
  8
1
  6
Continuous
 62
    18
100
AcDbLine
 10
5.698596
 20
4.185502999999999
 30
0.0
 11
5.683595999999999
 21
4.185502999999999
 31
0.0
  0
LINE
  5
23A
330
B
100
AcDbEntity
 67
     1
  8
1
  6
Continuous
 62
    18
100
AcDbLine
 10
3.742420999999999
 20
6.060544
 30
0.0
 11
3.742420999999999
 21
4.447809999999999
 31
0.0
  0
LINE
  5
23B
330
B
100
AcDbEntity
 67
     1
  8
1
  6
Continuous
 62
    18
100
AcDbLine
 10
4.226828
 20
6.799196
 30
0.0
 11
4.233537
 21
6.775246
 31
0.0
  0
LINE
  5
23C
330
B
100
AcDbEntity
 67
     1
  8
1
  6
Continuous
 62
    18
100
AcDbLine
 10
2.159583
 20
3.802518
 30
0.0
 11
2.159583
 21
3.840075
 31
0.0
  0
LINE
  5
23D
330
B
100
AcDbEntity
 67
     1
  8
1
  6
Continuous
 62
    18
100
AcDbLine
 10
4.242275
 20
3.798839
 30
0.0
 11
4.243745999999999
 21
3.836423999999999
 31
0.0
  0
LINE
  5
23E
330
B
100
AcDbEntity
 67
     1
  8
1
  6
Continuous
 62
    18
100
AcDbLine
 10
5.698596
 20
4.083344
 30
0.0
 11
5.683595999999999
 21
4.083344
 31
0.0
  0
LINE
  5
23F
330
B
100
AcDbEntity
 67
     1
  8
1
  6
Continuous
 62
    18
100
AcDbLine
 10
4.388964999999999
 20
3.950626
 30
0.0
 11
4.391928
 21
3.979387
 31
0.0
  0
LINE
  5
240
330
B
100
AcDbEntity
 67
     1
  8
1
  6
Continuous
 62
    18
100
AcDbLine
 10
6.127595999999999
 20
6.080003999999999
 30
0.0
 11
6.127595999999999
 21
6.097652
 31
0.0
  0
LINE
  5
241
330
B
100
AcDbEntity
 67
     1
  8
1
  6
Continuous
 62
    18
100
AcDbLine
 10
1.492073999999999
 20
3.922945999999999
 30
0.0
 11
1.506142999999999
 21
3.898062999999999
 31
0.0
  0
LINE
  5
242
330
B
100
AcDbEntity
 67
     1
  8
1
  6
Continuous
 62
    18
100
AcDbLine
 10
1.480177999999999
 20
6.528966999999999
 30
0.0
 11
1.444671999999999
 21
6.528966999999999
 31
0.0
  0
LINE
  5
243
330
B
100
AcDbEntity
 67
     1
  8
1
  6
Continuous
 62
    18
100
AcDbLine
 10
6.117944999999999
 20
6.102649999999999
 30
0.0
 11
6.117944999999999
 21
6.080003999999999
 31
0.0
  0
LINE
  5
244
330
B
100
AcDbEntity
 67
     1
  8
1
  6
Continuous
 62
    18
100
AcDbLine
 10
4.418724
 20
6.736871999999999
 30
0.0
 11
4.377470999999999
 21
6.770883
 31
0.0
  0
LINE
  5
245
330
B
100
AcDbEntity
 67
     1
  8
1
  6
Continuous
 62
    18
100
AcDbLine
 10
5.853492
 20
3.689612
 30
0.0
 11
5.843935
 21
3.690112999999999
 31
0.0
  0
LINE
  5
246
330
B
100
AcDbEntity
 67
     1
  8
1
  6
Continuous
 62
    18
100
AcDbLine
 10
3.712523999999999
 20
3.767352999999999
 30
0.0
 11
3.712523999999999
 21
3.802518
 31
0.0
  0
LINE
  5
247
330
B
100
AcDbEntity
 67
     1
  8
1
  6
Continuous
 62
    18
100
AcDbLine
 10
1.37352
 20
6.528966999999999
 30
0.0
 11
1.366706999999999
 21
6.528966999999999
 31
0.0
  0
LINE
  5
248
330
B
100
AcDbEntity
 67
     1
  8
1
  6
Continuous
 62
    18
100
AcDbLine
 10
5.796037999999999
 20
6.631872999999999
 30
0.0
 11
5.800637999999999
 21
6.610205
 31
0.0
  0
LINE
  5
249
330
B
100
AcDbEntity
 67
     1
  8
1
  6
Continuous
 62
    18
100
AcDbLine
 10
1.653008
 20
3.693327999999999
 30
0.0
 11
1.661263
 21
3.68663
 31
0.0
  0
LINE
  5
24A
330
B
100
AcDbEntity
 67
     1
  8
1
  6
Continuous
 62
    18
100
AcDbLine
 10
4.042105999999999
 20
6.66978
 30
0.0
 11
4.042105999999999
 21
3.838573999999999
 31
0.0
  0
LINE
  5
24B
330
B
100
AcDbEntity
 67
     1
  8
1
  6
Continuous
 62
    18
100
AcDbLine
 10
5.771901999999999
 20
3.836423999999999
 30
0.0
 11
5.778325999999999
 21
3.838758
 31
0.0
  0
LINE
  5
24C
330
B
100
AcDbEntity
 67
     1
  8
1
  6
Continuous
 62
    18
100
AcDbLine
 10
1.653008
 20
6.815025999999999
 30
0.0
 11
1.661263
 21
6.821724
 31
0.0
  0
LINE
  5
24D
330
B
100
AcDbEntity
 67
     1
  8
1
  6
Continuous
 62
    18
100
AcDbLine
 10
5.92347
 20
6.798391
 30
0.0
 11
5.923254
 21
6.799180999999999
 31
0.0
  0
LINE
  5
24E
330
B
100
AcDbEntity
 67
     1
  8
1
  6
Continuous
 62
    18
100
AcDbLine
 10
6.117944999999999
 20
4.389126999999999
 30
0.0
 11
6.117944999999999
 21
4.383058999999999
 31
0.0
  0
LINE
  5
24F
330
B
100
AcDbEntity
 67
     1
  8
1
  6
Continuous
 62
    18
100
AcDbLine
 10
5.806307
 20
3.950626
 30
0.0
 11
5.807045999999999
 21
3.979387
 31
0.0
  0
LINE
  5
250
330
B
100
AcDbEntity
 67
     1
  8
1
  6
Continuous
 62
    18
100
AcDbLine
 10
2.058602
 20
6.818241
 30
0.0
 11
1.958024
 21
6.818741999999999
 31
0.0
  0
LINE
  5
251
330
B
100
AcDbEntity
 67
     1
  8
1
  6
Continuous
 62
    18
100
AcDbLine
 10
1.831265
 20
6.707358
 30
0.0
 11
1.834252
 21
6.742538999999999
 31
0.0
  0
LINE
  5
252
330
B
100
AcDbEntity
 67
     1
  8
1
  6
Continuous
 62
    18
100
AcDbLine
 10
6.040595999999999
 20
6.631429999999999
 30
0.0
 11
6.040595999999999
 21
6.678757
 31
0.0
  0
LINE
  5
253
330
B
100
AcDbEntity
 67
     1
  8
1
  6
Continuous
 62
    18
100
AcDbLine
 10
1.623242
 20
3.688887999999999
 30
0.0
 11
1.593233999999999
 21
3.694237999999999
 31
0.0
  0
LINE
  5
254
330
B
100
AcDbEntity
 67
     1
  8
1
  6
Continuous
 62
    18
100
AcDbLine
 10
4.210842999999999
 20
6.828547
 30
0.0
 11
4.210842999999999
 21
6.821724
 31
0.0
  0
LINE
  5
255
330
B
100
AcDbEntity
 67
     1
  8
1
  6
Continuous
 62
    18
100
AcDbLine
 10
6.040595999999999
 20
3.979387
 30
0.0
 11
6.040595999999999
 21
3.927366
 31
0.0
  0
LINE
  5
256
330
B
100
AcDbEntity
 67
     1
  8
1
  6
Continuous
 62
    18
100
AcDbLine
 10
1.593233999999999
 20
6.814116
 30
0.0
 11
1.571193
 21
6.808077
 31
0.0
  0
LINE
  5
257
330
B
100
AcDbEntity
 67
     1
  8
1
  6
Continuous
 62
    18
100
AcDbLine
 10
4.210842999999999
 20
3.679805999999999
 30
0.0
 11
4.210842999999999
 21
3.68663
 31
0.0
  0
LINE
  5
258
330
B
100
AcDbEntity
 67
     1
  8
1
  6
Continuous
 62
    18
100
AcDbLine
 10
4.210842999999999
 20
6.821724
 30
0.0
 11
4.219098999999999
 21
6.815025999999999
 31
0.0
  0
LINE
  5
259
330
B
100
AcDbEntity
 67
     1
  8
1
  6
Continuous
 62
    18
100
AcDbLine
 10
6.040595999999999
 20
3.697873
 30
0.0
 11
6.040595999999999
 21
3.684358
 31
0.0
  0
LINE
  5
25A
330
B
100
AcDbEntity
 67
     1
  8
1
  6
Continuous
 62
    18
100
AcDbLine
 10
1.549001999999999
 20
6.80006
 30
0.0
 11
1.548987999999999
 21
6.800055
 31
0.0
  0
LINE
  5
25B
330
B
100
AcDbEntity
 67
     1
  8
1
  6
Continuous
 62
    18
100
AcDbLine
 10
2.159583
 20
3.736820999999999
 30
0.0
 11
2.159583
 21
3.767352999999999
 31
0.0
  0
LINE
  5
25C
330
B
100
AcDbEntity
 67
     1
  8
1
  6
Continuous
 62
    18
100
AcDbLine
 10
2.058602
 20
3.690112999999999
 30
0.0
 11
1.958024
 21
3.689612
 31
0.0
  0
LINE
  5
25D
330
B
100
AcDbEntity
 67
     1
  8
1
  6
Continuous
 62
    18
100
AcDbLine
 10
5.935888999999999
 20
3.786464
 30
0.0
 11
5.934207999999999
 21
3.771481999999999
 31
0.0
  0
LINE
  5
25E
330
B
100
AcDbEntity
 67
     1
  8
1
  6
Continuous
 62
    18
100
AcDbLine
 10
1.387661
 20
6.637703999999999
 30
0.0
 11
1.371790999999999
 21
6.583274
 31
0.0
  0
LINE
  5
25F
330
B
100
AcDbEntity
 67
     1
  8
1
  6
Continuous
 62
    18
100
AcDbLine
 10
4.243745999999999
 20
6.67193
 30
0.0
 11
4.272022999999999
 21
6.669596
 31
0.0
  0
LINE
  5
260
330
B
100
AcDbEntity
 67
     1
  8
1
  6
Continuous
 62
    18
100
AcDbLine
 10
5.923254
 20
3.709173
 30
0.0
 11
5.923146
 21
3.708781999999999
 31
0.0
  0
LINE
  5
261
330
B
100
AcDbEntity
 67
     1
  8
1
  6
Continuous
 62
    18
100
AcDbLine
 10
4.432814999999999
 20
6.721889999999999
 30
0.0
 11
4.418724
 21
6.736871999999999
 31
0.0
  0
LINE
  5
262
330
B
100
AcDbEntity
 67
     1
  8
1
  6
Continuous
 62
    18
100
AcDbLine
 10
4.388964999999999
 20
6.557728
 30
0.0
 11
4.391928
 21
6.528966999999999
 31
0.0
  0
LINE
  5
263
330
B
100
AcDbEntity
 67
     1
  8
1
  6
Continuous
 62
    18
100
AcDbLine
 10
3.121861999999999
 20
4.160809999999999
 30
0.0
 11
3.178379
 21
4.160809999999999
 31
0.0
  0
LINE
  5
264
330
B
100
AcDbEntity
 67
     1
  8
1
  6
Continuous
 62
    18
100
AcDbLine
 10
4.325237
 20
6.799180999999999
 30
0.0
 11
4.324294
 21
6.799572
 31
0.0
  0
LINE
  5
265
330
B
100
AcDbEntity
 67
     1
  8
1
  6
Continuous
 62
    18
100
AcDbLine
 10
4.324745
 20
3.859137
 30
0.0
 11
4.347144999999999
 21
3.876480999999999
 31
0.0
  0
LINE
  5
266
330
B
100
AcDbEntity
 67
     1
  8
1
  6
Continuous
 62
    18
100
AcDbLine
 10
1.492073999999999
 20
6.585408
 30
0.0
 11
1.506142999999999
 21
6.610291
 31
0.0
  0
LINE
  5
267
330
B
100
AcDbEntity
 67
     1
  8
1
  6
Continuous
 62
    18
100
AcDbLine
 10
4.323362
 20
6.799955
 30
0.0
 11
4.323351
 21
6.79996
 31
0.0
  0
ARC
  5
268
330
B
100
AcDbEntity
 67
     1
  8
1
  6
Continuous
 62
    18
100
AcDbCircle
 10
2.992456
 20
4.098963999999999
 30
0.0
 40
0.01562
100
AcDbArc
 50
270.0
 51
360.0
  0
ARC
  5
269
330
B
100
AcDbEntity
 67
     1
  8
1
  6
Continuous
 62
    18
100
AcDbCircle
 10
2.984854999999999
 20
4.101605999999999
 30
0.0
 40
0.002901
100
AcDbArc
 50
270.0
 51
360.0
  0
ARC
  5
26A
330
B
100
AcDbEntity
 67
     1
  8
1
  6
Continuous
 62
    18
100
AcDbCircle
 10
4.210842999999999
 20
6.528966999999999
 30
0.0
 40
0.299581
100
AcDbArc
 50
0.0
 51
90.0
  0
ARC
  5
26B
330
B
100
AcDbEntity
 67
     1
  8
1
  6
Continuous
 62
    18
100
AcDbCircle
 10
4.210842999999999
 20
3.979387
 30
0.0
 40
0.299581
100
AcDbArc
 50
270.0
 51
360.0
  0
ARC
  5
26C
330
B
100
AcDbEntity
 67
     1
  8
1
  6
Continuous
 62
    18
100
AcDbCircle
 10
2.784034999999999
 20
4.133872
 30
0.0
 40
0.003929
100
AcDbArc
 50
270.0
 51
360.0
  0
ARC
  5
26D
330
B
100
AcDbEntity
 67
     1
  8
1
  6
Continuous
 62
    18
100
AcDbCircle
 10
6.117595999999999
 20
6.115301999999999
 30
0.0
 40
0.01
100
AcDbArc
 50
0.0
 51
88.0
  0
ARC
  5
26E
330
B
100
AcDbEntity
 67
     1
  8
1
  6
Continuous
 62
    18
100
AcDbCircle
 10
6.117595999999999
 20
4.393053
 30
0.0
 40
0.01
100
AcDbArc
 50
272.0
 51
360.0
  0
ARC
  5
26F
330
B
100
AcDbEntity
 67
     1
  8
1
  6
Continuous
 62
    18
100
AcDbCircle
 10
3.061342999999999
 20
4.101605999999999
 30
0.0
 40
0.002901
100
AcDbArc
 50
270.0
 51
360.0
  0
ARC
  5
270
330
B
100
AcDbEntity
 67
     1
  8
1
  6
Continuous
 62
    18
100
AcDbCircle
 10
5.848595999999999
 20
3.840075
 30
0.0
 40
0.15
100
AcDbArc
 50
180.0
 51
267.0
  0
ARC
  5
271
330
B
100
AcDbEntity
 67
     1
  8
1
  6
Continuous
 62
    18
100
AcDbCircle
 10
2.793962
 20
4.148070999999999
 30
0.0
 40
0.037432
100
AcDbArc
 50
19.895931
 51
90.0
  0
ARC
  5
272
330
B
100
AcDbEntity
 67
     1
  8
1
  6
Continuous
 62
    18
100
AcDbCircle
 10
3.039200999999999
 20
4.098963999999999
 30
0.0
 40
0.01562
100
AcDbArc
 50
180.0
 51
270.0
  0
ARC
  5
273
330
B
100
AcDbEntity
 67
     1
  8
1
  6
Continuous
 62
    18
100
AcDbCircle
 10
1.661263
 20
3.979387
 30
0.0
 40
0.299581
100
AcDbArc
 50
180.0
 51
270.0
  0
ARC
  5
274
330
B
100
AcDbEntity
 67
     1
  8
1
  6
Continuous
 62
    18
100
AcDbCircle
 10
3.049950999999999
 20
4.101605999999999
 30
0.0
 40
0.002901
100
AcDbArc
 50
180.0
 51
270.0
  0
ARC
  5
275
330
B
100
AcDbEntity
 67
     1
  8
1
  6
Continuous
 62
    18
100
AcDbCircle
 10
2.992456
 20
4.14519
 30
0.0
 40
0.01562
100
AcDbArc
 50
0.0
 51
90.0
  0
ARC
  5
276
330
B
100
AcDbEntity
 67
     1
  8
1
  6
Continuous
 62
    18
100
AcDbCircle
 10
2.984854999999999
 20
4.144235
 30
0.0
 40
0.002901
100
AcDbArc
 50
0.0
 51
90.0
  0
ARC
  5
277
330
B
100
AcDbEntity
 67
     1
  8
1
  6
Continuous
 62
    18
100
AcDbCircle
 10
5.848595999999999
 20
6.668278999999999
 30
0.0
 40
0.15
100
AcDbArc
 50
93.0
 51
180.0
  0
ARC
  5
278
330
B
100
AcDbEntity
 67
     1
  8
1
  6
Continuous
 62
    18
100
AcDbCircle
 10
1.661263
 20
6.528966999999999
 30
0.0
 40
0.299581
100
AcDbArc
 50
90.0
 51
180.0
  0
ARC
  5
279
330
B
100
AcDbEntity
 67
     1
  8
1
  6
Continuous
 62
    18
100
AcDbCircle
 10
3.062297999999999
 20
4.098963999999999
 30
0.0
 40
0.01562
100
AcDbArc
 50
270.0
 51
360.0
  0
ARC
  5
27A
330
B
100
AcDbEntity
 67
     1
  8
1
  6
Continuous
 62
    18
100
AcDbCircle
 10
2.784034999999999
 20
4.166212999999999
 30
0.0
 40
0.003929
100
AcDbArc
 50
0.0
 51
90.0
  0
ARC
  5
27B
330
B
100
AcDbEntity
 67
     1
  8
1
  6
Continuous
 62
    18
100
AcDbCircle
 10
2.799550999999999
 20
4.153659999999999
 30
0.0
 40
0.037432
100
AcDbArc
 50
270.0
 51
291.289132
  0
ENDSEC
  0
SECTION
  2
OBJECTS
  0
DICTIONARY
  5
19
330
0
100
AcDbDictionary
281
     1
  3
ACAD_COLOR
350
2A6
  3
ACAD_GROUP
350
1A
  3
ACAD_LAYOUT
350
1E
  3
ACAD_MATERIAL
350
291
  3
ACAD_MLINESTYLE
350
1B
  3
ACAD_PLOTSETTINGS
350
22
  3
ACAD_PLOTSTYLENAME
350
1F
  3
ACAD_TABLESTYLE
350
2A7
  3
ACAD_VISUALSTYLE
350
295
  3
ACAD_WIPEOUT_VARS
350
23
  3
AcDbVariableDictionary
350
2B0
  3
ASE_INDEX_DICTIONARY
350
2AD
  3
DWGPROPS
350
2B5
  0
DICTIONARY
  5
2BA
330
32
100
AcDbDictionary
280
     1
281
     1
  3
ACAD_XREC_ROUNDTRIP
360
2BB
  0
DICTIONARY
  5
2A6
102
{ACAD_REACTORS
330
19
102
}
330
19
100
AcDbDictionary
281
     1
  0
DICTIONARY
  5
1A
102
{ACAD_REACTORS
330
19
102
}
330
19
100
AcDbDictionary
281
     1
  0
DICTIONARY
  5
1E
102
{ACAD_REACTORS
330
19
102
}
330
19
100
AcDbDictionary
281
     1
  3
DRAWING1
350
27C
  3
Layout1
350
21
  3
Model
350
20
  0
DICTIONARY
  5
291
102
{ACAD_REACTORS
330
19
102
}
330
19
100
AcDbDictionary
281
     1
  3
ByBlock
350
293
  3
ByLayer
350
292
  3
Global
350
294
  0
DICTIONARY
  5
1B
102
{ACAD_REACTORS
330
19
102
}
330
19
100
AcDbDictionary
281
     1
  3
Standard
350
1C
  0
DICTIONARY
  5
22
102
{ACAD_REACTORS
330
19
102
}
330
19
100
AcDbDictionary
281
     1
  0
ACDBDICTIONARYWDFLT
  5
1F
102
{ACAD_REACTORS
330
19
102
}
330
19
100
AcDbDictionary
281
     1
  3
Normal
350
1D
100
AcDbDictionaryWithDefault
340
1D
  0
DICTIONARY
  5
2A7
102
{ACAD_REACTORS
330
19
102
}
330
19
100
AcDbDictionary
281
     1
  3
Standard
350
2A8
  0
DICTIONARY
  5
295
102
{ACAD_REACTORS
330
19
102
}
330
19
100
AcDbDictionary
281
     1
  3
2dWireframe
350
29B
  3
3D Hidden
350
29D
  3
3dWireframe
350
29C
  3
Basic
350
29A
  3
Brighten
350
2A1
  3
ColorChange
350
2A5
  3
Conceptual
350
29E
  3
Dim
350
2A0
  3
Facepattern
350
2A4
  3
Flat
350
296
  3
FlatWithEdges
350
297
  3
Gouraud
350
298
  3
GouraudWithEdges
350
299
  3
Linepattern
350
2A3
  3
Realistic
350
29F
  3
Thicken
350
2A2
  0
WIPEOUTVARIABLES
  5
23
330
19
100
AcDbWipeoutVariables
 70
     1
  0
DICTIONARY
  5
2B0
102
{ACAD_REACTORS
330
19
102
}
330
19
100
AcDbDictionary
281
     1
  3
CTABLESTYLE
350
2B1
  3
DIMASSOC
350
2B4
  3
INDEXCTL
350
2B3
  3
SORTENTS
350
2B2
  0
DICTIONARY
  5
2AD
102
{ACAD_REACTORS
330
19
102
}
330
19
100
AcDbDictionary
281
     1
  3
ASEBlockHierarchyIndexRecord
350
2AF
1001
DCO15
1040
1722154875.038
  0
XRECORD
  5
2B5
102
{ACAD_REACTORS
330
19
102
}
330
19
100
AcDbXrecord
280
     1
  1
DWGPROPS COOKIE
  2

  3

  4

  6

  7

  8
bjn
  9

300
=
301
=
302
=
303
=
304
=
305
=
306
=
307
=
308
=
309
=
 40
0.0004647685185185
 41
2455735.559495706
 42
2455735.55994257
  1

 90
        0
  0
XRECORD
  5
2BB
102
{ACAD_REACTORS
330
2BA
102
}
330
2BA
100
AcDbXrecord
280
     1
102
SHADEPLOT
 70
     0
  0
LAYOUT
  5
27C
102
{ACAD_XDICTIONARY
360
2BC
102
}
102
{ACAD_REACTORS
330
1E
102
}
330
1E
100
AcDbPlotSettings
  1

  2

  4

  6

 40
20.0
 41
20.0
 42
20.0
 43
20.0
 44
319.4
 45
255.9
 46
0.0
 47
0.0
 48
0.0
 49
0.0
140
319.4
141
255.9
142
1.0
143
1.0
 70
     0
 72
     0
 73
     0
 74
     1
  7

 75
     0
147
1.0
148
0.0
149
0.0
100
AcDbLayout
  1
DRAWING1
 70
     0
 71
     2
 10
0.0
 20
0.0
 11
11.0
 21
8.5
 12
0.0
 22
0.0
 32
0.0
 14
0.0
 24
0.0
 34
0.0
 15
11.0
 25
8.5
 35
0.0
146
0.0
 13
0.0
 23
0.0
 33
0.0
 16
0.0
 26
0.0
 36
0.0
 17
0.0
 27
0.0
 37
0.0
 76
     0
330
B
331
32
  0
LAYOUT
  5
21
102
{ACAD_XDICTIONARY
360
2B8
102
}
102
{ACAD_REACTORS
330
1E
102
}
330
1E
100
AcDbPlotSettings
  1

  2
none_device
  4
Letter_(8.50_x_11.00_Inches)
  6

 40
6.349999904632568
 41
6.349999904632568
 42
6.350006103515625
 43
6.350006103515625
 44
215.8999938964844
 45
279.3999938964844
 46
0.0
 47
0.0
 48
0.0
 49
0.0
140
0.0
141
0.0
142
1.0
143
0.4539816918846873
 70
    16
 72
     0
 73
     1
 74
     1
  7

 75
     0
147
2.202731999716858
148
-34.58083569607786
149
-93.4551489712614
100
AcDbLayout
  1
Layout1
 70
     0
 71
     1
 10
1.247954692193926
 20
3.565841152405067
 11
6.241753193835553
 21
7.424685424334974
 12
0.0
 22
0.0
 32
0.0
 14
1.361450224255033
 24
3.679336573671708
 34
-0.0004043445228632
 15
6.128257772568911
 25
6.828979511196934
 35
0.0000152657740013
146
0.0
 13
0.0
 23
0.0
 33
0.0
 16
1.0
 26
0.0
 36
0.0
 17
0.0
 27
1.0
 37
0.0
 76
     0
330
B
331
32
1001
ACAD_PSEXT
1000
None
1000
None
1000
Not applicable
1000
The layout will not be plotted unless a new plotter configuration name is selected.
1070
     0
  0
LAYOUT
  5
20
102
{ACAD_XDICTIONARY
360
2B6
102
}
102
{ACAD_REACTORS
330
1E
102
}
330
1E
100
AcDbPlotSettings
  1

  2

  4

  6

 40
0.0
 41
0.0
 42
0.0
 43
0.0
 44
0.0
 45
0.0
 46
0.0
 47
0.0
 48
0.0
 49
0.0
140
0.0
141
0.0
142
1.0
143
1.0
 70
  1024
 72
     0
 73
     0
 74
     0
  7

 75
     0
147
1.0
148
0.0
149
0.0
100
AcDbLayout
  1
Model
 70
     0
 71
     0
 10
0.0
 20
0.0
 11
0.0
 21
0.0
 12
0.0
 22
0.0
 32
0.0
 14
0.0
 24
0.0
 34
0.0
 15
0.0
 25
0.0
 35
0.0
146
0.0
 13
0.0
 23
0.0
 33
0.0
 16
0.0
 26
0.0
 36
0.0
 17
0.0
 27
0.0
 37
0.0
 76
     0
330
A
  0
MATERIAL
  5
293
102
{ACAD_XDICTIONARY
360
2C0
102
}
102
{ACAD_REACTORS
330
291
102
}
330
291
100
AcDbMaterial
  1
ByBlock
  0
MATERIAL
  5
292
102
{ACAD_XDICTIONARY
360
2BE
102
}
102
{ACAD_REACTORS
330
291
102
}
330
291
100
AcDbMaterial
  1
ByLayer
  0
MATERIAL
  5
294
102
{ACAD_XDICTIONARY
360
2C2
102
}
102
{ACAD_REACTORS
330
291
102
}
330
291
100
AcDbMaterial
  1
Global
  0
MLINESTYLE
  5
1C
102
{ACAD_REACTORS
330
1B
102
}
330
1B
100
AcDbMlineStyle
  2
STANDARD
 70
     0
  3

 62
     0
 51
90.0
 52
90.0
 71
     2
 49
0.5
 62
   256
  6
BYLAYER
 49
-0.5
 62
   256
  6
BYLAYER
  0
ACDBPLACEHOLDER
  5
1D
102
{ACAD_REACTORS
330
1F
102
}
330
1F
  0
TABLESTYLE
  5
2A8
102
{ACAD_XDICTIONARY
360
2C4
102
}
102
{ACAD_REACTORS
330
2A7
102
}
330
2A7
100
AcDbTableStyle
  3
Standard
 70
     0
 71
     0
 40
0.06
 41
0.06
280
     0
281
     0
  7
Standard
140
0.18
170
     2
 62
     0
 63
     7
283
     0
274
    -2
284
     1
 64
     0
275
    -2
285
     1
 65
     0
276
    -2
286
     1
 66
     0
277
    -2
287
     1
 67
     0
278
    -2
288
     1
 68
     0
279
    -2
289
     1
 69
     0
  7
Standard
140
0.25
170
     5
 62
     0
 63
     7
283
     0
274
    -2
284
     1
 64
     0
275
    -2
285
     1
 65
     0
276
    -2
286
     1
 66
     0
277
    -2
287
     1
 67
     0
278
    -2
288
     1
 68
     0
279
    -2
289
     1
 69
     0
  7
Standard
140
0.18
170
     5
 62
     0
 63
     7
283
     0
274
    -2
284
     1
 64
     0
275
    -2
285
     1
 65
     0
276
    -2
286
     1
 66
     0
277
    -2
287
     1
 67
     0
278
    -2
288
     1
 68
     0
279
    -2
289
     1
 69
     0
  0
VISUALSTYLE
  5
29B
102
{ACAD_REACTORS
330
295
102
}
330
295
100
AcDbVisualStyle
  2
2dWireframe
 70
     4
 71
     0
 72
     2
 73
     0
 90
        0
 40
-0.6
 41
-30.0
 62
     5
 63
     7
 74
     1
 91
        4
 64
     7
 65
   257
 75
     1
175
     1
 42
1.0
 92
        0
 66
   257
 43
1.0
 76
     1
 77
     6
 78
     2
 67
     7
 79
     5
170
     0
171
     0
290
     0
174
     0
 93
        1
 44
0.0
173
     0
291
     0
 45
0.0
1001
ACAD
1000
AcDbSavedByObjectVersion
1070
     0
  0
VISUALSTYLE
  5
29D
102
{ACAD_REACTORS
330
295
102
}
330
295
100
AcDbVisualStyle
  2
3D Hidden
 70
     6
 71
     1
 72
     2
 73
     2
 90
        0
 40
-0.6
 41
-30.0
 62
     5
 63
     7
 74
     2
 91
        2
 64
     7
 65
   257
 75
     2
175
     1
 42
40.0
 92
        0
 66
   257
 43
1.0
 76
     1
 77
     6
 78
     2
 67
     7
 79
     3
170
     0
171
     0
290
     0
174
     0
 93
        1
 44
0.0
173
     0
291
     0
 45
0.0
1001
ACAD
1000
AcDbSavedByObjectVersion
1070
     0
  0
VISUALSTYLE
  5
29C
102
{ACAD_REACTORS
330
295
102
}
330
295
100
AcDbVisualStyle
  2
3dWireframe
 70
     5
 71
     0
 72
     2
 73
     0
 90
        0
 40
-0.6
 41
-30.0
 62
     5
 63
     7
 74
     1
 91
        4
 64
     7
 65
   257
 75
     1
175
     1
 42
1.0
 92
        0
 66
   257
 43
1.0
 76
     1
 77
     6
 78
     2
 67
     7
 79
     5
170
     0
171
     0
290
     0
174
     0
 93
        1
 44
0.0
173
     0
291
     0
 45
0.0
1001
ACAD
1000
AcDbSavedByObjectVersion
1070
     0
  0
VISUALSTYLE
  5
29A
102
{ACAD_REACTORS
330
295
102
}
330
295
100
AcDbVisualStyle
  2
Basic
 70
     7
 71
     1
 72
     0
 73
     1
 90
        0
 40
-0.6
 41
-30.0
 62
     5
 63
     7
 74
     0
 91
        4
 64
     7
 65
   257
 75
     1
175
     1
 42
1.0
 92
        8
 66
     7
 43
1.0
 76
     1
 77
     6
 78
     2
 67
     7
 79
     5
170
     0
171
     0
290
     0
174
     0
 93
        1
 44
0.0
173
     0
291
     1
 45
0.0
1001
ACAD
1000
AcDbSavedByObjectVersion
1070
     0
  0
VISUALSTYLE
  5
2A1
102
{ACAD_REACTORS
330
295
102
}
330
295
100
AcDbVisualStyle
  2
Brighten
 70
    12
 71
     2
 72
     2
 73
     0
 90
        0
 40
-0.6
 41
-30.0
 62
     5
 63
     7
 74
     1
 91
        4
 64
     7
 65
   257
 75
     1
175
     1
 42
1.0
 92
        8
 66
     7
 43
1.0
 76
     1
 77
     6
 78
     2
 67
     7
 79
     5
170
     0
171
     0
290
     0
174
     0
 93
        1
 44
50.0
173
     0
291
     1
 45
0.0
1001
ACAD
1000
AcDbSavedByObjectVersion
1070
     0
  0
VISUALSTYLE
  5
2A5
102
{ACAD_REACTORS
330
295
102
}
330
295
100
AcDbVisualStyle
  2
ColorChange
 70
    16
 71
     2
 72
     2
 73
     3
 90
        0
 40
-0.6
 41
-30.0
 62
     5
 63
     8
 74
     1
 91
        4
 64
     7
 65
   257
 75
     1
175
     1
 42
1.0
 92
        8
 66
     8
 43
1.0
 76
     1
 77
     6
 78
     2
 67
     7
 79
     5
170
     0
171
     0
290
     0
174
     0
 93
        1
 44
0.0
173
     0
291
     1
 45
0.0
1001
ACAD
1000
AcDbSavedByObjectVersion
1070
     0
  0
VISUALSTYLE
  5
29E
102
{ACAD_REACTORS
330
295
102
}
330
295
100
AcDbVisualStyle
  2
Conceptual
 70
     9
 71
     3
 72
     2
 73
     0
 90
        0
 40
-0.6
 41
-30.0
 62
     5
 63
     7
 74
     2
 91
        2
 64
     7
 65
   257
 75
     1
175
     1
 42
40.0
 92
        8
 66
     7
 43
1.0
 76
     1
 77
     6
 78
     2
 67
     7
 79
     3
170
     0
171
     0
290
     0
174
     0
 93
        1
 44
0.0
173
     0
291
     0
 45
0.0
1001
ACAD
1000
AcDbSavedByObjectVersion
1070
     0
  0
VISUALSTYLE
  5
2A0
102
{ACAD_REACTORS
330
295
102
}
330
295
100
AcDbVisualStyle
  2
Dim
 70
    11
 71
     2
 72
     2
 73
     0
 90
        0
 40
-0.6
 41
-30.0
 62
     5
 63
     7
 74
     1
 91
        4
 64
     7
 65
   257
 75
     1
175
     1
 42
1.0
 92
        8
 66
     7
 43
1.0
 76
     1
 77
     6
 78
     2
 67
     7
 79
     5
170
     0
171
     0
290
     0
174
     0
 93
        1
 44
-50.0
173
     0
291
     1
 45
0.0
1001
ACAD
1000
AcDbSavedByObjectVersion
1070
     0
  0
VISUALSTYLE
  5
2A4
102
{ACAD_REACTORS
330
295
102
}
330
295
100
AcDbVisualStyle
  2
Facepattern
 70
    15
 71
     2
 72
     2
 73
     0
 90
        0
 40
-0.6
 41
-30.0
 62
     5
 63
     7
 74
     1
 91
        4
 64
     7
 65
   257
 75
     1
175
     1
 42
1.0
 92
        8
 66
     7
 43
1.0
 76
     1
 77
     6
 78
     2
 67
     7
 79
     5
170
     0
171
     0
290
     0
174
     0
 93
        1
 44
0.0
173
     0
291
     1
 45
0.0
1001
ACAD
1000
AcDbSavedByObjectVersion
1070
     0
  0
VISUALSTYLE
  5
296
102
{ACAD_REACTORS
330
295
102
}
330
295
100
AcDbVisualStyle
  2
Flat
 70
     0
 71
     2
 72
     1
 73
     1
 90
        2
 40
-0.6
 41
30.0
 62
     5
 63
     7
 74
     0
 91
        4
 64
     7
 65
   257
 75
     1
175
     1
 42
1.0
 92
        8
 66
     7
 43
1.0
 76
     1
 77
     6
 78
     2
 67
     7
 79
     5
170
     0
171
     0
290
     0
174
     0
 93
       13
 44
0.0
173
     0
291
     1
 45
0.0
1001
ACAD
1000
AcDbSavedByObjectVersion
1070
     0
  0
VISUALSTYLE
  5
297
102
{ACAD_REACTORS
330
295
102
}
330
295
100
AcDbVisualStyle
  2
FlatWithEdges
 70
     1
 71
     2
 72
     1
 73
     1
 90
        2
 40
-0.6
 41
30.0
 62
     5
 63
     7
 74
     1
 91
        4
 64
     7
 65
   257
 75
     1
175
     1
 42
1.0
 92
        0
 66
   257
 43
1.0
 76
     1
 77
     6
 78
     2
 67
     7
 79
     5
170
     0
171
     0
290
     0
174
     0
 93
       13
 44
0.0
173
     0
291
     1
 45
0.0
1001
ACAD
1000
AcDbSavedByObjectVersion
1070
     0
  0
VISUALSTYLE
  5
298
102
{ACAD_REACTORS
330
295
102
}
330
295
100
AcDbVisualStyle
  2
Gouraud
 70
     2
 71
     2
 72
     2
 73
     1
 90
        2
 40
-0.6
 41
30.0
 62
     5
 63
     7
 74
     0
 91
        4
 64
     7
 65
   257
 75
     1
175
     1
 42
1.0
 92
        0
 66
     7
 43
1.0
 76
     1
 77
     6
 78
     2
 67
     7
 79
     5
170
     0
171
     0
290
     0
174
     0
 93
       13
 44
0.0
173
     0
291
     1
 45
0.0
1001
ACAD
1000
AcDbSavedByObjectVersion
1070
     0
  0
VISUALSTYLE
  5
299
102
{ACAD_REACTORS
330
295
102
}
330
295
100
AcDbVisualStyle
  2
GouraudWithEdges
 70
     3
 71
     2
 72
     2
 73
     1
 90
        2
 40
-0.6
 41
30.0
 62
     5
 63
     7
 74
     1
 91
        4
 64
     7
 65
   257
 75
     1
175
     1
 42
1.0
 92
        0
 66
   257
 43
1.0
 76
     1
 77
     6
 78
     2
 67
     7
 79
     5
170
     0
171
     0
290
     0
174
     0
 93
       13
 44
0.0
173
     0
291
     1
 45
0.0
1001
ACAD
1000
AcDbSavedByObjectVersion
1070
     0
  0
VISUALSTYLE
  5
2A3
102
{ACAD_REACTORS
330
295
102
}
330
295
100
AcDbVisualStyle
  2
Linepattern
 70
    14
 71
     2
 72
     2
 73
     0
 90
        0
 40
-0.6
 41
-30.0
 62
     5
 63
     7
 74
     1
 91
        4
 64
     7
 65
   257
 75
     7
175
     7
 42
1.0
 92
        8
 66
     7
 43
1.0
 76
     1
 77
     6
 78
     2
 67
     7
 79
     5
170
     0
171
     0
290
     0
174
     0
 93
        1
 44
0.0
173
     0
291
     1
 45
0.0
1001
ACAD
1000
AcDbSavedByObjectVersion
1070
     0
  0
VISUALSTYLE
  5
29F
102
{ACAD_REACTORS
330
295
102
}
330
295
100
AcDbVisualStyle
  2
Realistic
 70
     8
 71
     2
 72
     2
 73
     0
 90
        0
 40
-0.6
 41
-30.0
 62
     5
 63
     7
 74
     1
 91
        0
 64
     7
 65
   257
 75
     1
175
     1
 42
1.0
 92
        8
 66
     8
 43
1.0
 76
     1
 77
     6
 78
     2
 67
     7
 79
     5
170
     0
171
     0
290
     0
174
     0
 93
       13
 44
0.0
173
     0
291
     0
 45
0.0
1001
ACAD
1000
AcDbSavedByObjectVersion
1070
     0
  0
VISUALSTYLE
  5
2A2
102
{ACAD_REACTORS
330
295
102
}
330
295
100
AcDbVisualStyle
  2
Thicken
 70
    13
 71
     2
 72
     2
 73
     0
 90
        0
 40
-0.6
 41
-30.0
 62
     5
 63
     7
 74
     1
 91
        4
 64
     7
 65
   257
 75
     1
175
     1
 42
1.0
 92
       12
 66
     7
 43
1.0
 76
     1
 77
     6
 78
     2
 67
     7
 79
     5
170
     0
171
     0
290
     0
174
     0
 93
        1
 44
0.0
173
     0
291
     1
 45
0.0
1001
ACAD
1000
AcDbSavedByObjectVersion
1070
     0
  0
DICTIONARYVAR
  5
2B1
102
{ACAD_REACTORS
330
2B0
102
}
330
2B0
100
DictionaryVariables
280
     0
  1
STANDARD
  0
DICTIONARYVAR
  5
2B4
102
{ACAD_REACTORS
330
2B0
102
}
330
2B0
100
DictionaryVariables
280
     0
  1
1
  0
DICTIONARYVAR
  5
2B3
102
{ACAD_REACTORS
330
2B0
102
}
330
2B0
100
DictionaryVariables
280
     0
  1
0
  0
DICTIONARYVAR
  5
2B2
102
{ACAD_REACTORS
330
2B0
102
}
330
2B0
100
DictionaryVariables
280
     0
  1
127
  0
XRECORD
  5
2AF
102
{ACAD_REACTORS
330
2AD
102
}
330
2AD
100
AcDbXrecord
280
     1
  0
DICTIONARY
  5
2BC
330
27C
100
AcDbDictionary
280
     1
281
     1
  3
ACAD_XREC_ROUNDTRIP
360
2BD
  0
DICTIONARY
  5
2B8
330
21
100
AcDbDictionary
280
     1
281
     1
  3
ACAD_XREC_ROUNDTRIP
360
2B9
  0
DICTIONARY
  5
2B6
330
20
100
AcDbDictionary
280
     1
281
     1
  3
ACAD_XREC_ROUNDTRIP
360
2B7
  0
DICTIONARY
  5
2C0
330
293
100
AcDbDictionary
280
     1
281
     1
  3
ACAD_XREC_ROUNDTRIP
360
2C1
  0
DICTIONARY
  5
2BE
330
292
100
AcDbDictionary
280
     1
281
     1
  3
ACAD_XREC_ROUNDTRIP
360
2BF
  0
DICTIONARY
  5
2C2
330
294
100
AcDbDictionary
280
     1
281
     1
  3
ACAD_XREC_ROUNDTRIP
360
2C3
  0
DICTIONARY
  5
2C4
330
2A8
100
AcDbDictionary
280
     1
281
     1
  3
ACAD_XREC_ROUNDTRIP
360
2C5
  0
XRECORD
  5
2BD
102
{ACAD_REACTORS
330
2BC
102
}
330
2BC
100
AcDbXrecord
280
     1
102
SHADEPLOT
 70
     0
102
SHADEPLOTRESLEVEL
 70
     2
102
SHADEPLOTCUSTOMDPI
 70
   300
  0
XRECORD
  5
2B9
102
{ACAD_REACTORS
330
2B8
102
}
330
2B8
100
AcDbXrecord
280
     1
102
SHADEPLOT
 70
     0
102
SHADEPLOTRESLEVEL
 70
     2
102
SHADEPLOTCUSTOMDPI
 70
   300
  0
XRECORD
  5
2B7
102
{ACAD_REACTORS
330
2B6
102
}
330
2B6
100
AcDbXrecord
280
     1
102
SHADEPLOT
 70
     0
102
SHADEPLOTRESLEVEL
 70
     2
102
SHADEPLOTCUSTOMDPI
 70
   300
  0
XRECORD
  5
2C1
102
{ACAD_REACTORS
330
2C0
102
}
330
2C0
100
AcDbXrecord
280
     1
102
MATERIAL
148
0.0
149
0.0
149
0.0
 93
        0
 94
       63
282
     0
 72
     1
 77
     1
171
     1
175
     1
179
     1
273
     0
  0
XRECORD
  5
2BF
102
{ACAD_REACTORS
330
2BE
102
}
330
2BE
100
AcDbXrecord
280
     1
102
MATERIAL
148
0.0
149
0.0
149
0.0
 93
        0
 94
       63
282
     0
 72
     1
 77
     1
171
     1
175
     1
179
     1
273
     0
  0
XRECORD
  5
2C3
102
{ACAD_REACTORS
330
2C2
102
}
330
2C2
100
AcDbXrecord
280
     1
102
MATERIAL
148
0.0
149
0.0
149
0.0
 93
        0
 94
       63
282
     0
 72
     1
 77
     1
171
     1
175
     1
179
     1
273
     0
  0
XRECORD
  5
2C5
102
{ACAD_REACTORS
330
2C4
102
}
330
2C4
100
AcDbXrecord
280
     1
102
ACAD_ROUNDTRIP_PRE2007_TABLESTYLE
 90
      512
 91
        0
  1

 92
      512
 93
        0
  2

 94
      512
 95
        0
  3

  0
ENDSEC
  0
EOF
