  0
SECTION
  2
HEADER
  9
$ACADVER
  1
AC1012
  9
$DWGCODEPAGE
  3
ANSI_1252
  9
$INSBASE
 10
0.0
 20
0.0
 30
0.0
  9
$EXTMIN
 10
3.160949738650757
 20
7.013122587712857
 30
-0.0000000000112498
  9
$EXTMAX
 10
7.365966819419952
 20
8.983795186951518
 30
0.0000000000002956
  9
$LIMMIN
 10
0.0
 20
0.0
  9
$LIMMAX
 10
12.0
 20
9.0
  9
$ORTHOMODE
 70
     0
  9
$REGENMODE
 70
     1
  9
$FILLMODE
 70
     1
  9
$QTEXTMODE
 70
     0
  9
$MIRRTEXT
 70
     1
  9
$DRAGMODE
 70
     2
  9
$LTSCALE
 40
1.0
  9
$OSMODE
 70
   547
  9
$ATTMODE
 70
     1
  9
$TEXTSIZE
 40
0.2
  9
$TRACEWID
 40
0.05
  9
$TEXTSTYLE
  7
STANDARD
  9
$CLAYER
  8
0
  9
$CELTYPE
  6
BYLAYER
  9
$CECOLOR
 62
   256
  9
$CELTSCALE
 40
1.0
  9
$DELOBJ
 70
     1
  9
$DISPSILH
 70
     0
  9
$DIMSCALE
 40
1.0
  9
$DIMASZ
 40
0.18
  9
$DIMEXO
 40
0.0625
  9
$DIMDLI
 40
0.38
  9
$DIMRND
 40
0.0
  9
$DIMDLE
 40
0.0
  9
$DIMEXE
 40
0.18
  9
$DIMTP
 40
0.0
  9
$DIMTM
 40
0.0
  9
$DIMTXT
 40
0.18
  9
$DIMCEN
 40
0.09
  9
$DIMTSZ
 40
0.0
  9
$DIMTOL
 70
     0
  9
$DIMLIM
 70
     0
  9
$DIMTIH
 70
     1
  9
$DIMTOH
 70
     1
  9
$DIMSE1
 70
     0
  9
$DIMSE2
 70
     0
  9
$DIMTAD
 70
     0
  9
$DIMZIN
 70
     0
  9
$DIMBLK
  1

  9
$DIMASO
 70
     1
  9
$DIMSHO
 70
     1
  9
$DIMPOST
  1

  9
$DIMAPOST
  1

  9
$DIMALT
 70
     0
  9
$DIMALTD
 70
     2
  9
$DIMALTF
 40
25.4
  9
$DIMLFAC
 40
1.0
  9
$DIMTOFL
 70
     0
  9
$DIMTVP
 40
0.0
  9
$DIMTIX
 70
     0
  9
$DIMSOXD
 70
     0
  9
$DIMSAH
 70
     0
  9
$DIMBLK1
  1

  9
$DIMBLK2
  1

  9
$DIMSTYLE
  2
STANDARD
  9
$DIMCLRD
 70
     0
  9
$DIMCLRE
 70
     0
  9
$DIMCLRT
 70
     0
  9
$DIMTFAC
 40
1.0
  9
$DIMGAP
 40
0.09
  9
$DIMJUST
 70
     0
  9
$DIMSD1
 70
     0
  9
$DIMSD2
 70
     0
  9
$DIMTOLJ
 70
     1
  9
$DIMTZIN
 70
     0
  9
$DIMALTZ
 70
     0
  9
$DIMALTTZ
 70
     0
  9
$DIMFIT
 70
     5
  9
$DIMUPT
 70
     0
  9
$DIMUNIT
 70
     2
  9
$DIMDEC
 70
     4
  9
$DIMTDEC
 70
     4
  9
$DIMALTU
 70
     2
  9
$DIMALTTD
 70
     2
  9
$DIMTXSTY
  7
STANDARD
  9
$DIMAUNIT
 70
     0
  9
$LUNITS
 70
     2
  9
$LUPREC
 70
     4
  9
$SKETCHINC
 40
0.1
  9
$FILLETRAD
 40
0.0
  9
$AUNITS
 70
     0
  9
$AUPREC
 70
     0
  9
$MENU
  1
acad
  9
$ELEVATION
 40
0.0
  9
$PELEVATION
 40
0.0
  9
$THICKNESS
 40
0.0
  9
$LIMCHECK
 70
     0
  9
$BLIPMODE
 70
     0
  9
$CHAMFERA
 40
0.0
  9
$CHAMFERB
 40
0.0
  9
$CHAMFERC
 40
0.0
  9
$CHAMFERD
 40
0.0
  9
$SKPOLY
 70
     0
  9
$TDCREATE
 40
2451908.391840277
  9
$TDUPDATE
 40
2453945.582230578
  9
$TDINDWG
 40
0.0009577546
  9
$TDUSRTIMER
 40
0.0009577546
  9
$USRTIMER
 70
     1
  9
$ANGBASE
 50
0.0
  9
$ANGDIR
 70
     0
  9
$PDMODE
 70
     0
  9
$PDSIZE
 40
0.0
  9
$PLINEWID
 40
0.0
  9
$COORDS
 70
     1
  9
$SPLFRAME
 70
     0
  9
$SPLINETYPE
 70
     6
  9
$SPLINESEGS
 70
     8
  9
$ATTDIA
 70
     0
  9
$ATTREQ
 70
     1
  9
$HANDLING
 70
  4097
  9
$HANDSEED
  5
3C6A
  9
$SURFTAB1
 70
     6
  9
$SURFTAB2
 70
     6
  9
$SURFTYPE
 70
     6
  9
$SURFU
 70
     6
  9
$SURFV
 70
     6
  9
$UCSNAME
  2

  9
$UCSORG
 10
0.0
 20
0.0
 30
0.0
  9
$UCSXDIR
 10
1.0
 20
0.0
 30
0.0
  9
$UCSYDIR
 10
0.0
 20
1.0
 30
0.0
  9
$PUCSNAME
  2

  9
$PUCSORG
 10
0.0
 20
0.0
 30
0.0
  9
$PUCSXDIR
 10
1.0
 20
0.0
 30
0.0
  9
$PUCSYDIR
 10
0.0
 20
1.0
 30
0.0
  9
$USERI1
 70
     0
  9
$USERI2
 70
     0
  9
$USERI3
 70
     0
  9
$USERI4
 70
     0
  9
$USERI5
 70
     0
  9
$USERR1
 40
0.0
  9
$USERR2
 40
0.0
  9
$USERR3
 40
0.0
  9
$USERR4
 40
0.0
  9
$USERR5
 40
0.0
  9
$WORLDVIEW
 70
     1
  9
$SHADEDGE
 70
     3
  9
$SHADEDIF
 70
    70
  9
$TILEMODE
 70
     1
  9
$MAXACTVP
 70
    16
  9
$PINSBASE
 10
0.0
 20
0.0
 30
0.0
  9
$PLIMCHECK
 70
     0
  9
$PEXTMIN
 10
1.000000000000000E+20
 20
1.000000000000000E+20
 30
1.000000000000000E+20
  9
$PEXTMAX
 10
-1.000000000000000E+20
 20
-1.000000000000000E+20
 30
-1.000000000000000E+20
  9
$PLIMMIN
 10
0.0
 20
0.0
  9
$PLIMMAX
 10
12.0
 20
9.0
  9
$UNITMODE
 70
     0
  9
$VISRETAIN
 70
     0
  9
$PLINEGEN
 70
     0
  9
$PSLTSCALE
 70
     1
  9
$TREEDEPTH
 70
  3020
  9
$PICKSTYLE
 70
     1
  9
$CMLSTYLE
  2
STANDARD
  9
$CMLJUST
 70
     0
  9
$CMLSCALE
 40
1.0
  9
$SAVEIMAGES
 70
     1
  0
ENDSEC
  0
SECTION
  2
CLASSES
  0
CLASS
  1
ACDBDICTIONARYWDFLT
  2
AcDbDictionaryWithDefault
  3
AutoCAD 2000
 90
    32768
280
     0
281
     0
  0
CLASS
  1
ACDBPLACEHOLDER
  2
AcDbPlaceHolder
  3
AutoCAD 2000
 90
    32768
280
     0
281
     0
  0
CLASS
  1
LAYOUT
  2
AcDbLayout
  3
AutoCAD 2000
 90
    32768
280
     0
281
     0
  0
CLASS
  1
LONG_TRANSACTION
  2
AcDbLongTransaction
  3
AutoCAD 2000
 90
    32768
280
     0
281
     0
  0
CLASS
  1
LWPOLYLINE
  2
AcDbPolyline
  3
AutoCAD 2000
 90
    32768
280
     0
281
     1
  0
CLASS
  1
HATCH
  2
AcDbHatch
  3
AutoCAD 2000
 90
    32768
280
     0
281
     1
  0
CLASS
  1
XRECORD
  2
AcDbXrecord
  3
AutoCAD 2000
 90
    32768
280
     0
281
     0
  0
CLASS
  1
LONG_TRANSACTION
  2
AcDbLongTransaction
  3
AutoCAD 2000
 90
    32768
280
     0
281
     0
  0
CLASS
  1
LWPOLYLINE
  2
AcDbPolyline
  3
AutoCAD 2000
 90
    32768
280
     0
281
     1
  0
CLASS
  1
HATCH
  2
AcDbHatch
  3
AutoCAD 2000
 90
    32768
280
     0
281
     1
  0
CLASS
  1
XRECORD
  2
AcDbXrecord
  3
AutoCAD 2000
 90
    32768
280
     0
281
     0
  0
ENDSEC
  0
SECTION
  2
TABLES
  0
TABLE
  2
VPORT
  5
8
330
0
100
AcDbSymbolTable
 70
     3
  0
VPORT
  5
3C67
330
8
100
AcDbSymbolTableRecord
100
AcDbViewportTableRecord
  2
*ACTIVE
 70
     0
 10
0.0
 20
0.0
 11
1.0
 21
1.0
 12
5.263458279035354
 22
7.998458887332188
 13
0.0
 23
0.0
 14
1.0
 24
1.0
 15
0.0
 25
0.0
 16
0.0
 26
0.0
 36
1.0
 17
0.0
 27
0.0
 37
0.0
 40
2.568363358927407
 41
1.647569444444444
 42
50.0
 43
0.0
 44
0.0
 50
0.0
 51
0.0
 71
     0
 72
   100
 73
     1
 74
     1
 75
     0
 76
     0
 77
     0
 78
     0
  0
ENDTAB
  0
TABLE
  2
LTYPE
  5
5
330
0
100
AcDbSymbolTable
 70
    25
  0
LTYPE
  5
13
330
5
100
AcDbSymbolTableRecord
100
AcDbLinetypeTableRecord
  2
BYBLOCK
 70
     0
  3

 72
    65
 73
     0
 40
0.0
  0
LTYPE
  5
14
330
5
100
AcDbSymbolTableRecord
100
AcDbLinetypeTableRecord
  2
BYLAYER
 70
     0
  3

 72
    65
 73
     0
 40
0.0
  0
LTYPE
  5
15
330
5
100
AcDbSymbolTableRecord
100
AcDbLinetypeTableRecord
  2
CONTINUOUS
 70
     0
  3
Solid line
 72
    65
 73
     0
 40
0.0
  0
LTYPE
  5
22
330
5
100
AcDbSymbolTableRecord
100
AcDbLinetypeTableRecord
  2
BORDER
 70
     0
  3
__ __ . __ __ . __ __ . __ __ . __ __ . __ __ .
 72
    65
 73
     6
 40
1.75
 49
0.5
 74
     0
 49
-0.25
 74
     0
 49
0.5
 74
     0
 49
-0.25
 74
     0
 49
0.5
 74
     0
 49
-0.25
 74
     0
  0
LTYPE
  5
23
330
5
100
AcDbSymbolTableRecord
100
AcDbLinetypeTableRecord
  2
BORDER2
 70
     0
  3
__.__.__.__.__.__.__.__.__.__.__.__.__.__.__.__
 72
    65
 73
     6
 40
0.875
 49
0.25
 74
     0
 49
-0.125
 74
     0
 49
0.25
 74
     0
 49
-0.125
 74
     0
 49
0.25
 74
     0
 49
-0.125
 74
     0
  0
LTYPE
  5
24
330
5
100
AcDbSymbolTableRecord
100
AcDbLinetypeTableRecord
  2
BORDERX2
 70
     0
  3
____  ____  .  ____  ____  .  
 72
    65
 73
     6
 40
3.5
 49
1.0
 74
     0
 49
-0.5
 74
     0
 49
1.0
 74
     0
 49
-0.5
 74
     0
 49
1.0
 74
     0
 49
-0.5
 74
     0
  0
LTYPE
  5
25
330
5
100
AcDbSymbolTableRecord
100
AcDbLinetypeTableRecord
  2
CENTER
 70
     0
  3
____ _ ____ _ ____ _ ____ _ ____ _ ____ _ ____
 72
    65
 73
     4
 40
2.0
 49
1.25
 74
     0
 49
-0.25
 74
     0
 49
0.25
 74
     0
 49
-0.25
 74
     0
  0
LTYPE
  5
26
330
5
100
AcDbSymbolTableRecord
100
AcDbLinetypeTableRecord
  2
CENTER2
 70
     0
  3
____ _ ____ _ ____ _ ____ _ ____ _ ____ _ ____
 72
    65
 73
     4
 40
1.125
 49
0.75
 74
     0
 49
-0.125
 74
     0
 49
0.125
 74
     0
 49
-0.125
 74
     0
  0
LTYPE
  5
27
330
5
100
AcDbSymbolTableRecord
100
AcDbLinetypeTableRecord
  2
CENTERX2
 70
     0
  3
________  __  ________  __  ________  __  
 72
    65
 73
     4
 40
4.0
 49
2.5
 74
     0
 49
-0.5
 74
     0
 49
0.5
 74
     0
 49
-0.5
 74
     0
  0
LTYPE
  5
28
330
5
100
AcDbSymbolTableRecord
100
AcDbLinetypeTableRecord
  2
DASHDOT
 70
     0
  3
__ . __ . __ . __ . __ . __ . __ . 
 72
    65
 73
     4
 40
1.0
 49
0.5
 74
     0
 49
-0.25
 74
     0
 49
0.0
 74
     0
 49
-0.25
 74
     0
  0
LTYPE
  5
29
330
5
100
AcDbSymbolTableRecord
100
AcDbLinetypeTableRecord
  2
DASHDOT2
 70
     0
  3
_._._._._._._._._._._._._._._._.
 72
    65
 73
     4
 40
0.5
 49
0.25
 74
     0
 49
-0.125
 74
     0
 49
0.0
 74
     0
 49
-0.125
 74
     0
  0
LTYPE
  5
2A
330
5
100
AcDbSymbolTableRecord
100
AcDbLinetypeTableRecord
  2
DASHDOTX2
 70
     0
  3
____  .  ____  .  ____  .  ____  .  
 72
    65
 73
     4
 40
2.0
 49
1.0
 74
     0
 49
-0.5
 74
     0
 49
0.0
 74
     0
 49
-0.5
 74
     0
  0
LTYPE
  5
2B
330
5
100
AcDbSymbolTableRecord
100
AcDbLinetypeTableRecord
  2
DASHED
 70
     0
  3
__ __ __ __ __ __ __ __ __ __ __ __ 
 72
    65
 73
     2
 40
0.75
 49
0.5
 74
     0
 49
-0.25
 74
     0
  0
LTYPE
  5
2C
330
5
100
AcDbSymbolTableRecord
100
AcDbLinetypeTableRecord
  2
DASHED2
 70
     0
  3
_ _ _ _ _ _ _ _ _ _ _ _ _ _ _ _ _ _ 
 72
    65
 73
     2
 40
0.375
 49
0.25
 74
     0
 49
-0.125
 74
     0
  0
LTYPE
  5
2D
330
5
100
AcDbSymbolTableRecord
100
AcDbLinetypeTableRecord
  2
DASHEDX2
 70
     0
  3
____  ____  ____  ____  ____  ____  
 72
    65
 73
     2
 40
1.5
 49
1.0
 74
     0
 49
-0.5
 74
     0
  0
LTYPE
  5
2E
330
5
100
AcDbSymbolTableRecord
100
AcDbLinetypeTableRecord
  2
DIVIDE
 70
     0
  3
____ . . ____ . . ____ . . ____ . . 
 72
    65
 73
     6
 40
1.25
 49
0.5
 74
     0
 49
-0.25
 74
     0
 49
0.0
 74
     0
 49
-0.25
 74
     0
 49
0.0
 74
     0
 49
-0.25
 74
     0
  0
LTYPE
  5
2F
330
5
100
AcDbSymbolTableRecord
100
AcDbLinetypeTableRecord
  2
DIVIDE2
 70
     0
  3
__..__..__..__..__..__..__..__..__..
 72
    65
 73
     6
 40
0.625
 49
0.25
 74
     0
 49
-0.125
 74
     0
 49
0.0
 74
     0
 49
-0.125
 74
     0
 49
0.0
 74
     0
 49
-0.125
 74
     0
  0
LTYPE
  5
30
330
5
100
AcDbSymbolTableRecord
100
AcDbLinetypeTableRecord
  2
DIVIDEX2
 70
     0
  3
________  .  .  ________  .  .  ________  .  . 
 72
    65
 73
     6
 40
2.5
 49
1.0
 74
     0
 49
-0.5
 74
     0
 49
0.0
 74
     0
 49
-0.5
 74
     0
 49
0.0
 74
     0
 49
-0.5
 74
     0
  0
LTYPE
  5
31
330
5
100
AcDbSymbolTableRecord
100
AcDbLinetypeTableRecord
  2
DOT
 70
     0
  3
. . . . . . . . . . . . . . . . . . 
 72
    65
 73
     2
 40
0.25
 49
0.0
 74
     0
 49
-0.25
 74
     0
  0
LTYPE
  5
32
330
5
100
AcDbSymbolTableRecord
100
AcDbLinetypeTableRecord
  2
DOT2
 70
     0
  3
....................................
 72
    65
 73
     2
 40
0.125
 49
0.0
 74
     0
 49
-0.125
 74
     0
  0
LTYPE
  5
33
330
5
100
AcDbSymbolTableRecord
100
AcDbLinetypeTableRecord
  2
DOTX2
 70
     0
  3
.  .  .  .  .  .  .  .  .  .  .  .  .  
 72
    65
 73
     2
 40
0.5
 49
0.0
 74
     0
 49
-0.5
 74
     0
  0
LTYPE
  5
34
330
5
100
AcDbSymbolTableRecord
100
AcDbLinetypeTableRecord
  2
HIDDEN
 70
     0
  3
__ __ __ __ __ __ __ __ __ __ __ __ 
 72
    65
 73
     2
 40
0.375
 49
0.25
 74
     0
 49
-0.125
 74
     0
  0
LTYPE
  5
35
330
5
100
AcDbSymbolTableRecord
100
AcDbLinetypeTableRecord
  2
HIDDEN2
 70
     0
  3
_ _ _ _ _ _ _ _ _ _ _ _ _ _ _ _ _ _ 
 72
    65
 73
     2
 40
0.1875
 49
0.125
 74
     0
 49
-0.0625
 74
     0
  0
LTYPE
  5
36
330
5
100
AcDbSymbolTableRecord
100
AcDbLinetypeTableRecord
  2
HIDDENX2
 70
     0
  3
____ ____ ____ ____ ____ ____ ____ 
 72
    65
 73
     2
 40
0.75
 49
0.5
 74
     0
 49
-0.25
 74
     0
  0
LTYPE
  5
37
330
5
100
AcDbSymbolTableRecord
100
AcDbLinetypeTableRecord
  2
PHANTOM
 70
     0
  3
______  __  __  ______  __  __  
 72
    65
 73
     6
 40
2.5
 49
1.25
 74
     0
 49
-0.25
 74
     0
 49
0.25
 74
     0
 49
-0.25
 74
     0
 49
0.25
 74
     0
 49
-0.25
 74
     0
  0
LTYPE
  5
38
330
5
100
AcDbSymbolTableRecord
100
AcDbLinetypeTableRecord
  2
PHANTOM2
 70
     0
  3
___ _ _ ___ _ _ ___ _ _ ___ _ _ 
 72
    65
 73
     6
 40
1.25
 49
0.625
 74
     0
 49
-0.125
 74
     0
 49
0.125
 74
     0
 49
-0.125
 74
     0
 49
0.125
 74
     0
 49
-0.125
 74
     0
  0
LTYPE
  5
39
330
5
100
AcDbSymbolTableRecord
100
AcDbLinetypeTableRecord
  2
PHANTOMX2
 70
     0
  3
___ _ _ ___ _ _ ___ _ _ ___ _ _ 
 72
    65
 73
     6
 40
5.0
 49
2.5
 74
     0
 49
-0.5
 74
     0
 49
0.5
 74
     0
 49
-0.5
 74
     0
 49
0.5
 74
     0
 49
-0.5
 74
     0
  0
ENDTAB
  0
TABLE
  2
LAYER
  5
2
330
0
100
AcDbSymbolTable
 70
   256
  0
LAYER
  5
10
330
2
100
AcDbSymbolTableRecord
100
AcDbLayerTableRecord
  2
0
 70
     0
 62
     7
  6
CONTINUOUS
  0
LAYER
  5
3A
330
2
100
AcDbSymbolTableRecord
100
AcDbLayerTableRecord
  2
1
 70
     0
 62
     1
  6
CONTINUOUS
  0
LAYER
  5
3B
330
2
100
AcDbSymbolTableRecord
100
AcDbLayerTableRecord
  2
2
 70
     0
 62
     2
  6
CONTINUOUS
  0
LAYER
  5
3C
330
2
100
AcDbSymbolTableRecord
100
AcDbLayerTableRecord
  2
3
 70
     0
 62
     3
  6
CONTINUOUS
  0
LAYER
  5
3D
330
2
100
AcDbSymbolTableRecord
100
AcDbLayerTableRecord
  2
4
 70
     0
 62
     4
  6
CONTINUOUS
  0
LAYER
  5
3E
330
2
100
AcDbSymbolTableRecord
100
AcDbLayerTableRecord
  2
5
 70
     0
 62
     5
  6
CONTINUOUS
  0
LAYER
  5
3F
330
2
100
AcDbSymbolTableRecord
100
AcDbLayerTableRecord
  2
6
 70
     0
 62
     6
  6
CONTINUOUS
  0
LAYER
  5
40
330
2
100
AcDbSymbolTableRecord
100
AcDbLayerTableRecord
  2
7
 70
     0
 62
     7
  6
CONTINUOUS
  0
LAYER
  5
41
330
2
100
AcDbSymbolTableRecord
100
AcDbLayerTableRecord
  2
8
 70
     0
 62
     8
  6
CONTINUOUS
  0
LAYER
  5
42
330
2
100
AcDbSymbolTableRecord
100
AcDbLayerTableRecord
  2
9
 70
     0
 62
     9
  6
CONTINUOUS
  0
LAYER
  5
43
330
2
100
AcDbSymbolTableRecord
100
AcDbLayerTableRecord
  2
10
 70
     0
 62
    10
  6
CONTINUOUS
  0
LAYER
  5
44
330
2
100
AcDbSymbolTableRecord
100
AcDbLayerTableRecord
  2
11
 70
     0
 62
    11
  6
CONTINUOUS
  0
LAYER
  5
45
330
2
100
AcDbSymbolTableRecord
100
AcDbLayerTableRecord
  2
12
 70
     0
 62
    12
  6
CONTINUOUS
  0
LAYER
  5
46
330
2
100
AcDbSymbolTableRecord
100
AcDbLayerTableRecord
  2
13
 70
     0
 62
    13
  6
CONTINUOUS
  0
LAYER
  5
47
330
2
100
AcDbSymbolTableRecord
100
AcDbLayerTableRecord
  2
14
 70
     0
 62
    14
  6
CONTINUOUS
  0
LAYER
  5
48
330
2
100
AcDbSymbolTableRecord
100
AcDbLayerTableRecord
  2
15
 70
     0
 62
    15
  6
CONTINUOUS
  0
LAYER
  5
49
330
2
100
AcDbSymbolTableRecord
100
AcDbLayerTableRecord
  2
16
 70
     0
 62
    16
  6
CONTINUOUS
  0
LAYER
  5
4A
330
2
100
AcDbSymbolTableRecord
100
AcDbLayerTableRecord
  2
17
 70
     0
 62
    17
  6
CONTINUOUS
  0
LAYER
  5
4B
330
2
100
AcDbSymbolTableRecord
100
AcDbLayerTableRecord
  2
18
 70
     0
 62
    18
  6
CONTINUOUS
  0
LAYER
  5
4C
330
2
100
AcDbSymbolTableRecord
100
AcDbLayerTableRecord
  2
19
 70
     0
 62
    19
  6
CONTINUOUS
  0
LAYER
  5
4D
330
2
100
AcDbSymbolTableRecord
100
AcDbLayerTableRecord
  2
20
 70
     0
 62
    20
  6
CONTINUOUS
  0
LAYER
  5
4E
330
2
100
AcDbSymbolTableRecord
100
AcDbLayerTableRecord
  2
21
 70
     0
 62
    21
  6
CONTINUOUS
  0
LAYER
  5
4F
330
2
100
AcDbSymbolTableRecord
100
AcDbLayerTableRecord
  2
22
 70
     0
 62
    22
  6
CONTINUOUS
  0
LAYER
  5
50
330
2
100
AcDbSymbolTableRecord
100
AcDbLayerTableRecord
  2
23
 70
     0
 62
    23
  6
CONTINUOUS
  0
LAYER
  5
51
330
2
100
AcDbSymbolTableRecord
100
AcDbLayerTableRecord
  2
24
 70
     0
 62
    24
  6
CONTINUOUS
  0
LAYER
  5
52
330
2
100
AcDbSymbolTableRecord
100
AcDbLayerTableRecord
  2
25
 70
     0
 62
    25
  6
CONTINUOUS
  0
LAYER
  5
53
330
2
100
AcDbSymbolTableRecord
100
AcDbLayerTableRecord
  2
26
 70
     0
 62
    26
  6
CONTINUOUS
  0
LAYER
  5
54
330
2
100
AcDbSymbolTableRecord
100
AcDbLayerTableRecord
  2
27
 70
     0
 62
    27
  6
CONTINUOUS
  0
LAYER
  5
55
330
2
100
AcDbSymbolTableRecord
100
AcDbLayerTableRecord
  2
28
 70
     0
 62
    28
  6
CONTINUOUS
  0
LAYER
  5
56
330
2
100
AcDbSymbolTableRecord
100
AcDbLayerTableRecord
  2
29
 70
     0
 62
    29
  6
CONTINUOUS
  0
LAYER
  5
57
330
2
100
AcDbSymbolTableRecord
100
AcDbLayerTableRecord
  2
30
 70
     0
 62
    30
  6
CONTINUOUS
  0
LAYER
  5
58
330
2
100
AcDbSymbolTableRecord
100
AcDbLayerTableRecord
  2
31
 70
     0
 62
    31
  6
CONTINUOUS
  0
LAYER
  5
59
330
2
100
AcDbSymbolTableRecord
100
AcDbLayerTableRecord
  2
32
 70
     0
 62
    32
  6
CONTINUOUS
  0
LAYER
  5
5A
330
2
100
AcDbSymbolTableRecord
100
AcDbLayerTableRecord
  2
33
 70
     0
 62
    33
  6
CONTINUOUS
  0
LAYER
  5
5B
330
2
100
AcDbSymbolTableRecord
100
AcDbLayerTableRecord
  2
34
 70
     0
 62
    34
  6
CONTINUOUS
  0
LAYER
  5
5C
330
2
100
AcDbSymbolTableRecord
100
AcDbLayerTableRecord
  2
35
 70
     0
 62
    35
  6
CONTINUOUS
  0
LAYER
  5
5D
330
2
100
AcDbSymbolTableRecord
100
AcDbLayerTableRecord
  2
36
 70
     0
 62
    36
  6
CONTINUOUS
  0
LAYER
  5
5E
330
2
100
AcDbSymbolTableRecord
100
AcDbLayerTableRecord
  2
37
 70
     0
 62
    37
  6
CONTINUOUS
  0
LAYER
  5
5F
330
2
100
AcDbSymbolTableRecord
100
AcDbLayerTableRecord
  2
38
 70
     0
 62
    38
  6
CONTINUOUS
  0
LAYER
  5
60
330
2
100
AcDbSymbolTableRecord
100
AcDbLayerTableRecord
  2
39
 70
     0
 62
    39
  6
CONTINUOUS
  0
LAYER
  5
61
330
2
100
AcDbSymbolTableRecord
100
AcDbLayerTableRecord
  2
40
 70
     0
 62
    40
  6
CONTINUOUS
  0
LAYER
  5
62
330
2
100
AcDbSymbolTableRecord
100
AcDbLayerTableRecord
  2
41
 70
     0
 62
    41
  6
CONTINUOUS
  0
LAYER
  5
63
330
2
100
AcDbSymbolTableRecord
100
AcDbLayerTableRecord
  2
42
 70
     0
 62
    42
  6
CONTINUOUS
  0
LAYER
  5
64
330
2
100
AcDbSymbolTableRecord
100
AcDbLayerTableRecord
  2
43
 70
     0
 62
    43
  6
CONTINUOUS
  0
LAYER
  5
65
330
2
100
AcDbSymbolTableRecord
100
AcDbLayerTableRecord
  2
44
 70
     0
 62
    44
  6
CONTINUOUS
  0
LAYER
  5
66
330
2
100
AcDbSymbolTableRecord
100
AcDbLayerTableRecord
  2
45
 70
     0
 62
    45
  6
CONTINUOUS
  0
LAYER
  5
67
330
2
100
AcDbSymbolTableRecord
100
AcDbLayerTableRecord
  2
46
 70
     0
 62
    46
  6
CONTINUOUS
  0
LAYER
  5
68
330
2
100
AcDbSymbolTableRecord
100
AcDbLayerTableRecord
  2
47
 70
     0
 62
    47
  6
CONTINUOUS
  0
LAYER
  5
69
330
2
100
AcDbSymbolTableRecord
100
AcDbLayerTableRecord
  2
48
 70
     0
 62
    48
  6
CONTINUOUS
  0
LAYER
  5
6A
330
2
100
AcDbSymbolTableRecord
100
AcDbLayerTableRecord
  2
49
 70
     0
 62
    49
  6
CONTINUOUS
  0
LAYER
  5
6B
330
2
100
AcDbSymbolTableRecord
100
AcDbLayerTableRecord
  2
50
 70
     0
 62
    50
  6
CONTINUOUS
  0
LAYER
  5
6C
330
2
100
AcDbSymbolTableRecord
100
AcDbLayerTableRecord
  2
51
 70
     0
 62
    51
  6
CONTINUOUS
  0
LAYER
  5
6D
330
2
100
AcDbSymbolTableRecord
100
AcDbLayerTableRecord
  2
52
 70
     0
 62
    52
  6
CONTINUOUS
  0
LAYER
  5
6E
330
2
100
AcDbSymbolTableRecord
100
AcDbLayerTableRecord
  2
53
 70
     0
 62
    53
  6
CONTINUOUS
  0
LAYER
  5
6F
330
2
100
AcDbSymbolTableRecord
100
AcDbLayerTableRecord
  2
54
 70
     0
 62
    54
  6
CONTINUOUS
  0
LAYER
  5
70
330
2
100
AcDbSymbolTableRecord
100
AcDbLayerTableRecord
  2
55
 70
     0
 62
    55
  6
CONTINUOUS
  0
LAYER
  5
71
330
2
100
AcDbSymbolTableRecord
100
AcDbLayerTableRecord
  2
56
 70
     0
 62
    56
  6
CONTINUOUS
  0
LAYER
  5
72
330
2
100
AcDbSymbolTableRecord
100
AcDbLayerTableRecord
  2
57
 70
     0
 62
    57
  6
CONTINUOUS
  0
LAYER
  5
73
330
2
100
AcDbSymbolTableRecord
100
AcDbLayerTableRecord
  2
58
 70
     0
 62
    58
  6
CONTINUOUS
  0
LAYER
  5
74
330
2
100
AcDbSymbolTableRecord
100
AcDbLayerTableRecord
  2
59
 70
     0
 62
    59
  6
CONTINUOUS
  0
LAYER
  5
75
330
2
100
AcDbSymbolTableRecord
100
AcDbLayerTableRecord
  2
60
 70
     0
 62
    60
  6
CONTINUOUS
  0
LAYER
  5
76
330
2
100
AcDbSymbolTableRecord
100
AcDbLayerTableRecord
  2
61
 70
     0
 62
    61
  6
CONTINUOUS
  0
LAYER
  5
77
330
2
100
AcDbSymbolTableRecord
100
AcDbLayerTableRecord
  2
62
 70
     0
 62
    62
  6
CONTINUOUS
  0
LAYER
  5
78
330
2
100
AcDbSymbolTableRecord
100
AcDbLayerTableRecord
  2
63
 70
     0
 62
    63
  6
CONTINUOUS
  0
LAYER
  5
79
330
2
100
AcDbSymbolTableRecord
100
AcDbLayerTableRecord
  2
64
 70
     0
 62
    64
  6
CONTINUOUS
  0
LAYER
  5
7A
330
2
100
AcDbSymbolTableRecord
100
AcDbLayerTableRecord
  2
65
 70
     0
 62
    65
  6
CONTINUOUS
  0
LAYER
  5
7B
330
2
100
AcDbSymbolTableRecord
100
AcDbLayerTableRecord
  2
66
 70
     0
 62
    66
  6
CONTINUOUS
  0
LAYER
  5
7C
330
2
100
AcDbSymbolTableRecord
100
AcDbLayerTableRecord
  2
67
 70
     0
 62
    67
  6
CONTINUOUS
  0
LAYER
  5
7D
330
2
100
AcDbSymbolTableRecord
100
AcDbLayerTableRecord
  2
68
 70
     0
 62
    68
  6
CONTINUOUS
  0
LAYER
  5
7E
330
2
100
AcDbSymbolTableRecord
100
AcDbLayerTableRecord
  2
69
 70
     0
 62
    69
  6
CONTINUOUS
  0
LAYER
  5
7F
330
2
100
AcDbSymbolTableRecord
100
AcDbLayerTableRecord
  2
70
 70
     0
 62
    70
  6
CONTINUOUS
  0
LAYER
  5
80
330
2
100
AcDbSymbolTableRecord
100
AcDbLayerTableRecord
  2
71
 70
     0
 62
    71
  6
CONTINUOUS
  0
LAYER
  5
81
330
2
100
AcDbSymbolTableRecord
100
AcDbLayerTableRecord
  2
72
 70
     0
 62
    72
  6
CONTINUOUS
  0
LAYER
  5
82
330
2
100
AcDbSymbolTableRecord
100
AcDbLayerTableRecord
  2
73
 70
     0
 62
    73
  6
CONTINUOUS
  0
LAYER
  5
83
330
2
100
AcDbSymbolTableRecord
100
AcDbLayerTableRecord
  2
74
 70
     0
 62
    74
  6
CONTINUOUS
  0
LAYER
  5
84
330
2
100
AcDbSymbolTableRecord
100
AcDbLayerTableRecord
  2
75
 70
     0
 62
    75
  6
CONTINUOUS
  0
LAYER
  5
85
330
2
100
AcDbSymbolTableRecord
100
AcDbLayerTableRecord
  2
76
 70
     0
 62
    76
  6
CONTINUOUS
  0
LAYER
  5
86
330
2
100
AcDbSymbolTableRecord
100
AcDbLayerTableRecord
  2
77
 70
     0
 62
    77
  6
CONTINUOUS
  0
LAYER
  5
87
330
2
100
AcDbSymbolTableRecord
100
AcDbLayerTableRecord
  2
78
 70
     0
 62
    78
  6
CONTINUOUS
  0
LAYER
  5
88
330
2
100
AcDbSymbolTableRecord
100
AcDbLayerTableRecord
  2
79
 70
     0
 62
    79
  6
CONTINUOUS
  0
LAYER
  5
89
330
2
100
AcDbSymbolTableRecord
100
AcDbLayerTableRecord
  2
80
 70
     0
 62
    80
  6
CONTINUOUS
  0
LAYER
  5
8A
330
2
100
AcDbSymbolTableRecord
100
AcDbLayerTableRecord
  2
81
 70
     0
 62
    81
  6
CONTINUOUS
  0
LAYER
  5
8B
330
2
100
AcDbSymbolTableRecord
100
AcDbLayerTableRecord
  2
82
 70
     0
 62
    82
  6
CONTINUOUS
  0
LAYER
  5
8C
330
2
100
AcDbSymbolTableRecord
100
AcDbLayerTableRecord
  2
83
 70
     0
 62
    83
  6
CONTINUOUS
  0
LAYER
  5
8D
330
2
100
AcDbSymbolTableRecord
100
AcDbLayerTableRecord
  2
84
 70
     0
 62
    84
  6
CONTINUOUS
  0
LAYER
  5
8E
330
2
100
AcDbSymbolTableRecord
100
AcDbLayerTableRecord
  2
85
 70
     0
 62
    85
  6
CONTINUOUS
  0
LAYER
  5
8F
330
2
100
AcDbSymbolTableRecord
100
AcDbLayerTableRecord
  2
86
 70
     0
 62
    86
  6
CONTINUOUS
  0
LAYER
  5
90
330
2
100
AcDbSymbolTableRecord
100
AcDbLayerTableRecord
  2
87
 70
     0
 62
    87
  6
CONTINUOUS
  0
LAYER
  5
91
330
2
100
AcDbSymbolTableRecord
100
AcDbLayerTableRecord
  2
88
 70
     0
 62
    88
  6
CONTINUOUS
  0
LAYER
  5
92
330
2
100
AcDbSymbolTableRecord
100
AcDbLayerTableRecord
  2
89
 70
     0
 62
    89
  6
CONTINUOUS
  0
LAYER
  5
93
330
2
100
AcDbSymbolTableRecord
100
AcDbLayerTableRecord
  2
90
 70
     0
 62
    90
  6
CONTINUOUS
  0
LAYER
  5
94
330
2
100
AcDbSymbolTableRecord
100
AcDbLayerTableRecord
  2
91
 70
     0
 62
    91
  6
CONTINUOUS
  0
LAYER
  5
95
330
2
100
AcDbSymbolTableRecord
100
AcDbLayerTableRecord
  2
92
 70
     0
 62
    92
  6
CONTINUOUS
  0
LAYER
  5
96
330
2
100
AcDbSymbolTableRecord
100
AcDbLayerTableRecord
  2
93
 70
     0
 62
    93
  6
CONTINUOUS
  0
LAYER
  5
97
330
2
100
AcDbSymbolTableRecord
100
AcDbLayerTableRecord
  2
94
 70
     0
 62
    94
  6
CONTINUOUS
  0
LAYER
  5
98
330
2
100
AcDbSymbolTableRecord
100
AcDbLayerTableRecord
  2
95
 70
     0
 62
    95
  6
CONTINUOUS
  0
LAYER
  5
99
330
2
100
AcDbSymbolTableRecord
100
AcDbLayerTableRecord
  2
96
 70
     0
 62
    96
  6
CONTINUOUS
  0
LAYER
  5
9A
330
2
100
AcDbSymbolTableRecord
100
AcDbLayerTableRecord
  2
97
 70
     0
 62
    97
  6
CONTINUOUS
  0
LAYER
  5
9B
330
2
100
AcDbSymbolTableRecord
100
AcDbLayerTableRecord
  2
98
 70
     0
 62
    98
  6
CONTINUOUS
  0
LAYER
  5
9C
330
2
100
AcDbSymbolTableRecord
100
AcDbLayerTableRecord
  2
99
 70
     0
 62
    99
  6
CONTINUOUS
  0
LAYER
  5
9D
330
2
100
AcDbSymbolTableRecord
100
AcDbLayerTableRecord
  2
100
 70
     0
 62
   100
  6
CONTINUOUS
  0
LAYER
  5
9E
330
2
100
AcDbSymbolTableRecord
100
AcDbLayerTableRecord
  2
101
 70
     0
 62
   101
  6
CONTINUOUS
  0
LAYER
  5
9F
330
2
100
AcDbSymbolTableRecord
100
AcDbLayerTableRecord
  2
102
 70
     0
 62
   102
  6
CONTINUOUS
  0
LAYER
  5
A0
330
2
100
AcDbSymbolTableRecord
100
AcDbLayerTableRecord
  2
103
 70
     0
 62
   103
  6
CONTINUOUS
  0
LAYER
  5
A1
330
2
100
AcDbSymbolTableRecord
100
AcDbLayerTableRecord
  2
104
 70
     0
 62
   104
  6
CONTINUOUS
  0
LAYER
  5
A2
330
2
100
AcDbSymbolTableRecord
100
AcDbLayerTableRecord
  2
105
 70
     0
 62
   105
  6
CONTINUOUS
  0
LAYER
  5
A3
330
2
100
AcDbSymbolTableRecord
100
AcDbLayerTableRecord
  2
106
 70
     0
 62
   106
  6
CONTINUOUS
  0
LAYER
  5
A4
330
2
100
AcDbSymbolTableRecord
100
AcDbLayerTableRecord
  2
107
 70
     0
 62
   107
  6
CONTINUOUS
  0
LAYER
  5
A5
330
2
100
AcDbSymbolTableRecord
100
AcDbLayerTableRecord
  2
108
 70
     0
 62
   108
  6
CONTINUOUS
  0
LAYER
  5
A6
330
2
100
AcDbSymbolTableRecord
100
AcDbLayerTableRecord
  2
109
 70
     0
 62
   109
  6
CONTINUOUS
  0
LAYER
  5
A7
330
2
100
AcDbSymbolTableRecord
100
AcDbLayerTableRecord
  2
110
 70
     0
 62
   110
  6
CONTINUOUS
  0
LAYER
  5
A8
330
2
100
AcDbSymbolTableRecord
100
AcDbLayerTableRecord
  2
111
 70
     0
 62
   111
  6
CONTINUOUS
  0
LAYER
  5
A9
330
2
100
AcDbSymbolTableRecord
100
AcDbLayerTableRecord
  2
112
 70
     0
 62
   112
  6
CONTINUOUS
  0
LAYER
  5
AA
330
2
100
AcDbSymbolTableRecord
100
AcDbLayerTableRecord
  2
113
 70
     0
 62
   113
  6
CONTINUOUS
  0
LAYER
  5
AB
330
2
100
AcDbSymbolTableRecord
100
AcDbLayerTableRecord
  2
114
 70
     0
 62
   114
  6
CONTINUOUS
  0
LAYER
  5
AC
330
2
100
AcDbSymbolTableRecord
100
AcDbLayerTableRecord
  2
115
 70
     0
 62
   115
  6
CONTINUOUS
  0
LAYER
  5
AD
330
2
100
AcDbSymbolTableRecord
100
AcDbLayerTableRecord
  2
116
 70
     0
 62
   116
  6
CONTINUOUS
  0
LAYER
  5
AE
330
2
100
AcDbSymbolTableRecord
100
AcDbLayerTableRecord
  2
117
 70
     0
 62
   117
  6
CONTINUOUS
  0
LAYER
  5
AF
330
2
100
AcDbSymbolTableRecord
100
AcDbLayerTableRecord
  2
118
 70
     0
 62
   118
  6
CONTINUOUS
  0
LAYER
  5
B0
330
2
100
AcDbSymbolTableRecord
100
AcDbLayerTableRecord
  2
119
 70
     0
 62
   119
  6
CONTINUOUS
  0
LAYER
  5
B1
330
2
100
AcDbSymbolTableRecord
100
AcDbLayerTableRecord
  2
120
 70
     0
 62
   120
  6
CONTINUOUS
  0
LAYER
  5
B2
330
2
100
AcDbSymbolTableRecord
100
AcDbLayerTableRecord
  2
121
 70
     0
 62
   121
  6
CONTINUOUS
  0
LAYER
  5
B3
330
2
100
AcDbSymbolTableRecord
100
AcDbLayerTableRecord
  2
122
 70
     0
 62
   122
  6
CONTINUOUS
  0
LAYER
  5
B4
330
2
100
AcDbSymbolTableRecord
100
AcDbLayerTableRecord
  2
123
 70
     0
 62
   123
  6
CONTINUOUS
  0
LAYER
  5
B5
330
2
100
AcDbSymbolTableRecord
100
AcDbLayerTableRecord
  2
124
 70
     0
 62
   124
  6
CONTINUOUS
  0
LAYER
  5
B6
330
2
100
AcDbSymbolTableRecord
100
AcDbLayerTableRecord
  2
125
 70
     0
 62
   125
  6
CONTINUOUS
  0
LAYER
  5
B7
330
2
100
AcDbSymbolTableRecord
100
AcDbLayerTableRecord
  2
126
 70
     0
 62
   126
  6
CONTINUOUS
  0
LAYER
  5
B8
330
2
100
AcDbSymbolTableRecord
100
AcDbLayerTableRecord
  2
127
 70
     0
 62
   127
  6
CONTINUOUS
  0
LAYER
  5
B9
330
2
100
AcDbSymbolTableRecord
100
AcDbLayerTableRecord
  2
128
 70
     0
 62
   128
  6
CONTINUOUS
  0
LAYER
  5
BA
330
2
100
AcDbSymbolTableRecord
100
AcDbLayerTableRecord
  2
129
 70
     0
 62
   129
  6
CONTINUOUS
  0
LAYER
  5
BB
330
2
100
AcDbSymbolTableRecord
100
AcDbLayerTableRecord
  2
130
 70
     0
 62
   130
  6
CONTINUOUS
  0
LAYER
  5
BC
330
2
100
AcDbSymbolTableRecord
100
AcDbLayerTableRecord
  2
131
 70
     0
 62
   131
  6
CONTINUOUS
  0
LAYER
  5
BD
330
2
100
AcDbSymbolTableRecord
100
AcDbLayerTableRecord
  2
132
 70
     0
 62
   132
  6
CONTINUOUS
  0
LAYER
  5
BE
330
2
100
AcDbSymbolTableRecord
100
AcDbLayerTableRecord
  2
133
 70
     0
 62
   133
  6
CONTINUOUS
  0
LAYER
  5
BF
330
2
100
AcDbSymbolTableRecord
100
AcDbLayerTableRecord
  2
134
 70
     0
 62
   134
  6
CONTINUOUS
  0
LAYER
  5
C0
330
2
100
AcDbSymbolTableRecord
100
AcDbLayerTableRecord
  2
135
 70
     0
 62
   135
  6
CONTINUOUS
  0
LAYER
  5
C1
330
2
100
AcDbSymbolTableRecord
100
AcDbLayerTableRecord
  2
136
 70
     0
 62
   136
  6
CONTINUOUS
  0
LAYER
  5
C2
330
2
100
AcDbSymbolTableRecord
100
AcDbLayerTableRecord
  2
137
 70
     0
 62
   137
  6
CONTINUOUS
  0
LAYER
  5
C3
330
2
100
AcDbSymbolTableRecord
100
AcDbLayerTableRecord
  2
138
 70
     0
 62
   138
  6
CONTINUOUS
  0
LAYER
  5
C4
330
2
100
AcDbSymbolTableRecord
100
AcDbLayerTableRecord
  2
139
 70
     0
 62
   139
  6
CONTINUOUS
  0
LAYER
  5
C5
330
2
100
AcDbSymbolTableRecord
100
AcDbLayerTableRecord
  2
140
 70
     0
 62
   140
  6
CONTINUOUS
  0
LAYER
  5
C6
330
2
100
AcDbSymbolTableRecord
100
AcDbLayerTableRecord
  2
141
 70
     0
 62
   141
  6
CONTINUOUS
  0
LAYER
  5
C7
330
2
100
AcDbSymbolTableRecord
100
AcDbLayerTableRecord
  2
142
 70
     0
 62
   142
  6
CONTINUOUS
  0
LAYER
  5
C8
330
2
100
AcDbSymbolTableRecord
100
AcDbLayerTableRecord
  2
143
 70
     0
 62
   143
  6
CONTINUOUS
  0
LAYER
  5
C9
330
2
100
AcDbSymbolTableRecord
100
AcDbLayerTableRecord
  2
144
 70
     0
 62
   144
  6
CONTINUOUS
  0
LAYER
  5
CA
330
2
100
AcDbSymbolTableRecord
100
AcDbLayerTableRecord
  2
145
 70
     0
 62
   145
  6
CONTINUOUS
  0
LAYER
  5
CB
330
2
100
AcDbSymbolTableRecord
100
AcDbLayerTableRecord
  2
146
 70
     0
 62
   146
  6
CONTINUOUS
  0
LAYER
  5
CC
330
2
100
AcDbSymbolTableRecord
100
AcDbLayerTableRecord
  2
147
 70
     0
 62
   147
  6
CONTINUOUS
  0
LAYER
  5
CD
330
2
100
AcDbSymbolTableRecord
100
AcDbLayerTableRecord
  2
148
 70
     0
 62
   148
  6
CONTINUOUS
  0
LAYER
  5
CE
330
2
100
AcDbSymbolTableRecord
100
AcDbLayerTableRecord
  2
149
 70
     0
 62
   149
  6
CONTINUOUS
  0
LAYER
  5
CF
330
2
100
AcDbSymbolTableRecord
100
AcDbLayerTableRecord
  2
150
 70
     0
 62
   150
  6
CONTINUOUS
  0
LAYER
  5
D0
330
2
100
AcDbSymbolTableRecord
100
AcDbLayerTableRecord
  2
151
 70
     0
 62
   151
  6
CONTINUOUS
  0
LAYER
  5
D1
330
2
100
AcDbSymbolTableRecord
100
AcDbLayerTableRecord
  2
152
 70
     0
 62
   152
  6
CONTINUOUS
  0
LAYER
  5
D2
330
2
100
AcDbSymbolTableRecord
100
AcDbLayerTableRecord
  2
153
 70
     0
 62
   153
  6
CONTINUOUS
  0
LAYER
  5
D3
330
2
100
AcDbSymbolTableRecord
100
AcDbLayerTableRecord
  2
154
 70
     0
 62
   154
  6
CONTINUOUS
  0
LAYER
  5
D4
330
2
100
AcDbSymbolTableRecord
100
AcDbLayerTableRecord
  2
155
 70
     0
 62
   155
  6
CONTINUOUS
  0
LAYER
  5
D5
330
2
100
AcDbSymbolTableRecord
100
AcDbLayerTableRecord
  2
156
 70
     0
 62
   156
  6
CONTINUOUS
  0
LAYER
  5
D6
330
2
100
AcDbSymbolTableRecord
100
AcDbLayerTableRecord
  2
157
 70
     0
 62
   157
  6
CONTINUOUS
  0
LAYER
  5
D7
330
2
100
AcDbSymbolTableRecord
100
AcDbLayerTableRecord
  2
158
 70
     0
 62
   158
  6
CONTINUOUS
  0
LAYER
  5
D8
330
2
100
AcDbSymbolTableRecord
100
AcDbLayerTableRecord
  2
159
 70
     0
 62
   159
  6
CONTINUOUS
  0
LAYER
  5
D9
330
2
100
AcDbSymbolTableRecord
100
AcDbLayerTableRecord
  2
160
 70
     0
 62
   160
  6
CONTINUOUS
  0
LAYER
  5
DA
330
2
100
AcDbSymbolTableRecord
100
AcDbLayerTableRecord
  2
161
 70
     0
 62
   161
  6
CONTINUOUS
  0
LAYER
  5
DB
330
2
100
AcDbSymbolTableRecord
100
AcDbLayerTableRecord
  2
162
 70
     0
 62
   162
  6
CONTINUOUS
  0
LAYER
  5
DC
330
2
100
AcDbSymbolTableRecord
100
AcDbLayerTableRecord
  2
163
 70
     0
 62
   163
  6
CONTINUOUS
  0
LAYER
  5
DD
330
2
100
AcDbSymbolTableRecord
100
AcDbLayerTableRecord
  2
164
 70
     0
 62
   164
  6
CONTINUOUS
  0
LAYER
  5
DE
330
2
100
AcDbSymbolTableRecord
100
AcDbLayerTableRecord
  2
165
 70
     0
 62
   165
  6
CONTINUOUS
  0
LAYER
  5
DF
330
2
100
AcDbSymbolTableRecord
100
AcDbLayerTableRecord
  2
166
 70
     0
 62
   166
  6
CONTINUOUS
  0
LAYER
  5
E0
330
2
100
AcDbSymbolTableRecord
100
AcDbLayerTableRecord
  2
167
 70
     0
 62
   167
  6
CONTINUOUS
  0
LAYER
  5
E1
330
2
100
AcDbSymbolTableRecord
100
AcDbLayerTableRecord
  2
168
 70
     0
 62
   168
  6
CONTINUOUS
  0
LAYER
  5
E2
330
2
100
AcDbSymbolTableRecord
100
AcDbLayerTableRecord
  2
169
 70
     0
 62
   169
  6
CONTINUOUS
  0
LAYER
  5
E3
330
2
100
AcDbSymbolTableRecord
100
AcDbLayerTableRecord
  2
170
 70
     0
 62
   170
  6
CONTINUOUS
  0
LAYER
  5
E4
330
2
100
AcDbSymbolTableRecord
100
AcDbLayerTableRecord
  2
171
 70
     0
 62
   171
  6
CONTINUOUS
  0
LAYER
  5
E5
330
2
100
AcDbSymbolTableRecord
100
AcDbLayerTableRecord
  2
172
 70
     0
 62
   172
  6
CONTINUOUS
  0
LAYER
  5
E6
330
2
100
AcDbSymbolTableRecord
100
AcDbLayerTableRecord
  2
173
 70
     0
 62
   173
  6
CONTINUOUS
  0
LAYER
  5
E7
330
2
100
AcDbSymbolTableRecord
100
AcDbLayerTableRecord
  2
174
 70
     0
 62
   174
  6
CONTINUOUS
  0
LAYER
  5
E8
330
2
100
AcDbSymbolTableRecord
100
AcDbLayerTableRecord
  2
175
 70
     0
 62
   175
  6
CONTINUOUS
  0
LAYER
  5
E9
330
2
100
AcDbSymbolTableRecord
100
AcDbLayerTableRecord
  2
176
 70
     0
 62
   176
  6
CONTINUOUS
  0
LAYER
  5
EA
330
2
100
AcDbSymbolTableRecord
100
AcDbLayerTableRecord
  2
177
 70
     0
 62
   177
  6
CONTINUOUS
  0
LAYER
  5
EB
330
2
100
AcDbSymbolTableRecord
100
AcDbLayerTableRecord
  2
178
 70
     0
 62
   178
  6
CONTINUOUS
  0
LAYER
  5
EC
330
2
100
AcDbSymbolTableRecord
100
AcDbLayerTableRecord
  2
179
 70
     0
 62
   179
  6
CONTINUOUS
  0
LAYER
  5
ED
330
2
100
AcDbSymbolTableRecord
100
AcDbLayerTableRecord
  2
180
 70
     0
 62
   180
  6
CONTINUOUS
  0
LAYER
  5
EE
330
2
100
AcDbSymbolTableRecord
100
AcDbLayerTableRecord
  2
181
 70
     0
 62
   181
  6
CONTINUOUS
  0
LAYER
  5
EF
330
2
100
AcDbSymbolTableRecord
100
AcDbLayerTableRecord
  2
182
 70
     0
 62
   182
  6
CONTINUOUS
  0
LAYER
  5
F0
330
2
100
AcDbSymbolTableRecord
100
AcDbLayerTableRecord
  2
183
 70
     0
 62
   183
  6
CONTINUOUS
  0
LAYER
  5
F1
330
2
100
AcDbSymbolTableRecord
100
AcDbLayerTableRecord
  2
184
 70
     0
 62
   184
  6
CONTINUOUS
  0
LAYER
  5
F2
330
2
100
AcDbSymbolTableRecord
100
AcDbLayerTableRecord
  2
185
 70
     0
 62
   185
  6
CONTINUOUS
  0
LAYER
  5
F3
330
2
100
AcDbSymbolTableRecord
100
AcDbLayerTableRecord
  2
186
 70
     0
 62
   186
  6
CONTINUOUS
  0
LAYER
  5
F4
330
2
100
AcDbSymbolTableRecord
100
AcDbLayerTableRecord
  2
187
 70
     0
 62
   187
  6
CONTINUOUS
  0
LAYER
  5
F5
330
2
100
AcDbSymbolTableRecord
100
AcDbLayerTableRecord
  2
188
 70
     0
 62
   188
  6
CONTINUOUS
  0
LAYER
  5
F6
330
2
100
AcDbSymbolTableRecord
100
AcDbLayerTableRecord
  2
189
 70
     0
 62
   189
  6
CONTINUOUS
  0
LAYER
  5
F7
330
2
100
AcDbSymbolTableRecord
100
AcDbLayerTableRecord
  2
190
 70
     0
 62
   190
  6
CONTINUOUS
  0
LAYER
  5
F8
330
2
100
AcDbSymbolTableRecord
100
AcDbLayerTableRecord
  2
191
 70
     0
 62
   191
  6
CONTINUOUS
  0
LAYER
  5
F9
330
2
100
AcDbSymbolTableRecord
100
AcDbLayerTableRecord
  2
192
 70
     0
 62
   192
  6
CONTINUOUS
  0
LAYER
  5
FA
330
2
100
AcDbSymbolTableRecord
100
AcDbLayerTableRecord
  2
193
 70
     0
 62
   193
  6
CONTINUOUS
  0
LAYER
  5
FB
330
2
100
AcDbSymbolTableRecord
100
AcDbLayerTableRecord
  2
194
 70
     0
 62
   194
  6
CONTINUOUS
  0
LAYER
  5
FC
330
2
100
AcDbSymbolTableRecord
100
AcDbLayerTableRecord
  2
195
 70
     0
 62
   195
  6
CONTINUOUS
  0
LAYER
  5
FD
330
2
100
AcDbSymbolTableRecord
100
AcDbLayerTableRecord
  2
196
 70
     0
 62
   196
  6
CONTINUOUS
  0
LAYER
  5
FE
330
2
100
AcDbSymbolTableRecord
100
AcDbLayerTableRecord
  2
197
 70
     0
 62
   197
  6
CONTINUOUS
  0
LAYER
  5
FF
330
2
100
AcDbSymbolTableRecord
100
AcDbLayerTableRecord
  2
198
 70
     0
 62
   198
  6
CONTINUOUS
  0
LAYER
  5
100
330
2
100
AcDbSymbolTableRecord
100
AcDbLayerTableRecord
  2
199
 70
     0
 62
   199
  6
CONTINUOUS
  0
LAYER
  5
101
330
2
100
AcDbSymbolTableRecord
100
AcDbLayerTableRecord
  2
200
 70
     0
 62
   200
  6
CONTINUOUS
  0
LAYER
  5
102
330
2
100
AcDbSymbolTableRecord
100
AcDbLayerTableRecord
  2
201
 70
     0
 62
   201
  6
CONTINUOUS
  0
LAYER
  5
103
330
2
100
AcDbSymbolTableRecord
100
AcDbLayerTableRecord
  2
202
 70
     0
 62
   202
  6
CONTINUOUS
  0
LAYER
  5
104
330
2
100
AcDbSymbolTableRecord
100
AcDbLayerTableRecord
  2
203
 70
     0
 62
   203
  6
CONTINUOUS
  0
LAYER
  5
105
330
2
100
AcDbSymbolTableRecord
100
AcDbLayerTableRecord
  2
204
 70
     0
 62
   204
  6
CONTINUOUS
  0
LAYER
  5
106
330
2
100
AcDbSymbolTableRecord
100
AcDbLayerTableRecord
  2
205
 70
     0
 62
   205
  6
CONTINUOUS
  0
LAYER
  5
107
330
2
100
AcDbSymbolTableRecord
100
AcDbLayerTableRecord
  2
206
 70
     0
 62
   206
  6
CONTINUOUS
  0
LAYER
  5
108
330
2
100
AcDbSymbolTableRecord
100
AcDbLayerTableRecord
  2
207
 70
     0
 62
   207
  6
CONTINUOUS
  0
LAYER
  5
109
330
2
100
AcDbSymbolTableRecord
100
AcDbLayerTableRecord
  2
208
 70
     0
 62
   208
  6
CONTINUOUS
  0
LAYER
  5
10A
330
2
100
AcDbSymbolTableRecord
100
AcDbLayerTableRecord
  2
209
 70
     0
 62
   209
  6
CONTINUOUS
  0
LAYER
  5
10B
330
2
100
AcDbSymbolTableRecord
100
AcDbLayerTableRecord
  2
210
 70
     0
 62
   210
  6
CONTINUOUS
  0
LAYER
  5
10C
330
2
100
AcDbSymbolTableRecord
100
AcDbLayerTableRecord
  2
211
 70
     0
 62
   211
  6
CONTINUOUS
  0
LAYER
  5
10D
330
2
100
AcDbSymbolTableRecord
100
AcDbLayerTableRecord
  2
212
 70
     0
 62
   212
  6
CONTINUOUS
  0
LAYER
  5
10E
330
2
100
AcDbSymbolTableRecord
100
AcDbLayerTableRecord
  2
213
 70
     0
 62
   213
  6
CONTINUOUS
  0
LAYER
  5
10F
330
2
100
AcDbSymbolTableRecord
100
AcDbLayerTableRecord
  2
214
 70
     0
 62
   214
  6
CONTINUOUS
  0
LAYER
  5
110
330
2
100
AcDbSymbolTableRecord
100
AcDbLayerTableRecord
  2
215
 70
     0
 62
   215
  6
CONTINUOUS
  0
LAYER
  5
111
330
2
100
AcDbSymbolTableRecord
100
AcDbLayerTableRecord
  2
216
 70
     0
 62
   216
  6
CONTINUOUS
  0
LAYER
  5
112
330
2
100
AcDbSymbolTableRecord
100
AcDbLayerTableRecord
  2
217
 70
     0
 62
   217
  6
CONTINUOUS
  0
LAYER
  5
113
330
2
100
AcDbSymbolTableRecord
100
AcDbLayerTableRecord
  2
218
 70
     0
 62
   218
  6
CONTINUOUS
  0
LAYER
  5
114
330
2
100
AcDbSymbolTableRecord
100
AcDbLayerTableRecord
  2
219
 70
     0
 62
   219
  6
CONTINUOUS
  0
LAYER
  5
115
330
2
100
AcDbSymbolTableRecord
100
AcDbLayerTableRecord
  2
220
 70
     0
 62
   220
  6
CONTINUOUS
  0
LAYER
  5
116
330
2
100
AcDbSymbolTableRecord
100
AcDbLayerTableRecord
  2
221
 70
     0
 62
   221
  6
CONTINUOUS
  0
LAYER
  5
117
330
2
100
AcDbSymbolTableRecord
100
AcDbLayerTableRecord
  2
222
 70
     0
 62
   222
  6
CONTINUOUS
  0
LAYER
  5
118
330
2
100
AcDbSymbolTableRecord
100
AcDbLayerTableRecord
  2
223
 70
     0
 62
   223
  6
CONTINUOUS
  0
LAYER
  5
119
330
2
100
AcDbSymbolTableRecord
100
AcDbLayerTableRecord
  2
224
 70
     0
 62
   224
  6
CONTINUOUS
  0
LAYER
  5
11A
330
2
100
AcDbSymbolTableRecord
100
AcDbLayerTableRecord
  2
225
 70
     0
 62
   225
  6
CONTINUOUS
  0
LAYER
  5
11B
330
2
100
AcDbSymbolTableRecord
100
AcDbLayerTableRecord
  2
226
 70
     0
 62
   226
  6
CONTINUOUS
  0
LAYER
  5
11C
330
2
100
AcDbSymbolTableRecord
100
AcDbLayerTableRecord
  2
227
 70
     0
 62
   227
  6
CONTINUOUS
  0
LAYER
  5
11D
330
2
100
AcDbSymbolTableRecord
100
AcDbLayerTableRecord
  2
228
 70
     0
 62
   228
  6
CONTINUOUS
  0
LAYER
  5
11E
330
2
100
AcDbSymbolTableRecord
100
AcDbLayerTableRecord
  2
229
 70
     0
 62
   229
  6
CONTINUOUS
  0
LAYER
  5
11F
330
2
100
AcDbSymbolTableRecord
100
AcDbLayerTableRecord
  2
230
 70
     0
 62
   230
  6
CONTINUOUS
  0
LAYER
  5
120
330
2
100
AcDbSymbolTableRecord
100
AcDbLayerTableRecord
  2
231
 70
     0
 62
   231
  6
CONTINUOUS
  0
LAYER
  5
121
330
2
100
AcDbSymbolTableRecord
100
AcDbLayerTableRecord
  2
232
 70
     0
 62
   232
  6
CONTINUOUS
  0
LAYER
  5
122
330
2
100
AcDbSymbolTableRecord
100
AcDbLayerTableRecord
  2
233
 70
     0
 62
   233
  6
CONTINUOUS
  0
LAYER
  5
123
330
2
100
AcDbSymbolTableRecord
100
AcDbLayerTableRecord
  2
234
 70
     0
 62
   234
  6
CONTINUOUS
  0
LAYER
  5
124
330
2
100
AcDbSymbolTableRecord
100
AcDbLayerTableRecord
  2
235
 70
     0
 62
   235
  6
CONTINUOUS
  0
LAYER
  5
125
330
2
100
AcDbSymbolTableRecord
100
AcDbLayerTableRecord
  2
236
 70
     0
 62
   236
  6
CONTINUOUS
  0
LAYER
  5
126
330
2
100
AcDbSymbolTableRecord
100
AcDbLayerTableRecord
  2
237
 70
     0
 62
   237
  6
CONTINUOUS
  0
LAYER
  5
127
330
2
100
AcDbSymbolTableRecord
100
AcDbLayerTableRecord
  2
238
 70
     0
 62
   238
  6
CONTINUOUS
  0
LAYER
  5
128
330
2
100
AcDbSymbolTableRecord
100
AcDbLayerTableRecord
  2
239
 70
     0
 62
   239
  6
CONTINUOUS
  0
LAYER
  5
129
330
2
100
AcDbSymbolTableRecord
100
AcDbLayerTableRecord
  2
240
 70
     0
 62
   240
  6
CONTINUOUS
  0
LAYER
  5
12A
330
2
100
AcDbSymbolTableRecord
100
AcDbLayerTableRecord
  2
241
 70
     0
 62
   241
  6
CONTINUOUS
  0
LAYER
  5
12B
330
2
100
AcDbSymbolTableRecord
100
AcDbLayerTableRecord
  2
242
 70
     0
 62
   242
  6
CONTINUOUS
  0
LAYER
  5
12C
330
2
100
AcDbSymbolTableRecord
100
AcDbLayerTableRecord
  2
243
 70
     0
 62
   243
  6
CONTINUOUS
  0
LAYER
  5
12D
330
2
100
AcDbSymbolTableRecord
100
AcDbLayerTableRecord
  2
244
 70
     0
 62
   244
  6
CONTINUOUS
  0
LAYER
  5
12E
330
2
100
AcDbSymbolTableRecord
100
AcDbLayerTableRecord
  2
245
 70
     0
 62
   245
  6
CONTINUOUS
  0
LAYER
  5
12F
330
2
100
AcDbSymbolTableRecord
100
AcDbLayerTableRecord
  2
246
 70
     0
 62
   246
  6
CONTINUOUS
  0
LAYER
  5
130
330
2
100
AcDbSymbolTableRecord
100
AcDbLayerTableRecord
  2
247
 70
     0
 62
   247
  6
CONTINUOUS
  0
LAYER
  5
131
330
2
100
AcDbSymbolTableRecord
100
AcDbLayerTableRecord
  2
248
 70
     0
 62
   248
  6
CONTINUOUS
  0
LAYER
  5
132
330
2
100
AcDbSymbolTableRecord
100
AcDbLayerTableRecord
  2
249
 70
     0
 62
   249
  6
CONTINUOUS
  0
LAYER
  5
133
330
2
100
AcDbSymbolTableRecord
100
AcDbLayerTableRecord
  2
250
 70
     0
 62
   250
  6
CONTINUOUS
  0
LAYER
  5
134
330
2
100
AcDbSymbolTableRecord
100
AcDbLayerTableRecord
  2
251
 70
     0
 62
   251
  6
CONTINUOUS
  0
LAYER
  5
135
330
2
100
AcDbSymbolTableRecord
100
AcDbLayerTableRecord
  2
252
 70
     0
 62
   252
  6
CONTINUOUS
  0
LAYER
  5
136
330
2
100
AcDbSymbolTableRecord
100
AcDbLayerTableRecord
  2
253
 70
     0
 62
   253
  6
CONTINUOUS
  0
LAYER
  5
137
330
2
100
AcDbSymbolTableRecord
100
AcDbLayerTableRecord
  2
254
 70
     0
 62
   254
  6
CONTINUOUS
  0
LAYER
  5
138
330
2
100
AcDbSymbolTableRecord
100
AcDbLayerTableRecord
  2
255
 70
     0
 62
   255
  6
CONTINUOUS
  0
ENDTAB
  0
TABLE
  2
STYLE
  5
3
330
0
100
AcDbSymbolTable
 70
     1
  0
STYLE
  5
11
330
3
100
AcDbSymbolTableRecord
100
AcDbTextStyleTableRecord
  2
STANDARD
 70
     0
 40
0.0
 41
1.0
 50
0.0
 71
     0
 42
0.2
  3
monotxt
  4

  0
ENDTAB
  0
TABLE
  2
VIEW
  5
6
330
0
100
AcDbSymbolTable
 70
     0
  0
ENDTAB
  0
TABLE
  2
UCS
  5
7
330
0
100
AcDbSymbolTable
 70
     0
  0
ENDTAB
  0
TABLE
  2
APPID
  5
9
330
0
100
AcDbSymbolTable
 70
     1
  0
APPID
  5
12
330
9
100
AcDbSymbolTableRecord
100
AcDbRegAppTableRecord
  2
ACAD
 70
     0
  0
ENDTAB
  0
TABLE
  2
DIMSTYLE
  5
A
330
0
100
AcDbSymbolTable
 70
     1
  0
DIMSTYLE
105
3393
330
A
100
AcDbSymbolTableRecord
100
AcDbDimStyleTableRecord
  2
STANDARD
 70
     0
  3

  4

  5

  6

  7

 40
1.0
 41
0.18
 42
0.0625
 43
0.38
 44
0.18
 45
0.0
 46
0.0
 47
0.0
 48
0.0
140
0.18
141
0.09
142
0.0
143
25.4
144
1.0
145
0.0
146
1.0
147
0.09
 71
     0
 72
     0
 73
     1
 74
     1
 75
     0
 76
     0
 77
     0
 78
     0
170
     0
171
     2
172
     0
173
     0
174
     0
175
     0
176
     0
177
     0
178
     0
270
     2
271
     4
272
     4
273
     2
274
     2
340
11
275
     0
280
     0
281
     0
282
     0
283
     1
284
     0
285
     0
286
     0
287
     3
288
     0
  0
ENDTAB
  0
TABLE
  2
BLOCK_RECORD
  5
1
330
0
100
AcDbSymbolTable
 70
     0
  0
BLOCK_RECORD
  5
1E
102
{ACAD_XDICTIONARY
360
3C30
102
}
330
1
100
AcDbSymbolTableRecord
100
AcDbBlockTableRecord
  2
*MODEL_SPACE
  0
BLOCK_RECORD
  5
1A
102
{ACAD_XDICTIONARY
360
3C32
102
}
330
1
100
AcDbSymbolTableRecord
100
AcDbBlockTableRecord
  2
*PAPER_SPACE
  0
ENDTAB
  0
ENDSEC
  0
SECTION
  2
BLOCKS
  0
BLOCK
  5
13B
330
1E
100
AcDbEntity
  8
0
100
AcDbBlockBegin
  2
*MODEL_SPACE
 70
     0
 10
0.0
 20
0.0
 30
0.0
  3
*MODEL_SPACE
  1

  0
ENDBLK
  5
13C
330
1E
100
AcDbEntity
  8
0
100
AcDbBlockEnd
  0
BLOCK
  5
139
330
1A
100
AcDbEntity
 67
     1
  8
0
100
AcDbBlockBegin
  2
*PAPER_SPACE
 70
     0
 10
0.0
 20
0.0
 30
0.0
  3
*PAPER_SPACE
  1

  0
ENDBLK
  5
13A
330
1A
100
AcDbEntity
 67
     1
  8
0
100
AcDbBlockEnd
  0
ENDSEC
  0
SECTION
  2
ENTITIES
  0
LINE
  5
25FA
330
1E
100
AcDbEntity
  8
7
100
AcDbLine
 10
6.933070866141731
 20
8.596456692913385
 30
0.0
 11
7.051181102362204
 21
8.607283464566929
 31
0.0
  0
LINE
  5
2600
330
1E
100
AcDbEntity
  8
7
100
AcDbLine
 10
7.089566929133858
 20
8.0501968503937
 30
0.0
 11
7.169291338582676
 21
8.049212598425196
 31
0.0
  0
LINE
  5
2601
330
1E
100
AcDbEntity
  8
7
100
AcDbLine
 10
7.089566929133858
 20
7.570866141732283
 30
0.0
 11
7.089566929133858
 21
8.0501968503937
 31
0.0
  0
LINE
  5
2602
330
1E
100
AcDbEntity
  8
7
100
AcDbLine
 10
7.089566929133858
 20
7.570866141732283
 30
0.0
 11
7.169291338582676
 21
7.57283464566929
 31
0.0
  0
LINE
  5
2603
330
1E
100
AcDbEntity
  8
7
100
AcDbLine
 10
7.169291338582676
 20
8.049212598425196
 30
0.0
 11
7.169291338582676
 21
7.57283464566929
 31
0.0
  0
LINE
  5
2604
330
1E
100
AcDbEntity
  8
7
100
AcDbLine
 10
7.089566929133858
 20
8.0501968503937
 30
0.0
 11
6.924212598425196
 21
8.053149606299212
 31
0.0
  0
LINE
  5
2605
330
1E
100
AcDbEntity
  8
7
100
AcDbLine
 10
7.089566929133858
 20
7.570866141732283
 30
0.0
 11
6.924212598425196
 21
7.567913385826772
 31
0.0
  0
LINE
  5
2606
330
1E
100
AcDbEntity
  8
7
100
AcDbLine
 10
7.07775590551181
 20
8.0501968503937
 30
0.0
 11
7.07775590551181
 21
8.525590551181101
 31
0.0
  0
LINE
  5
2607
330
1E
100
AcDbEntity
  8
7
100
AcDbLine
 10
7.07775590551181
 20
7.570866141732283
 30
0.0
 11
7.07775590551181
 21
7.242125984251968
 31
0.0
  0
LINE
  5
260F
330
1E
100
AcDbEntity
  8
7
100
AcDbLine
 10
6.924212598425196
 20
8.527559055118109
 30
0.0
 11
6.924212598425196
 21
8.880905511811024
 31
0.0
  0
LINE
  5
2610
330
1E
100
AcDbEntity
  8
7
100
AcDbLine
 10
6.924212598425196
 20
8.527559055118109
 30
0.0
 11
6.898622047244094
 21
8.526574803149605
 31
0.0
  0
LINE
  5
2611
330
1E
100
AcDbEntity
  8
7
100
AcDbLine
 10
6.898622047244094
 20
8.882874015748031
 30
0.0
 11
6.924212598425196
 21
8.880905511811024
 31
0.0
  0
LINE
  5
2612
330
1E
100
AcDbEntity
  8
7
100
AcDbLine
 10
6.898622047244094
 20
8.882874015748031
 30
0.0
 11
6.898622047244094
 21
8.526574803149605
 31
0.0
  0
LINE
  5
2628
330
1E
100
AcDbEntity
  8
7
100
AcDbLine
 10
6.834645669291337
 20
7.116141732283463
 30
0.0
 11
6.834645669291337
 21
8.880905511811024
 31
0.0
  0
LINE
  5
262F
330
1E
100
AcDbEntity
  8
7
100
AcDbLine
 10
6.924212598425196
 20
8.970472440944881
 30
0.0
 11
6.924212598425196
 21
8.880905511811024
 31
0.0
  0
LINE
  5
2630
330
1E
100
AcDbEntity
  8
7
100
AcDbLine
 10
6.924212598425196
 20
8.970472440944881
 30
0.0
 11
6.898622047244094
 21
8.971456692913385
 31
0.0
  0
LINE
  5
2631
330
1E
100
AcDbEntity
  8
7
100
AcDbLine
 10
7.047244094488188
 20
8.741141732283464
 30
0.0
 11
6.924212598425196
 21
8.739173228346455
 31
0.0
  0
LINE
  5
2637
330
1E
100
AcDbEntity
  8
7
100
AcDbLine
 10
6.898622047244094
 20
8.526574803149605
 30
0.0
 11
6.898622047244094
 21
8.286417322834644
 31
0.0
  0
LINE
  5
2638
330
1E
100
AcDbEntity
  8
7
100
AcDbLine
 10
6.834645669291337
 20
8.880905511811024
 30
0.0
 11
6.898622047244094
 21
8.882874015748031
 31
0.0
  0
LINE
  5
2639
330
1E
100
AcDbEntity
  8
7
100
AcDbLine
 10
6.898622047244094
 20
7.114173228346456
 30
0.0
 11
6.834645669291337
 21
7.116141732283463
 31
0.0
  0
LINE
  5
263A
330
1E
100
AcDbEntity
  8
7
100
AcDbLine
 10
6.898622047244094
 20
7.116141732283463
 30
0.0
 11
6.898622047244094
 21
7.114173228346456
 31
0.0
  0
LINE
  5
265B
330
1E
100
AcDbEntity
  8
7
100
AcDbLine
 10
7.07775590551181
 20
8.525590551181101
 30
0.0
 11
6.924212598425196
 21
8.528543307086613
 31
0.0
  0
LINE
  5
265C
330
1E
100
AcDbEntity
  8
7
100
AcDbLine
 10
7.07775590551181
 20
7.242125984251968
 30
0.0
 11
6.924212598425196
 21
7.242125984251968
 31
0.0
  0
LINE
  5
2689
330
1E
100
AcDbEntity
  8
7
100
AcDbLine
 10
6.933070866141731
 20
8.91043307086614
 30
0.0
 11
7.051181102362204
 21
8.908464566929133
 31
0.0
  0
LINE
  5
2692
330
1E
100
AcDbEntity
  8
7
100
AcDbLine
 10
7.36515748031496
 20
7.568897637795275
 30
0.0
 11
7.25
 21
7.570866141732283
 31
0.0
  0
LINE
  5
269B
330
1E
100
AcDbEntity
  8
7
100
AcDbLine
 10
7.25
 20
7.291338582677164
 30
0.0
 11
7.224409448818897
 21
7.329724409448818
 31
0.0
  0
LINE
  5
269C
330
1E
100
AcDbEntity
  8
7
100
AcDbLine
 10
7.25
 20
7.291338582677164
 30
0.0
 11
7.257874015748031
 21
7.286417322834644
 31
0.0
  0
LINE
  5
269D
330
1E
100
AcDbEntity
  8
7
100
AcDbLine
 10
7.36515748031496
 20
7.286417322834644
 30
0.0
 11
7.257874015748031
 21
7.286417322834644
 31
0.0
  0
LINE
  5
269E
330
1E
100
AcDbEntity
  8
7
100
AcDbLine
 10
7.36515748031496
 20
7.286417322834644
 30
0.0
 11
7.36515748031496
 21
7.568897637795275
 31
0.0
  0
LINE
  5
269F
330
1E
100
AcDbEntity
  8
7
100
AcDbLine
 10
7.25
 20
7.570866141732283
 30
0.0
 11
7.169291338582676
 21
7.57283464566929
 31
0.0
  0
LINE
  5
26A0
330
1E
100
AcDbEntity
  8
7
100
AcDbLine
 10
7.07775590551181
 20
7.242125984251968
 30
0.0
 11
7.106299212598425
 21
7.242125984251968
 31
0.0
  0
LINE
  5
26A1
330
1E
100
AcDbEntity
  8
7
100
AcDbLine
 10
7.109251968503937
 20
7.333661417322835
 30
0.0
 11
7.106299212598425
 21
7.242125984251968
 31
0.0
  0
LINE
  5
26A7
330
1E
100
AcDbEntity
  8
7
100
AcDbLine
 10
7.102362204724409
 20
7.140748031496062
 30
0.0
 11
7.101377952755905
 21
7.104330708661416
 31
0.0
  0
LINE
  5
26A8
330
1E
100
AcDbEntity
  8
7
100
AcDbLine
 10
6.898622047244094
 20
7.1003937007874
 30
0.0
 11
7.101377952755905
 21
7.104330708661416
 31
0.0
  0
LINE
  5
26A9
330
1E
100
AcDbEntity
  8
7
100
AcDbLine
 10
7.102362204724409
 20
7.140748031496062
 30
0.0
 11
6.924212598425196
 21
7.13779527559055
 31
0.0
  0
LINE
  5
26AA
330
1E
100
AcDbEntity
  8
7
100
AcDbLine
 10
7.101377952755905
 20
7.096456692913385
 30
0.0
 11
6.898622047244094
 21
7.092519685039369
 31
0.0
  0
LINE
  5
26B0
330
1E
100
AcDbEntity
  8
7
100
AcDbLine
 10
6.26279527559055
 20
7.783464566929133
 30
0.0
 11
6.310039370078739
 21
7.736220472440944
 31
0.0
  0
LINE
  5
26B8
330
1E
100
AcDbEntity
  8
7
100
AcDbLine
 10
6.349409448818897
 20
7.774606299212598
 30
0.0
 11
6.301181102362204
 21
7.82283464566929
 31
0.0
  0
LINE
  5
26D1
330
1E
100
AcDbEntity
  8
7
100
AcDbLine
 10
6.327755905511811
 20
7.849409448818898
 30
0.0
 11
6.806102362204724
 21
8.344488188976377
 31
0.0
  0
LINE
  5
26D2
330
1E
100
AcDbEntity
  8
7
100
AcDbLine
 10
6.806102362204724
 20
8.478346456692912
 30
0.0
 11
6.260826771653542
 21
7.914370078740157
 31
0.0
  0
LINE
  5
26D3
330
1E
100
AcDbEntity
  8
7
100
AcDbLine
 10
7.1751968503937
 20
7.973425196850392
 30
0.0
 11
7.169291338582676
 21
7.973425196850392
 31
0.0
  0
LINE
  5
26D4
330
1E
100
AcDbEntity
  8
7
100
AcDbLine
 10
7.193897637795275
 20
7.973425196850392
 30
0.0
 11
7.1751968503937
 21
7.973425196850392
 31
0.0
  0
LINE
  5
26D5
330
1E
100
AcDbEntity
  8
7
100
AcDbLine
 10
7.193897637795275
 20
7.973425196850392
 30
0.0
 11
7.323818897637794
 21
7.973425196850392
 31
0.0
  0
LINE
  5
26DD
330
1E
100
AcDbEntity
  8
7
100
AcDbLine
 10
7.1751968503937
 20
7.648622047244094
 30
0.0
 11
7.1751968503937
 21
7.973425196850392
 31
0.0
  0
LINE
  5
26DE
330
1E
100
AcDbEntity
  8
7
100
AcDbLine
 10
7.193897637795275
 20
7.973425196850392
 30
0.0
 11
7.193897637795275
 21
7.648622047244094
 31
0.0
  0
LINE
  5
26DF
330
1E
100
AcDbEntity
  8
7
100
AcDbLine
 10
7.1751968503937
 20
7.648622047244094
 30
0.0
 11
7.193897637795275
 21
7.648622047244094
 31
0.0
  0
LINE
  5
26E0
330
1E
100
AcDbEntity
  8
7
100
AcDbLine
 10
7.323818897637794
 20
7.648622047244094
 30
0.0
 11
7.193897637795275
 21
7.648622047244094
 31
0.0
  0
LINE
  5
26E1
330
1E
100
AcDbEntity
  8
7
100
AcDbLine
 10
7.323818897637794
 20
7.648622047244094
 30
0.0
 11
7.323818897637794
 21
7.973425196850392
 31
0.0
  0
LINE
  5
26E2
330
1E
100
AcDbEntity
  8
7
100
AcDbLine
 10
7.1751968503937
 20
7.648622047244094
 30
0.0
 11
7.169291338582676
 21
7.648622047244094
 31
0.0
  0
LINE
  5
26E3
330
1E
100
AcDbEntity
  8
7
100
AcDbLine
 10
6.654527559055117
 20
7.52263779527559
 30
0.0
 11
6.327755905511811
 21
7.849409448818898
 31
0.0
  0
LINE
  5
26E4
330
1E
100
AcDbEntity
  8
7
100
AcDbLine
 10
6.654527559055117
 20
7.348425196850392
 30
0.0
 11
6.654527559055117
 21
7.52263779527559
 31
0.0
  0
LINE
  5
26EA
330
1E
100
AcDbEntity
  8
7
100
AcDbLine
 10
6.806102362204724
 20
7.163385826771652
 30
0.0
 11
6.679133858267715
 21
7.290354330708661
 31
0.0
  0
LINE
  5
26EB
330
1E
100
AcDbEntity
  8
7
100
AcDbLine
 10
6.993110236220472
 20
7.143700787401574
 30
0.0
 11
6.924212598425196
 21
7.143700787401574
 31
0.0
  0
LINE
  5
26EC
330
1E
100
AcDbEntity
  8
7
100
AcDbLine
 10
6.993110236220472
 20
7.242125984251968
 30
0.0
 11
6.993110236220472
 21
7.143700787401574
 31
0.0
  0
LINE
  5
26ED
330
1E
100
AcDbEntity
  8
7
100
AcDbLine
 10
6.487204724409448
 20
7.636811023622046
 30
0.0
 11
6.349409448818897
 21
7.774606299212598
 31
0.0
  0
LINE
  5
26F5
330
1E
100
AcDbEntity
  8
7
100
AcDbLine
 10
6.448818897637794
 20
7.597440944881888
 30
0.0
 11
6.638779527559054
 21
7.406496062992125
 31
0.0
  0
LINE
  5
2710
330
1E
100
AcDbEntity
  8
7
100
AcDbLine
 10
6.480314960629921
 20
7.643700787401574
 30
0.0
 11
6.467519685039369
 21
7.629921259842518
 31
0.0
  0
LINE
  5
271C
330
1E
100
AcDbEntity
  8
7
100
AcDbLine
 10
6.993110236220472
 20
7.193897637795275
 30
0.0
 11
7.042322834645668
 21
7.242125984251968
 31
0.0
  0
LINE
  5
277B
330
1E
100
AcDbEntity
  8
7
100
AcDbLine
 10
6.347440944881889
 20
7.744094488188975
 30
0.0
 11
6.340551181102362
 21
7.737204724409448
 31
0.0
  0
LINE
  5
277C
330
1E
100
AcDbEntity
  8
7
100
AcDbLine
 10
6.453740157480314
 20
7.638779527559055
 30
0.0
 11
6.446850393700787
 21
7.630905511811024
 31
0.0
  0
LINE
  5
2D35
330
1E
100
AcDbEntity
  8
7
100
AcDbLine
 10
3.327755905511811
 20
7.690944881889762
 30
0.0
 11
3.327755905511811
 21
7.684055118110235
 31
0.0
  0
LINE
  5
2D36
330
1E
100
AcDbEntity
  8
7
100
AcDbLine
 10
3.40255905511811
 20
7.625
 30
0.0
 11
3.454724409448818
 21
7.625
 31
0.0
  0
LINE
  5
2D37
330
1E
100
AcDbEntity
  8
7
100
AcDbLine
 10
4.009842519685038
 20
7.303149606299212
 30
0.0
 11
4.060039370078739
 21
7.303149606299212
 31
0.0
  0
LINE
  5
2D38
330
1E
100
AcDbEntity
  8
7
100
AcDbLine
 10
3.503937007874015
 20
7.303149606299212
 30
0.0
 11
3.534448818897637
 21
7.303149606299212
 31
0.0
  0
LINE
  5
2D39
330
1E
100
AcDbEntity
  8
7
100
AcDbLine
 10
3.484251968503937
 20
7.38779527559055
 30
0.0
 11
3.472440944881889
 21
7.38779527559055
 31
0.0
  0
LINE
  5
2D3A
330
1E
100
AcDbEntity
  8
7
100
AcDbLine
 10
3.469488188976377
 20
7.308070866141731
 30
0.0
 11
3.491141732283463
 21
7.308070866141731
 31
0.0
  0
LINE
  5
2D3B
330
1E
100
AcDbEntity
  8
7
100
AcDbLine
 10
3.534448818897637
 20
7.309055118110235
 30
0.0
 11
4.009842519685038
 21
7.309055118110235
 31
0.0
  0
LINE
  5
2D3C
330
1E
100
AcDbEntity
  8
7
100
AcDbLine
 10
4.966535433070865
 20
7.684055118110235
 30
0.0
 11
4.966535433070865
 21
7.690944881889762
 31
0.0
  0
LINE
  5
2D3D
330
1E
100
AcDbEntity
  8
7
100
AcDbLine
 10
4.840551181102362
 20
7.625
 30
0.0
 11
4.891732283464566
 21
7.625
 31
0.0
  0
LINE
  5
2D3E
330
1E
100
AcDbEntity
  8
7
100
AcDbLine
 10
4.23523622047244
 20
7.303149606299212
 30
0.0
 11
4.284448818897637
 21
7.303149606299212
 31
0.0
  0
LINE
  5
2D3F
330
1E
100
AcDbEntity
  8
7
100
AcDbLine
 10
4.760826771653542
 20
7.303149606299212
 30
0.0
 11
4.790354330708661
 21
7.303149606299212
 31
0.0
  0
LINE
  5
2D40
330
1E
100
AcDbEntity
  8
7
100
AcDbLine
 10
4.821850393700787
 20
7.38779527559055
 30
0.0
 11
4.810039370078739
 21
7.38779527559055
 31
0.0
  0
LINE
  5
2D41
330
1E
100
AcDbEntity
  8
7
100
AcDbLine
 10
4.804133858267715
 20
7.308070866141731
 30
0.0
 11
4.824803149606299
 21
7.308070866141731
 31
0.0
  0
LINE
  5
2D42
330
1E
100
AcDbEntity
  8
7
100
AcDbLine
 10
4.284448818897637
 20
7.309055118110235
 30
0.0
 11
4.760826771653542
 21
7.309055118110235
 31
0.0
  0
LINE
  5
2D43
330
1E
100
AcDbEntity
  8
7
100
AcDbLine
 10
3.584645669291337
 20
7.73523622047244
 30
0.0
 11
4.709645669291337
 21
7.73523622047244
 31
0.0
  0
LINE
  5
2D44
330
1E
100
AcDbEntity
  8
7
100
AcDbLine
 10
3.458661417322834
 20
7.733267716535433
 30
0.0
 11
3.584645669291337
 21
7.733267716535433
 31
0.0
  0
LINE
  5
2D45
330
1E
100
AcDbEntity
  8
7
100
AcDbLine
 10
4.709645669291337
 20
7.733267716535433
 30
0.0
 11
4.835629921259842
 21
7.733267716535433
 31
0.0
  0
LINE
  5
2D46
330
1E
100
AcDbEntity
  8
7
100
AcDbLine
 10
4.060039370078739
 20
7.303149606299212
 30
0.0
 11
4.23523622047244
 21
7.303149606299212
 31
0.0
  0
LINE
  5
2D47
330
1E
100
AcDbEntity
  8
7
100
AcDbLine
 10
3.4753937007874
 20
7.408464566929133
 30
0.0
 11
3.484251968503937
 21
7.408464566929133
 31
0.0
  0
LINE
  5
2D48
330
1E
100
AcDbEntity
  8
7
100
AcDbLine
 10
4.810039370078739
 20
7.408464566929133
 30
0.0
 11
4.819881889763779
 21
7.408464566929133
 31
0.0
  0
LINE
  5
2DBD
330
1E
100
AcDbEntity
  8
7
100
AcDbLine
 10
5.129921259842519
 20
8.286417322834644
 30
0.0
 11
5.129921259842519
 21
7.116141732283463
 31
0.0
  0
LINE
  5
2DBE
330
1E
100
AcDbEntity
  8
7
100
AcDbLine
 10
5.129921259842519
 20
8.882874015748031
 30
0.0
 11
5.129921259842519
 21
8.526574803149605
 31
0.0
  0
LINE
  5
2DD7
330
1E
100
AcDbEntity
  8
7
100
AcDbLine
 10
5.127952755905511
 20
7.116141732283463
 30
0.0
 11
5.127952755905511
 21
8.880905511811024
 31
0.0
  0
LINE
  5
2DDE
330
1E
100
AcDbEntity
  8
7
100
AcDbLine
 10
5.129921259842519
 20
8.526574803149605
 30
0.0
 11
5.129921259842519
 21
8.286417322834644
 31
0.0
  0
LINE
  5
2DDF
330
1E
100
AcDbEntity
  8
7
100
AcDbLine
 10
5.127952755905511
 20
8.880905511811024
 30
0.0
 11
5.129921259842519
 21
8.882874015748031
 31
0.0
  0
LINE
  5
2DE0
330
1E
100
AcDbEntity
  8
7
100
AcDbLine
 10
5.129921259842519
 20
7.114173228346456
 30
0.0
 11
5.127952755905511
 21
7.116141732283463
 31
0.0
  0
LINE
  5
2DE1
330
1E
100
AcDbEntity
  8
7
100
AcDbLine
 10
5.129921259842519
 20
7.116141732283463
 30
0.0
 11
5.129921259842519
 21
7.114173228346456
 31
0.0
  0
LINE
  5
2DEC
330
1E
100
AcDbEntity
  8
7
100
AcDbLine
 10
4.992125984251968
 20
7.886811023622046
 30
0.0
 11
4.995078740157479
 21
7.889763779527559
 31
0.0
  0
LINE
  5
2DED
330
1E
100
AcDbEntity
  8
7
100
AcDbLine
 10
4.992125984251968
 20
7.886811023622046
 30
0.0
 11
4.992125984251968
 21
7.734251968503937
 31
0.0
  0
LINE
  5
2DEE
330
1E
100
AcDbEntity
  8
7
100
AcDbLine
 10
4.995078740157479
 20
7.731299212598424
 30
0.0
 11
4.992125984251968
 21
7.734251968503937
 31
0.0
  0
LINE
  5
2DEF
330
1E
100
AcDbEntity
  8
7
100
AcDbLine
 10
4.995078740157479
 20
7.889763779527559
 30
0.0
 11
4.995078740157479
 21
7.731299212598424
 31
0.0
  0
LINE
  5
2E0E
330
1E
100
AcDbEntity
  8
7
100
AcDbLine
 10
4.987204724409448
 20
7.898622047244094
 30
0.0
 11
4.984251968503937
 21
7.894685039370077
 31
0.0
  0
LINE
  5
2E23
330
1E
100
AcDbEntity
  8
7
100
AcDbLine
 10
3.359251968503937
 20
8.474409448818898
 30
0.0
 11
3.356299212598425
 21
8.477362204724409
 31
0.0
  0
LINE
  5
2E29
330
1E
100
AcDbEntity
  8
7
100
AcDbLine
 10
3.364173228346456
 20
8.48523622047244
 30
0.0
 11
3.367125984251968
 21
8.482283464566929
 31
0.0
  0
LINE
  5
2E2F
330
1E
100
AcDbEntity
  8
7
100
AcDbLine
 10
3.367125984251968
 20
8.482283464566929
 30
0.0
 11
3.419291338582676
 21
8.482283464566929
 31
0.0
  0
LINE
  5
2E30
330
1E
100
AcDbEntity
  8
7
100
AcDbLine
 10
3.422244094488188
 20
8.479330708661416
 30
0.0
 11
3.419291338582676
 21
8.482283464566929
 31
0.0
  0
LINE
  5
2E36
330
1E
100
AcDbEntity
  8
7
100
AcDbLine
 10
4.924212598425196
 20
8.482283464566929
 30
0.0
 11
4.872047244094487
 21
8.482283464566929
 31
0.0
  0
LINE
  5
2E37
330
1E
100
AcDbEntity
  8
7
100
AcDbLine
 10
4.927165354330708
 20
8.48523622047244
 30
0.0
 11
4.924212598425196
 21
8.482283464566929
 31
0.0
  0
LINE
  5
2E38
330
1E
100
AcDbEntity
  8
7
100
AcDbLine
 10
3.364173228346456
 20
8.48523622047244
 30
0.0
 11
4.927165354330708
 21
8.48523622047244
 31
0.0
  0
LINE
  5
2EC4
330
1E
100
AcDbEntity
  8
7
100
AcDbLine
 10
3.161417322834645
 20
8.882874015748031
 30
0.0
 11
3.161417322834645
 21
8.526574803149605
 31
0.0
  0
LINE
  5
2EE0
330
1E
100
AcDbEntity
  8
7
100
AcDbLine
 10
3.163385826771653
 20
8.880905511811024
 30
0.0
 11
3.161417322834645
 21
8.882874015748031
 31
0.0
  0
LINE
  5
2EE1
330
1E
100
AcDbEntity
  8
7
100
AcDbLine
 10
3.260826771653543
 20
8.983267716535433
 30
0.0
 11
3.263779527559054
 21
8.981299212598424
 31
0.0
  0
LINE
  5
2EEB
330
1E
100
AcDbEntity
  8
7
100
AcDbLine
 10
3.426181102362204
 20
8.595472440944881
 30
0.0
 11
3.426181102362204
 21
8.937007874015748
 31
0.0
  0
LINE
  5
2EEC
330
1E
100
AcDbEntity
  8
7
100
AcDbLine
 10
3.426181102362204
 20
8.596456692913385
 30
0.0
 11
3.426181102362204
 21
8.936023622047244
 31
0.0
  0
LINE
  5
2EED
330
1E
100
AcDbEntity
  8
7
100
AcDbLine
 10
3.481299212598425
 20
8.944881889763779
 30
0.0
 11
3.481299212598425
 21
8.58759842519685
 31
0.0
  0
LINE
  5
2EEE
330
1E
100
AcDbEntity
  8
7
100
AcDbLine
 10
3.477362204724409
 20
8.945866141732283
 30
0.0
 11
3.481299212598425
 21
8.944881889763779
 31
0.0
  0
LINE
  5
2EEF
330
1E
100
AcDbEntity
  8
7
100
AcDbLine
 10
3.481299212598425
 20
8.58759842519685
 30
0.0
 11
3.477362204724409
 21
8.586614173228346
 31
0.0
  0
LINE
  5
2EF0
330
1E
100
AcDbEntity
  8
7
100
AcDbLine
 10
3.437007874015748
 20
8.945866141732283
 30
0.0
 11
3.477362204724409
 21
8.945866141732283
 31
0.0
  0
LINE
  5
2EF1
330
1E
100
AcDbEntity
  8
7
100
AcDbLine
 10
3.477362204724409
 20
8.586614173228346
 30
0.0
 11
3.437007874015748
 21
8.586614173228346
 31
0.0
  0
LINE
  5
2EF7
330
1E
100
AcDbEntity
  8
7
100
AcDbLine
 10
4.855314960629921
 20
8.585629921259842
 30
0.0
 11
4.854330708661416
 21
8.586614173228346
 31
0.0
  0
LINE
  5
2EFD
330
1E
100
AcDbEntity
  8
7
100
AcDbLine
 10
4.86515748031496
 20
8.596456692913385
 30
0.0
 11
4.866141732283463
 21
8.595472440944881
 31
0.0
  0
LINE
  5
2F03
330
1E
100
AcDbEntity
  8
7
100
AcDbLine
 10
4.866141732283463
 20
8.937007874015748
 30
0.0
 11
4.86515748031496
 21
8.936023622047244
 31
0.0
  0
LINE
  5
2F09
330
1E
100
AcDbEntity
  8
7
100
AcDbLine
 10
4.854330708661416
 20
8.945866141732283
 30
0.0
 11
4.855314960629921
 21
8.946850393700787
 31
0.0
  0
LINE
  5
2F0A
330
1E
100
AcDbEntity
  8
7
100
AcDbLine
 10
3.263779527559054
 20
8.981299212598424
 30
0.0
 11
5.028543307086613
 21
8.981299212598424
 31
0.0
  0
LINE
  5
2F0B
330
1E
100
AcDbEntity
  8
7
100
AcDbLine
 10
5.030511811023621
 20
8.983267716535433
 30
0.0
 11
3.260826771653543
 21
8.983267716535433
 31
0.0
  0
LINE
  5
2F0C
330
1E
100
AcDbEntity
  8
7
100
AcDbLine
 10
5.028543307086613
 20
8.950787401574801
 30
0.0
 11
3.263779527559054
 21
8.950787401574801
 31
0.0
  0
LINE
  5
2F0D
330
1E
100
AcDbEntity
  8
7
100
AcDbLine
 10
3.481299212598425
 20
8.58759842519685
 30
0.0
 11
4.811023622047243
 21
8.58759842519685
 31
0.0
  0
LINE
  5
2F0E
330
1E
100
AcDbEntity
  8
7
100
AcDbLine
 10
4.811023622047243
 20
8.944881889763779
 30
0.0
 11
4.811023622047243
 21
8.58759842519685
 31
0.0
  0
LINE
  5
2F0F
330
1E
100
AcDbEntity
  8
7
100
AcDbLine
 10
4.811023622047243
 20
8.944881889763779
 30
0.0
 11
3.481299212598425
 21
8.944881889763779
 31
0.0
  0
LINE
  5
2F10
330
1E
100
AcDbEntity
  8
7
100
AcDbLine
 10
4.855314960629921
 20
8.585629921259842
 30
0.0
 11
3.436023622047243
 21
8.585629921259842
 31
0.0
  0
LINE
  5
2F11
330
1E
100
AcDbEntity
  8
7
100
AcDbLine
 10
4.813976377952755
 20
8.586614173228346
 30
0.0
 11
4.854330708661416
 21
8.586614173228346
 31
0.0
  0
LINE
  5
2F12
330
1E
100
AcDbEntity
  8
7
100
AcDbLine
 10
4.811023622047243
 20
8.58759842519685
 30
0.0
 11
4.813976377952755
 21
8.586614173228346
 31
0.0
  0
LINE
  5
2F13
330
1E
100
AcDbEntity
  8
7
100
AcDbLine
 10
4.866141732283463
 20
8.595472440944881
 30
0.0
 11
4.866141732283463
 21
8.937007874015748
 31
0.0
  0
LINE
  5
2F14
330
1E
100
AcDbEntity
  8
7
100
AcDbLine
 10
4.86515748031496
 20
8.596456692913385
 30
0.0
 11
4.86515748031496
 21
8.936023622047244
 31
0.0
  0
LINE
  5
2F15
330
1E
100
AcDbEntity
  8
7
100
AcDbLine
 10
4.854330708661416
 20
8.945866141732283
 30
0.0
 11
4.813976377952755
 21
8.945866141732283
 31
0.0
  0
LINE
  5
2F16
330
1E
100
AcDbEntity
  8
7
100
AcDbLine
 10
3.436023622047243
 20
8.946850393700787
 30
0.0
 11
4.855314960629921
 21
8.946850393700787
 31
0.0
  0
LINE
  5
2F17
330
1E
100
AcDbEntity
  8
7
100
AcDbLine
 10
4.813976377952755
 20
8.945866141732283
 30
0.0
 11
4.811023622047243
 21
8.944881889763779
 31
0.0
  0
LINE
  5
2F18
330
1E
100
AcDbEntity
  8
7
100
AcDbLine
 10
4.932086614173227
 20
8.474409448818898
 30
0.0
 11
4.932086614173227
 21
8.004921259842518
 31
0.0
  0
LINE
  5
2F19
330
1E
100
AcDbEntity
  8
7
100
AcDbLine
 10
4.872047244094487
 20
8.482283464566929
 30
0.0
 11
4.872047244094487
 21
8.478346456692912
 31
0.0
  0
LINE
  5
2F1A
330
1E
100
AcDbEntity
  8
7
100
AcDbLine
 10
4.928149606299212
 20
8.004921259842518
 30
0.0
 11
4.932086614173227
 21
8.004921259842518
 31
0.0
  0
LINE
  5
2F1B
330
1E
100
AcDbEntity
  8
7
100
AcDbLine
 10
4.869094488188975
 20
8.478346456692912
 30
0.0
 11
4.869094488188975
 21
8.479330708661416
 31
0.0
  0
LINE
  5
2F1C
330
1E
100
AcDbEntity
  8
7
100
AcDbLine
 10
3.422244094488188
 20
8.478346456692912
 30
0.0
 11
3.422244094488188
 21
8.479330708661416
 31
0.0
  0
LINE
  5
2F1D
330
1E
100
AcDbEntity
  8
7
100
AcDbLine
 10
3.419291338582676
 20
8.482283464566929
 30
0.0
 11
3.419291338582676
 21
8.478346456692912
 31
0.0
  0
LINE
  5
2F1E
330
1E
100
AcDbEntity
  8
7
100
AcDbLine
 10
3.359251968503937
 20
8.474409448818898
 30
0.0
 11
3.359251968503937
 21
8.004921259842518
 31
0.0
  0
LINE
  5
2F1F
330
1E
100
AcDbEntity
  8
7
100
AcDbLine
 10
3.366141732283464
 20
8.004921259842518
 30
0.0
 11
3.359251968503937
 21
8.004921259842518
 31
0.0
  0
LINE
  5
2F20
330
1E
100
AcDbEntity
  8
7
100
AcDbLine
 10
3.356299212598425
 20
7.906496062992125
 30
0.0
 11
3.356299212598425
 21
8.477362204724409
 31
0.0
  0
LINE
  5
2F21
330
1E
100
AcDbEntity
  8
7
100
AcDbLine
 10
3.356299212598425
 20
7.906496062992125
 30
0.0
 11
3.359251968503937
 21
7.902559055118109
 31
0.0
  0
LINE
  5
2F22
330
1E
100
AcDbEntity
  8
7
100
AcDbLine
 10
3.359251968503937
 20
8.004921259842518
 30
0.0
 11
3.359251968503937
 21
7.902559055118109
 31
0.0
  0
LINE
  5
2F23
330
1E
100
AcDbEntity
  8
7
100
AcDbLine
 10
4.935039370078739
 20
7.906496062992125
 30
0.0
 11
4.935039370078739
 21
8.477362204724409
 31
0.0
  0
LINE
  5
2F24
330
1E
100
AcDbEntity
  8
7
100
AcDbLine
 10
4.932086614173227
 20
8.004921259842518
 30
0.0
 11
4.932086614173227
 21
7.902559055118109
 31
0.0
  0
LINE
  5
2F25
330
1E
100
AcDbEntity
  8
7
100
AcDbLine
 10
4.935039370078739
 20
7.906496062992125
 30
0.0
 11
4.932086614173227
 21
7.902559055118109
 31
0.0
  0
LINE
  5
2F26
330
1E
100
AcDbEntity
  8
7
100
AcDbLine
 10
3.263779527559054
 20
7.046259842519684
 30
0.0
 11
5.028543307086613
 21
7.046259842519684
 31
0.0
  0
LINE
  5
2F30
330
1E
100
AcDbEntity
  8
7
100
AcDbLine
 10
4.942913385826771
 20
7.898622047244094
 30
0.0
 11
4.987204724409448
 21
7.898622047244094
 31
0.0
  0
LINE
  5
2F31
330
1E
100
AcDbEntity
  8
7
100
AcDbLine
 10
4.954724409448818
 20
7.723425196850392
 30
0.0
 11
4.987204724409448
 21
7.723425196850392
 31
0.0
  0
LINE
  5
2F32
330
1E
100
AcDbEntity
  8
7
100
AcDbLine
 10
4.935039370078739
 20
7.143700787401574
 30
0.0
 11
4.935039370078739
 21
7.635826771653542
 31
0.0
  0
LINE
  5
2F38
330
1E
100
AcDbEntity
  8
7
100
AcDbLine
 10
3.364173228346456
 20
7.135826771653542
 30
0.0
 11
4.927165354330708
 21
7.135826771653542
 31
0.0
  0
LINE
  5
2F45
330
1E
100
AcDbEntity
  8
7
100
AcDbLine
 10
3.296259842519685
 20
7.889763779527559
 30
0.0
 11
3.296259842519685
 21
7.731299212598424
 31
0.0
  0
LINE
  5
2F4B
330
1E
100
AcDbEntity
  8
7
100
AcDbLine
 10
3.348425196850393
 20
7.898622047244094
 30
0.0
 11
3.304133858267716
 21
7.898622047244094
 31
0.0
  0
LINE
  5
2F63
330
1E
100
AcDbEntity
  8
7
100
AcDbLine
 10
3.161417322834645
 20
7.116141732283463
 30
0.0
 11
3.161417322834645
 21
7.114173228346456
 31
0.0
  0
LINE
  5
2F64
330
1E
100
AcDbEntity
  8
7
100
AcDbLine
 10
3.161417322834645
 20
8.526574803149605
 30
0.0
 11
3.161417322834645
 21
8.286417322834644
 31
0.0
  0
LINE
  5
2F65
330
1E
100
AcDbEntity
  8
7
100
AcDbLine
 10
3.358267716535433
 20
7.145669291338582
 30
0.0
 11
3.358267716535433
 21
7.242125984251968
 31
0.0
  0
LINE
  5
2F6B
330
1E
100
AcDbEntity
  8
7
100
AcDbLine
 10
3.48523622047244
 20
7.13779527559055
 30
0.0
 11
3.366141732283464
 21
7.13779527559055
 31
0.0
  0
LINE
  5
2F73
330
1E
100
AcDbEntity
  8
7
100
AcDbLine
 10
3.163385826771653
 20
7.116141732283463
 30
0.0
 11
3.163385826771653
 21
8.880905511811024
 31
0.0
  0
LINE
  5
2F74
330
1E
100
AcDbEntity
  8
7
100
AcDbLine
 10
3.161417322834645
 20
8.286417322834644
 30
0.0
 11
3.161417322834645
 21
7.116141732283463
 31
0.0
  0
LINE
  5
2F75
330
1E
100
AcDbEntity
  8
7
100
AcDbLine
 10
3.161417322834645
 20
7.114173228346456
 30
0.0
 11
3.163385826771653
 21
7.116141732283463
 31
0.0
  0
LINE
  5
2F7B
330
1E
100
AcDbEntity
  8
7
100
AcDbLine
 10
3.359251968503937
 20
7.617125984251968
 30
0.0
 11
3.366141732283464
 21
7.622047244094487
 31
0.0
  0
LINE
  5
2F7C
330
1E
100
AcDbEntity
  8
7
100
AcDbLine
 10
3.366141732283464
 20
7.617125984251968
 30
0.0
 11
3.359251968503937
 21
7.617125984251968
 31
0.0
  0
LINE
  5
2F7D
330
1E
100
AcDbEntity
  8
7
100
AcDbLine
 10
3.359251968503937
 20
8.004921259842518
 30
0.0
 11
3.366141732283464
 21
7.999015748031496
 31
0.0
  0
LINE
  5
2F7E
330
1E
100
AcDbEntity
  8
7
100
AcDbLine
 10
4.932086614173227
 20
8.004921259842518
 30
0.0
 11
4.928149606299212
 21
8.001968503937007
 31
0.0
  0
LINE
  5
2F7F
330
1E
100
AcDbEntity
  8
7
100
AcDbLine
 10
4.928149606299212
 20
7.617125984251968
 30
0.0
 11
4.932086614173227
 21
7.617125984251968
 31
0.0
  0
LINE
  5
2F80
330
1E
100
AcDbEntity
  8
7
100
AcDbLine
 10
4.932086614173227
 20
7.617125984251968
 30
0.0
 11
4.928149606299212
 21
7.620078740157479
 31
0.0
  0
LINE
  5
2F8A
330
1E
100
AcDbEntity
  8
7
100
AcDbLine
 10
3.34251968503937
 20
7.726377952755905
 30
0.0
 11
3.307086614173228
 21
7.726377952755905
 31
0.0
  0
LINE
  5
2F90
330
1E
100
AcDbEntity
  8
7
100
AcDbLine
 10
3.357283464566928
 20
7.89763779527559
 30
0.0
 11
3.351377952755905
 21
7.894685039370077
 31
0.0
  0
LINE
  5
2F91
330
1E
100
AcDbEntity
  8
7
100
AcDbLine
 10
4.951771653543306
 20
7.726377952755905
 30
0.0
 11
4.984251968503937
 21
7.726377952755905
 31
0.0
  0
LINE
  5
2F92
330
1E
100
AcDbEntity
  8
7
100
AcDbLine
 10
4.939960629921259
 20
7.894685039370077
 30
0.0
 11
4.984251968503937
 21
7.894685039370077
 31
0.0
  0
LINE
  5
2F98
330
1E
100
AcDbEntity
  8
7
100
AcDbLine
 10
4.932086614173227
 20
7.741141732283464
 30
0.0
 11
4.932086614173227
 21
7.902559055118109
 31
0.0
  0
LINE
  5
2F9E
330
1E
100
AcDbEntity
  8
7
100
AcDbLine
 10
4.932086614173227
 20
7.634842519685038
 30
0.0
 11
4.932086614173227
 21
7.617125984251968
 31
0.0
  0
LINE
  5
2F9F
330
1E
100
AcDbEntity
  8
7
100
AcDbLine
 10
3.492125984251968
 20
7.140748031496062
 30
0.0
 11
4.799212598425196
 21
7.140748031496062
 31
0.0
  0
LINE
  5
2FB5
330
1E
100
AcDbEntity
  8
7
100
AcDbLine
 10
3.351377952755905
 20
7.894685039370077
 30
0.0
 11
3.348425196850393
 21
7.898622047244094
 31
0.0
  0
LINE
  5
2FB6
330
1E
100
AcDbEntity
  8
7
100
AcDbLine
 10
3.304133858267716
 20
7.898622047244094
 30
0.0
 11
3.307086614173228
 21
7.894685039370077
 31
0.0
  0
LINE
  5
2FB7
330
1E
100
AcDbEntity
  8
7
100
AcDbLine
 10
3.299212598425196
 20
7.886811023622046
 30
0.0
 11
3.296259842519685
 21
7.889763779527559
 31
0.0
  0
LINE
  5
2FB8
330
1E
100
AcDbEntity
  8
7
100
AcDbLine
 10
3.296259842519685
 20
7.731299212598424
 30
0.0
 11
3.299212598425196
 21
7.734251968503937
 31
0.0
  0
LINE
  5
2FB9
330
1E
100
AcDbEntity
  8
7
100
AcDbLine
 10
3.307086614173228
 20
7.726377952755905
 30
0.0
 11
3.304133858267716
 21
7.723425196850392
 31
0.0
  0
LINE
  5
2FBA
330
1E
100
AcDbEntity
  8
7
100
AcDbLine
 10
4.939960629921259
 20
7.894685039370077
 30
0.0
 11
4.942913385826771
 21
7.898622047244094
 31
0.0
  0
LINE
  5
2FBB
330
1E
100
AcDbEntity
  8
7
100
AcDbLine
 10
4.934055118110236
 20
7.242125984251968
 30
0.0
 11
4.932086614173227
 21
7.242125984251968
 31
0.0
  0
LINE
  5
2FBC
330
1E
100
AcDbEntity
  8
7
100
AcDbLine
 10
4.935039370078739
 20
7.143700787401574
 30
0.0
 11
4.934055118110236
 21
7.145669291338582
 31
0.0
  0
LINE
  5
2FBD
330
1E
100
AcDbEntity
  8
7
100
AcDbLine
 10
4.9251968503937
 20
7.13779527559055
 30
0.0
 11
4.927165354330708
 21
7.135826771653542
 31
0.0
  0
LINE
  5
2FBE
330
1E
100
AcDbEntity
  8
7
100
AcDbLine
 10
4.799212598425196
 20
7.140748031496062
 30
0.0
 11
4.807086614173227
 21
7.13779527559055
 31
0.0
  0
LINE
  5
2FBF
330
1E
100
AcDbEntity
  8
7
100
AcDbLine
 10
3.492125984251968
 20
7.140748031496062
 30
0.0
 11
3.48523622047244
 21
7.13779527559055
 31
0.0
  0
LINE
  5
2FC0
330
1E
100
AcDbEntity
  8
7
100
AcDbLine
 10
3.366141732283464
 20
7.13779527559055
 30
0.0
 11
3.364173228346456
 21
7.135826771653542
 31
0.0
  0
LINE
  5
2FC1
330
1E
100
AcDbEntity
  8
7
100
AcDbLine
 10
3.356299212598425
 20
7.143700787401574
 30
0.0
 11
3.358267716535433
 21
7.145669291338582
 31
0.0
  0
LINE
  5
2FC2
330
1E
100
AcDbEntity
  8
7
100
AcDbLine
 10
3.358267716535433
 20
7.242125984251968
 30
0.0
 11
3.359251968503937
 21
7.242125984251968
 31
0.0
  0
LINE
  5
2FC3
330
1E
100
AcDbEntity
  8
7
100
AcDbLine
 10
3.263779527559054
 20
7.016732283464566
 30
0.0
 11
3.260826771653543
 21
7.013779527559054
 31
0.0
  0
LINE
  5
2FC9
330
1E
100
AcDbEntity
  8
7
100
AcDbLine
 10
4.709645669291337
 20
7.740157480314961
 30
0.0
 11
4.709645669291337
 21
7.736220472440944
 31
0.0
  0
LINE
  5
2FD0
330
1E
100
AcDbEntity
  8
7
100
AcDbLine
 10
4.835629921259842
 20
7.783464566929133
 30
0.0
 11
4.835629921259842
 21
7.736220472440944
 31
0.0
  0
LINE
  5
2FD8
330
1E
100
AcDbEntity
  8
7
100
AcDbLine
 10
4.92027559055118
 20
7.774606299212598
 30
0.0
 11
4.92027559055118
 21
7.82283464566929
 31
0.0
  0
LINE
  5
3001
330
1E
100
AcDbEntity
  8
7
100
AcDbLine
 10
4.928149606299212
 20
7.52263779527559
 30
0.0
 11
4.928149606299212
 21
7.632874015748031
 31
0.0
  0
LINE
  5
3002
330
1E
100
AcDbEntity
  8
7
100
AcDbLine
 10
4.928149606299212
 20
7.743110236220472
 30
0.0
 11
4.928149606299212
 21
7.849409448818898
 31
0.0
  0
LINE
  5
3003
330
1E
100
AcDbEntity
  8
7
100
AcDbLine
 10
4.928149606299212
 20
7.348425196850392
 30
0.0
 11
4.928149606299212
 21
7.52263779527559
 31
0.0
  0
LINE
  5
3009
330
1E
100
AcDbEntity
  8
7
100
AcDbLine
 10
4.928149606299212
 20
7.143700787401574
 30
0.0
 11
4.928149606299212
 21
7.290354330708661
 31
0.0
  0
LINE
  5
300A
330
1E
100
AcDbEntity
  8
7
100
AcDbLine
 10
4.92027559055118
 20
7.746062992125983
 30
0.0
 11
4.92027559055118
 21
7.774606299212598
 31
0.0
  0
LINE
  5
300B
330
1E
100
AcDbEntity
  8
7
100
AcDbLine
 10
4.835629921259842
 20
7.597440944881888
 30
0.0
 11
4.866141732283463
 21
7.600393700787401
 31
0.0
  0
LINE
  5
301E
330
1E
100
AcDbEntity
  8
7
100
AcDbLine
 10
4.83267716535433
 20
7.406496062992125
 30
0.0
 11
4.835629921259842
 21
7.406496062992125
 31
0.0
  0
LINE
  5
301F
330
1E
100
AcDbEntity
  8
7
100
AcDbLine
 10
4.834645669291337
 20
7.348425196850392
 30
0.0
 11
4.83267716535433
 21
7.406496062992125
 31
0.0
  0
LINE
  5
3020
330
1E
100
AcDbEntity
  8
7
100
AcDbLine
 10
4.913385826771652
 20
7.348425196850392
 30
0.0
 11
4.834645669291337
 21
7.348425196850392
 31
0.0
  0
LINE
  5
3021
330
1E
100
AcDbEntity
  8
7
100
AcDbLine
 10
4.913385826771652
 20
7.465551181102361
 30
0.0
 11
4.913385826771652
 21
7.348425196850392
 31
0.0
  0
LINE
  5
3022
330
1E
100
AcDbEntity
  8
7
100
AcDbLine
 10
4.83267716535433
 20
7.595472440944881
 30
0.0
 11
4.834645669291337
 21
7.597440944881888
 31
0.0
  0
LINE
  5
3023
330
1E
100
AcDbEntity
  8
7
100
AcDbLine
 10
4.83267716535433
 20
7.406496062992125
 30
0.0
 11
4.83267716535433
 21
7.595472440944881
 31
0.0
  0
LINE
  5
3024
330
1E
100
AcDbEntity
  8
7
100
AcDbLine
 10
4.834645669291337
 20
7.597440944881888
 30
0.0
 11
4.835629921259842
 21
7.597440944881888
 31
0.0
  0
LINE
  5
3045
330
1E
100
AcDbEntity
  8
7
100
AcDbLine
 10
4.913385826771652
 20
7.279527559055118
 30
0.0
 11
4.835629921259842
 21
7.279527559055118
 31
0.0
  0
LINE
  5
305F
330
1E
100
AcDbEntity
  8
7
100
AcDbLine
 10
4.928149606299212
 20
7.290354330708661
 30
0.0
 11
4.924212598425196
 21
7.282480314960629
 31
0.0
  0
LINE
  5
3060
330
1E
100
AcDbEntity
  8
7
100
AcDbLine
 10
4.924212598425196
 20
7.282480314960629
 30
0.0
 11
4.913385826771652
 21
7.279527559055118
 31
0.0
  0
LINE
  5
3076
330
1E
100
AcDbEntity
  8
7
100
AcDbLine
 10
4.834645669291337
 20
7.611220472440944
 30
0.0
 11
4.833661417322834
 21
7.625
 31
0.0
  0
LINE
  5
3077
330
1E
100
AcDbEntity
  8
7
100
AcDbLine
 10
4.820866141732283
 20
7.621062992125983
 30
0.0
 11
4.821850393700787
 21
7.602362204724409
 31
0.0
  0
LINE
  5
3078
330
1E
100
AcDbEntity
  8
7
100
AcDbLine
 10
4.819881889763779
 20
7.411417322834644
 30
0.0
 11
4.819881889763779
 21
7.408464566929133
 31
0.0
  0
LINE
  5
3079
330
1E
100
AcDbEntity
  8
7
100
AcDbLine
 10
4.819881889763779
 20
7.411417322834644
 30
0.0
 11
4.810039370078739
 21
7.411417322834644
 31
0.0
  0
LINE
  5
307A
330
1E
100
AcDbEntity
  8
7
100
AcDbLine
 10
4.778543307086613
 20
7.303149606299212
 30
0.0
 11
4.778543307086613
 21
7.291338582677164
 31
0.0
  0
LINE
  5
307B
330
1E
100
AcDbEntity
  8
7
100
AcDbLine
 10
4.778543307086613
 20
7.299212598425196
 30
0.0
 11
4.778543307086613
 21
7.291338582677164
 31
0.0
  0
LINE
  5
307C
330
1E
100
AcDbEntity
  8
7
100
AcDbLine
 10
4.778543307086613
 20
7.303149606299212
 30
0.0
 11
4.778543307086613
 21
7.299212598425196
 31
0.0
  0
LINE
  5
307D
330
1E
100
AcDbEntity
  8
7
100
AcDbLine
 10
4.821850393700787
 20
7.299212598425196
 30
0.0
 11
4.778543307086613
 21
7.299212598425196
 31
0.0
  0
LINE
  5
307E
330
1E
100
AcDbEntity
  8
7
100
AcDbLine
 10
4.821850393700787
 20
7.308070866141731
 30
0.0
 11
4.821850393700787
 21
7.299212598425196
 31
0.0
  0
LINE
  5
307F
330
1E
100
AcDbEntity
  8
7
100
AcDbLine
 10
4.821850393700787
 20
7.280511811023622
 30
0.0
 11
4.821850393700787
 21
7.299212598425196
 31
0.0
  0
LINE
  5
3092
330
1E
100
AcDbEntity
  8
7
100
AcDbLine
 10
4.819881889763779
 20
7.411417322834644
 30
0.0
 11
4.819881889763779
 21
7.621062992125983
 31
0.0
  0
LINE
  5
3093
330
1E
100
AcDbEntity
  8
7
100
AcDbLine
 10
4.821850393700787
 20
7.280511811023622
 30
0.0
 11
4.823818897637795
 21
7.280511811023622
 31
0.0
  0
LINE
  5
3094
330
1E
100
AcDbEntity
  8
7
100
AcDbLine
 10
4.821850393700787
 20
7.270669291338581
 30
0.0
 11
4.821850393700787
 21
7.280511811023622
 31
0.0
  0
LINE
  5
30A2
330
1E
100
AcDbEntity
  8
7
100
AcDbLine
 10
4.825787401574802
 20
7.143700787401574
 30
0.0
 11
4.824803149606299
 21
7.143700787401574
 31
0.0
  0
LINE
  5
30A8
330
1E
100
AcDbEntity
  8
7
100
AcDbLine
 10
4.568897637795275
 20
7.230314960629921
 30
0.0
 11
4.570866141732283
 21
7.211614173228346
 31
0.0
  0
LINE
  5
30A9
330
1E
100
AcDbEntity
  8
7
100
AcDbLine
 10
4.760826771653542
 20
7.30511811023622
 30
0.0
 11
4.284448818897637
 21
7.30511811023622
 31
0.0
  0
LINE
  5
30AA
330
1E
100
AcDbEntity
  8
7
100
AcDbLine
 10
4.570866141732283
 20
7.215551181102362
 30
0.0
 11
4.569881889763779
 21
7.230314960629921
 31
0.0
  0
LINE
  5
30AB
330
1E
100
AcDbEntity
  8
7
100
AcDbLine
 10
4.778543307086613
 20
7.291338582677164
 30
0.0
 11
4.23523622047244
 21
7.291338582677164
 31
0.0
  0
LINE
  5
30B1
330
1E
100
AcDbEntity
  8
7
100
AcDbLine
 10
3.374015748031496
 20
7.746062992125983
 30
0.0
 11
3.374015748031496
 21
7.774606299212598
 31
0.0
  0
LINE
  5
30B2
330
1E
100
AcDbEntity
  8
7
100
AcDbLine
 10
3.474409448818897
 20
7.411417322834644
 30
0.0
 11
3.474409448818897
 21
7.621062992125983
 31
0.0
  0
LINE
  5
30B3
330
1E
100
AcDbEntity
  8
7
100
AcDbLine
 10
3.474409448818897
 20
7.411417322834644
 30
0.0
 11
3.484251968503937
 21
7.411417322834644
 31
0.0
  0
LINE
  5
30B4
330
1E
100
AcDbEntity
  8
7
100
AcDbLine
 10
4.14271653543307
 20
7.699803149606298
 30
0.0
 11
4.15255905511811
 21
7.699803149606298
 31
0.0
  0
LINE
  5
30B5
330
1E
100
AcDbEntity
  8
7
100
AcDbLine
 10
4.835629921259842
 20
8.478346456692912
 30
0.0
 11
3.458661417322834
 21
8.478346456692912
 31
0.0
  0
LINE
  5
30BF
330
1E
100
AcDbEntity
  8
7
100
AcDbLine
 10
4.709645669291337
 20
7.740157480314961
 30
0.0
 11
3.584645669291337
 21
7.740157480314961
 31
0.0
  0
LINE
  5
30C0
330
1E
100
AcDbEntity
  8
7
100
AcDbLine
 10
3.458661417322834
 20
7.783464566929133
 30
0.0
 11
4.835629921259842
 21
7.783464566929133
 31
0.0
  0
LINE
  5
30C6
330
1E
100
AcDbEntity
  8
7
100
AcDbLine
 10
3.584645669291337
 20
7.740157480314961
 30
0.0
 11
3.584645669291337
 21
7.736220472440944
 31
0.0
  0
LINE
  5
30C7
330
1E
100
AcDbEntity
  8
7
100
AcDbLine
 10
4.835629921259842
 20
7.914370078740157
 30
0.0
 11
3.458661417322834
 21
7.914370078740157
 31
0.0
  0
LINE
  5
30D0
330
1E
100
AcDbEntity
  8
7
100
AcDbLine
 10
3.458661417322834
 20
8.478346456692912
 30
0.0
 11
3.458661417322834
 21
7.914370078740157
 31
0.0
  0
LINE
  5
30D1
330
1E
100
AcDbEntity
  8
7
100
AcDbLine
 10
3.472440944881889
 20
7.270669291338581
 30
0.0
 11
4.821850393700787
 21
7.270669291338581
 31
0.0
  0
LINE
  5
30D2
330
1E
100
AcDbEntity
  8
7
100
AcDbLine
 10
4.23523622047244
 20
7.294291338582675
 30
0.0
 11
4.23523622047244
 21
7.291338582677164
 31
0.0
  0
LINE
  5
30D8
330
1E
100
AcDbEntity
  8
7
100
AcDbLine
 10
3.516732283464566
 20
7.291338582677164
 30
0.0
 11
4.060039370078739
 21
7.291338582677164
 31
0.0
  0
LINE
  5
30D9
330
1E
100
AcDbEntity
  8
7
100
AcDbLine
 10
3.516732283464566
 20
7.299212598425196
 30
0.0
 11
3.516732283464566
 21
7.291338582677164
 31
0.0
  0
LINE
  5
30DA
330
1E
100
AcDbEntity
  8
7
100
AcDbLine
 10
3.472440944881889
 20
7.299212598425196
 30
0.0
 11
3.516732283464566
 21
7.299212598425196
 31
0.0
  0
LINE
  5
30DB
330
1E
100
AcDbEntity
  8
7
100
AcDbLine
 10
3.472440944881889
 20
7.280511811023622
 30
0.0
 11
3.472440944881889
 21
7.299212598425196
 31
0.0
  0
LINE
  5
30DC
330
1E
100
AcDbEntity
  8
7
100
AcDbLine
 10
3.472440944881889
 20
7.270669291338581
 30
0.0
 11
3.472440944881889
 21
7.280511811023622
 31
0.0
  0
LINE
  5
30DD
330
1E
100
AcDbEntity
  8
7
100
AcDbLine
 10
3.470472440944881
 20
7.143700787401574
 30
0.0
 11
4.824803149606299
 21
7.143700787401574
 31
0.0
  0
LINE
  5
30DE
330
1E
100
AcDbEntity
  8
7
100
AcDbLine
 10
4.575787401574802
 20
7.192913385826771
 30
0.0
 11
4.824803149606299
 21
7.192913385826771
 31
0.0
  0
LINE
  5
30E5
330
1E
100
AcDbEntity
  8
7
100
AcDbLine
 10
4.352362204724409
 20
7.150590551181101
 30
0.0
 11
4.576771653543306
 21
7.150590551181101
 31
0.0
  0
LINE
  5
30EC
330
1E
100
AcDbEntity
  8
7
100
AcDbLine
 10
3.940944881889763
 20
7.192913385826771
 30
0.0
 11
4.354330708661416
 21
7.192913385826771
 31
0.0
  0
LINE
  5
30FA
330
1E
100
AcDbEntity
  8
7
100
AcDbLine
 10
3.718503937007874
 20
7.192913385826771
 30
0.0
 11
3.470472440944881
 21
7.192913385826771
 31
0.0
  0
LINE
  5
3105
330
1E
100
AcDbEntity
  8
7
100
AcDbLine
 10
3.468503937007874
 20
7.143700787401574
 30
0.0
 11
3.470472440944881
 21
7.143700787401574
 31
0.0
  0
LINE
  5
310B
330
1E
100
AcDbEntity
  8
7
100
AcDbLine
 10
3.381889763779527
 20
7.143700787401574
 30
0.0
 11
3.458661417322834
 21
7.143700787401574
 31
0.0
  0
LINE
  5
311C
330
1E
100
AcDbEntity
  8
7
100
AcDbLine
 10
3.940944881889763
 20
7.192913385826771
 30
0.0
 11
3.938976377952755
 21
7.230314960629921
 31
0.0
  0
LINE
  5
311D
330
1E
100
AcDbEntity
  8
7
100
AcDbLine
 10
4.354330708661416
 20
7.192913385826771
 30
0.0
 11
4.356299212598425
 21
7.230314960629921
 31
0.0
  0
LINE
  5
311E
330
1E
100
AcDbEntity
  8
7
100
AcDbLine
 10
4.573818897637795
 20
7.230314960629921
 30
0.0
 11
4.356299212598425
 21
7.230314960629921
 31
0.0
  0
LINE
  5
311F
330
1E
100
AcDbEntity
  8
7
100
AcDbLine
 10
4.575787401574802
 20
7.192913385826771
 30
0.0
 11
4.573818897637795
 21
7.230314960629921
 31
0.0
  0
LINE
  5
3131
330
1E
100
AcDbEntity
  8
7
100
AcDbLine
 10
4.567913385826771
 20
7.230314960629921
 30
0.0
 11
4.576771653543306
 21
7.150590551181101
 31
0.0
  0
LINE
  5
3132
330
1E
100
AcDbEntity
  8
7
100
AcDbLine
 10
4.362204724409448
 20
7.230314960629921
 30
0.0
 11
4.352362204724409
 21
7.150590551181101
 31
0.0
  0
LINE
  5
3138
330
1E
100
AcDbEntity
  8
7
100
AcDbLine
 10
4.358267716535432
 20
7.215551181102362
 30
0.0
 11
4.359251968503937
 21
7.230314960629921
 31
0.0
  0
LINE
  5
3139
330
1E
100
AcDbEntity
  8
7
100
AcDbLine
 10
4.361220472440944
 20
7.230314960629921
 30
0.0
 11
4.359251968503937
 21
7.211614173228346
 31
0.0
  0
LINE
  5
313A
330
1E
100
AcDbEntity
  8
7
100
AcDbLine
 10
3.936023622047243
 20
7.215551181102362
 30
0.0
 11
3.935039370078739
 21
7.230314960629921
 31
0.0
  0
LINE
  5
313B
330
1E
100
AcDbEntity
  8
7
100
AcDbLine
 10
4.359251968503937
 20
7.211614173228346
 30
0.0
 11
4.358267716535432
 21
7.211614173228346
 31
0.0
  0
LINE
  5
3141
330
1E
100
AcDbEntity
  8
7
100
AcDbLine
 10
3.934055118110236
 20
7.230314960629921
 30
0.0
 11
3.936023622047243
 21
7.211614173228346
 31
0.0
  0
LINE
  5
3142
330
1E
100
AcDbEntity
  8
7
100
AcDbLine
 10
4.15255905511811
 20
7.415354330708661
 30
0.0
 11
4.14271653543307
 21
7.415354330708661
 31
0.0
  0
LINE
  5
3143
330
1E
100
AcDbEntity
  8
7
100
AcDbLine
 10
4.153543307086613
 20
7.379921259842518
 30
0.0
 11
4.141732283464566
 21
7.379921259842518
 31
0.0
  0
LINE
  5
3154
330
1E
100
AcDbEntity
  8
7
100
AcDbLine
 10
3.381889763779527
 20
7.348425196850392
 30
0.0
 11
3.460629921259842
 21
7.348425196850392
 31
0.0
  0
LINE
  5
316D
330
1E
100
AcDbEntity
  8
7
100
AcDbLine
 10
3.46259842519685
 20
7.595472440944881
 30
0.0
 11
3.460629921259842
 21
7.597440944881888
 31
0.0
  0
LINE
  5
316E
330
1E
100
AcDbEntity
  8
7
100
AcDbLine
 10
3.458661417322834
 20
7.611220472440944
 30
0.0
 11
3.460629921259842
 21
7.611220472440944
 31
0.0
  0
LINE
  5
3179
330
1E
100
AcDbEntity
  8
7
100
AcDbLine
 10
3.46259842519685
 20
7.406496062992125
 30
0.0
 11
3.458661417322834
 21
7.406496062992125
 31
0.0
  0
LINE
  5
317A
330
1E
100
AcDbEntity
  8
7
100
AcDbLine
 10
3.46259842519685
 20
7.406496062992125
 30
0.0
 11
3.46259842519685
 21
7.595472440944881
 31
0.0
  0
LINE
  5
3183
330
1E
100
AcDbEntity
  8
7
100
AcDbLine
 10
3.460629921259842
 20
7.348425196850392
 30
0.0
 11
3.46259842519685
 21
7.406496062992125
 31
0.0
  0
LINE
  5
3184
330
1E
100
AcDbEntity
  8
7
100
AcDbLine
 10
3.366141732283464
 20
7.348425196850392
 30
0.0
 11
3.366141732283464
 21
7.52263779527559
 31
0.0
  0
LINE
  5
31AE
330
1E
100
AcDbEntity
  8
7
100
AcDbLine
 10
3.472440944881889
 20
7.41043307086614
 30
0.0
 11
3.470472440944881
 21
7.347440944881888
 31
0.0
  0
LINE
  5
31AF
330
1E
100
AcDbEntity
  8
7
100
AcDbLine
 10
3.472440944881889
 20
7.41043307086614
 30
0.0
 11
3.469488188976377
 21
7.407480314960629
 31
0.0
  0
LINE
  5
31B0
330
1E
100
AcDbEntity
  8
7
100
AcDbLine
 10
3.469488188976377
 20
7.407480314960629
 30
0.0
 11
3.46259842519685
 21
7.406496062992125
 31
0.0
  0
LINE
  5
31B1
330
1E
100
AcDbEntity
  8
7
100
AcDbLine
 10
3.472440944881889
 20
7.602362204724409
 30
0.0
 11
3.472440944881889
 21
7.41043307086614
 31
0.0
  0
LINE
  5
31BD
330
1E
100
AcDbEntity
  8
7
100
AcDbLine
 10
3.723425196850393
 20
7.215551181102362
 30
0.0
 11
3.723425196850393
 21
7.210629921259842
 31
0.0
  0
LINE
  5
31C3
330
1E
100
AcDbEntity
  8
7
100
AcDbLine
 10
3.726377952755905
 20
7.230314960629921
 30
0.0
 11
3.724409448818897
 21
7.211614173228346
 31
0.0
  0
LINE
  5
31D7
330
1E
100
AcDbEntity
  8
7
100
AcDbLine
 10
3.472440944881889
 20
7.280511811023622
 30
0.0
 11
3.470472440944881
 21
7.280511811023622
 31
0.0
  0
LINE
  5
31D8
330
1E
100
AcDbEntity
  8
7
100
AcDbLine
 10
3.381889763779527
 20
7.279527559055118
 30
0.0
 11
3.381889763779527
 21
7.143700787401574
 31
0.0
  0
LINE
  5
31D9
330
1E
100
AcDbEntity
  8
7
100
AcDbLine
 10
3.366141732283464
 20
7.143700787401574
 30
0.0
 11
3.366141732283464
 21
7.290354330708661
 31
0.0
  0
LINE
  5
31DA
330
1E
100
AcDbEntity
  8
7
100
AcDbLine
 10
3.458661417322834
 20
7.143700787401574
 30
0.0
 11
3.458661417322834
 21
7.279527559055118
 31
0.0
  0
LINE
  5
31DB
330
1E
100
AcDbEntity
  8
7
100
AcDbLine
 10
3.468503937007874
 20
7.286417322834644
 30
0.0
 11
3.468503937007874
 21
7.143700787401574
 31
0.0
  0
LINE
  5
31DC
330
1E
100
AcDbEntity
  8
7
100
AcDbLine
 10
3.534448818897637
 20
7.30511811023622
 30
0.0
 11
4.009842519685038
 21
7.30511811023622
 31
0.0
  0
LINE
  5
31DD
330
1E
100
AcDbEntity
  8
7
100
AcDbLine
 10
3.474409448818897
 20
7.411417322834644
 30
0.0
 11
3.4753937007874
 21
7.408464566929133
 31
0.0
  0
LINE
  5
31DE
330
1E
100
AcDbEntity
  8
7
100
AcDbLine
 10
3.460629921259842
 20
7.611220472440944
 30
0.0
 11
3.461614173228346
 21
7.625
 31
0.0
  0
LINE
  5
31DF
330
1E
100
AcDbEntity
  8
7
100
AcDbLine
 10
3.473425196850393
 20
7.621062992125983
 30
0.0
 11
3.472440944881889
 21
7.602362204724409
 31
0.0
  0
LINE
  5
31EB
330
1E
100
AcDbEntity
  8
7
100
AcDbLine
 10
3.374015748031496
 20
7.774606299212598
 30
0.0
 11
3.374015748031496
 21
7.82283464566929
 31
0.0
  0
LINE
  5
31EC
330
1E
100
AcDbEntity
  8
7
100
AcDbLine
 10
3.366141732283464
 20
7.52263779527559
 30
0.0
 11
3.366141732283464
 21
7.632874015748031
 31
0.0
  0
LINE
  5
31ED
330
1E
100
AcDbEntity
  8
7
100
AcDbLine
 10
3.366141732283464
 20
7.742125984251968
 30
0.0
 11
3.366141732283464
 21
7.849409448818898
 31
0.0
  0
LINE
  5
31FF
330
1E
100
AcDbEntity
  8
7
100
AcDbLine
 10
3.366141732283464
 20
7.849409448818898
 30
0.0
 11
3.366141732283464
 21
8.478346456692912
 31
0.0
  0
LINE
  5
3200
330
1E
100
AcDbEntity
  8
7
100
AcDbLine
 10
3.723425196850393
 20
7.215551181102362
 30
0.0
 11
3.724409448818897
 21
7.230314960629921
 31
0.0
  0
LINE
  5
3201
330
1E
100
AcDbEntity
  8
7
100
AcDbLine
 10
3.472440944881889
 20
7.308070866141731
 30
0.0
 11
3.472440944881889
 21
7.299212598425196
 31
0.0
  0
LINE
  5
3202
330
1E
100
AcDbEntity
  8
7
100
AcDbLine
 10
3.516732283464566
 20
7.303149606299212
 30
0.0
 11
3.516732283464566
 21
7.299212598425196
 31
0.0
  0
LINE
  5
3203
330
1E
100
AcDbEntity
  8
7
100
AcDbLine
 10
3.516732283464566
 20
7.303149606299212
 30
0.0
 11
3.516732283464566
 21
7.291338582677164
 31
0.0
  0
LINE
  5
3204
330
1E
100
AcDbEntity
  8
7
100
AcDbLine
 10
3.727362204724409
 20
7.230314960629921
 30
0.0
 11
3.717519685039369
 21
7.150590551181101
 31
0.0
  0
LINE
  5
3205
330
1E
100
AcDbEntity
  8
7
100
AcDbLine
 10
3.932086614173227
 20
7.230314960629921
 30
0.0
 11
3.941929133858267
 21
7.150590551181101
 31
0.0
  0
LINE
  5
320B
330
1E
100
AcDbEntity
  8
7
100
AcDbLine
 10
4.810039370078739
 20
7.528543307086613
 30
0.0
 11
4.810039370078739
 21
7.53543307086614
 31
0.0
  0
LINE
  5
3211
330
1E
100
AcDbEntity
  8
7
100
AcDbLine
 10
4.8001968503937
 20
7.523622047244094
 30
0.0
 11
4.8001968503937
 21
7.583661417322835
 31
0.0
  0
LINE
  5
3217
330
1E
100
AcDbEntity
  8
7
100
AcDbLine
 10
4.810039370078739
 20
7.603346456692912
 30
0.0
 11
4.810039370078739
 21
7.61023622047244
 31
0.0
  0
LINE
  5
3223
330
1E
100
AcDbEntity
  8
7
100
AcDbLine
 10
4.809055118110236
 20
7.341535433070866
 30
0.0
 11
4.806102362204724
 21
7.348425196850392
 31
0.0
  0
LINE
  5
324D
330
1E
100
AcDbEntity
  8
7
100
AcDbLine
 10
4.760826771653542
 20
7.364173228346455
 30
0.0
 11
4.790354330708661
 21
7.364173228346455
 31
0.0
  0
LINE
  5
324E
330
1E
100
AcDbEntity
  8
7
100
AcDbLine
 10
4.760826771653542
 20
7.349409448818898
 30
0.0
 11
4.790354330708661
 21
7.349409448818898
 31
0.0
  0
LINE
  5
324F
330
1E
100
AcDbEntity
  8
7
100
AcDbLine
 10
4.810039370078739
 20
7.377952755905511
 30
0.0
 11
4.810039370078739
 21
7.528543307086613
 31
0.0
  0
LINE
  5
3250
330
1E
100
AcDbEntity
  8
7
100
AcDbLine
 10
4.823818897637795
 20
7.341535433070866
 30
0.0
 11
4.809055118110236
 21
7.341535433070866
 31
0.0
  0
LINE
  5
3251
330
1E
100
AcDbEntity
  8
7
100
AcDbLine
 10
4.824803149606299
 20
7.316929133858266
 30
0.0
 11
4.809055118110236
 21
7.316929133858266
 31
0.0
  0
LINE
  5
3258
330
1E
100
AcDbEntity
  8
7
100
AcDbLine
 10
4.824803149606299
 20
7.330708661417322
 30
0.0
 11
4.824803149606299
 21
7.323818897637794
 31
0.0
  0
LINE
  5
3259
330
1E
100
AcDbEntity
  8
7
100
AcDbLine
 10
4.284448818897637
 20
7.349409448818898
 30
0.0
 11
4.284448818897637
 21
7.326771653543307
 31
0.0
  0
LINE
  5
325F
330
1E
100
AcDbEntity
  8
7
100
AcDbLine
 10
4.284448818897637
 20
7.349409448818898
 30
0.0
 11
4.23523622047244
 21
7.349409448818898
 31
0.0
  0
LINE
  5
326B
330
1E
100
AcDbEntity
  8
7
100
AcDbLine
 10
4.760826771653542
 20
7.316929133858266
 30
0.0
 11
4.284448818897637
 21
7.316929133858266
 31
0.0
  0
LINE
  5
326C
330
1E
100
AcDbEntity
  8
7
100
AcDbLine
 10
4.790354330708661
 20
7.595472440944881
 30
0.0
 11
4.790354330708661
 21
7.364173228346455
 31
0.0
  0
LINE
  5
3273
330
1E
100
AcDbEntity
  8
7
100
AcDbLine
 10
4.891732283464566
 20
7.630905511811024
 30
0.0
 11
4.840551181102362
 21
7.630905511811024
 31
0.0
  0
LINE
  5
3282
330
1E
100
AcDbEntity
  8
7
100
AcDbLine
 10
4.172244094488188
 20
7.708661417322835
 30
0.0
 11
4.891732283464566
 21
7.708661417322835
 31
0.0
  0
LINE
  5
3283
330
1E
100
AcDbEntity
  8
7
100
AcDbLine
 10
4.172244094488188
 20
7.370078740157479
 30
0.0
 11
4.172244094488188
 21
7.708661417322835
 31
0.0
  0
LINE
  5
32AA
330
1E
100
AcDbEntity
  8
7
100
AcDbLine
 10
4.891732283464566
 20
7.737204724409448
 30
0.0
 11
4.866141732283463
 21
7.737204724409448
 31
0.0
  0
LINE
  5
32B7
330
1E
100
AcDbEntity
  8
7
100
AcDbLine
 10
4.15255905511811
 20
7.723425196850392
 30
0.0
 11
4.15255905511811
 21
7.383858267716535
 31
0.0
  0
LINE
  5
32C3
330
1E
100
AcDbEntity
  8
7
100
AcDbLine
 10
4.891732283464566
 20
7.744094488188975
 30
0.0
 11
4.92027559055118
 21
7.740157480314961
 31
0.0
  0
LINE
  5
32CA
330
1E
100
AcDbEntity
  8
7
100
AcDbLine
 10
4.15255905511811
 20
7.73031496062992
 30
0.0
 11
4.15255905511811
 21
7.723425196850392
 31
0.0
  0
LINE
  5
32CB
330
1E
100
AcDbEntity
  8
7
100
AcDbLine
 10
4.891732283464566
 20
7.744094488188975
 30
0.0
 11
4.891732283464566
 21
7.737204724409448
 31
0.0
  0
LINE
  5
32D1
330
1E
100
AcDbEntity
  8
7
100
AcDbLine
 10
3.494094488188975
 20
7.55511811023622
 30
0.0
 11
3.487204724409448
 21
7.545275590551181
 31
0.0
  0
LINE
  5
32D2
330
1E
100
AcDbEntity
  8
7
100
AcDbLine
 10
3.487204724409448
 20
7.545275590551181
 30
0.0
 11
3.484251968503937
 21
7.53543307086614
 31
0.0
  0
LINE
  5
32D3
330
1E
100
AcDbEntity
  8
7
100
AcDbLine
 10
3.484251968503937
 20
7.528543307086613
 30
0.0
 11
3.484251968503937
 21
7.53543307086614
 31
0.0
  0
LINE
  5
32D4
330
1E
100
AcDbEntity
  8
7
100
AcDbLine
 10
3.494094488188975
 20
7.523622047244094
 30
0.0
 11
3.494094488188975
 21
7.583661417322835
 31
0.0
  0
LINE
  5
32DA
330
1E
100
AcDbEntity
  8
7
100
AcDbLine
 10
3.484251968503937
 20
7.603346456692912
 30
0.0
 11
3.484251968503937
 21
7.61023622047244
 31
0.0
  0
LINE
  5
330B
330
1E
100
AcDbEntity
  8
7
100
AcDbLine
 10
3.503937007874015
 20
7.364173228346455
 30
0.0
 11
3.503937007874015
 21
7.357283464566929
 31
0.0
  0
LINE
  5
330C
330
1E
100
AcDbEntity
  8
7
100
AcDbLine
 10
3.503937007874015
 20
7.357283464566929
 30
0.0
 11
3.503937007874015
 21
7.349409448818898
 31
0.0
  0
LINE
  5
3317
330
1E
100
AcDbEntity
  8
7
100
AcDbLine
 10
3.534448818897637
 20
7.364173228346455
 30
0.0
 11
3.503937007874015
 21
7.364173228346455
 31
0.0
  0
LINE
  5
3318
330
1E
100
AcDbEntity
  8
7
100
AcDbLine
 10
3.534448818897637
 20
7.349409448818898
 30
0.0
 11
3.503937007874015
 21
7.349409448818898
 31
0.0
  0
LINE
  5
3319
330
1E
100
AcDbEntity
  8
7
100
AcDbLine
 10
3.484251968503937
 20
7.377952755905511
 30
0.0
 11
3.484251968503937
 21
7.528543307086613
 31
0.0
  0
LINE
  5
331A
330
1E
100
AcDbEntity
  8
7
100
AcDbLine
 10
3.470472440944881
 20
7.341535433070866
 30
0.0
 11
3.486220472440944
 21
7.341535433070866
 31
0.0
  0
LINE
  5
331B
330
1E
100
AcDbEntity
  8
7
100
AcDbLine
 10
3.470472440944881
 20
7.316929133858266
 30
0.0
 11
3.486220472440944
 21
7.316929133858266
 31
0.0
  0
LINE
  5
3322
330
1E
100
AcDbEntity
  8
7
100
AcDbLine
 10
3.470472440944881
 20
7.330708661417322
 30
0.0
 11
3.470472440944881
 21
7.323818897637794
 31
0.0
  0
LINE
  5
3328
330
1E
100
AcDbEntity
  8
7
100
AcDbLine
 10
4.009842519685038
 20
7.310039370078738
 30
0.0
 11
4.009842519685038
 21
7.303149606299212
 31
0.0
  0
LINE
  5
3329
330
1E
100
AcDbEntity
  8
7
100
AcDbLine
 10
4.009842519685038
 20
7.349409448818898
 30
0.0
 11
4.060039370078739
 21
7.349409448818898
 31
0.0
  0
LINE
  5
3334
330
1E
100
AcDbEntity
  8
7
100
AcDbLine
 10
4.009842519685038
 20
7.364173228346455
 30
0.0
 11
4.060039370078739
 21
7.364173228346455
 31
0.0
  0
LINE
  5
333A
330
1E
100
AcDbEntity
  8
7
100
AcDbLine
 10
4.122047244094487
 20
7.370078740157479
 30
0.0
 11
4.067913385826771
 21
7.370078740157479
 31
0.0
  0
LINE
  5
3350
330
1E
100
AcDbEntity
  8
7
100
AcDbLine
 10
3.534448818897637
 20
7.316929133858266
 30
0.0
 11
4.009842519685038
 21
7.316929133858266
 31
0.0
  0
LINE
  5
3371
330
1E
100
AcDbEntity
  8
7
100
AcDbLine
 10
3.40255905511811
 20
7.737204724409448
 30
0.0
 11
3.428149606299212
 21
7.737204724409448
 31
0.0
  0
LINE
  5
337E
330
1E
100
AcDbEntity
  8
7
100
AcDbLine
 10
4.14271653543307
 20
7.723425196850392
 30
0.0
 11
4.14271653543307
 21
7.383858267716535
 31
0.0
  0
LINE
  5
3391
330
1E
100
AcDbEntity
  8
7
100
AcDbLine
 10
4.14271653543307
 20
7.73031496062992
 30
0.0
 11
4.14271653543307
 21
7.723425196850392
 31
0.0
  0
LINE
  5
3392
330
1E
100
AcDbEntity
  8
7
100
AcDbLine
 10
3.40255905511811
 20
7.744094488188975
 30
0.0
 11
3.40255905511811
 21
7.737204724409448
 31
0.0
  0
LINE
  5
339A
330
1E
100
AcDbEntity
  8
7
100
AcDbLine
 10
3.407480314960629
 20
7.744094488188975
 30
0.0
 11
3.40255905511811
 21
7.744094488188975
 31
0.0
  0
LINE
  5
339B
330
1E
100
AcDbEntity
  8
7
100
AcDbLine
 10
3.40255905511811
 20
7.744094488188975
 30
0.0
 11
3.374015748031496
 21
7.740157480314961
 31
0.0
  0
LINE
  5
339C
330
1E
100
AcDbEntity
  8
7
100
AcDbLine
 10
3.374015748031496
 20
7.740157480314961
 30
0.0
 11
3.349409448818897
 21
7.729330708661416
 31
0.0
  0
LINE
  5
339D
330
1E
100
AcDbEntity
  8
7
100
AcDbLine
 10
3.349409448818897
 20
7.729330708661416
 30
0.0
 11
3.333661417322834
 21
7.711614173228346
 31
0.0
  0
LINE
  5
339E
330
1E
100
AcDbEntity
  8
7
100
AcDbLine
 10
3.333661417322834
 20
7.711614173228346
 30
0.0
 11
3.327755905511811
 21
7.690944881889762
 31
0.0
  0
LINE
  5
339F
330
1E
100
AcDbEntity
  8
7
100
AcDbLine
 10
3.40255905511811
 20
7.744094488188975
 30
0.0
 11
3.40255905511811
 21
7.746062992125983
 31
0.0
  0
LINE
  5
33A0
330
1E
100
AcDbEntity
  8
7
100
AcDbLine
 10
3.40255905511811
 20
7.746062992125983
 30
0.0
 11
3.40255905511811
 21
7.748031496062992
 31
0.0
  0
LINE
  5
33A1
330
1E
100
AcDbEntity
  8
7
100
AcDbLine
 10
4.14271653543307
 20
7.73031496062992
 30
0.0
 11
4.141732283464566
 21
7.733267716535433
 31
0.0
  0
LINE
  5
33A2
330
1E
100
AcDbEntity
  8
7
100
AcDbLine
 10
4.141732283464566
 20
7.733267716535433
 30
0.0
 11
4.140748031496062
 21
7.73523622047244
 31
0.0
  0
LINE
  5
33A3
330
1E
100
AcDbEntity
  8
7
100
AcDbLine
 10
4.14271653543307
 20
7.383858267716535
 30
0.0
 11
4.136811023622047
 21
7.374015748031496
 31
0.0
  0
LINE
  5
33A4
330
1E
100
AcDbEntity
  8
7
100
AcDbLine
 10
4.136811023622047
 20
7.374015748031496
 30
0.0
 11
4.122047244094487
 21
7.370078740157479
 31
0.0
  0
LINE
  5
33A5
330
1E
100
AcDbEntity
  8
7
100
AcDbLine
 10
4.132874015748031
 20
7.73523622047244
 30
0.0
 11
4.139763779527558
 21
7.73031496062992
 31
0.0
  0
LINE
  5
33A6
330
1E
100
AcDbEntity
  8
7
100
AcDbLine
 10
4.139763779527558
 20
7.73031496062992
 30
0.0
 11
4.14271653543307
 21
7.723425196850392
 31
0.0
  0
LINE
  5
33A7
330
1E
100
AcDbEntity
  8
7
100
AcDbLine
 10
4.14271653543307
 20
7.723425196850392
 30
0.0
 11
4.136811023622047
 21
7.713582677165353
 31
0.0
  0
LINE
  5
33A8
330
1E
100
AcDbEntity
  8
7
100
AcDbLine
 10
4.136811023622047
 20
7.713582677165353
 30
0.0
 11
4.122047244094487
 21
7.708661417322835
 31
0.0
  0
LINE
  5
33A9
330
1E
100
AcDbEntity
  8
7
100
AcDbLine
 10
4.122047244094487
 20
7.73523622047244
 30
0.0
 11
4.122047244094487
 21
7.721456692913385
 31
0.0
  0
LINE
  5
33AA
330
1E
100
AcDbEntity
  8
7
100
AcDbLine
 10
4.122047244094487
 20
7.721456692913385
 30
0.0
 11
4.122047244094487
 21
7.708661417322835
 31
0.0
  0
LINE
  5
33AB
330
1E
100
AcDbEntity
  8
7
100
AcDbLine
 10
3.327755905511811
 20
7.685039370078738
 30
0.0
 11
3.333661417322834
 21
7.704724409448818
 31
0.0
  0
LINE
  5
33AC
330
1E
100
AcDbEntity
  8
7
100
AcDbLine
 10
3.333661417322834
 20
7.704724409448818
 30
0.0
 11
3.350393700787401
 21
7.722440944881888
 31
0.0
  0
LINE
  5
33AD
330
1E
100
AcDbEntity
  8
7
100
AcDbLine
 10
3.350393700787401
 20
7.722440944881888
 30
0.0
 11
3.374015748031496
 21
7.733267716535433
 31
0.0
  0
LINE
  5
33AE
330
1E
100
AcDbEntity
  8
7
100
AcDbLine
 10
3.374015748031496
 20
7.733267716535433
 30
0.0
 11
3.40255905511811
 21
7.737204724409448
 31
0.0
  0
LINE
  5
33AF
330
1E
100
AcDbEntity
  8
7
100
AcDbLine
 10
3.40255905511811
 20
7.737204724409448
 30
0.0
 11
3.40255905511811
 21
7.723425196850392
 31
0.0
  0
LINE
  5
33B0
330
1E
100
AcDbEntity
  8
7
100
AcDbLine
 10
3.40255905511811
 20
7.723425196850392
 30
0.0
 11
3.40255905511811
 21
7.708661417322835
 31
0.0
  0
LINE
  5
33B1
330
1E
100
AcDbEntity
  8
7
100
AcDbLine
 10
3.40255905511811
 20
7.625
 30
0.0
 11
3.40255905511811
 21
7.626968503937007
 31
0.0
  0
LINE
  5
33B2
330
1E
100
AcDbEntity
  8
7
100
AcDbLine
 10
3.40255905511811
 20
7.626968503937007
 30
0.0
 11
3.40255905511811
 21
7.630905511811024
 31
0.0
  0
LINE
  5
33B3
330
1E
100
AcDbEntity
  8
7
100
AcDbLine
 10
3.454724409448818
 20
7.625
 30
0.0
 11
3.454724409448818
 21
7.626968503937007
 31
0.0
  0
LINE
  5
33B4
330
1E
100
AcDbEntity
  8
7
100
AcDbLine
 10
3.454724409448818
 20
7.626968503937007
 30
0.0
 11
3.454724409448818
 21
7.630905511811024
 31
0.0
  0
LINE
  5
33B5
330
1E
100
AcDbEntity
  8
7
100
AcDbLine
 10
3.484251968503937
 20
7.61023622047244
 30
0.0
 11
3.49015748031496
 21
7.600393700787401
 31
0.0
  0
LINE
  5
33B6
330
1E
100
AcDbEntity
  8
7
100
AcDbLine
 10
3.49015748031496
 20
7.600393700787401
 30
0.0
 11
3.503937007874015
 21
7.595472440944881
 31
0.0
  0
LINE
  5
33B7
330
1E
100
AcDbEntity
  8
7
100
AcDbLine
 10
3.454724409448818
 20
7.630905511811024
 30
0.0
 11
3.479330708661416
 21
7.626968503937007
 31
0.0
  0
LINE
  5
33B8
330
1E
100
AcDbEntity
  8
7
100
AcDbLine
 10
3.479330708661416
 20
7.626968503937007
 30
0.0
 11
3.498031496062991
 21
7.613188976377951
 31
0.0
  0
LINE
  5
33B9
330
1E
100
AcDbEntity
  8
7
100
AcDbLine
 10
3.498031496062991
 20
7.613188976377951
 30
0.0
 11
3.503937007874015
 21
7.595472440944881
 31
0.0
  0
LINE
  5
33BA
330
1E
100
AcDbEntity
  8
7
100
AcDbLine
 10
3.503937007874015
 20
7.595472440944881
 30
0.0
 11
3.503937007874015
 21
7.364173228346455
 31
0.0
  0
LINE
  5
33BB
330
1E
100
AcDbEntity
  8
7
100
AcDbLine
 10
4.122047244094487
 20
7.370078740157479
 30
0.0
 11
4.122047244094487
 21
7.708661417322835
 31
0.0
  0
LINE
  5
33BC
330
1E
100
AcDbEntity
  8
7
100
AcDbLine
 10
4.122047244094487
 20
7.708661417322835
 30
0.0
 11
3.40255905511811
 21
7.708661417322835
 31
0.0
  0
LINE
  5
33BD
330
1E
100
AcDbEntity
  8
7
100
AcDbLine
 10
3.40255905511811
 20
7.708661417322835
 30
0.0
 11
3.381889763779527
 21
7.705708661417322
 31
0.0
  0
LINE
  5
33BE
330
1E
100
AcDbEntity
  8
7
100
AcDbLine
 10
3.381889763779527
 20
7.705708661417322
 30
0.0
 11
3.364173228346456
 21
7.69783464566929
 31
0.0
  0
LINE
  5
33BF
330
1E
100
AcDbEntity
  8
7
100
AcDbLine
 10
3.364173228346456
 20
7.69783464566929
 30
0.0
 11
3.352362204724409
 21
7.685039370078738
 31
0.0
  0
LINE
  5
33C0
330
1E
100
AcDbEntity
  8
7
100
AcDbLine
 10
3.352362204724409
 20
7.685039370078738
 30
0.0
 11
3.347440944881889
 21
7.670275590551181
 31
0.0
  0
LINE
  5
33C1
330
1E
100
AcDbEntity
  8
7
100
AcDbLine
 10
3.347440944881889
 20
7.670275590551181
 30
0.0
 11
3.352362204724409
 21
7.655511811023622
 31
0.0
  0
LINE
  5
33C2
330
1E
100
AcDbEntity
  8
7
100
AcDbLine
 10
3.352362204724409
 20
7.655511811023622
 30
0.0
 11
3.364173228346456
 21
7.64271653543307
 31
0.0
  0
LINE
  5
33C3
330
1E
100
AcDbEntity
  8
7
100
AcDbLine
 10
3.364173228346456
 20
7.64271653543307
 30
0.0
 11
3.381889763779527
 21
7.633858267716535
 31
0.0
  0
LINE
  5
33C4
330
1E
100
AcDbEntity
  8
7
100
AcDbLine
 10
3.381889763779527
 20
7.633858267716535
 30
0.0
 11
3.40255905511811
 21
7.630905511811024
 31
0.0
  0
LINE
  5
33C5
330
1E
100
AcDbEntity
  8
7
100
AcDbLine
 10
3.40255905511811
 20
7.630905511811024
 30
0.0
 11
3.454724409448818
 21
7.630905511811024
 31
0.0
  0
LINE
  5
33C6
330
1E
100
AcDbEntity
  8
7
100
AcDbLine
 10
4.067913385826771
 20
7.370078740157479
 30
0.0
 11
4.062007874015748
 21
7.368110236220472
 31
0.0
  0
LINE
  5
33C7
330
1E
100
AcDbEntity
  8
7
100
AcDbLine
 10
4.062007874015748
 20
7.368110236220472
 30
0.0
 11
4.060039370078739
 21
7.364173228346455
 31
0.0
  0
LINE
  5
33C8
330
1E
100
AcDbEntity
  8
7
100
AcDbLine
 10
4.060039370078739
 20
7.351377952755905
 30
0.0
 11
4.060039370078739
 21
7.358267716535433
 31
0.0
  0
LINE
  5
33C9
330
1E
100
AcDbEntity
  8
7
100
AcDbLine
 10
4.060039370078739
 20
7.358267716535433
 30
0.0
 11
4.060039370078739
 21
7.364173228346455
 31
0.0
  0
LINE
  5
33CA
330
1E
100
AcDbEntity
  8
7
100
AcDbLine
 10
4.009842519685038
 20
7.349409448818898
 30
0.0
 11
4.009842519685038
 21
7.357283464566929
 31
0.0
  0
LINE
  5
33CB
330
1E
100
AcDbEntity
  8
7
100
AcDbLine
 10
4.009842519685038
 20
7.357283464566929
 30
0.0
 11
4.009842519685038
 21
7.364173228346455
 31
0.0
  0
LINE
  5
33CC
330
1E
100
AcDbEntity
  8
7
100
AcDbLine
 10
4.009842519685038
 20
7.349409448818898
 30
0.0
 11
4.009842519685038
 21
7.326771653543307
 31
0.0
  0
LINE
  5
33CD
330
1E
100
AcDbEntity
  8
7
100
AcDbLine
 10
4.009842519685038
 20
7.326771653543307
 30
0.0
 11
4.009842519685038
 21
7.310039370078738
 31
0.0
  0
LINE
  5
33CE
330
1E
100
AcDbEntity
  8
7
100
AcDbLine
 10
3.470472440944881
 20
7.323818897637794
 30
0.0
 11
3.477362204724409
 21
7.326771653543307
 31
0.0
  0
LINE
  5
33CF
330
1E
100
AcDbEntity
  8
7
100
AcDbLine
 10
3.477362204724409
 20
7.326771653543307
 30
0.0
 11
3.477362204724409
 21
7.331692913385825
 31
0.0
  0
LINE
  5
33D0
330
1E
100
AcDbEntity
  8
7
100
AcDbLine
 10
3.477362204724409
 20
7.331692913385825
 30
0.0
 11
3.470472440944881
 21
7.334645669291338
 31
0.0
  0
LINE
  5
33D1
330
1E
100
AcDbEntity
  8
7
100
AcDbLine
 10
3.484251968503937
 20
7.375984251968503
 30
0.0
 11
3.484251968503937
 21
7.376968503937007
 31
0.0
  0
LINE
  5
33D2
330
1E
100
AcDbEntity
  8
7
100
AcDbLine
 10
3.484251968503937
 20
7.376968503937007
 30
0.0
 11
3.484251968503937
 21
7.377952755905511
 31
0.0
  0
LINE
  5
33D3
330
1E
100
AcDbEntity
  8
7
100
AcDbLine
 10
3.503937007874015
 20
7.364173228346455
 30
0.0
 11
3.49015748031496
 21
7.368110236220472
 31
0.0
  0
LINE
  5
33D4
330
1E
100
AcDbEntity
  8
7
100
AcDbLine
 10
3.49015748031496
 20
7.368110236220472
 30
0.0
 11
3.484251968503937
 21
7.377952755905511
 31
0.0
  0
LINE
  5
33D5
330
1E
100
AcDbEntity
  8
7
100
AcDbLine
 10
3.488188976377952
 20
7.349409448818898
 30
0.0
 11
3.489173228346456
 21
7.349409448818898
 31
0.0
  0
LINE
  5
33D6
330
1E
100
AcDbEntity
  8
7
100
AcDbLine
 10
3.489173228346456
 20
7.349409448818898
 30
0.0
 11
3.49015748031496
 21
7.354330708661416
 31
0.0
  0
LINE
  5
33D7
330
1E
100
AcDbEntity
  8
7
100
AcDbLine
 10
3.49015748031496
 20
7.354330708661416
 30
0.0
 11
3.489173228346456
 21
7.359251968503937
 31
0.0
  0
LINE
  5
33D8
330
1E
100
AcDbEntity
  8
7
100
AcDbLine
 10
3.489173228346456
 20
7.359251968503937
 30
0.0
 11
3.486220472440944
 21
7.367125984251968
 31
0.0
  0
LINE
  5
33D9
330
1E
100
AcDbEntity
  8
7
100
AcDbLine
 10
3.486220472440944
 20
7.367125984251968
 30
0.0
 11
3.484251968503937
 21
7.374015748031496
 31
0.0
  0
LINE
  5
33DA
330
1E
100
AcDbEntity
  8
7
100
AcDbLine
 10
3.484251968503937
 20
7.374015748031496
 30
0.0
 11
3.484251968503937
 21
7.375984251968503
 31
0.0
  0
LINE
  5
33DB
330
1E
100
AcDbEntity
  8
7
100
AcDbLine
 10
3.488188976377952
 20
7.349409448818898
 30
0.0
 11
3.496062992125984
 21
7.349409448818898
 31
0.0
  0
LINE
  5
33DC
330
1E
100
AcDbEntity
  8
7
100
AcDbLine
 10
3.496062992125984
 20
7.349409448818898
 30
0.0
 11
3.503937007874015
 21
7.349409448818898
 31
0.0
  0
LINE
  5
33DD
330
1E
100
AcDbEntity
  8
7
100
AcDbLine
 10
3.503937007874015
 20
7.349409448818898
 30
0.0
 11
3.503937007874015
 21
7.326771653543307
 31
0.0
  0
LINE
  5
33DE
330
1E
100
AcDbEntity
  8
7
100
AcDbLine
 10
3.503937007874015
 20
7.326771653543307
 30
0.0
 11
3.503937007874015
 21
7.310039370078738
 31
0.0
  0
LINE
  5
33DF
330
1E
100
AcDbEntity
  8
7
100
AcDbLine
 10
3.503937007874015
 20
7.310039370078738
 30
0.0
 11
3.503937007874015
 21
7.303149606299212
 31
0.0
  0
LINE
  5
33E0
330
1E
100
AcDbEntity
  8
7
100
AcDbLine
 10
3.488188976377952
 20
7.312007874015748
 30
0.0
 11
3.486220472440944
 21
7.314960629921259
 31
0.0
  0
LINE
  5
33E1
330
1E
100
AcDbEntity
  8
7
100
AcDbLine
 10
3.486220472440944
 20
7.314960629921259
 30
0.0
 11
3.486220472440944
 21
7.316929133858266
 31
0.0
  0
LINE
  5
33E2
330
1E
100
AcDbEntity
  8
7
100
AcDbLine
 10
3.486220472440944
 20
7.316929133858266
 30
0.0
 11
3.484251968503937
 21
7.325787401574803
 31
0.0
  0
LINE
  5
33E3
330
1E
100
AcDbEntity
  8
7
100
AcDbLine
 10
3.484251968503937
 20
7.325787401574803
 30
0.0
 11
3.484251968503937
 21
7.328740157480314
 31
0.0
  0
LINE
  5
33E4
330
1E
100
AcDbEntity
  8
7
100
AcDbLine
 10
3.484251968503937
 20
7.328740157480314
 30
0.0
 11
3.48523622047244
 21
7.340551181102361
 31
0.0
  0
LINE
  5
33E5
330
1E
100
AcDbEntity
  8
7
100
AcDbLine
 10
3.48523622047244
 20
7.340551181102361
 30
0.0
 11
3.486220472440944
 21
7.341535433070866
 31
0.0
  0
LINE
  5
33E6
330
1E
100
AcDbEntity
  8
7
100
AcDbLine
 10
3.486220472440944
 20
7.341535433070866
 30
0.0
 11
3.488188976377952
 21
7.348425196850392
 31
0.0
  0
LINE
  5
33E7
330
1E
100
AcDbEntity
  8
7
100
AcDbLine
 10
3.488188976377952
 20
7.348425196850392
 30
0.0
 11
3.488188976377952
 21
7.349409448818898
 31
0.0
  0
LINE
  5
33E8
330
1E
100
AcDbEntity
  8
7
100
AcDbLine
 10
3.534448818897637
 20
7.349409448818898
 30
0.0
 11
3.534448818897637
 21
7.326771653543307
 31
0.0
  0
LINE
  5
33E9
330
1E
100
AcDbEntity
  8
7
100
AcDbLine
 10
3.534448818897637
 20
7.326771653543307
 30
0.0
 11
3.534448818897637
 21
7.310039370078738
 31
0.0
  0
LINE
  5
33EA
330
1E
100
AcDbEntity
  8
7
100
AcDbLine
 10
3.534448818897637
 20
7.310039370078738
 30
0.0
 11
3.534448818897637
 21
7.303149606299212
 31
0.0
  0
LINE
  5
33EB
330
1E
100
AcDbEntity
  8
7
100
AcDbLine
 10
3.534448818897637
 20
7.349409448818898
 30
0.0
 11
3.534448818897637
 21
7.357283464566929
 31
0.0
  0
LINE
  5
33EC
330
1E
100
AcDbEntity
  8
7
100
AcDbLine
 10
3.534448818897637
 20
7.357283464566929
 30
0.0
 11
3.534448818897637
 21
7.364173228346455
 31
0.0
  0
LINE
  5
33ED
330
1E
100
AcDbEntity
  8
7
100
AcDbLine
 10
3.484251968503937
 20
7.603346456692912
 30
0.0
 11
3.487204724409448
 21
7.594488188976377
 31
0.0
  0
LINE
  5
33EE
330
1E
100
AcDbEntity
  8
7
100
AcDbLine
 10
3.487204724409448
 20
7.594488188976377
 30
0.0
 11
3.494094488188975
 21
7.583661417322835
 31
0.0
  0
LINE
  5
33EF
330
1E
100
AcDbEntity
  8
7
100
AcDbLine
 10
3.484251968503937
 20
7.528543307086613
 30
0.0
 11
3.487204724409448
 21
7.523622047244094
 31
0.0
  0
LINE
  5
33F0
330
1E
100
AcDbEntity
  8
7
100
AcDbLine
 10
3.487204724409448
 20
7.523622047244094
 30
0.0
 11
3.494094488188975
 21
7.523622047244094
 31
0.0
  0
LINE
  5
33F1
330
1E
100
AcDbEntity
  8
7
100
AcDbLine
 10
4.92027559055118
 20
7.740157480314961
 30
0.0
 11
4.944881889763779
 21
7.729330708661416
 31
0.0
  0
LINE
  5
33F2
330
1E
100
AcDbEntity
  8
7
100
AcDbLine
 10
4.944881889763779
 20
7.729330708661416
 30
0.0
 11
4.961614173228346
 21
7.711614173228346
 31
0.0
  0
LINE
  5
33F3
330
1E
100
AcDbEntity
  8
7
100
AcDbLine
 10
4.961614173228346
 20
7.711614173228346
 30
0.0
 11
4.966535433070865
 21
7.690944881889762
 31
0.0
  0
LINE
  5
33F4
330
1E
100
AcDbEntity
  8
7
100
AcDbLine
 10
4.886811023622047
 20
7.744094488188975
 30
0.0
 11
4.891732283464566
 21
7.744094488188975
 31
0.0
  0
LINE
  5
33F5
330
1E
100
AcDbEntity
  8
7
100
AcDbLine
 10
4.891732283464566
 20
7.744094488188975
 30
0.0
 11
4.891732283464566
 21
7.746062992125983
 31
0.0
  0
LINE
  5
33F6
330
1E
100
AcDbEntity
  8
7
100
AcDbLine
 10
4.891732283464566
 20
7.746062992125983
 30
0.0
 11
4.891732283464566
 21
7.748031496062992
 31
0.0
  0
LINE
  5
33F7
330
1E
100
AcDbEntity
  8
7
100
AcDbLine
 10
4.15255905511811
 20
7.73031496062992
 30
0.0
 11
4.15255905511811
 21
7.733267716535433
 31
0.0
  0
LINE
  5
33F8
330
1E
100
AcDbEntity
  8
7
100
AcDbLine
 10
4.15255905511811
 20
7.733267716535433
 30
0.0
 11
4.153543307086613
 21
7.73523622047244
 31
0.0
  0
LINE
  5
33F9
330
1E
100
AcDbEntity
  8
7
100
AcDbLine
 10
4.15255905511811
 20
7.383858267716535
 30
0.0
 11
4.158464566929133
 21
7.374015748031496
 31
0.0
  0
LINE
  5
33FA
330
1E
100
AcDbEntity
  8
7
100
AcDbLine
 10
4.158464566929133
 20
7.374015748031496
 30
0.0
 11
4.172244094488188
 21
7.370078740157479
 31
0.0
  0
LINE
  5
33FB
330
1E
100
AcDbEntity
  8
7
100
AcDbLine
 10
4.162401574803149
 20
7.73523622047244
 30
0.0
 11
4.154527559055117
 21
7.73031496062992
 31
0.0
  0
LINE
  5
33FC
330
1E
100
AcDbEntity
  8
7
100
AcDbLine
 10
4.154527559055117
 20
7.73031496062992
 30
0.0
 11
4.15255905511811
 21
7.723425196850392
 31
0.0
  0
LINE
  5
33FD
330
1E
100
AcDbEntity
  8
7
100
AcDbLine
 10
4.15255905511811
 20
7.723425196850392
 30
0.0
 11
4.158464566929133
 21
7.713582677165353
 31
0.0
  0
LINE
  5
33FE
330
1E
100
AcDbEntity
  8
7
100
AcDbLine
 10
4.158464566929133
 20
7.713582677165353
 30
0.0
 11
4.172244094488188
 21
7.708661417322835
 31
0.0
  0
LINE
  5
33FF
330
1E
100
AcDbEntity
  8
7
100
AcDbLine
 10
4.172244094488188
 20
7.73523622047244
 30
0.0
 11
4.172244094488188
 21
7.721456692913385
 31
0.0
  0
LINE
  5
3400
330
1E
100
AcDbEntity
  8
7
100
AcDbLine
 10
4.172244094488188
 20
7.721456692913385
 30
0.0
 11
4.172244094488188
 21
7.708661417322835
 31
0.0
  0
LINE
  5
3401
330
1E
100
AcDbEntity
  8
7
100
AcDbLine
 10
4.891732283464566
 20
7.737204724409448
 30
0.0
 11
4.891732283464566
 21
7.723425196850392
 31
0.0
  0
LINE
  5
3402
330
1E
100
AcDbEntity
  8
7
100
AcDbLine
 10
4.891732283464566
 20
7.723425196850392
 30
0.0
 11
4.891732283464566
 21
7.708661417322835
 31
0.0
  0
LINE
  5
3403
330
1E
100
AcDbEntity
  8
7
100
AcDbLine
 10
4.966535433070865
 20
7.684055118110235
 30
0.0
 11
4.961614173228346
 21
7.704724409448818
 31
0.0
  0
LINE
  5
3404
330
1E
100
AcDbEntity
  8
7
100
AcDbLine
 10
4.961614173228346
 20
7.704724409448818
 30
0.0
 11
4.944881889763779
 21
7.721456692913385
 31
0.0
  0
LINE
  5
3405
330
1E
100
AcDbEntity
  8
7
100
AcDbLine
 10
4.944881889763779
 20
7.721456692913385
 30
0.0
 11
4.92027559055118
 21
7.733267716535433
 31
0.0
  0
LINE
  5
3406
330
1E
100
AcDbEntity
  8
7
100
AcDbLine
 10
4.92027559055118
 20
7.733267716535433
 30
0.0
 11
4.891732283464566
 21
7.737204724409448
 31
0.0
  0
LINE
  5
3407
330
1E
100
AcDbEntity
  8
7
100
AcDbLine
 10
4.891732283464566
 20
7.625
 30
0.0
 11
4.891732283464566
 21
7.626968503937007
 31
0.0
  0
LINE
  5
3408
330
1E
100
AcDbEntity
  8
7
100
AcDbLine
 10
4.891732283464566
 20
7.626968503937007
 30
0.0
 11
4.891732283464566
 21
7.630905511811024
 31
0.0
  0
LINE
  5
3409
330
1E
100
AcDbEntity
  8
7
100
AcDbLine
 10
4.840551181102362
 20
7.625
 30
0.0
 11
4.840551181102362
 21
7.626968503937007
 31
0.0
  0
LINE
  5
340A
330
1E
100
AcDbEntity
  8
7
100
AcDbLine
 10
4.840551181102362
 20
7.626968503937007
 30
0.0
 11
4.840551181102362
 21
7.630905511811024
 31
0.0
  0
LINE
  5
340B
330
1E
100
AcDbEntity
  8
7
100
AcDbLine
 10
4.810039370078739
 20
7.61023622047244
 30
0.0
 11
4.804133858267715
 21
7.600393700787401
 31
0.0
  0
LINE
  5
340C
330
1E
100
AcDbEntity
  8
7
100
AcDbLine
 10
4.804133858267715
 20
7.600393700787401
 30
0.0
 11
4.790354330708661
 21
7.595472440944881
 31
0.0
  0
LINE
  5
340D
330
1E
100
AcDbEntity
  8
7
100
AcDbLine
 10
4.172244094488188
 20
7.370078740157479
 30
0.0
 11
4.227362204724409
 21
7.370078740157479
 31
0.0
  0
LINE
  5
340E
330
1E
100
AcDbEntity
  8
7
100
AcDbLine
 10
4.227362204724409
 20
7.370078740157479
 30
0.0
 11
4.232283464566928
 21
7.368110236220472
 31
0.0
  0
LINE
  5
340F
330
1E
100
AcDbEntity
  8
7
100
AcDbLine
 10
4.232283464566928
 20
7.368110236220472
 30
0.0
 11
4.23523622047244
 21
7.364173228346455
 31
0.0
  0
LINE
  5
3410
330
1E
100
AcDbEntity
  8
7
100
AcDbLine
 10
4.946850393700787
 20
7.670275590551181
 30
0.0
 11
4.942913385826771
 21
7.655511811023622
 31
0.0
  0
LINE
  5
3411
330
1E
100
AcDbEntity
  8
7
100
AcDbLine
 10
4.942913385826771
 20
7.655511811023622
 30
0.0
 11
4.931102362204724
 21
7.64271653543307
 31
0.0
  0
LINE
  5
3412
330
1E
100
AcDbEntity
  8
7
100
AcDbLine
 10
4.931102362204724
 20
7.64271653543307
 30
0.0
 11
4.913385826771652
 21
7.633858267716535
 31
0.0
  0
LINE
  5
3413
330
1E
100
AcDbEntity
  8
7
100
AcDbLine
 10
4.913385826771652
 20
7.633858267716535
 30
0.0
 11
4.891732283464566
 21
7.630905511811024
 31
0.0
  0
LINE
  5
3414
330
1E
100
AcDbEntity
  8
7
100
AcDbLine
 10
4.891732283464566
 20
7.708661417322835
 30
0.0
 11
4.913385826771652
 21
7.705708661417322
 31
0.0
  0
LINE
  5
3415
330
1E
100
AcDbEntity
  8
7
100
AcDbLine
 10
4.913385826771652
 20
7.705708661417322
 30
0.0
 11
4.931102362204724
 21
7.69783464566929
 31
0.0
  0
LINE
  5
3416
330
1E
100
AcDbEntity
  8
7
100
AcDbLine
 10
4.931102362204724
 20
7.69783464566929
 30
0.0
 11
4.942913385826771
 21
7.685039370078738
 31
0.0
  0
LINE
  5
3417
330
1E
100
AcDbEntity
  8
7
100
AcDbLine
 10
4.942913385826771
 20
7.685039370078738
 30
0.0
 11
4.946850393700787
 21
7.670275590551181
 31
0.0
  0
LINE
  5
3418
330
1E
100
AcDbEntity
  8
7
100
AcDbLine
 10
4.840551181102362
 20
7.630905511811024
 30
0.0
 11
4.814960629921259
 21
7.626968503937007
 31
0.0
  0
LINE
  5
3419
330
1E
100
AcDbEntity
  8
7
100
AcDbLine
 10
4.814960629921259
 20
7.626968503937007
 30
0.0
 11
4.797244094488188
 21
7.613188976377951
 31
0.0
  0
LINE
  5
341A
330
1E
100
AcDbEntity
  8
7
100
AcDbLine
 10
4.797244094488188
 20
7.613188976377951
 30
0.0
 11
4.790354330708661
 21
7.595472440944881
 31
0.0
  0
LINE
  5
341B
330
1E
100
AcDbEntity
  8
7
100
AcDbLine
 10
4.23523622047244
 20
7.351377952755905
 30
0.0
 11
4.23523622047244
 21
7.358267716535433
 31
0.0
  0
LINE
  5
341C
330
1E
100
AcDbEntity
  8
7
100
AcDbLine
 10
4.23523622047244
 20
7.358267716535433
 30
0.0
 11
4.23523622047244
 21
7.364173228346455
 31
0.0
  0
LINE
  5
341D
330
1E
100
AcDbEntity
  8
7
100
AcDbLine
 10
4.284448818897637
 20
7.349409448818898
 30
0.0
 11
4.284448818897637
 21
7.357283464566929
 31
0.0
  0
LINE
  5
341E
330
1E
100
AcDbEntity
  8
7
100
AcDbLine
 10
4.284448818897637
 20
7.357283464566929
 30
0.0
 11
4.284448818897637
 21
7.364173228346455
 31
0.0
  0
LINE
  5
341F
330
1E
100
AcDbEntity
  8
7
100
AcDbLine
 10
4.284448818897637
 20
7.364173228346455
 30
0.0
 11
4.23523622047244
 21
7.364173228346455
 31
0.0
  0
LINE
  5
3420
330
1E
100
AcDbEntity
  8
7
100
AcDbLine
 10
4.284448818897637
 20
7.326771653543307
 30
0.0
 11
4.284448818897637
 21
7.310039370078738
 31
0.0
  0
LINE
  5
3421
330
1E
100
AcDbEntity
  8
7
100
AcDbLine
 10
4.284448818897637
 20
7.310039370078738
 30
0.0
 11
4.284448818897637
 21
7.303149606299212
 31
0.0
  0
LINE
  5
3422
330
1E
100
AcDbEntity
  8
7
100
AcDbLine
 10
4.824803149606299
 20
7.323818897637794
 30
0.0
 11
4.817913385826771
 21
7.326771653543307
 31
0.0
  0
LINE
  5
3423
330
1E
100
AcDbEntity
  8
7
100
AcDbLine
 10
4.817913385826771
 20
7.326771653543307
 30
0.0
 11
4.817913385826771
 21
7.331692913385825
 31
0.0
  0
LINE
  5
3424
330
1E
100
AcDbEntity
  8
7
100
AcDbLine
 10
4.817913385826771
 20
7.331692913385825
 30
0.0
 11
4.824803149606299
 21
7.334645669291338
 31
0.0
  0
LINE
  5
3425
330
1E
100
AcDbEntity
  8
7
100
AcDbLine
 10
4.790354330708661
 20
7.364173228346455
 30
0.0
 11
4.790354330708661
 21
7.357283464566929
 31
0.0
  0
LINE
  5
3426
330
1E
100
AcDbEntity
  8
7
100
AcDbLine
 10
4.790354330708661
 20
7.357283464566929
 30
0.0
 11
4.790354330708661
 21
7.349409448818898
 31
0.0
  0
LINE
  5
3427
330
1E
100
AcDbEntity
  8
7
100
AcDbLine
 10
4.790354330708661
 20
7.364173228346455
 30
0.0
 11
4.804133858267715
 21
7.368110236220472
 31
0.0
  0
LINE
  5
3428
330
1E
100
AcDbEntity
  8
7
100
AcDbLine
 10
4.804133858267715
 20
7.368110236220472
 30
0.0
 11
4.810039370078739
 21
7.377952755905511
 31
0.0
  0
LINE
  5
3429
330
1E
100
AcDbEntity
  8
7
100
AcDbLine
 10
4.810039370078739
 20
7.375984251968503
 30
0.0
 11
4.810039370078739
 21
7.376968503937007
 31
0.0
  0
LINE
  5
342A
330
1E
100
AcDbEntity
  8
7
100
AcDbLine
 10
4.810039370078739
 20
7.376968503937007
 30
0.0
 11
4.810039370078739
 21
7.377952755905511
 31
0.0
  0
LINE
  5
342B
330
1E
100
AcDbEntity
  8
7
100
AcDbLine
 10
4.806102362204724
 20
7.349409448818898
 30
0.0
 11
4.80511811023622
 21
7.354330708661416
 31
0.0
  0
LINE
  5
342C
330
1E
100
AcDbEntity
  8
7
100
AcDbLine
 10
4.80511811023622
 20
7.354330708661416
 30
0.0
 11
4.80511811023622
 21
7.359251968503937
 31
0.0
  0
LINE
  5
342D
330
1E
100
AcDbEntity
  8
7
100
AcDbLine
 10
4.80511811023622
 20
7.359251968503937
 30
0.0
 11
4.808070866141731
 21
7.367125984251968
 31
0.0
  0
LINE
  5
342E
330
1E
100
AcDbEntity
  8
7
100
AcDbLine
 10
4.808070866141731
 20
7.367125984251968
 30
0.0
 11
4.810039370078739
 21
7.374015748031496
 31
0.0
  0
LINE
  5
342F
330
1E
100
AcDbEntity
  8
7
100
AcDbLine
 10
4.810039370078739
 20
7.374015748031496
 30
0.0
 11
4.810039370078739
 21
7.375984251968503
 31
0.0
  0
LINE
  5
3430
330
1E
100
AcDbEntity
  8
7
100
AcDbLine
 10
4.806102362204724
 20
7.312007874015748
 30
0.0
 11
4.808070866141731
 21
7.314960629921259
 31
0.0
  0
LINE
  5
3431
330
1E
100
AcDbEntity
  8
7
100
AcDbLine
 10
4.808070866141731
 20
7.314960629921259
 30
0.0
 11
4.809055118110236
 21
7.316929133858266
 31
0.0
  0
LINE
  5
3432
330
1E
100
AcDbEntity
  8
7
100
AcDbLine
 10
4.809055118110236
 20
7.316929133858266
 30
0.0
 11
4.810039370078739
 21
7.325787401574803
 31
0.0
  0
LINE
  5
3433
330
1E
100
AcDbEntity
  8
7
100
AcDbLine
 10
4.810039370078739
 20
7.325787401574803
 30
0.0
 11
4.810039370078739
 21
7.328740157480314
 31
0.0
  0
LINE
  5
3434
330
1E
100
AcDbEntity
  8
7
100
AcDbLine
 10
4.810039370078739
 20
7.328740157480314
 30
0.0
 11
4.809055118110236
 21
7.340551181102361
 31
0.0
  0
LINE
  5
3435
330
1E
100
AcDbEntity
  8
7
100
AcDbLine
 10
4.809055118110236
 20
7.340551181102361
 30
0.0
 11
4.809055118110236
 21
7.341535433070866
 31
0.0
  0
LINE
  5
3436
330
1E
100
AcDbEntity
  8
7
100
AcDbLine
 10
4.806102362204724
 20
7.348425196850392
 30
0.0
 11
4.806102362204724
 21
7.349409448818898
 31
0.0
  0
LINE
  5
3437
330
1E
100
AcDbEntity
  8
7
100
AcDbLine
 10
4.806102362204724
 20
7.349409448818898
 30
0.0
 11
4.799212598425196
 21
7.349409448818898
 31
0.0
  0
LINE
  5
3438
330
1E
100
AcDbEntity
  8
7
100
AcDbLine
 10
4.799212598425196
 20
7.349409448818898
 30
0.0
 11
4.790354330708661
 21
7.349409448818898
 31
0.0
  0
LINE
  5
3439
330
1E
100
AcDbEntity
  8
7
100
AcDbLine
 10
4.790354330708661
 20
7.349409448818898
 30
0.0
 11
4.790354330708661
 21
7.326771653543307
 31
0.0
  0
LINE
  5
343A
330
1E
100
AcDbEntity
  8
7
100
AcDbLine
 10
4.790354330708661
 20
7.326771653543307
 30
0.0
 11
4.790354330708661
 21
7.310039370078738
 31
0.0
  0
LINE
  5
343B
330
1E
100
AcDbEntity
  8
7
100
AcDbLine
 10
4.790354330708661
 20
7.310039370078738
 30
0.0
 11
4.790354330708661
 21
7.303149606299212
 31
0.0
  0
LINE
  5
343C
330
1E
100
AcDbEntity
  8
7
100
AcDbLine
 10
4.760826771653542
 20
7.349409448818898
 30
0.0
 11
4.760826771653542
 21
7.357283464566929
 31
0.0
  0
LINE
  5
343D
330
1E
100
AcDbEntity
  8
7
100
AcDbLine
 10
4.760826771653542
 20
7.357283464566929
 30
0.0
 11
4.760826771653542
 21
7.364173228346455
 31
0.0
  0
LINE
  5
343E
330
1E
100
AcDbEntity
  8
7
100
AcDbLine
 10
4.760826771653542
 20
7.349409448818898
 30
0.0
 11
4.760826771653542
 21
7.326771653543307
 31
0.0
  0
LINE
  5
343F
330
1E
100
AcDbEntity
  8
7
100
AcDbLine
 10
4.760826771653542
 20
7.326771653543307
 30
0.0
 11
4.760826771653542
 21
7.310039370078738
 31
0.0
  0
LINE
  5
3440
330
1E
100
AcDbEntity
  8
7
100
AcDbLine
 10
4.760826771653542
 20
7.310039370078738
 30
0.0
 11
4.760826771653542
 21
7.303149606299212
 31
0.0
  0
LINE
  5
3441
330
1E
100
AcDbEntity
  8
7
100
AcDbLine
 10
4.810039370078739
 20
7.603346456692912
 30
0.0
 11
4.808070866141731
 21
7.594488188976377
 31
0.0
  0
LINE
  5
3442
330
1E
100
AcDbEntity
  8
7
100
AcDbLine
 10
4.808070866141731
 20
7.594488188976377
 30
0.0
 11
4.8001968503937
 21
7.583661417322835
 31
0.0
  0
LINE
  5
3443
330
1E
100
AcDbEntity
  8
7
100
AcDbLine
 10
4.8001968503937
 20
7.55511811023622
 30
0.0
 11
4.808070866141731
 21
7.545275590551181
 31
0.0
  0
LINE
  5
3444
330
1E
100
AcDbEntity
  8
7
100
AcDbLine
 10
4.808070866141731
 20
7.545275590551181
 30
0.0
 11
4.810039370078739
 21
7.53543307086614
 31
0.0
  0
LINE
  5
3445
330
1E
100
AcDbEntity
  8
7
100
AcDbLine
 10
4.810039370078739
 20
7.528543307086613
 30
0.0
 11
4.808070866141731
 21
7.523622047244094
 31
0.0
  0
LINE
  5
3446
330
1E
100
AcDbEntity
  8
7
100
AcDbLine
 10
4.808070866141731
 20
7.523622047244094
 30
0.0
 11
4.8001968503937
 21
7.523622047244094
 31
0.0
  0
LINE
  5
3447
330
1E
100
AcDbEntity
  8
7
100
AcDbLine
 10
3.584645669291337
 20
7.733267716535433
 30
0.0
 11
3.584645669291337
 21
7.734251968503937
 31
0.0
  0
LINE
  5
3448
330
1E
100
AcDbEntity
  8
7
100
AcDbLine
 10
3.584645669291337
 20
7.734251968503937
 30
0.0
 11
3.584645669291337
 21
7.736220472440944
 31
0.0
  0
LINE
  5
3449
330
1E
100
AcDbEntity
  8
7
100
AcDbLine
 10
3.374015748031496
 20
7.774606299212598
 30
0.0
 11
3.388779527559054
 21
7.758858267716535
 31
0.0
  0
LINE
  5
344A
330
1E
100
AcDbEntity
  8
7
100
AcDbLine
 10
3.388779527559054
 20
7.758858267716535
 30
0.0
 11
3.408464566929133
 21
7.746062992125983
 31
0.0
  0
LINE
  5
344B
330
1E
100
AcDbEntity
  8
7
100
AcDbLine
 10
3.408464566929133
 20
7.746062992125983
 30
0.0
 11
3.433070866141732
 21
7.738188976377951
 31
0.0
  0
LINE
  5
344C
330
1E
100
AcDbEntity
  8
7
100
AcDbLine
 10
3.433070866141732
 20
7.738188976377951
 30
0.0
 11
3.458661417322834
 21
7.736220472440944
 31
0.0
  0
LINE
  5
344D
330
1E
100
AcDbEntity
  8
7
100
AcDbLine
 10
3.458661417322834
 20
7.733267716535433
 30
0.0
 11
3.458661417322834
 21
7.734251968503937
 31
0.0
  0
LINE
  5
344E
330
1E
100
AcDbEntity
  8
7
100
AcDbLine
 10
3.458661417322834
 20
7.734251968503937
 30
0.0
 11
3.458661417322834
 21
7.736220472440944
 31
0.0
  0
LINE
  5
344F
330
1E
100
AcDbEntity
  8
7
100
AcDbLine
 10
3.458661417322834
 20
7.597440944881888
 30
0.0
 11
3.429133858267716
 21
7.600393700787401
 31
0.0
  0
LINE
  5
3450
330
1E
100
AcDbEntity
  8
7
100
AcDbLine
 10
3.429133858267716
 20
7.600393700787401
 30
0.0
 11
3.401574803149605
 21
7.611220472440944
 31
0.0
  0
LINE
  5
3451
330
1E
100
AcDbEntity
  8
7
100
AcDbLine
 10
3.401574803149605
 20
7.611220472440944
 30
0.0
 11
3.380905511811023
 21
7.627952755905511
 31
0.0
  0
LINE
  5
3452
330
1E
100
AcDbEntity
  8
7
100
AcDbLine
 10
3.405511811023621
 20
7.625
 30
0.0
 11
3.43011811023622
 21
7.615157480314961
 31
0.0
  0
LINE
  5
3453
330
1E
100
AcDbEntity
  8
7
100
AcDbLine
 10
3.43011811023622
 20
7.615157480314961
 30
0.0
 11
3.458661417322834
 21
7.611220472440944
 31
0.0
  0
LINE
  5
3454
330
1E
100
AcDbEntity
  8
7
100
AcDbLine
 10
3.458661417322834
 20
7.783464566929133
 30
0.0
 11
3.424212598425196
 21
7.788385826771653
 31
0.0
  0
LINE
  5
3455
330
1E
100
AcDbEntity
  8
7
100
AcDbLine
 10
3.424212598425196
 20
7.788385826771653
 30
0.0
 11
3.394685039370078
 21
7.802165354330707
 31
0.0
  0
LINE
  5
3456
330
1E
100
AcDbEntity
  8
7
100
AcDbLine
 10
3.394685039370078
 20
7.802165354330707
 30
0.0
 11
3.374015748031496
 21
7.82283464566929
 31
0.0
  0
LINE
  5
3457
330
1E
100
AcDbEntity
  8
7
100
AcDbLine
 10
3.374015748031496
 20
7.82283464566929
 30
0.0
 11
3.368110236220472
 21
7.835629921259842
 31
0.0
  0
LINE
  5
3458
330
1E
100
AcDbEntity
  8
7
100
AcDbLine
 10
3.368110236220472
 20
7.835629921259842
 30
0.0
 11
3.366141732283464
 21
7.849409448818898
 31
0.0
  0
LINE
  5
3459
330
1E
100
AcDbEntity
  8
7
100
AcDbLine
 10
3.366141732283464
 20
7.849409448818898
 30
0.0
 11
3.371062992125984
 21
7.869094488188975
 31
0.0
  0
LINE
  5
345A
330
1E
100
AcDbEntity
  8
7
100
AcDbLine
 10
3.371062992125984
 20
7.869094488188975
 30
0.0
 11
3.383858267716535
 21
7.88779527559055
 31
0.0
  0
LINE
  5
345B
330
1E
100
AcDbEntity
  8
7
100
AcDbLine
 10
3.383858267716535
 20
7.88779527559055
 30
0.0
 11
3.404527559055117
 21
7.901574803149605
 31
0.0
  0
LINE
  5
345C
330
1E
100
AcDbEntity
  8
7
100
AcDbLine
 10
3.404527559055117
 20
7.901574803149605
 30
0.0
 11
3.43011811023622
 21
7.911417322834644
 31
0.0
  0
LINE
  5
345D
330
1E
100
AcDbEntity
  8
7
100
AcDbLine
 10
3.43011811023622
 20
7.911417322834644
 30
0.0
 11
3.458661417322834
 21
7.914370078740157
 31
0.0
  0
LINE
  5
345E
330
1E
100
AcDbEntity
  8
7
100
AcDbLine
 10
3.723425196850393
 20
7.210629921259842
 30
0.0
 11
3.724409448818897
 21
7.211614173228346
 31
0.0
  0
LINE
  5
345F
330
1E
100
AcDbEntity
  8
7
100
AcDbLine
 10
3.724409448818897
 20
7.211614173228346
 30
0.0
 11
3.723425196850393
 21
7.211614173228346
 31
0.0
  0
LINE
  5
3460
330
1E
100
AcDbEntity
  8
7
100
AcDbLine
 10
3.470472440944881
 20
7.280511811023622
 30
0.0
 11
3.470472440944881
 21
7.284448818897637
 31
0.0
  0
LINE
  5
3461
330
1E
100
AcDbEntity
  8
7
100
AcDbLine
 10
3.470472440944881
 20
7.284448818897637
 30
0.0
 11
3.469488188976377
 21
7.296259842519685
 31
0.0
  0
LINE
  5
3462
330
1E
100
AcDbEntity
  8
7
100
AcDbLine
 10
3.469488188976377
 20
7.296259842519685
 30
0.0
 11
3.470472440944881
 21
7.313976377952755
 31
0.0
  0
LINE
  5
3463
330
1E
100
AcDbEntity
  8
7
100
AcDbLine
 10
3.470472440944881
 20
7.313976377952755
 30
0.0
 11
3.470472440944881
 21
7.335629921259842
 31
0.0
  0
LINE
  5
3464
330
1E
100
AcDbEntity
  8
7
100
AcDbLine
 10
3.470472440944881
 20
7.335629921259842
 30
0.0
 11
3.471456692913385
 21
7.359251968503937
 31
0.0
  0
LINE
  5
3465
330
1E
100
AcDbEntity
  8
7
100
AcDbLine
 10
3.471456692913385
 20
7.359251968503937
 30
0.0
 11
3.472440944881889
 21
7.380905511811024
 31
0.0
  0
LINE
  5
3466
330
1E
100
AcDbEntity
  8
7
100
AcDbLine
 10
3.472440944881889
 20
7.380905511811024
 30
0.0
 11
3.473425196850393
 21
7.399606299212598
 31
0.0
  0
LINE
  5
3467
330
1E
100
AcDbEntity
  8
7
100
AcDbLine
 10
3.473425196850393
 20
7.399606299212598
 30
0.0
 11
3.474409448818897
 21
7.411417322834644
 31
0.0
  0
LINE
  5
3468
330
1E
100
AcDbEntity
  8
7
100
AcDbLine
 10
3.470472440944881
 20
7.347440944881888
 30
0.0
 11
3.469488188976377
 21
7.324803149606298
 31
0.0
  0
LINE
  5
3469
330
1E
100
AcDbEntity
  8
7
100
AcDbLine
 10
3.469488188976377
 20
7.324803149606298
 30
0.0
 11
3.468503937007874
 21
7.304133858267716
 31
0.0
  0
LINE
  5
346A
330
1E
100
AcDbEntity
  8
7
100
AcDbLine
 10
3.468503937007874
 20
7.304133858267716
 30
0.0
 11
3.468503937007874
 21
7.286417322834644
 31
0.0
  0
LINE
  5
346B
330
1E
100
AcDbEntity
  8
7
100
AcDbLine
 10
3.468503937007874
 20
7.286417322834644
 30
0.0
 11
3.465551181102362
 21
7.281496062992125
 31
0.0
  0
LINE
  5
346C
330
1E
100
AcDbEntity
  8
7
100
AcDbLine
 10
3.465551181102362
 20
7.281496062992125
 30
0.0
 11
3.458661417322834
 21
7.279527559055118
 31
0.0
  0
LINE
  5
346D
330
1E
100
AcDbEntity
  8
7
100
AcDbLine
 10
3.470472440944881
 20
7.347440944881888
 30
0.0
 11
3.467519685039369
 21
7.348425196850392
 31
0.0
  0
LINE
  5
346E
330
1E
100
AcDbEntity
  8
7
100
AcDbLine
 10
3.467519685039369
 20
7.348425196850392
 30
0.0
 11
3.460629921259842
 21
7.348425196850392
 31
0.0
  0
LINE
  5
346F
330
1E
100
AcDbEntity
  8
7
100
AcDbLine
 10
3.476377952755905
 20
7.38779527559055
 30
0.0
 11
3.476377952755905
 21
7.401574803149605
 31
0.0
  0
LINE
  5
3470
330
1E
100
AcDbEntity
  8
7
100
AcDbLine
 10
3.476377952755905
 20
7.401574803149605
 30
0.0
 11
3.4753937007874
 21
7.408464566929133
 31
0.0
  0
LINE
  5
3471
330
1E
100
AcDbEntity
  8
7
100
AcDbLine
 10
3.366141732283464
 20
7.290354330708661
 30
0.0
 11
3.366141732283464
 21
7.316929133858266
 31
0.0
  0
LINE
  5
3472
330
1E
100
AcDbEntity
  8
7
100
AcDbLine
 10
3.366141732283464
 20
7.316929133858266
 30
0.0
 11
3.366141732283464
 21
7.348425196850392
 31
0.0
  0
LINE
  5
3473
330
1E
100
AcDbEntity
  8
7
100
AcDbLine
 10
3.366141732283464
 20
7.290354330708661
 30
0.0
 11
3.371062992125984
 21
7.282480314960629
 31
0.0
  0
LINE
  5
3474
330
1E
100
AcDbEntity
  8
7
100
AcDbLine
 10
3.371062992125984
 20
7.282480314960629
 30
0.0
 11
3.381889763779527
 21
7.279527559055118
 31
0.0
  0
LINE
  5
3475
330
1E
100
AcDbEntity
  8
7
100
AcDbLine
 10
3.366141732283464
 20
7.52263779527559
 30
0.0
 11
3.371062992125984
 21
7.493110236220472
 31
0.0
  0
LINE
  5
3476
330
1E
100
AcDbEntity
  8
7
100
AcDbLine
 10
3.371062992125984
 20
7.493110236220472
 30
0.0
 11
3.381889763779527
 21
7.465551181102361
 31
0.0
  0
LINE
  5
3477
330
1E
100
AcDbEntity
  8
7
100
AcDbLine
 10
3.366141732283464
 20
7.348425196850392
 30
0.0
 11
3.371062992125984
 21
7.348425196850392
 31
0.0
  0
LINE
  5
3478
330
1E
100
AcDbEntity
  8
7
100
AcDbLine
 10
3.371062992125984
 20
7.348425196850392
 30
0.0
 11
3.381889763779527
 21
7.348425196850392
 31
0.0
  0
LINE
  5
3479
330
1E
100
AcDbEntity
  8
7
100
AcDbLine
 10
3.458661417322834
 20
7.406496062992125
 30
0.0
 11
3.436023622047243
 21
7.41043307086614
 31
0.0
  0
LINE
  5
347A
330
1E
100
AcDbEntity
  8
7
100
AcDbLine
 10
3.436023622047243
 20
7.41043307086614
 30
0.0
 11
3.415354330708661
 21
7.422244094488188
 31
0.0
  0
LINE
  5
347B
330
1E
100
AcDbEntity
  8
7
100
AcDbLine
 10
3.415354330708661
 20
7.422244094488188
 30
0.0
 11
3.396653543307086
 21
7.440944881889762
 31
0.0
  0
LINE
  5
347C
330
1E
100
AcDbEntity
  8
7
100
AcDbLine
 10
3.396653543307086
 20
7.440944881889762
 30
0.0
 11
3.381889763779527
 21
7.465551181102361
 31
0.0
  0
LINE
  5
347D
330
1E
100
AcDbEntity
  8
7
100
AcDbLine
 10
3.381889763779527
 20
7.465551181102361
 30
0.0
 11
3.381889763779527
 21
7.348425196850392
 31
0.0
  0
LINE
  5
347E
330
1E
100
AcDbEntity
  8
7
100
AcDbLine
 10
3.460629921259842
 20
7.597440944881888
 30
0.0
 11
3.458661417322834
 21
7.597440944881888
 31
0.0
  0
LINE
  5
347F
330
1E
100
AcDbEntity
  8
7
100
AcDbLine
 10
3.458661417322834
 20
7.597440944881888
 30
0.0
 11
3.458661417322834
 21
7.406496062992125
 31
0.0
  0
LINE
  5
3480
330
1E
100
AcDbEntity
  8
7
100
AcDbLine
 10
3.458661417322834
 20
7.597440944881888
 30
0.0
 11
3.458661417322834
 21
7.604330708661416
 31
0.0
  0
LINE
  5
3481
330
1E
100
AcDbEntity
  8
7
100
AcDbLine
 10
3.458661417322834
 20
7.604330708661416
 30
0.0
 11
3.458661417322834
 21
7.611220472440944
 31
0.0
  0
LINE
  5
3482
330
1E
100
AcDbEntity
  8
7
100
AcDbLine
 10
3.460629921259842
 20
7.597440944881888
 30
0.0
 11
3.460629921259842
 21
7.604330708661416
 31
0.0
  0
LINE
  5
3483
330
1E
100
AcDbEntity
  8
7
100
AcDbLine
 10
3.460629921259842
 20
7.604330708661416
 30
0.0
 11
3.460629921259842
 21
7.611220472440944
 31
0.0
  0
LINE
  5
3484
330
1E
100
AcDbEntity
  8
7
100
AcDbLine
 10
3.460629921259842
 20
7.611220472440944
 30
0.0
 11
3.468503937007874
 21
7.608267716535433
 31
0.0
  0
LINE
  5
3485
330
1E
100
AcDbEntity
  8
7
100
AcDbLine
 10
3.468503937007874
 20
7.608267716535433
 30
0.0
 11
3.472440944881889
 21
7.602362204724409
 31
0.0
  0
LINE
  5
3486
330
1E
100
AcDbEntity
  8
7
100
AcDbLine
 10
3.46259842519685
 20
7.595472440944881
 30
0.0
 11
3.469488188976377
 21
7.597440944881888
 31
0.0
  0
LINE
  5
3487
330
1E
100
AcDbEntity
  8
7
100
AcDbLine
 10
3.469488188976377
 20
7.597440944881888
 30
0.0
 11
3.472440944881889
 21
7.602362204724409
 31
0.0
  0
LINE
  5
3488
330
1E
100
AcDbEntity
  8
7
100
AcDbLine
 10
3.381889763779527
 20
7.348425196850392
 30
0.0
 11
3.381889763779527
 21
7.311023622047244
 31
0.0
  0
LINE
  5
3489
330
1E
100
AcDbEntity
  8
7
100
AcDbLine
 10
3.381889763779527
 20
7.311023622047244
 30
0.0
 11
3.381889763779527
 21
7.279527559055118
 31
0.0
  0
LINE
  5
348A
330
1E
100
AcDbEntity
  8
7
100
AcDbLine
 10
3.381889763779527
 20
7.279527559055118
 30
0.0
 11
3.458661417322834
 21
7.279527559055118
 31
0.0
  0
LINE
  5
348B
330
1E
100
AcDbEntity
  8
7
100
AcDbLine
 10
3.458661417322834
 20
7.279527559055118
 30
0.0
 11
3.458661417322834
 21
7.299212598425196
 31
0.0
  0
LINE
  5
348C
330
1E
100
AcDbEntity
  8
7
100
AcDbLine
 10
3.458661417322834
 20
7.299212598425196
 30
0.0
 11
3.459645669291337
 21
7.32283464566929
 31
0.0
  0
LINE
  5
348D
330
1E
100
AcDbEntity
  8
7
100
AcDbLine
 10
3.459645669291337
 20
7.32283464566929
 30
0.0
 11
3.460629921259842
 21
7.348425196850392
 31
0.0
  0
LINE
  5
348E
330
1E
100
AcDbEntity
  8
7
100
AcDbLine
 10
4.060039370078739
 20
7.294291338582675
 30
0.0
 11
4.060039370078739
 21
7.3001968503937
 31
0.0
  0
LINE
  5
348F
330
1E
100
AcDbEntity
  8
7
100
AcDbLine
 10
4.060039370078739
 20
7.3001968503937
 30
0.0
 11
4.060039370078739
 21
7.303149606299212
 31
0.0
  0
LINE
  5
3490
330
1E
100
AcDbEntity
  8
7
100
AcDbLine
 10
4.23523622047244
 20
7.315944881889762
 30
0.0
 11
4.060039370078739
 21
7.315944881889762
 31
0.0
  0
LINE
  5
3491
330
1E
100
AcDbEntity
  8
7
100
AcDbLine
 10
4.060039370078739
 20
7.315944881889762
 30
0.0
 11
4.060039370078739
 21
7.306102362204724
 31
0.0
  0
LINE
  5
3492
330
1E
100
AcDbEntity
  8
7
100
AcDbLine
 10
4.060039370078739
 20
7.306102362204724
 30
0.0
 11
4.060039370078739
 21
7.303149606299212
 31
0.0
  0
LINE
  5
3493
330
1E
100
AcDbEntity
  8
7
100
AcDbLine
 10
4.060039370078739
 20
7.351377952755905
 30
0.0
 11
4.060039370078739
 21
7.331692913385825
 31
0.0
  0
LINE
  5
3494
330
1E
100
AcDbEntity
  8
7
100
AcDbLine
 10
4.060039370078739
 20
7.331692913385825
 30
0.0
 11
4.060039370078739
 21
7.315944881889762
 31
0.0
  0
LINE
  5
3495
330
1E
100
AcDbEntity
  8
7
100
AcDbLine
 10
3.936023622047243
 20
7.215551181102362
 30
0.0
 11
3.936023622047243
 21
7.210629921259842
 31
0.0
  0
LINE
  5
3496
330
1E
100
AcDbEntity
  8
7
100
AcDbLine
 10
3.936023622047243
 20
7.210629921259842
 30
0.0
 11
3.936023622047243
 21
7.211614173228346
 31
0.0
  0
LINE
  5
3497
330
1E
100
AcDbEntity
  8
7
100
AcDbLine
 10
4.358267716535432
 20
7.215551181102362
 30
0.0
 11
4.358267716535432
 21
7.210629921259842
 31
0.0
  0
LINE
  5
3498
330
1E
100
AcDbEntity
  8
7
100
AcDbLine
 10
4.358267716535432
 20
7.210629921259842
 30
0.0
 11
4.359251968503937
 21
7.211614173228346
 31
0.0
  0
LINE
  5
3499
330
1E
100
AcDbEntity
  8
7
100
AcDbLine
 10
4.23523622047244
 20
7.294291338582675
 30
0.0
 11
4.23523622047244
 21
7.3001968503937
 31
0.0
  0
LINE
  5
349A
330
1E
100
AcDbEntity
  8
7
100
AcDbLine
 10
4.23523622047244
 20
7.3001968503937
 30
0.0
 11
4.23523622047244
 21
7.303149606299212
 31
0.0
  0
LINE
  5
349B
330
1E
100
AcDbEntity
  8
7
100
AcDbLine
 10
4.23523622047244
 20
7.351377952755905
 30
0.0
 11
4.23523622047244
 21
7.331692913385825
 31
0.0
  0
LINE
  5
349C
330
1E
100
AcDbEntity
  8
7
100
AcDbLine
 10
4.23523622047244
 20
7.331692913385825
 30
0.0
 11
4.23523622047244
 21
7.315944881889762
 31
0.0
  0
LINE
  5
349D
330
1E
100
AcDbEntity
  8
7
100
AcDbLine
 10
4.23523622047244
 20
7.315944881889762
 30
0.0
 11
4.23523622047244
 21
7.306102362204724
 31
0.0
  0
LINE
  5
349E
330
1E
100
AcDbEntity
  8
7
100
AcDbLine
 10
4.23523622047244
 20
7.306102362204724
 30
0.0
 11
4.23523622047244
 21
7.303149606299212
 31
0.0
  0
LINE
  5
349F
330
1E
100
AcDbEntity
  8
7
100
AcDbLine
 10
3.472440944881889
 20
7.270669291338581
 30
0.0
 11
3.472440944881889
 21
7.255905511811024
 31
0.0
  0
LINE
  5
34A0
330
1E
100
AcDbEntity
  8
7
100
AcDbLine
 10
3.472440944881889
 20
7.255905511811024
 30
0.0
 11
3.472440944881889
 21
7.239173228346456
 31
0.0
  0
LINE
  5
34A1
330
1E
100
AcDbEntity
  8
7
100
AcDbLine
 10
3.718503937007874
 20
7.192913385826771
 30
0.0
 11
3.721456692913385
 21
7.230314960629921
 31
0.0
  0
LINE
  5
34A2
330
1E
100
AcDbEntity
  8
7
100
AcDbLine
 10
3.721456692913385
 20
7.230314960629921
 30
0.0
 11
3.938976377952755
 21
7.230314960629921
 31
0.0
  0
LINE
  5
34A3
330
1E
100
AcDbEntity
  8
7
100
AcDbLine
 10
4.82283464566929
 20
7.239173228346456
 30
0.0
 11
3.472440944881889
 21
7.239173228346456
 31
0.0
  0
LINE
  5
34A4
330
1E
100
AcDbEntity
  8
7
100
AcDbLine
 10
3.472440944881889
 20
7.239173228346456
 30
0.0
 11
3.470472440944881
 21
7.192913385826771
 31
0.0
  0
LINE
  5
34A5
330
1E
100
AcDbEntity
  8
7
100
AcDbLine
 10
3.381889763779527
 20
7.143700787401574
 30
0.0
 11
3.374015748031496
 21
7.143700787401574
 31
0.0
  0
LINE
  5
34A6
330
1E
100
AcDbEntity
  8
7
100
AcDbLine
 10
3.374015748031496
 20
7.143700787401574
 30
0.0
 11
3.368110236220472
 21
7.143700787401574
 31
0.0
  0
LINE
  5
34A7
330
1E
100
AcDbEntity
  8
7
100
AcDbLine
 10
3.368110236220472
 20
7.143700787401574
 30
0.0
 11
3.366141732283464
 21
7.143700787401574
 31
0.0
  0
LINE
  5
34A8
330
1E
100
AcDbEntity
  8
7
100
AcDbLine
 10
3.468503937007874
 20
7.143700787401574
 30
0.0
 11
3.465551181102362
 21
7.143700787401574
 31
0.0
  0
LINE
  5
34A9
330
1E
100
AcDbEntity
  8
7
100
AcDbLine
 10
3.465551181102362
 20
7.143700787401574
 30
0.0
 11
3.458661417322834
 21
7.143700787401574
 31
0.0
  0
LINE
  5
34AA
330
1E
100
AcDbEntity
  8
7
100
AcDbLine
 10
3.469488188976377
 20
7.157480314960629
 30
0.0
 11
3.469488188976377
 21
7.174212598425196
 31
0.0
  0
LINE
  5
34AB
330
1E
100
AcDbEntity
  8
7
100
AcDbLine
 10
3.469488188976377
 20
7.174212598425196
 30
0.0
 11
3.470472440944881
 21
7.192913385826771
 31
0.0
  0
LINE
  5
34AC
330
1E
100
AcDbEntity
  8
7
100
AcDbLine
 10
3.470472440944881
 20
7.143700787401574
 30
0.0
 11
3.469488188976377
 21
7.146653543307086
 31
0.0
  0
LINE
  5
34AD
330
1E
100
AcDbEntity
  8
7
100
AcDbLine
 10
3.469488188976377
 20
7.146653543307086
 30
0.0
 11
3.469488188976377
 21
7.157480314960629
 31
0.0
  0
LINE
  5
34AE
330
1E
100
AcDbEntity
  8
7
100
AcDbLine
 10
3.718503937007874
 20
7.192913385826771
 30
0.0
 11
3.717519685039369
 21
7.177165354330708
 31
0.0
  0
LINE
  5
34AF
330
1E
100
AcDbEntity
  8
7
100
AcDbLine
 10
3.717519685039369
 20
7.177165354330708
 30
0.0
 11
3.717519685039369
 21
7.162401574803149
 31
0.0
  0
LINE
  5
34B0
330
1E
100
AcDbEntity
  8
7
100
AcDbLine
 10
3.717519685039369
 20
7.162401574803149
 30
0.0
 11
3.717519685039369
 21
7.150590551181101
 31
0.0
  0
LINE
  5
34B1
330
1E
100
AcDbEntity
  8
7
100
AcDbLine
 10
3.940944881889763
 20
7.192913385826771
 30
0.0
 11
3.941929133858267
 21
7.177165354330708
 31
0.0
  0
LINE
  5
34B2
330
1E
100
AcDbEntity
  8
7
100
AcDbLine
 10
3.941929133858267
 20
7.177165354330708
 30
0.0
 11
3.941929133858267
 21
7.162401574803149
 31
0.0
  0
LINE
  5
34B3
330
1E
100
AcDbEntity
  8
7
100
AcDbLine
 10
3.941929133858267
 20
7.162401574803149
 30
0.0
 11
3.941929133858267
 21
7.150590551181101
 31
0.0
  0
LINE
  5
34B4
330
1E
100
AcDbEntity
  8
7
100
AcDbLine
 10
3.941929133858267
 20
7.150590551181101
 30
0.0
 11
3.717519685039369
 21
7.150590551181101
 31
0.0
  0
LINE
  5
34B5
330
1E
100
AcDbEntity
  8
7
100
AcDbLine
 10
4.354330708661416
 20
7.192913385826771
 30
0.0
 11
4.353346456692912
 21
7.177165354330708
 31
0.0
  0
LINE
  5
34B6
330
1E
100
AcDbEntity
  8
7
100
AcDbLine
 10
4.353346456692912
 20
7.177165354330708
 30
0.0
 11
4.352362204724409
 21
7.162401574803149
 31
0.0
  0
LINE
  5
34B7
330
1E
100
AcDbEntity
  8
7
100
AcDbLine
 10
4.352362204724409
 20
7.162401574803149
 30
0.0
 11
4.352362204724409
 21
7.150590551181101
 31
0.0
  0
LINE
  5
34B8
330
1E
100
AcDbEntity
  8
7
100
AcDbLine
 10
4.575787401574802
 20
7.192913385826771
 30
0.0
 11
4.576771653543306
 21
7.177165354330708
 31
0.0
  0
LINE
  5
34B9
330
1E
100
AcDbEntity
  8
7
100
AcDbLine
 10
4.576771653543306
 20
7.177165354330708
 30
0.0
 11
4.576771653543306
 21
7.162401574803149
 31
0.0
  0
LINE
  5
34BA
330
1E
100
AcDbEntity
  8
7
100
AcDbLine
 10
4.576771653543306
 20
7.162401574803149
 30
0.0
 11
4.576771653543306
 21
7.150590551181101
 31
0.0
  0
LINE
  5
34BB
330
1E
100
AcDbEntity
  8
7
100
AcDbLine
 10
4.23523622047244
 20
7.294291338582675
 30
0.0
 11
4.060039370078739
 21
7.294291338582675
 31
0.0
  0
LINE
  5
34BC
330
1E
100
AcDbEntity
  8
7
100
AcDbLine
 10
4.060039370078739
 20
7.294291338582675
 30
0.0
 11
4.060039370078739
 21
7.291338582677164
 31
0.0
  0
LINE
  5
34BD
330
1E
100
AcDbEntity
  8
7
100
AcDbLine
 10
3.458661417322834
 20
7.783464566929133
 30
0.0
 11
3.458661417322834
 21
7.807086614173227
 31
0.0
  0
LINE
  5
34BE
330
1E
100
AcDbEntity
  8
7
100
AcDbLine
 10
3.458661417322834
 20
7.807086614173227
 30
0.0
 11
3.458661417322834
 21
7.834645669291338
 31
0.0
  0
LINE
  5
34BF
330
1E
100
AcDbEntity
  8
7
100
AcDbLine
 10
3.458661417322834
 20
7.834645669291338
 30
0.0
 11
3.458661417322834
 21
7.863188976377951
 31
0.0
  0
LINE
  5
34C0
330
1E
100
AcDbEntity
  8
7
100
AcDbLine
 10
3.458661417322834
 20
7.863188976377951
 30
0.0
 11
3.458661417322834
 21
7.890748031496062
 31
0.0
  0
LINE
  5
34C1
330
1E
100
AcDbEntity
  8
7
100
AcDbLine
 10
3.458661417322834
 20
7.890748031496062
 30
0.0
 11
3.458661417322834
 21
7.914370078740157
 31
0.0
  0
LINE
  5
34C2
330
1E
100
AcDbEntity
  8
7
100
AcDbLine
 10
3.458661417322834
 20
7.783464566929133
 30
0.0
 11
3.458661417322834
 21
7.736220472440944
 31
0.0
  0
LINE
  5
34C3
330
1E
100
AcDbEntity
  8
7
100
AcDbLine
 10
3.458661417322834
 20
7.736220472440944
 30
0.0
 11
3.584645669291337
 21
7.736220472440944
 31
0.0
  0
LINE
  5
34C4
330
1E
100
AcDbEntity
  8
7
100
AcDbLine
 10
3.366141732283464
 20
8.478346456692912
 30
0.0
 11
3.369094488188975
 21
8.478346456692912
 31
0.0
  0
LINE
  5
34C5
330
1E
100
AcDbEntity
  8
7
100
AcDbLine
 10
3.369094488188975
 20
8.478346456692912
 30
0.0
 11
3.378937007874015
 21
8.478346456692912
 31
0.0
  0
LINE
  5
34C6
330
1E
100
AcDbEntity
  8
7
100
AcDbLine
 10
3.378937007874015
 20
8.478346456692912
 30
0.0
 11
3.393700787401574
 21
8.478346456692912
 31
0.0
  0
LINE
  5
34C7
330
1E
100
AcDbEntity
  8
7
100
AcDbLine
 10
3.393700787401574
 20
8.478346456692912
 30
0.0
 11
3.412401574803149
 21
8.478346456692912
 31
0.0
  0
LINE
  5
34C8
330
1E
100
AcDbEntity
  8
7
100
AcDbLine
 10
3.412401574803149
 20
8.478346456692912
 30
0.0
 11
3.435039370078739
 21
8.478346456692912
 31
0.0
  0
LINE
  5
34C9
330
1E
100
AcDbEntity
  8
7
100
AcDbLine
 10
3.435039370078739
 20
8.478346456692912
 30
0.0
 11
3.458661417322834
 21
8.478346456692912
 31
0.0
  0
LINE
  5
34CA
330
1E
100
AcDbEntity
  8
7
100
AcDbLine
 10
3.375
 20
7.771653543307087
 30
0.0
 11
3.374015748031496
 21
7.773622047244094
 31
0.0
  0
LINE
  5
34CB
330
1E
100
AcDbEntity
  8
7
100
AcDbLine
 10
3.374015748031496
 20
7.773622047244094
 30
0.0
 11
3.374015748031496
 21
7.774606299212598
 31
0.0
  0
LINE
  5
34CC
330
1E
100
AcDbEntity
  8
7
100
AcDbLine
 10
4.570866141732283
 20
7.215551181102362
 30
0.0
 11
4.570866141732283
 21
7.210629921259842
 31
0.0
  0
LINE
  5
34CD
330
1E
100
AcDbEntity
  8
7
100
AcDbLine
 10
4.570866141732283
 20
7.210629921259842
 30
0.0
 11
4.570866141732283
 21
7.211614173228346
 31
0.0
  0
LINE
  5
34CE
330
1E
100
AcDbEntity
  8
7
100
AcDbLine
 10
4.824803149606299
 20
7.143700787401574
 30
0.0
 11
4.824803149606299
 21
7.146653543307086
 31
0.0
  0
LINE
  5
34CF
330
1E
100
AcDbEntity
  8
7
100
AcDbLine
 10
4.824803149606299
 20
7.146653543307086
 30
0.0
 11
4.824803149606299
 21
7.157480314960629
 31
0.0
  0
LINE
  5
34D0
330
1E
100
AcDbEntity
  8
7
100
AcDbLine
 10
4.824803149606299
 20
7.157480314960629
 30
0.0
 11
4.824803149606299
 21
7.174212598425196
 31
0.0
  0
LINE
  5
34D1
330
1E
100
AcDbEntity
  8
7
100
AcDbLine
 10
4.824803149606299
 20
7.174212598425196
 30
0.0
 11
4.824803149606299
 21
7.192913385826771
 31
0.0
  0
LINE
  5
34D2
330
1E
100
AcDbEntity
  8
7
100
AcDbLine
 10
4.821850393700787
 20
7.270669291338581
 30
0.0
 11
4.821850393700787
 21
7.255905511811024
 31
0.0
  0
LINE
  5
34D3
330
1E
100
AcDbEntity
  8
7
100
AcDbLine
 10
4.821850393700787
 20
7.255905511811024
 30
0.0
 11
4.82283464566929
 21
7.239173228346456
 31
0.0
  0
LINE
  5
34D4
330
1E
100
AcDbEntity
  8
7
100
AcDbLine
 10
4.82283464566929
 20
7.239173228346456
 30
0.0
 11
4.824803149606299
 21
7.192913385826771
 31
0.0
  0
LINE
  5
34D5
330
1E
100
AcDbEntity
  8
7
100
AcDbLine
 10
4.913385826771652
 20
7.143700787401574
 30
0.0
 11
4.921259842519684
 21
7.143700787401574
 31
0.0
  0
LINE
  5
34D6
330
1E
100
AcDbEntity
  8
7
100
AcDbLine
 10
4.921259842519684
 20
7.143700787401574
 30
0.0
 11
4.926181102362204
 21
7.143700787401574
 31
0.0
  0
LINE
  5
34D7
330
1E
100
AcDbEntity
  8
7
100
AcDbLine
 10
4.926181102362204
 20
7.143700787401574
 30
0.0
 11
4.928149606299212
 21
7.143700787401574
 31
0.0
  0
LINE
  5
34D8
330
1E
100
AcDbEntity
  8
7
100
AcDbLine
 10
4.913385826771652
 20
7.279527559055118
 30
0.0
 11
4.913385826771652
 21
7.143700787401574
 31
0.0
  0
LINE
  5
34D9
330
1E
100
AcDbEntity
  8
7
100
AcDbLine
 10
4.913385826771652
 20
7.143700787401574
 30
0.0
 11
4.835629921259842
 21
7.143700787401574
 31
0.0
  0
LINE
  5
34DA
330
1E
100
AcDbEntity
  8
7
100
AcDbLine
 10
4.825787401574802
 20
7.286417322834644
 30
0.0
 11
4.825787401574802
 21
7.143700787401574
 31
0.0
  0
LINE
  5
34DB
330
1E
100
AcDbEntity
  8
7
100
AcDbLine
 10
4.825787401574802
 20
7.143700787401574
 30
0.0
 11
4.828740157480314
 21
7.143700787401574
 31
0.0
  0
LINE
  5
34DC
330
1E
100
AcDbEntity
  8
7
100
AcDbLine
 10
4.828740157480314
 20
7.143700787401574
 30
0.0
 11
4.835629921259842
 21
7.143700787401574
 31
0.0
  0
LINE
  5
34DD
330
1E
100
AcDbEntity
  8
7
100
AcDbLine
 10
4.835629921259842
 20
7.143700787401574
 30
0.0
 11
4.835629921259842
 21
7.279527559055118
 31
0.0
  0
LINE
  5
34DE
330
1E
100
AcDbEntity
  8
7
100
AcDbLine
 10
4.889763779527558
 20
7.625
 30
0.0
 11
4.864173228346456
 21
7.615157480314961
 31
0.0
  0
LINE
  5
34DF
330
1E
100
AcDbEntity
  8
7
100
AcDbLine
 10
4.864173228346456
 20
7.615157480314961
 30
0.0
 11
4.835629921259842
 21
7.611220472440944
 31
0.0
  0
LINE
  5
34E0
330
1E
100
AcDbEntity
  8
7
100
AcDbLine
 10
4.823818897637795
 20
7.280511811023622
 30
0.0
 11
4.824803149606299
 21
7.284448818897637
 31
0.0
  0
LINE
  5
34E1
330
1E
100
AcDbEntity
  8
7
100
AcDbLine
 10
4.824803149606299
 20
7.284448818897637
 30
0.0
 11
4.824803149606299
 21
7.296259842519685
 31
0.0
  0
LINE
  5
34E2
330
1E
100
AcDbEntity
  8
7
100
AcDbLine
 10
4.824803149606299
 20
7.296259842519685
 30
0.0
 11
4.824803149606299
 21
7.313976377952755
 31
0.0
  0
LINE
  5
34E3
330
1E
100
AcDbEntity
  8
7
100
AcDbLine
 10
4.824803149606299
 20
7.313976377952755
 30
0.0
 11
4.823818897637795
 21
7.335629921259842
 31
0.0
  0
LINE
  5
34E4
330
1E
100
AcDbEntity
  8
7
100
AcDbLine
 10
4.823818897637795
 20
7.335629921259842
 30
0.0
 11
4.823818897637795
 21
7.359251968503937
 31
0.0
  0
LINE
  5
34E5
330
1E
100
AcDbEntity
  8
7
100
AcDbLine
 10
4.823818897637795
 20
7.359251968503937
 30
0.0
 11
4.821850393700787
 21
7.380905511811024
 31
0.0
  0
LINE
  5
34E6
330
1E
100
AcDbEntity
  8
7
100
AcDbLine
 10
4.821850393700787
 20
7.380905511811024
 30
0.0
 11
4.820866141732283
 21
7.399606299212598
 31
0.0
  0
LINE
  5
34E7
330
1E
100
AcDbEntity
  8
7
100
AcDbLine
 10
4.820866141732283
 20
7.399606299212598
 30
0.0
 11
4.819881889763779
 21
7.411417322834644
 31
0.0
  0
LINE
  5
34E8
330
1E
100
AcDbEntity
  8
7
100
AcDbLine
 10
4.928149606299212
 20
7.348425196850392
 30
0.0
 11
4.924212598425196
 21
7.348425196850392
 31
0.0
  0
LINE
  5
34E9
330
1E
100
AcDbEntity
  8
7
100
AcDbLine
 10
4.924212598425196
 20
7.348425196850392
 30
0.0
 11
4.913385826771652
 21
7.348425196850392
 31
0.0
  0
LINE
  5
34EA
330
1E
100
AcDbEntity
  8
7
100
AcDbLine
 10
4.824803149606299
 20
7.347440944881888
 30
0.0
 11
4.825787401574802
 21
7.324803149606298
 31
0.0
  0
LINE
  5
34EB
330
1E
100
AcDbEntity
  8
7
100
AcDbLine
 10
4.825787401574802
 20
7.324803149606298
 30
0.0
 11
4.825787401574802
 21
7.304133858267716
 31
0.0
  0
LINE
  5
34EC
330
1E
100
AcDbEntity
  8
7
100
AcDbLine
 10
4.825787401574802
 20
7.304133858267716
 30
0.0
 11
4.825787401574802
 21
7.286417322834644
 31
0.0
  0
LINE
  5
34ED
330
1E
100
AcDbEntity
  8
7
100
AcDbLine
 10
4.825787401574802
 20
7.286417322834644
 30
0.0
 11
4.828740157480314
 21
7.281496062992125
 31
0.0
  0
LINE
  5
34EE
330
1E
100
AcDbEntity
  8
7
100
AcDbLine
 10
4.828740157480314
 20
7.281496062992125
 30
0.0
 11
4.835629921259842
 21
7.279527559055118
 31
0.0
  0
LINE
  5
34EF
330
1E
100
AcDbEntity
  8
7
100
AcDbLine
 10
4.821850393700787
 20
7.41043307086614
 30
0.0
 11
4.824803149606299
 21
7.347440944881888
 31
0.0
  0
LINE
  5
34F0
330
1E
100
AcDbEntity
  8
7
100
AcDbLine
 10
4.824803149606299
 20
7.347440944881888
 30
0.0
 11
4.827755905511811
 21
7.348425196850392
 31
0.0
  0
LINE
  5
34F1
330
1E
100
AcDbEntity
  8
7
100
AcDbLine
 10
4.827755905511811
 20
7.348425196850392
 30
0.0
 11
4.834645669291337
 21
7.348425196850392
 31
0.0
  0
LINE
  5
34F2
330
1E
100
AcDbEntity
  8
7
100
AcDbLine
 10
4.821850393700787
 20
7.602362204724409
 30
0.0
 11
4.821850393700787
 21
7.41043307086614
 31
0.0
  0
LINE
  5
34F3
330
1E
100
AcDbEntity
  8
7
100
AcDbLine
 10
4.821850393700787
 20
7.41043307086614
 30
0.0
 11
4.825787401574802
 21
7.407480314960629
 31
0.0
  0
LINE
  5
34F4
330
1E
100
AcDbEntity
  8
7
100
AcDbLine
 10
4.825787401574802
 20
7.407480314960629
 30
0.0
 11
4.83267716535433
 21
7.406496062992125
 31
0.0
  0
LINE
  5
34F5
330
1E
100
AcDbEntity
  8
7
100
AcDbLine
 10
4.913385826771652
 20
7.348425196850392
 30
0.0
 11
4.913385826771652
 21
7.311023622047244
 31
0.0
  0
LINE
  5
34F6
330
1E
100
AcDbEntity
  8
7
100
AcDbLine
 10
4.913385826771652
 20
7.311023622047244
 30
0.0
 11
4.913385826771652
 21
7.279527559055118
 31
0.0
  0
LINE
  5
34F7
330
1E
100
AcDbEntity
  8
7
100
AcDbLine
 10
4.835629921259842
 20
7.279527559055118
 30
0.0
 11
4.835629921259842
 21
7.299212598425196
 31
0.0
  0
LINE
  5
34F8
330
1E
100
AcDbEntity
  8
7
100
AcDbLine
 10
4.835629921259842
 20
7.299212598425196
 30
0.0
 11
4.835629921259842
 21
7.32283464566929
 31
0.0
  0
LINE
  5
34F9
330
1E
100
AcDbEntity
  8
7
100
AcDbLine
 10
4.835629921259842
 20
7.32283464566929
 30
0.0
 11
4.834645669291337
 21
7.348425196850392
 31
0.0
  0
LINE
  5
34FA
330
1E
100
AcDbEntity
  8
7
100
AcDbLine
 10
4.818897637795275
 20
7.38779527559055
 30
0.0
 11
4.818897637795275
 21
7.401574803149605
 31
0.0
  0
LINE
  5
34FB
330
1E
100
AcDbEntity
  8
7
100
AcDbLine
 10
4.818897637795275
 20
7.401574803149605
 30
0.0
 11
4.818897637795275
 21
7.408464566929133
 31
0.0
  0
LINE
  5
34FC
330
1E
100
AcDbEntity
  8
7
100
AcDbLine
 10
4.834645669291337
 20
7.611220472440944
 30
0.0
 11
4.825787401574802
 21
7.608267716535433
 31
0.0
  0
LINE
  5
34FD
330
1E
100
AcDbEntity
  8
7
100
AcDbLine
 10
4.825787401574802
 20
7.608267716535433
 30
0.0
 11
4.821850393700787
 21
7.602362204724409
 31
0.0
  0
LINE
  5
34FE
330
1E
100
AcDbEntity
  8
7
100
AcDbLine
 10
4.83267716535433
 20
7.595472440944881
 30
0.0
 11
4.825787401574802
 21
7.597440944881888
 31
0.0
  0
LINE
  5
34FF
330
1E
100
AcDbEntity
  8
7
100
AcDbLine
 10
4.825787401574802
 20
7.597440944881888
 30
0.0
 11
4.821850393700787
 21
7.602362204724409
 31
0.0
  0
LINE
  5
3500
330
1E
100
AcDbEntity
  8
7
100
AcDbLine
 10
4.835629921259842
 20
7.597440944881888
 30
0.0
 11
4.835629921259842
 21
7.604330708661416
 31
0.0
  0
LINE
  5
3501
330
1E
100
AcDbEntity
  8
7
100
AcDbLine
 10
4.835629921259842
 20
7.604330708661416
 30
0.0
 11
4.835629921259842
 21
7.611220472440944
 31
0.0
  0
LINE
  5
3502
330
1E
100
AcDbEntity
  8
7
100
AcDbLine
 10
4.835629921259842
 20
7.611220472440944
 30
0.0
 11
4.834645669291337
 21
7.611220472440944
 31
0.0
  0
LINE
  5
3503
330
1E
100
AcDbEntity
  8
7
100
AcDbLine
 10
4.834645669291337
 20
7.597440944881888
 30
0.0
 11
4.834645669291337
 21
7.604330708661416
 31
0.0
  0
LINE
  5
3504
330
1E
100
AcDbEntity
  8
7
100
AcDbLine
 10
4.834645669291337
 20
7.604330708661416
 30
0.0
 11
4.834645669291337
 21
7.611220472440944
 31
0.0
  0
LINE
  5
3505
330
1E
100
AcDbEntity
  8
7
100
AcDbLine
 10
4.928149606299212
 20
7.52263779527559
 30
0.0
 11
4.924212598425196
 21
7.493110236220472
 31
0.0
  0
LINE
  5
3506
330
1E
100
AcDbEntity
  8
7
100
AcDbLine
 10
4.924212598425196
 20
7.493110236220472
 30
0.0
 11
4.913385826771652
 21
7.465551181102361
 31
0.0
  0
LINE
  5
3507
330
1E
100
AcDbEntity
  8
7
100
AcDbLine
 10
4.835629921259842
 20
7.597440944881888
 30
0.0
 11
4.835629921259842
 21
7.406496062992125
 31
0.0
  0
LINE
  5
3508
330
1E
100
AcDbEntity
  8
7
100
AcDbLine
 10
4.835629921259842
 20
7.406496062992125
 30
0.0
 11
4.858267716535432
 21
7.41043307086614
 31
0.0
  0
LINE
  5
3509
330
1E
100
AcDbEntity
  8
7
100
AcDbLine
 10
4.858267716535432
 20
7.41043307086614
 30
0.0
 11
4.879921259842519
 21
7.422244094488188
 31
0.0
  0
LINE
  5
350A
330
1E
100
AcDbEntity
  8
7
100
AcDbLine
 10
4.879921259842519
 20
7.422244094488188
 30
0.0
 11
4.898622047244094
 21
7.440944881889762
 31
0.0
  0
LINE
  5
350B
330
1E
100
AcDbEntity
  8
7
100
AcDbLine
 10
4.898622047244094
 20
7.440944881889762
 30
0.0
 11
4.913385826771652
 21
7.465551181102361
 31
0.0
  0
LINE
  5
350C
330
1E
100
AcDbEntity
  8
7
100
AcDbLine
 10
4.866141732283463
 20
7.600393700787401
 30
0.0
 11
4.89271653543307
 21
7.611220472440944
 31
0.0
  0
LINE
  5
350D
330
1E
100
AcDbEntity
  8
7
100
AcDbLine
 10
4.89271653543307
 20
7.611220472440944
 30
0.0
 11
4.914370078740157
 21
7.627952755905511
 31
0.0
  0
LINE
  5
350E
330
1E
100
AcDbEntity
  8
7
100
AcDbLine
 10
4.928149606299212
 20
7.290354330708661
 30
0.0
 11
4.928149606299212
 21
7.316929133858266
 31
0.0
  0
LINE
  5
350F
330
1E
100
AcDbEntity
  8
7
100
AcDbLine
 10
4.928149606299212
 20
7.316929133858266
 30
0.0
 11
4.928149606299212
 21
7.348425196850392
 31
0.0
  0
LINE
  5
3510
330
1E
100
AcDbEntity
  8
7
100
AcDbLine
 10
4.919291338582676
 20
7.771653543307087
 30
0.0
 11
4.92027559055118
 21
7.773622047244094
 31
0.0
  0
LINE
  5
3511
330
1E
100
AcDbEntity
  8
7
100
AcDbLine
 10
4.92027559055118
 20
7.773622047244094
 30
0.0
 11
4.92027559055118
 21
7.774606299212598
 31
0.0
  0
LINE
  5
3512
330
1E
100
AcDbEntity
  8
7
100
AcDbLine
 10
4.928149606299212
 20
7.849409448818898
 30
0.0
 11
4.928149606299212
 21
8.478346456692912
 31
0.0
  0
LINE
  5
3513
330
1E
100
AcDbEntity
  8
7
100
AcDbLine
 10
4.928149606299212
 20
8.478346456692912
 30
0.0
 11
4.9251968503937
 21
8.478346456692912
 31
0.0
  0
LINE
  5
3514
330
1E
100
AcDbEntity
  8
7
100
AcDbLine
 10
4.9251968503937
 20
8.478346456692912
 30
0.0
 11
4.916338582677164
 21
8.478346456692912
 31
0.0
  0
LINE
  5
3515
330
1E
100
AcDbEntity
  8
7
100
AcDbLine
 10
4.916338582677164
 20
8.478346456692912
 30
0.0
 11
4.901574803149605
 21
8.478346456692912
 31
0.0
  0
LINE
  5
3516
330
1E
100
AcDbEntity
  8
7
100
AcDbLine
 10
4.901574803149605
 20
8.478346456692912
 30
0.0
 11
4.881889763779526
 21
8.478346456692912
 31
0.0
  0
LINE
  5
3517
330
1E
100
AcDbEntity
  8
7
100
AcDbLine
 10
4.881889763779526
 20
8.478346456692912
 30
0.0
 11
4.859251968503937
 21
8.478346456692912
 31
0.0
  0
LINE
  5
3518
330
1E
100
AcDbEntity
  8
7
100
AcDbLine
 10
4.859251968503937
 20
8.478346456692912
 30
0.0
 11
4.835629921259842
 21
8.478346456692912
 31
0.0
  0
LINE
  5
3519
330
1E
100
AcDbEntity
  8
7
100
AcDbLine
 10
4.835629921259842
 20
8.478346456692912
 30
0.0
 11
4.835629921259842
 21
7.914370078740157
 31
0.0
  0
LINE
  5
351A
330
1E
100
AcDbEntity
  8
7
100
AcDbLine
 10
4.92027559055118
 20
7.82283464566929
 30
0.0
 11
4.926181102362204
 21
7.835629921259842
 31
0.0
  0
LINE
  5
351B
330
1E
100
AcDbEntity
  8
7
100
AcDbLine
 10
4.926181102362204
 20
7.835629921259842
 30
0.0
 11
4.928149606299212
 21
7.849409448818898
 31
0.0
  0
LINE
  5
351C
330
1E
100
AcDbEntity
  8
7
100
AcDbLine
 10
4.928149606299212
 20
7.849409448818898
 30
0.0
 11
4.924212598425196
 21
7.869094488188975
 31
0.0
  0
LINE
  5
351D
330
1E
100
AcDbEntity
  8
7
100
AcDbLine
 10
4.924212598425196
 20
7.869094488188975
 30
0.0
 11
4.910433070866141
 21
7.88779527559055
 31
0.0
  0
LINE
  5
351E
330
1E
100
AcDbEntity
  8
7
100
AcDbLine
 10
4.910433070866141
 20
7.88779527559055
 30
0.0
 11
4.890748031496062
 21
7.901574803149605
 31
0.0
  0
LINE
  5
351F
330
1E
100
AcDbEntity
  8
7
100
AcDbLine
 10
4.890748031496062
 20
7.901574803149605
 30
0.0
 11
4.864173228346456
 21
7.911417322834644
 31
0.0
  0
LINE
  5
3520
330
1E
100
AcDbEntity
  8
7
100
AcDbLine
 10
4.864173228346456
 20
7.911417322834644
 30
0.0
 11
4.835629921259842
 21
7.914370078740157
 31
0.0
  0
LINE
  5
3521
330
1E
100
AcDbEntity
  8
7
100
AcDbLine
 10
4.835629921259842
 20
7.783464566929133
 30
0.0
 11
4.835629921259842
 21
7.807086614173227
 31
0.0
  0
LINE
  5
3522
330
1E
100
AcDbEntity
  8
7
100
AcDbLine
 10
4.835629921259842
 20
7.807086614173227
 30
0.0
 11
4.835629921259842
 21
7.834645669291338
 31
0.0
  0
LINE
  5
3523
330
1E
100
AcDbEntity
  8
7
100
AcDbLine
 10
4.835629921259842
 20
7.834645669291338
 30
0.0
 11
4.835629921259842
 21
7.863188976377951
 31
0.0
  0
LINE
  5
3524
330
1E
100
AcDbEntity
  8
7
100
AcDbLine
 10
4.835629921259842
 20
7.863188976377951
 30
0.0
 11
4.835629921259842
 21
7.890748031496062
 31
0.0
  0
LINE
  5
3525
330
1E
100
AcDbEntity
  8
7
100
AcDbLine
 10
4.835629921259842
 20
7.890748031496062
 30
0.0
 11
4.835629921259842
 21
7.914370078740157
 31
0.0
  0
LINE
  5
3526
330
1E
100
AcDbEntity
  8
7
100
AcDbLine
 10
4.835629921259842
 20
7.783464566929133
 30
0.0
 11
4.870078740157479
 21
7.788385826771653
 31
0.0
  0
LINE
  5
3527
330
1E
100
AcDbEntity
  8
7
100
AcDbLine
 10
4.870078740157479
 20
7.788385826771653
 30
0.0
 11
4.900590551181101
 21
7.802165354330707
 31
0.0
  0
LINE
  5
3528
330
1E
100
AcDbEntity
  8
7
100
AcDbLine
 10
4.900590551181101
 20
7.802165354330707
 30
0.0
 11
4.92027559055118
 21
7.82283464566929
 31
0.0
  0
LINE
  5
3529
330
1E
100
AcDbEntity
  8
7
100
AcDbLine
 10
4.92027559055118
 20
7.774606299212598
 30
0.0
 11
4.906496062992125
 21
7.758858267716535
 31
0.0
  0
LINE
  5
352A
330
1E
100
AcDbEntity
  8
7
100
AcDbLine
 10
4.906496062992125
 20
7.758858267716535
 30
0.0
 11
4.885826771653542
 21
7.746062992125983
 31
0.0
  0
LINE
  5
352B
330
1E
100
AcDbEntity
  8
7
100
AcDbLine
 10
4.885826771653542
 20
7.746062992125983
 30
0.0
 11
4.862204724409448
 21
7.738188976377951
 31
0.0
  0
LINE
  5
352C
330
1E
100
AcDbEntity
  8
7
100
AcDbLine
 10
4.862204724409448
 20
7.738188976377951
 30
0.0
 11
4.835629921259842
 21
7.736220472440944
 31
0.0
  0
LINE
  5
352D
330
1E
100
AcDbEntity
  8
7
100
AcDbLine
 10
4.835629921259842
 20
7.733267716535433
 30
0.0
 11
4.835629921259842
 21
7.734251968503937
 31
0.0
  0
LINE
  5
352E
330
1E
100
AcDbEntity
  8
7
100
AcDbLine
 10
4.835629921259842
 20
7.734251968503937
 30
0.0
 11
4.835629921259842
 21
7.736220472440944
 31
0.0
  0
LINE
  5
352F
330
1E
100
AcDbEntity
  8
7
100
AcDbLine
 10
4.835629921259842
 20
7.736220472440944
 30
0.0
 11
4.709645669291337
 21
7.736220472440944
 31
0.0
  0
LINE
  5
3530
330
1E
100
AcDbEntity
  8
7
100
AcDbLine
 10
4.709645669291337
 20
7.733267716535433
 30
0.0
 11
4.709645669291337
 21
7.734251968503937
 31
0.0
  0
LINE
  5
3531
330
1E
100
AcDbEntity
  8
7
100
AcDbLine
 10
4.709645669291337
 20
7.734251968503937
 30
0.0
 11
4.709645669291337
 21
7.736220472440944
 31
0.0
  0
LINE
  5
3532
330
1E
100
AcDbEntity
  8
7
100
AcDbLine
 10
3.263779527559054
 20
7.016732283464566
 30
0.0
 11
3.237204724409449
 21
7.019685039370078
 31
0.0
  0
LINE
  5
3533
330
1E
100
AcDbEntity
  8
7
100
AcDbLine
 10
3.237204724409449
 20
7.019685039370078
 30
0.0
 11
3.213582677165354
 21
7.029527559055117
 31
0.0
  0
LINE
  5
3534
330
1E
100
AcDbEntity
  8
7
100
AcDbLine
 10
3.213582677165354
 20
7.029527559055117
 30
0.0
 11
3.192913385826771
 21
7.04527559055118
 31
0.0
  0
LINE
  5
3535
330
1E
100
AcDbEntity
  8
7
100
AcDbLine
 10
3.192913385826771
 20
7.04527559055118
 30
0.0
 11
3.177165354330708
 21
7.065944881889763
 31
0.0
  0
LINE
  5
3536
330
1E
100
AcDbEntity
  8
7
100
AcDbLine
 10
3.177165354330708
 20
7.065944881889763
 30
0.0
 11
3.167322834645669
 21
7.090551181102362
 31
0.0
  0
LINE
  5
3537
330
1E
100
AcDbEntity
  8
7
100
AcDbLine
 10
3.167322834645669
 20
7.090551181102362
 30
0.0
 11
3.163385826771653
 21
7.116141732283463
 31
0.0
  0
LINE
  5
3538
330
1E
100
AcDbEntity
  8
7
100
AcDbLine
 10
5.028543307086613
 20
7.016732283464566
 30
0.0
 11
3.263779527559054
 21
7.016732283464566
 31
0.0
  0
LINE
  5
3539
330
1E
100
AcDbEntity
  8
7
100
AcDbLine
 10
3.263779527559054
 20
7.016732283464566
 30
0.0
 11
3.263779527559054
 21
7.025590551181101
 31
0.0
  0
LINE
  5
353A
330
1E
100
AcDbEntity
  8
7
100
AcDbLine
 10
3.263779527559054
 20
7.025590551181101
 30
0.0
 11
3.263779527559054
 21
7.046259842519684
 31
0.0
  0
LINE
  5
353B
330
1E
100
AcDbEntity
  8
7
100
AcDbLine
 10
3.359251968503937
 20
7.635826771653542
 30
0.0
 11
3.359251968503937
 21
7.617125984251968
 31
0.0
  0
LINE
  5
353C
330
1E
100
AcDbEntity
  8
7
100
AcDbLine
 10
3.359251968503937
 20
7.617125984251968
 30
0.0
 11
3.359251968503937
 21
7.242125984251968
 31
0.0
  0
LINE
  5
353D
330
1E
100
AcDbEntity
  8
7
100
AcDbLine
 10
3.359251968503937
 20
7.242125984251968
 30
0.0
 11
3.366141732283464
 21
7.242125984251968
 31
0.0
  0
LINE
  5
353E
330
1E
100
AcDbEntity
  8
7
100
AcDbLine
 10
4.932086614173227
 20
7.617125984251968
 30
0.0
 11
4.932086614173227
 21
7.242125984251968
 31
0.0
  0
LINE
  5
353F
330
1E
100
AcDbEntity
  8
7
100
AcDbLine
 10
4.932086614173227
 20
7.242125984251968
 30
0.0
 11
4.928149606299212
 21
7.242125984251968
 31
0.0
  0
LINE
  5
3540
330
1E
100
AcDbEntity
  8
7
100
AcDbLine
 10
4.932086614173227
 20
7.902559055118109
 30
0.0
 11
4.934055118110236
 21
7.89763779527559
 31
0.0
  0
LINE
  5
3541
330
1E
100
AcDbEntity
  8
7
100
AcDbLine
 10
4.934055118110236
 20
7.89763779527559
 30
0.0
 11
4.939960629921259
 21
7.894685039370077
 31
0.0
  0
LINE
  5
3542
330
1E
100
AcDbEntity
  8
7
100
AcDbLine
 10
3.359251968503937
 20
7.739173228346455
 30
0.0
 11
3.359251968503937
 21
7.902559055118109
 31
0.0
  0
LINE
  5
3543
330
1E
100
AcDbEntity
  8
7
100
AcDbLine
 10
3.359251968503937
 20
7.902559055118109
 30
0.0
 11
3.357283464566928
 21
7.89763779527559
 31
0.0
  0
LINE
  5
3544
330
1E
100
AcDbEntity
  8
7
100
AcDbLine
 10
3.351377952755905
 20
7.894685039370077
 30
0.0
 11
3.307086614173228
 21
7.894685039370077
 31
0.0
  0
LINE
  5
3545
330
1E
100
AcDbEntity
  8
7
100
AcDbLine
 10
3.307086614173228
 20
7.894685039370077
 30
0.0
 11
3.302165354330708
 21
7.89271653543307
 31
0.0
  0
LINE
  5
3546
330
1E
100
AcDbEntity
  8
7
100
AcDbLine
 10
3.302165354330708
 20
7.89271653543307
 30
0.0
 11
3.299212598425196
 21
7.886811023622046
 31
0.0
  0
LINE
  5
3547
330
1E
100
AcDbEntity
  8
7
100
AcDbLine
 10
3.299212598425196
 20
7.886811023622046
 30
0.0
 11
3.299212598425196
 21
7.734251968503937
 31
0.0
  0
LINE
  5
3548
330
1E
100
AcDbEntity
  8
7
100
AcDbLine
 10
3.299212598425196
 20
7.734251968503937
 30
0.0
 11
3.302165354330708
 21
7.728346456692912
 31
0.0
  0
LINE
  5
3549
330
1E
100
AcDbEntity
  8
7
100
AcDbLine
 10
3.302165354330708
 20
7.728346456692912
 30
0.0
 11
3.307086614173228
 21
7.726377952755905
 31
0.0
  0
LINE
  5
354A
330
1E
100
AcDbEntity
  8
7
100
AcDbLine
 10
3.193897637795275
 20
7.116141732283463
 30
0.0
 11
3.172244094488188
 21
7.116141732283463
 31
0.0
  0
LINE
  5
354B
330
1E
100
AcDbEntity
  8
7
100
AcDbLine
 10
3.172244094488188
 20
7.116141732283463
 30
0.0
 11
3.163385826771653
 21
7.116141732283463
 31
0.0
  0
LINE
  5
354C
330
1E
100
AcDbEntity
  8
7
100
AcDbLine
 10
4.807086614173227
 20
7.13779527559055
 30
0.0
 11
4.9251968503937
 21
7.13779527559055
 31
0.0
  0
LINE
  5
354D
330
1E
100
AcDbEntity
  8
7
100
AcDbLine
 10
4.9251968503937
 20
7.13779527559055
 30
0.0
 11
4.931102362204724
 21
7.139763779527558
 31
0.0
  0
LINE
  5
354E
330
1E
100
AcDbEntity
  8
7
100
AcDbLine
 10
4.931102362204724
 20
7.139763779527558
 30
0.0
 11
4.934055118110236
 21
7.145669291338582
 31
0.0
  0
LINE
  5
354F
330
1E
100
AcDbEntity
  8
7
100
AcDbLine
 10
4.934055118110236
 20
7.145669291338582
 30
0.0
 11
4.934055118110236
 21
7.242125984251968
 31
0.0
  0
LINE
  5
3550
330
1E
100
AcDbEntity
  8
7
100
AcDbLine
 10
3.366141732283464
 20
7.13779527559055
 30
0.0
 11
3.36023622047244
 21
7.139763779527558
 31
0.0
  0
LINE
  5
3551
330
1E
100
AcDbEntity
  8
7
100
AcDbLine
 10
3.36023622047244
 20
7.139763779527558
 30
0.0
 11
3.358267716535433
 21
7.145669291338582
 31
0.0
  0
LINE
  5
3552
330
1E
100
AcDbEntity
  8
7
100
AcDbLine
 10
3.174212598425196
 20
7.063976377952755
 30
0.0
 11
3.164370078740157
 21
7.088582677165353
 31
0.0
  0
LINE
  5
3553
330
1E
100
AcDbEntity
  8
7
100
AcDbLine
 10
3.164370078740157
 20
7.088582677165353
 30
0.0
 11
3.161417322834645
 21
7.114173228346456
 31
0.0
  0
LINE
  5
3554
330
1E
100
AcDbEntity
  8
7
100
AcDbLine
 10
5.030511811023621
 20
7.013779527559054
 30
0.0
 11
3.260826771653543
 21
7.013779527559054
 31
0.0
  0
LINE
  5
3555
330
1E
100
AcDbEntity
  8
7
100
AcDbLine
 10
3.260826771653543
 20
7.013779527559054
 30
0.0
 11
3.23523622047244
 21
7.01771653543307
 31
0.0
  0
LINE
  5
3556
330
1E
100
AcDbEntity
  8
7
100
AcDbLine
 10
3.23523622047244
 20
7.01771653543307
 30
0.0
 11
3.211614173228346
 21
7.02755905511811
 31
0.0
  0
LINE
  5
3557
330
1E
100
AcDbEntity
  8
7
100
AcDbLine
 10
3.211614173228346
 20
7.02755905511811
 30
0.0
 11
3.190944881889763
 21
7.043307086614173
 31
0.0
  0
LINE
  5
3558
330
1E
100
AcDbEntity
  8
7
100
AcDbLine
 10
3.190944881889763
 20
7.043307086614173
 30
0.0
 11
3.174212598425196
 21
7.063976377952755
 31
0.0
  0
LINE
  5
3559
330
1E
100
AcDbEntity
  8
7
100
AcDbLine
 10
4.942913385826771
 20
7.898622047244094
 30
0.0
 11
4.937992125984251
 21
7.900590551181101
 31
0.0
  0
LINE
  5
355A
330
1E
100
AcDbEntity
  8
7
100
AcDbLine
 10
4.937992125984251
 20
7.900590551181101
 30
0.0
 11
4.935039370078739
 21
7.906496062992125
 31
0.0
  0
LINE
  5
355B
330
1E
100
AcDbEntity
  8
7
100
AcDbLine
 10
3.348425196850393
 20
7.898622047244094
 30
0.0
 11
3.354330708661417
 21
7.900590551181101
 31
0.0
  0
LINE
  5
355C
330
1E
100
AcDbEntity
  8
7
100
AcDbLine
 10
3.354330708661417
 20
7.900590551181101
 30
0.0
 11
3.356299212598425
 21
7.906496062992125
 31
0.0
  0
LINE
  5
355D
330
1E
100
AcDbEntity
  8
7
100
AcDbLine
 10
3.296259842519685
 20
7.889763779527559
 30
0.0
 11
3.298228346456692
 21
7.895669291338581
 31
0.0
  0
LINE
  5
355E
330
1E
100
AcDbEntity
  8
7
100
AcDbLine
 10
3.298228346456692
 20
7.895669291338581
 30
0.0
 11
3.304133858267716
 21
7.898622047244094
 31
0.0
  0
LINE
  5
355F
330
1E
100
AcDbEntity
  8
7
100
AcDbLine
 10
3.339566929133858
 20
7.723425196850392
 30
0.0
 11
3.304133858267716
 21
7.723425196850392
 31
0.0
  0
LINE
  5
3560
330
1E
100
AcDbEntity
  8
7
100
AcDbLine
 10
3.304133858267716
 20
7.723425196850392
 30
0.0
 11
3.298228346456692
 21
7.725393700787401
 31
0.0
  0
LINE
  5
3561
330
1E
100
AcDbEntity
  8
7
100
AcDbLine
 10
3.298228346456692
 20
7.725393700787401
 30
0.0
 11
3.296259842519685
 21
7.731299212598424
 31
0.0
  0
LINE
  5
3562
330
1E
100
AcDbEntity
  8
7
100
AcDbLine
 10
3.364173228346456
 20
7.135826771653542
 30
0.0
 11
3.358267716535433
 21
7.13779527559055
 31
0.0
  0
LINE
  5
3563
330
1E
100
AcDbEntity
  8
7
100
AcDbLine
 10
3.358267716535433
 20
7.13779527559055
 30
0.0
 11
3.356299212598425
 21
7.143700787401574
 31
0.0
  0
LINE
  5
3564
330
1E
100
AcDbEntity
  8
7
100
AcDbLine
 10
3.356299212598425
 20
7.143700787401574
 30
0.0
 11
3.356299212598425
 21
7.63779527559055
 31
0.0
  0
LINE
  5
3565
330
1E
100
AcDbEntity
  8
7
100
AcDbLine
 10
4.927165354330708
 20
7.135826771653542
 30
0.0
 11
4.933070866141731
 21
7.13779527559055
 31
0.0
  0
LINE
  5
3566
330
1E
100
AcDbEntity
  8
7
100
AcDbLine
 10
4.933070866141731
 20
7.13779527559055
 30
0.0
 11
4.935039370078739
 21
7.143700787401574
 31
0.0
  0
LINE
  5
3567
330
1E
100
AcDbEntity
  8
7
100
AcDbLine
 10
3.193897637795275
 20
8.880905511811024
 30
0.0
 11
3.193897637795275
 21
7.116141732283463
 31
0.0
  0
LINE
  5
3568
330
1E
100
AcDbEntity
  8
7
100
AcDbLine
 10
3.193897637795275
 20
7.116141732283463
 30
0.0
 11
3.196850393700787
 21
7.094488188976377
 31
0.0
  0
LINE
  5
3569
330
1E
100
AcDbEntity
  8
7
100
AcDbLine
 10
3.196850393700787
 20
7.094488188976377
 30
0.0
 11
3.206692913385826
 21
7.074803149606299
 31
0.0
  0
LINE
  5
356A
330
1E
100
AcDbEntity
  8
7
100
AcDbLine
 10
3.206692913385826
 20
7.074803149606299
 30
0.0
 11
3.222440944881889
 21
7.060039370078739
 31
0.0
  0
LINE
  5
356B
330
1E
100
AcDbEntity
  8
7
100
AcDbLine
 10
3.222440944881889
 20
7.060039370078739
 30
0.0
 11
3.242125984251968
 21
7.0501968503937
 31
0.0
  0
LINE
  5
356C
330
1E
100
AcDbEntity
  8
7
100
AcDbLine
 10
3.242125984251968
 20
7.0501968503937
 30
0.0
 11
3.263779527559054
 21
7.046259842519684
 31
0.0
  0
LINE
  5
356D
330
1E
100
AcDbEntity
  8
7
100
AcDbLine
 10
4.855314960629921
 20
8.946850393700787
 30
0.0
 11
4.863188976377952
 21
8.943897637795275
 31
0.0
  0
LINE
  5
356E
330
1E
100
AcDbEntity
  8
7
100
AcDbLine
 10
4.863188976377952
 20
8.943897637795275
 30
0.0
 11
4.866141732283463
 21
8.937007874015748
 31
0.0
  0
LINE
  5
356F
330
1E
100
AcDbEntity
  8
7
100
AcDbLine
 10
4.86515748031496
 20
8.936023622047244
 30
0.0
 11
4.862204724409448
 21
8.94291338582677
 31
0.0
  0
LINE
  5
3570
330
1E
100
AcDbEntity
  8
7
100
AcDbLine
 10
4.862204724409448
 20
8.94291338582677
 30
0.0
 11
4.854330708661416
 21
8.945866141732283
 31
0.0
  0
LINE
  5
3571
330
1E
100
AcDbEntity
  8
7
100
AcDbLine
 10
4.866141732283463
 20
8.595472440944881
 30
0.0
 11
4.863188976377952
 21
8.588582677165353
 31
0.0
  0
LINE
  5
3572
330
1E
100
AcDbEntity
  8
7
100
AcDbLine
 10
4.863188976377952
 20
8.588582677165353
 30
0.0
 11
4.855314960629921
 21
8.585629921259842
 31
0.0
  0
LINE
  5
3573
330
1E
100
AcDbEntity
  8
7
100
AcDbLine
 10
4.854330708661416
 20
8.586614173228346
 30
0.0
 11
4.862204724409448
 21
8.589566929133857
 31
0.0
  0
LINE
  5
3574
330
1E
100
AcDbEntity
  8
7
100
AcDbLine
 10
4.862204724409448
 20
8.589566929133857
 30
0.0
 11
4.86515748031496
 21
8.596456692913385
 31
0.0
  0
LINE
  5
3575
330
1E
100
AcDbEntity
  8
7
100
AcDbLine
 10
3.161417322834645
 20
8.882874015748031
 30
0.0
 11
3.164370078740157
 21
8.909448818897637
 31
0.0
  0
LINE
  5
3576
330
1E
100
AcDbEntity
  8
7
100
AcDbLine
 10
3.164370078740157
 20
8.909448818897637
 30
0.0
 11
3.174212598425196
 21
8.933070866141731
 31
0.0
  0
LINE
  5
3577
330
1E
100
AcDbEntity
  8
7
100
AcDbLine
 10
3.174212598425196
 20
8.933070866141731
 30
0.0
 11
3.190944881889763
 21
8.953740157480314
 31
0.0
  0
LINE
  5
3578
330
1E
100
AcDbEntity
  8
7
100
AcDbLine
 10
3.190944881889763
 20
8.953740157480314
 30
0.0
 11
3.211614173228346
 21
8.969488188976377
 31
0.0
  0
LINE
  5
3579
330
1E
100
AcDbEntity
  8
7
100
AcDbLine
 10
3.211614173228346
 20
8.969488188976377
 30
0.0
 11
3.23523622047244
 21
8.979330708661416
 31
0.0
  0
LINE
  5
357A
330
1E
100
AcDbEntity
  8
7
100
AcDbLine
 10
3.23523622047244
 20
8.979330708661416
 30
0.0
 11
3.260826771653543
 21
8.983267716535433
 31
0.0
  0
LINE
  5
357B
330
1E
100
AcDbEntity
  8
7
100
AcDbLine
 10
3.263779527559054
 20
8.950787401574801
 30
0.0
 11
3.242125984251968
 21
8.94783464566929
 31
0.0
  0
LINE
  5
357C
330
1E
100
AcDbEntity
  8
7
100
AcDbLine
 10
3.242125984251968
 20
8.94783464566929
 30
0.0
 11
3.222440944881889
 21
8.937992125984251
 31
0.0
  0
LINE
  5
357D
330
1E
100
AcDbEntity
  8
7
100
AcDbLine
 10
3.222440944881889
 20
8.937992125984251
 30
0.0
 11
3.206692913385826
 21
8.922244094488188
 31
0.0
  0
LINE
  5
357E
330
1E
100
AcDbEntity
  8
7
100
AcDbLine
 10
3.206692913385826
 20
8.922244094488188
 30
0.0
 11
3.196850393700787
 21
8.902559055118109
 31
0.0
  0
LINE
  5
357F
330
1E
100
AcDbEntity
  8
7
100
AcDbLine
 10
3.196850393700787
 20
8.902559055118109
 30
0.0
 11
3.193897637795275
 21
8.880905511811024
 31
0.0
  0
LINE
  5
3580
330
1E
100
AcDbEntity
  8
7
100
AcDbLine
 10
3.193897637795275
 20
8.880905511811024
 30
0.0
 11
3.172244094488188
 21
8.880905511811024
 31
0.0
  0
LINE
  5
3581
330
1E
100
AcDbEntity
  8
7
100
AcDbLine
 10
3.172244094488188
 20
8.880905511811024
 30
0.0
 11
3.163385826771653
 21
8.880905511811024
 31
0.0
  0
LINE
  5
3582
330
1E
100
AcDbEntity
  8
7
100
AcDbLine
 10
3.163385826771653
 20
8.880905511811024
 30
0.0
 11
3.167322834645669
 21
8.906496062992125
 31
0.0
  0
LINE
  5
3583
330
1E
100
AcDbEntity
  8
7
100
AcDbLine
 10
3.167322834645669
 20
8.906496062992125
 30
0.0
 11
3.177165354330708
 21
8.931102362204724
 31
0.0
  0
LINE
  5
3584
330
1E
100
AcDbEntity
  8
7
100
AcDbLine
 10
3.177165354330708
 20
8.931102362204724
 30
0.0
 11
3.192913385826771
 21
8.951771653543307
 31
0.0
  0
LINE
  5
3585
330
1E
100
AcDbEntity
  8
7
100
AcDbLine
 10
3.192913385826771
 20
8.951771653543307
 30
0.0
 11
3.213582677165354
 21
8.96751968503937
 31
0.0
  0
LINE
  5
3586
330
1E
100
AcDbEntity
  8
7
100
AcDbLine
 10
3.213582677165354
 20
8.96751968503937
 30
0.0
 11
3.237204724409449
 21
8.977362204724409
 31
0.0
  0
LINE
  5
3587
330
1E
100
AcDbEntity
  8
7
100
AcDbLine
 10
3.237204724409449
 20
8.977362204724409
 30
0.0
 11
3.263779527559054
 21
8.981299212598424
 31
0.0
  0
LINE
  5
3588
330
1E
100
AcDbEntity
  8
7
100
AcDbLine
 10
3.263779527559054
 20
8.950787401574801
 30
0.0
 11
3.263779527559054
 21
8.971456692913385
 31
0.0
  0
LINE
  5
3589
330
1E
100
AcDbEntity
  8
7
100
AcDbLine
 10
3.263779527559054
 20
8.971456692913385
 30
0.0
 11
3.263779527559054
 21
8.981299212598424
 31
0.0
  0
LINE
  5
358A
330
1E
100
AcDbEntity
  8
7
100
AcDbLine
 10
3.426181102362204
 20
8.936023622047244
 30
0.0
 11
3.43011811023622
 21
8.94291338582677
 31
0.0
  0
LINE
  5
358B
330
1E
100
AcDbEntity
  8
7
100
AcDbLine
 10
3.43011811023622
 20
8.94291338582677
 30
0.0
 11
3.437007874015748
 21
8.945866141732283
 31
0.0
  0
LINE
  5
358C
330
1E
100
AcDbEntity
  8
7
100
AcDbLine
 10
3.437007874015748
 20
8.945866141732283
 30
0.0
 11
3.436023622047243
 21
8.946850393700787
 31
0.0
  0
LINE
  5
358D
330
1E
100
AcDbEntity
  8
7
100
AcDbLine
 10
3.436023622047243
 20
8.946850393700787
 30
0.0
 11
3.429133858267716
 21
8.943897637795275
 31
0.0
  0
LINE
  5
358E
330
1E
100
AcDbEntity
  8
7
100
AcDbLine
 10
3.429133858267716
 20
8.943897637795275
 30
0.0
 11
3.426181102362204
 21
8.937007874015748
 31
0.0
  0
LINE
  5
358F
330
1E
100
AcDbEntity
  8
7
100
AcDbLine
 10
3.426181102362204
 20
8.937007874015748
 30
0.0
 11
3.426181102362204
 21
8.936023622047244
 31
0.0
  0
LINE
  5
3590
330
1E
100
AcDbEntity
  8
7
100
AcDbLine
 10
3.437007874015748
 20
8.586614173228346
 30
0.0
 11
3.43011811023622
 21
8.589566929133857
 31
0.0
  0
LINE
  5
3591
330
1E
100
AcDbEntity
  8
7
100
AcDbLine
 10
3.43011811023622
 20
8.589566929133857
 30
0.0
 11
3.426181102362204
 21
8.596456692913385
 31
0.0
  0
LINE
  5
3592
330
1E
100
AcDbEntity
  8
7
100
AcDbLine
 10
3.426181102362204
 20
8.596456692913385
 30
0.0
 11
3.426181102362204
 21
8.595472440944881
 31
0.0
  0
LINE
  5
3593
330
1E
100
AcDbEntity
  8
7
100
AcDbLine
 10
3.426181102362204
 20
8.595472440944881
 30
0.0
 11
3.429133858267716
 21
8.588582677165353
 31
0.0
  0
LINE
  5
3594
330
1E
100
AcDbEntity
  8
7
100
AcDbLine
 10
3.429133858267716
 20
8.588582677165353
 30
0.0
 11
3.436023622047243
 21
8.585629921259842
 31
0.0
  0
LINE
  5
3595
330
1E
100
AcDbEntity
  8
7
100
AcDbLine
 10
3.436023622047243
 20
8.585629921259842
 30
0.0
 11
3.437007874015748
 21
8.586614173228346
 31
0.0
  0
LINE
  5
3596
330
1E
100
AcDbEntity
  8
7
100
AcDbLine
 10
4.25
 20
8.825787401574803
 30
0.0
 11
4.230314960629921
 21
8.850393700787401
 31
0.0
  0
LINE
  5
3597
330
1E
100
AcDbEntity
  8
7
100
AcDbLine
 10
4.230314960629921
 20
8.850393700787401
 30
0.0
 11
4.205708661417322
 21
8.870078740157479
 31
0.0
  0
LINE
  5
3598
330
1E
100
AcDbEntity
  8
7
100
AcDbLine
 10
4.205708661417322
 20
8.870078740157479
 30
0.0
 11
4.177165354330708
 21
8.881889763779527
 31
0.0
  0
LINE
  5
3599
330
1E
100
AcDbEntity
  8
7
100
AcDbLine
 10
4.177165354330708
 20
8.881889763779527
 30
0.0
 11
4.145669291338582
 21
8.885826771653542
 31
0.0
  0
LINE
  5
359A
330
1E
100
AcDbEntity
  8
7
100
AcDbLine
 10
4.145669291338582
 20
8.885826771653542
 30
0.0
 11
4.114173228346456
 21
8.881889763779527
 31
0.0
  0
LINE
  5
359B
330
1E
100
AcDbEntity
  8
7
100
AcDbLine
 10
4.114173228346456
 20
8.881889763779527
 30
0.0
 11
4.085629921259842
 21
8.870078740157479
 31
0.0
  0
LINE
  5
359C
330
1E
100
AcDbEntity
  8
7
100
AcDbLine
 10
4.085629921259842
 20
8.870078740157479
 30
0.0
 11
4.061023622047243
 21
8.850393700787401
 31
0.0
  0
LINE
  5
359D
330
1E
100
AcDbEntity
  8
7
100
AcDbLine
 10
4.061023622047243
 20
8.850393700787401
 30
0.0
 11
4.041338582677164
 21
8.825787401574803
 31
0.0
  0
LINE
  5
359E
330
1E
100
AcDbEntity
  8
7
100
AcDbLine
 10
4.041338582677164
 20
8.825787401574803
 30
0.0
 11
4.029527559055117
 21
8.797244094488188
 31
0.0
  0
LINE
  5
359F
330
1E
100
AcDbEntity
  8
7
100
AcDbLine
 10
4.029527559055117
 20
8.797244094488188
 30
0.0
 11
4.025590551181101
 21
8.765748031496062
 31
0.0
  0
LINE
  5
35A0
330
1E
100
AcDbEntity
  8
7
100
AcDbLine
 10
4.025590551181101
 20
8.765748031496062
 30
0.0
 11
4.029527559055117
 21
8.734251968503937
 31
0.0
  0
LINE
  5
35A1
330
1E
100
AcDbEntity
  8
7
100
AcDbLine
 10
4.029527559055117
 20
8.734251968503937
 30
0.0
 11
4.041338582677164
 21
8.705708661417322
 31
0.0
  0
LINE
  5
35A2
330
1E
100
AcDbEntity
  8
7
100
AcDbLine
 10
4.041338582677164
 20
8.705708661417322
 30
0.0
 11
4.061023622047243
 21
8.681102362204724
 31
0.0
  0
LINE
  5
35A3
330
1E
100
AcDbEntity
  8
7
100
AcDbLine
 10
4.061023622047243
 20
8.681102362204724
 30
0.0
 11
4.085629921259842
 21
8.661417322834644
 31
0.0
  0
LINE
  5
35A4
330
1E
100
AcDbEntity
  8
7
100
AcDbLine
 10
4.085629921259842
 20
8.661417322834644
 30
0.0
 11
4.114173228346456
 21
8.649606299212598
 31
0.0
  0
LINE
  5
35A5
330
1E
100
AcDbEntity
  8
7
100
AcDbLine
 10
4.114173228346456
 20
8.649606299212598
 30
0.0
 11
4.145669291338582
 21
8.645669291338581
 31
0.0
  0
LINE
  5
35A6
330
1E
100
AcDbEntity
  8
7
100
AcDbLine
 10
4.145669291338582
 20
8.645669291338581
 30
0.0
 11
4.177165354330708
 21
8.649606299212598
 31
0.0
  0
LINE
  5
35A7
330
1E
100
AcDbEntity
  8
7
100
AcDbLine
 10
4.177165354330708
 20
8.649606299212598
 30
0.0
 11
4.205708661417322
 21
8.661417322834644
 31
0.0
  0
LINE
  5
35A8
330
1E
100
AcDbEntity
  8
7
100
AcDbLine
 10
4.205708661417322
 20
8.661417322834644
 30
0.0
 11
4.230314960629921
 21
8.681102362204724
 31
0.0
  0
LINE
  5
35A9
330
1E
100
AcDbEntity
  8
7
100
AcDbLine
 10
4.230314960629921
 20
8.681102362204724
 30
0.0
 11
4.25
 21
8.705708661417322
 31
0.0
  0
LINE
  5
35AA
330
1E
100
AcDbEntity
  8
7
100
AcDbLine
 10
4.25
 20
8.705708661417322
 30
0.0
 11
4.261811023622047
 21
8.734251968503937
 31
0.0
  0
LINE
  5
35AB
330
1E
100
AcDbEntity
  8
7
100
AcDbLine
 10
4.261811023622047
 20
8.734251968503937
 30
0.0
 11
4.265748031496062
 21
8.765748031496062
 31
0.0
  0
LINE
  5
35AC
330
1E
100
AcDbEntity
  8
7
100
AcDbLine
 10
4.265748031496062
 20
8.765748031496062
 30
0.0
 11
4.261811023622047
 21
8.797244094488188
 31
0.0
  0
LINE
  5
35AD
330
1E
100
AcDbEntity
  8
7
100
AcDbLine
 10
4.261811023622047
 20
8.797244094488188
 30
0.0
 11
4.25
 21
8.825787401574803
 31
0.0
  0
LINE
  5
35AE
330
1E
100
AcDbEntity
  8
7
100
AcDbLine
 10
4.11515748031496
 20
8.835629921259842
 30
0.0
 11
4.094488188976377
 21
8.821850393700787
 31
0.0
  0
LINE
  5
35AF
330
1E
100
AcDbEntity
  8
7
100
AcDbLine
 10
4.094488188976377
 20
8.821850393700787
 30
0.0
 11
4.078740157480314
 21
8.802165354330707
 31
0.0
  0
LINE
  5
35B0
330
1E
100
AcDbEntity
  8
7
100
AcDbLine
 10
4.078740157480314
 20
8.802165354330707
 30
0.0
 11
4.070866141732283
 21
8.778543307086613
 31
0.0
  0
LINE
  5
35B1
330
1E
100
AcDbEntity
  8
7
100
AcDbLine
 10
4.070866141732283
 20
8.778543307086613
 30
0.0
 11
4.070866141732283
 21
8.752952755905511
 31
0.0
  0
LINE
  5
35B2
330
1E
100
AcDbEntity
  8
7
100
AcDbLine
 10
4.070866141732283
 20
8.752952755905511
 30
0.0
 11
4.078740157480314
 21
8.729330708661416
 31
0.0
  0
LINE
  5
35B3
330
1E
100
AcDbEntity
  8
7
100
AcDbLine
 10
4.078740157480314
 20
8.729330708661416
 30
0.0
 11
4.094488188976377
 21
8.709645669291338
 31
0.0
  0
LINE
  5
35B4
330
1E
100
AcDbEntity
  8
7
100
AcDbLine
 10
4.094488188976377
 20
8.709645669291338
 30
0.0
 11
4.11515748031496
 21
8.695866141732283
 31
0.0
  0
LINE
  5
35B5
330
1E
100
AcDbEntity
  8
7
100
AcDbLine
 10
4.11515748031496
 20
8.695866141732283
 30
0.0
 11
4.139763779527558
 21
8.689960629921259
 31
0.0
  0
LINE
  5
35B6
330
1E
100
AcDbEntity
  8
7
100
AcDbLine
 10
4.139763779527558
 20
8.689960629921259
 30
0.0
 11
4.164370078740157
 21
8.691929133858266
 31
0.0
  0
LINE
  5
35B7
330
1E
100
AcDbEntity
  8
7
100
AcDbLine
 10
4.164370078740157
 20
8.691929133858266
 30
0.0
 11
4.187007874015748
 21
8.702755905511811
 31
0.0
  0
LINE
  5
35B8
330
1E
100
AcDbEntity
  8
7
100
AcDbLine
 10
4.187007874015748
 20
8.702755905511811
 30
0.0
 11
4.205708661417322
 21
8.719488188976377
 31
0.0
  0
LINE
  5
35B9
330
1E
100
AcDbEntity
  8
7
100
AcDbLine
 10
4.205708661417322
 20
8.719488188976377
 30
0.0
 11
4.217519685039369
 21
8.741141732283464
 31
0.0
  0
LINE
  5
35BA
330
1E
100
AcDbEntity
  8
7
100
AcDbLine
 10
4.217519685039369
 20
8.741141732283464
 30
0.0
 11
4.221456692913385
 21
8.765748031496062
 31
0.0
  0
LINE
  5
35BB
330
1E
100
AcDbEntity
  8
7
100
AcDbLine
 10
4.221456692913385
 20
8.765748031496062
 30
0.0
 11
4.217519685039369
 21
8.790354330708661
 31
0.0
  0
LINE
  5
35BC
330
1E
100
AcDbEntity
  8
7
100
AcDbLine
 10
4.217519685039369
 20
8.790354330708661
 30
0.0
 11
4.205708661417322
 21
8.812007874015748
 31
0.0
  0
LINE
  5
35BD
330
1E
100
AcDbEntity
  8
7
100
AcDbLine
 10
4.205708661417322
 20
8.812007874015748
 30
0.0
 11
4.187007874015748
 21
8.828740157480314
 31
0.0
  0
LINE
  5
35BE
330
1E
100
AcDbEntity
  8
7
100
AcDbLine
 10
4.187007874015748
 20
8.828740157480314
 30
0.0
 11
4.164370078740157
 21
8.839566929133857
 31
0.0
  0
LINE
  5
35BF
330
1E
100
AcDbEntity
  8
7
100
AcDbLine
 10
4.164370078740157
 20
8.839566929133857
 30
0.0
 11
4.139763779527558
 21
8.841535433070866
 31
0.0
  0
LINE
  5
35C0
330
1E
100
AcDbEntity
  8
7
100
AcDbLine
 10
4.139763779527558
 20
8.841535433070866
 30
0.0
 11
4.11515748031496
 21
8.835629921259842
 31
0.0
  0
LINE
  5
35C1
330
1E
100
AcDbEntity
  8
7
100
AcDbLine
 10
4.145669291338582
 20
8.646653543307087
 30
0.0
 11
4.176181102362204
 21
8.650590551181101
 31
0.0
  0
LINE
  5
35C2
330
1E
100
AcDbEntity
  8
7
100
AcDbLine
 10
4.176181102362204
 20
8.650590551181101
 30
0.0
 11
4.204724409448818
 21
8.662401574803149
 31
0.0
  0
LINE
  5
35C3
330
1E
100
AcDbEntity
  8
7
100
AcDbLine
 10
4.204724409448818
 20
8.662401574803149
 30
0.0
 11
4.230314960629921
 21
8.681102362204724
 31
0.0
  0
LINE
  5
35C4
330
1E
100
AcDbEntity
  8
7
100
AcDbLine
 10
4.230314960629921
 20
8.681102362204724
 30
0.0
 11
4.249015748031495
 21
8.705708661417322
 31
0.0
  0
LINE
  5
35C5
330
1E
100
AcDbEntity
  8
7
100
AcDbLine
 10
4.249015748031495
 20
8.705708661417322
 30
0.0
 11
4.260826771653542
 21
8.73523622047244
 31
0.0
  0
LINE
  5
35C6
330
1E
100
AcDbEntity
  8
7
100
AcDbLine
 10
4.260826771653542
 20
8.73523622047244
 30
0.0
 11
4.264763779527558
 21
8.765748031496062
 31
0.0
  0
LINE
  5
35C7
330
1E
100
AcDbEntity
  8
7
100
AcDbLine
 10
4.176181102362204
 20
8.880905511811024
 30
0.0
 11
4.145669291338582
 21
8.884842519685038
 31
0.0
  0
LINE
  5
35C8
330
1E
100
AcDbEntity
  8
7
100
AcDbLine
 10
4.145669291338582
 20
8.884842519685038
 30
0.0
 11
4.11515748031496
 21
8.880905511811024
 31
0.0
  0
LINE
  5
35C9
330
1E
100
AcDbEntity
  8
7
100
AcDbLine
 10
4.11515748031496
 20
8.880905511811024
 30
0.0
 11
4.086614173228346
 21
8.869094488188975
 31
0.0
  0
LINE
  5
35CA
330
1E
100
AcDbEntity
  8
7
100
AcDbLine
 10
4.086614173228346
 20
8.869094488188975
 30
0.0
 11
4.061023622047243
 21
8.850393700787401
 31
0.0
  0
LINE
  5
35CB
330
1E
100
AcDbEntity
  8
7
100
AcDbLine
 10
4.061023622047243
 20
8.850393700787401
 30
0.0
 11
4.042322834645668
 21
8.825787401574803
 31
0.0
  0
LINE
  5
35CC
330
1E
100
AcDbEntity
  8
7
100
AcDbLine
 10
4.042322834645668
 20
8.825787401574803
 30
0.0
 11
4.030511811023621
 21
8.796259842519685
 31
0.0
  0
LINE
  5
35CD
330
1E
100
AcDbEntity
  8
7
100
AcDbLine
 10
4.030511811023621
 20
8.796259842519685
 30
0.0
 11
4.026574803149605
 21
8.765748031496062
 31
0.0
  0
LINE
  5
35CE
330
1E
100
AcDbEntity
  8
7
100
AcDbLine
 10
4.026574803149605
 20
8.765748031496062
 30
0.0
 11
4.030511811023621
 21
8.73523622047244
 31
0.0
  0
LINE
  5
35CF
330
1E
100
AcDbEntity
  8
7
100
AcDbLine
 10
4.030511811023621
 20
8.73523622047244
 30
0.0
 11
4.042322834645668
 21
8.706692913385825
 31
0.0
  0
LINE
  5
35D0
330
1E
100
AcDbEntity
  8
7
100
AcDbLine
 10
4.042322834645668
 20
8.706692913385825
 30
0.0
 11
4.061023622047243
 21
8.681102362204724
 31
0.0
  0
LINE
  5
35D1
330
1E
100
AcDbEntity
  8
7
100
AcDbLine
 10
4.061023622047243
 20
8.681102362204724
 30
0.0
 11
4.085629921259842
 21
8.662401574803149
 31
0.0
  0
LINE
  5
35D2
330
1E
100
AcDbEntity
  8
7
100
AcDbLine
 10
4.085629921259842
 20
8.662401574803149
 30
0.0
 11
4.11515748031496
 21
8.650590551181101
 31
0.0
  0
LINE
  5
35D3
330
1E
100
AcDbEntity
  8
7
100
AcDbLine
 10
4.11515748031496
 20
8.650590551181101
 30
0.0
 11
4.145669291338582
 21
8.646653543307087
 31
0.0
  0
LINE
  5
35D4
330
1E
100
AcDbEntity
  8
7
100
AcDbLine
 10
4.264763779527558
 20
8.765748031496062
 30
0.0
 11
4.260826771653542
 21
8.796259842519685
 31
0.0
  0
LINE
  5
35D5
330
1E
100
AcDbEntity
  8
7
100
AcDbLine
 10
4.260826771653542
 20
8.796259842519685
 30
0.0
 11
4.249015748031495
 21
8.824803149606298
 31
0.0
  0
LINE
  5
35D6
330
1E
100
AcDbEntity
  8
7
100
AcDbLine
 10
4.249015748031495
 20
8.824803149606298
 30
0.0
 11
4.230314960629921
 21
8.850393700787401
 31
0.0
  0
LINE
  5
35D7
330
1E
100
AcDbEntity
  8
7
100
AcDbLine
 10
4.230314960629921
 20
8.850393700787401
 30
0.0
 11
4.205708661417322
 21
8.869094488188975
 31
0.0
  0
LINE
  5
35D8
330
1E
100
AcDbEntity
  8
7
100
AcDbLine
 10
4.205708661417322
 20
8.869094488188975
 30
0.0
 11
4.176181102362204
 21
8.880905511811024
 31
0.0
  0
LINE
  5
35D9
330
1E
100
AcDbEntity
  8
7
100
AcDbLine
 10
4.178149606299212
 20
8.839566929133857
 30
0.0
 11
4.15255905511811
 21
8.846456692913385
 31
0.0
  0
LINE
  5
35DA
330
1E
100
AcDbEntity
  8
7
100
AcDbLine
 10
4.15255905511811
 20
8.846456692913385
 30
0.0
 11
4.125984251968503
 21
8.843503937007874
 31
0.0
  0
LINE
  5
35DB
330
1E
100
AcDbEntity
  8
7
100
AcDbLine
 10
4.125984251968503
 20
8.843503937007874
 30
0.0
 11
4.101377952755905
 21
8.833661417322835
 31
0.0
  0
LINE
  5
35DC
330
1E
100
AcDbEntity
  8
7
100
AcDbLine
 10
4.101377952755905
 20
8.833661417322835
 30
0.0
 11
4.081692913385826
 21
8.814960629921259
 31
0.0
  0
LINE
  5
35DD
330
1E
100
AcDbEntity
  8
7
100
AcDbLine
 10
4.081692913385826
 20
8.814960629921259
 30
0.0
 11
4.068897637795275
 21
8.792322834645668
 31
0.0
  0
LINE
  5
35DE
330
1E
100
AcDbEntity
  8
7
100
AcDbLine
 10
4.068897637795275
 20
8.792322834645668
 30
0.0
 11
4.064960629921259
 21
8.765748031496062
 31
0.0
  0
LINE
  5
35DF
330
1E
100
AcDbEntity
  8
7
100
AcDbLine
 10
4.064960629921259
 20
8.765748031496062
 30
0.0
 11
4.068897637795275
 21
8.739173228346455
 31
0.0
  0
LINE
  5
35E0
330
1E
100
AcDbEntity
  8
7
100
AcDbLine
 10
4.068897637795275
 20
8.739173228346455
 30
0.0
 11
4.081692913385826
 21
8.716535433070866
 31
0.0
  0
LINE
  5
35E1
330
1E
100
AcDbEntity
  8
7
100
AcDbLine
 10
4.081692913385826
 20
8.716535433070866
 30
0.0
 11
4.101377952755905
 21
8.69783464566929
 31
0.0
  0
LINE
  5
35E2
330
1E
100
AcDbEntity
  8
7
100
AcDbLine
 10
4.101377952755905
 20
8.69783464566929
 30
0.0
 11
4.125984251968503
 21
8.687992125984251
 31
0.0
  0
LINE
  5
35E3
330
1E
100
AcDbEntity
  8
7
100
AcDbLine
 10
4.125984251968503
 20
8.687992125984251
 30
0.0
 11
4.15255905511811
 21
8.685039370078738
 31
0.0
  0
LINE
  5
35E4
330
1E
100
AcDbEntity
  8
7
100
AcDbLine
 10
4.15255905511811
 20
8.685039370078738
 30
0.0
 11
4.178149606299212
 21
8.691929133858266
 31
0.0
  0
LINE
  5
35E5
330
1E
100
AcDbEntity
  8
7
100
AcDbLine
 10
4.178149606299212
 20
8.691929133858266
 30
0.0
 11
4.200787401574802
 21
8.706692913385825
 31
0.0
  0
LINE
  5
35E6
330
1E
100
AcDbEntity
  8
7
100
AcDbLine
 10
4.200787401574802
 20
8.706692913385825
 30
0.0
 11
4.216535433070865
 21
8.727362204724409
 31
0.0
  0
LINE
  5
35E7
330
1E
100
AcDbEntity
  8
7
100
AcDbLine
 10
4.216535433070865
 20
8.727362204724409
 30
0.0
 11
4.2253937007874
 21
8.752952755905511
 31
0.0
  0
LINE
  5
35E8
330
1E
100
AcDbEntity
  8
7
100
AcDbLine
 10
4.2253937007874
 20
8.752952755905511
 30
0.0
 11
4.2253937007874
 21
8.778543307086613
 31
0.0
  0
LINE
  5
35E9
330
1E
100
AcDbEntity
  8
7
100
AcDbLine
 10
4.2253937007874
 20
8.778543307086613
 30
0.0
 11
4.216535433070865
 21
8.804133858267716
 31
0.0
  0
LINE
  5
35EA
330
1E
100
AcDbEntity
  8
7
100
AcDbLine
 10
4.216535433070865
 20
8.804133858267716
 30
0.0
 11
4.200787401574802
 21
8.824803149606298
 31
0.0
  0
LINE
  5
35EB
330
1E
100
AcDbEntity
  8
7
100
AcDbLine
 10
4.200787401574802
 20
8.824803149606298
 30
0.0
 11
4.178149606299212
 21
8.839566929133857
 31
0.0
  0
LINE
  5
35EC
330
1E
100
AcDbEntity
  8
7
100
AcDbLine
 10
4.924212598425196
 20
8.482283464566929
 30
0.0
 11
4.93011811023622
 21
8.48031496062992
 31
0.0
  0
LINE
  5
35ED
330
1E
100
AcDbEntity
  8
7
100
AcDbLine
 10
4.93011811023622
 20
8.48031496062992
 30
0.0
 11
4.932086614173227
 21
8.474409448818898
 31
0.0
  0
LINE
  5
35EE
330
1E
100
AcDbEntity
  8
7
100
AcDbLine
 10
4.932086614173227
 20
8.474409448818898
 30
0.0
 11
4.935039370078739
 21
8.477362204724409
 31
0.0
  0
LINE
  5
35EF
330
1E
100
AcDbEntity
  8
7
100
AcDbLine
 10
4.935039370078739
 20
8.477362204724409
 30
0.0
 11
4.933070866141731
 21
8.483267716535433
 31
0.0
  0
LINE
  5
35F0
330
1E
100
AcDbEntity
  8
7
100
AcDbLine
 10
4.933070866141731
 20
8.483267716535433
 30
0.0
 11
4.927165354330708
 21
8.48523622047244
 31
0.0
  0
LINE
  5
35F1
330
1E
100
AcDbEntity
  8
7
100
AcDbLine
 10
3.422244094488188
 20
8.479330708661416
 30
0.0
 11
4.869094488188975
 21
8.479330708661416
 31
0.0
  0
LINE
  5
35F2
330
1E
100
AcDbEntity
  8
7
100
AcDbLine
 10
4.869094488188975
 20
8.479330708661416
 30
0.0
 11
4.872047244094487
 21
8.482283464566929
 31
0.0
  0
LINE
  5
35F3
330
1E
100
AcDbEntity
  8
7
100
AcDbLine
 10
3.356299212598425
 20
8.477362204724409
 30
0.0
 11
3.358267716535433
 21
8.483267716535433
 31
0.0
  0
LINE
  5
35F4
330
1E
100
AcDbEntity
  8
7
100
AcDbLine
 10
3.358267716535433
 20
8.483267716535433
 30
0.0
 11
3.364173228346456
 21
8.48523622047244
 31
0.0
  0
LINE
  5
35F5
330
1E
100
AcDbEntity
  8
7
100
AcDbLine
 10
3.367125984251968
 20
8.482283464566929
 30
0.0
 11
3.362204724409449
 21
8.48031496062992
 31
0.0
  0
LINE
  5
35F6
330
1E
100
AcDbEntity
  8
7
100
AcDbLine
 10
3.362204724409449
 20
8.48031496062992
 30
0.0
 11
3.359251968503937
 21
8.474409448818898
 31
0.0
  0
LINE
  5
35F7
330
1E
100
AcDbEntity
  8
7
100
AcDbLine
 10
5.028543307086613
 20
7.016732283464566
 30
0.0
 11
5.030511811023621
 21
7.013779527559054
 31
0.0
  0
LINE
  5
35F8
330
1E
100
AcDbEntity
  8
7
100
AcDbLine
 10
5.030511811023621
 20
7.013779527559054
 30
0.0
 11
5.056102362204724
 21
7.01771653543307
 31
0.0
  0
LINE
  5
35F9
330
1E
100
AcDbEntity
  8
7
100
AcDbLine
 10
5.056102362204724
 20
7.01771653543307
 30
0.0
 11
5.080708661417322
 21
7.02755905511811
 31
0.0
  0
LINE
  5
35FA
330
1E
100
AcDbEntity
  8
7
100
AcDbLine
 10
5.080708661417322
 20
7.02755905511811
 30
0.0
 11
5.101377952755905
 21
7.043307086614173
 31
0.0
  0
LINE
  5
35FB
330
1E
100
AcDbEntity
  8
7
100
AcDbLine
 10
5.101377952755905
 20
7.043307086614173
 30
0.0
 11
5.117125984251968
 21
7.063976377952755
 31
0.0
  0
LINE
  5
35FC
330
1E
100
AcDbEntity
  8
7
100
AcDbLine
 10
5.117125984251968
 20
7.063976377952755
 30
0.0
 11
5.126968503937007
 21
7.088582677165353
 31
0.0
  0
LINE
  5
35FD
330
1E
100
AcDbEntity
  8
7
100
AcDbLine
 10
5.126968503937007
 20
7.088582677165353
 30
0.0
 11
5.129921259842519
 21
7.114173228346456
 31
0.0
  0
LINE
  5
35FE
330
1E
100
AcDbEntity
  8
7
100
AcDbLine
 10
4.995078740157479
 20
7.889763779527559
 30
0.0
 11
4.993110236220472
 21
7.895669291338581
 31
0.0
  0
LINE
  5
35FF
330
1E
100
AcDbEntity
  8
7
100
AcDbLine
 10
4.993110236220472
 20
7.895669291338581
 30
0.0
 11
4.987204724409448
 21
7.898622047244094
 31
0.0
  0
LINE
  5
3600
330
1E
100
AcDbEntity
  8
7
100
AcDbLine
 10
4.984251968503937
 20
7.894685039370077
 30
0.0
 11
4.99015748031496
 21
7.89271653543307
 31
0.0
  0
LINE
  5
3601
330
1E
100
AcDbEntity
  8
7
100
AcDbLine
 10
4.99015748031496
 20
7.89271653543307
 30
0.0
 11
4.992125984251968
 21
7.886811023622046
 31
0.0
  0
LINE
  5
3602
330
1E
100
AcDbEntity
  8
7
100
AcDbLine
 10
4.992125984251968
 20
7.734251968503937
 30
0.0
 11
4.99015748031496
 21
7.728346456692912
 31
0.0
  0
LINE
  5
3603
330
1E
100
AcDbEntity
  8
7
100
AcDbLine
 10
4.99015748031496
 20
7.728346456692912
 30
0.0
 11
4.984251968503937
 21
7.726377952755905
 31
0.0
  0
LINE
  5
3604
330
1E
100
AcDbEntity
  8
7
100
AcDbLine
 10
4.984251968503937
 20
7.726377952755905
 30
0.0
 11
4.987204724409448
 21
7.723425196850392
 31
0.0
  0
LINE
  5
3605
330
1E
100
AcDbEntity
  8
7
100
AcDbLine
 10
4.987204724409448
 20
7.723425196850392
 30
0.0
 11
4.993110236220472
 21
7.725393700787401
 31
0.0
  0
LINE
  5
3606
330
1E
100
AcDbEntity
  8
7
100
AcDbLine
 10
4.993110236220472
 20
7.725393700787401
 30
0.0
 11
4.995078740157479
 21
7.731299212598424
 31
0.0
  0
LINE
  5
3607
330
1E
100
AcDbEntity
  8
7
100
AcDbLine
 10
5.028543307086613
 20
7.016732283464566
 30
0.0
 11
5.054133858267715
 21
7.019685039370078
 31
0.0
  0
LINE
  5
3608
330
1E
100
AcDbEntity
  8
7
100
AcDbLine
 10
5.054133858267715
 20
7.019685039370078
 30
0.0
 11
5.077755905511811
 21
7.029527559055117
 31
0.0
  0
LINE
  5
3609
330
1E
100
AcDbEntity
  8
7
100
AcDbLine
 10
5.077755905511811
 20
7.029527559055117
 30
0.0
 11
5.098425196850393
 21
7.04527559055118
 31
0.0
  0
LINE
  5
360A
330
1E
100
AcDbEntity
  8
7
100
AcDbLine
 10
5.098425196850393
 20
7.04527559055118
 30
0.0
 11
5.114173228346456
 21
7.065944881889763
 31
0.0
  0
LINE
  5
360B
330
1E
100
AcDbEntity
  8
7
100
AcDbLine
 10
5.114173228346456
 20
7.065944881889763
 30
0.0
 11
5.125
 21
7.090551181102362
 31
0.0
  0
LINE
  5
360C
330
1E
100
AcDbEntity
  8
7
100
AcDbLine
 10
5.125
 20
7.090551181102362
 30
0.0
 11
5.127952755905511
 21
7.116141732283463
 31
0.0
  0
LINE
  5
360D
330
1E
100
AcDbEntity
  8
7
100
AcDbLine
 10
5.028543307086613
 20
7.016732283464566
 30
0.0
 11
5.028543307086613
 21
7.025590551181101
 31
0.0
  0
LINE
  5
360E
330
1E
100
AcDbEntity
  8
7
100
AcDbLine
 10
5.028543307086613
 20
7.025590551181101
 30
0.0
 11
5.028543307086613
 21
7.046259842519684
 31
0.0
  0
LINE
  5
360F
330
1E
100
AcDbEntity
  8
7
100
AcDbLine
 10
5.098425196850393
 20
7.116141732283463
 30
0.0
 11
5.094488188976377
 21
7.094488188976377
 31
0.0
  0
LINE
  5
3610
330
1E
100
AcDbEntity
  8
7
100
AcDbLine
 10
5.094488188976377
 20
7.094488188976377
 30
0.0
 11
5.084645669291337
 21
7.074803149606299
 31
0.0
  0
LINE
  5
3611
330
1E
100
AcDbEntity
  8
7
100
AcDbLine
 10
5.084645669291337
 20
7.074803149606299
 30
0.0
 11
5.068897637795275
 21
7.060039370078739
 31
0.0
  0
LINE
  5
3612
330
1E
100
AcDbEntity
  8
7
100
AcDbLine
 10
5.068897637795275
 20
7.060039370078739
 30
0.0
 11
5.0501968503937
 21
7.0501968503937
 31
0.0
  0
LINE
  5
3613
330
1E
100
AcDbEntity
  8
7
100
AcDbLine
 10
5.0501968503937
 20
7.0501968503937
 30
0.0
 11
5.028543307086613
 21
7.046259842519684
 31
0.0
  0
LINE
  5
3614
330
1E
100
AcDbEntity
  8
7
100
AcDbLine
 10
5.129921259842519
 20
8.882874015748031
 30
0.0
 11
5.126968503937007
 21
8.909448818897637
 31
0.0
  0
LINE
  5
3615
330
1E
100
AcDbEntity
  8
7
100
AcDbLine
 10
5.126968503937007
 20
8.909448818897637
 30
0.0
 11
5.117125984251968
 21
8.933070866141731
 31
0.0
  0
LINE
  5
3616
330
1E
100
AcDbEntity
  8
7
100
AcDbLine
 10
5.117125984251968
 20
8.933070866141731
 30
0.0
 11
5.101377952755905
 21
8.953740157480314
 31
0.0
  0
LINE
  5
3617
330
1E
100
AcDbEntity
  8
7
100
AcDbLine
 10
5.101377952755905
 20
8.953740157480314
 30
0.0
 11
5.080708661417322
 21
8.969488188976377
 31
0.0
  0
LINE
  5
3618
330
1E
100
AcDbEntity
  8
7
100
AcDbLine
 10
5.080708661417322
 20
8.969488188976377
 30
0.0
 11
5.056102362204724
 21
8.979330708661416
 31
0.0
  0
LINE
  5
3619
330
1E
100
AcDbEntity
  8
7
100
AcDbLine
 10
5.056102362204724
 20
8.979330708661416
 30
0.0
 11
5.030511811023621
 21
8.983267716535433
 31
0.0
  0
LINE
  5
361A
330
1E
100
AcDbEntity
  8
7
100
AcDbLine
 10
5.030511811023621
 20
8.983267716535433
 30
0.0
 11
5.028543307086613
 21
8.981299212598424
 31
0.0
  0
LINE
  5
361B
330
1E
100
AcDbEntity
  8
7
100
AcDbLine
 10
5.098425196850393
 20
8.880905511811024
 30
0.0
 11
5.098425196850393
 21
7.116141732283463
 31
0.0
  0
LINE
  5
361C
330
1E
100
AcDbEntity
  8
7
100
AcDbLine
 10
5.098425196850393
 20
7.116141732283463
 30
0.0
 11
5.119094488188975
 21
7.116141732283463
 31
0.0
  0
LINE
  5
361D
330
1E
100
AcDbEntity
  8
7
100
AcDbLine
 10
5.119094488188975
 20
7.116141732283463
 30
0.0
 11
5.127952755905511
 21
7.116141732283463
 31
0.0
  0
LINE
  5
361E
330
1E
100
AcDbEntity
  8
7
100
AcDbLine
 10
5.068897637795275
 20
8.937992125984251
 30
0.0
 11
5.084645669291337
 21
8.922244094488188
 31
0.0
  0
LINE
  5
361F
330
1E
100
AcDbEntity
  8
7
100
AcDbLine
 10
5.084645669291337
 20
8.922244094488188
 30
0.0
 11
5.094488188976377
 21
8.902559055118109
 31
0.0
  0
LINE
  5
3620
330
1E
100
AcDbEntity
  8
7
100
AcDbLine
 10
5.094488188976377
 20
8.902559055118109
 30
0.0
 11
5.098425196850393
 21
8.880905511811024
 31
0.0
  0
LINE
  5
3621
330
1E
100
AcDbEntity
  8
7
100
AcDbLine
 10
5.098425196850393
 20
8.880905511811024
 30
0.0
 11
5.119094488188975
 21
8.880905511811024
 31
0.0
  0
LINE
  5
3622
330
1E
100
AcDbEntity
  8
7
100
AcDbLine
 10
5.119094488188975
 20
8.880905511811024
 30
0.0
 11
5.127952755905511
 21
8.880905511811024
 31
0.0
  0
LINE
  5
3623
330
1E
100
AcDbEntity
  8
7
100
AcDbLine
 10
5.127952755905511
 20
8.880905511811024
 30
0.0
 11
5.125
 21
8.906496062992125
 31
0.0
  0
LINE
  5
3624
330
1E
100
AcDbEntity
  8
7
100
AcDbLine
 10
5.125
 20
8.906496062992125
 30
0.0
 11
5.114173228346456
 21
8.931102362204724
 31
0.0
  0
LINE
  5
3625
330
1E
100
AcDbEntity
  8
7
100
AcDbLine
 10
5.114173228346456
 20
8.931102362204724
 30
0.0
 11
5.098425196850393
 21
8.951771653543307
 31
0.0
  0
LINE
  5
3626
330
1E
100
AcDbEntity
  8
7
100
AcDbLine
 10
5.098425196850393
 20
8.951771653543307
 30
0.0
 11
5.077755905511811
 21
8.96751968503937
 31
0.0
  0
LINE
  5
3627
330
1E
100
AcDbEntity
  8
7
100
AcDbLine
 10
5.077755905511811
 20
8.96751968503937
 30
0.0
 11
5.054133858267715
 21
8.977362204724409
 31
0.0
  0
LINE
  5
3628
330
1E
100
AcDbEntity
  8
7
100
AcDbLine
 10
5.054133858267715
 20
8.977362204724409
 30
0.0
 11
5.028543307086613
 21
8.981299212598424
 31
0.0
  0
LINE
  5
3629
330
1E
100
AcDbEntity
  8
7
100
AcDbLine
 10
5.028543307086613
 20
8.950787401574801
 30
0.0
 11
5.0501968503937
 21
8.94783464566929
 31
0.0
  0
LINE
  5
362A
330
1E
100
AcDbEntity
  8
7
100
AcDbLine
 10
5.0501968503937
 20
8.94783464566929
 30
0.0
 11
5.068897637795275
 21
8.937992125984251
 31
0.0
  0
LINE
  5
362B
330
1E
100
AcDbEntity
  8
7
100
AcDbLine
 10
5.028543307086613
 20
8.950787401574801
 30
0.0
 11
5.028543307086613
 21
8.971456692913385
 31
0.0
  0
LINE
  5
362C
330
1E
100
AcDbEntity
  8
7
100
AcDbLine
 10
5.028543307086613
 20
8.971456692913385
 30
0.0
 11
5.028543307086613
 21
8.981299212598424
 31
0.0
  0
LINE
  5
362D
330
1E
100
AcDbEntity
  8
7
100
AcDbLine
 10
3.375
 20
7.77263779527559
 30
0.0
 11
3.388779527559054
 21
7.755905511811024
 31
0.0
  0
LINE
  5
362E
330
1E
100
AcDbEntity
  8
7
100
AcDbLine
 10
3.388779527559054
 20
7.755905511811024
 30
0.0
 11
3.409448818897637
 21
7.743110236220472
 31
0.0
  0
LINE
  5
362F
330
1E
100
AcDbEntity
  8
7
100
AcDbLine
 10
3.409448818897637
 20
7.743110236220472
 30
0.0
 11
3.433070866141732
 21
7.736220472440944
 31
0.0
  0
LINE
  5
3630
330
1E
100
AcDbEntity
  8
7
100
AcDbLine
 10
3.433070866141732
 20
7.736220472440944
 30
0.0
 11
3.458661417322834
 21
7.733267716535433
 31
0.0
  0
LINE
  5
3631
330
1E
100
AcDbEntity
  8
7
100
AcDbLine
 10
4.835629921259842
 20
7.733267716535433
 30
0.0
 11
4.861220472440944
 21
7.736220472440944
 31
0.0
  0
LINE
  5
3632
330
1E
100
AcDbEntity
  8
7
100
AcDbLine
 10
4.861220472440944
 20
7.736220472440944
 30
0.0
 11
4.885826771653542
 21
7.743110236220472
 31
0.0
  0
LINE
  5
3633
330
1E
100
AcDbEntity
  8
7
100
AcDbLine
 10
4.885826771653542
 20
7.743110236220472
 30
0.0
 11
4.905511811023621
 21
7.755905511811024
 31
0.0
  0
LINE
  5
3634
330
1E
100
AcDbEntity
  8
7
100
AcDbLine
 10
4.905511811023621
 20
7.755905511811024
 30
0.0
 11
4.92027559055118
 21
7.77263779527559
 31
0.0
  0
LINE
  5
3635
330
1E
100
AcDbEntity
  8
7
100
AcDbLine
 10
4.826771653543306
 20
7.624015748031496
 30
0.0
 11
4.834645669291337
 21
7.625
 31
0.0
  0
LINE
  5
3636
330
1E
100
AcDbEntity
  8
7
100
AcDbLine
 10
4.834645669291337
 20
7.625
 30
0.0
 11
4.840551181102362
 21
7.625
 31
0.0
  0
LINE
  5
3637
330
1E
100
AcDbEntity
  8
7
100
AcDbLine
 10
4.810039370078739
 20
7.61023622047244
 30
0.0
 11
4.810039370078739
 21
7.611220472440944
 31
0.0
  0
LINE
  5
3638
330
1E
100
AcDbEntity
  8
7
100
AcDbLine
 10
4.810039370078739
 20
7.611220472440944
 30
0.0
 11
4.811023622047243
 21
7.613188976377951
 31
0.0
  0
LINE
  5
3639
330
1E
100
AcDbEntity
  8
7
100
AcDbLine
 10
4.811023622047243
 20
7.613188976377951
 30
0.0
 11
4.812992125984251
 21
7.615157480314961
 31
0.0
  0
LINE
  5
363A
330
1E
100
AcDbEntity
  8
7
100
AcDbLine
 10
4.812992125984251
 20
7.615157480314961
 30
0.0
 11
4.815944881889763
 21
7.618110236220472
 31
0.0
  0
LINE
  5
363B
330
1E
100
AcDbEntity
  8
7
100
AcDbLine
 10
4.815944881889763
 20
7.618110236220472
 30
0.0
 11
4.820866141732283
 21
7.621062992125983
 31
0.0
  0
LINE
  5
363C
330
1E
100
AcDbEntity
  8
7
100
AcDbLine
 10
4.820866141732283
 20
7.621062992125983
 30
0.0
 11
4.826771653543306
 21
7.624015748031496
 31
0.0
  0
LINE
  5
363D
330
1E
100
AcDbEntity
  8
7
100
AcDbLine
 10
4.966535433070865
 20
7.690944881889762
 30
0.0
 11
4.966535433070865
 21
7.693897637795275
 31
0.0
  0
LINE
  5
363E
330
1E
100
AcDbEntity
  8
7
100
AcDbLine
 10
4.966535433070865
 20
7.693897637795275
 30
0.0
 11
4.965551181102362
 21
7.702755905511811
 31
0.0
  0
LINE
  5
363F
330
1E
100
AcDbEntity
  8
7
100
AcDbLine
 10
4.965551181102362
 20
7.702755905511811
 30
0.0
 11
4.961614173228346
 21
7.71259842519685
 31
0.0
  0
LINE
  5
3640
330
1E
100
AcDbEntity
  8
7
100
AcDbLine
 10
4.961614173228346
 20
7.71259842519685
 30
0.0
 11
4.956692913385826
 21
7.720472440944881
 31
0.0
  0
LINE
  5
3641
330
1E
100
AcDbEntity
  8
7
100
AcDbLine
 10
4.956692913385826
 20
7.720472440944881
 30
0.0
 11
4.950787401574802
 21
7.728346456692912
 31
0.0
  0
LINE
  5
3642
330
1E
100
AcDbEntity
  8
7
100
AcDbLine
 10
4.950787401574802
 20
7.728346456692912
 30
0.0
 11
4.941929133858267
 21
7.73523622047244
 31
0.0
  0
LINE
  5
3643
330
1E
100
AcDbEntity
  8
7
100
AcDbLine
 10
4.941929133858267
 20
7.73523622047244
 30
0.0
 11
4.932086614173227
 21
7.741141732283464
 31
0.0
  0
LINE
  5
3644
330
1E
100
AcDbEntity
  8
7
100
AcDbLine
 10
4.932086614173227
 20
7.741141732283464
 30
0.0
 11
4.922244094488188
 21
7.745078740157479
 31
0.0
  0
LINE
  5
3645
330
1E
100
AcDbEntity
  8
7
100
AcDbLine
 10
4.922244094488188
 20
7.745078740157479
 30
0.0
 11
4.910433070866141
 21
7.748031496062992
 31
0.0
  0
LINE
  5
3646
330
1E
100
AcDbEntity
  8
7
100
AcDbLine
 10
4.910433070866141
 20
7.748031496062992
 30
0.0
 11
4.897637795275589
 21
7.75
 31
0.0
  0
LINE
  5
3647
330
1E
100
AcDbEntity
  8
7
100
AcDbLine
 10
4.897637795275589
 20
7.75
 30
0.0
 11
4.895669291338582
 21
7.75
 31
0.0
  0
LINE
  5
3648
330
1E
100
AcDbEntity
  8
7
100
AcDbLine
 10
4.891732283464566
 20
7.625
 30
0.0
 11
4.898622047244094
 21
7.625984251968503
 31
0.0
  0
LINE
  5
3649
330
1E
100
AcDbEntity
  8
7
100
AcDbLine
 10
4.898622047244094
 20
7.625984251968503
 30
0.0
 11
4.910433070866141
 21
7.626968503937007
 31
0.0
  0
LINE
  5
364A
330
1E
100
AcDbEntity
  8
7
100
AcDbLine
 10
4.910433070866141
 20
7.626968503937007
 30
0.0
 11
4.922244094488188
 21
7.630905511811024
 31
0.0
  0
LINE
  5
364B
330
1E
100
AcDbEntity
  8
7
100
AcDbLine
 10
4.922244094488188
 20
7.630905511811024
 30
0.0
 11
4.934055118110236
 21
7.634842519685038
 31
0.0
  0
LINE
  5
364C
330
1E
100
AcDbEntity
  8
7
100
AcDbLine
 10
4.934055118110236
 20
7.634842519685038
 30
0.0
 11
4.943897637795275
 21
7.641732283464566
 31
0.0
  0
LINE
  5
364D
330
1E
100
AcDbEntity
  8
7
100
AcDbLine
 10
4.943897637795275
 20
7.641732283464566
 30
0.0
 11
4.951771653543306
 21
7.648622047244094
 31
0.0
  0
LINE
  5
364E
330
1E
100
AcDbEntity
  8
7
100
AcDbLine
 10
4.951771653543306
 20
7.648622047244094
 30
0.0
 11
4.958661417322834
 21
7.657480314960629
 31
0.0
  0
LINE
  5
364F
330
1E
100
AcDbEntity
  8
7
100
AcDbLine
 10
4.958661417322834
 20
7.657480314960629
 30
0.0
 11
4.963582677165353
 21
7.667322834645668
 31
0.0
  0
LINE
  5
3650
330
1E
100
AcDbEntity
  8
7
100
AcDbLine
 10
4.963582677165353
 20
7.667322834645668
 30
0.0
 11
4.966535433070865
 21
7.677165354330707
 31
0.0
  0
LINE
  5
3651
330
1E
100
AcDbEntity
  8
7
100
AcDbLine
 10
4.966535433070865
 20
7.677165354330707
 30
0.0
 11
4.966535433070865
 21
7.684055118110235
 31
0.0
  0
LINE
  5
3652
330
1E
100
AcDbEntity
  8
7
100
AcDbLine
 10
3.465551181102362
 20
7.624015748031496
 30
0.0
 11
3.472440944881889
 21
7.622047244094487
 31
0.0
  0
LINE
  5
3653
330
1E
100
AcDbEntity
  8
7
100
AcDbLine
 10
3.472440944881889
 20
7.622047244094487
 30
0.0
 11
3.477362204724409
 21
7.619094488188975
 31
0.0
  0
LINE
  5
3654
330
1E
100
AcDbEntity
  8
7
100
AcDbLine
 10
3.477362204724409
 20
7.619094488188975
 30
0.0
 11
3.481299212598425
 21
7.616141732283464
 31
0.0
  0
LINE
  5
3655
330
1E
100
AcDbEntity
  8
7
100
AcDbLine
 10
3.481299212598425
 20
7.616141732283464
 30
0.0
 11
3.483267716535432
 21
7.613188976377951
 31
0.0
  0
LINE
  5
3656
330
1E
100
AcDbEntity
  8
7
100
AcDbLine
 10
3.483267716535432
 20
7.613188976377951
 30
0.0
 11
3.484251968503937
 21
7.611220472440944
 31
0.0
  0
LINE
  5
3657
330
1E
100
AcDbEntity
  8
7
100
AcDbLine
 10
3.484251968503937
 20
7.611220472440944
 30
0.0
 11
3.484251968503937
 21
7.61023622047244
 31
0.0
  0
LINE
  5
3658
330
1E
100
AcDbEntity
  8
7
100
AcDbLine
 10
3.454724409448818
 20
7.625
 30
0.0
 11
3.45767716535433
 21
7.625
 31
0.0
  0
LINE
  5
3659
330
1E
100
AcDbEntity
  8
7
100
AcDbLine
 10
3.45767716535433
 20
7.625
 30
0.0
 11
3.465551181102362
 21
7.624015748031496
 31
0.0
  0
LINE
  5
365A
330
1E
100
AcDbEntity
  8
7
100
AcDbLine
 10
3.398622047244094
 20
7.75
 30
0.0
 11
3.395669291338582
 21
7.75
 31
0.0
  0
LINE
  5
365B
330
1E
100
AcDbEntity
  8
7
100
AcDbLine
 10
3.395669291338582
 20
7.75
 30
0.0
 11
3.383858267716535
 21
7.748031496062992
 31
0.0
  0
LINE
  5
365C
330
1E
100
AcDbEntity
  8
7
100
AcDbLine
 10
3.383858267716535
 20
7.748031496062992
 30
0.0
 11
3.372047244094487
 21
7.745078740157479
 31
0.0
  0
LINE
  5
365D
330
1E
100
AcDbEntity
  8
7
100
AcDbLine
 10
3.372047244094487
 20
7.745078740157479
 30
0.0
 11
3.361220472440944
 21
7.740157480314961
 31
0.0
  0
LINE
  5
365E
330
1E
100
AcDbEntity
  8
7
100
AcDbLine
 10
3.361220472440944
 20
7.740157480314961
 30
0.0
 11
3.351377952755905
 21
7.734251968503937
 31
0.0
  0
LINE
  5
365F
330
1E
100
AcDbEntity
  8
7
100
AcDbLine
 10
3.351377952755905
 20
7.734251968503937
 30
0.0
 11
3.34251968503937
 21
7.726377952755905
 31
0.0
  0
LINE
  5
3660
330
1E
100
AcDbEntity
  8
7
100
AcDbLine
 10
3.34251968503937
 20
7.726377952755905
 30
0.0
 11
3.335629921259842
 21
7.718503937007874
 31
0.0
  0
LINE
  5
3661
330
1E
100
AcDbEntity
  8
7
100
AcDbLine
 10
3.335629921259842
 20
7.718503937007874
 30
0.0
 11
3.330708661417323
 21
7.708661417322835
 31
0.0
  0
LINE
  5
3662
330
1E
100
AcDbEntity
  8
7
100
AcDbLine
 10
3.330708661417323
 20
7.708661417322835
 30
0.0
 11
3.328740157480314
 21
7.698818897637794
 31
0.0
  0
LINE
  5
3663
330
1E
100
AcDbEntity
  8
7
100
AcDbLine
 10
3.328740157480314
 20
7.698818897637794
 30
0.0
 11
3.327755905511811
 21
7.691929133858266
 31
0.0
  0
LINE
  5
3664
330
1E
100
AcDbEntity
  8
7
100
AcDbLine
 10
3.327755905511811
 20
7.685039370078738
 30
0.0
 11
3.327755905511811
 21
7.682086614173227
 31
0.0
  0
LINE
  5
3665
330
1E
100
AcDbEntity
  8
7
100
AcDbLine
 10
3.327755905511811
 20
7.682086614173227
 30
0.0
 11
3.329724409448818
 21
7.672244094488188
 31
0.0
  0
LINE
  5
3666
330
1E
100
AcDbEntity
  8
7
100
AcDbLine
 10
3.329724409448818
 20
7.672244094488188
 30
0.0
 11
3.33267716535433
 21
7.663385826771653
 31
0.0
  0
LINE
  5
3667
330
1E
100
AcDbEntity
  8
7
100
AcDbLine
 10
3.33267716535433
 20
7.663385826771653
 30
0.0
 11
3.33759842519685
 21
7.654527559055118
 31
0.0
  0
LINE
  5
3668
330
1E
100
AcDbEntity
  8
7
100
AcDbLine
 10
3.33759842519685
 20
7.654527559055118
 30
0.0
 11
3.344488188976377
 21
7.64763779527559
 31
0.0
  0
LINE
  5
3669
330
1E
100
AcDbEntity
  8
7
100
AcDbLine
 10
3.344488188976377
 20
7.64763779527559
 30
0.0
 11
3.352362204724409
 21
7.640748031496062
 31
0.0
  0
LINE
  5
366A
330
1E
100
AcDbEntity
  8
7
100
AcDbLine
 10
3.352362204724409
 20
7.640748031496062
 30
0.0
 11
3.362204724409449
 21
7.634842519685038
 31
0.0
  0
LINE
  5
366B
330
1E
100
AcDbEntity
  8
7
100
AcDbLine
 10
3.362204724409449
 20
7.634842519685038
 30
0.0
 11
3.373031496062991
 21
7.629921259842518
 31
0.0
  0
LINE
  5
366C
330
1E
100
AcDbEntity
  8
7
100
AcDbLine
 10
3.373031496062991
 20
7.629921259842518
 30
0.0
 11
3.384842519685038
 21
7.626968503937007
 31
0.0
  0
LINE
  5
366D
330
1E
100
AcDbEntity
  8
7
100
AcDbLine
 10
3.384842519685038
 20
7.626968503937007
 30
0.0
 11
3.396653543307086
 21
7.625984251968503
 31
0.0
  0
LINE
  5
366E
330
1E
100
AcDbEntity
  8
7
100
AcDbLine
 10
3.396653543307086
 20
7.625984251968503
 30
0.0
 11
3.40255905511811
 21
7.625
 31
0.0
  0
LINE
  5
366F
330
1E
100
AcDbEntity
  8
7
100
AcDbLine
 10
4.790354330708661
 20
7.304133858267716
 30
0.0
 11
4.799212598425196
 21
7.306102362204724
 31
0.0
  0
LINE
  5
3670
330
1E
100
AcDbEntity
  8
7
100
AcDbLine
 10
4.799212598425196
 20
7.306102362204724
 30
0.0
 11
4.806102362204724
 21
7.312007874015748
 31
0.0
  0
LINE
  5
3671
330
1E
100
AcDbEntity
  8
7
100
AcDbLine
 10
4.153543307086613
 20
7.73523622047244
 30
0.0
 11
4.15255905511811
 21
7.733267716535433
 31
0.0
  0
LINE
  5
3672
330
1E
100
AcDbEntity
  8
7
100
AcDbLine
 10
4.15255905511811
 20
7.733267716535433
 30
0.0
 11
4.15255905511811
 21
7.73031496062992
 31
0.0
  0
LINE
  5
3673
330
1E
100
AcDbEntity
  8
7
100
AcDbLine
 10
3.488188976377952
 20
7.312007874015748
 30
0.0
 11
3.495078740157479
 21
7.306102362204724
 31
0.0
  0
LINE
  5
3674
330
1E
100
AcDbEntity
  8
7
100
AcDbLine
 10
3.495078740157479
 20
7.306102362204724
 30
0.0
 11
3.503937007874015
 21
7.304133858267716
 31
0.0
  0
LINE
  5
3675
330
1E
100
AcDbEntity
  8
7
100
AcDbLine
 10
4.141732283464566
 20
7.73031496062992
 30
0.0
 11
4.141732283464566
 21
7.733267716535433
 31
0.0
  0
LINE
  5
3676
330
1E
100
AcDbEntity
  8
7
100
AcDbLine
 10
4.141732283464566
 20
7.733267716535433
 30
0.0
 11
4.140748031496062
 21
7.73523622047244
 31
0.0
  0
LINE
  5
3898
330
1E
100
AcDbEntity
  8
7
100
AcDbLine
 10
6.453740157480314
 20
7.638779527559055
 30
0.0
 11
6.456692913385826
 21
7.635826771653542
 31
0.0
  0
LINE
  5
3899
330
1E
100
AcDbEntity
  8
7
100
AcDbLine
 10
6.456692913385826
 20
7.635826771653542
 30
0.0
 11
6.464566929133858
 21
7.626968503937007
 31
0.0
  0
LINE
  5
389A
330
1E
100
AcDbEntity
  8
7
100
AcDbLine
 10
6.453740157480314
 20
7.638779527559055
 30
0.0
 11
6.459645669291337
 21
7.652559055118109
 31
0.0
  0
LINE
  5
389B
330
1E
100
AcDbEntity
  8
7
100
AcDbLine
 10
6.459645669291337
 20
7.652559055118109
 30
0.0
 11
6.453740157480314
 21
7.666338582677164
 31
0.0
  0
LINE
  5
389C
330
1E
100
AcDbEntity
  8
7
100
AcDbLine
 10
6.391732283464566
 20
7.700787401574803
 30
0.0
 11
6.410433070866141
 21
7.682086614173227
 31
0.0
  0
LINE
  5
389D
330
1E
100
AcDbEntity
  8
7
100
AcDbLine
 10
6.410433070866141
 20
7.682086614173227
 30
0.0
 11
6.427165354330708
 21
7.664370078740157
 31
0.0
  0
LINE
  5
389E
330
1E
100
AcDbEntity
  8
7
100
AcDbLine
 10
6.427165354330708
 20
7.664370078740157
 30
0.0
 11
6.441929133858267
 21
7.650590551181101
 31
0.0
  0
LINE
  5
389F
330
1E
100
AcDbEntity
  8
7
100
AcDbLine
 10
6.441929133858267
 20
7.650590551181101
 30
0.0
 11
6.450787401574802
 21
7.641732283464566
 31
0.0
  0
LINE
  5
38A0
330
1E
100
AcDbEntity
  8
7
100
AcDbLine
 10
6.450787401574802
 20
7.641732283464566
 30
0.0
 11
6.453740157480314
 21
7.638779527559055
 31
0.0
  0
LINE
  5
38A1
330
1E
100
AcDbEntity
  8
7
100
AcDbLine
 10
6.347440944881889
 20
7.744094488188975
 30
0.0
 11
6.351377952755905
 21
7.741141732283464
 31
0.0
  0
LINE
  5
38A2
330
1E
100
AcDbEntity
  8
7
100
AcDbLine
 10
6.351377952755905
 20
7.741141732283464
 30
0.0
 11
6.36023622047244
 21
7.732283464566929
 31
0.0
  0
LINE
  5
38A3
330
1E
100
AcDbEntity
  8
7
100
AcDbLine
 10
6.36023622047244
 20
7.732283464566929
 30
0.0
 11
6.374015748031495
 21
7.71751968503937
 31
0.0
  0
LINE
  5
38A4
330
1E
100
AcDbEntity
  8
7
100
AcDbLine
 10
6.374015748031495
 20
7.71751968503937
 30
0.0
 11
6.391732283464566
 21
7.700787401574803
 31
0.0
  0
LINE
  5
38A5
330
1E
100
AcDbEntity
  8
7
100
AcDbLine
 10
6.375984251968503
 20
7.744094488188975
 30
0.0
 11
6.362204724409448
 21
7.75
 31
0.0
  0
LINE
  5
38A6
330
1E
100
AcDbEntity
  8
7
100
AcDbLine
 10
6.362204724409448
 20
7.75
 30
0.0
 11
6.348425196850393
 21
7.744094488188975
 31
0.0
  0
LINE
  5
38A7
330
1E
100
AcDbEntity
  8
7
100
AcDbLine
 10
6.341535433070865
 20
7.737204724409448
 30
0.0
 11
6.335629921259842
 21
7.723425196850392
 31
0.0
  0
LINE
  5
38A8
330
1E
100
AcDbEntity
  8
7
100
AcDbLine
 10
6.335629921259842
 20
7.723425196850392
 30
0.0
 11
6.341535433070865
 21
7.709645669291338
 31
0.0
  0
LINE
  5
38A9
330
1E
100
AcDbEntity
  8
7
100
AcDbLine
 10
6.446850393700787
 20
7.630905511811024
 30
0.0
 11
6.443897637795275
 21
7.634842519685038
 31
0.0
  0
LINE
  5
38AA
330
1E
100
AcDbEntity
  8
7
100
AcDbLine
 10
6.443897637795275
 20
7.634842519685038
 30
0.0
 11
6.434055118110236
 21
7.643700787401574
 31
0.0
  0
LINE
  5
38AB
330
1E
100
AcDbEntity
  8
7
100
AcDbLine
 10
6.434055118110236
 20
7.643700787401574
 30
0.0
 11
6.42027559055118
 21
7.657480314960629
 31
0.0
  0
LINE
  5
38AC
330
1E
100
AcDbEntity
  8
7
100
AcDbLine
 10
6.42027559055118
 20
7.657480314960629
 30
0.0
 11
6.403543307086613
 21
7.6751968503937
 31
0.0
  0
LINE
  5
38AD
330
1E
100
AcDbEntity
  8
7
100
AcDbLine
 10
6.403543307086613
 20
7.6751968503937
 30
0.0
 11
6.384842519685038
 21
7.693897637795275
 31
0.0
  0
LINE
  5
38AE
330
1E
100
AcDbEntity
  8
7
100
AcDbLine
 10
6.384842519685038
 20
7.693897637795275
 30
0.0
 11
6.367125984251968
 21
7.710629921259842
 31
0.0
  0
LINE
  5
38AF
330
1E
100
AcDbEntity
  8
7
100
AcDbLine
 10
6.367125984251968
 20
7.710629921259842
 30
0.0
 11
6.353346456692912
 21
7.725393700787401
 31
0.0
  0
LINE
  5
38B0
330
1E
100
AcDbEntity
  8
7
100
AcDbLine
 10
6.353346456692912
 20
7.725393700787401
 30
0.0
 11
6.344488188976377
 21
7.734251968503937
 31
0.0
  0
LINE
  5
38B1
330
1E
100
AcDbEntity
  8
7
100
AcDbLine
 10
6.344488188976377
 20
7.734251968503937
 30
0.0
 11
6.340551181102362
 21
7.737204724409448
 31
0.0
  0
LINE
  5
38B2
330
1E
100
AcDbEntity
  8
7
100
AcDbLine
 10
6.419291338582676
 20
7.631889763779527
 30
0.0
 11
6.433070866141731
 21
7.625984251968503
 31
0.0
  0
LINE
  5
38B3
330
1E
100
AcDbEntity
  8
7
100
AcDbLine
 10
6.433070866141731
 20
7.625984251968503
 30
0.0
 11
6.446850393700787
 21
7.631889763779527
 31
0.0
  0
LINE
  5
38B4
330
1E
100
AcDbEntity
  8
7
100
AcDbLine
 10
6.45767716535433
 20
7.620078740157479
 30
0.0
 11
6.449803149606299
 21
7.627952755905511
 31
0.0
  0
LINE
  5
38B5
330
1E
100
AcDbEntity
  8
7
100
AcDbLine
 10
6.449803149606299
 20
7.627952755905511
 30
0.0
 11
6.446850393700787
 21
7.630905511811024
 31
0.0
  0
LINE
  5
38B6
330
1E
100
AcDbEntity
  8
7
100
AcDbLine
 10
6.478346456692912
 20
7.641732283464566
 30
0.0
 11
6.465551181102362
 21
7.654527559055118
 31
0.0
  0
LINE
  5
38B7
330
1E
100
AcDbEntity
  8
7
100
AcDbLine
 10
6.465551181102362
 20
7.654527559055118
 30
0.0
 11
6.456692913385826
 21
7.663385826771653
 31
0.0
  0
LINE
  5
38B8
330
1E
100
AcDbEntity
  8
7
100
AcDbLine
 10
6.456692913385826
 20
7.663385826771653
 30
0.0
 11
6.453740157480314
 21
7.666338582677164
 31
0.0
  0
LINE
  5
38B9
330
1E
100
AcDbEntity
  8
7
100
AcDbLine
 10
6.415354330708661
 20
7.705708661417322
 30
0.0
 11
6.400590551181101
 21
7.720472440944881
 31
0.0
  0
LINE
  5
38BA
330
1E
100
AcDbEntity
  8
7
100
AcDbLine
 10
6.400590551181101
 20
7.720472440944881
 30
0.0
 11
6.38779527559055
 21
7.733267716535433
 31
0.0
  0
LINE
  5
38BB
330
1E
100
AcDbEntity
  8
7
100
AcDbLine
 10
6.38779527559055
 20
7.733267716535433
 30
0.0
 11
6.378937007874015
 21
7.741141732283464
 31
0.0
  0
LINE
  5
38BC
330
1E
100
AcDbEntity
  8
7
100
AcDbLine
 10
6.378937007874015
 20
7.741141732283464
 30
0.0
 11
6.375984251968503
 21
7.744094488188975
 31
0.0
  0
LINE
  5
38BD
330
1E
100
AcDbEntity
  8
7
100
AcDbLine
 10
6.453740157480314
 20
7.666338582677164
 30
0.0
 11
6.450787401574802
 21
7.669291338582675
 31
0.0
  0
LINE
  5
38BE
330
1E
100
AcDbEntity
  8
7
100
AcDbLine
 10
6.450787401574802
 20
7.669291338582675
 30
0.0
 11
6.442913385826771
 21
7.678149606299212
 31
0.0
  0
LINE
  5
38BF
330
1E
100
AcDbEntity
  8
7
100
AcDbLine
 10
6.442913385826771
 20
7.678149606299212
 30
0.0
 11
6.43011811023622
 21
7.690944881889762
 31
0.0
  0
LINE
  5
38C0
330
1E
100
AcDbEntity
  8
7
100
AcDbLine
 10
6.43011811023622
 20
7.690944881889762
 30
0.0
 11
6.415354330708661
 21
7.705708661417322
 31
0.0
  0
LINE
  5
38C1
330
1E
100
AcDbEntity
  8
7
100
AcDbLine
 10
6.340551181102362
 20
7.708661417322835
 30
0.0
 11
6.343503937007874
 21
7.705708661417322
 31
0.0
  0
LINE
  5
38C2
330
1E
100
AcDbEntity
  8
7
100
AcDbLine
 10
6.343503937007874
 20
7.705708661417322
 30
0.0
 11
6.352362204724409
 21
7.69783464566929
 31
0.0
  0
LINE
  5
38C3
330
1E
100
AcDbEntity
  8
7
100
AcDbLine
 10
6.352362204724409
 20
7.69783464566929
 30
0.0
 11
6.36515748031496
 21
7.685039370078738
 31
0.0
  0
LINE
  5
38C4
330
1E
100
AcDbEntity
  8
7
100
AcDbLine
 10
6.36515748031496
 20
7.685039370078738
 30
0.0
 11
6.379921259842519
 21
7.670275590551181
 31
0.0
  0
LINE
  5
38C5
330
1E
100
AcDbEntity
  8
7
100
AcDbLine
 10
6.379921259842519
 20
7.670275590551181
 30
0.0
 11
6.394685039370078
 21
7.655511811023622
 31
0.0
  0
LINE
  5
38C6
330
1E
100
AcDbEntity
  8
7
100
AcDbLine
 10
6.394685039370078
 20
7.655511811023622
 30
0.0
 11
6.407480314960629
 21
7.64271653543307
 31
0.0
  0
LINE
  5
38C7
330
1E
100
AcDbEntity
  8
7
100
AcDbLine
 10
6.407480314960629
 20
7.64271653543307
 30
0.0
 11
6.415354330708661
 21
7.633858267716535
 31
0.0
  0
LINE
  5
38C8
330
1E
100
AcDbEntity
  8
7
100
AcDbLine
 10
6.415354330708661
 20
7.633858267716535
 30
0.0
 11
6.418307086614173
 21
7.630905511811024
 31
0.0
  0
LINE
  5
38C9
330
1E
100
AcDbEntity
  8
7
100
AcDbLine
 10
6.418307086614173
 20
7.630905511811024
 30
0.0
 11
6.422244094488188
 21
7.627952755905511
 31
0.0
  0
LINE
  5
38CA
330
1E
100
AcDbEntity
  8
7
100
AcDbLine
 10
6.422244094488188
 20
7.627952755905511
 30
0.0
 11
6.432086614173227
 21
7.618110236220472
 31
0.0
  0
LINE
  5
38CB
330
1E
100
AcDbEntity
  8
7
100
AcDbLine
 10
6.432086614173227
 20
7.618110236220472
 30
0.0
 11
6.445866141732283
 21
7.603346456692912
 31
0.0
  0
LINE
  5
38CC
330
1E
100
AcDbEntity
  8
7
100
AcDbLine
 10
6.667322834645668
 20
7.279527559055118
 30
0.0
 11
6.804133858267715
 21
7.143700787401574
 31
0.0
  0
LINE
  5
38CD
330
1E
100
AcDbEntity
  8
7
100
AcDbLine
 10
6.804133858267715
 20
7.143700787401574
 30
0.0
 11
6.806102362204724
 21
7.143700787401574
 31
0.0
  0
LINE
  5
38CE
330
1E
100
AcDbEntity
  8
7
100
AcDbLine
 10
6.467519685039369
 20
7.629921259842518
 30
0.0
 11
6.45767716535433
 21
7.620078740157479
 31
0.0
  0
LINE
  5
38CF
330
1E
100
AcDbEntity
  8
7
100
AcDbLine
 10
6.45767716535433
 20
7.620078740157479
 30
0.0
 11
6.450787401574802
 21
7.613188976377951
 31
0.0
  0
LINE
  5
38D0
330
1E
100
AcDbEntity
  8
7
100
AcDbLine
 10
6.450787401574802
 20
7.613188976377951
 30
0.0
 11
6.448818897637794
 21
7.611220472440944
 31
0.0
  0
LINE
  5
38D1
330
1E
100
AcDbEntity
  8
7
100
AcDbLine
 10
6.654527559055117
 20
7.348425196850392
 30
0.0
 11
6.643700787401574
 21
7.348425196850392
 31
0.0
  0
LINE
  5
38D2
330
1E
100
AcDbEntity
  8
7
100
AcDbLine
 10
6.643700787401574
 20
7.348425196850392
 30
0.0
 11
6.638779527559054
 21
7.348425196850392
 31
0.0
  0
LINE
  5
38D3
330
1E
100
AcDbEntity
  8
7
100
AcDbLine
 10
6.679133858267715
 20
7.290354330708661
 30
0.0
 11
6.671259842519684
 21
7.282480314960629
 31
0.0
  0
LINE
  5
38D4
330
1E
100
AcDbEntity
  8
7
100
AcDbLine
 10
6.671259842519684
 20
7.282480314960629
 30
0.0
 11
6.667322834645668
 21
7.279527559055118
 31
0.0
  0
LINE
  5
38D5
330
1E
100
AcDbEntity
  8
7
100
AcDbLine
 10
6.638779527559054
 20
7.348425196850392
 30
0.0
 11
6.646653543307086
 21
7.311023622047244
 31
0.0
  0
LINE
  5
38D6
330
1E
100
AcDbEntity
  8
7
100
AcDbLine
 10
6.646653543307086
 20
7.311023622047244
 30
0.0
 11
6.667322834645668
 21
7.279527559055118
 31
0.0
  0
LINE
  5
38D7
330
1E
100
AcDbEntity
  8
7
100
AcDbLine
 10
6.448818897637794
 20
7.611220472440944
 30
0.0
 11
6.445866141732283
 21
7.604330708661416
 31
0.0
  0
LINE
  5
38D8
330
1E
100
AcDbEntity
  8
7
100
AcDbLine
 10
6.445866141732283
 20
7.604330708661416
 30
0.0
 11
6.448818897637794
 21
7.597440944881888
 31
0.0
  0
LINE
  5
38D9
330
1E
100
AcDbEntity
  8
7
100
AcDbLine
 10
6.654527559055117
 20
7.52263779527559
 30
0.0
 11
6.643700787401574
 21
7.493110236220472
 31
0.0
  0
LINE
  5
38DA
330
1E
100
AcDbEntity
  8
7
100
AcDbLine
 10
6.643700787401574
 20
7.493110236220472
 30
0.0
 11
6.638779527559054
 21
7.465551181102361
 31
0.0
  0
LINE
  5
38DB
330
1E
100
AcDbEntity
  8
7
100
AcDbLine
 10
6.638779527559054
 20
7.465551181102361
 30
0.0
 11
6.638779527559054
 21
7.348425196850392
 31
0.0
  0
LINE
  5
38DC
330
1E
100
AcDbEntity
  8
7
100
AcDbLine
 10
6.448818897637794
 20
7.597440944881888
 30
0.0
 11
6.451771653543306
 21
7.599409448818898
 31
0.0
  0
LINE
  5
38DD
330
1E
100
AcDbEntity
  8
7
100
AcDbLine
 10
6.451771653543306
 20
7.599409448818898
 30
0.0
 11
6.459645669291337
 21
7.607283464566929
 31
0.0
  0
LINE
  5
38DE
330
1E
100
AcDbEntity
  8
7
100
AcDbLine
 10
6.459645669291337
 20
7.607283464566929
 30
0.0
 11
6.471456692913385
 21
7.620078740157479
 31
0.0
  0
LINE
  5
38DF
330
1E
100
AcDbEntity
  8
7
100
AcDbLine
 10
6.471456692913385
 20
7.620078740157479
 30
0.0
 11
6.487204724409448
 21
7.636811023622046
 31
0.0
  0
LINE
  5
38E0
330
1E
100
AcDbEntity
  8
7
100
AcDbLine
 10
6.654527559055117
 20
7.348425196850392
 30
0.0
 11
6.660433070866141
 21
7.316929133858266
 31
0.0
  0
LINE
  5
38E1
330
1E
100
AcDbEntity
  8
7
100
AcDbLine
 10
6.660433070866141
 20
7.316929133858266
 30
0.0
 11
6.678149606299212
 21
7.290354330708661
 31
0.0
  0
LINE
  5
38E2
330
1E
100
AcDbEntity
  8
7
100
AcDbLine
 10
6.323818897637794
 20
7.736220472440944
 30
0.0
 11
6.326771653543306
 21
7.738188976377951
 31
0.0
  0
LINE
  5
38E3
330
1E
100
AcDbEntity
  8
7
100
AcDbLine
 10
6.326771653543306
 20
7.738188976377951
 30
0.0
 11
6.33267716535433
 21
7.744094488188975
 31
0.0
  0
LINE
  5
38E4
330
1E
100
AcDbEntity
  8
7
100
AcDbLine
 10
6.33267716535433
 20
7.744094488188975
 30
0.0
 11
6.343503937007874
 21
7.753937007874014
 31
0.0
  0
LINE
  5
38E5
330
1E
100
AcDbEntity
  8
7
100
AcDbLine
 10
6.343503937007874
 20
7.753937007874014
 30
0.0
 11
6.356299212598425
 21
7.76771653543307
 31
0.0
  0
LINE
  5
38E6
330
1E
100
AcDbEntity
  8
7
100
AcDbLine
 10
6.301181102362204
 20
7.82283464566929
 30
0.0
 11
6.313976377952755
 21
7.835629921259842
 31
0.0
  0
LINE
  5
38E7
330
1E
100
AcDbEntity
  8
7
100
AcDbLine
 10
6.313976377952755
 20
7.835629921259842
 30
0.0
 11
6.327755905511811
 21
7.849409448818898
 31
0.0
  0
LINE
  5
38E8
330
1E
100
AcDbEntity
  8
7
100
AcDbLine
 10
6.327755905511811
 20
7.849409448818898
 30
0.0
 11
6.307086614173227
 21
7.869094488188975
 31
0.0
  0
LINE
  5
38E9
330
1E
100
AcDbEntity
  8
7
100
AcDbLine
 10
6.307086614173227
 20
7.869094488188975
 30
0.0
 11
6.288385826771652
 21
7.88779527559055
 31
0.0
  0
LINE
  5
38EA
330
1E
100
AcDbEntity
  8
7
100
AcDbLine
 10
6.288385826771652
 20
7.88779527559055
 30
0.0
 11
6.273622047244094
 21
7.901574803149605
 31
0.0
  0
LINE
  5
38EB
330
1E
100
AcDbEntity
  8
7
100
AcDbLine
 10
6.273622047244094
 20
7.901574803149605
 30
0.0
 11
6.264763779527558
 21
7.911417322834644
 31
0.0
  0
LINE
  5
38EC
330
1E
100
AcDbEntity
  8
7
100
AcDbLine
 10
6.264763779527558
 20
7.911417322834644
 30
0.0
 11
6.260826771653542
 21
7.914370078740157
 31
0.0
  0
LINE
  5
38ED
330
1E
100
AcDbEntity
  8
7
100
AcDbLine
 10
6.260826771653542
 20
7.913385826771653
 30
0.0
 11
6.245078740157479
 21
7.890748031496062
 31
0.0
  0
LINE
  5
38EE
330
1E
100
AcDbEntity
  8
7
100
AcDbLine
 10
6.245078740157479
 20
7.890748031496062
 30
0.0
 11
6.236220472440944
 21
7.863188976377951
 31
0.0
  0
LINE
  5
38EF
330
1E
100
AcDbEntity
  8
7
100
AcDbLine
 10
6.236220472440944
 20
7.863188976377951
 30
0.0
 11
6.236220472440944
 21
7.834645669291338
 31
0.0
  0
LINE
  5
38F0
330
1E
100
AcDbEntity
  8
7
100
AcDbLine
 10
6.236220472440944
 20
7.834645669291338
 30
0.0
 11
6.245078740157479
 21
7.807086614173227
 31
0.0
  0
LINE
  5
38F1
330
1E
100
AcDbEntity
  8
7
100
AcDbLine
 10
6.245078740157479
 20
7.807086614173227
 30
0.0
 11
6.26279527559055
 21
7.784448818897637
 31
0.0
  0
LINE
  5
38F2
330
1E
100
AcDbEntity
  8
7
100
AcDbLine
 10
6.26279527559055
 20
7.783464566929133
 30
0.0
 11
6.266732283464566
 21
7.788385826771653
 31
0.0
  0
LINE
  5
38F3
330
1E
100
AcDbEntity
  8
7
100
AcDbLine
 10
6.266732283464566
 20
7.788385826771653
 30
0.0
 11
6.280511811023621
 21
7.802165354330707
 31
0.0
  0
LINE
  5
38F4
330
1E
100
AcDbEntity
  8
7
100
AcDbLine
 10
6.280511811023621
 20
7.802165354330707
 30
0.0
 11
6.301181102362204
 21
7.82283464566929
 31
0.0
  0
LINE
  5
38F5
330
1E
100
AcDbEntity
  8
7
100
AcDbLine
 10
6.349409448818897
 20
7.774606299212598
 30
0.0
 11
6.333661417322834
 21
7.758858267716535
 31
0.0
  0
LINE
  5
38F6
330
1E
100
AcDbEntity
  8
7
100
AcDbLine
 10
6.333661417322834
 20
7.758858267716535
 30
0.0
 11
6.320866141732283
 21
7.746062992125983
 31
0.0
  0
LINE
  5
38F7
330
1E
100
AcDbEntity
  8
7
100
AcDbLine
 10
6.320866141732283
 20
7.746062992125983
 30
0.0
 11
6.312992125984251
 21
7.738188976377951
 31
0.0
  0
LINE
  5
38F8
330
1E
100
AcDbEntity
  8
7
100
AcDbLine
 10
6.312992125984251
 20
7.738188976377951
 30
0.0
 11
6.310039370078739
 21
7.736220472440944
 31
0.0
  0
LINE
  5
38F9
330
1E
100
AcDbEntity
  8
7
100
AcDbLine
 10
6.310039370078739
 20
7.736220472440944
 30
0.0
 11
6.316929133858267
 21
7.733267716535433
 31
0.0
  0
LINE
  5
38FA
330
1E
100
AcDbEntity
  8
7
100
AcDbLine
 10
6.316929133858267
 20
7.733267716535433
 30
0.0
 11
6.323818897637794
 21
7.736220472440944
 31
0.0
  0
LINE
  5
38FB
330
1E
100
AcDbEntity
  8
7
100
AcDbLine
 10
7.101377952755905
 20
7.096456692913385
 30
0.0
 11
7.101377952755905
 21
7.098425196850393
 31
0.0
  0
LINE
  5
38FC
330
1E
100
AcDbEntity
  8
7
100
AcDbLine
 10
7.101377952755905
 20
7.098425196850393
 30
0.0
 11
7.101377952755905
 21
7.104330708661416
 31
0.0
  0
LINE
  5
38FD
330
1E
100
AcDbEntity
  8
7
100
AcDbLine
 10
7.109251968503937
 20
7.333661417322835
 30
0.0
 11
7.11515748031496
 21
7.347440944881888
 31
0.0
  0
LINE
  5
38FE
330
1E
100
AcDbEntity
  8
7
100
AcDbLine
 10
7.11515748031496
 20
7.347440944881888
 30
0.0
 11
7.128937007874015
 21
7.353346456692912
 31
0.0
  0
LINE
  5
38FF
330
1E
100
AcDbEntity
  8
7
100
AcDbLine
 10
7.128937007874015
 20
7.353346456692912
 30
0.0
 11
7.193897637795275
 21
7.353346456692912
 31
0.0
  0
LINE
  5
3900
330
1E
100
AcDbEntity
  8
7
100
AcDbLine
 10
7.193897637795275
 20
7.353346456692912
 30
0.0
 11
7.211614173228346
 21
7.344488188976377
 31
0.0
  0
LINE
  5
3901
330
1E
100
AcDbEntity
  8
7
100
AcDbLine
 10
7.211614173228346
 20
7.344488188976377
 30
0.0
 11
7.224409448818897
 21
7.329724409448818
 31
0.0
  0
LINE
  5
3902
330
1E
100
AcDbEntity
  8
7
100
AcDbLine
 10
6.933070866141731
 20
8.91043307086614
 30
0.0
 11
6.931102362204724
 21
8.91043307086614
 31
0.0
  0
LINE
  5
3903
330
1E
100
AcDbEntity
  8
7
100
AcDbLine
 10
6.931102362204724
 20
8.91043307086614
 30
0.0
 11
6.93011811023622
 21
8.91043307086614
 31
0.0
  0
LINE
  5
3904
330
1E
100
AcDbEntity
  8
7
100
AcDbLine
 10
6.93011811023622
 20
8.91043307086614
 30
0.0
 11
6.927165354330708
 21
8.91043307086614
 31
0.0
  0
LINE
  5
3905
330
1E
100
AcDbEntity
  8
7
100
AcDbLine
 10
6.927165354330708
 20
8.91043307086614
 30
0.0
 11
6.9251968503937
 21
8.91043307086614
 31
0.0
  0
LINE
  5
3906
330
1E
100
AcDbEntity
  8
7
100
AcDbLine
 10
6.9251968503937
 20
8.91043307086614
 30
0.0
 11
6.924212598425196
 21
8.91043307086614
 31
0.0
  0
LINE
  5
3907
330
1E
100
AcDbEntity
  8
7
100
AcDbLine
 10
6.933070866141731
 20
8.739173228346455
 30
0.0
 11
6.933070866141731
 21
8.700787401574803
 31
0.0
  0
LINE
  5
3908
330
1E
100
AcDbEntity
  8
7
100
AcDbLine
 10
6.933070866141731
 20
8.700787401574803
 30
0.0
 11
6.933070866141731
 21
8.666338582677164
 31
0.0
  0
LINE
  5
3909
330
1E
100
AcDbEntity
  8
7
100
AcDbLine
 10
6.933070866141731
 20
8.666338582677164
 30
0.0
 11
6.933070866141731
 21
8.63779527559055
 31
0.0
  0
LINE
  5
390A
330
1E
100
AcDbEntity
  8
7
100
AcDbLine
 10
6.933070866141731
 20
8.63779527559055
 30
0.0
 11
6.933070866141731
 21
8.615157480314961
 31
0.0
  0
LINE
  5
390B
330
1E
100
AcDbEntity
  8
7
100
AcDbLine
 10
6.933070866141731
 20
8.615157480314961
 30
0.0
 11
6.933070866141731
 21
8.601377952755905
 31
0.0
  0
LINE
  5
390C
330
1E
100
AcDbEntity
  8
7
100
AcDbLine
 10
6.933070866141731
 20
8.601377952755905
 30
0.0
 11
6.933070866141731
 21
8.596456692913385
 31
0.0
  0
LINE
  5
390D
330
1E
100
AcDbEntity
  8
7
100
AcDbLine
 10
6.933070866141731
 20
8.91043307086614
 30
0.0
 11
6.933070866141731
 21
8.878937007874014
 31
0.0
  0
LINE
  5
390E
330
1E
100
AcDbEntity
  8
7
100
AcDbLine
 10
6.933070866141731
 20
8.878937007874014
 30
0.0
 11
6.933070866141731
 21
8.839566929133857
 31
0.0
  0
LINE
  5
390F
330
1E
100
AcDbEntity
  8
7
100
AcDbLine
 10
6.933070866141731
 20
8.839566929133857
 30
0.0
 11
6.933070866141731
 21
8.793307086614172
 31
0.0
  0
LINE
  5
3910
330
1E
100
AcDbEntity
  8
7
100
AcDbLine
 10
7.051181102362204
 20
8.908464566929133
 30
0.0
 11
7.051181102362204
 21
8.886811023622046
 31
0.0
  0
LINE
  5
3911
330
1E
100
AcDbEntity
  8
7
100
AcDbLine
 10
7.051181102362204
 20
8.886811023622046
 30
0.0
 11
7.051181102362204
 21
8.858267716535433
 31
0.0
  0
LINE
  5
3912
330
1E
100
AcDbEntity
  8
7
100
AcDbLine
 10
7.051181102362204
 20
8.858267716535433
 30
0.0
 11
7.051181102362204
 21
8.824803149606298
 31
0.0
  0
LINE
  5
3913
330
1E
100
AcDbEntity
  8
7
100
AcDbLine
 10
7.051181102362204
 20
8.824803149606298
 30
0.0
 11
7.051181102362204
 21
8.787401574803149
 31
0.0
  0
LINE
  5
3914
330
1E
100
AcDbEntity
  8
7
100
AcDbLine
 10
7.051181102362204
 20
8.787401574803149
 30
0.0
 11
7.051181102362204
 21
8.749015748031496
 31
0.0
  0
LINE
  5
3915
330
1E
100
AcDbEntity
  8
7
100
AcDbLine
 10
7.051181102362204
 20
8.749015748031496
 30
0.0
 11
7.051181102362204
 21
8.711614173228346
 31
0.0
  0
LINE
  5
3916
330
1E
100
AcDbEntity
  8
7
100
AcDbLine
 10
7.051181102362204
 20
8.711614173228346
 30
0.0
 11
7.051181102362204
 21
8.677165354330707
 31
0.0
  0
LINE
  5
3917
330
1E
100
AcDbEntity
  8
7
100
AcDbLine
 10
7.051181102362204
 20
8.677165354330707
 30
0.0
 11
7.051181102362204
 21
8.64763779527559
 31
0.0
  0
LINE
  5
3918
330
1E
100
AcDbEntity
  8
7
100
AcDbLine
 10
7.051181102362204
 20
8.64763779527559
 30
0.0
 11
7.051181102362204
 21
8.625984251968503
 31
0.0
  0
LINE
  5
3919
330
1E
100
AcDbEntity
  8
7
100
AcDbLine
 10
7.051181102362204
 20
8.625984251968503
 30
0.0
 11
7.051181102362204
 21
8.612204724409448
 31
0.0
  0
LINE
  5
391A
330
1E
100
AcDbEntity
  8
7
100
AcDbLine
 10
7.051181102362204
 20
8.612204724409448
 30
0.0
 11
7.051181102362204
 21
8.607283464566929
 31
0.0
  0
LINE
  5
391B
330
1E
100
AcDbEntity
  8
7
100
AcDbLine
 10
7.169291338582676
 20
8.049212598425196
 30
0.0
 11
7.169291338582676
 21
8.524606299212598
 31
0.0
  0
LINE
  5
391C
330
1E
100
AcDbEntity
  8
7
100
AcDbLine
 10
7.169291338582676
 20
8.524606299212598
 30
0.0
 11
7.07775590551181
 21
8.525590551181101
 31
0.0
  0
LINE
  5
391D
330
1E
100
AcDbEntity
  8
7
100
AcDbLine
 10
6.834645669291337
 20
7.016732283464566
 30
0.0
 11
6.898622047244094
 21
7.013779527559054
 31
0.0
  0
LINE
  5
391E
330
1E
100
AcDbEntity
  8
7
100
AcDbLine
 10
6.898622047244094
 20
7.013779527559054
 30
0.0
 11
6.898622047244094
 21
7.01771653543307
 31
0.0
  0
LINE
  5
391F
330
1E
100
AcDbEntity
  8
7
100
AcDbLine
 10
6.898622047244094
 20
7.01771653543307
 30
0.0
 11
6.898622047244094
 21
7.02755905511811
 31
0.0
  0
LINE
  5
3920
330
1E
100
AcDbEntity
  8
7
100
AcDbLine
 10
6.898622047244094
 20
7.02755905511811
 30
0.0
 11
6.898622047244094
 21
7.043307086614173
 31
0.0
  0
LINE
  5
3921
330
1E
100
AcDbEntity
  8
7
100
AcDbLine
 10
6.898622047244094
 20
7.043307086614173
 30
0.0
 11
6.898622047244094
 21
7.063976377952755
 31
0.0
  0
LINE
  5
3922
330
1E
100
AcDbEntity
  8
7
100
AcDbLine
 10
6.898622047244094
 20
7.063976377952755
 30
0.0
 11
6.898622047244094
 21
7.088582677165353
 31
0.0
  0
LINE
  5
3923
330
1E
100
AcDbEntity
  8
7
100
AcDbLine
 10
6.898622047244094
 20
7.088582677165353
 30
0.0
 11
6.898622047244094
 21
7.114173228346456
 31
0.0
  0
LINE
  5
3924
330
1E
100
AcDbEntity
  8
7
100
AcDbLine
 10
6.834645669291337
 20
7.016732283464566
 30
0.0
 11
6.834645669291337
 21
7.019685039370078
 31
0.0
  0
LINE
  5
3925
330
1E
100
AcDbEntity
  8
7
100
AcDbLine
 10
6.834645669291337
 20
7.019685039370078
 30
0.0
 11
6.834645669291337
 21
7.029527559055117
 31
0.0
  0
LINE
  5
3926
330
1E
100
AcDbEntity
  8
7
100
AcDbLine
 10
6.834645669291337
 20
7.029527559055117
 30
0.0
 11
6.834645669291337
 21
7.04527559055118
 31
0.0
  0
LINE
  5
3927
330
1E
100
AcDbEntity
  8
7
100
AcDbLine
 10
6.834645669291337
 20
7.04527559055118
 30
0.0
 11
6.834645669291337
 21
7.065944881889763
 31
0.0
  0
LINE
  5
3928
330
1E
100
AcDbEntity
  8
7
100
AcDbLine
 10
6.834645669291337
 20
7.065944881889763
 30
0.0
 11
6.834645669291337
 21
7.090551181102362
 31
0.0
  0
LINE
  5
3929
330
1E
100
AcDbEntity
  8
7
100
AcDbLine
 10
6.834645669291337
 20
7.090551181102362
 30
0.0
 11
6.834645669291337
 21
7.116141732283463
 31
0.0
  0
LINE
  5
392A
330
1E
100
AcDbEntity
  8
7
100
AcDbLine
 10
6.806102362204724
 20
7.046259842519684
 30
0.0
 11
6.813976377952755
 21
7.025590551181101
 31
0.0
  0
LINE
  5
392B
330
1E
100
AcDbEntity
  8
7
100
AcDbLine
 10
6.813976377952755
 20
7.025590551181101
 30
0.0
 11
6.834645669291337
 21
7.016732283464566
 31
0.0
  0
LINE
  5
392C
330
1E
100
AcDbEntity
  8
7
100
AcDbLine
 10
6.806102362204724
 20
7.116141732283463
 30
0.0
 11
6.806102362204724
 21
7.094488188976377
 31
0.0
  0
LINE
  5
392D
330
1E
100
AcDbEntity
  8
7
100
AcDbLine
 10
6.806102362204724
 20
7.094488188976377
 30
0.0
 11
6.806102362204724
 21
7.074803149606299
 31
0.0
  0
LINE
  5
392E
330
1E
100
AcDbEntity
  8
7
100
AcDbLine
 10
6.806102362204724
 20
7.074803149606299
 30
0.0
 11
6.806102362204724
 21
7.060039370078739
 31
0.0
  0
LINE
  5
392F
330
1E
100
AcDbEntity
  8
7
100
AcDbLine
 10
6.806102362204724
 20
7.060039370078739
 30
0.0
 11
6.806102362204724
 21
7.0501968503937
 31
0.0
  0
LINE
  5
3930
330
1E
100
AcDbEntity
  8
7
100
AcDbLine
 10
6.806102362204724
 20
7.0501968503937
 30
0.0
 11
6.806102362204724
 21
7.046259842519684
 31
0.0
  0
LINE
  5
3931
330
1E
100
AcDbEntity
  8
7
100
AcDbLine
 10
6.898622047244094
 20
8.882874015748031
 30
0.0
 11
6.898622047244094
 21
8.909448818897637
 31
0.0
  0
LINE
  5
3932
330
1E
100
AcDbEntity
  8
7
100
AcDbLine
 10
6.898622047244094
 20
8.909448818897637
 30
0.0
 11
6.898622047244094
 21
8.933070866141731
 31
0.0
  0
LINE
  5
3933
330
1E
100
AcDbEntity
  8
7
100
AcDbLine
 10
6.898622047244094
 20
8.933070866141731
 30
0.0
 11
6.898622047244094
 21
8.953740157480314
 31
0.0
  0
LINE
  5
3934
330
1E
100
AcDbEntity
  8
7
100
AcDbLine
 10
6.898622047244094
 20
8.953740157480314
 30
0.0
 11
6.898622047244094
 21
8.969488188976377
 31
0.0
  0
LINE
  5
3935
330
1E
100
AcDbEntity
  8
7
100
AcDbLine
 10
6.898622047244094
 20
8.969488188976377
 30
0.0
 11
6.898622047244094
 21
8.979330708661416
 31
0.0
  0
LINE
  5
3936
330
1E
100
AcDbEntity
  8
7
100
AcDbLine
 10
6.898622047244094
 20
8.979330708661416
 30
0.0
 11
6.898622047244094
 21
8.983267716535433
 31
0.0
  0
LINE
  5
3937
330
1E
100
AcDbEntity
  8
7
100
AcDbLine
 10
6.898622047244094
 20
8.983267716535433
 30
0.0
 11
6.834645669291337
 21
8.981299212598424
 31
0.0
  0
LINE
  5
3938
330
1E
100
AcDbEntity
  8
7
100
AcDbLine
 10
7.047244094488188
 20
8.741141732283464
 30
0.0
 11
7.047244094488188
 21
8.791338582677164
 31
0.0
  0
LINE
  5
3939
330
1E
100
AcDbEntity
  8
7
100
AcDbLine
 10
7.047244094488188
 20
8.791338582677164
 30
0.0
 11
6.924212598425196
 21
8.793307086614172
 31
0.0
  0
LINE
  5
393A
330
1E
100
AcDbEntity
  8
7
100
AcDbLine
 10
6.806102362204724
 20
8.880905511811024
 30
0.0
 11
6.806102362204724
 21
7.116141732283463
 31
0.0
  0
LINE
  5
393B
330
1E
100
AcDbEntity
  8
7
100
AcDbLine
 10
6.806102362204724
 20
7.116141732283463
 30
0.0
 11
6.813976377952755
 21
7.116141732283463
 31
0.0
  0
LINE
  5
393C
330
1E
100
AcDbEntity
  8
7
100
AcDbLine
 10
6.813976377952755
 20
7.116141732283463
 30
0.0
 11
6.834645669291337
 21
7.116141732283463
 31
0.0
  0
LINE
  5
393D
330
1E
100
AcDbEntity
  8
7
100
AcDbLine
 10
6.806102362204724
 20
8.950787401574801
 30
0.0
 11
6.806102362204724
 21
8.94783464566929
 31
0.0
  0
LINE
  5
393E
330
1E
100
AcDbEntity
  8
7
100
AcDbLine
 10
6.806102362204724
 20
8.94783464566929
 30
0.0
 11
6.806102362204724
 21
8.937992125984251
 31
0.0
  0
LINE
  5
393F
330
1E
100
AcDbEntity
  8
7
100
AcDbLine
 10
6.806102362204724
 20
8.937992125984251
 30
0.0
 11
6.806102362204724
 21
8.922244094488188
 31
0.0
  0
LINE
  5
3940
330
1E
100
AcDbEntity
  8
7
100
AcDbLine
 10
6.806102362204724
 20
8.922244094488188
 30
0.0
 11
6.806102362204724
 21
8.902559055118109
 31
0.0
  0
LINE
  5
3941
330
1E
100
AcDbEntity
  8
7
100
AcDbLine
 10
6.806102362204724
 20
8.902559055118109
 30
0.0
 11
6.806102362204724
 21
8.880905511811024
 31
0.0
  0
LINE
  5
3942
330
1E
100
AcDbEntity
  8
7
100
AcDbLine
 10
6.806102362204724
 20
8.880905511811024
 30
0.0
 11
6.813976377952755
 21
8.880905511811024
 31
0.0
  0
LINE
  5
3943
330
1E
100
AcDbEntity
  8
7
100
AcDbLine
 10
6.813976377952755
 20
8.880905511811024
 30
0.0
 11
6.834645669291337
 21
8.880905511811024
 31
0.0
  0
LINE
  5
3944
330
1E
100
AcDbEntity
  8
7
100
AcDbLine
 10
6.834645669291337
 20
8.880905511811024
 30
0.0
 11
6.834645669291337
 21
8.906496062992125
 31
0.0
  0
LINE
  5
3945
330
1E
100
AcDbEntity
  8
7
100
AcDbLine
 10
6.834645669291337
 20
8.906496062992125
 30
0.0
 11
6.834645669291337
 21
8.931102362204724
 31
0.0
  0
LINE
  5
3946
330
1E
100
AcDbEntity
  8
7
100
AcDbLine
 10
6.834645669291337
 20
8.931102362204724
 30
0.0
 11
6.834645669291337
 21
8.951771653543307
 31
0.0
  0
LINE
  5
3947
330
1E
100
AcDbEntity
  8
7
100
AcDbLine
 10
6.834645669291337
 20
8.951771653543307
 30
0.0
 11
6.834645669291337
 21
8.96751968503937
 31
0.0
  0
LINE
  5
3948
330
1E
100
AcDbEntity
  8
7
100
AcDbLine
 10
6.834645669291337
 20
8.96751968503937
 30
0.0
 11
6.834645669291337
 21
8.977362204724409
 31
0.0
  0
LINE
  5
3949
330
1E
100
AcDbEntity
  8
7
100
AcDbLine
 10
6.834645669291337
 20
8.977362204724409
 30
0.0
 11
6.834645669291337
 21
8.981299212598424
 31
0.0
  0
LINE
  5
394A
330
1E
100
AcDbEntity
  8
7
100
AcDbLine
 10
6.834645669291337
 20
8.98031496062992
 30
0.0
 11
6.813976377952755
 21
8.971456692913385
 31
0.0
  0
LINE
  5
394B
330
1E
100
AcDbEntity
  8
7
100
AcDbLine
 10
6.813976377952755
 20
8.971456692913385
 30
0.0
 11
6.806102362204724
 21
8.950787401574801
 31
0.0
  0
LINE
  5
394C
330
1E
100
AcDbEntity
  8
7
100
AcDbLine
 10
6.924212598425196
 20
7.118110236220472
 30
0.0
 11
6.924212598425196
 21
8.28543307086614
 31
0.0
  0
LINE
  5
394D
330
1E
100
AcDbEntity
  8
7
100
AcDbLine
 10
6.924212598425196
 20
8.28543307086614
 30
0.0
 11
6.898622047244094
 21
8.286417322834644
 31
0.0
  0
LINE
  5
394E
330
1E
100
AcDbEntity
  8
7
100
AcDbLine
 10
6.898622047244094
 20
8.286417322834644
 30
0.0
 11
6.898622047244094
 21
7.116141732283463
 31
0.0
  0
LINE
  5
394F
330
1E
100
AcDbEntity
  8
7
100
AcDbLine
 10
6.898622047244094
 20
7.116141732283463
 30
0.0
 11
6.924212598425196
 21
7.118110236220472
 31
0.0
  0
LINE
  5
3950
330
1E
100
AcDbEntity
  8
7
100
AcDbLine
 10
6.933070866141731
 20
8.596456692913385
 30
0.0
 11
6.927165354330708
 21
8.593503937007874
 31
0.0
  0
LINE
  5
3951
330
1E
100
AcDbEntity
  8
7
100
AcDbLine
 10
6.927165354330708
 20
8.593503937007874
 30
0.0
 11
6.924212598425196
 21
8.586614173228346
 31
0.0
  0
ENDSEC
  0
SECTION
  2
OBJECTS
  0
DICTIONARY
  5
C
330
0
100
AcDbDictionary
  3
ACAD_GROUP
350
D
  3
ACAD_LAYOUT
350
19
  3
ACAD_MLINESTYLE
350
16
  3
ACAD_PLOTSETTINGS
350
18
1001
ACAD
1000
TREAT_AS_HARD
1070
     0
  0
DICTIONARY
  5
3C30
330
1E
100
AcDbDictionary
  3
ACAD_LAYOUTSELFREF
350
3C69
1001
ACAD
1000
TREAT_AS_HARD
1070
     1
  0
DICTIONARY
  5
3C32
330
1A
100
AcDbDictionary
  3
ACAD_LAYOUTSELFREF
350
3C68
1001
ACAD
1000
TREAT_AS_HARD
1070
     1
  0
DICTIONARY
  5
D
102
{ACAD_REACTORS
330
C
102
}
330
C
100
AcDbDictionary
1001
ACAD
1000
TREAT_AS_HARD
1070
     0
  0
DICTIONARY
  5
19
102
{ACAD_REACTORS
330
C
102
}
330
C
100
AcDbDictionary
1001
ACAD
1000
TREAT_AS_HARD
1070
     0
  0
DICTIONARY
  5
16
102
{ACAD_REACTORS
330
C
102
}
330
C
100
AcDbDictionary
  3
STANDARD
350
17
1001
ACAD
1000
TREAT_AS_HARD
1070
     0
  0
DICTIONARY
  5
18
102
{ACAD_REACTORS
330
C
102
}
330
C
100
AcDbDictionary
1001
ACAD
1000
TREAT_AS_HARD
1070
     0
  0
XRECORD
  5
3C69
102
{ACAD_REACTORS
330
3C30
102
}
330
3C30
100
AcDbXrecord
340
1E
  0
XRECORD
  5
3C68
102
{ACAD_REACTORS
330
3C32
102
}
330
3C32
100
AcDbXrecord
340
1A
  0
MLINESTYLE
  5
17
102
{ACAD_REACTORS
330
16
102
}
330
16
100
AcDbMlineStyle
  2
STANDARD
 70
     0
  3

 62
   256
 51
90.0
 52
90.0
 71
     2
 49
0.5
 62
   256
  6
BYLAYER
 49
-0.5
 62
   256
  6
BYLAYER
  0
ENDSEC
  0
EOF
