  0
SECTION
  2
HEADER
  9
$ACADVER
  1
AC1012
  9
$DWGCODEPAGE
  3
ANSI_1252
  9
$INSBASE
 10
0.0
 20
0.0
 30
0.0
  9
$EXTMIN
 10
7.776434006954616
 20
10.7954988574422
 30
-0.0015258207003583
  9
$EXTMAX
 10
12.11530280241247
 20
14.24961583072611
 30
0.0000000349246037
  9
$LIMMIN
 10
0.0
 20
0.0
  9
$LIMMAX
 10
12.0
 20
9.0
  9
$ORTHOMODE
 70
     0
  9
$REGENMODE
 70
     1
  9
$FILLMODE
 70
     1
  9
$QTEXTMODE
 70
     0
  9
$MIRRTEXT
 70
     1
  9
$DRAGMODE
 70
     2
  9
$LTSCALE
 40
1.0
  9
$OSMODE
 70
    33
  9
$ATTMODE
 70
     1
  9
$TEXTSIZE
 40
0.2
  9
$TRACEWID
 40
0.05
  9
$TEXTSTYLE
  7
STANDARD
  9
$CLAYER
  8
0
  9
$CELTYPE
  6
BYLAYER
  9
$CECOLOR
 62
   256
  9
$CELTSCALE
 40
1.0
  9
$DELOBJ
 70
     1
  9
$DISPSILH
 70
     0
  9
$DIMSCALE
 40
1.0
  9
$DIMASZ
 40
0.18
  9
$DIMEXO
 40
0.0625
  9
$DIMDLI
 40
0.38
  9
$DIMRND
 40
0.0
  9
$DIMDLE
 40
0.0
  9
$DIMEXE
 40
0.18
  9
$DIMTP
 40
0.0
  9
$DIMTM
 40
0.0
  9
$DIMTXT
 40
0.18
  9
$DIMCEN
 40
0.09
  9
$DIMTSZ
 40
0.0
  9
$DIMTOL
 70
     0
  9
$DIMLIM
 70
     0
  9
$DIMTIH
 70
     1
  9
$DIMTOH
 70
     1
  9
$DIMSE1
 70
     0
  9
$DIMSE2
 70
     0
  9
$DIMTAD
 70
     0
  9
$DIMZIN
 70
     0
  9
$DIMBLK
  1

  9
$DIMASO
 70
     1
  9
$DIMSHO
 70
     1
  9
$DIMPOST
  1

  9
$DIMAPOST
  1

  9
$DIMALT
 70
     0
  9
$DIMALTD
 70
     2
  9
$DIMALTF
 40
25.4
  9
$DIMLFAC
 40
1.0
  9
$DIMTOFL
 70
     0
  9
$DIMTVP
 40
0.0
  9
$DIMTIX
 70
     0
  9
$DIMSOXD
 70
     0
  9
$DIMSAH
 70
     0
  9
$DIMBLK1
  1

  9
$DIMBLK2
  1

  9
$DIMSTYLE
  2
STANDARD
  9
$DIMCLRD
 70
     0
  9
$DIMCLRE
 70
     0
  9
$DIMCLRT
 70
     0
  9
$DIMTFAC
 40
1.0
  9
$DIMGAP
 40
0.09
  9
$DIMJUST
 70
     0
  9
$DIMSD1
 70
     0
  9
$DIMSD2
 70
     0
  9
$DIMTOLJ
 70
     1
  9
$DIMTZIN
 70
     0
  9
$DIMALTZ
 70
     0
  9
$DIMALTTZ
 70
     0
  9
$DIMFIT
 70
     5
  9
$DIMUPT
 70
     0
  9
$DIMUNIT
 70
     2
  9
$DIMDEC
 70
     4
  9
$DIMTDEC
 70
     4
  9
$DIMALTU
 70
     2
  9
$DIMALTTD
 70
     2
  9
$DIMTXSTY
  7
STANDARD
  9
$DIMAUNIT
 70
     0
  9
$LUNITS
 70
     2
  9
$LUPREC
 70
     4
  9
$SKETCHINC
 40
0.1
  9
$FILLETRAD
 40
0.0
  9
$AUNITS
 70
     0
  9
$AUPREC
 70
     0
  9
$MENU
  1
acad
  9
$ELEVATION
 40
0.0
  9
$PELEVATION
 40
0.0
  9
$THICKNESS
 40
0.0
  9
$LIMCHECK
 70
     0
  9
$BLIPMODE
 70
     0
  9
$CHAMFERA
 40
0.0
  9
$CHAMFERB
 40
0.0
  9
$CHAMFERC
 40
0.0
  9
$CHAMFERD
 40
0.0
  9
$SKPOLY
 70
     0
  9
$TDCREATE
 40
2451951.460763889
  9
$TDUPDATE
 40
2452347.374420949
  9
$TDINDWG
 40
0.0010545139
  9
$TDUSRTIMER
 40
0.0010545139
  9
$USRTIMER
 70
     1
  9
$ANGBASE
 50
0.0
  9
$ANGDIR
 70
     0
  9
$PDMODE
 70
     0
  9
$PDSIZE
 40
0.0
  9
$PLINEWID
 40
0.0
  9
$COORDS
 70
     2
  9
$SPLFRAME
 70
     0
  9
$SPLINETYPE
 70
     6
  9
$SPLINESEGS
 70
     8
  9
$ATTDIA
 70
     0
  9
$ATTREQ
 70
     1
  9
$HANDLING
 70
  4097
  9
$HANDSEED
  5
2774
  9
$SURFTAB1
 70
     6
  9
$SURFTAB2
 70
     6
  9
$SURFTYPE
 70
     6
  9
$SURFU
 70
     6
  9
$SURFV
 70
     6
  9
$UCSNAME
  2

  9
$UCSORG
 10
0.0
 20
0.0
 30
0.0
  9
$UCSXDIR
 10
1.0
 20
0.0
 30
0.0
  9
$UCSYDIR
 10
0.0
 20
1.0
 30
0.0
  9
$PUCSNAME
  2

  9
$PUCSORG
 10
0.0
 20
0.0
 30
0.0
  9
$PUCSXDIR
 10
1.0
 20
0.0
 30
0.0
  9
$PUCSYDIR
 10
0.0
 20
1.0
 30
0.0
  9
$USERI1
 70
     0
  9
$USERI2
 70
     0
  9
$USERI3
 70
     0
  9
$USERI4
 70
     0
  9
$USERI5
 70
     0
  9
$USERR1
 40
0.0
  9
$USERR2
 40
0.0
  9
$USERR3
 40
0.0
  9
$USERR4
 40
0.0
  9
$USERR5
 40
0.0
  9
$WORLDVIEW
 70
     1
  9
$SHADEDGE
 70
     3
  9
$SHADEDIF
 70
    70
  9
$TILEMODE
 70
     1
  9
$MAXACTVP
 70
    16
  9
$PINSBASE
 10
0.0
 20
0.0
 30
0.0
  9
$PLIMCHECK
 70
     0
  9
$PEXTMIN
 10
1.000000000000000E+20
 20
1.000000000000000E+20
 30
1.000000000000000E+20
  9
$PEXTMAX
 10
-1.000000000000000E+20
 20
-1.000000000000000E+20
 30
-1.000000000000000E+20
  9
$PLIMMIN
 10
0.0
 20
0.0
  9
$PLIMMAX
 10
12.0
 20
9.0
  9
$UNITMODE
 70
     0
  9
$VISRETAIN
 70
     0
  9
$PLINEGEN
 70
     0
  9
$PSLTSCALE
 70
     1
  9
$TREEDEPTH
 70
  3020
  9
$PICKSTYLE
 70
     1
  9
$CMLSTYLE
  2
STANDARD
  9
$CMLJUST
 70
     0
  9
$CMLSCALE
 40
1.0
  9
$SAVEIMAGES
 70
     1
  0
ENDSEC
  0
SECTION
  2
CLASSES
  0
CLASS
  1
ACDBDICTIONARYWDFLT
  2
AcDbDictionaryWithDefault
  3
AutoCAD 2000
 90
    32768
280
     0
281
     0
  0
CLASS
  1
ACDBPLACEHOLDER
  2
AcDbPlaceHolder
  3
AutoCAD 2000
 90
    32768
280
     0
281
     0
  0
CLASS
  1
LAYOUT
  2
AcDbLayout
  3
AutoCAD 2000
 90
    32768
280
     0
281
     0
  0
CLASS
  1
LONG_TRANSACTION
  2
AcDbLongTransaction
  3
AutoCAD 2000
 90
    32768
280
     0
281
     0
  0
CLASS
  1
LWPOLYLINE
  2
AcDbPolyline
  3
AutoCAD 2000
 90
    32768
280
     0
281
     1
  0
CLASS
  1
HATCH
  2
AcDbHatch
  3
AutoCAD 2000
 90
    32768
280
     0
281
     1
  0
CLASS
  1
XRECORD
  2
AcDbXrecord
  3
AutoCAD 2000
 90
    32768
280
     0
281
     0
  0
CLASS
  1
LONG_TRANSACTION
  2
AcDbLongTransaction
  3
AutoCAD 2000
 90
    32768
280
     0
281
     0
  0
CLASS
  1
LWPOLYLINE
  2
AcDbPolyline
  3
AutoCAD 2000
 90
    32768
280
     0
281
     1
  0
CLASS
  1
HATCH
  2
AcDbHatch
  3
AutoCAD 2000
 90
    32768
280
     0
281
     1
  0
CLASS
  1
XRECORD
  2
AcDbXrecord
  3
AutoCAD 2000
 90
    32768
280
     0
281
     0
  0
ENDSEC
  0
SECTION
  2
TABLES
  0
TABLE
  2
VPORT
  5
8
330
0
100
AcDbSymbolTable
 70
     3
  0
VPORT
  5
2771
330
8
100
AcDbSymbolTableRecord
100
AcDbViewportTableRecord
  2
*ACTIVE
 70
     0
 10
0.0
 20
0.0
 11
1.0
 21
1.0
 12
9.945868404683547
 22
12.52255734408415
 13
0.0
 23
0.0
 14
1.0
 24
1.0
 15
0.0
 25
0.0
 16
0.0
 26
0.0
 36
1.0
 17
0.0
 27
0.0
 37
0.0
 40
3.481458268586948
 41
1.610303830911492
 42
50.0
 43
0.0
 44
0.0
 50
0.0
 51
0.0
 71
     0
 72
   100
 73
     1
 74
     1
 75
     0
 76
     0
 77
     0
 78
     0
  0
ENDTAB
  0
TABLE
  2
LTYPE
  5
5
330
0
100
AcDbSymbolTable
 70
    25
  0
LTYPE
  5
13
330
5
100
AcDbSymbolTableRecord
100
AcDbLinetypeTableRecord
  2
BYBLOCK
 70
     0
  3

 72
    65
 73
     0
 40
0.0
  0
LTYPE
  5
14
330
5
100
AcDbSymbolTableRecord
100
AcDbLinetypeTableRecord
  2
BYLAYER
 70
     0
  3

 72
    65
 73
     0
 40
0.0
  0
LTYPE
  5
15
330
5
100
AcDbSymbolTableRecord
100
AcDbLinetypeTableRecord
  2
CONTINUOUS
 70
     0
  3
Solid line
 72
    65
 73
     0
 40
0.0
  0
LTYPE
  5
22
330
5
100
AcDbSymbolTableRecord
100
AcDbLinetypeTableRecord
  2
BORDER
 70
     0
  3
__ __ . __ __ . __ __ . __ __ . __ __ . __ __ .
 72
    65
 73
     6
 40
1.75
 49
0.5
 74
     0
 49
-0.25
 74
     0
 49
0.5
 74
     0
 49
-0.25
 74
     0
 49
0.5
 74
     0
 49
-0.25
 74
     0
  0
LTYPE
  5
23
330
5
100
AcDbSymbolTableRecord
100
AcDbLinetypeTableRecord
  2
BORDER2
 70
     0
  3
__.__.__.__.__.__.__.__.__.__.__.__.__.__.__.__
 72
    65
 73
     6
 40
0.875
 49
0.25
 74
     0
 49
-0.125
 74
     0
 49
0.25
 74
     0
 49
-0.125
 74
     0
 49
0.25
 74
     0
 49
-0.125
 74
     0
  0
LTYPE
  5
24
330
5
100
AcDbSymbolTableRecord
100
AcDbLinetypeTableRecord
  2
BORDERX2
 70
     0
  3
____  ____  .  ____  ____  .  
 72
    65
 73
     6
 40
3.5
 49
1.0
 74
     0
 49
-0.5
 74
     0
 49
1.0
 74
     0
 49
-0.5
 74
     0
 49
1.0
 74
     0
 49
-0.5
 74
     0
  0
LTYPE
  5
25
330
5
100
AcDbSymbolTableRecord
100
AcDbLinetypeTableRecord
  2
CENTER
 70
     0
  3
____ _ ____ _ ____ _ ____ _ ____ _ ____ _ ____
 72
    65
 73
     4
 40
2.0
 49
1.25
 74
     0
 49
-0.25
 74
     0
 49
0.25
 74
     0
 49
-0.25
 74
     0
  0
LTYPE
  5
26
330
5
100
AcDbSymbolTableRecord
100
AcDbLinetypeTableRecord
  2
CENTER2
 70
     0
  3
____ _ ____ _ ____ _ ____ _ ____ _ ____ _ ____
 72
    65
 73
     4
 40
1.125
 49
0.75
 74
     0
 49
-0.125
 74
     0
 49
0.125
 74
     0
 49
-0.125
 74
     0
  0
LTYPE
  5
27
330
5
100
AcDbSymbolTableRecord
100
AcDbLinetypeTableRecord
  2
CENTERX2
 70
     0
  3
________  __  ________  __  ________  __  
 72
    65
 73
     4
 40
4.0
 49
2.5
 74
     0
 49
-0.5
 74
     0
 49
0.5
 74
     0
 49
-0.5
 74
     0
  0
LTYPE
  5
28
330
5
100
AcDbSymbolTableRecord
100
AcDbLinetypeTableRecord
  2
DASHDOT
 70
     0
  3
__ . __ . __ . __ . __ . __ . __ . 
 72
    65
 73
     4
 40
1.0
 49
0.5
 74
     0
 49
-0.25
 74
     0
 49
0.0
 74
     0
 49
-0.25
 74
     0
  0
LTYPE
  5
29
330
5
100
AcDbSymbolTableRecord
100
AcDbLinetypeTableRecord
  2
DASHDOT2
 70
     0
  3
_._._._._._._._._._._._._._._._.
 72
    65
 73
     4
 40
0.5
 49
0.25
 74
     0
 49
-0.125
 74
     0
 49
0.0
 74
     0
 49
-0.125
 74
     0
  0
LTYPE
  5
2A
330
5
100
AcDbSymbolTableRecord
100
AcDbLinetypeTableRecord
  2
DASHDOTX2
 70
     0
  3
____  .  ____  .  ____  .  ____  .  
 72
    65
 73
     4
 40
2.0
 49
1.0
 74
     0
 49
-0.5
 74
     0
 49
0.0
 74
     0
 49
-0.5
 74
     0
  0
LTYPE
  5
2B
330
5
100
AcDbSymbolTableRecord
100
AcDbLinetypeTableRecord
  2
DASHED
 70
     0
  3
__ __ __ __ __ __ __ __ __ __ __ __ 
 72
    65
 73
     2
 40
0.75
 49
0.5
 74
     0
 49
-0.25
 74
     0
  0
LTYPE
  5
2C
330
5
100
AcDbSymbolTableRecord
100
AcDbLinetypeTableRecord
  2
DASHED2
 70
     0
  3
_ _ _ _ _ _ _ _ _ _ _ _ _ _ _ _ _ _ 
 72
    65
 73
     2
 40
0.375
 49
0.25
 74
     0
 49
-0.125
 74
     0
  0
LTYPE
  5
2D
330
5
100
AcDbSymbolTableRecord
100
AcDbLinetypeTableRecord
  2
DASHEDX2
 70
     0
  3
____  ____  ____  ____  ____  ____  
 72
    65
 73
     2
 40
1.5
 49
1.0
 74
     0
 49
-0.5
 74
     0
  0
LTYPE
  5
2E
330
5
100
AcDbSymbolTableRecord
100
AcDbLinetypeTableRecord
  2
DIVIDE
 70
     0
  3
____ . . ____ . . ____ . . ____ . . 
 72
    65
 73
     6
 40
1.25
 49
0.5
 74
     0
 49
-0.25
 74
     0
 49
0.0
 74
     0
 49
-0.25
 74
     0
 49
0.0
 74
     0
 49
-0.25
 74
     0
  0
LTYPE
  5
2F
330
5
100
AcDbSymbolTableRecord
100
AcDbLinetypeTableRecord
  2
DIVIDE2
 70
     0
  3
__..__..__..__..__..__..__..__..__..
 72
    65
 73
     6
 40
0.625
 49
0.25
 74
     0
 49
-0.125
 74
     0
 49
0.0
 74
     0
 49
-0.125
 74
     0
 49
0.0
 74
     0
 49
-0.125
 74
     0
  0
LTYPE
  5
30
330
5
100
AcDbSymbolTableRecord
100
AcDbLinetypeTableRecord
  2
DIVIDEX2
 70
     0
  3
________  .  .  ________  .  .  ________  .  . 
 72
    65
 73
     6
 40
2.5
 49
1.0
 74
     0
 49
-0.5
 74
     0
 49
0.0
 74
     0
 49
-0.5
 74
     0
 49
0.0
 74
     0
 49
-0.5
 74
     0
  0
LTYPE
  5
31
330
5
100
AcDbSymbolTableRecord
100
AcDbLinetypeTableRecord
  2
DOT
 70
     0
  3
. . . . . . . . . . . . . . . . . . 
 72
    65
 73
     2
 40
0.25
 49
0.0
 74
     0
 49
-0.25
 74
     0
  0
LTYPE
  5
32
330
5
100
AcDbSymbolTableRecord
100
AcDbLinetypeTableRecord
  2
DOT2
 70
     0
  3
....................................
 72
    65
 73
     2
 40
0.125
 49
0.0
 74
     0
 49
-0.125
 74
     0
  0
LTYPE
  5
33
330
5
100
AcDbSymbolTableRecord
100
AcDbLinetypeTableRecord
  2
DOTX2
 70
     0
  3
.  .  .  .  .  .  .  .  .  .  .  .  .  
 72
    65
 73
     2
 40
0.5
 49
0.0
 74
     0
 49
-0.5
 74
     0
  0
LTYPE
  5
34
330
5
100
AcDbSymbolTableRecord
100
AcDbLinetypeTableRecord
  2
HIDDEN
 70
     0
  3
__ __ __ __ __ __ __ __ __ __ __ __ 
 72
    65
 73
     2
 40
0.375
 49
0.25
 74
     0
 49
-0.125
 74
     0
  0
LTYPE
  5
35
330
5
100
AcDbSymbolTableRecord
100
AcDbLinetypeTableRecord
  2
HIDDEN2
 70
     0
  3
_ _ _ _ _ _ _ _ _ _ _ _ _ _ _ _ _ _ 
 72
    65
 73
     2
 40
0.1875
 49
0.125
 74
     0
 49
-0.0625
 74
     0
  0
LTYPE
  5
36
330
5
100
AcDbSymbolTableRecord
100
AcDbLinetypeTableRecord
  2
HIDDENX2
 70
     0
  3
____ ____ ____ ____ ____ ____ ____ 
 72
    65
 73
     2
 40
0.75
 49
0.5
 74
     0
 49
-0.25
 74
     0
  0
LTYPE
  5
37
330
5
100
AcDbSymbolTableRecord
100
AcDbLinetypeTableRecord
  2
PHANTOM
 70
     0
  3
______  __  __  ______  __  __  
 72
    65
 73
     6
 40
2.5
 49
1.25
 74
     0
 49
-0.25
 74
     0
 49
0.25
 74
     0
 49
-0.25
 74
     0
 49
0.25
 74
     0
 49
-0.25
 74
     0
  0
LTYPE
  5
38
330
5
100
AcDbSymbolTableRecord
100
AcDbLinetypeTableRecord
  2
PHANTOM2
 70
     0
  3
___ _ _ ___ _ _ ___ _ _ ___ _ _ 
 72
    65
 73
     6
 40
1.25
 49
0.625
 74
     0
 49
-0.125
 74
     0
 49
0.125
 74
     0
 49
-0.125
 74
     0
 49
0.125
 74
     0
 49
-0.125
 74
     0
  0
LTYPE
  5
39
330
5
100
AcDbSymbolTableRecord
100
AcDbLinetypeTableRecord
  2
PHANTOMX2
 70
     0
  3
___ _ _ ___ _ _ ___ _ _ ___ _ _ 
 72
    65
 73
     6
 40
5.0
 49
2.5
 74
     0
 49
-0.5
 74
     0
 49
0.5
 74
     0
 49
-0.5
 74
     0
 49
0.5
 74
     0
 49
-0.5
 74
     0
  0
ENDTAB
  0
TABLE
  2
LAYER
  5
2
330
0
100
AcDbSymbolTable
 70
   256
  0
LAYER
  5
10
330
2
100
AcDbSymbolTableRecord
100
AcDbLayerTableRecord
  2
0
 70
     0
 62
     7
  6
CONTINUOUS
  0
LAYER
  5
3A
330
2
100
AcDbSymbolTableRecord
100
AcDbLayerTableRecord
  2
1
 70
     0
 62
     1
  6
CONTINUOUS
  0
LAYER
  5
3B
330
2
100
AcDbSymbolTableRecord
100
AcDbLayerTableRecord
  2
2
 70
     0
 62
     2
  6
CONTINUOUS
  0
LAYER
  5
3C
330
2
100
AcDbSymbolTableRecord
100
AcDbLayerTableRecord
  2
3
 70
     0
 62
     3
  6
CONTINUOUS
  0
LAYER
  5
3D
330
2
100
AcDbSymbolTableRecord
100
AcDbLayerTableRecord
  2
4
 70
     0
 62
     4
  6
CONTINUOUS
  0
LAYER
  5
3E
330
2
100
AcDbSymbolTableRecord
100
AcDbLayerTableRecord
  2
5
 70
     0
 62
     5
  6
CONTINUOUS
  0
LAYER
  5
3F
330
2
100
AcDbSymbolTableRecord
100
AcDbLayerTableRecord
  2
6
 70
     0
 62
     6
  6
CONTINUOUS
  0
LAYER
  5
40
330
2
100
AcDbSymbolTableRecord
100
AcDbLayerTableRecord
  2
7
 70
     0
 62
     7
  6
CONTINUOUS
  0
LAYER
  5
41
330
2
100
AcDbSymbolTableRecord
100
AcDbLayerTableRecord
  2
8
 70
     0
 62
     8
  6
CONTINUOUS
  0
LAYER
  5
42
330
2
100
AcDbSymbolTableRecord
100
AcDbLayerTableRecord
  2
9
 70
     0
 62
     9
  6
CONTINUOUS
  0
LAYER
  5
43
330
2
100
AcDbSymbolTableRecord
100
AcDbLayerTableRecord
  2
10
 70
     0
 62
    10
  6
CONTINUOUS
  0
LAYER
  5
44
330
2
100
AcDbSymbolTableRecord
100
AcDbLayerTableRecord
  2
11
 70
     0
 62
    11
  6
CONTINUOUS
  0
LAYER
  5
45
330
2
100
AcDbSymbolTableRecord
100
AcDbLayerTableRecord
  2
12
 70
     0
 62
    12
  6
CONTINUOUS
  0
LAYER
  5
46
330
2
100
AcDbSymbolTableRecord
100
AcDbLayerTableRecord
  2
13
 70
     0
 62
    13
  6
CONTINUOUS
  0
LAYER
  5
47
330
2
100
AcDbSymbolTableRecord
100
AcDbLayerTableRecord
  2
14
 70
     0
 62
    14
  6
CONTINUOUS
  0
LAYER
  5
48
330
2
100
AcDbSymbolTableRecord
100
AcDbLayerTableRecord
  2
15
 70
     0
 62
    15
  6
CONTINUOUS
  0
LAYER
  5
49
330
2
100
AcDbSymbolTableRecord
100
AcDbLayerTableRecord
  2
16
 70
     0
 62
    16
  6
CONTINUOUS
  0
LAYER
  5
4A
330
2
100
AcDbSymbolTableRecord
100
AcDbLayerTableRecord
  2
17
 70
     0
 62
    17
  6
CONTINUOUS
  0
LAYER
  5
4B
330
2
100
AcDbSymbolTableRecord
100
AcDbLayerTableRecord
  2
18
 70
     0
 62
    18
  6
CONTINUOUS
  0
LAYER
  5
4C
330
2
100
AcDbSymbolTableRecord
100
AcDbLayerTableRecord
  2
19
 70
     0
 62
    19
  6
CONTINUOUS
  0
LAYER
  5
4D
330
2
100
AcDbSymbolTableRecord
100
AcDbLayerTableRecord
  2
20
 70
     0
 62
    20
  6
CONTINUOUS
  0
LAYER
  5
4E
330
2
100
AcDbSymbolTableRecord
100
AcDbLayerTableRecord
  2
21
 70
     0
 62
    21
  6
CONTINUOUS
  0
LAYER
  5
4F
330
2
100
AcDbSymbolTableRecord
100
AcDbLayerTableRecord
  2
22
 70
     0
 62
    22
  6
CONTINUOUS
  0
LAYER
  5
50
330
2
100
AcDbSymbolTableRecord
100
AcDbLayerTableRecord
  2
23
 70
     0
 62
    23
  6
CONTINUOUS
  0
LAYER
  5
51
330
2
100
AcDbSymbolTableRecord
100
AcDbLayerTableRecord
  2
24
 70
     0
 62
    24
  6
CONTINUOUS
  0
LAYER
  5
52
330
2
100
AcDbSymbolTableRecord
100
AcDbLayerTableRecord
  2
25
 70
     0
 62
    25
  6
CONTINUOUS
  0
LAYER
  5
53
330
2
100
AcDbSymbolTableRecord
100
AcDbLayerTableRecord
  2
26
 70
     0
 62
    26
  6
CONTINUOUS
  0
LAYER
  5
54
330
2
100
AcDbSymbolTableRecord
100
AcDbLayerTableRecord
  2
27
 70
     0
 62
    27
  6
CONTINUOUS
  0
LAYER
  5
55
330
2
100
AcDbSymbolTableRecord
100
AcDbLayerTableRecord
  2
28
 70
     0
 62
    28
  6
CONTINUOUS
  0
LAYER
  5
56
330
2
100
AcDbSymbolTableRecord
100
AcDbLayerTableRecord
  2
29
 70
     0
 62
    29
  6
CONTINUOUS
  0
LAYER
  5
57
330
2
100
AcDbSymbolTableRecord
100
AcDbLayerTableRecord
  2
30
 70
     0
 62
    30
  6
CONTINUOUS
  0
LAYER
  5
58
330
2
100
AcDbSymbolTableRecord
100
AcDbLayerTableRecord
  2
31
 70
     0
 62
    31
  6
CONTINUOUS
  0
LAYER
  5
59
330
2
100
AcDbSymbolTableRecord
100
AcDbLayerTableRecord
  2
32
 70
     0
 62
    32
  6
CONTINUOUS
  0
LAYER
  5
5A
330
2
100
AcDbSymbolTableRecord
100
AcDbLayerTableRecord
  2
33
 70
     0
 62
    33
  6
CONTINUOUS
  0
LAYER
  5
5B
330
2
100
AcDbSymbolTableRecord
100
AcDbLayerTableRecord
  2
34
 70
     0
 62
    34
  6
CONTINUOUS
  0
LAYER
  5
5C
330
2
100
AcDbSymbolTableRecord
100
AcDbLayerTableRecord
  2
35
 70
     0
 62
    35
  6
CONTINUOUS
  0
LAYER
  5
5D
330
2
100
AcDbSymbolTableRecord
100
AcDbLayerTableRecord
  2
36
 70
     0
 62
    36
  6
CONTINUOUS
  0
LAYER
  5
5E
330
2
100
AcDbSymbolTableRecord
100
AcDbLayerTableRecord
  2
37
 70
     0
 62
    37
  6
CONTINUOUS
  0
LAYER
  5
5F
330
2
100
AcDbSymbolTableRecord
100
AcDbLayerTableRecord
  2
38
 70
     0
 62
    38
  6
CONTINUOUS
  0
LAYER
  5
60
330
2
100
AcDbSymbolTableRecord
100
AcDbLayerTableRecord
  2
39
 70
     0
 62
    39
  6
CONTINUOUS
  0
LAYER
  5
61
330
2
100
AcDbSymbolTableRecord
100
AcDbLayerTableRecord
  2
40
 70
     0
 62
    40
  6
CONTINUOUS
  0
LAYER
  5
62
330
2
100
AcDbSymbolTableRecord
100
AcDbLayerTableRecord
  2
41
 70
     0
 62
    41
  6
CONTINUOUS
  0
LAYER
  5
63
330
2
100
AcDbSymbolTableRecord
100
AcDbLayerTableRecord
  2
42
 70
     0
 62
    42
  6
CONTINUOUS
  0
LAYER
  5
64
330
2
100
AcDbSymbolTableRecord
100
AcDbLayerTableRecord
  2
43
 70
     0
 62
    43
  6
CONTINUOUS
  0
LAYER
  5
65
330
2
100
AcDbSymbolTableRecord
100
AcDbLayerTableRecord
  2
44
 70
     0
 62
    44
  6
CONTINUOUS
  0
LAYER
  5
66
330
2
100
AcDbSymbolTableRecord
100
AcDbLayerTableRecord
  2
45
 70
     0
 62
    45
  6
CONTINUOUS
  0
LAYER
  5
67
330
2
100
AcDbSymbolTableRecord
100
AcDbLayerTableRecord
  2
46
 70
     0
 62
    46
  6
CONTINUOUS
  0
LAYER
  5
68
330
2
100
AcDbSymbolTableRecord
100
AcDbLayerTableRecord
  2
47
 70
     0
 62
    47
  6
CONTINUOUS
  0
LAYER
  5
69
330
2
100
AcDbSymbolTableRecord
100
AcDbLayerTableRecord
  2
48
 70
     0
 62
    48
  6
CONTINUOUS
  0
LAYER
  5
6A
330
2
100
AcDbSymbolTableRecord
100
AcDbLayerTableRecord
  2
49
 70
     0
 62
    49
  6
CONTINUOUS
  0
LAYER
  5
6B
330
2
100
AcDbSymbolTableRecord
100
AcDbLayerTableRecord
  2
50
 70
     0
 62
    50
  6
CONTINUOUS
  0
LAYER
  5
6C
330
2
100
AcDbSymbolTableRecord
100
AcDbLayerTableRecord
  2
51
 70
     0
 62
    51
  6
CONTINUOUS
  0
LAYER
  5
6D
330
2
100
AcDbSymbolTableRecord
100
AcDbLayerTableRecord
  2
52
 70
     0
 62
    52
  6
CONTINUOUS
  0
LAYER
  5
6E
330
2
100
AcDbSymbolTableRecord
100
AcDbLayerTableRecord
  2
53
 70
     0
 62
    53
  6
CONTINUOUS
  0
LAYER
  5
6F
330
2
100
AcDbSymbolTableRecord
100
AcDbLayerTableRecord
  2
54
 70
     0
 62
    54
  6
CONTINUOUS
  0
LAYER
  5
70
330
2
100
AcDbSymbolTableRecord
100
AcDbLayerTableRecord
  2
55
 70
     0
 62
    55
  6
CONTINUOUS
  0
LAYER
  5
71
330
2
100
AcDbSymbolTableRecord
100
AcDbLayerTableRecord
  2
56
 70
     0
 62
    56
  6
CONTINUOUS
  0
LAYER
  5
72
330
2
100
AcDbSymbolTableRecord
100
AcDbLayerTableRecord
  2
57
 70
     0
 62
    57
  6
CONTINUOUS
  0
LAYER
  5
73
330
2
100
AcDbSymbolTableRecord
100
AcDbLayerTableRecord
  2
58
 70
     0
 62
    58
  6
CONTINUOUS
  0
LAYER
  5
74
330
2
100
AcDbSymbolTableRecord
100
AcDbLayerTableRecord
  2
59
 70
     0
 62
    59
  6
CONTINUOUS
  0
LAYER
  5
75
330
2
100
AcDbSymbolTableRecord
100
AcDbLayerTableRecord
  2
60
 70
     0
 62
    60
  6
CONTINUOUS
  0
LAYER
  5
76
330
2
100
AcDbSymbolTableRecord
100
AcDbLayerTableRecord
  2
61
 70
     0
 62
    61
  6
CONTINUOUS
  0
LAYER
  5
77
330
2
100
AcDbSymbolTableRecord
100
AcDbLayerTableRecord
  2
62
 70
     0
 62
    62
  6
CONTINUOUS
  0
LAYER
  5
78
330
2
100
AcDbSymbolTableRecord
100
AcDbLayerTableRecord
  2
63
 70
     0
 62
    63
  6
CONTINUOUS
  0
LAYER
  5
79
330
2
100
AcDbSymbolTableRecord
100
AcDbLayerTableRecord
  2
64
 70
     0
 62
    64
  6
CONTINUOUS
  0
LAYER
  5
7A
330
2
100
AcDbSymbolTableRecord
100
AcDbLayerTableRecord
  2
65
 70
     0
 62
    65
  6
CONTINUOUS
  0
LAYER
  5
7B
330
2
100
AcDbSymbolTableRecord
100
AcDbLayerTableRecord
  2
66
 70
     0
 62
    66
  6
CONTINUOUS
  0
LAYER
  5
7C
330
2
100
AcDbSymbolTableRecord
100
AcDbLayerTableRecord
  2
67
 70
     0
 62
    67
  6
CONTINUOUS
  0
LAYER
  5
7D
330
2
100
AcDbSymbolTableRecord
100
AcDbLayerTableRecord
  2
68
 70
     0
 62
    68
  6
CONTINUOUS
  0
LAYER
  5
7E
330
2
100
AcDbSymbolTableRecord
100
AcDbLayerTableRecord
  2
69
 70
     0
 62
    69
  6
CONTINUOUS
  0
LAYER
  5
7F
330
2
100
AcDbSymbolTableRecord
100
AcDbLayerTableRecord
  2
70
 70
     0
 62
    70
  6
CONTINUOUS
  0
LAYER
  5
80
330
2
100
AcDbSymbolTableRecord
100
AcDbLayerTableRecord
  2
71
 70
     0
 62
    71
  6
CONTINUOUS
  0
LAYER
  5
81
330
2
100
AcDbSymbolTableRecord
100
AcDbLayerTableRecord
  2
72
 70
     0
 62
    72
  6
CONTINUOUS
  0
LAYER
  5
82
330
2
100
AcDbSymbolTableRecord
100
AcDbLayerTableRecord
  2
73
 70
     0
 62
    73
  6
CONTINUOUS
  0
LAYER
  5
83
330
2
100
AcDbSymbolTableRecord
100
AcDbLayerTableRecord
  2
74
 70
     0
 62
    74
  6
CONTINUOUS
  0
LAYER
  5
84
330
2
100
AcDbSymbolTableRecord
100
AcDbLayerTableRecord
  2
75
 70
     0
 62
    75
  6
CONTINUOUS
  0
LAYER
  5
85
330
2
100
AcDbSymbolTableRecord
100
AcDbLayerTableRecord
  2
76
 70
     0
 62
    76
  6
CONTINUOUS
  0
LAYER
  5
86
330
2
100
AcDbSymbolTableRecord
100
AcDbLayerTableRecord
  2
77
 70
     0
 62
    77
  6
CONTINUOUS
  0
LAYER
  5
87
330
2
100
AcDbSymbolTableRecord
100
AcDbLayerTableRecord
  2
78
 70
     0
 62
    78
  6
CONTINUOUS
  0
LAYER
  5
88
330
2
100
AcDbSymbolTableRecord
100
AcDbLayerTableRecord
  2
79
 70
     0
 62
    79
  6
CONTINUOUS
  0
LAYER
  5
89
330
2
100
AcDbSymbolTableRecord
100
AcDbLayerTableRecord
  2
80
 70
     0
 62
    80
  6
CONTINUOUS
  0
LAYER
  5
8A
330
2
100
AcDbSymbolTableRecord
100
AcDbLayerTableRecord
  2
81
 70
     0
 62
    81
  6
CONTINUOUS
  0
LAYER
  5
8B
330
2
100
AcDbSymbolTableRecord
100
AcDbLayerTableRecord
  2
82
 70
     0
 62
    82
  6
CONTINUOUS
  0
LAYER
  5
8C
330
2
100
AcDbSymbolTableRecord
100
AcDbLayerTableRecord
  2
83
 70
     0
 62
    83
  6
CONTINUOUS
  0
LAYER
  5
8D
330
2
100
AcDbSymbolTableRecord
100
AcDbLayerTableRecord
  2
84
 70
     0
 62
    84
  6
CONTINUOUS
  0
LAYER
  5
8E
330
2
100
AcDbSymbolTableRecord
100
AcDbLayerTableRecord
  2
85
 70
     0
 62
    85
  6
CONTINUOUS
  0
LAYER
  5
8F
330
2
100
AcDbSymbolTableRecord
100
AcDbLayerTableRecord
  2
86
 70
     0
 62
    86
  6
CONTINUOUS
  0
LAYER
  5
90
330
2
100
AcDbSymbolTableRecord
100
AcDbLayerTableRecord
  2
87
 70
     0
 62
    87
  6
CONTINUOUS
  0
LAYER
  5
91
330
2
100
AcDbSymbolTableRecord
100
AcDbLayerTableRecord
  2
88
 70
     0
 62
    88
  6
CONTINUOUS
  0
LAYER
  5
92
330
2
100
AcDbSymbolTableRecord
100
AcDbLayerTableRecord
  2
89
 70
     0
 62
    89
  6
CONTINUOUS
  0
LAYER
  5
93
330
2
100
AcDbSymbolTableRecord
100
AcDbLayerTableRecord
  2
90
 70
     0
 62
    90
  6
CONTINUOUS
  0
LAYER
  5
94
330
2
100
AcDbSymbolTableRecord
100
AcDbLayerTableRecord
  2
91
 70
     0
 62
    91
  6
CONTINUOUS
  0
LAYER
  5
95
330
2
100
AcDbSymbolTableRecord
100
AcDbLayerTableRecord
  2
92
 70
     0
 62
    92
  6
CONTINUOUS
  0
LAYER
  5
96
330
2
100
AcDbSymbolTableRecord
100
AcDbLayerTableRecord
  2
93
 70
     0
 62
    93
  6
CONTINUOUS
  0
LAYER
  5
97
330
2
100
AcDbSymbolTableRecord
100
AcDbLayerTableRecord
  2
94
 70
     0
 62
    94
  6
CONTINUOUS
  0
LAYER
  5
98
330
2
100
AcDbSymbolTableRecord
100
AcDbLayerTableRecord
  2
95
 70
     0
 62
    95
  6
CONTINUOUS
  0
LAYER
  5
99
330
2
100
AcDbSymbolTableRecord
100
AcDbLayerTableRecord
  2
96
 70
     0
 62
    96
  6
CONTINUOUS
  0
LAYER
  5
9A
330
2
100
AcDbSymbolTableRecord
100
AcDbLayerTableRecord
  2
97
 70
     0
 62
    97
  6
CONTINUOUS
  0
LAYER
  5
9B
330
2
100
AcDbSymbolTableRecord
100
AcDbLayerTableRecord
  2
98
 70
     0
 62
    98
  6
CONTINUOUS
  0
LAYER
  5
9C
330
2
100
AcDbSymbolTableRecord
100
AcDbLayerTableRecord
  2
99
 70
     0
 62
    99
  6
CONTINUOUS
  0
LAYER
  5
9D
330
2
100
AcDbSymbolTableRecord
100
AcDbLayerTableRecord
  2
100
 70
     0
 62
   100
  6
CONTINUOUS
  0
LAYER
  5
9E
330
2
100
AcDbSymbolTableRecord
100
AcDbLayerTableRecord
  2
101
 70
     0
 62
   101
  6
CONTINUOUS
  0
LAYER
  5
9F
330
2
100
AcDbSymbolTableRecord
100
AcDbLayerTableRecord
  2
102
 70
     0
 62
   102
  6
CONTINUOUS
  0
LAYER
  5
A0
330
2
100
AcDbSymbolTableRecord
100
AcDbLayerTableRecord
  2
103
 70
     0
 62
   103
  6
CONTINUOUS
  0
LAYER
  5
A1
330
2
100
AcDbSymbolTableRecord
100
AcDbLayerTableRecord
  2
104
 70
     0
 62
   104
  6
CONTINUOUS
  0
LAYER
  5
A2
330
2
100
AcDbSymbolTableRecord
100
AcDbLayerTableRecord
  2
105
 70
     0
 62
   105
  6
CONTINUOUS
  0
LAYER
  5
A3
330
2
100
AcDbSymbolTableRecord
100
AcDbLayerTableRecord
  2
106
 70
     0
 62
   106
  6
CONTINUOUS
  0
LAYER
  5
A4
330
2
100
AcDbSymbolTableRecord
100
AcDbLayerTableRecord
  2
107
 70
     0
 62
   107
  6
CONTINUOUS
  0
LAYER
  5
A5
330
2
100
AcDbSymbolTableRecord
100
AcDbLayerTableRecord
  2
108
 70
     0
 62
   108
  6
CONTINUOUS
  0
LAYER
  5
A6
330
2
100
AcDbSymbolTableRecord
100
AcDbLayerTableRecord
  2
109
 70
     0
 62
   109
  6
CONTINUOUS
  0
LAYER
  5
A7
330
2
100
AcDbSymbolTableRecord
100
AcDbLayerTableRecord
  2
110
 70
     0
 62
   110
  6
CONTINUOUS
  0
LAYER
  5
A8
330
2
100
AcDbSymbolTableRecord
100
AcDbLayerTableRecord
  2
111
 70
     0
 62
   111
  6
CONTINUOUS
  0
LAYER
  5
A9
330
2
100
AcDbSymbolTableRecord
100
AcDbLayerTableRecord
  2
112
 70
     0
 62
   112
  6
CONTINUOUS
  0
LAYER
  5
AA
330
2
100
AcDbSymbolTableRecord
100
AcDbLayerTableRecord
  2
113
 70
     0
 62
   113
  6
CONTINUOUS
  0
LAYER
  5
AB
330
2
100
AcDbSymbolTableRecord
100
AcDbLayerTableRecord
  2
114
 70
     0
 62
   114
  6
CONTINUOUS
  0
LAYER
  5
AC
330
2
100
AcDbSymbolTableRecord
100
AcDbLayerTableRecord
  2
115
 70
     0
 62
   115
  6
CONTINUOUS
  0
LAYER
  5
AD
330
2
100
AcDbSymbolTableRecord
100
AcDbLayerTableRecord
  2
116
 70
     0
 62
   116
  6
CONTINUOUS
  0
LAYER
  5
AE
330
2
100
AcDbSymbolTableRecord
100
AcDbLayerTableRecord
  2
117
 70
     0
 62
   117
  6
CONTINUOUS
  0
LAYER
  5
AF
330
2
100
AcDbSymbolTableRecord
100
AcDbLayerTableRecord
  2
118
 70
     0
 62
   118
  6
CONTINUOUS
  0
LAYER
  5
B0
330
2
100
AcDbSymbolTableRecord
100
AcDbLayerTableRecord
  2
119
 70
     0
 62
   119
  6
CONTINUOUS
  0
LAYER
  5
B1
330
2
100
AcDbSymbolTableRecord
100
AcDbLayerTableRecord
  2
120
 70
     0
 62
   120
  6
CONTINUOUS
  0
LAYER
  5
B2
330
2
100
AcDbSymbolTableRecord
100
AcDbLayerTableRecord
  2
121
 70
     0
 62
   121
  6
CONTINUOUS
  0
LAYER
  5
B3
330
2
100
AcDbSymbolTableRecord
100
AcDbLayerTableRecord
  2
122
 70
     0
 62
   122
  6
CONTINUOUS
  0
LAYER
  5
B4
330
2
100
AcDbSymbolTableRecord
100
AcDbLayerTableRecord
  2
123
 70
     0
 62
   123
  6
CONTINUOUS
  0
LAYER
  5
B5
330
2
100
AcDbSymbolTableRecord
100
AcDbLayerTableRecord
  2
124
 70
     0
 62
   124
  6
CONTINUOUS
  0
LAYER
  5
B6
330
2
100
AcDbSymbolTableRecord
100
AcDbLayerTableRecord
  2
125
 70
     0
 62
   125
  6
CONTINUOUS
  0
LAYER
  5
B7
330
2
100
AcDbSymbolTableRecord
100
AcDbLayerTableRecord
  2
126
 70
     0
 62
   126
  6
CONTINUOUS
  0
LAYER
  5
B8
330
2
100
AcDbSymbolTableRecord
100
AcDbLayerTableRecord
  2
127
 70
     0
 62
   127
  6
CONTINUOUS
  0
LAYER
  5
B9
330
2
100
AcDbSymbolTableRecord
100
AcDbLayerTableRecord
  2
128
 70
     0
 62
   128
  6
CONTINUOUS
  0
LAYER
  5
BA
330
2
100
AcDbSymbolTableRecord
100
AcDbLayerTableRecord
  2
129
 70
     0
 62
   129
  6
CONTINUOUS
  0
LAYER
  5
BB
330
2
100
AcDbSymbolTableRecord
100
AcDbLayerTableRecord
  2
130
 70
     0
 62
   130
  6
CONTINUOUS
  0
LAYER
  5
BC
330
2
100
AcDbSymbolTableRecord
100
AcDbLayerTableRecord
  2
131
 70
     0
 62
   131
  6
CONTINUOUS
  0
LAYER
  5
BD
330
2
100
AcDbSymbolTableRecord
100
AcDbLayerTableRecord
  2
132
 70
     0
 62
   132
  6
CONTINUOUS
  0
LAYER
  5
BE
330
2
100
AcDbSymbolTableRecord
100
AcDbLayerTableRecord
  2
133
 70
     0
 62
   133
  6
CONTINUOUS
  0
LAYER
  5
BF
330
2
100
AcDbSymbolTableRecord
100
AcDbLayerTableRecord
  2
134
 70
     0
 62
   134
  6
CONTINUOUS
  0
LAYER
  5
C0
330
2
100
AcDbSymbolTableRecord
100
AcDbLayerTableRecord
  2
135
 70
     0
 62
   135
  6
CONTINUOUS
  0
LAYER
  5
C1
330
2
100
AcDbSymbolTableRecord
100
AcDbLayerTableRecord
  2
136
 70
     0
 62
   136
  6
CONTINUOUS
  0
LAYER
  5
C2
330
2
100
AcDbSymbolTableRecord
100
AcDbLayerTableRecord
  2
137
 70
     0
 62
   137
  6
CONTINUOUS
  0
LAYER
  5
C3
330
2
100
AcDbSymbolTableRecord
100
AcDbLayerTableRecord
  2
138
 70
     0
 62
   138
  6
CONTINUOUS
  0
LAYER
  5
C4
330
2
100
AcDbSymbolTableRecord
100
AcDbLayerTableRecord
  2
139
 70
     0
 62
   139
  6
CONTINUOUS
  0
LAYER
  5
C5
330
2
100
AcDbSymbolTableRecord
100
AcDbLayerTableRecord
  2
140
 70
     0
 62
   140
  6
CONTINUOUS
  0
LAYER
  5
C6
330
2
100
AcDbSymbolTableRecord
100
AcDbLayerTableRecord
  2
141
 70
     0
 62
   141
  6
CONTINUOUS
  0
LAYER
  5
C7
330
2
100
AcDbSymbolTableRecord
100
AcDbLayerTableRecord
  2
142
 70
     0
 62
   142
  6
CONTINUOUS
  0
LAYER
  5
C8
330
2
100
AcDbSymbolTableRecord
100
AcDbLayerTableRecord
  2
143
 70
     0
 62
   143
  6
CONTINUOUS
  0
LAYER
  5
C9
330
2
100
AcDbSymbolTableRecord
100
AcDbLayerTableRecord
  2
144
 70
     0
 62
   144
  6
CONTINUOUS
  0
LAYER
  5
CA
330
2
100
AcDbSymbolTableRecord
100
AcDbLayerTableRecord
  2
145
 70
     0
 62
   145
  6
CONTINUOUS
  0
LAYER
  5
CB
330
2
100
AcDbSymbolTableRecord
100
AcDbLayerTableRecord
  2
146
 70
     0
 62
   146
  6
CONTINUOUS
  0
LAYER
  5
CC
330
2
100
AcDbSymbolTableRecord
100
AcDbLayerTableRecord
  2
147
 70
     0
 62
   147
  6
CONTINUOUS
  0
LAYER
  5
CD
330
2
100
AcDbSymbolTableRecord
100
AcDbLayerTableRecord
  2
148
 70
     0
 62
   148
  6
CONTINUOUS
  0
LAYER
  5
CE
330
2
100
AcDbSymbolTableRecord
100
AcDbLayerTableRecord
  2
149
 70
     0
 62
   149
  6
CONTINUOUS
  0
LAYER
  5
CF
330
2
100
AcDbSymbolTableRecord
100
AcDbLayerTableRecord
  2
150
 70
     0
 62
   150
  6
CONTINUOUS
  0
LAYER
  5
D0
330
2
100
AcDbSymbolTableRecord
100
AcDbLayerTableRecord
  2
151
 70
     0
 62
   151
  6
CONTINUOUS
  0
LAYER
  5
D1
330
2
100
AcDbSymbolTableRecord
100
AcDbLayerTableRecord
  2
152
 70
     0
 62
   152
  6
CONTINUOUS
  0
LAYER
  5
D2
330
2
100
AcDbSymbolTableRecord
100
AcDbLayerTableRecord
  2
153
 70
     0
 62
   153
  6
CONTINUOUS
  0
LAYER
  5
D3
330
2
100
AcDbSymbolTableRecord
100
AcDbLayerTableRecord
  2
154
 70
     0
 62
   154
  6
CONTINUOUS
  0
LAYER
  5
D4
330
2
100
AcDbSymbolTableRecord
100
AcDbLayerTableRecord
  2
155
 70
     0
 62
   155
  6
CONTINUOUS
  0
LAYER
  5
D5
330
2
100
AcDbSymbolTableRecord
100
AcDbLayerTableRecord
  2
156
 70
     0
 62
   156
  6
CONTINUOUS
  0
LAYER
  5
D6
330
2
100
AcDbSymbolTableRecord
100
AcDbLayerTableRecord
  2
157
 70
     0
 62
   157
  6
CONTINUOUS
  0
LAYER
  5
D7
330
2
100
AcDbSymbolTableRecord
100
AcDbLayerTableRecord
  2
158
 70
     0
 62
   158
  6
CONTINUOUS
  0
LAYER
  5
D8
330
2
100
AcDbSymbolTableRecord
100
AcDbLayerTableRecord
  2
159
 70
     0
 62
   159
  6
CONTINUOUS
  0
LAYER
  5
D9
330
2
100
AcDbSymbolTableRecord
100
AcDbLayerTableRecord
  2
160
 70
     0
 62
   160
  6
CONTINUOUS
  0
LAYER
  5
DA
330
2
100
AcDbSymbolTableRecord
100
AcDbLayerTableRecord
  2
161
 70
     0
 62
   161
  6
CONTINUOUS
  0
LAYER
  5
DB
330
2
100
AcDbSymbolTableRecord
100
AcDbLayerTableRecord
  2
162
 70
     0
 62
   162
  6
CONTINUOUS
  0
LAYER
  5
DC
330
2
100
AcDbSymbolTableRecord
100
AcDbLayerTableRecord
  2
163
 70
     0
 62
   163
  6
CONTINUOUS
  0
LAYER
  5
DD
330
2
100
AcDbSymbolTableRecord
100
AcDbLayerTableRecord
  2
164
 70
     0
 62
   164
  6
CONTINUOUS
  0
LAYER
  5
DE
330
2
100
AcDbSymbolTableRecord
100
AcDbLayerTableRecord
  2
165
 70
     0
 62
   165
  6
CONTINUOUS
  0
LAYER
  5
DF
330
2
100
AcDbSymbolTableRecord
100
AcDbLayerTableRecord
  2
166
 70
     0
 62
   166
  6
CONTINUOUS
  0
LAYER
  5
E0
330
2
100
AcDbSymbolTableRecord
100
AcDbLayerTableRecord
  2
167
 70
     0
 62
   167
  6
CONTINUOUS
  0
LAYER
  5
E1
330
2
100
AcDbSymbolTableRecord
100
AcDbLayerTableRecord
  2
168
 70
     0
 62
   168
  6
CONTINUOUS
  0
LAYER
  5
E2
330
2
100
AcDbSymbolTableRecord
100
AcDbLayerTableRecord
  2
169
 70
     0
 62
   169
  6
CONTINUOUS
  0
LAYER
  5
E3
330
2
100
AcDbSymbolTableRecord
100
AcDbLayerTableRecord
  2
170
 70
     0
 62
   170
  6
CONTINUOUS
  0
LAYER
  5
E4
330
2
100
AcDbSymbolTableRecord
100
AcDbLayerTableRecord
  2
171
 70
     0
 62
   171
  6
CONTINUOUS
  0
LAYER
  5
E5
330
2
100
AcDbSymbolTableRecord
100
AcDbLayerTableRecord
  2
172
 70
     0
 62
   172
  6
CONTINUOUS
  0
LAYER
  5
E6
330
2
100
AcDbSymbolTableRecord
100
AcDbLayerTableRecord
  2
173
 70
     0
 62
   173
  6
CONTINUOUS
  0
LAYER
  5
E7
330
2
100
AcDbSymbolTableRecord
100
AcDbLayerTableRecord
  2
174
 70
     0
 62
   174
  6
CONTINUOUS
  0
LAYER
  5
E8
330
2
100
AcDbSymbolTableRecord
100
AcDbLayerTableRecord
  2
175
 70
     0
 62
   175
  6
CONTINUOUS
  0
LAYER
  5
E9
330
2
100
AcDbSymbolTableRecord
100
AcDbLayerTableRecord
  2
176
 70
     0
 62
   176
  6
CONTINUOUS
  0
LAYER
  5
EA
330
2
100
AcDbSymbolTableRecord
100
AcDbLayerTableRecord
  2
177
 70
     0
 62
   177
  6
CONTINUOUS
  0
LAYER
  5
EB
330
2
100
AcDbSymbolTableRecord
100
AcDbLayerTableRecord
  2
178
 70
     0
 62
   178
  6
CONTINUOUS
  0
LAYER
  5
EC
330
2
100
AcDbSymbolTableRecord
100
AcDbLayerTableRecord
  2
179
 70
     0
 62
   179
  6
CONTINUOUS
  0
LAYER
  5
ED
330
2
100
AcDbSymbolTableRecord
100
AcDbLayerTableRecord
  2
180
 70
     0
 62
   180
  6
CONTINUOUS
  0
LAYER
  5
EE
330
2
100
AcDbSymbolTableRecord
100
AcDbLayerTableRecord
  2
181
 70
     0
 62
   181
  6
CONTINUOUS
  0
LAYER
  5
EF
330
2
100
AcDbSymbolTableRecord
100
AcDbLayerTableRecord
  2
182
 70
     0
 62
   182
  6
CONTINUOUS
  0
LAYER
  5
F0
330
2
100
AcDbSymbolTableRecord
100
AcDbLayerTableRecord
  2
183
 70
     0
 62
   183
  6
CONTINUOUS
  0
LAYER
  5
F1
330
2
100
AcDbSymbolTableRecord
100
AcDbLayerTableRecord
  2
184
 70
     0
 62
   184
  6
CONTINUOUS
  0
LAYER
  5
F2
330
2
100
AcDbSymbolTableRecord
100
AcDbLayerTableRecord
  2
185
 70
     0
 62
   185
  6
CONTINUOUS
  0
LAYER
  5
F3
330
2
100
AcDbSymbolTableRecord
100
AcDbLayerTableRecord
  2
186
 70
     0
 62
   186
  6
CONTINUOUS
  0
LAYER
  5
F4
330
2
100
AcDbSymbolTableRecord
100
AcDbLayerTableRecord
  2
187
 70
     0
 62
   187
  6
CONTINUOUS
  0
LAYER
  5
F5
330
2
100
AcDbSymbolTableRecord
100
AcDbLayerTableRecord
  2
188
 70
     0
 62
   188
  6
CONTINUOUS
  0
LAYER
  5
F6
330
2
100
AcDbSymbolTableRecord
100
AcDbLayerTableRecord
  2
189
 70
     0
 62
   189
  6
CONTINUOUS
  0
LAYER
  5
F7
330
2
100
AcDbSymbolTableRecord
100
AcDbLayerTableRecord
  2
190
 70
     0
 62
   190
  6
CONTINUOUS
  0
LAYER
  5
F8
330
2
100
AcDbSymbolTableRecord
100
AcDbLayerTableRecord
  2
191
 70
     0
 62
   191
  6
CONTINUOUS
  0
LAYER
  5
F9
330
2
100
AcDbSymbolTableRecord
100
AcDbLayerTableRecord
  2
192
 70
     0
 62
   192
  6
CONTINUOUS
  0
LAYER
  5
FA
330
2
100
AcDbSymbolTableRecord
100
AcDbLayerTableRecord
  2
193
 70
     0
 62
   193
  6
CONTINUOUS
  0
LAYER
  5
FB
330
2
100
AcDbSymbolTableRecord
100
AcDbLayerTableRecord
  2
194
 70
     0
 62
   194
  6
CONTINUOUS
  0
LAYER
  5
FC
330
2
100
AcDbSymbolTableRecord
100
AcDbLayerTableRecord
  2
195
 70
     0
 62
   195
  6
CONTINUOUS
  0
LAYER
  5
FD
330
2
100
AcDbSymbolTableRecord
100
AcDbLayerTableRecord
  2
196
 70
     0
 62
   196
  6
CONTINUOUS
  0
LAYER
  5
FE
330
2
100
AcDbSymbolTableRecord
100
AcDbLayerTableRecord
  2
197
 70
     0
 62
   197
  6
CONTINUOUS
  0
LAYER
  5
FF
330
2
100
AcDbSymbolTableRecord
100
AcDbLayerTableRecord
  2
198
 70
     0
 62
   198
  6
CONTINUOUS
  0
LAYER
  5
100
330
2
100
AcDbSymbolTableRecord
100
AcDbLayerTableRecord
  2
199
 70
     0
 62
   199
  6
CONTINUOUS
  0
LAYER
  5
101
330
2
100
AcDbSymbolTableRecord
100
AcDbLayerTableRecord
  2
200
 70
     0
 62
   200
  6
CONTINUOUS
  0
LAYER
  5
102
330
2
100
AcDbSymbolTableRecord
100
AcDbLayerTableRecord
  2
201
 70
     0
 62
   201
  6
CONTINUOUS
  0
LAYER
  5
103
330
2
100
AcDbSymbolTableRecord
100
AcDbLayerTableRecord
  2
202
 70
     0
 62
   202
  6
CONTINUOUS
  0
LAYER
  5
104
330
2
100
AcDbSymbolTableRecord
100
AcDbLayerTableRecord
  2
203
 70
     0
 62
   203
  6
CONTINUOUS
  0
LAYER
  5
105
330
2
100
AcDbSymbolTableRecord
100
AcDbLayerTableRecord
  2
204
 70
     0
 62
   204
  6
CONTINUOUS
  0
LAYER
  5
106
330
2
100
AcDbSymbolTableRecord
100
AcDbLayerTableRecord
  2
205
 70
     0
 62
   205
  6
CONTINUOUS
  0
LAYER
  5
107
330
2
100
AcDbSymbolTableRecord
100
AcDbLayerTableRecord
  2
206
 70
     0
 62
   206
  6
CONTINUOUS
  0
LAYER
  5
108
330
2
100
AcDbSymbolTableRecord
100
AcDbLayerTableRecord
  2
207
 70
     0
 62
   207
  6
CONTINUOUS
  0
LAYER
  5
109
330
2
100
AcDbSymbolTableRecord
100
AcDbLayerTableRecord
  2
208
 70
     0
 62
   208
  6
CONTINUOUS
  0
LAYER
  5
10A
330
2
100
AcDbSymbolTableRecord
100
AcDbLayerTableRecord
  2
209
 70
     0
 62
   209
  6
CONTINUOUS
  0
LAYER
  5
10B
330
2
100
AcDbSymbolTableRecord
100
AcDbLayerTableRecord
  2
210
 70
     0
 62
   210
  6
CONTINUOUS
  0
LAYER
  5
10C
330
2
100
AcDbSymbolTableRecord
100
AcDbLayerTableRecord
  2
211
 70
     0
 62
   211
  6
CONTINUOUS
  0
LAYER
  5
10D
330
2
100
AcDbSymbolTableRecord
100
AcDbLayerTableRecord
  2
212
 70
     0
 62
   212
  6
CONTINUOUS
  0
LAYER
  5
10E
330
2
100
AcDbSymbolTableRecord
100
AcDbLayerTableRecord
  2
213
 70
     0
 62
   213
  6
CONTINUOUS
  0
LAYER
  5
10F
330
2
100
AcDbSymbolTableRecord
100
AcDbLayerTableRecord
  2
214
 70
     0
 62
   214
  6
CONTINUOUS
  0
LAYER
  5
110
330
2
100
AcDbSymbolTableRecord
100
AcDbLayerTableRecord
  2
215
 70
     0
 62
   215
  6
CONTINUOUS
  0
LAYER
  5
111
330
2
100
AcDbSymbolTableRecord
100
AcDbLayerTableRecord
  2
216
 70
     0
 62
   216
  6
CONTINUOUS
  0
LAYER
  5
112
330
2
100
AcDbSymbolTableRecord
100
AcDbLayerTableRecord
  2
217
 70
     0
 62
   217
  6
CONTINUOUS
  0
LAYER
  5
113
330
2
100
AcDbSymbolTableRecord
100
AcDbLayerTableRecord
  2
218
 70
     0
 62
   218
  6
CONTINUOUS
  0
LAYER
  5
114
330
2
100
AcDbSymbolTableRecord
100
AcDbLayerTableRecord
  2
219
 70
     0
 62
   219
  6
CONTINUOUS
  0
LAYER
  5
115
330
2
100
AcDbSymbolTableRecord
100
AcDbLayerTableRecord
  2
220
 70
     0
 62
   220
  6
CONTINUOUS
  0
LAYER
  5
116
330
2
100
AcDbSymbolTableRecord
100
AcDbLayerTableRecord
  2
221
 70
     0
 62
   221
  6
CONTINUOUS
  0
LAYER
  5
117
330
2
100
AcDbSymbolTableRecord
100
AcDbLayerTableRecord
  2
222
 70
     0
 62
   222
  6
CONTINUOUS
  0
LAYER
  5
118
330
2
100
AcDbSymbolTableRecord
100
AcDbLayerTableRecord
  2
223
 70
     0
 62
   223
  6
CONTINUOUS
  0
LAYER
  5
119
330
2
100
AcDbSymbolTableRecord
100
AcDbLayerTableRecord
  2
224
 70
     0
 62
   224
  6
CONTINUOUS
  0
LAYER
  5
11A
330
2
100
AcDbSymbolTableRecord
100
AcDbLayerTableRecord
  2
225
 70
     0
 62
   225
  6
CONTINUOUS
  0
LAYER
  5
11B
330
2
100
AcDbSymbolTableRecord
100
AcDbLayerTableRecord
  2
226
 70
     0
 62
   226
  6
CONTINUOUS
  0
LAYER
  5
11C
330
2
100
AcDbSymbolTableRecord
100
AcDbLayerTableRecord
  2
227
 70
     0
 62
   227
  6
CONTINUOUS
  0
LAYER
  5
11D
330
2
100
AcDbSymbolTableRecord
100
AcDbLayerTableRecord
  2
228
 70
     0
 62
   228
  6
CONTINUOUS
  0
LAYER
  5
11E
330
2
100
AcDbSymbolTableRecord
100
AcDbLayerTableRecord
  2
229
 70
     0
 62
   229
  6
CONTINUOUS
  0
LAYER
  5
11F
330
2
100
AcDbSymbolTableRecord
100
AcDbLayerTableRecord
  2
230
 70
     0
 62
   230
  6
CONTINUOUS
  0
LAYER
  5
120
330
2
100
AcDbSymbolTableRecord
100
AcDbLayerTableRecord
  2
231
 70
     0
 62
   231
  6
CONTINUOUS
  0
LAYER
  5
121
330
2
100
AcDbSymbolTableRecord
100
AcDbLayerTableRecord
  2
232
 70
     0
 62
   232
  6
CONTINUOUS
  0
LAYER
  5
122
330
2
100
AcDbSymbolTableRecord
100
AcDbLayerTableRecord
  2
233
 70
     0
 62
   233
  6
CONTINUOUS
  0
LAYER
  5
123
330
2
100
AcDbSymbolTableRecord
100
AcDbLayerTableRecord
  2
234
 70
     0
 62
   234
  6
CONTINUOUS
  0
LAYER
  5
124
330
2
100
AcDbSymbolTableRecord
100
AcDbLayerTableRecord
  2
235
 70
     0
 62
   235
  6
CONTINUOUS
  0
LAYER
  5
125
330
2
100
AcDbSymbolTableRecord
100
AcDbLayerTableRecord
  2
236
 70
     0
 62
   236
  6
CONTINUOUS
  0
LAYER
  5
126
330
2
100
AcDbSymbolTableRecord
100
AcDbLayerTableRecord
  2
237
 70
     0
 62
   237
  6
CONTINUOUS
  0
LAYER
  5
127
330
2
100
AcDbSymbolTableRecord
100
AcDbLayerTableRecord
  2
238
 70
     0
 62
   238
  6
CONTINUOUS
  0
LAYER
  5
128
330
2
100
AcDbSymbolTableRecord
100
AcDbLayerTableRecord
  2
239
 70
     0
 62
   239
  6
CONTINUOUS
  0
LAYER
  5
129
330
2
100
AcDbSymbolTableRecord
100
AcDbLayerTableRecord
  2
240
 70
     0
 62
   240
  6
CONTINUOUS
  0
LAYER
  5
12A
330
2
100
AcDbSymbolTableRecord
100
AcDbLayerTableRecord
  2
241
 70
     0
 62
   241
  6
CONTINUOUS
  0
LAYER
  5
12B
330
2
100
AcDbSymbolTableRecord
100
AcDbLayerTableRecord
  2
242
 70
     0
 62
   242
  6
CONTINUOUS
  0
LAYER
  5
12C
330
2
100
AcDbSymbolTableRecord
100
AcDbLayerTableRecord
  2
243
 70
     0
 62
   243
  6
CONTINUOUS
  0
LAYER
  5
12D
330
2
100
AcDbSymbolTableRecord
100
AcDbLayerTableRecord
  2
244
 70
     0
 62
   244
  6
CONTINUOUS
  0
LAYER
  5
12E
330
2
100
AcDbSymbolTableRecord
100
AcDbLayerTableRecord
  2
245
 70
     0
 62
   245
  6
CONTINUOUS
  0
LAYER
  5
12F
330
2
100
AcDbSymbolTableRecord
100
AcDbLayerTableRecord
  2
246
 70
     0
 62
   246
  6
CONTINUOUS
  0
LAYER
  5
130
330
2
100
AcDbSymbolTableRecord
100
AcDbLayerTableRecord
  2
247
 70
     0
 62
   247
  6
CONTINUOUS
  0
LAYER
  5
131
330
2
100
AcDbSymbolTableRecord
100
AcDbLayerTableRecord
  2
248
 70
     0
 62
   248
  6
CONTINUOUS
  0
LAYER
  5
132
330
2
100
AcDbSymbolTableRecord
100
AcDbLayerTableRecord
  2
249
 70
     0
 62
   249
  6
CONTINUOUS
  0
LAYER
  5
133
330
2
100
AcDbSymbolTableRecord
100
AcDbLayerTableRecord
  2
250
 70
     0
 62
   250
  6
CONTINUOUS
  0
LAYER
  5
134
330
2
100
AcDbSymbolTableRecord
100
AcDbLayerTableRecord
  2
251
 70
     0
 62
   251
  6
CONTINUOUS
  0
LAYER
  5
135
330
2
100
AcDbSymbolTableRecord
100
AcDbLayerTableRecord
  2
252
 70
     0
 62
   252
  6
CONTINUOUS
  0
LAYER
  5
136
330
2
100
AcDbSymbolTableRecord
100
AcDbLayerTableRecord
  2
253
 70
     0
 62
   253
  6
CONTINUOUS
  0
LAYER
  5
137
330
2
100
AcDbSymbolTableRecord
100
AcDbLayerTableRecord
  2
254
 70
     0
 62
   254
  6
CONTINUOUS
  0
LAYER
  5
138
330
2
100
AcDbSymbolTableRecord
100
AcDbLayerTableRecord
  2
255
 70
     0
 62
   255
  6
CONTINUOUS
  0
ENDTAB
  0
TABLE
  2
STYLE
  5
3
330
0
100
AcDbSymbolTable
 70
     1
  0
STYLE
  5
11
330
3
100
AcDbSymbolTableRecord
100
AcDbTextStyleTableRecord
  2
STANDARD
 70
     0
 40
0.0
 41
1.0
 50
0.0
 71
     0
 42
0.2
  3
monotxt
  4

  0
ENDTAB
  0
TABLE
  2
VIEW
  5
6
330
0
100
AcDbSymbolTable
 70
     0
  0
ENDTAB
  0
TABLE
  2
UCS
  5
7
330
0
100
AcDbSymbolTable
 70
     0
  0
ENDTAB
  0
TABLE
  2
APPID
  5
9
330
0
100
AcDbSymbolTable
 70
     1
  0
APPID
  5
12
330
9
100
AcDbSymbolTableRecord
100
AcDbRegAppTableRecord
  2
ACAD
 70
     0
  0
ENDTAB
  0
TABLE
  2
DIMSTYLE
  5
A
330
0
100
AcDbSymbolTable
 70
     1
  0
DIMSTYLE
105
227A
330
A
100
AcDbSymbolTableRecord
100
AcDbDimStyleTableRecord
  2
STANDARD
 70
     0
  3

  4

  5

  6

  7

 40
1.0
 41
0.18
 42
0.0625
 43
0.38
 44
0.18
 45
0.0
 46
0.0
 47
0.0
 48
0.0
140
0.18
141
0.09
142
0.0
143
25.4
144
1.0
145
0.0
146
1.0
147
0.09
 71
     0
 72
     0
 73
     1
 74
     1
 75
     0
 76
     0
 77
     0
 78
     0
170
     0
171
     2
172
     0
173
     0
174
     0
175
     0
176
     0
177
     0
178
     0
270
     2
271
     4
272
     4
273
     2
274
     2
340
11
275
     0
280
     0
281
     0
282
     0
283
     1
284
     0
285
     0
286
     0
287
     3
288
     0
  0
ENDTAB
  0
TABLE
  2
BLOCK_RECORD
  5
1
330
0
100
AcDbSymbolTable
 70
     0
  0
BLOCK_RECORD
  5
1E
102
{ACAD_XDICTIONARY
360
2709
102
}
330
1
100
AcDbSymbolTableRecord
100
AcDbBlockTableRecord
  2
*MODEL_SPACE
  0
BLOCK_RECORD
  5
1A
102
{ACAD_XDICTIONARY
360
270B
102
}
330
1
100
AcDbSymbolTableRecord
100
AcDbBlockTableRecord
  2
*PAPER_SPACE
  0
ENDTAB
  0
ENDSEC
  0
SECTION
  2
BLOCKS
  0
BLOCK
  5
13B
330
1E
100
AcDbEntity
  8
0
100
AcDbBlockBegin
  2
*MODEL_SPACE
 70
     0
 10
0.0
 20
0.0
 30
0.0
  3
*MODEL_SPACE
  1

  0
ENDBLK
  5
13C
330
1E
100
AcDbEntity
  8
0
100
AcDbBlockEnd
  0
BLOCK
  5
139
330
1A
100
AcDbEntity
 67
     1
  8
0
100
AcDbBlockBegin
  2
*PAPER_SPACE
 70
     0
 10
0.0
 20
0.0
 30
0.0
  3
*PAPER_SPACE
  1

  0
ENDBLK
  5
13A
330
1A
100
AcDbEntity
 67
     1
  8
0
100
AcDbBlockEnd
  0
ENDSEC
  0
SECTION
  2
ENTITIES
  0
LINE
  5
1DA1
330
1E
100
AcDbEntity
  8
7
100
AcDbLine
 10
8.320866141732281
 20
11.44685039370078
 30
0.0
 11
8.320866141732281
 21
11.51574803149606
 31
0.0
  0
LINE
  5
1DA2
330
1E
100
AcDbEntity
  8
7
100
AcDbLine
 10
8.320866141732281
 20
11.44685039370078
 30
0.0
 11
8.476377952755903
 21
11.44685039370078
 31
0.0
  0
LINE
  5
1DA8
330
1E
100
AcDbEntity
  8
7
100
AcDbLine
 10
8.955708661417322
 20
11.51574803149606
 30
0.0
 11
9.013779527559055
 21
11.51574803149606
 31
0.0
  0
LINE
  5
1DAE
330
1E
100
AcDbEntity
  8
7
100
AcDbLine
 10
7.782480314960628
 20
11.51574803149606
 30
0.0
 11
7.841535433070865
 21
11.51574803149606
 31
0.0
  0
LINE
  5
1DAF
330
1E
100
AcDbEntity
  8
7
100
AcDbLine
 10
7.782480314960628
 20
11.51574803149606
 30
0.0
 11
7.77755905511811
 21
11.51082677165354
 31
0.0
  0
LINE
  5
1DB0
330
1E
100
AcDbEntity
  8
7
100
AcDbLine
 10
7.77755905511811
 20
11.44685039370078
 30
0.0
 11
7.77755905511811
 21
11.51082677165354
 31
0.0
  0
LINE
  5
1DBB
330
1E
100
AcDbEntity
  8
7
100
AcDbLine
 10
8.478346456692911
 20
11.44488188976377
 30
0.0
 11
8.476377952755903
 21
11.44685039370078
 31
0.0
  0
LINE
  5
1DBC
330
1E
100
AcDbEntity
  8
7
100
AcDbLine
 10
8.478346456692911
 20
11.44488188976377
 30
0.0
 11
8.478346456692911
 21
11.501968503937
 31
0.0
  0
LINE
  5
1DBD
330
1E
100
AcDbEntity
  8
7
100
AcDbLine
 10
8.318897637795274
 20
11.50688976377952
 30
0.0
 11
8.318897637795274
 21
11.501968503937
 31
0.0
  0
LINE
  5
1DBE
330
1E
100
AcDbEntity
  8
7
100
AcDbLine
 10
8.318897637795274
 20
11.44488188976377
 30
0.0
 11
8.318897637795274
 21
11.501968503937
 31
0.0
  0
LINE
  5
1DBF
330
1E
100
AcDbEntity
  8
7
100
AcDbLine
 10
8.320866141732281
 20
11.44685039370078
 30
0.0
 11
8.318897637795274
 21
11.44488188976377
 31
0.0
  0
LINE
  5
1DC0
330
1E
100
AcDbEntity
  8
7
100
AcDbLine
 10
8.320866141732281
 20
11.51574803149606
 30
0.0
 11
8.318897637795274
 21
11.50688976377952
 31
0.0
  0
LINE
  5
1DC1
330
1E
100
AcDbEntity
  8
7
100
AcDbLine
 10
8.953740157480314
 20
11.50688976377952
 30
0.0
 11
8.953740157480314
 21
11.501968503937
 31
0.0
  0
LINE
  5
1DC2
330
1E
100
AcDbEntity
  8
7
100
AcDbLine
 10
8.953740157480314
 20
11.44488188976377
 30
0.0
 11
8.953740157480314
 21
11.501968503937
 31
0.0
  0
LINE
  5
1DC3
330
1E
100
AcDbEntity
  8
7
100
AcDbLine
 10
8.955708661417322
 20
11.44685039370078
 30
0.0
 11
8.953740157480314
 21
11.44488188976377
 31
0.0
  0
LINE
  5
1DC4
330
1E
100
AcDbEntity
  8
7
100
AcDbLine
 10
8.955708661417322
 20
11.51574803149606
 30
0.0
 11
8.953740157480314
 21
11.50688976377952
 31
0.0
  0
LINE
  5
1DCA
330
1E
100
AcDbEntity
  8
7
100
AcDbLine
 10
7.843503937007873
 20
11.44488188976377
 30
0.0
 11
7.841535433070865
 21
11.44685039370078
 31
0.0
  0
LINE
  5
1DCB
330
1E
100
AcDbEntity
  8
7
100
AcDbLine
 10
7.843503937007873
 20
11.44488188976377
 30
0.0
 11
7.843503937007873
 21
11.501968503937
 31
0.0
  0
LINE
  5
1DCC
330
1E
100
AcDbEntity
  8
7
100
AcDbLine
 10
8.03543307086614
 20
11.40551181102362
 30
0.0
 11
8.058070866141733
 21
11.40551181102362
 31
0.0
  0
LINE
  5
1DCD
330
1E
100
AcDbEntity
  8
7
100
AcDbLine
 10
8.03543307086614
 20
11.40551181102362
 30
0.0
 11
8.018700787401574
 21
11.4005905511811
 31
0.0
  0
LINE
  5
1DDB
330
1E
100
AcDbEntity
  8
7
100
AcDbLine
 10
8.791338582677166
 20
11.37106299212598
 30
0.0
 11
8.744094488188974
 21
10.99114173228346
 31
0.0
  0
LINE
  5
1DE2
330
1E
100
AcDbEntity
  8
7
100
AcDbLine
 10
8.738188976377951
 20
11.40551181102362
 30
0.0
 11
8.761811023622048
 21
11.40551181102362
 31
0.0
  0
LINE
  5
1DE3
330
1E
100
AcDbEntity
  8
7
100
AcDbLine
 10
8.318897637795274
 20
11.501968503937
 30
0.0
 11
7.843503937007873
 21
11.501968503937
 31
0.0
  0
LINE
  5
1DE4
330
1E
100
AcDbEntity
  8
7
100
AcDbLine
 10
7.782480314960628
 20
11.44488188976377
 30
0.0
 11
7.843503937007873
 21
11.44488188976377
 31
0.0
  0
LINE
  5
1DEA
330
1E
100
AcDbEntity
  8
7
100
AcDbLine
 10
9.013779527559055
 20
10.79625984251968
 30
0.0
 11
9.013779527559055
 21
11.44488188976377
 31
0.0
  0
LINE
  5
1DEB
330
1E
100
AcDbEntity
  8
7
100
AcDbLine
 10
8.953740157480314
 20
11.44488188976377
 30
0.0
 11
9.013779527559055
 21
11.44488188976377
 31
0.0
  0
LINE
  5
1DEC
330
1E
100
AcDbEntity
  8
7
100
AcDbLine
 10
8.953740157480314
 20
11.501968503937
 30
0.0
 11
8.478346456692911
 21
11.501968503937
 31
0.0
  0
LINE
  5
1DED
330
1E
100
AcDbEntity
  8
7
100
AcDbLine
 10
8.318897637795274
 20
11.44488188976377
 30
0.0
 11
8.478346456692911
 21
11.44488188976377
 31
0.0
  0
LINE
  5
1DEE
330
1E
100
AcDbEntity
  8
7
100
AcDbLine
 10
8.811023622047244
 20
10.9261811023622
 30
0.0
 11
8.621062992125985
 21
10.9261811023622
 31
0.0
  0
LINE
  5
1DEF
330
1E
100
AcDbEntity
  8
7
100
AcDbLine
 10
8.811023622047244
 20
10.9261811023622
 30
0.0
 11
8.821850393700785
 21
10.92125984251968
 31
0.0
  0
LINE
  5
1DF0
330
1E
100
AcDbEntity
  8
7
100
AcDbLine
 10
8.821850393700785
 20
10.92125984251968
 30
0.0
 11
8.825787401574803
 21
10.91141732283464
 31
0.0
  0
LINE
  5
1DF1
330
1E
100
AcDbEntity
  8
7
100
AcDbLine
 10
8.825787401574803
 20
10.8759842519685
 30
0.0
 11
8.825787401574803
 21
10.91141732283464
 31
0.0
  0
LINE
  5
1DF7
330
1E
100
AcDbEntity
  8
7
100
AcDbLine
 10
8.621062992125985
 20
10.86122047244094
 30
0.0
 11
8.811023622047244
 21
10.86122047244094
 31
0.0
  0
LINE
  5
1DFF
330
1E
100
AcDbEntity
  8
7
100
AcDbLine
 10
8.61023622047244
 20
10.92125984251968
 30
0.0
 11
8.621062992125985
 21
10.9261811023622
 31
0.0
  0
LINE
  5
1E05
330
1E
100
AcDbEntity
  8
7
100
AcDbLine
 10
8.176181102362203
 20
10.9261811023622
 30
0.0
 11
7.986220472440943
 21
10.9261811023622
 31
0.0
  0
LINE
  5
1E0B
330
1E
100
AcDbEntity
  8
7
100
AcDbLine
 10
8.190944881889762
 20
10.8759842519685
 30
0.0
 11
8.190944881889762
 21
10.91141732283464
 31
0.0
  0
LINE
  5
1E11
330
1E
100
AcDbEntity
  8
7
100
AcDbLine
 10
7.986220472440943
 20
10.86122047244094
 30
0.0
 11
8.176181102362203
 21
10.86122047244094
 31
0.0
  0
LINE
  5
1E4A
330
1E
100
AcDbEntity
  8
7
100
AcDbLine
 10
8.003937007874014
 20
11.37303149606299
 30
0.0
 11
8.052165354330707
 21
10.99015748031495
 31
0.0
  0
LINE
  5
1E51
330
1E
100
AcDbEntity
  8
7
100
AcDbLine
 10
8.762795275590551
 20
11.40649606299212
 30
0.0
 11
8.033464566929133
 21
11.40649606299212
 31
0.0
  0
LINE
  5
1E5C
330
1E
100
AcDbEntity
  8
7
100
AcDbLine
 10
8.715551181102362
 20
10.96358267716535
 30
0.0
 11
8.081692913385825
 21
10.96358267716535
 31
0.0
  0
LINE
  5
1E68
330
1E
100
AcDbEntity
  8
7
100
AcDbLine
 10
7.77755905511811
 20
11.44685039370078
 30
0.0
 11
7.77755905511811
 21
11.44488188976377
 31
0.0
  0
LINE
  5
1E6E
330
1E
100
AcDbEntity
  8
7
100
AcDbLine
 10
7.77755905511811
 20
11.44488188976377
 30
0.0
 11
7.782480314960628
 21
11.44488188976377
 31
0.0
  0
LINE
  5
1E6F
330
1E
100
AcDbEntity
  8
7
100
AcDbLine
 10
9.013779527559055
 20
11.44488188976377
 30
0.0
 11
9.019685039370077
 21
11.44488188976377
 31
0.0
  0
LINE
  5
1E70
330
1E
100
AcDbEntity
  8
7
100
AcDbLine
 10
8.103346456692911
 20
11.40551181102362
 30
0.0
 11
8.058070866141733
 21
11.40551181102362
 31
0.0
  0
LINE
  5
1E71
330
1E
100
AcDbEntity
  8
7
100
AcDbLine
 10
8.503937007874014
 20
11.40551181102362
 30
0.0
 11
8.293307086614174
 21
11.40551181102362
 31
0.0
  0
LINE
  5
1E72
330
1E
100
AcDbEntity
  8
7
100
AcDbLine
 10
8.738188976377951
 20
11.40551181102362
 30
0.0
 11
8.693897637795274
 21
11.40551181102362
 31
0.0
  0
LINE
  5
1E73
330
1E
100
AcDbEntity
  8
7
100
AcDbLine
 10
8.503937007874014
 20
11.40551181102362
 30
0.0
 11
8.693897637795274
 21
11.40551181102362
 31
0.0
  0
LINE
  5
1E74
330
1E
100
AcDbEntity
  8
7
100
AcDbLine
 10
8.761811023622048
 20
11.40551181102362
 30
0.0
 11
8.762795275590551
 21
11.40649606299212
 31
0.0
  0
LINE
  5
1E75
330
1E
100
AcDbEntity
  8
7
100
AcDbLine
 10
8.033464566929133
 20
11.40649606299212
 30
0.0
 11
8.03543307086614
 21
11.40551181102362
 31
0.0
  0
LINE
  5
1E76
330
1E
100
AcDbEntity
  8
7
100
AcDbLine
 10
8.103346456692911
 20
11.40551181102362
 30
0.0
 11
8.293307086614174
 21
11.40551181102362
 31
0.0
  0
LINE
  5
1E77
330
1E
100
AcDbEntity
  8
7
100
AcDbLine
 10
8.744094488188974
 20
10.99114173228346
 30
0.0
 11
8.745078740157481
 21
10.99015748031495
 31
0.0
  0
LINE
  5
1E78
330
1E
100
AcDbEntity
  8
7
100
AcDbLine
 10
8.793307086614174
 20
11.37303149606299
 30
0.0
 11
8.791338582677166
 21
11.37106299212598
 31
0.0
  0
LINE
  5
1E79
330
1E
100
AcDbEntity
  8
7
100
AcDbLine
 10
8.082677165354329
 20
10.96555118110236
 30
0.0
 11
8.081692913385825
 21
10.96358267716535
 31
0.0
  0
LINE
  5
1E7A
330
1E
100
AcDbEntity
  8
7
100
AcDbLine
 10
8.715551181102362
 20
10.96358267716535
 30
0.0
 11
8.714566929133859
 21
10.96555118110236
 31
0.0
  0
LINE
  5
1E80
330
1E
100
AcDbEntity
  8
7
100
AcDbLine
 10
7.971456692913386
 20
10.876968503937
 30
0.0
 11
7.971456692913386
 21
10.91043307086614
 31
0.0
  0
LINE
  5
1E86
330
1E
100
AcDbEntity
  8
7
100
AcDbLine
 10
8.1751968503937
 20
10.86122047244094
 30
0.0
 11
7.986220472440943
 21
10.86122047244094
 31
0.0
  0
LINE
  5
1E8F
330
1E
100
AcDbEntity
  8
7
100
AcDbLine
 10
7.986220472440943
 20
10.9251968503937
 30
0.0
 11
8.1751968503937
 21
10.9251968503937
 31
0.0
  0
LINE
  5
1E90
330
1E
100
AcDbEntity
  8
7
100
AcDbLine
 10
7.971456692913386
 20
10.8759842519685
 30
0.0
 11
7.971456692913386
 21
10.876968503937
 31
0.0
  0
LINE
  5
1E91
330
1E
100
AcDbEntity
  8
7
100
AcDbLine
 10
8.176181102362203
 20
10.86122047244094
 30
0.0
 11
8.1751968503937
 21
10.86122047244094
 31
0.0
  0
LINE
  5
1E92
330
1E
100
AcDbEntity
  8
7
100
AcDbLine
 10
8.189960629921259
 20
10.876968503937
 30
0.0
 11
8.190944881889762
 21
10.8759842519685
 31
0.0
  0
LINE
  5
1E93
330
1E
100
AcDbEntity
  8
7
100
AcDbLine
 10
8.190944881889762
 20
10.91141732283464
 30
0.0
 11
8.189960629921259
 21
10.91043307086614
 31
0.0
  0
LINE
  5
1E94
330
1E
100
AcDbEntity
  8
7
100
AcDbLine
 10
8.1751968503937
 20
10.9251968503937
 30
0.0
 11
8.176181102362203
 21
10.9261811023622
 31
0.0
  0
LINE
  5
1E95
330
1E
100
AcDbEntity
  8
7
100
AcDbLine
 10
7.986220472440943
 20
10.9261811023622
 30
0.0
 11
7.986220472440943
 21
10.9251968503937
 31
0.0
  0
LINE
  5
1E96
330
1E
100
AcDbEntity
  8
7
100
AcDbLine
 10
7.971456692913386
 20
10.91043307086614
 30
0.0
 11
7.971456692913386
 21
10.91141732283464
 31
0.0
  0
LINE
  5
1E97
330
1E
100
AcDbEntity
  8
7
100
AcDbLine
 10
8.606299212598425
 20
10.91043307086614
 30
0.0
 11
8.606299212598425
 21
10.91141732283464
 31
0.0
  0
LINE
  5
1E9D
330
1E
100
AcDbEntity
  8
7
100
AcDbLine
 10
8.621062992125985
 20
10.9261811023622
 30
0.0
 11
8.622047244094488
 21
10.9251968503937
 31
0.0
  0
LINE
  5
1EA3
330
1E
100
AcDbEntity
  8
7
100
AcDbLine
 10
8.825787401574803
 20
10.91141732283464
 30
0.0
 11
8.824803149606299
 21
10.91043307086614
 31
0.0
  0
LINE
  5
1EA4
330
1E
100
AcDbEntity
  8
7
100
AcDbLine
 10
8.81003937007874
 20
10.9251968503937
 30
0.0
 11
8.811023622047244
 21
10.9261811023622
 31
0.0
  0
LINE
  5
1EAA
330
1E
100
AcDbEntity
  8
7
100
AcDbLine
 10
8.606299212598425
 20
10.8759842519685
 30
0.0
 11
8.606299212598425
 21
10.876968503937
 31
0.0
  0
LINE
  5
1EAB
330
1E
100
AcDbEntity
  8
7
100
AcDbLine
 10
8.622047244094488
 20
10.86122047244094
 30
0.0
 11
8.621062992125985
 21
10.86122047244094
 31
0.0
  0
LINE
  5
1EAC
330
1E
100
AcDbEntity
  8
7
100
AcDbLine
 10
8.824803149606299
 20
10.876968503937
 30
0.0
 11
8.825787401574803
 21
10.8759842519685
 31
0.0
  0
LINE
  5
1EB2
330
1E
100
AcDbEntity
  8
7
100
AcDbLine
 10
8.811023622047244
 20
10.86122047244094
 30
0.0
 11
8.81003937007874
 21
10.86122047244094
 31
0.0
  0
LINE
  5
1EB3
330
1E
100
AcDbEntity
  8
7
100
AcDbLine
 10
8.622047244094488
 20
10.9251968503937
 30
0.0
 11
8.81003937007874
 21
10.9251968503937
 31
0.0
  0
LINE
  5
1EB4
330
1E
100
AcDbEntity
  8
7
100
AcDbLine
 10
8.606299212598425
 20
10.876968503937
 30
0.0
 11
8.606299212598425
 21
10.91043307086614
 31
0.0
  0
LINE
  5
1EB5
330
1E
100
AcDbEntity
  8
7
100
AcDbLine
 10
8.81003937007874
 20
10.86122047244094
 30
0.0
 11
8.622047244094488
 21
10.86122047244094
 31
0.0
  0
LINE
  5
1EB6
330
1E
100
AcDbEntity
  8
7
100
AcDbLine
 10
8.824803149606299
 20
10.876968503937
 30
0.0
 11
8.824803149606299
 21
10.91043307086614
 31
0.0
  0
LINE
  5
1EB7
330
1E
100
AcDbEntity
  8
7
100
AcDbLine
 10
8.052165354330707
 20
10.99015748031495
 30
0.0
 11
8.053149606299211
 21
10.99114173228346
 31
0.0
  0
LINE
  5
1EB8
330
1E
100
AcDbEntity
  8
7
100
AcDbLine
 10
8.004921259842518
 20
11.37106299212598
 30
0.0
 11
8.003937007874014
 21
11.37303149606299
 31
0.0
  0
LINE
  5
1ECF
330
1E
100
AcDbEntity
  8
7
100
AcDbLine
 10
7.906496062992125
 20
11.22440944881889
 30
0.0
 11
7.888779527559054
 21
11.22047244094488
 31
0.0
  0
LINE
  5
1F82
330
1E
100
AcDbEntity
  8
7
100
AcDbLine
 10
7.843503937007873
 20
11.50688976377952
 30
0.0
 11
8.318897637795274
 21
11.50688976377952
 31
0.0
  0
LINE
  5
1F83
330
1E
100
AcDbEntity
  8
7
100
AcDbLine
 10
8.478346456692911
 20
11.50688976377952
 30
0.0
 11
8.953740157480314
 21
11.50688976377952
 31
0.0
  0
LINE
  5
1F84
330
1E
100
AcDbEntity
  8
7
100
AcDbLine
 10
7.841535433070865
 20
11.51574803149606
 30
0.0
 11
8.320866141732281
 21
11.51574803149606
 31
0.0
  0
LINE
  5
1F85
330
1E
100
AcDbEntity
  8
7
100
AcDbLine
 10
8.476377952755903
 20
11.51574803149606
 30
0.0
 11
8.955708661417322
 21
11.51574803149606
 31
0.0
  0
LINE
  5
1F86
330
1E
100
AcDbEntity
  8
7
100
AcDbLine
 10
8.476377952755903
 20
12.9753937007874
 30
0.0
 11
8.320866141732281
 21
12.9753937007874
 31
0.0
  0
LINE
  5
1F87
330
1E
100
AcDbEntity
  8
7
100
AcDbLine
 10
9.019685039370077
 20
12.9753937007874
 30
0.0
 11
9.013779527559055
 21
12.9753937007874
 31
0.0
  0
LINE
  5
1F88
330
1E
100
AcDbEntity
  8
7
100
AcDbLine
 10
8.955708661417322
 20
12.9753937007874
 30
0.0
 11
9.013779527559055
 21
12.9753937007874
 31
0.0
  0
LINE
  5
1F89
330
1E
100
AcDbEntity
  8
7
100
AcDbLine
 10
7.782480314960628
 20
12.9753937007874
 30
0.0
 11
7.841535433070865
 21
12.9753937007874
 31
0.0
  0
LINE
  5
1F8A
330
1E
100
AcDbEntity
  8
7
100
AcDbLine
 10
7.782480314960628
 20
12.9753937007874
 30
0.0
 11
7.77755905511811
 21
12.9753937007874
 31
0.0
  0
LINE
  5
1F8B
330
1E
100
AcDbEntity
  8
7
100
AcDbLine
 10
7.792322834645669
 20
13.40649606299212
 30
0.0
 11
7.798228346456691
 21
13.40649606299212
 31
0.0
  0
LINE
  5
1F8C
330
1E
100
AcDbEntity
  8
7
100
AcDbLine
 10
8.999015748031496
 20
13.40649606299212
 30
0.0
 11
7.798228346456691
 21
13.40649606299212
 31
0.0
  0
LINE
  5
1F92
330
1E
100
AcDbEntity
  8
7
100
AcDbLine
 10
9.000984251968503
 20
13.50492125984251
 30
0.0
 11
8.9753937007874
 21
14.22440944881889
 31
0.0
  0
LINE
  5
1F98
330
1E
100
AcDbEntity
  8
7
100
AcDbLine
 10
9.003937007874014
 20
13.40649606299212
 30
0.0
 11
9.000984251968503
 21
13.49507874015748
 31
0.0
  0
LINE
  5
1F9E
330
1E
100
AcDbEntity
  8
7
100
AcDbLine
 10
8.318897637795274
 20
12.88188976377952
 30
0.0
 11
8.318897637795274
 21
12.876968503937
 31
0.0
  0
LINE
  5
1F9F
330
1E
100
AcDbEntity
  8
7
100
AcDbLine
 10
8.320866141732281
 20
12.9753937007874
 30
0.0
 11
8.318897637795274
 21
12.88188976377952
 31
0.0
  0
LINE
  5
1FA0
330
1E
100
AcDbEntity
  8
7
100
AcDbLine
 10
8.953740157480314
 20
12.88188976377952
 30
0.0
 11
8.953740157480314
 21
12.876968503937
 31
0.0
  0
LINE
  5
1FA1
330
1E
100
AcDbEntity
  8
7
100
AcDbLine
 10
8.955708661417322
 20
12.9753937007874
 30
0.0
 11
8.953740157480314
 21
12.88188976377952
 31
0.0
  0
LINE
  5
1FA7
330
1E
100
AcDbEntity
  8
7
100
AcDbLine
 10
8.318897637795274
 20
12.876968503937
 30
0.0
 11
7.843503937007873
 21
12.876968503937
 31
0.0
  0
LINE
  5
1FA8
330
1E
100
AcDbEntity
  8
7
100
AcDbLine
 10
7.782480314960628
 20
12.876968503937
 30
0.0
 11
7.843503937007873
 21
12.876968503937
 31
0.0
  0
LINE
  5
1FA9
330
1E
100
AcDbEntity
  8
7
100
AcDbLine
 10
8.953740157480314
 20
12.876968503937
 30
0.0
 11
9.013779527559055
 21
12.876968503937
 31
0.0
  0
LINE
  5
1FAA
330
1E
100
AcDbEntity
  8
7
100
AcDbLine
 10
8.953740157480314
 20
12.876968503937
 30
0.0
 11
8.478346456692911
 21
12.876968503937
 31
0.0
  0
LINE
  5
1FAB
330
1E
100
AcDbEntity
  8
7
100
AcDbLine
 10
8.318897637795274
 20
12.876968503937
 30
0.0
 11
8.478346456692911
 21
12.876968503937
 31
0.0
  0
LINE
  5
1FBC
330
1E
100
AcDbEntity
  8
7
100
AcDbLine
 10
8.663385826771651
 20
13.96161417322834
 30
0.0
 11
8.607283464566929
 21
13.96161417322834
 31
0.0
  0
LINE
  5
1FBD
330
1E
100
AcDbEntity
  8
7
100
AcDbLine
 10
8.663385826771651
 20
13.82185039370078
 30
0.0
 11
8.663385826771651
 21
13.96161417322834
 31
0.0
  0
LINE
  5
1FBE
330
1E
100
AcDbEntity
  8
7
100
AcDbLine
 10
8.607283464566929
 20
13.82185039370078
 30
0.0
 11
8.663385826771651
 21
13.82185039370078
 31
0.0
  0
LINE
  5
1FBF
330
1E
100
AcDbEntity
  8
7
100
AcDbLine
 10
8.607283464566929
 20
13.82185039370078
 30
0.0
 11
8.607283464566929
 21
13.40649606299212
 31
0.0
  0
LINE
  5
1FC0
330
1E
100
AcDbEntity
  8
7
100
AcDbLine
 10
8.957677165354329
 20
13.50492125984251
 30
0.0
 11
9.000984251968503
 21
13.50492125984251
 31
0.0
  0
LINE
  5
1FC1
330
1E
100
AcDbEntity
  8
7
100
AcDbLine
 10
8.9753937007874
 20
14.22440944881889
 30
0.0
 11
8.949803149606299
 21
14.24901574803149
 31
0.0
  0
LINE
  5
1FC2
330
1E
100
AcDbEntity
  8
7
100
AcDbLine
 10
8.825787401574803
 20
14.24901574803149
 30
0.0
 11
8.949803149606299
 21
14.24901574803149
 31
0.0
  0
LINE
  5
1FC3
330
1E
100
AcDbEntity
  8
7
100
AcDbLine
 10
8.824803149606299
 20
14.20964566929133
 30
0.0
 11
8.825787401574803
 21
14.24901574803149
 31
0.0
  0
LINE
  5
1FC9
330
1E
100
AcDbEntity
  8
7
100
AcDbLine
 10
8.190944881889762
 20
14.24901574803149
 30
0.0
 11
8.606299212598425
 21
14.24901574803149
 31
0.0
  0
LINE
  5
1FCA
330
1E
100
AcDbEntity
  8
7
100
AcDbLine
 10
8.189960629921259
 20
14.20964566929133
 30
0.0
 11
8.190944881889762
 21
14.24901574803149
 31
0.0
  0
LINE
  5
1FD0
330
1E
100
AcDbEntity
  8
7
100
AcDbLine
 10
7.847440944881889
 20
14.24901574803149
 30
0.0
 11
7.971456692913386
 21
14.24901574803149
 31
0.0
  0
LINE
  5
1FD7
330
1E
100
AcDbEntity
  8
7
100
AcDbLine
 10
8.189960629921259
 20
13.40649606299212
 30
0.0
 11
8.189960629921259
 21
13.82185039370078
 31
0.0
  0
LINE
  5
1FD8
330
1E
100
AcDbEntity
  8
7
100
AcDbLine
 10
8.133858267716533
 20
13.82185039370078
 30
0.0
 11
8.189960629921259
 21
13.82185039370078
 31
0.0
  0
LINE
  5
1FD9
330
1E
100
AcDbEntity
  8
7
100
AcDbLine
 10
8.133858267716533
 20
13.96161417322834
 30
0.0
 11
8.133858267716533
 21
13.82185039370078
 31
0.0
  0
LINE
  5
1FDA
330
1E
100
AcDbEntity
  8
7
100
AcDbLine
 10
8.189960629921259
 20
13.96161417322834
 30
0.0
 11
8.189960629921259
 21
14.06889763779527
 31
0.0
  0
LINE
  5
1FF8
330
1E
100
AcDbEntity
  8
7
100
AcDbLine
 10
8.591535433070866
 20
13.82185039370078
 30
0.0
 11
8.591535433070866
 21
13.82283464566929
 31
0.0
  0
LINE
  5
2024
330
1E
100
AcDbEntity
  8
7
100
AcDbLine
 10
7.77755905511811
 20
12.9753937007874
 30
0.0
 11
7.77755905511811
 21
12.88188976377952
 31
0.0
  0
LINE
  5
2025
330
1E
100
AcDbEntity
  8
7
100
AcDbLine
 10
9.019685039370077
 20
12.9753937007874
 30
0.0
 11
9.019685039370077
 21
12.88188976377952
 31
0.0
  0
LINE
  5
2026
330
1E
100
AcDbEntity
  8
7
100
AcDbLine
 10
7.77755905511811
 20
12.88188976377952
 30
0.0
 11
7.782480314960628
 21
12.876968503937
 31
0.0
  0
LINE
  5
2027
330
1E
100
AcDbEntity
  8
7
100
AcDbLine
 10
9.013779527559055
 20
12.876968503937
 30
0.0
 11
9.019685039370077
 21
12.88188976377952
 31
0.0
  0
LINE
  5
2028
330
1E
100
AcDbEntity
  8
7
100
AcDbLine
 10
7.77755905511811
 20
12.9753937007874
 30
0.0
 11
7.792322834645669
 21
13.40649606299212
 31
0.0
  0
LINE
  5
203D
330
1E
100
AcDbEntity
  8
7
100
AcDbLine
 10
8.512795275590551
 20
13.40649606299212
 30
0.0
 11
8.513779527559055
 21
13.96948818897637
 31
0.0
  0
LINE
  5
203E
330
1E
100
AcDbEntity
  8
7
100
AcDbLine
 10
8.209645669291337
 20
13.84153543307086
 30
0.0
 11
8.21062992125984
 21
13.94192913385826
 31
0.0
  0
LINE
  5
203F
330
1E
100
AcDbEntity
  8
7
100
AcDbLine
 10
8.586614173228344
 20
13.94192913385826
 30
0.0
 11
8.587598425196848
 21
13.84153543307086
 31
0.0
  0
LINE
  5
2050
330
1E
100
AcDbEntity
  8
7
100
AcDbLine
 10
8.591535433070866
 20
13.82283464566929
 30
0.0
 11
8.591535433070866
 21
13.82185039370078
 31
0.0
  0
LINE
  5
206E
330
1E
100
AcDbEntity
  8
7
100
AcDbLine
 10
8.208661417322833
 20
13.82185039370078
 30
0.0
 11
8.208661417322833
 21
13.40649606299212
 31
0.0
  0
LINE
  5
206F
330
1E
100
AcDbEntity
  8
7
100
AcDbLine
 10
8.208661417322833
 20
14.0501968503937
 30
0.0
 11
8.208661417322833
 21
13.96161417322834
 31
0.0
  0
LINE
  5
2070
330
1E
100
AcDbEntity
  8
7
100
AcDbLine
 10
8.588582677165355
 20
13.96161417322834
 30
0.0
 11
8.588582677165355
 21
14.0501968503937
 31
0.0
  0
LINE
  5
2071
330
1E
100
AcDbEntity
  8
7
100
AcDbLine
 10
8.588582677165355
 20
13.40649606299212
 30
0.0
 11
8.588582677165355
 21
13.82185039370078
 31
0.0
  0
LINE
  5
2072
330
1E
100
AcDbEntity
  8
7
100
AcDbLine
 10
7.843503937007873
 20
12.88188976377952
 30
0.0
 11
8.318897637795274
 21
12.88188976377952
 31
0.0
  0
LINE
  5
2073
330
1E
100
AcDbEntity
  8
7
100
AcDbLine
 10
8.478346456692911
 20
12.88188976377952
 30
0.0
 11
8.953740157480314
 21
12.88188976377952
 31
0.0
  0
LINE
  5
2074
330
1E
100
AcDbEntity
  8
7
100
AcDbLine
 10
7.841535433070865
 20
12.9753937007874
 30
0.0
 11
8.320866141732281
 21
12.9753937007874
 31
0.0
  0
LINE
  5
2075
330
1E
100
AcDbEntity
  8
7
100
AcDbLine
 10
8.476377952755903
 20
12.9753937007874
 30
0.0
 11
8.955708661417322
 21
12.9753937007874
 31
0.0
  0
LINE
  5
2076
330
1E
100
AcDbEntity
  8
7
100
AcDbLine
 10
7.798228346456691
 20
13.40649606299212
 30
0.0
 11
7.782480314960628
 21
12.9753937007874
 31
0.0
  0
LINE
  5
2077
330
1E
100
AcDbEntity
  8
7
100
AcDbLine
 10
9.013779527559055
 20
12.9753937007874
 30
0.0
 11
8.999015748031496
 21
13.40649606299212
 31
0.0
  0
LINE
  5
2078
330
1E
100
AcDbEntity
  8
7
100
AcDbLine
 10
11.26574803149606
 20
11.42421259842519
 30
0.0
 11
11.27165354330708
 21
11.42421259842519
 31
0.0
  0
LINE
  5
207E
330
1E
100
AcDbEntity
  8
7
100
AcDbLine
 10
11.27165354330708
 20
11.51574803149606
 30
0.0
 11
11.27165354330708
 21
11.51082677165354
 31
0.0
  0
LINE
  5
207F
330
1E
100
AcDbEntity
  8
7
100
AcDbLine
 10
11.27165354330708
 20
11.44586614173228
 30
0.0
 11
11.27165354330708
 21
11.51082677165354
 31
0.0
  0
LINE
  5
2085
330
1E
100
AcDbEntity
  8
7
100
AcDbLine
 10
11.27165354330708
 20
11.51082677165354
 30
0.0
 11
10.84055118110236
 21
11.51082677165354
 31
0.0
  0
LINE
  5
2086
330
1E
100
AcDbEntity
  8
7
100
AcDbLine
 10
10.84055118110236
 20
10.79625984251968
 30
0.0
 11
10.84055118110236
 21
11.44685039370078
 31
0.0
  0
LINE
  5
2087
330
1E
100
AcDbEntity
  8
7
100
AcDbLine
 10
12.08956692913385
 20
10.79625984251968
 30
0.0
 11
10.84055118110236
 21
10.79625984251968
 31
0.0
  0
LINE
  5
2088
330
1E
100
AcDbEntity
  8
7
100
AcDbLine
 10
12.08956692913385
 20
10.79625984251968
 30
0.0
 11
12.08956692913385
 21
10.87204724409448
 31
0.0
  0
LINE
  5
2089
330
1E
100
AcDbEntity
  8
7
100
AcDbLine
 10
11.36909448818897
 20
10.88385826771653
 30
0.0
 11
12.08956692913385
 21
10.87204724409448
 31
0.0
  0
LINE
  5
208F
330
1E
100
AcDbEntity
  8
7
100
AcDbLine
 10
11.26377952755905
 20
11.43503937007874
 30
0.0
 11
11.36023622047244
 21
10.89271653543307
 31
0.0
  0
LINE
  5
2095
330
1E
100
AcDbEntity
  8
7
100
AcDbLine
 10
10.74704724409448
 20
11.50688976377952
 30
0.0
 11
10.74212598425196
 21
11.501968503937
 31
0.0
  0
LINE
  5
2096
330
1E
100
AcDbEntity
  8
7
100
AcDbLine
 10
10.74212598425196
 20
11.44488188976377
 30
0.0
 11
10.74212598425196
 21
11.501968503937
 31
0.0
  0
LINE
  5
2097
330
1E
100
AcDbEntity
  8
7
100
AcDbLine
 10
10.84055118110236
 20
11.51574803149606
 30
0.0
 11
10.74704724409448
 21
11.50688976377952
 31
0.0
  0
LINE
  5
2098
330
1E
100
AcDbEntity
  8
7
100
AcDbLine
 10
10.74212598425196
 20
10.79625984251968
 30
0.0
 11
10.74212598425196
 21
11.44488188976377
 31
0.0
  0
LINE
  5
2099
330
1E
100
AcDbEntity
  8
7
100
AcDbLine
 10
12.08956692913385
 20
10.87204724409448
 30
0.0
 11
12.11417322834645
 21
10.87106299212598
 31
0.0
  0
LINE
  5
20B0
330
1E
100
AcDbEntity
  8
7
100
AcDbLine
 10
11.68996062992125
 20
10.88484251968504
 30
0.0
 11
11.68700787401574
 21
10.87893700787401
 31
0.0
  0
LINE
  5
20B1
330
1E
100
AcDbEntity
  8
7
100
AcDbLine
 10
12.08956692913385
 20
10.79625984251968
 30
0.0
 11
12.11417322834645
 21
10.82086614173228
 31
0.0
  0
LINE
  5
20B2
330
1E
100
AcDbEntity
  8
7
100
AcDbLine
 10
12.11417322834645
 20
10.87106299212598
 30
0.0
 11
12.11417322834645
 21
10.82086614173228
 31
0.0
  0
LINE
  5
20B8
330
1E
100
AcDbEntity
  8
7
100
AcDbLine
 10
10.74212598425196
 20
11.44488188976377
 30
0.0
 11
10.74704724409448
 21
11.44488188976377
 31
0.0
  0
LINE
  5
20B9
330
1E
100
AcDbEntity
  8
7
100
AcDbLine
 10
11.34940944881889
 20
10.9498031496063
 30
0.0
 11
11.83464566929133
 21
10.94094488188976
 31
0.0
  0
LINE
  5
20BA
330
1E
100
AcDbEntity
  8
7
100
AcDbLine
 10
11.80708661417322
 20
10.89370078740157
 30
0.0
 11
11.70669291338582
 21
10.89370078740157
 31
0.0
  0
LINE
  5
20D1
330
1E
100
AcDbEntity
  8
7
100
AcDbLine
 10
11.8267716535433
 20
10.88877952755905
 30
0.0
 11
11.91535433070866
 21
10.88779527559055
 31
0.0
  0
LINE
  5
20D2
330
1E
100
AcDbEntity
  8
7
100
AcDbLine
 10
11.35925196850393
 20
10.89763779527558
 30
0.0
 11
11.68700787401574
 21
10.89173228346456
 31
0.0
  0
LINE
  5
20D3
330
1E
100
AcDbEntity
  8
7
100
AcDbLine
 10
10.84055118110236
 20
11.51574803149606
 30
0.0
 11
11.27165354330708
 21
11.51574803149606
 31
0.0
  0
LINE
  5
2322
330
1E
100
AcDbEntity
  8
7
100
AcDbLine
 10
11.9015748031496
 20
10.90944881889763
 30
0.0
 11
11.91535433070866
 21
10.88779527559055
 31
0.0
  0
LINE
  5
2323
330
1E
100
AcDbEntity
  8
7
100
AcDbLine
 10
11.91535433070866
 20
10.88779527559055
 30
0.0
 11
11.91535433070866
 21
10.88681102362204
 31
0.0
  0
LINE
  5
2324
330
1E
100
AcDbEntity
  8
7
100
AcDbLine
 10
11.91535433070866
 20
10.88681102362204
 30
0.0
 11
11.92322834645669
 21
10.87795275590551
 31
0.0
  0
LINE
  5
2325
330
1E
100
AcDbEntity
  8
7
100
AcDbLine
 10
11.92322834645669
 20
10.87795275590551
 30
0.0
 11
11.93405511811023
 21
10.87401574803149
 31
0.0
  0
LINE
  5
2326
330
1E
100
AcDbEntity
  8
7
100
AcDbLine
 10
11.83464566929133
 20
10.94094488188976
 30
0.0
 11
11.83956692913385
 21
10.94094488188976
 31
0.0
  0
LINE
  5
2327
330
1E
100
AcDbEntity
  8
7
100
AcDbLine
 10
11.83956692913385
 20
10.94094488188976
 30
0.0
 11
11.85826771653543
 21
10.93700787401574
 31
0.0
  0
LINE
  5
2328
330
1E
100
AcDbEntity
  8
7
100
AcDbLine
 10
11.85826771653543
 20
10.93700787401574
 30
0.0
 11
11.876968503937
 21
10.93011811023622
 31
0.0
  0
LINE
  5
2329
330
1E
100
AcDbEntity
  8
7
100
AcDbLine
 10
11.876968503937
 20
10.93011811023622
 30
0.0
 11
11.9015748031496
 21
10.90944881889763
 31
0.0
  0
LINE
  5
232A
330
1E
100
AcDbEntity
  8
7
100
AcDbLine
 10
11.8267716535433
 20
10.8759842519685
 30
0.0
 11
11.82480314960629
 21
10.88287401574802
 31
0.0
  0
LINE
  5
232B
330
1E
100
AcDbEntity
  8
7
100
AcDbLine
 10
11.82480314960629
 20
10.88287401574802
 30
0.0
 11
11.82086614173228
 21
10.88779527559055
 31
0.0
  0
LINE
  5
232C
330
1E
100
AcDbEntity
  8
7
100
AcDbLine
 10
11.82086614173228
 20
10.88779527559055
 30
0.0
 11
11.81496062992126
 21
10.89173228346456
 31
0.0
  0
LINE
  5
232D
330
1E
100
AcDbEntity
  8
7
100
AcDbLine
 10
11.81496062992126
 20
10.89173228346456
 30
0.0
 11
11.80905511811023
 21
10.89370078740157
 31
0.0
  0
LINE
  5
232E
330
1E
100
AcDbEntity
  8
7
100
AcDbLine
 10
11.80905511811023
 20
10.89370078740157
 30
0.0
 11
11.80708661417322
 21
10.89370078740157
 31
0.0
  0
LINE
  5
232F
330
1E
100
AcDbEntity
  8
7
100
AcDbLine
 10
10.84055118110236
 20
11.44685039370078
 30
0.0
 11
10.74704724409448
 21
11.44488188976377
 31
0.0
  0
LINE
  5
2330
330
1E
100
AcDbEntity
  8
7
100
AcDbLine
 10
10.74704724409448
 20
11.44488188976377
 30
0.0
 11
10.74704724409448
 21
10.79625984251968
 31
0.0
  0
LINE
  5
2331
330
1E
100
AcDbEntity
  8
7
100
AcDbLine
 10
11.70669291338582
 20
10.89370078740157
 30
0.0
 11
11.7007874015748
 21
10.89271653543307
 31
0.0
  0
LINE
  5
2332
330
1E
100
AcDbEntity
  8
7
100
AcDbLine
 10
11.7007874015748
 20
10.89271653543307
 30
0.0
 11
11.69488188976377
 21
10.88976377952755
 31
0.0
  0
LINE
  5
2333
330
1E
100
AcDbEntity
  8
7
100
AcDbLine
 10
11.69488188976377
 20
10.88976377952755
 30
0.0
 11
11.68996062992125
 21
10.88484251968504
 31
0.0
  0
LINE
  5
2334
330
1E
100
AcDbEntity
  8
7
100
AcDbLine
 10
11.8267716535433
 20
10.8759842519685
 30
0.0
 11
11.8267716535433
 21
10.87992125984251
 31
0.0
  0
LINE
  5
2335
330
1E
100
AcDbEntity
  8
7
100
AcDbLine
 10
11.8267716535433
 20
10.87992125984251
 30
0.0
 11
11.8267716535433
 21
10.88877952755905
 31
0.0
  0
LINE
  5
2336
330
1E
100
AcDbEntity
  8
7
100
AcDbLine
 10
11.68700787401574
 20
10.89173228346456
 30
0.0
 11
11.68700787401574
 21
10.88188976377952
 31
0.0
  0
LINE
  5
2337
330
1E
100
AcDbEntity
  8
7
100
AcDbLine
 10
11.68700787401574
 20
10.88188976377952
 30
0.0
 11
11.68700787401574
 21
10.87893700787401
 31
0.0
  0
LINE
  5
2338
330
1E
100
AcDbEntity
  8
7
100
AcDbLine
 10
10.84055118110236
 20
10.79625984251968
 30
0.0
 11
10.74704724409448
 21
10.79625984251968
 31
0.0
  0
LINE
  5
2339
330
1E
100
AcDbEntity
  8
7
100
AcDbLine
 10
10.74704724409448
 20
10.79625984251968
 30
0.0
 11
10.74409448818897
 21
10.79625984251968
 31
0.0
  0
LINE
  5
233A
330
1E
100
AcDbEntity
  8
7
100
AcDbLine
 10
10.74409448818897
 20
10.79625984251968
 30
0.0
 11
10.74212598425196
 21
10.79625984251968
 31
0.0
  0
LINE
  5
233B
330
1E
100
AcDbEntity
  8
7
100
AcDbLine
 10
11.26377952755905
 20
11.43503937007874
 30
0.0
 11
11.26574803149606
 21
11.44192913385826
 31
0.0
  0
LINE
  5
233C
330
1E
100
AcDbEntity
  8
7
100
AcDbLine
 10
11.26574803149606
 20
11.44192913385826
 30
0.0
 11
11.27165354330708
 21
11.44586614173228
 31
0.0
  0
LINE
  5
233D
330
1E
100
AcDbEntity
  8
7
100
AcDbLine
 10
11.36909448818897
 20
10.88385826771653
 30
0.0
 11
11.36318897637795
 21
10.88681102362204
 31
0.0
  0
LINE
  5
233E
330
1E
100
AcDbEntity
  8
7
100
AcDbLine
 10
11.36318897637795
 20
10.88681102362204
 30
0.0
 11
11.36023622047244
 21
10.89271653543307
 31
0.0
  0
LINE
  5
233F
330
1E
100
AcDbEntity
  8
7
100
AcDbLine
 10
11.27165354330708
 20
11.42421259842519
 30
0.0
 11
11.27165354330708
 21
11.43011811023621
 31
0.0
  0
LINE
  5
2340
330
1E
100
AcDbEntity
  8
7
100
AcDbLine
 10
11.27165354330708
 20
11.43011811023621
 30
0.0
 11
11.27165354330708
 21
11.44586614173228
 31
0.0
  0
LINE
  5
2341
330
1E
100
AcDbEntity
  8
7
100
AcDbLine
 10
10.84055118110236
 20
11.44685039370078
 30
0.0
 11
10.84055118110236
 21
11.51082677165354
 31
0.0
  0
LINE
  5
2342
330
1E
100
AcDbEntity
  8
7
100
AcDbLine
 10
10.84055118110236
 20
11.51082677165354
 30
0.0
 11
10.84055118110236
 21
11.51574803149606
 31
0.0
  0
LINE
  5
2343
330
1E
100
AcDbEntity
  8
7
100
AcDbLine
 10
8.588582677165355
 20
14.0511811023622
 30
0.0
 11
8.596456692913385
 21
14.05807086614173
 31
0.0
  0
LINE
  5
2344
330
1E
100
AcDbEntity
  8
7
100
AcDbLine
 10
8.596456692913385
 20
14.05807086614173
 30
0.0
 11
8.607283464566929
 21
14.06889763779527
 31
0.0
  0
LINE
  5
2345
330
1E
100
AcDbEntity
  8
7
100
AcDbLine
 10
8.189960629921259
 20
14.06889763779527
 30
0.0
 11
8.200787401574803
 21
14.05807086614173
 31
0.0
  0
LINE
  5
2346
330
1E
100
AcDbEntity
  8
7
100
AcDbLine
 10
8.200787401574803
 20
14.05807086614173
 30
0.0
 11
8.207677165354329
 21
14.0511811023622
 31
0.0
  0
LINE
  5
2347
330
1E
100
AcDbEntity
  8
7
100
AcDbLine
 10
8.513779527559055
 20
13.96948818897637
 30
0.0
 11
8.51771653543307
 21
13.97440944881889
 31
0.0
  0
LINE
  5
2348
330
1E
100
AcDbEntity
  8
7
100
AcDbLine
 10
8.51771653543307
 20
13.97440944881889
 30
0.0
 11
8.536417322834644
 21
13.99311023622047
 31
0.0
  0
LINE
  5
2349
330
1E
100
AcDbEntity
  8
7
100
AcDbLine
 10
8.536417322834644
 20
13.99311023622047
 30
0.0
 11
8.553149606299211
 21
14.01181102362204
 31
0.0
  0
LINE
  5
234A
330
1E
100
AcDbEntity
  8
7
100
AcDbLine
 10
8.553149606299211
 20
14.01181102362204
 30
0.0
 11
8.575787401574803
 21
14.03641732283464
 31
0.0
  0
LINE
  5
234B
330
1E
100
AcDbEntity
  8
7
100
AcDbLine
 10
8.575787401574803
 20
14.03641732283464
 30
0.0
 11
8.588582677165355
 21
14.0501968503937
 31
0.0
  0
LINE
  5
234C
330
1E
100
AcDbEntity
  8
7
100
AcDbLine
 10
8.588582677165355
 20
14.0501968503937
 30
0.0
 11
8.588582677165355
 21
14.0511811023622
 31
0.0
  0
LINE
  5
234D
330
1E
100
AcDbEntity
  8
7
100
AcDbLine
 10
8.588582677165355
 20
14.0511811023622
 30
0.0
 11
8.207677165354329
 21
14.0511811023622
 31
0.0
  0
LINE
  5
234E
330
1E
100
AcDbEntity
  8
7
100
AcDbLine
 10
8.207677165354329
 20
14.0511811023622
 30
0.0
 11
8.208661417322833
 21
14.0501968503937
 31
0.0
  0
LINE
  5
234F
330
1E
100
AcDbEntity
  8
7
100
AcDbLine
 10
8.208661417322833
 20
14.0501968503937
 30
0.0
 11
8.220472440944881
 21
14.03641732283464
 31
0.0
  0
LINE
  5
2350
330
1E
100
AcDbEntity
  8
7
100
AcDbLine
 10
8.220472440944881
 20
14.03641732283464
 30
0.0
 11
8.244094488188974
 21
14.01181102362204
 31
0.0
  0
LINE
  5
2351
330
1E
100
AcDbEntity
  8
7
100
AcDbLine
 10
8.244094488188974
 20
14.01181102362204
 30
0.0
 11
8.260826771653544
 21
13.99311023622047
 31
0.0
  0
LINE
  5
2352
330
1E
100
AcDbEntity
  8
7
100
AcDbLine
 10
8.260826771653544
 20
13.99311023622047
 30
0.0
 11
8.278543307086614
 21
13.97440944881889
 31
0.0
  0
LINE
  5
2353
330
1E
100
AcDbEntity
  8
7
100
AcDbLine
 10
8.278543307086614
 20
13.97440944881889
 30
0.0
 11
8.283464566929133
 21
13.96948818897637
 31
0.0
  0
LINE
  5
2354
330
1E
100
AcDbEntity
  8
7
100
AcDbLine
 10
8.591535433070866
 20
13.96161417322834
 30
0.0
 11
8.590551181102362
 21
13.95964566929133
 31
0.0
  0
LINE
  5
2355
330
1E
100
AcDbEntity
  8
7
100
AcDbLine
 10
8.590551181102362
 20
13.95964566929133
 30
0.0
 11
8.588582677165355
 21
13.95570866141732
 31
0.0
  0
LINE
  5
2356
330
1E
100
AcDbEntity
  8
7
100
AcDbLine
 10
8.588582677165355
 20
13.95570866141732
 30
0.0
 11
8.587598425196848
 21
13.9498031496063
 31
0.0
  0
LINE
  5
2357
330
1E
100
AcDbEntity
  8
7
100
AcDbLine
 10
8.587598425196848
 20
13.9498031496063
 30
0.0
 11
8.586614173228344
 21
13.94389763779527
 31
0.0
  0
LINE
  5
2358
330
1E
100
AcDbEntity
  8
7
100
AcDbLine
 10
8.586614173228344
 20
13.94389763779527
 30
0.0
 11
8.586614173228344
 21
13.94192913385826
 31
0.0
  0
LINE
  5
2359
330
1E
100
AcDbEntity
  8
7
100
AcDbLine
 10
8.21062992125984
 20
13.94192913385826
 30
0.0
 11
8.209645669291337
 21
13.94783464566929
 31
0.0
  0
LINE
  5
235A
330
1E
100
AcDbEntity
  8
7
100
AcDbLine
 10
8.209645669291337
 20
13.94783464566929
 30
0.0
 11
8.208661417322833
 21
13.95374015748031
 31
0.0
  0
LINE
  5
235B
330
1E
100
AcDbEntity
  8
7
100
AcDbLine
 10
8.208661417322833
 20
13.95374015748031
 30
0.0
 11
8.207677165354329
 21
13.95866141732283
 31
0.0
  0
LINE
  5
235C
330
1E
100
AcDbEntity
  8
7
100
AcDbLine
 10
8.207677165354329
 20
13.95866141732283
 30
0.0
 11
8.205708661417322
 21
13.96161417322834
 31
0.0
  0
LINE
  5
235D
330
1E
100
AcDbEntity
  8
7
100
AcDbLine
 10
8.205708661417322
 20
13.96161417322834
 30
0.0
 11
8.204724409448818
 21
13.96161417322834
 31
0.0
  0
LINE
  5
235E
330
1E
100
AcDbEntity
  8
7
100
AcDbLine
 10
8.513779527559055
 20
13.96948818897637
 30
0.0
 11
8.283464566929133
 21
13.96948818897637
 31
0.0
  0
LINE
  5
235F
330
1E
100
AcDbEntity
  8
7
100
AcDbLine
 10
8.283464566929133
 20
13.96948818897637
 30
0.0
 11
8.283464566929133
 21
13.40649606299212
 31
0.0
  0
LINE
  5
2360
330
1E
100
AcDbEntity
  8
7
100
AcDbLine
 10
8.957677165354329
 20
13.49507874015748
 30
0.0
 11
8.957677165354329
 21
13.49803149606299
 31
0.0
  0
LINE
  5
2361
330
1E
100
AcDbEntity
  8
7
100
AcDbLine
 10
8.957677165354329
 20
13.49803149606299
 30
0.0
 11
8.957677165354329
 21
13.50492125984251
 31
0.0
  0
LINE
  5
2362
330
1E
100
AcDbEntity
  8
7
100
AcDbLine
 10
7.838582677165354
 20
13.50492125984251
 30
0.0
 11
7.839566929133858
 21
13.49803149606299
 31
0.0
  0
LINE
  5
2363
330
1E
100
AcDbEntity
  8
7
100
AcDbLine
 10
7.839566929133858
 20
13.49803149606299
 30
0.0
 11
7.839566929133858
 21
13.49507874015748
 31
0.0
  0
LINE
  5
2364
330
1E
100
AcDbEntity
  8
7
100
AcDbLine
 10
7.796259842519684
 20
13.49507874015748
 30
0.0
 11
7.796259842519684
 21
13.49803149606299
 31
0.0
  0
LINE
  5
2365
330
1E
100
AcDbEntity
  8
7
100
AcDbLine
 10
7.796259842519684
 20
13.49803149606299
 30
0.0
 11
7.796259842519684
 21
13.50492125984251
 31
0.0
  0
LINE
  5
2366
330
1E
100
AcDbEntity
  8
7
100
AcDbLine
 10
7.840551181102362
 20
13.40649606299212
 30
0.0
 11
7.839566929133858
 21
13.49507874015748
 31
0.0
  0
LINE
  5
2367
330
1E
100
AcDbEntity
  8
7
100
AcDbLine
 10
7.839566929133858
 20
13.49507874015748
 30
0.0
 11
7.796259842519684
 21
13.49507874015748
 31
0.0
  0
LINE
  5
2368
330
1E
100
AcDbEntity
  8
7
100
AcDbLine
 10
7.796259842519684
 20
13.49507874015748
 30
0.0
 11
7.792322834645669
 21
13.40649606299212
 31
0.0
  0
LINE
  5
2369
330
1E
100
AcDbEntity
  8
7
100
AcDbLine
 10
9.000984251968503
 20
13.49507874015748
 30
0.0
 11
8.957677165354329
 21
13.49507874015748
 31
0.0
  0
LINE
  5
236A
330
1E
100
AcDbEntity
  8
7
100
AcDbLine
 10
8.957677165354329
 20
13.49507874015748
 30
0.0
 11
8.955708661417322
 21
13.40649606299212
 31
0.0
  0
LINE
  5
236B
330
1E
100
AcDbEntity
  8
7
100
AcDbLine
 10
7.971456692913386
 20
14.24901574803149
 30
0.0
 11
7.9753937007874
 21
14.24901574803149
 31
0.0
  0
LINE
  5
236C
330
1E
100
AcDbEntity
  8
7
100
AcDbLine
 10
7.9753937007874
 20
14.24901574803149
 30
0.0
 11
7.986220472440943
 21
14.24901574803149
 31
0.0
  0
LINE
  5
236D
330
1E
100
AcDbEntity
  8
7
100
AcDbLine
 10
8.1751968503937
 20
14.20964566929133
 30
0.0
 11
8.176181102362203
 21
14.24901574803149
 31
0.0
  0
LINE
  5
236E
330
1E
100
AcDbEntity
  8
7
100
AcDbLine
 10
8.176181102362203
 20
14.24901574803149
 30
0.0
 11
7.986220472440943
 21
14.24901574803149
 31
0.0
  0
LINE
  5
236F
330
1E
100
AcDbEntity
  8
7
100
AcDbLine
 10
7.986220472440943
 20
14.24901574803149
 30
0.0
 11
7.986220472440943
 21
14.20964566929133
 31
0.0
  0
LINE
  5
2370
330
1E
100
AcDbEntity
  8
7
100
AcDbLine
 10
8.176181102362203
 20
14.24901574803149
 30
0.0
 11
8.187007874015748
 21
14.24901574803149
 31
0.0
  0
LINE
  5
2371
330
1E
100
AcDbEntity
  8
7
100
AcDbLine
 10
8.187007874015748
 20
14.24901574803149
 30
0.0
 11
8.190944881889762
 21
14.24901574803149
 31
0.0
  0
LINE
  5
2372
330
1E
100
AcDbEntity
  8
7
100
AcDbLine
 10
8.606299212598425
 20
14.24901574803149
 30
0.0
 11
8.61023622047244
 21
14.24901574803149
 31
0.0
  0
LINE
  5
2373
330
1E
100
AcDbEntity
  8
7
100
AcDbLine
 10
8.61023622047244
 20
14.24901574803149
 30
0.0
 11
8.621062992125985
 21
14.24901574803149
 31
0.0
  0
LINE
  5
2374
330
1E
100
AcDbEntity
  8
7
100
AcDbLine
 10
8.81003937007874
 20
14.20964566929133
 30
0.0
 11
8.811023622047244
 21
14.24901574803149
 31
0.0
  0
LINE
  5
2375
330
1E
100
AcDbEntity
  8
7
100
AcDbLine
 10
8.811023622047244
 20
14.24901574803149
 30
0.0
 11
8.621062992125985
 21
14.24901574803149
 31
0.0
  0
LINE
  5
2376
330
1E
100
AcDbEntity
  8
7
100
AcDbLine
 10
8.621062992125985
 20
14.24901574803149
 30
0.0
 11
8.622047244094488
 21
14.20964566929133
 31
0.0
  0
LINE
  5
2377
330
1E
100
AcDbEntity
  8
7
100
AcDbLine
 10
8.811023622047244
 20
14.24901574803149
 30
0.0
 11
8.821850393700785
 21
14.24901574803149
 31
0.0
  0
LINE
  5
2378
330
1E
100
AcDbEntity
  8
7
100
AcDbLine
 10
8.821850393700785
 20
14.24901574803149
 30
0.0
 11
8.825787401574803
 21
14.24901574803149
 31
0.0
  0
LINE
  5
2379
330
1E
100
AcDbEntity
  8
7
100
AcDbLine
 10
8.587598425196848
 20
13.84153543307086
 30
0.0
 11
8.587598425196848
 21
13.83562992125984
 31
0.0
  0
LINE
  5
237A
330
1E
100
AcDbEntity
  8
7
100
AcDbLine
 10
8.587598425196848
 20
13.83562992125984
 30
0.0
 11
8.588582677165355
 21
13.82972440944882
 31
0.0
  0
LINE
  5
237B
330
1E
100
AcDbEntity
  8
7
100
AcDbLine
 10
8.588582677165355
 20
13.82972440944882
 30
0.0
 11
8.590551181102362
 21
13.8257874015748
 31
0.0
  0
LINE
  5
237C
330
1E
100
AcDbEntity
  8
7
100
AcDbLine
 10
8.590551181102362
 20
13.8257874015748
 30
0.0
 11
8.591535433070866
 21
13.82283464566929
 31
0.0
  0
LINE
  5
237D
330
1E
100
AcDbEntity
  8
7
100
AcDbLine
 10
8.204724409448818
 20
13.82283464566929
 30
0.0
 11
8.206692913385825
 21
13.8248031496063
 31
0.0
  0
LINE
  5
237E
330
1E
100
AcDbEntity
  8
7
100
AcDbLine
 10
8.206692913385825
 20
13.8248031496063
 30
0.0
 11
8.207677165354329
 21
13.82972440944882
 31
0.0
  0
LINE
  5
237F
330
1E
100
AcDbEntity
  8
7
100
AcDbLine
 10
8.207677165354329
 20
13.82972440944882
 30
0.0
 11
8.209645669291337
 21
13.83562992125984
 31
0.0
  0
LINE
  5
2380
330
1E
100
AcDbEntity
  8
7
100
AcDbLine
 10
8.209645669291337
 20
13.83562992125984
 30
0.0
 11
8.209645669291337
 21
13.84153543307086
 31
0.0
  0
LINE
  5
2381
330
1E
100
AcDbEntity
  8
7
100
AcDbLine
 10
8.607283464566929
 20
13.96161417322834
 30
0.0
 11
8.595472440944881
 21
13.96161417322834
 31
0.0
  0
LINE
  5
2382
330
1E
100
AcDbEntity
  8
7
100
AcDbLine
 10
8.595472440944881
 20
13.96161417322834
 30
0.0
 11
8.588582677165355
 21
13.96161417322834
 31
0.0
  0
LINE
  5
2383
330
1E
100
AcDbEntity
  8
7
100
AcDbLine
 10
8.189960629921259
 20
13.82185039370078
 30
0.0
 11
8.201771653543307
 21
13.82185039370078
 31
0.0
  0
LINE
  5
2384
330
1E
100
AcDbEntity
  8
7
100
AcDbLine
 10
8.201771653543307
 20
13.82185039370078
 30
0.0
 11
8.208661417322833
 21
13.82185039370078
 31
0.0
  0
LINE
  5
2385
330
1E
100
AcDbEntity
  8
7
100
AcDbLine
 10
8.588582677165355
 20
13.82185039370078
 30
0.0
 11
8.595472440944881
 21
13.82185039370078
 31
0.0
  0
LINE
  5
2386
330
1E
100
AcDbEntity
  8
7
100
AcDbLine
 10
8.595472440944881
 20
13.82185039370078
 30
0.0
 11
8.607283464566929
 21
13.82185039370078
 31
0.0
  0
LINE
  5
2387
330
1E
100
AcDbEntity
  8
7
100
AcDbLine
 10
7.847440944881889
 20
14.24901574803149
 30
0.0
 11
7.820866141732282
 21
14.22440944881889
 31
0.0
  0
LINE
  5
2388
330
1E
100
AcDbEntity
  8
7
100
AcDbLine
 10
7.820866141732282
 20
14.22440944881889
 30
0.0
 11
7.796259842519684
 21
13.50492125984251
 31
0.0
  0
LINE
  5
2389
330
1E
100
AcDbEntity
  8
7
100
AcDbLine
 10
7.796259842519684
 20
13.50492125984251
 30
0.0
 11
7.838582677165354
 21
13.50492125984251
 31
0.0
  0
LINE
  5
238A
330
1E
100
AcDbEntity
  8
7
100
AcDbLine
 10
8.189960629921259
 20
14.20964566929133
 30
0.0
 11
7.971456692913386
 21
14.20964566929133
 31
0.0
  0
LINE
  5
238B
330
1E
100
AcDbEntity
  8
7
100
AcDbLine
 10
7.971456692913386
 20
14.20964566929133
 30
0.0
 11
7.971456692913386
 21
14.24901574803149
 31
0.0
  0
LINE
  5
238C
330
1E
100
AcDbEntity
  8
7
100
AcDbLine
 10
8.824803149606299
 20
14.20964566929133
 30
0.0
 11
8.606299212598425
 21
14.20964566929133
 31
0.0
  0
LINE
  5
238D
330
1E
100
AcDbEntity
  8
7
100
AcDbLine
 10
8.606299212598425
 20
14.20964566929133
 30
0.0
 11
8.606299212598425
 21
14.24901574803149
 31
0.0
  0
LINE
  5
238E
330
1E
100
AcDbEntity
  8
7
100
AcDbLine
 10
8.189960629921259
 20
14.06889763779527
 30
0.0
 11
8.607283464566929
 21
14.06889763779527
 31
0.0
  0
LINE
  5
238F
330
1E
100
AcDbEntity
  8
7
100
AcDbLine
 10
8.607283464566929
 20
14.06889763779527
 30
0.0
 11
8.607283464566929
 21
13.96161417322834
 31
0.0
  0
LINE
  5
2390
330
1E
100
AcDbEntity
  8
7
100
AcDbLine
 10
8.204724409448818
 20
13.82185039370078
 30
0.0
 11
8.204724409448818
 21
13.82283464566929
 31
0.0
  0
LINE
  5
2391
330
1E
100
AcDbEntity
  8
7
100
AcDbLine
 10
8.204724409448818
 20
13.82283464566929
 30
0.0
 11
8.204724409448818
 21
13.82185039370078
 31
0.0
  0
LINE
  5
2392
330
1E
100
AcDbEntity
  8
7
100
AcDbLine
 10
8.208661417322833
 20
13.96161417322834
 30
0.0
 11
8.200787401574803
 21
13.96161417322834
 31
0.0
  0
LINE
  5
2393
330
1E
100
AcDbEntity
  8
7
100
AcDbLine
 10
8.200787401574803
 20
13.96161417322834
 30
0.0
 11
8.189960629921259
 21
13.96161417322834
 31
0.0
  0
LINE
  5
2394
330
1E
100
AcDbEntity
  8
7
100
AcDbLine
 10
8.189960629921259
 20
13.96161417322834
 30
0.0
 11
8.133858267716533
 21
13.96161417322834
 31
0.0
  0
LINE
  5
2395
330
1E
100
AcDbEntity
  8
7
100
AcDbLine
 10
7.843503937007873
 20
12.876968503937
 30
0.0
 11
7.843503937007873
 21
12.88188976377952
 31
0.0
  0
LINE
  5
2396
330
1E
100
AcDbEntity
  8
7
100
AcDbLine
 10
7.843503937007873
 20
12.88188976377952
 30
0.0
 11
7.841535433070865
 21
12.9753937007874
 31
0.0
  0
LINE
  5
2397
330
1E
100
AcDbEntity
  8
7
100
AcDbLine
 10
8.478346456692911
 20
12.876968503937
 30
0.0
 11
8.478346456692911
 21
12.88188976377952
 31
0.0
  0
LINE
  5
2398
330
1E
100
AcDbEntity
  8
7
100
AcDbLine
 10
8.478346456692911
 20
12.88188976377952
 30
0.0
 11
8.476377952755903
 21
12.9753937007874
 31
0.0
  0
LINE
  5
2399
330
1E
100
AcDbEntity
  8
7
100
AcDbLine
 10
9.000984251968503
 20
13.50492125984251
 30
0.0
 11
9.000984251968503
 21
13.49803149606299
 31
0.0
  0
LINE
  5
239A
330
1E
100
AcDbEntity
  8
7
100
AcDbLine
 10
9.000984251968503
 20
13.49803149606299
 30
0.0
 11
9.000984251968503
 21
13.49507874015748
 31
0.0
  0
LINE
  5
239B
330
1E
100
AcDbEntity
  8
7
100
AcDbLine
 10
8.999015748031496
 20
13.40649606299212
 30
0.0
 11
9.003937007874014
 21
13.40649606299212
 31
0.0
  0
LINE
  5
239C
330
1E
100
AcDbEntity
  8
7
100
AcDbLine
 10
9.003937007874014
 20
13.40649606299212
 30
0.0
 11
9.019685039370077
 21
12.9753937007874
 31
0.0
  0
LINE
  5
239D
330
1E
100
AcDbEntity
  8
7
100
AcDbLine
 10
7.916338582677165
 20
11.13484251968504
 30
0.0
 11
7.935039370078739
 21
11.14370078740157
 31
0.0
  0
LINE
  5
239E
330
1E
100
AcDbEntity
  8
7
100
AcDbLine
 10
7.935039370078739
 20
11.14370078740157
 30
0.0
 11
7.948818897637795
 21
11.15846456692913
 31
0.0
  0
LINE
  5
239F
330
1E
100
AcDbEntity
  8
7
100
AcDbLine
 10
7.948818897637795
 20
11.15846456692913
 30
0.0
 11
7.955708661417323
 21
11.17814960629921
 31
0.0
  0
LINE
  5
23A0
330
1E
100
AcDbEntity
  8
7
100
AcDbLine
 10
7.955708661417323
 20
11.17814960629921
 30
0.0
 11
7.953740157480313
 21
11.19783464566929
 31
0.0
  0
LINE
  5
23A1
330
1E
100
AcDbEntity
  8
7
100
AcDbLine
 10
7.953740157480313
 20
11.19783464566929
 30
0.0
 11
7.942913385826771
 21
11.21555118110236
 31
0.0
  0
LINE
  5
23A2
330
1E
100
AcDbEntity
  8
7
100
AcDbLine
 10
7.942913385826771
 20
11.21555118110236
 30
0.0
 11
7.926181102362204
 21
11.22834645669291
 31
0.0
  0
LINE
  5
23A3
330
1E
100
AcDbEntity
  8
7
100
AcDbLine
 10
7.926181102362204
 20
11.22834645669291
 30
0.0
 11
7.906496062992125
 21
11.23228346456693
 31
0.0
  0
LINE
  5
23A4
330
1E
100
AcDbEntity
  8
7
100
AcDbLine
 10
7.906496062992125
 20
11.23228346456693
 30
0.0
 11
7.886811023622047
 21
11.22834645669291
 31
0.0
  0
LINE
  5
23A5
330
1E
100
AcDbEntity
  8
7
100
AcDbLine
 10
7.886811023622047
 20
11.22834645669291
 30
0.0
 11
7.87007874015748
 21
11.21555118110236
 31
0.0
  0
LINE
  5
23A6
330
1E
100
AcDbEntity
  8
7
100
AcDbLine
 10
7.87007874015748
 20
11.21555118110236
 30
0.0
 11
7.859251968503936
 21
11.19783464566929
 31
0.0
  0
LINE
  5
23A7
330
1E
100
AcDbEntity
  8
7
100
AcDbLine
 10
7.859251968503936
 20
11.19783464566929
 30
0.0
 11
7.857283464566928
 21
11.17814960629921
 31
0.0
  0
LINE
  5
23A8
330
1E
100
AcDbEntity
  8
7
100
AcDbLine
 10
7.857283464566928
 20
11.17814960629921
 30
0.0
 11
7.864173228346456
 21
11.15846456692913
 31
0.0
  0
LINE
  5
23A9
330
1E
100
AcDbEntity
  8
7
100
AcDbLine
 10
7.864173228346456
 20
11.15846456692913
 30
0.0
 11
7.877952755905512
 21
11.14370078740157
 31
0.0
  0
LINE
  5
23AA
330
1E
100
AcDbEntity
  8
7
100
AcDbLine
 10
7.877952755905512
 20
11.14370078740157
 30
0.0
 11
7.896653543307086
 21
11.13484251968504
 31
0.0
  0
LINE
  5
23AB
330
1E
100
AcDbEntity
  8
7
100
AcDbLine
 10
7.896653543307086
 20
11.13484251968504
 30
0.0
 11
7.916338582677165
 21
11.13484251968504
 31
0.0
  0
LINE
  5
23AC
330
1E
100
AcDbEntity
  8
7
100
AcDbLine
 10
7.858267716535432
 20
11.18799212598425
 30
0.0
 11
7.860236220472439
 21
11.16830708661417
 31
0.0
  0
LINE
  5
23AD
330
1E
100
AcDbEntity
  8
7
100
AcDbLine
 10
7.860236220472439
 20
11.16830708661417
 30
0.0
 11
7.871062992125984
 21
11.1505905511811
 31
0.0
  0
LINE
  5
23AE
330
1E
100
AcDbEntity
  8
7
100
AcDbLine
 10
7.871062992125984
 20
11.1505905511811
 30
0.0
 11
7.886811023622047
 21
11.13877952755905
 31
0.0
  0
LINE
  5
23AF
330
1E
100
AcDbEntity
  8
7
100
AcDbLine
 10
7.886811023622047
 20
11.13877952755905
 30
0.0
 11
7.906496062992125
 21
11.13484251968504
 31
0.0
  0
LINE
  5
23B0
330
1E
100
AcDbEntity
  8
7
100
AcDbLine
 10
7.906496062992125
 20
11.13484251968504
 30
0.0
 11
7.926181102362204
 21
11.13877952755905
 31
0.0
  0
LINE
  5
23B1
330
1E
100
AcDbEntity
  8
7
100
AcDbLine
 10
7.926181102362204
 20
11.13877952755905
 30
0.0
 11
7.941929133858267
 21
11.1505905511811
 31
0.0
  0
LINE
  5
23B2
330
1E
100
AcDbEntity
  8
7
100
AcDbLine
 10
7.941929133858267
 20
11.1505905511811
 30
0.0
 11
7.95275590551181
 21
11.16830708661417
 31
0.0
  0
LINE
  5
23B3
330
1E
100
AcDbEntity
  8
7
100
AcDbLine
 10
7.95275590551181
 20
11.16830708661417
 30
0.0
 11
7.954724409448817
 21
11.18799212598425
 31
0.0
  0
LINE
  5
23B4
330
1E
100
AcDbEntity
  8
7
100
AcDbLine
 10
7.954724409448817
 20
11.18799212598425
 30
0.0
 11
7.947834645669291
 21
11.20669291338582
 31
0.0
  0
LINE
  5
23B5
330
1E
100
AcDbEntity
  8
7
100
AcDbLine
 10
7.947834645669291
 20
11.20669291338582
 30
0.0
 11
7.935039370078739
 21
11.22244094488188
 31
0.0
  0
LINE
  5
23B6
330
1E
100
AcDbEntity
  8
7
100
AcDbLine
 10
7.935039370078739
 20
11.22244094488188
 30
0.0
 11
7.916338582677165
 21
11.23031496062992
 31
0.0
  0
LINE
  5
23B7
330
1E
100
AcDbEntity
  8
7
100
AcDbLine
 10
7.916338582677165
 20
11.23031496062992
 30
0.0
 11
7.896653543307086
 21
11.23031496062992
 31
0.0
  0
LINE
  5
23B8
330
1E
100
AcDbEntity
  8
7
100
AcDbLine
 10
7.896653543307086
 20
11.23031496062992
 30
0.0
 11
7.877952755905512
 21
11.22244094488188
 31
0.0
  0
LINE
  5
23B9
330
1E
100
AcDbEntity
  8
7
100
AcDbLine
 10
7.877952755905512
 20
11.22244094488188
 30
0.0
 11
7.86515748031496
 21
11.20767716535433
 31
0.0
  0
LINE
  5
23BA
330
1E
100
AcDbEntity
  8
7
100
AcDbLine
 10
7.86515748031496
 20
11.20767716535433
 30
0.0
 11
7.858267716535432
 21
11.18799212598425
 31
0.0
  0
LINE
  5
23BB
330
1E
100
AcDbEntity
  8
7
100
AcDbLine
 10
8.890748031496062
 20
11.23228346456693
 30
0.0
 11
8.871062992125985
 21
11.22834645669291
 31
0.0
  0
LINE
  5
23BC
330
1E
100
AcDbEntity
  8
7
100
AcDbLine
 10
8.871062992125985
 20
11.22834645669291
 30
0.0
 11
8.854330708661418
 21
11.21555118110236
 31
0.0
  0
LINE
  5
23BD
330
1E
100
AcDbEntity
  8
7
100
AcDbLine
 10
8.854330708661418
 20
11.21555118110236
 30
0.0
 11
8.843503937007874
 21
11.19783464566929
 31
0.0
  0
LINE
  5
23BE
330
1E
100
AcDbEntity
  8
7
100
AcDbLine
 10
8.843503937007874
 20
11.19783464566929
 30
0.0
 11
8.841535433070866
 21
11.17814960629921
 31
0.0
  0
LINE
  5
23BF
330
1E
100
AcDbEntity
  8
7
100
AcDbLine
 10
8.841535433070866
 20
11.17814960629921
 30
0.0
 11
8.848425196850392
 21
11.15846456692913
 31
0.0
  0
LINE
  5
23C0
330
1E
100
AcDbEntity
  8
7
100
AcDbLine
 10
8.848425196850392
 20
11.15846456692913
 30
0.0
 11
8.862204724409448
 21
11.14370078740157
 31
0.0
  0
LINE
  5
23C1
330
1E
100
AcDbEntity
  8
7
100
AcDbLine
 10
8.862204724409448
 20
11.14370078740157
 30
0.0
 11
8.880905511811022
 21
11.13484251968504
 31
0.0
  0
LINE
  5
23C2
330
1E
100
AcDbEntity
  8
7
100
AcDbLine
 10
8.880905511811022
 20
11.13484251968504
 30
0.0
 11
8.9005905511811
 21
11.13484251968504
 31
0.0
  0
LINE
  5
23C3
330
1E
100
AcDbEntity
  8
7
100
AcDbLine
 10
8.9005905511811
 20
11.13484251968504
 30
0.0
 11
8.919291338582677
 21
11.14370078740157
 31
0.0
  0
LINE
  5
23C4
330
1E
100
AcDbEntity
  8
7
100
AcDbLine
 10
8.919291338582677
 20
11.14370078740157
 30
0.0
 11
8.933070866141733
 21
11.15846456692913
 31
0.0
  0
LINE
  5
23C5
330
1E
100
AcDbEntity
  8
7
100
AcDbLine
 10
8.933070866141733
 20
11.15846456692913
 30
0.0
 11
8.939960629921259
 21
11.17814960629921
 31
0.0
  0
LINE
  5
23C6
330
1E
100
AcDbEntity
  8
7
100
AcDbLine
 10
8.939960629921259
 20
11.17814960629921
 30
0.0
 11
8.937992125984251
 21
11.19783464566929
 31
0.0
  0
LINE
  5
23C7
330
1E
100
AcDbEntity
  8
7
100
AcDbLine
 10
8.937992125984251
 20
11.19783464566929
 30
0.0
 11
8.927165354330707
 21
11.21555118110236
 31
0.0
  0
LINE
  5
23C8
330
1E
100
AcDbEntity
  8
7
100
AcDbLine
 10
8.927165354330707
 20
11.21555118110236
 30
0.0
 11
8.91043307086614
 21
11.22834645669291
 31
0.0
  0
LINE
  5
23C9
330
1E
100
AcDbEntity
  8
7
100
AcDbLine
 10
8.91043307086614
 20
11.22834645669291
 30
0.0
 11
8.890748031496062
 21
11.23228346456693
 31
0.0
  0
LINE
  5
23CA
330
1E
100
AcDbEntity
  8
7
100
AcDbLine
 10
8.937007874015748
 20
11.16830708661417
 30
0.0
 11
8.938976377952755
 21
11.18799212598425
 31
0.0
  0
LINE
  5
23CB
330
1E
100
AcDbEntity
  8
7
100
AcDbLine
 10
8.938976377952755
 20
11.18799212598425
 30
0.0
 11
8.932086614173229
 21
11.20669291338582
 31
0.0
  0
LINE
  5
23CC
330
1E
100
AcDbEntity
  8
7
100
AcDbLine
 10
8.932086614173229
 20
11.20669291338582
 30
0.0
 11
8.919291338582677
 21
11.22244094488188
 31
0.0
  0
LINE
  5
23CD
330
1E
100
AcDbEntity
  8
7
100
AcDbLine
 10
8.919291338582677
 20
11.22244094488188
 30
0.0
 11
8.9005905511811
 21
11.23031496062992
 31
0.0
  0
LINE
  5
23CE
330
1E
100
AcDbEntity
  8
7
100
AcDbLine
 10
8.9005905511811
 20
11.23031496062992
 30
0.0
 11
8.880905511811022
 21
11.23031496062992
 31
0.0
  0
LINE
  5
23CF
330
1E
100
AcDbEntity
  8
7
100
AcDbLine
 10
8.880905511811022
 20
11.23031496062992
 30
0.0
 11
8.862204724409448
 21
11.22244094488188
 31
0.0
  0
LINE
  5
23D0
330
1E
100
AcDbEntity
  8
7
100
AcDbLine
 10
8.862204724409448
 20
11.22244094488188
 30
0.0
 11
8.849409448818896
 21
11.20767716535433
 31
0.0
  0
LINE
  5
23D1
330
1E
100
AcDbEntity
  8
7
100
AcDbLine
 10
8.849409448818896
 20
11.20767716535433
 30
0.0
 11
8.84251968503937
 21
11.18799212598425
 31
0.0
  0
LINE
  5
23D2
330
1E
100
AcDbEntity
  8
7
100
AcDbLine
 10
8.84251968503937
 20
11.18799212598425
 30
0.0
 11
8.844488188976377
 21
11.16830708661417
 31
0.0
  0
LINE
  5
23D3
330
1E
100
AcDbEntity
  8
7
100
AcDbLine
 10
8.844488188976377
 20
11.16830708661417
 30
0.0
 11
8.855314960629922
 21
11.1505905511811
 31
0.0
  0
LINE
  5
23D4
330
1E
100
AcDbEntity
  8
7
100
AcDbLine
 10
8.855314960629922
 20
11.1505905511811
 30
0.0
 11
8.871062992125985
 21
11.13877952755905
 31
0.0
  0
LINE
  5
23D5
330
1E
100
AcDbEntity
  8
7
100
AcDbLine
 10
8.871062992125985
 20
11.13877952755905
 30
0.0
 11
8.890748031496062
 21
11.13484251968504
 31
0.0
  0
LINE
  5
23D6
330
1E
100
AcDbEntity
  8
7
100
AcDbLine
 10
8.890748031496062
 20
11.13484251968504
 30
0.0
 11
8.91043307086614
 21
11.13877952755905
 31
0.0
  0
LINE
  5
23D7
330
1E
100
AcDbEntity
  8
7
100
AcDbLine
 10
8.91043307086614
 20
11.13877952755905
 30
0.0
 11
8.926181102362203
 21
11.1505905511811
 31
0.0
  0
LINE
  5
23D8
330
1E
100
AcDbEntity
  8
7
100
AcDbLine
 10
8.926181102362203
 20
11.1505905511811
 30
0.0
 11
8.937007874015748
 21
11.16830708661417
 31
0.0
  0
LINE
  5
23D9
330
1E
100
AcDbEntity
  8
7
100
AcDbLine
 10
8.851377952755903
 20
11.16043307086614
 30
0.0
 11
8.864173228346455
 21
11.14665354330708
 31
0.0
  0
LINE
  5
23DA
330
1E
100
AcDbEntity
  8
7
100
AcDbLine
 10
8.864173228346455
 20
11.14665354330708
 30
0.0
 11
8.880905511811022
 21
11.13877952755905
 31
0.0
  0
LINE
  5
23DB
330
1E
100
AcDbEntity
  8
7
100
AcDbLine
 10
8.880905511811022
 20
11.13877952755905
 30
0.0
 11
8.9005905511811
 21
11.13877952755905
 31
0.0
  0
LINE
  5
23DC
330
1E
100
AcDbEntity
  8
7
100
AcDbLine
 10
8.9005905511811
 20
11.13877952755905
 30
0.0
 11
8.91732283464567
 21
11.14665354330708
 31
0.0
  0
LINE
  5
23DD
330
1E
100
AcDbEntity
  8
7
100
AcDbLine
 10
8.91732283464567
 20
11.14665354330708
 30
0.0
 11
8.930118110236218
 21
11.16043307086614
 31
0.0
  0
LINE
  5
23DE
330
1E
100
AcDbEntity
  8
7
100
AcDbLine
 10
8.930118110236218
 20
11.16043307086614
 30
0.0
 11
8.936023622047244
 21
11.17814960629921
 31
0.0
  0
LINE
  5
23DF
330
1E
100
AcDbEntity
  8
7
100
AcDbLine
 10
8.936023622047244
 20
11.17814960629921
 30
0.0
 11
8.934055118110237
 21
11.19685039370079
 31
0.0
  0
LINE
  5
23E0
330
1E
100
AcDbEntity
  8
7
100
AcDbLine
 10
8.934055118110237
 20
11.19685039370079
 30
0.0
 11
8.924212598425196
 21
11.21358267716535
 31
0.0
  0
LINE
  5
23E1
330
1E
100
AcDbEntity
  8
7
100
AcDbLine
 10
8.924212598425196
 20
11.21358267716535
 30
0.0
 11
8.909448818897637
 21
11.22440944881889
 31
0.0
  0
LINE
  5
23E2
330
1E
100
AcDbEntity
  8
7
100
AcDbLine
 10
8.909448818897637
 20
11.22440944881889
 30
0.0
 11
8.890748031496062
 21
11.22834645669291
 31
0.0
  0
LINE
  5
23E3
330
1E
100
AcDbEntity
  8
7
100
AcDbLine
 10
8.890748031496062
 20
11.22834645669291
 30
0.0
 11
8.872047244094488
 21
11.22440944881889
 31
0.0
  0
LINE
  5
23E4
330
1E
100
AcDbEntity
  8
7
100
AcDbLine
 10
8.872047244094488
 20
11.22440944881889
 30
0.0
 11
8.857283464566929
 21
11.21358267716535
 31
0.0
  0
LINE
  5
23E5
330
1E
100
AcDbEntity
  8
7
100
AcDbLine
 10
8.857283464566929
 20
11.21358267716535
 30
0.0
 11
8.847440944881888
 21
11.19685039370079
 31
0.0
  0
LINE
  5
23E6
330
1E
100
AcDbEntity
  8
7
100
AcDbLine
 10
8.847440944881888
 20
11.19685039370079
 30
0.0
 11
8.845472440944881
 21
11.17814960629921
 31
0.0
  0
LINE
  5
23E7
330
1E
100
AcDbEntity
  8
7
100
AcDbLine
 10
8.845472440944881
 20
11.17814960629921
 30
0.0
 11
8.851377952755903
 21
11.16043307086614
 31
0.0
  0
LINE
  5
23E8
330
1E
100
AcDbEntity
  8
7
100
AcDbLine
 10
8.890748031496062
 20
11.14173228346456
 30
0.0
 11
8.908464566929133
 21
11.14566929133858
 31
0.0
  0
LINE
  5
23E9
330
1E
100
AcDbEntity
  8
7
100
AcDbLine
 10
8.908464566929133
 20
11.14566929133858
 30
0.0
 11
8.923228346456692
 21
11.15748031496063
 31
0.0
  0
LINE
  5
23EA
330
1E
100
AcDbEntity
  8
7
100
AcDbLine
 10
8.923228346456692
 20
11.15748031496063
 30
0.0
 11
8.931102362204722
 21
11.17421259842519
 31
0.0
  0
LINE
  5
23EB
330
1E
100
AcDbEntity
  8
7
100
AcDbLine
 10
8.931102362204722
 20
11.17421259842519
 30
0.0
 11
8.931102362204722
 21
11.19192913385826
 31
0.0
  0
LINE
  5
23EC
330
1E
100
AcDbEntity
  8
7
100
AcDbLine
 10
8.931102362204722
 20
11.19192913385826
 30
0.0
 11
8.923228346456692
 21
11.20866141732283
 31
0.0
  0
LINE
  5
23ED
330
1E
100
AcDbEntity
  8
7
100
AcDbLine
 10
8.923228346456692
 20
11.20866141732283
 30
0.0
 11
8.908464566929133
 21
11.22047244094488
 31
0.0
  0
LINE
  5
23EE
330
1E
100
AcDbEntity
  8
7
100
AcDbLine
 10
8.908464566929133
 20
11.22047244094488
 30
0.0
 11
8.890748031496062
 21
11.22440944881889
 31
0.0
  0
LINE
  5
23EF
330
1E
100
AcDbEntity
  8
7
100
AcDbLine
 10
8.890748031496062
 20
11.22440944881889
 30
0.0
 11
8.873031496062992
 21
11.22047244094488
 31
0.0
  0
LINE
  5
23F0
330
1E
100
AcDbEntity
  8
7
100
AcDbLine
 10
8.873031496062992
 20
11.22047244094488
 30
0.0
 11
8.858267716535433
 21
11.20866141732283
 31
0.0
  0
LINE
  5
23F1
330
1E
100
AcDbEntity
  8
7
100
AcDbLine
 10
8.858267716535433
 20
11.20866141732283
 30
0.0
 11
8.8503937007874
 21
11.19192913385826
 31
0.0
  0
LINE
  5
23F2
330
1E
100
AcDbEntity
  8
7
100
AcDbLine
 10
8.8503937007874
 20
11.19192913385826
 30
0.0
 11
8.8503937007874
 21
11.17421259842519
 31
0.0
  0
LINE
  5
23F3
330
1E
100
AcDbEntity
  8
7
100
AcDbLine
 10
8.8503937007874
 20
11.17421259842519
 30
0.0
 11
8.858267716535433
 21
11.15748031496063
 31
0.0
  0
LINE
  5
23F4
330
1E
100
AcDbEntity
  8
7
100
AcDbLine
 10
8.858267716535433
 20
11.15748031496063
 30
0.0
 11
8.873031496062992
 21
11.14566929133858
 31
0.0
  0
LINE
  5
23F5
330
1E
100
AcDbEntity
  8
7
100
AcDbLine
 10
8.873031496062992
 20
11.14566929133858
 30
0.0
 11
8.890748031496062
 21
11.14173228346456
 31
0.0
  0
LINE
  5
23F6
330
1E
100
AcDbEntity
  8
7
100
AcDbLine
 10
8.84251968503937
 20
11.20275590551181
 30
0.0
 11
8.838582677165355
 21
11.18307086614173
 31
0.0
  0
LINE
  5
23F7
330
1E
100
AcDbEntity
  8
7
100
AcDbLine
 10
8.838582677165355
 20
11.18307086614173
 30
0.0
 11
8.84251968503937
 21
11.16338582677165
 31
0.0
  0
LINE
  5
23F8
330
1E
100
AcDbEntity
  8
7
100
AcDbLine
 10
8.84251968503937
 20
11.16338582677165
 30
0.0
 11
8.854330708661418
 21
11.14665354330708
 31
0.0
  0
LINE
  5
23F9
330
1E
100
AcDbEntity
  8
7
100
AcDbLine
 10
8.854330708661418
 20
11.14665354330708
 30
0.0
 11
8.871062992125985
 21
11.13484251968504
 31
0.0
  0
LINE
  5
23FA
330
1E
100
AcDbEntity
  8
7
100
AcDbLine
 10
8.871062992125985
 20
11.13484251968504
 30
0.0
 11
8.890748031496062
 21
11.13090551181102
 31
0.0
  0
LINE
  5
23FB
330
1E
100
AcDbEntity
  8
7
100
AcDbLine
 10
8.890748031496062
 20
11.13090551181102
 30
0.0
 11
8.91043307086614
 21
11.13484251968504
 31
0.0
  0
LINE
  5
23FC
330
1E
100
AcDbEntity
  8
7
100
AcDbLine
 10
8.91043307086614
 20
11.13484251968504
 30
0.0
 11
8.927165354330707
 21
11.14665354330708
 31
0.0
  0
LINE
  5
23FD
330
1E
100
AcDbEntity
  8
7
100
AcDbLine
 10
8.927165354330707
 20
11.14665354330708
 30
0.0
 11
8.938976377952755
 21
11.16338582677165
 31
0.0
  0
LINE
  5
23FE
330
1E
100
AcDbEntity
  8
7
100
AcDbLine
 10
8.938976377952755
 20
11.16338582677165
 30
0.0
 11
8.94291338582677
 21
11.18307086614173
 31
0.0
  0
LINE
  5
23FF
330
1E
100
AcDbEntity
  8
7
100
AcDbLine
 10
8.94291338582677
 20
11.18307086614173
 30
0.0
 11
8.938976377952755
 21
11.20275590551181
 31
0.0
  0
LINE
  5
2400
330
1E
100
AcDbEntity
  8
7
100
AcDbLine
 10
8.938976377952755
 20
11.20275590551181
 30
0.0
 11
8.927165354330707
 21
11.21948818897637
 31
0.0
  0
LINE
  5
2401
330
1E
100
AcDbEntity
  8
7
100
AcDbLine
 10
8.927165354330707
 20
11.21948818897637
 30
0.0
 11
8.91043307086614
 21
11.23129921259842
 31
0.0
  0
LINE
  5
2402
330
1E
100
AcDbEntity
  8
7
100
AcDbLine
 10
8.91043307086614
 20
11.23129921259842
 30
0.0
 11
8.890748031496062
 21
11.23523622047244
 31
0.0
  0
LINE
  5
2403
330
1E
100
AcDbEntity
  8
7
100
AcDbLine
 10
8.890748031496062
 20
11.23523622047244
 30
0.0
 11
8.871062992125985
 21
11.23129921259842
 31
0.0
  0
LINE
  5
2404
330
1E
100
AcDbEntity
  8
7
100
AcDbLine
 10
8.871062992125985
 20
11.23129921259842
 30
0.0
 11
8.854330708661418
 21
11.21948818897637
 31
0.0
  0
LINE
  5
2405
330
1E
100
AcDbEntity
  8
7
100
AcDbLine
 10
8.854330708661418
 20
11.21948818897637
 30
0.0
 11
8.84251968503937
 21
11.20275590551181
 31
0.0
  0
LINE
  5
2406
330
1E
100
AcDbEntity
  8
7
100
AcDbLine
 10
7.906496062992125
 20
11.22834645669291
 30
0.0
 11
7.88779527559055
 21
11.22440944881889
 31
0.0
  0
LINE
  5
2407
330
1E
100
AcDbEntity
  8
7
100
AcDbLine
 10
7.88779527559055
 20
11.22440944881889
 30
0.0
 11
7.873031496062991
 21
11.21358267716535
 31
0.0
  0
LINE
  5
2408
330
1E
100
AcDbEntity
  8
7
100
AcDbLine
 10
7.873031496062991
 20
11.21358267716535
 30
0.0
 11
7.863188976377952
 21
11.19685039370079
 31
0.0
  0
LINE
  5
2409
330
1E
100
AcDbEntity
  8
7
100
AcDbLine
 10
7.863188976377952
 20
11.19685039370079
 30
0.0
 11
7.861220472440943
 21
11.17814960629921
 31
0.0
  0
LINE
  5
240A
330
1E
100
AcDbEntity
  8
7
100
AcDbLine
 10
7.861220472440943
 20
11.17814960629921
 30
0.0
 11
7.867125984251967
 21
11.16043307086614
 31
0.0
  0
LINE
  5
240B
330
1E
100
AcDbEntity
  8
7
100
AcDbLine
 10
7.867125984251967
 20
11.16043307086614
 30
0.0
 11
7.879921259842519
 21
11.14665354330708
 31
0.0
  0
LINE
  5
240C
330
1E
100
AcDbEntity
  8
7
100
AcDbLine
 10
7.879921259842519
 20
11.14665354330708
 30
0.0
 11
7.896653543307086
 21
11.13877952755905
 31
0.0
  0
LINE
  5
240D
330
1E
100
AcDbEntity
  8
7
100
AcDbLine
 10
7.896653543307086
 20
11.13877952755905
 30
0.0
 11
7.916338582677165
 21
11.13877952755905
 31
0.0
  0
LINE
  5
240E
330
1E
100
AcDbEntity
  8
7
100
AcDbLine
 10
7.916338582677165
 20
11.13877952755905
 30
0.0
 11
7.933070866141732
 21
11.14665354330708
 31
0.0
  0
LINE
  5
240F
330
1E
100
AcDbEntity
  8
7
100
AcDbLine
 10
7.933070866141732
 20
11.14665354330708
 30
0.0
 11
7.945866141732282
 21
11.16043307086614
 31
0.0
  0
LINE
  5
2410
330
1E
100
AcDbEntity
  8
7
100
AcDbLine
 10
7.945866141732282
 20
11.16043307086614
 30
0.0
 11
7.951771653543306
 21
11.17814960629921
 31
0.0
  0
LINE
  5
2411
330
1E
100
AcDbEntity
  8
7
100
AcDbLine
 10
7.951771653543306
 20
11.17814960629921
 30
0.0
 11
7.949803149606299
 21
11.19685039370079
 31
0.0
  0
LINE
  5
2412
330
1E
100
AcDbEntity
  8
7
100
AcDbLine
 10
7.949803149606299
 20
11.19685039370079
 30
0.0
 11
7.93996062992126
 21
11.21358267716535
 31
0.0
  0
LINE
  5
2413
330
1E
100
AcDbEntity
  8
7
100
AcDbLine
 10
7.93996062992126
 20
11.21358267716535
 30
0.0
 11
7.9251968503937
 21
11.22440944881889
 31
0.0
  0
LINE
  5
2414
330
1E
100
AcDbEntity
  8
7
100
AcDbLine
 10
7.9251968503937
 20
11.22440944881889
 30
0.0
 11
7.906496062992125
 21
11.22834645669291
 31
0.0
  0
LINE
  5
2415
330
1E
100
AcDbEntity
  8
7
100
AcDbLine
 10
7.888779527559054
 20
11.22047244094488
 30
0.0
 11
7.874015748031495
 21
11.20866141732283
 31
0.0
  0
LINE
  5
2416
330
1E
100
AcDbEntity
  8
7
100
AcDbLine
 10
7.874015748031495
 20
11.20866141732283
 30
0.0
 11
7.866141732283463
 21
11.19192913385826
 31
0.0
  0
LINE
  5
2417
330
1E
100
AcDbEntity
  8
7
100
AcDbLine
 10
7.866141732283463
 20
11.19192913385826
 30
0.0
 11
7.866141732283463
 21
11.17421259842519
 31
0.0
  0
LINE
  5
2418
330
1E
100
AcDbEntity
  8
7
100
AcDbLine
 10
7.866141732283463
 20
11.17421259842519
 30
0.0
 11
7.874015748031495
 21
11.15748031496063
 31
0.0
  0
LINE
  5
2419
330
1E
100
AcDbEntity
  8
7
100
AcDbLine
 10
7.874015748031495
 20
11.15748031496063
 30
0.0
 11
7.888779527559054
 21
11.14566929133858
 31
0.0
  0
LINE
  5
241A
330
1E
100
AcDbEntity
  8
7
100
AcDbLine
 10
7.888779527559054
 20
11.14566929133858
 30
0.0
 11
7.906496062992125
 21
11.14173228346456
 31
0.0
  0
LINE
  5
241B
330
1E
100
AcDbEntity
  8
7
100
AcDbLine
 10
7.906496062992125
 20
11.14173228346456
 30
0.0
 11
7.924212598425197
 21
11.14566929133858
 31
0.0
  0
LINE
  5
241C
330
1E
100
AcDbEntity
  8
7
100
AcDbLine
 10
7.924212598425197
 20
11.14566929133858
 30
0.0
 11
7.938976377952754
 21
11.15748031496063
 31
0.0
  0
LINE
  5
241D
330
1E
100
AcDbEntity
  8
7
100
AcDbLine
 10
7.938976377952754
 20
11.15748031496063
 30
0.0
 11
7.946850393700786
 21
11.17421259842519
 31
0.0
  0
LINE
  5
241E
330
1E
100
AcDbEntity
  8
7
100
AcDbLine
 10
7.946850393700786
 20
11.17421259842519
 30
0.0
 11
7.946850393700786
 21
11.19192913385826
 31
0.0
  0
LINE
  5
241F
330
1E
100
AcDbEntity
  8
7
100
AcDbLine
 10
7.946850393700786
 20
11.19192913385826
 30
0.0
 11
7.938976377952754
 21
11.20866141732283
 31
0.0
  0
LINE
  5
2420
330
1E
100
AcDbEntity
  8
7
100
AcDbLine
 10
7.938976377952754
 20
11.20866141732283
 30
0.0
 11
7.924212598425197
 21
11.22047244094488
 31
0.0
  0
LINE
  5
2421
330
1E
100
AcDbEntity
  8
7
100
AcDbLine
 10
7.924212598425197
 20
11.22047244094488
 30
0.0
 11
7.906496062992125
 21
11.22440944881889
 31
0.0
  0
LINE
  5
2422
330
1E
100
AcDbEntity
  8
7
100
AcDbLine
 10
7.942913385826771
 20
11.21948818897637
 30
0.0
 11
7.926181102362204
 21
11.23129921259842
 31
0.0
  0
LINE
  5
2423
330
1E
100
AcDbEntity
  8
7
100
AcDbLine
 10
7.926181102362204
 20
11.23129921259842
 30
0.0
 11
7.906496062992125
 21
11.23523622047244
 31
0.0
  0
LINE
  5
2424
330
1E
100
AcDbEntity
  8
7
100
AcDbLine
 10
7.906496062992125
 20
11.23523622047244
 30
0.0
 11
7.886811023622047
 21
11.23129921259842
 31
0.0
  0
LINE
  5
2425
330
1E
100
AcDbEntity
  8
7
100
AcDbLine
 10
7.886811023622047
 20
11.23129921259842
 30
0.0
 11
7.87007874015748
 21
11.21948818897637
 31
0.0
  0
LINE
  5
2426
330
1E
100
AcDbEntity
  8
7
100
AcDbLine
 10
7.87007874015748
 20
11.21948818897637
 30
0.0
 11
7.858267716535432
 21
11.20275590551181
 31
0.0
  0
LINE
  5
2427
330
1E
100
AcDbEntity
  8
7
100
AcDbLine
 10
7.858267716535432
 20
11.20275590551181
 30
0.0
 11
7.854330708661417
 21
11.18307086614173
 31
0.0
  0
LINE
  5
2428
330
1E
100
AcDbEntity
  8
7
100
AcDbLine
 10
7.854330708661417
 20
11.18307086614173
 30
0.0
 11
7.858267716535432
 21
11.16338582677165
 31
0.0
  0
LINE
  5
2429
330
1E
100
AcDbEntity
  8
7
100
AcDbLine
 10
7.858267716535432
 20
11.16338582677165
 30
0.0
 11
7.87007874015748
 21
11.14665354330708
 31
0.0
  0
LINE
  5
242A
330
1E
100
AcDbEntity
  8
7
100
AcDbLine
 10
7.87007874015748
 20
11.14665354330708
 30
0.0
 11
7.886811023622047
 21
11.13484251968504
 31
0.0
  0
LINE
  5
242B
330
1E
100
AcDbEntity
  8
7
100
AcDbLine
 10
7.886811023622047
 20
11.13484251968504
 30
0.0
 11
7.906496062992125
 21
11.13090551181102
 31
0.0
  0
LINE
  5
242C
330
1E
100
AcDbEntity
  8
7
100
AcDbLine
 10
7.906496062992125
 20
11.13090551181102
 30
0.0
 11
7.926181102362204
 21
11.13484251968504
 31
0.0
  0
LINE
  5
242D
330
1E
100
AcDbEntity
  8
7
100
AcDbLine
 10
7.926181102362204
 20
11.13484251968504
 30
0.0
 11
7.942913385826771
 21
11.14665354330708
 31
0.0
  0
LINE
  5
242E
330
1E
100
AcDbEntity
  8
7
100
AcDbLine
 10
7.942913385826771
 20
11.14665354330708
 30
0.0
 11
7.954724409448817
 21
11.16338582677165
 31
0.0
  0
LINE
  5
242F
330
1E
100
AcDbEntity
  8
7
100
AcDbLine
 10
7.954724409448817
 20
11.16338582677165
 30
0.0
 11
7.958661417322834
 21
11.18307086614173
 31
0.0
  0
LINE
  5
2430
330
1E
100
AcDbEntity
  8
7
100
AcDbLine
 10
7.958661417322834
 20
11.18307086614173
 30
0.0
 11
7.954724409448817
 21
11.20275590551181
 31
0.0
  0
LINE
  5
2431
330
1E
100
AcDbEntity
  8
7
100
AcDbLine
 10
7.954724409448817
 20
11.20275590551181
 30
0.0
 11
7.942913385826771
 21
11.21948818897637
 31
0.0
  0
LINE
  5
2432
330
1E
100
AcDbEntity
  8
7
100
AcDbLine
 10
8.81003937007874
 20
10.86122047244094
 30
0.0
 11
8.820866141732281
 21
10.86614173228346
 31
0.0
  0
LINE
  5
2433
330
1E
100
AcDbEntity
  8
7
100
AcDbLine
 10
8.820866141732281
 20
10.86614173228346
 30
0.0
 11
8.824803149606299
 21
10.876968503937
 31
0.0
  0
LINE
  5
2434
330
1E
100
AcDbEntity
  8
7
100
AcDbLine
 10
8.606299212598425
 20
10.876968503937
 30
0.0
 11
8.611220472440944
 21
10.86614173228346
 31
0.0
  0
LINE
  5
2435
330
1E
100
AcDbEntity
  8
7
100
AcDbLine
 10
8.611220472440944
 20
10.86614173228346
 30
0.0
 11
8.622047244094488
 21
10.86122047244094
 31
0.0
  0
LINE
  5
2436
330
1E
100
AcDbEntity
  8
7
100
AcDbLine
 10
8.824803149606299
 20
10.91043307086614
 30
0.0
 11
8.820866141732281
 21
10.92125984251968
 31
0.0
  0
LINE
  5
2437
330
1E
100
AcDbEntity
  8
7
100
AcDbLine
 10
8.820866141732281
 20
10.92125984251968
 30
0.0
 11
8.81003937007874
 21
10.9251968503937
 31
0.0
  0
LINE
  5
2438
330
1E
100
AcDbEntity
  8
7
100
AcDbLine
 10
8.622047244094488
 20
10.9251968503937
 30
0.0
 11
8.611220472440944
 21
10.92125984251968
 31
0.0
  0
LINE
  5
2439
330
1E
100
AcDbEntity
  8
7
100
AcDbLine
 10
8.611220472440944
 20
10.92125984251968
 30
0.0
 11
8.606299212598425
 21
10.91043307086614
 31
0.0
  0
LINE
  5
243A
330
1E
100
AcDbEntity
  8
7
100
AcDbLine
 10
8.1751968503937
 20
10.86122047244094
 30
0.0
 11
8.186023622047244
 21
10.86614173228346
 31
0.0
  0
LINE
  5
243B
330
1E
100
AcDbEntity
  8
7
100
AcDbLine
 10
8.186023622047244
 20
10.86614173228346
 30
0.0
 11
8.189960629921259
 21
10.876968503937
 31
0.0
  0
LINE
  5
243C
330
1E
100
AcDbEntity
  8
7
100
AcDbLine
 10
8.189960629921259
 20
10.876968503937
 30
0.0
 11
8.189960629921259
 21
10.91043307086614
 31
0.0
  0
LINE
  5
243D
330
1E
100
AcDbEntity
  8
7
100
AcDbLine
 10
8.189960629921259
 20
10.91043307086614
 30
0.0
 11
8.186023622047244
 21
10.92125984251968
 31
0.0
  0
LINE
  5
243E
330
1E
100
AcDbEntity
  8
7
100
AcDbLine
 10
8.186023622047244
 20
10.92125984251968
 30
0.0
 11
8.1751968503937
 21
10.9251968503937
 31
0.0
  0
LINE
  5
243F
330
1E
100
AcDbEntity
  8
7
100
AcDbLine
 10
7.971456692913386
 20
10.876968503937
 30
0.0
 11
7.976377952755904
 21
10.86614173228346
 31
0.0
  0
LINE
  5
2440
330
1E
100
AcDbEntity
  8
7
100
AcDbLine
 10
7.976377952755904
 20
10.86614173228346
 30
0.0
 11
7.986220472440943
 21
10.86122047244094
 31
0.0
  0
LINE
  5
2441
330
1E
100
AcDbEntity
  8
7
100
AcDbLine
 10
7.986220472440943
 20
10.9251968503937
 30
0.0
 11
7.976377952755904
 21
10.92125984251968
 31
0.0
  0
LINE
  5
2442
330
1E
100
AcDbEntity
  8
7
100
AcDbLine
 10
7.976377952755904
 20
10.92125984251968
 30
0.0
 11
7.971456692913386
 21
10.91043307086614
 31
0.0
  0
LINE
  5
2443
330
1E
100
AcDbEntity
  8
7
100
AcDbLine
 10
9.019685039370077
 20
11.44685039370078
 30
0.0
 11
9.019685039370077
 21
11.44488188976377
 31
0.0
  0
LINE
  5
2444
330
1E
100
AcDbEntity
  8
7
100
AcDbLine
 10
9.019685039370077
 20
11.44488188976377
 30
0.0
 11
9.019685039370077
 21
10.79625984251968
 31
0.0
  0
LINE
  5
2445
330
1E
100
AcDbEntity
  8
7
100
AcDbLine
 10
7.782480314960628
 20
10.79625984251968
 30
0.0
 11
7.779527559055117
 21
10.79625984251968
 31
0.0
  0
LINE
  5
2446
330
1E
100
AcDbEntity
  8
7
100
AcDbLine
 10
7.779527559055117
 20
10.79625984251968
 30
0.0
 11
7.77755905511811
 21
10.79625984251968
 31
0.0
  0
LINE
  5
2447
330
1E
100
AcDbEntity
  8
7
100
AcDbLine
 10
7.77755905511811
 20
10.79625984251968
 30
0.0
 11
7.77755905511811
 21
11.44488188976377
 31
0.0
  0
LINE
  5
2448
330
1E
100
AcDbEntity
  8
7
100
AcDbLine
 10
9.019685039370077
 20
10.79625984251968
 30
0.0
 11
9.01771653543307
 21
10.79625984251968
 31
0.0
  0
LINE
  5
2449
330
1E
100
AcDbEntity
  8
7
100
AcDbLine
 10
9.01771653543307
 20
10.79625984251968
 30
0.0
 11
9.013779527559055
 21
10.79625984251968
 31
0.0
  0
LINE
  5
244A
330
1E
100
AcDbEntity
  8
7
100
AcDbLine
 10
8.762795275590551
 20
11.40649606299212
 30
0.0
 11
8.779527559055118
 21
11.4015748031496
 31
0.0
  0
LINE
  5
244B
330
1E
100
AcDbEntity
  8
7
100
AcDbLine
 10
8.779527559055118
 20
11.4015748031496
 30
0.0
 11
8.790354330708659
 21
11.38877952755905
 31
0.0
  0
LINE
  5
244C
330
1E
100
AcDbEntity
  8
7
100
AcDbLine
 10
8.790354330708659
 20
11.38877952755905
 30
0.0
 11
8.793307086614174
 21
11.37303149606299
 31
0.0
  0
LINE
  5
244D
330
1E
100
AcDbEntity
  8
7
100
AcDbLine
 10
8.793307086614174
 20
11.37303149606299
 30
0.0
 11
8.745078740157481
 21
10.99015748031495
 31
0.0
  0
LINE
  5
244E
330
1E
100
AcDbEntity
  8
7
100
AcDbLine
 10
8.745078740157481
 20
10.99015748031495
 30
0.0
 11
8.740157480314959
 21
10.9773622047244
 31
0.0
  0
LINE
  5
244F
330
1E
100
AcDbEntity
  8
7
100
AcDbLine
 10
8.740157480314959
 20
10.9773622047244
 30
0.0
 11
8.729330708661418
 21
10.96751968503937
 31
0.0
  0
LINE
  5
2450
330
1E
100
AcDbEntity
  8
7
100
AcDbLine
 10
8.729330708661418
 20
10.96751968503937
 30
0.0
 11
8.715551181102362
 21
10.96358267716535
 31
0.0
  0
LINE
  5
2451
330
1E
100
AcDbEntity
  8
7
100
AcDbLine
 10
8.003937007874014
 20
11.37303149606299
 30
0.0
 11
8.006889763779525
 21
11.38877952755905
 31
0.0
  0
LINE
  5
2452
330
1E
100
AcDbEntity
  8
7
100
AcDbLine
 10
8.006889763779525
 20
11.38877952755905
 30
0.0
 11
8.01771653543307
 21
11.4015748031496
 31
0.0
  0
LINE
  5
2453
330
1E
100
AcDbEntity
  8
7
100
AcDbLine
 10
8.01771653543307
 20
11.4015748031496
 30
0.0
 11
8.033464566929133
 21
11.40649606299212
 31
0.0
  0
LINE
  5
2454
330
1E
100
AcDbEntity
  8
7
100
AcDbLine
 10
8.081692913385825
 20
10.96358267716535
 30
0.0
 11
8.06791338582677
 21
10.96751968503937
 31
0.0
  0
LINE
  5
2455
330
1E
100
AcDbEntity
  8
7
100
AcDbLine
 10
8.06791338582677
 20
10.96751968503937
 30
0.0
 11
8.057086614173229
 21
10.9773622047244
 31
0.0
  0
LINE
  5
2456
330
1E
100
AcDbEntity
  8
7
100
AcDbLine
 10
8.057086614173229
 20
10.9773622047244
 30
0.0
 11
8.052165354330707
 21
10.99015748031495
 31
0.0
  0
LINE
  5
2457
330
1E
100
AcDbEntity
  8
7
100
AcDbLine
 10
8.837598425196848
 20
11.18307086614173
 30
0.0
 11
8.841535433070866
 21
11.16240157480314
 31
0.0
  0
LINE
  5
2458
330
1E
100
AcDbEntity
  8
7
100
AcDbLine
 10
8.841535433070866
 20
11.16240157480314
 30
0.0
 11
8.853346456692911
 21
11.14566929133858
 31
0.0
  0
LINE
  5
2459
330
1E
100
AcDbEntity
  8
7
100
AcDbLine
 10
8.853346456692911
 20
11.14566929133858
 30
0.0
 11
8.870078740157481
 21
11.13385826771653
 31
0.0
  0
LINE
  5
245A
330
1E
100
AcDbEntity
  8
7
100
AcDbLine
 10
8.870078740157481
 20
11.13385826771653
 30
0.0
 11
8.890748031496062
 21
11.12992125984251
 31
0.0
  0
LINE
  5
245B
330
1E
100
AcDbEntity
  8
7
100
AcDbLine
 10
8.890748031496062
 20
11.12992125984251
 30
0.0
 11
8.911417322834644
 21
11.13385826771653
 31
0.0
  0
LINE
  5
245C
330
1E
100
AcDbEntity
  8
7
100
AcDbLine
 10
8.911417322834644
 20
11.13385826771653
 30
0.0
 11
8.928149606299211
 21
11.14566929133858
 31
0.0
  0
LINE
  5
245D
330
1E
100
AcDbEntity
  8
7
100
AcDbLine
 10
8.928149606299211
 20
11.14566929133858
 30
0.0
 11
8.939960629921259
 21
11.16240157480314
 31
0.0
  0
LINE
  5
245E
330
1E
100
AcDbEntity
  8
7
100
AcDbLine
 10
8.939960629921259
 20
11.16240157480314
 30
0.0
 11
8.943897637795274
 21
11.18307086614173
 31
0.0
  0
LINE
  5
245F
330
1E
100
AcDbEntity
  8
7
100
AcDbLine
 10
8.943897637795274
 20
11.18307086614173
 30
0.0
 11
8.939960629921259
 21
11.20374015748031
 31
0.0
  0
LINE
  5
2460
330
1E
100
AcDbEntity
  8
7
100
AcDbLine
 10
8.939960629921259
 20
11.20374015748031
 30
0.0
 11
8.928149606299211
 21
11.22047244094488
 31
0.0
  0
LINE
  5
2461
330
1E
100
AcDbEntity
  8
7
100
AcDbLine
 10
8.928149606299211
 20
11.22047244094488
 30
0.0
 11
8.911417322834644
 21
11.23228346456693
 31
0.0
  0
LINE
  5
2462
330
1E
100
AcDbEntity
  8
7
100
AcDbLine
 10
8.911417322834644
 20
11.23228346456693
 30
0.0
 11
8.890748031496062
 21
11.23622047244094
 31
0.0
  0
LINE
  5
2463
330
1E
100
AcDbEntity
  8
7
100
AcDbLine
 10
8.890748031496062
 20
11.23622047244094
 30
0.0
 11
8.870078740157481
 21
11.23228346456693
 31
0.0
  0
LINE
  5
2464
330
1E
100
AcDbEntity
  8
7
100
AcDbLine
 10
8.870078740157481
 20
11.23228346456693
 30
0.0
 11
8.853346456692911
 21
11.22047244094488
 31
0.0
  0
LINE
  5
2465
330
1E
100
AcDbEntity
  8
7
100
AcDbLine
 10
8.853346456692911
 20
11.22047244094488
 30
0.0
 11
8.841535433070866
 21
11.20374015748031
 31
0.0
  0
LINE
  5
2466
330
1E
100
AcDbEntity
  8
7
100
AcDbLine
 10
8.841535433070866
 20
11.20374015748031
 30
0.0
 11
8.837598425196848
 21
11.18307086614173
 31
0.0
  0
LINE
  5
2467
330
1E
100
AcDbEntity
  8
7
100
AcDbLine
 10
7.955708661417323
 20
11.16240157480314
 30
0.0
 11
7.959645669291337
 21
11.18307086614173
 31
0.0
  0
LINE
  5
2468
330
1E
100
AcDbEntity
  8
7
100
AcDbLine
 10
7.959645669291337
 20
11.18307086614173
 30
0.0
 11
7.955708661417323
 21
11.20374015748031
 31
0.0
  0
LINE
  5
2469
330
1E
100
AcDbEntity
  8
7
100
AcDbLine
 10
7.955708661417323
 20
11.20374015748031
 30
0.0
 11
7.943897637795275
 21
11.22047244094488
 31
0.0
  0
LINE
  5
246A
330
1E
100
AcDbEntity
  8
7
100
AcDbLine
 10
7.943897637795275
 20
11.22047244094488
 30
0.0
 11
7.927165354330708
 21
11.23228346456693
 31
0.0
  0
LINE
  5
246B
330
1E
100
AcDbEntity
  8
7
100
AcDbLine
 10
7.927165354330708
 20
11.23228346456693
 30
0.0
 11
7.906496062992125
 21
11.23622047244094
 31
0.0
  0
LINE
  5
246C
330
1E
100
AcDbEntity
  8
7
100
AcDbLine
 10
7.906496062992125
 20
11.23622047244094
 30
0.0
 11
7.885826771653543
 21
11.23228346456693
 31
0.0
  0
LINE
  5
246D
330
1E
100
AcDbEntity
  8
7
100
AcDbLine
 10
7.885826771653543
 20
11.23228346456693
 30
0.0
 11
7.869094488188975
 21
11.22047244094488
 31
0.0
  0
LINE
  5
246E
330
1E
100
AcDbEntity
  8
7
100
AcDbLine
 10
7.869094488188975
 20
11.22047244094488
 30
0.0
 11
7.857283464566928
 21
11.20374015748031
 31
0.0
  0
LINE
  5
246F
330
1E
100
AcDbEntity
  8
7
100
AcDbLine
 10
7.857283464566928
 20
11.20374015748031
 30
0.0
 11
7.853346456692912
 21
11.18307086614173
 31
0.0
  0
LINE
  5
2470
330
1E
100
AcDbEntity
  8
7
100
AcDbLine
 10
7.853346456692912
 20
11.18307086614173
 30
0.0
 11
7.857283464566928
 21
11.16240157480314
 31
0.0
  0
LINE
  5
2471
330
1E
100
AcDbEntity
  8
7
100
AcDbLine
 10
7.857283464566928
 20
11.16240157480314
 30
0.0
 11
7.869094488188975
 21
11.14566929133858
 31
0.0
  0
LINE
  5
2472
330
1E
100
AcDbEntity
  8
7
100
AcDbLine
 10
7.869094488188975
 20
11.14566929133858
 30
0.0
 11
7.885826771653543
 21
11.13385826771653
 31
0.0
  0
LINE
  5
2473
330
1E
100
AcDbEntity
  8
7
100
AcDbLine
 10
7.885826771653543
 20
11.13385826771653
 30
0.0
 11
7.906496062992125
 21
11.12992125984251
 31
0.0
  0
LINE
  5
2474
330
1E
100
AcDbEntity
  8
7
100
AcDbLine
 10
7.906496062992125
 20
11.12992125984251
 30
0.0
 11
7.927165354330708
 21
11.13385826771653
 31
0.0
  0
LINE
  5
2475
330
1E
100
AcDbEntity
  8
7
100
AcDbLine
 10
7.927165354330708
 20
11.13385826771653
 30
0.0
 11
7.943897637795275
 21
11.14566929133858
 31
0.0
  0
LINE
  5
2476
330
1E
100
AcDbEntity
  8
7
100
AcDbLine
 10
7.943897637795275
 20
11.14566929133858
 30
0.0
 11
7.955708661417323
 21
11.16240157480314
 31
0.0
  0
LINE
  5
2477
330
1E
100
AcDbEntity
  8
7
100
AcDbLine
 10
7.986220472440943
 20
10.86122047244094
 30
0.0
 11
7.9753937007874
 21
10.86515748031495
 31
0.0
  0
LINE
  5
2478
330
1E
100
AcDbEntity
  8
7
100
AcDbLine
 10
7.9753937007874
 20
10.86515748031495
 30
0.0
 11
7.971456692913386
 21
10.8759842519685
 31
0.0
  0
LINE
  5
2479
330
1E
100
AcDbEntity
  8
7
100
AcDbLine
 10
7.971456692913386
 20
10.8759842519685
 30
0.0
 11
7.971456692913386
 21
10.91141732283464
 31
0.0
  0
LINE
  5
247A
330
1E
100
AcDbEntity
  8
7
100
AcDbLine
 10
8.190944881889762
 20
10.8759842519685
 30
0.0
 11
8.187007874015748
 21
10.86515748031495
 31
0.0
  0
LINE
  5
247B
330
1E
100
AcDbEntity
  8
7
100
AcDbLine
 10
8.187007874015748
 20
10.86515748031495
 30
0.0
 11
8.176181102362203
 21
10.86122047244094
 31
0.0
  0
LINE
  5
247C
330
1E
100
AcDbEntity
  8
7
100
AcDbLine
 10
8.176181102362203
 20
10.9261811023622
 30
0.0
 11
8.187007874015748
 21
10.92125984251968
 31
0.0
  0
LINE
  5
247D
330
1E
100
AcDbEntity
  8
7
100
AcDbLine
 10
8.187007874015748
 20
10.92125984251968
 30
0.0
 11
8.190944881889762
 21
10.91141732283464
 31
0.0
  0
LINE
  5
247E
330
1E
100
AcDbEntity
  8
7
100
AcDbLine
 10
7.971456692913386
 20
10.91141732283464
 30
0.0
 11
7.9753937007874
 21
10.92125984251968
 31
0.0
  0
LINE
  5
247F
330
1E
100
AcDbEntity
  8
7
100
AcDbLine
 10
7.9753937007874
 20
10.92125984251968
 30
0.0
 11
7.986220472440943
 21
10.9261811023622
 31
0.0
  0
LINE
  5
2480
330
1E
100
AcDbEntity
  8
7
100
AcDbLine
 10
8.621062992125985
 20
10.86122047244094
 30
0.0
 11
8.61023622047244
 21
10.86515748031495
 31
0.0
  0
LINE
  5
2481
330
1E
100
AcDbEntity
  8
7
100
AcDbLine
 10
8.61023622047244
 20
10.86515748031495
 30
0.0
 11
8.606299212598425
 21
10.8759842519685
 31
0.0
  0
LINE
  5
2482
330
1E
100
AcDbEntity
  8
7
100
AcDbLine
 10
8.606299212598425
 20
10.8759842519685
 30
0.0
 11
8.606299212598425
 21
10.91141732283464
 31
0.0
  0
LINE
  5
2483
330
1E
100
AcDbEntity
  8
7
100
AcDbLine
 10
8.606299212598425
 20
10.91141732283464
 30
0.0
 11
8.61023622047244
 21
10.92125984251968
 31
0.0
  0
LINE
  5
2484
330
1E
100
AcDbEntity
  8
7
100
AcDbLine
 10
8.825787401574803
 20
10.8759842519685
 30
0.0
 11
8.821850393700785
 21
10.86515748031495
 31
0.0
  0
LINE
  5
2485
330
1E
100
AcDbEntity
  8
7
100
AcDbLine
 10
8.821850393700785
 20
10.86515748031495
 30
0.0
 11
8.811023622047244
 21
10.86122047244094
 31
0.0
  0
LINE
  5
2486
330
1E
100
AcDbEntity
  8
7
100
AcDbLine
 10
7.782480314960628
 20
11.44488188976377
 30
0.0
 11
7.782480314960628
 21
10.79625984251968
 31
0.0
  0
LINE
  5
2487
330
1E
100
AcDbEntity
  8
7
100
AcDbLine
 10
7.782480314960628
 20
10.79625984251968
 30
0.0
 11
9.013779527559055
 21
10.79625984251968
 31
0.0
  0
LINE
  5
2488
330
1E
100
AcDbEntity
  8
7
100
AcDbLine
 10
8.791338582677166
 20
11.37106299212598
 30
0.0
 11
8.789370078740155
 21
11.38779527559055
 31
0.0
  0
LINE
  5
2489
330
1E
100
AcDbEntity
  8
7
100
AcDbLine
 10
8.789370078740155
 20
11.38779527559055
 30
0.0
 11
8.778543307086614
 21
11.4005905511811
 31
0.0
  0
LINE
  5
248A
330
1E
100
AcDbEntity
  8
7
100
AcDbLine
 10
8.778543307086614
 20
11.4005905511811
 30
0.0
 11
8.761811023622048
 21
11.40551181102362
 31
0.0
  0
LINE
  5
248B
330
1E
100
AcDbEntity
  8
7
100
AcDbLine
 10
8.018700787401574
 20
11.4005905511811
 30
0.0
 11
8.007874015748029
 21
11.38779527559055
 31
0.0
  0
LINE
  5
248C
330
1E
100
AcDbEntity
  8
7
100
AcDbLine
 10
8.007874015748029
 20
11.38779527559055
 30
0.0
 11
8.004921259842518
 21
11.37106299212598
 31
0.0
  0
LINE
  5
248D
330
1E
100
AcDbEntity
  8
7
100
AcDbLine
 10
8.004921259842518
 20
11.37106299212598
 30
0.0
 11
8.053149606299211
 21
10.99114173228346
 31
0.0
  0
LINE
  5
248E
330
1E
100
AcDbEntity
  8
7
100
AcDbLine
 10
8.053149606299211
 20
10.99114173228346
 30
0.0
 11
8.058070866141733
 21
10.97834645669291
 31
0.0
  0
LINE
  5
248F
330
1E
100
AcDbEntity
  8
7
100
AcDbLine
 10
8.058070866141733
 20
10.97834645669291
 30
0.0
 11
8.068897637795274
 21
10.96850393700787
 31
0.0
  0
LINE
  5
2490
330
1E
100
AcDbEntity
  8
7
100
AcDbLine
 10
8.068897637795274
 20
10.96850393700787
 30
0.0
 11
8.082677165354329
 21
10.96555118110236
 31
0.0
  0
LINE
  5
2491
330
1E
100
AcDbEntity
  8
7
100
AcDbLine
 10
8.082677165354329
 20
10.96555118110236
 30
0.0
 11
8.714566929133859
 21
10.96555118110236
 31
0.0
  0
LINE
  5
2492
330
1E
100
AcDbEntity
  8
7
100
AcDbLine
 10
8.714566929133859
 20
10.96555118110236
 30
0.0
 11
8.728346456692911
 21
10.96850393700787
 31
0.0
  0
LINE
  5
2493
330
1E
100
AcDbEntity
  8
7
100
AcDbLine
 10
8.728346456692911
 20
10.96850393700787
 30
0.0
 11
8.739173228346455
 21
10.97834645669291
 31
0.0
  0
LINE
  5
2494
330
1E
100
AcDbEntity
  8
7
100
AcDbLine
 10
8.739173228346455
 20
10.97834645669291
 30
0.0
 11
8.744094488188974
 21
10.99114173228346
 31
0.0
  0
LINE
  5
2495
330
1E
100
AcDbEntity
  8
7
100
AcDbLine
 10
7.843503937007873
 20
11.501968503937
 30
0.0
 11
7.843503937007873
 21
11.50688976377952
 31
0.0
  0
LINE
  5
2496
330
1E
100
AcDbEntity
  8
7
100
AcDbLine
 10
7.843503937007873
 20
11.50688976377952
 30
0.0
 11
7.841535433070865
 21
11.51574803149606
 31
0.0
  0
LINE
  5
2497
330
1E
100
AcDbEntity
  8
7
100
AcDbLine
 10
8.478346456692911
 20
11.501968503937
 30
0.0
 11
8.478346456692911
 21
11.50688976377952
 31
0.0
  0
LINE
  5
2498
330
1E
100
AcDbEntity
  8
7
100
AcDbLine
 10
8.478346456692911
 20
11.50688976377952
 30
0.0
 11
8.476377952755903
 21
11.51574803149606
 31
0.0
  0
LINE
  5
2499
330
1E
100
AcDbEntity
  8
7
100
AcDbLine
 10
7.77755905511811
 20
11.44685039370078
 30
0.0
 11
7.841535433070865
 21
11.44685039370078
 31
0.0
  0
LINE
  5
249A
330
1E
100
AcDbEntity
  8
7
100
AcDbLine
 10
7.841535433070865
 20
11.44685039370078
 30
0.0
 11
7.841535433070865
 21
11.51574803149606
 31
0.0
  0
LINE
  5
249B
330
1E
100
AcDbEntity
  8
7
100
AcDbLine
 10
8.955708661417322
 20
11.51574803149606
 30
0.0
 11
8.955708661417322
 21
11.44685039370078
 31
0.0
  0
LINE
  5
249C
330
1E
100
AcDbEntity
  8
7
100
AcDbLine
 10
8.955708661417322
 20
11.44685039370078
 30
0.0
 11
9.019685039370077
 21
11.44685039370078
 31
0.0
  0
LINE
  5
249D
330
1E
100
AcDbEntity
  8
7
100
AcDbLine
 10
9.019685039370077
 20
11.44685039370078
 30
0.0
 11
9.019685039370077
 21
11.51082677165354
 31
0.0
  0
LINE
  5
249E
330
1E
100
AcDbEntity
  8
7
100
AcDbLine
 10
9.019685039370077
 20
11.51082677165354
 30
0.0
 11
9.013779527559055
 21
11.51574803149606
 31
0.0
  0
LINE
  5
249F
330
1E
100
AcDbEntity
  8
7
100
AcDbLine
 10
8.476377952755903
 20
11.44685039370078
 30
0.0
 11
8.476377952755903
 21
11.51574803149606
 31
0.0
  0
LINE
  5
24A0
330
1E
100
AcDbEntity
  8
7
100
AcDbLine
 10
8.476377952755903
 20
11.51574803149606
 30
0.0
 11
8.320866141732281
 21
11.51574803149606
 31
0.0
  0
ENDSEC
  0
SECTION
  2
OBJECTS
  0
DICTIONARY
  5
C
330
0
100
AcDbDictionary
  3
ACAD_GROUP
350
D
  3
ACAD_LAYOUT
350
19
  3
ACAD_MLINESTYLE
350
16
  3
ACAD_PLOTSETTINGS
350
18
1001
ACAD
1000
TREAT_AS_HARD
1070
     0
  0
DICTIONARY
  5
2709
330
1E
100
AcDbDictionary
  3
ACAD_LAYOUTSELFREF
350
2773
1001
ACAD
1000
TREAT_AS_HARD
1070
     1
  0
DICTIONARY
  5
270B
330
1A
100
AcDbDictionary
  3
ACAD_LAYOUTSELFREF
350
2772
1001
ACAD
1000
TREAT_AS_HARD
1070
     1
  0
DICTIONARY
  5
D
102
{ACAD_REACTORS
330
C
102
}
330
C
100
AcDbDictionary
1001
ACAD
1000
TREAT_AS_HARD
1070
     0
  0
DICTIONARY
  5
19
102
{ACAD_REACTORS
330
C
102
}
330
C
100
AcDbDictionary
1001
ACAD
1000
TREAT_AS_HARD
1070
     0
  0
DICTIONARY
  5
16
102
{ACAD_REACTORS
330
C
102
}
330
C
100
AcDbDictionary
  3
STANDARD
350
17
1001
ACAD
1000
TREAT_AS_HARD
1070
     0
  0
DICTIONARY
  5
18
102
{ACAD_REACTORS
330
C
102
}
330
C
100
AcDbDictionary
1001
ACAD
1000
TREAT_AS_HARD
1070
     0
  0
XRECORD
  5
2773
102
{ACAD_REACTORS
330
2709
102
}
330
2709
100
AcDbXrecord
340
1E
  0
XRECORD
  5
2772
102
{ACAD_REACTORS
330
270B
102
}
330
270B
100
AcDbXrecord
340
1A
  0
MLINESTYLE
  5
17
102
{ACAD_REACTORS
330
16
102
}
330
16
100
AcDbMlineStyle
  2
STANDARD
 70
     0
  3

 62
   256
 51
90.0
 52
90.0
 71
     2
 49
0.5
 62
   256
  6
BYLAYER
 49
-0.5
 62
   256
  6
BYLAYER
  0
ENDSEC
  0
EOF
