  0
SECTION
  2
HEADER
  9
$ACADVER
  1
AC1014
  9
$ACADMAINTVER
 70
     9
  9
$DWGCODEPAGE
  3
ANSI_1252
  9
$INSBASE
 10
0.0
 20
0.0
 30
0.0
  9
$EXTMIN
 10
6.604281499422654
 20
5.527878302577008
 30
-0.0015258207003583
  9
$EXTMAX
 10
44.58502210649924
 20
29.20955286293731
 30
0.0000000349246037
  9
$LIMMIN
 10
0.0
 20
0.0
  9
$LIMMAX
 10
12.0
 20
9.0
  9
$ORTHOMODE
 70
     0
  9
$REGENMODE
 70
     1
  9
$FILLMODE
 70
     1
  9
$QTEXTMODE
 70
     0
  9
$MIRRTEXT
 70
     1
  9
$DRAGMODE
 70
     2
  9
$LTSCALE
 40
1.0
  9
$OSMODE
 70
    37
  9
$ATTMODE
 70
     1
  9
$TEXTSIZE
 40
0.2
  9
$TRACEWID
 40
0.05
  9
$TEXTSTYLE
  7
STANDARD
  9
$CLAYER
  8
0
  9
$CELTYPE
  6
BYLAYER
  9
$CECOLOR
 62
   256
  9
$CELTSCALE
 40
1.0
  9
$DELOBJ
 70
     1
  9
$DISPSILH
 70
     0
  9
$DIMSCALE
 40
1.0
  9
$DIMASZ
 40
0.18
  9
$DIMEXO
 40
0.0625
  9
$DIMDLI
 40
0.38
  9
$DIMRND
 40
0.0
  9
$DIMDLE
 40
0.0
  9
$DIMEXE
 40
0.18
  9
$DIMTP
 40
0.0
  9
$DIMTM
 40
0.0
  9
$DIMTXT
 40
0.18
  9
$DIMCEN
 40
0.09
  9
$DIMTSZ
 40
0.0
  9
$DIMTOL
 70
     0
  9
$DIMLIM
 70
     0
  9
$DIMTIH
 70
     1
  9
$DIMTOH
 70
     1
  9
$DIMSE1
 70
     0
  9
$DIMSE2
 70
     0
  9
$DIMTAD
 70
     0
  9
$DIMZIN
 70
     0
  9
$DIMBLK
  1

  9
$DIMASO
 70
     1
  9
$DIMSHO
 70
     1
  9
$DIMPOST
  1

  9
$DIMAPOST
  1

  9
$DIMALT
 70
     0
  9
$DIMALTD
 70
     2
  9
$DIMALTF
 40
25.4
  9
$DIMLFAC
 40
1.0
  9
$DIMTOFL
 70
     0
  9
$DIMTVP
 40
0.0
  9
$DIMTIX
 70
     0
  9
$DIMSOXD
 70
     0
  9
$DIMSAH
 70
     0
  9
$DIMBLK1
  1

  9
$DIMBLK2
  1

  9
$DIMSTYLE
  2
STANDARD
  9
$DIMCLRD
 70
     0
  9
$DIMCLRE
 70
     0
  9
$DIMCLRT
 70
     0
  9
$DIMTFAC
 40
1.0
  9
$DIMGAP
 40
0.09
  9
$DIMJUST
 70
     0
  9
$DIMSD1
 70
     0
  9
$DIMSD2
 70
     0
  9
$DIMTOLJ
 70
     1
  9
$DIMTZIN
 70
     0
  9
$DIMALTZ
 70
     0
  9
$DIMALTTZ
 70
     0
  9
$DIMFIT
 70
     5
  9
$DIMUPT
 70
     0
  9
$DIMUNIT
 70
     2
  9
$DIMDEC
 70
     4
  9
$DIMTDEC
 70
     4
  9
$DIMALTU
 70
     2
  9
$DIMALTTD
 70
     2
  9
$DIMTXSTY
  7
STANDARD
  9
$DIMAUNIT
 70
     0
  9
$LUNITS
 70
     2
  9
$LUPREC
 70
     4
  9
$SKETCHINC
 40
0.1
  9
$FILLETRAD
 40
0.0
  9
$AUNITS
 70
     0
  9
$AUPREC
 70
     0
  9
$MENU
  1
acad
  9
$ELEVATION
 40
0.0
  9
$PELEVATION
 40
0.0
  9
$THICKNESS
 40
0.0
  9
$LIMCHECK
 70
     0
  9
$BLIPMODE
 70
     0
  9
$CHAMFERA
 40
0.0
  9
$CHAMFERB
 40
0.0
  9
$CHAMFERC
 40
0.0
  9
$CHAMFERD
 40
0.0
  9
$SKPOLY
 70
     0
  9
$TDCREATE
 40
2452885.678923611
  9
$TDUPDATE
 40
2452885.699458912
  9
$TDINDWG
 40
0.0072813542
  9
$TDUSRTIMER
 40
0.0072813542
  9
$USRTIMER
 70
     1
  9
$ANGBASE
 50
0.0
  9
$ANGDIR
 70
     0
  9
$PDMODE
 70
     0
  9
$PDSIZE
 40
0.0
  9
$PLINEWID
 40
0.0
  9
$COORDS
 70
     1
  9
$SPLFRAME
 70
     0
  9
$SPLINETYPE
 70
     6
  9
$SPLINESEGS
 70
     8
  9
$ATTDIA
 70
     0
  9
$ATTREQ
 70
     1
  9
$HANDLING
 70
-16383
  9
$HANDSEED
  5
158B
  9
$SURFTAB1
 70
     6
  9
$SURFTAB2
 70
     6
  9
$SURFTYPE
 70
     6
  9
$SURFU
 70
     6
  9
$SURFV
 70
     6
  9
$UCSNAME
  2

  9
$UCSORG
 10
0.0
 20
0.0
 30
0.0
  9
$UCSXDIR
 10
1.0
 20
0.0
 30
0.0
  9
$UCSYDIR
 10
0.0
 20
1.0
 30
0.0
  9
$PUCSNAME
  2

  9
$PUCSORG
 10
0.0
 20
0.0
 30
0.0
  9
$PUCSXDIR
 10
1.0
 20
0.0
 30
0.0
  9
$PUCSYDIR
 10
0.0
 20
1.0
 30
0.0
  9
$USERI1
 70
     0
  9
$USERI2
 70
     0
  9
$USERI3
 70
     0
  9
$USERI4
 70
     0
  9
$USERI5
 70
     0
  9
$USERR1
 40
0.0
  9
$USERR2
 40
0.0
  9
$USERR3
 40
0.0
  9
$USERR4
 40
0.0
  9
$USERR5
 40
0.0
  9
$WORLDVIEW
 70
     1
  9
$SHADEDGE
 70
     3
  9
$SHADEDIF
 70
    70
  9
$TILEMODE
 70
     1
  9
$MAXACTVP
 70
    16
  9
$PINSBASE
 10
0.0
 20
0.0
 30
0.0
  9
$PLIMCHECK
 70
     0
  9
$PEXTMIN
 10
1.000000000000000E+20
 20
1.000000000000000E+20
 30
1.000000000000000E+20
  9
$PEXTMAX
 10
-1.000000000000000E+20
 20
-1.000000000000000E+20
 30
-1.000000000000000E+20
  9
$PLIMMIN
 10
0.0
 20
0.0
  9
$PLIMMAX
 10
12.0
 20
9.0
  9
$UNITMODE
 70
     0
  9
$VISRETAIN
 70
     0
  9
$PLINEGEN
 70
     0
  9
$PSLTSCALE
 70
     1
  9
$TREEDEPTH
 70
  3020
  9
$PICKSTYLE
 70
     1
  9
$CMLSTYLE
  2
STANDARD
  9
$CMLJUST
 70
     0
  9
$CMLSCALE
 40
1.0
  9
$PROXYGRAPHICS
 70
     1
  9
$MEASUREMENT
 70
     0
  0
ENDSEC
  0
SECTION
  2
CLASSES
  0
CLASS
  1
ACDBDICTIONARYWDFLT
  2
AcDbDictionaryWithDefault
  3
AutoCAD 2000
 90
        0
280
     0
281
     0
  0
CLASS
  1
ACDBPLACEHOLDER
  2
AcDbPlaceHolder
  3
AutoCAD 2000
 90
        0
280
     0
281
     0
  0
CLASS
  1
LAYOUT
  2
AcDbLayout
  3
AutoCAD 2000
 90
        0
280
     0
281
     0
  0
CLASS
  1
LONG_TRANSACTION
  2
AcDbLongTransaction
  3
AutoCAD 2000
 90
        0
280
     0
281
     0
  0
CLASS
  1
LWPOLYLINE
  2
AcDbPolyline
  3
AutoCAD 2000
 90
        0
280
     0
281
     1
  0
CLASS
  1
HATCH
  2
AcDbHatch
  3
AutoCAD 2000
 90
        0
280
     0
281
     1
  0
CLASS
  1
XRECORD
  2
AcDbXrecord
  3
AutoCAD 2000
 90
        0
280
     0
281
     0
  0
ENDSEC
  0
SECTION
  2
TABLES
  0
TABLE
  2
VPORT
  5
8
330
0
100
AcDbSymbolTable
 70
     3
  0
VPORT
  5
1565
330
8
100
AcDbSymbolTableRecord
100
AcDbViewportTableRecord
  2
*ACTIVE
 70
     0
 10
0.0
 20
0.0
 11
1.0
 21
1.0
 12
25.59465180296094
 22
17.36871558275715
 13
0.0
 23
0.0
 14
1.0
 24
1.0
 15
0.0
 25
0.0
 16
0.0
 26
0.0
 36
1.0
 17
0.0
 27
0.0
 37
0.0
 40
25.40501721384242
 41
1.502518891687657
 42
50.0
 43
0.0
 44
0.0
 50
0.0
 51
0.0
 71
     0
 72
   100
 73
     1
 74
     1
 75
     0
 76
     0
 77
     0
 78
     0
  0
ENDTAB
  0
TABLE
  2
LTYPE
  5
5
330
0
100
AcDbSymbolTable
 70
    25
  0
LTYPE
  5
13
330
5
100
AcDbSymbolTableRecord
100
AcDbLinetypeTableRecord
  2
BYBLOCK
 70
     0
  3

 72
    65
 73
     0
 40
0.0
  0
LTYPE
  5
14
330
5
100
AcDbSymbolTableRecord
100
AcDbLinetypeTableRecord
  2
BYLAYER
 70
     0
  3

 72
    65
 73
     0
 40
0.0
  0
LTYPE
  5
15
330
5
100
AcDbSymbolTableRecord
100
AcDbLinetypeTableRecord
  2
CONTINUOUS
 70
     0
  3
Solid line
 72
    65
 73
     0
 40
0.0
  0
LTYPE
  5
22
330
5
100
AcDbSymbolTableRecord
100
AcDbLinetypeTableRecord
  2
BORDER
 70
     0
  3
__ __ . __ __ . __ __ . __ __ . __ __ . __ __ .
 72
    65
 73
     6
 40
1.75
 49
0.5
 74
     0
 49
-0.25
 74
     0
 49
0.5
 74
     0
 49
-0.25
 74
     0
 49
0.5
 74
     0
 49
-0.25
 74
     0
  0
LTYPE
  5
23
330
5
100
AcDbSymbolTableRecord
100
AcDbLinetypeTableRecord
  2
BORDER2
 70
     0
  3
__.__.__.__.__.__.__.__.__.__.__.__.__.__.__.__
 72
    65
 73
     6
 40
0.875
 49
0.25
 74
     0
 49
-0.125
 74
     0
 49
0.25
 74
     0
 49
-0.125
 74
     0
 49
0.25
 74
     0
 49
-0.125
 74
     0
  0
LTYPE
  5
24
330
5
100
AcDbSymbolTableRecord
100
AcDbLinetypeTableRecord
  2
BORDERX2
 70
     0
  3
____  ____  .  ____  ____  .  
 72
    65
 73
     6
 40
3.5
 49
1.0
 74
     0
 49
-0.5
 74
     0
 49
1.0
 74
     0
 49
-0.5
 74
     0
 49
1.0
 74
     0
 49
-0.5
 74
     0
  0
LTYPE
  5
25
330
5
100
AcDbSymbolTableRecord
100
AcDbLinetypeTableRecord
  2
CENTER
 70
     0
  3
____ _ ____ _ ____ _ ____ _ ____ _ ____ _ ____
 72
    65
 73
     4
 40
2.0
 49
1.25
 74
     0
 49
-0.25
 74
     0
 49
0.25
 74
     0
 49
-0.25
 74
     0
  0
LTYPE
  5
26
330
5
100
AcDbSymbolTableRecord
100
AcDbLinetypeTableRecord
  2
CENTER2
 70
     0
  3
____ _ ____ _ ____ _ ____ _ ____ _ ____ _ ____
 72
    65
 73
     4
 40
1.125
 49
0.75
 74
     0
 49
-0.125
 74
     0
 49
0.125
 74
     0
 49
-0.125
 74
     0
  0
LTYPE
  5
27
330
5
100
AcDbSymbolTableRecord
100
AcDbLinetypeTableRecord
  2
CENTERX2
 70
     0
  3
________  __  ________  __  ________  __  
 72
    65
 73
     4
 40
4.0
 49
2.5
 74
     0
 49
-0.5
 74
     0
 49
0.5
 74
     0
 49
-0.5
 74
     0
  0
LTYPE
  5
28
330
5
100
AcDbSymbolTableRecord
100
AcDbLinetypeTableRecord
  2
DASHDOT
 70
     0
  3
__ . __ . __ . __ . __ . __ . __ . 
 72
    65
 73
     4
 40
1.0
 49
0.5
 74
     0
 49
-0.25
 74
     0
 49
0.0
 74
     0
 49
-0.25
 74
     0
  0
LTYPE
  5
29
330
5
100
AcDbSymbolTableRecord
100
AcDbLinetypeTableRecord
  2
DASHDOT2
 70
     0
  3
_._._._._._._._._._._._._._._._.
 72
    65
 73
     4
 40
0.5
 49
0.25
 74
     0
 49
-0.125
 74
     0
 49
0.0
 74
     0
 49
-0.125
 74
     0
  0
LTYPE
  5
2A
330
5
100
AcDbSymbolTableRecord
100
AcDbLinetypeTableRecord
  2
DASHDOTX2
 70
     0
  3
____  .  ____  .  ____  .  ____  .  
 72
    65
 73
     4
 40
2.0
 49
1.0
 74
     0
 49
-0.5
 74
     0
 49
0.0
 74
     0
 49
-0.5
 74
     0
  0
LTYPE
  5
2B
330
5
100
AcDbSymbolTableRecord
100
AcDbLinetypeTableRecord
  2
DASHED
 70
     0
  3
__ __ __ __ __ __ __ __ __ __ __ __ 
 72
    65
 73
     2
 40
0.75
 49
0.5
 74
     0
 49
-0.25
 74
     0
  0
LTYPE
  5
2C
330
5
100
AcDbSymbolTableRecord
100
AcDbLinetypeTableRecord
  2
DASHED2
 70
     0
  3
_ _ _ _ _ _ _ _ _ _ _ _ _ _ _ _ _ _ 
 72
    65
 73
     2
 40
0.375
 49
0.25
 74
     0
 49
-0.125
 74
     0
  0
LTYPE
  5
2D
330
5
100
AcDbSymbolTableRecord
100
AcDbLinetypeTableRecord
  2
DASHEDX2
 70
     0
  3
____  ____  ____  ____  ____  ____  
 72
    65
 73
     2
 40
1.5
 49
1.0
 74
     0
 49
-0.5
 74
     0
  0
LTYPE
  5
2E
330
5
100
AcDbSymbolTableRecord
100
AcDbLinetypeTableRecord
  2
DIVIDE
 70
     0
  3
____ . . ____ . . ____ . . ____ . . 
 72
    65
 73
     6
 40
1.25
 49
0.5
 74
     0
 49
-0.25
 74
     0
 49
0.0
 74
     0
 49
-0.25
 74
     0
 49
0.0
 74
     0
 49
-0.25
 74
     0
  0
LTYPE
  5
2F
330
5
100
AcDbSymbolTableRecord
100
AcDbLinetypeTableRecord
  2
DIVIDE2
 70
     0
  3
__..__..__..__..__..__..__..__..__..
 72
    65
 73
     6
 40
0.625
 49
0.25
 74
     0
 49
-0.125
 74
     0
 49
0.0
 74
     0
 49
-0.125
 74
     0
 49
0.0
 74
     0
 49
-0.125
 74
     0
  0
LTYPE
  5
30
330
5
100
AcDbSymbolTableRecord
100
AcDbLinetypeTableRecord
  2
DIVIDEX2
 70
     0
  3
________  .  .  ________  .  .  ________  .  . 
 72
    65
 73
     6
 40
2.5
 49
1.0
 74
     0
 49
-0.5
 74
     0
 49
0.0
 74
     0
 49
-0.5
 74
     0
 49
0.0
 74
     0
 49
-0.5
 74
     0
  0
LTYPE
  5
31
330
5
100
AcDbSymbolTableRecord
100
AcDbLinetypeTableRecord
  2
DOT
 70
     0
  3
. . . . . . . . . . . . . . . . . . 
 72
    65
 73
     2
 40
0.25
 49
0.0
 74
     0
 49
-0.25
 74
     0
  0
LTYPE
  5
32
330
5
100
AcDbSymbolTableRecord
100
AcDbLinetypeTableRecord
  2
DOT2
 70
     0
  3
....................................
 72
    65
 73
     2
 40
0.125
 49
0.0
 74
     0
 49
-0.125
 74
     0
  0
LTYPE
  5
33
330
5
100
AcDbSymbolTableRecord
100
AcDbLinetypeTableRecord
  2
DOTX2
 70
     0
  3
.  .  .  .  .  .  .  .  .  .  .  .  .  
 72
    65
 73
     2
 40
0.5
 49
0.0
 74
     0
 49
-0.5
 74
     0
  0
LTYPE
  5
34
330
5
100
AcDbSymbolTableRecord
100
AcDbLinetypeTableRecord
  2
HIDDEN
 70
     0
  3
__ __ __ __ __ __ __ __ __ __ __ __ 
 72
    65
 73
     2
 40
0.375
 49
0.25
 74
     0
 49
-0.125
 74
     0
  0
LTYPE
  5
35
330
5
100
AcDbSymbolTableRecord
100
AcDbLinetypeTableRecord
  2
HIDDEN2
 70
     0
  3
_ _ _ _ _ _ _ _ _ _ _ _ _ _ _ _ _ _ 
 72
    65
 73
     2
 40
0.1875
 49
0.125
 74
     0
 49
-0.0625
 74
     0
  0
LTYPE
  5
36
330
5
100
AcDbSymbolTableRecord
100
AcDbLinetypeTableRecord
  2
HIDDENX2
 70
     0
  3
____ ____ ____ ____ ____ ____ ____ 
 72
    65
 73
     2
 40
0.75
 49
0.5
 74
     0
 49
-0.25
 74
     0
  0
LTYPE
  5
37
330
5
100
AcDbSymbolTableRecord
100
AcDbLinetypeTableRecord
  2
PHANTOM
 70
     0
  3
______  __  __  ______  __  __  
 72
    65
 73
     6
 40
2.5
 49
1.25
 74
     0
 49
-0.25
 74
     0
 49
0.25
 74
     0
 49
-0.25
 74
     0
 49
0.25
 74
     0
 49
-0.25
 74
     0
  0
LTYPE
  5
38
330
5
100
AcDbSymbolTableRecord
100
AcDbLinetypeTableRecord
  2
PHANTOM2
 70
     0
  3
___ _ _ ___ _ _ ___ _ _ ___ _ _ 
 72
    65
 73
     6
 40
1.25
 49
0.625
 74
     0
 49
-0.125
 74
     0
 49
0.125
 74
     0
 49
-0.125
 74
     0
 49
0.125
 74
     0
 49
-0.125
 74
     0
  0
LTYPE
  5
39
330
5
100
AcDbSymbolTableRecord
100
AcDbLinetypeTableRecord
  2
PHANTOMX2
 70
     0
  3
___ _ _ ___ _ _ ___ _ _ ___ _ _ 
 72
    65
 73
     6
 40
5.0
 49
2.5
 74
     0
 49
-0.5
 74
     0
 49
0.5
 74
     0
 49
-0.5
 74
     0
 49
0.5
 74
     0
 49
-0.5
 74
     0
  0
ENDTAB
  0
TABLE
  2
LAYER
  5
2
330
0
100
AcDbSymbolTable
 70
   256
  0
LAYER
  5
10
330
2
100
AcDbSymbolTableRecord
100
AcDbLayerTableRecord
  2
0
 70
     0
 62
     7
  6
CONTINUOUS
  0
LAYER
  5
3A
330
2
100
AcDbSymbolTableRecord
100
AcDbLayerTableRecord
  2
1
 70
     0
 62
     1
  6
CONTINUOUS
  0
LAYER
  5
3B
330
2
100
AcDbSymbolTableRecord
100
AcDbLayerTableRecord
  2
2
 70
     0
 62
     2
  6
CONTINUOUS
  0
LAYER
  5
3C
330
2
100
AcDbSymbolTableRecord
100
AcDbLayerTableRecord
  2
3
 70
     0
 62
     3
  6
CONTINUOUS
  0
LAYER
  5
3D
330
2
100
AcDbSymbolTableRecord
100
AcDbLayerTableRecord
  2
4
 70
     0
 62
     4
  6
CONTINUOUS
  0
LAYER
  5
3E
330
2
100
AcDbSymbolTableRecord
100
AcDbLayerTableRecord
  2
5
 70
     0
 62
     5
  6
CONTINUOUS
  0
LAYER
  5
3F
330
2
100
AcDbSymbolTableRecord
100
AcDbLayerTableRecord
  2
6
 70
     0
 62
     6
  6
CONTINUOUS
  0
LAYER
  5
40
330
2
100
AcDbSymbolTableRecord
100
AcDbLayerTableRecord
  2
7
 70
     0
 62
     7
  6
CONTINUOUS
  0
LAYER
  5
41
330
2
100
AcDbSymbolTableRecord
100
AcDbLayerTableRecord
  2
8
 70
     0
 62
     8
  6
CONTINUOUS
  0
LAYER
  5
42
330
2
100
AcDbSymbolTableRecord
100
AcDbLayerTableRecord
  2
9
 70
     0
 62
     9
  6
CONTINUOUS
  0
LAYER
  5
43
330
2
100
AcDbSymbolTableRecord
100
AcDbLayerTableRecord
  2
10
 70
     0
 62
    10
  6
CONTINUOUS
  0
LAYER
  5
44
330
2
100
AcDbSymbolTableRecord
100
AcDbLayerTableRecord
  2
11
 70
     0
 62
    11
  6
CONTINUOUS
  0
LAYER
  5
45
330
2
100
AcDbSymbolTableRecord
100
AcDbLayerTableRecord
  2
12
 70
     0
 62
    12
  6
CONTINUOUS
  0
LAYER
  5
46
330
2
100
AcDbSymbolTableRecord
100
AcDbLayerTableRecord
  2
13
 70
     0
 62
    13
  6
CONTINUOUS
  0
LAYER
  5
47
330
2
100
AcDbSymbolTableRecord
100
AcDbLayerTableRecord
  2
14
 70
     0
 62
    14
  6
CONTINUOUS
  0
LAYER
  5
48
330
2
100
AcDbSymbolTableRecord
100
AcDbLayerTableRecord
  2
15
 70
     0
 62
    15
  6
CONTINUOUS
  0
LAYER
  5
49
330
2
100
AcDbSymbolTableRecord
100
AcDbLayerTableRecord
  2
16
 70
     0
 62
    16
  6
CONTINUOUS
  0
LAYER
  5
4A
330
2
100
AcDbSymbolTableRecord
100
AcDbLayerTableRecord
  2
17
 70
     0
 62
    17
  6
CONTINUOUS
  0
LAYER
  5
4B
330
2
100
AcDbSymbolTableRecord
100
AcDbLayerTableRecord
  2
18
 70
     0
 62
    18
  6
CONTINUOUS
  0
LAYER
  5
4C
330
2
100
AcDbSymbolTableRecord
100
AcDbLayerTableRecord
  2
19
 70
     0
 62
    19
  6
CONTINUOUS
  0
LAYER
  5
4D
330
2
100
AcDbSymbolTableRecord
100
AcDbLayerTableRecord
  2
20
 70
     0
 62
    20
  6
CONTINUOUS
  0
LAYER
  5
4E
330
2
100
AcDbSymbolTableRecord
100
AcDbLayerTableRecord
  2
21
 70
     0
 62
    21
  6
CONTINUOUS
  0
LAYER
  5
4F
330
2
100
AcDbSymbolTableRecord
100
AcDbLayerTableRecord
  2
22
 70
     0
 62
    22
  6
CONTINUOUS
  0
LAYER
  5
50
330
2
100
AcDbSymbolTableRecord
100
AcDbLayerTableRecord
  2
23
 70
     0
 62
    23
  6
CONTINUOUS
  0
LAYER
  5
51
330
2
100
AcDbSymbolTableRecord
100
AcDbLayerTableRecord
  2
24
 70
     0
 62
    24
  6
CONTINUOUS
  0
LAYER
  5
52
330
2
100
AcDbSymbolTableRecord
100
AcDbLayerTableRecord
  2
25
 70
     0
 62
    25
  6
CONTINUOUS
  0
LAYER
  5
53
330
2
100
AcDbSymbolTableRecord
100
AcDbLayerTableRecord
  2
26
 70
     0
 62
    26
  6
CONTINUOUS
  0
LAYER
  5
54
330
2
100
AcDbSymbolTableRecord
100
AcDbLayerTableRecord
  2
27
 70
     0
 62
    27
  6
CONTINUOUS
  0
LAYER
  5
55
330
2
100
AcDbSymbolTableRecord
100
AcDbLayerTableRecord
  2
28
 70
     0
 62
    28
  6
CONTINUOUS
  0
LAYER
  5
56
330
2
100
AcDbSymbolTableRecord
100
AcDbLayerTableRecord
  2
29
 70
     0
 62
    29
  6
CONTINUOUS
  0
LAYER
  5
57
330
2
100
AcDbSymbolTableRecord
100
AcDbLayerTableRecord
  2
30
 70
     0
 62
    30
  6
CONTINUOUS
  0
LAYER
  5
58
330
2
100
AcDbSymbolTableRecord
100
AcDbLayerTableRecord
  2
31
 70
     0
 62
    31
  6
CONTINUOUS
  0
LAYER
  5
59
330
2
100
AcDbSymbolTableRecord
100
AcDbLayerTableRecord
  2
32
 70
     0
 62
    32
  6
CONTINUOUS
  0
LAYER
  5
5A
330
2
100
AcDbSymbolTableRecord
100
AcDbLayerTableRecord
  2
33
 70
     0
 62
    33
  6
CONTINUOUS
  0
LAYER
  5
5B
330
2
100
AcDbSymbolTableRecord
100
AcDbLayerTableRecord
  2
34
 70
     0
 62
    34
  6
CONTINUOUS
  0
LAYER
  5
5C
330
2
100
AcDbSymbolTableRecord
100
AcDbLayerTableRecord
  2
35
 70
     0
 62
    35
  6
CONTINUOUS
  0
LAYER
  5
5D
330
2
100
AcDbSymbolTableRecord
100
AcDbLayerTableRecord
  2
36
 70
     0
 62
    36
  6
CONTINUOUS
  0
LAYER
  5
5E
330
2
100
AcDbSymbolTableRecord
100
AcDbLayerTableRecord
  2
37
 70
     0
 62
    37
  6
CONTINUOUS
  0
LAYER
  5
5F
330
2
100
AcDbSymbolTableRecord
100
AcDbLayerTableRecord
  2
38
 70
     0
 62
    38
  6
CONTINUOUS
  0
LAYER
  5
60
330
2
100
AcDbSymbolTableRecord
100
AcDbLayerTableRecord
  2
39
 70
     0
 62
    39
  6
CONTINUOUS
  0
LAYER
  5
61
330
2
100
AcDbSymbolTableRecord
100
AcDbLayerTableRecord
  2
40
 70
     0
 62
    40
  6
CONTINUOUS
  0
LAYER
  5
62
330
2
100
AcDbSymbolTableRecord
100
AcDbLayerTableRecord
  2
41
 70
     0
 62
    41
  6
CONTINUOUS
  0
LAYER
  5
63
330
2
100
AcDbSymbolTableRecord
100
AcDbLayerTableRecord
  2
42
 70
     0
 62
    42
  6
CONTINUOUS
  0
LAYER
  5
64
330
2
100
AcDbSymbolTableRecord
100
AcDbLayerTableRecord
  2
43
 70
     0
 62
    43
  6
CONTINUOUS
  0
LAYER
  5
65
330
2
100
AcDbSymbolTableRecord
100
AcDbLayerTableRecord
  2
44
 70
     0
 62
    44
  6
CONTINUOUS
  0
LAYER
  5
66
330
2
100
AcDbSymbolTableRecord
100
AcDbLayerTableRecord
  2
45
 70
     0
 62
    45
  6
CONTINUOUS
  0
LAYER
  5
67
330
2
100
AcDbSymbolTableRecord
100
AcDbLayerTableRecord
  2
46
 70
     0
 62
    46
  6
CONTINUOUS
  0
LAYER
  5
68
330
2
100
AcDbSymbolTableRecord
100
AcDbLayerTableRecord
  2
47
 70
     0
 62
    47
  6
CONTINUOUS
  0
LAYER
  5
69
330
2
100
AcDbSymbolTableRecord
100
AcDbLayerTableRecord
  2
48
 70
     0
 62
    48
  6
CONTINUOUS
  0
LAYER
  5
6A
330
2
100
AcDbSymbolTableRecord
100
AcDbLayerTableRecord
  2
49
 70
     0
 62
    49
  6
CONTINUOUS
  0
LAYER
  5
6B
330
2
100
AcDbSymbolTableRecord
100
AcDbLayerTableRecord
  2
50
 70
     0
 62
    50
  6
CONTINUOUS
  0
LAYER
  5
6C
330
2
100
AcDbSymbolTableRecord
100
AcDbLayerTableRecord
  2
51
 70
     0
 62
    51
  6
CONTINUOUS
  0
LAYER
  5
6D
330
2
100
AcDbSymbolTableRecord
100
AcDbLayerTableRecord
  2
52
 70
     0
 62
    52
  6
CONTINUOUS
  0
LAYER
  5
6E
330
2
100
AcDbSymbolTableRecord
100
AcDbLayerTableRecord
  2
53
 70
     0
 62
    53
  6
CONTINUOUS
  0
LAYER
  5
6F
330
2
100
AcDbSymbolTableRecord
100
AcDbLayerTableRecord
  2
54
 70
     0
 62
    54
  6
CONTINUOUS
  0
LAYER
  5
70
330
2
100
AcDbSymbolTableRecord
100
AcDbLayerTableRecord
  2
55
 70
     0
 62
    55
  6
CONTINUOUS
  0
LAYER
  5
71
330
2
100
AcDbSymbolTableRecord
100
AcDbLayerTableRecord
  2
56
 70
     0
 62
    56
  6
CONTINUOUS
  0
LAYER
  5
72
330
2
100
AcDbSymbolTableRecord
100
AcDbLayerTableRecord
  2
57
 70
     0
 62
    57
  6
CONTINUOUS
  0
LAYER
  5
73
330
2
100
AcDbSymbolTableRecord
100
AcDbLayerTableRecord
  2
58
 70
     0
 62
    58
  6
CONTINUOUS
  0
LAYER
  5
74
330
2
100
AcDbSymbolTableRecord
100
AcDbLayerTableRecord
  2
59
 70
     0
 62
    59
  6
CONTINUOUS
  0
LAYER
  5
75
330
2
100
AcDbSymbolTableRecord
100
AcDbLayerTableRecord
  2
60
 70
     0
 62
    60
  6
CONTINUOUS
  0
LAYER
  5
76
330
2
100
AcDbSymbolTableRecord
100
AcDbLayerTableRecord
  2
61
 70
     0
 62
    61
  6
CONTINUOUS
  0
LAYER
  5
77
330
2
100
AcDbSymbolTableRecord
100
AcDbLayerTableRecord
  2
62
 70
     0
 62
    62
  6
CONTINUOUS
  0
LAYER
  5
78
330
2
100
AcDbSymbolTableRecord
100
AcDbLayerTableRecord
  2
63
 70
     0
 62
    63
  6
CONTINUOUS
  0
LAYER
  5
79
330
2
100
AcDbSymbolTableRecord
100
AcDbLayerTableRecord
  2
64
 70
     0
 62
    64
  6
CONTINUOUS
  0
LAYER
  5
7A
330
2
100
AcDbSymbolTableRecord
100
AcDbLayerTableRecord
  2
65
 70
     0
 62
    65
  6
CONTINUOUS
  0
LAYER
  5
7B
330
2
100
AcDbSymbolTableRecord
100
AcDbLayerTableRecord
  2
66
 70
     0
 62
    66
  6
CONTINUOUS
  0
LAYER
  5
7C
330
2
100
AcDbSymbolTableRecord
100
AcDbLayerTableRecord
  2
67
 70
     0
 62
    67
  6
CONTINUOUS
  0
LAYER
  5
7D
330
2
100
AcDbSymbolTableRecord
100
AcDbLayerTableRecord
  2
68
 70
     0
 62
    68
  6
CONTINUOUS
  0
LAYER
  5
7E
330
2
100
AcDbSymbolTableRecord
100
AcDbLayerTableRecord
  2
69
 70
     0
 62
    69
  6
CONTINUOUS
  0
LAYER
  5
7F
330
2
100
AcDbSymbolTableRecord
100
AcDbLayerTableRecord
  2
70
 70
     0
 62
    70
  6
CONTINUOUS
  0
LAYER
  5
80
330
2
100
AcDbSymbolTableRecord
100
AcDbLayerTableRecord
  2
71
 70
     0
 62
    71
  6
CONTINUOUS
  0
LAYER
  5
81
330
2
100
AcDbSymbolTableRecord
100
AcDbLayerTableRecord
  2
72
 70
     0
 62
    72
  6
CONTINUOUS
  0
LAYER
  5
82
330
2
100
AcDbSymbolTableRecord
100
AcDbLayerTableRecord
  2
73
 70
     0
 62
    73
  6
CONTINUOUS
  0
LAYER
  5
83
330
2
100
AcDbSymbolTableRecord
100
AcDbLayerTableRecord
  2
74
 70
     0
 62
    74
  6
CONTINUOUS
  0
LAYER
  5
84
330
2
100
AcDbSymbolTableRecord
100
AcDbLayerTableRecord
  2
75
 70
     0
 62
    75
  6
CONTINUOUS
  0
LAYER
  5
85
330
2
100
AcDbSymbolTableRecord
100
AcDbLayerTableRecord
  2
76
 70
     0
 62
    76
  6
CONTINUOUS
  0
LAYER
  5
86
330
2
100
AcDbSymbolTableRecord
100
AcDbLayerTableRecord
  2
77
 70
     0
 62
    77
  6
CONTINUOUS
  0
LAYER
  5
87
330
2
100
AcDbSymbolTableRecord
100
AcDbLayerTableRecord
  2
78
 70
     0
 62
    78
  6
CONTINUOUS
  0
LAYER
  5
88
330
2
100
AcDbSymbolTableRecord
100
AcDbLayerTableRecord
  2
79
 70
     0
 62
    79
  6
CONTINUOUS
  0
LAYER
  5
89
330
2
100
AcDbSymbolTableRecord
100
AcDbLayerTableRecord
  2
80
 70
     0
 62
    80
  6
CONTINUOUS
  0
LAYER
  5
8A
330
2
100
AcDbSymbolTableRecord
100
AcDbLayerTableRecord
  2
81
 70
     0
 62
    81
  6
CONTINUOUS
  0
LAYER
  5
8B
330
2
100
AcDbSymbolTableRecord
100
AcDbLayerTableRecord
  2
82
 70
     0
 62
    82
  6
CONTINUOUS
  0
LAYER
  5
8C
330
2
100
AcDbSymbolTableRecord
100
AcDbLayerTableRecord
  2
83
 70
     0
 62
    83
  6
CONTINUOUS
  0
LAYER
  5
8D
330
2
100
AcDbSymbolTableRecord
100
AcDbLayerTableRecord
  2
84
 70
     0
 62
    84
  6
CONTINUOUS
  0
LAYER
  5
8E
330
2
100
AcDbSymbolTableRecord
100
AcDbLayerTableRecord
  2
85
 70
     0
 62
    85
  6
CONTINUOUS
  0
LAYER
  5
8F
330
2
100
AcDbSymbolTableRecord
100
AcDbLayerTableRecord
  2
86
 70
     0
 62
    86
  6
CONTINUOUS
  0
LAYER
  5
90
330
2
100
AcDbSymbolTableRecord
100
AcDbLayerTableRecord
  2
87
 70
     0
 62
    87
  6
CONTINUOUS
  0
LAYER
  5
91
330
2
100
AcDbSymbolTableRecord
100
AcDbLayerTableRecord
  2
88
 70
     0
 62
    88
  6
CONTINUOUS
  0
LAYER
  5
92
330
2
100
AcDbSymbolTableRecord
100
AcDbLayerTableRecord
  2
89
 70
     0
 62
    89
  6
CONTINUOUS
  0
LAYER
  5
93
330
2
100
AcDbSymbolTableRecord
100
AcDbLayerTableRecord
  2
90
 70
     0
 62
    90
  6
CONTINUOUS
  0
LAYER
  5
94
330
2
100
AcDbSymbolTableRecord
100
AcDbLayerTableRecord
  2
91
 70
     0
 62
    91
  6
CONTINUOUS
  0
LAYER
  5
95
330
2
100
AcDbSymbolTableRecord
100
AcDbLayerTableRecord
  2
92
 70
     0
 62
    92
  6
CONTINUOUS
  0
LAYER
  5
96
330
2
100
AcDbSymbolTableRecord
100
AcDbLayerTableRecord
  2
93
 70
     0
 62
    93
  6
CONTINUOUS
  0
LAYER
  5
97
330
2
100
AcDbSymbolTableRecord
100
AcDbLayerTableRecord
  2
94
 70
     0
 62
    94
  6
CONTINUOUS
  0
LAYER
  5
98
330
2
100
AcDbSymbolTableRecord
100
AcDbLayerTableRecord
  2
95
 70
     0
 62
    95
  6
CONTINUOUS
  0
LAYER
  5
99
330
2
100
AcDbSymbolTableRecord
100
AcDbLayerTableRecord
  2
96
 70
     0
 62
    96
  6
CONTINUOUS
  0
LAYER
  5
9A
330
2
100
AcDbSymbolTableRecord
100
AcDbLayerTableRecord
  2
97
 70
     0
 62
    97
  6
CONTINUOUS
  0
LAYER
  5
9B
330
2
100
AcDbSymbolTableRecord
100
AcDbLayerTableRecord
  2
98
 70
     0
 62
    98
  6
CONTINUOUS
  0
LAYER
  5
9C
330
2
100
AcDbSymbolTableRecord
100
AcDbLayerTableRecord
  2
99
 70
     0
 62
    99
  6
CONTINUOUS
  0
LAYER
  5
9D
330
2
100
AcDbSymbolTableRecord
100
AcDbLayerTableRecord
  2
100
 70
     0
 62
   100
  6
CONTINUOUS
  0
LAYER
  5
9E
330
2
100
AcDbSymbolTableRecord
100
AcDbLayerTableRecord
  2
101
 70
     0
 62
   101
  6
CONTINUOUS
  0
LAYER
  5
9F
330
2
100
AcDbSymbolTableRecord
100
AcDbLayerTableRecord
  2
102
 70
     0
 62
   102
  6
CONTINUOUS
  0
LAYER
  5
A0
330
2
100
AcDbSymbolTableRecord
100
AcDbLayerTableRecord
  2
103
 70
     0
 62
   103
  6
CONTINUOUS
  0
LAYER
  5
A1
330
2
100
AcDbSymbolTableRecord
100
AcDbLayerTableRecord
  2
104
 70
     0
 62
   104
  6
CONTINUOUS
  0
LAYER
  5
A2
330
2
100
AcDbSymbolTableRecord
100
AcDbLayerTableRecord
  2
105
 70
     0
 62
   105
  6
CONTINUOUS
  0
LAYER
  5
A3
330
2
100
AcDbSymbolTableRecord
100
AcDbLayerTableRecord
  2
106
 70
     0
 62
   106
  6
CONTINUOUS
  0
LAYER
  5
A4
330
2
100
AcDbSymbolTableRecord
100
AcDbLayerTableRecord
  2
107
 70
     0
 62
   107
  6
CONTINUOUS
  0
LAYER
  5
A5
330
2
100
AcDbSymbolTableRecord
100
AcDbLayerTableRecord
  2
108
 70
     0
 62
   108
  6
CONTINUOUS
  0
LAYER
  5
A6
330
2
100
AcDbSymbolTableRecord
100
AcDbLayerTableRecord
  2
109
 70
     0
 62
   109
  6
CONTINUOUS
  0
LAYER
  5
A7
330
2
100
AcDbSymbolTableRecord
100
AcDbLayerTableRecord
  2
110
 70
     0
 62
   110
  6
CONTINUOUS
  0
LAYER
  5
A8
330
2
100
AcDbSymbolTableRecord
100
AcDbLayerTableRecord
  2
111
 70
     0
 62
   111
  6
CONTINUOUS
  0
LAYER
  5
A9
330
2
100
AcDbSymbolTableRecord
100
AcDbLayerTableRecord
  2
112
 70
     0
 62
   112
  6
CONTINUOUS
  0
LAYER
  5
AA
330
2
100
AcDbSymbolTableRecord
100
AcDbLayerTableRecord
  2
113
 70
     0
 62
   113
  6
CONTINUOUS
  0
LAYER
  5
AB
330
2
100
AcDbSymbolTableRecord
100
AcDbLayerTableRecord
  2
114
 70
     0
 62
   114
  6
CONTINUOUS
  0
LAYER
  5
AC
330
2
100
AcDbSymbolTableRecord
100
AcDbLayerTableRecord
  2
115
 70
     0
 62
   115
  6
CONTINUOUS
  0
LAYER
  5
AD
330
2
100
AcDbSymbolTableRecord
100
AcDbLayerTableRecord
  2
116
 70
     0
 62
   116
  6
CONTINUOUS
  0
LAYER
  5
AE
330
2
100
AcDbSymbolTableRecord
100
AcDbLayerTableRecord
  2
117
 70
     0
 62
   117
  6
CONTINUOUS
  0
LAYER
  5
AF
330
2
100
AcDbSymbolTableRecord
100
AcDbLayerTableRecord
  2
118
 70
     0
 62
   118
  6
CONTINUOUS
  0
LAYER
  5
B0
330
2
100
AcDbSymbolTableRecord
100
AcDbLayerTableRecord
  2
119
 70
     0
 62
   119
  6
CONTINUOUS
  0
LAYER
  5
B1
330
2
100
AcDbSymbolTableRecord
100
AcDbLayerTableRecord
  2
120
 70
     0
 62
   120
  6
CONTINUOUS
  0
LAYER
  5
B2
330
2
100
AcDbSymbolTableRecord
100
AcDbLayerTableRecord
  2
121
 70
     0
 62
   121
  6
CONTINUOUS
  0
LAYER
  5
B3
330
2
100
AcDbSymbolTableRecord
100
AcDbLayerTableRecord
  2
122
 70
     0
 62
   122
  6
CONTINUOUS
  0
LAYER
  5
B4
330
2
100
AcDbSymbolTableRecord
100
AcDbLayerTableRecord
  2
123
 70
     0
 62
   123
  6
CONTINUOUS
  0
LAYER
  5
B5
330
2
100
AcDbSymbolTableRecord
100
AcDbLayerTableRecord
  2
124
 70
     0
 62
   124
  6
CONTINUOUS
  0
LAYER
  5
B6
330
2
100
AcDbSymbolTableRecord
100
AcDbLayerTableRecord
  2
125
 70
     0
 62
   125
  6
CONTINUOUS
  0
LAYER
  5
B7
330
2
100
AcDbSymbolTableRecord
100
AcDbLayerTableRecord
  2
126
 70
     0
 62
   126
  6
CONTINUOUS
  0
LAYER
  5
B8
330
2
100
AcDbSymbolTableRecord
100
AcDbLayerTableRecord
  2
127
 70
     0
 62
   127
  6
CONTINUOUS
  0
LAYER
  5
B9
330
2
100
AcDbSymbolTableRecord
100
AcDbLayerTableRecord
  2
128
 70
     0
 62
   128
  6
CONTINUOUS
  0
LAYER
  5
BA
330
2
100
AcDbSymbolTableRecord
100
AcDbLayerTableRecord
  2
129
 70
     0
 62
   129
  6
CONTINUOUS
  0
LAYER
  5
BB
330
2
100
AcDbSymbolTableRecord
100
AcDbLayerTableRecord
  2
130
 70
     0
 62
   130
  6
CONTINUOUS
  0
LAYER
  5
BC
330
2
100
AcDbSymbolTableRecord
100
AcDbLayerTableRecord
  2
131
 70
     0
 62
   131
  6
CONTINUOUS
  0
LAYER
  5
BD
330
2
100
AcDbSymbolTableRecord
100
AcDbLayerTableRecord
  2
132
 70
     0
 62
   132
  6
CONTINUOUS
  0
LAYER
  5
BE
330
2
100
AcDbSymbolTableRecord
100
AcDbLayerTableRecord
  2
133
 70
     0
 62
   133
  6
CONTINUOUS
  0
LAYER
  5
BF
330
2
100
AcDbSymbolTableRecord
100
AcDbLayerTableRecord
  2
134
 70
     0
 62
   134
  6
CONTINUOUS
  0
LAYER
  5
C0
330
2
100
AcDbSymbolTableRecord
100
AcDbLayerTableRecord
  2
135
 70
     0
 62
   135
  6
CONTINUOUS
  0
LAYER
  5
C1
330
2
100
AcDbSymbolTableRecord
100
AcDbLayerTableRecord
  2
136
 70
     0
 62
   136
  6
CONTINUOUS
  0
LAYER
  5
C2
330
2
100
AcDbSymbolTableRecord
100
AcDbLayerTableRecord
  2
137
 70
     0
 62
   137
  6
CONTINUOUS
  0
LAYER
  5
C3
330
2
100
AcDbSymbolTableRecord
100
AcDbLayerTableRecord
  2
138
 70
     0
 62
   138
  6
CONTINUOUS
  0
LAYER
  5
C4
330
2
100
AcDbSymbolTableRecord
100
AcDbLayerTableRecord
  2
139
 70
     0
 62
   139
  6
CONTINUOUS
  0
LAYER
  5
C5
330
2
100
AcDbSymbolTableRecord
100
AcDbLayerTableRecord
  2
140
 70
     0
 62
   140
  6
CONTINUOUS
  0
LAYER
  5
C6
330
2
100
AcDbSymbolTableRecord
100
AcDbLayerTableRecord
  2
141
 70
     0
 62
   141
  6
CONTINUOUS
  0
LAYER
  5
C7
330
2
100
AcDbSymbolTableRecord
100
AcDbLayerTableRecord
  2
142
 70
     0
 62
   142
  6
CONTINUOUS
  0
LAYER
  5
C8
330
2
100
AcDbSymbolTableRecord
100
AcDbLayerTableRecord
  2
143
 70
     0
 62
   143
  6
CONTINUOUS
  0
LAYER
  5
C9
330
2
100
AcDbSymbolTableRecord
100
AcDbLayerTableRecord
  2
144
 70
     0
 62
   144
  6
CONTINUOUS
  0
LAYER
  5
CA
330
2
100
AcDbSymbolTableRecord
100
AcDbLayerTableRecord
  2
145
 70
     0
 62
   145
  6
CONTINUOUS
  0
LAYER
  5
CB
330
2
100
AcDbSymbolTableRecord
100
AcDbLayerTableRecord
  2
146
 70
     0
 62
   146
  6
CONTINUOUS
  0
LAYER
  5
CC
330
2
100
AcDbSymbolTableRecord
100
AcDbLayerTableRecord
  2
147
 70
     0
 62
   147
  6
CONTINUOUS
  0
LAYER
  5
CD
330
2
100
AcDbSymbolTableRecord
100
AcDbLayerTableRecord
  2
148
 70
     0
 62
   148
  6
CONTINUOUS
  0
LAYER
  5
CE
330
2
100
AcDbSymbolTableRecord
100
AcDbLayerTableRecord
  2
149
 70
     0
 62
   149
  6
CONTINUOUS
  0
LAYER
  5
CF
330
2
100
AcDbSymbolTableRecord
100
AcDbLayerTableRecord
  2
150
 70
     0
 62
   150
  6
CONTINUOUS
  0
LAYER
  5
D0
330
2
100
AcDbSymbolTableRecord
100
AcDbLayerTableRecord
  2
151
 70
     0
 62
   151
  6
CONTINUOUS
  0
LAYER
  5
D1
330
2
100
AcDbSymbolTableRecord
100
AcDbLayerTableRecord
  2
152
 70
     0
 62
   152
  6
CONTINUOUS
  0
LAYER
  5
D2
330
2
100
AcDbSymbolTableRecord
100
AcDbLayerTableRecord
  2
153
 70
     0
 62
   153
  6
CONTINUOUS
  0
LAYER
  5
D3
330
2
100
AcDbSymbolTableRecord
100
AcDbLayerTableRecord
  2
154
 70
     0
 62
   154
  6
CONTINUOUS
  0
LAYER
  5
D4
330
2
100
AcDbSymbolTableRecord
100
AcDbLayerTableRecord
  2
155
 70
     0
 62
   155
  6
CONTINUOUS
  0
LAYER
  5
D5
330
2
100
AcDbSymbolTableRecord
100
AcDbLayerTableRecord
  2
156
 70
     0
 62
   156
  6
CONTINUOUS
  0
LAYER
  5
D6
330
2
100
AcDbSymbolTableRecord
100
AcDbLayerTableRecord
  2
157
 70
     0
 62
   157
  6
CONTINUOUS
  0
LAYER
  5
D7
330
2
100
AcDbSymbolTableRecord
100
AcDbLayerTableRecord
  2
158
 70
     0
 62
   158
  6
CONTINUOUS
  0
LAYER
  5
D8
330
2
100
AcDbSymbolTableRecord
100
AcDbLayerTableRecord
  2
159
 70
     0
 62
   159
  6
CONTINUOUS
  0
LAYER
  5
D9
330
2
100
AcDbSymbolTableRecord
100
AcDbLayerTableRecord
  2
160
 70
     0
 62
   160
  6
CONTINUOUS
  0
LAYER
  5
DA
330
2
100
AcDbSymbolTableRecord
100
AcDbLayerTableRecord
  2
161
 70
     0
 62
   161
  6
CONTINUOUS
  0
LAYER
  5
DB
330
2
100
AcDbSymbolTableRecord
100
AcDbLayerTableRecord
  2
162
 70
     0
 62
   162
  6
CONTINUOUS
  0
LAYER
  5
DC
330
2
100
AcDbSymbolTableRecord
100
AcDbLayerTableRecord
  2
163
 70
     0
 62
   163
  6
CONTINUOUS
  0
LAYER
  5
DD
330
2
100
AcDbSymbolTableRecord
100
AcDbLayerTableRecord
  2
164
 70
     0
 62
   164
  6
CONTINUOUS
  0
LAYER
  5
DE
330
2
100
AcDbSymbolTableRecord
100
AcDbLayerTableRecord
  2
165
 70
     0
 62
   165
  6
CONTINUOUS
  0
LAYER
  5
DF
330
2
100
AcDbSymbolTableRecord
100
AcDbLayerTableRecord
  2
166
 70
     0
 62
   166
  6
CONTINUOUS
  0
LAYER
  5
E0
330
2
100
AcDbSymbolTableRecord
100
AcDbLayerTableRecord
  2
167
 70
     0
 62
   167
  6
CONTINUOUS
  0
LAYER
  5
E1
330
2
100
AcDbSymbolTableRecord
100
AcDbLayerTableRecord
  2
168
 70
     0
 62
   168
  6
CONTINUOUS
  0
LAYER
  5
E2
330
2
100
AcDbSymbolTableRecord
100
AcDbLayerTableRecord
  2
169
 70
     0
 62
   169
  6
CONTINUOUS
  0
LAYER
  5
E3
330
2
100
AcDbSymbolTableRecord
100
AcDbLayerTableRecord
  2
170
 70
     0
 62
   170
  6
CONTINUOUS
  0
LAYER
  5
E4
330
2
100
AcDbSymbolTableRecord
100
AcDbLayerTableRecord
  2
171
 70
     0
 62
   171
  6
CONTINUOUS
  0
LAYER
  5
E5
330
2
100
AcDbSymbolTableRecord
100
AcDbLayerTableRecord
  2
172
 70
     0
 62
   172
  6
CONTINUOUS
  0
LAYER
  5
E6
330
2
100
AcDbSymbolTableRecord
100
AcDbLayerTableRecord
  2
173
 70
     0
 62
   173
  6
CONTINUOUS
  0
LAYER
  5
E7
330
2
100
AcDbSymbolTableRecord
100
AcDbLayerTableRecord
  2
174
 70
     0
 62
   174
  6
CONTINUOUS
  0
LAYER
  5
E8
330
2
100
AcDbSymbolTableRecord
100
AcDbLayerTableRecord
  2
175
 70
     0
 62
   175
  6
CONTINUOUS
  0
LAYER
  5
E9
330
2
100
AcDbSymbolTableRecord
100
AcDbLayerTableRecord
  2
176
 70
     0
 62
   176
  6
CONTINUOUS
  0
LAYER
  5
EA
330
2
100
AcDbSymbolTableRecord
100
AcDbLayerTableRecord
  2
177
 70
     0
 62
   177
  6
CONTINUOUS
  0
LAYER
  5
EB
330
2
100
AcDbSymbolTableRecord
100
AcDbLayerTableRecord
  2
178
 70
     0
 62
   178
  6
CONTINUOUS
  0
LAYER
  5
EC
330
2
100
AcDbSymbolTableRecord
100
AcDbLayerTableRecord
  2
179
 70
     0
 62
   179
  6
CONTINUOUS
  0
LAYER
  5
ED
330
2
100
AcDbSymbolTableRecord
100
AcDbLayerTableRecord
  2
180
 70
     0
 62
   180
  6
CONTINUOUS
  0
LAYER
  5
EE
330
2
100
AcDbSymbolTableRecord
100
AcDbLayerTableRecord
  2
181
 70
     0
 62
   181
  6
CONTINUOUS
  0
LAYER
  5
EF
330
2
100
AcDbSymbolTableRecord
100
AcDbLayerTableRecord
  2
182
 70
     0
 62
   182
  6
CONTINUOUS
  0
LAYER
  5
F0
330
2
100
AcDbSymbolTableRecord
100
AcDbLayerTableRecord
  2
183
 70
     0
 62
   183
  6
CONTINUOUS
  0
LAYER
  5
F1
330
2
100
AcDbSymbolTableRecord
100
AcDbLayerTableRecord
  2
184
 70
     0
 62
   184
  6
CONTINUOUS
  0
LAYER
  5
F2
330
2
100
AcDbSymbolTableRecord
100
AcDbLayerTableRecord
  2
185
 70
     0
 62
   185
  6
CONTINUOUS
  0
LAYER
  5
F3
330
2
100
AcDbSymbolTableRecord
100
AcDbLayerTableRecord
  2
186
 70
     0
 62
   186
  6
CONTINUOUS
  0
LAYER
  5
F4
330
2
100
AcDbSymbolTableRecord
100
AcDbLayerTableRecord
  2
187
 70
     0
 62
   187
  6
CONTINUOUS
  0
LAYER
  5
F5
330
2
100
AcDbSymbolTableRecord
100
AcDbLayerTableRecord
  2
188
 70
     0
 62
   188
  6
CONTINUOUS
  0
LAYER
  5
F6
330
2
100
AcDbSymbolTableRecord
100
AcDbLayerTableRecord
  2
189
 70
     0
 62
   189
  6
CONTINUOUS
  0
LAYER
  5
F7
330
2
100
AcDbSymbolTableRecord
100
AcDbLayerTableRecord
  2
190
 70
     0
 62
   190
  6
CONTINUOUS
  0
LAYER
  5
F8
330
2
100
AcDbSymbolTableRecord
100
AcDbLayerTableRecord
  2
191
 70
     0
 62
   191
  6
CONTINUOUS
  0
LAYER
  5
F9
330
2
100
AcDbSymbolTableRecord
100
AcDbLayerTableRecord
  2
192
 70
     0
 62
   192
  6
CONTINUOUS
  0
LAYER
  5
FA
330
2
100
AcDbSymbolTableRecord
100
AcDbLayerTableRecord
  2
193
 70
     0
 62
   193
  6
CONTINUOUS
  0
LAYER
  5
FB
330
2
100
AcDbSymbolTableRecord
100
AcDbLayerTableRecord
  2
194
 70
     0
 62
   194
  6
CONTINUOUS
  0
LAYER
  5
FC
330
2
100
AcDbSymbolTableRecord
100
AcDbLayerTableRecord
  2
195
 70
     0
 62
   195
  6
CONTINUOUS
  0
LAYER
  5
FD
330
2
100
AcDbSymbolTableRecord
100
AcDbLayerTableRecord
  2
196
 70
     0
 62
   196
  6
CONTINUOUS
  0
LAYER
  5
FE
330
2
100
AcDbSymbolTableRecord
100
AcDbLayerTableRecord
  2
197
 70
     0
 62
   197
  6
CONTINUOUS
  0
LAYER
  5
FF
330
2
100
AcDbSymbolTableRecord
100
AcDbLayerTableRecord
  2
198
 70
     0
 62
   198
  6
CONTINUOUS
  0
LAYER
  5
100
330
2
100
AcDbSymbolTableRecord
100
AcDbLayerTableRecord
  2
199
 70
     0
 62
   199
  6
CONTINUOUS
  0
LAYER
  5
101
330
2
100
AcDbSymbolTableRecord
100
AcDbLayerTableRecord
  2
200
 70
     0
 62
   200
  6
CONTINUOUS
  0
LAYER
  5
102
330
2
100
AcDbSymbolTableRecord
100
AcDbLayerTableRecord
  2
201
 70
     0
 62
   201
  6
CONTINUOUS
  0
LAYER
  5
103
330
2
100
AcDbSymbolTableRecord
100
AcDbLayerTableRecord
  2
202
 70
     0
 62
   202
  6
CONTINUOUS
  0
LAYER
  5
104
330
2
100
AcDbSymbolTableRecord
100
AcDbLayerTableRecord
  2
203
 70
     0
 62
   203
  6
CONTINUOUS
  0
LAYER
  5
105
330
2
100
AcDbSymbolTableRecord
100
AcDbLayerTableRecord
  2
204
 70
     0
 62
   204
  6
CONTINUOUS
  0
LAYER
  5
106
330
2
100
AcDbSymbolTableRecord
100
AcDbLayerTableRecord
  2
205
 70
     0
 62
   205
  6
CONTINUOUS
  0
LAYER
  5
107
330
2
100
AcDbSymbolTableRecord
100
AcDbLayerTableRecord
  2
206
 70
     0
 62
   206
  6
CONTINUOUS
  0
LAYER
  5
108
330
2
100
AcDbSymbolTableRecord
100
AcDbLayerTableRecord
  2
207
 70
     0
 62
   207
  6
CONTINUOUS
  0
LAYER
  5
109
330
2
100
AcDbSymbolTableRecord
100
AcDbLayerTableRecord
  2
208
 70
     0
 62
   208
  6
CONTINUOUS
  0
LAYER
  5
10A
330
2
100
AcDbSymbolTableRecord
100
AcDbLayerTableRecord
  2
209
 70
     0
 62
   209
  6
CONTINUOUS
  0
LAYER
  5
10B
330
2
100
AcDbSymbolTableRecord
100
AcDbLayerTableRecord
  2
210
 70
     0
 62
   210
  6
CONTINUOUS
  0
LAYER
  5
10C
330
2
100
AcDbSymbolTableRecord
100
AcDbLayerTableRecord
  2
211
 70
     0
 62
   211
  6
CONTINUOUS
  0
LAYER
  5
10D
330
2
100
AcDbSymbolTableRecord
100
AcDbLayerTableRecord
  2
212
 70
     0
 62
   212
  6
CONTINUOUS
  0
LAYER
  5
10E
330
2
100
AcDbSymbolTableRecord
100
AcDbLayerTableRecord
  2
213
 70
     0
 62
   213
  6
CONTINUOUS
  0
LAYER
  5
10F
330
2
100
AcDbSymbolTableRecord
100
AcDbLayerTableRecord
  2
214
 70
     0
 62
   214
  6
CONTINUOUS
  0
LAYER
  5
110
330
2
100
AcDbSymbolTableRecord
100
AcDbLayerTableRecord
  2
215
 70
     0
 62
   215
  6
CONTINUOUS
  0
LAYER
  5
111
330
2
100
AcDbSymbolTableRecord
100
AcDbLayerTableRecord
  2
216
 70
     0
 62
   216
  6
CONTINUOUS
  0
LAYER
  5
112
330
2
100
AcDbSymbolTableRecord
100
AcDbLayerTableRecord
  2
217
 70
     0
 62
   217
  6
CONTINUOUS
  0
LAYER
  5
113
330
2
100
AcDbSymbolTableRecord
100
AcDbLayerTableRecord
  2
218
 70
     0
 62
   218
  6
CONTINUOUS
  0
LAYER
  5
114
330
2
100
AcDbSymbolTableRecord
100
AcDbLayerTableRecord
  2
219
 70
     0
 62
   219
  6
CONTINUOUS
  0
LAYER
  5
115
330
2
100
AcDbSymbolTableRecord
100
AcDbLayerTableRecord
  2
220
 70
     0
 62
   220
  6
CONTINUOUS
  0
LAYER
  5
116
330
2
100
AcDbSymbolTableRecord
100
AcDbLayerTableRecord
  2
221
 70
     0
 62
   221
  6
CONTINUOUS
  0
LAYER
  5
117
330
2
100
AcDbSymbolTableRecord
100
AcDbLayerTableRecord
  2
222
 70
     0
 62
   222
  6
CONTINUOUS
  0
LAYER
  5
118
330
2
100
AcDbSymbolTableRecord
100
AcDbLayerTableRecord
  2
223
 70
     0
 62
   223
  6
CONTINUOUS
  0
LAYER
  5
119
330
2
100
AcDbSymbolTableRecord
100
AcDbLayerTableRecord
  2
224
 70
     0
 62
   224
  6
CONTINUOUS
  0
LAYER
  5
11A
330
2
100
AcDbSymbolTableRecord
100
AcDbLayerTableRecord
  2
225
 70
     0
 62
   225
  6
CONTINUOUS
  0
LAYER
  5
11B
330
2
100
AcDbSymbolTableRecord
100
AcDbLayerTableRecord
  2
226
 70
     0
 62
   226
  6
CONTINUOUS
  0
LAYER
  5
11C
330
2
100
AcDbSymbolTableRecord
100
AcDbLayerTableRecord
  2
227
 70
     0
 62
   227
  6
CONTINUOUS
  0
LAYER
  5
11D
330
2
100
AcDbSymbolTableRecord
100
AcDbLayerTableRecord
  2
228
 70
     0
 62
   228
  6
CONTINUOUS
  0
LAYER
  5
11E
330
2
100
AcDbSymbolTableRecord
100
AcDbLayerTableRecord
  2
229
 70
     0
 62
   229
  6
CONTINUOUS
  0
LAYER
  5
11F
330
2
100
AcDbSymbolTableRecord
100
AcDbLayerTableRecord
  2
230
 70
     0
 62
   230
  6
CONTINUOUS
  0
LAYER
  5
120
330
2
100
AcDbSymbolTableRecord
100
AcDbLayerTableRecord
  2
231
 70
     0
 62
   231
  6
CONTINUOUS
  0
LAYER
  5
121
330
2
100
AcDbSymbolTableRecord
100
AcDbLayerTableRecord
  2
232
 70
     0
 62
   232
  6
CONTINUOUS
  0
LAYER
  5
122
330
2
100
AcDbSymbolTableRecord
100
AcDbLayerTableRecord
  2
233
 70
     0
 62
   233
  6
CONTINUOUS
  0
LAYER
  5
123
330
2
100
AcDbSymbolTableRecord
100
AcDbLayerTableRecord
  2
234
 70
     0
 62
   234
  6
CONTINUOUS
  0
LAYER
  5
124
330
2
100
AcDbSymbolTableRecord
100
AcDbLayerTableRecord
  2
235
 70
     0
 62
   235
  6
CONTINUOUS
  0
LAYER
  5
125
330
2
100
AcDbSymbolTableRecord
100
AcDbLayerTableRecord
  2
236
 70
     0
 62
   236
  6
CONTINUOUS
  0
LAYER
  5
126
330
2
100
AcDbSymbolTableRecord
100
AcDbLayerTableRecord
  2
237
 70
     0
 62
   237
  6
CONTINUOUS
  0
LAYER
  5
127
330
2
100
AcDbSymbolTableRecord
100
AcDbLayerTableRecord
  2
238
 70
     0
 62
   238
  6
CONTINUOUS
  0
LAYER
  5
128
330
2
100
AcDbSymbolTableRecord
100
AcDbLayerTableRecord
  2
239
 70
     0
 62
   239
  6
CONTINUOUS
  0
LAYER
  5
129
330
2
100
AcDbSymbolTableRecord
100
AcDbLayerTableRecord
  2
240
 70
     0
 62
   240
  6
CONTINUOUS
  0
LAYER
  5
12A
330
2
100
AcDbSymbolTableRecord
100
AcDbLayerTableRecord
  2
241
 70
     0
 62
   241
  6
CONTINUOUS
  0
LAYER
  5
12B
330
2
100
AcDbSymbolTableRecord
100
AcDbLayerTableRecord
  2
242
 70
     0
 62
   242
  6
CONTINUOUS
  0
LAYER
  5
12C
330
2
100
AcDbSymbolTableRecord
100
AcDbLayerTableRecord
  2
243
 70
     0
 62
   243
  6
CONTINUOUS
  0
LAYER
  5
12D
330
2
100
AcDbSymbolTableRecord
100
AcDbLayerTableRecord
  2
244
 70
     0
 62
   244
  6
CONTINUOUS
  0
LAYER
  5
12E
330
2
100
AcDbSymbolTableRecord
100
AcDbLayerTableRecord
  2
245
 70
     0
 62
   245
  6
CONTINUOUS
  0
LAYER
  5
12F
330
2
100
AcDbSymbolTableRecord
100
AcDbLayerTableRecord
  2
246
 70
     0
 62
   246
  6
CONTINUOUS
  0
LAYER
  5
130
330
2
100
AcDbSymbolTableRecord
100
AcDbLayerTableRecord
  2
247
 70
     0
 62
   247
  6
CONTINUOUS
  0
LAYER
  5
131
330
2
100
AcDbSymbolTableRecord
100
AcDbLayerTableRecord
  2
248
 70
     0
 62
   248
  6
CONTINUOUS
  0
LAYER
  5
132
330
2
100
AcDbSymbolTableRecord
100
AcDbLayerTableRecord
  2
249
 70
     0
 62
   249
  6
CONTINUOUS
  0
LAYER
  5
133
330
2
100
AcDbSymbolTableRecord
100
AcDbLayerTableRecord
  2
250
 70
     0
 62
   250
  6
CONTINUOUS
  0
LAYER
  5
134
330
2
100
AcDbSymbolTableRecord
100
AcDbLayerTableRecord
  2
251
 70
     0
 62
   251
  6
CONTINUOUS
  0
LAYER
  5
135
330
2
100
AcDbSymbolTableRecord
100
AcDbLayerTableRecord
  2
252
 70
     0
 62
   252
  6
CONTINUOUS
  0
LAYER
  5
136
330
2
100
AcDbSymbolTableRecord
100
AcDbLayerTableRecord
  2
253
 70
     0
 62
   253
  6
CONTINUOUS
  0
LAYER
  5
137
330
2
100
AcDbSymbolTableRecord
100
AcDbLayerTableRecord
  2
254
 70
     0
 62
   254
  6
CONTINUOUS
  0
LAYER
  5
138
330
2
100
AcDbSymbolTableRecord
100
AcDbLayerTableRecord
  2
255
 70
     0
 62
   255
  6
CONTINUOUS
  0
ENDTAB
  0
TABLE
  2
STYLE
  5
3
330
0
100
AcDbSymbolTable
 70
     1
  0
STYLE
  5
11
330
3
100
AcDbSymbolTableRecord
100
AcDbTextStyleTableRecord
  2
STANDARD
 70
     0
 40
0.0
 41
1.0
 50
0.0
 71
     0
 42
0.2
  3
monotxt
  4

  0
ENDTAB
  0
TABLE
  2
VIEW
  5
6
330
0
100
AcDbSymbolTable
 70
     0
  0
ENDTAB
  0
TABLE
  2
UCS
  5
7
330
0
100
AcDbSymbolTable
 70
     0
  0
ENDTAB
  0
TABLE
  2
APPID
  5
9
330
0
100
AcDbSymbolTable
 70
     1
  0
APPID
  5
12
330
9
100
AcDbSymbolTableRecord
100
AcDbRegAppTableRecord
  2
ACAD
 70
     0
  0
ENDTAB
  0
TABLE
  2
DIMSTYLE
  5
A
330
0
100
AcDbSymbolTable
 70
     1
  0
DIMSTYLE
105
152E
330
A
100
AcDbSymbolTableRecord
100
AcDbDimStyleTableRecord
  2
STANDARD
 70
     0
  3

  4

  5

  6

  7

 40
1.0
 41
0.18
 42
0.0625
 43
0.38
 44
0.18
 45
0.0
 46
0.0
 47
0.0
 48
0.0
140
0.18
141
0.09
142
0.0
143
25.4
144
1.0
145
0.0
146
1.0
147
0.09
 71
     0
 72
     0
 73
     1
 74
     1
 75
     0
 76
     0
 77
     0
 78
     0
170
     0
171
     2
172
     0
173
     0
174
     0
175
     0
176
     0
177
     0
178
     0
270
     2
271
     4
272
     4
273
     2
274
     2
340
11
275
     0
280
     0
281
     0
282
     0
283
     1
284
     0
285
     0
286
     0
287
     3
288
     0
  0
ENDTAB
  0
TABLE
  2
BLOCK_RECORD
  5
1
330
0
100
AcDbSymbolTable
 70
     0
  0
BLOCK_RECORD
  5
1E
102
{ACAD_XDICTIONARY
360
1589
102
}
330
1
100
AcDbSymbolTableRecord
100
AcDbBlockTableRecord
  2
*MODEL_SPACE
  0
BLOCK_RECORD
  5
1A
102
{ACAD_XDICTIONARY
360
1587
102
}
330
1
100
AcDbSymbolTableRecord
100
AcDbBlockTableRecord
  2
*PAPER_SPACE
  0
ENDTAB
  0
ENDSEC
  0
SECTION
  2
BLOCKS
  0
BLOCK
  5
13B
330
1E
100
AcDbEntity
  8
0
100
AcDbBlockBegin
  2
*MODEL_SPACE
 70
     0
 10
0.0
 20
0.0
 30
0.0
  3
*MODEL_SPACE
  1

  0
ENDBLK
  5
13C
330
1E
100
AcDbEntity
  8
0
100
AcDbBlockEnd
  0
BLOCK
  5
139
330
1A
100
AcDbEntity
 67
     1
  8
0
100
AcDbBlockBegin
  2
*PAPER_SPACE
 70
     0
 10
0.0
 20
0.0
 30
0.0
  3
*PAPER_SPACE
  1

  0
ENDBLK
  5
13A
330
1A
100
AcDbEntity
 67
     1
  8
0
100
AcDbBlockEnd
  0
ENDSEC
  0
SECTION
  2
ENTITIES
  0
LWPOLYLINE
  5
13E
330
1E
100
AcDbEntity
  8
7
100
AcDbPolyline
 90
        5
 70
     0
 43
0.0098425196850394
 10
22.26476377952756
 20
25.45374015748031
 10
22.28838582677165
 20
25.32972440944881
 10
22.31299212598425
 20
25.45374015748031
 10
22.33858267716535
 20
25.32972440944881
 10
22.36417322834646
 20
25.45374015748031
  0
LWPOLYLINE
  5
145
330
1E
100
AcDbEntity
  8
7
100
AcDbPolyline
 90
        8
 70
     0
 43
0.0098425196850394
 10
22.4005905511811
 20
25.40354330708661
 10
22.4005905511811
 20
25.45374015748031
 10
22.4753937007874
 20
25.45374015748031
 10
22.48720472440945
 20
25.44192913385826
 10
22.48720472440945
 20
25.41732283464567
 10
22.4753937007874
 20
25.40354330708661
 10
22.4005905511811
 20
25.40354330708661
 10
22.4005905511811
 20
25.32972440944881
  0
LWPOLYLINE
  5
14F
330
1E
100
AcDbEntity
  8
7
100
AcDbPolyline
 90
        5
 70
     0
 43
0.0098425196850394
 10
22.4005905511811
 20
25.32972440944881
 10
22.47342519685039
 20
25.32972440944881
 10
22.49901574803149
 20
25.34153543307086
 10
22.49901574803149
 20
25.39173228346456
 10
22.4753937007874
 20
25.40354330708661
  0
LINE
  5
156
330
1E
100
AcDbEntity
  8
7
100
AcDbLine
 10
22.53740157480315
 20
25.32972440944881
 30
0.0
 11
22.53740157480315
 21
25.45374015748031
 31
0.0
  0
LINE
  5
157
330
1E
100
AcDbEntity
  8
7
100
AcDbLine
 10
22.63582677165354
 20
25.39173228346456
 30
0.0
 11
22.53740157480315
 21
25.39173228346456
 31
0.0
  0
LINE
  5
158
330
1E
100
AcDbEntity
  8
7
100
AcDbLine
 10
22.63582677165354
 20
25.32972440944881
 30
0.0
 11
22.63582677165354
 21
25.45374015748031
 31
0.0
  0
LINE
  5
159
330
1E
100
AcDbEntity
  8
7
100
AcDbLine
 10
22.67322834645669
 20
25.34153543307086
 30
0.0
 11
22.69685039370079
 21
25.32972440944881
 31
0.0
  0
LWPOLYLINE
  5
15A
330
1E
100
AcDbEntity
  8
7
100
AcDbPolyline
 90
        6
 70
     0
 43
0.0098425196850394
 10
22.69685039370079
 20
25.32972440944881
 10
22.74803149606299
 20
25.32972440944881
 10
22.77263779527559
 20
25.34153543307086
 10
22.77263779527559
 20
25.37893700787401
 10
22.74803149606299
 20
25.39173228346456
 10
22.70964566929134
 20
25.39173228346456
  0
LWPOLYLINE
  5
162
330
1E
100
AcDbEntity
  8
7
100
AcDbPolyline
 90
        6
 70
     0
 43
0.0098425196850394
 10
22.74803149606299
 20
25.39173228346456
 10
22.77263779527559
 20
25.40354330708661
 10
22.77263779527559
 20
25.44192913385826
 10
22.74803149606299
 20
25.45374015748031
 10
22.69685039370079
 20
25.45374015748031
 10
22.67224409448818
 20
25.44192913385826
  0
LWPOLYLINE
  5
16A
330
1E
100
AcDbEntity
  8
7
100
AcDbPolyline
 90
        3
 70
     0
 43
0.0098425196850394
 10
22.19488188976378
 20
25.20374015748031
 10
22.19488188976378
 20
25.26476377952755
 10
22.21948818897637
 20
25.20374015748031
  0
LWPOLYLINE
  5
16F
330
1E
100
AcDbEntity
  8
7
100
AcDbPolyline
 90
        3
 70
     0
 43
0.0098425196850394
 10
22.21948818897637
 20
25.20374015748031
 10
22.24409448818897
 20
25.26476377952755
 10
22.24409448818897
 20
25.20374015748031
  0
LWPOLYLINE
  5
174
330
1E
100
AcDbEntity
  8
7
100
AcDbPolyline
 90
        3
 70
     0
 43
0.0098425196850394
 10
22.26279527559055
 20
25.20374015748031
 10
22.28740157480315
 20
25.26476377952755
 10
22.31200787401574
 20
25.20374015748031
  0
LINE
  5
179
330
1E
100
AcDbEntity
  8
7
100
AcDbLine
 10
22.2746062992126
 20
25.23425196850393
 30
0.0
 11
22.3001968503937
 21
25.23425196850393
 31
0.0
  0
LWPOLYLINE
  5
17A
330
1E
100
AcDbEntity
  8
7
100
AcDbPolyline
 90
        7
 70
     0
 43
0.0098425196850394
 10
22.33070866141732
 20
25.20374015748031
 10
22.36712598425197
 20
25.20374015748031
 10
22.37992125984252
 20
25.21555118110236
 10
22.37992125984252
 20
25.25295275590551
 10
22.36712598425197
 20
25.26476377952755
 10
22.33070866141732
 20
25.26476377952755
 10
22.33070866141732
 20
25.20374015748031
  0
LWPOLYLINE
  5
183
330
1E
100
AcDbEntity
  8
7
100
AcDbPolyline
 90
        4
 70
     0
 43
0.0098425196850394
 10
22.44881889763779
 20
25.20374015748031
 10
22.39862204724409
 20
25.20374015748031
 10
22.39862204724409
 20
25.26476377952755
 10
22.44881889763779
 20
25.26476377952755
  0
LINE
  5
189
330
1E
100
AcDbEntity
  8
7
100
AcDbLine
 10
22.43602362204724
 20
25.23425196850393
 30
0.0
 11
22.39862204724409
 21
25.23425196850393
 31
0.0
  0
LINE
  5
18A
330
1E
100
AcDbEntity
  8
7
100
AcDbLine
 10
22.55314960629921
 20
25.20374015748031
 30
0.0
 11
22.56594488188976
 21
25.20374015748031
 31
0.0
  0
LINE
  5
18B
330
1E
100
AcDbEntity
  8
7
100
AcDbLine
 10
22.56003937007874
 20
25.26476377952755
 30
0.0
 11
22.56003937007874
 21
25.20374015748031
 31
0.0
  0
LINE
  5
18C
330
1E
100
AcDbEntity
  8
7
100
AcDbLine
 10
22.55314960629921
 20
25.26476377952755
 30
0.0
 11
22.56594488188976
 21
25.26476377952755
 31
0.0
  0
LWPOLYLINE
  5
18D
330
1E
100
AcDbEntity
  8
7
100
AcDbPolyline
 90
        4
 70
     0
 43
0.0098425196850394
 10
22.60334645669291
 20
25.20374015748031
 10
22.60334645669291
 20
25.26476377952755
 10
22.65255905511811
 20
25.20374015748031
 10
22.65255905511811
 20
25.26476377952755
  0
LWPOLYLINE
  5
193
330
1E
100
AcDbEntity
  8
7
100
AcDbPolyline
 90
        6
 70
     0
 43
0.0098425196850394
 10
22.73917322834646
 20
25.26476377952755
 10
22.73917322834646
 20
25.21555118110236
 10
22.7509842519685
 20
25.20374015748031
 10
22.7755905511811
 20
25.20374015748031
 10
22.78838582677165
 20
25.21555118110236
 10
22.78838582677165
 20
25.26476377952755
  0
LWPOLYLINE
  5
19B
330
1E
100
AcDbEntity
  8
7
100
AcDbPolyline
 90
        5
 70
     0
 43
0.0098425196850394
 10
22.80708661417322
 20
25.20964566929134
 10
22.81889763779527
 20
25.20374015748031
 10
22.84448818897637
 20
25.20374015748031
 10
22.85728346456692
 20
25.20964566929134
 10
22.85728346456692
 20
25.22834645669291
  0
LWPOLYLINE
  5
1A2
330
1E
100
AcDbEntity
  8
7
100
AcDbPolyline
 90
        8
 70
     0
 43
0.0098425196850394
 10
22.85728346456692
 20
25.22834645669291
 10
22.84448818897637
 20
25.23425196850393
 10
22.81988188976378
 20
25.23425196850393
 10
22.80708661417322
 20
25.24015748031496
 10
22.80708661417322
 20
25.25885826771653
 10
22.81988188976378
 20
25.26476377952755
 10
22.84448818897637
 20
25.26476377952755
 10
22.85728346456692
 20
25.25885826771653
  0
LWPOLYLINE
  5
1AC
330
1E
100
AcDbEntity
  8
7
100
AcDbPolyline
 90
        3
 70
     0
 43
0.0098425196850394
 10
22.8759842519685
 20
25.20374015748031
 10
22.9005905511811
 20
25.26476377952755
 10
22.9251968503937
 20
25.20374015748031
  0
LINE
  5
1B1
330
1E
100
AcDbEntity
  8
7
100
AcDbLine
 10
22.88779527559055
 20
25.23425196850393
 30
0.0
 11
22.91240157480315
 21
25.23425196850393
 31
0.0
  0
LWPOLYLINE
  5
1B2
330
1E
100
AcDbEntity
  8
7
100
AcDbPolyline
 90
       15
 70
     0
 43
0.0098425196850394
 10
22.10629921259842
 20
25.09055118110236
 10
22.11220472440944
 20
25.08464566929133
 10
22.1003937007874
 20
25.07874015748031
 10
22.08759842519685
 20
25.07874015748031
 10
22.0757874015748
 20
25.08464566929133
 10
22.06889763779527
 20
25.09645669291338
 10
22.06889763779527
 20
25.12204724409448
 10
22.0757874015748
 20
25.13385826771653
 10
22.08759842519685
 20
25.13976377952756
 10
22.1003937007874
 20
25.13976377952756
 10
22.11220472440944
 20
25.13385826771653
 10
22.11909448818897
 20
25.12204724409448
 10
22.11909448818897
 20
25.09744094488189
 10
22.11220472440944
 20
25.08464566929133
 10
22.11909448818897
 20
25.07874015748031
  0
LINE
  5
1C3
330
1E
100
AcDbEntity
  8
7
100
AcDbLine
 10
22.15551181102362
 20
25.07874015748031
 30
0.0
 11
22.16830708661417
 21
25.07874015748031
 31
0.0
  0
LWPOLYLINE
  5
1C4
330
1E
100
AcDbEntity
  8
7
100
AcDbPolyline
 90
        4
 70
     0
 43
0.0098425196850394
 10
22.16830708661417
 20
25.07874015748031
 10
22.16830708661417
 20
25.09055118110236
 10
22.15551181102362
 20
25.09055118110236
 10
22.15551181102362
 20
25.07874015748031
  0
LWPOLYLINE
  5
1CA
330
1E
100
AcDbEntity
  8
7
100
AcDbPolyline
 90
        8
 70
     0
 43
0.0098425196850394
 10
22.25492125984252
 20
25.09055118110236
 10
22.24212598425197
 20
25.07874015748031
 10
22.21850393700787
 20
25.07874015748031
 10
22.20570866141732
 20
25.09055118110236
 10
22.20570866141732
 20
25.12795275590551
 10
22.21850393700787
 20
25.13976377952756
 10
22.24311023622047
 20
25.13976377952756
 10
22.25492125984252
 20
25.12795275590551
  0
LINE
  5
1D4
330
1E
100
AcDbEntity
  8
7
100
AcDbLine
 10
22.28543307086614
 20
25.08464566929133
 30
0.0
 11
22.29822834645669
 21
25.13385826771653
 31
0.0
  0
LINE
  5
1D5
330
1E
100
AcDbEntity
  8
7
100
AcDbLine
 10
22.31102362204724
 20
25.13385826771653
 30
0.0
 11
22.29822834645669
 21
25.08464566929133
 31
0.0
  0
LINE
  5
1D6
330
1E
100
AcDbEntity
  8
7
100
AcDbLine
 10
22.31692913385827
 20
25.10334645669291
 30
0.0
 11
22.27952755905512
 21
25.10334645669291
 31
0.0
  0
LINE
  5
1D7
330
1E
100
AcDbEntity
  8
7
100
AcDbLine
 10
22.31692913385827
 20
25.11515748031496
 30
0.0
 11
22.27952755905512
 21
25.11515748031496
 31
0.0
  0
LINE
  5
1D8
330
1E
100
AcDbEntity
  8
7
100
AcDbLine
 10
26.96358267716535
 20
27.9015748031496
 30
0.0
 11
26.92716535433071
 21
27.9015748031496
 31
0.0
  0
LINE
  5
1D9
330
1E
100
AcDbEntity
  8
7
100
AcDbLine
 10
26.96358267716535
 20
25.15157480314961
 30
0.0
 11
26.92716535433071
 21
25.15157480314961
 31
0.0
  0
LINE
  5
1DA
330
1E
100
AcDbEntity
  8
7
100
AcDbLine
 10
6.678149606299212
 20
28.43208661417323
 30
0.0
 11
6.678149606299212
 21
28.41240157480314
 31
0.0
  0
LINE
  5
1DB
330
1E
100
AcDbEntity
  8
7
100
AcDbLine
 10
6.678149606299212
 20
27.90551181102362
 30
0.0
 11
6.678149606299212
 21
27.88484251968504
 31
0.0
  0
LINE
  5
1DC
330
1E
100
AcDbEntity
  8
7
100
AcDbLine
 10
6.678149606299212
 20
27.37795275590551
 30
0.0
 11
6.678149606299212
 21
27.35826771653543
 31
0.0
  0
LINE
  5
1DD
330
1E
100
AcDbEntity
  8
7
100
AcDbLine
 10
6.678149606299212
 20
26.8513779527559
 30
0.0
 11
6.678149606299212
 21
26.83169291338582
 31
0.0
  0
LINE
  5
1DE
330
1E
100
AcDbEntity
  8
7
100
AcDbLine
 10
6.678149606299212
 20
26.3248031496063
 30
0.0
 11
6.678149606299212
 21
26.30413385826771
 31
0.0
  0
LINE
  5
1DF
330
1E
100
AcDbEntity
  8
7
100
AcDbLine
 10
6.678149606299212
 20
25.79724409448818
 30
0.0
 11
6.678149606299212
 21
25.77755905511811
 31
0.0
  0
LINE
  5
1E0
330
1E
100
AcDbEntity
  8
7
100
AcDbLine
 10
6.678149606299212
 20
25.27066929133858
 30
0.0
 11
6.678149606299212
 21
25.25
 31
0.0
  0
LINE
  5
1E1
330
1E
100
AcDbEntity
  8
7
100
AcDbLine
 10
6.678149606299212
 20
24.74311023622047
 30
0.0
 11
6.678149606299212
 21
24.72342519685039
 31
0.0
  0
LINE
  5
1E2
330
1E
100
AcDbEntity
  8
7
100
AcDbLine
 10
6.803149606299212
 20
24.72342519685039
 30
0.0
 11
6.803149606299212
 21
24.74311023622047
 31
0.0
  0
LINE
  5
1E3
330
1E
100
AcDbEntity
  8
7
100
AcDbLine
 10
6.803149606299212
 20
25.25
 30
0.0
 11
6.803149606299212
 21
25.27066929133858
 31
0.0
  0
LINE
  5
1E4
330
1E
100
AcDbEntity
  8
7
100
AcDbLine
 10
6.803149606299212
 20
25.77755905511811
 30
0.0
 11
6.803149606299212
 21
25.79724409448818
 31
0.0
  0
LINE
  5
1E5
330
1E
100
AcDbEntity
  8
7
100
AcDbLine
 10
6.803149606299212
 20
26.30413385826771
 30
0.0
 11
6.803149606299212
 21
26.3248031496063
 31
0.0
  0
LINE
  5
1E6
330
1E
100
AcDbEntity
  8
7
100
AcDbLine
 10
6.803149606299212
 20
26.83169291338582
 30
0.0
 11
6.803149606299212
 21
26.8513779527559
 31
0.0
  0
LINE
  5
1E7
330
1E
100
AcDbEntity
  8
7
100
AcDbLine
 10
6.803149606299212
 20
27.35826771653543
 30
0.0
 11
6.803149606299212
 21
27.37795275590551
 31
0.0
  0
LINE
  5
1E8
330
1E
100
AcDbEntity
  8
7
100
AcDbLine
 10
6.803149606299212
 20
27.88484251968504
 30
0.0
 11
6.803149606299212
 21
27.90551181102362
 31
0.0
  0
LINE
  5
1E9
330
1E
100
AcDbEntity
  8
7
100
AcDbLine
 10
6.803149606299212
 20
28.41240157480314
 30
0.0
 11
6.803149606299212
 21
28.43208661417323
 31
0.0
  0
LINE
  5
1EA
330
1E
100
AcDbEntity
  8
7
100
AcDbLine
 10
6.609251968503936
 20
26.83169291338582
 30
0.0
 11
6.609251968503936
 21
26.3248031496063
 31
0.0
  0
LINE
  5
1EB
330
1E
100
AcDbEntity
  8
7
100
AcDbLine
 10
6.609251968503936
 20
28.93897637795275
 30
0.0
 11
6.609251968503936
 21
28.43208661417323
 31
0.0
  0
LINE
  5
1EC
330
1E
100
AcDbEntity
  8
7
100
AcDbLine
 10
6.609251968503936
 20
27.88582677165354
 30
0.0
 11
6.609251968503936
 21
27.37795275590551
 31
0.0
  0
LINE
  5
1ED
330
1E
100
AcDbEntity
  8
7
100
AcDbLine
 10
6.609251968503936
 20
25.77755905511811
 30
0.0
 11
6.609251968503936
 21
25.27066929133858
 31
0.0
  0
LINE
  5
1EE
330
1E
100
AcDbEntity
  8
7
100
AcDbLine
 10
6.609251968503936
 20
24.72342519685039
 30
0.0
 11
6.609251968503936
 21
24.21653543307086
 31
0.0
  0
LINE
  5
1EF
330
1E
100
AcDbEntity
  8
7
100
AcDbLine
 10
6.609251968503936
 20
27.35826771653543
 30
0.0
 11
6.609251968503936
 21
26.8513779527559
 31
0.0
  0
LINE
  5
1F0
330
1E
100
AcDbEntity
  8
7
100
AcDbLine
 10
6.609251968503936
 20
25.25
 30
0.0
 11
6.609251968503936
 21
24.74311023622047
 31
0.0
  0
LINE
  5
1F1
330
1E
100
AcDbEntity
  8
7
100
AcDbLine
 10
6.609251968503936
 20
28.41240157480314
 30
0.0
 11
6.609251968503936
 21
27.90551181102362
 31
0.0
  0
LINE
  5
1F2
330
1E
100
AcDbEntity
  8
7
100
AcDbLine
 10
6.609251968503936
 20
26.30413385826771
 30
0.0
 11
6.609251968503936
 21
25.79724409448818
 31
0.0
  0
LWPOLYLINE
  5
1F3
330
1E
100
AcDbEntity
  8
7
100
AcDbPolyline
 90
        3
 70
     0
 43
0.0098425196850394
 10
26.96259842519685
 20
28.0255905511811
 10
26.95964566929134
 20
28.03937007874015
 10
26.95570866141732
 20
28.05314960629921
  0
LINE
  5
1F8
330
1E
100
AcDbEntity
  8
7
100
AcDbLine
 10
26.93602362204724
 20
28.09251968503937
 30
0.0
 11
26.91240157480315
 21
28.11811023622047
 31
0.0
  0
LWPOLYLINE
  5
1F9
330
1E
100
AcDbEntity
  8
7
100
AcDbPolyline
 90
        4
 70
     0
 43
0.0098425196850394
 10
26.91240157480315
 20
28.11811023622047
 10
26.88385826771654
 20
28.13681102362204
 10
26.8513779527559
 20
28.14862204724409
 10
26.81791338582677
 20
28.15255905511811
  0
LWPOLYLINE
  5
1FF
330
1E
100
AcDbEntity
  8
7
100
AcDbPolyline
 90
        6
 70
     0
 43
0.0098425196850394
 10
26.81791338582677
 20
27.75393700787401
 10
26.85629921259842
 20
27.75885826771653
 10
26.89173228346456
 20
27.77460629921259
 10
26.92224409448819
 20
27.79822834645669
 10
26.94586614173228
 20
27.82972440944881
 10
26.95964566929134
 20
27.86515748031495
  0
LWPOLYLINE
  5
207
330
1E
100
AcDbEntity
  8
7
100
AcDbPolyline
 90
        3
 70
     0
 43
0.0098425196850394
 10
26.96259842519685
 20
25.2755905511811
 10
26.95964566929134
 20
25.28937007874015
 10
26.95570866141732
 20
25.30314960629921
  0
LWPOLYLINE
  5
20C
330
1E
100
AcDbEntity
  8
7
100
AcDbPolyline
 90
        5
 70
     0
 43
0.0098425196850394
 10
26.93602362204724
 20
25.34251968503937
 10
26.91240157480315
 20
25.36811023622047
 10
26.88385826771654
 20
25.38681102362204
 10
26.8513779527559
 20
25.39862204724409
 10
26.81791338582677
 20
25.40255905511811
  0
LINE
  5
213
330
1E
100
AcDbEntity
  8
7
100
AcDbLine
 10
26.81791338582677
 20
25.00393700787401
 30
0.0
 11
26.85629921259842
 21
25.00885826771653
 31
0.0
  0
LWPOLYLINE
  5
214
330
1E
100
AcDbEntity
  8
7
100
AcDbPolyline
 90
        5
 70
     0
 43
0.0098425196850394
 10
26.85629921259842
 20
25.00885826771653
 10
26.89173228346456
 20
25.02460629921259
 10
26.92224409448819
 20
25.04822834645669
 10
26.94586614173228
 20
25.07972440944882
 10
26.95964566929134
 20
25.11515748031496
  0
LINE
  5
21B
330
1E
100
AcDbEntity
  8
7
100
AcDbLine
 10
20.56692913385826
 20
24.95374015748031
 30
0.0
 11
23.05905511811023
 21
24.95374015748031
 31
0.0
  0
LWPOLYLINE
  5
21C
330
1E
100
AcDbEntity
  8
7
100
AcDbPolyline
 90
        3
 70
     0
 43
0.0098425196850394
 10
22.02460629921259
 20
25.38976377952756
 10
22.02460629921259
 20
25.01771653543307
 10
20.62893700787401
 20
25.01771653543307
  0
LINE
  5
221
330
1E
100
AcDbEntity
  8
7
100
AcDbLine
 10
22.02460629921259
 20
25.38976377952756
 30
0.0
 11
20.62893700787401
 21
25.38976377952756
 31
0.0
  0
LINE
  5
222
330
1E
100
AcDbEntity
  8
7
100
AcDbLine
 10
20.62893700787401
 20
25.01771653543307
 30
0.0
 11
20.62893700787401
 21
25.38976377952756
 31
0.0
  0
LINE
  5
223
330
1E
100
AcDbEntity
  8
7
100
AcDbLine
 10
20.98818897637795
 20
25.39074803149606
 30
0.0
 11
20.98818897637795
 21
25.01771653543307
 31
0.0
  0
LWPOLYLINE
  5
224
330
1E
100
AcDbEntity
  8
7
100
AcDbPolyline
 90
       10
 70
     0
 43
0.0098425196850394
 10
21.56299212598425
 20
25.2273622047244
 10
21.56299212598425
 20
25.13582677165354
 10
21.57874015748031
 20
25.13582677165354
 10
21.57972440944881
 20
25.13582677165354
 10
21.58169291338583
 20
25.13681102362204
 10
21.58267716535433
 20
25.13779527559055
 10
21.58464566929134
 20
25.13976377952756
 10
21.58562992125984
 20
25.14271653543307
 10
21.58661417322834
 20
25.14468503937008
 10
21.58661417322834
 20
25.14763779527559
  0
LWPOLYLINE
  5
230
330
1E
100
AcDbEntity
  8
7
100
AcDbPolyline
 90
       11
 70
     0
 43
0.0098425196850394
 10
21.58661417322834
 20
25.14763779527559
 10
21.58661417322834
 20
25.21555118110236
 10
21.58661417322834
 20
25.21850393700787
 10
21.58562992125984
 20
25.22047244094488
 10
21.58464566929134
 20
25.22244094488188
 10
21.58366141732283
 20
25.22440944881889
 10
21.58169291338583
 20
25.2253937007874
 10
21.58070866141732
 20
25.2263779527559
 10
21.57874015748031
 20
25.2273622047244
 10
21.5767716535433
 20
25.2273622047244
 10
21.56299212598425
 20
25.2273622047244
  0
LWPOLYLINE
  5
23D
330
1E
100
AcDbEntity
  8
7
100
AcDbPolyline
 90
        6
 70
     0
 43
0.0098425196850394
 10
20.80905511811023
 20
25.32283464566929
 10
20.81692913385827
 20
25.31003937007874
 10
20.82381889763779
 20
25.29527559055118
 10
20.83070866141732
 20
25.2755905511811
 10
20.83267716535433
 20
25.26377952755905
 10
20.83464566929134
 20
25.25196850393701
  0
LWPOLYLINE
  5
245
330
1E
100
AcDbEntity
  8
7
100
AcDbPolyline
 90
       17
 70
     0
 43
0.0098425196850394
 10
20.83464566929134
 20
25.25196850393701
 10
20.83464566929134
 20
25.24015748031496
 10
20.83366141732283
 20
25.2273622047244
 10
20.83169291338582
 20
25.21358267716535
 10
20.8257874015748
 20
25.19783464566929
 10
20.81988188976378
 20
25.18405511811023
 10
20.81003937007874
 20
25.16929133858267
 10
20.80708661417323
 20
25.17125984251968
 10
20.81594488188976
 20
25.18602362204724
 10
20.82283464566929
 20
25.1998031496063
 10
20.82775590551181
 20
25.21358267716535
 10
20.82972440944881
 20
25.2273622047244
 10
20.83070866141732
 20
25.24015748031496
 10
20.83070866141732
 20
25.25196850393701
 10
20.82874015748031
 20
25.26377952755905
 10
20.82677165354331
 20
25.27460629921259
 10
20.82086614173228
 20
25.29330708661417
  0
LWPOLYLINE
  5
258
330
1E
100
AcDbEntity
  8
7
100
AcDbPolyline
 90
        4
 70
     0
 43
0.0098425196850394
 10
20.82086614173228
 20
25.29330708661417
 10
20.81299212598425
 20
25.30807086614173
 10
20.80511811023622
 20
25.31988188976377
 10
20.80905511811023
 20
25.32283464566929
  0
LWPOLYLINE
  5
25E
330
1E
100
AcDbEntity
  8
7
100
AcDbPolyline
 90
        3
 70
     0
 43
0.0098425196850394
 10
21.34940944881889
 20
25.14960629921259
 10
21.30708661417322
 20
25.26181102362205
 10
21.25590551181102
 20
25.26181102362205
  0
LWPOLYLINE
  5
263
330
1E
100
AcDbEntity
  8
7
100
AcDbPolyline
 90
       10
 70
     0
 43
0.0098425196850394
 10
20.76870078740157
 20
25.15354330708661
 10
20.87696850393701
 20
25.15354330708661
 10
20.88681102362204
 20
25.15452755905512
 10
20.89566929133858
 20
25.15649606299212
 10
20.90452755905511
 20
25.15846456692913
 10
20.90944881889764
 20
25.15944881889764
 10
20.91338582677165
 20
25.16141732283464
 10
20.92224409448819
 20
25.16535433070866
 10
20.9261811023622
 20
25.16732283464567
 10
20.93011811023622
 20
25.16929133858267
  0
ARC
  5
26F
330
1E
100
AcDbEntity
  8
7
100
AcDbCircle
 10
20.88339480926534
 20
25.2443190505313
 30
0.0
 40
0.0883867886839504
100
AcDbArc
 50
301.907411862448
 51
24.87314971235995
  0
LWPOLYLINE
  5
270
330
1E
100
AcDbEntity
  8
7
100
AcDbPolyline
 90
       20
 70
     0
 43
0.0098425196850394
 10
20.96358267716535
 20
25.28149606299212
 10
20.95964566929134
 20
25.28937007874015
 10
20.95472440944881
 20
25.29625984251968
 10
20.95275590551181
 20
25.3001968503937
 10
20.9498031496063
 20
25.30314960629921
 10
20.94685039370078
 20
25.30708661417323
 10
20.94389763779527
 20
25.30905511811023
 10
20.94094488188976
 20
25.31299212598425
 10
20.93799212598425
 20
25.31594488188976
 10
20.93405511811023
 20
25.31791338582677
 10
20.93110236220472
 20
25.32086614173228
 10
20.92716535433071
 20
25.32283464566929
 10
20.92322834645669
 20
25.3248031496063
 10
20.91929133858267
 20
25.3267716535433
 10
20.91535433070866
 20
25.32874015748031
 10
20.90748031496063
 20
25.33169291338582
 10
20.90255905511811
 20
25.33366141732283
 10
20.89763779527559
 20
25.33464566929133
 10
20.89271653543307
 20
25.33464566929133
 10
20.88877952755905
 20
25.33562992125984
  0
LWPOLYLINE
  5
286
330
1E
100
AcDbEntity
  8
7
100
AcDbPolyline
 90
        6
 70
     0
 43
0.0098425196850394
 10
20.88877952755905
 20
25.33562992125984
 10
20.87795275590551
 20
25.33661417322834
 10
20.64468503937008
 20
25.33661417322834
 10
20.64468503937008
 20
25.07185039370078
 10
20.76870078740157
 20
25.07185039370078
 10
20.76870078740157
 20
25.15354330708661
  0
LWPOLYLINE
  5
28E
330
1E
100
AcDbEntity
  8
7
100
AcDbPolyline
 90
       11
 70
     0
 43
0.0098425196850394
 10
21.25590551181102
 20
25.26181102362205
 10
21.25393700787401
 20
25.26771653543307
 10
21.2509842519685
 20
25.27460629921259
 10
21.24803149606299
 20
25.28051181102362
 10
21.24409448818898
 20
25.28641732283464
 10
21.24212598425196
 20
25.28838582677165
 10
21.24015748031496
 20
25.29133858267716
 10
21.23622047244094
 20
25.29625984251968
 10
21.23326771653543
 20
25.29822834645669
 10
21.23031496062992
 20
25.3001968503937
 10
21.2244094488189
 20
25.30413385826771
  0
LWPOLYLINE
  5
29B
330
1E
100
AcDbEntity
  8
7
100
AcDbPolyline
 90
       17
 70
     0
 43
0.0098425196850394
 10
21.2244094488189
 20
25.30413385826771
 10
21.21751968503937
 20
25.30708661417323
 10
21.21062992125984
 20
25.30905511811023
 10
21.20669291338582
 20
25.31003937007874
 10
21.20374015748031
 20
25.31102362204724
 10
21.19488188976378
 20
25.31200787401575
 10
21.18996062992125
 20
25.31299212598425
 10
21.18602362204724
 20
25.31299212598425
 10
21.03444881889763
 20
25.31299212598425
 10
21.03444881889763
 20
25.09547244094488
 10
21.13090551181102
 20
25.09547244094488
 10
21.13090551181102
 20
25.16633858267717
 10
21.18799212598425
 20
25.16633858267717
 10
21.19586614173228
 20
25.16633858267717
 10
21.19980314960629
 20
25.16633858267717
 10
21.20374015748031
 20
25.16732283464567
 10
21.21751968503937
 20
25.17125984251968
  0
LINE
  5
2AE
330
1E
100
AcDbEntity
  8
7
100
AcDbLine
 10
21.34940944881889
 20
25.26181102362205
 30
0.0
 11
21.34940944881889
 21
25.14960629921259
 31
0.0
  0
LWPOLYLINE
  5
2AF
330
1E
100
AcDbEntity
  8
7
100
AcDbPolyline
 90
       13
 70
     0
 43
0.0098425196850394
 10
20.88090551181102
 20
25.25196850393701
 10
20.87795275590551
 20
25.2509842519685
 10
20.86909448818897
 20
25.24606299212598
 10
20.85433070866141
 20
25.24114173228346
 10
20.83562992125984
 20
25.23622047244094
 10
20.81299212598425
 20
25.23425196850393
 10
20.79921259842519
 20
25.23326771653543
 10
20.78641732283464
 20
25.23523622047244
 10
20.77263779527559
 20
25.23622047244094
 10
20.75885826771653
 20
25.24015748031496
 10
20.74311023622047
 20
25.24507874015748
 10
20.72834645669291
 20
25.25196850393701
 10
20.73031496062992
 20
25.25492125984252
  0
LWPOLYLINE
  5
2BE
330
1E
100
AcDbEntity
  8
7
100
AcDbPolyline
 90
       13
 70
     0
 43
0.0098425196850394
 10
20.73031496062992
 20
25.25492125984252
 10
20.74507874015748
 20
25.24803149606299
 10
20.75984251968504
 20
25.24409448818897
 10
20.77362204724409
 20
25.24015748031496
 10
20.78641732283464
 20
25.23818897637795
 10
20.79921259842519
 20
25.23720472440944
 10
20.81200787401574
 20
25.23720472440944
 10
20.83464566929134
 20
25.24015748031496
 10
20.85236220472441
 20
25.24507874015748
 10
20.86614173228346
 20
25.24901574803149
 10
20.87499999999999
 20
25.25393700787401
 10
20.87893700787402
 20
25.25590551181102
 10
20.88090551181102
 20
25.25196850393701
  0
LWPOLYLINE
  5
2CD
330
1E
100
AcDbEntity
  8
7
100
AcDbPolyline
 90
        5
 70
     0
 43
0.0098425196850394
 10
21.13582677165354
 20
25.27952755905511
 10
21.13582677165354
 20
25.20177165354331
 10
21.15354330708661
 20
25.20177165354331
 10
21.15649606299212
 20
25.20177165354331
 10
21.15748031496063
 20
25.20275590551181
  0
LWPOLYLINE
  5
2D4
330
1E
100
AcDbEntity
  8
7
100
AcDbPolyline
 90
       15
 70
     0
 43
0.0098425196850394
 10
21.15748031496063
 20
25.20275590551181
 10
21.15944881889763
 20
25.20374015748031
 10
21.16141732283464
 20
25.20570866141732
 10
21.16338582677165
 20
25.20866141732283
 10
21.16437007874016
 20
25.21062992125984
 10
21.16437007874016
 20
25.21259842519685
 10
21.16437007874016
 20
25.26870078740157
 10
21.16338582677165
 20
25.27165354330708
 10
21.16240157480315
 20
25.27362204724409
 10
21.16240157480315
 20
25.2755905511811
 10
21.16141732283464
 20
25.2765748031496
 10
21.15944881889763
 20
25.27854330708661
 10
21.15649606299212
 20
25.27952755905511
 10
21.15354330708661
 20
25.27952755905511
 10
21.13582677165354
 20
25.27952755905511
  0
LWPOLYLINE
  5
2E5
330
1E
100
AcDbEntity
  8
7
100
AcDbPolyline
 90
        4
 70
     0
 43
0.0098425196850394
 10
21.79232283464567
 20
25.26181102362205
 10
21.84547244094488
 20
25.26181102362205
 10
21.84547244094488
 20
25.09448818897638
 10
21.79232283464567
 20
25.09448818897638
  0
LINE
  5
2EB
330
1E
100
AcDbEntity
  8
7
100
AcDbLine
 10
21.79232283464567
 20
25.09448818897638
 30
0.0
 11
21.79232283464567
 21
25.26181102362205
 31
0.0
  0
LWPOLYLINE
  5
2EC
330
1E
100
AcDbEntity
  8
7
100
AcDbPolyline
 90
       16
 70
     0
 43
0.0098425196850394
 10
20.88090551181102
 20
25.24507874015748
 10
20.87992125984252
 20
25.25
 10
20.87992125984252
 20
25.25492125984252
 10
20.87893700787402
 20
25.25984251968504
 10
20.87795275590551
 20
25.26476377952755
 10
20.87696850393701
 20
25.26870078740157
 10
20.87499999999999
 20
25.27362204724409
 10
20.87303149606299
 20
25.27854330708661
 10
20.87106299212598
 20
25.28248031496063
 10
20.86811023622047
 20
25.28641732283464
 10
20.86614173228346
 20
25.29035433070866
 10
20.86318897637795
 20
25.29429133858267
 10
20.85925196850393
 20
25.29822834645669
 10
20.85629921259842
 20
25.3011811023622
 10
20.85236220472441
 20
25.30413385826771
 10
20.84842519685039
 20
25.30708661417323
  0
LWPOLYLINE
  5
2FE
330
1E
100
AcDbEntity
  8
7
100
AcDbPolyline
 90
       19
 70
     0
 43
0.0098425196850394
 10
20.84842519685039
 20
25.30708661417323
 10
20.84448818897637
 20
25.31003937007874
 10
20.84055118110236
 20
25.31200787401575
 10
20.83661417322834
 20
25.31397637795275
 10
20.83169291338582
 20
25.31594488188976
 10
20.82775590551181
 20
25.31791338582677
 10
20.82283464566929
 20
25.31889763779527
 10
20.81791338582677
 20
25.31988188976377
 10
20.81299212598425
 20
25.32086614173228
 10
20.80807086614173
 20
25.32086614173228
 10
20.80314960629921
 20
25.32086614173228
 10
20.79921259842519
 20
25.32086614173228
 10
20.79429133858267
 20
25.32086614173228
 10
20.78937007874015
 20
25.31988188976377
 10
20.78444881889764
 20
25.31889763779527
 10
20.77952755905511
 20
25.31692913385827
 10
20.7755905511811
 20
25.31496062992125
 10
20.77066929133858
 20
25.31299212598425
 10
20.76673228346456
 20
25.31102362204724
  0
LWPOLYLINE
  5
313
330
1E
100
AcDbEntity
  8
7
100
AcDbPolyline
 90
       17
 70
     0
 43
0.0098425196850394
 10
20.76673228346456
 20
25.31102362204724
 10
20.76279527559055
 20
25.30905511811023
 10
20.75885826771653
 20
25.30610236220472
 10
20.75492125984252
 20
25.30314960629921
 10
20.751968503937
 20
25.29921259842519
 10
20.74803149606299
 20
25.29625984251968
 10
20.74507874015748
 20
25.29232283464567
 10
20.74212598425197
 20
25.28838582677165
 10
20.74015748031496
 20
25.28444881889763
 10
20.73720472440944
 20
25.28051181102362
 10
20.73523622047244
 20
25.2755905511811
 10
20.73326771653543
 20
25.27165354330708
 10
20.73228346456692
 20
25.26673228346457
 10
20.73129921259842
 20
25.26181102362205
 10
20.73031496062992
 20
25.25787401574802
 10
20.72933070866141
 20
25.25295275590551
 10
20.72933070866141
 20
25.24803149606299
  0
LWPOLYLINE
  5
326
330
1E
100
AcDbEntity
  8
7
100
AcDbPolyline
 90
       20
 70
     0
 43
0.0098425196850394
 10
20.72933070866141
 20
25.24803149606299
 10
20.72933070866141
 20
25.24311023622047
 10
20.72933070866141
 20
25.23818897637795
 10
20.73031496062992
 20
25.23326771653543
 10
20.73129921259842
 20
25.22834645669291
 10
20.73228346456692
 20
25.22440944881889
 10
20.73326771653543
 20
25.21948818897637
 10
20.73523622047244
 20
25.21555118110236
 10
20.73720472440944
 20
25.21062992125984
 10
20.74015748031496
 20
25.20669291338582
 10
20.74212598425197
 20
25.20275590551181
 10
20.74507874015748
 20
25.19881889763779
 10
20.74803149606299
 20
25.19488188976378
 10
20.751968503937
 20
25.19192913385826
 10
20.75492125984252
 20
25.18799212598425
 10
20.75885826771653
 20
25.18503937007874
 10
20.76279527559055
 20
25.18208661417323
 10
20.76673228346456
 20
25.18011811023622
 10
20.77066929133858
 20
25.1771653543307
 10
20.7755905511811
 20
25.1751968503937
  0
ARC
  5
33C
330
1E
100
AcDbEntity
  8
7
100
AcDbCircle
 10
20.80433812653339
 20
25.24483240037908
 30
0.0
 40
0.0753361328341376
100
AcDbArc
 50
247.5635943093646
 51
327.8276162297891
  0
LWPOLYLINE
  5
33D
330
1E
100
AcDbEntity
  8
7
100
AcDbPolyline
 90
       10
 70
     0
 43
0.0098425196850394
 10
20.86811023622047
 20
25.20472440944882
 10
20.87106299212598
 20
25.20866141732283
 10
20.87303149606299
 20
25.21259842519685
 10
20.87499999999999
 20
25.21751968503937
 10
20.87696850393701
 20
25.22145669291338
 10
20.87795275590551
 20
25.2263779527559
 10
20.87893700787402
 20
25.23129921259842
 10
20.87992125984252
 20
25.23622047244094
 10
20.87992125984252
 20
25.24114173228346
 10
20.88090551181102
 20
25.24507874015748
  0
LWPOLYLINE
  5
349
330
1E
100
AcDbEntity
  8
7
100
AcDbPolyline
 90
       11
 70
     0
 43
0.0098425196850394
 10
21.50492125984252
 20
25.26181102362205
 10
21.60728346456692
 20
25.26181102362205
 10
21.61318897637795
 20
25.26181102362205
 10
21.61515748031496
 20
25.26181102362205
 10
21.61811023622047
 20
25.26082677165354
 10
21.62204724409448
 20
25.25787401574802
 10
21.625
 20
25.25787401574802
 10
21.626968503937
 20
25.25590551181102
 10
21.62893700787401
 20
25.25492125984252
 10
21.62992125984252
 20
25.25295275590551
 10
21.63287401574803
 20
25.24901574803149
  0
LWPOLYLINE
  5
356
330
1E
100
AcDbEntity
  8
7
100
AcDbPolyline
 90
       18
 70
     0
 43
0.0098425196850394
 10
21.63287401574803
 20
25.24901574803149
 10
21.63385826771653
 20
25.24606299212598
 10
21.63385826771653
 20
25.24409448818897
 10
21.63385826771653
 20
25.24212598425196
 10
21.63484251968504
 20
25.23917322834645
 10
21.63484251968504
 20
25.11811023622047
 10
21.63385826771653
 20
25.11515748031496
 10
21.63385826771653
 20
25.11220472440944
 10
21.63385826771653
 20
25.10925196850394
 10
21.63287401574803
 20
25.10728346456692
 10
21.62992125984252
 20
25.10334645669291
 10
21.62893700787401
 20
25.1013779527559
 10
21.626968503937
 20
25.1003937007874
 10
21.62204724409448
 20
25.09842519685039
 10
21.62106299212598
 20
25.09645669291338
 10
21.61811023622047
 20
25.09645669291338
 10
21.61318897637795
 20
25.09547244094488
 10
21.60728346456692
 20
25.09547244094488
  0
LWPOLYLINE
  5
36A
330
1E
100
AcDbEntity
  8
7
100
AcDbPolyline
 90
        3
 70
     0
 43
0.0098425196850394
 10
21.60728346456692
 20
25.09547244094488
 10
21.50492125984252
 20
25.09547244094488
 10
21.50492125984252
 20
25.26181102362205
  0
LWPOLYLINE
  5
36F
330
1E
100
AcDbEntity
  8
7
100
AcDbPolyline
 90
       12
 70
     0
 43
0.0098425196850394
 10
20.87893700787402
 20
25.21948818897637
 10
20.86712598425197
 20
25.21259842519685
 10
20.86122047244094
 20
25.20866141732283
 10
20.85236220472441
 20
25.20570866141732
 10
20.83464566929134
 20
25.1998031496063
 10
20.82381889763779
 20
25.19783464566929
 10
20.81200787401574
 20
25.19586614173228
 10
20.79921259842519
 20
25.19586614173228
 10
20.78740157480315
 20
25.19783464566929
 10
20.77263779527559
 20
25.1998031496063
 10
20.75885826771653
 20
25.20472440944882
 10
20.74507874015748
 20
25.21062992125984
  0
LWPOLYLINE
  5
37D
330
1E
100
AcDbEntity
  8
7
100
AcDbPolyline
 90
       16
 70
     0
 43
0.0098425196850394
 10
20.74507874015748
 20
25.21062992125984
 10
20.73129921259842
 20
25.21850393700787
 10
20.73326771653543
 20
25.22244094488188
 10
20.74803149606299
 20
25.21358267716535
 10
20.76082677165354
 20
25.20767716535432
 10
20.77460629921259
 20
25.20275590551181
 10
20.78740157480315
 20
25.2007874015748
 10
20.79921259842519
 20
25.1998031496063
 10
20.81200787401574
 20
25.1998031496063
 10
20.82185039370079
 20
25.20177165354331
 10
20.83267716535433
 20
25.20275590551181
 10
20.8503937007874
 20
25.20964566929134
 10
20.85826771653543
 20
25.21259842519685
 10
20.86515748031496
 20
25.21555118110236
 10
20.8759842519685
 20
25.22244094488188
 10
20.87893700787402
 20
25.21948818897637
  0
LWPOLYLINE
  5
38F
330
1E
100
AcDbEntity
  8
7
100
AcDbPolyline
 90
        3
 70
     0
 43
0.0098425196850394
 10
20.88188976377952
 20
25.24507874015748
 10
20.88188976377952
 20
25.25
 10
20.88188976377952
 20
25.25492125984252
  0
LWPOLYLINE
  5
394
330
1E
100
AcDbEntity
  8
7
100
AcDbPolyline
 90
       20
 70
     0
 43
0.0098425196850394
 10
20.88188976377952
 20
25.25492125984252
 10
20.88090551181102
 20
25.25984251968504
 10
20.87992125984252
 20
25.26476377952755
 10
20.87795275590551
 20
25.26968503937007
 10
20.87696850393701
 20
25.27460629921259
 10
20.87499999999999
 20
25.27854330708661
 10
20.87204724409449
 20
25.28346456692913
 10
20.87007874015748
 20
25.28740157480314
 10
20.86712598425197
 20
25.29133858267716
 10
20.86417322834646
 20
25.29527559055118
 10
20.86122047244094
 20
25.29921259842519
 10
20.85728346456693
 20
25.30216535433071
 10
20.85334645669291
 20
25.30610236220472
 10
20.8494094488189
 20
25.30905511811023
 10
20.84547244094488
 20
25.31102362204724
 10
20.84153543307086
 20
25.31397637795275
 10
20.83661417322834
 20
25.31594488188976
 10
20.83267716535433
 20
25.31791338582677
 10
20.82775590551181
 20
25.31988188976377
 10
20.82283464566929
 20
25.32086614173228
  0
LWPOLYLINE
  5
3AA
330
1E
100
AcDbEntity
  8
7
100
AcDbPolyline
 90
       17
 70
     0
 43
0.0098425196850394
 10
20.82283464566929
 20
25.32086614173228
 10
20.81791338582677
 20
25.32185039370078
 10
20.81299212598425
 20
25.32283464566929
 10
20.80807086614173
 20
25.32283464566929
 10
20.80314960629921
 20
25.32283464566929
 10
20.79822834645669
 20
25.32283464566929
 10
20.79330708661417
 20
25.32185039370078
 10
20.78937007874015
 20
25.32086614173228
 10
20.78444881889764
 20
25.31988188976377
 10
20.77952755905511
 20
25.31889763779527
 10
20.77460629921259
 20
25.31692913385827
 10
20.77066929133858
 20
25.31496062992125
 10
20.76574803149606
 20
25.31299212598425
 10
20.76181102362204
 20
25.31003937007874
 10
20.75787401574803
 20
25.30708661417323
 10
20.75393700787401
 20
25.30413385826771
 10
20.75
 20
25.3011811023622
  0
LWPOLYLINE
  5
3BD
330
1E
100
AcDbEntity
  8
7
100
AcDbPolyline
 90
       18
 70
     0
 43
0.0098425196850394
 10
20.75
 20
25.3011811023622
 10
20.74704724409448
 20
25.29724409448819
 10
20.74409448818897
 20
25.29330708661417
 10
20.74114173228346
 20
25.28937007874015
 10
20.73818897637795
 20
25.28543307086614
 10
20.73622047244094
 20
25.28149606299212
 10
20.73425196850393
 20
25.2765748031496
 10
20.73228346456692
 20
25.27165354330708
 10
20.73031496062992
 20
25.26771653543307
 10
20.72933070866141
 20
25.26279527559055
 10
20.72834645669291
 20
25.25787401574802
 10
20.72736220472441
 20
25.25295275590551
 10
20.72736220472441
 20
25.24803149606299
 10
20.72736220472441
 20
25.24311023622047
 10
20.72736220472441
 20
25.23818897637795
 10
20.72834645669291
 20
25.23326771653543
 10
20.72933070866141
 20
25.22834645669291
 10
20.73031496062992
 20
25.22342519685039
  0
LWPOLYLINE
  5
3D1
330
1E
100
AcDbEntity
  8
7
100
AcDbPolyline
 90
       20
 70
     0
 43
0.0098425196850394
 10
20.73031496062992
 20
25.22342519685039
 10
20.73228346456692
 20
25.21948818897637
 10
20.73425196850393
 20
25.21456692913385
 10
20.73622047244094
 20
25.20964566929134
 10
20.73818897637795
 20
25.20570866141732
 10
20.74114173228346
 20
25.20177165354331
 10
20.74409448818897
 20
25.19783464566929
 10
20.74704724409448
 20
25.19389763779527
 10
20.75
 20
25.18996062992126
 10
20.75393700787401
 20
25.18700787401574
 10
20.75787401574803
 20
25.18405511811023
 10
20.76181102362204
 20
25.18110236220472
 10
20.76574803149606
 20
25.17814960629921
 10
20.77066929133858
 20
25.1761811023622
 10
20.77460629921259
 20
25.17421259842519
 10
20.77952755905511
 20
25.17224409448818
 10
20.78444881889764
 20
25.17125984251968
 10
20.78937007874015
 20
25.16929133858267
 10
20.79330708661417
 20
25.16929133858267
 10
20.79822834645669
 20
25.16830708661417
  0
ARC
  5
3E7
330
1E
100
AcDbEntity
  8
7
100
AcDbCircle
 10
20.80478176513906
 20
25.2458682660171
 30
0.0
 40
0.0778375477953973
100
AcDbArc
 50
265.1659030263521
 51
352.1433662348161
  0
LWPOLYLINE
  5
3E8
330
1E
100
AcDbEntity
  8
7
100
AcDbPolyline
 90
        3
 70
     0
 43
0.0098425196850394
 10
20.88188976377952
 20
25.23523622047244
 10
20.88188976377952
 20
25.24015748031496
 10
20.88188976377952
 20
25.24507874015748
  0
LWPOLYLINE
  5
3ED
330
1E
100
AcDbEntity
  8
7
100
AcDbPolyline
 90
       15
 70
     0
 43
0.0098425196850394
 10
20.82086614173228
 20
25.17224409448818
 10
20.83661417322834
 20
25.18700787401574
 10
20.84350393700787
 20
25.19389763779527
 10
20.84842519685039
 20
25.2007874015748
 10
20.85629921259842
 20
25.21456692913385
 10
20.85826771653543
 20
25.22047244094488
 10
20.86122047244094
 20
25.2273622047244
 10
20.86220472440944
 20
25.24015748031496
 10
20.86220472440944
 20
25.25196850393701
 10
20.85925196850393
 20
25.26377952755905
 10
20.85629921259842
 20
25.27362204724409
 10
20.8513779527559
 20
25.28444881889763
 10
20.84547244094488
 20
25.29232283464567
 10
20.83464566929134
 20
25.30708661417323
 10
20.82874015748031
 20
25.31200787401575
  0
LWPOLYLINE
  5
3FE
330
1E
100
AcDbEntity
  8
7
100
AcDbPolyline
 90
       18
 70
     0
 43
0.0098425196850394
 10
20.82874015748031
 20
25.31200787401575
 10
20.82480314960629
 20
25.31594488188976
 10
20.82086614173228
 20
25.31988188976377
 10
20.82381889763779
 20
25.32283464566929
 10
20.82775590551181
 20
25.31889763779527
 10
20.83169291338582
 20
25.31496062992125
 10
20.83661417322834
 20
25.30905511811023
 10
20.84842519685039
 20
25.29527559055118
 10
20.85433070866141
 20
25.28641732283464
 10
20.85925196850393
 20
25.2755905511811
 10
20.86318897637795
 20
25.26476377952755
 10
20.86614173228346
 20
25.25196850393701
 10
20.86614173228346
 20
25.24015748031496
 10
20.86417322834646
 20
25.2263779527559
 10
20.86220472440944
 20
25.21850393700787
 10
20.85925196850393
 20
25.21259842519685
 10
20.85531496062992
 20
25.20570866141732
 10
20.8513779527559
 20
25.19783464566929
  0
LWPOLYLINE
  5
412
330
1E
100
AcDbEntity
  8
7
100
AcDbPolyline
 90
        5
 70
     0
 43
0.0098425196850394
 10
20.8513779527559
 20
25.19783464566929
 10
20.84645669291338
 20
25.19094488188976
 10
20.83956692913385
 20
25.18405511811023
 10
20.82381889763779
 20
25.16929133858267
 10
20.82086614173228
 20
25.17224409448818
  0
LWPOLYLINE
  5
419
330
1E
100
AcDbEntity
  8
7
100
AcDbPolyline
 90
        9
 70
     0
 43
0.0098425196850394
 10
20.78641732283464
 20
25.31889763779527
 10
20.78248031496062
 20
25.31594488188976
 10
20.77460629921259
 20
25.30610236220472
 10
20.76377952755905
 20
25.29232283464567
 10
20.75393700787401
 20
25.27362204724409
 10
20.751968503937
 20
25.26968503937007
 10
20.7509842519685
 20
25.26377952755905
 10
20.74803149606299
 20
25.25196850393701
 10
20.74803149606299
 20
25.24015748031496
  0
LWPOLYLINE
  5
424
330
1E
100
AcDbEntity
  8
7
100
AcDbPolyline
 90
       18
 70
     0
 43
0.0098425196850394
 10
20.74803149606299
 20
25.24015748031496
 10
20.75
 20
25.2273622047244
 10
20.751968503937
 20
25.22047244094488
 10
20.75492125984252
 20
25.21456692913385
 10
20.76181102362204
 20
25.2007874015748
 10
20.77165354330709
 20
25.18700787401574
 10
20.78641732283464
 20
25.17224409448818
 10
20.78346456692913
 20
25.16929133858267
 10
20.76870078740157
 20
25.18405511811023
 10
20.75885826771653
 20
25.19881889763779
 10
20.7509842519685
 20
25.21259842519685
 10
20.74803149606299
 20
25.22047244094488
 10
20.74606299212598
 20
25.2263779527559
 10
20.74409448818897
 20
25.24015748031496
 10
20.74409448818897
 20
25.25196850393701
 10
20.74606299212598
 20
25.26476377952755
 10
20.74803149606299
 20
25.26968503937007
 10
20.7509842519685
 20
25.2755905511811
  0
LWPOLYLINE
  5
438
330
1E
100
AcDbEntity
  8
7
100
AcDbPolyline
 90
        6
 70
     0
 43
0.0098425196850394
 10
20.7509842519685
 20
25.2755905511811
 10
20.76082677165354
 20
25.29429133858267
 10
20.77165354330709
 20
25.30905511811023
 10
20.77952755905511
 20
25.31889763779527
 10
20.78346456692913
 20
25.32086614173228
 10
20.78641732283464
 20
25.31889763779527
  0
LWPOLYLINE
  5
440
330
1E
100
AcDbEntity
  8
7
100
AcDbPolyline
 90
       10
 70
     0
 43
0.0098425196850394
 10
20.80216535433071
 20
25.31988188976377
 10
20.79429133858267
 20
25.30511811023622
 10
20.78740157480315
 20
25.28937007874015
 10
20.78543307086614
 20
25.28051181102362
 10
20.78248031496062
 20
25.26968503937007
 10
20.77952755905511
 20
25.25787401574802
 10
20.77854330708661
 20
25.24507874015748
 10
20.77854330708661
 20
25.23326771653543
 10
20.77952755905511
 20
25.22047244094488
 10
20.78248031496062
 20
25.20669291338582
  0
LWPOLYLINE
  5
44C
330
1E
100
AcDbEntity
  8
7
100
AcDbPolyline
 90
       18
 70
     0
 43
0.0098425196850394
 10
20.78248031496062
 20
25.20669291338582
 10
20.78641732283464
 20
25.19586614173228
 10
20.79330708661417
 20
25.18307086614173
 10
20.80216535433071
 20
25.17125984251968
 10
20.79822834645669
 20
25.16929133858267
 10
20.79035433070866
 20
25.18110236220472
 10
20.78346456692913
 20
25.19389763779527
 10
20.77854330708661
 20
25.20669291338582
 10
20.7755905511811
 20
25.21948818897637
 10
20.77460629921259
 20
25.23326771653543
 10
20.77460629921259
 20
25.24507874015748
 10
20.7755905511811
 20
25.25787401574802
 10
20.77854330708661
 20
25.26968503937007
 10
20.78149606299212
 20
25.28051181102362
 10
20.78346456692913
 20
25.29035433070866
 10
20.79133858267716
 20
25.30708661417323
 10
20.79822834645669
 20
25.32283464566929
 10
20.80216535433071
 20
25.31988188976377
  0
LWPOLYLINE
  5
460
330
1E
100
AcDbEntity
  8
7
100
AcDbPolyline
 90
        4
 70
     0
 43
0.0098425196850394
 10
21.28346456692913
 20
25.20472440944882
 10
21.26673228346456
 20
25.15944881889764
 10
21.3001968503937
 20
25.15944881889764
 10
21.28346456692913
 20
25.20472440944882
  0
LWPOLYLINE
  5
466
330
1E
100
AcDbEntity
  8
7
100
AcDbPolyline
 90
        9
 70
     0
 43
0.0098425196850394
 10
21.39665354330709
 20
25.09547244094488
 10
21.39665354330709
 20
25.15748031496062
 10
21.42224409448818
 20
25.09547244094488
 10
21.48326771653543
 20
25.09547244094488
 10
21.48326771653543
 20
25.26181102362205
 10
21.43700787401574
 20
25.26181102362205
 10
21.43700787401574
 20
25.19881889763779
 10
21.41437007874015
 20
25.26181102362205
 10
21.34940944881889
 20
25.26181102362205
  0
LWPOLYLINE
  5
471
330
1E
100
AcDbEntity
  8
7
100
AcDbPolyline
 90
       19
 70
     0
 43
0.0098425196850394
 10
21.65255905511811
 20
25.26181102362205
 10
21.65255905511811
 20
25.12992125984252
 10
21.65255905511811
 20
25.12401574803149
 10
21.65452755905512
 20
25.11909448818897
 10
21.65551181102362
 20
25.11417322834645
 10
21.65846456692913
 20
25.11023622047244
 10
21.65944881889763
 20
25.10826771653543
 10
21.66043307086614
 20
25.10728346456692
 10
21.66338582677165
 20
25.10433070866142
 10
21.66633858267716
 20
25.10236220472441
 10
21.67027559055118
 20
25.1003937007874
 10
21.6761811023622
 20
25.09744094488189
 10
21.68110236220472
 20
25.09547244094488
 10
21.68503937007874
 20
25.09547244094488
 10
21.68700787401574
 20
25.09547244094488
 10
21.74606299212598
 20
25.09547244094488
 10
21.7509842519685
 20
25.09547244094488
 10
21.75492125984252
 20
25.09645669291338
 10
21.75984251968503
 20
25.09842519685039
  0
LWPOLYLINE
  5
486
330
1E
100
AcDbEntity
  8
7
100
AcDbPolyline
 90
       21
 70
     0
 43
0.0098425196850394
 10
21.75984251968503
 20
25.09842519685039
 10
21.76279527559055
 20
25.1003937007874
 10
21.76377952755905
 20
25.10236220472441
 10
21.76476377952755
 20
25.10334645669291
 10
21.76771653543307
 20
25.10531496062992
 10
21.76870078740157
 20
25.10728346456692
 10
21.76968503937008
 20
25.10826771653543
 10
21.77165354330708
 20
25.11220472440944
 10
21.77263779527559
 20
25.11515748031496
 10
21.77362204724409
 20
25.11811023622047
 10
21.77460629921259
 20
25.12401574803149
 10
21.77460629921259
 20
25.126968503937
 10
21.77460629921259
 20
25.12893700787401
 10
21.77460629921259
 20
25.26082677165354
 10
21.73031496062992
 20
25.26082677165354
 10
21.73129921259842
 20
25.1761811023622
 10
21.73129921259842
 20
25.14271653543307
 10
21.73129921259842
 20
25.13976377952756
 10
21.73129921259842
 20
25.13582677165354
 10
21.73031496062992
 20
25.13385826771653
 10
21.72933070866141
 20
25.13287401574803
  0
LWPOLYLINE
  5
49D
330
1E
100
AcDbEntity
  8
7
100
AcDbPolyline
 90
       12
 70
     0
 43
0.0098425196850394
 10
21.72933070866141
 20
25.13287401574803
 10
21.72736220472441
 20
25.13287401574803
 10
21.7253937007874
 20
25.13188976377952
 10
21.71259842519685
 20
25.13188976377952
 10
21.71062992125984
 20
25.13188976377952
 10
21.70866141732283
 20
25.13287401574803
 10
21.70866141732283
 20
25.13385826771653
 10
21.70669291338583
 20
25.13779527559055
 10
21.70669291338583
 20
25.13877952755905
 10
21.70669291338583
 20
25.14271653543307
 10
21.70669291338583
 20
25.26181102362205
 10
21.65255905511811
 20
25.26181102362205
  0
LWPOLYLINE
  5
4AB
330
1E
100
AcDbEntity
  8
7
100
AcDbPolyline
 90
        5
 70
     0
 43
0.0098425196850394
 10
20.86712598425197
 20
25.28740157480314
 10
20.85728346456693
 20
25.28248031496063
 10
20.84547244094488
 20
25.27952755905511
 10
20.83070866141732
 20
25.2755905511811
 10
20.81200787401574
 20
25.27362204724409
  0
LWPOLYLINE
  5
4B2
330
1E
100
AcDbEntity
  8
7
100
AcDbPolyline
 90
       18
 70
     0
 43
0.0098425196850394
 10
20.81200787401574
 20
25.27362204724409
 10
20.8011811023622
 20
25.27362204724409
 10
20.79035433070866
 20
25.27460629921259
 10
20.77952755905511
 20
25.2755905511811
 10
20.76771653543306
 20
25.27854330708661
 10
20.75492125984252
 20
25.28248031496063
 10
20.74311023622047
 20
25.28740157480314
 10
20.74507874015748
 20
25.29035433070866
 10
20.75688976377953
 20
25.28543307086614
 10
20.76870078740157
 20
25.28248031496063
 10
20.78051181102362
 20
25.27952755905511
 10
20.79035433070866
 20
25.27755905511811
 10
20.8011811023622
 20
25.27755905511811
 10
20.81102362204724
 20
25.27755905511811
 10
20.82874015748031
 20
25.27952755905511
 10
20.84350393700787
 20
25.28248031496063
 10
20.85531496062992
 20
25.28641732283464
 10
20.86515748031496
 20
25.29035433070866
  0
LINE
  5
4C6
330
1E
100
AcDbEntity
  8
7
100
AcDbLine
 10
20.86515748031496
 20
25.29035433070866
 30
0.0
 11
20.86712598425197
 21
25.28740157480314
 31
0.0
  0
LWPOLYLINE
  5
4C7
330
1E
100
AcDbEntity
  8
7
100
AcDbPolyline
 90
        7
 70
     0
 43
0.0098425196850394
 10
21.21751968503937
 20
25.17125984251968
 10
21.18700787401575
 20
25.09547244094488
 10
21.24114173228346
 20
25.09547244094488
 10
21.24901574803149
 20
25.125
 10
21.30511811023622
 20
25.125
 10
21.31692913385827
 20
25.09547244094488
 10
21.39665354330709
 20
25.09547244094488
  0
LWPOLYLINE
  5
4D0
330
1E
100
AcDbEntity
  8
7
100
AcDbPolyline
 90
        6
 70
     0
 43
0.0098425196850394
 10
21.89173228346456
 20
25.09547244094488
 10
21.89173228346456
 20
25.2273622047244
 10
21.85531496062992
 20
25.2273622047244
 10
21.85531496062992
 20
25.26181102362205
 10
21.97933070866141
 20
25.26181102362205
 10
21.97933070866141
 20
25.2273622047244
  0
LWPOLYLINE
  5
4D8
330
1E
100
AcDbEntity
  8
7
100
AcDbPolyline
 90
        4
 70
     0
 43
0.0098425196850394
 10
21.97933070866141
 20
25.2273622047244
 10
21.94291338582677
 20
25.2273622047244
 10
21.94291338582677
 20
25.09547244094488
 10
21.89173228346456
 20
25.09547244094488
  0
LINE
  5
4DE
330
1E
100
AcDbEntity
  8
7
100
AcDbLine
 10
22.02854330708661
 20
25.39074803149606
 30
0.0
 11
20.62893700787401
 21
25.39074803149606
 31
0.0
  0
LINE
  5
4DF
330
1E
100
AcDbEntity
  8
7
100
AcDbLine
 10
20.62893700787401
 20
25.01771653543307
 30
0.0
 11
20.62893700787401
 21
25.39074803149606
 31
0.0
  0
LINE
  5
4E0
330
1E
100
AcDbEntity
  8
7
100
AcDbLine
 10
22.02854330708661
 20
25.01771653543307
 30
0.0
 11
20.62893700787401
 21
25.01771653543307
 31
0.0
  0
LINE
  5
4E1
330
1E
100
AcDbEntity
  8
7
100
AcDbLine
 10
22.02854330708661
 20
25.39074803149606
 30
0.0
 11
22.02854330708661
 21
25.01771653543307
 31
0.0
  0
LINE
  5
4E2
330
1E
100
AcDbEntity
  8
7
100
AcDbLine
 10
23.00688976377953
 20
25.51574803149606
 30
0.0
 11
20.626968503937
 21
25.51574803149606
 31
0.0
  0
LINE
  5
4E3
330
1E
100
AcDbEntity
  8
7
100
AcDbLine
 10
20.56692913385826
 20
24.0757874015748
 30
0.0
 11
20.56692913385826
 21
25.45570866141732
 31
0.0
  0
LINE
  5
4E4
330
1E
100
AcDbEntity
  8
7
100
AcDbLine
 10
23.06692913385826
 20
24.0757874015748
 30
0.0
 11
23.06692913385826
 21
25.45570866141732
 31
0.0
  0
LINE
  5
4E5
330
1E
100
AcDbEntity
  8
7
100
AcDbLine
 10
20.626968503937
 20
24.01574803149606
 30
0.0
 11
23.00688976377953
 21
24.01574803149606
 31
0.0
  0
LWPOLYLINE
  5
4E6
330
1E
100
AcDbEntity
  8
7
100
AcDbPolyline
 90
        5
 70
     0
 43
0.0098425196850394
 10
20.56791338582677
 20
24.0757874015748
 10
20.57283464566929
 20
24.05314960629921
 10
20.58562992125984
 20
24.03444881889763
 10
20.60433070866142
 20
24.02165354330708
 10
20.626968503937
 20
24.01673228346457
  0
LWPOLYLINE
  5
4ED
330
1E
100
AcDbEntity
  8
7
100
AcDbPolyline
 90
        5
 70
     0
 43
0.0098425196850394
 10
23.00688976377953
 20
24.01673228346457
 10
23.02952755905511
 20
24.02165354330708
 10
23.04822834645669
 20
24.03444881889763
 10
23.06102362204724
 20
24.05314960629921
 10
23.06594488188976
 20
24.0757874015748
  0
LWPOLYLINE
  5
4F4
330
1E
100
AcDbEntity
  8
7
100
AcDbPolyline
 90
        5
 70
     0
 43
0.0098425196850394
 10
23.06594488188976
 20
25.45570866141732
 10
23.06102362204724
 20
25.47834645669291
 10
23.04822834645669
 20
25.49704724409449
 10
23.02952755905511
 20
25.50984251968504
 10
23.00688976377953
 20
25.51476377952756
  0
LWPOLYLINE
  5
4FB
330
1E
100
AcDbEntity
  8
7
100
AcDbPolyline
 90
        5
 70
     0
 43
0.0098425196850394
 10
20.626968503937
 20
25.51476377952756
 10
20.60433070866142
 20
25.50984251968504
 10
20.58562992125984
 20
25.49704724409449
 10
20.57283464566929
 20
25.47834645669291
 10
20.56791338582677
 20
25.45570866141732
  0
LWPOLYLINE
  5
502
330
1E
100
AcDbEntity
  8
7
100
AcDbPolyline
 90
        3
 70
     0
 43
0.0098425196850394
 10
26.96358267716535
 20
25.18110236220472
 10
26.96358267716535
 20
25.18011811023622
 10
26.96358267716535
 20
25.17913385826771
  0
LINE
  5
507
330
1E
100
AcDbEntity
  8
7
100
AcDbLine
 10
26.96358267716535
 20
25.25492125984252
 30
0.0
 11
26.96358267716535
 21
25.25393700787401
 31
0.0
  0
LWPOLYLINE
  5
508
330
1E
100
AcDbEntity
  8
7
100
AcDbPolyline
 90
        7
 70
     0
 43
0.0098425196850394
 10
26.96358267716535
 20
25.26771653543307
 10
26.95964566929134
 20
25.29232283464567
 10
26.9517716535433
 20
25.31496062992125
 10
26.93996062992126
 20
25.33562992125984
 10
26.92421259842519
 20
25.35334645669291
 10
26.90551181102362
 20
25.36909448818898
 10
26.87893700787402
 20
25.38484251968504
  0
LWPOLYLINE
  5
511
330
1E
100
AcDbEntity
  8
7
100
AcDbPolyline
 90
        4
 70
     0
 43
0.0098425196850394
 10
26.96358267716535
 20
25.26771653543307
 10
26.96358267716535
 20
25.26082677165354
 10
26.96358267716535
 20
25.25590551181102
 10
26.96358267716535
 20
25.25492125984252
  0
LINE
  5
517
330
1E
100
AcDbEntity
  8
7
100
AcDbLine
 10
26.96358267716535
 20
25.25393700787401
 30
0.0
 11
26.96358267716535
 21
25.25295275590551
 31
0.0
  0
LWPOLYLINE
  5
518
330
1E
100
AcDbEntity
  8
7
100
AcDbPolyline
 90
        3
 70
     0
 43
0.0098425196850394
 10
26.96358267716535
 20
25.19291338582677
 10
26.96062992125984
 20
25.20177165354331
 10
26.95866141732283
 20
25.20472440944882
  0
LWPOLYLINE
  5
51D
330
1E
100
AcDbEntity
  8
7
100
AcDbPolyline
 90
        3
 70
     0
 43
0.0098425196850394
 10
26.96358267716535
 20
25.19291338582677
 10
26.96358267716535
 20
25.18799212598425
 10
26.96358267716535
 20
25.18110236220472
  0
LWPOLYLINE
  5
522
330
1E
100
AcDbEntity
  8
7
100
AcDbPolyline
 90
        3
 70
     0
 43
0.0098425196850394
 10
26.96358267716535
 20
25.17913385826771
 10
26.96358267716535
 20
25.17027559055118
 10
26.96358267716535
 20
25.16240157480314
  0
LINE
  5
527
330
1E
100
AcDbEntity
  8
7
100
AcDbLine
 10
26.96358267716535
 20
25.16240157480314
 30
0.0
 11
26.96358267716535
 21
25.16043307086614
 31
0.0
  0
LINE
  5
528
330
1E
100
AcDbEntity
  8
7
100
AcDbLine
 10
26.96259842519685
 20
25.15157480314961
 30
0.0
 11
26.96358267716535
 21
25.16043307086614
 31
0.0
  0
LINE
  5
529
330
1E
100
AcDbEntity
  8
7
100
AcDbLine
 10
26.96259842519685
 20
25.13681102362204
 30
0.0
 11
26.95767716535433
 21
25.11515748031496
 31
0.0
  0
LINE
  5
52A
330
1E
100
AcDbEntity
  8
7
100
AcDbLine
 10
26.96358267716535
 20
25.15157480314961
 30
0.0
 11
26.96259842519685
 21
25.14960629921259
 31
0.0
  0
LWPOLYLINE
  5
52B
330
1E
100
AcDbEntity
  8
7
100
AcDbPolyline
 90
        5
 70
     0
 43
0.0098425196850394
 10
26.92421259842519
 20
25.11515748031496
 10
26.94094488188976
 20
25.12401574803149
 10
26.9517716535433
 20
25.13188976377952
 10
26.95964566929134
 20
25.14074803149606
 10
26.96259842519685
 20
25.14960629921259
  0
LWPOLYLINE
  5
532
330
1E
100
AcDbEntity
  8
7
100
AcDbPolyline
 90
        3
 70
     0
 43
0.0098425196850394
 10
26.92421259842519
 20
25.1771653543307
 10
26.92716535433071
 20
25.14566929133858
 10
26.92421259842519
 20
25.11515748031496
  0
LWPOLYLINE
  5
537
330
1E
100
AcDbEntity
  8
7
100
AcDbPolyline
 90
        5
 70
     0
 43
0.0098425196850394
 10
26.96259842519685
 20
25.21161417322834
 10
26.95374015748031
 20
25.19586614173228
 10
26.94291338582677
 20
25.18700787401574
 10
26.92913385826772
 20
25.17913385826771
 10
26.92421259842519
 20
25.1771653543307
  0
LWPOLYLINE
  5
53E
330
1E
100
AcDbEntity
  8
7
100
AcDbPolyline
 90
        6
 70
     0
 43
0.0098425196850394
 10
26.96259842519685
 20
25.21161417322834
 10
26.96358267716535
 20
25.21653543307087
 10
26.96358267716535
 20
25.22244094488188
 10
26.96358267716535
 20
25.23031496062992
 10
26.96358267716535
 20
25.23917322834645
 10
26.96259842519685
 20
25.24507874015748
  0
LWPOLYLINE
  5
546
330
1E
100
AcDbEntity
  8
7
100
AcDbPolyline
 90
        7
 70
     0
 43
0.0098425196850394
 10
26.87893700787402
 20
25.36023622047244
 10
26.90944881889763
 20
25.34251968503937
 10
26.9261811023622
 20
25.3267716535433
 10
26.94094488188976
 20
25.30905511811023
 10
26.9517716535433
 20
25.28838582677165
 10
26.95964566929134
 20
25.26673228346457
 10
26.96259842519685
 20
25.24507874015748
  0
LWPOLYLINE
  5
54F
330
1E
100
AcDbEntity
  8
7
100
AcDbPolyline
 90
        3
 70
     0
 43
0.0098425196850394
 10
26.87893700787402
 20
25.38484251968504
 10
26.87893700787402
 20
25.375
 10
26.87893700787402
 20
25.36023622047244
  0
LINE
  5
554
330
1E
100
AcDbEntity
  8
7
100
AcDbLine
 10
26.95866141732283
 20
25.26771653543307
 30
0.0
 11
26.96358267716535
 21
25.26771653543307
 31
0.0
  0
LINE
  5
555
330
1E
100
AcDbEntity
  8
7
100
AcDbLine
 10
26.96358267716535
 20
25.16043307086614
 30
0.0
 11
26.9261811023622
 21
25.16043307086614
 31
0.0
  0
LINE
  5
556
330
1E
100
AcDbEntity
  8
7
100
AcDbLine
 10
26.9498031496063
 20
25.19291338582677
 30
0.0
 11
26.96358267716535
 21
25.19291338582677
 31
0.0
  0
LINE
  5
557
330
1E
100
AcDbEntity
  8
7
100
AcDbLine
 10
26.96259842519685
 20
25.14960629921259
 30
0.0
 11
26.92716535433071
 21
25.14960629921259
 31
0.0
  0
LWPOLYLINE
  5
558
330
1E
100
AcDbEntity
  8
7
100
AcDbPolyline
 90
        3
 70
     0
 43
0.0098425196850394
 10
26.96358267716535
 20
27.93110236220472
 10
26.96358267716535
 20
27.93011811023621
 10
26.96358267716535
 20
27.92913385826771
  0
LINE
  5
55D
330
1E
100
AcDbEntity
  8
7
100
AcDbLine
 10
26.96358267716535
 20
28.00492125984252
 30
0.0
 11
26.96358267716535
 21
28.00393700787401
 31
0.0
  0
LWPOLYLINE
  5
55E
330
1E
100
AcDbEntity
  8
7
100
AcDbPolyline
 90
        4
 70
     0
 43
0.0098425196850394
 10
26.96358267716535
 20
28.01771653543307
 10
26.95964566929134
 20
28.04232283464567
 10
26.9517716535433
 20
28.06496062992126
 10
26.93996062992126
 20
28.08562992125984
  0
LWPOLYLINE
  5
564
330
1E
100
AcDbEntity
  8
7
100
AcDbPolyline
 90
        4
 70
     0
 43
0.0098425196850394
 10
26.93996062992126
 20
28.08562992125984
 10
26.92421259842519
 20
28.10334645669291
 10
26.90551181102362
 20
28.11909448818898
 10
26.87893700787402
 20
28.13484251968504
  0
LWPOLYLINE
  5
56A
330
1E
100
AcDbEntity
  8
7
100
AcDbPolyline
 90
        4
 70
     0
 43
0.0098425196850394
 10
26.96358267716535
 20
28.01771653543307
 10
26.96358267716535
 20
28.01082677165354
 10
26.96358267716535
 20
28.00590551181102
 10
26.96358267716535
 20
28.00492125984252
  0
LINE
  5
570
330
1E
100
AcDbEntity
  8
7
100
AcDbLine
 10
26.96358267716535
 20
28.00393700787401
 30
0.0
 11
26.96358267716535
 21
28.00295275590551
 31
0.0
  0
LWPOLYLINE
  5
571
330
1E
100
AcDbEntity
  8
7
100
AcDbPolyline
 90
        3
 70
     0
 43
0.0098425196850394
 10
26.96358267716535
 20
27.94291338582677
 10
26.96062992125984
 20
27.9517716535433
 10
26.95866141732283
 20
27.95472440944882
  0
LWPOLYLINE
  5
576
330
1E
100
AcDbEntity
  8
7
100
AcDbPolyline
 90
        3
 70
     0
 43
0.0098425196850394
 10
26.96358267716535
 20
27.94291338582677
 10
26.96358267716535
 20
27.93799212598425
 10
26.96358267716535
 20
27.93110236220472
  0
LWPOLYLINE
  5
57B
330
1E
100
AcDbEntity
  8
7
100
AcDbPolyline
 90
        4
 70
     0
 43
0.0098425196850394
 10
26.96358267716535
 20
27.92913385826771
 10
26.96358267716535
 20
27.92027559055118
 10
26.96358267716535
 20
27.91240157480315
 10
26.96358267716535
 20
27.91043307086614
  0
LINE
  5
581
330
1E
100
AcDbEntity
  8
7
100
AcDbLine
 10
26.96259842519685
 20
27.9015748031496
 30
0.0
 11
26.96358267716535
 21
27.91043307086614
 31
0.0
  0
LINE
  5
582
330
1E
100
AcDbEntity
  8
7
100
AcDbLine
 10
26.96259842519685
 20
27.88681102362204
 30
0.0
 11
26.95767716535433
 21
27.86515748031495
 31
0.0
  0
LINE
  5
583
330
1E
100
AcDbEntity
  8
7
100
AcDbLine
 10
26.96358267716535
 20
27.9015748031496
 30
0.0
 11
26.96259842519685
 21
27.89960629921259
 31
0.0
  0
LWPOLYLINE
  5
584
330
1E
100
AcDbEntity
  8
7
100
AcDbPolyline
 90
        5
 70
     0
 43
0.0098425196850394
 10
26.92421259842519
 20
27.86515748031495
 10
26.94094488188976
 20
27.87401574803149
 10
26.9517716535433
 20
27.88188976377952
 10
26.95964566929134
 20
27.89074803149606
 10
26.96259842519685
 20
27.89960629921259
  0
LWPOLYLINE
  5
58B
330
1E
100
AcDbEntity
  8
7
100
AcDbPolyline
 90
        3
 70
     0
 43
0.0098425196850394
 10
26.92421259842519
 20
27.9271653543307
 10
26.92716535433071
 20
27.89566929133858
 10
26.92421259842519
 20
27.86515748031495
  0
LWPOLYLINE
  5
590
330
1E
100
AcDbEntity
  8
7
100
AcDbPolyline
 90
        5
 70
     0
 43
0.0098425196850394
 10
26.96259842519685
 20
27.96161417322834
 10
26.95374015748031
 20
27.94586614173228
 10
26.94291338582677
 20
27.93700787401574
 10
26.92913385826772
 20
27.92913385826771
 10
26.92421259842519
 20
27.9271653543307
  0
LINE
  5
597
330
1E
100
AcDbEntity
  8
7
100
AcDbLine
 10
26.96259842519685
 20
27.96161417322834
 30
0.0
 11
26.96358267716535
 21
27.96653543307086
 31
0.0
  0
LWPOLYLINE
  5
598
330
1E
100
AcDbEntity
  8
7
100
AcDbPolyline
 90
        5
 70
     0
 43
0.0098425196850394
 10
26.96358267716535
 20
27.96653543307086
 10
26.96358267716535
 20
27.97244094488188
 10
26.96358267716535
 20
27.98031496062992
 10
26.96358267716535
 20
27.98917322834645
 10
26.96259842519685
 20
27.99507874015748
  0
LWPOLYLINE
  5
59F
330
1E
100
AcDbEntity
  8
7
100
AcDbPolyline
 90
        7
 70
     0
 43
0.0098425196850394
 10
26.87893700787402
 20
28.11023622047244
 10
26.90944881889763
 20
28.09251968503937
 10
26.9261811023622
 20
28.07677165354331
 10
26.94094488188976
 20
28.05905511811023
 10
26.9517716535433
 20
28.03838582677165
 10
26.95964566929134
 20
28.01673228346457
 10
26.96259842519685
 20
27.99507874015748
  0
LWPOLYLINE
  5
5A8
330
1E
100
AcDbEntity
  8
7
100
AcDbPolyline
 90
        3
 70
     0
 43
0.0098425196850394
 10
26.87893700787402
 20
28.13484251968504
 10
26.87893700787402
 20
28.125
 10
26.87893700787402
 20
28.11023622047244
  0
LINE
  5
5AD
330
1E
100
AcDbEntity
  8
7
100
AcDbLine
 10
26.95866141732283
 20
28.01771653543307
 30
0.0
 11
26.96358267716535
 21
28.01771653543307
 31
0.0
  0
LINE
  5
5AE
330
1E
100
AcDbEntity
  8
7
100
AcDbLine
 10
26.96358267716535
 20
27.91043307086614
 30
0.0
 11
26.9261811023622
 21
27.91043307086614
 31
0.0
  0
LINE
  5
5AF
330
1E
100
AcDbEntity
  8
7
100
AcDbLine
 10
26.9498031496063
 20
27.94291338582677
 30
0.0
 11
26.96358267716535
 21
27.94291338582677
 31
0.0
  0
LINE
  5
5B0
330
1E
100
AcDbEntity
  8
7
100
AcDbLine
 10
26.96259842519685
 20
27.89960629921259
 30
0.0
 11
26.92716535433071
 21
27.89960629921259
 31
0.0
  0
LINE
  5
5B1
330
1E
100
AcDbEntity
  8
7
100
AcDbLine
 10
6.663385826771652
 20
25.26181102362205
 30
0.0
 11
6.665354330708661
 21
25.27066929133858
 31
0.0
  0
LWPOLYLINE
  5
5B2
330
1E
100
AcDbEntity
  8
7
100
AcDbPolyline
 90
        3
 70
     0
 43
0.0098425196850394
 10
6.663385826771652
 20
25.26181102362205
 10
6.662401574803149
 20
25.25393700787401
 10
6.662401574803149
 20
25.25
  0
LINE
  5
5B7
330
1E
100
AcDbEntity
  8
7
100
AcDbLine
 10
6.662401574803149
 20
27.90551181102362
 30
0.0
 11
6.662401574803149
 21
27.9005905511811
 31
0.0
  0
LINE
  5
5B8
330
1E
100
AcDbEntity
  8
7
100
AcDbLine
 10
6.664370078740156
 20
27.88582677165354
 30
0.0
 11
6.662401574803149
 21
27.9005905511811
 31
0.0
  0
LINE
  5
5B9
330
1E
100
AcDbEntity
  8
7
100
AcDbLine
 10
6.904527559055117
 20
23.95374015748031
 30
0.0
 11
6.904527559055117
 21
24.21653543307086
 31
0.0
  0
LINE
  5
5BA
330
1E
100
AcDbEntity
  8
7
100
AcDbLine
 10
6.904527559055117
 20
24.72342519685039
 30
0.0
 11
6.904527559055117
 21
25.27066929133858
 31
0.0
  0
LINE
  5
5BB
330
1E
100
AcDbEntity
  8
7
100
AcDbLine
 10
6.904527559055117
 20
25.77755905511811
 30
0.0
 11
6.904527559055117
 21
26.3248031496063
 31
0.0
  0
LINE
  5
5BC
330
1E
100
AcDbEntity
  8
7
100
AcDbLine
 10
6.904527559055117
 20
26.83169291338582
 30
0.0
 11
6.904527559055117
 21
27.37795275590551
 31
0.0
  0
LINE
  5
5BD
330
1E
100
AcDbEntity
  8
7
100
AcDbLine
 10
6.904527559055117
 20
27.88582677165354
 30
0.0
 11
6.904527559055117
 21
28.43208661417323
 31
0.0
  0
LINE
  5
5BE
330
1E
100
AcDbEntity
  8
7
100
AcDbLine
 10
8.002952755905511
 20
29.20374015748031
 30
0.0
 11
8.002952755905511
 21
23.95374015748031
 31
0.0
  0
LINE
  5
5BF
330
1E
100
AcDbEntity
  8
7
100
AcDbLine
 10
6.904527559055117
 20
29.20374015748031
 30
0.0
 11
8.002952755905511
 21
29.20374015748031
 31
0.0
  0
LINE
  5
5C0
330
1E
100
AcDbEntity
  8
7
100
AcDbLine
 10
6.904527559055117
 20
28.93897637795275
 30
0.0
 11
6.904527559055117
 21
29.20374015748031
 31
0.0
  0
LWPOLYLINE
  5
5C1
330
1E
100
AcDbEntity
  8
7
100
AcDbPolyline
 90
       12
 70
     0
 43
0.0098425196850394
 10
7.823818897637794
 20
24.82874015748031
 10
7.819881889763778
 20
24.85728346456693
 10
7.808070866141731
 20
24.88287401574803
 10
7.789370078740156
 20
24.90452755905511
 10
7.764763779527558
 20
24.92027559055118
 10
7.738188976377951
 20
24.92814960629921
 10
7.708661417322834
 20
24.92814960629921
 10
7.682086614173227
 20
24.92027559055118
 10
7.657480314960629
 20
24.90452755905511
 10
7.638779527559054
 20
24.88287401574803
 10
7.626968503937007
 20
24.85728346456693
 10
7.623031496062991
 20
24.82874015748031
  0
LWPOLYLINE
  5
5CF
330
1E
100
AcDbEntity
  8
7
100
AcDbPolyline
 90
       12
 70
     0
 43
0.0098425196850394
 10
7.623031496062991
 20
24.82874015748031
 10
7.626968503937007
 20
24.8001968503937
 10
7.638779527559054
 20
24.77460629921259
 10
7.657480314960629
 20
24.75295275590551
 10
7.682086614173227
 20
24.73720472440945
 10
7.708661417322834
 20
24.72933070866142
 10
7.738188976377951
 20
24.72933070866142
 10
7.764763779527558
 20
24.73720472440945
 10
7.789370078740156
 20
24.75295275590551
 10
7.808070866141731
 20
24.77460629921259
 10
7.819881889763778
 20
24.8001968503937
 10
7.823818897637794
 20
24.82874015748031
  0
LINE
  5
5DD
330
1E
100
AcDbEntity
  8
7
100
AcDbLine
 10
7.823818897637794
 20
26.57874015748031
 30
0.0
 11
7.819881889763778
 21
26.60728346456693
 31
0.0
  0
LWPOLYLINE
  5
5DE
330
1E
100
AcDbEntity
  8
7
100
AcDbPolyline
 90
       14
 70
     0
 43
0.0098425196850394
 10
7.819881889763778
 20
26.60728346456693
 10
7.808070866141731
 20
26.63287401574803
 10
7.789370078740156
 20
26.65452755905512
 10
7.764763779527558
 20
26.67027559055118
 10
7.738188976377951
 20
26.67814960629921
 10
7.708661417322834
 20
26.67814960629921
 10
7.682086614173227
 20
26.67027559055118
 10
7.657480314960629
 20
26.65452755905512
 10
7.638779527559054
 20
26.63287401574803
 10
7.626968503937007
 20
26.60728346456693
 10
7.623031496062991
 20
26.57874015748031
 10
7.626968503937007
 20
26.5501968503937
 10
7.638779527559054
 20
26.52460629921259
 10
7.657480314960629
 20
26.50295275590551
  0
LWPOLYLINE
  5
5EE
330
1E
100
AcDbEntity
  8
7
100
AcDbPolyline
 90
        9
 70
     0
 43
0.0098425196850394
 10
7.657480314960629
 20
26.50295275590551
 10
7.682086614173227
 20
26.48720472440944
 10
7.708661417322834
 20
26.47933070866141
 10
7.738188976377951
 20
26.47933070866141
 10
7.764763779527558
 20
26.48720472440944
 10
7.789370078740156
 20
26.50295275590551
 10
7.808070866141731
 20
26.52460629921259
 10
7.819881889763778
 20
26.5501968503937
 10
7.823818897637794
 20
26.57874015748031
  0
LWPOLYLINE
  5
5F9
330
1E
100
AcDbEntity
  8
7
100
AcDbPolyline
 90
        4
 70
     0
 43
0.0098425196850394
 10
7.823818897637794
 20
28.32874015748031
 10
7.819881889763778
 20
28.35728346456693
 10
7.808070866141731
 20
28.38287401574802
 10
7.789370078740156
 20
28.40452755905511
  0
LWPOLYLINE
  5
5FF
330
1E
100
AcDbEntity
  8
7
100
AcDbPolyline
 90
       15
 70
     0
 43
0.0098425196850394
 10
7.789370078740156
 20
28.40452755905511
 10
7.764763779527558
 20
28.42027559055118
 10
7.738188976377951
 20
28.42814960629921
 10
7.708661417322834
 20
28.42814960629921
 10
7.682086614173227
 20
28.42027559055118
 10
7.657480314960629
 20
28.40452755905511
 10
7.638779527559054
 20
28.38287401574802
 10
7.626968503937007
 20
28.35728346456693
 10
7.623031496062991
 20
28.32874015748031
 10
7.626968503937007
 20
28.3001968503937
 10
7.638779527559054
 20
28.27460629921259
 10
7.657480314960629
 20
28.25295275590551
 10
7.682086614173227
 20
28.23720472440944
 10
7.708661417322834
 20
28.22933070866142
 10
7.738188976377951
 20
28.22933070866142
  0
LWPOLYLINE
  5
610
330
1E
100
AcDbEntity
  8
7
100
AcDbPolyline
 90
        6
 70
     0
 43
0.0098425196850394
 10
7.738188976377951
 20
28.22933070866142
 10
7.764763779527558
 20
28.23720472440944
 10
7.789370078740156
 20
28.25295275590551
 10
7.808070866141731
 20
28.27460629921259
 10
7.819881889763778
 20
28.3001968503937
 10
7.823818897637794
 20
28.32874015748031
  0
LWPOLYLINE
  5
618
330
1E
100
AcDbEntity
  8
7
100
AcDbPolyline
 90
        7
 70
     0
 43
0.0098425196850394
 10
7.823818897637794
 20
24.20374015748031
 10
7.819881889763778
 20
24.23228346456693
 10
7.808070866141731
 20
24.25787401574803
 10
7.789370078740156
 20
24.27952755905511
 10
7.764763779527558
 20
24.29527559055118
 10
7.738188976377951
 20
24.30314960629921
 10
7.708661417322834
 20
24.30314960629921
  0
LWPOLYLINE
  5
621
330
1E
100
AcDbEntity
  8
7
100
AcDbPolyline
 90
       15
 70
     0
 43
0.0098425196850394
 10
7.708661417322834
 20
24.30314960629921
 10
7.682086614173227
 20
24.29527559055118
 10
7.657480314960629
 20
24.27952755905511
 10
7.638779527559054
 20
24.25787401574803
 10
7.626968503937007
 20
24.23228346456693
 10
7.623031496062991
 20
24.20374015748031
 10
7.626968503937007
 20
24.1751968503937
 10
7.638779527559054
 20
24.14960629921259
 10
7.657480314960629
 20
24.12795275590551
 10
7.682086614173227
 20
24.11220472440945
 10
7.708661417322834
 20
24.10433070866142
 10
7.738188976377951
 20
24.10433070866142
 10
7.764763779527558
 20
24.11220472440945
 10
7.789370078740156
 20
24.12795275590551
 10
7.808070866141731
 20
24.14960629921259
  0
LWPOLYLINE
  5
632
330
1E
100
AcDbEntity
  8
7
100
AcDbPolyline
 90
        3
 70
     0
 43
0.0098425196850394
 10
7.808070866141731
 20
24.14960629921259
 10
7.819881889763778
 20
24.1751968503937
 10
7.823818897637794
 20
24.20374015748031
  0
LWPOLYLINE
  5
637
330
1E
100
AcDbEntity
  8
7
100
AcDbPolyline
 90
        9
 70
     0
 43
0.0098425196850394
 10
7.823818897637794
 20
25.45374015748031
 10
7.819881889763778
 20
25.48228346456693
 10
7.808070866141731
 20
25.50787401574803
 10
7.789370078740156
 20
25.52952755905511
 10
7.764763779527558
 20
25.54527559055118
 10
7.738188976377951
 20
25.55314960629921
 10
7.708661417322834
 20
25.55314960629921
 10
7.682086614173227
 20
25.54527559055118
 10
7.657480314960629
 20
25.52952755905511
  0
LWPOLYLINE
  5
642
330
1E
100
AcDbEntity
  8
7
100
AcDbPolyline
 90
       15
 70
     0
 43
0.0098425196850394
 10
7.657480314960629
 20
25.52952755905511
 10
7.638779527559054
 20
25.50787401574803
 10
7.626968503937007
 20
25.48228346456693
 10
7.623031496062991
 20
25.45374015748031
 10
7.626968503937007
 20
25.4251968503937
 10
7.638779527559054
 20
25.39960629921259
 10
7.657480314960629
 20
25.37795275590551
 10
7.682086614173227
 20
25.36220472440945
 10
7.708661417322834
 20
25.35433070866142
 10
7.738188976377951
 20
25.35433070866142
 10
7.764763779527558
 20
25.36220472440945
 10
7.789370078740156
 20
25.37795275590551
 10
7.808070866141731
 20
25.39960629921259
 10
7.819881889763778
 20
25.4251968503937
 10
7.823818897637794
 20
25.45374015748031
  0
LWPOLYLINE
  5
653
330
1E
100
AcDbEntity
  8
7
100
AcDbPolyline
 90
       12
 70
     0
 43
0.0098425196850394
 10
7.823818897637794
 20
25.95374015748031
 10
7.819881889763778
 20
25.98228346456693
 10
7.808070866141731
 20
26.00787401574803
 10
7.789370078740156
 20
26.02952755905512
 10
7.764763779527558
 20
26.04527559055118
 10
7.738188976377951
 20
26.05314960629921
 10
7.708661417322834
 20
26.05314960629921
 10
7.682086614173227
 20
26.04527559055118
 10
7.657480314960629
 20
26.02952755905512
 10
7.638779527559054
 20
26.00787401574803
 10
7.626968503937007
 20
25.98228346456693
 10
7.623031496062991
 20
25.95374015748031
  0
LWPOLYLINE
  5
661
330
1E
100
AcDbEntity
  8
7
100
AcDbPolyline
 90
       12
 70
     0
 43
0.0098425196850394
 10
7.623031496062991
 20
25.95374015748031
 10
7.626968503937007
 20
25.9251968503937
 10
7.638779527559054
 20
25.89960629921259
 10
7.657480314960629
 20
25.87795275590551
 10
7.682086614173227
 20
25.86220472440944
 10
7.708661417322834
 20
25.85433070866141
 10
7.738188976377951
 20
25.85433070866141
 10
7.764763779527558
 20
25.86220472440944
 10
7.789370078740156
 20
25.87795275590551
 10
7.808070866141731
 20
25.89960629921259
 10
7.819881889763778
 20
25.9251968503937
 10
7.823818897637794
 20
25.95374015748031
  0
LINE
  5
66F
330
1E
100
AcDbEntity
  8
7
100
AcDbLine
 10
7.823818897637794
 20
27.20374015748031
 30
0.0
 11
7.819881889763778
 21
27.23228346456693
 31
0.0
  0
LWPOLYLINE
  5
670
330
1E
100
AcDbEntity
  8
7
100
AcDbPolyline
 90
       14
 70
     0
 43
0.0098425196850394
 10
7.819881889763778
 20
27.23228346456693
 10
7.808070866141731
 20
27.25787401574803
 10
7.789370078740156
 20
27.27952755905512
 10
7.764763779527558
 20
27.29527559055118
 10
7.738188976377951
 20
27.30314960629921
 10
7.708661417322834
 20
27.30314960629921
 10
7.682086614173227
 20
27.29527559055118
 10
7.657480314960629
 20
27.27952755905512
 10
7.638779527559054
 20
27.25787401574803
 10
7.626968503937007
 20
27.23228346456693
 10
7.623031496062991
 20
27.20374015748031
 10
7.626968503937007
 20
27.1751968503937
 10
7.638779527559054
 20
27.14960629921259
 10
7.657480314960629
 20
27.12795275590551
  0
LWPOLYLINE
  5
680
330
1E
100
AcDbEntity
  8
7
100
AcDbPolyline
 90
        9
 70
     0
 43
0.0098425196850394
 10
7.657480314960629
 20
27.12795275590551
 10
7.682086614173227
 20
27.11220472440944
 10
7.708661417322834
 20
27.10433070866141
 10
7.738188976377951
 20
27.10433070866141
 10
7.764763779527558
 20
27.11220472440944
 10
7.789370078740156
 20
27.12795275590551
 10
7.808070866141731
 20
27.14960629921259
 10
7.819881889763778
 20
27.1751968503937
 10
7.823818897637794
 20
27.20374015748031
  0
LWPOLYLINE
  5
68B
330
1E
100
AcDbEntity
  8
7
100
AcDbPolyline
 90
        5
 70
     0
 43
0.0098425196850394
 10
7.823818897637794
 20
27.70374015748031
 10
7.819881889763778
 20
27.73228346456693
 10
7.808070866141731
 20
27.75787401574802
 10
7.789370078740156
 20
27.77952755905511
 10
7.764763779527558
 20
27.79527559055118
  0
LWPOLYLINE
  5
692
330
1E
100
AcDbEntity
  8
7
100
AcDbPolyline
 90
       15
 70
     0
 43
0.0098425196850394
 10
7.764763779527558
 20
27.79527559055118
 10
7.738188976377951
 20
27.80314960629921
 10
7.708661417322834
 20
27.80314960629921
 10
7.682086614173227
 20
27.79527559055118
 10
7.657480314960629
 20
27.77952755905511
 10
7.638779527559054
 20
27.75787401574802
 10
7.626968503937007
 20
27.73228346456693
 10
7.623031496062991
 20
27.70374015748031
 10
7.626968503937007
 20
27.6751968503937
 10
7.638779527559054
 20
27.64960629921259
 10
7.657480314960629
 20
27.62795275590551
 10
7.682086614173227
 20
27.61220472440944
 10
7.708661417322834
 20
27.60433070866142
 10
7.738188976377951
 20
27.60433070866142
 10
7.764763779527558
 20
27.61220472440944
  0
LWPOLYLINE
  5
6A3
330
1E
100
AcDbEntity
  8
7
100
AcDbPolyline
 90
        5
 70
     0
 43
0.0098425196850394
 10
7.764763779527558
 20
27.61220472440944
 10
7.789370078740156
 20
27.62795275590551
 10
7.808070866141731
 20
27.64960629921259
 10
7.819881889763778
 20
27.6751968503937
 10
7.823818897637794
 20
27.70374015748031
  0
LWPOLYLINE
  5
6AA
330
1E
100
AcDbEntity
  8
7
100
AcDbPolyline
 90
        8
 70
     0
 43
0.0098425196850394
 10
7.823818897637794
 20
28.95374015748031
 10
7.819881889763778
 20
28.98228346456693
 10
7.808070866141731
 20
29.00787401574802
 10
7.789370078740156
 20
29.02952755905511
 10
7.764763779527558
 20
29.04527559055118
 10
7.738188976377951
 20
29.05314960629921
 10
7.708661417322834
 20
29.05314960629921
 10
7.682086614173227
 20
29.04527559055118
  0
LWPOLYLINE
  5
6B4
330
1E
100
AcDbEntity
  8
7
100
AcDbPolyline
 90
       15
 70
     0
 43
0.0098425196850394
 10
7.682086614173227
 20
29.04527559055118
 10
7.657480314960629
 20
29.02952755905511
 10
7.638779527559054
 20
29.00787401574802
 10
7.626968503937007
 20
28.98228346456693
 10
7.623031496062991
 20
28.95374015748031
 10
7.626968503937007
 20
28.9251968503937
 10
7.638779527559054
 20
28.89960629921259
 10
7.657480314960629
 20
28.87795275590551
 10
7.682086614173227
 20
28.86220472440944
 10
7.708661417322834
 20
28.85433070866142
 10
7.738188976377951
 20
28.85433070866142
 10
7.764763779527558
 20
28.86220472440944
 10
7.789370078740156
 20
28.87795275590551
 10
7.808070866141731
 20
28.89960629921259
 10
7.819881889763778
 20
28.9251968503937
  0
LINE
  5
6C5
330
1E
100
AcDbEntity
  8
7
100
AcDbLine
 10
7.819881889763778
 20
28.9251968503937
 30
0.0
 11
7.823818897637794
 21
28.95374015748031
 31
0.0
  0
LINE
  5
6C6
330
1E
100
AcDbEntity
  8
7
100
AcDbLine
 10
8.002952755905511
 20
23.95374015748031
 30
0.0
 11
6.904527559055117
 21
23.95374015748031
 31
0.0
  0
LINE
  5
6C7
330
1E
100
AcDbEntity
  8
7
100
AcDbLine
 10
6.904527559055117
 20
28.93897637795275
 30
0.0
 11
6.873031496062991
 21
28.93897637795275
 31
0.0
  0
LINE
  5
6C8
330
1E
100
AcDbEntity
  8
7
100
AcDbLine
 10
6.904527559055117
 20
28.43208661417323
 30
0.0
 11
6.873031496062991
 21
28.43208661417323
 31
0.0
  0
LINE
  5
6C9
330
1E
100
AcDbEntity
  8
7
100
AcDbLine
 10
6.904527559055117
 20
27.88582677165354
 30
0.0
 11
6.873031496062991
 21
27.88582677165354
 31
0.0
  0
LINE
  5
6CA
330
1E
100
AcDbEntity
  8
7
100
AcDbLine
 10
6.904527559055117
 20
27.37795275590551
 30
0.0
 11
6.873031496062991
 21
27.37795275590551
 31
0.0
  0
LINE
  5
6CB
330
1E
100
AcDbEntity
  8
7
100
AcDbLine
 10
6.904527559055117
 20
26.83169291338582
 30
0.0
 11
6.873031496062991
 21
26.83169291338582
 31
0.0
  0
LINE
  5
6CC
330
1E
100
AcDbEntity
  8
7
100
AcDbLine
 10
6.904527559055117
 20
26.3248031496063
 30
0.0
 11
6.873031496062991
 21
26.3248031496063
 31
0.0
  0
LINE
  5
6CD
330
1E
100
AcDbEntity
  8
7
100
AcDbLine
 10
6.904527559055117
 20
25.77755905511811
 30
0.0
 11
6.873031496062991
 21
25.77755905511811
 31
0.0
  0
LINE
  5
6CE
330
1E
100
AcDbEntity
  8
7
100
AcDbLine
 10
6.904527559055117
 20
25.27066929133858
 30
0.0
 11
6.873031496062991
 21
25.27066929133858
 31
0.0
  0
LINE
  5
6CF
330
1E
100
AcDbEntity
  8
7
100
AcDbLine
 10
6.904527559055117
 20
24.72342519685039
 30
0.0
 11
6.873031496062991
 21
24.72342519685039
 31
0.0
  0
LINE
  5
6D0
330
1E
100
AcDbEntity
  8
7
100
AcDbLine
 10
6.904527559055117
 20
24.21653543307086
 30
0.0
 11
6.873031496062991
 21
24.21653543307086
 31
0.0
  0
LWPOLYLINE
  5
6D1
330
1E
100
AcDbEntity
  8
7
100
AcDbPolyline
 90
       12
 70
     0
 43
0.0098425196850394
 10
6.609251968503936
 20
28.43208661417323
 10
6.614173228346456
 20
28.43208661417323
 10
6.626968503937007
 20
28.43208661417323
 10
6.647637795275589
 20
28.43208661417323
 10
6.6751968503937
 20
28.43208661417323
 10
6.706692913385825
 20
28.43208661417323
 10
6.741141732283463
 20
28.43208661417323
 10
6.774606299212598
 20
28.43208661417323
 10
6.807086614173227
 20
28.43208661417323
 10
6.833661417322834
 20
28.43208661417323
 10
6.85531496062992
 20
28.43208661417323
 10
6.868110236220472
 20
28.43208661417323
  0
LINE
  5
6DF
330
1E
100
AcDbEntity
  8
7
100
AcDbLine
 10
6.868110236220472
 20
28.43208661417323
 30
0.0
 11
6.873031496062991
 21
28.43208661417323
 31
0.0
  0
LWPOLYLINE
  5
6E0
330
1E
100
AcDbEntity
  8
7
100
AcDbPolyline
 90
       13
 70
     0
 43
0.0098425196850394
 10
6.609251968503936
 20
28.93897637795275
 10
6.614173228346456
 20
28.93897637795275
 10
6.626968503937007
 20
28.93897637795275
 10
6.647637795275589
 20
28.93897637795275
 10
6.6751968503937
 20
28.93897637795275
 10
6.706692913385825
 20
28.93897637795275
 10
6.741141732283463
 20
28.93897637795275
 10
6.774606299212598
 20
28.93897637795275
 10
6.807086614173227
 20
28.93897637795275
 10
6.833661417322834
 20
28.93897637795275
 10
6.85531496062992
 20
28.93897637795275
 10
6.868110236220472
 20
28.93897637795275
 10
6.873031496062991
 20
28.93897637795275
  0
LINE
  5
6EF
330
1E
100
AcDbEntity
  8
7
100
AcDbLine
 10
6.873031496062991
 20
28.43208661417323
 30
0.0
 11
6.873031496062991
 21
28.93897637795275
 31
0.0
  0
LWPOLYLINE
  5
6F0
330
1E
100
AcDbEntity
  8
7
100
AcDbPolyline
 90
       13
 70
     0
 43
0.0098425196850394
 10
6.609251968503936
 20
27.37795275590551
 10
6.614173228346456
 20
27.37795275590551
 10
6.626968503937007
 20
27.37795275590551
 10
6.647637795275589
 20
27.37795275590551
 10
6.6751968503937
 20
27.37795275590551
 10
6.706692913385825
 20
27.37795275590551
 10
6.741141732283463
 20
27.37795275590551
 10
6.774606299212598
 20
27.37795275590551
 10
6.807086614173227
 20
27.37795275590551
 10
6.833661417322834
 20
27.37795275590551
 10
6.85531496062992
 20
27.37795275590551
 10
6.868110236220472
 20
27.37795275590551
 10
6.873031496062991
 20
27.37795275590551
  0
LWPOLYLINE
  5
6FF
330
1E
100
AcDbEntity
  8
7
100
AcDbPolyline
 90
        4
 70
     0
 43
0.0098425196850394
 10
6.609251968503936
 20
27.88582677165354
 10
6.614173228346456
 20
27.88582677165354
 10
6.626968503937007
 20
27.88582677165354
 10
6.647637795275589
 20
27.88582677165354
  0
LWPOLYLINE
  5
705
330
1E
100
AcDbEntity
  8
7
100
AcDbPolyline
 90
       10
 70
     0
 43
0.0098425196850394
 10
6.647637795275589
 20
27.88582677165354
 10
6.6751968503937
 20
27.88582677165354
 10
6.706692913385825
 20
27.88582677165354
 10
6.741141732283463
 20
27.88582677165354
 10
6.774606299212598
 20
27.88582677165354
 10
6.807086614173227
 20
27.88582677165354
 10
6.833661417322834
 20
27.88582677165354
 10
6.85531496062992
 20
27.88582677165354
 10
6.868110236220472
 20
27.88582677165354
 10
6.873031496062991
 20
27.88582677165354
  0
LINE
  5
711
330
1E
100
AcDbEntity
  8
7
100
AcDbLine
 10
6.873031496062991
 20
27.37795275590551
 30
0.0
 11
6.873031496062991
 21
27.88582677165354
 31
0.0
  0
LWPOLYLINE
  5
712
330
1E
100
AcDbEntity
  8
7
100
AcDbPolyline
 90
        5
 70
     0
 43
0.0098425196850394
 10
6.609251968503936
 20
26.3248031496063
 10
6.614173228346456
 20
26.3248031496063
 10
6.626968503937007
 20
26.3248031496063
 10
6.647637795275589
 20
26.3248031496063
 10
6.6751968503937
 20
26.3248031496063
  0
LWPOLYLINE
  5
719
330
1E
100
AcDbEntity
  8
7
100
AcDbPolyline
 90
        9
 70
     0
 43
0.0098425196850394
 10
6.6751968503937
 20
26.3248031496063
 10
6.706692913385825
 20
26.3248031496063
 10
6.741141732283463
 20
26.3248031496063
 10
6.774606299212598
 20
26.3248031496063
 10
6.807086614173227
 20
26.3248031496063
 10
6.833661417322834
 20
26.3248031496063
 10
6.85531496062992
 20
26.3248031496063
 10
6.868110236220472
 20
26.3248031496063
 10
6.873031496062991
 20
26.3248031496063
  0
LWPOLYLINE
  5
724
330
1E
100
AcDbEntity
  8
7
100
AcDbPolyline
 90
       10
 70
     0
 43
0.0098425196850394
 10
6.609251968503936
 20
26.83169291338582
 10
6.614173228346456
 20
26.83169291338582
 10
6.626968503937007
 20
26.83169291338582
 10
6.647637795275589
 20
26.83169291338582
 10
6.6751968503937
 20
26.83169291338582
 10
6.706692913385825
 20
26.83169291338582
 10
6.741141732283463
 20
26.83169291338582
 10
6.774606299212598
 20
26.83169291338582
 10
6.807086614173227
 20
26.83169291338582
 10
6.833661417322834
 20
26.83169291338582
  0
LWPOLYLINE
  5
730
330
1E
100
AcDbEntity
  8
7
100
AcDbPolyline
 90
        4
 70
     0
 43
0.0098425196850394
 10
6.833661417322834
 20
26.83169291338582
 10
6.85531496062992
 20
26.83169291338582
 10
6.868110236220472
 20
26.83169291338582
 10
6.873031496062991
 20
26.83169291338582
  0
LINE
  5
736
330
1E
100
AcDbEntity
  8
7
100
AcDbLine
 10
6.873031496062991
 20
26.3248031496063
 30
0.0
 11
6.873031496062991
 21
26.83169291338582
 31
0.0
  0
LWPOLYLINE
  5
737
330
1E
100
AcDbEntity
  8
7
100
AcDbPolyline
 90
       11
 70
     0
 43
0.0098425196850394
 10
6.609251968503936
 20
25.27066929133858
 10
6.614173228346456
 20
25.27066929133858
 10
6.626968503937007
 20
25.27066929133858
 10
6.647637795275589
 20
25.27066929133858
 10
6.6751968503937
 20
25.27066929133858
 10
6.706692913385825
 20
25.27066929133858
 10
6.741141732283463
 20
25.27066929133858
 10
6.774606299212598
 20
25.27066929133858
 10
6.807086614173227
 20
25.27066929133858
 10
6.833661417322834
 20
25.27066929133858
 10
6.85531496062992
 20
25.27066929133858
  0
LWPOLYLINE
  5
744
330
1E
100
AcDbEntity
  8
7
100
AcDbPolyline
 90
        3
 70
     0
 43
0.0098425196850394
 10
6.85531496062992
 20
25.27066929133858
 10
6.868110236220472
 20
25.27066929133858
 10
6.873031496062991
 20
25.27066929133858
  0
LWPOLYLINE
  5
749
330
1E
100
AcDbEntity
  8
7
100
AcDbPolyline
 90
       13
 70
     0
 43
0.0098425196850394
 10
6.609251968503936
 20
25.77755905511811
 10
6.614173228346456
 20
25.77755905511811
 10
6.626968503937007
 20
25.77755905511811
 10
6.647637795275589
 20
25.77755905511811
 10
6.6751968503937
 20
25.77755905511811
 10
6.706692913385825
 20
25.77755905511811
 10
6.741141732283463
 20
25.77755905511811
 10
6.774606299212598
 20
25.77755905511811
 10
6.807086614173227
 20
25.77755905511811
 10
6.833661417322834
 20
25.77755905511811
 10
6.85531496062992
 20
25.77755905511811
 10
6.868110236220472
 20
25.77755905511811
 10
6.873031496062991
 20
25.77755905511811
  0
LINE
  5
758
330
1E
100
AcDbEntity
  8
7
100
AcDbLine
 10
6.873031496062991
 20
25.27066929133858
 30
0.0
 11
6.873031496062991
 21
25.77755905511811
 31
0.0
  0
LWPOLYLINE
  5
759
330
1E
100
AcDbEntity
  8
7
100
AcDbPolyline
 90
       13
 70
     0
 43
0.0098425196850394
 10
6.609251968503936
 20
24.21653543307086
 10
6.614173228346456
 20
24.21653543307086
 10
6.626968503937007
 20
24.21653543307086
 10
6.647637795275589
 20
24.21653543307086
 10
6.6751968503937
 20
24.21653543307086
 10
6.706692913385825
 20
24.21653543307086
 10
6.741141732283463
 20
24.21653543307086
 10
6.774606299212598
 20
24.21653543307086
 10
6.807086614173227
 20
24.21653543307086
 10
6.833661417322834
 20
24.21653543307086
 10
6.85531496062992
 20
24.21653543307086
 10
6.868110236220472
 20
24.21653543307086
 10
6.873031496062991
 20
24.21653543307086
  0
LINE
  5
768
330
1E
100
AcDbEntity
  8
7
100
AcDbLine
 10
6.609251968503936
 20
24.72342519685039
 30
0.0
 11
6.614173228346456
 21
24.72342519685039
 31
0.0
  0
LWPOLYLINE
  5
769
330
1E
100
AcDbEntity
  8
7
100
AcDbPolyline
 90
       12
 70
     0
 43
0.0098425196850394
 10
6.614173228346456
 20
24.72342519685039
 10
6.626968503937007
 20
24.72342519685039
 10
6.647637795275589
 20
24.72342519685039
 10
6.6751968503937
 20
24.72342519685039
 10
6.706692913385825
 20
24.72342519685039
 10
6.741141732283463
 20
24.72342519685039
 10
6.774606299212598
 20
24.72342519685039
 10
6.807086614173227
 20
24.72342519685039
 10
6.833661417322834
 20
24.72342519685039
 10
6.85531496062992
 20
24.72342519685039
 10
6.868110236220472
 20
24.72342519685039
 10
6.873031496062991
 20
24.72342519685039
  0
LINE
  5
777
330
1E
100
AcDbEntity
  8
7
100
AcDbLine
 10
6.873031496062991
 20
24.21653543307086
 30
0.0
 11
6.873031496062991
 21
24.72342519685039
 31
0.0
  0
LINE
  5
778
330
1E
100
AcDbEntity
  8
7
100
AcDbLine
 10
6.873031496062991
 20
25.25
 30
0.0
 11
6.873031496062991
 21
25.27066929133858
 31
0.0
  0
LINE
  5
779
330
1E
100
AcDbEntity
  8
7
100
AcDbLine
 10
6.873031496062991
 20
25.77755905511811
 30
0.0
 11
6.873031496062991
 21
25.79724409448818
 31
0.0
  0
LINE
  5
77A
330
1E
100
AcDbEntity
  8
7
100
AcDbLine
 10
6.808070866141731
 20
25.79724409448818
 30
0.0
 11
6.808070866141731
 21
25.77755905511811
 31
0.0
  0
LINE
  5
77B
330
1E
100
AcDbEntity
  8
7
100
AcDbLine
 10
6.808070866141731
 20
25.27066929133858
 30
0.0
 11
6.808070866141731
 21
25.25
 31
0.0
  0
LINE
  5
77C
330
1E
100
AcDbEntity
  8
7
100
AcDbLine
 10
6.873031496062991
 20
26.30413385826771
 30
0.0
 11
6.873031496062991
 21
26.3248031496063
 31
0.0
  0
LINE
  5
77D
330
1E
100
AcDbEntity
  8
7
100
AcDbLine
 10
6.873031496062991
 20
26.83169291338582
 30
0.0
 11
6.873031496062991
 21
26.8513779527559
 31
0.0
  0
LINE
  5
77E
330
1E
100
AcDbEntity
  8
7
100
AcDbLine
 10
6.808070866141731
 20
26.8513779527559
 30
0.0
 11
6.808070866141731
 21
26.83169291338582
 31
0.0
  0
LINE
  5
77F
330
1E
100
AcDbEntity
  8
7
100
AcDbLine
 10
6.808070866141731
 20
26.3248031496063
 30
0.0
 11
6.808070866141731
 21
26.30413385826771
 31
0.0
  0
LINE
  5
780
330
1E
100
AcDbEntity
  8
7
100
AcDbLine
 10
6.873031496062991
 20
27.35826771653543
 30
0.0
 11
6.873031496062991
 21
27.37795275590551
 31
0.0
  0
LINE
  5
781
330
1E
100
AcDbEntity
  8
7
100
AcDbLine
 10
6.873031496062991
 20
27.88484251968504
 30
0.0
 11
6.873031496062991
 21
27.90551181102362
 31
0.0
  0
LINE
  5
782
330
1E
100
AcDbEntity
  8
7
100
AcDbLine
 10
6.808070866141731
 20
27.90551181102362
 30
0.0
 11
6.808070866141731
 21
27.88484251968504
 31
0.0
  0
LINE
  5
783
330
1E
100
AcDbEntity
  8
7
100
AcDbLine
 10
6.808070866141731
 20
27.37795275590551
 30
0.0
 11
6.808070866141731
 21
27.35826771653543
 31
0.0
  0
LINE
  5
784
330
1E
100
AcDbEntity
  8
7
100
AcDbLine
 10
6.808070866141731
 20
29.20374015748031
 30
0.0
 11
6.808070866141731
 21
28.93897637795275
 31
0.0
  0
LINE
  5
785
330
1E
100
AcDbEntity
  8
7
100
AcDbLine
 10
6.808070866141731
 20
28.43208661417323
 30
0.0
 11
6.808070866141731
 21
28.41240157480314
 31
0.0
  0
LINE
  5
786
330
1E
100
AcDbEntity
  8
7
100
AcDbLine
 10
6.873031496062991
 20
28.41240157480314
 30
0.0
 11
6.873031496062991
 21
28.43208661417323
 31
0.0
  0
LINE
  5
787
330
1E
100
AcDbEntity
  8
7
100
AcDbLine
 10
6.873031496062991
 20
28.93897637795275
 30
0.0
 11
6.873031496062991
 21
29.20374015748031
 31
0.0
  0
LINE
  5
788
330
1E
100
AcDbEntity
  8
7
100
AcDbLine
 10
6.808070866141731
 20
29.20374015748031
 30
0.0
 11
6.873031496062991
 21
29.20374015748031
 31
0.0
  0
LINE
  5
789
330
1E
100
AcDbEntity
  8
7
100
AcDbLine
 10
6.873031496062991
 20
23.95374015748031
 30
0.0
 11
6.873031496062991
 21
24.21653543307086
 31
0.0
  0
LINE
  5
78A
330
1E
100
AcDbEntity
  8
7
100
AcDbLine
 10
6.873031496062991
 20
24.72342519685039
 30
0.0
 11
6.873031496062991
 21
24.74311023622047
 31
0.0
  0
LINE
  5
78B
330
1E
100
AcDbEntity
  8
7
100
AcDbLine
 10
6.873031496062991
 20
28.41240157480314
 30
0.0
 11
6.873031496062991
 21
27.90551181102362
 31
0.0
  0
LINE
  5
78C
330
1E
100
AcDbEntity
  8
7
100
AcDbLine
 10
6.873031496062991
 20
27.35826771653543
 30
0.0
 11
6.873031496062991
 21
26.8513779527559
 31
0.0
  0
LINE
  5
78D
330
1E
100
AcDbEntity
  8
7
100
AcDbLine
 10
6.873031496062991
 20
26.30413385826771
 30
0.0
 11
6.873031496062991
 21
25.79724409448818
 31
0.0
  0
LINE
  5
78E
330
1E
100
AcDbEntity
  8
7
100
AcDbLine
 10
6.873031496062991
 20
25.25
 30
0.0
 11
6.873031496062991
 21
24.74311023622047
 31
0.0
  0
LINE
  5
78F
330
1E
100
AcDbEntity
  8
7
100
AcDbLine
 10
6.808070866141731
 20
24.74311023622047
 30
0.0
 11
6.808070866141731
 21
24.72342519685039
 31
0.0
  0
LWPOLYLINE
  5
790
330
1E
100
AcDbEntity
  8
7
100
AcDbPolyline
 90
        3
 70
     0
 43
0.0098425196850394
 10
6.808070866141731
 20
24.21653543307086
 10
6.808070866141731
 20
23.95374015748031
 10
6.873031496062991
 20
23.95374015748031
  0
LWPOLYLINE
  5
795
330
1E
100
AcDbEntity
  8
7
100
AcDbPolyline
 90
       13
 70
     0
 43
0.0098425196850394
 10
6.873031496062991
 20
25.25
 10
6.868110236220472
 20
25.25
 10
6.85531496062992
 20
25.25
 10
6.833661417322834
 20
25.25
 10
6.807086614173227
 20
25.25
 10
6.774606299212598
 20
25.25
 10
6.741141732283463
 20
25.25
 10
6.706692913385825
 20
25.25
 10
6.6751968503937
 20
25.25
 10
6.647637795275589
 20
25.25
 10
6.626968503937007
 20
25.25
 10
6.614173228346456
 20
25.25
 10
6.609251968503936
 20
25.25
  0
LWPOLYLINE
  5
7A4
330
1E
100
AcDbEntity
  8
7
100
AcDbPolyline
 90
       13
 70
     0
 43
0.0098425196850394
 10
6.873031496062991
 20
24.74311023622047
 10
6.868110236220472
 20
24.74311023622047
 10
6.85531496062992
 20
24.74311023622047
 10
6.833661417322834
 20
24.74311023622047
 10
6.807086614173227
 20
24.74311023622047
 10
6.774606299212598
 20
24.74311023622047
 10
6.741141732283463
 20
24.74311023622047
 10
6.706692913385825
 20
24.74311023622047
 10
6.6751968503937
 20
24.74311023622047
 10
6.647637795275589
 20
24.74311023622047
 10
6.626968503937007
 20
24.74311023622047
 10
6.614173228346456
 20
24.74311023622047
 10
6.609251968503936
 20
24.74311023622047
  0
LWPOLYLINE
  5
7B3
330
1E
100
AcDbEntity
  8
7
100
AcDbPolyline
 90
       13
 70
     0
 43
0.0098425196850394
 10
6.873031496062991
 20
26.30413385826771
 10
6.868110236220472
 20
26.30413385826771
 10
6.85531496062992
 20
26.30413385826771
 10
6.833661417322834
 20
26.30413385826771
 10
6.807086614173227
 20
26.30413385826771
 10
6.774606299212598
 20
26.30413385826771
 10
6.741141732283463
 20
26.30413385826771
 10
6.706692913385825
 20
26.30413385826771
 10
6.6751968503937
 20
26.30413385826771
 10
6.647637795275589
 20
26.30413385826771
 10
6.626968503937007
 20
26.30413385826771
 10
6.614173228346456
 20
26.30413385826771
 10
6.609251968503936
 20
26.30413385826771
  0
LWPOLYLINE
  5
7C2
330
1E
100
AcDbEntity
  8
7
100
AcDbPolyline
 90
        3
 70
     0
 43
0.0098425196850394
 10
6.873031496062991
 20
25.79724409448818
 10
6.868110236220472
 20
25.79724409448818
 10
6.85531496062992
 20
25.79724409448818
  0
LWPOLYLINE
  5
7C7
330
1E
100
AcDbEntity
  8
7
100
AcDbPolyline
 90
       11
 70
     0
 43
0.0098425196850394
 10
6.85531496062992
 20
25.79724409448818
 10
6.833661417322834
 20
25.79724409448818
 10
6.807086614173227
 20
25.79724409448818
 10
6.774606299212598
 20
25.79724409448818
 10
6.741141732283463
 20
25.79724409448818
 10
6.706692913385825
 20
25.79724409448818
 10
6.6751968503937
 20
25.79724409448818
 10
6.647637795275589
 20
25.79724409448818
 10
6.626968503937007
 20
25.79724409448818
 10
6.614173228346456
 20
25.79724409448818
 10
6.609251968503936
 20
25.79724409448818
  0
LWPOLYLINE
  5
7D4
330
1E
100
AcDbEntity
  8
7
100
AcDbPolyline
 90
        5
 70
     0
 43
0.0098425196850394
 10
6.873031496062991
 20
27.35826771653543
 10
6.868110236220472
 20
27.35826771653543
 10
6.85531496062992
 20
27.35826771653543
 10
6.833661417322834
 20
27.35826771653543
 10
6.807086614173227
 20
27.35826771653543
  0
LWPOLYLINE
  5
7DB
330
1E
100
AcDbEntity
  8
7
100
AcDbPolyline
 90
        9
 70
     0
 43
0.0098425196850394
 10
6.807086614173227
 20
27.35826771653543
 10
6.774606299212598
 20
27.35826771653543
 10
6.741141732283463
 20
27.35826771653543
 10
6.706692913385825
 20
27.35826771653543
 10
6.6751968503937
 20
27.35826771653543
 10
6.647637795275589
 20
27.35826771653543
 10
6.626968503937007
 20
27.35826771653543
 10
6.614173228346456
 20
27.35826771653543
 10
6.609251968503936
 20
27.35826771653543
  0
LWPOLYLINE
  5
7E6
330
1E
100
AcDbEntity
  8
7
100
AcDbPolyline
 90
        7
 70
     0
 43
0.0098425196850394
 10
6.873031496062991
 20
26.8513779527559
 10
6.868110236220472
 20
26.8513779527559
 10
6.85531496062992
 20
26.8513779527559
 10
6.833661417322834
 20
26.8513779527559
 10
6.807086614173227
 20
26.8513779527559
 10
6.774606299212598
 20
26.8513779527559
 10
6.741141732283463
 20
26.8513779527559
  0
LWPOLYLINE
  5
7EF
330
1E
100
AcDbEntity
  8
7
100
AcDbPolyline
 90
        7
 70
     0
 43
0.0098425196850394
 10
6.741141732283463
 20
26.8513779527559
 10
6.706692913385825
 20
26.8513779527559
 10
6.6751968503937
 20
26.8513779527559
 10
6.647637795275589
 20
26.8513779527559
 10
6.626968503937007
 20
26.8513779527559
 10
6.614173228346456
 20
26.8513779527559
 10
6.609251968503936
 20
26.8513779527559
  0
LWPOLYLINE
  5
7F8
330
1E
100
AcDbEntity
  8
7
100
AcDbPolyline
 90
        9
 70
     0
 43
0.0098425196850394
 10
6.873031496062991
 20
28.41240157480314
 10
6.868110236220472
 20
28.41240157480314
 10
6.85531496062992
 20
28.41240157480314
 10
6.833661417322834
 20
28.41240157480314
 10
6.807086614173227
 20
28.41240157480314
 10
6.774606299212598
 20
28.41240157480314
 10
6.741141732283463
 20
28.41240157480314
 10
6.706692913385825
 20
28.41240157480314
 10
6.6751968503937
 20
28.41240157480314
  0
LWPOLYLINE
  5
803
330
1E
100
AcDbEntity
  8
7
100
AcDbPolyline
 90
        5
 70
     0
 43
0.0098425196850394
 10
6.6751968503937
 20
28.41240157480314
 10
6.647637795275589
 20
28.41240157480314
 10
6.626968503937007
 20
28.41240157480314
 10
6.614173228346456
 20
28.41240157480314
 10
6.609251968503936
 20
28.41240157480314
  0
LWPOLYLINE
  5
80A
330
1E
100
AcDbEntity
  8
7
100
AcDbPolyline
 90
       11
 70
     0
 43
0.0098425196850394
 10
6.873031496062991
 20
27.90551181102362
 10
6.868110236220472
 20
27.90551181102362
 10
6.85531496062992
 20
27.90551181102362
 10
6.833661417322834
 20
27.90551181102362
 10
6.807086614173227
 20
27.90551181102362
 10
6.774606299212598
 20
27.90551181102362
 10
6.741141732283463
 20
27.90551181102362
 10
6.706692913385825
 20
27.90551181102362
 10
6.6751968503937
 20
27.90551181102362
 10
6.647637795275589
 20
27.90551181102362
 10
6.626968503937007
 20
27.90551181102362
  0
LWPOLYLINE
  5
817
330
1E
100
AcDbEntity
  8
7
100
AcDbPolyline
 90
        3
 70
     0
 43
0.0098425196850394
 10
6.626968503937007
 20
27.90551181102362
 10
6.614173228346456
 20
27.90551181102362
 10
6.609251968503936
 20
27.90551181102362
  0
LWPOLYLINE
  5
81C
330
1E
100
AcDbEntity
  8
7
100
AcDbPolyline
 90
       10
 70
     0
 43
0.0098425196850394
 10
26.13090551181102
 20
28.32874015748031
 10
26.126968503937
 20
28.35728346456693
 10
26.11515748031496
 20
28.38287401574802
 10
26.09645669291338
 20
28.40452755905511
 10
26.07185039370079
 20
28.42027559055118
 10
26.04527559055118
 20
28.42814960629921
 10
26.01574803149606
 20
28.42814960629921
 10
25.98917322834646
 20
28.42027559055118
 10
25.96456692913386
 20
28.40452755905511
 10
25.94586614173228
 20
28.38287401574802
  0
LWPOLYLINE
  5
828
330
1E
100
AcDbEntity
  8
7
100
AcDbPolyline
 90
       14
 70
     0
 43
0.0098425196850394
 10
25.94586614173228
 20
28.38287401574802
 10
25.93405511811023
 20
28.35728346456693
 10
25.93011811023622
 20
28.32874015748031
 10
25.93405511811023
 20
28.3001968503937
 10
25.94586614173228
 20
28.27460629921259
 10
25.96456692913386
 20
28.25295275590551
 10
25.98917322834646
 20
28.23720472440944
 10
26.01574803149606
 20
28.22933070866142
 10
26.04527559055118
 20
28.22933070866142
 10
26.07185039370079
 20
28.23720472440944
 10
26.09645669291338
 20
28.25295275590551
 10
26.11515748031496
 20
28.27460629921259
 10
26.126968503937
 20
28.3001968503937
 10
26.13090551181102
 20
28.32874015748031
  0
LWPOLYLINE
  5
838
330
1E
100
AcDbEntity
  8
7
100
AcDbPolyline
 90
       12
 70
     0
 43
0.0098425196850394
 10
26.13090551181102
 20
26.57874015748031
 10
26.126968503937
 20
26.60728346456693
 10
26.11515748031496
 20
26.63287401574803
 10
26.09645669291338
 20
26.65452755905512
 10
26.07185039370079
 20
26.67027559055118
 10
26.04527559055118
 20
26.67814960629921
 10
26.01574803149606
 20
26.67814960629921
 10
25.98917322834646
 20
26.67027559055118
 10
25.96456692913386
 20
26.65452755905512
 10
25.94586614173228
 20
26.63287401574803
 10
25.93405511811023
 20
26.60728346456693
 10
25.93011811023622
 20
26.57874015748031
  0
LWPOLYLINE
  5
846
330
1E
100
AcDbEntity
  8
7
100
AcDbPolyline
 90
       12
 70
     0
 43
0.0098425196850394
 10
25.93011811023622
 20
26.57874015748031
 10
25.93405511811023
 20
26.5501968503937
 10
25.94586614173228
 20
26.52460629921259
 10
25.96456692913386
 20
26.50295275590551
 10
25.98917322834646
 20
26.48720472440944
 10
26.01574803149606
 20
26.47933070866141
 10
26.04527559055118
 20
26.47933070866141
 10
26.07185039370079
 20
26.48720472440944
 10
26.09645669291338
 20
26.50295275590551
 10
26.11515748031496
 20
26.52460629921259
 10
26.126968503937
 20
26.5501968503937
 10
26.13090551181102
 20
26.57874015748031
  0
LWPOLYLINE
  5
854
330
1E
100
AcDbEntity
  8
7
100
AcDbPolyline
 90
       14
 70
     0
 43
0.0098425196850394
 10
26.13090551181102
 20
24.82874015748031
 10
26.126968503937
 20
24.85728346456693
 10
26.11515748031496
 20
24.88287401574803
 10
26.09645669291338
 20
24.90452755905511
 10
26.07185039370079
 20
24.92027559055118
 10
26.04527559055118
 20
24.92814960629921
 10
26.01574803149606
 20
24.92814960629921
 10
25.98917322834646
 20
24.92027559055118
 10
25.96456692913386
 20
24.90452755905511
 10
25.94586614173228
 20
24.88287401574803
 10
25.93405511811023
 20
24.85728346456693
 10
25.93011811023622
 20
24.82874015748031
 10
25.93405511811023
 20
24.8001968503937
 10
25.94586614173228
 20
24.77460629921259
  0
LWPOLYLINE
  5
864
330
1E
100
AcDbEntity
  8
7
100
AcDbPolyline
 90
       10
 70
     0
 43
0.0098425196850394
 10
25.94586614173228
 20
24.77460629921259
 10
25.96456692913386
 20
24.75295275590551
 10
25.98917322834646
 20
24.73720472440945
 10
26.01574803149606
 20
24.72933070866142
 10
26.04527559055118
 20
24.72933070866142
 10
26.07185039370079
 20
24.73720472440945
 10
26.09645669291338
 20
24.75295275590551
 10
26.11515748031496
 20
24.77460629921259
 10
26.126968503937
 20
24.8001968503937
 10
26.13090551181102
 20
24.82874015748031
  0
LWPOLYLINE
  5
870
330
1E
100
AcDbEntity
  8
7
100
AcDbPolyline
 90
        3
 70
     0
 43
0.0098425196850394
 10
25.93011811023622
 20
24.20374015748031
 10
25.93405511811023
 20
24.1751968503937
 10
25.94586614173228
 20
24.14960629921259
  0
LWPOLYLINE
  5
875
330
1E
100
AcDbEntity
  8
7
100
AcDbPolyline
 90
       16
 70
     0
 43
0.0098425196850394
 10
25.94586614173228
 20
24.14960629921259
 10
25.96456692913386
 20
24.12795275590551
 10
25.98917322834646
 20
24.11220472440945
 10
26.01574803149606
 20
24.10433070866142
 10
26.04527559055118
 20
24.10433070866142
 10
26.07185039370079
 20
24.11220472440945
 10
26.09645669291338
 20
24.12795275590551
 10
26.11515748031496
 20
24.14960629921259
 10
26.126968503937
 20
24.1751968503937
 10
26.13090551181102
 20
24.20374015748031
 10
26.126968503937
 20
24.23228346456693
 10
26.11515748031496
 20
24.25787401574803
 10
26.09645669291338
 20
24.27952755905511
 10
26.07185039370079
 20
24.29527559055118
 10
26.04527559055118
 20
24.30314960629921
 10
26.01574803149606
 20
24.30314960629921
  0
LWPOLYLINE
  5
887
330
1E
100
AcDbEntity
  8
7
100
AcDbPolyline
 90
        6
 70
     0
 43
0.0098425196850394
 10
26.01574803149606
 20
24.30314960629921
 10
25.98917322834646
 20
24.29527559055118
 10
25.96456692913386
 20
24.27952755905511
 10
25.94586614173228
 20
24.25787401574803
 10
25.93405511811023
 20
24.23228346456693
 10
25.93011811023622
 20
24.20374015748031
  0
LWPOLYLINE
  5
88F
330
1E
100
AcDbEntity
  8
7
100
AcDbPolyline
 90
        6
 70
     0
 43
0.0098425196850394
 10
25.93011811023622
 20
25.45374015748031
 10
25.93405511811023
 20
25.4251968503937
 10
25.94586614173228
 20
25.39960629921259
 10
25.96456692913386
 20
25.37795275590551
 10
25.98917322834646
 20
25.36220472440945
 10
26.01574803149606
 20
25.35433070866142
  0
LWPOLYLINE
  5
897
330
1E
100
AcDbEntity
  8
7
100
AcDbPolyline
 90
       16
 70
     0
 43
0.0098425196850394
 10
26.01574803149606
 20
25.35433070866142
 10
26.04527559055118
 20
25.35433070866142
 10
26.07185039370079
 20
25.36220472440945
 10
26.09645669291338
 20
25.37795275590551
 10
26.11515748031496
 20
25.39960629921259
 10
26.126968503937
 20
25.4251968503937
 10
26.13090551181102
 20
25.45374015748031
 10
26.126968503937
 20
25.48228346456693
 10
26.11515748031496
 20
25.50787401574803
 10
26.09645669291338
 20
25.52952755905511
 10
26.07185039370079
 20
25.54527559055118
 10
26.04527559055118
 20
25.55314960629921
 10
26.01574803149606
 20
25.55314960629921
 10
25.98917322834646
 20
25.54527559055118
 10
25.96456692913386
 20
25.52952755905511
 10
25.94586614173228
 20
25.50787401574803
  0
LWPOLYLINE
  5
8A9
330
1E
100
AcDbEntity
  8
7
100
AcDbPolyline
 90
        3
 70
     0
 43
0.0098425196850394
 10
25.94586614173228
 20
25.50787401574803
 10
25.93405511811023
 20
25.48228346456693
 10
25.93011811023622
 20
25.45374015748031
  0
LWPOLYLINE
  5
8AE
330
1E
100
AcDbEntity
  8
7
100
AcDbPolyline
 90
       10
 70
     0
 43
0.0098425196850394
 10
25.93011811023622
 20
25.95374015748031
 10
25.93405511811023
 20
25.9251968503937
 10
25.94586614173228
 20
25.89960629921259
 10
25.96456692913386
 20
25.87795275590551
 10
25.98917322834646
 20
25.86220472440944
 10
26.01574803149606
 20
25.85433070866141
 10
26.04527559055118
 20
25.85433070866141
 10
26.07185039370079
 20
25.86220472440944
 10
26.09645669291338
 20
25.87795275590551
 10
26.11515748031496
 20
25.89960629921259
  0
LWPOLYLINE
  5
8BA
330
1E
100
AcDbEntity
  8
7
100
AcDbPolyline
 90
       14
 70
     0
 43
0.0098425196850394
 10
26.11515748031496
 20
25.89960629921259
 10
26.126968503937
 20
25.9251968503937
 10
26.13090551181102
 20
25.95374015748031
 10
26.126968503937
 20
25.98228346456693
 10
26.11515748031496
 20
26.00787401574803
 10
26.09645669291338
 20
26.02952755905512
 10
26.07185039370079
 20
26.04527559055118
 10
26.04527559055118
 20
26.05314960629921
 10
26.01574803149606
 20
26.05314960629921
 10
25.98917322834646
 20
26.04527559055118
 10
25.96456692913386
 20
26.02952755905512
 10
25.94586614173228
 20
26.00787401574803
 10
25.93405511811023
 20
25.98228346456693
 10
25.93011811023622
 20
25.95374015748031
  0
LWPOLYLINE
  5
8CA
330
1E
100
AcDbEntity
  8
7
100
AcDbPolyline
 90
       14
 70
     0
 43
0.0098425196850394
 10
25.93011811023622
 20
27.20374015748031
 10
25.93405511811023
 20
27.1751968503937
 10
25.94586614173228
 20
27.14960629921259
 10
25.96456692913386
 20
27.12795275590551
 10
25.98917322834646
 20
27.11220472440944
 10
26.01574803149606
 20
27.10433070866141
 10
26.04527559055118
 20
27.10433070866141
 10
26.07185039370079
 20
27.11220472440944
 10
26.09645669291338
 20
27.12795275590551
 10
26.11515748031496
 20
27.14960629921259
 10
26.126968503937
 20
27.1751968503937
 10
26.13090551181102
 20
27.20374015748031
 10
26.126968503937
 20
27.23228346456693
 10
26.11515748031496
 20
27.25787401574803
  0
LWPOLYLINE
  5
8DA
330
1E
100
AcDbEntity
  8
7
100
AcDbPolyline
 90
       10
 70
     0
 43
0.0098425196850394
 10
26.11515748031496
 20
27.25787401574803
 10
26.09645669291338
 20
27.27952755905512
 10
26.07185039370079
 20
27.29527559055118
 10
26.04527559055118
 20
27.30314960629921
 10
26.01574803149606
 20
27.30314960629921
 10
25.98917322834646
 20
27.29527559055118
 10
25.96456692913386
 20
27.27952755905512
 10
25.94586614173228
 20
27.25787401574803
 10
25.93405511811023
 20
27.23228346456693
 10
25.93011811023622
 20
27.20374015748031
  0
LINE
  5
8E6
330
1E
100
AcDbEntity
  8
7
100
AcDbLine
 10
25.93011811023622
 20
27.70374015748031
 30
0.0
 11
25.93405511811023
 21
27.6751968503937
 31
0.0
  0
LWPOLYLINE
  5
8E7
330
1E
100
AcDbEntity
  8
7
100
AcDbPolyline
 90
       16
 70
     0
 43
0.0098425196850394
 10
25.93405511811023
 20
27.6751968503937
 10
25.94586614173228
 20
27.64960629921259
 10
25.96456692913386
 20
27.62795275590551
 10
25.98917322834646
 20
27.61220472440944
 10
26.01574803149606
 20
27.60433070866142
 10
26.04527559055118
 20
27.60433070866142
 10
26.07185039370079
 20
27.61220472440944
 10
26.09645669291338
 20
27.62795275590551
 10
26.11515748031496
 20
27.64960629921259
 10
26.126968503937
 20
27.6751968503937
 10
26.13090551181102
 20
27.70374015748031
 10
26.126968503937
 20
27.73228346456693
 10
26.11515748031496
 20
27.75787401574802
 10
26.09645669291338
 20
27.77952755905511
 10
26.07185039370079
 20
27.79527559055118
 10
26.04527559055118
 20
27.80314960629921
  0
LWPOLYLINE
  5
8F9
330
1E
100
AcDbEntity
  8
7
100
AcDbPolyline
 90
        7
 70
     0
 43
0.0098425196850394
 10
26.04527559055118
 20
27.80314960629921
 10
26.01574803149606
 20
27.80314960629921
 10
25.98917322834646
 20
27.79527559055118
 10
25.96456692913386
 20
27.77952755905511
 10
25.94586614173228
 20
27.75787401574802
 10
25.93405511811023
 20
27.73228346456693
 10
25.93011811023622
 20
27.70374015748031
  0
LWPOLYLINE
  5
902
330
1E
100
AcDbEntity
  8
7
100
AcDbPolyline
 90
        5
 70
     0
 43
0.0098425196850394
 10
25.93011811023622
 20
28.95374015748031
 10
25.93405511811023
 20
28.9251968503937
 10
25.94586614173228
 20
28.89960629921259
 10
25.96456692913386
 20
28.87795275590551
 10
25.98917322834646
 20
28.86220472440944
  0
LWPOLYLINE
  5
909
330
1E
100
AcDbEntity
  8
7
100
AcDbPolyline
 90
       16
 70
     0
 43
0.0098425196850394
 10
25.98917322834646
 20
28.86220472440944
 10
26.01574803149606
 20
28.85433070866142
 10
26.04527559055118
 20
28.85433070866142
 10
26.07185039370079
 20
28.86220472440944
 10
26.09645669291338
 20
28.87795275590551
 10
26.11515748031496
 20
28.89960629921259
 10
26.126968503937
 20
28.9251968503937
 10
26.13090551181102
 20
28.95374015748031
 10
26.126968503937
 20
28.98228346456693
 10
26.11515748031496
 20
29.00787401574802
 10
26.09645669291338
 20
29.02952755905511
 10
26.07185039370079
 20
29.04527559055118
 10
26.04527559055118
 20
29.05314960629921
 10
26.01574803149606
 20
29.05314960629921
 10
25.98917322834646
 20
29.04527559055118
 10
25.96456692913386
 20
29.02952755905511
  0
LWPOLYLINE
  5
91B
330
1E
100
AcDbEntity
  8
7
100
AcDbPolyline
 90
        4
 70
     0
 43
0.0098425196850394
 10
25.96456692913386
 20
29.02952755905511
 10
25.94586614173228
 20
29.00787401574802
 10
25.93405511811023
 20
28.98228346456693
 10
25.93011811023622
 20
28.95374015748031
  0
LINE
  5
921
330
1E
100
AcDbEntity
  8
7
100
AcDbLine
 10
25.7509842519685
 20
23.95374015748031
 30
0.0
 11
25.7509842519685
 21
29.20374015748031
 31
0.0
  0
LINE
  5
922
330
1E
100
AcDbEntity
  8
7
100
AcDbLine
 10
26.72145669291338
 20
23.95374015748031
 30
0.0
 11
25.7509842519685
 21
23.95374015748031
 31
0.0
  0
LINE
  5
923
330
1E
100
AcDbEntity
  8
7
100
AcDbLine
 10
26.72145669291338
 20
29.20374015748031
 30
0.0
 11
26.72145669291338
 21
23.95374015748031
 31
0.0
  0
LINE
  5
924
330
1E
100
AcDbEntity
  8
7
100
AcDbLine
 10
25.7509842519685
 20
29.20374015748031
 30
0.0
 11
26.72145669291338
 21
29.20374015748031
 31
0.0
  0
LWPOLYLINE
  5
925
330
1E
100
AcDbEntity
  8
7
100
AcDbPolyline
 90
        6
 70
     0
 43
0.0098425196850394
 10
26.72145669291338
 20
23.95374015748031
 10
26.7509842519685
 20
23.95374015748031
 10
26.77755905511811
 20
23.95374015748031
 10
26.79921259842519
 20
23.95374015748031
 10
26.81299212598425
 20
23.95374015748031
 10
26.81791338582677
 20
23.95374015748031
  0
LWPOLYLINE
  5
92D
330
1E
100
AcDbEntity
  8
7
100
AcDbPolyline
 90
        6
 70
     0
 43
0.0098425196850394
 10
26.72145669291338
 20
29.20374015748031
 10
26.7509842519685
 20
29.20374015748031
 10
26.77755905511811
 20
29.20374015748031
 10
26.79921259842519
 20
29.20374015748031
 10
26.81299212598425
 20
29.20374015748031
 10
26.81791338582677
 20
29.20374015748031
  0
LINE
  5
935
330
1E
100
AcDbEntity
  8
7
100
AcDbLine
 10
26.81791338582677
 20
23.95374015748031
 30
0.0
 11
26.81791338582677
 21
29.20374015748031
 31
0.0
  0
LINE
  5
936
330
1E
100
AcDbEntity
  8
7
100
AcDbLine
 10
24.67224409448819
 20
25.36811023622047
 30
0.0
 11
24.67224409448819
 21
25.10433070866142
 31
0.0
  0
LINE
  5
937
330
1E
100
AcDbEntity
  8
7
100
AcDbLine
 10
24.95275590551181
 20
24.63287401574802
 30
0.0
 11
24.95275590551181
 21
24.36811023622047
 31
0.0
  0
LINE
  5
938
330
1E
100
AcDbEntity
  8
7
100
AcDbLine
 10
8.673228346456692
 20
28.78838582677165
 30
0.0
 11
8.673228346456692
 21
28.52460629921259
 31
0.0
  0
LINE
  5
939
330
1E
100
AcDbEntity
  8
7
100
AcDbLine
 10
8.953740157480314
 20
28.0521653543307
 30
0.0
 11
8.953740157480314
 21
27.78838582677165
 31
0.0
  0
LINE
  5
93A
330
1E
100
AcDbEntity
  8
7
100
AcDbLine
 10
8.673228346456692
 20
25.36811023622047
 30
0.0
 11
8.673228346456692
 21
25.10433070866142
 31
0.0
  0
LINE
  5
93B
330
1E
100
AcDbEntity
  8
7
100
AcDbLine
 10
8.953740157480314
 20
24.63287401574802
 30
0.0
 11
8.953740157480314
 21
24.36811023622047
 31
0.0
  0
LINE
  5
93C
330
1E
100
AcDbEntity
  8
7
100
AcDbLine
 10
24.67224409448819
 20
28.78838582677165
 30
0.0
 11
24.67224409448819
 21
28.52460629921259
 31
0.0
  0
LINE
  5
93D
330
1E
100
AcDbEntity
  8
7
100
AcDbLine
 10
24.95275590551181
 20
28.0521653543307
 30
0.0
 11
24.95275590551181
 21
27.78838582677165
 31
0.0
  0
LINE
  5
93E
330
1E
100
AcDbEntity
  8
7
100
AcDbLine
 10
8.002952755905511
 20
29.20374015748031
 30
0.0
 11
25.75
 21
29.20374015748031
 31
0.0
  0
LINE
  5
93F
330
1E
100
AcDbEntity
  8
7
100
AcDbLine
 10
25.75
 20
23.95374015748031
 30
0.0
 11
8.002952755905511
 21
23.95374015748031
 31
0.0
  0
LINE
  5
940
330
1E
100
AcDbEntity
  8
7
100
AcDbLine
 10
10.98720472440944
 20
28.27657480314961
 30
0.0
 11
10.98720472440944
 21
28.02657480314961
 31
0.0
  0
LINE
  5
941
330
1E
100
AcDbEntity
  8
7
100
AcDbLine
 10
12.3021653543307
 20
28.27657480314961
 30
0.0
 11
12.3021653543307
 21
28.02657480314961
 31
0.0
  0
LWPOLYLINE
  5
942
330
1E
100
AcDbEntity
  8
7
100
AcDbPolyline
 90
       12
 70
     0
 43
0.0098425196850394
 10
24.96161417322834
 20
24.64862204724409
 10
24.99803149606299
 20
24.67913385826771
 10
25.02854330708661
 20
24.71456692913386
 10
25.05216535433071
 20
24.75492125984251
 10
25.06889763779527
 20
24.79822834645669
 10
25.0767716535433
 20
24.84448818897638
 10
25.0767716535433
 20
24.89173228346456
 10
25.06889763779527
 20
24.93799212598425
 10
25.05216535433071
 20
24.98129921259842
 10
25.02854330708661
 20
25.02165354330708
 10
24.99803149606299
 20
25.05708661417322
 10
24.96161417322834
 20
25.08759842519685
  0
LWPOLYLINE
  5
950
330
1E
100
AcDbEntity
  8
7
100
AcDbPolyline
 90
        3
 70
     0
 43
0.0098425196850394
 10
24.96161417322834
 20
24.64960629921259
 10
24.95472440944881
 20
24.64173228346457
 10
24.95275590551181
 20
24.63287401574802
  0
LINE
  5
955
330
1E
100
AcDbEntity
  8
7
100
AcDbLine
 10
24.67224409448819
 20
24.36811023622047
 30
0.0
 11
24.95275590551181
 21
24.36811023622047
 31
0.0
  0
LINE
  5
956
330
1E
100
AcDbEntity
  8
7
100
AcDbLine
 10
24.67224409448819
 20
24.63287401574802
 30
0.0
 11
24.67224409448819
 21
24.36811023622047
 31
0.0
  0
LINE
  5
957
330
1E
100
AcDbEntity
  8
7
100
AcDbLine
 10
24.67224409448819
 20
24.63287401574802
 30
0.0
 11
24.67027559055118
 21
24.64173228346457
 31
0.0
  0
LINE
  5
958
330
1E
100
AcDbEntity
  8
7
100
AcDbLine
 10
24.67027559055118
 20
24.64173228346457
 30
0.0
 11
24.66338582677165
 21
24.64960629921259
 31
0.0
  0
LWPOLYLINE
  5
959
330
1E
100
AcDbEntity
  8
7
100
AcDbPolyline
 90
        9
 70
     0
 43
0.0098425196850394
 10
24.66437007874016
 20
25.08759842519685
 10
24.62795275590551
 20
25.05708661417322
 10
24.59744094488189
 20
25.02165354330708
 10
24.57381889763779
 20
24.98129921259842
 10
24.55708661417323
 20
24.93799212598425
 10
24.54921259842519
 20
24.89173228346456
 10
24.54921259842519
 20
24.84448818897638
 10
24.55708661417323
 20
24.79822834645669
 10
24.57381889763779
 20
24.75492125984251
  0
LWPOLYLINE
  5
964
330
1E
100
AcDbEntity
  8
7
100
AcDbPolyline
 90
        4
 70
     0
 43
0.0098425196850394
 10
24.57381889763779
 20
24.75492125984251
 10
24.59744094488189
 20
24.71456692913386
 10
24.62795275590551
 20
24.67913385826771
 10
24.66437007874016
 20
24.64862204724409
  0
LWPOLYLINE
  5
96A
330
1E
100
AcDbEntity
  8
7
100
AcDbPolyline
 90
        3
 70
     0
 43
0.0098425196850394
 10
24.66338582677165
 20
25.08759842519685
 10
24.67027559055118
 20
25.09547244094488
 10
24.67224409448819
 20
25.10433070866142
  0
LWPOLYLINE
  5
96F
330
1E
100
AcDbEntity
  8
7
100
AcDbPolyline
 90
        3
 70
     0
 43
0.0098425196850394
 10
24.67224409448819
 20
25.36811023622047
 10
24.95275590551181
 20
25.36811023622047
 10
24.95275590551181
 20
25.10433070866142
  0
LWPOLYLINE
  5
974
330
1E
100
AcDbEntity
  8
7
100
AcDbPolyline
 90
        3
 70
     0
 43
0.0098425196850394
 10
24.95275590551181
 20
25.10433070866142
 10
24.95472440944881
 20
25.09547244094488
 10
24.96161417322834
 20
25.08759842519685
  0
LINE
  5
979
330
1E
100
AcDbEntity
  8
7
100
AcDbLine
 10
8.673228346456692
 20
28.0521653543307
 30
0.0
 11
8.673228346456692
 21
27.78838582677165
 31
0.0
  0
LWPOLYLINE
  5
97A
330
1E
100
AcDbEntity
  8
7
100
AcDbPolyline
 90
        3
 70
     0
 43
0.0098425196850394
 10
8.673228346456692
 20
28.0521653543307
 10
8.671259842519685
 20
28.06102362204724
 10
8.664370078740157
 20
28.06889763779527
  0
LWPOLYLINE
  5
97F
330
1E
100
AcDbEntity
  8
7
100
AcDbPolyline
 90
       12
 70
     0
 43
0.0098425196850394
 10
8.665354330708661
 20
28.50787401574803
 10
8.628937007874014
 20
28.47736220472441
 10
8.598425196850392
 20
28.44192913385827
 10
8.574803149606298
 20
28.4015748031496
 10
8.558070866141731
 20
28.35826771653543
 10
8.5501968503937
 20
28.31200787401574
 10
8.5501968503937
 20
28.26476377952756
 10
8.558070866141731
 20
28.21850393700787
 10
8.574803149606298
 20
28.1751968503937
 10
8.598425196850392
 20
28.13484251968504
 10
8.628937007874014
 20
28.09940944881889
 10
8.665354330708661
 20
28.06889763779527
  0
LWPOLYLINE
  5
98D
330
1E
100
AcDbEntity
  8
7
100
AcDbPolyline
 90
        3
 70
     0
 43
0.0098425196850394
 10
8.664370078740157
 20
28.50787401574803
 10
8.671259842519685
 20
28.51574803149606
 10
8.673228346456692
 20
28.52460629921259
  0
LWPOLYLINE
  5
992
330
1E
100
AcDbEntity
  8
7
100
AcDbPolyline
 90
        3
 70
     0
 43
0.0098425196850394
 10
8.673228346456692
 20
28.78838582677165
 10
8.953740157480314
 20
28.78838582677165
 10
8.953740157480314
 20
28.52460629921259
  0
LWPOLYLINE
  5
997
330
1E
100
AcDbEntity
  8
7
100
AcDbPolyline
 90
        3
 70
     0
 43
0.0098425196850394
 10
8.953740157480314
 20
28.52460629921259
 10
8.955708661417322
 20
28.51574803149606
 10
8.96259842519685
 20
28.50787401574803
  0
LWPOLYLINE
  5
99C
330
1E
100
AcDbEntity
  8
7
100
AcDbPolyline
 90
       12
 70
     0
 43
0.0098425196850394
 10
8.96259842519685
 20
28.06889763779527
 10
8.999015748031496
 20
28.09940944881889
 10
9.029527559055116
 20
28.13484251968504
 10
9.053149606299211
 20
28.1751968503937
 10
9.069881889763779
 20
28.21850393700787
 10
9.077755905511811
 20
28.26476377952756
 10
9.077755905511811
 20
28.31200787401574
 10
9.069881889763779
 20
28.35826771653543
 10
9.053149606299211
 20
28.4015748031496
 10
9.029527559055116
 20
28.44192913385827
 10
8.999015748031496
 20
28.47736220472441
 10
8.96259842519685
 20
28.50787401574803
  0
LWPOLYLINE
  5
9AA
330
1E
100
AcDbEntity
  8
7
100
AcDbPolyline
 90
        3
 70
     0
 43
0.0098425196850394
 10
8.96259842519685
 20
28.06889763779527
 10
8.955708661417322
 20
28.06102362204724
 10
8.953740157480314
 20
28.0521653543307
  0
LINE
  5
9AF
330
1E
100
AcDbEntity
  8
7
100
AcDbLine
 10
8.673228346456692
 20
27.78838582677165
 30
0.0
 11
8.953740157480314
 21
27.78838582677165
 31
0.0
  0
LINE
  5
9B0
330
1E
100
AcDbEntity
  8
7
100
AcDbLine
 10
25.7509842519685
 20
27.79133858267716
 30
0.0
 11
25.73129921259842
 21
27.76574803149606
 31
0.0
  0
LWPOLYLINE
  5
9B1
330
1E
100
AcDbEntity
  8
7
100
AcDbPolyline
 90
        6
 70
     0
 43
0.0098425196850394
 10
25.73129921259842
 20
27.76574803149606
 10
25.71850393700787
 20
27.73622047244094
 10
25.71456692913386
 20
27.70374015748031
 10
25.71850393700787
 20
27.67125984251968
 10
25.73129921259842
 20
27.64173228346456
 10
25.7509842519685
 20
27.61614173228346
  0
LWPOLYLINE
  5
9B9
330
1E
100
AcDbEntity
  8
7
100
AcDbPolyline
 90
        6
 70
     0
 43
0.0098425196850394
 10
25.7509842519685
 20
25.54133858267716
 10
25.73129921259842
 20
25.51574803149606
 10
25.71850393700787
 20
25.48622047244094
 10
25.71456692913386
 20
25.45374015748031
 10
25.71850393700787
 20
25.42125984251968
 10
25.73129921259842
 20
25.39173228346456
  0
LINE
  5
9C1
330
1E
100
AcDbEntity
  8
7
100
AcDbLine
 10
25.73129921259842
 20
25.39173228346456
 30
0.0
 11
25.7509842519685
 21
25.36614173228346
 31
0.0
  0
LWPOLYLINE
  5
9C2
330
1E
100
AcDbEntity
  8
7
100
AcDbPolyline
 90
       10
 70
     0
 43
0.0098425196850394
 10
8.96259842519685
 20
24.64862204724409
 10
8.999015748031496
 20
24.67913385826771
 10
9.029527559055116
 20
24.71456692913386
 10
9.053149606299211
 20
24.75492125984251
 10
9.069881889763779
 20
24.79822834645669
 10
9.077755905511811
 20
24.84448818897638
 10
9.077755905511811
 20
24.89173228346456
 10
9.069881889763779
 20
24.93799212598425
 10
9.053149606299211
 20
24.98129921259842
 10
9.029527559055116
 20
25.02165354330708
  0
LWPOLYLINE
  5
9CE
330
1E
100
AcDbEntity
  8
7
100
AcDbPolyline
 90
        3
 70
     0
 43
0.0098425196850394
 10
9.029527559055116
 20
25.02165354330708
 10
8.999015748031496
 20
25.05708661417322
 10
8.96259842519685
 20
25.08759842519685
  0
LWPOLYLINE
  5
9D3
330
1E
100
AcDbEntity
  8
7
100
AcDbPolyline
 90
        3
 70
     0
 43
0.0098425196850394
 10
8.96259842519685
 20
24.64960629921259
 10
8.955708661417322
 20
24.64173228346457
 10
8.953740157480314
 20
24.63287401574802
  0
LINE
  5
9D8
330
1E
100
AcDbEntity
  8
7
100
AcDbLine
 10
8.673228346456692
 20
24.36811023622047
 30
0.0
 11
8.953740157480314
 21
24.36811023622047
 31
0.0
  0
LINE
  5
9D9
330
1E
100
AcDbEntity
  8
7
100
AcDbLine
 10
8.673228346456692
 20
24.63287401574802
 30
0.0
 11
8.673228346456692
 21
24.36811023622047
 31
0.0
  0
LWPOLYLINE
  5
9DA
330
1E
100
AcDbEntity
  8
7
100
AcDbPolyline
 90
        3
 70
     0
 43
0.0098425196850394
 10
8.673228346456692
 20
24.63287401574802
 10
8.671259842519685
 20
24.64173228346457
 10
8.664370078740157
 20
24.64960629921259
  0
LWPOLYLINE
  5
9DF
330
1E
100
AcDbEntity
  8
7
100
AcDbPolyline
 90
        5
 70
     0
 43
0.0098425196850394
 10
8.665354330708661
 20
25.08759842519685
 10
8.628937007874014
 20
25.05708661417322
 10
8.598425196850392
 20
25.02165354330708
 10
8.574803149606298
 20
24.98129921259842
 10
8.558070866141731
 20
24.93799212598425
  0
LWPOLYLINE
  5
9E6
330
1E
100
AcDbEntity
  8
7
100
AcDbPolyline
 90
        8
 70
     0
 43
0.0098425196850394
 10
8.558070866141731
 20
24.93799212598425
 10
8.5501968503937
 20
24.89173228346456
 10
8.5501968503937
 20
24.84448818897638
 10
8.558070866141731
 20
24.79822834645669
 10
8.574803149606298
 20
24.75492125984251
 10
8.598425196850392
 20
24.71456692913386
 10
8.628937007874014
 20
24.67913385826771
 10
8.665354330708661
 20
24.64862204724409
  0
LWPOLYLINE
  5
9F0
330
1E
100
AcDbEntity
  8
7
100
AcDbPolyline
 90
        3
 70
     0
 43
0.0098425196850394
 10
8.664370078740157
 20
25.08759842519685
 10
8.671259842519685
 20
25.09547244094488
 10
8.673228346456692
 20
25.10433070866142
  0
LWPOLYLINE
  5
9F5
330
1E
100
AcDbEntity
  8
7
100
AcDbPolyline
 90
        3
 70
     0
 43
0.0098425196850394
 10
8.673228346456692
 20
25.36811023622047
 10
8.953740157480314
 20
25.36811023622047
 10
8.953740157480314
 20
25.10433070866142
  0
LWPOLYLINE
  5
9FA
330
1E
100
AcDbEntity
  8
7
100
AcDbPolyline
 90
        3
 70
     0
 43
0.0098425196850394
 10
8.953740157480314
 20
25.10433070866142
 10
8.955708661417322
 20
25.09547244094488
 10
8.96259842519685
 20
25.08759842519685
  0
LINE
  5
9FF
330
1E
100
AcDbEntity
  8
7
100
AcDbLine
 10
10.98720472440944
 20
25.12992125984252
 30
0.0
 11
10.98720472440944
 21
24.87992125984252
 31
0.0
  0
LINE
  5
A00
330
1E
100
AcDbEntity
  8
7
100
AcDbLine
 10
12.3021653543307
 20
25.12992125984252
 30
0.0
 11
12.3021653543307
 21
24.87992125984252
 31
0.0
  0
LINE
  5
A01
330
1E
100
AcDbEntity
  8
7
100
AcDbLine
 10
14.81397637795275
 20
27.57874015748031
 30
0.0
 11
18.81397637795275
 21
27.57874015748031
 31
0.0
  0
LWPOLYLINE
  5
A02
330
1E
100
AcDbEntity
  8
7
100
AcDbPolyline
 90
       11
 70
     0
 43
0.0098425196850394
 10
18.81397637795275
 20
25.57874015748031
 10
18.90354330708661
 20
25.58267716535433
 10
18.99212598425197
 20
25.59448818897637
 10
19.07972440944881
 20
25.61515748031496
 10
19.16535433070866
 20
25.64271653543307
 10
19.24803149606299
 20
25.67814960629921
 10
19.3267716535433
 20
25.72047244094488
 10
19.4015748031496
 20
25.76968503937008
 10
19.47145669291338
 20
25.8257874015748
 10
19.53641732283464
 20
25.88779527559055
 10
19.59547244094488
 20
25.95570866141732
  0
LWPOLYLINE
  5
A0F
330
1E
100
AcDbEntity
  8
7
100
AcDbPolyline
 90
       16
 70
     0
 43
0.0098425196850394
 10
19.59547244094488
 20
25.95570866141732
 10
19.64862204724409
 20
26.02755905511811
 10
19.69488188976378
 20
26.10531496062992
 10
19.73326771653543
 20
26.18602362204724
 10
19.76476377952756
 20
26.26968503937007
 10
19.78937007874016
 20
26.35629921259842
 10
19.80511811023622
 20
26.44488188976378
 10
19.81299212598425
 20
26.53346456692913
 10
19.81299212598425
 20
26.62401574803149
 10
19.80511811023622
 20
26.71259842519685
 10
19.78937007874016
 20
26.8011811023622
 10
19.76476377952756
 20
26.88779527559055
 10
19.73326771653543
 20
26.97145669291338
 10
19.69488188976378
 20
27.0521653543307
 10
19.64862204724409
 20
27.12992125984252
 10
19.59547244094488
 20
27.2017716535433
  0
LWPOLYLINE
  5
A21
330
1E
100
AcDbEntity
  8
7
100
AcDbPolyline
 90
       11
 70
     0
 43
0.0098425196850394
 10
19.59547244094488
 20
27.2017716535433
 10
19.53641732283464
 20
27.26968503937007
 10
19.47145669291338
 20
27.33169291338582
 10
19.4015748031496
 20
27.38779527559055
 10
19.3267716535433
 20
27.43700787401575
 10
19.24803149606299
 20
27.47933070866142
 10
19.16535433070866
 20
27.51476377952756
 10
19.07972440944881
 20
27.54232283464567
 10
18.99212598425197
 20
27.56299212598425
 10
18.90354330708661
 20
27.5748031496063
 10
18.81397637795275
 20
27.57874015748031
  0
LINE
  5
A2E
330
1E
100
AcDbEntity
  8
7
100
AcDbLine
 10
14.81397637795275
 20
25.57874015748031
 30
0.0
 11
18.81397637795275
 21
25.57874015748031
 31
0.0
  0
LWPOLYLINE
  5
A2F
330
1E
100
AcDbEntity
  8
7
100
AcDbPolyline
 90
        9
 70
     0
 43
0.0098425196850394
 10
14.81397637795275
 20
27.57874015748031
 10
14.72440944881889
 20
27.5748031496063
 10
14.63582677165354
 20
27.56299212598425
 10
14.54822834645669
 20
27.54232283464567
 10
14.46259842519685
 20
27.51476377952756
 10
14.37992125984251
 20
27.47933070866142
 10
14.3011811023622
 20
27.43700787401575
 10
14.2263779527559
 20
27.38779527559055
 10
14.15649606299212
 20
27.33169291338582
  0
LWPOLYLINE
  5
A3A
330
1E
100
AcDbEntity
  8
7
100
AcDbPolyline
 90
       13
 70
     0
 43
0.0098425196850394
 10
14.15649606299212
 20
27.33169291338582
 10
14.09153543307086
 20
27.26968503937007
 10
14.03248031496063
 20
27.2017716535433
 10
13.97933070866141
 20
27.12992125984252
 10
13.93307086614173
 20
27.0521653543307
 10
13.89468503937007
 20
26.97145669291338
 10
13.86318897637795
 20
26.88779527559055
 10
13.83858267716535
 20
26.8011811023622
 10
13.82283464566929
 20
26.71259842519685
 10
13.81496062992126
 20
26.62401574803149
 10
13.81496062992126
 20
26.53346456692913
 10
13.82283464566929
 20
26.44488188976378
 10
13.83858267716535
 20
26.35629921259842
  0
LWPOLYLINE
  5
A49
330
1E
100
AcDbEntity
  8
7
100
AcDbPolyline
 90
       14
 70
     0
 43
0.0098425196850394
 10
13.83858267716535
 20
26.35629921259842
 10
13.86318897637795
 20
26.26968503937007
 10
13.89468503937007
 20
26.18602362204724
 10
13.93307086614173
 20
26.10531496062992
 10
13.97933070866141
 20
26.02755905511811
 10
14.03248031496063
 20
25.95570866141732
 10
14.09153543307086
 20
25.88779527559055
 10
14.15649606299212
 20
25.8257874015748
 10
14.2263779527559
 20
25.76968503937008
 10
14.3011811023622
 20
25.72047244094488
 10
14.37992125984251
 20
25.67814960629921
 10
14.46259842519685
 20
25.64271653543307
 10
14.54822834645669
 20
25.61515748031496
 10
14.63582677165354
 20
25.59448818897637
  0
LWPOLYLINE
  5
A59
330
1E
100
AcDbEntity
  8
7
100
AcDbPolyline
 90
        3
 70
     0
 43
0.0098425196850394
 10
14.63582677165354
 20
25.59448818897637
 10
14.72440944881889
 20
25.58267716535433
 10
14.81397637795275
 20
25.57874015748031
  0
LINE
  5
A5E
330
1E
100
AcDbEntity
  8
7
100
AcDbLine
 10
24.67224409448819
 20
28.0521653543307
 30
0.0
 11
24.67224409448819
 21
27.78838582677165
 31
0.0
  0
LWPOLYLINE
  5
A5F
330
1E
100
AcDbEntity
  8
7
100
AcDbPolyline
 90
        3
 70
     0
 43
0.0098425196850394
 10
24.67224409448819
 20
28.0521653543307
 10
24.67027559055118
 20
28.06102362204724
 10
24.66338582677165
 20
28.06889763779527
  0
LWPOLYLINE
  5
A64
330
1E
100
AcDbEntity
  8
7
100
AcDbPolyline
 90
       12
 70
     0
 43
0.0098425196850394
 10
24.66437007874016
 20
28.50787401574803
 10
24.62795275590551
 20
28.47736220472441
 10
24.59744094488189
 20
28.44192913385827
 10
24.57381889763779
 20
28.4015748031496
 10
24.55708661417323
 20
28.35826771653543
 10
24.54921259842519
 20
28.31200787401574
 10
24.54921259842519
 20
28.26476377952756
 10
24.55708661417323
 20
28.21850393700787
 10
24.57381889763779
 20
28.1751968503937
 10
24.59744094488189
 20
28.13484251968504
 10
24.62795275590551
 20
28.09940944881889
 10
24.66437007874016
 20
28.06889763779527
  0
LWPOLYLINE
  5
A72
330
1E
100
AcDbEntity
  8
7
100
AcDbPolyline
 90
        3
 70
     0
 43
0.0098425196850394
 10
24.66338582677165
 20
28.50787401574803
 10
24.67027559055118
 20
28.51574803149606
 10
24.67224409448819
 20
28.52460629921259
  0
LWPOLYLINE
  5
A77
330
1E
100
AcDbEntity
  8
7
100
AcDbPolyline
 90
        3
 70
     0
 43
0.0098425196850394
 10
24.67224409448819
 20
28.78838582677165
 10
24.95275590551181
 20
28.78838582677165
 10
24.95275590551181
 20
28.52460629921259
  0
LWPOLYLINE
  5
A7C
330
1E
100
AcDbEntity
  8
7
100
AcDbPolyline
 90
        3
 70
     0
 43
0.0098425196850394
 10
24.95275590551181
 20
28.52460629921259
 10
24.95472440944881
 20
28.51574803149606
 10
24.96161417322834
 20
28.50787401574803
  0
LWPOLYLINE
  5
A81
330
1E
100
AcDbEntity
  8
7
100
AcDbPolyline
 90
       12
 70
     0
 43
0.0098425196850394
 10
24.96161417322834
 20
28.06889763779527
 10
24.99803149606299
 20
28.09940944881889
 10
25.02854330708661
 20
28.13484251968504
 10
25.05216535433071
 20
28.1751968503937
 10
25.06889763779527
 20
28.21850393700787
 10
25.0767716535433
 20
28.26476377952756
 10
25.0767716535433
 20
28.31200787401574
 10
25.06889763779527
 20
28.35826771653543
 10
25.05216535433071
 20
28.4015748031496
 10
25.02854330708661
 20
28.44192913385827
 10
24.99803149606299
 20
28.47736220472441
 10
24.96161417322834
 20
28.50787401574803
  0
LWPOLYLINE
  5
A8F
330
1E
100
AcDbEntity
  8
7
100
AcDbPolyline
 90
        3
 70
     0
 43
0.0098425196850394
 10
24.96161417322834
 20
28.06889763779527
 10
24.95472440944881
 20
28.06102362204724
 10
24.95275590551181
 20
28.0521653543307
  0
LINE
  5
A94
330
1E
100
AcDbEntity
  8
7
100
AcDbLine
 10
24.67224409448819
 20
27.78838582677165
 30
0.0
 11
24.95275590551181
 21
27.78838582677165
 31
0.0
  0
LWPOLYLINE
  5
A95
330
1E
100
AcDbEntity
  8
7
100
AcDbPolyline
 90
        3
 70
     0
 43
0.0098425196850394
 10
10.98720472440944
 20
25.12992125984252
 10
11.01082677165354
 20
25.12992125984252
 10
11.02952755905511
 20
25.12992125984252
  0
LWPOLYLINE
  5
A9A
330
1E
100
AcDbEntity
  8
7
100
AcDbPolyline
 90
        5
 70
     0
 43
0.0098425196850394
 10
10.98720472440944
 20
24.87992125984252
 10
11.01082677165354
 20
24.87992125984252
 10
11.02952755905511
 20
24.87992125984252
 10
11.02952755905511
 20
25.12992125984252
 10
11.18110236220472
 20
25.12992125984252
  0
LWPOLYLINE
  5
AA1
330
1E
100
AcDbEntity
  8
7
100
AcDbPolyline
 90
        3
 70
     0
 43
0.0098425196850394
 10
11.02952755905511
 20
24.87992125984252
 10
11.18110236220472
 20
24.87992125984252
 10
11.18110236220472
 20
25.12992125984252
  0
LWPOLYLINE
  5
AA6
330
1E
100
AcDbEntity
  8
7
100
AcDbPolyline
 90
        3
 70
     0
 43
0.0098425196850394
 10
11.18110236220472
 20
24.87992125984252
 10
11.21259842519685
 20
24.87992125984252
 10
11.25
 20
24.87992125984252
  0
LINE
  5
AAB
330
1E
100
AcDbEntity
  8
7
100
AcDbLine
 10
11.18110236220472
 20
25.12992125984252
 30
0.0
 11
11.21259842519685
 21
25.12992125984252
 31
0.0
  0
LINE
  5
AAC
330
1E
100
AcDbEntity
  8
7
100
AcDbLine
 10
11.21259842519685
 20
25.12992125984252
 30
0.0
 11
11.25
 21
25.12992125984252
 31
0.0
  0
LINE
  5
AAD
330
1E
100
AcDbEntity
  8
7
100
AcDbLine
 10
11.25
 20
24.87992125984252
 30
0.0
 11
11.25
 21
25.12992125984252
 31
0.0
  0
LWPOLYLINE
  5
AAE
330
1E
100
AcDbEntity
  8
7
100
AcDbPolyline
 90
        3
 70
     0
 43
0.0098425196850394
 10
12.3021653543307
 20
25.12992125984252
 10
12.27854330708661
 20
25.12992125984252
 10
12.25885826771653
 20
25.12992125984252
  0
LWPOLYLINE
  5
AB3
330
1E
100
AcDbEntity
  8
7
100
AcDbPolyline
 90
        3
 70
     0
 43
0.0098425196850394
 10
12.3021653543307
 20
24.87992125984252
 10
12.27854330708661
 20
24.87992125984252
 10
12.25885826771653
 20
24.87992125984252
  0
LINE
  5
AB8
330
1E
100
AcDbEntity
  8
7
100
AcDbLine
 10
12.25885826771653
 20
25.12992125984252
 30
0.0
 11
12.25885826771653
 21
24.87992125984252
 31
0.0
  0
LINE
  5
AB9
330
1E
100
AcDbEntity
  8
7
100
AcDbLine
 10
12.25885826771653
 20
25.12992125984252
 30
0.0
 11
12.10826771653543
 21
25.12992125984252
 31
0.0
  0
LINE
  5
ABA
330
1E
100
AcDbEntity
  8
7
100
AcDbLine
 10
12.25885826771653
 20
24.87992125984252
 30
0.0
 11
12.10826771653543
 21
24.87992125984252
 31
0.0
  0
LINE
  5
ABB
330
1E
100
AcDbEntity
  8
7
100
AcDbLine
 10
12.10826771653543
 20
25.12992125984252
 30
0.0
 11
12.10826771653543
 21
24.87992125984252
 31
0.0
  0
LWPOLYLINE
  5
ABC
330
1E
100
AcDbEntity
  8
7
100
AcDbPolyline
 90
        3
 70
     0
 43
0.0098425196850394
 10
12.10826771653543
 20
25.12992125984252
 10
12.0767716535433
 20
25.12992125984252
 10
12.03937007874015
 20
25.12992125984252
  0
LWPOLYLINE
  5
AC1
330
1E
100
AcDbEntity
  8
7
100
AcDbPolyline
 90
        3
 70
     0
 43
0.0098425196850394
 10
12.10826771653543
 20
24.87992125984252
 10
12.0767716535433
 20
24.87992125984252
 10
12.03937007874015
 20
24.87992125984252
  0
LINE
  5
AC6
330
1E
100
AcDbEntity
  8
7
100
AcDbLine
 10
12.03937007874015
 20
25.12992125984252
 30
0.0
 11
12.03937007874015
 21
24.87992125984252
 31
0.0
  0
LINE
  5
AC7
330
1E
100
AcDbEntity
  8
7
100
AcDbLine
 10
12.03937007874015
 20
25.12992125984252
 30
0.0
 11
11.25
 21
25.12992125984252
 31
0.0
  0
LINE
  5
AC8
330
1E
100
AcDbEntity
  8
7
100
AcDbLine
 10
12.03937007874015
 20
24.87992125984252
 30
0.0
 11
11.25
 21
24.87992125984252
 31
0.0
  0
LWPOLYLINE
  5
AC9
330
1E
100
AcDbEntity
  8
7
100
AcDbPolyline
 90
        3
 70
     0
 43
0.0098425196850394
 10
10.98720472440944
 20
28.27657480314961
 10
11.01082677165354
 20
28.27657480314961
 10
11.02952755905511
 20
28.27657480314961
  0
LINE
  5
ACE
330
1E
100
AcDbEntity
  8
7
100
AcDbLine
 10
10.98720472440944
 20
28.02657480314961
 30
0.0
 11
11.01082677165354
 21
28.02657480314961
 31
0.0
  0
LWPOLYLINE
  5
ACF
330
1E
100
AcDbEntity
  8
7
100
AcDbPolyline
 90
        4
 70
     0
 43
0.0098425196850394
 10
11.01082677165354
 20
28.02657480314961
 10
11.02952755905511
 20
28.02657480314961
 10
11.02952755905511
 20
28.27657480314961
 10
11.18110236220472
 20
28.27657480314961
  0
LWPOLYLINE
  5
AD5
330
1E
100
AcDbEntity
  8
7
100
AcDbPolyline
 90
        3
 70
     0
 43
0.0098425196850394
 10
11.02952755905511
 20
28.02657480314961
 10
11.18110236220472
 20
28.02657480314961
 10
11.18110236220472
 20
28.27657480314961
  0
LWPOLYLINE
  5
ADA
330
1E
100
AcDbEntity
  8
7
100
AcDbPolyline
 90
        3
 70
     0
 43
0.0098425196850394
 10
11.18110236220472
 20
28.02657480314961
 10
11.21259842519685
 20
28.02657480314961
 10
11.25
 20
28.02657480314961
  0
LWPOLYLINE
  5
ADF
330
1E
100
AcDbEntity
  8
7
100
AcDbPolyline
 90
        3
 70
     0
 43
0.0098425196850394
 10
11.18110236220472
 20
28.27657480314961
 10
11.21259842519685
 20
28.27657480314961
 10
11.25
 20
28.27657480314961
  0
LINE
  5
AE4
330
1E
100
AcDbEntity
  8
7
100
AcDbLine
 10
11.25
 20
28.02657480314961
 30
0.0
 11
11.25
 21
28.27657480314961
 31
0.0
  0
LWPOLYLINE
  5
AE5
330
1E
100
AcDbEntity
  8
7
100
AcDbPolyline
 90
        3
 70
     0
 43
0.0098425196850394
 10
12.3021653543307
 20
28.27657480314961
 10
12.27854330708661
 20
28.27657480314961
 10
12.25885826771653
 20
28.27657480314961
  0
LWPOLYLINE
  5
AEA
330
1E
100
AcDbEntity
  8
7
100
AcDbPolyline
 90
        3
 70
     0
 43
0.0098425196850394
 10
12.3021653543307
 20
28.02657480314961
 10
12.27854330708661
 20
28.02657480314961
 10
12.25885826771653
 20
28.02657480314961
  0
LINE
  5
AEF
330
1E
100
AcDbEntity
  8
7
100
AcDbLine
 10
12.25885826771653
 20
28.27657480314961
 30
0.0
 11
12.25885826771653
 21
28.02657480314961
 31
0.0
  0
LINE
  5
AF0
330
1E
100
AcDbEntity
  8
7
100
AcDbLine
 10
12.25885826771653
 20
28.27657480314961
 30
0.0
 11
12.10826771653543
 21
28.27657480314961
 31
0.0
  0
LINE
  5
AF1
330
1E
100
AcDbEntity
  8
7
100
AcDbLine
 10
12.25885826771653
 20
28.02657480314961
 30
0.0
 11
12.10826771653543
 21
28.02657480314961
 31
0.0
  0
LINE
  5
AF2
330
1E
100
AcDbEntity
  8
7
100
AcDbLine
 10
12.10826771653543
 20
28.27657480314961
 30
0.0
 11
12.10826771653543
 21
28.02657480314961
 31
0.0
  0
LWPOLYLINE
  5
AF3
330
1E
100
AcDbEntity
  8
7
100
AcDbPolyline
 90
        3
 70
     0
 43
0.0098425196850394
 10
12.10826771653543
 20
28.27657480314961
 10
12.0767716535433
 20
28.27657480314961
 10
12.03937007874015
 20
28.27657480314961
  0
LWPOLYLINE
  5
AF8
330
1E
100
AcDbEntity
  8
7
100
AcDbPolyline
 90
        3
 70
     0
 43
0.0098425196850394
 10
12.10826771653543
 20
28.02657480314961
 10
12.0767716535433
 20
28.02657480314961
 10
12.03937007874015
 20
28.02657480314961
  0
LINE
  5
AFD
330
1E
100
AcDbEntity
  8
7
100
AcDbLine
 10
12.03937007874015
 20
28.27657480314961
 30
0.0
 11
12.03937007874015
 21
28.02657480314961
 31
0.0
  0
LINE
  5
AFE
330
1E
100
AcDbEntity
  8
7
100
AcDbLine
 10
12.03937007874015
 20
28.27657480314961
 30
0.0
 11
11.25
 21
28.27657480314961
 31
0.0
  0
LINE
  5
AFF
330
1E
100
AcDbEntity
  8
7
100
AcDbLine
 10
12.03937007874015
 20
28.02657480314961
 30
0.0
 11
11.25
 21
28.02657480314961
 31
0.0
  0
LINE
  5
B00
330
1E
100
AcDbEntity
  8
7
100
AcDbLine
 10
6.904527559055117
 20
23.95374015748031
 30
0.0
 11
6.873031496062991
 21
23.95374015748031
 31
0.0
  0
LINE
  5
B01
330
1E
100
AcDbEntity
  8
7
100
AcDbLine
 10
6.873031496062991
 20
29.20374015748031
 30
0.0
 11
6.904527559055117
 21
29.20374015748031
 31
0.0
  0
LINE
  5
B02
330
1E
100
AcDbEntity
  8
7
100
AcDbLine
 10
6.904527559055117
 20
29.14370078740157
 30
0.0
 11
6.873031496062991
 21
29.14370078740157
 31
0.0
  0
LINE
  5
B03
330
1E
100
AcDbEntity
  8
7
100
AcDbLine
 10
6.873031496062991
 20
24.01377952755905
 30
0.0
 11
6.904527559055117
 21
24.01377952755905
 31
0.0
  0
LWPOLYLINE
  5
B04
330
1E
100
AcDbEntity
  8
7
100
AcDbPolyline
 90
        5
 70
     0
 43
0.0098425196850394
 10
22.26476377952756
 20
5.611220472440944
 10
22.28838582677165
 20
5.611220472440944
 10
22.31299212598425
 20
5.611220472440944
 10
22.33858267716535
 20
5.611220472440944
 10
22.36417322834646
 20
5.611220472440944
  0
LWPOLYLINE
  5
B0B
330
1E
100
AcDbEntity
  8
7
100
AcDbPolyline
 90
        7
 70
     0
 43
0.0098425196850394
 10
22.4005905511811
 20
5.611220472440944
 10
22.4753937007874
 20
5.611220472440944
 10
22.48720472440945
 20
5.611220472440944
 10
22.4753937007874
 20
5.611220472440944
 10
22.4005905511811
 20
5.611220472440944
 10
22.47342519685039
 20
5.611220472440944
 10
22.49901574803149
 20
5.611220472440944
  0
LINE
  5
B14
330
1E
100
AcDbEntity
  8
7
100
AcDbLine
 10
22.49901574803149
 20
5.611220472440944
 30
0.0
 11
22.4753937007874
 21
5.611220472440944
 31
0.0
  0
LINE
  5
B15
330
1E
100
AcDbEntity
  8
7
100
AcDbLine
 10
22.63582677165354
 20
5.611220472440944
 30
0.0
 11
22.53740157480315
 21
5.611220472440944
 31
0.0
  0
LWPOLYLINE
  5
B16
330
1E
100
AcDbEntity
  8
7
100
AcDbPolyline
 90
        6
 70
     0
 43
0.0098425196850394
 10
22.67322834645669
 20
5.611220472440944
 10
22.69685039370079
 20
5.611220472440944
 10
22.74803149606299
 20
5.611220472440944
 10
22.77263779527559
 20
5.611220472440944
 10
22.74803149606299
 20
5.611220472440944
 10
22.70964566929134
 20
5.611220472440944
  0
LWPOLYLINE
  5
B1E
330
1E
100
AcDbEntity
  8
7
100
AcDbPolyline
 90
        4
 70
     0
 43
0.0098425196850394
 10
22.74803149606299
 20
5.611220472440944
 10
22.77263779527559
 20
5.611220472440944
 10
22.74803149606299
 20
5.611220472440944
 10
22.69685039370079
 20
5.611220472440944
  0
LINE
  5
B24
330
1E
100
AcDbEntity
  8
7
100
AcDbLine
 10
22.69685039370079
 20
5.611220472440944
 30
0.0
 11
22.67224409448818
 21
5.611220472440944
 31
0.0
  0
LWPOLYLINE
  5
B25
330
1E
100
AcDbEntity
  8
7
100
AcDbPolyline
 90
        3
 70
     0
 43
0.0098425196850394
 10
22.19488188976378
 20
5.611220472440944
 10
22.21948818897637
 20
5.611220472440944
 10
22.24409448818897
 20
5.611220472440944
  0
LWPOLYLINE
  5
B2A
330
1E
100
AcDbEntity
  8
7
100
AcDbPolyline
 90
        3
 70
     0
 43
0.0098425196850394
 10
22.26279527559055
 20
5.611220472440944
 10
22.28740157480315
 20
5.611220472440944
 10
22.31200787401574
 20
5.611220472440944
  0
LINE
  5
B2F
330
1E
100
AcDbEntity
  8
7
100
AcDbLine
 10
22.2746062992126
 20
5.611220472440944
 30
0.0
 11
22.3001968503937
 21
5.611220472440944
 31
0.0
  0
LWPOLYLINE
  5
B30
330
1E
100
AcDbEntity
  8
7
100
AcDbPolyline
 90
        5
 70
     0
 43
0.0098425196850394
 10
22.33070866141732
 20
5.611220472440944
 10
22.36712598425197
 20
5.611220472440944
 10
22.37992125984252
 20
5.611220472440944
 10
22.36712598425197
 20
5.611220472440944
 10
22.33070866141732
 20
5.611220472440944
  0
LWPOLYLINE
  5
B37
330
1E
100
AcDbEntity
  8
7
100
AcDbPolyline
 90
        3
 70
     0
 43
0.0098425196850394
 10
22.44881889763779
 20
5.611220472440944
 10
22.39862204724409
 20
5.611220472440944
 10
22.44881889763779
 20
5.611220472440944
  0
LINE
  5
B3C
330
1E
100
AcDbEntity
  8
7
100
AcDbLine
 10
22.43602362204724
 20
5.611220472440944
 30
0.0
 11
22.39862204724409
 21
5.611220472440944
 31
0.0
  0
LINE
  5
B3D
330
1E
100
AcDbEntity
  8
7
100
AcDbLine
 10
22.55314960629921
 20
5.611220472440944
 30
0.0
 11
22.56594488188976
 21
5.611220472440944
 31
0.0
  0
LINE
  5
B3E
330
1E
100
AcDbEntity
  8
7
100
AcDbLine
 10
22.55314960629921
 20
5.611220472440944
 30
0.0
 11
22.56594488188976
 21
5.611220472440944
 31
0.0
  0
LINE
  5
B3F
330
1E
100
AcDbEntity
  8
7
100
AcDbLine
 10
22.60334645669291
 20
5.611220472440944
 30
0.0
 11
22.65255905511811
 21
5.611220472440944
 31
0.0
  0
LINE
  5
B40
330
1E
100
AcDbEntity
  8
7
100
AcDbLine
 10
22.73917322834646
 20
5.611220472440944
 30
0.0
 11
22.7509842519685
 21
5.611220472440944
 31
0.0
  0
LWPOLYLINE
  5
B41
330
1E
100
AcDbEntity
  8
7
100
AcDbPolyline
 90
        3
 70
     0
 43
0.0098425196850394
 10
22.7509842519685
 20
5.611220472440944
 10
22.7755905511811
 20
5.611220472440944
 10
22.78838582677165
 20
5.611220472440944
  0
LWPOLYLINE
  5
B46
330
1E
100
AcDbEntity
  8
7
100
AcDbPolyline
 90
       10
 70
     0
 43
0.0098425196850394
 10
22.80708661417322
 20
5.611220472440944
 10
22.81889763779527
 20
5.611220472440944
 10
22.84448818897637
 20
5.611220472440944
 10
22.85728346456692
 20
5.611220472440944
 10
22.84448818897637
 20
5.611220472440944
 10
22.81988188976378
 20
5.611220472440944
 10
22.80708661417322
 20
5.611220472440944
 10
22.81988188976378
 20
5.611220472440944
 10
22.84448818897637
 20
5.611220472440944
 10
22.85728346456692
 20
5.611220472440944
  0
LWPOLYLINE
  5
B52
330
1E
100
AcDbEntity
  8
7
100
AcDbPolyline
 90
        3
 70
     0
 43
0.0098425196850394
 10
22.8759842519685
 20
5.611220472440944
 10
22.9005905511811
 20
5.611220472440944
 10
22.9251968503937
 20
5.611220472440944
  0
LINE
  5
B57
330
1E
100
AcDbEntity
  8
7
100
AcDbLine
 10
22.88779527559055
 20
5.611220472440944
 30
0.0
 11
22.91240157480315
 21
5.611220472440944
 31
0.0
  0
LWPOLYLINE
  5
B58
330
1E
100
AcDbEntity
  8
7
100
AcDbPolyline
 90
       13
 70
     0
 43
0.0098425196850394
 10
22.10629921259842
 20
5.611220472440944
 10
22.11220472440944
 20
5.611220472440944
 10
22.1003937007874
 20
5.611220472440944
 10
22.08759842519685
 20
5.611220472440944
 10
22.0757874015748
 20
5.611220472440944
 10
22.06889763779527
 20
5.611220472440944
 10
22.0757874015748
 20
5.611220472440944
 10
22.08759842519685
 20
5.611220472440944
 10
22.1003937007874
 20
5.611220472440944
 10
22.11220472440944
 20
5.611220472440944
 10
22.11909448818897
 20
5.611220472440944
 10
22.11220472440944
 20
5.611220472440944
 10
22.11909448818897
 20
5.611220472440944
  0
LWPOLYLINE
  5
B67
330
1E
100
AcDbEntity
  8
7
100
AcDbPolyline
 90
        3
 70
     0
 43
0.0098425196850394
 10
22.15551181102362
 20
5.611220472440944
 10
22.16830708661417
 20
5.611220472440944
 10
22.15551181102362
 20
5.611220472440944
  0
LWPOLYLINE
  5
B6C
330
1E
100
AcDbEntity
  8
7
100
AcDbPolyline
 90
        7
 70
     0
 43
0.0098425196850394
 10
22.25492125984252
 20
5.611220472440944
 10
22.24212598425197
 20
5.611220472440944
 10
22.21850393700787
 20
5.611220472440944
 10
22.20570866141732
 20
5.611220472440944
 10
22.21850393700787
 20
5.611220472440944
 10
22.24311023622047
 20
5.611220472440944
 10
22.25492125984252
 20
5.611220472440944
  0
LINE
  5
B75
330
1E
100
AcDbEntity
  8
7
100
AcDbLine
 10
22.28543307086614
 20
5.611220472440944
 30
0.0
 11
22.29822834645669
 21
5.611220472440944
 31
0.0
  0
LINE
  5
B76
330
1E
100
AcDbEntity
  8
7
100
AcDbLine
 10
22.31102362204724
 20
5.611220472440944
 30
0.0
 11
22.29822834645669
 21
5.611220472440944
 31
0.0
  0
LINE
  5
B77
330
1E
100
AcDbEntity
  8
7
100
AcDbLine
 10
22.31692913385827
 20
5.611220472440944
 30
0.0
 11
22.27952755905512
 21
5.611220472440944
 31
0.0
  0
LINE
  5
B78
330
1E
100
AcDbEntity
  8
7
100
AcDbLine
 10
22.31692913385827
 20
5.611220472440944
 30
0.0
 11
22.27952755905512
 21
5.611220472440944
 31
0.0
  0
LINE
  5
B79
330
1E
100
AcDbEntity
  8
7
100
AcDbLine
 10
26.37992125984252
 20
10.85728346456692
 30
0.0
 11
26.6013779527559
 21
10.85728346456692
 31
0.0
  0
LINE
  5
B7A
330
1E
100
AcDbEntity
  8
7
100
AcDbLine
 10
26.6013779527559
 20
11.07283464566929
 30
0.0
 11
26.37992125984252
 21
11.07283464566929
 31
0.0
  0
LINE
  5
B7B
330
1E
100
AcDbEntity
  8
7
100
AcDbLine
 10
26.31692913385827
 20
10.89271653543307
 30
0.0
 11
26.35433070866142
 21
10.89271653543307
 31
0.0
  0
LINE
  5
B7C
330
1E
100
AcDbEntity
  8
7
100
AcDbLine
 10
26.35433070866142
 20
11.03740157480314
 30
0.0
 11
26.31692913385827
 21
11.03740157480314
 31
0.0
  0
LINE
  5
B7D
330
1E
100
AcDbEntity
  8
7
100
AcDbLine
 10
26.96358267716535
 20
10.91830708661417
 30
0.0
 11
26.89173228346456
 21
10.91830708661417
 31
0.0
  0
LINE
  5
B7E
330
1E
100
AcDbEntity
  8
7
100
AcDbLine
 10
26.16830708661417
 20
11.46062992125984
 30
0.0
 11
26.16830708661417
 21
11.53641732283464
 31
0.0
  0
LINE
  5
B7F
330
1E
100
AcDbEntity
  8
7
100
AcDbLine
 10
25.89271653543307
 20
11.53641732283464
 30
0.0
 11
25.89271653543307
 21
11.46062992125984
 31
0.0
  0
LINE
  5
B80
330
1E
100
AcDbEntity
  8
7
100
AcDbLine
 10
7.86023622047244
 20
11.46062992125984
 30
0.0
 11
7.86023622047244
 21
11.53543307086614
 31
0.0
  0
LINE
  5
B81
330
1E
100
AcDbEntity
  8
7
100
AcDbLine
 10
7.585629921259841
 20
11.53543307086614
 30
0.0
 11
7.585629921259841
 21
11.46062992125984
 31
0.0
  0
LINE
  5
B82
330
1E
100
AcDbEntity
  8
7
100
AcDbLine
 10
7.247047244094487
 20
11.07283464566929
 30
0.0
 11
7.024606299212598
 21
11.07283464566929
 31
0.0
  0
LINE
  5
B83
330
1E
100
AcDbEntity
  8
7
100
AcDbLine
 10
7.024606299212598
 20
10.85728346456692
 30
0.0
 11
7.247047244094487
 21
10.85728346456692
 31
0.0
  0
LINE
  5
B84
330
1E
100
AcDbEntity
  8
7
100
AcDbLine
 10
7.309055118110236
 20
11.03740157480314
 30
0.0
 11
7.271653543307086
 21
11.03740157480314
 31
0.0
  0
LINE
  5
B85
330
1E
100
AcDbEntity
  8
7
100
AcDbLine
 10
7.271653543307086
 20
10.89271653543307
 30
0.0
 11
7.309055118110236
 21
10.89271653543307
 31
0.0
  0
LINE
  5
B86
330
1E
100
AcDbEntity
  8
7
100
AcDbLine
 10
7.024606299212598
 20
11.1023622047244
 30
0.0
 11
6.949803149606299
 21
11.1023622047244
 31
0.0
  0
LINE
  5
B87
330
1E
100
AcDbEntity
  8
7
100
AcDbLine
 10
6.949803149606299
 20
10.82775590551181
 30
0.0
 11
7.024606299212598
 21
10.82775590551181
 31
0.0
  0
LINE
  5
B88
330
1E
100
AcDbEntity
  8
7
100
AcDbLine
 10
26.6013779527559
 20
10.82775590551181
 30
0.0
 11
26.67618110236221
 21
10.82775590551181
 31
0.0
  0
LINE
  5
B89
330
1E
100
AcDbEntity
  8
7
100
AcDbLine
 10
26.67618110236221
 20
11.1023622047244
 30
0.0
 11
26.6013779527559
 21
11.1023622047244
 31
0.0
  0
LWPOLYLINE
  5
B8A
330
1E
100
AcDbEntity
  8
7
100
AcDbPolyline
 90
        3
 70
     0
 43
0.0098425196850394
 10
26.95964566929134
 20
11.05314960629921
 10
26.95669291338583
 20
11.06299212598425
 10
26.95275590551181
 20
11.07381889763779
  0
LWPOLYLINE
  5
B8F
330
1E
100
AcDbEntity
  8
7
100
AcDbPolyline
 90
        4
 70
     0
 43
0.0098425196850394
 10
26.9251968503937
 20
11.11712598425196
 10
26.89468503937008
 20
11.14271653543307
 10
26.85826771653543
 20
11.15846456692913
 10
26.81791338582677
 20
11.16437007874015
  0
LWPOLYLINE
  5
B95
330
1E
100
AcDbEntity
  8
7
100
AcDbPolyline
 90
        6
 70
     0
 43
0.0098425196850394
 10
26.81791338582677
 20
10.76574803149606
 10
26.85629921259842
 20
10.77066929133858
 10
26.89173228346456
 20
10.78543307086614
 10
26.92224409448819
 20
10.81003937007874
 10
26.94488188976378
 20
10.84055118110236
 10
26.95964566929134
 20
10.876968503937
  0
LWPOLYLINE
  5
B9D
330
1E
100
AcDbEntity
  8
7
100
AcDbPolyline
 90
        3
 70
     0
 43
0.0098425196850394
 10
26.37893700787401
 20
10.86712598425196
 10
26.37204724409448
 20
10.88484251968503
 10
26.35433070866142
 20
10.89173228346456
  0
LWPOLYLINE
  5
BA2
330
1E
100
AcDbEntity
  8
7
100
AcDbPolyline
 90
        3
 70
     0
 43
0.0098425196850394
 10
26.35433070866142
 20
11.03838582677165
 10
26.37204724409448
 20
11.04527559055118
 10
26.37893700787401
 20
11.06299212598425
  0
LWPOLYLINE
  5
BA7
330
1E
100
AcDbEntity
  8
7
100
AcDbPolyline
 90
        3
 70
     0
 43
0.0098425196850394
 10
6.747047244094487
 20
10.77952755905511
 10
6.776574803149605
 20
10.76870078740157
 10
6.808070866141731
 20
10.76574803149606
  0
LINE
  5
BAC
330
1E
100
AcDbEntity
  8
7
100
AcDbLine
 10
6.808070866141731
 20
11.16437007874015
 30
0.0
 11
6.776574803149605
 21
11.16141732283464
 31
0.0
  0
LINE
  5
BAD
330
1E
100
AcDbEntity
  8
7
100
AcDbLine
 10
6.776574803149605
 20
11.16141732283464
 30
0.0
 11
6.747047244094487
 21
11.1505905511811
 31
0.0
  0
LWPOLYLINE
  5
BAE
330
1E
100
AcDbEntity
  8
7
100
AcDbPolyline
 90
        3
 70
     0
 43
0.0098425196850394
 10
7.247047244094487
 20
11.06299212598425
 10
7.253937007874014
 20
11.04527559055118
 10
7.271653543307086
 20
11.03838582677165
  0
LWPOLYLINE
  5
BB3
330
1E
100
AcDbEntity
  8
7
100
AcDbPolyline
 90
        3
 70
     0
 43
0.0098425196850394
 10
7.271653543307086
 20
10.89173228346456
 10
7.253937007874014
 20
10.88484251968503
 10
7.247047244094487
 20
10.86712598425196
  0
LINE
  5
BB8
330
1E
100
AcDbEntity
  8
7
100
AcDbLine
 10
20.56692913385826
 20
5.611220472440944
 30
0.0
 11
23.05905511811023
 21
5.611220472440944
 31
0.0
  0
LINE
  5
BB9
330
1E
100
AcDbEntity
  8
7
100
AcDbLine
 10
22.02460629921259
 20
5.621062992125984
 30
0.0
 11
20.62893700787401
 21
5.621062992125984
 31
0.0
  0
LINE
  5
BBA
330
1E
100
AcDbEntity
  8
7
100
AcDbLine
 10
22.02460629921259
 20
5.621062992125984
 30
0.0
 11
20.62893700787401
 21
5.621062992125984
 31
0.0
  0
LWPOLYLINE
  5
BBB
330
1E
100
AcDbEntity
  8
7
100
AcDbPolyline
 90
        6
 70
     0
 43
0.0098425196850394
 10
21.56299212598425
 20
5.621062992125984
 10
21.57874015748031
 20
5.621062992125984
 10
21.57972440944881
 20
5.621062992125984
 10
21.58169291338583
 20
5.621062992125984
 10
21.58267716535433
 20
5.621062992125984
 10
21.58464566929134
 20
5.621062992125984
  0
LWPOLYLINE
  5
BC3
330
1E
100
AcDbEntity
  8
7
100
AcDbPolyline
 90
       11
 70
     0
 43
0.0098425196850394
 10
21.58464566929134
 20
5.621062992125984
 10
21.58562992125984
 20
5.621062992125984
 10
21.58661417322834
 20
5.621062992125984
 10
21.58562992125984
 20
5.621062992125984
 10
21.58464566929134
 20
5.621062992125984
 10
21.58366141732283
 20
5.621062992125984
 10
21.58169291338583
 20
5.621062992125984
 10
21.58070866141732
 20
5.621062992125984
 10
21.57874015748031
 20
5.621062992125984
 10
21.5767716535433
 20
5.621062992125984
 10
21.56299212598425
 20
5.621062992125984
  0
LWPOLYLINE
  5
BD0
330
1E
100
AcDbEntity
  8
7
100
AcDbPolyline
 90
        9
 70
     0
 43
0.0098425196850394
 10
20.80905511811023
 20
5.621062992125984
 10
20.81692913385827
 20
5.621062992125984
 10
20.82381889763779
 20
5.621062992125984
 10
20.83070866141732
 20
5.621062992125984
 10
20.83267716535433
 20
5.621062992125984
 10
20.83464566929134
 20
5.621062992125984
 10
20.83366141732283
 20
5.621062992125984
 10
20.83169291338582
 20
5.621062992125984
 10
20.8257874015748
 20
5.621062992125984
  0
LWPOLYLINE
  5
BDB
330
1E
100
AcDbEntity
  8
7
100
AcDbPolyline
 90
       15
 70
     0
 43
0.0098425196850394
 10
20.8257874015748
 20
5.621062992125984
 10
20.81988188976378
 20
5.621062992125984
 10
20.81003937007874
 20
5.621062992125984
 10
20.80708661417323
 20
5.621062992125984
 10
20.81594488188976
 20
5.621062992125984
 10
20.82283464566929
 20
5.621062992125984
 10
20.82775590551181
 20
5.621062992125984
 10
20.82972440944881
 20
5.621062992125984
 10
20.83070866141732
 20
5.621062992125984
 10
20.82874015748031
 20
5.621062992125984
 10
20.82677165354331
 20
5.621062992125984
 10
20.82086614173228
 20
5.621062992125984
 10
20.81299212598425
 20
5.621062992125984
 10
20.80511811023622
 20
5.621062992125984
 10
20.80905511811023
 20
5.621062992125984
  0
LWPOLYLINE
  5
BEC
330
1E
100
AcDbEntity
  8
7
100
AcDbPolyline
 90
        3
 70
     0
 43
0.0098425196850394
 10
21.34940944881889
 20
5.621062992125984
 10
21.30708661417322
 20
5.621062992125984
 10
21.25590551181102
 20
5.621062992125984
  0
LINE
  5
BF1
330
1E
100
AcDbEntity
  8
7
100
AcDbLine
 10
20.76870078740157
 20
5.621062992125984
 30
0.0
 11
20.97145669291338
 21
5.621062992125984
 31
0.0
  0
LWPOLYLINE
  5
BF2
330
1E
100
AcDbEntity
  8
7
100
AcDbPolyline
 90
       20
 70
     0
 43
0.0098425196850394
 10
20.97145669291338
 20
5.621062992125984
 10
20.97244094488189
 20
5.621062992125984
 10
20.97145669291338
 20
5.621062992125984
 10
20.96948818897637
 20
5.621062992125984
 10
20.96850393700787
 20
5.621062992125984
 10
20.96653543307086
 20
5.621062992125984
 10
20.96555118110236
 20
5.621062992125984
 10
20.96358267716535
 20
5.621062992125984
 10
20.95964566929134
 20
5.621062992125984
 10
20.95472440944881
 20
5.621062992125984
 10
20.95275590551181
 20
5.621062992125984
 10
20.9498031496063
 20
5.621062992125984
 10
20.94685039370078
 20
5.621062992125984
 10
20.94389763779527
 20
5.621062992125984
 10
20.94094488188976
 20
5.621062992125984
 10
20.93799212598425
 20
5.621062992125984
 10
20.93405511811023
 20
5.621062992125984
 10
20.93110236220472
 20
5.621062992125984
 10
20.92716535433071
 20
5.621062992125984
 10
20.92322834645669
 20
5.621062992125984
  0
LWPOLYLINE
  5
C08
330
1E
100
AcDbEntity
  8
7
100
AcDbPolyline
 90
       11
 70
     0
 43
0.0098425196850394
 10
20.92322834645669
 20
5.621062992125984
 10
20.91929133858267
 20
5.621062992125984
 10
20.91535433070866
 20
5.621062992125984
 10
20.90748031496063
 20
5.621062992125984
 10
20.90255905511811
 20
5.621062992125984
 10
20.89763779527559
 20
5.621062992125984
 10
20.89271653543307
 20
5.621062992125984
 10
20.88877952755905
 20
5.621062992125984
 10
20.87795275590551
 20
5.621062992125984
 10
20.64468503937008
 20
5.621062992125984
 10
20.76870078740157
 20
5.621062992125984
  0
LWPOLYLINE
  5
C15
330
1E
100
AcDbEntity
  8
7
100
AcDbPolyline
 90
        7
 70
     0
 43
0.0098425196850394
 10
21.25590551181102
 20
5.621062992125984
 10
21.25393700787401
 20
5.621062992125984
 10
21.2509842519685
 20
5.621062992125984
 10
21.24803149606299
 20
5.621062992125984
 10
21.24409448818898
 20
5.621062992125984
 10
21.24212598425196
 20
5.621062992125984
 10
21.24015748031496
 20
5.621062992125984
  0
LWPOLYLINE
  5
C1E
330
1E
100
AcDbEntity
  8
7
100
AcDbPolyline
 90
       19
 70
     0
 43
0.0098425196850394
 10
21.24015748031496
 20
5.621062992125984
 10
21.23622047244094
 20
5.621062992125984
 10
21.23326771653543
 20
5.621062992125984
 10
21.23031496062992
 20
5.621062992125984
 10
21.2244094488189
 20
5.621062992125984
 10
21.21751968503937
 20
5.621062992125984
 10
21.21062992125984
 20
5.621062992125984
 10
21.20669291338582
 20
5.621062992125984
 10
21.20374015748031
 20
5.621062992125984
 10
21.19488188976378
 20
5.621062992125984
 10
21.18996062992125
 20
5.621062992125984
 10
21.18602362204724
 20
5.621062992125984
 10
21.03444881889763
 20
5.621062992125984
 10
21.13090551181102
 20
5.621062992125984
 10
21.18799212598425
 20
5.621062992125984
 10
21.19586614173228
 20
5.621062992125984
 10
21.19980314960629
 20
5.621062992125984
 10
21.20374015748031
 20
5.621062992125984
 10
21.21751968503937
 20
5.621062992125984
  0
LWPOLYLINE
  5
C33
330
1E
100
AcDbEntity
  8
7
100
AcDbPolyline
 90
       16
 70
     0
 43
0.0098425196850394
 10
20.88090551181102
 20
5.621062992125984
 10
20.87795275590551
 20
5.621062992125984
 10
20.86909448818897
 20
5.621062992125984
 10
20.85433070866141
 20
5.621062992125984
 10
20.83562992125984
 20
5.621062992125984
 10
20.81299212598425
 20
5.621062992125984
 10
20.79921259842519
 20
5.621062992125984
 10
20.78641732283464
 20
5.621062992125984
 10
20.77263779527559
 20
5.621062992125984
 10
20.75885826771653
 20
5.621062992125984
 10
20.74311023622047
 20
5.621062992125984
 10
20.72834645669291
 20
5.621062992125984
 10
20.73031496062992
 20
5.621062992125984
 10
20.74507874015748
 20
5.621062992125984
 10
20.75984251968504
 20
5.621062992125984
 10
20.77362204724409
 20
5.621062992125984
  0
LWPOLYLINE
  5
C45
330
1E
100
AcDbEntity
  8
7
100
AcDbPolyline
 90
       10
 70
     0
 43
0.0098425196850394
 10
20.77362204724409
 20
5.621062992125984
 10
20.78641732283464
 20
5.621062992125984
 10
20.79921259842519
 20
5.621062992125984
 10
20.81200787401574
 20
5.621062992125984
 10
20.83464566929134
 20
5.621062992125984
 10
20.85236220472441
 20
5.621062992125984
 10
20.86614173228346
 20
5.621062992125984
 10
20.87499999999999
 20
5.621062992125984
 10
20.87893700787402
 20
5.621062992125984
 10
20.88090551181102
 20
5.621062992125984
  0
LWPOLYLINE
  5
C51
330
1E
100
AcDbEntity
  8
7
100
AcDbPolyline
 90
       11
 70
     0
 43
0.0098425196850394
 10
21.13582677165354
 20
5.621062992125984
 10
21.15354330708661
 20
5.621062992125984
 10
21.15649606299212
 20
5.621062992125984
 10
21.15748031496063
 20
5.621062992125984
 10
21.15944881889763
 20
5.621062992125984
 10
21.16141732283464
 20
5.621062992125984
 10
21.16338582677165
 20
5.621062992125984
 10
21.16437007874016
 20
5.621062992125984
 10
21.16338582677165
 20
5.621062992125984
 10
21.16240157480315
 20
5.621062992125984
 10
21.16141732283464
 20
5.621062992125984
  0
LWPOLYLINE
  5
C5E
330
1E
100
AcDbEntity
  8
7
100
AcDbPolyline
 90
        5
 70
     0
 43
0.0098425196850394
 10
21.16141732283464
 20
5.621062992125984
 10
21.15944881889763
 20
5.621062992125984
 10
21.15649606299212
 20
5.621062992125984
 10
21.15354330708661
 20
5.621062992125984
 10
21.13582677165354
 20
5.621062992125984
  0
LWPOLYLINE
  5
C65
330
1E
100
AcDbEntity
  8
7
100
AcDbPolyline
 90
        3
 70
     0
 43
0.0098425196850394
 10
21.79232283464567
 20
5.621062992125984
 10
21.84547244094488
 20
5.621062992125984
 10
21.79232283464567
 20
5.621062992125984
  0
LWPOLYLINE
  5
C6A
330
1E
100
AcDbEntity
  8
7
100
AcDbPolyline
 90
        9
 70
     0
 43
0.0098425196850394
 10
20.88090551181102
 20
5.621062992125984
 10
20.87992125984252
 20
5.621062992125984
 10
20.87893700787402
 20
5.621062992125984
 10
20.87795275590551
 20
5.621062992125984
 10
20.87696850393701
 20
5.621062992125984
 10
20.87499999999999
 20
5.621062992125984
 10
20.87303149606299
 20
5.621062992125984
 10
20.87106299212598
 20
5.621062992125984
 10
20.86811023622047
 20
5.621062992125984
  0
LWPOLYLINE
  5
C75
330
1E
100
AcDbEntity
  8
7
100
AcDbPolyline
 90
       20
 70
     0
 43
0.0098425196850394
 10
20.86811023622047
 20
5.621062992125984
 10
20.86614173228346
 20
5.621062992125984
 10
20.86318897637795
 20
5.621062992125984
 10
20.85925196850393
 20
5.621062992125984
 10
20.85629921259842
 20
5.621062992125984
 10
20.85236220472441
 20
5.621062992125984
 10
20.84842519685039
 20
5.621062992125984
 10
20.84448818897637
 20
5.621062992125984
 10
20.84055118110236
 20
5.621062992125984
 10
20.83661417322834
 20
5.621062992125984
 10
20.83169291338582
 20
5.621062992125984
 10
20.82775590551181
 20
5.621062992125984
 10
20.82283464566929
 20
5.621062992125984
 10
20.81791338582677
 20
5.621062992125984
 10
20.81299212598425
 20
5.621062992125984
 10
20.80807086614173
 20
5.621062992125984
 10
20.80314960629921
 20
5.621062992125984
 10
20.79921259842519
 20
5.621062992125984
 10
20.79429133858267
 20
5.621062992125984
 10
20.78937007874015
 20
5.621062992125984
  0
LWPOLYLINE
  5
C8B
330
1E
100
AcDbEntity
  8
7
100
AcDbPolyline
 90
       20
 70
     0
 43
0.0098425196850394
 10
20.78937007874015
 20
5.621062992125984
 10
20.78444881889764
 20
5.621062992125984
 10
20.77952755905511
 20
5.621062992125984
 10
20.7755905511811
 20
5.621062992125984
 10
20.77066929133858
 20
5.621062992125984
 10
20.76673228346456
 20
5.621062992125984
 10
20.76279527559055
 20
5.621062992125984
 10
20.75885826771653
 20
5.621062992125984
 10
20.75492125984252
 20
5.621062992125984
 10
20.751968503937
 20
5.621062992125984
 10
20.74803149606299
 20
5.621062992125984
 10
20.74507874015748
 20
5.621062992125984
 10
20.74212598425197
 20
5.621062992125984
 10
20.74015748031496
 20
5.621062992125984
 10
20.73720472440944
 20
5.621062992125984
 10
20.73523622047244
 20
5.621062992125984
 10
20.73326771653543
 20
5.621062992125984
 10
20.73228346456692
 20
5.621062992125984
 10
20.73129921259842
 20
5.621062992125984
 10
20.73031496062992
 20
5.621062992125984
  0
LINE
  5
CA1
330
1E
100
AcDbEntity
  8
7
100
AcDbLine
 10
20.72933070866141
 20
5.621062992125984
 30
0.0
 11
20.79921259842519
 21
5.621062992125984
 31
0.0
  0
LINE
  5
CA2
330
1E
100
AcDbEntity
  8
7
100
AcDbLine
 10
20.79921259842519
 20
5.621062992125984
 30
0.0
 11
20.87992125984252
 21
5.621062992125984
 31
0.0
  0
LINE
  5
CA3
330
1E
100
AcDbEntity
  8
7
100
AcDbLine
 10
20.87992125984252
 20
5.621062992125984
 30
0.0
 11
20.88090551181102
 21
5.621062992125984
 31
0.0
  0
LWPOLYLINE
  5
CA4
330
1E
100
AcDbEntity
  8
7
100
AcDbPolyline
 90
       19
 70
     0
 43
0.0098425196850394
 10
21.50492125984252
 20
5.621062992125984
 10
21.60728346456692
 20
5.621062992125984
 10
21.61318897637795
 20
5.621062992125984
 10
21.61515748031496
 20
5.621062992125984
 10
21.61811023622047
 20
5.621062992125984
 10
21.62204724409448
 20
5.621062992125984
 10
21.625
 20
5.621062992125984
 10
21.626968503937
 20
5.621062992125984
 10
21.62893700787401
 20
5.621062992125984
 10
21.62992125984252
 20
5.621062992125984
 10
21.63287401574803
 20
5.621062992125984
 10
21.63385826771653
 20
5.621062992125984
 10
21.63484251968504
 20
5.621062992125984
 10
21.63385826771653
 20
5.621062992125984
 10
21.63287401574803
 20
5.621062992125984
 10
21.62992125984252
 20
5.621062992125984
 10
21.62893700787401
 20
5.621062992125984
 10
21.626968503937
 20
5.621062992125984
 10
21.62204724409448
 20
5.621062992125984
  0
LWPOLYLINE
  5
CB9
330
1E
100
AcDbEntity
  8
7
100
AcDbPolyline
 90
        6
 70
     0
 43
0.0098425196850394
 10
21.62204724409448
 20
5.621062992125984
 10
21.62106299212598
 20
5.621062992125984
 10
21.61811023622047
 20
5.621062992125984
 10
21.61318897637795
 20
5.621062992125984
 10
21.60728346456692
 20
5.621062992125984
 10
21.50492125984252
 20
5.621062992125984
  0
LWPOLYLINE
  5
CC1
330
1E
100
AcDbEntity
  8
7
100
AcDbPolyline
 90
       11
 70
     0
 43
0.0098425196850394
 10
20.87893700787402
 20
5.621062992125984
 10
20.86712598425197
 20
5.621062992125984
 10
20.86122047244094
 20
5.621062992125984
 10
20.85236220472441
 20
5.621062992125984
 10
20.83464566929134
 20
5.621062992125984
 10
20.82381889763779
 20
5.621062992125984
 10
20.81200787401574
 20
5.621062992125984
 10
20.79921259842519
 20
5.621062992125984
 10
20.78740157480315
 20
5.621062992125984
 10
20.77263779527559
 20
5.621062992125984
 10
20.75885826771653
 20
5.621062992125984
  0
LWPOLYLINE
  5
CCE
330
1E
100
AcDbEntity
  8
7
100
AcDbPolyline
 90
       17
 70
     0
 43
0.0098425196850394
 10
20.75885826771653
 20
5.621062992125984
 10
20.74507874015748
 20
5.621062992125984
 10
20.73129921259842
 20
5.621062992125984
 10
20.73326771653543
 20
5.621062992125984
 10
20.74803149606299
 20
5.621062992125984
 10
20.76082677165354
 20
5.621062992125984
 10
20.77460629921259
 20
5.621062992125984
 10
20.78740157480315
 20
5.621062992125984
 10
20.79921259842519
 20
5.621062992125984
 10
20.81200787401574
 20
5.621062992125984
 10
20.82185039370079
 20
5.621062992125984
 10
20.83267716535433
 20
5.621062992125984
 10
20.8503937007874
 20
5.621062992125984
 10
20.85826771653543
 20
5.621062992125984
 10
20.86515748031496
 20
5.621062992125984
 10
20.8759842519685
 20
5.621062992125984
 10
20.87893700787402
 20
5.621062992125984
  0
LWPOLYLINE
  5
CE1
330
1E
100
AcDbEntity
  8
7
100
AcDbPolyline
 90
        3
 70
     0
 43
0.0098425196850394
 10
20.88188976377952
 20
5.621062992125984
 10
20.88090551181102
 20
5.621062992125984
 10
20.87992125984252
 20
5.621062992125984
  0
LWPOLYLINE
  5
CE6
330
1E
100
AcDbEntity
  8
7
100
AcDbPolyline
 90
       20
 70
     0
 43
0.0098425196850394
 10
20.87992125984252
 20
5.621062992125984
 10
20.87795275590551
 20
5.621062992125984
 10
20.87696850393701
 20
5.621062992125984
 10
20.87499999999999
 20
5.621062992125984
 10
20.87204724409449
 20
5.621062992125984
 10
20.87007874015748
 20
5.621062992125984
 10
20.86712598425197
 20
5.621062992125984
 10
20.86417322834646
 20
5.621062992125984
 10
20.86122047244094
 20
5.621062992125984
 10
20.85728346456693
 20
5.621062992125984
 10
20.85334645669291
 20
5.621062992125984
 10
20.8494094488189
 20
5.621062992125984
 10
20.84547244094488
 20
5.621062992125984
 10
20.84153543307086
 20
5.621062992125984
 10
20.83661417322834
 20
5.621062992125984
 10
20.83267716535433
 20
5.621062992125984
 10
20.82775590551181
 20
5.621062992125984
 10
20.82283464566929
 20
5.621062992125984
 10
20.81791338582677
 20
5.621062992125984
 10
20.81299212598425
 20
5.621062992125984
  0
LWPOLYLINE
  5
CFC
330
1E
100
AcDbEntity
  8
7
100
AcDbPolyline
 90
       20
 70
     0
 43
0.0098425196850394
 10
20.81299212598425
 20
5.621062992125984
 10
20.80807086614173
 20
5.621062992125984
 10
20.80314960629921
 20
5.621062992125984
 10
20.79822834645669
 20
5.621062992125984
 10
20.79330708661417
 20
5.621062992125984
 10
20.78937007874015
 20
5.621062992125984
 10
20.78444881889764
 20
5.621062992125984
 10
20.77952755905511
 20
5.621062992125984
 10
20.77460629921259
 20
5.621062992125984
 10
20.77066929133858
 20
5.621062992125984
 10
20.76574803149606
 20
5.621062992125984
 10
20.76181102362204
 20
5.621062992125984
 10
20.75787401574803
 20
5.621062992125984
 10
20.75393700787401
 20
5.621062992125984
 10
20.75
 20
5.621062992125984
 10
20.74704724409448
 20
5.621062992125984
 10
20.74409448818897
 20
5.621062992125984
 10
20.74114173228346
 20
5.621062992125984
 10
20.73818897637795
 20
5.621062992125984
 10
20.73622047244094
 20
5.621062992125984
  0
LINE
  5
D12
330
1E
100
AcDbEntity
  8
7
100
AcDbLine
 10
20.72736220472441
 20
5.621062992125984
 30
0.0
 11
20.77066929133858
 21
5.621062992125984
 31
0.0
  0
LINE
  5
D13
330
1E
100
AcDbEntity
  8
7
100
AcDbLine
 10
20.77066929133858
 20
5.621062992125984
 30
0.0
 11
20.87204724409449
 21
5.621062992125984
 31
0.0
  0
LWPOLYLINE
  5
D14
330
1E
100
AcDbEntity
  8
7
100
AcDbPolyline
 90
        7
 70
     0
 43
0.0098425196850394
 10
20.87204724409449
 20
5.621062992125984
 10
20.87499999999999
 20
5.621062992125984
 10
20.87696850393701
 20
5.621062992125984
 10
20.87795275590551
 20
5.621062992125984
 10
20.87992125984252
 20
5.621062992125984
 10
20.88090551181102
 20
5.621062992125984
 10
20.88188976377952
 20
5.621062992125984
  0
LWPOLYLINE
  5
D1D
330
1E
100
AcDbEntity
  8
7
100
AcDbPolyline
 90
       14
 70
     0
 43
0.0098425196850394
 10
20.82086614173228
 20
5.621062992125984
 10
20.83661417322834
 20
5.621062992125984
 10
20.84350393700787
 20
5.621062992125984
 10
20.84842519685039
 20
5.621062992125984
 10
20.85629921259842
 20
5.621062992125984
 10
20.85826771653543
 20
5.621062992125984
 10
20.86122047244094
 20
5.621062992125984
 10
20.86220472440944
 20
5.621062992125984
 10
20.85925196850393
 20
5.621062992125984
 10
20.85629921259842
 20
5.621062992125984
 10
20.8513779527559
 20
5.621062992125984
 10
20.84547244094488
 20
5.621062992125984
 10
20.83464566929134
 20
5.621062992125984
 10
20.82874015748031
 20
5.621062992125984
  0
LINE
  5
D2D
330
1E
100
AcDbEntity
  8
7
100
AcDbLine
 10
20.82086614173228
 20
5.621062992125984
 30
0.0
 11
20.86614173228346
 21
5.621062992125984
 31
0.0
  0
LWPOLYLINE
  5
D2E
330
1E
100
AcDbEntity
  8
7
100
AcDbPolyline
 90
       19
 70
     0
 43
0.0098425196850394
 10
20.78641732283464
 20
5.621062992125984
 10
20.78248031496062
 20
5.621062992125984
 10
20.77460629921259
 20
5.621062992125984
 10
20.76377952755905
 20
5.621062992125984
 10
20.75393700787401
 20
5.621062992125984
 10
20.751968503937
 20
5.621062992125984
 10
20.7509842519685
 20
5.621062992125984
 10
20.74803149606299
 20
5.621062992125984
 10
20.75
 20
5.621062992125984
 10
20.751968503937
 20
5.621062992125984
 10
20.75492125984252
 20
5.621062992125984
 10
20.76181102362204
 20
5.621062992125984
 10
20.77165354330709
 20
5.621062992125984
 10
20.78641732283464
 20
5.621062992125984
 10
20.78346456692913
 20
5.621062992125984
 10
20.76870078740157
 20
5.621062992125984
 10
20.75885826771653
 20
5.621062992125984
 10
20.7509842519685
 20
5.621062992125984
 10
20.74803149606299
 20
5.621062992125984
  0
LWPOLYLINE
  5
D43
330
1E
100
AcDbEntity
  8
7
100
AcDbPolyline
 90
       11
 70
     0
 43
0.0098425196850394
 10
20.74803149606299
 20
5.621062992125984
 10
20.74606299212598
 20
5.621062992125984
 10
20.74409448818897
 20
5.621062992125984
 10
20.74606299212598
 20
5.621062992125984
 10
20.74803149606299
 20
5.621062992125984
 10
20.7509842519685
 20
5.621062992125984
 10
20.76082677165354
 20
5.621062992125984
 10
20.77165354330709
 20
5.621062992125984
 10
20.77952755905511
 20
5.621062992125984
 10
20.78346456692913
 20
5.621062992125984
 10
20.78641732283464
 20
5.621062992125984
  0
LWPOLYLINE
  5
D50
330
1E
100
AcDbEntity
  8
7
100
AcDbPolyline
 90
       10
 70
     0
 43
0.0098425196850394
 10
20.80216535433071
 20
5.621062992125984
 10
20.79429133858267
 20
5.621062992125984
 10
20.78740157480315
 20
5.621062992125984
 10
20.78543307086614
 20
5.621062992125984
 10
20.78248031496062
 20
5.621062992125984
 10
20.77952755905511
 20
5.621062992125984
 10
20.77854330708661
 20
5.621062992125984
 10
20.77952755905511
 20
5.621062992125984
 10
20.78248031496062
 20
5.621062992125984
 10
20.78641732283464
 20
5.621062992125984
  0
LWPOLYLINE
  5
D5C
330
1E
100
AcDbEntity
  8
7
100
AcDbPolyline
 90
       16
 70
     0
 43
0.0098425196850394
 10
20.78641732283464
 20
5.621062992125984
 10
20.79330708661417
 20
5.621062992125984
 10
20.80216535433071
 20
5.621062992125984
 10
20.79822834645669
 20
5.621062992125984
 10
20.79035433070866
 20
5.621062992125984
 10
20.78346456692913
 20
5.621062992125984
 10
20.77854330708661
 20
5.621062992125984
 10
20.7755905511811
 20
5.621062992125984
 10
20.77460629921259
 20
5.621062992125984
 10
20.7755905511811
 20
5.621062992125984
 10
20.77854330708661
 20
5.621062992125984
 10
20.78149606299212
 20
5.621062992125984
 10
20.78346456692913
 20
5.621062992125984
 10
20.79133858267716
 20
5.621062992125984
 10
20.79822834645669
 20
5.621062992125984
 10
20.80216535433071
 20
5.621062992125984
  0
LWPOLYLINE
  5
D6E
330
1E
100
AcDbEntity
  8
7
100
AcDbPolyline
 90
        4
 70
     0
 43
0.0098425196850394
 10
21.28346456692913
 20
5.621062992125984
 10
21.26673228346456
 20
5.621062992125984
 10
21.3001968503937
 20
5.621062992125984
 10
21.28346456692913
 20
5.621062992125984
  0
LWPOLYLINE
  5
D74
330
1E
100
AcDbEntity
  8
7
100
AcDbPolyline
 90
        6
 70
     0
 43
0.0098425196850394
 10
21.39665354330709
 20
5.621062992125984
 10
21.42224409448818
 20
5.621062992125984
 10
21.48326771653543
 20
5.621062992125984
 10
21.43700787401574
 20
5.621062992125984
 10
21.41437007874015
 20
5.621062992125984
 10
21.34940944881889
 20
5.621062992125984
  0
LWPOLYLINE
  5
D7C
330
1E
100
AcDbEntity
  8
7
100
AcDbPolyline
 90
       13
 70
     0
 43
0.0098425196850394
 10
21.65255905511811
 20
5.621062992125984
 10
21.65452755905512
 20
5.621062992125984
 10
21.65551181102362
 20
5.621062992125984
 10
21.65846456692913
 20
5.621062992125984
 10
21.65944881889763
 20
5.621062992125984
 10
21.66043307086614
 20
5.621062992125984
 10
21.66338582677165
 20
5.621062992125984
 10
21.66633858267716
 20
5.621062992125984
 10
21.67027559055118
 20
5.621062992125984
 10
21.6761811023622
 20
5.621062992125984
 10
21.68110236220472
 20
5.621062992125984
 10
21.68503937007874
 20
5.621062992125984
 10
21.68700787401574
 20
5.621062992125984
  0
LINE
  5
D8B
330
1E
100
AcDbEntity
  8
7
100
AcDbLine
 10
21.68700787401574
 20
5.621062992125984
 30
0.0
 11
21.77460629921259
 21
5.621062992125984
 31
0.0
  0
LWPOLYLINE
  5
D8C
330
1E
100
AcDbEntity
  8
7
100
AcDbPolyline
 90
        5
 70
     0
 43
0.0098425196850394
 10
21.71259842519685
 20
5.621062992125984
 10
21.71062992125984
 20
5.621062992125984
 10
21.70866141732283
 20
5.621062992125984
 10
21.70669291338583
 20
5.621062992125984
 10
21.65255905511811
 20
5.621062992125984
  0
LWPOLYLINE
  5
D93
330
1E
100
AcDbEntity
  8
7
100
AcDbPolyline
 90
       12
 70
     0
 43
0.0098425196850394
 10
20.86712598425197
 20
5.621062992125984
 10
20.85728346456693
 20
5.621062992125984
 10
20.84547244094488
 20
5.621062992125984
 10
20.83070866141732
 20
5.621062992125984
 10
20.81200787401574
 20
5.621062992125984
 10
20.8011811023622
 20
5.621062992125984
 10
20.79035433070866
 20
5.621062992125984
 10
20.77952755905511
 20
5.621062992125984
 10
20.76771653543306
 20
5.621062992125984
 10
20.75492125984252
 20
5.621062992125984
 10
20.74311023622047
 20
5.621062992125984
 10
20.74507874015748
 20
5.621062992125984
  0
LWPOLYLINE
  5
DA1
330
1E
100
AcDbEntity
  8
7
100
AcDbPolyline
 90
       12
 70
     0
 43
0.0098425196850394
 10
20.74507874015748
 20
5.621062992125984
 10
20.75688976377953
 20
5.621062992125984
 10
20.76870078740157
 20
5.621062992125984
 10
20.78051181102362
 20
5.621062992125984
 10
20.79035433070866
 20
5.621062992125984
 10
20.8011811023622
 20
5.621062992125984
 10
20.81102362204724
 20
5.621062992125984
 10
20.82874015748031
 20
5.621062992125984
 10
20.84350393700787
 20
5.621062992125984
 10
20.85531496062992
 20
5.621062992125984
 10
20.86515748031496
 20
5.621062992125984
 10
20.86712598425197
 20
5.621062992125984
  0
LWPOLYLINE
  5
DAF
330
1E
100
AcDbEntity
  8
7
100
AcDbPolyline
 90
        7
 70
     0
 43
0.0098425196850394
 10
21.21751968503937
 20
5.621062992125984
 10
21.18700787401575
 20
5.621062992125984
 10
21.24114173228346
 20
5.621062992125984
 10
21.24901574803149
 20
5.621062992125984
 10
21.30511811023622
 20
5.621062992125984
 10
21.31692913385827
 20
5.621062992125984
 10
21.39665354330709
 20
5.621062992125984
  0
LWPOLYLINE
  5
DB8
330
1E
100
AcDbEntity
  8
7
100
AcDbPolyline
 90
        5
 70
     0
 43
0.0098425196850394
 10
21.89173228346456
 20
5.621062992125984
 10
21.85531496062992
 20
5.621062992125984
 10
21.97933070866141
 20
5.621062992125984
 10
21.94291338582677
 20
5.621062992125984
 10
21.89173228346456
 20
5.621062992125984
  0
LINE
  5
DBF
330
1E
100
AcDbEntity
  8
7
100
AcDbLine
 10
22.02854330708661
 20
5.621062992125984
 30
0.0
 11
20.62893700787401
 21
5.621062992125984
 31
0.0
  0
LINE
  5
DC0
330
1E
100
AcDbEntity
  8
7
100
AcDbLine
 10
22.02854330708661
 20
5.621062992125984
 30
0.0
 11
20.62893700787401
 21
5.621062992125984
 31
0.0
  0
LWPOLYLINE
  5
DC1
330
1E
100
AcDbEntity
  8
7
100
AcDbPolyline
 90
       13
 70
     0
 43
0.0098425196850394
 10
6.741141732283463
 20
11.60531496062991
 10
6.763779527559054
 20
11.60925196850393
 10
6.782480314960629
 20
11.62106299212598
 10
6.796259842519684
 20
11.63976377952755
 10
6.803149606299212
 20
11.66141732283464
 10
6.801181102362204
 20
11.68405511811023
 10
6.790354330708661
 20
11.70472440944881
 10
6.773622047244093
 20
11.72047244094488
 10
6.752952755905511
 20
11.72834645669291
 10
6.729330708661416
 20
11.72834645669291
 10
6.708661417322834
 20
11.72047244094488
 10
6.691929133858267
 20
11.70472440944881
 10
6.681102362204724
 20
11.68405511811023
  0
LWPOLYLINE
  5
DD0
330
1E
100
AcDbEntity
  8
7
100
AcDbPolyline
 90
        6
 70
     0
 43
0.0098425196850394
 10
6.681102362204724
 20
11.68405511811023
 10
6.679133858267715
 20
11.66141732283464
 10
6.686023622047243
 20
11.63976377952755
 10
6.699803149606299
 20
11.62106299212598
 10
6.718503937007873
 20
11.60925196850393
 10
6.741141732283463
 20
11.60531496062991
  0
LWPOLYLINE
  5
DD8
330
1E
100
AcDbEntity
  8
7
100
AcDbPolyline
 90
        3
 70
     0
 43
0.0098425196850394
 10
26.96358267716535
 20
10.94783464566929
 10
26.96358267716535
 20
10.94685039370078
 10
26.96358267716535
 20
10.94586614173228
  0
LWPOLYLINE
  5
DDD
330
1E
100
AcDbEntity
  8
7
100
AcDbPolyline
 90
        4
 70
     0
 43
0.0098425196850394
 10
26.96358267716535
 20
10.96161417322834
 10
26.96358267716535
 20
10.95669291338582
 10
26.96358267716535
 20
10.9507874015748
 10
26.96358267716535
 20
10.94783464566929
  0
LWPOLYLINE
  5
DE3
330
1E
100
AcDbEntity
  8
7
100
AcDbPolyline
 90
        3
 70
     0
 43
0.0098425196850394
 10
26.96358267716535
 20
10.94586614173228
 10
26.96358267716535
 20
10.93700787401574
 10
26.96358267716535
 20
10.92913385826771
  0
LINE
  5
DE8
330
1E
100
AcDbEntity
  8
7
100
AcDbLine
 10
26.96161417322834
 20
10.91830708661417
 30
0.0
 11
26.96358267716535
 21
10.92913385826771
 31
0.0
  0
LWPOLYLINE
  5
DE9
330
1E
100
AcDbEntity
  8
7
100
AcDbPolyline
 90
        3
 70
     0
 43
0.0098425196850394
 10
26.96358267716535
 20
10.90354330708661
 10
26.96062992125984
 20
10.88090551181102
 10
26.95866141732283
 20
10.8759842519685
  0
LWPOLYLINE
  5
DEE
330
1E
100
AcDbEntity
  8
7
100
AcDbPolyline
 90
        3
 70
     0
 43
0.0098425196850394
 10
26.96358267716535
 20
10.91732283464566
 10
26.96358267716535
 20
10.91830708661417
 10
26.96358267716535
 20
10.91732283464566
  0
LWPOLYLINE
  5
DF3
330
1E
100
AcDbEntity
  8
7
100
AcDbPolyline
 90
        4
 70
     0
 43
0.0098425196850394
 10
26.87893700787402
 20
10.86909448818897
 10
26.9005905511811
 20
10.87303149606299
 10
26.91929133858268
 20
10.87893700787401
 10
26.93503937007874
 20
10.88681102362204
  0
LWPOLYLINE
  5
DF9
330
1E
100
AcDbEntity
  8
7
100
AcDbPolyline
 90
        5
 70
     0
 43
0.0098425196850394
 10
26.93503937007874
 20
10.88681102362204
 10
26.94783464566929
 20
10.89468503937007
 10
26.95669291338583
 20
10.90354330708661
 10
26.96161417322834
 20
10.91240157480314
 10
26.96358267716535
 20
10.91732283464566
  0
LWPOLYLINE
  5
E00
330
1E
100
AcDbEntity
  8
7
100
AcDbPolyline
 90
        3
 70
     0
 43
0.0098425196850394
 10
26.87893700787402
 20
10.9261811023622
 10
26.87893700787402
 20
10.89665354330708
 10
26.87893700787402
 20
10.86909448818897
  0
LWPOLYLINE
  5
E05
330
1E
100
AcDbEntity
  8
7
100
AcDbPolyline
 90
        7
 70
     0
 43
0.0098425196850394
 10
26.96259842519685
 20
10.97342519685039
 10
26.95374015748031
 20
10.95767716535432
 10
26.94291338582677
 20
10.94881889763779
 10
26.92913385826772
 20
10.94094488188976
 10
26.91141732283464
 20
10.93405511811023
 10
26.89173228346456
 20
10.92814960629921
 10
26.87893700787402
 20
10.9261811023622
  0
LWPOLYLINE
  5
E0E
330
1E
100
AcDbEntity
  8
7
100
AcDbPolyline
 90
        6
 70
     0
 43
0.0098425196850394
 10
26.96259842519685
 20
10.97342519685039
 10
26.96358267716535
 20
10.97834645669291
 10
26.96358267716535
 20
10.98425196850393
 10
26.96358267716535
 20
10.99212598425196
 10
26.96358267716535
 20
11.0009842519685
 10
26.96259842519685
 20
11.00590551181102
  0
LWPOLYLINE
  5
E16
330
1E
100
AcDbEntity
  8
7
100
AcDbPolyline
 90
        5
 70
     0
 43
0.0098425196850394
 10
26.92421259842519
 20
11.09055118110236
 10
26.94094488188976
 20
11.07086614173228
 10
26.9517716535433
 20
11.0501968503937
 10
26.95964566929134
 20
11.02854330708661
 10
26.96259842519685
 20
11.00590551181102
  0
LWPOLYLINE
  5
E1D
330
1E
100
AcDbEntity
  8
7
100
AcDbPolyline
 90
        3
 70
     0
 43
0.0098425196850394
 10
26.92421259842519
 20
11.11614173228346
 10
26.92716535433071
 20
11.10334645669291
 10
26.92421259842519
 20
11.09055118110236
  0
LWPOLYLINE
  5
E22
330
1E
100
AcDbEntity
  8
7
100
AcDbPolyline
 90
        5
 70
     0
 43
0.0098425196850394
 10
26.96259842519685
 20
11.03149606299212
 10
26.95374015748031
 20
11.07185039370078
 10
26.94291338582677
 20
11.09251968503937
 10
26.92913385826772
 20
11.11122047244094
 10
26.92421259842519
 20
11.11614173228346
  0
LWPOLYLINE
  5
E29
330
1E
100
AcDbEntity
  8
7
100
AcDbPolyline
 90
        4
 70
     0
 43
0.0098425196850394
 10
26.96259842519685
 20
11.03149606299212
 10
26.96358267716535
 20
11.02460629921259
 10
26.96358267716535
 20
11.01968503937007
 10
26.96358267716535
 20
11.01673228346456
  0
LWPOLYLINE
  5
E2F
330
1E
100
AcDbEntity
  8
7
100
AcDbPolyline
 90
        6
 70
     0
 43
0.0098425196850394
 10
26.37992125984252
 20
10.85728346456692
 10
26.37992125984252
 20
10.86122047244094
 10
26.37992125984252
 20
10.87401574803149
 10
26.37992125984252
 20
10.89468503937007
 10
26.37992125984252
 20
10.92027559055118
 10
26.37992125984252
 20
10.94980314960629
  0
LWPOLYLINE
  5
E37
330
1E
100
AcDbEntity
  8
7
100
AcDbPolyline
 90
        7
 70
     0
 43
0.0098425196850394
 10
26.37992125984252
 20
10.94980314960629
 10
26.37992125984252
 20
10.98031496062992
 10
26.37992125984252
 20
11.00984251968504
 10
26.37992125984252
 20
11.03543307086614
 10
26.37992125984252
 20
11.05610236220472
 10
26.37992125984252
 20
11.06889763779527
 10
26.37992125984252
 20
11.07283464566929
  0
LWPOLYLINE
  5
E40
330
1E
100
AcDbEntity
  8
7
100
AcDbPolyline
 90
       10
 70
     0
 43
0.0098425196850394
 10
26.31692913385827
 20
10.89271653543307
 10
26.31692913385827
 20
10.89665354330708
 10
26.31692913385827
 20
10.90944881889763
 10
26.31692913385827
 20
10.92913385826771
 10
26.31692913385827
 20
10.95275590551181
 10
26.31692913385827
 20
10.97736220472441
 10
26.31692913385827
 20
11.0009842519685
 10
26.31692913385827
 20
11.02066929133858
 10
26.31692913385827
 20
11.03346456692913
 10
26.31692913385827
 20
11.03740157480314
  0
LWPOLYLINE
  5
E4C
330
1E
100
AcDbEntity
  8
7
100
AcDbPolyline
 90
       10
 70
     0
 43
0.0098425196850394
 10
26.35433070866142
 20
10.89271653543307
 10
26.35433070866142
 20
10.89665354330708
 10
26.35433070866142
 20
10.90944881889763
 10
26.35433070866142
 20
10.92913385826771
 10
26.35433070866142
 20
10.95275590551181
 10
26.35433070866142
 20
10.97736220472441
 10
26.35433070866142
 20
11.0009842519685
 10
26.35433070866142
 20
11.02066929133858
 10
26.35433070866142
 20
11.03346456692913
 10
26.35433070866142
 20
11.03740157480314
  0
LINE
  5
E58
330
1E
100
AcDbEntity
  8
7
100
AcDbLine
 10
26.95570866141732
 20
10.96161417322834
 30
0.0
 11
26.96358267716535
 21
10.96161417322834
 31
0.0
  0
LINE
  5
E59
330
1E
100
AcDbEntity
  8
7
100
AcDbLine
 10
26.96358267716535
 20
10.91732283464566
 30
0.0
 11
26.89173228346456
 21
10.91732283464566
 31
0.0
  0
LINE
  5
E5A
330
1E
100
AcDbEntity
  8
7
100
AcDbLine
 10
26.96358267716535
 20
10.92913385826771
 30
0.0
 11
26.89173228346456
 21
10.92913385826771
 31
0.0
  0
LINE
  5
E5B
330
1E
100
AcDbEntity
  8
7
100
AcDbLine
 10
26.95767716535433
 20
11.03149606299212
 30
0.0
 11
26.96259842519685
 21
11.03149606299212
 31
0.0
  0
LWPOLYLINE
  5
E5C
330
1E
100
AcDbEntity
  8
7
100
AcDbPolyline
 90
        3
 70
     0
 43
0.0098425196850394
 10
6.662401574803149
 20
10.92421259842519
 10
6.662401574803149
 20
10.9251968503937
 10
6.662401574803149
 20
10.9261811023622
  0
LWPOLYLINE
  5
E61
330
1E
100
AcDbEntity
  8
7
100
AcDbPolyline
 90
        3
 70
     0
 43
0.0098425196850394
 10
6.662401574803149
 20
11.00393700787401
 10
6.662401574803149
 20
11.00492125984252
 10
6.662401574803149
 20
11.00590551181102
  0
LWPOLYLINE
  5
E66
330
1E
100
AcDbEntity
  8
7
100
AcDbPolyline
 90
        7
 70
     0
 43
0.0098425196850394
 10
6.663385826771652
 20
11.02362204724409
 10
6.667322834645668
 20
11.0501968503937
 10
6.6751968503937
 20
11.07381889763779
 10
6.686023622047243
 20
11.09645669291338
 10
6.701771653543306
 20
11.11614173228346
 10
6.720472440944881
 20
11.13287401574803
 10
6.748031496062991
 20
11.14960629921259
  0
LWPOLYLINE
  5
E6F
330
1E
100
AcDbEntity
  8
7
100
AcDbPolyline
 90
        4
 70
     0
 43
0.0098425196850394
 10
6.663385826771652
 20
11.02362204724409
 10
6.662401574803149
 20
11.01574803149606
 10
6.662401574803149
 20
11.00787401574803
 10
6.662401574803149
 20
11.00590551181102
  0
LWPOLYLINE
  5
E75
330
1E
100
AcDbEntity
  8
7
100
AcDbPolyline
 90
        3
 70
     0
 43
0.0098425196850394
 10
6.662401574803149
 20
11.00393700787401
 10
6.662401574803149
 20
11.0
 10
6.662401574803149
 20
10.99901574803149
  0
LWPOLYLINE
  5
E7A
330
1E
100
AcDbEntity
  8
7
100
AcDbPolyline
 90
        5
 70
     0
 43
0.0098425196850394
 10
6.701771653543306
 20
10.99901574803149
 10
6.685039370078739
 20
10.99901574803149
 10
6.674212598425196
 20
10.99901574803149
 10
6.666338582677164
 20
10.99901574803149
 10
6.662401574803149
 20
10.99901574803149
  0
LINE
  5
E81
330
1E
100
AcDbEntity
  8
7
100
AcDbLine
 10
6.701771653543306
 20
10.93110236220472
 30
0.0
 11
6.698818897637794
 21
10.96456692913385
 31
0.0
  0
LINE
  5
E82
330
1E
100
AcDbEntity
  8
7
100
AcDbLine
 10
6.698818897637794
 20
10.96456692913385
 30
0.0
 11
6.701771653543306
 21
10.99901574803149
 31
0.0
  0
LWPOLYLINE
  5
E83
330
1E
100
AcDbEntity
  8
7
100
AcDbPolyline
 90
        6
 70
     0
 43
0.0098425196850394
 10
6.662401574803149
 20
10.93110236220472
 10
6.665354330708661
 20
10.93110236220472
 10
6.672244094488188
 20
10.93110236220472
 10
6.683070866141731
 20
10.93110236220472
 10
6.696850393700787
 20
10.93110236220472
 10
6.701771653543306
 20
10.93110236220472
  0
LWPOLYLINE
  5
E8B
330
1E
100
AcDbEntity
  8
7
100
AcDbPolyline
 90
        3
 70
     0
 43
0.0098425196850394
 10
6.662401574803149
 20
10.93110236220472
 10
6.662401574803149
 20
10.93011811023622
 10
6.662401574803149
 20
10.9261811023622
  0
LWPOLYLINE
  5
E90
330
1E
100
AcDbEntity
  8
7
100
AcDbPolyline
 90
        4
 70
     0
 43
0.0098425196850394
 10
6.662401574803149
 20
10.92421259842519
 10
6.662401574803149
 20
10.91732283464566
 10
6.662401574803149
 20
10.90944881889763
 10
6.663385826771652
 20
10.90649606299212
  0
LWPOLYLINE
  5
E96
330
1E
100
AcDbEntity
  8
7
100
AcDbPolyline
 90
        9
 70
     0
 43
0.0098425196850394
 10
6.748031496062991
 20
10.78051181102362
 10
6.747047244094487
 20
10.78051181102362
 10
6.7253937007874
 20
10.79330708661417
 10
6.706692913385825
 20
10.80807086614173
 10
6.690944881889762
 20
10.8267716535433
 10
6.678149606299212
 20
10.84842519685039
 10
6.669291338582676
 20
10.87106299212598
 10
6.664370078740156
 20
10.89468503937007
 10
6.663385826771652
 20
10.90649606299212
  0
LINE
  5
EA1
330
1E
100
AcDbEntity
  8
7
100
AcDbLine
 10
6.748031496062991
 20
10.77854330708661
 30
0.0
 11
6.748031496062991
 21
10.78051181102362
 31
0.0
  0
LINE
  5
EA2
330
1E
100
AcDbEntity
  8
7
100
AcDbLine
 10
6.748031496062991
 20
11.14960629921259
 30
0.0
 11
6.748031496062991
 21
11.1515748031496
 31
0.0
  0
LWPOLYLINE
  5
EA3
330
1E
100
AcDbEntity
  8
7
100
AcDbPolyline
 90
       12
 70
     0
 43
0.0098425196850394
 10
7.247047244094487
 20
11.07283464566929
 10
7.247047244094487
 20
11.06889763779527
 10
7.247047244094487
 20
11.05610236220472
 10
7.247047244094487
 20
11.03543307086614
 10
7.247047244094487
 20
11.00984251968504
 10
7.247047244094487
 20
10.98031496062992
 10
7.247047244094487
 20
10.94980314960629
 10
7.247047244094487
 20
10.92027559055118
 10
7.247047244094487
 20
10.89468503937007
 10
7.247047244094487
 20
10.87401574803149
 10
7.247047244094487
 20
10.86122047244094
 10
7.247047244094487
 20
10.85728346456692
  0
LWPOLYLINE
  5
EB1
330
1E
100
AcDbEntity
  8
7
100
AcDbPolyline
 90
        4
 70
     0
 43
0.0098425196850394
 10
7.309055118110236
 20
11.03740157480314
 10
7.309055118110236
 20
11.03346456692913
 10
7.309055118110236
 20
11.02066929133858
 10
7.309055118110236
 20
11.0009842519685
  0
LWPOLYLINE
  5
EB7
330
1E
100
AcDbEntity
  8
7
100
AcDbPolyline
 90
        7
 70
     0
 43
0.0098425196850394
 10
7.309055118110236
 20
11.0009842519685
 10
7.309055118110236
 20
10.97736220472441
 10
7.309055118110236
 20
10.95275590551181
 10
7.309055118110236
 20
10.92913385826771
 10
7.309055118110236
 20
10.90944881889763
 10
7.309055118110236
 20
10.89665354330708
 10
7.309055118110236
 20
10.89271653543307
  0
LWPOLYLINE
  5
EC0
330
1E
100
AcDbEntity
  8
7
100
AcDbPolyline
 90
        9
 70
     0
 43
0.0098425196850394
 10
7.271653543307086
 20
11.03740157480314
 10
7.271653543307086
 20
11.03346456692913
 10
7.271653543307086
 20
11.02066929133858
 10
7.271653543307086
 20
11.0009842519685
 10
7.271653543307086
 20
10.97736220472441
 10
7.271653543307086
 20
10.95275590551181
 10
7.271653543307086
 20
10.92913385826771
 10
7.271653543307086
 20
10.90944881889763
 10
7.271653543307086
 20
10.89665354330708
  0
LINE
  5
ECB
330
1E
100
AcDbEntity
  8
7
100
AcDbLine
 10
7.271653543307086
 20
10.89665354330708
 30
0.0
 11
7.271653543307086
 21
10.89271653543307
 31
0.0
  0
LWPOLYLINE
  5
ECC
330
1E
100
AcDbEntity
  8
7
100
AcDbPolyline
 90
        3
 70
     0
 43
0.0098425196850394
 10
6.904527559055117
 20
11.59940944881889
 10
6.904527559055117
 20
11.53543307086614
 10
8.002952755905511
 20
11.53543307086614
  0
LINE
  5
ED1
330
1E
100
AcDbEntity
  8
7
100
AcDbLine
 10
6.904527559055117
 20
11.53543307086614
 30
0.0
 11
6.741141732283463
 21
11.53543307086614
 31
0.0
  0
LINE
  5
ED2
330
1E
100
AcDbEntity
  8
7
100
AcDbLine
 10
8.002952755905511
 20
11.59940944881889
 30
0.0
 11
8.002952755905511
 21
11.53543307086614
 31
0.0
  0
LWPOLYLINE
  5
ED3
330
1E
100
AcDbEntity
  8
7
100
AcDbPolyline
 90
        3
 70
     0
 43
0.0098425196850394
 10
8.002952755905511
 20
11.59940944881889
 10
6.904527559055117
 20
11.59940944881889
 10
6.741141732283463
 20
11.59940944881889
  0
LINE
  5
ED8
330
1E
100
AcDbEntity
  8
7
100
AcDbLine
 10
6.741141732283463
 20
11.59940944881889
 30
0.0
 11
6.741141732283463
 21
11.53543307086614
 31
0.0
  0
LWPOLYLINE
  5
ED9
330
1E
100
AcDbEntity
  8
7
100
AcDbPolyline
 90
       11
 70
     0
 43
0.0098425196850394
 10
6.808070866141731
 20
11.66732283464566
 10
6.804133858267715
 20
11.69094488188976
 10
6.791338582677164
 20
11.71161417322834
 10
6.772637795275589
 20
11.7263779527559
 10
6.749015748031495
 20
11.73425196850393
 10
6.7253937007874
 20
11.73228346456693
 10
6.70275590551181
 20
11.72244094488188
 10
6.686023622047243
 20
11.70570866141732
 10
6.676181102362204
 20
11.68307086614173
 10
6.674212598425196
 20
11.65944881889763
 10
6.682086614173227
 20
11.63582677165354
  0
LWPOLYLINE
  5
EE6
330
1E
100
AcDbEntity
  8
7
100
AcDbPolyline
 90
        4
 70
     0
 43
0.0098425196850394
 10
6.682086614173227
 20
11.63582677165354
 10
6.696850393700787
 20
11.61712598425196
 10
6.717519685039369
 20
11.60433070866141
 10
6.741141732283463
 20
11.6003937007874
  0
LINE
  5
EEC
330
1E
100
AcDbEntity
  8
7
100
AcDbLine
 10
6.808070866141731
 20
11.66732283464566
 30
0.0
 11
6.873031496062991
 21
11.66732283464566
 31
0.0
  0
LWPOLYLINE
  5
EED
330
1E
100
AcDbEntity
  8
7
100
AcDbPolyline
 90
        7
 70
     0
 43
0.0098425196850394
 10
6.872047244094487
 20
11.66732283464566
 10
6.868110236220472
 20
11.69980314960629
 10
6.856299212598425
 20
11.72933070866141
 10
6.83759842519685
 20
11.75590551181102
 10
6.812992125984251
 20
11.7765748031496
 10
6.783464566929133
 20
11.79133858267716
 10
6.751968503937007
 20
11.79822834645669
  0
LWPOLYLINE
  5
EF6
330
1E
100
AcDbEntity
  8
7
100
AcDbPolyline
 90
       14
 70
     0
 43
0.0098425196850394
 10
6.751968503937007
 20
11.79822834645669
 10
6.719488188976377
 20
11.79625984251968
 10
6.688976377952755
 20
11.78740157480315
 10
6.66043307086614
 20
11.77066929133858
 10
6.63779527559055
 20
11.74803149606299
 10
6.621062992125983
 20
11.71948818897637
 10
6.612204724409448
 20
11.68897637795275
 10
6.61023622047244
 20
11.65649606299212
 10
6.617125984251967
 20
11.625
 10
6.631889763779526
 20
11.59547244094488
 10
6.652559055118109
 20
11.57086614173228
 10
6.679133858267715
 20
11.55216535433071
 10
6.708661417322834
 20
11.54035433070866
 10
6.741141732283463
 20
11.53641732283464
  0
LWPOLYLINE
  5
F06
330
1E
100
AcDbEntity
  8
7
100
AcDbPolyline
 90
       14
 70
     0
 43
0.0098425196850394
 10
7.86023622047244
 20
11.46062992125984
 10
7.856299212598425
 20
11.46062992125984
 10
7.844488188976377
 20
11.46062992125984
 10
7.825787401574802
 20
11.46062992125984
 10
7.801181102362203
 20
11.46062992125984
 10
7.771653543307086
 20
11.46062992125984
 10
7.739173228346456
 20
11.46062992125984
 10
7.706692913385825
 20
11.46062992125984
 10
7.674212598425196
 20
11.46062992125984
 10
7.644685039370077
 20
11.46062992125984
 10
7.620078740157479
 20
11.46062992125984
 10
7.601377952755904
 20
11.46062992125984
 10
7.589566929133857
 20
11.46062992125984
 10
7.585629921259841
 20
11.46062992125984
  0
LWPOLYLINE
  5
F16
330
1E
100
AcDbEntity
  8
7
100
AcDbPolyline
 90
        3
 70
     0
 43
0.0098425196850394
 10
6.873031496062991
 20
10.40551181102362
 10
6.873031496062991
 20
11.50393700787401
 10
6.873031496062991
 20
11.53543307086614
  0
LINE
  5
F1B
330
1E
100
AcDbEntity
  8
7
100
AcDbLine
 10
6.873031496062991
 20
11.59940944881889
 30
0.0
 11
6.873031496062991
 21
11.66732283464566
 31
0.0
  0
LINE
  5
F1C
330
1E
100
AcDbEntity
  8
7
100
AcDbLine
 10
6.808070866141731
 20
11.50393700787401
 30
0.0
 11
6.873031496062991
 21
11.50393700787401
 31
0.0
  0
LINE
  5
F1D
330
1E
100
AcDbEntity
  8
7
100
AcDbLine
 10
6.808070866141731
 20
10.40551181102362
 30
0.0
 11
6.873031496062991
 21
10.40551181102362
 31
0.0
  0
LINE
  5
F1E
330
1E
100
AcDbEntity
  8
7
100
AcDbLine
 10
6.808070866141731
 20
11.50393700787401
 30
0.0
 11
6.808070866141731
 21
10.40551181102362
 31
0.0
  0
LINE
  5
F1F
330
1E
100
AcDbEntity
  8
7
100
AcDbLine
 10
6.808070866141731
 20
11.50393700787401
 30
0.0
 11
6.808070866141731
 21
11.53543307086614
 31
0.0
  0
LINE
  5
F20
330
1E
100
AcDbEntity
  8
7
100
AcDbLine
 10
6.808070866141731
 20
11.59940944881889
 30
0.0
 11
6.808070866141731
 21
11.66732283464566
 31
0.0
  0
LWPOLYLINE
  5
F21
330
1E
100
AcDbEntity
  8
7
100
AcDbPolyline
 90
       10
 70
     0
 43
0.0098425196850394
 10
26.16830708661417
 20
11.46062992125984
 10
26.16437007874016
 20
11.46062992125984
 10
26.15255905511811
 20
11.46062992125984
 10
26.13385826771653
 20
11.46062992125984
 10
26.10826771653543
 20
11.46062992125984
 10
26.07972440944882
 20
11.46062992125984
 10
26.04724409448818
 20
11.46062992125984
 10
26.01377952755905
 20
11.46062992125984
 10
25.98228346456693
 20
11.46062992125984
 10
25.95275590551181
 20
11.46062992125984
  0
LWPOLYLINE
  5
F2D
330
1E
100
AcDbEntity
  8
7
100
AcDbPolyline
 90
        5
 70
     0
 43
0.0098425196850394
 10
25.95275590551181
 20
11.46062992125984
 10
25.92716535433071
 20
11.46062992125984
 10
25.90846456692913
 20
11.46062992125984
 10
25.89665354330708
 20
11.46062992125984
 10
25.89271653543307
 20
11.46062992125984
  0
LINE
  5
F34
330
1E
100
AcDbEntity
  8
7
100
AcDbLine
 10
26.72145669291338
 20
11.6003937007874
 30
0.0
 11
25.7509842519685
 21
11.6003937007874
 31
0.0
  0
LINE
  5
F35
330
1E
100
AcDbEntity
  8
7
100
AcDbLine
 10
25.7509842519685
 20
11.53641732283464
 30
0.0
 11
25.7509842519685
 21
11.6003937007874
 31
0.0
  0
LWPOLYLINE
  5
F36
330
1E
100
AcDbEntity
  8
7
100
AcDbPolyline
 90
        3
 70
     0
 43
0.0098425196850394
 10
25.7509842519685
 20
11.53641732283464
 10
26.72145669291338
 20
11.53641732283464
 10
26.72145669291338
 20
11.6003937007874
  0
LWPOLYLINE
  5
F3B
330
1E
100
AcDbEntity
  8
7
100
AcDbPolyline
 90
        4
 70
     0
 43
0.0098425196850394
 10
26.75295275590551
 20
11.50393700787401
 10
26.74901574803149
 20
11.51968503937007
 10
26.73720472440944
 20
11.53149606299212
 10
26.72145669291338
 20
11.53543307086614
  0
LINE
  5
F41
330
1E
100
AcDbEntity
  8
7
100
AcDbLine
 10
26.75393700787402
 20
11.50393700787401
 30
0.0
 11
26.81791338582677
 21
11.50393700787401
 31
0.0
  0
LWPOLYLINE
  5
F42
330
1E
100
AcDbEntity
  8
7
100
AcDbPolyline
 90
        6
 70
     0
 43
0.0098425196850394
 10
26.81692913385827
 20
11.50393700787401
 10
26.81200787401575
 20
11.53346456692913
 10
26.79822834645669
 20
11.56003937007874
 10
26.77755905511811
 20
11.58070866141732
 10
26.7509842519685
 20
11.59448818897637
 10
26.72145669291338
 20
11.59940944881889
  0
LWPOLYLINE
  5
F4A
330
1E
100
AcDbEntity
  8
7
100
AcDbPolyline
 90
        3
 70
     0
 43
0.0098425196850394
 10
26.75393700787402
 20
11.50393700787401
 10
26.75393700787402
 20
10.68602362204724
 10
26.81791338582677
 20
10.68602362204724
  0
LINE
  5
F4F
330
1E
100
AcDbEntity
  8
7
100
AcDbLine
 10
26.81791338582677
 20
11.50393700787401
 30
0.0
 11
26.81791338582677
 21
10.68602362204724
 31
0.0
  0
LINE
  5
F50
330
1E
100
AcDbEntity
  8
7
100
AcDbLine
 10
26.61614173228346
 20
5.611220472440944
 30
0.0
 11
7.009842519685038
 21
5.611220472440944
 31
0.0
  0
LINE
  5
F51
330
1E
100
AcDbEntity
  8
7
100
AcDbLine
 10
7.009842519685038
 20
5.534448818897637
 30
0.0
 11
26.61614173228346
 21
5.534448818897637
 31
0.0
  0
LWPOLYLINE
  5
F52
330
1E
100
AcDbEntity
  8
7
100
AcDbPolyline
 90
        7
 70
     0
 43
0.0098425196850394
 10
26.61614173228346
 20
5.534448818897637
 10
26.6515748031496
 20
5.539370078740157
 10
26.68405511811023
 20
5.553149606299212
 10
26.71259842519685
 20
5.574803149606299
 10
26.73425196850393
 20
5.602362204724409
 10
26.74803149606299
 20
5.635826771653543
 10
26.75295275590551
 20
5.671259842519685
  0
LWPOLYLINE
  5
F5B
330
1E
100
AcDbEntity
  8
7
100
AcDbPolyline
 90
        5
 70
     0
 43
0.0098425196850394
 10
26.61614173228346
 20
5.612204724409449
 10
26.63877952755905
 20
5.617125984251968
 10
26.65748031496063
 20
5.629921259842519
 10
26.67027559055118
 20
5.648622047244094
 10
26.6751968503937
 20
5.671259842519685
  0
LINE
  5
F62
330
1E
100
AcDbEntity
  8
7
100
AcDbLine
 10
26.75393700787402
 20
5.671259842519685
 30
0.0
 11
26.75393700787402
 21
11.43602362204724
 31
0.0
  0
LWPOLYLINE
  5
F63
330
1E
100
AcDbEntity
  8
7
100
AcDbPolyline
 90
        7
 70
     0
 43
0.0098425196850394
 10
26.67618110236221
 20
5.671259842519685
 10
26.67618110236221
 20
11.43602362204724
 10
26.67618110236221
 20
11.45866141732283
 10
26.67618110236221
 20
11.47834645669291
 10
26.67618110236221
 20
11.49114173228346
 10
26.67618110236221
 20
11.49606299212598
 10
26.75393700787402
 20
11.49606299212598
  0
LWPOLYLINE
  5
F6C
330
1E
100
AcDbEntity
  8
7
100
AcDbPolyline
 90
        5
 70
     0
 43
0.0098425196850394
 10
6.873031496062991
 20
5.671259842519685
 10
6.877952755905511
 20
5.635826771653543
 10
6.891732283464566
 20
5.603346456692912
 10
6.913385826771652
 20
5.574803149606299
 10
6.940944881889762
 20
5.553149606299212
  0
LWPOLYLINE
  5
F73
330
1E
100
AcDbEntity
  8
7
100
AcDbPolyline
 90
        3
 70
     0
 43
0.0098425196850394
 10
6.940944881889762
 20
5.553149606299212
 10
6.974409448818897
 20
5.539370078740157
 10
7.009842519685038
 20
5.534448818897637
  0
LWPOLYLINE
  5
F78
330
1E
100
AcDbEntity
  8
7
100
AcDbPolyline
 90
        5
 70
     0
 43
0.0098425196850394
 10
6.950787401574802
 20
5.671259842519685
 10
6.955708661417322
 20
5.648622047244094
 10
6.968503937007873
 20
5.629921259842519
 10
6.987204724409448
 20
5.617125984251968
 10
7.009842519685038
 20
5.612204724409449
  0
LINE
  5
F7F
330
1E
100
AcDbEntity
  8
7
100
AcDbLine
 10
6.873031496062991
 20
5.671259842519685
 30
0.0
 11
6.873031496062991
 21
11.43602362204724
 31
0.0
  0
LINE
  5
F80
330
1E
100
AcDbEntity
  8
7
100
AcDbLine
 10
6.949803149606299
 20
11.49606299212598
 30
0.0
 11
6.949803149606299
 21
11.49114173228346
 31
0.0
  0
LWPOLYLINE
  5
F81
330
1E
100
AcDbEntity
  8
7
100
AcDbPolyline
 90
        4
 70
     0
 43
0.0098425196850394
 10
6.949803149606299
 20
11.49114173228346
 10
6.949803149606299
 20
11.47834645669291
 10
6.949803149606299
 20
11.45866141732283
 10
6.949803149606299
 20
11.43602362204724
  0
LINE
  5
F87
330
1E
100
AcDbEntity
  8
7
100
AcDbLine
 10
6.949803149606299
 20
5.671259842519685
 30
0.0
 11
6.949803149606299
 21
11.43602362204724
 31
0.0
  0
LWPOLYLINE
  5
F88
330
1E
100
AcDbEntity
  8
7
100
AcDbPolyline
 90
        3
 70
     0
 43
0.0098425196850394
 10
10.98720472440944
 20
5.612204724409449
 10
11.00984251968504
 20
5.617125984251968
 10
11.02854330708661
 20
5.629921259842519
  0
LINE
  5
F8D
330
1E
100
AcDbEntity
  8
7
100
AcDbLine
 10
11.04724409448818
 20
5.611220472440944
 30
0.0
 11
11.02952755905511
 21
5.628937007874015
 31
0.0
  0
LWPOLYLINE
  5
F8E
330
1E
100
AcDbEntity
  8
7
100
AcDbPolyline
 90
        3
 70
     0
 43
0.0098425196850394
 10
11.12106299212598
 20
5.611220472440944
 10
11.23523622047244
 20
5.725393700787401
 10
11.18110236220472
 20
5.779527559055117
  0
LINE
  5
F93
330
1E
100
AcDbEntity
  8
7
100
AcDbLine
 10
11.02952755905511
 20
5.628937007874015
 30
0.0
 11
11.18110236220472
 21
5.779527559055117
 31
0.0
  0
LWPOLYLINE
  5
F94
330
1E
100
AcDbEntity
  8
7
100
AcDbPolyline
 90
        3
 70
     0
 43
0.0098425196850394
 10
11.25
 20
5.731299212598425
 10
11.24212598425196
 20
5.729330708661417
 10
11.23622047244094
 20
5.725393700787401
  0
LINE
  5
F99
330
1E
100
AcDbEntity
  8
7
100
AcDbLine
 10
11.25
 20
5.731299212598425
 30
0.0
 11
11.25
 21
5.808070866141732
 31
0.0
  0
LWPOLYLINE
  5
F9A
330
1E
100
AcDbEntity
  8
7
100
AcDbPolyline
 90
        3
 70
     0
 43
0.0098425196850394
 10
11.25
 20
5.808070866141732
 10
11.21259842519685
 20
5.801181102362204
 10
11.18208661417322
 20
5.779527559055117
  0
LWPOLYLINE
  5
F9F
330
1E
100
AcDbEntity
  8
7
100
AcDbPolyline
 90
        3
 70
     0
 43
0.0098425196850394
 10
6.950787401574802
 20
8.502952755905511
 10
6.955708661417322
 20
8.48031496062992
 10
6.968503937007873
 20
8.461614173228346
  0
LINE
  5
FA4
330
1E
100
AcDbEntity
  8
7
100
AcDbLine
 10
6.949803149606299
 20
8.442913385826772
 30
0.0
 11
6.967519685039369
 21
8.460629921259842
 31
0.0
  0
LWPOLYLINE
  5
FA5
330
1E
100
AcDbEntity
  8
7
100
AcDbPolyline
 90
        3
 70
     0
 43
0.0098425196850394
 10
6.949803149606299
 20
8.369094488188975
 10
7.063976377952755
 20
8.25492125984252
 10
7.118110236220472
 20
8.309055118110235
  0
LINE
  5
FAA
330
1E
100
AcDbEntity
  8
7
100
AcDbLine
 10
6.967519685039369
 20
8.460629921259842
 30
0.0
 11
7.118110236220472
 21
8.309055118110235
 31
0.0
  0
LWPOLYLINE
  5
FAB
330
1E
100
AcDbEntity
  8
7
100
AcDbPolyline
 90
        3
 70
     0
 43
0.0098425196850394
 10
7.068897637795275
 20
8.241141732283464
 10
7.066929133858267
 20
8.249015748031496
 10
7.062992125984251
 20
8.25492125984252
  0
LINE
  5
FB0
330
1E
100
AcDbEntity
  8
7
100
AcDbLine
 10
7.069881889763778
 20
8.241141732283464
 30
0.0
 11
7.146653543307086
 21
8.241141732283464
 31
0.0
  0
LWPOLYLINE
  5
FB1
330
1E
100
AcDbEntity
  8
7
100
AcDbPolyline
 90
        3
 70
     0
 43
0.0098425196850394
 10
7.145669291338582
 20
8.241141732283464
 10
7.138779527559054
 20
8.278543307086614
 10
7.117125984251967
 20
8.309055118110235
  0
LINE
  5
FB6
330
1E
100
AcDbEntity
  8
7
100
AcDbLine
 10
6.967519685039369
 20
7.231299212598425
 30
0.0
 11
6.949803149606299
 21
7.249015748031496
 31
0.0
  0
LWPOLYLINE
  5
FB7
330
1E
100
AcDbEntity
  8
7
100
AcDbPolyline
 90
        3
 70
     0
 43
0.0098425196850394
 10
6.968503937007873
 20
7.230314960629921
 10
6.955708661417322
 20
7.211614173228346
 10
6.950787401574802
 20
7.188976377952755
  0
LINE
  5
FBC
330
1E
100
AcDbEntity
  8
7
100
AcDbLine
 10
6.949803149606299
 20
7.322834645669291
 30
0.0
 11
7.063976377952755
 21
7.437007874015748
 31
0.0
  0
LWPOLYLINE
  5
FBD
330
1E
100
AcDbEntity
  8
7
100
AcDbPolyline
 90
        3
 70
     0
 43
0.0098425196850394
 10
6.967519685039369
 20
7.231299212598425
 10
7.118110236220472
 20
7.382874015748031
 10
7.063976377952755
 20
7.437007874015748
  0
LWPOLYLINE
  5
FC2
330
1E
100
AcDbEntity
  8
7
100
AcDbPolyline
 90
        3
 70
     0
 43
0.0098425196850394
 10
7.117125984251967
 20
7.382874015748031
 10
7.138779527559054
 20
7.413385826771653
 10
7.145669291338582
 20
7.450787401574802
  0
LINE
  5
FC7
330
1E
100
AcDbEntity
  8
7
100
AcDbLine
 10
7.146653543307086
 20
7.450787401574802
 30
0.0
 11
7.069881889763778
 21
7.450787401574802
 31
0.0
  0
LWPOLYLINE
  5
FC8
330
1E
100
AcDbEntity
  8
7
100
AcDbPolyline
 90
        3
 70
     0
 43
0.0098425196850394
 10
7.062992125984251
 20
7.437007874015748
 10
7.066929133858267
 20
7.442913385826771
 10
7.068897637795275
 20
7.450787401574802
  0
LINE
  5
FCD
330
1E
100
AcDbEntity
  8
7
100
AcDbLine
 10
7.146653543307086
 20
7.450787401574802
 30
0.0
 11
7.146653543307086
 21
8.241141732283464
 31
0.0
  0
LINE
  5
FCE
330
1E
100
AcDbEntity
  8
7
100
AcDbLine
 10
7.069881889763778
 20
7.450787401574802
 30
0.0
 11
7.069881889763778
 21
8.241141732283464
 31
0.0
  0
LINE
  5
FCF
330
1E
100
AcDbEntity
  8
7
100
AcDbLine
 10
12.25885826771653
 20
5.628937007874015
 30
0.0
 11
12.24212598425197
 21
5.611220472440944
 31
0.0
  0
LWPOLYLINE
  5
FD0
330
1E
100
AcDbEntity
  8
7
100
AcDbPolyline
 90
        3
 70
     0
 43
0.0098425196850394
 10
12.26082677165354
 20
5.629921259842519
 10
12.27952755905511
 20
5.617125984251968
 10
12.3021653543307
 20
5.612204724409449
  0
LINE
  5
FD5
330
1E
100
AcDbEntity
  8
7
100
AcDbLine
 10
12.16830708661417
 20
5.611220472440944
 30
0.0
 11
12.05413385826771
 21
5.725393700787401
 31
0.0
  0
LWPOLYLINE
  5
FD6
330
1E
100
AcDbEntity
  8
7
100
AcDbPolyline
 90
        3
 70
     0
 43
0.0098425196850394
 10
12.25885826771653
 20
5.628937007874015
 10
12.10826771653543
 20
5.779527559055117
 10
12.05413385826771
 20
5.725393700787401
  0
LWPOLYLINE
  5
FDB
330
1E
100
AcDbEntity
  8
7
100
AcDbPolyline
 90
        3
 70
     0
 43
0.0098425196850394
 10
12.10728346456692
 20
5.779527559055117
 10
12.0767716535433
 20
5.801181102362204
 10
12.03937007874015
 20
5.808070866141732
  0
LINE
  5
FE0
330
1E
100
AcDbEntity
  8
7
100
AcDbLine
 10
12.03937007874015
 20
5.808070866141732
 30
0.0
 11
12.03937007874015
 21
5.731299212598425
 31
0.0
  0
LWPOLYLINE
  5
FE1
330
1E
100
AcDbEntity
  8
7
100
AcDbPolyline
 90
        3
 70
     0
 43
0.0098425196850394
 10
12.05314960629921
 20
5.725393700787401
 10
12.04724409448818
 20
5.729330708661417
 10
12.03937007874015
 20
5.731299212598425
  0
LINE
  5
FE6
330
1E
100
AcDbEntity
  8
7
100
AcDbLine
 10
12.03937007874015
 20
5.808070866141732
 30
0.0
 11
11.25
 21
5.808070866141732
 31
0.0
  0
LINE
  5
FE7
330
1E
100
AcDbEntity
  8
7
100
AcDbLine
 10
12.03937007874015
 20
5.731299212598425
 30
0.0
 11
11.25
 21
5.731299212598425
 31
0.0
  0
LINE
  5
FE8
330
1E
100
AcDbEntity
  8
7
100
AcDbLine
 10
6.949803149606299
 20
11.43602362204724
 30
0.0
 11
6.873031496062991
 21
11.43602362204724
 31
0.0
  0
LINE
  5
FE9
330
1E
100
AcDbEntity
  8
7
100
AcDbLine
 10
26.75393700787402
 20
11.43602362204724
 30
0.0
 11
26.67618110236221
 21
11.43602362204724
 31
0.0
  0
LINE
  5
FEA
330
1E
100
AcDbEntity
  8
7
100
AcDbLine
 10
6.873031496062991
 20
11.49606299212598
 30
0.0
 11
6.949803149606299
 21
11.49606299212598
 31
0.0
  0
LWPOLYLINE
  5
FEB
330
1E
100
AcDbEntity
  8
7
100
AcDbPolyline
 90
        4
 70
     0
 43
0.0098425196850394
 10
7.024606299212598
 20
11.1023622047244
 10
7.024606299212598
 20
11.09842519685039
 10
7.024606299212598
 20
11.08661417322834
 10
7.024606299212598
 20
11.06791338582677
  0
LWPOLYLINE
  5
FF1
330
1E
100
AcDbEntity
  8
7
100
AcDbPolyline
 90
       11
 70
     0
 43
0.0098425196850394
 10
7.024606299212598
 20
11.06791338582677
 10
7.024606299212598
 20
11.04330708661417
 10
7.024606299212598
 20
11.01377952755905
 10
7.024606299212598
 20
10.98129921259842
 10
7.024606299212598
 20
10.94881889763779
 10
7.024606299212598
 20
10.91633858267716
 10
7.024606299212598
 20
10.88681102362204
 10
7.024606299212598
 20
10.86220472440944
 10
7.024606299212598
 20
10.84350393700787
 10
7.024606299212598
 20
10.83169291338582
 10
7.024606299212598
 20
10.82775590551181
  0
LWPOLYLINE
  5
FFE
330
1E
100
AcDbEntity
  8
7
100
AcDbPolyline
 90
        6
 70
     0
 43
0.0098425196850394
 10
26.6013779527559
 20
10.82775590551181
 10
26.6013779527559
 20
10.83169291338582
 10
26.6013779527559
 20
10.84350393700787
 10
26.6013779527559
 20
10.86220472440944
 10
26.6013779527559
 20
10.88681102362204
 10
26.6013779527559
 20
10.91633858267716
  0
LWPOLYLINE
  5
1006
330
1E
100
AcDbEntity
  8
7
100
AcDbPolyline
 90
        9
 70
     0
 43
0.0098425196850394
 10
26.6013779527559
 20
10.91633858267716
 10
26.6013779527559
 20
10.94881889763779
 10
26.6013779527559
 20
10.98129921259842
 10
26.6013779527559
 20
11.01377952755905
 10
26.6013779527559
 20
11.04330708661417
 10
26.6013779527559
 20
11.06791338582677
 10
26.6013779527559
 20
11.08661417322834
 10
26.6013779527559
 20
11.09842519685039
 10
26.6013779527559
 20
11.1023622047244
  0
LWPOLYLINE
  5
1011
330
1E
100
AcDbEntity
  8
7
100
AcDbPolyline
 90
        5
 70
     0
 43
0.0098425196850394
 10
40.82874015748031
 20
5.611220472440944
 10
40.70472440944882
 20
5.611220472440944
 10
40.82874015748031
 20
5.611220472440944
 10
40.70472440944882
 20
5.611220472440944
 10
40.82874015748031
 20
5.611220472440944
  0
LINE
  5
1018
330
1E
100
AcDbEntity
  8
7
100
AcDbLine
 10
40.77952755905512
 20
5.611220472440944
 30
0.0
 11
40.82874015748031
 21
5.611220472440944
 31
0.0
  0
LWPOLYLINE
  5
1019
330
1E
100
AcDbEntity
  8
7
100
AcDbPolyline
 90
        8
 70
     0
 43
0.0098425196850394
 10
40.82874015748031
 20
5.611220472440944
 10
40.81692913385826
 20
5.611220472440944
 10
40.79232283464566
 20
5.611220472440944
 10
40.77952755905512
 20
5.611220472440944
 10
40.70472440944882
 20
5.611220472440944
 10
40.71653543307086
 20
5.611220472440944
 10
40.76771653543307
 20
5.611220472440944
 10
40.77952755905512
 20
5.611220472440944
  0
LINE
  5
1023
330
1E
100
AcDbEntity
  8
7
100
AcDbLine
 10
40.70472440944882
 20
5.611220472440944
 30
0.0
 11
40.82874015748031
 21
5.611220472440944
 31
0.0
  0
LINE
  5
1024
330
1E
100
AcDbEntity
  8
7
100
AcDbLine
 10
40.70472440944882
 20
5.611220472440944
 30
0.0
 11
40.82874015748031
 21
5.611220472440944
 31
0.0
  0
LINE
  5
1025
330
1E
100
AcDbEntity
  8
7
100
AcDbLine
 10
40.71653543307086
 20
5.611220472440944
 30
0.0
 11
40.70472440944882
 21
5.611220472440944
 31
0.0
  0
LWPOLYLINE
  5
1026
330
1E
100
AcDbEntity
  8
7
100
AcDbPolyline
 90
        8
 70
     0
 43
0.0098425196850394
 10
40.70472440944882
 20
5.611220472440944
 10
40.71653543307086
 20
5.611220472440944
 10
40.75393700787401
 20
5.611220472440944
 10
40.76771653543307
 20
5.611220472440944
 10
40.77952755905512
 20
5.611220472440944
 10
40.81692913385826
 20
5.611220472440944
 10
40.82874015748031
 20
5.611220472440944
 10
40.81692913385826
 20
5.611220472440944
  0
LWPOLYLINE
  5
1030
330
1E
100
AcDbEntity
  8
7
100
AcDbPolyline
 90
        7
 70
     0
 43
0.0098425196850394
 10
40.57874015748032
 20
5.611220472440944
 10
40.64074803149607
 20
5.611220472440944
 10
40.57874015748032
 20
5.611220472440944
 10
40.64074803149607
 20
5.611220472440944
 10
40.57874015748032
 20
5.611220472440944
 10
40.64074803149607
 20
5.611220472440944
 10
40.57874015748032
 20
5.611220472440944
  0
LWPOLYLINE
  5
1039
330
1E
100
AcDbEntity
  8
7
100
AcDbPolyline
 90
        6
 70
     0
 43
0.0098425196850394
 10
40.57874015748032
 20
5.611220472440944
 10
40.59055118110236
 20
5.611220472440944
 10
40.62795275590551
 20
5.611220472440944
 10
40.64074803149607
 20
5.611220472440944
 10
40.57874015748032
 20
5.611220472440944
 10
40.64074803149607
 20
5.611220472440944
  0
LINE
  5
1041
330
1E
100
AcDbEntity
  8
7
100
AcDbLine
 10
40.64074803149607
 20
5.611220472440944
 30
0.0
 11
40.57874015748032
 21
5.611220472440944
 31
0.0
  0
LWPOLYLINE
  5
1042
330
1E
100
AcDbEntity
  8
7
100
AcDbPolyline
 90
        6
 70
     0
 43
0.0098425196850394
 10
40.57874015748032
 20
5.611220472440944
 10
40.64074803149607
 20
5.611220472440944
 10
40.57874015748032
 20
5.611220472440944
 10
40.64074803149607
 20
5.611220472440944
 10
40.59055118110236
 20
5.611220472440944
 10
40.57874015748032
 20
5.611220472440944
  0
LWPOLYLINE
  5
104A
330
1E
100
AcDbEntity
  8
7
100
AcDbPolyline
 90
        3
 70
     0
 43
0.0098425196850394
 10
40.57874015748032
 20
5.611220472440944
 10
40.59055118110236
 20
5.611220472440944
 10
40.64074803149607
 20
5.611220472440944
  0
LWPOLYLINE
  5
104F
330
1E
100
AcDbEntity
  8
7
100
AcDbPolyline
 90
        9
 70
     0
 43
0.0098425196850394
 10
40.58464566929134
 20
5.611220472440944
 10
40.57874015748032
 20
5.611220472440944
 10
40.58464566929134
 20
5.611220472440944
 10
40.60334645669291
 20
5.611220472440944
 10
40.61023622047244
 20
5.611220472440944
 10
40.61614173228346
 20
5.611220472440944
 10
40.63484251968503
 20
5.611220472440944
 10
40.64074803149607
 20
5.611220472440944
 10
40.63484251968503
 20
5.611220472440944
  0
LWPOLYLINE
  5
105A
330
1E
100
AcDbEntity
  8
7
100
AcDbPolyline
 90
        3
 70
     0
 43
0.0098425196850394
 10
40.57874015748032
 20
5.611220472440944
 10
40.64074803149607
 20
5.611220472440944
 10
40.57874015748032
 20
5.611220472440944
  0
LWPOLYLINE
  5
105F
330
1E
100
AcDbEntity
  8
7
100
AcDbPolyline
 90
       15
 70
     0
 43
0.0098425196850394
 10
40.46555118110236
 20
5.611220472440944
 10
40.45964566929134
 20
5.611220472440944
 10
40.45374015748032
 20
5.611220472440944
 10
40.45964566929134
 20
5.611220472440944
 10
40.47145669291338
 20
5.611220472440944
 10
40.49704724409449
 20
5.611220472440944
 10
40.50984251968503
 20
5.611220472440944
 10
40.51574803149606
 20
5.611220472440944
 10
40.50984251968503
 20
5.611220472440944
 10
40.49704724409449
 20
5.611220472440944
 10
40.47244094488188
 20
5.611220472440944
 10
40.45964566929134
 20
5.611220472440944
 10
40.45374015748032
 20
5.611220472440944
 10
40.46555118110236
 20
5.611220472440944
 10
40.45374015748032
 20
5.611220472440944
  0
LWPOLYLINE
  5
1070
330
1E
100
AcDbEntity
  8
7
100
AcDbPolyline
 90
        3
 70
     0
 43
0.0098425196850394
 10
40.46555118110236
 20
5.611220472440944
 10
40.45374015748032
 20
5.611220472440944
 10
40.46555118110236
 20
5.611220472440944
  0
LWPOLYLINE
  5
1075
330
1E
100
AcDbEntity
  8
7
100
AcDbPolyline
 90
        4
 70
     0
 43
0.0098425196850394
 10
40.46555118110236
 20
5.611220472440944
 10
40.50295275590551
 20
5.611220472440944
 10
40.51574803149606
 20
5.611220472440944
 10
40.50295275590551
 20
5.611220472440944
  0
LWPOLYLINE
  5
107B
330
1E
100
AcDbEntity
  8
7
100
AcDbPolyline
 90
        3
 70
     0
 43
0.0098425196850394
 10
40.45964566929134
 20
5.611220472440944
 10
40.50984251968503
 20
5.611220472440944
 10
40.45964566929134
 20
5.611220472440944
  0
LINE
  5
1080
330
1E
100
AcDbEntity
  8
7
100
AcDbLine
 10
43.80708661417322
 20
11.72933070866141
 30
0.0
 11
43.78740157480314
 21
11.72933070866141
 31
0.0
  0
LINE
  5
1081
330
1E
100
AcDbEntity
  8
7
100
AcDbLine
 10
43.28051181102362
 20
11.72933070866141
 30
0.0
 11
43.26082677165354
 21
11.72933070866141
 31
0.0
  0
LINE
  5
1082
330
1E
100
AcDbEntity
  8
7
100
AcDbLine
 10
42.75393700787401
 20
11.72933070866141
 30
0.0
 11
42.73326771653543
 21
11.72933070866141
 31
0.0
  0
LINE
  5
1083
330
1E
100
AcDbEntity
  8
7
100
AcDbLine
 10
42.2263779527559
 20
11.72933070866141
 30
0.0
 11
42.20669291338583
 21
11.72933070866141
 31
0.0
  0
LINE
  5
1084
330
1E
100
AcDbEntity
  8
7
100
AcDbLine
 10
41.6998031496063
 20
11.72933070866141
 30
0.0
 11
41.67913385826771
 21
11.72933070866141
 31
0.0
  0
LINE
  5
1085
330
1E
100
AcDbEntity
  8
7
100
AcDbLine
 10
41.17224409448819
 20
11.72933070866141
 30
0.0
 11
41.15255905511811
 21
11.72933070866141
 31
0.0
  0
LINE
  5
1086
330
1E
100
AcDbEntity
  8
7
100
AcDbLine
 10
40.64566929133858
 20
11.72933070866141
 30
0.0
 11
40.6259842519685
 21
11.72933070866141
 31
0.0
  0
LINE
  5
1087
330
1E
100
AcDbEntity
  8
7
100
AcDbLine
 10
40.11909448818897
 20
11.72933070866141
 30
0.0
 11
40.09842519685039
 21
11.72933070866141
 31
0.0
  0
LINE
  5
1088
330
1E
100
AcDbEntity
  8
7
100
AcDbLine
 10
39.59153543307087
 20
11.60433070866141
 30
0.0
 11
40.11909448818897
 21
11.60433070866141
 31
0.0
  0
LINE
  5
1089
330
1E
100
AcDbEntity
  8
7
100
AcDbLine
 10
40.6259842519685
 20
11.60433070866141
 30
0.0
 11
41.17224409448819
 21
11.60433070866141
 31
0.0
  0
LINE
  5
108A
330
1E
100
AcDbEntity
  8
7
100
AcDbLine
 10
41.67913385826771
 20
11.60433070866141
 30
0.0
 11
42.2263779527559
 21
11.60433070866141
 31
0.0
  0
LINE
  5
108B
330
1E
100
AcDbEntity
  8
7
100
AcDbLine
 10
42.73326771653543
 20
11.60433070866141
 30
0.0
 11
43.28051181102362
 21
11.60433070866141
 31
0.0
  0
LINE
  5
108C
330
1E
100
AcDbEntity
  8
7
100
AcDbLine
 10
43.78740157480314
 20
11.60433070866141
 30
0.0
 11
44.31496062992126
 21
11.60433070866141
 31
0.0
  0
LINE
  5
108D
330
1E
100
AcDbEntity
  8
7
100
AcDbLine
 10
41.15255905511811
 20
11.79822834645669
 30
0.0
 11
40.64566929133858
 21
11.79822834645669
 31
0.0
  0
LINE
  5
108E
330
1E
100
AcDbEntity
  8
7
100
AcDbLine
 10
40.09842519685039
 20
11.79822834645669
 30
0.0
 11
39.59153543307087
 21
11.79822834645669
 31
0.0
  0
LINE
  5
108F
330
1E
100
AcDbEntity
  8
7
100
AcDbLine
 10
43.26082677165354
 20
11.79822834645669
 30
0.0
 11
42.75393700787401
 21
11.79822834645669
 31
0.0
  0
LINE
  5
1090
330
1E
100
AcDbEntity
  8
7
100
AcDbLine
 10
44.31496062992126
 20
11.79822834645669
 30
0.0
 11
43.80807086614173
 21
11.79822834645669
 31
0.0
  0
LINE
  5
1091
330
1E
100
AcDbEntity
  8
7
100
AcDbLine
 10
42.20669291338583
 20
11.79822834645669
 30
0.0
 11
41.6998031496063
 21
11.79822834645669
 31
0.0
  0
LINE
  5
1092
330
1E
100
AcDbEntity
  8
7
100
AcDbLine
 10
41.67913385826771
 20
11.79822834645669
 30
0.0
 11
41.17224409448819
 21
11.79822834645669
 31
0.0
  0
LINE
  5
1093
330
1E
100
AcDbEntity
  8
7
100
AcDbLine
 10
42.73326771653543
 20
11.79822834645669
 30
0.0
 11
42.2263779527559
 21
11.79822834645669
 31
0.0
  0
LINE
  5
1094
330
1E
100
AcDbEntity
  8
7
100
AcDbLine
 10
40.6259842519685
 20
11.79822834645669
 30
0.0
 11
40.11811023622047
 21
11.79822834645669
 31
0.0
  0
LINE
  5
1095
330
1E
100
AcDbEntity
  8
7
100
AcDbLine
 10
43.78740157480314
 20
11.79822834645669
 30
0.0
 11
43.28051181102362
 21
11.79822834645669
 31
0.0
  0
LINE
  5
1096
330
1E
100
AcDbEntity
  8
7
100
AcDbLine
 10
40.76476377952756
 20
5.621062992125984
 30
0.0
 11
40.39370078740158
 21
5.621062992125984
 31
0.0
  0
LINE
  5
1097
330
1E
100
AcDbEntity
  8
7
100
AcDbLine
 10
40.39370078740158
 20
5.621062992125984
 30
0.0
 11
40.76476377952756
 21
5.621062992125984
 31
0.0
  0
LINE
  5
1098
330
1E
100
AcDbEntity
  8
7
100
AcDbLine
 10
40.76673228346456
 20
5.621062992125984
 30
0.0
 11
40.39370078740158
 21
5.621062992125984
 31
0.0
  0
LWPOLYLINE
  5
1099
330
1E
100
AcDbEntity
  8
7
100
AcDbPolyline
 90
       13
 70
     0
 43
0.0098425196850394
 10
40.6023622047244
 20
5.621062992125984
 10
40.51181102362204
 20
5.621062992125984
 10
40.51279527559056
 20
5.621062992125984
 10
40.51476377952756
 20
5.621062992125984
 10
40.51771653543307
 20
5.621062992125984
 10
40.51968503937008
 20
5.621062992125984
 10
40.52263779527559
 20
5.621062992125984
 10
40.59153543307086
 20
5.621062992125984
 10
40.59350393700787
 20
5.621062992125984
 10
40.59547244094487
 20
5.621062992125984
 10
40.59744094488189
 20
5.621062992125984
 10
40.5994094488189
 20
5.621062992125984
 10
40.60039370078739
 20
5.621062992125984
  0
LWPOLYLINE
  5
10A8
330
1E
100
AcDbEntity
  8
7
100
AcDbPolyline
 90
        3
 70
     0
 43
0.0098425196850394
 10
40.60039370078739
 20
5.621062992125984
 10
40.6013779527559
 20
5.621062992125984
 10
40.6023622047244
 20
5.621062992125984
  0
LWPOLYLINE
  5
10AD
330
1E
100
AcDbEntity
  8
7
100
AcDbPolyline
 90
       14
 70
     0
 43
0.0098425196850394
 10
40.69783464566929
 20
5.621062992125984
 10
40.68503937007874
 20
5.621062992125984
 10
40.67027559055119
 20
5.621062992125984
 10
40.6505905511811
 20
5.621062992125984
 10
40.63976377952756
 20
5.621062992125984
 10
40.62795275590551
 20
5.621062992125984
 10
40.61515748031496
 20
5.621062992125984
 10
40.6023622047244
 20
5.621062992125984
 10
40.58858267716535
 20
5.621062992125984
 10
40.57283464566928
 20
5.621062992125984
 10
40.55905511811023
 20
5.621062992125984
 10
40.54429133858268
 20
5.621062992125984
 10
40.54625984251969
 20
5.621062992125984
 10
40.56102362204724
 20
5.621062992125984
  0
LWPOLYLINE
  5
10BD
330
1E
100
AcDbEntity
  8
7
100
AcDbPolyline
 90
       12
 70
     0
 43
0.0098425196850394
 10
40.56102362204724
 20
5.621062992125984
 10
40.5748031496063
 20
5.621062992125984
 10
40.58956692913386
 20
5.621062992125984
 10
40.6023622047244
 20
5.621062992125984
 10
40.61515748031496
 20
5.621062992125984
 10
40.62696850393701
 20
5.621062992125984
 10
40.63877952755905
 20
5.621062992125984
 10
40.6505905511811
 20
5.621062992125984
 10
40.66830708661417
 20
5.621062992125984
 10
40.68307086614173
 20
5.621062992125984
 10
40.69586614173227
 20
5.621062992125984
 10
40.69783464566929
 20
5.621062992125984
  0
LINE
  5
10CB
330
1E
100
AcDbEntity
  8
7
100
AcDbLine
 10
40.5255905511811
 20
5.621062992125984
 30
0.0
 11
40.63681102362204
 21
5.621062992125984
 31
0.0
  0
LWPOLYLINE
  5
10CC
330
1E
100
AcDbEntity
  8
7
100
AcDbPolyline
 90
        4
 70
     0
 43
0.0098425196850394
 10
40.52952755905511
 20
5.621062992125984
 10
40.53149606299212
 20
5.621062992125984
 10
40.53346456692913
 20
5.621062992125984
 10
40.53444881889763
 20
5.621062992125984
  0
LINE
  5
10D2
330
1E
100
AcDbEntity
  8
7
100
AcDbLine
 10
40.53444881889763
 20
5.621062992125984
 30
0.0
 11
40.64763779527559
 21
5.621062992125984
 31
0.0
  0
LINE
  5
10D3
330
1E
100
AcDbEntity
  8
7
100
AcDbLine
 10
40.44685039370079
 20
5.621062992125984
 30
0.0
 11
40.71161417322834
 21
5.621062992125984
 31
0.0
  0
LWPOLYLINE
  5
10D4
330
1E
100
AcDbEntity
  8
7
100
AcDbPolyline
 90
       19
 70
     0
 43
0.0098425196850394
 10
40.63681102362204
 20
5.621062992125984
 10
40.64271653543307
 20
5.621062992125984
 10
40.6496062992126
 20
5.621062992125984
 10
40.65551181102362
 20
5.621062992125984
 10
40.66141732283464
 20
5.621062992125984
 10
40.66437007874015
 20
5.621062992125984
 10
40.66633858267716
 20
5.621062992125984
 10
40.67125984251968
 20
5.621062992125984
 10
40.67322834645669
 20
5.621062992125984
 10
40.6761811023622
 20
5.621062992125984
 10
40.67913385826772
 20
5.621062992125984
 10
40.68208661417322
 20
5.621062992125984
 10
40.68405511811024
 20
5.621062992125984
 10
40.68602362204724
 20
5.621062992125984
 10
40.68799212598425
 20
5.621062992125984
 10
40.47047244094488
 20
5.621062992125984
 10
40.54133858267716
 20
5.621062992125984
 10
40.54232283464567
 20
5.621062992125984
 10
40.54625984251969
 20
5.621062992125984
  0
LINE
  5
10E9
330
1E
100
AcDbEntity
  8
7
100
AcDbLine
 10
40.63681102362204
 20
5.621062992125984
 30
0.0
 11
40.5255905511811
 21
5.621062992125984
 31
0.0
  0
LWPOLYLINE
  5
10EA
330
1E
100
AcDbEntity
  8
7
100
AcDbPolyline
 90
       18
 70
     0
 43
0.0098425196850394
 10
40.62795275590551
 20
5.621062992125984
 10
40.6259842519685
 20
5.621062992125984
 10
40.62106299212598
 20
5.621062992125984
 10
40.61712598425197
 20
5.621062992125984
 10
40.61220472440945
 20
5.621062992125984
 10
40.60925196850393
 20
5.621062992125984
 10
40.61023622047244
 20
5.621062992125984
 10
40.61220472440945
 20
5.621062992125984
 10
40.61614173228346
 20
5.621062992125984
 10
40.62007874015748
 20
5.621062992125984
 10
40.62696850393701
 20
5.621062992125984
 10
40.62992125984251
 20
5.621062992125984
 10
40.62401574803149
 20
5.621062992125984
 10
40.61909448818897
 20
5.621062992125984
 10
40.61515748031496
 20
5.621062992125984
 10
40.61318897637796
 20
5.621062992125984
 10
40.61220472440945
 20
5.621062992125984
 10
40.61318897637796
 20
5.621062992125984
  0
LWPOLYLINE
  5
10FE
330
1E
100
AcDbEntity
  8
7
100
AcDbPolyline
 90
        7
 70
     0
 43
0.0098425196850394
 10
40.61318897637796
 20
5.621062992125984
 10
40.61515748031496
 20
5.621062992125984
 10
40.62007874015748
 20
5.621062992125984
 10
40.625
 20
5.621062992125984
 10
40.62893700787401
 20
5.621062992125984
 10
40.63090551181102
 20
5.621062992125984
 10
40.62795275590551
 20
5.621062992125984
  0
LWPOLYLINE
  5
1107
330
1E
100
AcDbEntity
  8
7
100
AcDbPolyline
 90
       15
 70
     0
 43
0.0098425196850394
 10
40.65551181102362
 20
5.621062992125984
 10
40.57677165354331
 20
5.621062992125984
 10
40.57775590551181
 20
5.621062992125984
 10
40.57972440944882
 20
5.621062992125984
 10
40.58070866141732
 20
5.621062992125984
 10
40.58464566929134
 20
5.621062992125984
 10
40.58661417322834
 20
5.621062992125984
 10
40.58759842519685
 20
5.621062992125984
 10
40.64370078740157
 20
5.621062992125984
 10
40.64665354330709
 20
5.621062992125984
 10
40.64862204724409
 20
5.621062992125984
 10
40.6505905511811
 20
5.621062992125984
 10
40.6525590551181
 20
5.621062992125984
 10
40.65354330708661
 20
5.621062992125984
 10
40.65551181102362
 20
5.621062992125984
  0
LWPOLYLINE
  5
1118
330
1E
100
AcDbEntity
  8
7
100
AcDbPolyline
 90
        3
 70
     0
 43
0.0098425196850394
 10
40.63681102362204
 20
5.621062992125984
 10
40.46948818897638
 20
5.621062992125984
 10
40.63681102362204
 20
5.621062992125984
  0
LWPOLYLINE
  5
111D
330
1E
100
AcDbEntity
  8
7
100
AcDbPolyline
 90
       17
 70
     0
 43
0.0098425196850394
 10
40.62106299212598
 20
5.621062992125984
 10
40.6259842519685
 20
5.621062992125984
 10
40.62992125984251
 20
5.621062992125984
 10
40.63484251968503
 20
5.621062992125984
 10
40.63976377952756
 20
5.621062992125984
 10
40.64468503937008
 20
5.621062992125984
 10
40.64862204724409
 20
5.621062992125984
 10
40.65354330708661
 20
5.621062992125984
 10
40.65748031496062
 20
5.621062992125984
 10
40.66141732283464
 20
5.621062992125984
 10
40.66535433070866
 20
5.621062992125984
 10
40.66929133858268
 20
5.621062992125984
 10
40.67322834645669
 20
5.621062992125984
 10
40.6761811023622
 20
5.621062992125984
 10
40.67913385826772
 20
5.621062992125984
 10
40.68208661417322
 20
5.621062992125984
 10
40.68503937007874
 20
5.621062992125984
  0
LINE
  5
1130
330
1E
100
AcDbEntity
  8
7
100
AcDbLine
 10
40.66732283464566
 20
5.621062992125984
 30
0.0
 11
40.69685039370078
 21
5.621062992125984
 31
0.0
  0
LWPOLYLINE
  5
1131
330
1E
100
AcDbEntity
  8
7
100
AcDbPolyline
 90
       20
 70
     0
 43
0.0098425196850394
 10
40.66732283464566
 20
5.621062992125984
 10
40.66338582677165
 20
5.621062992125984
 10
40.65944881889763
 20
5.621062992125984
 10
40.65551181102362
 20
5.621062992125984
 10
40.65157480314961
 20
5.621062992125984
 10
40.64665354330709
 20
5.621062992125984
 10
40.64173228346457
 20
5.621062992125984
 10
40.63779527559055
 20
5.621062992125984
 10
40.63287401574803
 20
5.621062992125984
 10
40.62795275590551
 20
5.621062992125984
 10
40.62303149606299
 20
5.621062992125984
 10
40.61811023622047
 20
5.621062992125984
 10
40.61318897637796
 20
5.621062992125984
 10
40.60925196850393
 20
5.621062992125984
 10
40.60433070866142
 20
5.621062992125984
 10
40.5994094488189
 20
5.621062992125984
 10
40.59448818897638
 20
5.621062992125984
 10
40.59055118110236
 20
5.621062992125984
 10
40.58562992125984
 20
5.621062992125984
 10
40.58169291338582
 20
5.621062992125984
  0
LINE
  5
1147
330
1E
100
AcDbEntity
  8
7
100
AcDbLine
 10
40.54527559055118
 20
5.621062992125984
 30
0.0
 11
40.58169291338582
 21
5.621062992125984
 31
0.0
  0
LWPOLYLINE
  5
1148
330
1E
100
AcDbEntity
  8
7
100
AcDbPolyline
 90
       18
 70
     0
 43
0.0098425196850394
 10
40.55413385826772
 20
5.621062992125984
 10
40.55610236220473
 20
5.621062992125984
 10
40.55905511811023
 20
5.621062992125984
 10
40.56200787401574
 20
5.621062992125984
 10
40.56496062992126
 20
5.621062992125984
 10
40.56889763779527
 20
5.621062992125984
 10
40.57185039370078
 20
5.621062992125984
 10
40.5757874015748
 20
5.621062992125984
 10
40.57972440944882
 20
5.621062992125984
 10
40.58366141732284
 20
5.621062992125984
 10
40.58858267716535
 20
5.621062992125984
 10
40.59251968503937
 20
5.621062992125984
 10
40.59744094488189
 20
5.621062992125984
 10
40.6013779527559
 20
5.621062992125984
 10
40.60629921259843
 20
5.621062992125984
 10
40.61122047244094
 20
5.621062992125984
 10
40.61614173228346
 20
5.621062992125984
 10
40.62106299212598
 20
5.621062992125984
  0
LWPOLYLINE
  5
115C
330
1E
100
AcDbEntity
  8
7
100
AcDbPolyline
 90
        4
 70
     0
 43
0.0098425196850394
 10
40.63681102362204
 20
5.621062992125984
 10
40.63582677165354
 20
5.621062992125984
 10
40.63385826771653
 20
5.621062992125984
 10
40.63287401574803
 20
5.621062992125984
  0
LWPOLYLINE
  5
1162
330
1E
100
AcDbEntity
  8
7
100
AcDbPolyline
 90
       19
 70
     0
 43
0.0098425196850394
 10
40.63287401574803
 20
5.621062992125984
 10
40.63090551181102
 20
5.621062992125984
 10
40.62992125984251
 20
5.621062992125984
 10
40.62795275590551
 20
5.621062992125984
 10
40.62401574803149
 20
5.621062992125984
 10
40.62204724409449
 20
5.621062992125984
 10
40.62007874015748
 20
5.621062992125984
 10
40.61712598425197
 20
5.621062992125984
 10
40.61515748031496
 20
5.621062992125984
 10
40.49311023622047
 20
5.621062992125984
 10
40.49015748031496
 20
5.621062992125984
 10
40.48720472440945
 20
5.621062992125984
 10
40.48425196850394
 20
5.621062992125984
 10
40.48228346456693
 20
5.621062992125984
 10
40.47834645669291
 20
5.621062992125984
 10
40.4763779527559
 20
5.621062992125984
 10
40.4753937007874
 20
5.621062992125984
 10
40.47342519685039
 20
5.621062992125984
 10
40.47244094488188
 20
5.621062992125984
  0
LWPOLYLINE
  5
1177
330
1E
100
AcDbEntity
  8
7
100
AcDbPolyline
 90
        4
 70
     0
 43
0.0098425196850394
 10
40.47244094488188
 20
5.621062992125984
 10
40.47145669291338
 20
5.621062992125984
 10
40.47047244094488
 20
5.621062992125984
 10
40.63681102362204
 20
5.621062992125984
  0
LWPOLYLINE
  5
117D
330
1E
100
AcDbEntity
  8
7
100
AcDbPolyline
 90
       16
 70
     0
 43
0.0098425196850394
 10
40.59448818897638
 20
5.621062992125984
 10
40.58759842519685
 20
5.621062992125984
 10
40.58366141732284
 20
5.621062992125984
 10
40.58169291338582
 20
5.621062992125984
 10
40.5748031496063
 20
5.621062992125984
 10
40.57283464566928
 20
5.621062992125984
 10
40.57185039370078
 20
5.621062992125984
 10
40.57283464566928
 20
5.621062992125984
 10
40.5748031496063
 20
5.621062992125984
 10
40.57972440944882
 20
5.621062992125984
 10
40.58562992125984
 20
5.621062992125984
 10
40.59448818897638
 20
5.621062992125984
 10
40.59744094488189
 20
5.621062992125984
 10
40.58956692913386
 20
5.621062992125984
 10
40.58267716535433
 20
5.621062992125984
 10
40.57874015748032
 20
5.621062992125984
  0
LWPOLYLINE
  5
118F
330
1E
100
AcDbEntity
  8
7
100
AcDbPolyline
 90
       10
 70
     0
 43
0.0098425196850394
 10
40.57874015748032
 20
5.621062992125984
 10
40.5757874015748
 20
5.621062992125984
 10
40.5748031496063
 20
5.621062992125984
 10
40.57677165354331
 20
5.621062992125984
 10
40.57874015748032
 20
5.621062992125984
 10
40.58464566929134
 20
5.621062992125984
 10
40.58759842519685
 20
5.621062992125984
 10
40.59055118110236
 20
5.621062992125984
 10
40.59744094488189
 20
5.621062992125984
 10
40.59448818897638
 20
5.621062992125984
  0
LWPOLYLINE
  5
119B
330
1E
100
AcDbEntity
  8
7
100
AcDbPolyline
 90
       13
 70
     0
 43
0.0098425196850394
 10
40.62106299212598
 20
5.621062992125984
 10
40.6259842519685
 20
5.621062992125984
 10
40.63090551181102
 20
5.621062992125984
 10
40.63582677165354
 20
5.621062992125984
 10
40.63976377952756
 20
5.621062992125984
 10
40.64468503937008
 20
5.621062992125984
 10
40.6496062992126
 20
5.621062992125984
 10
40.65452755905512
 20
5.621062992125984
 10
40.65846456692913
 20
5.621062992125984
 10
40.66240157480314
 20
5.621062992125984
 10
40.66633858267716
 20
5.621062992125984
 10
40.67027559055119
 20
5.621062992125984
 10
40.6742125984252
 20
5.621062992125984
  0
LINE
  5
11AA
330
1E
100
AcDbEntity
  8
7
100
AcDbLine
 10
40.6742125984252
 20
5.621062992125984
 30
0.0
 11
40.69783464566929
 21
5.621062992125984
 31
0.0
  0
LWPOLYLINE
  5
11AB
330
1E
100
AcDbEntity
  8
7
100
AcDbPolyline
 90
       20
 70
     0
 43
0.0098425196850394
 10
40.6761811023622
 20
5.621062992125984
 10
40.67224409448819
 20
5.621062992125984
 10
40.66830708661417
 20
5.621062992125984
 10
40.66437007874015
 20
5.621062992125984
 10
40.66043307086614
 20
5.621062992125984
 10
40.65649606299213
 20
5.621062992125984
 10
40.65157480314961
 20
5.621062992125984
 10
40.64763779527559
 20
5.621062992125984
 10
40.64271653543307
 20
5.621062992125984
 10
40.63779527559055
 20
5.621062992125984
 10
40.63287401574803
 20
5.621062992125984
 10
40.62795275590551
 20
5.621062992125984
 10
40.62303149606299
 20
5.621062992125984
 10
40.61811023622047
 20
5.621062992125984
 10
40.61318897637796
 20
5.621062992125984
 10
40.60826771653544
 20
5.621062992125984
 10
40.60334645669291
 20
5.621062992125984
 10
40.5994094488189
 20
5.621062992125984
 10
40.59448818897638
 20
5.621062992125984
 10
40.58956692913386
 20
5.621062992125984
  0
LWPOLYLINE
  5
11C1
330
1E
100
AcDbEntity
  8
7
100
AcDbPolyline
 90
       20
 70
     0
 43
0.0098425196850394
 10
40.58956692913386
 20
5.621062992125984
 10
40.58562992125984
 20
5.621062992125984
 10
40.58070866141732
 20
5.621062992125984
 10
40.57677165354331
 20
5.621062992125984
 10
40.57283464566928
 20
5.621062992125984
 10
40.56889763779527
 20
5.621062992125984
 10
40.56594488188976
 20
5.621062992125984
 10
40.56200787401574
 20
5.621062992125984
 10
40.55905511811023
 20
5.621062992125984
 10
40.55610236220473
 20
5.621062992125984
 10
40.55413385826772
 20
5.621062992125984
 10
40.55118110236221
 20
5.621062992125984
 10
40.5492125984252
 20
5.621062992125984
 10
40.54724409448819
 20
5.621062992125984
 10
40.54625984251969
 20
5.621062992125984
 10
40.54527559055118
 20
5.621062992125984
 10
40.54429133858268
 20
5.621062992125984
 10
40.54330708661416
 20
5.621062992125984
 10
40.54429133858268
 20
5.621062992125984
 10
40.54527559055118
 20
5.621062992125984
  0
LINE
  5
11D7
330
1E
100
AcDbEntity
  8
7
100
AcDbLine
 10
40.54527559055118
 20
5.621062992125984
 30
0.0
 11
40.62106299212598
 21
5.621062992125984
 31
0.0
  0
LINE
  5
11D8
330
1E
100
AcDbEntity
  8
7
100
AcDbLine
 10
40.54724409448819
 20
5.621062992125984
 30
0.0
 11
40.69783464566929
 21
5.621062992125984
 31
0.0
  0
LWPOLYLINE
  5
11D9
330
1E
100
AcDbEntity
  8
7
100
AcDbPolyline
 90
       16
 70
     0
 43
0.0098425196850394
 10
40.68503937007874
 20
5.621062992125984
 10
40.67027559055119
 20
5.621062992125984
 10
40.66141732283464
 20
5.621062992125984
 10
40.6505905511811
 20
5.621062992125984
 10
40.63976377952756
 20
5.621062992125984
 10
40.62795275590551
 20
5.621062992125984
 10
40.61515748031496
 20
5.621062992125984
 10
40.6013779527559
 20
5.621062992125984
 10
40.59448818897638
 20
5.621062992125984
 10
40.58759842519685
 20
5.621062992125984
 10
40.58070866141732
 20
5.621062992125984
 10
40.57283464566928
 20
5.621062992125984
 10
40.56594488188976
 20
5.621062992125984
 10
40.55905511811023
 20
5.621062992125984
 10
40.54429133858268
 20
5.621062992125984
 10
40.54724409448819
 20
5.621062992125984
  0
LINE
  5
11EB
330
1E
100
AcDbEntity
  8
7
100
AcDbLine
 10
40.69389763779527
 20
5.621062992125984
 30
0.0
 11
40.69094488188976
 21
5.621062992125984
 31
0.0
  0
LWPOLYLINE
  5
11EC
330
1E
100
AcDbEntity
  8
7
100
AcDbPolyline
 90
       18
 70
     0
 43
0.0098425196850394
 10
40.69094488188976
 20
5.621062992125984
 10
40.68110236220472
 20
5.621062992125984
 10
40.66732283464566
 20
5.621062992125984
 10
40.64862204724409
 20
5.621062992125984
 10
40.64468503937008
 20
5.621062992125984
 10
40.63976377952756
 20
5.621062992125984
 10
40.62795275590551
 20
5.621062992125984
 10
40.61515748031496
 20
5.621062992125984
 10
40.6023622047244
 20
5.621062992125984
 10
40.59547244094487
 20
5.621062992125984
 10
40.59055118110236
 20
5.621062992125984
 10
40.5757874015748
 20
5.621062992125984
 10
40.56200787401574
 20
5.621062992125984
 10
40.54724409448819
 20
5.621062992125984
 10
40.54429133858268
 20
5.621062992125984
 10
40.55905511811023
 20
5.621062992125984
 10
40.57381889763779
 20
5.621062992125984
 10
40.58759842519685
 20
5.621062992125984
  0
LWPOLYLINE
  5
1200
330
1E
100
AcDbEntity
  8
7
100
AcDbPolyline
 90
       13
 70
     0
 43
0.0098425196850394
 10
40.58759842519685
 20
5.621062992125984
 10
40.59547244094487
 20
5.621062992125984
 10
40.6013779527559
 20
5.621062992125984
 10
40.61515748031496
 20
5.621062992125984
 10
40.62795275590551
 20
5.621062992125984
 10
40.63976377952756
 20
5.621062992125984
 10
40.64468503937008
 20
5.621062992125984
 10
40.65157480314961
 20
5.621062992125984
 10
40.67027559055119
 20
5.621062992125984
 10
40.68405511811024
 20
5.621062992125984
 10
40.69389763779527
 20
5.621062992125984
 10
40.69685039370078
 20
5.621062992125984
 10
40.69389763779527
 20
5.621062992125984
  0
LWPOLYLINE
  5
120F
330
1E
100
AcDbEntity
  8
7
100
AcDbPolyline
 90
        6
 70
     0
 43
0.0098425196850394
 10
40.69586614173227
 20
5.621062992125984
 10
40.68110236220472
 20
5.621062992125984
 10
40.66535433070866
 20
5.621062992125984
 10
40.65551181102362
 20
5.621062992125984
 10
40.64468503937008
 20
5.621062992125984
 10
40.63287401574803
 20
5.621062992125984
  0
LWPOLYLINE
  5
1217
330
1E
100
AcDbEntity
  8
7
100
AcDbPolyline
 90
       18
 70
     0
 43
0.0098425196850394
 10
40.63287401574803
 20
5.621062992125984
 10
40.62106299212598
 20
5.621062992125984
 10
40.60826771653544
 20
5.621062992125984
 10
40.59547244094487
 20
5.621062992125984
 10
40.58267716535433
 20
5.621062992125984
 10
40.57086614173228
 20
5.621062992125984
 10
40.55905511811023
 20
5.621062992125984
 10
40.54625984251969
 20
5.621062992125984
 10
40.54429133858268
 20
5.621062992125984
 10
40.55610236220473
 20
5.621062992125984
 10
40.56889763779527
 20
5.621062992125984
 10
40.58169291338582
 20
5.621062992125984
 10
40.59448818897638
 20
5.621062992125984
 10
40.60826771653544
 20
5.621062992125984
 10
40.62106299212598
 20
5.621062992125984
 10
40.63287401574803
 20
5.621062992125984
 10
40.64468503937008
 20
5.621062992125984
 10
40.65551181102362
 20
5.621062992125984
  0
LWPOLYLINE
  5
122B
330
1E
100
AcDbEntity
  8
7
100
AcDbPolyline
 90
        5
 70
     0
 43
0.0098425196850394
 10
40.65551181102362
 20
5.621062992125984
 10
40.66535433070866
 20
5.621062992125984
 10
40.68208661417322
 20
5.621062992125984
 10
40.69783464566929
 20
5.621062992125984
 10
40.69586614173227
 20
5.621062992125984
  0
LWPOLYLINE
  5
1232
330
1E
100
AcDbEntity
  8
7
100
AcDbPolyline
 90
        3
 70
     0
 43
0.0098425196850394
 10
40.57972440944882
 20
5.621062992125984
 10
40.53444881889763
 20
5.621062992125984
 10
40.57972440944882
 20
5.621062992125984
  0
LWPOLYLINE
  5
1237
330
1E
100
AcDbEntity
  8
7
100
AcDbPolyline
 90
        8
 70
     0
 43
0.0098425196850394
 10
40.47047244094488
 20
5.621062992125984
 10
40.53248031496063
 20
5.621062992125984
 10
40.47047244094488
 20
5.621062992125984
 10
40.63681102362204
 20
5.621062992125984
 10
40.57381889763779
 20
5.621062992125984
 10
40.63681102362204
 20
5.621062992125984
 10
40.50492125984251
 20
5.621062992125984
 10
40.4990157480315
 20
5.621062992125984
  0
LINE
  5
1241
330
1E
100
AcDbEntity
  8
7
100
AcDbLine
 10
40.47047244094488
 20
5.621062992125984
 30
0.0
 11
40.4990157480315
 21
5.621062992125984
 31
0.0
  0
LWPOLYLINE
  5
1242
330
1E
100
AcDbEntity
  8
7
100
AcDbPolyline
 90
       18
 70
     0
 43
0.0098425196850394
 10
40.49311023622047
 20
5.621062992125984
 10
40.4990157480315
 20
5.621062992125984
 10
40.50295275590551
 20
5.621062992125984
 10
40.50492125984251
 20
5.621062992125984
 10
40.63582677165354
 20
5.621062992125984
 10
40.5521653543307
 20
5.621062992125984
 10
40.51870078740157
 20
5.621062992125984
 10
40.51476377952756
 20
5.621062992125984
 10
40.51181102362204
 20
5.621062992125984
 10
40.50984251968503
 20
5.621062992125984
 10
40.50787401574803
 20
5.621062992125984
 10
40.50688976377952
 20
5.621062992125984
 10
40.50787401574803
 20
5.621062992125984
 10
40.50885826771653
 20
5.621062992125984
 10
40.51279527559056
 20
5.621062992125984
 10
40.51476377952756
 20
5.621062992125984
 10
40.51870078740157
 20
5.621062992125984
 10
40.63681102362204
 20
5.621062992125984
  0
LINE
  5
1256
330
1E
100
AcDbEntity
  8
7
100
AcDbLine
 10
40.66240157480314
 20
5.621062992125984
 30
0.0
 11
40.65846456692913
 21
5.621062992125984
 31
0.0
  0
LWPOLYLINE
  5
1257
330
1E
100
AcDbEntity
  8
7
100
AcDbPolyline
 90
       19
 70
     0
 43
0.0098425196850394
 10
40.65846456692913
 20
5.621062992125984
 10
40.65452755905512
 20
5.621062992125984
 10
40.65157480314961
 20
5.621062992125984
 10
40.64862204724409
 20
5.621062992125984
 10
40.6496062992126
 20
5.621062992125984
 10
40.65157480314961
 20
5.621062992125984
 10
40.65452755905512
 20
5.621062992125984
 10
40.65748031496062
 20
5.621062992125984
 10
40.66240157480314
 20
5.621062992125984
 10
40.66633858267716
 20
5.621062992125984
 10
40.66141732283464
 20
5.621062992125984
 10
40.65748031496062
 20
5.621062992125984
 10
40.65452755905512
 20
5.621062992125984
 10
40.6525590551181
 20
5.621062992125984
 10
40.65452755905512
 20
5.621062992125984
 10
40.65846456692913
 20
5.621062992125984
 10
40.66141732283464
 20
5.621062992125984
 10
40.66633858267716
 20
5.621062992125984
 10
40.66240157480314
 20
5.621062992125984
  0
LWPOLYLINE
  5
126C
330
1E
100
AcDbEntity
  8
7
100
AcDbPolyline
 90
        8
 70
     0
 43
0.0098425196850394
 10
40.54625984251969
 20
5.621062992125984
 10
40.47047244094488
 20
5.621062992125984
 10
40.49999999999999
 20
5.621062992125984
 10
40.47047244094488
 20
5.621062992125984
 10
40.60334645669291
 20
5.621062992125984
 10
40.63681102362204
 20
5.621062992125984
 10
40.60334645669291
 20
5.621062992125984
 10
40.47047244094488
 20
5.621062992125984
  0
LWPOLYLINE
  5
1276
330
1E
100
AcDbEntity
  8
7
100
AcDbPolyline
 90
        5
 70
     0
 43
0.0098425196850394
 10
44.31496062992126
 20
11.60433070866141
 10
44.31496062992126
 20
11.60925196850393
 10
44.31496062992126
 20
11.62303149606299
 10
44.31496062992126
 20
11.64271653543307
 10
44.31496062992126
 20
11.66732283464566
  0
LINE
  5
127D
330
1E
100
AcDbEntity
  8
7
100
AcDbLine
 10
39.59153543307087
 20
11.66732283464566
 30
0.0
 11
39.59153543307087
 21
11.64271653543307
 31
0.0
  0
LWPOLYLINE
  5
127E
330
1E
100
AcDbEntity
  8
7
100
AcDbPolyline
 90
        4
 70
     0
 43
0.0098425196850394
 10
39.59153543307087
 20
11.64271653543307
 10
39.59153543307087
 20
11.62303149606299
 10
39.59153543307087
 20
11.60925196850393
 10
39.59153543307087
 20
11.60433070866141
  0
LWPOLYLINE
  5
1284
330
1E
100
AcDbEntity
  8
7
100
AcDbPolyline
 90
        3
 70
     0
 43
0.0098425196850394
 10
40.55511811023622
 20
10.91732283464566
 10
40.55610236220473
 20
10.91633858267716
 10
40.55708661417322
 20
10.91633858267716
  0
LWPOLYLINE
  5
1289
330
1E
100
AcDbEntity
  8
7
100
AcDbPolyline
 90
        3
 70
     0
 43
0.0098425196850394
 10
40.55610236220473
 20
10.91535433070866
 10
40.55511811023622
 20
10.91633858267716
 10
40.55314960629921
 20
10.91633858267716
  0
LWPOLYLINE
  5
128E
330
1E
100
AcDbEntity
  8
7
100
AcDbPolyline
 90
       14
 70
     0
 43
0.0098425196850394
 10
40.57874015748032
 20
10.76476377952755
 10
40.61909448818897
 20
10.76870078740157
 10
40.65748031496062
 20
10.78051181102362
 10
40.69291338582677
 20
10.80019685039369
 10
40.72342519685039
 20
10.8267716535433
 10
40.74803149606299
 20
10.85925196850393
 10
40.76574803149607
 20
10.89468503937007
 10
40.7765748031496
 20
10.93405511811023
 10
40.77854330708661
 20
10.97440944881889
 10
40.77263779527559
 20
11.01476377952755
 10
40.75787401574802
 20
11.0521653543307
 10
40.73720472440945
 20
11.08661417322834
 10
40.70866141732284
 20
11.11614173228346
 10
40.6761811023622
 20
11.13877952755905
  0
LWPOLYLINE
  5
129E
330
1E
100
AcDbEntity
  8
7
100
AcDbPolyline
 90
       14
 70
     0
 43
0.0098425196850394
 10
40.6761811023622
 20
11.13877952755905
 10
40.63877952755905
 20
11.15551181102362
 10
40.5994094488189
 20
11.16338582677165
 10
40.55807086614173
 20
11.16338582677165
 10
40.51870078740157
 20
11.15551181102362
 10
40.48129921259842
 20
11.13877952755905
 10
40.44881889763779
 20
11.11614173228346
 10
40.42027559055118
 20
11.08661417322834
 10
40.39960629921259
 20
11.0521653543307
 10
40.38484251968504
 20
11.01476377952755
 10
40.37893700787401
 20
10.97440944881889
 10
40.38090551181102
 20
10.93405511811023
 10
40.39173228346457
 20
10.89468503937007
 10
40.40944881889763
 20
10.85925196850393
  0
LWPOLYLINE
  5
12AE
330
1E
100
AcDbEntity
  8
7
100
AcDbPolyline
 90
        6
 70
     0
 43
0.0098425196850394
 10
40.40944881889763
 20
10.85925196850393
 10
40.43405511811023
 20
10.8267716535433
 10
40.46456692913386
 20
10.80019685039369
 10
40.49999999999999
 20
10.78051181102362
 10
40.53838582677165
 20
10.76870078740157
 10
40.57874015748032
 20
10.76476377952755
  0
LWPOLYLINE
  5
12B6
330
1E
100
AcDbEntity
  8
7
100
AcDbPolyline
 90
        3
 70
     0
 43
0.0098425196850394
 10
40.62795275590551
 20
10.94488188976377
 10
40.62893700787401
 20
10.94685039370078
 10
40.62893700787401
 20
10.94783464566929
  0
LWPOLYLINE
  5
12BB
330
1E
100
AcDbEntity
  8
7
100
AcDbPolyline
 90
        3
 70
     0
 43
0.0098425196850394
 10
40.62992125984251
 20
10.94783464566929
 10
40.62893700787401
 20
10.94586614173228
 10
40.62893700787401
 20
10.94488188976377
  0
LWPOLYLINE
  5
12C0
330
1E
100
AcDbEntity
  8
7
100
AcDbPolyline
 90
        7
 70
     0
 43
0.0098425196850394
 10
40.64370078740157
 20
10.96161417322834
 10
40.66830708661417
 20
10.97145669291338
 10
40.68996062992126
 20
10.98031496062992
 10
40.71062992125984
 20
10.98917322834645
 10
40.72834645669291
 20
10.99704724409448
 10
40.74409448818897
 20
11.00295275590551
 10
40.75984251968503
 20
11.00984251968504
  0
LWPOLYLINE
  5
12C9
330
1E
100
AcDbEntity
  8
7
100
AcDbPolyline
 90
        4
 70
     0
 43
0.0098425196850394
 10
40.64370078740157
 20
10.96161417322834
 10
40.63582677165354
 20
10.95669291338582
 10
40.63090551181102
 20
10.9507874015748
 10
40.62992125984251
 20
10.94783464566929
  0
LINE
  5
12CF
330
1E
100
AcDbEntity
  8
7
100
AcDbLine
 10
40.62893700787401
 20
10.94586614173228
 30
0.0
 11
40.62795275590551
 21
10.93700787401574
 31
0.0
  0
LINE
  5
12D0
330
1E
100
AcDbEntity
  8
7
100
AcDbLine
 10
40.62795275590551
 20
10.93700787401574
 30
0.0
 11
40.62992125984251
 21
10.92913385826771
 31
0.0
  0
LWPOLYLINE
  5
12D1
330
1E
100
AcDbEntity
  8
7
100
AcDbPolyline
 90
        5
 70
     0
 43
0.0098425196850394
 10
40.66732283464566
 20
10.83956692913385
 10
40.65846456692913
 20
10.85925196850393
 10
40.6505905511811
 20
10.87992125984251
 10
40.64074803149607
 20
10.9015748031496
 10
40.62992125984251
 20
10.92913385826771
  0
LWPOLYLINE
  5
12D8
330
1E
100
AcDbEntity
  8
7
100
AcDbPolyline
 90
        3
 70
     0
 43
0.0098425196850394
 10
40.60531496062991
 20
10.81397637795275
 10
40.63582677165354
 20
10.8267716535433
 10
40.66732283464566
 20
10.83956692913385
  0
LWPOLYLINE
  5
12DD
330
1E
100
AcDbEntity
  8
7
100
AcDbPolyline
 90
        3
 70
     0
 43
0.0098425196850394
 10
40.56791338582677
 20
10.90354330708661
 10
40.57677165354331
 20
10.88090551181102
 10
40.58661417322834
 20
10.85826771653543
  0
LWPOLYLINE
  5
12E2
330
1E
100
AcDbEntity
  8
7
100
AcDbPolyline
 90
        4
 70
     0
 43
0.0098425196850394
 10
40.58661417322834
 20
10.85826771653543
 10
40.59448818897638
 20
10.83759842519685
 10
40.6023622047244
 20
10.81889763779527
 10
40.60531496062991
 20
10.81397637795275
  0
LWPOLYLINE
  5
12E8
330
1E
100
AcDbEntity
  8
7
100
AcDbPolyline
 90
        3
 70
     0
 43
0.0098425196850394
 10
40.56791338582677
 20
10.90354330708661
 10
40.56299212598425
 20
10.91043307086614
 10
40.55708661417322
 20
10.91535433070866
  0
LWPOLYLINE
  5
12ED
330
1E
100
AcDbEntity
  8
7
100
AcDbPolyline
 90
        4
 70
     0
 43
0.0098425196850394
 10
40.55413385826772
 20
10.91732283464566
 10
40.54625984251969
 20
10.91830708661417
 10
40.53740157480315
 20
10.91732283464566
 10
40.53543307086614
 20
10.91732283464566
  0
LWPOLYLINE
  5
12F3
330
1E
100
AcDbEntity
  8
7
100
AcDbPolyline
 90
        5
 70
     0
 43
0.0098425196850394
 10
40.41830708661417
 20
10.86909448818897
 10
40.41929133858268
 20
10.86909448818897
 10
40.43011811023622
 20
10.87303149606299
 10
40.44488188976377
 20
10.87893700787401
 10
40.46161417322834
 20
10.88681102362204
  0
LWPOLYLINE
  5
12FA
330
1E
100
AcDbEntity
  8
7
100
AcDbPolyline
 90
        5
 70
     0
 43
0.0098425196850394
 10
40.46161417322834
 20
10.88681102362204
 10
40.48129921259842
 20
10.89468503937007
 10
40.501968503937
 20
10.90354330708661
 10
40.52460629921259
 20
10.91240157480314
 10
40.53543307086614
 20
10.91732283464566
  0
LWPOLYLINE
  5
1301
330
1E
100
AcDbEntity
  8
7
100
AcDbPolyline
 90
        3
 70
     0
 43
0.0098425196850394
 10
40.39665354330709
 20
10.9251968503937
 10
40.40551181102362
 20
10.89566929133858
 10
40.41929133858268
 20
10.86811023622047
  0
LWPOLYLINE
  5
1306
330
1E
100
AcDbEntity
  8
7
100
AcDbPolyline
 90
        4
 70
     0
 43
0.0098425196850394
 10
40.51181102362204
 20
10.97342519685039
 10
40.47244094488188
 20
10.95767716535432
 10
40.4517716535433
 20
10.94881889763779
 10
40.43208661417323
 20
10.94094488188976
  0
LWPOLYLINE
  5
130C
330
1E
100
AcDbEntity
  8
7
100
AcDbPolyline
 90
        4
 70
     0
 43
0.0098425196850394
 10
40.43208661417323
 20
10.94094488188976
 10
40.41633858267716
 20
10.93405511811023
 10
40.40255905511811
 20
10.92814960629921
 10
40.39566929133858
 20
10.9261811023622
  0
LWPOLYLINE
  5
1312
330
1E
100
AcDbEntity
  8
7
100
AcDbPolyline
 90
        6
 70
     0
 43
0.0098425196850394
 10
40.51181102362204
 20
10.97342519685039
 10
40.51870078740157
 20
10.97834645669291
 10
40.52362204724409
 20
10.98425196850393
 10
40.52657480314961
 20
10.99212598425196
 10
40.52657480314961
 20
11.0009842519685
 10
40.5255905511811
 20
11.00590551181102
  0
LWPOLYLINE
  5
131A
330
1E
100
AcDbEntity
  8
7
100
AcDbPolyline
 90
        5
 70
     0
 43
0.0098425196850394
 10
40.49015748031496
 20
11.09055118110236
 10
40.4990157480315
 20
11.07086614173228
 10
40.50688976377952
 20
11.0501968503937
 10
40.51574803149606
 20
11.02854330708661
 10
40.5255905511811
 20
11.00590551181102
  0
LWPOLYLINE
  5
1321
330
1E
100
AcDbEntity
  8
7
100
AcDbPolyline
 90
        3
 70
     0
 43
0.0098425196850394
 10
40.5521653543307
 20
11.11614173228346
 10
40.52165354330709
 20
11.10334645669291
 10
40.49015748031496
 20
11.09055118110236
  0
LWPOLYLINE
  5
1326
330
1E
100
AcDbEntity
  8
7
100
AcDbPolyline
 90
        5
 70
     0
 43
0.0098425196850394
 10
40.58759842519685
 20
11.03149606299212
 10
40.57086614173228
 20
11.07185039370078
 10
40.56200787401574
 20
11.09251968503937
 10
40.55413385826772
 20
11.11122047244094
 10
40.5521653543307
 20
11.11614173228346
  0
LWPOLYLINE
  5
132D
330
1E
100
AcDbEntity
  8
7
100
AcDbPolyline
 90
        6
 70
     0
 43
0.0098425196850394
 10
40.58759842519685
 20
11.03149606299212
 10
40.59153543307086
 20
11.02460629921259
 10
40.59842519685039
 20
11.01968503937007
 10
40.60629921259843
 20
11.01673228346456
 10
40.61417322834645
 20
11.01673228346456
 10
40.62007874015748
 20
11.01870078740157
  0
LWPOLYLINE
  5
1335
330
1E
100
AcDbEntity
  8
7
100
AcDbPolyline
 90
        7
 70
     0
 43
0.0098425196850394
 10
40.73523622047244
 20
11.06594488188976
 10
40.71751968503937
 20
11.05905511811023
 10
40.70177165354331
 20
11.0521653543307
 10
40.68405511811024
 20
11.04527559055118
 10
40.66338582677165
 20
11.03641732283464
 10
40.64173228346457
 20
11.02755905511811
 10
40.62007874015748
 20
11.01870078740157
  0
LWPOLYLINE
  5
133E
330
1E
100
AcDbEntity
  8
7
100
AcDbPolyline
 90
        3
 70
     0
 43
0.0098425196850394
 10
40.75984251968503
 20
11.00885826771653
 10
40.75
 20
11.03838582677165
 10
40.73523622047244
 20
11.06496062992125
  0
LINE
  5
1343
330
1E
100
AcDbEntity
  8
7
100
AcDbLine
 10
40.62007874015748
 20
11.01870078740157
 30
0.0
 11
40.51181102362204
 21
10.97342519685039
 31
0.0
  0
LINE
  5
1344
330
1E
100
AcDbEntity
  8
7
100
AcDbLine
 10
40.53543307086614
 20
10.91732283464566
 30
0.0
 11
40.64370078740157
 21
10.96161417322834
 31
0.0
  0
LWPOLYLINE
  5
1345
330
1E
100
AcDbEntity
  8
7
100
AcDbPolyline
 90
        3
 70
     0
 43
0.0098425196850394
 10
43.30511811023622
 20
10.91732283464566
 10
43.30610236220472
 20
10.91633858267716
 10
43.30708661417323
 20
10.91633858267716
  0
LWPOLYLINE
  5
134A
330
1E
100
AcDbEntity
  8
7
100
AcDbPolyline
 90
        3
 70
     0
 43
0.0098425196850394
 10
43.30610236220472
 20
10.91535433070866
 10
43.30511811023622
 20
10.91633858267716
 10
43.30314960629921
 20
10.91633858267716
  0
LWPOLYLINE
  5
134F
330
1E
100
AcDbEntity
  8
7
100
AcDbPolyline
 90
       13
 70
     0
 43
0.0098425196850394
 10
43.32874015748031
 20
10.76476377952755
 10
43.36909448818897
 20
10.76870078740157
 10
43.40748031496063
 20
10.78051181102362
 10
43.44291338582677
 20
10.80019685039369
 10
43.47342519685039
 20
10.8267716535433
 10
43.49803149606299
 20
10.85925196850393
 10
43.51574803149606
 20
10.89468503937007
 10
43.5265748031496
 20
10.93405511811023
 10
43.52854330708662
 20
10.97440944881889
 10
43.52263779527559
 20
11.01476377952755
 10
43.50787401574803
 20
11.0521653543307
 10
43.48720472440945
 20
11.08661417322834
 10
43.45866141732283
 20
11.11614173228346
  0
LWPOLYLINE
  5
135E
330
1E
100
AcDbEntity
  8
7
100
AcDbPolyline
 90
       14
 70
     0
 43
0.0098425196850394
 10
43.45866141732283
 20
11.11614173228346
 10
43.4261811023622
 20
11.13877952755905
 10
43.38877952755906
 20
11.15551181102362
 10
43.34940944881889
 20
11.16338582677165
 10
43.30807086614173
 20
11.16338582677165
 10
43.26870078740157
 20
11.15551181102362
 10
43.23129921259843
 20
11.13877952755905
 10
43.19881889763779
 20
11.11614173228346
 10
43.17027559055119
 20
11.08661417322834
 10
43.1496062992126
 20
11.0521653543307
 10
43.13484251968503
 20
11.01476377952755
 10
43.12893700787401
 20
10.97440944881889
 10
43.13090551181102
 20
10.93405511811023
 10
43.14173228346457
 20
10.89468503937007
  0
LWPOLYLINE
  5
136E
330
1E
100
AcDbEntity
  8
7
100
AcDbPolyline
 90
        7
 70
     0
 43
0.0098425196850394
 10
43.14173228346457
 20
10.89468503937007
 10
43.15944881889763
 20
10.85925196850393
 10
43.18405511811024
 20
10.8267716535433
 10
43.21456692913385
 20
10.80019685039369
 10
43.25
 20
10.78051181102362
 10
43.28838582677165
 20
10.76870078740157
 10
43.32874015748031
 20
10.76476377952755
  0
LWPOLYLINE
  5
1377
330
1E
100
AcDbEntity
  8
7
100
AcDbPolyline
 90
        3
 70
     0
 43
0.0098425196850394
 10
43.37795275590551
 20
10.94488188976377
 10
43.37893700787401
 20
10.94685039370078
 10
43.37893700787401
 20
10.94783464566929
  0
LWPOLYLINE
  5
137C
330
1E
100
AcDbEntity
  8
7
100
AcDbPolyline
 90
        3
 70
     0
 43
0.0098425196850394
 10
43.37992125984252
 20
10.94783464566929
 10
43.37893700787401
 20
10.94586614173228
 10
43.37893700787401
 20
10.94488188976377
  0
LWPOLYLINE
  5
1381
330
1E
100
AcDbEntity
  8
7
100
AcDbPolyline
 90
        7
 70
     0
 43
0.0098425196850394
 10
43.39370078740158
 20
10.96161417322834
 10
43.41830708661417
 20
10.97145669291338
 10
43.43996062992125
 20
10.98031496062992
 10
43.46062992125984
 20
10.98917322834645
 10
43.47834645669291
 20
10.99704724409448
 10
43.49409448818898
 20
11.00295275590551
 10
43.50984251968504
 20
11.00984251968504
  0
LWPOLYLINE
  5
138A
330
1E
100
AcDbEntity
  8
7
100
AcDbPolyline
 90
        4
 70
     0
 43
0.0098425196850394
 10
43.39370078740158
 20
10.96161417322834
 10
43.38582677165354
 20
10.95669291338582
 10
43.38090551181102
 20
10.9507874015748
 10
43.37992125984252
 20
10.94783464566929
  0
LWPOLYLINE
  5
1390
330
1E
100
AcDbEntity
  8
7
100
AcDbPolyline
 90
        3
 70
     0
 43
0.0098425196850394
 10
43.37893700787401
 20
10.94586614173228
 10
43.37795275590551
 20
10.93700787401574
 10
43.37992125984252
 20
10.92913385826771
  0
LWPOLYLINE
  5
1395
330
1E
100
AcDbEntity
  8
7
100
AcDbPolyline
 90
        5
 70
     0
 43
0.0098425196850394
 10
43.41732283464566
 20
10.83956692913385
 10
43.40846456692913
 20
10.85925196850393
 10
43.4005905511811
 20
10.87992125984251
 10
43.39074803149606
 20
10.9015748031496
 10
43.37992125984252
 20
10.92913385826771
  0
LWPOLYLINE
  5
139C
330
1E
100
AcDbEntity
  8
7
100
AcDbPolyline
 90
        3
 70
     0
 43
0.0098425196850394
 10
43.35531496062992
 20
10.81397637795275
 10
43.38582677165354
 20
10.8267716535433
 10
43.41732283464566
 20
10.83956692913385
  0
LWPOLYLINE
  5
13A1
330
1E
100
AcDbEntity
  8
7
100
AcDbPolyline
 90
        6
 70
     0
 43
0.0098425196850394
 10
43.31791338582677
 20
10.90354330708661
 10
43.32677165354331
 20
10.88090551181102
 10
43.33661417322835
 20
10.85826771653543
 10
43.34448818897637
 20
10.83759842519685
 10
43.35236220472441
 20
10.81889763779527
 10
43.35531496062992
 20
10.81397637795275
  0
LWPOLYLINE
  5
13A9
330
1E
100
AcDbEntity
  8
7
100
AcDbPolyline
 90
        3
 70
     0
 43
0.0098425196850394
 10
43.31791338582677
 20
10.90354330708661
 10
43.31299212598425
 20
10.91043307086614
 10
43.30708661417323
 20
10.91535433070866
  0
LWPOLYLINE
  5
13AE
330
1E
100
AcDbEntity
  8
7
100
AcDbPolyline
 90
        4
 70
     0
 43
0.0098425196850394
 10
43.30413385826772
 20
10.91732283464566
 10
43.29625984251968
 20
10.91830708661417
 10
43.28740157480314
 20
10.91732283464566
 10
43.28543307086614
 20
10.91732283464566
  0
LINE
  5
13B4
330
1E
100
AcDbEntity
  8
7
100
AcDbLine
 10
43.16830708661417
 20
10.86909448818897
 30
0.0
 11
43.16929133858268
 21
10.86909448818897
 31
0.0
  0
LWPOLYLINE
  5
13B5
330
1E
100
AcDbEntity
  8
7
100
AcDbPolyline
 90
        8
 70
     0
 43
0.0098425196850394
 10
43.16929133858268
 20
10.86909448818897
 10
43.18011811023622
 20
10.87303149606299
 10
43.19488188976378
 20
10.87893700787401
 10
43.21161417322834
 20
10.88681102362204
 10
43.23129921259843
 20
10.89468503937007
 10
43.25196850393701
 20
10.90354330708661
 10
43.2746062992126
 20
10.91240157480314
 10
43.28543307086614
 20
10.91732283464566
  0
LWPOLYLINE
  5
13BF
330
1E
100
AcDbEntity
  8
7
100
AcDbPolyline
 90
        3
 70
     0
 43
0.0098425196850394
 10
43.14665354330709
 20
10.9251968503937
 10
43.15551181102362
 20
10.89566929133858
 10
43.16929133858268
 20
10.86811023622047
  0
LINE
  5
13C4
330
1E
100
AcDbEntity
  8
7
100
AcDbLine
 10
43.26181102362204
 20
10.97342519685039
 30
0.0
 11
43.22244094488189
 21
10.95767716535432
 31
0.0
  0
LWPOLYLINE
  5
13C5
330
1E
100
AcDbEntity
  8
7
100
AcDbPolyline
 90
        6
 70
     0
 43
0.0098425196850394
 10
43.22244094488189
 20
10.95767716535432
 10
43.20177165354331
 20
10.94881889763779
 10
43.18208661417322
 20
10.94094488188976
 10
43.16633858267716
 20
10.93405511811023
 10
43.1525590551181
 20
10.92814960629921
 10
43.14566929133858
 20
10.9261811023622
  0
LWPOLYLINE
  5
13CD
330
1E
100
AcDbEntity
  8
7
100
AcDbPolyline
 90
        6
 70
     0
 43
0.0098425196850394
 10
43.26181102362204
 20
10.97342519685039
 10
43.26870078740157
 20
10.97834645669291
 10
43.27362204724409
 20
10.98425196850393
 10
43.2765748031496
 20
10.99212598425196
 10
43.2765748031496
 20
11.0009842519685
 10
43.2755905511811
 20
11.00590551181102
  0
LWPOLYLINE
  5
13D5
330
1E
100
AcDbEntity
  8
7
100
AcDbPolyline
 90
        4
 70
     0
 43
0.0098425196850394
 10
43.24015748031496
 20
11.09055118110236
 10
43.24901574803149
 20
11.07086614173228
 10
43.25688976377953
 20
11.0501968503937
 10
43.26574803149607
 20
11.02854330708661
  0
LINE
  5
13DB
330
1E
100
AcDbEntity
  8
7
100
AcDbLine
 10
43.26574803149607
 20
11.02854330708661
 30
0.0
 11
43.2755905511811
 21
11.00590551181102
 31
0.0
  0
LWPOLYLINE
  5
13DC
330
1E
100
AcDbEntity
  8
7
100
AcDbPolyline
 90
        3
 70
     0
 43
0.0098425196850394
 10
43.30216535433071
 20
11.11614173228346
 10
43.27165354330708
 20
11.10334645669291
 10
43.24015748031496
 20
11.09055118110236
  0
LWPOLYLINE
  5
13E1
330
1E
100
AcDbEntity
  8
7
100
AcDbPolyline
 90
        5
 70
     0
 43
0.0098425196850394
 10
43.33759842519685
 20
11.03149606299212
 10
43.32086614173228
 20
11.07185039370078
 10
43.31200787401574
 20
11.09251968503937
 10
43.30413385826772
 20
11.11122047244094
 10
43.30216535433071
 20
11.11614173228346
  0
LWPOLYLINE
  5
13E8
330
1E
100
AcDbEntity
  8
7
100
AcDbPolyline
 90
        4
 70
     0
 43
0.0098425196850394
 10
43.33759842519685
 20
11.03149606299212
 10
43.34153543307087
 20
11.02460629921259
 10
43.34842519685039
 20
11.01968503937007
 10
43.35629921259843
 20
11.01673228346456
  0
LWPOLYLINE
  5
13EE
330
1E
100
AcDbEntity
  8
7
100
AcDbPolyline
 90
        3
 70
     0
 43
0.0098425196850394
 10
43.35629921259843
 20
11.01673228346456
 10
43.36417322834646
 20
11.01673228346456
 10
43.37007874015748
 20
11.01870078740157
  0
LWPOLYLINE
  5
13F3
330
1E
100
AcDbEntity
  8
7
100
AcDbPolyline
 90
        7
 70
     0
 43
0.0098425196850394
 10
43.48523622047244
 20
11.06594488188976
 10
43.46751968503936
 20
11.05905511811023
 10
43.45177165354331
 20
11.0521653543307
 10
43.43405511811023
 20
11.04527559055118
 10
43.41338582677165
 20
11.03641732283464
 10
43.39173228346457
 20
11.02755905511811
 10
43.37007874015748
 20
11.01870078740157
  0
LWPOLYLINE
  5
13FC
330
1E
100
AcDbEntity
  8
7
100
AcDbPolyline
 90
        3
 70
     0
 43
0.0098425196850394
 10
43.50984251968504
 20
11.00885826771653
 10
43.5
 20
11.03838582677165
 10
43.48523622047244
 20
11.06496062992125
  0
LINE
  5
1401
330
1E
100
AcDbEntity
  8
7
100
AcDbLine
 10
43.37007874015748
 20
11.01870078740157
 30
0.0
 11
43.26181102362204
 21
10.97342519685039
 31
0.0
  0
LINE
  5
1402
330
1E
100
AcDbEntity
  8
7
100
AcDbLine
 10
43.28543307086614
 20
10.91732283464566
 30
0.0
 11
43.39370078740158
 21
10.96161417322834
 31
0.0
  0
LWPOLYLINE
  5
1403
330
1E
100
AcDbEntity
  8
7
100
AcDbPolyline
 90
        3
 70
     0
 43
0.0098425196850394
 10
43.80807086614173
 20
11.6003937007874
 10
43.80807086614173
 20
11.6013779527559
 10
43.80807086614173
 20
11.60433070866141
  0
LWPOLYLINE
  5
1408
330
1E
100
AcDbEntity
  8
7
100
AcDbPolyline
 90
        5
 70
     0
 43
0.0098425196850394
 10
43.80807086614173
 20
11.79822834645669
 10
43.80807086614173
 20
11.79429133858267
 10
43.80807086614173
 20
11.78051181102362
 10
43.80807086614173
 20
11.75984251968503
 10
43.80807086614173
 20
11.73326771653543
  0
LWPOLYLINE
  5
140F
330
1E
100
AcDbEntity
  8
7
100
AcDbPolyline
 90
        3
 70
     0
 43
0.0098425196850394
 10
43.80807086614173
 20
11.73326771653543
 10
43.80807086614173
 20
11.7007874015748
 10
43.80807086614173
 20
11.66732283464566
  0
LWPOLYLINE
  5
1414
330
1E
100
AcDbEntity
  8
7
100
AcDbPolyline
 90
        7
 70
     0
 43
0.0098425196850394
 10
44.31496062992126
 20
11.79822834645669
 10
44.31496062992126
 20
11.79429133858267
 10
44.31496062992126
 20
11.78051181102362
 10
44.31496062992126
 20
11.75984251968503
 10
44.31496062992126
 20
11.73326771653543
 10
44.31496062992126
 20
11.7007874015748
 10
44.31496062992126
 20
11.66732283464566
  0
LWPOLYLINE
  5
141D
330
1E
100
AcDbEntity
  8
7
100
AcDbPolyline
 90
        3
 70
     0
 43
0.0098425196850394
 10
44.31496062992126
 20
11.6003937007874
 10
44.31496062992126
 20
11.6013779527559
 10
44.31496062992126
 20
11.60433070866141
  0
LINE
  5
1422
330
1E
100
AcDbEntity
  8
7
100
AcDbLine
 10
43.80807086614173
 20
11.66732283464566
 30
0.0
 11
44.31496062992126
 21
11.66732283464566
 31
0.0
  0
LWPOLYLINE
  5
1423
330
1E
100
AcDbEntity
  8
7
100
AcDbPolyline
 90
        3
 70
     0
 43
0.0098425196850394
 10
42.75393700787401
 20
11.6003937007874
 10
42.75393700787401
 20
11.6013779527559
 10
42.75393700787401
 20
11.60433070866141
  0
LWPOLYLINE
  5
1428
330
1E
100
AcDbEntity
  8
7
100
AcDbPolyline
 90
        7
 70
     0
 43
0.0098425196850394
 10
42.75393700787401
 20
11.79822834645669
 10
42.75393700787401
 20
11.79429133858267
 10
42.75393700787401
 20
11.78051181102362
 10
42.75393700787401
 20
11.75984251968503
 10
42.75393700787401
 20
11.73326771653543
 10
42.75393700787401
 20
11.7007874015748
 10
42.75393700787401
 20
11.66732283464566
  0
LWPOLYLINE
  5
1431
330
1E
100
AcDbEntity
  8
7
100
AcDbPolyline
 90
        4
 70
     0
 43
0.0098425196850394
 10
43.26082677165354
 20
11.79822834645669
 10
43.26082677165354
 20
11.79429133858267
 10
43.26082677165354
 20
11.78051181102362
 10
43.26082677165354
 20
11.75984251968503
  0
LWPOLYLINE
  5
1437
330
1E
100
AcDbEntity
  8
7
100
AcDbPolyline
 90
        4
 70
     0
 43
0.0098425196850394
 10
43.26082677165354
 20
11.75984251968503
 10
43.26082677165354
 20
11.73326771653543
 10
43.26082677165354
 20
11.7007874015748
 10
43.26082677165354
 20
11.66732283464566
  0
LWPOLYLINE
  5
143D
330
1E
100
AcDbEntity
  8
7
100
AcDbPolyline
 90
        3
 70
     0
 43
0.0098425196850394
 10
43.26082677165354
 20
11.6003937007874
 10
43.26082677165354
 20
11.6013779527559
 10
43.26082677165354
 20
11.60433070866141
  0
LINE
  5
1442
330
1E
100
AcDbEntity
  8
7
100
AcDbLine
 10
42.75393700787401
 20
11.66732283464566
 30
0.0
 11
43.26082677165354
 21
11.66732283464566
 31
0.0
  0
LWPOLYLINE
  5
1443
330
1E
100
AcDbEntity
  8
7
100
AcDbPolyline
 90
        3
 70
     0
 43
0.0098425196850394
 10
41.6998031496063
 20
11.6003937007874
 10
41.6998031496063
 20
11.6013779527559
 10
41.6998031496063
 20
11.60433070866141
  0
LINE
  5
1448
330
1E
100
AcDbEntity
  8
7
100
AcDbLine
 10
41.6998031496063
 20
11.79822834645669
 30
0.0
 11
41.6998031496063
 21
11.79429133858267
 31
0.0
  0
LWPOLYLINE
  5
1449
330
1E
100
AcDbEntity
  8
7
100
AcDbPolyline
 90
        6
 70
     0
 43
0.0098425196850394
 10
41.6998031496063
 20
11.79429133858267
 10
41.6998031496063
 20
11.78051181102362
 10
41.6998031496063
 20
11.75984251968503
 10
41.6998031496063
 20
11.73326771653543
 10
41.6998031496063
 20
11.7007874015748
 10
41.6998031496063
 20
11.66732283464566
  0
LWPOLYLINE
  5
1451
330
1E
100
AcDbEntity
  8
7
100
AcDbPolyline
 90
        7
 70
     0
 43
0.0098425196850394
 10
42.20669291338583
 20
11.79822834645669
 10
42.20669291338583
 20
11.79429133858267
 10
42.20669291338583
 20
11.78051181102362
 10
42.20669291338583
 20
11.75984251968503
 10
42.20669291338583
 20
11.73326771653543
 10
42.20669291338583
 20
11.7007874015748
 10
42.20669291338583
 20
11.66732283464566
  0
LWPOLYLINE
  5
145A
330
1E
100
AcDbEntity
  8
7
100
AcDbPolyline
 90
        3
 70
     0
 43
0.0098425196850394
 10
42.20669291338583
 20
11.6003937007874
 10
42.20669291338583
 20
11.6013779527559
 10
42.20669291338583
 20
11.60433070866141
  0
LINE
  5
145F
330
1E
100
AcDbEntity
  8
7
100
AcDbLine
 10
41.6998031496063
 20
11.66732283464566
 30
0.0
 11
42.20669291338583
 21
11.66732283464566
 31
0.0
  0
LWPOLYLINE
  5
1460
330
1E
100
AcDbEntity
  8
7
100
AcDbPolyline
 90
        3
 70
     0
 43
0.0098425196850394
 10
40.64566929133858
 20
11.6003937007874
 10
40.64566929133858
 20
11.6013779527559
 10
40.64566929133858
 20
11.60433070866141
  0
LWPOLYLINE
  5
1465
330
1E
100
AcDbEntity
  8
7
100
AcDbPolyline
 90
        7
 70
     0
 43
0.0098425196850394
 10
40.64566929133858
 20
11.79822834645669
 10
40.64566929133858
 20
11.79429133858267
 10
40.64566929133858
 20
11.78051181102362
 10
40.64566929133858
 20
11.75984251968503
 10
40.64566929133858
 20
11.73326771653543
 10
40.64566929133858
 20
11.7007874015748
 10
40.64566929133858
 20
11.66732283464566
  0
LWPOLYLINE
  5
146E
330
1E
100
AcDbEntity
  8
7
100
AcDbPolyline
 90
        7
 70
     0
 43
0.0098425196850394
 10
41.15255905511811
 20
11.79822834645669
 10
41.15255905511811
 20
11.79429133858267
 10
41.15255905511811
 20
11.78051181102362
 10
41.15255905511811
 20
11.75984251968503
 10
41.15255905511811
 20
11.73326771653543
 10
41.15255905511811
 20
11.7007874015748
 10
41.15255905511811
 20
11.66732283464566
  0
LWPOLYLINE
  5
1477
330
1E
100
AcDbEntity
  8
7
100
AcDbPolyline
 90
        3
 70
     0
 43
0.0098425196850394
 10
41.15255905511811
 20
11.6003937007874
 10
41.15255905511811
 20
11.6013779527559
 10
41.15255905511811
 20
11.60433070866141
  0
LINE
  5
147C
330
1E
100
AcDbEntity
  8
7
100
AcDbLine
 10
40.64566929133858
 20
11.66732283464566
 30
0.0
 11
41.15255905511811
 21
11.66732283464566
 31
0.0
  0
LWPOLYLINE
  5
147D
330
1E
100
AcDbEntity
  8
7
100
AcDbPolyline
 90
        3
 70
     0
 43
0.0098425196850394
 10
39.59153543307087
 20
11.6003937007874
 10
39.59153543307087
 20
11.6013779527559
 10
39.59153543307087
 20
11.60433070866141
  0
LWPOLYLINE
  5
1482
330
1E
100
AcDbEntity
  8
7
100
AcDbPolyline
 90
        7
 70
     0
 43
0.0098425196850394
 10
39.59153543307087
 20
11.79822834645669
 10
39.59153543307087
 20
11.79429133858267
 10
39.59153543307087
 20
11.78051181102362
 10
39.59153543307087
 20
11.75984251968503
 10
39.59153543307087
 20
11.73326771653543
 10
39.59153543307087
 20
11.7007874015748
 10
39.59153543307087
 20
11.66732283464566
  0
LWPOLYLINE
  5
148B
330
1E
100
AcDbEntity
  8
7
100
AcDbPolyline
 90
        7
 70
     0
 43
0.0098425196850394
 10
40.09842519685039
 20
11.79822834645669
 10
40.09842519685039
 20
11.79429133858267
 10
40.09842519685039
 20
11.78051181102362
 10
40.09842519685039
 20
11.75984251968503
 10
40.09842519685039
 20
11.73326771653543
 10
40.09842519685039
 20
11.7007874015748
 10
40.09842519685039
 20
11.66732283464566
  0
LWPOLYLINE
  5
1494
330
1E
100
AcDbEntity
  8
7
100
AcDbPolyline
 90
        3
 70
     0
 43
0.0098425196850394
 10
40.09842519685039
 20
11.6003937007874
 10
40.09842519685039
 20
11.6013779527559
 10
40.09842519685039
 20
11.60433070866141
  0
LINE
  5
1499
330
1E
100
AcDbEntity
  8
7
100
AcDbLine
 10
39.59153543307087
 20
11.66732283464566
 30
0.0
 11
40.09842519685039
 21
11.66732283464566
 31
0.0
  0
LWPOLYLINE
  5
149A
330
1E
100
AcDbEntity
  8
7
100
AcDbPolyline
 90
        3
 70
     0
 43
0.0098425196850394
 10
43.78740157480314
 20
11.6003937007874
 10
43.78740157480314
 20
11.66732283464566
 10
43.28051181102362
 20
11.66732283464566
  0
LINE
  5
149F
330
1E
100
AcDbEntity
  8
7
100
AcDbLine
 10
43.28051181102362
 20
11.6003937007874
 30
0.0
 11
43.28051181102362
 21
11.66732283464566
 31
0.0
  0
LWPOLYLINE
  5
14A0
330
1E
100
AcDbEntity
  8
7
100
AcDbPolyline
 90
        3
 70
     0
 43
0.0098425196850394
 10
42.73326771653543
 20
11.6003937007874
 10
42.73326771653543
 20
11.66732283464566
 10
42.2263779527559
 20
11.66732283464566
  0
LINE
  5
14A5
330
1E
100
AcDbEntity
  8
7
100
AcDbLine
 10
42.2263779527559
 20
11.6003937007874
 30
0.0
 11
42.2263779527559
 21
11.66732283464566
 31
0.0
  0
LWPOLYLINE
  5
14A6
330
1E
100
AcDbEntity
  8
7
100
AcDbPolyline
 90
        3
 70
     0
 43
0.0098425196850394
 10
41.67913385826771
 20
11.6003937007874
 10
41.67913385826771
 20
11.66732283464566
 10
41.17224409448819
 20
11.66732283464566
  0
LINE
  5
14AB
330
1E
100
AcDbEntity
  8
7
100
AcDbLine
 10
41.17224409448819
 20
11.6003937007874
 30
0.0
 11
41.17224409448819
 21
11.66732283464566
 31
0.0
  0
LWPOLYLINE
  5
14AC
330
1E
100
AcDbEntity
  8
7
100
AcDbPolyline
 90
        3
 70
     0
 43
0.0098425196850394
 10
40.6259842519685
 20
11.6003937007874
 10
40.6259842519685
 20
11.66732283464566
 10
40.11811023622047
 20
11.66732283464566
  0
LINE
  5
14B1
330
1E
100
AcDbEntity
  8
7
100
AcDbLine
 10
40.11811023622047
 20
11.6003937007874
 30
0.0
 11
40.11811023622047
 21
11.66732283464566
 31
0.0
  0
LWPOLYLINE
  5
14B2
330
1E
100
AcDbEntity
  8
7
100
AcDbPolyline
 90
        7
 70
     0
 43
0.0098425196850394
 10
40.6259842519685
 20
11.66732283464566
 10
40.6259842519685
 20
11.7007874015748
 10
40.6259842519685
 20
11.73326771653543
 10
40.6259842519685
 20
11.75984251968503
 10
40.6259842519685
 20
11.78051181102362
 10
40.6259842519685
 20
11.79429133858267
 10
40.6259842519685
 20
11.79822834645669
  0
LWPOLYLINE
  5
14BB
330
1E
100
AcDbEntity
  8
7
100
AcDbPolyline
 90
        7
 70
     0
 43
0.0098425196850394
 10
40.11811023622047
 20
11.66732283464566
 10
40.11811023622047
 20
11.7007874015748
 10
40.11811023622047
 20
11.73326771653543
 10
40.11811023622047
 20
11.75984251968503
 10
40.11811023622047
 20
11.78051181102362
 10
40.11811023622047
 20
11.79429133858267
 10
40.11811023622047
 20
11.79822834645669
  0
LWPOLYLINE
  5
14C4
330
1E
100
AcDbEntity
  8
7
100
AcDbPolyline
 90
        7
 70
     0
 43
0.0098425196850394
 10
41.67913385826771
 20
11.66732283464566
 10
41.67913385826771
 20
11.7007874015748
 10
41.67913385826771
 20
11.73326771653543
 10
41.67913385826771
 20
11.75984251968503
 10
41.67913385826771
 20
11.78051181102362
 10
41.67913385826771
 20
11.79429133858267
 10
41.67913385826771
 20
11.79822834645669
  0
LWPOLYLINE
  5
14CD
330
1E
100
AcDbEntity
  8
7
100
AcDbPolyline
 90
        7
 70
     0
 43
0.0098425196850394
 10
41.17224409448819
 20
11.66732283464566
 10
41.17224409448819
 20
11.7007874015748
 10
41.17224409448819
 20
11.73326771653543
 10
41.17224409448819
 20
11.75984251968503
 10
41.17224409448819
 20
11.78051181102362
 10
41.17224409448819
 20
11.79429133858267
 10
41.17224409448819
 20
11.79822834645669
  0
LWPOLYLINE
  5
14D6
330
1E
100
AcDbEntity
  8
7
100
AcDbPolyline
 90
        3
 70
     0
 43
0.0098425196850394
 10
42.73326771653543
 20
11.66732283464566
 10
42.73326771653543
 20
11.7007874015748
 10
42.73326771653543
 20
11.73326771653543
  0
LWPOLYLINE
  5
14DB
330
1E
100
AcDbEntity
  8
7
100
AcDbPolyline
 90
        5
 70
     0
 43
0.0098425196850394
 10
42.73326771653543
 20
11.73326771653543
 10
42.73326771653543
 20
11.75984251968503
 10
42.73326771653543
 20
11.78051181102362
 10
42.73326771653543
 20
11.79429133858267
 10
42.73326771653543
 20
11.79822834645669
  0
LWPOLYLINE
  5
14E2
330
1E
100
AcDbEntity
  8
7
100
AcDbPolyline
 90
        7
 70
     0
 43
0.0098425196850394
 10
42.2263779527559
 20
11.66732283464566
 10
42.2263779527559
 20
11.7007874015748
 10
42.2263779527559
 20
11.73326771653543
 10
42.2263779527559
 20
11.75984251968503
 10
42.2263779527559
 20
11.78051181102362
 10
42.2263779527559
 20
11.79429133858267
 10
42.2263779527559
 20
11.79822834645669
  0
LWPOLYLINE
  5
14EB
330
1E
100
AcDbEntity
  8
7
100
AcDbPolyline
 90
        5
 70
     0
 43
0.0098425196850394
 10
43.78740157480314
 20
11.66732283464566
 10
43.78740157480314
 20
11.7007874015748
 10
43.78740157480314
 20
11.73326771653543
 10
43.78740157480314
 20
11.75984251968503
 10
43.78740157480314
 20
11.78051181102362
  0
LWPOLYLINE
  5
14F2
330
1E
100
AcDbEntity
  8
7
100
AcDbPolyline
 90
        3
 70
     0
 43
0.0098425196850394
 10
43.78740157480314
 20
11.78051181102362
 10
43.78740157480314
 20
11.79429133858267
 10
43.78740157480314
 20
11.79822834645669
  0
LWPOLYLINE
  5
14F7
330
1E
100
AcDbEntity
  8
7
100
AcDbPolyline
 90
        7
 70
     0
 43
0.0098425196850394
 10
43.28051181102362
 20
11.66732283464566
 10
43.28051181102362
 20
11.7007874015748
 10
43.28051181102362
 20
11.73326771653543
 10
43.28051181102362
 20
11.75984251968503
 10
43.28051181102362
 20
11.78051181102362
 10
43.28051181102362
 20
11.79429133858267
 10
43.28051181102362
 20
11.79822834645669
  0
LWPOLYLINE
  5
1500
330
1E
100
AcDbEntity
  8
7
100
AcDbPolyline
 90
        5
 70
     0
 43
0.0098425196850394
 10
44.57874015748031
 20
11.6003937007874
 10
39.32874015748032
 20
11.6003937007874
 10
39.32874015748032
 20
11.59547244094488
 10
39.32874015748032
 20
11.58169291338582
 10
39.32874015748032
 20
11.56003937007874
  0
LWPOLYLINE
  5
1507
330
1E
100
AcDbEntity
  8
7
100
AcDbPolyline
 90
        3
 70
     0
 43
0.0098425196850394
 10
39.32874015748032
 20
11.56003937007874
 10
39.32874015748032
 20
11.53346456692913
 10
39.32874015748032
 20
11.50393700787401
  0
LWPOLYLINE
  5
150C
330
1E
100
AcDbEntity
  8
7
100
AcDbPolyline
 90
        6
 70
     0
 43
0.0098425196850394
 10
44.57874015748031
 20
11.6003937007874
 10
44.57874015748031
 20
11.59547244094488
 10
44.57874015748031
 20
11.58169291338582
 10
44.57874015748031
 20
11.56003937007874
 10
44.57874015748031
 20
11.53346456692913
 10
44.57874015748031
 20
11.50393700787401
  0
LINE
  5
1514
330
1E
100
AcDbEntity
  8
7
100
AcDbLine
 10
39.32874015748032
 20
11.50393700787401
 30
0.0
 11
44.57874015748031
 21
11.50393700787401
 31
0.0
  0
LINE
  5
1515
330
1E
100
AcDbEntity
  8
7
100
AcDbLine
 10
39.32874015748032
 20
11.50393700787401
 30
0.0
 11
39.32874015748032
 21
10.68602362204724
 31
0.0
  0
LINE
  5
1516
330
1E
100
AcDbEntity
  8
7
100
AcDbLine
 10
44.57874015748031
 20
11.50393700787401
 30
0.0
 11
44.57874015748031
 21
10.68602362204724
 31
0.0
  0
LINE
  5
1517
330
1E
100
AcDbEntity
  8
7
100
AcDbLine
 10
39.32874015748032
 20
10.68602362204724
 30
0.0
 11
44.57874015748031
 21
10.68602362204724
 31
0.0
  0
LWPOLYLINE
  5
1518
330
1E
100
AcDbEntity
  8
7
100
AcDbPolyline
 90
        9
 70
     0
 43
0.0098425196850394
 10
39.32874015748032
 20
5.534448818897637
 10
44.57874015748031
 20
5.534448818897637
 10
44.57874015748031
 20
5.538385826771653
 10
44.57874015748031
 20
5.552165354330708
 10
44.57874015748031
 20
5.573818897637795
 10
44.57874015748031
 20
5.602362204724409
 10
44.57874015748031
 20
5.635826771653543
 10
44.57874015748031
 20
5.671259842519685
 10
39.32874015748032
 20
5.671259842519685
  0
LWPOLYLINE
  5
1523
330
1E
100
AcDbEntity
  8
7
100
AcDbPolyline
 90
        7
 70
     0
 43
0.0098425196850394
 10
39.32874015748032
 20
5.534448818897637
 10
39.32874015748032
 20
5.538385826771653
 10
39.32874015748032
 20
5.552165354330708
 10
39.32874015748032
 20
5.573818897637795
 10
39.32874015748032
 20
5.602362204724409
 10
39.32874015748032
 20
5.635826771653543
 10
39.32874015748032
 20
5.671259842519685
  0
LINE
  5
152C
330
1E
100
AcDbEntity
  8
7
100
AcDbLine
 10
44.57874015748031
 20
5.671259842519685
 30
0.0
 11
44.57874015748031
 21
10.68602362204724
 31
0.0
  0
LINE
  5
152D
330
1E
100
AcDbEntity
  8
7
100
AcDbLine
 10
39.32874015748032
 20
5.671259842519685
 30
0.0
 11
39.32874015748032
 21
10.68602362204724
 31
0.0
  0
ENDSEC
  0
SECTION
  2
OBJECTS
  0
DICTIONARY
  5
C
330
0
100
AcDbDictionary
  3
ACAD_GROUP
350
D
  3
ACAD_LAYOUT
350
19
  3
ACAD_MLINESTYLE
350
16
  3
ACAD_PLOTSETTINGS
350
18
  3
ACAD_PLOTSTYLENAME
350
E
  3
ACDBHEADERROUNDTRIPXREC
350
1566
  0
DICTIONARY
  5
1589
330
1E
100
AcDbDictionary
280
     1
  3
ACAD_LAYOUTSELFREF
360
158A
  0
DICTIONARY
  5
1587
330
1A
100
AcDbDictionary
280
     1
  3
ACAD_LAYOUTSELFREF
360
1588
  0
DICTIONARY
  5
D
102
{ACAD_REACTORS
330
C
102
}
330
C
100
AcDbDictionary
  0
DICTIONARY
  5
19
102
{ACAD_REACTORS
330
C
102
}
330
C
100
AcDbDictionary
  0
DICTIONARY
  5
16
102
{ACAD_REACTORS
330
C
102
}
330
C
100
AcDbDictionary
  3
STANDARD
350
17
  0
DICTIONARY
  5
18
102
{ACAD_REACTORS
330
C
102
}
330
C
100
AcDbDictionary
  0
ACDBDICTIONARYWDFLT
  5
E
102
{ACAD_REACTORS
330
C
102
}
330
C
100
AcDbDictionary
281
     1
  3
Normal
350
F
100
AcDbDictionaryWithDefault
340
F
  0
DICTIONARY
  5
1566
102
{ACAD_REACTORS
330
C
102
}
330
C
100
AcDbDictionary
  3
CEPSNTYPE
350
1570
  3
DIMSTYLEDATA
350
1574
  3
FINGERPRINTGUID
350
1571
  3
HYPERLINKBASE
350
1569
  3
INSUNITS
350
156F
  3
LAYOUTDICT
350
156B
  3
LWETCUNION
350
156E
  3
PLOTSETDICT
350
156C
  3
PLOTSTYLNAMDICT
350
156D
  3
PSVPSCALE
350
1573
  3
PUCSBASE
350
1577
  3
PUCSORGBACK
350
157D
  3
PUCSORGBOTTOM
350
1579
  3
PUCSORGFRONT
350
157C
  3
PUCSORGLEFT
350
157A
  3
PUCSORGRIGHT
350
157B
  3
PUCSORGTOP
350
1578
  3
PUCSORTHOREF
350
1575
  3
PUCSORTHOVIEW
350
1576
  3
STYLESHEET
350
156A
  3
TSTACKALIGN
350
1567
  3
TSTACKSIZE
350
1568
  3
UCSBASE
350
1580
  3
UCSORGBACK
350
1586
  3
UCSORGBOTTOM
350
1582
  3
UCSORGFRONT
350
1585
  3
UCSORGLEFT
350
1583
  3
UCSORGRIGHT
350
1584
  3
UCSORGTOP
350
1581
  3
UCSORTHOREF
350
157E
  3
UCSORTHOVIEW
350
157F
  3
VERSIONGUID
350
1572
  0
XRECORD
  5
158A
102
{ACAD_REACTORS
330
1589
102
}
330
1589
100
AcDbXrecord
340
1E
  0
XRECORD
  5
1588
102
{ACAD_REACTORS
330
1587
102
}
330
1587
100
AcDbXrecord
340
1A
  0
MLINESTYLE
  5
17
102
{ACAD_REACTORS
330
16
102
}
330
16
100
AcDbMlineStyle
  2
STANDARD
 70
     0
  3

 62
   256
 51
90.0
 52
90.0
 71
     2
 49
0.5
 62
   256
  6
BYLAYER
 49
-0.5
 62
   256
  6
BYLAYER
  0
ACDBPLACEHOLDER
  5
F
102
{ACAD_REACTORS
330
E
102
}
330
E
100
AcDbPlaceHolder
280
     0
  0
XRECORD
  5
1570
102
{ACAD_REACTORS
330
1566
102
}
330
1566
100
AcDbXrecord
 90
        0
  0
XRECORD
  5
1574
102
{ACAD_REACTORS
330
1566
102
}
330
1566
100
AcDbXrecord
1000
DSTYLE
1002
{
1070
   279
 70
     2
1002
}
  0
XRECORD
  5
1571
102
{ACAD_REACTORS
330
1566
102
}
330
1566
100
AcDbXrecord
  1
{D0BCC4D5-8F51-4687-8098-6A341A3F9B0C}
  0
XRECORD
  5
1569
102
{ACAD_REACTORS
330
1566
102
}
330
1566
100
AcDbXrecord
  1

  0
XRECORD
  5
156F
102
{ACAD_REACTORS
330
1566
102
}
330
1566
100
AcDbXrecord
 90
        0
  0
XRECORD
  5
156B
102
{ACAD_REACTORS
330
1566
102
}
330
1566
100
AcDbXrecord
340
19
  0
XRECORD
  5
156E
102
{ACAD_REACTORS
330
1566
102
}
330
1566
100
AcDbXrecord
 90
    14877
  0
XRECORD
  5
156C
102
{ACAD_REACTORS
330
1566
102
}
330
1566
100
AcDbXrecord
340
18
  0
XRECORD
  5
156D
102
{ACAD_REACTORS
330
1566
102
}
330
1566
100
AcDbXrecord
340
E
  0
XRECORD
  5
1573
102
{ACAD_REACTORS
330
1566
102
}
330
1566
100
AcDbXrecord
 40
0.0
  0
XRECORD
  5
1577
102
{ACAD_REACTORS
330
1566
102
}
330
1566
100
AcDbXrecord
340
0
  0
XRECORD
  5
157D
102
{ACAD_REACTORS
330
1566
102
}
330
1566
100
AcDbXrecord
 10
0.0
 20
0.0
 30
0.0
  0
XRECORD
  5
1579
102
{ACAD_REACTORS
330
1566
102
}
330
1566
100
AcDbXrecord
 10
0.0
 20
0.0
 30
0.0
  0
XRECORD
  5
157C
102
{ACAD_REACTORS
330
1566
102
}
330
1566
100
AcDbXrecord
 10
0.0
 20
0.0
 30
0.0
  0
XRECORD
  5
157A
102
{ACAD_REACTORS
330
1566
102
}
330
1566
100
AcDbXrecord
 10
0.0
 20
0.0
 30
0.0
  0
XRECORD
  5
157B
102
{ACAD_REACTORS
330
1566
102
}
330
1566
100
AcDbXrecord
 10
0.0
 20
0.0
 30
0.0
  0
XRECORD
  5
1578
102
{ACAD_REACTORS
330
1566
102
}
330
1566
100
AcDbXrecord
 10
0.0
 20
0.0
 30
0.0
  0
XRECORD
  5
1575
102
{ACAD_REACTORS
330
1566
102
}
330
1566
100
AcDbXrecord
340
0
  0
XRECORD
  5
1576
102
{ACAD_REACTORS
330
1566
102
}
330
1566
100
AcDbXrecord
 70
     0
  0
XRECORD
  5
156A
102
{ACAD_REACTORS
330
1566
102
}
330
1566
100
AcDbXrecord
  1

  0
XRECORD
  5
1567
102
{ACAD_REACTORS
330
1566
102
}
330
1566
100
AcDbXrecord
 90
        1
  0
XRECORD
  5
1568
102
{ACAD_REACTORS
330
1566
102
}
330
1566
100
AcDbXrecord
 90
       70
  0
XRECORD
  5
1580
102
{ACAD_REACTORS
330
1566
102
}
330
1566
100
AcDbXrecord
340
0
  0
XRECORD
  5
1586
102
{ACAD_REACTORS
330
1566
102
}
330
1566
100
AcDbXrecord
 10
0.0
 20
0.0
 30
0.0
  0
XRECORD
  5
1582
102
{ACAD_REACTORS
330
1566
102
}
330
1566
100
AcDbXrecord
 10
0.0
 20
0.0
 30
0.0
  0
XRECORD
  5
1585
102
{ACAD_REACTORS
330
1566
102
}
330
1566
100
AcDbXrecord
 10
0.0
 20
0.0
 30
0.0
  0
XRECORD
  5
1583
102
{ACAD_REACTORS
330
1566
102
}
330
1566
100
AcDbXrecord
 10
0.0
 20
0.0
 30
0.0
  0
XRECORD
  5
1584
102
{ACAD_REACTORS
330
1566
102
}
330
1566
100
AcDbXrecord
 10
0.0
 20
0.0
 30
0.0
  0
XRECORD
  5
1581
102
{ACAD_REACTORS
330
1566
102
}
330
1566
100
AcDbXrecord
 10
0.0
 20
0.0
 30
0.0
  0
XRECORD
  5
157E
102
{ACAD_REACTORS
330
1566
102
}
330
1566
100
AcDbXrecord
340
0
  0
XRECORD
  5
157F
102
{ACAD_REACTORS
330
1566
102
}
330
1566
100
AcDbXrecord
 70
     0
  0
XRECORD
  5
1572
102
{ACAD_REACTORS
330
1566
102
}
330
1566
100
AcDbXrecord
  1
{3655D092-099E-4244-9532-5B8CBF8804CB}
  0
ENDSEC
  0
EOF
