  0
SECTION
  2
HEADER
  9
$ACADVER
  1
AC1012
  9
$DWGCODEPAGE
  3
ANSI_1252
  9
$INSBASE
 10
0.0
 20
0.0
 30
0.0
  9
$EXTMIN
 10
-1.983398411869302
 20
2.124206566396409
 30
-0.0000000349181948
  9
$EXTMAX
 10
7.232299827076843
 20
7.84053041511277
 30
0.0000000814935746
  9
$LIMMIN
 10
0.0
 20
0.0
  9
$LIMMAX
 10
12.0
 20
9.0
  9
$ORTHOMODE
 70
     0
  9
$REGENMODE
 70
     1
  9
$FILLMODE
 70
     1
  9
$QTEXTMODE
 70
     0
  9
$MIRRTEXT
 70
     1
  9
$DRAGMODE
 70
     2
  9
$LTSCALE
 40
1.0
  9
$OSMODE
 70
    33
  9
$ATTMODE
 70
     1
  9
$TEXTSIZE
 40
0.2
  9
$TRACEWID
 40
0.05
  9
$TEXTSTYLE
  7
STANDARD
  9
$CLAYER
  8
0
  9
$CELTYPE
  6
BYLAYER
  9
$CECOLOR
 62
   256
  9
$CELTSCALE
 40
1.0
  9
$DELOBJ
 70
     1
  9
$DISPSILH
 70
     0
  9
$DIMSCALE
 40
1.0
  9
$DIMASZ
 40
0.18
  9
$DIMEXO
 40
0.0625
  9
$DIMDLI
 40
0.38
  9
$DIMRND
 40
0.0
  9
$DIMDLE
 40
0.0
  9
$DIMEXE
 40
0.18
  9
$DIMTP
 40
0.0
  9
$DIMTM
 40
0.0
  9
$DIMTXT
 40
0.18
  9
$DIMCEN
 40
0.09
  9
$DIMTSZ
 40
0.0
  9
$DIMTOL
 70
     0
  9
$DIMLIM
 70
     0
  9
$DIMTIH
 70
     1
  9
$DIMTOH
 70
     1
  9
$DIMSE1
 70
     0
  9
$DIMSE2
 70
     0
  9
$DIMTAD
 70
     0
  9
$DIMZIN
 70
     0
  9
$DIMBLK
  1

  9
$DIMASO
 70
     1
  9
$DIMSHO
 70
     1
  9
$DIMPOST
  1

  9
$DIMAPOST
  1

  9
$DIMALT
 70
     0
  9
$DIMALTD
 70
     2
  9
$DIMALTF
 40
25.4
  9
$DIMLFAC
 40
1.0
  9
$DIMTOFL
 70
     0
  9
$DIMTVP
 40
0.0
  9
$DIMTIX
 70
     0
  9
$DIMSOXD
 70
     0
  9
$DIMSAH
 70
     0
  9
$DIMBLK1
  1

  9
$DIMBLK2
  1

  9
$DIMSTYLE
  2
STANDARD
  9
$DIMCLRD
 70
     0
  9
$DIMCLRE
 70
     0
  9
$DIMCLRT
 70
     0
  9
$DIMTFAC
 40
1.0
  9
$DIMGAP
 40
0.09
  9
$DIMJUST
 70
     0
  9
$DIMSD1
 70
     0
  9
$DIMSD2
 70
     0
  9
$DIMTOLJ
 70
     1
  9
$DIMTZIN
 70
     0
  9
$DIMALTZ
 70
     0
  9
$DIMALTTZ
 70
     0
  9
$DIMFIT
 70
     5
  9
$DIMUPT
 70
     0
  9
$DIMUNIT
 70
     2
  9
$DIMDEC
 70
     4
  9
$DIMTDEC
 70
     4
  9
$DIMALTU
 70
     2
  9
$DIMALTTD
 70
     2
  9
$DIMTXSTY
  7
STANDARD
  9
$DIMAUNIT
 70
     0
  9
$LUNITS
 70
     2
  9
$LUPREC
 70
     4
  9
$SKETCHINC
 40
0.1
  9
$FILLETRAD
 40
0.0
  9
$AUNITS
 70
     0
  9
$AUPREC
 70
     0
  9
$MENU
  1
acad
  9
$ELEVATION
 40
0.0
  9
$PELEVATION
 40
0.0
  9
$THICKNESS
 40
0.0
  9
$LIMCHECK
 70
     0
  9
$BLIPMODE
 70
     0
  9
$CHAMFERA
 40
0.0
  9
$CHAMFERB
 40
0.0
  9
$CHAMFERC
 40
0.0
  9
$CHAMFERD
 40
0.0
  9
$SKPOLY
 70
     0
  9
$TDCREATE
 40
2452255.299699074
  9
$TDUPDATE
 40
2452340.334917615
  9
$TDINDWG
 40
0.0019104514
  9
$TDUSRTIMER
 40
0.0019104514
  9
$USRTIMER
 70
     1
  9
$ANGBASE
 50
0.0
  9
$ANGDIR
 70
     0
  9
$PDMODE
 70
     0
  9
$PDSIZE
 40
0.0
  9
$PLINEWID
 40
0.0
  9
$COORDS
 70
     2
  9
$SPLFRAME
 70
     0
  9
$SPLINETYPE
 70
     6
  9
$SPLINESEGS
 70
     8
  9
$ATTDIA
 70
     0
  9
$ATTREQ
 70
     1
  9
$HANDLING
 70
  4097
  9
$HANDSEED
  5
4021
  9
$SURFTAB1
 70
     6
  9
$SURFTAB2
 70
     6
  9
$SURFTYPE
 70
     6
  9
$SURFU
 70
     6
  9
$SURFV
 70
     6
  9
$UCSNAME
  2

  9
$UCSORG
 10
0.0
 20
0.0
 30
0.0
  9
$UCSXDIR
 10
1.0
 20
0.0
 30
0.0
  9
$UCSYDIR
 10
0.0
 20
1.0
 30
0.0
  9
$PUCSNAME
  2

  9
$PUCSORG
 10
0.0
 20
0.0
 30
0.0
  9
$PUCSXDIR
 10
1.0
 20
0.0
 30
0.0
  9
$PUCSYDIR
 10
0.0
 20
1.0
 30
0.0
  9
$USERI1
 70
     0
  9
$USERI2
 70
     0
  9
$USERI3
 70
     0
  9
$USERI4
 70
     0
  9
$USERI5
 70
     0
  9
$USERR1
 40
0.0
  9
$USERR2
 40
0.0
  9
$USERR3
 40
0.0
  9
$USERR4
 40
0.0
  9
$USERR5
 40
0.0
  9
$WORLDVIEW
 70
     1
  9
$SHADEDGE
 70
     3
  9
$SHADEDIF
 70
    70
  9
$TILEMODE
 70
     1
  9
$MAXACTVP
 70
    16
  9
$PINSBASE
 10
0.0
 20
0.0
 30
0.0
  9
$PLIMCHECK
 70
     0
  9
$PEXTMIN
 10
1.000000000000000E+20
 20
1.000000000000000E+20
 30
1.000000000000000E+20
  9
$PEXTMAX
 10
-1.000000000000000E+20
 20
-1.000000000000000E+20
 30
-1.000000000000000E+20
  9
$PLIMMIN
 10
0.0
 20
0.0
  9
$PLIMMAX
 10
12.0
 20
9.0
  9
$UNITMODE
 70
     0
  9
$VISRETAIN
 70
     0
  9
$PLINEGEN
 70
     0
  9
$PSLTSCALE
 70
     1
  9
$TREEDEPTH
 70
  3020
  9
$PICKSTYLE
 70
     1
  9
$CMLSTYLE
  2
STANDARD
  9
$CMLJUST
 70
     0
  9
$CMLSCALE
 40
1.0
  9
$SAVEIMAGES
 70
     1
  0
ENDSEC
  0
SECTION
  2
CLASSES
  0
CLASS
  1
ACDBDICTIONARYWDFLT
  2
AcDbDictionaryWithDefault
  3
AutoCAD 2000
 90
    32768
280
     0
281
     0
  0
CLASS
  1
ACDBPLACEHOLDER
  2
AcDbPlaceHolder
  3
AutoCAD 2000
 90
    32768
280
     0
281
     0
  0
CLASS
  1
LAYOUT
  2
AcDbLayout
  3
AutoCAD 2000
 90
    32768
280
     0
281
     0
  0
CLASS
  1
LONG_TRANSACTION
  2
AcDbLongTransaction
  3
AutoCAD 2000
 90
    32768
280
     0
281
     0
  0
CLASS
  1
LWPOLYLINE
  2
AcDbPolyline
  3
AutoCAD 2000
 90
    32768
280
     0
281
     1
  0
CLASS
  1
HATCH
  2
AcDbHatch
  3
AutoCAD 2000
 90
    32768
280
     0
281
     1
  0
CLASS
  1
XRECORD
  2
AcDbXrecord
  3
AutoCAD 2000
 90
    32768
280
     0
281
     0
  0
CLASS
  1
LONG_TRANSACTION
  2
AcDbLongTransaction
  3
AutoCAD 2000
 90
    32768
280
     0
281
     0
  0
CLASS
  1
LWPOLYLINE
  2
AcDbPolyline
  3
AutoCAD 2000
 90
    32768
280
     0
281
     1
  0
CLASS
  1
HATCH
  2
AcDbHatch
  3
AutoCAD 2000
 90
    32768
280
     0
281
     1
  0
CLASS
  1
XRECORD
  2
AcDbXrecord
  3
AutoCAD 2000
 90
    32768
280
     0
281
     0
  0
ENDSEC
  0
SECTION
  2
TABLES
  0
TABLE
  2
VPORT
  5
8
330
0
100
AcDbSymbolTable
 70
     3
  0
VPORT
  5
401E
330
8
100
AcDbSymbolTableRecord
100
AcDbViewportTableRecord
  2
*ACTIVE
 70
     0
 10
0.0
 20
0.0
 11
1.0
 21
1.0
 12
2.624450707603771
 22
4.98236849075459
 13
0.0
 23
0.0
 14
1.0
 24
1.0
 15
0.0
 25
0.0
 16
0.0
 26
0.0
 36
1.0
 17
0.0
 27
0.0
 37
0.0
 40
5.781476814786318
 41
1.601839684625492
 42
50.0
 43
0.0
 44
0.0
 50
0.0
 51
0.0
 71
     0
 72
   100
 73
     1
 74
     1
 75
     0
 76
     0
 77
     0
 78
     0
  0
ENDTAB
  0
TABLE
  2
LTYPE
  5
5
330
0
100
AcDbSymbolTable
 70
    25
  0
LTYPE
  5
13
330
5
100
AcDbSymbolTableRecord
100
AcDbLinetypeTableRecord
  2
BYBLOCK
 70
     0
  3

 72
    65
 73
     0
 40
0.0
  0
LTYPE
  5
14
330
5
100
AcDbSymbolTableRecord
100
AcDbLinetypeTableRecord
  2
BYLAYER
 70
     0
  3

 72
    65
 73
     0
 40
0.0
  0
LTYPE
  5
15
330
5
100
AcDbSymbolTableRecord
100
AcDbLinetypeTableRecord
  2
CONTINUOUS
 70
     0
  3
Solid line
 72
    65
 73
     0
 40
0.0
  0
LTYPE
  5
22
330
5
100
AcDbSymbolTableRecord
100
AcDbLinetypeTableRecord
  2
BORDER
 70
     0
  3
__ __ . __ __ . __ __ . __ __ . __ __ . __ __ .
 72
    65
 73
     6
 40
1.75
 49
0.5
 74
     0
 49
-0.25
 74
     0
 49
0.5
 74
     0
 49
-0.25
 74
     0
 49
0.5
 74
     0
 49
-0.25
 74
     0
  0
LTYPE
  5
23
330
5
100
AcDbSymbolTableRecord
100
AcDbLinetypeTableRecord
  2
BORDER2
 70
     0
  3
__.__.__.__.__.__.__.__.__.__.__.__.__.__.__.__
 72
    65
 73
     6
 40
0.875
 49
0.25
 74
     0
 49
-0.125
 74
     0
 49
0.25
 74
     0
 49
-0.125
 74
     0
 49
0.25
 74
     0
 49
-0.125
 74
     0
  0
LTYPE
  5
24
330
5
100
AcDbSymbolTableRecord
100
AcDbLinetypeTableRecord
  2
BORDERX2
 70
     0
  3
____  ____  .  ____  ____  .  
 72
    65
 73
     6
 40
3.5
 49
1.0
 74
     0
 49
-0.5
 74
     0
 49
1.0
 74
     0
 49
-0.5
 74
     0
 49
1.0
 74
     0
 49
-0.5
 74
     0
  0
LTYPE
  5
25
330
5
100
AcDbSymbolTableRecord
100
AcDbLinetypeTableRecord
  2
CENTER
 70
     0
  3
____ _ ____ _ ____ _ ____ _ ____ _ ____ _ ____
 72
    65
 73
     4
 40
2.0
 49
1.25
 74
     0
 49
-0.25
 74
     0
 49
0.25
 74
     0
 49
-0.25
 74
     0
  0
LTYPE
  5
26
330
5
100
AcDbSymbolTableRecord
100
AcDbLinetypeTableRecord
  2
CENTER2
 70
     0
  3
____ _ ____ _ ____ _ ____ _ ____ _ ____ _ ____
 72
    65
 73
     4
 40
1.125
 49
0.75
 74
     0
 49
-0.125
 74
     0
 49
0.125
 74
     0
 49
-0.125
 74
     0
  0
LTYPE
  5
27
330
5
100
AcDbSymbolTableRecord
100
AcDbLinetypeTableRecord
  2
CENTERX2
 70
     0
  3
________  __  ________  __  ________  __  
 72
    65
 73
     4
 40
4.0
 49
2.5
 74
     0
 49
-0.5
 74
     0
 49
0.5
 74
     0
 49
-0.5
 74
     0
  0
LTYPE
  5
28
330
5
100
AcDbSymbolTableRecord
100
AcDbLinetypeTableRecord
  2
DASHDOT
 70
     0
  3
__ . __ . __ . __ . __ . __ . __ . 
 72
    65
 73
     4
 40
1.0
 49
0.5
 74
     0
 49
-0.25
 74
     0
 49
0.0
 74
     0
 49
-0.25
 74
     0
  0
LTYPE
  5
29
330
5
100
AcDbSymbolTableRecord
100
AcDbLinetypeTableRecord
  2
DASHDOT2
 70
     0
  3
_._._._._._._._._._._._._._._._.
 72
    65
 73
     4
 40
0.5
 49
0.25
 74
     0
 49
-0.125
 74
     0
 49
0.0
 74
     0
 49
-0.125
 74
     0
  0
LTYPE
  5
2A
330
5
100
AcDbSymbolTableRecord
100
AcDbLinetypeTableRecord
  2
DASHDOTX2
 70
     0
  3
____  .  ____  .  ____  .  ____  .  
 72
    65
 73
     4
 40
2.0
 49
1.0
 74
     0
 49
-0.5
 74
     0
 49
0.0
 74
     0
 49
-0.5
 74
     0
  0
LTYPE
  5
2B
330
5
100
AcDbSymbolTableRecord
100
AcDbLinetypeTableRecord
  2
DASHED
 70
     0
  3
__ __ __ __ __ __ __ __ __ __ __ __ 
 72
    65
 73
     2
 40
0.75
 49
0.5
 74
     0
 49
-0.25
 74
     0
  0
LTYPE
  5
2C
330
5
100
AcDbSymbolTableRecord
100
AcDbLinetypeTableRecord
  2
DASHED2
 70
     0
  3
_ _ _ _ _ _ _ _ _ _ _ _ _ _ _ _ _ _ 
 72
    65
 73
     2
 40
0.375
 49
0.25
 74
     0
 49
-0.125
 74
     0
  0
LTYPE
  5
2D
330
5
100
AcDbSymbolTableRecord
100
AcDbLinetypeTableRecord
  2
DASHEDX2
 70
     0
  3
____  ____  ____  ____  ____  ____  
 72
    65
 73
     2
 40
1.5
 49
1.0
 74
     0
 49
-0.5
 74
     0
  0
LTYPE
  5
2E
330
5
100
AcDbSymbolTableRecord
100
AcDbLinetypeTableRecord
  2
DIVIDE
 70
     0
  3
____ . . ____ . . ____ . . ____ . . 
 72
    65
 73
     6
 40
1.25
 49
0.5
 74
     0
 49
-0.25
 74
     0
 49
0.0
 74
     0
 49
-0.25
 74
     0
 49
0.0
 74
     0
 49
-0.25
 74
     0
  0
LTYPE
  5
2F
330
5
100
AcDbSymbolTableRecord
100
AcDbLinetypeTableRecord
  2
DIVIDE2
 70
     0
  3
__..__..__..__..__..__..__..__..__..
 72
    65
 73
     6
 40
0.625
 49
0.25
 74
     0
 49
-0.125
 74
     0
 49
0.0
 74
     0
 49
-0.125
 74
     0
 49
0.0
 74
     0
 49
-0.125
 74
     0
  0
LTYPE
  5
30
330
5
100
AcDbSymbolTableRecord
100
AcDbLinetypeTableRecord
  2
DIVIDEX2
 70
     0
  3
________  .  .  ________  .  .  ________  .  . 
 72
    65
 73
     6
 40
2.5
 49
1.0
 74
     0
 49
-0.5
 74
     0
 49
0.0
 74
     0
 49
-0.5
 74
     0
 49
0.0
 74
     0
 49
-0.5
 74
     0
  0
LTYPE
  5
31
330
5
100
AcDbSymbolTableRecord
100
AcDbLinetypeTableRecord
  2
DOT
 70
     0
  3
. . . . . . . . . . . . . . . . . . 
 72
    65
 73
     2
 40
0.25
 49
0.0
 74
     0
 49
-0.25
 74
     0
  0
LTYPE
  5
32
330
5
100
AcDbSymbolTableRecord
100
AcDbLinetypeTableRecord
  2
DOT2
 70
     0
  3
....................................
 72
    65
 73
     2
 40
0.125
 49
0.0
 74
     0
 49
-0.125
 74
     0
  0
LTYPE
  5
33
330
5
100
AcDbSymbolTableRecord
100
AcDbLinetypeTableRecord
  2
DOTX2
 70
     0
  3
.  .  .  .  .  .  .  .  .  .  .  .  .  
 72
    65
 73
     2
 40
0.5
 49
0.0
 74
     0
 49
-0.5
 74
     0
  0
LTYPE
  5
34
330
5
100
AcDbSymbolTableRecord
100
AcDbLinetypeTableRecord
  2
HIDDEN
 70
     0
  3
__ __ __ __ __ __ __ __ __ __ __ __ 
 72
    65
 73
     2
 40
0.375
 49
0.25
 74
     0
 49
-0.125
 74
     0
  0
LTYPE
  5
35
330
5
100
AcDbSymbolTableRecord
100
AcDbLinetypeTableRecord
  2
HIDDEN2
 70
     0
  3
_ _ _ _ _ _ _ _ _ _ _ _ _ _ _ _ _ _ 
 72
    65
 73
     2
 40
0.1875
 49
0.125
 74
     0
 49
-0.0625
 74
     0
  0
LTYPE
  5
36
330
5
100
AcDbSymbolTableRecord
100
AcDbLinetypeTableRecord
  2
HIDDENX2
 70
     0
  3
____ ____ ____ ____ ____ ____ ____ 
 72
    65
 73
     2
 40
0.75
 49
0.5
 74
     0
 49
-0.25
 74
     0
  0
LTYPE
  5
37
330
5
100
AcDbSymbolTableRecord
100
AcDbLinetypeTableRecord
  2
PHANTOM
 70
     0
  3
______  __  __  ______  __  __  
 72
    65
 73
     6
 40
2.5
 49
1.25
 74
     0
 49
-0.25
 74
     0
 49
0.25
 74
     0
 49
-0.25
 74
     0
 49
0.25
 74
     0
 49
-0.25
 74
     0
  0
LTYPE
  5
38
330
5
100
AcDbSymbolTableRecord
100
AcDbLinetypeTableRecord
  2
PHANTOM2
 70
     0
  3
___ _ _ ___ _ _ ___ _ _ ___ _ _ 
 72
    65
 73
     6
 40
1.25
 49
0.625
 74
     0
 49
-0.125
 74
     0
 49
0.125
 74
     0
 49
-0.125
 74
     0
 49
0.125
 74
     0
 49
-0.125
 74
     0
  0
LTYPE
  5
39
330
5
100
AcDbSymbolTableRecord
100
AcDbLinetypeTableRecord
  2
PHANTOMX2
 70
     0
  3
___ _ _ ___ _ _ ___ _ _ ___ _ _ 
 72
    65
 73
     6
 40
5.0
 49
2.5
 74
     0
 49
-0.5
 74
     0
 49
0.5
 74
     0
 49
-0.5
 74
     0
 49
0.5
 74
     0
 49
-0.5
 74
     0
  0
ENDTAB
  0
TABLE
  2
LAYER
  5
2
330
0
100
AcDbSymbolTable
 70
   256
  0
LAYER
  5
10
330
2
100
AcDbSymbolTableRecord
100
AcDbLayerTableRecord
  2
0
 70
     0
 62
     7
  6
CONTINUOUS
  0
LAYER
  5
3A
330
2
100
AcDbSymbolTableRecord
100
AcDbLayerTableRecord
  2
1
 70
     0
 62
     1
  6
CONTINUOUS
  0
LAYER
  5
3B
330
2
100
AcDbSymbolTableRecord
100
AcDbLayerTableRecord
  2
2
 70
     0
 62
     2
  6
CONTINUOUS
  0
LAYER
  5
3C
330
2
100
AcDbSymbolTableRecord
100
AcDbLayerTableRecord
  2
3
 70
     0
 62
     3
  6
CONTINUOUS
  0
LAYER
  5
3D
330
2
100
AcDbSymbolTableRecord
100
AcDbLayerTableRecord
  2
4
 70
     0
 62
     4
  6
CONTINUOUS
  0
LAYER
  5
3E
330
2
100
AcDbSymbolTableRecord
100
AcDbLayerTableRecord
  2
5
 70
     0
 62
     5
  6
CONTINUOUS
  0
LAYER
  5
3F
330
2
100
AcDbSymbolTableRecord
100
AcDbLayerTableRecord
  2
6
 70
     0
 62
     6
  6
CONTINUOUS
  0
LAYER
  5
40
330
2
100
AcDbSymbolTableRecord
100
AcDbLayerTableRecord
  2
7
 70
     0
 62
     7
  6
CONTINUOUS
  0
LAYER
  5
41
330
2
100
AcDbSymbolTableRecord
100
AcDbLayerTableRecord
  2
8
 70
     0
 62
     8
  6
CONTINUOUS
  0
LAYER
  5
42
330
2
100
AcDbSymbolTableRecord
100
AcDbLayerTableRecord
  2
9
 70
     0
 62
     9
  6
CONTINUOUS
  0
LAYER
  5
43
330
2
100
AcDbSymbolTableRecord
100
AcDbLayerTableRecord
  2
10
 70
     0
 62
    10
  6
CONTINUOUS
  0
LAYER
  5
44
330
2
100
AcDbSymbolTableRecord
100
AcDbLayerTableRecord
  2
11
 70
     0
 62
    11
  6
CONTINUOUS
  0
LAYER
  5
45
330
2
100
AcDbSymbolTableRecord
100
AcDbLayerTableRecord
  2
12
 70
     0
 62
    12
  6
CONTINUOUS
  0
LAYER
  5
46
330
2
100
AcDbSymbolTableRecord
100
AcDbLayerTableRecord
  2
13
 70
     0
 62
    13
  6
CONTINUOUS
  0
LAYER
  5
47
330
2
100
AcDbSymbolTableRecord
100
AcDbLayerTableRecord
  2
14
 70
     0
 62
    14
  6
CONTINUOUS
  0
LAYER
  5
48
330
2
100
AcDbSymbolTableRecord
100
AcDbLayerTableRecord
  2
15
 70
     0
 62
    15
  6
CONTINUOUS
  0
LAYER
  5
49
330
2
100
AcDbSymbolTableRecord
100
AcDbLayerTableRecord
  2
16
 70
     0
 62
    16
  6
CONTINUOUS
  0
LAYER
  5
4A
330
2
100
AcDbSymbolTableRecord
100
AcDbLayerTableRecord
  2
17
 70
     0
 62
    17
  6
CONTINUOUS
  0
LAYER
  5
4B
330
2
100
AcDbSymbolTableRecord
100
AcDbLayerTableRecord
  2
18
 70
     0
 62
    18
  6
CONTINUOUS
  0
LAYER
  5
4C
330
2
100
AcDbSymbolTableRecord
100
AcDbLayerTableRecord
  2
19
 70
     0
 62
    19
  6
CONTINUOUS
  0
LAYER
  5
4D
330
2
100
AcDbSymbolTableRecord
100
AcDbLayerTableRecord
  2
20
 70
     0
 62
    20
  6
CONTINUOUS
  0
LAYER
  5
4E
330
2
100
AcDbSymbolTableRecord
100
AcDbLayerTableRecord
  2
21
 70
     0
 62
    21
  6
CONTINUOUS
  0
LAYER
  5
4F
330
2
100
AcDbSymbolTableRecord
100
AcDbLayerTableRecord
  2
22
 70
     0
 62
    22
  6
CONTINUOUS
  0
LAYER
  5
50
330
2
100
AcDbSymbolTableRecord
100
AcDbLayerTableRecord
  2
23
 70
     0
 62
    23
  6
CONTINUOUS
  0
LAYER
  5
51
330
2
100
AcDbSymbolTableRecord
100
AcDbLayerTableRecord
  2
24
 70
     0
 62
    24
  6
CONTINUOUS
  0
LAYER
  5
52
330
2
100
AcDbSymbolTableRecord
100
AcDbLayerTableRecord
  2
25
 70
     0
 62
    25
  6
CONTINUOUS
  0
LAYER
  5
53
330
2
100
AcDbSymbolTableRecord
100
AcDbLayerTableRecord
  2
26
 70
     0
 62
    26
  6
CONTINUOUS
  0
LAYER
  5
54
330
2
100
AcDbSymbolTableRecord
100
AcDbLayerTableRecord
  2
27
 70
     0
 62
    27
  6
CONTINUOUS
  0
LAYER
  5
55
330
2
100
AcDbSymbolTableRecord
100
AcDbLayerTableRecord
  2
28
 70
     0
 62
    28
  6
CONTINUOUS
  0
LAYER
  5
56
330
2
100
AcDbSymbolTableRecord
100
AcDbLayerTableRecord
  2
29
 70
     0
 62
    29
  6
CONTINUOUS
  0
LAYER
  5
57
330
2
100
AcDbSymbolTableRecord
100
AcDbLayerTableRecord
  2
30
 70
     0
 62
    30
  6
CONTINUOUS
  0
LAYER
  5
58
330
2
100
AcDbSymbolTableRecord
100
AcDbLayerTableRecord
  2
31
 70
     0
 62
    31
  6
CONTINUOUS
  0
LAYER
  5
59
330
2
100
AcDbSymbolTableRecord
100
AcDbLayerTableRecord
  2
32
 70
     0
 62
    32
  6
CONTINUOUS
  0
LAYER
  5
5A
330
2
100
AcDbSymbolTableRecord
100
AcDbLayerTableRecord
  2
33
 70
     0
 62
    33
  6
CONTINUOUS
  0
LAYER
  5
5B
330
2
100
AcDbSymbolTableRecord
100
AcDbLayerTableRecord
  2
34
 70
     0
 62
    34
  6
CONTINUOUS
  0
LAYER
  5
5C
330
2
100
AcDbSymbolTableRecord
100
AcDbLayerTableRecord
  2
35
 70
     0
 62
    35
  6
CONTINUOUS
  0
LAYER
  5
5D
330
2
100
AcDbSymbolTableRecord
100
AcDbLayerTableRecord
  2
36
 70
     0
 62
    36
  6
CONTINUOUS
  0
LAYER
  5
5E
330
2
100
AcDbSymbolTableRecord
100
AcDbLayerTableRecord
  2
37
 70
     0
 62
    37
  6
CONTINUOUS
  0
LAYER
  5
5F
330
2
100
AcDbSymbolTableRecord
100
AcDbLayerTableRecord
  2
38
 70
     0
 62
    38
  6
CONTINUOUS
  0
LAYER
  5
60
330
2
100
AcDbSymbolTableRecord
100
AcDbLayerTableRecord
  2
39
 70
     0
 62
    39
  6
CONTINUOUS
  0
LAYER
  5
61
330
2
100
AcDbSymbolTableRecord
100
AcDbLayerTableRecord
  2
40
 70
     0
 62
    40
  6
CONTINUOUS
  0
LAYER
  5
62
330
2
100
AcDbSymbolTableRecord
100
AcDbLayerTableRecord
  2
41
 70
     0
 62
    41
  6
CONTINUOUS
  0
LAYER
  5
63
330
2
100
AcDbSymbolTableRecord
100
AcDbLayerTableRecord
  2
42
 70
     0
 62
    42
  6
CONTINUOUS
  0
LAYER
  5
64
330
2
100
AcDbSymbolTableRecord
100
AcDbLayerTableRecord
  2
43
 70
     0
 62
    43
  6
CONTINUOUS
  0
LAYER
  5
65
330
2
100
AcDbSymbolTableRecord
100
AcDbLayerTableRecord
  2
44
 70
     0
 62
    44
  6
CONTINUOUS
  0
LAYER
  5
66
330
2
100
AcDbSymbolTableRecord
100
AcDbLayerTableRecord
  2
45
 70
     0
 62
    45
  6
CONTINUOUS
  0
LAYER
  5
67
330
2
100
AcDbSymbolTableRecord
100
AcDbLayerTableRecord
  2
46
 70
     0
 62
    46
  6
CONTINUOUS
  0
LAYER
  5
68
330
2
100
AcDbSymbolTableRecord
100
AcDbLayerTableRecord
  2
47
 70
     0
 62
    47
  6
CONTINUOUS
  0
LAYER
  5
69
330
2
100
AcDbSymbolTableRecord
100
AcDbLayerTableRecord
  2
48
 70
     0
 62
    48
  6
CONTINUOUS
  0
LAYER
  5
6A
330
2
100
AcDbSymbolTableRecord
100
AcDbLayerTableRecord
  2
49
 70
     0
 62
    49
  6
CONTINUOUS
  0
LAYER
  5
6B
330
2
100
AcDbSymbolTableRecord
100
AcDbLayerTableRecord
  2
50
 70
     0
 62
    50
  6
CONTINUOUS
  0
LAYER
  5
6C
330
2
100
AcDbSymbolTableRecord
100
AcDbLayerTableRecord
  2
51
 70
     0
 62
    51
  6
CONTINUOUS
  0
LAYER
  5
6D
330
2
100
AcDbSymbolTableRecord
100
AcDbLayerTableRecord
  2
52
 70
     0
 62
    52
  6
CONTINUOUS
  0
LAYER
  5
6E
330
2
100
AcDbSymbolTableRecord
100
AcDbLayerTableRecord
  2
53
 70
     0
 62
    53
  6
CONTINUOUS
  0
LAYER
  5
6F
330
2
100
AcDbSymbolTableRecord
100
AcDbLayerTableRecord
  2
54
 70
     0
 62
    54
  6
CONTINUOUS
  0
LAYER
  5
70
330
2
100
AcDbSymbolTableRecord
100
AcDbLayerTableRecord
  2
55
 70
     0
 62
    55
  6
CONTINUOUS
  0
LAYER
  5
71
330
2
100
AcDbSymbolTableRecord
100
AcDbLayerTableRecord
  2
56
 70
     0
 62
    56
  6
CONTINUOUS
  0
LAYER
  5
72
330
2
100
AcDbSymbolTableRecord
100
AcDbLayerTableRecord
  2
57
 70
     0
 62
    57
  6
CONTINUOUS
  0
LAYER
  5
73
330
2
100
AcDbSymbolTableRecord
100
AcDbLayerTableRecord
  2
58
 70
     0
 62
    58
  6
CONTINUOUS
  0
LAYER
  5
74
330
2
100
AcDbSymbolTableRecord
100
AcDbLayerTableRecord
  2
59
 70
     0
 62
    59
  6
CONTINUOUS
  0
LAYER
  5
75
330
2
100
AcDbSymbolTableRecord
100
AcDbLayerTableRecord
  2
60
 70
     0
 62
    60
  6
CONTINUOUS
  0
LAYER
  5
76
330
2
100
AcDbSymbolTableRecord
100
AcDbLayerTableRecord
  2
61
 70
     0
 62
    61
  6
CONTINUOUS
  0
LAYER
  5
77
330
2
100
AcDbSymbolTableRecord
100
AcDbLayerTableRecord
  2
62
 70
     0
 62
    62
  6
CONTINUOUS
  0
LAYER
  5
78
330
2
100
AcDbSymbolTableRecord
100
AcDbLayerTableRecord
  2
63
 70
     0
 62
    63
  6
CONTINUOUS
  0
LAYER
  5
79
330
2
100
AcDbSymbolTableRecord
100
AcDbLayerTableRecord
  2
64
 70
     0
 62
    64
  6
CONTINUOUS
  0
LAYER
  5
7A
330
2
100
AcDbSymbolTableRecord
100
AcDbLayerTableRecord
  2
65
 70
     0
 62
    65
  6
CONTINUOUS
  0
LAYER
  5
7B
330
2
100
AcDbSymbolTableRecord
100
AcDbLayerTableRecord
  2
66
 70
     0
 62
    66
  6
CONTINUOUS
  0
LAYER
  5
7C
330
2
100
AcDbSymbolTableRecord
100
AcDbLayerTableRecord
  2
67
 70
     0
 62
    67
  6
CONTINUOUS
  0
LAYER
  5
7D
330
2
100
AcDbSymbolTableRecord
100
AcDbLayerTableRecord
  2
68
 70
     0
 62
    68
  6
CONTINUOUS
  0
LAYER
  5
7E
330
2
100
AcDbSymbolTableRecord
100
AcDbLayerTableRecord
  2
69
 70
     0
 62
    69
  6
CONTINUOUS
  0
LAYER
  5
7F
330
2
100
AcDbSymbolTableRecord
100
AcDbLayerTableRecord
  2
70
 70
     0
 62
    70
  6
CONTINUOUS
  0
LAYER
  5
80
330
2
100
AcDbSymbolTableRecord
100
AcDbLayerTableRecord
  2
71
 70
     0
 62
    71
  6
CONTINUOUS
  0
LAYER
  5
81
330
2
100
AcDbSymbolTableRecord
100
AcDbLayerTableRecord
  2
72
 70
     0
 62
    72
  6
CONTINUOUS
  0
LAYER
  5
82
330
2
100
AcDbSymbolTableRecord
100
AcDbLayerTableRecord
  2
73
 70
     0
 62
    73
  6
CONTINUOUS
  0
LAYER
  5
83
330
2
100
AcDbSymbolTableRecord
100
AcDbLayerTableRecord
  2
74
 70
     0
 62
    74
  6
CONTINUOUS
  0
LAYER
  5
84
330
2
100
AcDbSymbolTableRecord
100
AcDbLayerTableRecord
  2
75
 70
     0
 62
    75
  6
CONTINUOUS
  0
LAYER
  5
85
330
2
100
AcDbSymbolTableRecord
100
AcDbLayerTableRecord
  2
76
 70
     0
 62
    76
  6
CONTINUOUS
  0
LAYER
  5
86
330
2
100
AcDbSymbolTableRecord
100
AcDbLayerTableRecord
  2
77
 70
     0
 62
    77
  6
CONTINUOUS
  0
LAYER
  5
87
330
2
100
AcDbSymbolTableRecord
100
AcDbLayerTableRecord
  2
78
 70
     0
 62
    78
  6
CONTINUOUS
  0
LAYER
  5
88
330
2
100
AcDbSymbolTableRecord
100
AcDbLayerTableRecord
  2
79
 70
     0
 62
    79
  6
CONTINUOUS
  0
LAYER
  5
89
330
2
100
AcDbSymbolTableRecord
100
AcDbLayerTableRecord
  2
80
 70
     0
 62
    80
  6
CONTINUOUS
  0
LAYER
  5
8A
330
2
100
AcDbSymbolTableRecord
100
AcDbLayerTableRecord
  2
81
 70
     0
 62
    81
  6
CONTINUOUS
  0
LAYER
  5
8B
330
2
100
AcDbSymbolTableRecord
100
AcDbLayerTableRecord
  2
82
 70
     0
 62
    82
  6
CONTINUOUS
  0
LAYER
  5
8C
330
2
100
AcDbSymbolTableRecord
100
AcDbLayerTableRecord
  2
83
 70
     0
 62
    83
  6
CONTINUOUS
  0
LAYER
  5
8D
330
2
100
AcDbSymbolTableRecord
100
AcDbLayerTableRecord
  2
84
 70
     0
 62
    84
  6
CONTINUOUS
  0
LAYER
  5
8E
330
2
100
AcDbSymbolTableRecord
100
AcDbLayerTableRecord
  2
85
 70
     0
 62
    85
  6
CONTINUOUS
  0
LAYER
  5
8F
330
2
100
AcDbSymbolTableRecord
100
AcDbLayerTableRecord
  2
86
 70
     0
 62
    86
  6
CONTINUOUS
  0
LAYER
  5
90
330
2
100
AcDbSymbolTableRecord
100
AcDbLayerTableRecord
  2
87
 70
     0
 62
    87
  6
CONTINUOUS
  0
LAYER
  5
91
330
2
100
AcDbSymbolTableRecord
100
AcDbLayerTableRecord
  2
88
 70
     0
 62
    88
  6
CONTINUOUS
  0
LAYER
  5
92
330
2
100
AcDbSymbolTableRecord
100
AcDbLayerTableRecord
  2
89
 70
     0
 62
    89
  6
CONTINUOUS
  0
LAYER
  5
93
330
2
100
AcDbSymbolTableRecord
100
AcDbLayerTableRecord
  2
90
 70
     0
 62
    90
  6
CONTINUOUS
  0
LAYER
  5
94
330
2
100
AcDbSymbolTableRecord
100
AcDbLayerTableRecord
  2
91
 70
     0
 62
    91
  6
CONTINUOUS
  0
LAYER
  5
95
330
2
100
AcDbSymbolTableRecord
100
AcDbLayerTableRecord
  2
92
 70
     0
 62
    92
  6
CONTINUOUS
  0
LAYER
  5
96
330
2
100
AcDbSymbolTableRecord
100
AcDbLayerTableRecord
  2
93
 70
     0
 62
    93
  6
CONTINUOUS
  0
LAYER
  5
97
330
2
100
AcDbSymbolTableRecord
100
AcDbLayerTableRecord
  2
94
 70
     0
 62
    94
  6
CONTINUOUS
  0
LAYER
  5
98
330
2
100
AcDbSymbolTableRecord
100
AcDbLayerTableRecord
  2
95
 70
     0
 62
    95
  6
CONTINUOUS
  0
LAYER
  5
99
330
2
100
AcDbSymbolTableRecord
100
AcDbLayerTableRecord
  2
96
 70
     0
 62
    96
  6
CONTINUOUS
  0
LAYER
  5
9A
330
2
100
AcDbSymbolTableRecord
100
AcDbLayerTableRecord
  2
97
 70
     0
 62
    97
  6
CONTINUOUS
  0
LAYER
  5
9B
330
2
100
AcDbSymbolTableRecord
100
AcDbLayerTableRecord
  2
98
 70
     0
 62
    98
  6
CONTINUOUS
  0
LAYER
  5
9C
330
2
100
AcDbSymbolTableRecord
100
AcDbLayerTableRecord
  2
99
 70
     0
 62
    99
  6
CONTINUOUS
  0
LAYER
  5
9D
330
2
100
AcDbSymbolTableRecord
100
AcDbLayerTableRecord
  2
100
 70
     0
 62
   100
  6
CONTINUOUS
  0
LAYER
  5
9E
330
2
100
AcDbSymbolTableRecord
100
AcDbLayerTableRecord
  2
101
 70
     0
 62
   101
  6
CONTINUOUS
  0
LAYER
  5
9F
330
2
100
AcDbSymbolTableRecord
100
AcDbLayerTableRecord
  2
102
 70
     0
 62
   102
  6
CONTINUOUS
  0
LAYER
  5
A0
330
2
100
AcDbSymbolTableRecord
100
AcDbLayerTableRecord
  2
103
 70
     0
 62
   103
  6
CONTINUOUS
  0
LAYER
  5
A1
330
2
100
AcDbSymbolTableRecord
100
AcDbLayerTableRecord
  2
104
 70
     0
 62
   104
  6
CONTINUOUS
  0
LAYER
  5
A2
330
2
100
AcDbSymbolTableRecord
100
AcDbLayerTableRecord
  2
105
 70
     0
 62
   105
  6
CONTINUOUS
  0
LAYER
  5
A3
330
2
100
AcDbSymbolTableRecord
100
AcDbLayerTableRecord
  2
106
 70
     0
 62
   106
  6
CONTINUOUS
  0
LAYER
  5
A4
330
2
100
AcDbSymbolTableRecord
100
AcDbLayerTableRecord
  2
107
 70
     0
 62
   107
  6
CONTINUOUS
  0
LAYER
  5
A5
330
2
100
AcDbSymbolTableRecord
100
AcDbLayerTableRecord
  2
108
 70
     0
 62
   108
  6
CONTINUOUS
  0
LAYER
  5
A6
330
2
100
AcDbSymbolTableRecord
100
AcDbLayerTableRecord
  2
109
 70
     0
 62
   109
  6
CONTINUOUS
  0
LAYER
  5
A7
330
2
100
AcDbSymbolTableRecord
100
AcDbLayerTableRecord
  2
110
 70
     0
 62
   110
  6
CONTINUOUS
  0
LAYER
  5
A8
330
2
100
AcDbSymbolTableRecord
100
AcDbLayerTableRecord
  2
111
 70
     0
 62
   111
  6
CONTINUOUS
  0
LAYER
  5
A9
330
2
100
AcDbSymbolTableRecord
100
AcDbLayerTableRecord
  2
112
 70
     0
 62
   112
  6
CONTINUOUS
  0
LAYER
  5
AA
330
2
100
AcDbSymbolTableRecord
100
AcDbLayerTableRecord
  2
113
 70
     0
 62
   113
  6
CONTINUOUS
  0
LAYER
  5
AB
330
2
100
AcDbSymbolTableRecord
100
AcDbLayerTableRecord
  2
114
 70
     0
 62
   114
  6
CONTINUOUS
  0
LAYER
  5
AC
330
2
100
AcDbSymbolTableRecord
100
AcDbLayerTableRecord
  2
115
 70
     0
 62
   115
  6
CONTINUOUS
  0
LAYER
  5
AD
330
2
100
AcDbSymbolTableRecord
100
AcDbLayerTableRecord
  2
116
 70
     0
 62
   116
  6
CONTINUOUS
  0
LAYER
  5
AE
330
2
100
AcDbSymbolTableRecord
100
AcDbLayerTableRecord
  2
117
 70
     0
 62
   117
  6
CONTINUOUS
  0
LAYER
  5
AF
330
2
100
AcDbSymbolTableRecord
100
AcDbLayerTableRecord
  2
118
 70
     0
 62
   118
  6
CONTINUOUS
  0
LAYER
  5
B0
330
2
100
AcDbSymbolTableRecord
100
AcDbLayerTableRecord
  2
119
 70
     0
 62
   119
  6
CONTINUOUS
  0
LAYER
  5
B1
330
2
100
AcDbSymbolTableRecord
100
AcDbLayerTableRecord
  2
120
 70
     0
 62
   120
  6
CONTINUOUS
  0
LAYER
  5
B2
330
2
100
AcDbSymbolTableRecord
100
AcDbLayerTableRecord
  2
121
 70
     0
 62
   121
  6
CONTINUOUS
  0
LAYER
  5
B3
330
2
100
AcDbSymbolTableRecord
100
AcDbLayerTableRecord
  2
122
 70
     0
 62
   122
  6
CONTINUOUS
  0
LAYER
  5
B4
330
2
100
AcDbSymbolTableRecord
100
AcDbLayerTableRecord
  2
123
 70
     0
 62
   123
  6
CONTINUOUS
  0
LAYER
  5
B5
330
2
100
AcDbSymbolTableRecord
100
AcDbLayerTableRecord
  2
124
 70
     0
 62
   124
  6
CONTINUOUS
  0
LAYER
  5
B6
330
2
100
AcDbSymbolTableRecord
100
AcDbLayerTableRecord
  2
125
 70
     0
 62
   125
  6
CONTINUOUS
  0
LAYER
  5
B7
330
2
100
AcDbSymbolTableRecord
100
AcDbLayerTableRecord
  2
126
 70
     0
 62
   126
  6
CONTINUOUS
  0
LAYER
  5
B8
330
2
100
AcDbSymbolTableRecord
100
AcDbLayerTableRecord
  2
127
 70
     0
 62
   127
  6
CONTINUOUS
  0
LAYER
  5
B9
330
2
100
AcDbSymbolTableRecord
100
AcDbLayerTableRecord
  2
128
 70
     0
 62
   128
  6
CONTINUOUS
  0
LAYER
  5
BA
330
2
100
AcDbSymbolTableRecord
100
AcDbLayerTableRecord
  2
129
 70
     0
 62
   129
  6
CONTINUOUS
  0
LAYER
  5
BB
330
2
100
AcDbSymbolTableRecord
100
AcDbLayerTableRecord
  2
130
 70
     0
 62
   130
  6
CONTINUOUS
  0
LAYER
  5
BC
330
2
100
AcDbSymbolTableRecord
100
AcDbLayerTableRecord
  2
131
 70
     0
 62
   131
  6
CONTINUOUS
  0
LAYER
  5
BD
330
2
100
AcDbSymbolTableRecord
100
AcDbLayerTableRecord
  2
132
 70
     0
 62
   132
  6
CONTINUOUS
  0
LAYER
  5
BE
330
2
100
AcDbSymbolTableRecord
100
AcDbLayerTableRecord
  2
133
 70
     0
 62
   133
  6
CONTINUOUS
  0
LAYER
  5
BF
330
2
100
AcDbSymbolTableRecord
100
AcDbLayerTableRecord
  2
134
 70
     0
 62
   134
  6
CONTINUOUS
  0
LAYER
  5
C0
330
2
100
AcDbSymbolTableRecord
100
AcDbLayerTableRecord
  2
135
 70
     0
 62
   135
  6
CONTINUOUS
  0
LAYER
  5
C1
330
2
100
AcDbSymbolTableRecord
100
AcDbLayerTableRecord
  2
136
 70
     0
 62
   136
  6
CONTINUOUS
  0
LAYER
  5
C2
330
2
100
AcDbSymbolTableRecord
100
AcDbLayerTableRecord
  2
137
 70
     0
 62
   137
  6
CONTINUOUS
  0
LAYER
  5
C3
330
2
100
AcDbSymbolTableRecord
100
AcDbLayerTableRecord
  2
138
 70
     0
 62
   138
  6
CONTINUOUS
  0
LAYER
  5
C4
330
2
100
AcDbSymbolTableRecord
100
AcDbLayerTableRecord
  2
139
 70
     0
 62
   139
  6
CONTINUOUS
  0
LAYER
  5
C5
330
2
100
AcDbSymbolTableRecord
100
AcDbLayerTableRecord
  2
140
 70
     0
 62
   140
  6
CONTINUOUS
  0
LAYER
  5
C6
330
2
100
AcDbSymbolTableRecord
100
AcDbLayerTableRecord
  2
141
 70
     0
 62
   141
  6
CONTINUOUS
  0
LAYER
  5
C7
330
2
100
AcDbSymbolTableRecord
100
AcDbLayerTableRecord
  2
142
 70
     0
 62
   142
  6
CONTINUOUS
  0
LAYER
  5
C8
330
2
100
AcDbSymbolTableRecord
100
AcDbLayerTableRecord
  2
143
 70
     0
 62
   143
  6
CONTINUOUS
  0
LAYER
  5
C9
330
2
100
AcDbSymbolTableRecord
100
AcDbLayerTableRecord
  2
144
 70
     0
 62
   144
  6
CONTINUOUS
  0
LAYER
  5
CA
330
2
100
AcDbSymbolTableRecord
100
AcDbLayerTableRecord
  2
145
 70
     0
 62
   145
  6
CONTINUOUS
  0
LAYER
  5
CB
330
2
100
AcDbSymbolTableRecord
100
AcDbLayerTableRecord
  2
146
 70
     0
 62
   146
  6
CONTINUOUS
  0
LAYER
  5
CC
330
2
100
AcDbSymbolTableRecord
100
AcDbLayerTableRecord
  2
147
 70
     0
 62
   147
  6
CONTINUOUS
  0
LAYER
  5
CD
330
2
100
AcDbSymbolTableRecord
100
AcDbLayerTableRecord
  2
148
 70
     0
 62
   148
  6
CONTINUOUS
  0
LAYER
  5
CE
330
2
100
AcDbSymbolTableRecord
100
AcDbLayerTableRecord
  2
149
 70
     0
 62
   149
  6
CONTINUOUS
  0
LAYER
  5
CF
330
2
100
AcDbSymbolTableRecord
100
AcDbLayerTableRecord
  2
150
 70
     0
 62
   150
  6
CONTINUOUS
  0
LAYER
  5
D0
330
2
100
AcDbSymbolTableRecord
100
AcDbLayerTableRecord
  2
151
 70
     0
 62
   151
  6
CONTINUOUS
  0
LAYER
  5
D1
330
2
100
AcDbSymbolTableRecord
100
AcDbLayerTableRecord
  2
152
 70
     0
 62
   152
  6
CONTINUOUS
  0
LAYER
  5
D2
330
2
100
AcDbSymbolTableRecord
100
AcDbLayerTableRecord
  2
153
 70
     0
 62
   153
  6
CONTINUOUS
  0
LAYER
  5
D3
330
2
100
AcDbSymbolTableRecord
100
AcDbLayerTableRecord
  2
154
 70
     0
 62
   154
  6
CONTINUOUS
  0
LAYER
  5
D4
330
2
100
AcDbSymbolTableRecord
100
AcDbLayerTableRecord
  2
155
 70
     0
 62
   155
  6
CONTINUOUS
  0
LAYER
  5
D5
330
2
100
AcDbSymbolTableRecord
100
AcDbLayerTableRecord
  2
156
 70
     0
 62
   156
  6
CONTINUOUS
  0
LAYER
  5
D6
330
2
100
AcDbSymbolTableRecord
100
AcDbLayerTableRecord
  2
157
 70
     0
 62
   157
  6
CONTINUOUS
  0
LAYER
  5
D7
330
2
100
AcDbSymbolTableRecord
100
AcDbLayerTableRecord
  2
158
 70
     0
 62
   158
  6
CONTINUOUS
  0
LAYER
  5
D8
330
2
100
AcDbSymbolTableRecord
100
AcDbLayerTableRecord
  2
159
 70
     0
 62
   159
  6
CONTINUOUS
  0
LAYER
  5
D9
330
2
100
AcDbSymbolTableRecord
100
AcDbLayerTableRecord
  2
160
 70
     0
 62
   160
  6
CONTINUOUS
  0
LAYER
  5
DA
330
2
100
AcDbSymbolTableRecord
100
AcDbLayerTableRecord
  2
161
 70
     0
 62
   161
  6
CONTINUOUS
  0
LAYER
  5
DB
330
2
100
AcDbSymbolTableRecord
100
AcDbLayerTableRecord
  2
162
 70
     0
 62
   162
  6
CONTINUOUS
  0
LAYER
  5
DC
330
2
100
AcDbSymbolTableRecord
100
AcDbLayerTableRecord
  2
163
 70
     0
 62
   163
  6
CONTINUOUS
  0
LAYER
  5
DD
330
2
100
AcDbSymbolTableRecord
100
AcDbLayerTableRecord
  2
164
 70
     0
 62
   164
  6
CONTINUOUS
  0
LAYER
  5
DE
330
2
100
AcDbSymbolTableRecord
100
AcDbLayerTableRecord
  2
165
 70
     0
 62
   165
  6
CONTINUOUS
  0
LAYER
  5
DF
330
2
100
AcDbSymbolTableRecord
100
AcDbLayerTableRecord
  2
166
 70
     0
 62
   166
  6
CONTINUOUS
  0
LAYER
  5
E0
330
2
100
AcDbSymbolTableRecord
100
AcDbLayerTableRecord
  2
167
 70
     0
 62
   167
  6
CONTINUOUS
  0
LAYER
  5
E1
330
2
100
AcDbSymbolTableRecord
100
AcDbLayerTableRecord
  2
168
 70
     0
 62
   168
  6
CONTINUOUS
  0
LAYER
  5
E2
330
2
100
AcDbSymbolTableRecord
100
AcDbLayerTableRecord
  2
169
 70
     0
 62
   169
  6
CONTINUOUS
  0
LAYER
  5
E3
330
2
100
AcDbSymbolTableRecord
100
AcDbLayerTableRecord
  2
170
 70
     0
 62
   170
  6
CONTINUOUS
  0
LAYER
  5
E4
330
2
100
AcDbSymbolTableRecord
100
AcDbLayerTableRecord
  2
171
 70
     0
 62
   171
  6
CONTINUOUS
  0
LAYER
  5
E5
330
2
100
AcDbSymbolTableRecord
100
AcDbLayerTableRecord
  2
172
 70
     0
 62
   172
  6
CONTINUOUS
  0
LAYER
  5
E6
330
2
100
AcDbSymbolTableRecord
100
AcDbLayerTableRecord
  2
173
 70
     0
 62
   173
  6
CONTINUOUS
  0
LAYER
  5
E7
330
2
100
AcDbSymbolTableRecord
100
AcDbLayerTableRecord
  2
174
 70
     0
 62
   174
  6
CONTINUOUS
  0
LAYER
  5
E8
330
2
100
AcDbSymbolTableRecord
100
AcDbLayerTableRecord
  2
175
 70
     0
 62
   175
  6
CONTINUOUS
  0
LAYER
  5
E9
330
2
100
AcDbSymbolTableRecord
100
AcDbLayerTableRecord
  2
176
 70
     0
 62
   176
  6
CONTINUOUS
  0
LAYER
  5
EA
330
2
100
AcDbSymbolTableRecord
100
AcDbLayerTableRecord
  2
177
 70
     0
 62
   177
  6
CONTINUOUS
  0
LAYER
  5
EB
330
2
100
AcDbSymbolTableRecord
100
AcDbLayerTableRecord
  2
178
 70
     0
 62
   178
  6
CONTINUOUS
  0
LAYER
  5
EC
330
2
100
AcDbSymbolTableRecord
100
AcDbLayerTableRecord
  2
179
 70
     0
 62
   179
  6
CONTINUOUS
  0
LAYER
  5
ED
330
2
100
AcDbSymbolTableRecord
100
AcDbLayerTableRecord
  2
180
 70
     0
 62
   180
  6
CONTINUOUS
  0
LAYER
  5
EE
330
2
100
AcDbSymbolTableRecord
100
AcDbLayerTableRecord
  2
181
 70
     0
 62
   181
  6
CONTINUOUS
  0
LAYER
  5
EF
330
2
100
AcDbSymbolTableRecord
100
AcDbLayerTableRecord
  2
182
 70
     0
 62
   182
  6
CONTINUOUS
  0
LAYER
  5
F0
330
2
100
AcDbSymbolTableRecord
100
AcDbLayerTableRecord
  2
183
 70
     0
 62
   183
  6
CONTINUOUS
  0
LAYER
  5
F1
330
2
100
AcDbSymbolTableRecord
100
AcDbLayerTableRecord
  2
184
 70
     0
 62
   184
  6
CONTINUOUS
  0
LAYER
  5
F2
330
2
100
AcDbSymbolTableRecord
100
AcDbLayerTableRecord
  2
185
 70
     0
 62
   185
  6
CONTINUOUS
  0
LAYER
  5
F3
330
2
100
AcDbSymbolTableRecord
100
AcDbLayerTableRecord
  2
186
 70
     0
 62
   186
  6
CONTINUOUS
  0
LAYER
  5
F4
330
2
100
AcDbSymbolTableRecord
100
AcDbLayerTableRecord
  2
187
 70
     0
 62
   187
  6
CONTINUOUS
  0
LAYER
  5
F5
330
2
100
AcDbSymbolTableRecord
100
AcDbLayerTableRecord
  2
188
 70
     0
 62
   188
  6
CONTINUOUS
  0
LAYER
  5
F6
330
2
100
AcDbSymbolTableRecord
100
AcDbLayerTableRecord
  2
189
 70
     0
 62
   189
  6
CONTINUOUS
  0
LAYER
  5
F7
330
2
100
AcDbSymbolTableRecord
100
AcDbLayerTableRecord
  2
190
 70
     0
 62
   190
  6
CONTINUOUS
  0
LAYER
  5
F8
330
2
100
AcDbSymbolTableRecord
100
AcDbLayerTableRecord
  2
191
 70
     0
 62
   191
  6
CONTINUOUS
  0
LAYER
  5
F9
330
2
100
AcDbSymbolTableRecord
100
AcDbLayerTableRecord
  2
192
 70
     0
 62
   192
  6
CONTINUOUS
  0
LAYER
  5
FA
330
2
100
AcDbSymbolTableRecord
100
AcDbLayerTableRecord
  2
193
 70
     0
 62
   193
  6
CONTINUOUS
  0
LAYER
  5
FB
330
2
100
AcDbSymbolTableRecord
100
AcDbLayerTableRecord
  2
194
 70
     0
 62
   194
  6
CONTINUOUS
  0
LAYER
  5
FC
330
2
100
AcDbSymbolTableRecord
100
AcDbLayerTableRecord
  2
195
 70
     0
 62
   195
  6
CONTINUOUS
  0
LAYER
  5
FD
330
2
100
AcDbSymbolTableRecord
100
AcDbLayerTableRecord
  2
196
 70
     0
 62
   196
  6
CONTINUOUS
  0
LAYER
  5
FE
330
2
100
AcDbSymbolTableRecord
100
AcDbLayerTableRecord
  2
197
 70
     0
 62
   197
  6
CONTINUOUS
  0
LAYER
  5
FF
330
2
100
AcDbSymbolTableRecord
100
AcDbLayerTableRecord
  2
198
 70
     0
 62
   198
  6
CONTINUOUS
  0
LAYER
  5
100
330
2
100
AcDbSymbolTableRecord
100
AcDbLayerTableRecord
  2
199
 70
     0
 62
   199
  6
CONTINUOUS
  0
LAYER
  5
101
330
2
100
AcDbSymbolTableRecord
100
AcDbLayerTableRecord
  2
200
 70
     0
 62
   200
  6
CONTINUOUS
  0
LAYER
  5
102
330
2
100
AcDbSymbolTableRecord
100
AcDbLayerTableRecord
  2
201
 70
     0
 62
   201
  6
CONTINUOUS
  0
LAYER
  5
103
330
2
100
AcDbSymbolTableRecord
100
AcDbLayerTableRecord
  2
202
 70
     0
 62
   202
  6
CONTINUOUS
  0
LAYER
  5
104
330
2
100
AcDbSymbolTableRecord
100
AcDbLayerTableRecord
  2
203
 70
     0
 62
   203
  6
CONTINUOUS
  0
LAYER
  5
105
330
2
100
AcDbSymbolTableRecord
100
AcDbLayerTableRecord
  2
204
 70
     0
 62
   204
  6
CONTINUOUS
  0
LAYER
  5
106
330
2
100
AcDbSymbolTableRecord
100
AcDbLayerTableRecord
  2
205
 70
     0
 62
   205
  6
CONTINUOUS
  0
LAYER
  5
107
330
2
100
AcDbSymbolTableRecord
100
AcDbLayerTableRecord
  2
206
 70
     0
 62
   206
  6
CONTINUOUS
  0
LAYER
  5
108
330
2
100
AcDbSymbolTableRecord
100
AcDbLayerTableRecord
  2
207
 70
     0
 62
   207
  6
CONTINUOUS
  0
LAYER
  5
109
330
2
100
AcDbSymbolTableRecord
100
AcDbLayerTableRecord
  2
208
 70
     0
 62
   208
  6
CONTINUOUS
  0
LAYER
  5
10A
330
2
100
AcDbSymbolTableRecord
100
AcDbLayerTableRecord
  2
209
 70
     0
 62
   209
  6
CONTINUOUS
  0
LAYER
  5
10B
330
2
100
AcDbSymbolTableRecord
100
AcDbLayerTableRecord
  2
210
 70
     0
 62
   210
  6
CONTINUOUS
  0
LAYER
  5
10C
330
2
100
AcDbSymbolTableRecord
100
AcDbLayerTableRecord
  2
211
 70
     0
 62
   211
  6
CONTINUOUS
  0
LAYER
  5
10D
330
2
100
AcDbSymbolTableRecord
100
AcDbLayerTableRecord
  2
212
 70
     0
 62
   212
  6
CONTINUOUS
  0
LAYER
  5
10E
330
2
100
AcDbSymbolTableRecord
100
AcDbLayerTableRecord
  2
213
 70
     0
 62
   213
  6
CONTINUOUS
  0
LAYER
  5
10F
330
2
100
AcDbSymbolTableRecord
100
AcDbLayerTableRecord
  2
214
 70
     0
 62
   214
  6
CONTINUOUS
  0
LAYER
  5
110
330
2
100
AcDbSymbolTableRecord
100
AcDbLayerTableRecord
  2
215
 70
     0
 62
   215
  6
CONTINUOUS
  0
LAYER
  5
111
330
2
100
AcDbSymbolTableRecord
100
AcDbLayerTableRecord
  2
216
 70
     0
 62
   216
  6
CONTINUOUS
  0
LAYER
  5
112
330
2
100
AcDbSymbolTableRecord
100
AcDbLayerTableRecord
  2
217
 70
     0
 62
   217
  6
CONTINUOUS
  0
LAYER
  5
113
330
2
100
AcDbSymbolTableRecord
100
AcDbLayerTableRecord
  2
218
 70
     0
 62
   218
  6
CONTINUOUS
  0
LAYER
  5
114
330
2
100
AcDbSymbolTableRecord
100
AcDbLayerTableRecord
  2
219
 70
     0
 62
   219
  6
CONTINUOUS
  0
LAYER
  5
115
330
2
100
AcDbSymbolTableRecord
100
AcDbLayerTableRecord
  2
220
 70
     0
 62
   220
  6
CONTINUOUS
  0
LAYER
  5
116
330
2
100
AcDbSymbolTableRecord
100
AcDbLayerTableRecord
  2
221
 70
     0
 62
   221
  6
CONTINUOUS
  0
LAYER
  5
117
330
2
100
AcDbSymbolTableRecord
100
AcDbLayerTableRecord
  2
222
 70
     0
 62
   222
  6
CONTINUOUS
  0
LAYER
  5
118
330
2
100
AcDbSymbolTableRecord
100
AcDbLayerTableRecord
  2
223
 70
     0
 62
   223
  6
CONTINUOUS
  0
LAYER
  5
119
330
2
100
AcDbSymbolTableRecord
100
AcDbLayerTableRecord
  2
224
 70
     0
 62
   224
  6
CONTINUOUS
  0
LAYER
  5
11A
330
2
100
AcDbSymbolTableRecord
100
AcDbLayerTableRecord
  2
225
 70
     0
 62
   225
  6
CONTINUOUS
  0
LAYER
  5
11B
330
2
100
AcDbSymbolTableRecord
100
AcDbLayerTableRecord
  2
226
 70
     0
 62
   226
  6
CONTINUOUS
  0
LAYER
  5
11C
330
2
100
AcDbSymbolTableRecord
100
AcDbLayerTableRecord
  2
227
 70
     0
 62
   227
  6
CONTINUOUS
  0
LAYER
  5
11D
330
2
100
AcDbSymbolTableRecord
100
AcDbLayerTableRecord
  2
228
 70
     0
 62
   228
  6
CONTINUOUS
  0
LAYER
  5
11E
330
2
100
AcDbSymbolTableRecord
100
AcDbLayerTableRecord
  2
229
 70
     0
 62
   229
  6
CONTINUOUS
  0
LAYER
  5
11F
330
2
100
AcDbSymbolTableRecord
100
AcDbLayerTableRecord
  2
230
 70
     0
 62
   230
  6
CONTINUOUS
  0
LAYER
  5
120
330
2
100
AcDbSymbolTableRecord
100
AcDbLayerTableRecord
  2
231
 70
     0
 62
   231
  6
CONTINUOUS
  0
LAYER
  5
121
330
2
100
AcDbSymbolTableRecord
100
AcDbLayerTableRecord
  2
232
 70
     0
 62
   232
  6
CONTINUOUS
  0
LAYER
  5
122
330
2
100
AcDbSymbolTableRecord
100
AcDbLayerTableRecord
  2
233
 70
     0
 62
   233
  6
CONTINUOUS
  0
LAYER
  5
123
330
2
100
AcDbSymbolTableRecord
100
AcDbLayerTableRecord
  2
234
 70
     0
 62
   234
  6
CONTINUOUS
  0
LAYER
  5
124
330
2
100
AcDbSymbolTableRecord
100
AcDbLayerTableRecord
  2
235
 70
     0
 62
   235
  6
CONTINUOUS
  0
LAYER
  5
125
330
2
100
AcDbSymbolTableRecord
100
AcDbLayerTableRecord
  2
236
 70
     0
 62
   236
  6
CONTINUOUS
  0
LAYER
  5
126
330
2
100
AcDbSymbolTableRecord
100
AcDbLayerTableRecord
  2
237
 70
     0
 62
   237
  6
CONTINUOUS
  0
LAYER
  5
127
330
2
100
AcDbSymbolTableRecord
100
AcDbLayerTableRecord
  2
238
 70
     0
 62
   238
  6
CONTINUOUS
  0
LAYER
  5
128
330
2
100
AcDbSymbolTableRecord
100
AcDbLayerTableRecord
  2
239
 70
     0
 62
   239
  6
CONTINUOUS
  0
LAYER
  5
129
330
2
100
AcDbSymbolTableRecord
100
AcDbLayerTableRecord
  2
240
 70
     0
 62
   240
  6
CONTINUOUS
  0
LAYER
  5
12A
330
2
100
AcDbSymbolTableRecord
100
AcDbLayerTableRecord
  2
241
 70
     0
 62
   241
  6
CONTINUOUS
  0
LAYER
  5
12B
330
2
100
AcDbSymbolTableRecord
100
AcDbLayerTableRecord
  2
242
 70
     0
 62
   242
  6
CONTINUOUS
  0
LAYER
  5
12C
330
2
100
AcDbSymbolTableRecord
100
AcDbLayerTableRecord
  2
243
 70
     0
 62
   243
  6
CONTINUOUS
  0
LAYER
  5
12D
330
2
100
AcDbSymbolTableRecord
100
AcDbLayerTableRecord
  2
244
 70
     0
 62
   244
  6
CONTINUOUS
  0
LAYER
  5
12E
330
2
100
AcDbSymbolTableRecord
100
AcDbLayerTableRecord
  2
245
 70
     0
 62
   245
  6
CONTINUOUS
  0
LAYER
  5
12F
330
2
100
AcDbSymbolTableRecord
100
AcDbLayerTableRecord
  2
246
 70
     0
 62
   246
  6
CONTINUOUS
  0
LAYER
  5
130
330
2
100
AcDbSymbolTableRecord
100
AcDbLayerTableRecord
  2
247
 70
     0
 62
   247
  6
CONTINUOUS
  0
LAYER
  5
131
330
2
100
AcDbSymbolTableRecord
100
AcDbLayerTableRecord
  2
248
 70
     0
 62
   248
  6
CONTINUOUS
  0
LAYER
  5
132
330
2
100
AcDbSymbolTableRecord
100
AcDbLayerTableRecord
  2
249
 70
     0
 62
   249
  6
CONTINUOUS
  0
LAYER
  5
133
330
2
100
AcDbSymbolTableRecord
100
AcDbLayerTableRecord
  2
250
 70
     0
 62
   250
  6
CONTINUOUS
  0
LAYER
  5
134
330
2
100
AcDbSymbolTableRecord
100
AcDbLayerTableRecord
  2
251
 70
     0
 62
   251
  6
CONTINUOUS
  0
LAYER
  5
135
330
2
100
AcDbSymbolTableRecord
100
AcDbLayerTableRecord
  2
252
 70
     0
 62
   252
  6
CONTINUOUS
  0
LAYER
  5
136
330
2
100
AcDbSymbolTableRecord
100
AcDbLayerTableRecord
  2
253
 70
     0
 62
   253
  6
CONTINUOUS
  0
LAYER
  5
137
330
2
100
AcDbSymbolTableRecord
100
AcDbLayerTableRecord
  2
254
 70
     0
 62
   254
  6
CONTINUOUS
  0
LAYER
  5
138
330
2
100
AcDbSymbolTableRecord
100
AcDbLayerTableRecord
  2
255
 70
     0
 62
   255
  6
CONTINUOUS
  0
ENDTAB
  0
TABLE
  2
STYLE
  5
3
330
0
100
AcDbSymbolTable
 70
     1
  0
STYLE
  5
11
330
3
100
AcDbSymbolTableRecord
100
AcDbTextStyleTableRecord
  2
STANDARD
 70
     0
 40
0.0
 41
1.0
 50
0.0
 71
     0
 42
0.2
  3
monotxt
  4

  0
ENDTAB
  0
TABLE
  2
VIEW
  5
6
330
0
100
AcDbSymbolTable
 70
     0
  0
ENDTAB
  0
TABLE
  2
UCS
  5
7
330
0
100
AcDbSymbolTable
 70
     0
  0
ENDTAB
  0
TABLE
  2
APPID
  5
9
330
0
100
AcDbSymbolTable
 70
     1
  0
APPID
  5
12
330
9
100
AcDbSymbolTableRecord
100
AcDbRegAppTableRecord
  2
ACAD
 70
     0
  0
ENDTAB
  0
TABLE
  2
DIMSTYLE
  5
A
330
0
100
AcDbSymbolTable
 70
     1
  0
DIMSTYLE
105
2B66
330
A
100
AcDbSymbolTableRecord
100
AcDbDimStyleTableRecord
  2
STANDARD
 70
     0
  3

  4

  5

  6

  7

 40
1.0
 41
0.18
 42
0.0625
 43
0.38
 44
0.18
 45
0.0
 46
0.0
 47
0.0
 48
0.0
140
0.18
141
0.09
142
0.0
143
25.4
144
1.0
145
0.0
146
1.0
147
0.09
 71
     0
 72
     0
 73
     1
 74
     1
 75
     0
 76
     0
 77
     0
 78
     0
170
     0
171
     2
172
     0
173
     0
174
     0
175
     0
176
     0
177
     0
178
     0
270
     2
271
     4
272
     4
273
     2
274
     2
340
11
275
     0
280
     0
281
     0
282
     0
283
     1
284
     0
285
     0
286
     0
287
     3
288
     0
  0
ENDTAB
  0
TABLE
  2
BLOCK_RECORD
  5
1
330
0
100
AcDbSymbolTable
 70
     0
  0
BLOCK_RECORD
  5
1E
102
{ACAD_XDICTIONARY
360
3FB6
102
}
330
1
100
AcDbSymbolTableRecord
100
AcDbBlockTableRecord
  2
*MODEL_SPACE
  0
BLOCK_RECORD
  5
1A
102
{ACAD_XDICTIONARY
360
3FB8
102
}
330
1
100
AcDbSymbolTableRecord
100
AcDbBlockTableRecord
  2
*PAPER_SPACE
  0
ENDTAB
  0
ENDSEC
  0
SECTION
  2
BLOCKS
  0
BLOCK
  5
13B
330
1E
100
AcDbEntity
  8
0
100
AcDbBlockBegin
  2
*MODEL_SPACE
 70
     0
 10
0.0
 20
0.0
 30
0.0
  3
*MODEL_SPACE
  1

  0
ENDBLK
  5
13C
330
1E
100
AcDbEntity
  8
0
100
AcDbBlockEnd
  0
BLOCK
  5
139
330
1A
100
AcDbEntity
 67
     1
  8
0
100
AcDbBlockBegin
  2
*PAPER_SPACE
 70
     0
 10
0.0
 20
0.0
 30
0.0
  3
*PAPER_SPACE
  1

  0
ENDBLK
  5
13A
330
1A
100
AcDbEntity
 67
     1
  8
0
100
AcDbBlockEnd
  0
ENDSEC
  0
SECTION
  2
ENTITIES
  0
LINE
  5
26A2
330
1E
100
AcDbEntity
  8
7
100
AcDbLine
 10
1.115601053795745
 20
6.114594693515625
 30
0.0
 11
1.090992932240627
 21
6.10311090345657
 31
0.0
  0
LINE
  5
26A8
330
1E
100
AcDbEntity
  8
7
100
AcDbLine
 10
1.115601053795745
 20
6.140843356507751
 30
0.0
 11
1.115601053795745
 21
6.129359566448696
 31
0.0
  0
LINE
  5
26AE
330
1E
100
AcDbEntity
  8
7
100
AcDbLine
 10
1.115601053795745
 20
6.21138663829909
 30
0.0
 11
1.115601053795745
 21
6.181856892432949
 31
0.0
  0
LINE
  5
26BD
330
1E
100
AcDbEntity
  8
7
100
AcDbLine
 10
0.9728739487760611
 20
6.10311090345657
 30
0.0
 11
1.090992932240627
 21
6.10311090345657
 31
0.0
  0
LINE
  5
26C3
330
1E
100
AcDbEntity
  8
7
100
AcDbLine
 10
1.465036379878423
 20
6.101470362019562
 30
0.0
 11
1.463395838441414
 21
6.10311090345657
 31
0.0
  0
LINE
  5
26C4
330
1E
100
AcDbEntity
  8
7
100
AcDbLine
 10
1.345276854976848
 20
6.10311090345657
 30
0.0
 11
1.463395838441414
 21
6.10311090345657
 31
0.0
  0
LINE
  5
26C5
330
1E
100
AcDbEntity
  8
7
100
AcDbLine
 10
0.6874197387366907
 20
6.21138663829909
 30
0.0
 11
0.6874197387366907
 21
6.181856892432949
 31
0.0
  0
LINE
  5
26C6
330
1E
100
AcDbEntity
  8
7
100
AcDbLine
 10
0.6874197387366907
 20
6.176935268121925
 30
0.0
 11
0.6874197387366907
 21
6.181856892432949
 31
0.0
  0
LINE
  5
26C7
330
1E
100
AcDbEntity
  8
7
100
AcDbLine
 10
0.6857791972996825
 20
6.140843356507751
 30
0.0
 11
0.6874197387366907
 21
6.176935268121925
 31
0.0
  0
LINE
  5
26C8
330
1E
100
AcDbEntity
  8
7
100
AcDbLine
 10
0.6857791972996825
 20
6.140843356507751
 30
0.0
 11
0.6857791972996825
 21
6.129359566448696
 31
0.0
  0
LINE
  5
26CE
330
1E
100
AcDbEntity
  8
7
100
AcDbLine
 10
0.7103873188548011
 20
6.10311090345657
 30
0.0
 11
0.6874197387366907
 21
6.114594693515625
 31
0.0
  0
LINE
  5
26CF
330
1E
100
AcDbEntity
  8
7
100
AcDbLine
 10
0.4807115176736981
 20
6.114594693515625
 30
0.0
 11
0.6874197387366907
 21
6.114594693515625
 31
0.0
  0
LINE
  5
26D0
330
1E
100
AcDbEntity
  8
7
100
AcDbLine
 10
0.4807115176736981
 20
6.114594693515625
 30
0.0
 11
0.4561033961185803
 21
6.10311090345657
 31
0.0
  0
LINE
  5
26D1
330
1E
100
AcDbEntity
  8
7
100
AcDbLine
 10
0.3379844126540137
 20
6.10311090345657
 30
0.0
 11
0.4561033961185803
 21
6.10311090345657
 31
0.0
  0
LINE
  5
26D2
330
1E
100
AcDbEntity
  8
7
100
AcDbLine
 10
0.3379844126540137
 20
6.101470362019562
 30
0.0
 11
0.3379844126540137
 21
6.10311090345657
 31
0.0
  0
LINE
  5
26D3
330
1E
100
AcDbEntity
  8
7
100
AcDbLine
 10
0.8301468437563759
 20
6.101470362019562
 30
0.0
 11
0.3379844126540137
 21
6.101470362019562
 31
0.0
  0
LINE
  5
26D4
330
1E
100
AcDbEntity
  8
7
100
AcDbLine
 10
0.8285063023193677
 20
6.10311090345657
 30
0.0
 11
0.8301468437563759
 21
6.101470362019562
 31
0.0
  0
LINE
  5
26D5
330
1E
100
AcDbEntity
  8
7
100
AcDbLine
 10
0.7103873188548011
 20
6.10311090345657
 30
0.0
 11
0.8285063023193677
 21
6.10311090345657
 31
0.0
  0
LINE
  5
26DB
330
1E
100
AcDbEntity
  8
7
100
AcDbLine
 10
0.4807115176736981
 20
6.140843356507751
 30
0.0
 11
0.4807115176736981
 21
6.129359566448696
 31
0.0
  0
LINE
  5
26DC
330
1E
100
AcDbEntity
  8
7
100
AcDbLine
 10
0.4807115176736981
 20
6.176935268121925
 30
0.0
 11
0.4807115176736981
 21
6.140843356507751
 31
0.0
  0
LINE
  5
26DD
330
1E
100
AcDbEntity
  8
7
100
AcDbLine
 10
0.4807115176736981
 20
6.181856892432949
 30
0.0
 11
0.4807115176736981
 21
6.176935268121925
 31
0.0
  0
LINE
  5
26DE
330
1E
100
AcDbEntity
  8
7
100
AcDbLine
 10
0.4807115176736981
 20
6.21138663829909
 30
0.0
 11
0.4807115176736981
 21
6.181856892432949
 31
0.0
  0
LINE
  5
26DF
330
1E
100
AcDbEntity
  8
7
100
AcDbLine
 10
1.530658037358738
 20
6.167092019499877
 30
0.0
 11
1.463395838441414
 21
6.167092019499877
 31
0.0
  0
LINE
  5
26E0
330
1E
100
AcDbEntity
  8
7
100
AcDbLine
 10
0.3379844126540137
 20
6.167092019499877
 30
0.0
 11
0.3379844126540137
 21
6.10311090345657
 31
0.0
  0
LINE
  5
26E1
330
1E
100
AcDbEntity
  8
7
100
AcDbLine
 10
0.3379844126540137
 20
6.167092019499877
 30
0.0
 11
0.1936167661973203
 21
6.167092019499877
 31
0.0
  0
LINE
  5
26E2
330
1E
100
AcDbEntity
  8
7
100
AcDbLine
 10
0.4954763906067692
 20
6.828230218614051
 30
0.0
 11
0.0361247882445648
 21
6.828230218614051
 31
0.0
  0
LINE
  5
26E8
330
1E
100
AcDbEntity
  8
7
100
AcDbLine
 10
0.4954763906067692
 20
6.828230218614051
 30
0.0
 11
0.4954763906067692
 21
6.788857224125862
 31
0.0
  0
LINE
  5
26E9
330
1E
100
AcDbEntity
  8
7
100
AcDbLine
 10
1.132006468165824
 20
6.828230218614051
 30
0.0
 11
0.6710143243666123
 21
6.828230218614051
 31
0.0
  0
LINE
  5
26EF
330
1E
100
AcDbEntity
  8
7
100
AcDbLine
 10
1.132006468165824
 20
6.828230218614051
 30
0.0
 11
1.132006468165824
 21
6.788857224125862
 31
0.0
  0
LINE
  5
26F0
330
1E
100
AcDbEntity
  8
7
100
AcDbLine
 10
1.530658037358738
 20
6.828230218614051
 30
0.0
 11
1.305903860488659
 21
6.828230218614051
 31
0.0
  0
LINE
  5
26F1
330
1E
100
AcDbEntity
  8
7
100
AcDbLine
 10
1.530658037358738
 20
6.828230218614051
 30
0.0
 11
1.530658037358738
 21
6.167092019499877
 31
0.0
  0
LINE
  5
26F2
330
1E
100
AcDbEntity
  8
7
100
AcDbLine
 10
1.463395838441414
 20
6.10311090345657
 30
0.0
 11
1.463395838441414
 21
6.167092019499877
 31
0.0
  0
LINE
  5
26F3
330
1E
100
AcDbEntity
  8
7
100
AcDbLine
 10
0.9728739487760611
 20
6.167092019499877
 30
0.0
 11
0.9728739487760611
 21
6.10311090345657
 31
0.0
  0
LINE
  5
26F4
330
1E
100
AcDbEntity
  8
7
100
AcDbLine
 10
0.9728739487760611
 20
6.167092019499877
 30
0.0
 11
0.8285063023193677
 21
6.167092019499877
 31
0.0
  0
LINE
  5
26F5
330
1E
100
AcDbEntity
  8
7
100
AcDbLine
 10
0.8285063023193677
 20
6.10311090345657
 30
0.0
 11
0.8285063023193677
 21
6.167092019499877
 31
0.0
  0
LINE
  5
26F6
330
1E
100
AcDbEntity
  8
7
100
AcDbLine
 10
1.532298578795745
 20
6.828230218614051
 30
0.0
 11
1.530658037358738
 21
6.828230218614051
 31
0.0
  0
LINE
  5
26F7
330
1E
100
AcDbEntity
  8
7
100
AcDbLine
 10
1.530658037358738
 20
6.167092019499877
 30
0.0
 11
1.532298578795745
 21
6.167092019499877
 31
0.0
  0
LINE
  5
26F8
330
1E
100
AcDbEntity
  8
7
100
AcDbLine
 10
1.532298578795745
 20
6.828230218614051
 30
0.0
 11
1.532298578795745
 21
6.167092019499877
 31
0.0
  0
LINE
  5
26F9
330
1E
100
AcDbEntity
  8
7
100
AcDbLine
 10
1.305903860488659
 20
6.828230218614051
 30
0.0
 11
1.132006468165824
 21
6.828230218614051
 31
0.0
  0
LINE
  5
26FA
330
1E
100
AcDbEntity
  8
7
100
AcDbLine
 10
0.6710143243666123
 20
6.828230218614051
 30
0.0
 11
0.4954763906067692
 21
6.828230218614051
 31
0.0
  0
LINE
  5
26FB
330
1E
100
AcDbEntity
  8
7
100
AcDbLine
 10
0.8301468437563759
 20
6.167092019499877
 30
0.0
 11
0.8301468437563759
 21
6.101470362019562
 31
0.0
  0
LINE
  5
26FC
330
1E
100
AcDbEntity
  8
7
100
AcDbLine
 10
0.8301468437563759
 20
6.167092019499877
 30
0.0
 11
0.8285063023193677
 21
6.167092019499877
 31
0.0
  0
LINE
  5
26FD
330
1E
100
AcDbEntity
  8
7
100
AcDbLine
 10
0.3379844126540137
 20
6.101470362019562
 30
0.0
 11
0.3379844126540137
 21
6.167092019499877
 31
0.0
  0
LINE
  5
2703
330
1E
100
AcDbEntity
  8
7
100
AcDbLine
 10
0.9728739487760611
 20
6.167092019499877
 30
0.0
 11
0.9728739487760611
 21
6.101470362019562
 31
0.0
  0
LINE
  5
2704
330
1E
100
AcDbEntity
  8
7
100
AcDbLine
 10
0.1952573076343285
 20
6.167092019499877
 30
0.0
 11
0.3379844126540137
 21
6.167092019499877
 31
0.0
  0
LINE
  5
2705
330
1E
100
AcDbEntity
  8
7
100
AcDbLine
 10
0.1952573076343285
 20
6.167092019499877
 30
0.0
 11
0.1936167661973203
 21
6.167092019499877
 31
0.0
  0
LINE
  5
2706
330
1E
100
AcDbEntity
  8
7
100
AcDbLine
 10
1.465036379878423
 20
6.167092019499877
 30
0.0
 11
1.532298578795745
 21
6.167092019499877
 31
0.0
  0
LINE
  5
2707
330
1E
100
AcDbEntity
  8
7
100
AcDbLine
 10
0.8301468437563759
 20
6.167092019499877
 30
0.0
 11
0.9728739487760611
 21
6.167092019499877
 31
0.0
  0
LINE
  5
2708
330
1E
100
AcDbEntity
  8
7
100
AcDbLine
 10
-0.9990568585074051
 20
6.828230218614051
 30
0.0
 11
1.532298578795745
 21
6.828230218614051
 31
0.0
  0
LINE
  5
2713
330
1E
100
AcDbEntity
  8
7
100
AcDbLine
 10
-0.5839998749444125
 20
6.114594693515625
 30
0.0
 11
-0.5593917533892938
 21
6.10311090345657
 31
0.0
  0
LINE
  5
2714
330
1E
100
AcDbEntity
  8
7
100
AcDbLine
 10
-0.5839998749444125
 20
6.21138663829909
 30
0.0
 11
-0.5839998749444125
 21
6.181856892432949
 31
0.0
  0
LINE
  5
2715
330
1E
100
AcDbEntity
  8
7
100
AcDbLine
 10
-0.5839998749444125
 20
6.176935268121925
 30
0.0
 11
-0.5839998749444125
 21
6.181856892432949
 31
0.0
  0
LINE
  5
2716
330
1E
100
AcDbEntity
  8
7
100
AcDbLine
 10
-0.5839998749444125
 20
6.140843356507751
 30
0.0
 11
-0.5839998749444125
 21
6.176935268121925
 31
0.0
  0
LINE
  5
2717
330
1E
100
AcDbEntity
  8
7
100
AcDbLine
 10
-0.5839998749444125
 20
6.140843356507751
 30
0.0
 11
-0.5839998749444125
 21
6.129359566448696
 31
0.0
  0
LINE
  5
271D
330
1E
100
AcDbEntity
  8
7
100
AcDbLine
 10
-0.8136756761255146
 20
6.10311090345657
 30
0.0
 11
-0.7890675545703969
 21
6.114594693515625
 31
0.0
  0
LINE
  5
2723
330
1E
100
AcDbEntity
  8
7
100
AcDbLine
 10
-0.7890675545703969
 20
6.140843356507751
 30
0.0
 11
-0.7890675545703969
 21
6.129359566448696
 31
0.0
  0
LINE
  5
2724
330
1E
100
AcDbEntity
  8
7
100
AcDbLine
 10
-0.7890675545703969
 20
6.176935268121925
 30
0.0
 11
-0.7890675545703969
 21
6.140843356507751
 31
0.0
  0
LINE
  5
2725
330
1E
100
AcDbEntity
  8
7
100
AcDbLine
 10
-0.7890675545703969
 20
6.181856892432949
 30
0.0
 11
-0.7890675545703969
 21
6.176935268121925
 31
0.0
  0
LINE
  5
2726
330
1E
100
AcDbEntity
  8
7
100
AcDbLine
 10
-0.7890675545703969
 20
6.21138663829909
 30
0.0
 11
-0.7890675545703969
 21
6.181856892432949
 31
0.0
  0
LINE
  5
2727
330
1E
100
AcDbEntity
  8
7
100
AcDbLine
 10
-0.8136756761255146
 20
6.10311090345657
 30
0.0
 11
-0.9317946595900821
 21
6.10311090345657
 31
0.0
  0
LINE
  5
2728
330
1E
100
AcDbEntity
  8
7
100
AcDbLine
 10
-0.9317946595900821
 20
6.101470362019562
 30
0.0
 11
-0.9317946595900821
 21
6.10311090345657
 31
0.0
  0
LINE
  5
2729
330
1E
100
AcDbEntity
  8
7
100
AcDbLine
 10
-0.4412727699247272
 20
6.101470362019562
 30
0.0
 11
-0.9317946595900821
 21
6.101470362019562
 31
0.0
  0
LINE
  5
272A
330
1E
100
AcDbEntity
  8
7
100
AcDbLine
 10
-0.4412727699247272
 20
6.10311090345657
 30
0.0
 11
-0.4412727699247272
 21
6.101470362019562
 31
0.0
  0
LINE
  5
272B
330
1E
100
AcDbEntity
  8
7
100
AcDbLine
 10
-0.4412727699247272
 20
6.10311090345657
 30
0.0
 11
-0.5593917533892938
 21
6.10311090345657
 31
0.0
  0
LINE
  5
272C
330
1E
100
AcDbEntity
  8
7
100
AcDbLine
 10
-0.7890675545703969
 20
6.114594693515625
 30
0.0
 11
-0.5839998749444125
 21
6.114594693515625
 31
0.0
  0
LINE
  5
2733
330
1E
100
AcDbEntity
  8
7
100
AcDbLine
 10
-0.1541780184483494
 20
6.140843356507751
 30
0.0
 11
-0.1541780184483494
 21
6.129359566448696
 31
0.0
  0
LINE
  5
2739
330
1E
100
AcDbEntity
  8
7
100
AcDbLine
 10
-0.1541780184483494
 20
6.21138663829909
 30
0.0
 11
-0.1541780184483494
 21
6.181856892432949
 31
0.0
  0
LINE
  5
2742
330
1E
100
AcDbEntity
  8
7
100
AcDbLine
 10
0.0525302026146433
 20
6.114594693515625
 30
0.0
 11
0.0754977827327537
 21
6.10311090345657
 31
0.0
  0
LINE
  5
2743
330
1E
100
AcDbEntity
  8
7
100
AcDbLine
 10
0.0525302026146433
 20
6.114594693515625
 30
0.0
 11
-0.1541780184483494
 21
6.114594693515625
 31
0.0
  0
LINE
  5
2750
330
1E
100
AcDbEntity
  8
7
100
AcDbLine
 10
-0.9990568585074051
 20
6.167092019499877
 30
0.0
 11
-0.9317946595900821
 21
6.167092019499877
 31
0.0
  0
LINE
  5
2751
330
1E
100
AcDbEntity
  8
7
100
AcDbLine
 10
0.1936167661973203
 20
6.167092019499877
 30
0.0
 11
0.1936167661973203
 21
6.10311090345657
 31
0.0
  0
LINE
  5
2757
330
1E
100
AcDbEntity
  8
7
100
AcDbLine
 10
0.0361247882445648
 20
6.828230218614051
 30
0.0
 11
0.0361247882445648
 21
6.788857224125862
 31
0.0
  0
LINE
  5
275D
330
1E
100
AcDbEntity
  8
7
100
AcDbLine
 10
-0.5987647478774827
 20
6.828230218614051
 30
0.0
 11
-0.5987647478774827
 21
6.788857224125862
 31
0.0
  0
LINE
  5
275E
330
1E
100
AcDbEntity
  8
7
100
AcDbLine
 10
-0.9990568585074051
 20
6.828230218614051
 30
0.0
 11
-0.9990568585074051
 21
6.167092019499877
 31
0.0
  0
LINE
  5
275F
330
1E
100
AcDbEntity
  8
7
100
AcDbLine
 10
-0.9317946595900821
 20
6.10311090345657
 30
0.0
 11
-0.9317946595900821
 21
6.167092019499877
 31
0.0
  0
LINE
  5
2760
330
1E
100
AcDbEntity
  8
7
100
AcDbLine
 10
-0.4412727699247272
 20
6.167092019499877
 30
0.0
 11
-0.4412727699247272
 21
6.10311090345657
 31
0.0
  0
LINE
  5
2761
330
1E
100
AcDbEntity
  8
7
100
AcDbLine
 10
-0.4412727699247272
 20
6.167092019499877
 30
0.0
 11
-0.2969051234680346
 21
6.167092019499877
 31
0.0
  0
LINE
  5
2762
330
1E
100
AcDbEntity
  8
7
100
AcDbLine
 10
-0.2969051234680346
 20
6.10311090345657
 30
0.0
 11
-0.2969051234680346
 21
6.167092019499877
 31
0.0
  0
LINE
  5
2763
330
1E
100
AcDbEntity
  8
7
100
AcDbLine
 10
-0.9990568585074051
 20
6.828230218614051
 30
0.0
 11
-0.9990568585074051
 21
6.167092019499877
 31
0.0
  0
LINE
  5
2764
330
1E
100
AcDbEntity
  8
7
100
AcDbLine
 10
-0.2969051234680346
 20
6.167092019499877
 30
0.0
 11
-0.2969051234680346
 21
6.101470362019562
 31
0.0
  0
LINE
  5
2765
330
1E
100
AcDbEntity
  8
7
100
AcDbLine
 10
0.1952573076343285
 20
6.101470362019562
 30
0.0
 11
0.1952573076343285
 21
6.167092019499877
 31
0.0
  0
LINE
  5
2766
330
1E
100
AcDbEntity
  8
7
100
AcDbLine
 10
-0.9317946595900821
 20
6.101470362019562
 30
0.0
 11
-0.9317946595900821
 21
6.167092019499877
 31
0.0
  0
LINE
  5
2767
330
1E
100
AcDbEntity
  8
7
100
AcDbLine
 10
-0.4412727699247272
 20
6.167092019499877
 30
0.0
 11
-0.4412727699247272
 21
6.101470362019562
 31
0.0
  0
LINE
  5
2768
330
1E
100
AcDbEntity
  8
7
100
AcDbLine
 10
-0.9317946595900821
 20
6.167092019499877
 30
0.0
 11
-0.9990568585074051
 21
6.167092019499877
 31
0.0
  0
LINE
  5
2769
330
1E
100
AcDbEntity
  8
7
100
AcDbLine
 10
-0.2969051234680346
 20
6.167092019499877
 30
0.0
 11
-0.4412727699247272
 21
6.167092019499877
 31
0.0
  0
LINE
  5
276A
330
1E
100
AcDbEntity
  8
7
100
AcDbLine
 10
1.115601053795745
 20
6.129359566448696
 30
0.0
 11
1.320668733421729
 21
6.129359566448696
 31
0.0
  0
LINE
  5
276B
330
1E
100
AcDbEntity
  8
7
100
AcDbLine
 10
1.115601053795745
 20
6.140843356507751
 30
0.0
 11
1.320668733421729
 21
6.140843356507751
 31
0.0
  0
LINE
  5
276C
330
1E
100
AcDbEntity
  8
7
100
AcDbLine
 10
1.322309274858738
 20
6.176935268121925
 30
0.0
 11
1.115601053795745
 21
6.176935268121925
 31
0.0
  0
LINE
  5
276D
330
1E
100
AcDbEntity
  8
7
100
AcDbLine
 10
1.115601053795745
 20
6.181856892432949
 30
0.0
 11
1.322309274858738
 21
6.181856892432949
 31
0.0
  0
LINE
  5
276E
330
1E
100
AcDbEntity
  8
7
100
AcDbLine
 10
1.115601053795745
 20
6.21138663829909
 30
0.0
 11
1.322309274858738
 21
6.21138663829909
 31
0.0
  0
LINE
  5
276F
330
1E
100
AcDbEntity
  8
7
100
AcDbLine
 10
0.6874197387366907
 20
6.21138663829909
 30
0.0
 11
0.4807115176736981
 21
6.21138663829909
 31
0.0
  0
LINE
  5
2770
330
1E
100
AcDbEntity
  8
7
100
AcDbLine
 10
0.6874197387366907
 20
6.181856892432949
 30
0.0
 11
0.4807115176736981
 21
6.181856892432949
 31
0.0
  0
LINE
  5
2771
330
1E
100
AcDbEntity
  8
7
100
AcDbLine
 10
0.4807115176736981
 20
6.176935268121925
 30
0.0
 11
0.6874197387366907
 21
6.176935268121925
 31
0.0
  0
LINE
  5
2772
330
1E
100
AcDbEntity
  8
7
100
AcDbLine
 10
0.6857791972996825
 20
6.140843356507751
 30
0.0
 11
0.4807115176736981
 21
6.140843356507751
 31
0.0
  0
LINE
  5
2773
330
1E
100
AcDbEntity
  8
7
100
AcDbLine
 10
0.6857791972996825
 20
6.129359566448696
 30
0.0
 11
0.4807115176736981
 21
6.129359566448696
 31
0.0
  0
LINE
  5
2774
330
1E
100
AcDbEntity
  8
7
100
AcDbLine
 10
-0.1541780184483494
 20
6.129359566448696
 30
0.0
 11
0.0508896611776351
 21
6.129359566448696
 31
0.0
  0
LINE
  5
2775
330
1E
100
AcDbEntity
  8
7
100
AcDbLine
 10
-0.1541780184483494
 20
6.140843356507751
 30
0.0
 11
0.0508896611776351
 21
6.140843356507751
 31
0.0
  0
LINE
  5
2776
330
1E
100
AcDbEntity
  8
7
100
AcDbLine
 10
0.0508896611776351
 20
6.176935268121925
 30
0.0
 11
-0.1541780184483494
 21
6.176935268121925
 31
0.0
  0
LINE
  5
2777
330
1E
100
AcDbEntity
  8
7
100
AcDbLine
 10
-0.1541780184483494
 20
6.181856892432949
 30
0.0
 11
0.0508896611776351
 21
6.181856892432949
 31
0.0
  0
LINE
  5
2778
330
1E
100
AcDbEntity
  8
7
100
AcDbLine
 10
-0.1541780184483494
 20
6.21138663829909
 30
0.0
 11
0.0508896611776351
 21
6.21138663829909
 31
0.0
  0
LINE
  5
2779
330
1E
100
AcDbEntity
  8
7
100
AcDbLine
 10
-0.5839998749444125
 20
6.21138663829909
 30
0.0
 11
-0.7890675545703969
 21
6.21138663829909
 31
0.0
  0
LINE
  5
277A
330
1E
100
AcDbEntity
  8
7
100
AcDbLine
 10
-0.5839998749444125
 20
6.181856892432949
 30
0.0
 11
-0.7890675545703969
 21
6.181856892432949
 31
0.0
  0
LINE
  5
277B
330
1E
100
AcDbEntity
  8
7
100
AcDbLine
 10
-0.7890675545703969
 20
6.176935268121925
 30
0.0
 11
-0.5839998749444125
 21
6.176935268121925
 31
0.0
  0
LINE
  5
277C
330
1E
100
AcDbEntity
  8
7
100
AcDbLine
 10
-0.5839998749444125
 20
6.140843356507751
 30
0.0
 11
-0.7890675545703969
 21
6.140843356507751
 31
0.0
  0
LINE
  5
277D
330
1E
100
AcDbEntity
  8
7
100
AcDbLine
 10
-0.5839998749444125
 20
6.129359566448696
 30
0.0
 11
-0.7890675545703969
 21
6.129359566448696
 31
0.0
  0
LINE
  5
2796
330
1E
100
AcDbEntity
  8
7
100
AcDbLine
 10
2.455923407831178
 20
7.840444285247909
 30
0.0
 11
-1.924322228979845
 21
7.840444285247909
 31
0.0
  0
LINE
  5
279D
330
1E
100
AcDbEntity
  8
7
100
AcDbLine
 10
2.51662344100047
 20
5.149956328554996
 30
0.0
 11
2.51662344100047
 21
7.779744252078618
 31
0.0
  0
LINE
  5
279E
330
1E
100
AcDbEntity
  8
7
100
AcDbLine
 10
2.455923407831178
 20
5.090896836822712
 30
0.0
 11
2.48545315369732
 21
5.099099544007751
 31
0.0
  0
LINE
  5
27A4
330
1E
100
AcDbEntity
  8
7
100
AcDbLine
 10
-1.924322228979845
 20
5.089256295385705
 30
0.0
 11
2.455923407831178
 21
5.089256295385705
 31
0.0
  0
LINE
  5
27AB
330
1E
100
AcDbEntity
  8
7
100
AcDbLine
 10
-1.983381720712128
 20
7.779744252078618
 30
0.0
 11
-1.983381720712128
 21
5.149956328554996
 31
0.0
  0
LINE
  5
281C
330
1E
100
AcDbEntity
  8
7
100
AcDbLine
 10
-1.809484328389293
 20
5.277918560641611
 30
0.0
 11
-1.758627543842051
 21
5.315651013692792
 31
0.0
  0
LINE
  5
2827
330
1E
100
AcDbEntity
  8
7
100
AcDbLine
 10
2.291869264130391
 20
5.315651013692792
 30
0.0
 11
2.341085507240627
 21
5.277918560641611
 31
0.0
  0
LINE
  5
285D
330
1E
100
AcDbEntity
  8
7
100
AcDbLine
 10
1.957198810980785
 20
6.409892152177044
 30
0.0
 11
1.957198810980785
 21
6.521448969893579
 31
0.0
  0
LINE
  5
285E
330
1E
100
AcDbEntity
  8
7
100
AcDbLine
 10
1.857125783323304
 20
6.521448969893579
 30
0.0
 11
1.857125783323304
 21
6.409892152177044
 31
0.0
  0
LINE
  5
285F
330
1E
100
AcDbEntity
  8
7
100
AcDbLine
 10
-1.323884063034964
 20
6.409892152177044
 30
0.0
 11
-1.323884063034964
 21
6.521448969893579
 31
0.0
  0
LINE
  5
2860
330
1E
100
AcDbEntity
  8
7
100
AcDbLine
 10
-1.423957090692443
 20
6.521448969893579
 30
0.0
 11
-1.423957090692443
 21
6.409892152177044
 31
0.0
  0
LINE
  5
29F8
330
1E
100
AcDbEntity
  8
7
100
AcDbLine
 10
-1.924322228979845
 20
2.58414952107468
 30
0.0
 11
2.455923407831178
 21
2.58414952107468
 31
0.0
  0
LINE
  5
29F9
330
1E
100
AcDbEntity
  8
7
100
AcDbLine
 10
1.125444302417793
 20
2.124797918712475
 30
0.0
 11
1.31246602623669
 21
2.124797918712475
 31
0.0
  0
LINE
  5
29FA
330
1E
100
AcDbEntity
  8
7
100
AcDbLine
 10
0.4889142248587382
 20
2.124797918712475
 30
0.0
 11
0.6775764901146433
 21
2.124797918712475
 31
0.0
  0
LINE
  5
29FB
330
1E
100
AcDbEntity
  8
7
100
AcDbLine
 10
-0.1459753112633102
 20
2.124797918712475
 30
0.0
 11
0.0426869539925958
 21
2.124797918712475
 31
0.0
  0
LINE
  5
29FC
330
1E
100
AcDbEntity
  8
7
100
AcDbLine
 10
-0.7808648473853568
 20
2.124797918712475
 30
0.0
 11
-0.5922025821294508
 21
2.124797918712475
 31
0.0
  0
LINE
  5
2A16
330
1E
100
AcDbEntity
  8
7
100
AcDbLine
 10
0.2461140921815721
 20
2.466030537610114
 30
0.0
 11
-0.3477619080152792
 21
2.466030537610114
 31
0.0
  0
LINE
  5
2A17
330
1E
100
AcDbEntity
  8
7
100
AcDbLine
 10
0.8810036283036195
 20
2.466030537610114
 30
0.0
 11
0.2871276281067692
 21
2.466030537610114
 31
0.0
  0
LINE
  5
2A18
330
1E
100
AcDbEntity
  8
7
100
AcDbLine
 10
1.542141827417792
 20
2.466030537610114
 30
0.0
 11
0.9220171642288166
 21
2.466030537610114
 31
0.0
  0
LINE
  5
2A19
330
1E
100
AcDbEntity
  8
7
100
AcDbLine
 10
-1.053194725928664
 20
2.58414952107468
 30
0.0
 11
-1.051554184491656
 21
2.466030537610114
 31
0.0
  0
LINE
  5
2A1F
330
1E
100
AcDbEntity
  8
7
100
AcDbLine
 10
0.9220171642288166
 20
2.466030537610114
 30
0.0
 11
0.8810036283036195
 21
2.466030537610114
 31
0.0
  0
LINE
  5
2A20
330
1E
100
AcDbEntity
  8
7
100
AcDbLine
 10
0.2871276281067692
 20
2.466030537610114
 30
0.0
 11
0.2461140921815721
 21
2.466030537610114
 31
0.0
  0
LINE
  5
2A26
330
1E
100
AcDbEntity
  8
7
100
AcDbLine
 10
-1.051554184491656
 20
2.466030537610114
 30
0.0
 11
-1.010540648566459
 21
2.466030537610114
 31
0.0
  0
LINE
  5
2A2D
330
1E
100
AcDbEntity
  8
7
100
AcDbLine
 10
1.314106567673698
 20
2.151046581704601
 30
0.0
 11
1.330511982043776
 21
2.466030537610114
 31
0.0
  0
LINE
  5
2A33
330
1E
100
AcDbEntity
  8
7
100
AcDbLine
 10
0.6792170315516506
 20
2.151046581704601
 30
0.0
 11
0.69562244592173
 21
2.466030537610114
 31
0.0
  0
LINE
  5
2A3F
330
1E
100
AcDbEntity
  8
7
100
AcDbLine
 10
-0.782505388822365
 20
2.151046581704601
 30
0.0
 11
-0.7989108031924435
 21
2.466030537610114
 31
0.0
  0
LINE
  5
2A40
330
1E
100
AcDbEntity
  8
7
100
AcDbLine
 10
-0.5905620406924435
 20
2.151046581704601
 30
0.0
 11
-0.782505388822365
 21
2.151046581704601
 31
0.0
  0
LINE
  5
2A41
330
1E
100
AcDbEntity
  8
7
100
AcDbLine
 10
-0.5905620406924435
 20
2.151046581704601
 30
0.0
 11
-0.574156626322365
 21
2.466030537610114
 31
0.0
  0
LINE
  5
2A42
330
1E
100
AcDbEntity
  8
7
100
AcDbLine
 10
-0.1476158527003175
 20
2.151046581704601
 30
0.0
 11
-0.1640212670703969
 21
2.466030537610114
 31
0.0
  0
LINE
  5
2A48
330
1E
100
AcDbEntity
  8
7
100
AcDbLine
 10
0.6792170315516506
 20
2.151046581704601
 30
0.0
 11
0.4889142248587382
 21
2.151046581704601
 31
0.0
  0
LINE
  5
2A49
330
1E
100
AcDbEntity
  8
7
100
AcDbLine
 10
1.123803760980785
 20
2.151046581704601
 30
0.0
 11
1.314106567673698
 21
2.151046581704601
 31
0.0
  0
LINE
  5
2A4F
330
1E
100
AcDbEntity
  8
7
100
AcDbLine
 10
1.310825484799682
 20
2.466030537610114
 30
0.0
 11
1.307544401925667
 21
2.218308780621925
 31
0.0
  0
LINE
  5
2A55
330
1E
100
AcDbEntity
  8
7
100
AcDbLine
 10
1.174660545528029
 20
2.466030537610114
 30
0.0
 11
1.171379462654013
 21
2.218308780621925
 31
0.0
  0
LINE
  5
2A6A
330
1E
100
AcDbEntity
  8
7
100
AcDbLine
 10
0.6267197055673988
 20
2.466030537610114
 30
0.0
 11
0.6316413298784234
 21
2.218308780621925
 31
0.0
  0
LINE
  5
2A6B
330
1E
100
AcDbEntity
  8
7
100
AcDbLine
 10
0.6726548658036196
 20
2.218308780621925
 30
0.0
 11
0.6316413298784234
 21
2.218308780621925
 31
0.0
  0
LINE
  5
2A6C
330
1E
100
AcDbEntity
  8
7
100
AcDbLine
 10
0.6759359486776351
 20
2.466030537610114
 30
0.0
 11
0.6726548658036196
 21
2.218308780621925
 31
0.0
  0
LINE
  5
2A6D
330
1E
100
AcDbEntity
  8
7
100
AcDbLine
 10
0.4905547662957455
 20
2.466030537610114
 30
0.0
 11
0.4954763906067692
 21
2.218308780621925
 31
0.0
  0
LINE
  5
2A6E
330
1E
100
AcDbEntity
  8
7
100
AcDbLine
 10
0.5364899265319663
 20
2.218308780621925
 30
0.0
 11
0.4954763906067692
 21
2.218308780621925
 31
0.0
  0
LINE
  5
2A6F
330
1E
100
AcDbEntity
  8
7
100
AcDbLine
 10
0.5397710094059827
 20
2.466030537610114
 30
0.0
 11
0.5364899265319663
 21
2.218308780621925
 31
0.0
  0
LINE
  5
2A70
330
1E
100
AcDbEntity
  8
7
100
AcDbLine
 10
0.5348493850949581
 20
2.19862228337783
 30
0.0
 11
0.5348493850949581
 21
2.205184449125862
 31
0.0
  0
LINE
  5
2A71
330
1E
100
AcDbEntity
  8
7
100
AcDbLine
 10
0.5348493850949581
 20
2.205184449125862
 30
0.0
 11
0.5364899265319663
 21
2.218308780621925
 31
0.0
  0
LINE
  5
2A95
330
1E
100
AcDbEntity
  8
7
100
AcDbLine
 10
-0.7792243059483495
 20
2.466030537610114
 30
0.0
 11
-0.7743026816373249
 21
2.218308780621925
 31
0.0
  0
LINE
  5
2A96
330
1E
100
AcDbEntity
  8
7
100
AcDbLine
 10
-0.734929687149136
 20
2.218308780621925
 30
0.0
 11
-0.7743026816373249
 21
2.218308780621925
 31
0.0
  0
LINE
  5
2A97
330
1E
100
AcDbEntity
  8
7
100
AcDbLine
 10
-0.7300080628381132
 20
2.466030537610114
 30
0.0
 11
-0.734929687149136
 21
2.218308780621925
 31
0.0
  0
LINE
  5
2A98
330
1E
100
AcDbEntity
  8
7
100
AcDbLine
 10
-0.6430593666766953
 20
2.466030537610114
 30
0.0
 11
-0.6381377423656716
 21
2.218308780621925
 31
0.0
  0
LINE
  5
2A99
330
1E
100
AcDbEntity
  8
7
100
AcDbLine
 10
-0.5987647478774827
 20
2.218308780621925
 30
0.0
 11
-0.6381377423656716
 21
2.218308780621925
 31
0.0
  0
LINE
  5
2A9A
330
1E
100
AcDbEntity
  8
7
100
AcDbLine
 10
-0.5938431235664599
 20
2.466030537610114
 30
0.0
 11
-0.5987647478774827
 21
2.218308780621925
 31
0.0
  0
LINE
  5
2AB4
330
1E
100
AcDbEntity
  8
7
100
AcDbLine
 10
-0.0951185267160657
 20
2.466030537610114
 30
0.0
 11
-0.1000401510270894
 21
2.218308780621925
 31
0.0
  0
LINE
  5
2ABA
330
1E
100
AcDbEntity
  8
7
100
AcDbLine
 10
0.0410464125555876
 20
2.466030537610114
 30
0.0
 11
0.0377653296815721
 21
2.218308780621925
 31
0.0
  0
LINE
  5
2AC5
330
1E
100
AcDbEntity
  8
7
100
AcDbLine
 10
-0.1394131455152783
 20
2.19862228337783
 30
0.0
 11
-0.1394131455152783
 21
2.205184449125862
 31
0.0
  0
LINE
  5
2AC6
330
1E
100
AcDbEntity
  8
7
100
AcDbLine
 10
-0.1394131455152783
 20
2.205184449125862
 30
0.0
 11
-0.1394131455152783
 21
2.218308780621925
 31
0.0
  0
LINE
  5
2ACC
330
1E
100
AcDbEntity
  8
7
100
AcDbLine
 10
1.26653086600047
 20
2.19862228337783
 30
0.0
 11
1.307544401925667
 21
2.19862228337783
 31
0.0
  0
LINE
  5
2ACD
330
1E
100
AcDbEntity
  8
7
100
AcDbLine
 10
1.130365926728816
 20
2.19862228337783
 30
0.0
 11
1.169738921217005
 21
2.19862228337783
 31
0.0
  0
LINE
  5
2ACE
330
1E
100
AcDbEntity
  8
7
100
AcDbLine
 10
0.6710143243666123
 20
2.19862228337783
 30
0.0
 11
0.6316413298784234
 21
2.19862228337783
 31
0.0
  0
LINE
  5
2ACF
330
1E
100
AcDbEntity
  8
7
100
AcDbLine
 10
0.5348493850949581
 20
2.19862228337783
 30
0.0
 11
0.4954763906067692
 21
2.19862228337783
 31
0.0
  0
LINE
  5
2AD0
330
1E
100
AcDbEntity
  8
7
100
AcDbLine
 10
-0.1394131455152783
 20
2.19862228337783
 30
0.0
 11
-0.1000401510270894
 21
2.19862228337783
 31
0.0
  0
LINE
  5
2AD1
330
1E
100
AcDbEntity
  8
7
100
AcDbLine
 10
-0.003248206243625
 20
2.19862228337783
 30
0.0
 11
0.0361247882445648
 21
2.19862228337783
 31
0.0
  0
LINE
  5
2AD2
330
1E
100
AcDbEntity
  8
7
100
AcDbLine
 10
-0.734929687149136
 20
2.19862228337783
 30
0.0
 11
-0.7743026816373249
 21
2.19862228337783
 31
0.0
  0
LINE
  5
2AD3
330
1E
100
AcDbEntity
  8
7
100
AcDbLine
 10
-0.5987647478774827
 20
2.19862228337783
 30
0.0
 11
-0.6381377423656716
 21
2.19862228337783
 31
0.0
  0
LINE
  5
2ADA
330
1E
100
AcDbEntity
  8
7
100
AcDbLine
 10
-1.924322228979845
 20
2.58414952107468
 30
0.0
 11
2.455923407831178
 21
2.58414952107468
 31
0.0
  0
LINE
  5
2AE1
330
1E
100
AcDbEntity
  8
7
100
AcDbLine
 10
-1.758627543842051
 20
2.80890369794476
 30
0.0
 11
2.291869264130391
 21
2.80890369794476
 31
0.0
  0
LINE
  5
2B03
330
1E
100
AcDbEntity
  8
7
100
AcDbLine
 10
1.542141827417792
 20
2.466030537610114
 30
0.0
 11
1.540501285980785
 21
2.58414952107468
 31
0.0
  0
LINE
  5
2B04
330
1E
100
AcDbEntity
  8
7
100
AcDbLine
 10
0.9236577056658248
 20
2.58414952107468
 30
0.0
 11
0.9220171642288166
 21
2.466030537610114
 31
0.0
  0
LINE
  5
2B05
330
1E
100
AcDbEntity
  8
7
100
AcDbLine
 10
0.8810036283036195
 20
2.466030537610114
 30
0.0
 11
0.877722545429604
 21
2.58414952107468
 31
0.0
  0
LINE
  5
2B06
330
1E
100
AcDbEntity
  8
7
100
AcDbLine
 10
0.2887681695437774
 20
2.58414952107468
 30
0.0
 11
0.2871276281067692
 21
2.466030537610114
 31
0.0
  0
LINE
  5
2B07
330
1E
100
AcDbEntity
  8
7
100
AcDbLine
 10
0.2461140921815721
 20
2.466030537610114
 30
0.0
 11
0.2428330093075566
 21
2.58414952107468
 31
0.0
  0
LINE
  5
2B08
330
1E
100
AcDbEntity
  8
7
100
AcDbLine
 10
-0.346121366578271
 20
2.58414952107468
 30
0.0
 11
-0.3477619080152792
 21
2.466030537610114
 31
0.0
  0
LINE
  5
2B09
330
1E
100
AcDbEntity
  8
7
100
AcDbLine
 10
-0.3887754439404753
 20
2.466030537610114
 30
0.0
 11
-0.3920565268144909
 21
2.58414952107468
 31
0.0
  0
LINE
  5
2B0A
330
1E
100
AcDbEntity
  8
7
100
AcDbLine
 10
-1.010540648566459
 20
2.466030537610114
 30
0.0
 11
-1.008900107129451
 21
2.58414952107468
 31
0.0
  0
LINE
  5
2B0B
330
1E
100
AcDbEntity
  8
7
100
AcDbLine
 10
5.138208657339053
 20
2.58414952107468
 30
0.0
 11
5.257968182240627
 21
2.466030537610114
 31
0.0
  0
LINE
  5
2B0C
330
1E
100
AcDbEntity
  8
7
100
AcDbLine
 10
6.447360724071336
 20
2.466030537610114
 30
0.0
 11
5.257968182240627
 21
2.466030537610114
 31
0.0
  0
LINE
  5
2B0D
330
1E
100
AcDbEntity
  8
7
100
AcDbLine
 10
6.56712024897291
 20
2.58414952107468
 30
0.0
 11
6.447360724071336
 21
2.466030537610114
 31
0.0
  0
LINE
  5
2B0E
330
1E
100
AcDbEntity
  8
7
100
AcDbLine
 10
5.440068281748501
 20
2.151046581704601
 30
0.0
 11
5.417100701630392
 21
2.466030537610114
 31
0.0
  0
LINE
  5
2B15
330
1E
100
AcDbEntity
  8
7
100
AcDbLine
 10
5.489284524858739
 20
2.133000625897515
 30
0.0
 11
5.57295213814614
 21
2.216668239184917
 31
0.0
  0
LINE
  5
2B1B
330
1E
100
AcDbEntity
  8
7
100
AcDbLine
 10
5.602481884012281
 20
2.297054769598303
 30
0.0
 11
5.600841342575273
 21
2.277368272354208
 31
0.0
  0
LINE
  5
2B1C
330
1E
100
AcDbEntity
  8
7
100
AcDbLine
 10
5.602481884012281
 20
2.297054769598303
 30
0.0
 11
5.57295213814614
 21
2.297054769598303
 31
0.0
  0
LINE
  5
2B25
330
1E
100
AcDbEntity
  8
7
100
AcDbLine
 10
5.502408856354801
 20
2.466030537610114
 30
0.0
 11
5.505689939228816
 21
2.29869531103531
 31
0.0
  0
LINE
  5
2B26
330
1E
100
AcDbEntity
  8
7
100
AcDbLine
 10
5.38757095576425
 20
2.466030537610114
 30
0.0
 11
5.39577366294929
 21
2.218308780621925
 31
0.0
  0
LINE
  5
2B2C
330
1E
100
AcDbEntity
  8
7
100
AcDbLine
 10
5.435146657437479
 20
2.19862228337783
 30
0.0
 11
5.417100701630392
 21
2.19862228337783
 31
0.0
  0
LINE
  5
2B33
330
1E
100
AcDbEntity
  8
7
100
AcDbLine
 10
4.541051574268187
 20
2.58414952107468
 30
0.0
 11
7.172480039228816
 21
2.58414952107468
 31
0.0
  0
LINE
  5
2B3A
330
1E
100
AcDbEntity
  8
7
100
AcDbLine
 10
4.706746259405982
 20
2.80890369794476
 30
0.0
 11
7.006785354091022
 21
2.80890369794476
 31
0.0
  0
LINE
  5
2B5B
330
1E
100
AcDbEntity
  8
7
100
AcDbLine
 10
4.54597319857921
 20
2.633365764184917
 30
0.0
 11
4.541051574268187
 21
2.58414952107468
 31
0.0
  0
LINE
  5
2B69
330
1E
100
AcDbEntity
  8
7
100
AcDbLine
 10
7.006785354091022
 20
2.80890369794476
 30
0.0
 11
7.056001597201259
 21
2.802341532196728
 31
0.0
  0
LINE
  5
2B6A
330
1E
100
AcDbEntity
  8
7
100
AcDbLine
 10
7.056001597201259
 20
2.802341532196728
 30
0.0
 11
7.103577298874487
 21
2.785936117826649
 31
0.0
  0
LINE
  5
2B6B
330
1E
100
AcDbEntity
  8
7
100
AcDbLine
 10
7.103577298874487
 20
2.785936117826649
 30
0.0
 11
7.14623137623669
 21
2.759687454834523
 31
0.0
  0
LINE
  5
2B6C
330
1E
100
AcDbEntity
  8
7
100
AcDbLine
 10
7.14623137623669
 20
2.759687454834523
 30
0.0
 11
7.182323287850865
 21
2.723595543220349
 31
0.0
  0
LINE
  5
2B6D
330
1E
100
AcDbEntity
  8
7
100
AcDbLine
 10
7.182323287850865
 20
2.723595543220349
 30
0.0
 11
7.210212492279998
 21
2.680941465858145
 31
0.0
  0
LINE
  5
2B6E
330
1E
100
AcDbEntity
  8
7
100
AcDbLine
 10
7.210212492279998
 20
2.680941465858145
 30
0.0
 11
7.226617906650077
 21
2.633365764184917
 31
0.0
  0
LINE
  5
2B6F
330
1E
100
AcDbEntity
  8
7
100
AcDbLine
 10
7.226617906650077
 20
2.633365764184917
 30
0.0
 11
7.231539530961102
 21
2.58414952107468
 31
0.0
  0
LINE
  5
2B70
330
1E
100
AcDbEntity
  8
7
100
AcDbLine
 10
4.706746259405982
 20
2.80890369794476
 30
0.0
 11
4.669013806354801
 21
2.802341532196728
 31
0.0
  0
LINE
  5
2B71
330
1E
100
AcDbEntity
  8
7
100
AcDbLine
 10
4.669013806354801
 20
2.802341532196728
 30
0.0
 11
4.634562436177636
 21
2.785936117826649
 31
0.0
  0
LINE
  5
2B72
330
1E
100
AcDbEntity
  8
7
100
AcDbLine
 10
4.634562436177636
 20
2.785936117826649
 30
0.0
 11
4.603392148874486
 21
2.759687454834523
 31
0.0
  0
LINE
  5
2B73
330
1E
100
AcDbEntity
  8
7
100
AcDbLine
 10
4.603392148874486
 20
2.759687454834523
 30
0.0
 11
4.57714348588236
 21
2.723595543220349
 31
0.0
  0
LINE
  5
2B74
330
1E
100
AcDbEntity
  8
7
100
AcDbLine
 10
4.57714348588236
 20
2.723595543220349
 30
0.0
 11
4.557456988638266
 21
2.680941465858145
 31
0.0
  0
LINE
  5
2B75
330
1E
100
AcDbEntity
  8
7
100
AcDbLine
 10
4.557456988638266
 20
2.680941465858145
 30
0.0
 11
4.54597319857921
 21
2.633365764184917
 31
0.0
  0
LINE
  5
2B76
330
1E
100
AcDbEntity
  8
7
100
AcDbLine
 10
7.156074624858739
 20
2.680941465858145
 30
0.0
 11
7.136388127614644
 21
2.723595543220349
 31
0.0
  0
LINE
  5
2B77
330
1E
100
AcDbEntity
  8
7
100
AcDbLine
 10
7.136388127614644
 20
2.723595543220349
 30
0.0
 11
7.110139464622518
 21
2.759687454834523
 31
0.0
  0
LINE
  5
2B78
330
1E
100
AcDbEntity
  8
7
100
AcDbLine
 10
7.110139464622518
 20
2.759687454834523
 30
0.0
 11
7.078969177319368
 21
2.785936117826649
 31
0.0
  0
LINE
  5
2B79
330
1E
100
AcDbEntity
  8
7
100
AcDbLine
 10
7.078969177319368
 20
2.785936117826649
 30
0.0
 11
7.042877265705196
 21
2.802341532196728
 31
0.0
  0
LINE
  5
2B7A
330
1E
100
AcDbEntity
  8
7
100
AcDbLine
 10
7.042877265705196
 20
2.802341532196728
 30
0.0
 11
7.006785354091022
 21
2.80890369794476
 31
0.0
  0
LINE
  5
2B7B
330
1E
100
AcDbEntity
  8
7
100
AcDbLine
 10
7.172480039228816
 20
2.58414952107468
 30
0.0
 11
7.167558414917793
 21
2.633365764184917
 31
0.0
  0
LINE
  5
2B7C
330
1E
100
AcDbEntity
  8
7
100
AcDbLine
 10
7.167558414917793
 20
2.633365764184917
 30
0.0
 11
7.156074624858739
 21
2.680941465858145
 31
0.0
  0
LINE
  5
2B7D
330
1E
100
AcDbEntity
  8
7
100
AcDbLine
 10
4.481992082535903
 20
2.58414952107468
 30
0.0
 11
4.486913706846927
 21
2.633365764184917
 31
0.0
  0
LINE
  5
2B7E
330
1E
100
AcDbEntity
  8
7
100
AcDbLine
 10
4.486913706846927
 20
2.633365764184917
 30
0.0
 11
4.503319121217006
 21
2.680941465858145
 31
0.0
  0
LINE
  5
2B7F
330
1E
100
AcDbEntity
  8
7
100
AcDbLine
 10
4.503319121217006
 20
2.680941465858145
 30
0.0
 11
4.53120832564614
 21
2.723595543220349
 31
0.0
  0
LINE
  5
2B80
330
1E
100
AcDbEntity
  8
7
100
AcDbLine
 10
4.53120832564614
 20
2.723595543220349
 30
0.0
 11
4.565659695823304
 21
2.759687454834523
 31
0.0
  0
LINE
  5
2B81
330
1E
100
AcDbEntity
  8
7
100
AcDbLine
 10
4.565659695823304
 20
2.759687454834523
 30
0.0
 11
4.608313773185511
 21
2.785936117826649
 31
0.0
  0
LINE
  5
2B82
330
1E
100
AcDbEntity
  8
7
100
AcDbLine
 10
4.608313773185511
 20
2.785936117826649
 30
0.0
 11
4.655889474858738
 21
2.802341532196728
 31
0.0
  0
LINE
  5
2B83
330
1E
100
AcDbEntity
  8
7
100
AcDbLine
 10
4.655889474858738
 20
2.802341532196728
 30
0.0
 11
4.706746259405982
 21
2.80890369794476
 31
0.0
  0
LINE
  5
2B84
330
1E
100
AcDbEntity
  8
7
100
AcDbLine
 10
4.541051574268187
 20
2.58414952107468
 30
0.0
 11
4.511521828402045
 21
2.58414952107468
 31
0.0
  0
LINE
  5
2B85
330
1E
100
AcDbEntity
  8
7
100
AcDbLine
 10
4.511521828402045
 20
2.58414952107468
 30
0.0
 11
4.490194789720943
 21
2.58414952107468
 31
0.0
  0
LINE
  5
2B86
330
1E
100
AcDbEntity
  8
7
100
AcDbLine
 10
4.490194789720943
 20
2.58414952107468
 30
0.0
 11
4.481992082535903
 21
2.58414952107468
 31
0.0
  0
LINE
  5
2B87
330
1E
100
AcDbEntity
  8
7
100
AcDbLine
 10
7.231539530961102
 20
2.58414952107468
 30
0.0
 11
7.223336823776061
 21
2.58414952107468
 31
0.0
  0
LINE
  5
2B88
330
1E
100
AcDbEntity
  8
7
100
AcDbLine
 10
7.223336823776061
 20
2.58414952107468
 30
0.0
 11
7.20200978509496
 21
2.58414952107468
 31
0.0
  0
LINE
  5
2B89
330
1E
100
AcDbEntity
  8
7
100
AcDbLine
 10
7.20200978509496
 20
2.58414952107468
 30
0.0
 11
7.172480039228816
 21
2.58414952107468
 31
0.0
  0
LINE
  5
2B8A
330
1E
100
AcDbEntity
  8
7
100
AcDbLine
 10
5.417100701630392
 20
2.19862228337783
 30
0.0
 11
5.402335828697322
 21
2.205184449125862
 31
0.0
  0
LINE
  5
2B8B
330
1E
100
AcDbEntity
  8
7
100
AcDbLine
 10
5.402335828697322
 20
2.205184449125862
 30
0.0
 11
5.39577366294929
 21
2.218308780621925
 31
0.0
  0
LINE
  5
2B8C
330
1E
100
AcDbEntity
  8
7
100
AcDbLine
 10
5.57295213814614
 20
2.297054769598303
 30
0.0
 11
5.568030513835116
 21
2.295414228161294
 31
0.0
  0
LINE
  5
2B8D
330
1E
100
AcDbEntity
  8
7
100
AcDbLine
 10
5.568030513835116
 20
2.295414228161294
 30
0.0
 11
5.531938602220942
 21
2.28393043810224
 31
0.0
  0
LINE
  5
2B8E
330
1E
100
AcDbEntity
  8
7
100
AcDbLine
 10
5.531938602220942
 20
2.28393043810224
 30
0.0
 11
5.520454812161888
 21
2.28393043810224
 31
0.0
  0
LINE
  5
2B8F
330
1E
100
AcDbEntity
  8
7
100
AcDbLine
 10
5.520454812161888
 20
2.28393043810224
 30
0.0
 11
5.51061156353984
 21
2.288852062413263
 31
0.0
  0
LINE
  5
2B90
330
1E
100
AcDbEntity
  8
7
100
AcDbLine
 10
5.51061156353984
 20
2.288852062413263
 30
0.0
 11
5.505689939228816
 21
2.29869531103531
 31
0.0
  0
LINE
  5
2B91
330
1E
100
AcDbEntity
  8
7
100
AcDbLine
 10
5.600841342575273
 20
2.277368272354208
 30
0.0
 11
5.592638635390234
 21
2.244557443614051
 31
0.0
  0
LINE
  5
2B92
330
1E
100
AcDbEntity
  8
7
100
AcDbLine
 10
5.592638635390234
 20
2.244557443614051
 30
0.0
 11
5.57295213814614
 21
2.216668239184917
 31
0.0
  0
LINE
  5
2B93
330
1E
100
AcDbEntity
  8
7
100
AcDbLine
 10
5.489284524858739
 20
2.133000625897515
 30
0.0
 11
5.469598027614644
 21
2.124797918712475
 31
0.0
  0
LINE
  5
2B94
330
1E
100
AcDbEntity
  8
7
100
AcDbLine
 10
5.469598027614644
 20
2.124797918712475
 30
0.0
 11
5.448270988933542
 21
2.131360084460507
 31
0.0
  0
LINE
  5
2B95
330
1E
100
AcDbEntity
  8
7
100
AcDbLine
 10
5.448270988933542
 20
2.131360084460507
 30
0.0
 11
5.440068281748501
 21
2.151046581704601
 31
0.0
  0
LINE
  5
2B96
330
1E
100
AcDbEntity
  8
7
100
AcDbLine
 10
2.291869264130391
 20
2.80890369794476
 30
0.0
 11
2.341085507240627
 21
2.802341532196728
 31
0.0
  0
LINE
  5
2B97
330
1E
100
AcDbEntity
  8
7
100
AcDbLine
 10
2.341085507240627
 20
2.802341532196728
 30
0.0
 11
2.388661208913856
 21
2.785936117826649
 31
0.0
  0
LINE
  5
2B98
330
1E
100
AcDbEntity
  8
7
100
AcDbLine
 10
2.388661208913856
 20
2.785936117826649
 30
0.0
 11
2.431315286276061
 21
2.759687454834523
 31
0.0
  0
LINE
  5
2B99
330
1E
100
AcDbEntity
  8
7
100
AcDbLine
 10
2.431315286276061
 20
2.759687454834523
 30
0.0
 11
2.467407197890234
 21
2.723595543220349
 31
0.0
  0
LINE
  5
2B9A
330
1E
100
AcDbEntity
  8
7
100
AcDbLine
 10
2.467407197890234
 20
2.723595543220349
 30
0.0
 11
2.49365586088236
 21
2.680941465858145
 31
0.0
  0
LINE
  5
2B9B
330
1E
100
AcDbEntity
  8
7
100
AcDbLine
 10
2.49365586088236
 20
2.680941465858145
 30
0.0
 11
2.510061275252438
 21
2.633365764184917
 31
0.0
  0
LINE
  5
2B9C
330
1E
100
AcDbEntity
  8
7
100
AcDbLine
 10
2.510061275252438
 20
2.633365764184917
 30
0.0
 11
2.51662344100047
 21
2.58414952107468
 31
0.0
  0
LINE
  5
2B9D
330
1E
100
AcDbEntity
  8
7
100
AcDbLine
 10
-1.983381720712128
 20
2.58414952107468
 30
0.0
 11
-1.978460096401104
 21
2.633365764184917
 31
0.0
  0
LINE
  5
2B9E
330
1E
100
AcDbEntity
  8
7
100
AcDbLine
 10
-1.978460096401104
 20
2.633365764184917
 30
0.0
 11
-1.962054682031027
 21
2.680941465858145
 31
0.0
  0
LINE
  5
2B9F
330
1E
100
AcDbEntity
  8
7
100
AcDbLine
 10
-1.962054682031027
 20
2.680941465858145
 30
0.0
 11
-1.934165477601892
 21
2.723595543220349
 31
0.0
  0
LINE
  5
2BA0
330
1E
100
AcDbEntity
  8
7
100
AcDbLine
 10
-1.934165477601892
 20
2.723595543220349
 30
0.0
 11
-1.899714107424727
 21
2.759687454834523
 31
0.0
  0
LINE
  5
2BA1
330
1E
100
AcDbEntity
  8
7
100
AcDbLine
 10
-1.899714107424727
 20
2.759687454834523
 30
0.0
 11
-1.857060030062521
 21
2.785936117826649
 31
0.0
  0
LINE
  5
2BA2
330
1E
100
AcDbEntity
  8
7
100
AcDbLine
 10
-1.857060030062521
 20
2.785936117826649
 30
0.0
 11
-1.809484328389293
 21
2.802341532196728
 31
0.0
  0
LINE
  5
2BA3
330
1E
100
AcDbEntity
  8
7
100
AcDbLine
 10
-1.809484328389293
 20
2.802341532196728
 30
0.0
 11
-1.758627543842051
 21
2.80890369794476
 31
0.0
  0
LINE
  5
2BAB
330
1E
100
AcDbEntity
  8
7
100
AcDbLine
 10
-1.924322228979845
 20
2.58414952107468
 30
0.0
 11
-1.953851974845988
 21
2.58414952107468
 31
0.0
  0
LINE
  5
2BAC
330
1E
100
AcDbEntity
  8
7
100
AcDbLine
 10
-1.953851974845988
 20
2.58414952107468
 30
0.0
 11
-1.976819554964097
 21
2.58414952107468
 31
0.0
  0
LINE
  5
2BAD
330
1E
100
AcDbEntity
  8
7
100
AcDbLine
 10
-1.976819554964097
 20
2.58414952107468
 30
0.0
 11
-1.983381720712128
 21
2.58414952107468
 31
0.0
  0
LINE
  5
2BAE
330
1E
100
AcDbEntity
  8
7
100
AcDbLine
 10
2.51662344100047
 20
2.58414952107468
 30
0.0
 11
2.50842073381543
 21
2.58414952107468
 31
0.0
  0
LINE
  5
2BAF
330
1E
100
AcDbEntity
  8
7
100
AcDbLine
 10
2.50842073381543
 20
2.58414952107468
 30
0.0
 11
2.487093695134328
 21
2.58414952107468
 31
0.0
  0
LINE
  5
2BB0
330
1E
100
AcDbEntity
  8
7
100
AcDbLine
 10
2.487093695134328
 20
2.58414952107468
 30
0.0
 11
2.455923407831178
 21
2.58414952107468
 31
0.0
  0
LINE
  5
2BB1
330
1E
100
AcDbEntity
  8
7
100
AcDbLine
 10
0.0361247882445648
 20
2.19862228337783
 30
0.0
 11
0.0361247882445648
 21
2.205184449125862
 31
0.0
  0
LINE
  5
2BB2
330
1E
100
AcDbEntity
  8
7
100
AcDbLine
 10
0.0361247882445648
 20
2.205184449125862
 30
0.0
 11
0.0377653296815721
 21
2.218308780621925
 31
0.0
  0
LINE
  5
2BB3
330
1E
100
AcDbEntity
  8
7
100
AcDbLine
 10
-0.1000401510270894
 20
2.19862228337783
 30
0.0
 11
-0.1000401510270894
 21
2.205184449125862
 31
0.0
  0
LINE
  5
2BB4
330
1E
100
AcDbEntity
  8
7
100
AcDbLine
 10
-0.1000401510270894
 20
2.205184449125862
 30
0.0
 11
-0.1000401510270894
 21
2.218308780621925
 31
0.0
  0
LINE
  5
2BB5
330
1E
100
AcDbEntity
  8
7
100
AcDbLine
 10
-0.003248206243625
 20
2.19862228337783
 30
0.0
 11
-0.003248206243625
 21
2.205184449125862
 31
0.0
  0
LINE
  5
2BB6
330
1E
100
AcDbEntity
  8
7
100
AcDbLine
 10
-0.003248206243625
 20
2.205184449125862
 30
0.0
 11
-0.003248206243625
 21
2.218308780621925
 31
0.0
  0
LINE
  5
2BB7
330
1E
100
AcDbEntity
  8
7
100
AcDbLine
 10
-0.0081698305546487
 20
2.466030537610114
 30
0.0
 11
-0.003248206243625
 21
2.218308780621925
 31
0.0
  0
LINE
  5
2BB8
330
1E
100
AcDbEntity
  8
7
100
AcDbLine
 10
-0.003248206243625
 20
2.218308780621925
 30
0.0
 11
0.0377653296815721
 21
2.218308780621925
 31
0.0
  0
LINE
  5
2BB9
330
1E
100
AcDbEntity
  8
7
100
AcDbLine
 10
-0.1443347698263029
 20
2.466030537610114
 30
0.0
 11
-0.1394131455152783
 21
2.218308780621925
 31
0.0
  0
LINE
  5
2BBA
330
1E
100
AcDbEntity
  8
7
100
AcDbLine
 10
-0.1394131455152783
 20
2.218308780621925
 30
0.0
 11
-0.1000401510270894
 21
2.218308780621925
 31
0.0
  0
LINE
  5
2BBB
330
1E
100
AcDbEntity
  8
7
100
AcDbLine
 10
-0.5987647478774827
 20
2.19862228337783
 30
0.0
 11
-0.5987647478774827
 21
2.205184449125862
 31
0.0
  0
LINE
  5
2BBC
330
1E
100
AcDbEntity
  8
7
100
AcDbLine
 10
-0.5987647478774827
 20
2.205184449125862
 30
0.0
 11
-0.5987647478774827
 21
2.218308780621925
 31
0.0
  0
LINE
  5
2BBD
330
1E
100
AcDbEntity
  8
7
100
AcDbLine
 10
-0.6381377423656716
 20
2.19862228337783
 30
0.0
 11
-0.6381377423656716
 21
2.205184449125862
 31
0.0
  0
LINE
  5
2BBE
330
1E
100
AcDbEntity
  8
7
100
AcDbLine
 10
-0.6381377423656716
 20
2.205184449125862
 30
0.0
 11
-0.6381377423656716
 21
2.218308780621925
 31
0.0
  0
LINE
  5
2BBF
330
1E
100
AcDbEntity
  8
7
100
AcDbLine
 10
-0.734929687149136
 20
2.19862228337783
 30
0.0
 11
-0.734929687149136
 21
2.205184449125862
 31
0.0
  0
LINE
  5
2BC0
330
1E
100
AcDbEntity
  8
7
100
AcDbLine
 10
-0.734929687149136
 20
2.205184449125862
 30
0.0
 11
-0.734929687149136
 21
2.218308780621925
 31
0.0
  0
LINE
  5
2BC1
330
1E
100
AcDbEntity
  8
7
100
AcDbLine
 10
-0.7743026816373249
 20
2.19862228337783
 30
0.0
 11
-0.7743026816373249
 21
2.205184449125862
 31
0.0
  0
LINE
  5
2BC2
330
1E
100
AcDbEntity
  8
7
100
AcDbLine
 10
-0.7743026816373249
 20
2.205184449125862
 30
0.0
 11
-0.7743026816373249
 21
2.218308780621925
 31
0.0
  0
LINE
  5
2BC3
330
1E
100
AcDbEntity
  8
7
100
AcDbLine
 10
0.0426869539925958
 20
2.124797918712475
 30
0.0
 11
0.0426869539925958
 21
2.133000625897515
 31
0.0
  0
LINE
  5
2BC4
330
1E
100
AcDbEntity
  8
7
100
AcDbLine
 10
0.0426869539925958
 20
2.133000625897515
 30
0.0
 11
0.044327495429604
 21
2.151046581704601
 31
0.0
  0
LINE
  5
2BC5
330
1E
100
AcDbEntity
  8
7
100
AcDbLine
 10
-0.1459753112633102
 20
2.124797918712475
 30
0.0
 11
-0.1459753112633102
 21
2.133000625897515
 31
0.0
  0
LINE
  5
2BC6
330
1E
100
AcDbEntity
  8
7
100
AcDbLine
 10
-0.1459753112633102
 20
2.133000625897515
 30
0.0
 11
-0.1476158527003175
 21
2.151046581704601
 31
0.0
  0
LINE
  5
2BC7
330
1E
100
AcDbEntity
  8
7
100
AcDbLine
 10
-0.7808648473853568
 20
2.124797918712475
 30
0.0
 11
-0.7808648473853568
 21
2.133000625897515
 31
0.0
  0
LINE
  5
2BC8
330
1E
100
AcDbEntity
  8
7
100
AcDbLine
 10
-0.7808648473853568
 20
2.133000625897515
 30
0.0
 11
-0.782505388822365
 21
2.151046581704601
 31
0.0
  0
LINE
  5
2BC9
330
1E
100
AcDbEntity
  8
7
100
AcDbLine
 10
-0.5922025821294508
 20
2.124797918712475
 30
0.0
 11
-0.5922025821294508
 21
2.133000625897515
 31
0.0
  0
LINE
  5
2BCA
330
1E
100
AcDbEntity
  8
7
100
AcDbLine
 10
-0.5922025821294508
 20
2.133000625897515
 30
0.0
 11
-0.5905620406924435
 21
2.151046581704601
 31
0.0
  0
LINE
  5
2BCB
330
1E
100
AcDbEntity
  8
7
100
AcDbLine
 10
0.4954763906067692
 20
2.19862228337783
 30
0.0
 11
0.4954763906067692
 21
2.205184449125862
 31
0.0
  0
LINE
  5
2BCC
330
1E
100
AcDbEntity
  8
7
100
AcDbLine
 10
0.4954763906067692
 20
2.205184449125862
 30
0.0
 11
0.4954763906067692
 21
2.218308780621925
 31
0.0
  0
LINE
  5
2BCD
330
1E
100
AcDbEntity
  8
7
100
AcDbLine
 10
0.6710143243666123
 20
2.19862228337783
 30
0.0
 11
0.6726548658036196
 21
2.205184449125862
 31
0.0
  0
LINE
  5
2BCE
330
1E
100
AcDbEntity
  8
7
100
AcDbLine
 10
0.6726548658036196
 20
2.205184449125862
 30
0.0
 11
0.6726548658036196
 21
2.218308780621925
 31
0.0
  0
LINE
  5
2BCF
330
1E
100
AcDbEntity
  8
7
100
AcDbLine
 10
0.6316413298784234
 20
2.19862228337783
 30
0.0
 11
0.6316413298784234
 21
2.205184449125862
 31
0.0
  0
LINE
  5
2BD0
330
1E
100
AcDbEntity
  8
7
100
AcDbLine
 10
0.6316413298784234
 20
2.205184449125862
 30
0.0
 11
0.6316413298784234
 21
2.218308780621925
 31
0.0
  0
LINE
  5
2BD1
330
1E
100
AcDbEntity
  8
7
100
AcDbLine
 10
1.130365926728816
 20
2.19862228337783
 30
0.0
 11
1.130365926728816
 21
2.205184449125862
 31
0.0
  0
LINE
  5
2BD2
330
1E
100
AcDbEntity
  8
7
100
AcDbLine
 10
1.130365926728816
 20
2.205184449125862
 30
0.0
 11
1.130365926728816
 21
2.218308780621925
 31
0.0
  0
LINE
  5
2BD3
330
1E
100
AcDbEntity
  8
7
100
AcDbLine
 10
1.169738921217005
 20
2.19862228337783
 30
0.0
 11
1.169738921217005
 21
2.205184449125862
 31
0.0
  0
LINE
  5
2BD4
330
1E
100
AcDbEntity
  8
7
100
AcDbLine
 10
1.169738921217005
 20
2.205184449125862
 30
0.0
 11
1.171379462654013
 21
2.218308780621925
 31
0.0
  0
LINE
  5
2BD5
330
1E
100
AcDbEntity
  8
7
100
AcDbLine
 10
1.26653086600047
 20
2.19862228337783
 30
0.0
 11
1.26653086600047
 21
2.205184449125862
 31
0.0
  0
LINE
  5
2BD6
330
1E
100
AcDbEntity
  8
7
100
AcDbLine
 10
1.26653086600047
 20
2.205184449125862
 30
0.0
 11
1.26653086600047
 21
2.218308780621925
 31
0.0
  0
LINE
  5
2BD7
330
1E
100
AcDbEntity
  8
7
100
AcDbLine
 10
1.307544401925667
 20
2.19862228337783
 30
0.0
 11
1.307544401925667
 21
2.205184449125862
 31
0.0
  0
LINE
  5
2BD8
330
1E
100
AcDbEntity
  8
7
100
AcDbLine
 10
1.307544401925667
 20
2.205184449125862
 30
0.0
 11
1.307544401925667
 21
2.218308780621925
 31
0.0
  0
LINE
  5
2BD9
330
1E
100
AcDbEntity
  8
7
100
AcDbLine
 10
1.125444302417793
 20
2.466030537610114
 30
0.0
 11
1.130365926728816
 21
2.218308780621925
 31
0.0
  0
LINE
  5
2BDA
330
1E
100
AcDbEntity
  8
7
100
AcDbLine
 10
1.130365926728816
 20
2.218308780621925
 30
0.0
 11
1.171379462654013
 21
2.218308780621925
 31
0.0
  0
LINE
  5
2BDB
330
1E
100
AcDbEntity
  8
7
100
AcDbLine
 10
1.261609241689446
 20
2.466030537610114
 30
0.0
 11
1.26653086600047
 21
2.218308780621925
 31
0.0
  0
LINE
  5
2BDC
330
1E
100
AcDbEntity
  8
7
100
AcDbLine
 10
1.26653086600047
 20
2.218308780621925
 30
0.0
 11
1.307544401925667
 21
2.218308780621925
 31
0.0
  0
LINE
  5
2BDD
330
1E
100
AcDbEntity
  8
7
100
AcDbLine
 10
-0.1476158527003175
 20
2.151046581704601
 30
0.0
 11
0.044327495429604
 21
2.151046581704601
 31
0.0
  0
LINE
  5
2BDE
330
1E
100
AcDbEntity
  8
7
100
AcDbLine
 10
0.044327495429604
 20
2.151046581704601
 30
0.0
 11
0.0607329097996825
 21
2.466030537610114
 31
0.0
  0
LINE
  5
2BDF
330
1E
100
AcDbEntity
  8
7
100
AcDbLine
 10
0.4889142248587382
 20
2.124797918712475
 30
0.0
 11
0.4889142248587382
 21
2.133000625897515
 31
0.0
  0
LINE
  5
2BE0
330
1E
100
AcDbEntity
  8
7
100
AcDbLine
 10
0.4889142248587382
 20
2.133000625897515
 30
0.0
 11
0.4889142248587382
 21
2.151046581704601
 31
0.0
  0
LINE
  5
2BE1
330
1E
100
AcDbEntity
  8
7
100
AcDbLine
 10
0.4889142248587382
 20
2.151046581704601
 30
0.0
 11
0.4725088104886588
 21
2.466030537610114
 31
0.0
  0
LINE
  5
2BE2
330
1E
100
AcDbEntity
  8
7
100
AcDbLine
 10
0.6775764901146433
 20
2.124797918712475
 30
0.0
 11
0.6775764901146433
 21
2.133000625897515
 31
0.0
  0
LINE
  5
2BE3
330
1E
100
AcDbEntity
  8
7
100
AcDbLine
 10
0.6775764901146433
 20
2.133000625897515
 30
0.0
 11
0.6792170315516506
 21
2.151046581704601
 31
0.0
  0
LINE
  5
2BE4
330
1E
100
AcDbEntity
  8
7
100
AcDbLine
 10
1.31246602623669
 20
2.124797918712475
 30
0.0
 11
1.31246602623669
 21
2.133000625897515
 31
0.0
  0
LINE
  5
2BE5
330
1E
100
AcDbEntity
  8
7
100
AcDbLine
 10
1.31246602623669
 20
2.133000625897515
 30
0.0
 11
1.314106567673698
 21
2.151046581704601
 31
0.0
  0
LINE
  5
2BE6
330
1E
100
AcDbEntity
  8
7
100
AcDbLine
 10
1.125444302417793
 20
2.124797918712475
 30
0.0
 11
1.123803760980785
 21
2.133000625897515
 31
0.0
  0
LINE
  5
2BE7
330
1E
100
AcDbEntity
  8
7
100
AcDbLine
 10
1.123803760980785
 20
2.133000625897515
 30
0.0
 11
1.123803760980785
 21
2.151046581704601
 31
0.0
  0
LINE
  5
2BE8
330
1E
100
AcDbEntity
  8
7
100
AcDbLine
 10
1.123803760980785
 20
2.151046581704601
 30
0.0
 11
1.107398346610706
 21
2.466030537610114
 31
0.0
  0
LINE
  5
2BE9
330
1E
100
AcDbEntity
  8
7
100
AcDbLine
 10
-0.3477619080152792
 20
2.466030537610114
 30
0.0
 11
-0.3887754439404753
 21
2.466030537610114
 31
0.0
  0
LINE
  5
2BEA
330
1E
100
AcDbEntity
  8
7
100
AcDbLine
 10
-0.3887754439404753
 20
2.466030537610114
 30
0.0
 11
-1.010540648566459
 21
2.466030537610114
 31
0.0
  0
LINE
  5
2BEB
330
1E
100
AcDbEntity
  8
7
100
AcDbLine
 10
1.586436446217005
 20
2.58414952107468
 30
0.0
 11
1.584795904779998
 21
2.466030537610114
 31
0.0
  0
LINE
  5
2BEC
330
1E
100
AcDbEntity
  8
7
100
AcDbLine
 10
1.584795904779998
 20
2.466030537610114
 30
0.0
 11
1.542141827417792
 21
2.466030537610114
 31
0.0
  0
LINE
  5
2BF2
330
1E
100
AcDbEntity
  8
7
100
AcDbLine
 10
2.291869264130391
 20
2.80890369794476
 30
0.0
 11
2.341085507240627
 21
2.802341532196728
 31
0.0
  0
LINE
  5
2BF3
330
1E
100
AcDbEntity
  8
7
100
AcDbLine
 10
2.341085507240627
 20
2.802341532196728
 30
0.0
 11
2.388661208913856
 21
2.785936117826649
 31
0.0
  0
LINE
  5
2BF4
330
1E
100
AcDbEntity
  8
7
100
AcDbLine
 10
2.388661208913856
 20
2.785936117826649
 30
0.0
 11
2.431315286276061
 21
2.759687454834523
 31
0.0
  0
LINE
  5
2BF5
330
1E
100
AcDbEntity
  8
7
100
AcDbLine
 10
2.431315286276061
 20
2.759687454834523
 30
0.0
 11
2.467407197890234
 21
2.723595543220349
 31
0.0
  0
LINE
  5
2BF6
330
1E
100
AcDbEntity
  8
7
100
AcDbLine
 10
2.467407197890234
 20
2.723595543220349
 30
0.0
 11
2.49365586088236
 21
2.680941465858145
 31
0.0
  0
LINE
  5
2BF7
330
1E
100
AcDbEntity
  8
7
100
AcDbLine
 10
2.49365586088236
 20
2.680941465858145
 30
0.0
 11
2.510061275252438
 21
2.633365764184917
 31
0.0
  0
LINE
  5
2BF8
330
1E
100
AcDbEntity
  8
7
100
AcDbLine
 10
2.510061275252438
 20
2.633365764184917
 30
0.0
 11
2.51662344100047
 21
2.58414952107468
 31
0.0
  0
LINE
  5
2BF9
330
1E
100
AcDbEntity
  8
7
100
AcDbLine
 10
2.51662344100047
 20
2.58414952107468
 30
0.0
 11
2.50842073381543
 21
2.58414952107468
 31
0.0
  0
LINE
  5
2BFA
330
1E
100
AcDbEntity
  8
7
100
AcDbLine
 10
2.50842073381543
 20
2.58414952107468
 30
0.0
 11
2.487093695134328
 21
2.58414952107468
 31
0.0
  0
LINE
  5
2BFB
330
1E
100
AcDbEntity
  8
7
100
AcDbLine
 10
2.487093695134328
 20
2.58414952107468
 30
0.0
 11
2.455923407831178
 21
2.58414952107468
 31
0.0
  0
LINE
  5
2CB2
330
1E
100
AcDbEntity
  8
7
100
AcDbLine
 10
-1.423957090692443
 20
6.521448969893579
 30
0.0
 11
-1.445284129373545
 21
6.485357058279405
 31
0.0
  0
LINE
  5
2CB3
330
1E
100
AcDbEntity
  8
7
100
AcDbLine
 10
-1.445284129373545
 20
6.485357058279405
 30
0.0
 11
-1.445284129373545
 21
6.445984063791216
 31
0.0
  0
LINE
  5
2CB4
330
1E
100
AcDbEntity
  8
7
100
AcDbLine
 10
-1.445284129373545
 20
6.445984063791216
 30
0.0
 11
-1.423957090692443
 21
6.409892152177044
 31
0.0
  0
LINE
  5
2CB5
330
1E
100
AcDbEntity
  8
7
100
AcDbLine
 10
-1.325524604471971
 20
6.409892152177044
 30
0.0
 11
-1.304197565790869
 21
6.445984063791216
 31
0.0
  0
LINE
  5
2CB6
330
1E
100
AcDbEntity
  8
7
100
AcDbLine
 10
-1.304197565790869
 20
6.445984063791216
 30
0.0
 11
-1.304197565790869
 21
6.485357058279405
 31
0.0
  0
LINE
  5
2CB7
330
1E
100
AcDbEntity
  8
7
100
AcDbLine
 10
-1.304197565790869
 20
6.485357058279405
 30
0.0
 11
-1.325524604471971
 21
6.521448969893579
 31
0.0
  0
LINE
  5
2CB8
330
1E
100
AcDbEntity
  8
7
100
AcDbLine
 10
1.857125783323304
 20
6.521448969893579
 30
0.0
 11
1.835798744642202
 21
6.485357058279405
 31
0.0
  0
LINE
  5
2CB9
330
1E
100
AcDbEntity
  8
7
100
AcDbLine
 10
1.835798744642202
 20
6.485357058279405
 30
0.0
 11
1.835798744642202
 21
6.445984063791216
 31
0.0
  0
LINE
  5
2CBA
330
1E
100
AcDbEntity
  8
7
100
AcDbLine
 10
1.835798744642202
 20
6.445984063791216
 30
0.0
 11
1.857125783323304
 21
6.409892152177044
 31
0.0
  0
LINE
  5
2CBB
330
1E
100
AcDbEntity
  8
7
100
AcDbLine
 10
1.955558269543777
 20
6.409892152177044
 30
0.0
 11
1.976885308224879
 21
6.445984063791216
 31
0.0
  0
LINE
  5
2CBC
330
1E
100
AcDbEntity
  8
7
100
AcDbLine
 10
1.976885308224879
 20
6.445984063791216
 30
0.0
 11
1.976885308224879
 21
6.485357058279405
 31
0.0
  0
LINE
  5
2CBD
330
1E
100
AcDbEntity
  8
7
100
AcDbLine
 10
1.976885308224879
 20
6.485357058279405
 30
0.0
 11
1.955558269543777
 21
6.521448969893579
 31
0.0
  0
LINE
  5
2CBE
330
1E
100
AcDbEntity
  8
7
100
AcDbLine
 10
-1.924322228979845
 20
7.840444285247909
 30
0.0
 11
-1.919400604668822
 21
7.833882119499877
 31
0.0
  0
LINE
  5
2CBF
330
1E
100
AcDbEntity
  8
7
100
AcDbLine
 10
-1.919400604668822
 20
7.833882119499877
 30
0.0
 11
-1.907916814609766
 21
7.817476705129799
 31
0.0
  0
LINE
  5
2CC0
330
1E
100
AcDbEntity
  8
7
100
AcDbLine
 10
-1.907916814609766
 20
7.817476705129799
 30
0.0
 11
-1.888230317365671
 21
7.791228042137674
 31
0.0
  0
LINE
  5
2CC1
330
1E
100
AcDbEntity
  8
7
100
AcDbLine
 10
-1.888230317365671
 20
7.791228042137674
 30
0.0
 11
-1.861981654373545
 21
7.755136130523499
 31
0.0
  0
LINE
  5
2CC2
330
1E
100
AcDbEntity
  8
7
100
AcDbLine
 10
-1.861981654373545
 20
7.755136130523499
 30
0.0
 11
-1.830811367070396
 21
7.712482053161296
 31
0.0
  0
LINE
  5
2CC3
330
1E
100
AcDbEntity
  8
7
100
AcDbLine
 10
-1.830811367070396
 20
7.712482053161296
 30
0.0
 11
-1.79635999689323
 21
7.664906351488067
 31
0.0
  0
LINE
  5
2CC4
330
1E
100
AcDbEntity
  8
7
100
AcDbLine
 10
-1.79635999689323
 20
7.664906351488067
 30
0.0
 11
-1.758627543842051
 21
7.615690108377831
 31
0.0
  0
LINE
  5
2CC5
330
1E
100
AcDbEntity
  8
7
100
AcDbLine
 10
2.291869264130391
 20
7.615690108377831
 30
0.0
 11
2.327961175744564
 21
7.664906351488067
 31
0.0
  0
LINE
  5
2CC6
330
1E
100
AcDbEntity
  8
7
100
AcDbLine
 10
2.327961175744564
 20
7.664906351488067
 30
0.0
 11
2.36241254592173
 21
7.712482053161296
 31
0.0
  0
LINE
  5
2CC7
330
1E
100
AcDbEntity
  8
7
100
AcDbLine
 10
2.36241254592173
 20
7.712482053161296
 30
0.0
 11
2.39358283322488
 21
7.755136130523499
 31
0.0
  0
LINE
  5
2CC8
330
1E
100
AcDbEntity
  8
7
100
AcDbLine
 10
2.39358283322488
 20
7.755136130523499
 30
0.0
 11
2.419831496217005
 21
7.791228042137674
 31
0.0
  0
LINE
  5
2CC9
330
1E
100
AcDbEntity
  8
7
100
AcDbLine
 10
2.419831496217005
 20
7.791228042137674
 30
0.0
 11
2.4395179934611
 21
7.817476705129799
 31
0.0
  0
LINE
  5
2CCA
330
1E
100
AcDbEntity
  8
7
100
AcDbLine
 10
2.4395179934611
 20
7.817476705129799
 30
0.0
 11
2.452642324957163
 21
7.833882119499877
 31
0.0
  0
LINE
  5
2CCB
330
1E
100
AcDbEntity
  8
7
100
AcDbLine
 10
2.452642324957163
 20
7.833882119499877
 30
0.0
 11
2.455923407831178
 21
7.840444285247909
 31
0.0
  0
LINE
  5
2CCC
330
1E
100
AcDbEntity
  8
7
100
AcDbLine
 10
2.341085507240627
 20
5.277918560641611
 30
0.0
 11
2.388661208913856
 21
5.243467190464444
 31
0.0
  0
LINE
  5
2CCD
330
1E
100
AcDbEntity
  8
7
100
AcDbLine
 10
2.388661208913856
 20
5.243467190464444
 30
0.0
 11
2.431315286276061
 21
5.212296903161296
 31
0.0
  0
LINE
  5
2CCE
330
1E
100
AcDbEntity
  8
7
100
AcDbLine
 10
2.431315286276061
 20
5.212296903161296
 30
0.0
 11
2.467407197890234
 21
5.18604824016917
 31
0.0
  0
LINE
  5
2CCF
330
1E
100
AcDbEntity
  8
7
100
AcDbLine
 10
2.467407197890234
 20
5.18604824016917
 30
0.0
 11
2.49365586088236
 21
5.166361742925075
 31
0.0
  0
LINE
  5
2CD0
330
1E
100
AcDbEntity
  8
7
100
AcDbLine
 10
2.49365586088236
 20
5.166361742925075
 30
0.0
 11
2.510061275252438
 21
5.154877952866019
 31
0.0
  0
LINE
  5
2CD1
330
1E
100
AcDbEntity
  8
7
100
AcDbLine
 10
2.510061275252438
 20
5.154877952866019
 30
0.0
 11
2.51662344100047
 21
5.149956328554996
 31
0.0
  0
LINE
  5
2CD2
330
1E
100
AcDbEntity
  8
7
100
AcDbLine
 10
2.51662344100047
 20
7.779744252078618
 30
0.0
 11
2.510061275252438
 21
7.776463169204602
 31
0.0
  0
LINE
  5
2CD3
330
1E
100
AcDbEntity
  8
7
100
AcDbLine
 10
2.510061275252438
 20
7.776463169204602
 30
0.0
 11
2.49365586088236
 21
7.763338837708539
 31
0.0
  0
LINE
  5
2CD4
330
1E
100
AcDbEntity
  8
7
100
AcDbLine
 10
2.49365586088236
 20
7.763338837708539
 30
0.0
 11
2.467407197890234
 21
7.743652340464445
 31
0.0
  0
LINE
  5
2CD5
330
1E
100
AcDbEntity
  8
7
100
AcDbLine
 10
2.467407197890234
 20
7.743652340464445
 30
0.0
 11
2.431315286276061
 21
7.717403677472319
 31
0.0
  0
LINE
  5
2CD6
330
1E
100
AcDbEntity
  8
7
100
AcDbLine
 10
2.431315286276061
 20
7.717403677472319
 30
0.0
 11
2.388661208913856
 21
7.68623339016917
 31
0.0
  0
LINE
  5
2CD7
330
1E
100
AcDbEntity
  8
7
100
AcDbLine
 10
2.388661208913856
 20
7.68623339016917
 30
0.0
 11
2.341085507240627
 21
7.651782019992003
 31
0.0
  0
LINE
  5
2CD8
330
1E
100
AcDbEntity
  8
7
100
AcDbLine
 10
2.341085507240627
 20
7.651782019992003
 30
0.0
 11
2.291869264130391
 21
7.615690108377831
 31
0.0
  0
LINE
  5
2CD9
330
1E
100
AcDbEntity
  8
7
100
AcDbLine
 10
-1.983381720712128
 20
5.149956328554996
 30
0.0
 11
-1.978460096401104
 21
5.154877952866019
 31
0.0
  0
LINE
  5
2CDA
330
1E
100
AcDbEntity
  8
7
100
AcDbLine
 10
-1.978460096401104
 20
5.154877952866019
 30
0.0
 11
-1.962054682031027
 21
5.166361742925075
 31
0.0
  0
LINE
  5
2CDB
330
1E
100
AcDbEntity
  8
7
100
AcDbLine
 10
-1.962054682031027
 20
5.166361742925075
 30
0.0
 11
-1.934165477601892
 21
5.18604824016917
 31
0.0
  0
LINE
  5
2CDC
330
1E
100
AcDbEntity
  8
7
100
AcDbLine
 10
-1.934165477601892
 20
5.18604824016917
 30
0.0
 11
-1.899714107424727
 21
5.212296903161296
 31
0.0
  0
LINE
  5
2CDD
330
1E
100
AcDbEntity
  8
7
100
AcDbLine
 10
-1.899714107424727
 20
5.212296903161296
 30
0.0
 11
-1.857060030062521
 21
5.243467190464444
 31
0.0
  0
LINE
  5
2CDE
330
1E
100
AcDbEntity
  8
7
100
AcDbLine
 10
-1.857060030062521
 20
5.243467190464444
 30
0.0
 11
-1.809484328389293
 21
5.277918560641611
 31
0.0
  0
LINE
  5
2CDF
330
1E
100
AcDbEntity
  8
7
100
AcDbLine
 10
-1.758627543842051
 20
7.615690108377831
 30
0.0
 11
-1.809484328389293
 21
7.651782019992003
 31
0.0
  0
LINE
  5
2CE0
330
1E
100
AcDbEntity
  8
7
100
AcDbLine
 10
-1.809484328389293
 20
7.651782019992003
 30
0.0
 11
-1.857060030062521
 21
7.68623339016917
 31
0.0
  0
LINE
  5
2CE1
330
1E
100
AcDbEntity
  8
7
100
AcDbLine
 10
-1.857060030062521
 20
7.68623339016917
 30
0.0
 11
-1.899714107424727
 21
7.717403677472319
 31
0.0
  0
LINE
  5
2CE2
330
1E
100
AcDbEntity
  8
7
100
AcDbLine
 10
-1.899714107424727
 20
7.717403677472319
 30
0.0
 11
-1.934165477601892
 21
7.743652340464445
 31
0.0
  0
LINE
  5
2CE3
330
1E
100
AcDbEntity
  8
7
100
AcDbLine
 10
-1.934165477601892
 20
7.743652340464445
 30
0.0
 11
-1.962054682031027
 21
7.763338837708539
 31
0.0
  0
LINE
  5
2CE4
330
1E
100
AcDbEntity
  8
7
100
AcDbLine
 10
-1.962054682031027
 20
7.763338837708539
 30
0.0
 11
-1.978460096401104
 21
7.776463169204602
 31
0.0
  0
LINE
  5
2CE5
330
1E
100
AcDbEntity
  8
7
100
AcDbLine
 10
-1.978460096401104
 20
7.776463169204602
 30
0.0
 11
-1.983381720712128
 21
7.779744252078618
 31
0.0
  0
LINE
  5
2CE6
330
1E
100
AcDbEntity
  8
7
100
AcDbLine
 10
2.455923407831178
 20
5.089256295385705
 30
0.0
 11
2.452642324957163
 21
5.095818461133736
 31
0.0
  0
LINE
  5
2CE7
330
1E
100
AcDbEntity
  8
7
100
AcDbLine
 10
2.452642324957163
 20
5.095818461133736
 30
0.0
 11
2.4395179934611
 21
5.112223875503814
 31
0.0
  0
LINE
  5
2CE8
330
1E
100
AcDbEntity
  8
7
100
AcDbLine
 10
2.4395179934611
 20
5.112223875503814
 30
0.0
 11
2.419831496217005
 21
5.13847253849594
 31
0.0
  0
LINE
  5
2CE9
330
1E
100
AcDbEntity
  8
7
100
AcDbLine
 10
2.419831496217005
 20
5.13847253849594
 30
0.0
 11
2.39358283322488
 21
5.174564450110114
 31
0.0
  0
LINE
  5
2CEA
330
1E
100
AcDbEntity
  8
7
100
AcDbLine
 10
2.39358283322488
 20
5.174564450110114
 30
0.0
 11
2.36241254592173
 21
5.217218527472318
 31
0.0
  0
LINE
  5
2CEB
330
1E
100
AcDbEntity
  8
7
100
AcDbLine
 10
2.36241254592173
 20
5.217218527472318
 30
0.0
 11
2.327961175744564
 21
5.264794229145548
 31
0.0
  0
LINE
  5
2CEC
330
1E
100
AcDbEntity
  8
7
100
AcDbLine
 10
2.327961175744564
 20
5.264794229145548
 30
0.0
 11
2.291869264130391
 21
5.315651013692792
 31
0.0
  0
LINE
  5
2CED
330
1E
100
AcDbEntity
  8
7
100
AcDbLine
 10
-1.888230317365671
 20
5.13847253849594
 30
0.0
 11
-1.907916814609766
 21
5.112223875503814
 31
0.0
  0
LINE
  5
2CEE
330
1E
100
AcDbEntity
  8
7
100
AcDbLine
 10
-1.907916814609766
 20
5.112223875503814
 30
0.0
 11
-1.919400604668822
 21
5.095818461133736
 31
0.0
  0
LINE
  5
2CEF
330
1E
100
AcDbEntity
  8
7
100
AcDbLine
 10
-1.919400604668822
 20
5.095818461133736
 30
0.0
 11
-1.924322228979845
 21
5.089256295385705
 31
0.0
  0
LINE
  5
2CF0
330
1E
100
AcDbEntity
  8
7
100
AcDbLine
 10
-1.758627543842051
 20
5.315651013692792
 30
0.0
 11
-1.79635999689323
 21
5.264794229145548
 31
0.0
  0
LINE
  5
2CF1
330
1E
100
AcDbEntity
  8
7
100
AcDbLine
 10
-1.79635999689323
 20
5.264794229145548
 30
0.0
 11
-1.830811367070396
 21
5.217218527472318
 31
0.0
  0
LINE
  5
2CF2
330
1E
100
AcDbEntity
  8
7
100
AcDbLine
 10
-1.830811367070396
 20
5.217218527472318
 30
0.0
 11
-1.861981654373545
 21
5.174564450110114
 31
0.0
  0
LINE
  5
2CF3
330
1E
100
AcDbEntity
  8
7
100
AcDbLine
 10
-1.861981654373545
 20
5.174564450110114
 30
0.0
 11
-1.888230317365671
 21
5.13847253849594
 31
0.0
  0
LINE
  5
2CF4
330
1E
100
AcDbEntity
  8
7
100
AcDbLine
 10
2.291869264130391
 20
5.315651013692792
 30
0.0
 11
2.291869264130391
 21
7.615690108377831
 31
0.0
  0
LINE
  5
2CF5
330
1E
100
AcDbEntity
  8
7
100
AcDbLine
 10
2.291869264130391
 20
7.615690108377831
 30
0.0
 11
-1.758627543842051
 21
7.615690108377831
 31
0.0
  0
LINE
  5
2CF6
330
1E
100
AcDbEntity
  8
7
100
AcDbLine
 10
-1.758627543842051
 20
7.615690108377831
 30
0.0
 11
-1.758627543842051
 21
5.315651013692792
 31
0.0
  0
LINE
  5
2CF7
330
1E
100
AcDbEntity
  8
7
100
AcDbLine
 10
-1.758627543842051
 20
5.315651013692792
 30
0.0
 11
2.291869264130391
 21
5.315651013692792
 31
0.0
  0
LINE
  5
2CF8
330
1E
100
AcDbEntity
  8
7
100
AcDbLine
 10
1.830877120331178
 20
6.59691387599594
 30
0.0
 11
1.796425750154014
 21
6.569024671566807
 31
0.0
  0
LINE
  5
2CF9
330
1E
100
AcDbEntity
  8
7
100
AcDbLine
 10
1.796425750154014
 20
6.569024671566807
 30
0.0
 11
1.770177087161887
 21
6.531292218515625
 31
0.0
  0
LINE
  5
2CFA
330
1E
100
AcDbEntity
  8
7
100
AcDbLine
 10
1.770177087161887
 20
6.531292218515625
 30
0.0
 11
1.757052755665824
 21
6.488638141153422
 31
0.0
  0
LINE
  5
2CFB
330
1E
100
AcDbEntity
  8
7
100
AcDbLine
 10
1.757052755665824
 20
6.488638141153422
 30
0.0
 11
1.757052755665824
 21
6.442702980917201
 31
0.0
  0
LINE
  5
2CFC
330
1E
100
AcDbEntity
  8
7
100
AcDbLine
 10
1.757052755665824
 20
6.442702980917201
 30
0.0
 11
1.770177087161887
 21
6.400048903554996
 31
0.0
  0
LINE
  5
2CFD
330
1E
100
AcDbEntity
  8
7
100
AcDbLine
 10
1.770177087161887
 20
6.400048903554996
 30
0.0
 11
1.796425750154014
 21
6.362316450503814
 31
0.0
  0
LINE
  5
2CFE
330
1E
100
AcDbEntity
  8
7
100
AcDbLine
 10
1.796425750154014
 20
6.362316450503814
 30
0.0
 11
1.830877120331178
 21
6.334427246074681
 31
0.0
  0
LINE
  5
2CFF
330
1E
100
AcDbEntity
  8
7
100
AcDbLine
 10
1.830877120331178
 20
6.334427246074681
 30
0.0
 11
1.873531197693383
 21
6.318021831704601
 31
0.0
  0
LINE
  5
2D00
330
1E
100
AcDbEntity
  8
7
100
AcDbLine
 10
1.873531197693383
 20
6.318021831704601
 30
0.0
 11
1.917825816492596
 21
6.314740748830587
 31
0.0
  0
LINE
  5
2D01
330
1E
100
AcDbEntity
  8
7
100
AcDbLine
 10
1.917825816492596
 20
6.314740748830587
 30
0.0
 11
1.962120435291808
 21
6.324583997452632
 31
0.0
  0
LINE
  5
2D02
330
1E
100
AcDbEntity
  8
7
100
AcDbLine
 10
1.962120435291808
 20
6.324583997452632
 30
0.0
 11
1.99985288834299
 21
6.347551577570744
 31
0.0
  0
LINE
  5
2D03
330
1E
100
AcDbEntity
  8
7
100
AcDbLine
 10
1.99985288834299
 20
6.347551577570744
 30
0.0
 11
2.03102317564614
 21
6.380362406310902
 31
0.0
  0
LINE
  5
2D04
330
1E
100
AcDbEntity
  8
7
100
AcDbLine
 10
2.03102317564614
 20
6.380362406310902
 30
0.0
 11
2.050709672890234
 21
6.421375942236098
 31
0.0
  0
LINE
  5
2D05
330
1E
100
AcDbEntity
  8
7
100
AcDbLine
 10
2.050709672890234
 20
6.421375942236098
 30
0.0
 11
2.057271838638266
 21
6.46567056103531
 31
0.0
  0
LINE
  5
2D06
330
1E
100
AcDbEntity
  8
7
100
AcDbLine
 10
2.057271838638266
 20
6.46567056103531
 30
0.0
 11
2.050709672890234
 21
6.509965179834524
 31
0.0
  0
LINE
  5
2D07
330
1E
100
AcDbEntity
  8
7
100
AcDbLine
 10
2.050709672890234
 20
6.509965179834524
 30
0.0
 11
2.03102317564614
 21
6.55097871575972
 31
0.0
  0
LINE
  5
2D08
330
1E
100
AcDbEntity
  8
7
100
AcDbLine
 10
2.03102317564614
 20
6.55097871575972
 30
0.0
 11
1.99985288834299
 21
6.583789544499877
 31
0.0
  0
LINE
  5
2D09
330
1E
100
AcDbEntity
  8
7
100
AcDbLine
 10
1.99985288834299
 20
6.583789544499877
 30
0.0
 11
1.962120435291808
 21
6.606757124617988
 31
0.0
  0
LINE
  5
2D0A
330
1E
100
AcDbEntity
  8
7
100
AcDbLine
 10
1.962120435291808
 20
6.606757124617988
 30
0.0
 11
1.917825816492596
 21
6.616600373240035
 31
0.0
  0
LINE
  5
2D0B
330
1E
100
AcDbEntity
  8
7
100
AcDbLine
 10
1.917825816492596
 20
6.616600373240035
 30
0.0
 11
1.873531197693383
 21
6.613319290366019
 31
0.0
  0
LINE
  5
2D0C
330
1E
100
AcDbEntity
  8
7
100
AcDbLine
 10
1.873531197693383
 20
6.613319290366019
 30
0.0
 11
1.830877120331178
 21
6.59691387599594
 31
0.0
  0
LINE
  5
2D0D
330
1E
100
AcDbEntity
  8
7
100
AcDbLine
 10
-1.318962438723939
 20
6.324583997452632
 30
0.0
 11
-1.281229985672758
 21
6.347551577570744
 31
0.0
  0
LINE
  5
2D0E
330
1E
100
AcDbEntity
  8
7
100
AcDbLine
 10
-1.281229985672758
 20
6.347551577570744
 30
0.0
 11
-1.250059698369608
 21
6.380362406310902
 31
0.0
  0
LINE
  5
2D0F
330
1E
100
AcDbEntity
  8
7
100
AcDbLine
 10
-1.250059698369608
 20
6.380362406310902
 30
0.0
 11
-1.230373201125514
 21
6.421375942236098
 31
0.0
  0
LINE
  5
2D10
330
1E
100
AcDbEntity
  8
7
100
AcDbLine
 10
-1.230373201125514
 20
6.421375942236098
 30
0.0
 11
-1.223811035377482
 21
6.46567056103531
 31
0.0
  0
LINE
  5
2D11
330
1E
100
AcDbEntity
  8
7
100
AcDbLine
 10
-1.281229985672758
 20
6.583789544499877
 30
0.0
 11
-1.318962438723939
 21
6.606757124617988
 31
0.0
  0
LINE
  5
2D12
330
1E
100
AcDbEntity
  8
7
100
AcDbLine
 10
-1.318962438723939
 20
6.606757124617988
 30
0.0
 11
-1.363257057523153
 21
6.616600373240035
 31
0.0
  0
LINE
  5
2D13
330
1E
100
AcDbEntity
  8
7
100
AcDbLine
 10
-1.363257057523153
 20
6.616600373240035
 30
0.0
 11
-1.407551676322364
 21
6.613319290366019
 31
0.0
  0
LINE
  5
2D14
330
1E
100
AcDbEntity
  8
7
100
AcDbLine
 10
-1.407551676322364
 20
6.613319290366019
 30
0.0
 11
-1.450205753684569
 21
6.59691387599594
 31
0.0
  0
LINE
  5
2D15
330
1E
100
AcDbEntity
  8
7
100
AcDbLine
 10
-1.450205753684569
 20
6.59691387599594
 30
0.0
 11
-1.484657123861734
 21
6.569024671566807
 31
0.0
  0
LINE
  5
2D16
330
1E
100
AcDbEntity
  8
7
100
AcDbLine
 10
-1.484657123861734
 20
6.569024671566807
 30
0.0
 11
-1.510905786853861
 21
6.531292218515625
 31
0.0
  0
LINE
  5
2D17
330
1E
100
AcDbEntity
  8
7
100
AcDbLine
 10
-1.510905786853861
 20
6.531292218515625
 30
0.0
 11
-1.524030118349924
 21
6.488638141153422
 31
0.0
  0
LINE
  5
2D18
330
1E
100
AcDbEntity
  8
7
100
AcDbLine
 10
-1.524030118349924
 20
6.488638141153422
 30
0.0
 11
-1.524030118349924
 21
6.442702980917201
 31
0.0
  0
LINE
  5
2D19
330
1E
100
AcDbEntity
  8
7
100
AcDbLine
 10
-1.524030118349924
 20
6.442702980917201
 30
0.0
 11
-1.510905786853861
 21
6.400048903554996
 31
0.0
  0
LINE
  5
2D1A
330
1E
100
AcDbEntity
  8
7
100
AcDbLine
 10
-1.510905786853861
 20
6.400048903554996
 30
0.0
 11
-1.484657123861734
 21
6.362316450503814
 31
0.0
  0
LINE
  5
2D1B
330
1E
100
AcDbEntity
  8
7
100
AcDbLine
 10
-1.484657123861734
 20
6.362316450503814
 30
0.0
 11
-1.450205753684569
 21
6.334427246074681
 31
0.0
  0
LINE
  5
2D1C
330
1E
100
AcDbEntity
  8
7
100
AcDbLine
 10
-1.450205753684569
 20
6.334427246074681
 30
0.0
 11
-1.407551676322364
 21
6.318021831704601
 31
0.0
  0
LINE
  5
2D1D
330
1E
100
AcDbEntity
  8
7
100
AcDbLine
 10
-1.407551676322364
 20
6.318021831704601
 30
0.0
 11
-1.363257057523153
 21
6.314740748830587
 31
0.0
  0
LINE
  5
2D1E
330
1E
100
AcDbEntity
  8
7
100
AcDbLine
 10
-1.363257057523153
 20
6.314740748830587
 30
0.0
 11
-1.318962438723939
 21
6.324583997452632
 31
0.0
  0
LINE
  5
2D1F
330
1E
100
AcDbEntity
  8
7
100
AcDbLine
 10
-1.223811035377482
 20
6.46567056103531
 30
0.0
 11
-1.230373201125514
 21
6.509965179834524
 31
0.0
  0
LINE
  5
2D20
330
1E
100
AcDbEntity
  8
7
100
AcDbLine
 10
-1.230373201125514
 20
6.509965179834524
 30
0.0
 11
-1.250059698369608
 21
6.55097871575972
 31
0.0
  0
LINE
  5
2D21
330
1E
100
AcDbEntity
  8
7
100
AcDbLine
 10
-1.250059698369608
 20
6.55097871575972
 30
0.0
 11
-1.281229985672758
 21
6.583789544499877
 31
0.0
  0
LINE
  5
2D22
330
1E
100
AcDbEntity
  8
7
100
AcDbLine
 10
-1.924322228979845
 20
7.838803743810902
 30
0.0
 11
-1.953851974845988
 21
7.830601036625862
 31
0.0
  0
LINE
  5
2D23
330
1E
100
AcDbEntity
  8
7
100
AcDbLine
 10
-1.953851974845988
 20
7.830601036625862
 30
0.0
 11
-1.97517901352709
 21
7.809273997944759
 31
0.0
  0
LINE
  5
2D24
330
1E
100
AcDbEntity
  8
7
100
AcDbLine
 10
-1.97517901352709
 20
7.809273997944759
 30
0.0
 11
-1.983381720712128
 21
7.779744252078618
 31
0.0
  0
LINE
  5
2D25
330
1E
100
AcDbEntity
  8
7
100
AcDbLine
 10
-1.983381720712128
 20
5.149956328554996
 30
0.0
 11
-1.97517901352709
 21
5.120426582688855
 31
0.0
  0
LINE
  5
2D26
330
1E
100
AcDbEntity
  8
7
100
AcDbLine
 10
-1.97517901352709
 20
5.120426582688855
 30
0.0
 11
-1.953851974845988
 21
5.099099544007751
 31
0.0
  0
LINE
  5
2D27
330
1E
100
AcDbEntity
  8
7
100
AcDbLine
 10
-1.953851974845988
 20
5.099099544007751
 30
0.0
 11
-1.924322228979845
 21
5.090896836822712
 31
0.0
  0
LINE
  5
2D28
330
1E
100
AcDbEntity
  8
7
100
AcDbLine
 10
2.48545315369732
 20
5.099099544007751
 30
0.0
 11
2.506780192378423
 21
5.120426582688855
 31
0.0
  0
LINE
  5
2D29
330
1E
100
AcDbEntity
  8
7
100
AcDbLine
 10
2.506780192378423
 20
5.120426582688855
 30
0.0
 11
2.514982899563462
 21
5.149956328554996
 31
0.0
  0
LINE
  5
2D2A
330
1E
100
AcDbEntity
  8
7
100
AcDbLine
 10
2.514982899563462
 20
7.779744252078618
 30
0.0
 11
2.506780192378423
 21
7.809273997944759
 31
0.0
  0
LINE
  5
2D2B
330
1E
100
AcDbEntity
  8
7
100
AcDbLine
 10
2.506780192378423
 20
7.809273997944759
 30
0.0
 11
2.48545315369732
 21
7.830601036625862
 31
0.0
  0
LINE
  5
2D2C
330
1E
100
AcDbEntity
  8
7
100
AcDbLine
 10
2.48545315369732
 20
7.830601036625862
 30
0.0
 11
2.455923407831178
 21
7.838803743810902
 31
0.0
  0
LINE
  5
2D2D
330
1E
100
AcDbEntity
  8
7
100
AcDbLine
 10
1.955558269543777
 20
6.521448969893579
 30
0.0
 11
1.924387982240627
 21
6.537854384263657
 31
0.0
  0
LINE
  5
2D2E
330
1E
100
AcDbEntity
  8
7
100
AcDbLine
 10
1.924387982240627
 20
6.537854384263657
 30
0.0
 11
1.888296070626454
 21
6.537854384263657
 31
0.0
  0
LINE
  5
2D2F
330
1E
100
AcDbEntity
  8
7
100
AcDbLine
 10
1.888296070626454
 20
6.537854384263657
 30
0.0
 11
1.857125783323304
 21
6.521448969893579
 31
0.0
  0
LINE
  5
2D30
330
1E
100
AcDbEntity
  8
7
100
AcDbLine
 10
1.857125783323304
 20
6.409892152177044
 30
0.0
 11
1.888296070626454
 21
6.393486737806965
 31
0.0
  0
LINE
  5
2D31
330
1E
100
AcDbEntity
  8
7
100
AcDbLine
 10
1.888296070626454
 20
6.393486737806965
 30
0.0
 11
1.924387982240627
 21
6.393486737806965
 31
0.0
  0
LINE
  5
2D32
330
1E
100
AcDbEntity
  8
7
100
AcDbLine
 10
1.924387982240627
 20
6.393486737806965
 30
0.0
 11
1.955558269543777
 21
6.409892152177044
 31
0.0
  0
LINE
  5
2D33
330
1E
100
AcDbEntity
  8
7
100
AcDbLine
 10
-1.325524604471971
 20
6.521448969893579
 30
0.0
 11
-1.356694891775121
 21
6.537854384263657
 31
0.0
  0
LINE
  5
2D34
330
1E
100
AcDbEntity
  8
7
100
AcDbLine
 10
-1.356694891775121
 20
6.537854384263657
 30
0.0
 11
-1.392786803389293
 21
6.537854384263657
 31
0.0
  0
LINE
  5
2D35
330
1E
100
AcDbEntity
  8
7
100
AcDbLine
 10
-1.392786803389293
 20
6.537854384263657
 30
0.0
 11
-1.423957090692443
 21
6.521448969893579
 31
0.0
  0
LINE
  5
2D36
330
1E
100
AcDbEntity
  8
7
100
AcDbLine
 10
-1.423957090692443
 20
6.409892152177044
 30
0.0
 11
-1.392786803389293
 21
6.393486737806965
 31
0.0
  0
LINE
  5
2D37
330
1E
100
AcDbEntity
  8
7
100
AcDbLine
 10
-1.392786803389293
 20
6.393486737806965
 30
0.0
 11
-1.356694891775121
 21
6.393486737806965
 31
0.0
  0
LINE
  5
2D38
330
1E
100
AcDbEntity
  8
7
100
AcDbLine
 10
-1.356694891775121
 20
6.393486737806965
 30
0.0
 11
-1.325524604471971
 21
6.409892152177044
 31
0.0
  0
LINE
  5
2D39
330
1E
100
AcDbEntity
  8
7
100
AcDbLine
 10
-0.7743026816373249
 20
6.828230218614051
 30
0.0
 11
-0.7743026816373249
 21
6.788857224125862
 31
0.0
  0
LINE
  5
2D3A
330
1E
100
AcDbEntity
  8
7
100
AcDbLine
 10
-0.7743026816373249
 20
6.788857224125862
 30
0.0
 11
-0.5987647478774827
 21
6.788857224125862
 31
0.0
  0
LINE
  5
2D3B
330
1E
100
AcDbEntity
  8
7
100
AcDbLine
 10
-0.1394131455152783
 20
6.828230218614051
 30
0.0
 11
-0.1394131455152783
 21
6.788857224125862
 31
0.0
  0
LINE
  5
2D3C
330
1E
100
AcDbEntity
  8
7
100
AcDbLine
 10
-0.1394131455152783
 20
6.788857224125862
 30
0.0
 11
0.0361247882445648
 21
6.788857224125862
 31
0.0
  0
LINE
  5
2D3D
330
1E
100
AcDbEntity
  8
7
100
AcDbLine
 10
0.0508896611776351
 20
6.129359566448696
 30
0.0
 11
0.0508896611776351
 21
6.11951631782665
 31
0.0
  0
LINE
  5
2D3E
330
1E
100
AcDbEntity
  8
7
100
AcDbLine
 10
0.0508896611776351
 20
6.11951631782665
 30
0.0
 11
0.0525302026146433
 21
6.114594693515625
 31
0.0
  0
LINE
  5
2D3F
330
1E
100
AcDbEntity
  8
7
100
AcDbLine
 10
0.0508896611776351
 20
6.21138663829909
 30
0.0
 11
0.0508896611776351
 21
6.181856892432949
 31
0.0
  0
LINE
  5
2D40
330
1E
100
AcDbEntity
  8
7
100
AcDbLine
 10
0.0508896611776351
 20
6.181856892432949
 30
0.0
 11
0.0508896611776351
 21
6.176935268121925
 31
0.0
  0
LINE
  5
2D41
330
1E
100
AcDbEntity
  8
7
100
AcDbLine
 10
0.0508896611776351
 20
6.176935268121925
 30
0.0
 11
0.0508896611776351
 21
6.140843356507751
 31
0.0
  0
LINE
  5
2D42
330
1E
100
AcDbEntity
  8
7
100
AcDbLine
 10
0.0508896611776351
 20
6.140843356507751
 30
0.0
 11
0.0508896611776351
 21
6.129359566448696
 31
0.0
  0
LINE
  5
2D43
330
1E
100
AcDbEntity
  8
7
100
AcDbLine
 10
-0.178786140003468
 20
6.10311090345657
 30
0.0
 11
-0.2969051234680346
 21
6.10311090345657
 31
0.0
  0
LINE
  5
2D44
330
1E
100
AcDbEntity
  8
7
100
AcDbLine
 10
-0.2969051234680346
 20
6.10311090345657
 30
0.0
 11
-0.2969051234680346
 21
6.101470362019562
 31
0.0
  0
LINE
  5
2D45
330
1E
100
AcDbEntity
  8
7
100
AcDbLine
 10
-0.2969051234680346
 20
6.101470362019562
 30
0.0
 11
0.1952573076343285
 21
6.101470362019562
 31
0.0
  0
LINE
  5
2D46
330
1E
100
AcDbEntity
  8
7
100
AcDbLine
 10
0.1952573076343285
 20
6.101470362019562
 30
0.0
 11
0.1936167661973203
 21
6.10311090345657
 31
0.0
  0
LINE
  5
2D47
330
1E
100
AcDbEntity
  8
7
100
AcDbLine
 10
0.1936167661973203
 20
6.10311090345657
 30
0.0
 11
0.0754977827327537
 21
6.10311090345657
 31
0.0
  0
LINE
  5
2D48
330
1E
100
AcDbEntity
  8
7
100
AcDbLine
 10
-0.1541780184483494
 20
6.140843356507751
 30
0.0
 11
-0.1541780184483494
 21
6.176935268121925
 31
0.0
  0
LINE
  5
2D49
330
1E
100
AcDbEntity
  8
7
100
AcDbLine
 10
-0.1541780184483494
 20
6.176935268121925
 30
0.0
 11
-0.1541780184483494
 21
6.181856892432949
 31
0.0
  0
LINE
  5
2D4A
330
1E
100
AcDbEntity
  8
7
100
AcDbLine
 10
-0.178786140003468
 20
6.10311090345657
 30
0.0
 11
-0.1541780184483494
 21
6.114594693515625
 31
0.0
  0
LINE
  5
2D4B
330
1E
100
AcDbEntity
  8
7
100
AcDbLine
 10
-0.1541780184483494
 20
6.114594693515625
 30
0.0
 11
-0.1541780184483494
 21
6.11951631782665
 31
0.0
  0
LINE
  5
2D4C
330
1E
100
AcDbEntity
  8
7
100
AcDbLine
 10
-0.1541780184483494
 20
6.11951631782665
 30
0.0
 11
-0.1541780184483494
 21
6.129359566448696
 31
0.0
  0
LINE
  5
2D4D
330
1E
100
AcDbEntity
  8
7
100
AcDbLine
 10
-0.7890675545703969
 20
6.129359566448696
 30
0.0
 11
-0.7890675545703969
 21
6.11951631782665
 31
0.0
  0
LINE
  5
2D4E
330
1E
100
AcDbEntity
  8
7
100
AcDbLine
 10
-0.7890675545703969
 20
6.11951631782665
 30
0.0
 11
-0.7890675545703969
 21
6.114594693515625
 31
0.0
  0
LINE
  5
2D4F
330
1E
100
AcDbEntity
  8
7
100
AcDbLine
 10
-0.5839998749444125
 20
6.114594693515625
 30
0.0
 11
-0.5839998749444125
 21
6.11951631782665
 31
0.0
  0
LINE
  5
2D50
330
1E
100
AcDbEntity
  8
7
100
AcDbLine
 10
-0.5839998749444125
 20
6.11951631782665
 30
0.0
 11
-0.5839998749444125
 21
6.129359566448696
 31
0.0
  0
LINE
  5
2D51
330
1E
100
AcDbEntity
  8
7
100
AcDbLine
 10
-0.5987647478774827
 20
6.828230218614051
 30
0.0
 11
-0.1394131455152783
 21
6.828230218614051
 31
0.0
  0
LINE
  5
2D52
330
1E
100
AcDbEntity
  8
7
100
AcDbLine
 10
-0.1394131455152783
 20
6.828230218614051
 30
0.0
 11
0.0361247882445648
 21
6.828230218614051
 31
0.0
  0
LINE
  5
2D53
330
1E
100
AcDbEntity
  8
7
100
AcDbLine
 10
-0.9990568585074051
 20
6.828230218614051
 30
0.0
 11
-0.7743026816373249
 21
6.828230218614051
 31
0.0
  0
LINE
  5
2D54
330
1E
100
AcDbEntity
  8
7
100
AcDbLine
 10
-0.7743026816373249
 20
6.828230218614051
 30
0.0
 11
-0.5987647478774827
 21
6.828230218614051
 31
0.0
  0
LINE
  5
2D55
330
1E
100
AcDbEntity
  8
7
100
AcDbLine
 10
1.465036379878423
 20
6.101470362019562
 30
0.0
 11
1.465036379878423
 21
6.167092019499877
 31
0.0
  0
LINE
  5
2D56
330
1E
100
AcDbEntity
  8
7
100
AcDbLine
 10
1.465036379878423
 20
6.167092019499877
 30
0.0
 11
1.463395838441414
 21
6.167092019499877
 31
0.0
  0
LINE
  5
2D57
330
1E
100
AcDbEntity
  8
7
100
AcDbLine
 10
1.305903860488659
 20
6.828230218614051
 30
0.0
 11
1.305903860488659
 21
6.788857224125862
 31
0.0
  0
LINE
  5
2D58
330
1E
100
AcDbEntity
  8
7
100
AcDbLine
 10
1.305903860488659
 20
6.788857224125862
 30
0.0
 11
1.132006468165824
 21
6.788857224125862
 31
0.0
  0
LINE
  5
2D59
330
1E
100
AcDbEntity
  8
7
100
AcDbLine
 10
0.6710143243666123
 20
6.828230218614051
 30
0.0
 11
0.6710143243666123
 21
6.788857224125862
 31
0.0
  0
LINE
  5
2D5A
330
1E
100
AcDbEntity
  8
7
100
AcDbLine
 10
0.6710143243666123
 20
6.788857224125862
 30
0.0
 11
0.4954763906067692
 21
6.788857224125862
 31
0.0
  0
LINE
  5
2D5B
330
1E
100
AcDbEntity
  8
7
100
AcDbLine
 10
0.4807115176736981
 20
6.129359566448696
 30
0.0
 11
0.4807115176736981
 21
6.11951631782665
 31
0.0
  0
LINE
  5
2D5C
330
1E
100
AcDbEntity
  8
7
100
AcDbLine
 10
0.4807115176736981
 20
6.11951631782665
 30
0.0
 11
0.4807115176736981
 21
6.114594693515625
 31
0.0
  0
LINE
  5
2D5D
330
1E
100
AcDbEntity
  8
7
100
AcDbLine
 10
0.6874197387366907
 20
6.114594693515625
 30
0.0
 11
0.6857791972996825
 21
6.11951631782665
 31
0.0
  0
LINE
  5
2D5E
330
1E
100
AcDbEntity
  8
7
100
AcDbLine
 10
0.6857791972996825
 20
6.11951631782665
 30
0.0
 11
0.6857791972996825
 21
6.129359566448696
 31
0.0
  0
LINE
  5
2D5F
330
1E
100
AcDbEntity
  8
7
100
AcDbLine
 10
0.9728739487760611
 20
6.10311090345657
 30
0.0
 11
0.9728739487760611
 21
6.101470362019562
 31
0.0
  0
LINE
  5
2D60
330
1E
100
AcDbEntity
  8
7
100
AcDbLine
 10
0.9728739487760611
 20
6.101470362019562
 30
0.0
 11
1.465036379878423
 21
6.101470362019562
 31
0.0
  0
LINE
  5
2D61
330
1E
100
AcDbEntity
  8
7
100
AcDbLine
 10
1.345276854976848
 20
6.10311090345657
 30
0.0
 11
1.322309274858738
 21
6.114594693515625
 31
0.0
  0
LINE
  5
2D62
330
1E
100
AcDbEntity
  8
7
100
AcDbLine
 10
1.322309274858738
 20
6.114594693515625
 30
0.0
 11
1.115601053795745
 21
6.114594693515625
 31
0.0
  0
LINE
  5
2D63
330
1E
100
AcDbEntity
  8
7
100
AcDbLine
 10
1.322309274858738
 20
6.21138663829909
 30
0.0
 11
1.322309274858738
 21
6.181856892432949
 31
0.0
  0
LINE
  5
2D64
330
1E
100
AcDbEntity
  8
7
100
AcDbLine
 10
1.322309274858738
 20
6.181856892432949
 30
0.0
 11
1.322309274858738
 21
6.176935268121925
 31
0.0
  0
LINE
  5
2D65
330
1E
100
AcDbEntity
  8
7
100
AcDbLine
 10
1.322309274858738
 20
6.176935268121925
 30
0.0
 11
1.320668733421729
 21
6.140843356507751
 31
0.0
  0
LINE
  5
2D66
330
1E
100
AcDbEntity
  8
7
100
AcDbLine
 10
1.320668733421729
 20
6.140843356507751
 30
0.0
 11
1.320668733421729
 21
6.129359566448696
 31
0.0
  0
LINE
  5
2D67
330
1E
100
AcDbEntity
  8
7
100
AcDbLine
 10
1.320668733421729
 20
6.129359566448696
 30
0.0
 11
1.320668733421729
 21
6.11951631782665
 31
0.0
  0
LINE
  5
2D68
330
1E
100
AcDbEntity
  8
7
100
AcDbLine
 10
1.320668733421729
 20
6.11951631782665
 30
0.0
 11
1.322309274858738
 21
6.114594693515625
 31
0.0
  0
LINE
  5
2D69
330
1E
100
AcDbEntity
  8
7
100
AcDbLine
 10
1.115601053795745
 20
6.140843356507751
 30
0.0
 11
1.115601053795745
 21
6.176935268121925
 31
0.0
  0
LINE
  5
2D6A
330
1E
100
AcDbEntity
  8
7
100
AcDbLine
 10
1.115601053795745
 20
6.176935268121925
 30
0.0
 11
1.115601053795745
 21
6.181856892432949
 31
0.0
  0
LINE
  5
2D6B
330
1E
100
AcDbEntity
  8
7
100
AcDbLine
 10
1.115601053795745
 20
6.114594693515625
 30
0.0
 11
1.115601053795745
 21
6.11951631782665
 31
0.0
  0
LINE
  5
2D6C
330
1E
100
AcDbEntity
  8
7
100
AcDbLine
 10
1.115601053795745
 20
6.11951631782665
 30
0.0
 11
1.115601053795745
 21
6.129359566448696
 31
0.0
  0
ENDSEC
  0
SECTION
  2
OBJECTS
  0
DICTIONARY
  5
C
330
0
100
AcDbDictionary
  3
ACAD_GROUP
350
D
  3
ACAD_LAYOUT
350
19
  3
ACAD_MLINESTYLE
350
16
  3
ACAD_PLOTSETTINGS
350
18
1001
ACAD
1000
TREAT_AS_HARD
1070
     0
  0
DICTIONARY
  5
3FB6
330
1E
100
AcDbDictionary
  3
ACAD_LAYOUTSELFREF
350
4020
1001
ACAD
1000
TREAT_AS_HARD
1070
     1
  0
DICTIONARY
  5
3FB8
330
1A
100
AcDbDictionary
  3
ACAD_LAYOUTSELFREF
350
401F
1001
ACAD
1000
TREAT_AS_HARD
1070
     1
  0
DICTIONARY
  5
D
102
{ACAD_REACTORS
330
C
102
}
330
C
100
AcDbDictionary
1001
ACAD
1000
TREAT_AS_HARD
1070
     0
  0
DICTIONARY
  5
19
102
{ACAD_REACTORS
330
C
102
}
330
C
100
AcDbDictionary
1001
ACAD
1000
TREAT_AS_HARD
1070
     0
  0
DICTIONARY
  5
16
102
{ACAD_REACTORS
330
C
102
}
330
C
100
AcDbDictionary
  3
STANDARD
350
17
1001
ACAD
1000
TREAT_AS_HARD
1070
     0
  0
DICTIONARY
  5
18
102
{ACAD_REACTORS
330
C
102
}
330
C
100
AcDbDictionary
1001
ACAD
1000
TREAT_AS_HARD
1070
     0
  0
XRECORD
  5
4020
102
{ACAD_REACTORS
330
3FB6
102
}
330
3FB6
100
AcDbXrecord
340
1E
  0
XRECORD
  5
401F
102
{ACAD_REACTORS
330
3FB8
102
}
330
3FB8
100
AcDbXrecord
340
1A
  0
MLINESTYLE
  5
17
102
{ACAD_REACTORS
330
16
102
}
330
16
100
AcDbMlineStyle
  2
STANDARD
 70
     0
  3

 62
   256
 51
90.0
 52
90.0
 71
     2
 49
0.5
 62
   256
  6
BYLAYER
 49
-0.5
 62
   256
  6
BYLAYER
  0
ENDSEC
  0
EOF
