  0
SECTION
  2
HEADER
  9
$ACADVER
  1
AC1012
  9
$DWGCODEPAGE
  3
ANSI_1252
  9
$INSBASE
 10
0.0
 20
0.0
 30
0.0
  9
$EXTMIN
 10
-5.577758767616188
 20
6.49401858320229
 30
-0.0015258207003583
  9
$EXTMAX
 10
12.40319827059656
 20
11.49417116643647
 30
0.0000000349246037
  9
$LIMMIN
 10
0.0
 20
0.0
  9
$LIMMAX
 10
12.0
 20
9.0
  9
$ORTHOMODE
 70
     0
  9
$REGENMODE
 70
     1
  9
$FILLMODE
 70
     1
  9
$QTEXTMODE
 70
     0
  9
$MIRRTEXT
 70
     1
  9
$DRAGMODE
 70
     2
  9
$LTSCALE
 40
1.0
  9
$OSMODE
 70
    37
  9
$ATTMODE
 70
     1
  9
$TEXTSIZE
 40
0.2
  9
$TRACEWID
 40
0.05
  9
$TEXTSTYLE
  7
STANDARD
  9
$CLAYER
  8
0
  9
$CELTYPE
  6
BYLAYER
  9
$CECOLOR
 62
   256
  9
$CELTSCALE
 40
1.0
  9
$DELOBJ
 70
     1
  9
$DISPSILH
 70
     0
  9
$DIMSCALE
 40
1.0
  9
$DIMASZ
 40
0.18
  9
$DIMEXO
 40
0.0625
  9
$DIMDLI
 40
0.38
  9
$DIMRND
 40
0.0
  9
$DIMDLE
 40
0.0
  9
$DIMEXE
 40
0.18
  9
$DIMTP
 40
0.0
  9
$DIMTM
 40
0.0
  9
$DIMTXT
 40
0.18
  9
$DIMCEN
 40
0.09
  9
$DIMTSZ
 40
0.0
  9
$DIMTOL
 70
     0
  9
$DIMLIM
 70
     0
  9
$DIMTIH
 70
     1
  9
$DIMTOH
 70
     1
  9
$DIMSE1
 70
     0
  9
$DIMSE2
 70
     0
  9
$DIMTAD
 70
     0
  9
$DIMZIN
 70
     0
  9
$DIMBLK
  1

  9
$DIMASO
 70
     1
  9
$DIMSHO
 70
     1
  9
$DIMPOST
  1

  9
$DIMAPOST
  1

  9
$DIMALT
 70
     0
  9
$DIMALTD
 70
     2
  9
$DIMALTF
 40
25.4
  9
$DIMLFAC
 40
1.0
  9
$DIMTOFL
 70
     0
  9
$DIMTVP
 40
0.0
  9
$DIMTIX
 70
     0
  9
$DIMSOXD
 70
     0
  9
$DIMSAH
 70
     0
  9
$DIMBLK1
  1

  9
$DIMBLK2
  1

  9
$DIMSTYLE
  2
STANDARD
  9
$DIMCLRD
 70
     0
  9
$DIMCLRE
 70
     0
  9
$DIMCLRT
 70
     0
  9
$DIMTFAC
 40
1.0
  9
$DIMGAP
 40
0.09
  9
$DIMJUST
 70
     0
  9
$DIMSD1
 70
     0
  9
$DIMSD2
 70
     0
  9
$DIMTOLJ
 70
     1
  9
$DIMTZIN
 70
     0
  9
$DIMALTZ
 70
     0
  9
$DIMALTTZ
 70
     0
  9
$DIMFIT
 70
     5
  9
$DIMUPT
 70
     0
  9
$DIMUNIT
 70
     2
  9
$DIMDEC
 70
     4
  9
$DIMTDEC
 70
     4
  9
$DIMALTU
 70
     2
  9
$DIMALTTD
 70
     2
  9
$DIMTXSTY
  7
STANDARD
  9
$DIMAUNIT
 70
     0
  9
$LUNITS
 70
     2
  9
$LUPREC
 70
     4
  9
$SKETCHINC
 40
0.1
  9
$FILLETRAD
 40
0.0
  9
$AUNITS
 70
     0
  9
$AUPREC
 70
     0
  9
$MENU
  1
acad
  9
$ELEVATION
 40
0.0
  9
$PELEVATION
 40
0.0
  9
$THICKNESS
 40
0.0
  9
$LIMCHECK
 70
     0
  9
$BLIPMODE
 70
     0
  9
$CHAMFERA
 40
0.0
  9
$CHAMFERB
 40
0.0
  9
$CHAMFERC
 40
0.0
  9
$CHAMFERD
 40
0.0
  9
$SKPOLY
 70
     0
  9
$TDCREATE
 40
2453088.471574074
  9
$TDUPDATE
 40
2453088.473451828
  9
$TDINDWG
 40
0.0008940972
  9
$TDUSRTIMER
 40
0.0008940972
  9
$USRTIMER
 70
     1
  9
$ANGBASE
 50
0.0
  9
$ANGDIR
 70
     0
  9
$PDMODE
 70
     0
  9
$PDSIZE
 40
0.0
  9
$PLINEWID
 40
0.0
  9
$COORDS
 70
     1
  9
$SPLFRAME
 70
     0
  9
$SPLINETYPE
 70
     6
  9
$SPLINESEGS
 70
     8
  9
$ATTDIA
 70
     0
  9
$ATTREQ
 70
     1
  9
$HANDLING
 70
  4097
  9
$HANDSEED
  5
3EB7
  9
$SURFTAB1
 70
     6
  9
$SURFTAB2
 70
     6
  9
$SURFTYPE
 70
     6
  9
$SURFU
 70
     6
  9
$SURFV
 70
     6
  9
$UCSNAME
  2

  9
$UCSORG
 10
0.0
 20
0.0
 30
0.0
  9
$UCSXDIR
 10
1.0
 20
0.0
 30
0.0
  9
$UCSYDIR
 10
0.0
 20
1.0
 30
0.0
  9
$PUCSNAME
  2

  9
$PUCSORG
 10
0.0
 20
0.0
 30
0.0
  9
$PUCSXDIR
 10
1.0
 20
0.0
 30
0.0
  9
$PUCSYDIR
 10
0.0
 20
1.0
 30
0.0
  9
$USERI1
 70
     0
  9
$USERI2
 70
     0
  9
$USERI3
 70
     0
  9
$USERI4
 70
     0
  9
$USERI5
 70
     0
  9
$USERR1
 40
0.0
  9
$USERR2
 40
0.0
  9
$USERR3
 40
0.0
  9
$USERR4
 40
0.0
  9
$USERR5
 40
0.0
  9
$WORLDVIEW
 70
     1
  9
$SHADEDGE
 70
     3
  9
$SHADEDIF
 70
    70
  9
$TILEMODE
 70
     1
  9
$MAXACTVP
 70
    16
  9
$PINSBASE
 10
0.0
 20
0.0
 30
0.0
  9
$PLIMCHECK
 70
     0
  9
$PEXTMIN
 10
1.000000000000000E+20
 20
1.000000000000000E+20
 30
1.000000000000000E+20
  9
$PEXTMAX
 10
-1.000000000000000E+20
 20
-1.000000000000000E+20
 30
-1.000000000000000E+20
  9
$PLIMMIN
 10
0.0
 20
0.0
  9
$PLIMMAX
 10
12.0
 20
9.0
  9
$UNITMODE
 70
     0
  9
$VISRETAIN
 70
     0
  9
$PLINEGEN
 70
     0
  9
$PSLTSCALE
 70
     1
  9
$TREEDEPTH
 70
  3020
  9
$PICKSTYLE
 70
     1
  9
$CMLSTYLE
  2
STANDARD
  9
$CMLJUST
 70
     0
  9
$CMLSCALE
 40
1.0
  9
$SAVEIMAGES
 70
     1
  0
ENDSEC
  0
SECTION
  2
CLASSES
  0
CLASS
  1
ACDBDICTIONARYWDFLT
  2
AcDbDictionaryWithDefault
  3
AutoCAD 2000
 90
    32768
280
     0
281
     0
  0
CLASS
  1
ACDBPLACEHOLDER
  2
AcDbPlaceHolder
  3
AutoCAD 2000
 90
    32768
280
     0
281
     0
  0
CLASS
  1
LAYOUT
  2
AcDbLayout
  3
AutoCAD 2000
 90
    32768
280
     0
281
     0
  0
CLASS
  1
LONG_TRANSACTION
  2
AcDbLongTransaction
  3
AutoCAD 2000
 90
    32768
280
     0
281
     0
  0
CLASS
  1
LWPOLYLINE
  2
AcDbPolyline
  3
AutoCAD 2000
 90
    32768
280
     0
281
     1
  0
CLASS
  1
HATCH
  2
AcDbHatch
  3
AutoCAD 2000
 90
    32768
280
     0
281
     1
  0
CLASS
  1
XRECORD
  2
AcDbXrecord
  3
AutoCAD 2000
 90
    32768
280
     0
281
     0
  0
ENDSEC
  0
SECTION
  2
TABLES
  0
TABLE
  2
VPORT
  5
8
330
0
100
AcDbSymbolTable
 70
     3
  0
VPORT
  5
3EB2
330
8
100
AcDbSymbolTableRecord
100
AcDbViewportTableRecord
  2
*ACTIVE
 70
     0
 10
0.0
 20
0.0
 11
1.0
 21
1.0
 12
3.412719751490186
 22
8.994094874819385
 13
0.0
 23
0.0
 14
1.0
 24
1.0
 15
0.0
 25
0.0
 16
0.0
 26
0.0
 36
1.0
 17
0.0
 27
0.0
 37
0.0
 40
9.884067095379334
 41
1.831013916500994
 42
50.0
 43
0.0
 44
0.0
 50
0.0
 51
0.0
 71
     0
 72
   100
 73
     1
 74
     1
 75
     0
 76
     0
 77
     0
 78
     0
  0
ENDTAB
  0
TABLE
  2
LTYPE
  5
5
330
0
100
AcDbSymbolTable
 70
    25
  0
LTYPE
  5
13
330
5
100
AcDbSymbolTableRecord
100
AcDbLinetypeTableRecord
  2
BYBLOCK
 70
     0
  3

 72
    65
 73
     0
 40
0.0
  0
LTYPE
  5
14
330
5
100
AcDbSymbolTableRecord
100
AcDbLinetypeTableRecord
  2
BYLAYER
 70
     0
  3

 72
    65
 73
     0
 40
0.0
  0
LTYPE
  5
15
330
5
100
AcDbSymbolTableRecord
100
AcDbLinetypeTableRecord
  2
CONTINUOUS
 70
     0
  3
Solid line
 72
    65
 73
     0
 40
0.0
  0
LTYPE
  5
22
330
5
100
AcDbSymbolTableRecord
100
AcDbLinetypeTableRecord
  2
BORDER
 70
     0
  3
__ __ . __ __ . __ __ . __ __ . __ __ . __ __ .
 72
    65
 73
     6
 40
1.75
 49
0.5
 74
     0
 49
-0.25
 74
     0
 49
0.5
 74
     0
 49
-0.25
 74
     0
 49
0.5
 74
     0
 49
-0.25
 74
     0
  0
LTYPE
  5
23
330
5
100
AcDbSymbolTableRecord
100
AcDbLinetypeTableRecord
  2
BORDER2
 70
     0
  3
__.__.__.__.__.__.__.__.__.__.__.__.__.__.__.__
 72
    65
 73
     6
 40
0.875
 49
0.25
 74
     0
 49
-0.125
 74
     0
 49
0.25
 74
     0
 49
-0.125
 74
     0
 49
0.25
 74
     0
 49
-0.125
 74
     0
  0
LTYPE
  5
24
330
5
100
AcDbSymbolTableRecord
100
AcDbLinetypeTableRecord
  2
BORDERX2
 70
     0
  3
____  ____  .  ____  ____  .  
 72
    65
 73
     6
 40
3.5
 49
1.0
 74
     0
 49
-0.5
 74
     0
 49
1.0
 74
     0
 49
-0.5
 74
     0
 49
1.0
 74
     0
 49
-0.5
 74
     0
  0
LTYPE
  5
25
330
5
100
AcDbSymbolTableRecord
100
AcDbLinetypeTableRecord
  2
CENTER
 70
     0
  3
____ _ ____ _ ____ _ ____ _ ____ _ ____ _ ____
 72
    65
 73
     4
 40
2.0
 49
1.25
 74
     0
 49
-0.25
 74
     0
 49
0.25
 74
     0
 49
-0.25
 74
     0
  0
LTYPE
  5
26
330
5
100
AcDbSymbolTableRecord
100
AcDbLinetypeTableRecord
  2
CENTER2
 70
     0
  3
____ _ ____ _ ____ _ ____ _ ____ _ ____ _ ____
 72
    65
 73
     4
 40
1.125
 49
0.75
 74
     0
 49
-0.125
 74
     0
 49
0.125
 74
     0
 49
-0.125
 74
     0
  0
LTYPE
  5
27
330
5
100
AcDbSymbolTableRecord
100
AcDbLinetypeTableRecord
  2
CENTERX2
 70
     0
  3
________  __  ________  __  ________  __  
 72
    65
 73
     4
 40
4.0
 49
2.5
 74
     0
 49
-0.5
 74
     0
 49
0.5
 74
     0
 49
-0.5
 74
     0
  0
LTYPE
  5
28
330
5
100
AcDbSymbolTableRecord
100
AcDbLinetypeTableRecord
  2
DASHDOT
 70
     0
  3
__ . __ . __ . __ . __ . __ . __ . 
 72
    65
 73
     4
 40
1.0
 49
0.5
 74
     0
 49
-0.25
 74
     0
 49
0.0
 74
     0
 49
-0.25
 74
     0
  0
LTYPE
  5
29
330
5
100
AcDbSymbolTableRecord
100
AcDbLinetypeTableRecord
  2
DASHDOT2
 70
     0
  3
_._._._._._._._._._._._._._._._.
 72
    65
 73
     4
 40
0.5
 49
0.25
 74
     0
 49
-0.125
 74
     0
 49
0.0
 74
     0
 49
-0.125
 74
     0
  0
LTYPE
  5
2A
330
5
100
AcDbSymbolTableRecord
100
AcDbLinetypeTableRecord
  2
DASHDOTX2
 70
     0
  3
____  .  ____  .  ____  .  ____  .  
 72
    65
 73
     4
 40
2.0
 49
1.0
 74
     0
 49
-0.5
 74
     0
 49
0.0
 74
     0
 49
-0.5
 74
     0
  0
LTYPE
  5
2B
330
5
100
AcDbSymbolTableRecord
100
AcDbLinetypeTableRecord
  2
DASHED
 70
     0
  3
__ __ __ __ __ __ __ __ __ __ __ __ 
 72
    65
 73
     2
 40
0.75
 49
0.5
 74
     0
 49
-0.25
 74
     0
  0
LTYPE
  5
2C
330
5
100
AcDbSymbolTableRecord
100
AcDbLinetypeTableRecord
  2
DASHED2
 70
     0
  3
_ _ _ _ _ _ _ _ _ _ _ _ _ _ _ _ _ _ 
 72
    65
 73
     2
 40
0.375
 49
0.25
 74
     0
 49
-0.125
 74
     0
  0
LTYPE
  5
2D
330
5
100
AcDbSymbolTableRecord
100
AcDbLinetypeTableRecord
  2
DASHEDX2
 70
     0
  3
____  ____  ____  ____  ____  ____  
 72
    65
 73
     2
 40
1.5
 49
1.0
 74
     0
 49
-0.5
 74
     0
  0
LTYPE
  5
2E
330
5
100
AcDbSymbolTableRecord
100
AcDbLinetypeTableRecord
  2
DIVIDE
 70
     0
  3
____ . . ____ . . ____ . . ____ . . 
 72
    65
 73
     6
 40
1.25
 49
0.5
 74
     0
 49
-0.25
 74
     0
 49
0.0
 74
     0
 49
-0.25
 74
     0
 49
0.0
 74
     0
 49
-0.25
 74
     0
  0
LTYPE
  5
2F
330
5
100
AcDbSymbolTableRecord
100
AcDbLinetypeTableRecord
  2
DIVIDE2
 70
     0
  3
__..__..__..__..__..__..__..__..__..
 72
    65
 73
     6
 40
0.625
 49
0.25
 74
     0
 49
-0.125
 74
     0
 49
0.0
 74
     0
 49
-0.125
 74
     0
 49
0.0
 74
     0
 49
-0.125
 74
     0
  0
LTYPE
  5
30
330
5
100
AcDbSymbolTableRecord
100
AcDbLinetypeTableRecord
  2
DIVIDEX2
 70
     0
  3
________  .  .  ________  .  .  ________  .  . 
 72
    65
 73
     6
 40
2.5
 49
1.0
 74
     0
 49
-0.5
 74
     0
 49
0.0
 74
     0
 49
-0.5
 74
     0
 49
0.0
 74
     0
 49
-0.5
 74
     0
  0
LTYPE
  5
31
330
5
100
AcDbSymbolTableRecord
100
AcDbLinetypeTableRecord
  2
DOT
 70
     0
  3
. . . . . . . . . . . . . . . . . . 
 72
    65
 73
     2
 40
0.25
 49
0.0
 74
     0
 49
-0.25
 74
     0
  0
LTYPE
  5
32
330
5
100
AcDbSymbolTableRecord
100
AcDbLinetypeTableRecord
  2
DOT2
 70
     0
  3
....................................
 72
    65
 73
     2
 40
0.125
 49
0.0
 74
     0
 49
-0.125
 74
     0
  0
LTYPE
  5
33
330
5
100
AcDbSymbolTableRecord
100
AcDbLinetypeTableRecord
  2
DOTX2
 70
     0
  3
.  .  .  .  .  .  .  .  .  .  .  .  .  
 72
    65
 73
     2
 40
0.5
 49
0.0
 74
     0
 49
-0.5
 74
     0
  0
LTYPE
  5
34
330
5
100
AcDbSymbolTableRecord
100
AcDbLinetypeTableRecord
  2
HIDDEN
 70
     0
  3
__ __ __ __ __ __ __ __ __ __ __ __ 
 72
    65
 73
     2
 40
0.375
 49
0.25
 74
     0
 49
-0.125
 74
     0
  0
LTYPE
  5
35
330
5
100
AcDbSymbolTableRecord
100
AcDbLinetypeTableRecord
  2
HIDDEN2
 70
     0
  3
_ _ _ _ _ _ _ _ _ _ _ _ _ _ _ _ _ _ 
 72
    65
 73
     2
 40
0.1875
 49
0.125
 74
     0
 49
-0.0625
 74
     0
  0
LTYPE
  5
36
330
5
100
AcDbSymbolTableRecord
100
AcDbLinetypeTableRecord
  2
HIDDENX2
 70
     0
  3
____ ____ ____ ____ ____ ____ ____ 
 72
    65
 73
     2
 40
0.75
 49
0.5
 74
     0
 49
-0.25
 74
     0
  0
LTYPE
  5
37
330
5
100
AcDbSymbolTableRecord
100
AcDbLinetypeTableRecord
  2
PHANTOM
 70
     0
  3
______  __  __  ______  __  __  
 72
    65
 73
     6
 40
2.5
 49
1.25
 74
     0
 49
-0.25
 74
     0
 49
0.25
 74
     0
 49
-0.25
 74
     0
 49
0.25
 74
     0
 49
-0.25
 74
     0
  0
LTYPE
  5
38
330
5
100
AcDbSymbolTableRecord
100
AcDbLinetypeTableRecord
  2
PHANTOM2
 70
     0
  3
___ _ _ ___ _ _ ___ _ _ ___ _ _ 
 72
    65
 73
     6
 40
1.25
 49
0.625
 74
     0
 49
-0.125
 74
     0
 49
0.125
 74
     0
 49
-0.125
 74
     0
 49
0.125
 74
     0
 49
-0.125
 74
     0
  0
LTYPE
  5
39
330
5
100
AcDbSymbolTableRecord
100
AcDbLinetypeTableRecord
  2
PHANTOMX2
 70
     0
  3
___ _ _ ___ _ _ ___ _ _ ___ _ _ 
 72
    65
 73
     6
 40
5.0
 49
2.5
 74
     0
 49
-0.5
 74
     0
 49
0.5
 74
     0
 49
-0.5
 74
     0
 49
0.5
 74
     0
 49
-0.5
 74
     0
  0
ENDTAB
  0
TABLE
  2
LAYER
  5
2
330
0
100
AcDbSymbolTable
 70
   257
  0
LAYER
  5
10
330
2
100
AcDbSymbolTableRecord
100
AcDbLayerTableRecord
  2
0
 70
     0
 62
     7
  6
CONTINUOUS
  0
LAYER
  5
3A
330
2
100
AcDbSymbolTableRecord
100
AcDbLayerTableRecord
  2
1
 70
     0
 62
     1
  6
CONTINUOUS
  0
LAYER
  5
3B
330
2
100
AcDbSymbolTableRecord
100
AcDbLayerTableRecord
  2
2
 70
     0
 62
     2
  6
CONTINUOUS
  0
LAYER
  5
3C
330
2
100
AcDbSymbolTableRecord
100
AcDbLayerTableRecord
  2
3
 70
     0
 62
     3
  6
CONTINUOUS
  0
LAYER
  5
3D
330
2
100
AcDbSymbolTableRecord
100
AcDbLayerTableRecord
  2
4
 70
     0
 62
     4
  6
CONTINUOUS
  0
LAYER
  5
3E
330
2
100
AcDbSymbolTableRecord
100
AcDbLayerTableRecord
  2
5
 70
     0
 62
     5
  6
CONTINUOUS
  0
LAYER
  5
3F
330
2
100
AcDbSymbolTableRecord
100
AcDbLayerTableRecord
  2
6
 70
     0
 62
     6
  6
CONTINUOUS
  0
LAYER
  5
40
330
2
100
AcDbSymbolTableRecord
100
AcDbLayerTableRecord
  2
7
 70
     0
 62
     7
  6
CONTINUOUS
  0
LAYER
  5
41
330
2
100
AcDbSymbolTableRecord
100
AcDbLayerTableRecord
  2
8
 70
     0
 62
     8
  6
CONTINUOUS
  0
LAYER
  5
42
330
2
100
AcDbSymbolTableRecord
100
AcDbLayerTableRecord
  2
9
 70
     0
 62
     9
  6
CONTINUOUS
  0
LAYER
  5
43
330
2
100
AcDbSymbolTableRecord
100
AcDbLayerTableRecord
  2
10
 70
     0
 62
    10
  6
CONTINUOUS
  0
LAYER
  5
44
330
2
100
AcDbSymbolTableRecord
100
AcDbLayerTableRecord
  2
11
 70
     0
 62
    11
  6
CONTINUOUS
  0
LAYER
  5
45
330
2
100
AcDbSymbolTableRecord
100
AcDbLayerTableRecord
  2
12
 70
     0
 62
    12
  6
CONTINUOUS
  0
LAYER
  5
46
330
2
100
AcDbSymbolTableRecord
100
AcDbLayerTableRecord
  2
13
 70
     0
 62
    13
  6
CONTINUOUS
  0
LAYER
  5
47
330
2
100
AcDbSymbolTableRecord
100
AcDbLayerTableRecord
  2
14
 70
     0
 62
    14
  6
CONTINUOUS
  0
LAYER
  5
48
330
2
100
AcDbSymbolTableRecord
100
AcDbLayerTableRecord
  2
15
 70
     0
 62
    15
  6
CONTINUOUS
  0
LAYER
  5
49
330
2
100
AcDbSymbolTableRecord
100
AcDbLayerTableRecord
  2
16
 70
     0
 62
    16
  6
CONTINUOUS
  0
LAYER
  5
4A
330
2
100
AcDbSymbolTableRecord
100
AcDbLayerTableRecord
  2
17
 70
     0
 62
    17
  6
CONTINUOUS
  0
LAYER
  5
4B
330
2
100
AcDbSymbolTableRecord
100
AcDbLayerTableRecord
  2
18
 70
     0
 62
    18
  6
CONTINUOUS
  0
LAYER
  5
4C
330
2
100
AcDbSymbolTableRecord
100
AcDbLayerTableRecord
  2
19
 70
     0
 62
    19
  6
CONTINUOUS
  0
LAYER
  5
4D
330
2
100
AcDbSymbolTableRecord
100
AcDbLayerTableRecord
  2
20
 70
     0
 62
    20
  6
CONTINUOUS
  0
LAYER
  5
4E
330
2
100
AcDbSymbolTableRecord
100
AcDbLayerTableRecord
  2
21
 70
     0
 62
    21
  6
CONTINUOUS
  0
LAYER
  5
4F
330
2
100
AcDbSymbolTableRecord
100
AcDbLayerTableRecord
  2
22
 70
     0
 62
    22
  6
CONTINUOUS
  0
LAYER
  5
50
330
2
100
AcDbSymbolTableRecord
100
AcDbLayerTableRecord
  2
23
 70
     0
 62
    23
  6
CONTINUOUS
  0
LAYER
  5
51
330
2
100
AcDbSymbolTableRecord
100
AcDbLayerTableRecord
  2
24
 70
     0
 62
    24
  6
CONTINUOUS
  0
LAYER
  5
52
330
2
100
AcDbSymbolTableRecord
100
AcDbLayerTableRecord
  2
25
 70
     0
 62
    25
  6
CONTINUOUS
  0
LAYER
  5
53
330
2
100
AcDbSymbolTableRecord
100
AcDbLayerTableRecord
  2
26
 70
     0
 62
    26
  6
CONTINUOUS
  0
LAYER
  5
54
330
2
100
AcDbSymbolTableRecord
100
AcDbLayerTableRecord
  2
27
 70
     0
 62
    27
  6
CONTINUOUS
  0
LAYER
  5
55
330
2
100
AcDbSymbolTableRecord
100
AcDbLayerTableRecord
  2
28
 70
     0
 62
    28
  6
CONTINUOUS
  0
LAYER
  5
56
330
2
100
AcDbSymbolTableRecord
100
AcDbLayerTableRecord
  2
29
 70
     0
 62
    29
  6
CONTINUOUS
  0
LAYER
  5
57
330
2
100
AcDbSymbolTableRecord
100
AcDbLayerTableRecord
  2
30
 70
     0
 62
    30
  6
CONTINUOUS
  0
LAYER
  5
58
330
2
100
AcDbSymbolTableRecord
100
AcDbLayerTableRecord
  2
31
 70
     0
 62
    31
  6
CONTINUOUS
  0
LAYER
  5
59
330
2
100
AcDbSymbolTableRecord
100
AcDbLayerTableRecord
  2
32
 70
     0
 62
    32
  6
CONTINUOUS
  0
LAYER
  5
5A
330
2
100
AcDbSymbolTableRecord
100
AcDbLayerTableRecord
  2
33
 70
     0
 62
    33
  6
CONTINUOUS
  0
LAYER
  5
5B
330
2
100
AcDbSymbolTableRecord
100
AcDbLayerTableRecord
  2
34
 70
     0
 62
    34
  6
CONTINUOUS
  0
LAYER
  5
5C
330
2
100
AcDbSymbolTableRecord
100
AcDbLayerTableRecord
  2
35
 70
     0
 62
    35
  6
CONTINUOUS
  0
LAYER
  5
5D
330
2
100
AcDbSymbolTableRecord
100
AcDbLayerTableRecord
  2
36
 70
     0
 62
    36
  6
CONTINUOUS
  0
LAYER
  5
5E
330
2
100
AcDbSymbolTableRecord
100
AcDbLayerTableRecord
  2
37
 70
     0
 62
    37
  6
CONTINUOUS
  0
LAYER
  5
5F
330
2
100
AcDbSymbolTableRecord
100
AcDbLayerTableRecord
  2
38
 70
     0
 62
    38
  6
CONTINUOUS
  0
LAYER
  5
60
330
2
100
AcDbSymbolTableRecord
100
AcDbLayerTableRecord
  2
39
 70
     0
 62
    39
  6
CONTINUOUS
  0
LAYER
  5
61
330
2
100
AcDbSymbolTableRecord
100
AcDbLayerTableRecord
  2
40
 70
     0
 62
    40
  6
CONTINUOUS
  0
LAYER
  5
62
330
2
100
AcDbSymbolTableRecord
100
AcDbLayerTableRecord
  2
41
 70
     0
 62
    41
  6
CONTINUOUS
  0
LAYER
  5
63
330
2
100
AcDbSymbolTableRecord
100
AcDbLayerTableRecord
  2
42
 70
     0
 62
    42
  6
CONTINUOUS
  0
LAYER
  5
64
330
2
100
AcDbSymbolTableRecord
100
AcDbLayerTableRecord
  2
43
 70
     0
 62
    43
  6
CONTINUOUS
  0
LAYER
  5
65
330
2
100
AcDbSymbolTableRecord
100
AcDbLayerTableRecord
  2
44
 70
     0
 62
    44
  6
CONTINUOUS
  0
LAYER
  5
66
330
2
100
AcDbSymbolTableRecord
100
AcDbLayerTableRecord
  2
45
 70
     0
 62
    45
  6
CONTINUOUS
  0
LAYER
  5
67
330
2
100
AcDbSymbolTableRecord
100
AcDbLayerTableRecord
  2
46
 70
     0
 62
    46
  6
CONTINUOUS
  0
LAYER
  5
68
330
2
100
AcDbSymbolTableRecord
100
AcDbLayerTableRecord
  2
47
 70
     0
 62
    47
  6
CONTINUOUS
  0
LAYER
  5
69
330
2
100
AcDbSymbolTableRecord
100
AcDbLayerTableRecord
  2
48
 70
     0
 62
    48
  6
CONTINUOUS
  0
LAYER
  5
6A
330
2
100
AcDbSymbolTableRecord
100
AcDbLayerTableRecord
  2
49
 70
     0
 62
    49
  6
CONTINUOUS
  0
LAYER
  5
6B
330
2
100
AcDbSymbolTableRecord
100
AcDbLayerTableRecord
  2
50
 70
     0
 62
    50
  6
CONTINUOUS
  0
LAYER
  5
6C
330
2
100
AcDbSymbolTableRecord
100
AcDbLayerTableRecord
  2
51
 70
     0
 62
    51
  6
CONTINUOUS
  0
LAYER
  5
6D
330
2
100
AcDbSymbolTableRecord
100
AcDbLayerTableRecord
  2
52
 70
     0
 62
    52
  6
CONTINUOUS
  0
LAYER
  5
6E
330
2
100
AcDbSymbolTableRecord
100
AcDbLayerTableRecord
  2
53
 70
     0
 62
    53
  6
CONTINUOUS
  0
LAYER
  5
6F
330
2
100
AcDbSymbolTableRecord
100
AcDbLayerTableRecord
  2
54
 70
     0
 62
    54
  6
CONTINUOUS
  0
LAYER
  5
70
330
2
100
AcDbSymbolTableRecord
100
AcDbLayerTableRecord
  2
55
 70
     0
 62
    55
  6
CONTINUOUS
  0
LAYER
  5
71
330
2
100
AcDbSymbolTableRecord
100
AcDbLayerTableRecord
  2
56
 70
     0
 62
    56
  6
CONTINUOUS
  0
LAYER
  5
72
330
2
100
AcDbSymbolTableRecord
100
AcDbLayerTableRecord
  2
57
 70
     0
 62
    57
  6
CONTINUOUS
  0
LAYER
  5
73
330
2
100
AcDbSymbolTableRecord
100
AcDbLayerTableRecord
  2
58
 70
     0
 62
    58
  6
CONTINUOUS
  0
LAYER
  5
74
330
2
100
AcDbSymbolTableRecord
100
AcDbLayerTableRecord
  2
59
 70
     0
 62
    59
  6
CONTINUOUS
  0
LAYER
  5
75
330
2
100
AcDbSymbolTableRecord
100
AcDbLayerTableRecord
  2
60
 70
     0
 62
    60
  6
CONTINUOUS
  0
LAYER
  5
76
330
2
100
AcDbSymbolTableRecord
100
AcDbLayerTableRecord
  2
61
 70
     0
 62
    61
  6
CONTINUOUS
  0
LAYER
  5
77
330
2
100
AcDbSymbolTableRecord
100
AcDbLayerTableRecord
  2
62
 70
     0
 62
    62
  6
CONTINUOUS
  0
LAYER
  5
78
330
2
100
AcDbSymbolTableRecord
100
AcDbLayerTableRecord
  2
63
 70
     0
 62
    63
  6
CONTINUOUS
  0
LAYER
  5
79
330
2
100
AcDbSymbolTableRecord
100
AcDbLayerTableRecord
  2
64
 70
     0
 62
    64
  6
CONTINUOUS
  0
LAYER
  5
7A
330
2
100
AcDbSymbolTableRecord
100
AcDbLayerTableRecord
  2
65
 70
     0
 62
    65
  6
CONTINUOUS
  0
LAYER
  5
7B
330
2
100
AcDbSymbolTableRecord
100
AcDbLayerTableRecord
  2
66
 70
     0
 62
    66
  6
CONTINUOUS
  0
LAYER
  5
7C
330
2
100
AcDbSymbolTableRecord
100
AcDbLayerTableRecord
  2
67
 70
     0
 62
    67
  6
CONTINUOUS
  0
LAYER
  5
7D
330
2
100
AcDbSymbolTableRecord
100
AcDbLayerTableRecord
  2
68
 70
     0
 62
    68
  6
CONTINUOUS
  0
LAYER
  5
7E
330
2
100
AcDbSymbolTableRecord
100
AcDbLayerTableRecord
  2
69
 70
     0
 62
    69
  6
CONTINUOUS
  0
LAYER
  5
7F
330
2
100
AcDbSymbolTableRecord
100
AcDbLayerTableRecord
  2
70
 70
     0
 62
    70
  6
CONTINUOUS
  0
LAYER
  5
80
330
2
100
AcDbSymbolTableRecord
100
AcDbLayerTableRecord
  2
71
 70
     0
 62
    71
  6
CONTINUOUS
  0
LAYER
  5
81
330
2
100
AcDbSymbolTableRecord
100
AcDbLayerTableRecord
  2
72
 70
     0
 62
    72
  6
CONTINUOUS
  0
LAYER
  5
82
330
2
100
AcDbSymbolTableRecord
100
AcDbLayerTableRecord
  2
73
 70
     0
 62
    73
  6
CONTINUOUS
  0
LAYER
  5
83
330
2
100
AcDbSymbolTableRecord
100
AcDbLayerTableRecord
  2
74
 70
     0
 62
    74
  6
CONTINUOUS
  0
LAYER
  5
84
330
2
100
AcDbSymbolTableRecord
100
AcDbLayerTableRecord
  2
75
 70
     0
 62
    75
  6
CONTINUOUS
  0
LAYER
  5
85
330
2
100
AcDbSymbolTableRecord
100
AcDbLayerTableRecord
  2
76
 70
     0
 62
    76
  6
CONTINUOUS
  0
LAYER
  5
86
330
2
100
AcDbSymbolTableRecord
100
AcDbLayerTableRecord
  2
77
 70
     0
 62
    77
  6
CONTINUOUS
  0
LAYER
  5
87
330
2
100
AcDbSymbolTableRecord
100
AcDbLayerTableRecord
  2
78
 70
     0
 62
    78
  6
CONTINUOUS
  0
LAYER
  5
88
330
2
100
AcDbSymbolTableRecord
100
AcDbLayerTableRecord
  2
79
 70
     0
 62
    79
  6
CONTINUOUS
  0
LAYER
  5
89
330
2
100
AcDbSymbolTableRecord
100
AcDbLayerTableRecord
  2
80
 70
     0
 62
    80
  6
CONTINUOUS
  0
LAYER
  5
8A
330
2
100
AcDbSymbolTableRecord
100
AcDbLayerTableRecord
  2
81
 70
     0
 62
    81
  6
CONTINUOUS
  0
LAYER
  5
8B
330
2
100
AcDbSymbolTableRecord
100
AcDbLayerTableRecord
  2
82
 70
     0
 62
    82
  6
CONTINUOUS
  0
LAYER
  5
8C
330
2
100
AcDbSymbolTableRecord
100
AcDbLayerTableRecord
  2
83
 70
     0
 62
    83
  6
CONTINUOUS
  0
LAYER
  5
8D
330
2
100
AcDbSymbolTableRecord
100
AcDbLayerTableRecord
  2
84
 70
     0
 62
    84
  6
CONTINUOUS
  0
LAYER
  5
8E
330
2
100
AcDbSymbolTableRecord
100
AcDbLayerTableRecord
  2
85
 70
     0
 62
    85
  6
CONTINUOUS
  0
LAYER
  5
8F
330
2
100
AcDbSymbolTableRecord
100
AcDbLayerTableRecord
  2
86
 70
     0
 62
    86
  6
CONTINUOUS
  0
LAYER
  5
90
330
2
100
AcDbSymbolTableRecord
100
AcDbLayerTableRecord
  2
87
 70
     0
 62
    87
  6
CONTINUOUS
  0
LAYER
  5
91
330
2
100
AcDbSymbolTableRecord
100
AcDbLayerTableRecord
  2
88
 70
     0
 62
    88
  6
CONTINUOUS
  0
LAYER
  5
92
330
2
100
AcDbSymbolTableRecord
100
AcDbLayerTableRecord
  2
89
 70
     0
 62
    89
  6
CONTINUOUS
  0
LAYER
  5
93
330
2
100
AcDbSymbolTableRecord
100
AcDbLayerTableRecord
  2
90
 70
     0
 62
    90
  6
CONTINUOUS
  0
LAYER
  5
94
330
2
100
AcDbSymbolTableRecord
100
AcDbLayerTableRecord
  2
91
 70
     0
 62
    91
  6
CONTINUOUS
  0
LAYER
  5
95
330
2
100
AcDbSymbolTableRecord
100
AcDbLayerTableRecord
  2
92
 70
     0
 62
    92
  6
CONTINUOUS
  0
LAYER
  5
96
330
2
100
AcDbSymbolTableRecord
100
AcDbLayerTableRecord
  2
93
 70
     0
 62
    93
  6
CONTINUOUS
  0
LAYER
  5
97
330
2
100
AcDbSymbolTableRecord
100
AcDbLayerTableRecord
  2
94
 70
     0
 62
    94
  6
CONTINUOUS
  0
LAYER
  5
98
330
2
100
AcDbSymbolTableRecord
100
AcDbLayerTableRecord
  2
95
 70
     0
 62
    95
  6
CONTINUOUS
  0
LAYER
  5
99
330
2
100
AcDbSymbolTableRecord
100
AcDbLayerTableRecord
  2
96
 70
     0
 62
    96
  6
CONTINUOUS
  0
LAYER
  5
9A
330
2
100
AcDbSymbolTableRecord
100
AcDbLayerTableRecord
  2
97
 70
     0
 62
    97
  6
CONTINUOUS
  0
LAYER
  5
9B
330
2
100
AcDbSymbolTableRecord
100
AcDbLayerTableRecord
  2
98
 70
     0
 62
    98
  6
CONTINUOUS
  0
LAYER
  5
9C
330
2
100
AcDbSymbolTableRecord
100
AcDbLayerTableRecord
  2
99
 70
     0
 62
    99
  6
CONTINUOUS
  0
LAYER
  5
9D
330
2
100
AcDbSymbolTableRecord
100
AcDbLayerTableRecord
  2
100
 70
     0
 62
   100
  6
CONTINUOUS
  0
LAYER
  5
9E
330
2
100
AcDbSymbolTableRecord
100
AcDbLayerTableRecord
  2
101
 70
     0
 62
   101
  6
CONTINUOUS
  0
LAYER
  5
9F
330
2
100
AcDbSymbolTableRecord
100
AcDbLayerTableRecord
  2
102
 70
     0
 62
   102
  6
CONTINUOUS
  0
LAYER
  5
A0
330
2
100
AcDbSymbolTableRecord
100
AcDbLayerTableRecord
  2
103
 70
     0
 62
   103
  6
CONTINUOUS
  0
LAYER
  5
A1
330
2
100
AcDbSymbolTableRecord
100
AcDbLayerTableRecord
  2
104
 70
     0
 62
   104
  6
CONTINUOUS
  0
LAYER
  5
A2
330
2
100
AcDbSymbolTableRecord
100
AcDbLayerTableRecord
  2
105
 70
     0
 62
   105
  6
CONTINUOUS
  0
LAYER
  5
A3
330
2
100
AcDbSymbolTableRecord
100
AcDbLayerTableRecord
  2
106
 70
     0
 62
   106
  6
CONTINUOUS
  0
LAYER
  5
A4
330
2
100
AcDbSymbolTableRecord
100
AcDbLayerTableRecord
  2
107
 70
     0
 62
   107
  6
CONTINUOUS
  0
LAYER
  5
A5
330
2
100
AcDbSymbolTableRecord
100
AcDbLayerTableRecord
  2
108
 70
     0
 62
   108
  6
CONTINUOUS
  0
LAYER
  5
A6
330
2
100
AcDbSymbolTableRecord
100
AcDbLayerTableRecord
  2
109
 70
     0
 62
   109
  6
CONTINUOUS
  0
LAYER
  5
A7
330
2
100
AcDbSymbolTableRecord
100
AcDbLayerTableRecord
  2
110
 70
     0
 62
   110
  6
CONTINUOUS
  0
LAYER
  5
A8
330
2
100
AcDbSymbolTableRecord
100
AcDbLayerTableRecord
  2
111
 70
     0
 62
   111
  6
CONTINUOUS
  0
LAYER
  5
A9
330
2
100
AcDbSymbolTableRecord
100
AcDbLayerTableRecord
  2
112
 70
     0
 62
   112
  6
CONTINUOUS
  0
LAYER
  5
AA
330
2
100
AcDbSymbolTableRecord
100
AcDbLayerTableRecord
  2
113
 70
     0
 62
   113
  6
CONTINUOUS
  0
LAYER
  5
AB
330
2
100
AcDbSymbolTableRecord
100
AcDbLayerTableRecord
  2
114
 70
     0
 62
   114
  6
CONTINUOUS
  0
LAYER
  5
AC
330
2
100
AcDbSymbolTableRecord
100
AcDbLayerTableRecord
  2
115
 70
     0
 62
   115
  6
CONTINUOUS
  0
LAYER
  5
AD
330
2
100
AcDbSymbolTableRecord
100
AcDbLayerTableRecord
  2
116
 70
     0
 62
   116
  6
CONTINUOUS
  0
LAYER
  5
AE
330
2
100
AcDbSymbolTableRecord
100
AcDbLayerTableRecord
  2
117
 70
     0
 62
   117
  6
CONTINUOUS
  0
LAYER
  5
AF
330
2
100
AcDbSymbolTableRecord
100
AcDbLayerTableRecord
  2
118
 70
     0
 62
   118
  6
CONTINUOUS
  0
LAYER
  5
B0
330
2
100
AcDbSymbolTableRecord
100
AcDbLayerTableRecord
  2
119
 70
     0
 62
   119
  6
CONTINUOUS
  0
LAYER
  5
B1
330
2
100
AcDbSymbolTableRecord
100
AcDbLayerTableRecord
  2
120
 70
     0
 62
   120
  6
CONTINUOUS
  0
LAYER
  5
B2
330
2
100
AcDbSymbolTableRecord
100
AcDbLayerTableRecord
  2
121
 70
     0
 62
   121
  6
CONTINUOUS
  0
LAYER
  5
B3
330
2
100
AcDbSymbolTableRecord
100
AcDbLayerTableRecord
  2
122
 70
     0
 62
   122
  6
CONTINUOUS
  0
LAYER
  5
B4
330
2
100
AcDbSymbolTableRecord
100
AcDbLayerTableRecord
  2
123
 70
     0
 62
   123
  6
CONTINUOUS
  0
LAYER
  5
B5
330
2
100
AcDbSymbolTableRecord
100
AcDbLayerTableRecord
  2
124
 70
     0
 62
   124
  6
CONTINUOUS
  0
LAYER
  5
B6
330
2
100
AcDbSymbolTableRecord
100
AcDbLayerTableRecord
  2
125
 70
     0
 62
   125
  6
CONTINUOUS
  0
LAYER
  5
B7
330
2
100
AcDbSymbolTableRecord
100
AcDbLayerTableRecord
  2
126
 70
     0
 62
   126
  6
CONTINUOUS
  0
LAYER
  5
B8
330
2
100
AcDbSymbolTableRecord
100
AcDbLayerTableRecord
  2
127
 70
     0
 62
   127
  6
CONTINUOUS
  0
LAYER
  5
B9
330
2
100
AcDbSymbolTableRecord
100
AcDbLayerTableRecord
  2
128
 70
     0
 62
   128
  6
CONTINUOUS
  0
LAYER
  5
BA
330
2
100
AcDbSymbolTableRecord
100
AcDbLayerTableRecord
  2
129
 70
     0
 62
   129
  6
CONTINUOUS
  0
LAYER
  5
BB
330
2
100
AcDbSymbolTableRecord
100
AcDbLayerTableRecord
  2
130
 70
     0
 62
   130
  6
CONTINUOUS
  0
LAYER
  5
BC
330
2
100
AcDbSymbolTableRecord
100
AcDbLayerTableRecord
  2
131
 70
     0
 62
   131
  6
CONTINUOUS
  0
LAYER
  5
BD
330
2
100
AcDbSymbolTableRecord
100
AcDbLayerTableRecord
  2
132
 70
     0
 62
   132
  6
CONTINUOUS
  0
LAYER
  5
BE
330
2
100
AcDbSymbolTableRecord
100
AcDbLayerTableRecord
  2
133
 70
     0
 62
   133
  6
CONTINUOUS
  0
LAYER
  5
BF
330
2
100
AcDbSymbolTableRecord
100
AcDbLayerTableRecord
  2
134
 70
     0
 62
   134
  6
CONTINUOUS
  0
LAYER
  5
C0
330
2
100
AcDbSymbolTableRecord
100
AcDbLayerTableRecord
  2
135
 70
     0
 62
   135
  6
CONTINUOUS
  0
LAYER
  5
C1
330
2
100
AcDbSymbolTableRecord
100
AcDbLayerTableRecord
  2
136
 70
     0
 62
   136
  6
CONTINUOUS
  0
LAYER
  5
C2
330
2
100
AcDbSymbolTableRecord
100
AcDbLayerTableRecord
  2
137
 70
     0
 62
   137
  6
CONTINUOUS
  0
LAYER
  5
C3
330
2
100
AcDbSymbolTableRecord
100
AcDbLayerTableRecord
  2
138
 70
     0
 62
   138
  6
CONTINUOUS
  0
LAYER
  5
C4
330
2
100
AcDbSymbolTableRecord
100
AcDbLayerTableRecord
  2
139
 70
     0
 62
   139
  6
CONTINUOUS
  0
LAYER
  5
C5
330
2
100
AcDbSymbolTableRecord
100
AcDbLayerTableRecord
  2
140
 70
     0
 62
   140
  6
CONTINUOUS
  0
LAYER
  5
C6
330
2
100
AcDbSymbolTableRecord
100
AcDbLayerTableRecord
  2
141
 70
     0
 62
   141
  6
CONTINUOUS
  0
LAYER
  5
C7
330
2
100
AcDbSymbolTableRecord
100
AcDbLayerTableRecord
  2
142
 70
     0
 62
   142
  6
CONTINUOUS
  0
LAYER
  5
C8
330
2
100
AcDbSymbolTableRecord
100
AcDbLayerTableRecord
  2
143
 70
     0
 62
   143
  6
CONTINUOUS
  0
LAYER
  5
C9
330
2
100
AcDbSymbolTableRecord
100
AcDbLayerTableRecord
  2
144
 70
     0
 62
   144
  6
CONTINUOUS
  0
LAYER
  5
CA
330
2
100
AcDbSymbolTableRecord
100
AcDbLayerTableRecord
  2
145
 70
     0
 62
   145
  6
CONTINUOUS
  0
LAYER
  5
CB
330
2
100
AcDbSymbolTableRecord
100
AcDbLayerTableRecord
  2
146
 70
     0
 62
   146
  6
CONTINUOUS
  0
LAYER
  5
CC
330
2
100
AcDbSymbolTableRecord
100
AcDbLayerTableRecord
  2
147
 70
     0
 62
   147
  6
CONTINUOUS
  0
LAYER
  5
CD
330
2
100
AcDbSymbolTableRecord
100
AcDbLayerTableRecord
  2
148
 70
     0
 62
   148
  6
CONTINUOUS
  0
LAYER
  5
CE
330
2
100
AcDbSymbolTableRecord
100
AcDbLayerTableRecord
  2
149
 70
     0
 62
   149
  6
CONTINUOUS
  0
LAYER
  5
CF
330
2
100
AcDbSymbolTableRecord
100
AcDbLayerTableRecord
  2
150
 70
     0
 62
   150
  6
CONTINUOUS
  0
LAYER
  5
D0
330
2
100
AcDbSymbolTableRecord
100
AcDbLayerTableRecord
  2
151
 70
     0
 62
   151
  6
CONTINUOUS
  0
LAYER
  5
D1
330
2
100
AcDbSymbolTableRecord
100
AcDbLayerTableRecord
  2
152
 70
     0
 62
   152
  6
CONTINUOUS
  0
LAYER
  5
D2
330
2
100
AcDbSymbolTableRecord
100
AcDbLayerTableRecord
  2
153
 70
     0
 62
   153
  6
CONTINUOUS
  0
LAYER
  5
D3
330
2
100
AcDbSymbolTableRecord
100
AcDbLayerTableRecord
  2
154
 70
     0
 62
   154
  6
CONTINUOUS
  0
LAYER
  5
D4
330
2
100
AcDbSymbolTableRecord
100
AcDbLayerTableRecord
  2
155
 70
     0
 62
   155
  6
CONTINUOUS
  0
LAYER
  5
D5
330
2
100
AcDbSymbolTableRecord
100
AcDbLayerTableRecord
  2
156
 70
     0
 62
   156
  6
CONTINUOUS
  0
LAYER
  5
D6
330
2
100
AcDbSymbolTableRecord
100
AcDbLayerTableRecord
  2
157
 70
     0
 62
   157
  6
CONTINUOUS
  0
LAYER
  5
D7
330
2
100
AcDbSymbolTableRecord
100
AcDbLayerTableRecord
  2
158
 70
     0
 62
   158
  6
CONTINUOUS
  0
LAYER
  5
D8
330
2
100
AcDbSymbolTableRecord
100
AcDbLayerTableRecord
  2
159
 70
     0
 62
   159
  6
CONTINUOUS
  0
LAYER
  5
D9
330
2
100
AcDbSymbolTableRecord
100
AcDbLayerTableRecord
  2
160
 70
     0
 62
   160
  6
CONTINUOUS
  0
LAYER
  5
DA
330
2
100
AcDbSymbolTableRecord
100
AcDbLayerTableRecord
  2
161
 70
     0
 62
   161
  6
CONTINUOUS
  0
LAYER
  5
DB
330
2
100
AcDbSymbolTableRecord
100
AcDbLayerTableRecord
  2
162
 70
     0
 62
   162
  6
CONTINUOUS
  0
LAYER
  5
DC
330
2
100
AcDbSymbolTableRecord
100
AcDbLayerTableRecord
  2
163
 70
     0
 62
   163
  6
CONTINUOUS
  0
LAYER
  5
DD
330
2
100
AcDbSymbolTableRecord
100
AcDbLayerTableRecord
  2
164
 70
     0
 62
   164
  6
CONTINUOUS
  0
LAYER
  5
DE
330
2
100
AcDbSymbolTableRecord
100
AcDbLayerTableRecord
  2
165
 70
     0
 62
   165
  6
CONTINUOUS
  0
LAYER
  5
DF
330
2
100
AcDbSymbolTableRecord
100
AcDbLayerTableRecord
  2
166
 70
     0
 62
   166
  6
CONTINUOUS
  0
LAYER
  5
E0
330
2
100
AcDbSymbolTableRecord
100
AcDbLayerTableRecord
  2
167
 70
     0
 62
   167
  6
CONTINUOUS
  0
LAYER
  5
E1
330
2
100
AcDbSymbolTableRecord
100
AcDbLayerTableRecord
  2
168
 70
     0
 62
   168
  6
CONTINUOUS
  0
LAYER
  5
E2
330
2
100
AcDbSymbolTableRecord
100
AcDbLayerTableRecord
  2
169
 70
     0
 62
   169
  6
CONTINUOUS
  0
LAYER
  5
E3
330
2
100
AcDbSymbolTableRecord
100
AcDbLayerTableRecord
  2
170
 70
     0
 62
   170
  6
CONTINUOUS
  0
LAYER
  5
E4
330
2
100
AcDbSymbolTableRecord
100
AcDbLayerTableRecord
  2
171
 70
     0
 62
   171
  6
CONTINUOUS
  0
LAYER
  5
E5
330
2
100
AcDbSymbolTableRecord
100
AcDbLayerTableRecord
  2
172
 70
     0
 62
   172
  6
CONTINUOUS
  0
LAYER
  5
E6
330
2
100
AcDbSymbolTableRecord
100
AcDbLayerTableRecord
  2
173
 70
     0
 62
   173
  6
CONTINUOUS
  0
LAYER
  5
E7
330
2
100
AcDbSymbolTableRecord
100
AcDbLayerTableRecord
  2
174
 70
     0
 62
   174
  6
CONTINUOUS
  0
LAYER
  5
E8
330
2
100
AcDbSymbolTableRecord
100
AcDbLayerTableRecord
  2
175
 70
     0
 62
   175
  6
CONTINUOUS
  0
LAYER
  5
E9
330
2
100
AcDbSymbolTableRecord
100
AcDbLayerTableRecord
  2
176
 70
     0
 62
   176
  6
CONTINUOUS
  0
LAYER
  5
EA
330
2
100
AcDbSymbolTableRecord
100
AcDbLayerTableRecord
  2
177
 70
     0
 62
   177
  6
CONTINUOUS
  0
LAYER
  5
EB
330
2
100
AcDbSymbolTableRecord
100
AcDbLayerTableRecord
  2
178
 70
     0
 62
   178
  6
CONTINUOUS
  0
LAYER
  5
EC
330
2
100
AcDbSymbolTableRecord
100
AcDbLayerTableRecord
  2
179
 70
     0
 62
   179
  6
CONTINUOUS
  0
LAYER
  5
ED
330
2
100
AcDbSymbolTableRecord
100
AcDbLayerTableRecord
  2
180
 70
     0
 62
   180
  6
CONTINUOUS
  0
LAYER
  5
EE
330
2
100
AcDbSymbolTableRecord
100
AcDbLayerTableRecord
  2
181
 70
     0
 62
   181
  6
CONTINUOUS
  0
LAYER
  5
EF
330
2
100
AcDbSymbolTableRecord
100
AcDbLayerTableRecord
  2
182
 70
     0
 62
   182
  6
CONTINUOUS
  0
LAYER
  5
F0
330
2
100
AcDbSymbolTableRecord
100
AcDbLayerTableRecord
  2
183
 70
     0
 62
   183
  6
CONTINUOUS
  0
LAYER
  5
F1
330
2
100
AcDbSymbolTableRecord
100
AcDbLayerTableRecord
  2
184
 70
     0
 62
   184
  6
CONTINUOUS
  0
LAYER
  5
F2
330
2
100
AcDbSymbolTableRecord
100
AcDbLayerTableRecord
  2
185
 70
     0
 62
   185
  6
CONTINUOUS
  0
LAYER
  5
F3
330
2
100
AcDbSymbolTableRecord
100
AcDbLayerTableRecord
  2
186
 70
     0
 62
   186
  6
CONTINUOUS
  0
LAYER
  5
F4
330
2
100
AcDbSymbolTableRecord
100
AcDbLayerTableRecord
  2
187
 70
     0
 62
   187
  6
CONTINUOUS
  0
LAYER
  5
F5
330
2
100
AcDbSymbolTableRecord
100
AcDbLayerTableRecord
  2
188
 70
     0
 62
   188
  6
CONTINUOUS
  0
LAYER
  5
F6
330
2
100
AcDbSymbolTableRecord
100
AcDbLayerTableRecord
  2
189
 70
     0
 62
   189
  6
CONTINUOUS
  0
LAYER
  5
F7
330
2
100
AcDbSymbolTableRecord
100
AcDbLayerTableRecord
  2
190
 70
     0
 62
   190
  6
CONTINUOUS
  0
LAYER
  5
F8
330
2
100
AcDbSymbolTableRecord
100
AcDbLayerTableRecord
  2
191
 70
     0
 62
   191
  6
CONTINUOUS
  0
LAYER
  5
F9
330
2
100
AcDbSymbolTableRecord
100
AcDbLayerTableRecord
  2
192
 70
     0
 62
   192
  6
CONTINUOUS
  0
LAYER
  5
FA
330
2
100
AcDbSymbolTableRecord
100
AcDbLayerTableRecord
  2
193
 70
     0
 62
   193
  6
CONTINUOUS
  0
LAYER
  5
FB
330
2
100
AcDbSymbolTableRecord
100
AcDbLayerTableRecord
  2
194
 70
     0
 62
   194
  6
CONTINUOUS
  0
LAYER
  5
FC
330
2
100
AcDbSymbolTableRecord
100
AcDbLayerTableRecord
  2
195
 70
     0
 62
   195
  6
CONTINUOUS
  0
LAYER
  5
FD
330
2
100
AcDbSymbolTableRecord
100
AcDbLayerTableRecord
  2
196
 70
     0
 62
   196
  6
CONTINUOUS
  0
LAYER
  5
FE
330
2
100
AcDbSymbolTableRecord
100
AcDbLayerTableRecord
  2
197
 70
     0
 62
   197
  6
CONTINUOUS
  0
LAYER
  5
FF
330
2
100
AcDbSymbolTableRecord
100
AcDbLayerTableRecord
  2
198
 70
     0
 62
   198
  6
CONTINUOUS
  0
LAYER
  5
100
330
2
100
AcDbSymbolTableRecord
100
AcDbLayerTableRecord
  2
199
 70
     0
 62
   199
  6
CONTINUOUS
  0
LAYER
  5
101
330
2
100
AcDbSymbolTableRecord
100
AcDbLayerTableRecord
  2
200
 70
     0
 62
   200
  6
CONTINUOUS
  0
LAYER
  5
102
330
2
100
AcDbSymbolTableRecord
100
AcDbLayerTableRecord
  2
201
 70
     0
 62
   201
  6
CONTINUOUS
  0
LAYER
  5
103
330
2
100
AcDbSymbolTableRecord
100
AcDbLayerTableRecord
  2
202
 70
     0
 62
   202
  6
CONTINUOUS
  0
LAYER
  5
104
330
2
100
AcDbSymbolTableRecord
100
AcDbLayerTableRecord
  2
203
 70
     0
 62
   203
  6
CONTINUOUS
  0
LAYER
  5
105
330
2
100
AcDbSymbolTableRecord
100
AcDbLayerTableRecord
  2
204
 70
     0
 62
   204
  6
CONTINUOUS
  0
LAYER
  5
106
330
2
100
AcDbSymbolTableRecord
100
AcDbLayerTableRecord
  2
205
 70
     0
 62
   205
  6
CONTINUOUS
  0
LAYER
  5
107
330
2
100
AcDbSymbolTableRecord
100
AcDbLayerTableRecord
  2
206
 70
     0
 62
   206
  6
CONTINUOUS
  0
LAYER
  5
108
330
2
100
AcDbSymbolTableRecord
100
AcDbLayerTableRecord
  2
207
 70
     0
 62
   207
  6
CONTINUOUS
  0
LAYER
  5
109
330
2
100
AcDbSymbolTableRecord
100
AcDbLayerTableRecord
  2
208
 70
     0
 62
   208
  6
CONTINUOUS
  0
LAYER
  5
10A
330
2
100
AcDbSymbolTableRecord
100
AcDbLayerTableRecord
  2
209
 70
     0
 62
   209
  6
CONTINUOUS
  0
LAYER
  5
10B
330
2
100
AcDbSymbolTableRecord
100
AcDbLayerTableRecord
  2
210
 70
     0
 62
   210
  6
CONTINUOUS
  0
LAYER
  5
10C
330
2
100
AcDbSymbolTableRecord
100
AcDbLayerTableRecord
  2
211
 70
     0
 62
   211
  6
CONTINUOUS
  0
LAYER
  5
10D
330
2
100
AcDbSymbolTableRecord
100
AcDbLayerTableRecord
  2
212
 70
     0
 62
   212
  6
CONTINUOUS
  0
LAYER
  5
10E
330
2
100
AcDbSymbolTableRecord
100
AcDbLayerTableRecord
  2
213
 70
     0
 62
   213
  6
CONTINUOUS
  0
LAYER
  5
10F
330
2
100
AcDbSymbolTableRecord
100
AcDbLayerTableRecord
  2
214
 70
     0
 62
   214
  6
CONTINUOUS
  0
LAYER
  5
110
330
2
100
AcDbSymbolTableRecord
100
AcDbLayerTableRecord
  2
215
 70
     0
 62
   215
  6
CONTINUOUS
  0
LAYER
  5
111
330
2
100
AcDbSymbolTableRecord
100
AcDbLayerTableRecord
  2
216
 70
     0
 62
   216
  6
CONTINUOUS
  0
LAYER
  5
112
330
2
100
AcDbSymbolTableRecord
100
AcDbLayerTableRecord
  2
217
 70
     0
 62
   217
  6
CONTINUOUS
  0
LAYER
  5
113
330
2
100
AcDbSymbolTableRecord
100
AcDbLayerTableRecord
  2
218
 70
     0
 62
   218
  6
CONTINUOUS
  0
LAYER
  5
114
330
2
100
AcDbSymbolTableRecord
100
AcDbLayerTableRecord
  2
219
 70
     0
 62
   219
  6
CONTINUOUS
  0
LAYER
  5
115
330
2
100
AcDbSymbolTableRecord
100
AcDbLayerTableRecord
  2
220
 70
     0
 62
   220
  6
CONTINUOUS
  0
LAYER
  5
116
330
2
100
AcDbSymbolTableRecord
100
AcDbLayerTableRecord
  2
221
 70
     0
 62
   221
  6
CONTINUOUS
  0
LAYER
  5
117
330
2
100
AcDbSymbolTableRecord
100
AcDbLayerTableRecord
  2
222
 70
     0
 62
   222
  6
CONTINUOUS
  0
LAYER
  5
118
330
2
100
AcDbSymbolTableRecord
100
AcDbLayerTableRecord
  2
223
 70
     0
 62
   223
  6
CONTINUOUS
  0
LAYER
  5
119
330
2
100
AcDbSymbolTableRecord
100
AcDbLayerTableRecord
  2
224
 70
     0
 62
   224
  6
CONTINUOUS
  0
LAYER
  5
11A
330
2
100
AcDbSymbolTableRecord
100
AcDbLayerTableRecord
  2
225
 70
     0
 62
   225
  6
CONTINUOUS
  0
LAYER
  5
11B
330
2
100
AcDbSymbolTableRecord
100
AcDbLayerTableRecord
  2
226
 70
     0
 62
   226
  6
CONTINUOUS
  0
LAYER
  5
11C
330
2
100
AcDbSymbolTableRecord
100
AcDbLayerTableRecord
  2
227
 70
     0
 62
   227
  6
CONTINUOUS
  0
LAYER
  5
11D
330
2
100
AcDbSymbolTableRecord
100
AcDbLayerTableRecord
  2
228
 70
     0
 62
   228
  6
CONTINUOUS
  0
LAYER
  5
11E
330
2
100
AcDbSymbolTableRecord
100
AcDbLayerTableRecord
  2
229
 70
     0
 62
   229
  6
CONTINUOUS
  0
LAYER
  5
11F
330
2
100
AcDbSymbolTableRecord
100
AcDbLayerTableRecord
  2
230
 70
     0
 62
   230
  6
CONTINUOUS
  0
LAYER
  5
120
330
2
100
AcDbSymbolTableRecord
100
AcDbLayerTableRecord
  2
231
 70
     0
 62
   231
  6
CONTINUOUS
  0
LAYER
  5
121
330
2
100
AcDbSymbolTableRecord
100
AcDbLayerTableRecord
  2
232
 70
     0
 62
   232
  6
CONTINUOUS
  0
LAYER
  5
122
330
2
100
AcDbSymbolTableRecord
100
AcDbLayerTableRecord
  2
233
 70
     0
 62
   233
  6
CONTINUOUS
  0
LAYER
  5
123
330
2
100
AcDbSymbolTableRecord
100
AcDbLayerTableRecord
  2
234
 70
     0
 62
   234
  6
CONTINUOUS
  0
LAYER
  5
124
330
2
100
AcDbSymbolTableRecord
100
AcDbLayerTableRecord
  2
235
 70
     0
 62
   235
  6
CONTINUOUS
  0
LAYER
  5
125
330
2
100
AcDbSymbolTableRecord
100
AcDbLayerTableRecord
  2
236
 70
     0
 62
   236
  6
CONTINUOUS
  0
LAYER
  5
126
330
2
100
AcDbSymbolTableRecord
100
AcDbLayerTableRecord
  2
237
 70
     0
 62
   237
  6
CONTINUOUS
  0
LAYER
  5
127
330
2
100
AcDbSymbolTableRecord
100
AcDbLayerTableRecord
  2
238
 70
     0
 62
   238
  6
CONTINUOUS
  0
LAYER
  5
128
330
2
100
AcDbSymbolTableRecord
100
AcDbLayerTableRecord
  2
239
 70
     0
 62
   239
  6
CONTINUOUS
  0
LAYER
  5
129
330
2
100
AcDbSymbolTableRecord
100
AcDbLayerTableRecord
  2
240
 70
     0
 62
   240
  6
CONTINUOUS
  0
LAYER
  5
12A
330
2
100
AcDbSymbolTableRecord
100
AcDbLayerTableRecord
  2
241
 70
     0
 62
   241
  6
CONTINUOUS
  0
LAYER
  5
12B
330
2
100
AcDbSymbolTableRecord
100
AcDbLayerTableRecord
  2
242
 70
     0
 62
   242
  6
CONTINUOUS
  0
LAYER
  5
12C
330
2
100
AcDbSymbolTableRecord
100
AcDbLayerTableRecord
  2
243
 70
     0
 62
   243
  6
CONTINUOUS
  0
LAYER
  5
12D
330
2
100
AcDbSymbolTableRecord
100
AcDbLayerTableRecord
  2
244
 70
     0
 62
   244
  6
CONTINUOUS
  0
LAYER
  5
12E
330
2
100
AcDbSymbolTableRecord
100
AcDbLayerTableRecord
  2
245
 70
     0
 62
   245
  6
CONTINUOUS
  0
LAYER
  5
12F
330
2
100
AcDbSymbolTableRecord
100
AcDbLayerTableRecord
  2
246
 70
     0
 62
   246
  6
CONTINUOUS
  0
LAYER
  5
130
330
2
100
AcDbSymbolTableRecord
100
AcDbLayerTableRecord
  2
247
 70
     0
 62
   247
  6
CONTINUOUS
  0
LAYER
  5
131
330
2
100
AcDbSymbolTableRecord
100
AcDbLayerTableRecord
  2
248
 70
     0
 62
   248
  6
CONTINUOUS
  0
LAYER
  5
132
330
2
100
AcDbSymbolTableRecord
100
AcDbLayerTableRecord
  2
249
 70
     0
 62
   249
  6
CONTINUOUS
  0
LAYER
  5
133
330
2
100
AcDbSymbolTableRecord
100
AcDbLayerTableRecord
  2
250
 70
     0
 62
   250
  6
CONTINUOUS
  0
LAYER
  5
134
330
2
100
AcDbSymbolTableRecord
100
AcDbLayerTableRecord
  2
251
 70
     0
 62
   251
  6
CONTINUOUS
  0
LAYER
  5
135
330
2
100
AcDbSymbolTableRecord
100
AcDbLayerTableRecord
  2
252
 70
     0
 62
   252
  6
CONTINUOUS
  0
LAYER
  5
136
330
2
100
AcDbSymbolTableRecord
100
AcDbLayerTableRecord
  2
253
 70
     0
 62
   253
  6
CONTINUOUS
  0
LAYER
  5
137
330
2
100
AcDbSymbolTableRecord
100
AcDbLayerTableRecord
  2
254
 70
     0
 62
   254
  6
CONTINUOUS
  0
LAYER
  5
138
330
2
100
AcDbSymbolTableRecord
100
AcDbLayerTableRecord
  2
255
 70
     0
 62
   255
  6
CONTINUOUS
  0
LAYER
  5
3E64
330
2
100
AcDbSymbolTableRecord
100
AcDbLayerTableRecord
  2
DEFPOINTS
 70
     0
 62
     7
  6
CONTINUOUS
  0
ENDTAB
  0
TABLE
  2
STYLE
  5
3
330
0
100
AcDbSymbolTable
 70
     1
  0
STYLE
  5
11
330
3
100
AcDbSymbolTableRecord
100
AcDbTextStyleTableRecord
  2
STANDARD
 70
     0
 40
0.0
 41
1.0
 50
0.0
 71
     0
 42
0.2
  3
monotxt
  4

  0
ENDTAB
  0
TABLE
  2
VIEW
  5
6
330
0
100
AcDbSymbolTable
 70
     0
  0
ENDTAB
  0
TABLE
  2
UCS
  5
7
330
0
100
AcDbSymbolTable
 70
     0
  0
ENDTAB
  0
TABLE
  2
APPID
  5
9
330
0
100
AcDbSymbolTable
 70
     1
  0
APPID
  5
12
330
9
100
AcDbSymbolTableRecord
100
AcDbRegAppTableRecord
  2
ACAD
 70
     0
  0
ENDTAB
  0
TABLE
  2
DIMSTYLE
  5
A
330
0
100
AcDbSymbolTable
 70
     1
  0
DIMSTYLE
105
2AB7
102
{ACAD_REACTORS
330
3E63
102
}
330
A
100
AcDbSymbolTableRecord
100
AcDbDimStyleTableRecord
  2
STANDARD
 70
     0
  3

  4

  5

  6

  7

 40
1.0
 41
0.18
 42
0.0625
 43
0.38
 44
0.18
 45
0.0
 46
0.0
 47
0.0
 48
0.0
140
0.18
141
0.09
142
0.0
143
25.4
144
1.0
145
0.0
146
1.0
147
0.09
 71
     0
 72
     0
 73
     1
 74
     1
 75
     0
 76
     0
 77
     0
 78
     0
170
     0
171
     2
172
     0
173
     0
174
     0
175
     0
176
     0
177
     0
178
     0
270
     2
271
     4
272
     4
273
     2
274
     2
340
11
275
     0
280
     0
281
     0
282
     0
283
     1
284
     0
285
     0
286
     0
287
     3
288
     0
  0
ENDTAB
  0
TABLE
  2
BLOCK_RECORD
  5
1
330
0
100
AcDbSymbolTable
 70
     1
  0
BLOCK_RECORD
  5
1E
102
{ACAD_XDICTIONARY
360
3EB5
102
}
330
1
100
AcDbSymbolTableRecord
100
AcDbBlockTableRecord
  2
*MODEL_SPACE
  0
BLOCK_RECORD
  5
1A
102
{ACAD_XDICTIONARY
360
3EB3
102
}
330
1
100
AcDbSymbolTableRecord
100
AcDbBlockTableRecord
  2
*PAPER_SPACE
  0
BLOCK_RECORD
  5
3E65
330
1
100
AcDbSymbolTableRecord
100
AcDbBlockTableRecord
  2
*D0
  0
ENDTAB
  0
ENDSEC
  0
SECTION
  2
BLOCKS
  0
BLOCK
  5
13B
330
1E
100
AcDbEntity
  8
0
100
AcDbBlockBegin
  2
*MODEL_SPACE
 70
     0
 10
0.0
 20
0.0
 30
0.0
  3
*MODEL_SPACE
  1

  0
ENDBLK
  5
13C
330
1E
100
AcDbEntity
  8
0
100
AcDbBlockEnd
  0
BLOCK
  5
139
330
1A
100
AcDbEntity
 67
     1
  8
0
100
AcDbBlockBegin
  2
*PAPER_SPACE
 70
     0
 10
0.0
 20
0.0
 30
0.0
  3
*PAPER_SPACE
  1

  0
ENDBLK
  5
13A
330
1A
100
AcDbEntity
 67
     1
  8
0
100
AcDbBlockEnd
  0
BLOCK
  5
3E70
330
3E65
100
AcDbEntity
  8
0
100
AcDbBlockBegin
  2
*D0
 70
     1
 10
0.0
 20
0.0
 30
0.0
  3
*D0
  1

  0
LINE
  5
3E72
330
3E65
100
AcDbEntity
  8
0
 62
     0
100
AcDbLine
 10
-5.577461998120331
 20
13.9660883514343
 30
0.0
 11
-5.577461998120331
 21
14.60821403888823
 31
0.0
  0
LINE
  5
3E73
330
3E65
100
AcDbEntity
  8
0
 62
     0
100
AcDbLine
 10
9.30836477353321
 20
13.9660883514343
 30
0.0
 11
9.30836477353321
 21
14.60821403888823
 31
0.0
  0
LINE
  5
3E74
330
3E65
100
AcDbEntity
  8
0
 62
     0
100
AcDbLine
 10
-5.397461998120332
 20
14.42821403888823
 30
0.0
 11
1.175451387706439
 21
14.42821403888823
 31
0.0
  0
LINE
  5
3E75
330
3E65
100
AcDbEntity
  8
0
 62
     0
100
AcDbLine
 10
9.12836477353321
 20
14.42821403888823
 30
0.0
 11
2.555451387706439
 21
14.42821403888823
 31
0.0
  0
SOLID
  5
3E76
330
3E65
100
AcDbEntity
  8
0
 62
     0
100
AcDbTrace
 10
-5.397461998120332
 20
14.45821403888823
 30
0.0
 11
-5.397461998120332
 21
14.39821403888823
 31
0.0
 12
-5.577461998120331
 22
14.42821403888823
 32
0.0
 13
-5.577461998120331
 23
14.42821403888823
 33
0.0
  0
SOLID
  5
3E77
330
3E65
100
AcDbEntity
  8
0
 62
     0
100
AcDbTrace
 10
9.12836477353321
 20
14.45821403888823
 30
0.0
 11
9.12836477353321
 21
14.39821403888823
 31
0.0
 12
9.30836477353321
 22
14.42821403888823
 32
0.0
 13
9.30836477353321
 23
14.42821403888823
 33
0.0
  0
MTEXT
  5
3E78
330
3E65
100
AcDbEntity
  8
0
 62
     0
100
AcDbMText
 10
1.865451387706439
 20
14.42821403888823
 30
0.0
 40
0.18
 41
0.0
 71
     5
 72
     1
  1
\A1;14.8858
1001
ACAD
1000
MTEXTBEGIN
1070
    73
1070
     1
1070
    44
1040
1.0
1070
    74
1070
     0
1000
MTEXTEND
  0
POINT
  5
3E79
330
3E65
100
AcDbEntity
  8
DEFPOINTS
 62
     0
100
AcDbPoint
 10
-5.577461998120331
 20
13.9035883514343
 30
0.0
  0
POINT
  5
3E7A
330
3E65
100
AcDbEntity
  8
DEFPOINTS
 62
     0
100
AcDbPoint
 10
9.30836477353321
 20
13.9035883514343
 30
0.0
  0
POINT
  5
3E7B
330
3E65
100
AcDbEntity
  8
DEFPOINTS
 62
     0
100
AcDbPoint
 10
9.30836477353321
 20
14.42821403888823
 30
0.0
  0
ENDBLK
  5
3E71
330
3E65
100
AcDbEntity
  8
0
100
AcDbBlockEnd
  0
ENDSEC
  0
SECTION
  2
ENTITIES
  0
LINE
  5
2251
330
1E
100
AcDbEntity
  8
7
100
AcDbLine
 10
-4.57746199812033
 20
11.49413953253667
 30
0.0
 11
-4.774312391821119
 21
11.47445449316659
 31
0.0
  0
LINE
  5
225C
330
1E
100
AcDbEntity
  8
7
100
AcDbLine
 10
-5.57746199812033
 20
7.494139532536671
 30
0.0
 11
-5.57746199812033
 21
10.49413953253667
 31
0.0
  0
LINE
  5
2268
330
1E
100
AcDbEntity
  8
7
100
AcDbLine
 10
-4.57746199812033
 20
6.494139532536671
 30
0.0
 11
8.30836477353321
 21
6.494139532536671
 31
0.0
  0
LINE
  5
2274
330
1E
100
AcDbEntity
  8
7
100
AcDbLine
 10
9.30836477353321
 20
7.494139532536671
 30
0.0
 11
9.30836477353321
 21
10.49413953253667
 31
0.0
  0
LINE
  5
2280
330
1E
100
AcDbEntity
  8
7
100
AcDbLine
 10
8.30836477353321
 20
11.49413953253667
 30
0.0
 11
-4.57746199812033
 21
11.49413953253667
 31
0.0
  0
LINE
  5
2281
330
1E
100
AcDbEntity
  8
7
100
AcDbLine
 10
12.36741989164344
 20
11.16343087111934
 30
0.0
 11
12.37529390739147
 21
11.16343087111934
 31
0.0
  0
LINE
  5
2282
330
1E
100
AcDbEntity
  8
7
100
AcDbLine
 10
12.33592382865132
 20
11.16343087111934
 30
0.0
 11
12.34379784439935
 21
11.16343087111934
 31
0.0
  0
LINE
  5
2283
330
1E
100
AcDbEntity
  8
7
100
AcDbLine
 10
12.30442776565919
 20
11.16343087111934
 30
0.0
 11
12.31230178140722
 21
11.16343087111934
 31
0.0
  0
LINE
  5
2284
330
1E
100
AcDbEntity
  8
7
100
AcDbLine
 10
12.27293170266706
 20
11.16343087111934
 30
0.0
 11
12.28080571841509
 21
11.16343087111934
 31
0.0
  0
LINE
  5
2285
330
1E
100
AcDbEntity
  8
7
100
AcDbLine
 10
12.24143563967494
 20
11.16343087111934
 30
0.0
 11
12.24930965542297
 21
11.16343087111934
 31
0.0
  0
LINE
  5
2286
330
1E
100
AcDbEntity
  8
7
100
AcDbLine
 10
12.20993957668281
 20
11.16343087111934
 30
0.0
 11
12.21781359243084
 21
11.16343087111934
 31
0.0
  0
LINE
  5
2287
330
1E
100
AcDbEntity
  8
7
100
AcDbLine
 10
12.17844351369069
 20
11.16343087111934
 30
0.0
 11
12.18631752943872
 21
11.16343087111934
 31
0.0
  0
LINE
  5
2288
330
1E
100
AcDbEntity
  8
7
100
AcDbLine
 10
12.14694745069856
 20
11.16343087111934
 30
0.0
 11
12.15875847432061
 21
11.16343087111934
 31
0.0
  0
LINE
  5
2289
330
1E
100
AcDbEntity
  8
7
100
AcDbLine
 10
12.11545138770643
 20
11.16343087111934
 30
0.0
 11
12.12726241132848
 21
11.16343087111934
 31
0.0
  0
LINE
  5
228A
330
1E
100
AcDbEntity
  8
7
100
AcDbLine
 10
12.11151437983242
 20
11.32091118607997
 30
0.0
 11
12.1075773719584
 21
11.32091118607997
 31
0.0
  0
LINE
  5
228B
330
1E
100
AcDbEntity
  8
7
100
AcDbLine
 10
12.14301044282454
 20
11.32091118607997
 30
0.0
 11
12.1311994192025
 21
11.32091118607997
 31
0.0
  0
LINE
  5
228C
330
1E
100
AcDbEntity
  8
7
100
AcDbLine
 10
12.17450650581667
 20
11.32091118607997
 30
0.0
 11
12.16269548219462
 21
11.32091118607997
 31
0.0
  0
LINE
  5
228D
330
1E
100
AcDbEntity
  8
7
100
AcDbLine
 10
12.2060025688088
 20
11.32091118607997
 30
0.0
 11
12.19419154518675
 21
11.32091118607997
 31
0.0
  0
LINE
  5
228E
330
1E
100
AcDbEntity
  8
7
100
AcDbLine
 10
12.23356162392691
 20
11.32091118607997
 30
0.0
 11
12.22568760817888
 21
11.32091118607997
 31
0.0
  0
LINE
  5
228F
330
1E
100
AcDbEntity
  8
7
100
AcDbLine
 10
12.26505768691903
 20
11.32091118607997
 30
0.0
 11
12.257183671171
 21
11.32091118607997
 31
0.0
  0
LINE
  5
2290
330
1E
100
AcDbEntity
  8
7
100
AcDbLine
 10
12.29655374991116
 20
11.32091118607997
 30
0.0
 11
12.28867973416313
 21
11.32091118607997
 31
0.0
  0
LINE
  5
2291
330
1E
100
AcDbEntity
  8
7
100
AcDbLine
 10
12.32804981290328
 20
11.32091118607997
 30
0.0
 11
12.32017579715525
 21
11.32091118607997
 31
0.0
  0
LINE
  5
2292
330
1E
100
AcDbEntity
  8
7
100
AcDbLine
 10
12.35954587589541
 20
11.32091118607997
 30
0.0
 11
12.35167186014738
 21
11.32091118607997
 31
0.0
  0
LINE
  5
2293
330
1E
100
AcDbEntity
  8
7
100
AcDbLine
 10
12.39104193888754
 20
11.32091118607997
 30
0.0
 11
12.38316792313951
 21
11.32091118607997
 31
0.0
  0
LINE
  5
2294
330
1E
100
AcDbEntity
  8
7
100
AcDbLine
 10
12.36741989164344
 20
6.663430871119345
 30
0.0
 11
12.37529390739147
 21
6.663430871119345
 31
0.0
  0
LINE
  5
2295
330
1E
100
AcDbEntity
  8
7
100
AcDbLine
 10
12.33592382865132
 20
6.663430871119345
 30
0.0
 11
12.34379784439935
 21
6.663430871119345
 31
0.0
  0
LINE
  5
2296
330
1E
100
AcDbEntity
  8
7
100
AcDbLine
 10
12.30442776565919
 20
6.663430871119345
 30
0.0
 11
12.31230178140722
 21
6.663430871119345
 31
0.0
  0
LINE
  5
2297
330
1E
100
AcDbEntity
  8
7
100
AcDbLine
 10
12.27293170266706
 20
6.663430871119345
 30
0.0
 11
12.28080571841509
 21
6.663430871119345
 31
0.0
  0
LINE
  5
2298
330
1E
100
AcDbEntity
  8
7
100
AcDbLine
 10
12.24143563967494
 20
6.663430871119345
 30
0.0
 11
12.24930965542297
 21
6.663430871119345
 31
0.0
  0
LINE
  5
2299
330
1E
100
AcDbEntity
  8
7
100
AcDbLine
 10
12.20993957668281
 20
6.663430871119345
 30
0.0
 11
12.21781359243084
 21
6.663430871119345
 31
0.0
  0
LINE
  5
229A
330
1E
100
AcDbEntity
  8
7
100
AcDbLine
 10
12.17844351369069
 20
6.663430871119345
 30
0.0
 11
12.18631752943872
 21
6.663430871119345
 31
0.0
  0
LINE
  5
229B
330
1E
100
AcDbEntity
  8
7
100
AcDbLine
 10
12.14694745069856
 20
6.663430871119345
 30
0.0
 11
12.15875847432061
 21
6.663430871119345
 31
0.0
  0
LINE
  5
229C
330
1E
100
AcDbEntity
  8
7
100
AcDbLine
 10
12.11545138770643
 20
6.663430871119345
 30
0.0
 11
12.12726241132848
 21
6.663430871119345
 31
0.0
  0
LINE
  5
229D
330
1E
100
AcDbEntity
  8
7
100
AcDbLine
 10
12.11151437983242
 20
6.820911186079975
 30
0.0
 11
12.1075773719584
 21
6.820911186079975
 31
0.0
  0
LINE
  5
229E
330
1E
100
AcDbEntity
  8
7
100
AcDbLine
 10
12.14301044282454
 20
6.820911186079975
 30
0.0
 11
12.1311994192025
 21
6.820911186079975
 31
0.0
  0
LINE
  5
229F
330
1E
100
AcDbEntity
  8
7
100
AcDbLine
 10
12.17450650581667
 20
6.820911186079975
 30
0.0
 11
12.16269548219462
 21
6.820911186079975
 31
0.0
  0
LINE
  5
22A0
330
1E
100
AcDbEntity
  8
7
100
AcDbLine
 10
12.2060025688088
 20
6.820911186079975
 30
0.0
 11
12.19419154518675
 21
6.820911186079975
 31
0.0
  0
LINE
  5
22A1
330
1E
100
AcDbEntity
  8
7
100
AcDbLine
 10
12.23356162392691
 20
6.820911186079975
 30
0.0
 11
12.22568760817888
 21
6.820911186079975
 31
0.0
  0
LINE
  5
22A2
330
1E
100
AcDbEntity
  8
7
100
AcDbLine
 10
12.26505768691903
 20
6.820911186079975
 30
0.0
 11
12.257183671171
 21
6.820911186079975
 31
0.0
  0
LINE
  5
22A3
330
1E
100
AcDbEntity
  8
7
100
AcDbLine
 10
12.29655374991116
 20
6.820911186079975
 30
0.0
 11
12.28867973416313
 21
6.820911186079975
 31
0.0
  0
LINE
  5
22A4
330
1E
100
AcDbEntity
  8
7
100
AcDbLine
 10
12.32804981290328
 20
6.820911186079975
 30
0.0
 11
12.32017579715525
 21
6.820911186079975
 31
0.0
  0
LINE
  5
22A5
330
1E
100
AcDbEntity
  8
7
100
AcDbLine
 10
12.35954587589541
 20
6.820911186079975
 30
0.0
 11
12.35167186014738
 21
6.820911186079975
 31
0.0
  0
LINE
  5
22A6
330
1E
100
AcDbEntity
  8
7
100
AcDbLine
 10
12.39104193888754
 20
6.820911186079975
 30
0.0
 11
12.38316792313951
 21
6.820911186079975
 31
0.0
  0
LINE
  5
22A7
330
1E
100
AcDbEntity
  8
7
100
AcDbLine
 10
12.36741989164344
 20
8.911462367182338
 30
0.0
 11
12.37529390739147
 21
8.911462367182338
 31
0.0
  0
LINE
  5
22A8
330
1E
100
AcDbEntity
  8
7
100
AcDbLine
 10
12.33592382865132
 20
8.911462367182338
 30
0.0
 11
12.34379784439935
 21
8.911462367182338
 31
0.0
  0
LINE
  5
22A9
330
1E
100
AcDbEntity
  8
7
100
AcDbLine
 10
12.30442776565919
 20
8.911462367182338
 30
0.0
 11
12.31230178140722
 21
8.911462367182338
 31
0.0
  0
LINE
  5
22AA
330
1E
100
AcDbEntity
  8
7
100
AcDbLine
 10
12.27293170266706
 20
8.911462367182338
 30
0.0
 11
12.28080571841509
 21
8.911462367182338
 31
0.0
  0
LINE
  5
22AB
330
1E
100
AcDbEntity
  8
7
100
AcDbLine
 10
12.24143563967494
 20
8.911462367182338
 30
0.0
 11
12.24930965542297
 21
8.911462367182338
 31
0.0
  0
LINE
  5
22AC
330
1E
100
AcDbEntity
  8
7
100
AcDbLine
 10
12.20993957668281
 20
8.911462367182338
 30
0.0
 11
12.21781359243084
 21
8.911462367182338
 31
0.0
  0
LINE
  5
22AD
330
1E
100
AcDbEntity
  8
7
100
AcDbLine
 10
12.17844351369069
 20
8.911462367182338
 30
0.0
 11
12.18631752943872
 21
8.911462367182338
 31
0.0
  0
LINE
  5
22AE
330
1E
100
AcDbEntity
  8
7
100
AcDbLine
 10
12.14694745069856
 20
8.911462367182338
 30
0.0
 11
12.15875847432061
 21
8.911462367182338
 31
0.0
  0
LINE
  5
22AF
330
1E
100
AcDbEntity
  8
7
100
AcDbLine
 10
12.11545138770643
 20
8.911462367182338
 30
0.0
 11
12.12726241132848
 21
8.911462367182338
 31
0.0
  0
LINE
  5
22B0
330
1E
100
AcDbEntity
  8
7
100
AcDbLine
 10
12.11151437983242
 20
9.072879690016986
 30
0.0
 11
12.1075773719584
 21
9.072879690016986
 31
0.0
  0
LINE
  5
22B1
330
1E
100
AcDbEntity
  8
7
100
AcDbLine
 10
12.14301044282454
 20
9.072879690016986
 30
0.0
 11
12.1311994192025
 21
9.072879690016986
 31
0.0
  0
LINE
  5
22B2
330
1E
100
AcDbEntity
  8
7
100
AcDbLine
 10
12.17450650581667
 20
9.072879690016986
 30
0.0
 11
12.16269548219462
 21
9.072879690016986
 31
0.0
  0
LINE
  5
22B3
330
1E
100
AcDbEntity
  8
7
100
AcDbLine
 10
12.2060025688088
 20
9.072879690016986
 30
0.0
 11
12.19419154518675
 21
9.072879690016986
 31
0.0
  0
LINE
  5
22B4
330
1E
100
AcDbEntity
  8
7
100
AcDbLine
 10
12.23356162392691
 20
9.072879690016986
 30
0.0
 11
12.22568760817888
 21
9.072879690016986
 31
0.0
  0
LINE
  5
22B5
330
1E
100
AcDbEntity
  8
7
100
AcDbLine
 10
12.26505768691903
 20
9.072879690016986
 30
0.0
 11
12.257183671171
 21
9.072879690016986
 31
0.0
  0
LINE
  5
22B6
330
1E
100
AcDbEntity
  8
7
100
AcDbLine
 10
12.29655374991116
 20
9.072879690016986
 30
0.0
 11
12.28867973416313
 21
9.072879690016986
 31
0.0
  0
LINE
  5
22B7
330
1E
100
AcDbEntity
  8
7
100
AcDbLine
 10
12.32804981290328
 20
9.072879690016986
 30
0.0
 11
12.32017579715525
 21
9.072879690016986
 31
0.0
  0
LINE
  5
22B8
330
1E
100
AcDbEntity
  8
7
100
AcDbLine
 10
12.35954587589541
 20
9.072879690016986
 30
0.0
 11
12.35167186014738
 21
9.072879690016986
 31
0.0
  0
LINE
  5
22B9
330
1E
100
AcDbEntity
  8
7
100
AcDbLine
 10
12.39104193888754
 20
9.072879690016986
 30
0.0
 11
12.38316792313951
 21
9.072879690016986
 31
0.0
  0
LINE
  5
22BA
330
1E
100
AcDbEntity
  8
7
100
AcDbLine
 10
12.11938839558045
 20
11.33665921757603
 30
0.0
 11
12.11151437983242
 21
11.32091118607997
 31
0.0
  0
LINE
  5
22BB
330
1E
100
AcDbEntity
  8
7
100
AcDbLine
 10
12.15088445857258
 20
11.33665921757603
 30
0.0
 11
12.14301044282454
 21
11.32091118607997
 31
0.0
  0
LINE
  5
22BC
330
1E
100
AcDbEntity
  8
7
100
AcDbLine
 10
12.1823805215647
 20
11.33665921757603
 30
0.0
 11
12.17450650581667
 21
11.32091118607997
 31
0.0
  0
LINE
  5
22BD
330
1E
100
AcDbEntity
  8
7
100
AcDbLine
 10
12.21387658455683
 20
11.33665921757603
 30
0.0
 11
12.20206556093478
 21
11.32091118607997
 31
0.0
  0
LINE
  5
22BE
330
1E
100
AcDbEntity
  8
7
100
AcDbLine
 10
12.24143563967494
 20
11.33665921757603
 30
0.0
 11
12.23356162392691
 21
11.32091118607997
 31
0.0
  0
LINE
  5
22BF
330
1E
100
AcDbEntity
  8
7
100
AcDbLine
 10
12.27293170266706
 20
11.33665921757603
 30
0.0
 11
12.26505768691903
 21
11.32091118607997
 31
0.0
  0
LINE
  5
22C0
330
1E
100
AcDbEntity
  8
7
100
AcDbLine
 10
12.30442776565919
 20
11.33665921757603
 30
0.0
 11
12.29655374991116
 21
11.32091118607997
 31
0.0
  0
LINE
  5
22C1
330
1E
100
AcDbEntity
  8
7
100
AcDbLine
 10
12.33592382865132
 20
11.33665921757603
 30
0.0
 11
12.32804981290328
 21
11.32091118607997
 31
0.0
  0
LINE
  5
22C2
330
1E
100
AcDbEntity
  8
7
100
AcDbLine
 10
12.36741989164344
 20
11.33665921757603
 30
0.0
 11
12.35954587589541
 21
11.32091118607997
 31
0.0
  0
LINE
  5
22C3
330
1E
100
AcDbEntity
  8
7
100
AcDbLine
 10
12.39891595463557
 20
11.33665921757603
 30
0.0
 11
12.39104193888754
 21
11.32091118607997
 31
0.0
  0
LINE
  5
22C4
330
1E
100
AcDbEntity
  8
7
100
AcDbLine
 10
12.37529390739147
 20
11.16343087111934
 30
0.0
 11
12.38316792313951
 21
11.14768283962328
 31
0.0
  0
LINE
  5
22C5
330
1E
100
AcDbEntity
  8
7
100
AcDbLine
 10
12.34379784439935
 20
11.16343087111934
 30
0.0
 11
12.35167186014738
 21
11.14768283962328
 31
0.0
  0
LINE
  5
22C6
330
1E
100
AcDbEntity
  8
7
100
AcDbLine
 10
12.31230178140722
 20
11.16343087111934
 30
0.0
 11
12.32017579715525
 21
11.14768283962328
 31
0.0
  0
LINE
  5
22C7
330
1E
100
AcDbEntity
  8
7
100
AcDbLine
 10
12.28080571841509
 20
11.16343087111934
 30
0.0
 11
12.28867973416313
 21
11.14768283962328
 31
0.0
  0
LINE
  5
22C8
330
1E
100
AcDbEntity
  8
7
100
AcDbLine
 10
12.24930965542297
 20
11.16343087111934
 30
0.0
 11
12.26112067904502
 21
11.14768283962328
 31
0.0
  0
LINE
  5
22C9
330
1E
100
AcDbEntity
  8
7
100
AcDbLine
 10
12.21781359243084
 20
11.16343087111934
 30
0.0
 11
12.22962461605289
 21
11.14768283962328
 31
0.0
  0
LINE
  5
22CA
330
1E
100
AcDbEntity
  8
7
100
AcDbLine
 10
12.18631752943872
 20
11.16343087111934
 30
0.0
 11
12.19812855306076
 21
11.14768283962328
 31
0.0
  0
LINE
  5
22CB
330
1E
100
AcDbEntity
  8
7
100
AcDbLine
 10
12.15482146644659
 20
11.16343087111934
 30
0.0
 11
12.16663249006864
 21
11.14768283962328
 31
0.0
  0
LINE
  5
22CC
330
1E
100
AcDbEntity
  8
7
100
AcDbLine
 10
12.12726241132848
 20
11.16343087111934
 30
0.0
 11
12.13513642707651
 21
11.14768283962328
 31
0.0
  0
LINE
  5
22CD
330
1E
100
AcDbEntity
  8
7
100
AcDbLine
 10
12.13513642707651
 20
11.32091118607997
 30
0.0
 11
12.12332540345447
 21
11.33665921757603
 31
0.0
  0
LINE
  5
22CE
330
1E
100
AcDbEntity
  8
7
100
AcDbLine
 10
12.16269548219462
 20
11.32091118607997
 30
0.0
 11
12.15482146644659
 21
11.33665921757603
 31
0.0
  0
LINE
  5
22CF
330
1E
100
AcDbEntity
  8
7
100
AcDbLine
 10
12.19419154518675
 20
11.32091118607997
 30
0.0
 11
12.18631752943872
 21
11.33665921757603
 31
0.0
  0
LINE
  5
22D0
330
1E
100
AcDbEntity
  8
7
100
AcDbLine
 10
12.22568760817888
 20
11.32091118607997
 30
0.0
 11
12.21781359243084
 21
11.33665921757603
 31
0.0
  0
LINE
  5
22D1
330
1E
100
AcDbEntity
  8
7
100
AcDbLine
 10
12.257183671171
 20
11.32091118607997
 30
0.0
 11
12.24930965542297
 21
11.33665921757603
 31
0.0
  0
LINE
  5
22D2
330
1E
100
AcDbEntity
  8
7
100
AcDbLine
 10
12.28867973416313
 20
11.32091118607997
 30
0.0
 11
12.28080571841509
 21
11.33665921757603
 31
0.0
  0
LINE
  5
22D3
330
1E
100
AcDbEntity
  8
7
100
AcDbLine
 10
12.32017579715525
 20
11.32091118607997
 30
0.0
 11
12.31230178140722
 21
11.33665921757603
 31
0.0
  0
LINE
  5
22D4
330
1E
100
AcDbEntity
  8
7
100
AcDbLine
 10
12.35167186014738
 20
11.32091118607997
 30
0.0
 11
12.34379784439935
 21
11.33665921757603
 31
0.0
  0
LINE
  5
22D5
330
1E
100
AcDbEntity
  8
7
100
AcDbLine
 10
12.38316792313951
 20
11.32091118607997
 30
0.0
 11
12.37529390739147
 21
11.33665921757603
 31
0.0
  0
LINE
  5
22D6
330
1E
100
AcDbEntity
  8
7
100
AcDbLine
 10
12.39104193888754
 20
11.14768283962328
 30
0.0
 11
12.39891595463557
 21
11.16343087111934
 31
0.0
  0
LINE
  5
22D7
330
1E
100
AcDbEntity
  8
7
100
AcDbLine
 10
12.35954587589541
 20
11.14768283962328
 30
0.0
 11
12.36741989164344
 21
11.16343087111934
 31
0.0
  0
LINE
  5
22D8
330
1E
100
AcDbEntity
  8
7
100
AcDbLine
 10
12.32804981290328
 20
11.14768283962328
 30
0.0
 11
12.33592382865132
 21
11.16343087111934
 31
0.0
  0
LINE
  5
22D9
330
1E
100
AcDbEntity
  8
7
100
AcDbLine
 10
12.29655374991116
 20
11.14768283962328
 30
0.0
 11
12.30442776565919
 21
11.16343087111934
 31
0.0
  0
LINE
  5
22DA
330
1E
100
AcDbEntity
  8
7
100
AcDbLine
 10
12.26505768691903
 20
11.14768283962328
 30
0.0
 11
12.27293170266706
 21
11.16343087111934
 31
0.0
  0
LINE
  5
22DB
330
1E
100
AcDbEntity
  8
7
100
AcDbLine
 10
12.23356162392691
 20
11.14768283962328
 30
0.0
 11
12.24143563967494
 21
11.16343087111934
 31
0.0
  0
LINE
  5
22DC
330
1E
100
AcDbEntity
  8
7
100
AcDbLine
 10
12.20206556093478
 20
11.14768283962328
 30
0.0
 11
12.20993957668281
 21
11.16343087111934
 31
0.0
  0
LINE
  5
22DD
330
1E
100
AcDbEntity
  8
7
100
AcDbLine
 10
12.17056949794265
 20
11.14768283962328
 30
0.0
 11
12.17844351369069
 21
11.16343087111934
 31
0.0
  0
LINE
  5
22DE
330
1E
100
AcDbEntity
  8
7
100
AcDbLine
 10
12.13907343495053
 20
11.14768283962328
 30
0.0
 11
12.14694745069856
 21
11.16343087111934
 31
0.0
  0
LINE
  5
22DF
330
1E
100
AcDbEntity
  8
7
100
AcDbLine
 10
12.1075773719584
 20
11.14768283962328
 30
0.0
 11
12.11545138770643
 21
11.16343087111934
 31
0.0
  0
LINE
  5
22E0
330
1E
100
AcDbEntity
  8
7
100
AcDbLine
 10
12.11938839558045
 20
6.836659217576038
 30
0.0
 11
12.11151437983242
 21
6.820911186079975
 31
0.0
  0
LINE
  5
22E1
330
1E
100
AcDbEntity
  8
7
100
AcDbLine
 10
12.15088445857258
 20
6.836659217576038
 30
0.0
 11
12.14301044282454
 21
6.820911186079975
 31
0.0
  0
LINE
  5
22E2
330
1E
100
AcDbEntity
  8
7
100
AcDbLine
 10
12.1823805215647
 20
6.836659217576038
 30
0.0
 11
12.17450650581667
 21
6.820911186079975
 31
0.0
  0
LINE
  5
22E3
330
1E
100
AcDbEntity
  8
7
100
AcDbLine
 10
12.21387658455683
 20
6.836659217576038
 30
0.0
 11
12.20206556093478
 21
6.820911186079975
 31
0.0
  0
LINE
  5
22E4
330
1E
100
AcDbEntity
  8
7
100
AcDbLine
 10
12.24143563967494
 20
6.836659217576038
 30
0.0
 11
12.23356162392691
 21
6.820911186079975
 31
0.0
  0
LINE
  5
22E5
330
1E
100
AcDbEntity
  8
7
100
AcDbLine
 10
12.27293170266706
 20
6.836659217576038
 30
0.0
 11
12.26505768691903
 21
6.820911186079975
 31
0.0
  0
LINE
  5
22E6
330
1E
100
AcDbEntity
  8
7
100
AcDbLine
 10
12.30442776565919
 20
6.836659217576038
 30
0.0
 11
12.29655374991116
 21
6.820911186079975
 31
0.0
  0
LINE
  5
22E7
330
1E
100
AcDbEntity
  8
7
100
AcDbLine
 10
12.33592382865132
 20
6.836659217576038
 30
0.0
 11
12.32804981290328
 21
6.820911186079975
 31
0.0
  0
LINE
  5
22E8
330
1E
100
AcDbEntity
  8
7
100
AcDbLine
 10
12.36741989164344
 20
6.836659217576038
 30
0.0
 11
12.35954587589541
 21
6.820911186079975
 31
0.0
  0
LINE
  5
22E9
330
1E
100
AcDbEntity
  8
7
100
AcDbLine
 10
12.39891595463557
 20
6.836659217576038
 30
0.0
 11
12.39104193888754
 21
6.820911186079975
 31
0.0
  0
LINE
  5
22EA
330
1E
100
AcDbEntity
  8
7
100
AcDbLine
 10
12.37529390739147
 20
6.663430871119345
 30
0.0
 11
12.38316792313951
 21
6.647682839623282
 31
0.0
  0
LINE
  5
22EB
330
1E
100
AcDbEntity
  8
7
100
AcDbLine
 10
12.34379784439935
 20
6.663430871119345
 30
0.0
 11
12.35167186014738
 21
6.647682839623282
 31
0.0
  0
LINE
  5
22EC
330
1E
100
AcDbEntity
  8
7
100
AcDbLine
 10
12.31230178140722
 20
6.663430871119345
 30
0.0
 11
12.32017579715525
 21
6.647682839623282
 31
0.0
  0
LINE
  5
22ED
330
1E
100
AcDbEntity
  8
7
100
AcDbLine
 10
12.28080571841509
 20
6.663430871119345
 30
0.0
 11
12.28867973416313
 21
6.647682839623282
 31
0.0
  0
LINE
  5
22EE
330
1E
100
AcDbEntity
  8
7
100
AcDbLine
 10
12.24930965542297
 20
6.663430871119345
 30
0.0
 11
12.26112067904502
 21
6.647682839623282
 31
0.0
  0
LINE
  5
22EF
330
1E
100
AcDbEntity
  8
7
100
AcDbLine
 10
12.21781359243084
 20
6.663430871119345
 30
0.0
 11
12.22962461605289
 21
6.647682839623282
 31
0.0
  0
LINE
  5
22F0
330
1E
100
AcDbEntity
  8
7
100
AcDbLine
 10
12.18631752943872
 20
6.663430871119345
 30
0.0
 11
12.19812855306076
 21
6.647682839623282
 31
0.0
  0
LINE
  5
22F1
330
1E
100
AcDbEntity
  8
7
100
AcDbLine
 10
12.15482146644659
 20
6.663430871119345
 30
0.0
 11
12.16663249006864
 21
6.647682839623282
 31
0.0
  0
LINE
  5
22F2
330
1E
100
AcDbEntity
  8
7
100
AcDbLine
 10
12.12726241132848
 20
6.663430871119345
 30
0.0
 11
12.13513642707651
 21
6.647682839623282
 31
0.0
  0
LINE
  5
22F3
330
1E
100
AcDbEntity
  8
7
100
AcDbLine
 10
12.13513642707651
 20
6.820911186079975
 30
0.0
 11
12.12332540345447
 21
6.836659217576038
 31
0.0
  0
LINE
  5
22F4
330
1E
100
AcDbEntity
  8
7
100
AcDbLine
 10
12.16269548219462
 20
6.820911186079975
 30
0.0
 11
12.15482146644659
 21
6.836659217576038
 31
0.0
  0
LINE
  5
22F5
330
1E
100
AcDbEntity
  8
7
100
AcDbLine
 10
12.19419154518675
 20
6.820911186079975
 30
0.0
 11
12.18631752943872
 21
6.836659217576038
 31
0.0
  0
LINE
  5
22F6
330
1E
100
AcDbEntity
  8
7
100
AcDbLine
 10
12.22568760817888
 20
6.820911186079975
 30
0.0
 11
12.21781359243084
 21
6.836659217576038
 31
0.0
  0
LINE
  5
22F7
330
1E
100
AcDbEntity
  8
7
100
AcDbLine
 10
12.257183671171
 20
6.820911186079975
 30
0.0
 11
12.24930965542297
 21
6.836659217576038
 31
0.0
  0
LINE
  5
22F8
330
1E
100
AcDbEntity
  8
7
100
AcDbLine
 10
12.28867973416313
 20
6.820911186079975
 30
0.0
 11
12.28080571841509
 21
6.836659217576038
 31
0.0
  0
LINE
  5
22F9
330
1E
100
AcDbEntity
  8
7
100
AcDbLine
 10
12.32017579715525
 20
6.820911186079975
 30
0.0
 11
12.31230178140722
 21
6.836659217576038
 31
0.0
  0
LINE
  5
22FA
330
1E
100
AcDbEntity
  8
7
100
AcDbLine
 10
12.35167186014738
 20
6.820911186079975
 30
0.0
 11
12.34379784439935
 21
6.836659217576038
 31
0.0
  0
LINE
  5
22FB
330
1E
100
AcDbEntity
  8
7
100
AcDbLine
 10
12.38316792313951
 20
6.820911186079975
 30
0.0
 11
12.37529390739147
 21
6.836659217576038
 31
0.0
  0
LINE
  5
22FC
330
1E
100
AcDbEntity
  8
7
100
AcDbLine
 10
12.39104193888754
 20
6.647682839623282
 30
0.0
 11
12.39891595463557
 21
6.663430871119345
 31
0.0
  0
LINE
  5
22FD
330
1E
100
AcDbEntity
  8
7
100
AcDbLine
 10
12.35954587589541
 20
6.647682839623282
 30
0.0
 11
12.36741989164344
 21
6.663430871119345
 31
0.0
  0
LINE
  5
22FE
330
1E
100
AcDbEntity
  8
7
100
AcDbLine
 10
12.32804981290328
 20
6.647682839623282
 30
0.0
 11
12.33592382865132
 21
6.663430871119345
 31
0.0
  0
LINE
  5
22FF
330
1E
100
AcDbEntity
  8
7
100
AcDbLine
 10
12.29655374991116
 20
6.647682839623282
 30
0.0
 11
12.30442776565919
 21
6.663430871119345
 31
0.0
  0
LINE
  5
2300
330
1E
100
AcDbEntity
  8
7
100
AcDbLine
 10
12.26505768691903
 20
6.647682839623282
 30
0.0
 11
12.27293170266706
 21
6.663430871119345
 31
0.0
  0
LINE
  5
2301
330
1E
100
AcDbEntity
  8
7
100
AcDbLine
 10
12.23356162392691
 20
6.647682839623282
 30
0.0
 11
12.24143563967494
 21
6.663430871119345
 31
0.0
  0
LINE
  5
2302
330
1E
100
AcDbEntity
  8
7
100
AcDbLine
 10
12.20206556093478
 20
6.647682839623282
 30
0.0
 11
12.20993957668281
 21
6.663430871119345
 31
0.0
  0
LINE
  5
2303
330
1E
100
AcDbEntity
  8
7
100
AcDbLine
 10
12.17056949794265
 20
6.647682839623282
 30
0.0
 11
12.17844351369069
 21
6.663430871119345
 31
0.0
  0
LINE
  5
2304
330
1E
100
AcDbEntity
  8
7
100
AcDbLine
 10
12.13907343495053
 20
6.647682839623282
 30
0.0
 11
12.14694745069856
 21
6.663430871119345
 31
0.0
  0
LINE
  5
2305
330
1E
100
AcDbEntity
  8
7
100
AcDbLine
 10
12.1075773719584
 20
6.647682839623282
 30
0.0
 11
12.11545138770643
 21
6.663430871119345
 31
0.0
  0
LINE
  5
2306
330
1E
100
AcDbEntity
  8
7
100
AcDbLine
 10
12.11938839558045
 20
9.088627721513049
 30
0.0
 11
12.11151437983242
 21
9.072879690016986
 31
0.0
  0
LINE
  5
2307
330
1E
100
AcDbEntity
  8
7
100
AcDbLine
 10
12.15088445857258
 20
9.08469071363903
 30
0.0
 11
12.14301044282454
 21
9.072879690016986
 31
0.0
  0
LINE
  5
2308
330
1E
100
AcDbEntity
  8
7
100
AcDbLine
 10
12.1823805215647
 20
9.088627721513049
 30
0.0
 11
12.17450650581667
 21
9.072879690016986
 31
0.0
  0
LINE
  5
2309
330
1E
100
AcDbEntity
  8
7
100
AcDbLine
 10
12.21387658455683
 20
9.088627721513049
 30
0.0
 11
12.20206556093478
 21
9.072879690016986
 31
0.0
  0
LINE
  5
230A
330
1E
100
AcDbEntity
  8
7
100
AcDbLine
 10
12.24143563967494
 20
9.08469071363903
 30
0.0
 11
12.23356162392691
 21
9.072879690016986
 31
0.0
  0
LINE
  5
230B
330
1E
100
AcDbEntity
  8
7
100
AcDbLine
 10
12.27293170266706
 20
9.088627721513049
 30
0.0
 11
12.26505768691903
 21
9.072879690016986
 31
0.0
  0
LINE
  5
230C
330
1E
100
AcDbEntity
  8
7
100
AcDbLine
 10
12.30442776565919
 20
9.08469071363903
 30
0.0
 11
12.29655374991116
 21
9.072879690016986
 31
0.0
  0
LINE
  5
230D
330
1E
100
AcDbEntity
  8
7
100
AcDbLine
 10
12.33592382865132
 20
9.088627721513049
 30
0.0
 11
12.32804981290328
 21
9.072879690016986
 31
0.0
  0
LINE
  5
230E
330
1E
100
AcDbEntity
  8
7
100
AcDbLine
 10
12.36741989164344
 20
9.088627721513049
 30
0.0
 11
12.35954587589541
 21
9.072879690016986
 31
0.0
  0
LINE
  5
230F
330
1E
100
AcDbEntity
  8
7
100
AcDbLine
 10
12.39891595463557
 20
9.08469071363903
 30
0.0
 11
12.39104193888754
 21
9.072879690016986
 31
0.0
  0
LINE
  5
2310
330
1E
100
AcDbEntity
  8
7
100
AcDbLine
 10
12.37529390739147
 20
8.911462367182338
 30
0.0
 11
12.38316792313951
 21
8.895714335686275
 31
0.0
  0
LINE
  5
2311
330
1E
100
AcDbEntity
  8
7
100
AcDbLine
 10
12.34379784439935
 20
8.911462367182338
 30
0.0
 11
12.35167186014738
 21
8.895714335686275
 31
0.0
  0
LINE
  5
2312
330
1E
100
AcDbEntity
  8
7
100
AcDbLine
 10
12.31230178140722
 20
8.911462367182338
 30
0.0
 11
12.32017579715525
 21
8.895714335686275
 31
0.0
  0
LINE
  5
2313
330
1E
100
AcDbEntity
  8
7
100
AcDbLine
 10
12.28080571841509
 20
8.911462367182338
 30
0.0
 11
12.28867973416313
 21
8.895714335686275
 31
0.0
  0
LINE
  5
2314
330
1E
100
AcDbEntity
  8
7
100
AcDbLine
 10
12.24930965542297
 20
8.911462367182338
 30
0.0
 11
12.26112067904502
 21
8.895714335686275
 31
0.0
  0
LINE
  5
2315
330
1E
100
AcDbEntity
  8
7
100
AcDbLine
 10
12.21781359243084
 20
8.911462367182338
 30
0.0
 11
12.22962461605289
 21
8.895714335686275
 31
0.0
  0
LINE
  5
2316
330
1E
100
AcDbEntity
  8
7
100
AcDbLine
 10
12.18631752943872
 20
8.911462367182338
 30
0.0
 11
12.19812855306076
 21
8.895714335686275
 31
0.0
  0
LINE
  5
2317
330
1E
100
AcDbEntity
  8
7
100
AcDbLine
 10
12.15482146644659
 20
8.911462367182338
 30
0.0
 11
12.16663249006864
 21
8.895714335686275
 31
0.0
  0
LINE
  5
2318
330
1E
100
AcDbEntity
  8
7
100
AcDbLine
 10
12.12726241132848
 20
8.911462367182338
 30
0.0
 11
12.13513642707651
 21
8.895714335686275
 31
0.0
  0
LINE
  5
2319
330
1E
100
AcDbEntity
  8
7
100
AcDbLine
 10
12.13513642707651
 20
9.072879690016986
 30
0.0
 11
12.12332540345447
 21
9.088627721513049
 31
0.0
  0
LINE
  5
231A
330
1E
100
AcDbEntity
  8
7
100
AcDbLine
 10
12.16269548219462
 20
9.072879690016986
 30
0.0
 11
12.15482146644659
 21
9.088627721513049
 31
0.0
  0
LINE
  5
231B
330
1E
100
AcDbEntity
  8
7
100
AcDbLine
 10
12.19419154518675
 20
9.072879690016986
 30
0.0
 11
12.18631752943872
 21
9.088627721513049
 31
0.0
  0
LINE
  5
231C
330
1E
100
AcDbEntity
  8
7
100
AcDbLine
 10
12.22568760817888
 20
9.072879690016986
 30
0.0
 11
12.21781359243084
 21
9.088627721513049
 31
0.0
  0
LINE
  5
231D
330
1E
100
AcDbEntity
  8
7
100
AcDbLine
 10
12.257183671171
 20
9.072879690016986
 30
0.0
 11
12.24930965542297
 21
9.088627721513049
 31
0.0
  0
LINE
  5
231E
330
1E
100
AcDbEntity
  8
7
100
AcDbLine
 10
12.28867973416313
 20
9.072879690016986
 30
0.0
 11
12.28080571841509
 21
9.088627721513049
 31
0.0
  0
LINE
  5
231F
330
1E
100
AcDbEntity
  8
7
100
AcDbLine
 10
12.32017579715525
 20
9.072879690016986
 30
0.0
 11
12.31230178140722
 21
9.088627721513049
 31
0.0
  0
LINE
  5
2320
330
1E
100
AcDbEntity
  8
7
100
AcDbLine
 10
12.35167186014738
 20
9.072879690016986
 30
0.0
 11
12.34379784439935
 21
9.088627721513049
 31
0.0
  0
LINE
  5
2321
330
1E
100
AcDbEntity
  8
7
100
AcDbLine
 10
12.38316792313951
 20
9.072879690016986
 30
0.0
 11
12.37529390739147
 21
9.088627721513049
 31
0.0
  0
LINE
  5
2322
330
1E
100
AcDbEntity
  8
7
100
AcDbLine
 10
12.39104193888754
 20
8.895714335686275
 30
0.0
 11
12.39891595463557
 21
8.911462367182338
 31
0.0
  0
LINE
  5
2323
330
1E
100
AcDbEntity
  8
7
100
AcDbLine
 10
12.35954587589541
 20
8.895714335686275
 30
0.0
 11
12.36741989164344
 21
8.911462367182338
 31
0.0
  0
LINE
  5
2324
330
1E
100
AcDbEntity
  8
7
100
AcDbLine
 10
12.32804981290328
 20
8.895714335686275
 30
0.0
 11
12.33592382865132
 21
8.911462367182338
 31
0.0
  0
LINE
  5
2325
330
1E
100
AcDbEntity
  8
7
100
AcDbLine
 10
12.29655374991116
 20
8.895714335686275
 30
0.0
 11
12.30442776565919
 21
8.911462367182338
 31
0.0
  0
LINE
  5
2326
330
1E
100
AcDbEntity
  8
7
100
AcDbLine
 10
12.26505768691903
 20
8.895714335686275
 30
0.0
 11
12.27293170266706
 21
8.911462367182338
 31
0.0
  0
LINE
  5
2327
330
1E
100
AcDbEntity
  8
7
100
AcDbLine
 10
12.23356162392691
 20
8.895714335686275
 30
0.0
 11
12.24143563967494
 21
8.911462367182338
 31
0.0
  0
LINE
  5
2328
330
1E
100
AcDbEntity
  8
7
100
AcDbLine
 10
12.20206556093478
 20
8.895714335686275
 30
0.0
 11
12.20993957668281
 21
8.911462367182338
 31
0.0
  0
LINE
  5
2329
330
1E
100
AcDbEntity
  8
7
100
AcDbLine
 10
12.17056949794265
 20
8.895714335686275
 30
0.0
 11
12.17844351369069
 21
8.911462367182338
 31
0.0
  0
LINE
  5
232A
330
1E
100
AcDbEntity
  8
7
100
AcDbLine
 10
12.13907343495053
 20
8.895714335686275
 30
0.0
 11
12.14694745069856
 21
8.911462367182338
 31
0.0
  0
LINE
  5
232B
330
1E
100
AcDbEntity
  8
7
100
AcDbLine
 10
12.1075773719584
 20
8.895714335686275
 30
0.0
 11
12.11545138770643
 21
8.911462367182338
 31
0.0
  0
LINE
  5
232C
330
1E
100
AcDbEntity
  8
7
100
AcDbLine
 10
11.9815931199899
 20
11.49413953253667
 30
0.0
 11
12.1075773719584
 21
11.49413953253667
 31
0.0
  0
LINE
  5
234F
330
1E
100
AcDbEntity
  8
7
100
AcDbLine
 10
12.1075773719584
 20
7.494139532536671
 30
0.0
 11
12.1075773719584
 21
10.49413953253667
 31
0.0
  0
LINE
  5
235B
330
1E
100
AcDbEntity
  8
7
100
AcDbLine
 10
12.1075773719584
 20
10.49413953253667
 30
0.0
 11
11.9815931199899
 21
10.49413953253667
 31
0.0
  0
LINE
  5
235C
330
1E
100
AcDbEntity
  8
7
100
AcDbLine
 10
11.9815931199899
 20
7.494139532536671
 30
0.0
 11
12.1075773719584
 21
7.494139532536671
 31
0.0
  0
LINE
  5
236D
330
1E
100
AcDbEntity
  8
7
100
AcDbLine
 10
11.9815931199899
 20
7.494139532536671
 30
0.0
 11
11.9815931199899
 21
10.49413953253667
 31
0.0
  0
LINE
  5
2391
330
1E
100
AcDbEntity
  8
7
100
AcDbLine
 10
11.90285296250958
 20
7.494139532536671
 30
0.0
 11
11.9815931199899
 21
7.494139532536671
 31
0.0
  0
LINE
  5
2392
330
1E
100
AcDbEntity
  8
7
100
AcDbLine
 10
11.9815931199899
 20
10.49413953253667
 30
0.0
 11
11.90285296250958
 21
10.49413953253667
 31
0.0
  0
LINE
  5
23ED
330
1E
100
AcDbEntity
  8
7
100
AcDbLine
 10
12.22962461605289
 20
11.14768283962328
 30
0.0
 11
12.22568760817888
 21
11.15555685537131
 31
0.0
  0
LINE
  5
241C
330
1E
100
AcDbEntity
  8
7
100
AcDbLine
 10
12.1075773719584
 20
11.15949386324533
 30
0.0
 11
12.1075773719584
 21
11.14768283962328
 31
0.0
  0
LINE
  5
248A
330
1E
100
AcDbEntity
  8
7
100
AcDbLine
 10
12.38710493101352
 20
11.16343087111934
 30
0.0
 11
12.39104193888754
 21
11.14768283962328
 31
0.0
  0
LINE
  5
2597
330
1E
100
AcDbEntity
  8
7
100
AcDbLine
 10
12.35167186014738
 20
6.647682839623282
 30
0.0
 11
12.35167186014738
 21
6.65949386324533
 31
0.0
  0
LINE
  5
25DE
330
1E
100
AcDbEntity
  8
7
100
AcDbLine
 10
12.1823805215647
 20
6.820911186079975
 30
0.0
 11
12.1823805215647
 21
6.836659217576038
 31
0.0
  0
LINE
  5
25F9
330
1E
100
AcDbEntity
  8
7
100
AcDbLine
 10
12.1075773719584
 20
6.65949386324533
 30
0.0
 11
12.1075773719584
 21
6.647682839623282
 31
0.0
  0
LINE
  5
2606
330
1E
100
AcDbEntity
  8
7
100
AcDbLine
 10
12.15482146644659
 20
6.836659217576038
 30
0.0
 11
12.15875847432061
 21
6.820911186079975
 31
0.0
  0
LINE
  5
264A
330
1E
100
AcDbEntity
  8
7
100
AcDbLine
 10
12.32411280502927
 20
6.65949386324533
 30
0.0
 11
12.32804981290328
 21
6.647682839623282
 31
0.0
  0
LINE
  5
26D1
330
1E
100
AcDbEntity
  8
7
100
AcDbLine
 10
12.37135689951746
 20
6.683115910489426
 30
0.0
 11
12.37529390739147
 21
6.663430871119345
 31
0.0
  0
LINE
  5
27E6
330
1E
100
AcDbEntity
  8
7
100
AcDbLine
 10
12.13907343495053
 20
8.903588351434308
 30
0.0
 11
12.13907343495053
 21
8.895714335686275
 31
0.0
  0
LINE
  5
2827
330
1E
100
AcDbEntity
  8
7
100
AcDbLine
 10
12.31230178140722
 20
9.08469071363903
 30
0.0
 11
12.31623878928123
 21
9.072879690016986
 31
0.0
  0
LINE
  5
2854
330
1E
100
AcDbEntity
  8
7
100
AcDbLine
 10
12.12332540345447
 20
8.923273390804386
 30
0.0
 11
12.12726241132848
 21
8.911462367182338
 31
0.0
  0
LINE
  5
2895
330
1E
100
AcDbEntity
  8
7
100
AcDbLine
 10
12.29655374991116
 20
9.072879690016986
 30
0.0
 11
12.30049075778517
 21
9.065005674268952
 31
0.0
  0
LINE
  5
2B90
330
1E
100
AcDbEntity
  8
7
100
AcDbLine
 10
12.11545138770643
 20
8.911462367182338
 30
0.0
 11
12.11545138770643
 21
8.919336382930371
 31
0.0
  0
LINE
  5
2B91
330
1E
100
AcDbEntity
  8
7
100
AcDbLine
 10
12.11545138770643
 20
8.919336382930371
 30
0.0
 11
12.11151437983242
 21
8.935084414426434
 31
0.0
  0
LINE
  5
2B92
330
1E
100
AcDbEntity
  8
7
100
AcDbLine
 10
12.11151437983242
 20
8.935084414426434
 30
0.0
 11
12.11151437983242
 21
8.958706461670526
 31
0.0
  0
LINE
  5
2B93
330
1E
100
AcDbEntity
  8
7
100
AcDbLine
 10
12.11151437983242
 20
8.958706461670526
 30
0.0
 11
12.11151437983242
 21
8.986265516788638
 31
0.0
  0
LINE
  5
2B94
330
1E
100
AcDbEntity
  8
7
100
AcDbLine
 10
12.11151437983242
 20
8.986265516788638
 30
0.0
 11
12.1075773719584
 21
9.009887564032734
 31
0.0
  0
LINE
  5
2B95
330
1E
100
AcDbEntity
  8
7
100
AcDbLine
 10
12.1075773719584
 20
9.009887564032734
 30
0.0
 11
12.1075773719584
 21
9.04138362702486
 31
0.0
  0
LINE
  5
2B96
330
1E
100
AcDbEntity
  8
7
100
AcDbLine
 10
12.14694745069856
 20
8.911462367182338
 30
0.0
 11
12.14694745069856
 21
8.915399375056356
 31
0.0
  0
LINE
  5
2B97
330
1E
100
AcDbEntity
  8
7
100
AcDbLine
 10
12.14694745069856
 20
8.915399375056356
 30
0.0
 11
12.14694745069856
 21
8.927210398678401
 31
0.0
  0
LINE
  5
2B98
330
1E
100
AcDbEntity
  8
7
100
AcDbLine
 10
12.14694745069856
 20
8.927210398678401
 30
0.0
 11
12.14301044282454
 21
8.950832445922497
 31
0.0
  0
LINE
  5
2B99
330
1E
100
AcDbEntity
  8
7
100
AcDbLine
 10
12.14301044282454
 20
8.950832445922497
 30
0.0
 11
12.14301044282454
 21
8.974454493166589
 31
0.0
  0
LINE
  5
2B9A
330
1E
100
AcDbEntity
  8
7
100
AcDbLine
 10
12.14301044282454
 20
8.974454493166589
 30
0.0
 11
12.13907343495053
 21
9.002013548284701
 31
0.0
  0
LINE
  5
2B9B
330
1E
100
AcDbEntity
  8
7
100
AcDbLine
 10
12.13907343495053
 20
9.002013548284701
 30
0.0
 11
12.13907343495053
 21
9.025635595528797
 31
0.0
  0
LINE
  5
2B9C
330
1E
100
AcDbEntity
  8
7
100
AcDbLine
 10
12.13907343495053
 20
9.025635595528797
 30
0.0
 11
12.13513642707651
 21
9.049257642772889
 31
0.0
  0
LINE
  5
2B9D
330
1E
100
AcDbEntity
  8
7
100
AcDbLine
 10
12.13513642707651
 20
9.049257642772889
 30
0.0
 11
12.13513642707651
 21
9.065005674268952
 31
0.0
  0
LINE
  5
2B9E
330
1E
100
AcDbEntity
  8
7
100
AcDbLine
 10
12.13513642707651
 20
9.065005674268952
 30
0.0
 11
12.13513642707651
 21
9.072879690016986
 31
0.0
  0
LINE
  5
2B9F
330
1E
100
AcDbEntity
  8
7
100
AcDbLine
 10
12.17844351369069
 20
8.915399375056356
 30
0.0
 11
12.17844351369069
 21
8.923273390804386
 31
0.0
  0
LINE
  5
2BA0
330
1E
100
AcDbEntity
  8
7
100
AcDbLine
 10
12.17844351369069
 20
8.923273390804386
 30
0.0
 11
12.17450650581667
 21
8.939021422300449
 31
0.0
  0
LINE
  5
2BA1
330
1E
100
AcDbEntity
  8
7
100
AcDbLine
 10
12.17450650581667
 20
8.939021422300449
 30
0.0
 11
12.17450650581667
 21
8.962643469544545
 31
0.0
  0
LINE
  5
2BA2
330
1E
100
AcDbEntity
  8
7
100
AcDbLine
 10
12.17450650581667
 20
8.962643469544545
 30
0.0
 11
12.17056949794265
 21
8.990202524662652
 31
0.0
  0
LINE
  5
2BA3
330
1E
100
AcDbEntity
  8
7
100
AcDbLine
 10
12.17056949794265
 20
8.990202524662652
 30
0.0
 11
12.17056949794265
 21
9.017761579780763
 31
0.0
  0
LINE
  5
2BA4
330
1E
100
AcDbEntity
  8
7
100
AcDbLine
 10
12.17056949794265
 20
9.017761579780763
 30
0.0
 11
12.16663249006864
 21
9.04138362702486
 31
0.0
  0
LINE
  5
2BA5
330
1E
100
AcDbEntity
  8
7
100
AcDbLine
 10
12.16663249006864
 20
9.04138362702486
 30
0.0
 11
12.16663249006864
 21
9.057131658520923
 31
0.0
  0
LINE
  5
2BA6
330
1E
100
AcDbEntity
  8
7
100
AcDbLine
 10
12.16663249006864
 20
9.057131658520923
 30
0.0
 11
12.16269548219462
 21
9.068942682142967
 31
0.0
  0
LINE
  5
2BA7
330
1E
100
AcDbEntity
  8
7
100
AcDbLine
 10
12.20993957668281
 20
8.911462367182338
 30
0.0
 11
12.20993957668281
 21
8.919336382930371
 31
0.0
  0
LINE
  5
2BA8
330
1E
100
AcDbEntity
  8
7
100
AcDbLine
 10
12.20993957668281
 20
8.919336382930371
 30
0.0
 11
12.2060025688088
 21
8.931147406552419
 31
0.0
  0
LINE
  5
2BA9
330
1E
100
AcDbEntity
  8
7
100
AcDbLine
 10
12.2060025688088
 20
8.931147406552419
 30
0.0
 11
12.2060025688088
 21
8.954769453796512
 31
0.0
  0
LINE
  5
2BAA
330
1E
100
AcDbEntity
  8
7
100
AcDbLine
 10
12.2060025688088
 20
8.954769453796512
 30
0.0
 11
12.20206556093478
 21
8.978391501040608
 31
0.0
  0
LINE
  5
2BAB
330
1E
100
AcDbEntity
  8
7
100
AcDbLine
 10
12.20206556093478
 20
8.978391501040608
 30
0.0
 11
12.20206556093478
 21
9.005950556158715
 31
0.0
  0
LINE
  5
2BAC
330
1E
100
AcDbEntity
  8
7
100
AcDbLine
 10
12.20206556093478
 20
9.005950556158715
 30
0.0
 11
12.20206556093478
 21
9.029572603402812
 31
0.0
  0
LINE
  5
2BAD
330
1E
100
AcDbEntity
  8
7
100
AcDbLine
 10
12.20206556093478
 20
9.029572603402812
 30
0.0
 11
12.19812855306076
 21
9.053194650646904
 31
0.0
  0
LINE
  5
2BAE
330
1E
100
AcDbEntity
  8
7
100
AcDbLine
 10
12.19812855306076
 20
9.053194650646904
 30
0.0
 11
12.19419154518675
 21
9.072879690016986
 31
0.0
  0
LINE
  5
2BAF
330
1E
100
AcDbEntity
  8
7
100
AcDbLine
 10
12.24143563967494
 20
8.911462367182338
 30
0.0
 11
12.24143563967494
 21
8.915399375056356
 31
0.0
  0
LINE
  5
2BB0
330
1E
100
AcDbEntity
  8
7
100
AcDbLine
 10
12.24143563967494
 20
8.915399375056356
 30
0.0
 11
12.23749863180092
 21
8.927210398678401
 31
0.0
  0
LINE
  5
2BB1
330
1E
100
AcDbEntity
  8
7
100
AcDbLine
 10
12.23749863180092
 20
8.927210398678401
 30
0.0
 11
12.23749863180092
 21
8.942958430174464
 31
0.0
  0
LINE
  5
2BB2
330
1E
100
AcDbEntity
  8
7
100
AcDbLine
 10
12.23749863180092
 20
8.942958430174464
 30
0.0
 11
12.23749863180092
 21
8.96658047741856
 31
0.0
  0
LINE
  5
2BB3
330
1E
100
AcDbEntity
  8
7
100
AcDbLine
 10
12.23749863180092
 20
8.96658047741856
 30
0.0
 11
12.23356162392691
 21
8.994139532536671
 31
0.0
  0
LINE
  5
2BB4
330
1E
100
AcDbEntity
  8
7
100
AcDbLine
 10
12.23356162392691
 20
8.994139532536671
 30
0.0
 11
12.23356162392691
 21
9.021698587654778
 31
0.0
  0
LINE
  5
2BB5
330
1E
100
AcDbEntity
  8
7
100
AcDbLine
 10
12.23356162392691
 20
9.021698587654778
 30
0.0
 11
12.22962461605289
 21
9.045320634898875
 31
0.0
  0
LINE
  5
2BB6
330
1E
100
AcDbEntity
  8
7
100
AcDbLine
 10
12.22962461605289
 20
9.045320634898875
 30
0.0
 11
12.22962461605289
 21
9.061068666394938
 31
0.0
  0
LINE
  5
2BB7
330
1E
100
AcDbEntity
  8
7
100
AcDbLine
 10
12.22962461605289
 20
9.061068666394938
 30
0.0
 11
12.22568760817888
 21
9.072879690016986
 31
0.0
  0
LINE
  5
2BB8
330
1E
100
AcDbEntity
  8
7
100
AcDbLine
 10
12.27293170266706
 20
8.911462367182338
 30
0.0
 11
12.27293170266706
 21
8.919336382930371
 31
0.0
  0
LINE
  5
2BB9
330
1E
100
AcDbEntity
  8
7
100
AcDbLine
 10
12.27293170266706
 20
8.919336382930371
 30
0.0
 11
12.26899469479305
 21
8.935084414426434
 31
0.0
  0
LINE
  5
2BBA
330
1E
100
AcDbEntity
  8
7
100
AcDbLine
 10
12.26899469479305
 20
8.935084414426434
 30
0.0
 11
12.26899469479305
 21
8.958706461670526
 31
0.0
  0
LINE
  5
2BBB
330
1E
100
AcDbEntity
  8
7
100
AcDbLine
 10
12.26899469479305
 20
8.958706461670526
 30
0.0
 11
12.26505768691903
 21
8.982328508914623
 31
0.0
  0
LINE
  5
2BBC
330
1E
100
AcDbEntity
  8
7
100
AcDbLine
 10
12.26505768691903
 20
8.982328508914623
 30
0.0
 11
12.26505768691903
 21
9.009887564032734
 31
0.0
  0
LINE
  5
2BBD
330
1E
100
AcDbEntity
  8
7
100
AcDbLine
 10
12.26505768691903
 20
9.009887564032734
 30
0.0
 11
12.26112067904502
 21
9.033509611276826
 31
0.0
  0
LINE
  5
2BBE
330
1E
100
AcDbEntity
  8
7
100
AcDbLine
 10
12.26112067904502
 20
9.033509611276826
 30
0.0
 11
12.26112067904502
 21
9.053194650646904
 31
0.0
  0
LINE
  5
2BBF
330
1E
100
AcDbEntity
  8
7
100
AcDbLine
 10
12.26112067904502
 20
9.053194650646904
 30
0.0
 11
12.257183671171
 21
9.072879690016986
 31
0.0
  0
LINE
  5
2BC0
330
1E
100
AcDbEntity
  8
7
100
AcDbLine
 10
12.30442776565919
 20
8.911462367182338
 30
0.0
 11
12.30442776565919
 21
8.915399375056356
 31
0.0
  0
LINE
  5
2BC1
330
1E
100
AcDbEntity
  8
7
100
AcDbLine
 10
12.30442776565919
 20
8.915399375056356
 30
0.0
 11
12.30049075778517
 21
8.927210398678401
 31
0.0
  0
LINE
  5
2BC2
330
1E
100
AcDbEntity
  8
7
100
AcDbLine
 10
12.30049075778517
 20
8.927210398678401
 30
0.0
 11
12.30049075778517
 21
8.946895438048482
 31
0.0
  0
LINE
  5
2BC3
330
1E
100
AcDbEntity
  8
7
100
AcDbLine
 10
12.30049075778517
 20
8.946895438048482
 30
0.0
 11
12.29655374991116
 21
8.970517485292575
 31
0.0
  0
LINE
  5
2BC4
330
1E
100
AcDbEntity
  8
7
100
AcDbLine
 10
12.29655374991116
 20
8.970517485292575
 30
0.0
 11
12.29655374991116
 21
8.998076540410686
 31
0.0
  0
LINE
  5
2BC5
330
1E
100
AcDbEntity
  8
7
100
AcDbLine
 10
12.29655374991116
 20
8.998076540410686
 30
0.0
 11
12.29655374991116
 21
9.025635595528797
 31
0.0
  0
LINE
  5
2BC6
330
1E
100
AcDbEntity
  8
7
100
AcDbLine
 10
12.29655374991116
 20
9.025635595528797
 30
0.0
 11
12.29261674203714
 21
9.049257642772889
 31
0.0
  0
LINE
  5
2BC7
330
1E
100
AcDbEntity
  8
7
100
AcDbLine
 10
12.29261674203714
 20
9.049257642772889
 30
0.0
 11
12.29261674203714
 21
9.065005674268952
 31
0.0
  0
LINE
  5
2BC8
330
1E
100
AcDbEntity
  8
7
100
AcDbLine
 10
12.29261674203714
 20
9.065005674268952
 30
0.0
 11
12.28867973416313
 21
9.072879690016986
 31
0.0
  0
LINE
  5
2BC9
330
1E
100
AcDbEntity
  8
7
100
AcDbLine
 10
12.33592382865132
 20
8.915399375056356
 30
0.0
 11
12.33592382865132
 21
8.911462367182338
 31
0.0
  0
LINE
  5
2BCA
330
1E
100
AcDbEntity
  8
7
100
AcDbLine
 10
12.33592382865132
 20
8.911462367182338
 30
0.0
 11
12.3319868207773
 21
8.923273390804386
 31
0.0
  0
LINE
  5
2BCB
330
1E
100
AcDbEntity
  8
7
100
AcDbLine
 10
12.3319868207773
 20
8.923273390804386
 30
0.0
 11
12.3319868207773
 21
8.939021422300449
 31
0.0
  0
LINE
  5
2BCC
330
1E
100
AcDbEntity
  8
7
100
AcDbLine
 10
12.3319868207773
 20
8.939021422300449
 30
0.0
 11
12.32804981290328
 21
8.962643469544545
 31
0.0
  0
LINE
  5
2BCD
330
1E
100
AcDbEntity
  8
7
100
AcDbLine
 10
12.32804981290328
 20
8.962643469544545
 30
0.0
 11
12.32804981290328
 21
8.986265516788638
 31
0.0
  0
LINE
  5
2BCE
330
1E
100
AcDbEntity
  8
7
100
AcDbLine
 10
12.32804981290328
 20
8.986265516788638
 30
0.0
 11
12.32804981290328
 21
9.013824571906749
 31
0.0
  0
LINE
  5
2BCF
330
1E
100
AcDbEntity
  8
7
100
AcDbLine
 10
12.32804981290328
 20
9.013824571906749
 30
0.0
 11
12.32411280502927
 21
9.037446619150841
 31
0.0
  0
LINE
  5
2BD0
330
1E
100
AcDbEntity
  8
7
100
AcDbLine
 10
12.32411280502927
 20
9.037446619150841
 30
0.0
 11
12.32411280502927
 21
9.057131658520923
 31
0.0
  0
LINE
  5
2BD1
330
1E
100
AcDbEntity
  8
7
100
AcDbLine
 10
12.32411280502927
 20
9.057131658520923
 30
0.0
 11
12.32017579715525
 21
9.068942682142967
 31
0.0
  0
LINE
  5
2BD2
330
1E
100
AcDbEntity
  8
7
100
AcDbLine
 10
12.36741989164344
 20
8.911462367182338
 30
0.0
 11
12.36348288376943
 21
8.919336382930371
 31
0.0
  0
LINE
  5
2BD3
330
1E
100
AcDbEntity
  8
7
100
AcDbLine
 10
12.36348288376943
 20
8.919336382930371
 30
0.0
 11
12.36348288376943
 21
8.931147406552419
 31
0.0
  0
LINE
  5
2BD4
330
1E
100
AcDbEntity
  8
7
100
AcDbLine
 10
12.36348288376943
 20
8.931147406552419
 30
0.0
 11
12.36348288376943
 21
8.950832445922497
 31
0.0
  0
LINE
  5
2BD5
330
1E
100
AcDbEntity
  8
7
100
AcDbLine
 10
12.36348288376943
 20
8.950832445922497
 30
0.0
 11
12.35954587589541
 21
8.978391501040608
 31
0.0
  0
LINE
  5
2BD6
330
1E
100
AcDbEntity
  8
7
100
AcDbLine
 10
12.35954587589541
 20
8.978391501040608
 30
0.0
 11
12.35954587589541
 21
9.002013548284701
 31
0.0
  0
LINE
  5
2BD7
330
1E
100
AcDbEntity
  8
7
100
AcDbLine
 10
12.35954587589541
 20
9.002013548284701
 30
0.0
 11
12.35560886802139
 21
9.029572603402812
 31
0.0
  0
LINE
  5
2BD8
330
1E
100
AcDbEntity
  8
7
100
AcDbLine
 10
12.35560886802139
 20
9.029572603402812
 30
0.0
 11
12.35560886802139
 21
9.049257642772889
 31
0.0
  0
LINE
  5
2BD9
330
1E
100
AcDbEntity
  8
7
100
AcDbLine
 10
12.35560886802139
 20
9.049257642772889
 30
0.0
 11
12.35167186014738
 21
9.072879690016986
 31
0.0
  0
LINE
  5
2BDA
330
1E
100
AcDbEntity
  8
7
100
AcDbLine
 10
12.39891595463557
 20
8.911462367182338
 30
0.0
 11
12.39891595463557
 21
8.915399375056356
 31
0.0
  0
LINE
  5
2BDB
330
1E
100
AcDbEntity
  8
7
100
AcDbLine
 10
12.39891595463557
 20
8.915399375056356
 30
0.0
 11
12.39497894676155
 21
8.923273390804386
 31
0.0
  0
LINE
  5
2BDC
330
1E
100
AcDbEntity
  8
7
100
AcDbLine
 10
12.39497894676155
 20
8.923273390804386
 30
0.0
 11
12.39497894676155
 21
8.942958430174464
 31
0.0
  0
LINE
  5
2BDD
330
1E
100
AcDbEntity
  8
7
100
AcDbLine
 10
12.39497894676155
 20
8.942958430174464
 30
0.0
 11
12.39104193888754
 21
8.96658047741856
 31
0.0
  0
LINE
  5
2BDE
330
1E
100
AcDbEntity
  8
7
100
AcDbLine
 10
12.39104193888754
 20
8.96658047741856
 30
0.0
 11
12.39104193888754
 21
8.994139532536671
 31
0.0
  0
LINE
  5
2BDF
330
1E
100
AcDbEntity
  8
7
100
AcDbLine
 10
12.39104193888754
 20
8.994139532536671
 30
0.0
 11
12.38710493101352
 21
9.017761579780763
 31
0.0
  0
LINE
  5
2BE0
330
1E
100
AcDbEntity
  8
7
100
AcDbLine
 10
12.38710493101352
 20
9.017761579780763
 30
0.0
 11
12.38710493101352
 21
9.04138362702486
 31
0.0
  0
LINE
  5
2BE1
330
1E
100
AcDbEntity
  8
7
100
AcDbLine
 10
12.38710493101352
 20
9.04138362702486
 30
0.0
 11
12.38710493101352
 21
9.061068666394938
 31
0.0
  0
LINE
  5
2BE2
330
1E
100
AcDbEntity
  8
7
100
AcDbLine
 10
12.38710493101352
 20
9.061068666394938
 30
0.0
 11
12.38316792313951
 21
9.068942682142967
 31
0.0
  0
LINE
  5
2BE3
330
1E
100
AcDbEntity
  8
7
100
AcDbLine
 10
12.39104193888754
 20
9.072879690016986
 30
0.0
 11
12.39104193888754
 21
9.068942682142967
 31
0.0
  0
LINE
  5
2BE4
330
1E
100
AcDbEntity
  8
7
100
AcDbLine
 10
12.39104193888754
 20
9.068942682142967
 30
0.0
 11
12.39497894676155
 21
9.061068666394938
 31
0.0
  0
LINE
  5
2BE5
330
1E
100
AcDbEntity
  8
7
100
AcDbLine
 10
12.39497894676155
 20
9.061068666394938
 30
0.0
 11
12.39497894676155
 21
9.045320634898875
 31
0.0
  0
LINE
  5
2BE6
330
1E
100
AcDbEntity
  8
7
100
AcDbLine
 10
12.39497894676155
 20
9.045320634898875
 30
0.0
 11
12.39891595463557
 21
9.021698587654778
 31
0.0
  0
LINE
  5
2BE7
330
1E
100
AcDbEntity
  8
7
100
AcDbLine
 10
12.39891595463557
 20
9.021698587654778
 30
0.0
 11
12.39891595463557
 21
8.994139532536671
 31
0.0
  0
LINE
  5
2BE8
330
1E
100
AcDbEntity
  8
7
100
AcDbLine
 10
12.39891595463557
 20
8.994139532536671
 30
0.0
 11
12.40285296250958
 21
8.96658047741856
 31
0.0
  0
LINE
  5
2BE9
330
1E
100
AcDbEntity
  8
7
100
AcDbLine
 10
12.40285296250958
 20
8.96658047741856
 30
0.0
 11
12.40285296250958
 21
8.942958430174464
 31
0.0
  0
LINE
  5
2BEA
330
1E
100
AcDbEntity
  8
7
100
AcDbLine
 10
12.35954587589541
 20
9.072879690016986
 30
0.0
 11
12.36348288376943
 21
9.065005674268952
 31
0.0
  0
LINE
  5
2BEB
330
1E
100
AcDbEntity
  8
7
100
AcDbLine
 10
12.36348288376943
 20
9.065005674268952
 30
0.0
 11
12.36348288376943
 21
9.053194650646904
 31
0.0
  0
LINE
  5
2BEC
330
1E
100
AcDbEntity
  8
7
100
AcDbLine
 10
12.36348288376943
 20
9.053194650646904
 30
0.0
 11
12.36741989164344
 21
9.029572603402812
 31
0.0
  0
LINE
  5
2BED
330
1E
100
AcDbEntity
  8
7
100
AcDbLine
 10
12.36741989164344
 20
9.029572603402812
 30
0.0
 11
12.36741989164344
 21
9.005950556158715
 31
0.0
  0
LINE
  5
2BEE
330
1E
100
AcDbEntity
  8
7
100
AcDbLine
 10
12.36741989164344
 20
9.005950556158715
 30
0.0
 11
12.36741989164344
 21
8.978391501040608
 31
0.0
  0
LINE
  5
2BEF
330
1E
100
AcDbEntity
  8
7
100
AcDbLine
 10
12.36741989164344
 20
8.978391501040608
 30
0.0
 11
12.37135689951746
 21
8.954769453796512
 31
0.0
  0
LINE
  5
2BF0
330
1E
100
AcDbEntity
  8
7
100
AcDbLine
 10
12.37135689951746
 20
8.954769453796512
 30
0.0
 11
12.37135689951746
 21
8.931147406552419
 31
0.0
  0
LINE
  5
2BF1
330
1E
100
AcDbEntity
  8
7
100
AcDbLine
 10
12.37135689951746
 20
8.931147406552419
 30
0.0
 11
12.37529390739147
 21
8.911462367182338
 31
0.0
  0
LINE
  5
2BF2
330
1E
100
AcDbEntity
  8
7
100
AcDbLine
 10
12.32804981290328
 20
9.072879690016986
 30
0.0
 11
12.3319868207773
 21
9.068942682142967
 31
0.0
  0
LINE
  5
2BF3
330
1E
100
AcDbEntity
  8
7
100
AcDbLine
 10
12.3319868207773
 20
9.068942682142967
 30
0.0
 11
12.3319868207773
 21
9.057131658520923
 31
0.0
  0
LINE
  5
2BF4
330
1E
100
AcDbEntity
  8
7
100
AcDbLine
 10
12.3319868207773
 20
9.057131658520923
 30
0.0
 11
12.3319868207773
 21
9.04138362702486
 31
0.0
  0
LINE
  5
2BF5
330
1E
100
AcDbEntity
  8
7
100
AcDbLine
 10
12.3319868207773
 20
9.04138362702486
 30
0.0
 11
12.33592382865132
 21
9.017761579780763
 31
0.0
  0
LINE
  5
2BF6
330
1E
100
AcDbEntity
  8
7
100
AcDbLine
 10
12.33592382865132
 20
9.017761579780763
 30
0.0
 11
12.33592382865132
 21
8.990202524662652
 31
0.0
  0
LINE
  5
2BF7
330
1E
100
AcDbEntity
  8
7
100
AcDbLine
 10
12.33592382865132
 20
8.990202524662652
 30
0.0
 11
12.33986083652533
 21
8.962643469544545
 31
0.0
  0
LINE
  5
2BF8
330
1E
100
AcDbEntity
  8
7
100
AcDbLine
 10
12.33986083652533
 20
8.962643469544545
 30
0.0
 11
12.33986083652533
 21
8.939021422300449
 31
0.0
  0
LINE
  5
2BF9
330
1E
100
AcDbEntity
  8
7
100
AcDbLine
 10
12.33986083652533
 20
8.939021422300449
 30
0.0
 11
12.34379784439935
 21
8.923273390804386
 31
0.0
  0
LINE
  5
2BFA
330
1E
100
AcDbEntity
  8
7
100
AcDbLine
 10
12.34379784439935
 20
8.923273390804386
 30
0.0
 11
12.34379784439935
 21
8.915399375056356
 31
0.0
  0
LINE
  5
2BFB
330
1E
100
AcDbEntity
  8
7
100
AcDbLine
 10
12.30049075778517
 20
9.065005674268952
 30
0.0
 11
12.30049075778517
 21
9.049257642772889
 31
0.0
  0
LINE
  5
2BFC
330
1E
100
AcDbEntity
  8
7
100
AcDbLine
 10
12.30049075778517
 20
9.049257642772889
 30
0.0
 11
12.30442776565919
 21
9.025635595528797
 31
0.0
  0
LINE
  5
2BFD
330
1E
100
AcDbEntity
  8
7
100
AcDbLine
 10
12.30442776565919
 20
9.025635595528797
 30
0.0
 11
12.30442776565919
 21
9.002013548284701
 31
0.0
  0
LINE
  5
2BFE
330
1E
100
AcDbEntity
  8
7
100
AcDbLine
 10
12.30442776565919
 20
9.002013548284701
 30
0.0
 11
12.30836477353321
 21
8.974454493166589
 31
0.0
  0
LINE
  5
2BFF
330
1E
100
AcDbEntity
  8
7
100
AcDbLine
 10
12.30836477353321
 20
8.974454493166589
 30
0.0
 11
12.30836477353321
 21
8.950832445922497
 31
0.0
  0
LINE
  5
2C00
330
1E
100
AcDbEntity
  8
7
100
AcDbLine
 10
12.30836477353321
 20
8.950832445922497
 30
0.0
 11
12.30836477353321
 21
8.931147406552419
 31
0.0
  0
LINE
  5
2C01
330
1E
100
AcDbEntity
  8
7
100
AcDbLine
 10
12.30836477353321
 20
8.931147406552419
 30
0.0
 11
12.31230178140722
 21
8.915399375056356
 31
0.0
  0
LINE
  5
2C02
330
1E
100
AcDbEntity
  8
7
100
AcDbLine
 10
12.26505768691903
 20
9.072879690016986
 30
0.0
 11
12.26899469479305
 21
9.068942682142967
 31
0.0
  0
LINE
  5
2C03
330
1E
100
AcDbEntity
  8
7
100
AcDbLine
 10
12.26899469479305
 20
9.068942682142967
 30
0.0
 11
12.26899469479305
 21
9.057131658520923
 31
0.0
  0
LINE
  5
2C04
330
1E
100
AcDbEntity
  8
7
100
AcDbLine
 10
12.26899469479305
 20
9.057131658520923
 30
0.0
 11
12.27293170266706
 21
9.037446619150841
 31
0.0
  0
LINE
  5
2C05
330
1E
100
AcDbEntity
  8
7
100
AcDbLine
 10
12.27293170266706
 20
9.037446619150841
 30
0.0
 11
12.27293170266706
 21
9.009887564032734
 31
0.0
  0
LINE
  5
2C06
330
1E
100
AcDbEntity
  8
7
100
AcDbLine
 10
12.27293170266706
 20
9.009887564032734
 30
0.0
 11
12.27293170266706
 21
8.986265516788638
 31
0.0
  0
LINE
  5
2C07
330
1E
100
AcDbEntity
  8
7
100
AcDbLine
 10
12.27293170266706
 20
8.986265516788638
 30
0.0
 11
12.27686871054108
 21
8.958706461670526
 31
0.0
  0
LINE
  5
2C08
330
1E
100
AcDbEntity
  8
7
100
AcDbLine
 10
12.27686871054108
 20
8.958706461670526
 30
0.0
 11
12.27686871054108
 21
8.935084414426434
 31
0.0
  0
LINE
  5
2C09
330
1E
100
AcDbEntity
  8
7
100
AcDbLine
 10
12.27686871054108
 20
8.935084414426434
 30
0.0
 11
12.28080571841509
 21
8.919336382930371
 31
0.0
  0
LINE
  5
2C0A
330
1E
100
AcDbEntity
  8
7
100
AcDbLine
 10
12.28080571841509
 20
8.919336382930371
 30
0.0
 11
12.28080571841509
 21
8.911462367182338
 31
0.0
  0
LINE
  5
2C0B
330
1E
100
AcDbEntity
  8
7
100
AcDbLine
 10
12.24143563967494
 20
9.021698587654778
 30
0.0
 11
12.24143563967494
 21
8.994139532536671
 31
0.0
  0
LINE
  5
2C0C
330
1E
100
AcDbEntity
  8
7
100
AcDbLine
 10
12.24143563967494
 20
8.994139532536671
 30
0.0
 11
12.24537264754895
 21
8.970517485292575
 31
0.0
  0
LINE
  5
2C0D
330
1E
100
AcDbEntity
  8
7
100
AcDbLine
 10
12.24537264754895
 20
8.970517485292575
 30
0.0
 11
12.24537264754895
 21
8.946895438048482
 31
0.0
  0
LINE
  5
2C0E
330
1E
100
AcDbEntity
  8
7
100
AcDbLine
 10
12.24537264754895
 20
8.946895438048482
 30
0.0
 11
12.24930965542297
 21
8.927210398678401
 31
0.0
  0
LINE
  5
2C0F
330
1E
100
AcDbEntity
  8
7
100
AcDbLine
 10
12.24930965542297
 20
8.927210398678401
 30
0.0
 11
12.24930965542297
 21
8.915399375056356
 31
0.0
  0
LINE
  5
2C10
330
1E
100
AcDbEntity
  8
7
100
AcDbLine
 10
12.23356162392691
 20
9.072879690016986
 30
0.0
 11
12.23749863180092
 21
9.072879690016986
 31
0.0
  0
LINE
  5
2C11
330
1E
100
AcDbEntity
  8
7
100
AcDbLine
 10
12.23749863180092
 20
9.072879690016986
 30
0.0
 11
12.23749863180092
 21
9.061068666394938
 31
0.0
  0
LINE
  5
2C12
330
1E
100
AcDbEntity
  8
7
100
AcDbLine
 10
12.23749863180092
 20
9.061068666394938
 30
0.0
 11
12.24143563967494
 21
9.045320634898875
 31
0.0
  0
LINE
  5
2C13
330
1E
100
AcDbEntity
  8
7
100
AcDbLine
 10
12.24143563967494
 20
9.045320634898875
 30
0.0
 11
12.24143563967494
 21
9.021698587654778
 31
0.0
  0
LINE
  5
2C14
330
1E
100
AcDbEntity
  8
7
100
AcDbLine
 10
12.2060025688088
 20
9.072879690016986
 30
0.0
 11
12.2060025688088
 21
9.065005674268952
 31
0.0
  0
LINE
  5
2C15
330
1E
100
AcDbEntity
  8
7
100
AcDbLine
 10
12.2060025688088
 20
9.065005674268952
 30
0.0
 11
12.2060025688088
 21
9.053194650646904
 31
0.0
  0
LINE
  5
2C16
330
1E
100
AcDbEntity
  8
7
100
AcDbLine
 10
12.2060025688088
 20
9.053194650646904
 30
0.0
 11
12.20993957668281
 21
9.033509611276826
 31
0.0
  0
LINE
  5
2C17
330
1E
100
AcDbEntity
  8
7
100
AcDbLine
 10
12.20993957668281
 20
9.033509611276826
 30
0.0
 11
12.20993957668281
 21
9.005950556158715
 31
0.0
  0
LINE
  5
2C18
330
1E
100
AcDbEntity
  8
7
100
AcDbLine
 10
12.20993957668281
 20
9.005950556158715
 30
0.0
 11
12.21387658455683
 21
8.978391501040608
 31
0.0
  0
LINE
  5
2C19
330
1E
100
AcDbEntity
  8
7
100
AcDbLine
 10
12.21387658455683
 20
8.978391501040608
 30
0.0
 11
12.21387658455683
 21
8.954769453796512
 31
0.0
  0
LINE
  5
2C1A
330
1E
100
AcDbEntity
  8
7
100
AcDbLine
 10
12.21387658455683
 20
8.954769453796512
 30
0.0
 11
12.21781359243084
 21
8.935084414426434
 31
0.0
  0
LINE
  5
2C1B
330
1E
100
AcDbEntity
  8
7
100
AcDbLine
 10
12.21781359243084
 20
8.935084414426434
 30
0.0
 11
12.21781359243084
 21
8.911462367182338
 31
0.0
  0
LINE
  5
2C1C
330
1E
100
AcDbEntity
  8
7
100
AcDbLine
 10
12.1823805215647
 20
8.96658047741856
 30
0.0
 11
12.1823805215647
 21
8.942958430174464
 31
0.0
  0
LINE
  5
2C1D
330
1E
100
AcDbEntity
  8
7
100
AcDbLine
 10
12.1823805215647
 20
8.942958430174464
 30
0.0
 11
12.18631752943872
 21
8.923273390804386
 31
0.0
  0
LINE
  5
2C1E
330
1E
100
AcDbEntity
  8
7
100
AcDbLine
 10
12.18631752943872
 20
8.923273390804386
 30
0.0
 11
12.18631752943872
 21
8.915399375056356
 31
0.0
  0
LINE
  5
2C1F
330
1E
100
AcDbEntity
  8
7
100
AcDbLine
 10
12.17450650581667
 20
9.072879690016986
 30
0.0
 11
12.17450650581667
 21
9.068942682142967
 31
0.0
  0
LINE
  5
2C20
330
1E
100
AcDbEntity
  8
7
100
AcDbLine
 10
12.17450650581667
 20
9.068942682142967
 30
0.0
 11
12.17450650581667
 21
9.061068666394938
 31
0.0
  0
LINE
  5
2C21
330
1E
100
AcDbEntity
  8
7
100
AcDbLine
 10
12.17450650581667
 20
9.061068666394938
 30
0.0
 11
12.17844351369069
 21
9.04138362702486
 31
0.0
  0
LINE
  5
2C22
330
1E
100
AcDbEntity
  8
7
100
AcDbLine
 10
12.17844351369069
 20
9.04138362702486
 30
0.0
 11
12.17844351369069
 21
9.017761579780763
 31
0.0
  0
LINE
  5
2C23
330
1E
100
AcDbEntity
  8
7
100
AcDbLine
 10
12.17844351369069
 20
9.017761579780763
 30
0.0
 11
12.1823805215647
 21
8.990202524662652
 31
0.0
  0
LINE
  5
2C24
330
1E
100
AcDbEntity
  8
7
100
AcDbLine
 10
12.1823805215647
 20
8.990202524662652
 30
0.0
 11
12.1823805215647
 21
8.96658047741856
 31
0.0
  0
LINE
  5
2C25
330
1E
100
AcDbEntity
  8
7
100
AcDbLine
 10
12.14301044282454
 20
9.072879690016986
 30
0.0
 11
12.14301044282454
 21
9.065005674268952
 31
0.0
  0
LINE
  5
2C26
330
1E
100
AcDbEntity
  8
7
100
AcDbLine
 10
12.14301044282454
 20
9.065005674268952
 30
0.0
 11
12.14694745069856
 21
9.049257642772889
 31
0.0
  0
LINE
  5
2C27
330
1E
100
AcDbEntity
  8
7
100
AcDbLine
 10
12.14694745069856
 20
9.049257642772889
 30
0.0
 11
12.14694745069856
 21
9.029572603402812
 31
0.0
  0
LINE
  5
2C28
330
1E
100
AcDbEntity
  8
7
100
AcDbLine
 10
12.14694745069856
 20
9.029572603402812
 30
0.0
 11
12.14694745069856
 21
9.002013548284701
 31
0.0
  0
LINE
  5
2C29
330
1E
100
AcDbEntity
  8
7
100
AcDbLine
 10
12.14694745069856
 20
9.002013548284701
 30
0.0
 11
12.15088445857258
 21
8.974454493166589
 31
0.0
  0
LINE
  5
2C2A
330
1E
100
AcDbEntity
  8
7
100
AcDbLine
 10
12.15088445857258
 20
8.974454493166589
 30
0.0
 11
12.15088445857258
 21
8.950832445922497
 31
0.0
  0
LINE
  5
2C2B
330
1E
100
AcDbEntity
  8
7
100
AcDbLine
 10
12.15088445857258
 20
8.950832445922497
 30
0.0
 11
12.15482146644659
 21
8.931147406552419
 31
0.0
  0
LINE
  5
2C2C
330
1E
100
AcDbEntity
  8
7
100
AcDbLine
 10
12.15482146644659
 20
8.931147406552419
 30
0.0
 11
12.15482146644659
 21
8.915399375056356
 31
0.0
  0
LINE
  5
2C2D
330
1E
100
AcDbEntity
  8
7
100
AcDbLine
 10
12.11151437983242
 20
9.072879690016986
 30
0.0
 11
12.11151437983242
 21
9.068942682142967
 31
0.0
  0
LINE
  5
2C2E
330
1E
100
AcDbEntity
  8
7
100
AcDbLine
 10
12.11151437983242
 20
9.068942682142967
 30
0.0
 11
12.11545138770643
 21
9.057131658520923
 31
0.0
  0
LINE
  5
2C2F
330
1E
100
AcDbEntity
  8
7
100
AcDbLine
 10
12.11545138770643
 20
9.057131658520923
 30
0.0
 11
12.11545138770643
 21
9.037446619150841
 31
0.0
  0
LINE
  5
2C30
330
1E
100
AcDbEntity
  8
7
100
AcDbLine
 10
12.11545138770643
 20
9.037446619150841
 30
0.0
 11
12.11545138770643
 21
9.013824571906749
 31
0.0
  0
LINE
  5
2C31
330
1E
100
AcDbEntity
  8
7
100
AcDbLine
 10
12.11545138770643
 20
9.013824571906749
 30
0.0
 11
12.11938839558045
 21
8.986265516788638
 31
0.0
  0
LINE
  5
2C32
330
1E
100
AcDbEntity
  8
7
100
AcDbLine
 10
12.11938839558045
 20
8.986265516788638
 30
0.0
 11
12.11938839558045
 21
8.958706461670526
 31
0.0
  0
LINE
  5
2C33
330
1E
100
AcDbEntity
  8
7
100
AcDbLine
 10
12.11938839558045
 20
8.958706461670526
 30
0.0
 11
12.12332540345447
 21
8.939021422300449
 31
0.0
  0
LINE
  5
2C34
330
1E
100
AcDbEntity
  8
7
100
AcDbLine
 10
12.12332540345447
 20
8.939021422300449
 30
0.0
 11
12.12332540345447
 21
8.923273390804386
 31
0.0
  0
LINE
  5
2C35
330
1E
100
AcDbEntity
  8
7
100
AcDbLine
 10
12.37529390739147
 20
9.08469071363903
 30
0.0
 11
12.37529390739147
 21
9.076816697891
 31
0.0
  0
LINE
  5
2C36
330
1E
100
AcDbEntity
  8
7
100
AcDbLine
 10
12.37529390739147
 20
9.076816697891
 30
0.0
 11
12.37923091526549
 21
9.057131658520923
 31
0.0
  0
LINE
  5
2C37
330
1E
100
AcDbEntity
  8
7
100
AcDbLine
 10
12.37923091526549
 20
9.057131658520923
 30
0.0
 11
12.37923091526549
 21
9.029572603402812
 31
0.0
  0
LINE
  5
2C38
330
1E
100
AcDbEntity
  8
7
100
AcDbLine
 10
12.37923091526549
 20
9.029572603402812
 30
0.0
 11
12.38316792313951
 21
8.998076540410686
 31
0.0
  0
LINE
  5
2C39
330
1E
100
AcDbEntity
  8
7
100
AcDbLine
 10
12.38316792313951
 20
8.998076540410686
 30
0.0
 11
12.38316792313951
 21
8.96658047741856
 31
0.0
  0
LINE
  5
2C3A
330
1E
100
AcDbEntity
  8
7
100
AcDbLine
 10
12.38316792313951
 20
8.96658047741856
 30
0.0
 11
12.38316792313951
 21
8.935084414426434
 31
0.0
  0
LINE
  5
2C3B
330
1E
100
AcDbEntity
  8
7
100
AcDbLine
 10
12.38316792313951
 20
8.935084414426434
 30
0.0
 11
12.38710493101352
 21
8.915399375056356
 31
0.0
  0
LINE
  5
2C3C
330
1E
100
AcDbEntity
  8
7
100
AcDbLine
 10
12.38710493101352
 20
8.915399375056356
 30
0.0
 11
12.39104193888754
 21
8.899651343560289
 31
0.0
  0
LINE
  5
2C3D
330
1E
100
AcDbEntity
  8
7
100
AcDbLine
 10
12.34379784439935
 20
9.08469071363903
 30
0.0
 11
12.34379784439935
 21
9.080753705765015
 31
0.0
  0
LINE
  5
2C3E
330
1E
100
AcDbEntity
  8
7
100
AcDbLine
 10
12.34379784439935
 20
9.080753705765015
 30
0.0
 11
12.34773485227337
 21
9.065005674268952
 31
0.0
  0
LINE
  5
2C3F
330
1E
100
AcDbEntity
  8
7
100
AcDbLine
 10
12.34773485227337
 20
9.065005674268952
 30
0.0
 11
12.34773485227337
 21
9.04138362702486
 31
0.0
  0
LINE
  5
2C40
330
1E
100
AcDbEntity
  8
7
100
AcDbLine
 10
12.34773485227337
 20
9.04138362702486
 30
0.0
 11
12.34773485227337
 21
9.009887564032734
 31
0.0
  0
LINE
  5
2C41
330
1E
100
AcDbEntity
  8
7
100
AcDbLine
 10
12.34773485227337
 20
9.009887564032734
 30
0.0
 11
12.35167186014738
 21
8.978391501040608
 31
0.0
  0
LINE
  5
2C42
330
1E
100
AcDbEntity
  8
7
100
AcDbLine
 10
12.35167186014738
 20
8.978391501040608
 30
0.0
 11
12.35167186014738
 21
8.946895438048482
 31
0.0
  0
LINE
  5
2C43
330
1E
100
AcDbEntity
  8
7
100
AcDbLine
 10
12.35167186014738
 20
8.946895438048482
 30
0.0
 11
12.35560886802139
 21
8.923273390804386
 31
0.0
  0
LINE
  5
2C44
330
1E
100
AcDbEntity
  8
7
100
AcDbLine
 10
12.35560886802139
 20
8.923273390804386
 30
0.0
 11
12.35560886802139
 21
8.903588351434308
 31
0.0
  0
LINE
  5
2C45
330
1E
100
AcDbEntity
  8
7
100
AcDbLine
 10
12.35560886802139
 20
8.903588351434308
 30
0.0
 11
12.35954587589541
 21
8.899651343560289
 31
0.0
  0
LINE
  5
2C46
330
1E
100
AcDbEntity
  8
7
100
AcDbLine
 10
12.31623878928123
 20
9.072879690016986
 30
0.0
 11
12.31623878928123
 21
9.049257642772889
 31
0.0
  0
LINE
  5
2C47
330
1E
100
AcDbEntity
  8
7
100
AcDbLine
 10
12.31623878928123
 20
9.049257642772889
 30
0.0
 11
12.31623878928123
 21
9.021698587654778
 31
0.0
  0
LINE
  5
2C48
330
1E
100
AcDbEntity
  8
7
100
AcDbLine
 10
12.31623878928123
 20
9.021698587654778
 30
0.0
 11
12.32017579715525
 21
8.990202524662652
 31
0.0
  0
LINE
  5
2C49
330
1E
100
AcDbEntity
  8
7
100
AcDbLine
 10
12.32017579715525
 20
8.990202524662652
 30
0.0
 11
12.32017579715525
 21
8.958706461670526
 31
0.0
  0
LINE
  5
2C4A
330
1E
100
AcDbEntity
  8
7
100
AcDbLine
 10
12.32017579715525
 20
8.958706461670526
 30
0.0
 11
12.32411280502927
 21
8.931147406552419
 31
0.0
  0
LINE
  5
2C4B
330
1E
100
AcDbEntity
  8
7
100
AcDbLine
 10
12.32411280502927
 20
8.931147406552419
 30
0.0
 11
12.32411280502927
 21
8.911462367182338
 31
0.0
  0
LINE
  5
2C4C
330
1E
100
AcDbEntity
  8
7
100
AcDbLine
 10
12.32411280502927
 20
8.911462367182338
 30
0.0
 11
12.32804981290328
 21
8.899651343560289
 31
0.0
  0
LINE
  5
2C4D
330
1E
100
AcDbEntity
  8
7
100
AcDbLine
 10
12.28080571841509
 20
9.08469071363903
 30
0.0
 11
12.28080571841509
 21
9.088627721513049
 31
0.0
  0
LINE
  5
2C4E
330
1E
100
AcDbEntity
  8
7
100
AcDbLine
 10
12.28080571841509
 20
9.088627721513049
 30
0.0
 11
12.28080571841509
 21
9.076816697891
 31
0.0
  0
LINE
  5
2C4F
330
1E
100
AcDbEntity
  8
7
100
AcDbLine
 10
12.28080571841509
 20
9.076816697891
 30
0.0
 11
12.28474272628911
 21
9.061068666394938
 31
0.0
  0
LINE
  5
2C50
330
1E
100
AcDbEntity
  8
7
100
AcDbLine
 10
12.28474272628911
 20
9.061068666394938
 30
0.0
 11
12.28474272628911
 21
9.033509611276826
 31
0.0
  0
LINE
  5
2C51
330
1E
100
AcDbEntity
  8
7
100
AcDbLine
 10
12.28474272628911
 20
9.033509611276826
 30
0.0
 11
12.28867973416313
 21
9.002013548284701
 31
0.0
  0
LINE
  5
2C52
330
1E
100
AcDbEntity
  8
7
100
AcDbLine
 10
12.28867973416313
 20
9.002013548284701
 30
0.0
 11
12.28867973416313
 21
8.970517485292575
 31
0.0
  0
LINE
  5
2C53
330
1E
100
AcDbEntity
  8
7
100
AcDbLine
 10
12.28867973416313
 20
8.970517485292575
 30
0.0
 11
12.29261674203714
 21
8.942958430174464
 31
0.0
  0
LINE
  5
2C54
330
1E
100
AcDbEntity
  8
7
100
AcDbLine
 10
12.29261674203714
 20
8.942958430174464
 30
0.0
 11
12.29261674203714
 21
8.919336382930371
 31
0.0
  0
LINE
  5
2C55
330
1E
100
AcDbEntity
  8
7
100
AcDbLine
 10
12.29261674203714
 20
8.919336382930371
 30
0.0
 11
12.29261674203714
 21
8.903588351434308
 31
0.0
  0
LINE
  5
2C56
330
1E
100
AcDbEntity
  8
7
100
AcDbLine
 10
12.29261674203714
 20
8.903588351434308
 30
0.0
 11
12.29655374991116
 21
8.895714335686275
 31
0.0
  0
LINE
  5
2C57
330
1E
100
AcDbEntity
  8
7
100
AcDbLine
 10
12.257183671171
 20
8.986265516788638
 30
0.0
 11
12.257183671171
 21
8.954769453796512
 31
0.0
  0
LINE
  5
2C58
330
1E
100
AcDbEntity
  8
7
100
AcDbLine
 10
12.257183671171
 20
8.954769453796512
 30
0.0
 11
12.26112067904502
 21
8.927210398678401
 31
0.0
  0
LINE
  5
2C59
330
1E
100
AcDbEntity
  8
7
100
AcDbLine
 10
12.26112067904502
 20
8.927210398678401
 30
0.0
 11
12.26112067904502
 21
8.907525359308323
 31
0.0
  0
LINE
  5
2C5A
330
1E
100
AcDbEntity
  8
7
100
AcDbLine
 10
12.26112067904502
 20
8.907525359308323
 30
0.0
 11
12.26505768691903
 21
8.899651343560289
 31
0.0
  0
LINE
  5
2C5B
330
1E
100
AcDbEntity
  8
7
100
AcDbLine
 10
12.24930965542297
 20
9.08469071363903
 30
0.0
 11
12.25324666329698
 21
9.068942682142967
 31
0.0
  0
LINE
  5
2C5C
330
1E
100
AcDbEntity
  8
7
100
AcDbLine
 10
12.25324666329698
 20
9.068942682142967
 30
0.0
 11
12.25324666329698
 21
9.045320634898875
 31
0.0
  0
LINE
  5
2C5D
330
1E
100
AcDbEntity
  8
7
100
AcDbLine
 10
12.25324666329698
 20
9.045320634898875
 30
0.0
 11
12.257183671171
 21
9.017761579780763
 31
0.0
  0
LINE
  5
2C5E
330
1E
100
AcDbEntity
  8
7
100
AcDbLine
 10
12.257183671171
 20
9.017761579780763
 30
0.0
 11
12.257183671171
 21
8.986265516788638
 31
0.0
  0
LINE
  5
2C5F
330
1E
100
AcDbEntity
  8
7
100
AcDbLine
 10
12.21781359243084
 20
9.08469071363903
 30
0.0
 11
12.22175060030486
 21
9.076816697891
 31
0.0
  0
LINE
  5
2C60
330
1E
100
AcDbEntity
  8
7
100
AcDbLine
 10
12.22175060030486
 20
9.076816697891
 30
0.0
 11
12.22175060030486
 21
9.057131658520923
 31
0.0
  0
LINE
  5
2C61
330
1E
100
AcDbEntity
  8
7
100
AcDbLine
 10
12.22175060030486
 20
9.057131658520923
 30
0.0
 11
12.22175060030486
 21
9.029572603402812
 31
0.0
  0
LINE
  5
2C62
330
1E
100
AcDbEntity
  8
7
100
AcDbLine
 10
12.22175060030486
 20
9.029572603402812
 30
0.0
 11
12.22568760817888
 21
8.998076540410686
 31
0.0
  0
LINE
  5
2C63
330
1E
100
AcDbEntity
  8
7
100
AcDbLine
 10
12.22568760817888
 20
8.998076540410686
 30
0.0
 11
12.22568760817888
 21
8.96658047741856
 31
0.0
  0
LINE
  5
2C64
330
1E
100
AcDbEntity
  8
7
100
AcDbLine
 10
12.22568760817888
 20
8.96658047741856
 30
0.0
 11
12.22962461605289
 21
8.935084414426434
 31
0.0
  0
LINE
  5
2C65
330
1E
100
AcDbEntity
  8
7
100
AcDbLine
 10
12.22962461605289
 20
8.935084414426434
 30
0.0
 11
12.22962461605289
 21
8.915399375056356
 31
0.0
  0
LINE
  5
2C66
330
1E
100
AcDbEntity
  8
7
100
AcDbLine
 10
12.22962461605289
 20
8.915399375056356
 30
0.0
 11
12.23356162392691
 21
8.899651343560289
 31
0.0
  0
LINE
  5
2C67
330
1E
100
AcDbEntity
  8
7
100
AcDbLine
 10
12.19812855306076
 20
8.946895438048482
 30
0.0
 11
12.19812855306076
 21
8.923273390804386
 31
0.0
  0
LINE
  5
2C68
330
1E
100
AcDbEntity
  8
7
100
AcDbLine
 10
12.19812855306076
 20
8.923273390804386
 30
0.0
 11
12.19812855306076
 21
8.903588351434308
 31
0.0
  0
LINE
  5
2C69
330
1E
100
AcDbEntity
  8
7
100
AcDbLine
 10
12.19812855306076
 20
8.903588351434308
 30
0.0
 11
12.20206556093478
 21
8.899651343560289
 31
0.0
  0
LINE
  5
2C6A
330
1E
100
AcDbEntity
  8
7
100
AcDbLine
 10
12.18631752943872
 20
9.08469071363903
 30
0.0
 11
12.19025453731273
 21
9.080753705765015
 31
0.0
  0
LINE
  5
2C6B
330
1E
100
AcDbEntity
  8
7
100
AcDbLine
 10
12.19025453731273
 20
9.080753705765015
 30
0.0
 11
12.19025453731273
 21
9.065005674268952
 31
0.0
  0
LINE
  5
2C6C
330
1E
100
AcDbEntity
  8
7
100
AcDbLine
 10
12.19025453731273
 20
9.065005674268952
 30
0.0
 11
12.19025453731273
 21
9.04138362702486
 31
0.0
  0
LINE
  5
2C6D
330
1E
100
AcDbEntity
  8
7
100
AcDbLine
 10
12.19025453731273
 20
9.04138362702486
 30
0.0
 11
12.19419154518675
 21
9.009887564032734
 31
0.0
  0
LINE
  5
2C6E
330
1E
100
AcDbEntity
  8
7
100
AcDbLine
 10
12.19419154518675
 20
9.009887564032734
 30
0.0
 11
12.19419154518675
 21
8.978391501040608
 31
0.0
  0
LINE
  5
2C6F
330
1E
100
AcDbEntity
  8
7
100
AcDbLine
 10
12.19419154518675
 20
8.978391501040608
 30
0.0
 11
12.19812855306076
 21
8.946895438048482
 31
0.0
  0
LINE
  5
2C70
330
1E
100
AcDbEntity
  8
7
100
AcDbLine
 10
12.15482146644659
 20
9.08469071363903
 30
0.0
 11
12.15875847432061
 21
9.072879690016986
 31
0.0
  0
LINE
  5
2C71
330
1E
100
AcDbEntity
  8
7
100
AcDbLine
 10
12.15875847432061
 20
9.072879690016986
 30
0.0
 11
12.15875847432061
 21
9.049257642772889
 31
0.0
  0
LINE
  5
2C72
330
1E
100
AcDbEntity
  8
7
100
AcDbLine
 10
12.15875847432061
 20
9.049257642772889
 30
0.0
 11
12.16269548219462
 21
9.021698587654778
 31
0.0
  0
LINE
  5
2C73
330
1E
100
AcDbEntity
  8
7
100
AcDbLine
 10
12.16269548219462
 20
9.021698587654778
 30
0.0
 11
12.16269548219462
 21
8.990202524662652
 31
0.0
  0
LINE
  5
2C74
330
1E
100
AcDbEntity
  8
7
100
AcDbLine
 10
12.16269548219462
 20
8.990202524662652
 30
0.0
 11
12.16663249006864
 21
8.958706461670526
 31
0.0
  0
LINE
  5
2C75
330
1E
100
AcDbEntity
  8
7
100
AcDbLine
 10
12.16663249006864
 20
8.958706461670526
 30
0.0
 11
12.16663249006864
 21
8.931147406552419
 31
0.0
  0
LINE
  5
2C76
330
1E
100
AcDbEntity
  8
7
100
AcDbLine
 10
12.16663249006864
 20
8.931147406552419
 30
0.0
 11
12.16663249006864
 21
8.911462367182338
 31
0.0
  0
LINE
  5
2C77
330
1E
100
AcDbEntity
  8
7
100
AcDbLine
 10
12.16663249006864
 20
8.911462367182338
 30
0.0
 11
12.17056949794265
 21
8.899651343560289
 31
0.0
  0
LINE
  5
2C78
330
1E
100
AcDbEntity
  8
7
100
AcDbLine
 10
12.12332540345447
 20
9.08469071363903
 30
0.0
 11
12.12332540345447
 21
9.088627721513049
 31
0.0
  0
LINE
  5
2C79
330
1E
100
AcDbEntity
  8
7
100
AcDbLine
 10
12.12332540345447
 20
9.088627721513049
 30
0.0
 11
12.12726241132848
 21
9.076816697891
 31
0.0
  0
LINE
  5
2C7A
330
1E
100
AcDbEntity
  8
7
100
AcDbLine
 10
12.12726241132848
 20
9.076816697891
 30
0.0
 11
12.12726241132848
 21
9.061068666394938
 31
0.0
  0
LINE
  5
2C7B
330
1E
100
AcDbEntity
  8
7
100
AcDbLine
 10
12.12726241132848
 20
9.061068666394938
 30
0.0
 11
12.1311994192025
 21
9.033509611276826
 31
0.0
  0
LINE
  5
2C7C
330
1E
100
AcDbEntity
  8
7
100
AcDbLine
 10
12.1311994192025
 20
9.033509611276826
 30
0.0
 11
12.1311994192025
 21
9.002013548284701
 31
0.0
  0
LINE
  5
2C7D
330
1E
100
AcDbEntity
  8
7
100
AcDbLine
 10
12.1311994192025
 20
9.002013548284701
 30
0.0
 11
12.1311994192025
 21
8.970517485292575
 31
0.0
  0
LINE
  5
2C7E
330
1E
100
AcDbEntity
  8
7
100
AcDbLine
 10
12.1311994192025
 20
8.970517485292575
 30
0.0
 11
12.13513642707651
 21
8.942958430174464
 31
0.0
  0
LINE
  5
2C7F
330
1E
100
AcDbEntity
  8
7
100
AcDbLine
 10
12.13513642707651
 20
8.942958430174464
 30
0.0
 11
12.13513642707651
 21
8.919336382930371
 31
0.0
  0
LINE
  5
2C80
330
1E
100
AcDbEntity
  8
7
100
AcDbLine
 10
12.13513642707651
 20
8.919336382930371
 30
0.0
 11
12.13907343495053
 21
8.903588351434308
 31
0.0
  0
LINE
  5
2C81
330
1E
100
AcDbEntity
  8
7
100
AcDbLine
 10
12.1075773719584
 20
8.911462367182338
 30
0.0
 11
12.1075773719584
 21
8.907525359308323
 31
0.0
  0
LINE
  5
2C82
330
1E
100
AcDbEntity
  8
7
100
AcDbLine
 10
12.1075773719584
 20
8.907525359308323
 30
0.0
 11
12.1075773719584
 21
8.899651343560289
 31
0.0
  0
LINE
  5
2C83
330
1E
100
AcDbEntity
  8
7
100
AcDbLine
 10
12.12726241132848
 20
9.017761579780763
 30
0.0
 11
12.12332540345447
 21
9.045320634898875
 31
0.0
  0
LINE
  5
2C84
330
1E
100
AcDbEntity
  8
7
100
AcDbLine
 10
12.12332540345447
 20
9.045320634898875
 30
0.0
 11
12.12332540345447
 21
9.068942682142967
 31
0.0
  0
LINE
  5
2C85
330
1E
100
AcDbEntity
  8
7
100
AcDbLine
 10
12.12332540345447
 20
9.068942682142967
 30
0.0
 11
12.11938839558045
 21
9.088627721513049
 31
0.0
  0
LINE
  5
2C86
330
1E
100
AcDbEntity
  8
7
100
AcDbLine
 10
12.11938839558045
 20
9.088627721513049
 30
0.0
 11
12.11938839558045
 21
9.08469071363903
 31
0.0
  0
LINE
  5
2C87
330
1E
100
AcDbEntity
  8
7
100
AcDbLine
 10
12.13513642707651
 20
8.899651343560289
 30
0.0
 11
12.1311994192025
 21
8.907525359308323
 31
0.0
  0
LINE
  5
2C88
330
1E
100
AcDbEntity
  8
7
100
AcDbLine
 10
12.1311994192025
 20
8.907525359308323
 30
0.0
 11
12.1311994192025
 21
8.927210398678401
 31
0.0
  0
LINE
  5
2C89
330
1E
100
AcDbEntity
  8
7
100
AcDbLine
 10
12.1311994192025
 20
8.927210398678401
 30
0.0
 11
12.12726241132848
 21
8.954769453796512
 31
0.0
  0
LINE
  5
2C8A
330
1E
100
AcDbEntity
  8
7
100
AcDbLine
 10
12.12726241132848
 20
8.954769453796512
 30
0.0
 11
12.12726241132848
 21
8.986265516788638
 31
0.0
  0
LINE
  5
2C8B
330
1E
100
AcDbEntity
  8
7
100
AcDbLine
 10
12.12726241132848
 20
8.986265516788638
 30
0.0
 11
12.12726241132848
 21
9.017761579780763
 31
0.0
  0
LINE
  5
2C8C
330
1E
100
AcDbEntity
  8
7
100
AcDbLine
 10
12.16663249006864
 20
8.899651343560289
 30
0.0
 11
12.16269548219462
 21
8.903588351434308
 31
0.0
  0
LINE
  5
2C8D
330
1E
100
AcDbEntity
  8
7
100
AcDbLine
 10
12.16269548219462
 20
8.903588351434308
 30
0.0
 11
12.16269548219462
 21
8.919336382930371
 31
0.0
  0
LINE
  5
2C8E
330
1E
100
AcDbEntity
  8
7
100
AcDbLine
 10
12.16269548219462
 20
8.919336382930371
 30
0.0
 11
12.16269548219462
 21
8.942958430174464
 31
0.0
  0
LINE
  5
2C8F
330
1E
100
AcDbEntity
  8
7
100
AcDbLine
 10
12.16269548219462
 20
8.942958430174464
 30
0.0
 11
12.15875847432061
 21
8.974454493166589
 31
0.0
  0
LINE
  5
2C90
330
1E
100
AcDbEntity
  8
7
100
AcDbLine
 10
12.15875847432061
 20
8.974454493166589
 30
0.0
 11
12.15875847432061
 21
9.005950556158715
 31
0.0
  0
LINE
  5
2C91
330
1E
100
AcDbEntity
  8
7
100
AcDbLine
 10
12.15875847432061
 20
9.005950556158715
 30
0.0
 11
12.15482146644659
 21
9.033509611276826
 31
0.0
  0
LINE
  5
2C92
330
1E
100
AcDbEntity
  8
7
100
AcDbLine
 10
12.15482146644659
 20
9.033509611276826
 30
0.0
 11
12.15482146644659
 21
9.061068666394938
 31
0.0
  0
LINE
  5
2C93
330
1E
100
AcDbEntity
  8
7
100
AcDbLine
 10
12.15482146644659
 20
9.061068666394938
 30
0.0
 11
12.15088445857258
 21
9.076816697891
 31
0.0
  0
LINE
  5
2C94
330
1E
100
AcDbEntity
  8
7
100
AcDbLine
 10
12.15088445857258
 20
9.076816697891
 30
0.0
 11
12.15088445857258
 21
9.08469071363903
 31
0.0
  0
LINE
  5
2C95
330
1E
100
AcDbEntity
  8
7
100
AcDbLine
 10
12.18631752943872
 20
9.053194650646904
 30
0.0
 11
12.1823805215647
 21
9.072879690016986
 31
0.0
  0
LINE
  5
2C96
330
1E
100
AcDbEntity
  8
7
100
AcDbLine
 10
12.1823805215647
 20
9.072879690016986
 30
0.0
 11
12.1823805215647
 21
9.08469071363903
 31
0.0
  0
LINE
  5
2C97
330
1E
100
AcDbEntity
  8
7
100
AcDbLine
 10
12.19812855306076
 20
8.899651343560289
 30
0.0
 11
12.19419154518675
 21
8.899651343560289
 31
0.0
  0
LINE
  5
2C98
330
1E
100
AcDbEntity
  8
7
100
AcDbLine
 10
12.19419154518675
 20
8.899651343560289
 30
0.0
 11
12.19419154518675
 21
8.911462367182338
 31
0.0
  0
LINE
  5
2C99
330
1E
100
AcDbEntity
  8
7
100
AcDbLine
 10
12.19419154518675
 20
8.911462367182338
 30
0.0
 11
12.19419154518675
 21
8.931147406552419
 31
0.0
  0
LINE
  5
2C9A
330
1E
100
AcDbEntity
  8
7
100
AcDbLine
 10
12.19419154518675
 20
8.931147406552419
 30
0.0
 11
12.19025453731273
 21
8.958706461670526
 31
0.0
  0
LINE
  5
2C9B
330
1E
100
AcDbEntity
  8
7
100
AcDbLine
 10
12.19025453731273
 20
8.958706461670526
 30
0.0
 11
12.19025453731273
 21
8.990202524662652
 31
0.0
  0
LINE
  5
2C9C
330
1E
100
AcDbEntity
  8
7
100
AcDbLine
 10
12.19025453731273
 20
8.990202524662652
 30
0.0
 11
12.18631752943872
 21
9.021698587654778
 31
0.0
  0
LINE
  5
2C9D
330
1E
100
AcDbEntity
  8
7
100
AcDbLine
 10
12.18631752943872
 20
9.021698587654778
 30
0.0
 11
12.18631752943872
 21
9.053194650646904
 31
0.0
  0
LINE
  5
2C9E
330
1E
100
AcDbEntity
  8
7
100
AcDbLine
 10
12.22962461605289
 20
8.899651343560289
 30
0.0
 11
12.22962461605289
 21
8.895714335686275
 31
0.0
  0
LINE
  5
2C9F
330
1E
100
AcDbEntity
  8
7
100
AcDbLine
 10
12.22962461605289
 20
8.895714335686275
 30
0.0
 11
12.22568760817888
 21
8.903588351434308
 31
0.0
  0
LINE
  5
2CA0
330
1E
100
AcDbEntity
  8
7
100
AcDbLine
 10
12.22568760817888
 20
8.903588351434308
 30
0.0
 11
12.22568760817888
 21
8.923273390804386
 31
0.0
  0
LINE
  5
2CA1
330
1E
100
AcDbEntity
  8
7
100
AcDbLine
 10
12.22568760817888
 20
8.923273390804386
 30
0.0
 11
12.22175060030486
 21
8.946895438048482
 31
0.0
  0
LINE
  5
2CA2
330
1E
100
AcDbEntity
  8
7
100
AcDbLine
 10
12.22175060030486
 20
8.946895438048482
 30
0.0
 11
12.22175060030486
 21
8.978391501040608
 31
0.0
  0
LINE
  5
2CA3
330
1E
100
AcDbEntity
  8
7
100
AcDbLine
 10
12.22175060030486
 20
8.978391501040608
 30
0.0
 11
12.21781359243084
 21
9.009887564032734
 31
0.0
  0
LINE
  5
2CA4
330
1E
100
AcDbEntity
  8
7
100
AcDbLine
 10
12.21781359243084
 20
9.009887564032734
 30
0.0
 11
12.21781359243084
 21
9.04138362702486
 31
0.0
  0
LINE
  5
2CA5
330
1E
100
AcDbEntity
  8
7
100
AcDbLine
 10
12.21781359243084
 20
9.04138362702486
 30
0.0
 11
12.21781359243084
 21
9.065005674268952
 31
0.0
  0
LINE
  5
2CA6
330
1E
100
AcDbEntity
  8
7
100
AcDbLine
 10
12.21781359243084
 20
9.065005674268952
 30
0.0
 11
12.21387658455683
 21
9.080753705765015
 31
0.0
  0
LINE
  5
2CA7
330
1E
100
AcDbEntity
  8
7
100
AcDbLine
 10
12.21387658455683
 20
9.080753705765015
 30
0.0
 11
12.21387658455683
 21
9.088627721513049
 31
0.0
  0
LINE
  5
2CA8
330
1E
100
AcDbEntity
  8
7
100
AcDbLine
 10
12.257183671171
 20
8.899651343560289
 30
0.0
 11
12.257183671171
 21
8.915399375056356
 31
0.0
  0
LINE
  5
2CA9
330
1E
100
AcDbEntity
  8
7
100
AcDbLine
 10
12.257183671171
 20
8.915399375056356
 30
0.0
 11
12.25324666329698
 21
8.939021422300449
 31
0.0
  0
LINE
  5
2CAA
330
1E
100
AcDbEntity
  8
7
100
AcDbLine
 10
12.25324666329698
 20
8.939021422300449
 30
0.0
 11
12.25324666329698
 21
8.96658047741856
 31
0.0
  0
LINE
  5
2CAB
330
1E
100
AcDbEntity
  8
7
100
AcDbLine
 10
12.25324666329698
 20
8.96658047741856
 30
0.0
 11
12.25324666329698
 21
8.998076540410686
 31
0.0
  0
LINE
  5
2CAC
330
1E
100
AcDbEntity
  8
7
100
AcDbLine
 10
12.25324666329698
 20
8.998076540410686
 30
0.0
 11
12.24930965542297
 21
9.029572603402812
 31
0.0
  0
LINE
  5
2CAD
330
1E
100
AcDbEntity
  8
7
100
AcDbLine
 10
12.24930965542297
 20
9.029572603402812
 30
0.0
 11
12.24930965542297
 21
9.057131658520923
 31
0.0
  0
LINE
  5
2CAE
330
1E
100
AcDbEntity
  8
7
100
AcDbLine
 10
12.24930965542297
 20
9.057131658520923
 30
0.0
 11
12.24537264754895
 21
9.076816697891
 31
0.0
  0
LINE
  5
2CAF
330
1E
100
AcDbEntity
  8
7
100
AcDbLine
 10
12.24537264754895
 20
9.076816697891
 30
0.0
 11
12.24537264754895
 21
9.08469071363903
 31
0.0
  0
LINE
  5
2CB0
330
1E
100
AcDbEntity
  8
7
100
AcDbLine
 10
12.29261674203714
 20
8.899651343560289
 30
0.0
 11
12.28867973416313
 21
8.899651343560289
 31
0.0
  0
LINE
  5
2CB1
330
1E
100
AcDbEntity
  8
7
100
AcDbLine
 10
12.28867973416313
 20
8.899651343560289
 30
0.0
 11
12.28867973416313
 21
8.907525359308323
 31
0.0
  0
LINE
  5
2CB2
330
1E
100
AcDbEntity
  8
7
100
AcDbLine
 10
12.28867973416313
 20
8.907525359308323
 30
0.0
 11
12.28867973416313
 21
8.927210398678401
 31
0.0
  0
LINE
  5
2CB3
330
1E
100
AcDbEntity
  8
7
100
AcDbLine
 10
12.28867973416313
 20
8.927210398678401
 30
0.0
 11
12.28474272628911
 21
8.954769453796512
 31
0.0
  0
LINE
  5
2CB4
330
1E
100
AcDbEntity
  8
7
100
AcDbLine
 10
12.28474272628911
 20
8.954769453796512
 30
0.0
 11
12.28474272628911
 21
8.986265516788638
 31
0.0
  0
LINE
  5
2CB5
330
1E
100
AcDbEntity
  8
7
100
AcDbLine
 10
12.28474272628911
 20
8.986265516788638
 30
0.0
 11
12.28080571841509
 21
9.017761579780763
 31
0.0
  0
LINE
  5
2CB6
330
1E
100
AcDbEntity
  8
7
100
AcDbLine
 10
12.28080571841509
 20
9.017761579780763
 30
0.0
 11
12.28080571841509
 21
9.045320634898875
 31
0.0
  0
LINE
  5
2CB7
330
1E
100
AcDbEntity
  8
7
100
AcDbLine
 10
12.28080571841509
 20
9.045320634898875
 30
0.0
 11
12.27686871054108
 21
9.068942682142967
 31
0.0
  0
LINE
  5
2CB8
330
1E
100
AcDbEntity
  8
7
100
AcDbLine
 10
12.27686871054108
 20
9.068942682142967
 30
0.0
 11
12.27686871054108
 21
9.088627721513049
 31
0.0
  0
LINE
  5
2CB9
330
1E
100
AcDbEntity
  8
7
100
AcDbLine
 10
12.27686871054108
 20
9.088627721513049
 30
0.0
 11
12.27293170266706
 21
9.08469071363903
 31
0.0
  0
LINE
  5
2CBA
330
1E
100
AcDbEntity
  8
7
100
AcDbLine
 10
12.32017579715525
 20
8.899651343560289
 30
0.0
 11
12.32017579715525
 21
8.903588351434308
 31
0.0
  0
LINE
  5
2CBB
330
1E
100
AcDbEntity
  8
7
100
AcDbLine
 10
12.32017579715525
 20
8.903588351434308
 30
0.0
 11
12.32017579715525
 21
8.919336382930371
 31
0.0
  0
LINE
  5
2CBC
330
1E
100
AcDbEntity
  8
7
100
AcDbLine
 10
12.32017579715525
 20
8.919336382930371
 30
0.0
 11
12.31623878928123
 21
8.942958430174464
 31
0.0
  0
LINE
  5
2CBD
330
1E
100
AcDbEntity
  8
7
100
AcDbLine
 10
12.31623878928123
 20
8.942958430174464
 30
0.0
 11
12.31623878928123
 21
8.970517485292575
 31
0.0
  0
LINE
  5
2CBE
330
1E
100
AcDbEntity
  8
7
100
AcDbLine
 10
12.31623878928123
 20
8.970517485292575
 30
0.0
 11
12.31230178140722
 21
9.005950556158715
 31
0.0
  0
LINE
  5
2CBF
330
1E
100
AcDbEntity
  8
7
100
AcDbLine
 10
12.31230178140722
 20
9.005950556158715
 30
0.0
 11
12.31230178140722
 21
9.033509611276826
 31
0.0
  0
LINE
  5
2CC0
330
1E
100
AcDbEntity
  8
7
100
AcDbLine
 10
12.31230178140722
 20
9.033509611276826
 30
0.0
 11
12.31230178140722
 21
9.061068666394938
 31
0.0
  0
LINE
  5
2CC1
330
1E
100
AcDbEntity
  8
7
100
AcDbLine
 10
12.31230178140722
 20
9.061068666394938
 30
0.0
 11
12.30836477353321
 21
9.076816697891
 31
0.0
  0
LINE
  5
2CC2
330
1E
100
AcDbEntity
  8
7
100
AcDbLine
 10
12.30836477353321
 20
9.076816697891
 30
0.0
 11
12.30836477353321
 21
9.08469071363903
 31
0.0
  0
LINE
  5
2CC3
330
1E
100
AcDbEntity
  8
7
100
AcDbLine
 10
12.35167186014738
 20
8.899651343560289
 30
0.0
 11
12.35167186014738
 21
8.911462367182338
 31
0.0
  0
LINE
  5
2CC4
330
1E
100
AcDbEntity
  8
7
100
AcDbLine
 10
12.35167186014738
 20
8.911462367182338
 30
0.0
 11
12.34773485227337
 21
8.931147406552419
 31
0.0
  0
LINE
  5
2CC5
330
1E
100
AcDbEntity
  8
7
100
AcDbLine
 10
12.34773485227337
 20
8.931147406552419
 30
0.0
 11
12.34773485227337
 21
8.958706461670526
 31
0.0
  0
LINE
  5
2CC6
330
1E
100
AcDbEntity
  8
7
100
AcDbLine
 10
12.34773485227337
 20
8.958706461670526
 30
0.0
 11
12.34379784439935
 21
8.990202524662652
 31
0.0
  0
LINE
  5
2CC7
330
1E
100
AcDbEntity
  8
7
100
AcDbLine
 10
12.34379784439935
 20
8.990202524662652
 30
0.0
 11
12.34379784439935
 21
9.021698587654778
 31
0.0
  0
LINE
  5
2CC8
330
1E
100
AcDbEntity
  8
7
100
AcDbLine
 10
12.34379784439935
 20
9.021698587654778
 30
0.0
 11
12.34379784439935
 21
9.049257642772889
 31
0.0
  0
LINE
  5
2CC9
330
1E
100
AcDbEntity
  8
7
100
AcDbLine
 10
12.34379784439935
 20
9.049257642772889
 30
0.0
 11
12.33986083652533
 21
9.072879690016986
 31
0.0
  0
LINE
  5
2CCA
330
1E
100
AcDbEntity
  8
7
100
AcDbLine
 10
12.33986083652533
 20
9.072879690016986
 30
0.0
 11
12.33592382865132
 21
9.08469071363903
 31
0.0
  0
LINE
  5
2CCB
330
1E
100
AcDbEntity
  8
7
100
AcDbLine
 10
12.38316792313951
 20
8.899651343560289
 30
0.0
 11
12.38316792313951
 21
8.895714335686275
 31
0.0
  0
LINE
  5
2CCC
330
1E
100
AcDbEntity
  8
7
100
AcDbLine
 10
12.38316792313951
 20
8.895714335686275
 30
0.0
 11
12.38316792313951
 21
8.903588351434308
 31
0.0
  0
LINE
  5
2CCD
330
1E
100
AcDbEntity
  8
7
100
AcDbLine
 10
12.38316792313951
 20
8.903588351434308
 30
0.0
 11
12.37923091526549
 21
8.923273390804386
 31
0.0
  0
LINE
  5
2CCE
330
1E
100
AcDbEntity
  8
7
100
AcDbLine
 10
12.37923091526549
 20
8.923273390804386
 30
0.0
 11
12.37923091526549
 21
8.946895438048482
 31
0.0
  0
LINE
  5
2CCF
330
1E
100
AcDbEntity
  8
7
100
AcDbLine
 10
12.37923091526549
 20
8.946895438048482
 30
0.0
 11
12.37923091526549
 21
8.978391501040608
 31
0.0
  0
LINE
  5
2CD0
330
1E
100
AcDbEntity
  8
7
100
AcDbLine
 10
12.37923091526549
 20
8.978391501040608
 30
0.0
 11
12.37529390739147
 21
9.009887564032734
 31
0.0
  0
LINE
  5
2CD1
330
1E
100
AcDbEntity
  8
7
100
AcDbLine
 10
12.37529390739147
 20
9.009887564032734
 30
0.0
 11
12.37529390739147
 21
9.04138362702486
 31
0.0
  0
LINE
  5
2CD2
330
1E
100
AcDbEntity
  8
7
100
AcDbLine
 10
12.37529390739147
 20
9.04138362702486
 30
0.0
 11
12.37135689951746
 21
9.065005674268952
 31
0.0
  0
LINE
  5
2CD3
330
1E
100
AcDbEntity
  8
7
100
AcDbLine
 10
12.37135689951746
 20
9.065005674268952
 30
0.0
 11
12.37135689951746
 21
9.080753705765015
 31
0.0
  0
LINE
  5
2CD4
330
1E
100
AcDbEntity
  8
7
100
AcDbLine
 10
12.37135689951746
 20
9.080753705765015
 30
0.0
 11
12.36741989164344
 21
9.088627721513049
 31
0.0
  0
LINE
  5
2CD5
330
1E
100
AcDbEntity
  8
7
100
AcDbLine
 10
12.40285296250958
 20
9.076816697891
 30
0.0
 11
12.40285296250958
 21
9.08469071363903
 31
0.0
  0
LINE
  5
2CD6
330
1E
100
AcDbEntity
  8
7
100
AcDbLine
 10
12.40285296250958
 20
9.08469071363903
 30
0.0
 11
12.39891595463557
 21
9.08469071363903
 31
0.0
  0
LINE
  5
2CD7
330
1E
100
AcDbEntity
  8
7
100
AcDbLine
 10
12.40285296250958
 20
9.076816697891
 30
0.0
 11
12.40285296250958
 21
9.08469071363903
 31
0.0
  0
LINE
  5
2CD8
330
1E
100
AcDbEntity
  8
7
100
AcDbLine
 10
12.40285296250958
 20
9.08469071363903
 30
0.0
 11
12.40285296250958
 21
9.088627721513049
 31
0.0
  0
LINE
  5
2CD9
330
1E
100
AcDbEntity
  8
7
100
AcDbLine
 10
12.40285296250958
 20
8.942958430174464
 30
0.0
 11
12.40285296250958
 21
8.919336382930371
 31
0.0
  0
LINE
  5
2CDA
330
1E
100
AcDbEntity
  8
7
100
AcDbLine
 10
12.40285296250958
 20
8.919336382930371
 30
0.0
 11
12.40285296250958
 21
8.911462367182338
 31
0.0
  0
LINE
  5
2CDB
330
1E
100
AcDbEntity
  8
7
100
AcDbLine
 10
12.40285296250958
 20
8.942958430174464
 30
0.0
 11
12.40285296250958
 21
8.962643469544545
 31
0.0
  0
LINE
  5
2CDC
330
1E
100
AcDbEntity
  8
7
100
AcDbLine
 10
12.40285296250958
 20
8.962643469544545
 30
0.0
 11
12.40285296250958
 21
8.990202524662652
 31
0.0
  0
LINE
  5
2CDD
330
1E
100
AcDbEntity
  8
7
100
AcDbLine
 10
12.40285296250958
 20
8.990202524662652
 30
0.0
 11
12.40285296250958
 21
9.017761579780763
 31
0.0
  0
LINE
  5
2CDE
330
1E
100
AcDbEntity
  8
7
100
AcDbLine
 10
12.40285296250958
 20
9.017761579780763
 30
0.0
 11
12.40285296250958
 21
9.045320634898875
 31
0.0
  0
LINE
  5
2CDF
330
1E
100
AcDbEntity
  8
7
100
AcDbLine
 10
12.40285296250958
 20
9.045320634898875
 30
0.0
 11
12.40285296250958
 21
9.068942682142967
 31
0.0
  0
LINE
  5
2CE0
330
1E
100
AcDbEntity
  8
7
100
AcDbLine
 10
12.40285296250958
 20
9.068942682142967
 30
0.0
 11
12.40285296250958
 21
9.076816697891
 31
0.0
  0
LINE
  5
2CE1
330
1E
100
AcDbEntity
  8
7
100
AcDbLine
 10
12.11545138770643
 20
6.663430871119345
 30
0.0
 11
12.11545138770643
 21
6.671304886867378
 31
0.0
  0
LINE
  5
2CE2
330
1E
100
AcDbEntity
  8
7
100
AcDbLine
 10
12.11545138770643
 20
6.671304886867378
 30
0.0
 11
12.11151437983242
 21
6.687052918363441
 31
0.0
  0
LINE
  5
2CE3
330
1E
100
AcDbEntity
  8
7
100
AcDbLine
 10
12.11151437983242
 20
6.687052918363441
 30
0.0
 11
12.11151437983242
 21
6.706737957733519
 31
0.0
  0
LINE
  5
2CE4
330
1E
100
AcDbEntity
  8
7
100
AcDbLine
 10
12.11151437983242
 20
6.706737957733519
 30
0.0
 11
12.11151437983242
 21
6.73429701285163
 31
0.0
  0
LINE
  5
2CE5
330
1E
100
AcDbEntity
  8
7
100
AcDbLine
 10
12.11151437983242
 20
6.73429701285163
 30
0.0
 11
12.1075773719584
 21
6.761856067969741
 31
0.0
  0
LINE
  5
2CE6
330
1E
100
AcDbEntity
  8
7
100
AcDbLine
 10
12.1075773719584
 20
6.761856067969741
 30
0.0
 11
12.1075773719584
 21
6.793352130961867
 31
0.0
  0
LINE
  5
2CE7
330
1E
100
AcDbEntity
  8
7
100
AcDbLine
 10
12.14694745069856
 20
6.663430871119345
 30
0.0
 11
12.14694745069856
 21
6.667367878993363
 31
0.0
  0
LINE
  5
2CE8
330
1E
100
AcDbEntity
  8
7
100
AcDbLine
 10
12.14694745069856
 20
6.667367878993363
 30
0.0
 11
12.14694745069856
 21
6.679178902615408
 31
0.0
  0
LINE
  5
2CE9
330
1E
100
AcDbEntity
  8
7
100
AcDbLine
 10
12.14694745069856
 20
6.679178902615408
 30
0.0
 11
12.14301044282454
 21
6.698863941985489
 31
0.0
  0
LINE
  5
2CEA
330
1E
100
AcDbEntity
  8
7
100
AcDbLine
 10
12.14301044282454
 20
6.698863941985489
 30
0.0
 11
12.14301044282454
 21
6.722485989229582
 31
0.0
  0
LINE
  5
2CEB
330
1E
100
AcDbEntity
  8
7
100
AcDbLine
 10
12.14301044282454
 20
6.722485989229582
 30
0.0
 11
12.13907343495053
 21
6.750045044347693
 31
0.0
  0
LINE
  5
2CEC
330
1E
100
AcDbEntity
  8
7
100
AcDbLine
 10
12.13907343495053
 20
6.750045044347693
 30
0.0
 11
12.13907343495053
 21
6.777604099465804
 31
0.0
  0
LINE
  5
2CED
330
1E
100
AcDbEntity
  8
7
100
AcDbLine
 10
12.13907343495053
 20
6.777604099465804
 30
0.0
 11
12.13513642707651
 21
6.797289138835882
 31
0.0
  0
LINE
  5
2CEE
330
1E
100
AcDbEntity
  8
7
100
AcDbLine
 10
12.13513642707651
 20
6.797289138835882
 30
0.0
 11
12.13513642707651
 21
6.813037170331945
 31
0.0
  0
LINE
  5
2CEF
330
1E
100
AcDbEntity
  8
7
100
AcDbLine
 10
12.13513642707651
 20
6.813037170331945
 30
0.0
 11
12.13513642707651
 21
6.820911186079975
 31
0.0
  0
LINE
  5
2CF0
330
1E
100
AcDbEntity
  8
7
100
AcDbLine
 10
12.17844351369069
 20
6.663430871119345
 30
0.0
 11
12.17844351369069
 21
6.671304886867378
 31
0.0
  0
LINE
  5
2CF1
330
1E
100
AcDbEntity
  8
7
100
AcDbLine
 10
12.17844351369069
 20
6.671304886867378
 30
0.0
 11
12.17450650581667
 21
6.690989926237456
 31
0.0
  0
LINE
  5
2CF2
330
1E
100
AcDbEntity
  8
7
100
AcDbLine
 10
12.17450650581667
 20
6.690989926237456
 30
0.0
 11
12.17450650581667
 21
6.714611973481552
 31
0.0
  0
LINE
  5
2CF3
330
1E
100
AcDbEntity
  8
7
100
AcDbLine
 10
12.17450650581667
 20
6.714611973481552
 30
0.0
 11
12.17056949794265
 21
6.738234020725645
 31
0.0
  0
LINE
  5
2CF4
330
1E
100
AcDbEntity
  8
7
100
AcDbLine
 10
12.17056949794265
 20
6.738234020725645
 30
0.0
 11
12.17056949794265
 21
6.765793075843756
 31
0.0
  0
LINE
  5
2CF5
330
1E
100
AcDbEntity
  8
7
100
AcDbLine
 10
12.17056949794265
 20
6.765793075843756
 30
0.0
 11
12.16663249006864
 21
6.789415123087849
 31
0.0
  0
LINE
  5
2CF6
330
1E
100
AcDbEntity
  8
7
100
AcDbLine
 10
12.16663249006864
 20
6.789415123087849
 30
0.0
 11
12.16663249006864
 21
6.80910016245793
 31
0.0
  0
LINE
  5
2CF7
330
1E
100
AcDbEntity
  8
7
100
AcDbLine
 10
12.16663249006864
 20
6.80910016245793
 30
0.0
 11
12.16269548219462
 21
6.820911186079975
 31
0.0
  0
LINE
  5
2CF8
330
1E
100
AcDbEntity
  8
7
100
AcDbLine
 10
12.20993957668281
 20
6.663430871119345
 30
0.0
 11
12.20993957668281
 21
6.667367878993363
 31
0.0
  0
LINE
  5
2CF9
330
1E
100
AcDbEntity
  8
7
100
AcDbLine
 10
12.20993957668281
 20
6.667367878993363
 30
0.0
 11
12.2060025688088
 21
6.683115910489426
 31
0.0
  0
LINE
  5
2CFA
330
1E
100
AcDbEntity
  8
7
100
AcDbLine
 10
12.2060025688088
 20
6.683115910489426
 30
0.0
 11
12.2060025688088
 21
6.702800949859504
 31
0.0
  0
LINE
  5
2CFB
330
1E
100
AcDbEntity
  8
7
100
AcDbLine
 10
12.2060025688088
 20
6.702800949859504
 30
0.0
 11
12.20206556093478
 21
6.726422997103597
 31
0.0
  0
LINE
  5
2CFC
330
1E
100
AcDbEntity
  8
7
100
AcDbLine
 10
12.20206556093478
 20
6.726422997103597
 30
0.0
 11
12.20206556093478
 21
6.753982052221708
 31
0.0
  0
LINE
  5
2CFD
330
1E
100
AcDbEntity
  8
7
100
AcDbLine
 10
12.20206556093478
 20
6.753982052221708
 30
0.0
 11
12.20206556093478
 21
6.781541107339819
 31
0.0
  0
LINE
  5
2CFE
330
1E
100
AcDbEntity
  8
7
100
AcDbLine
 10
12.20206556093478
 20
6.781541107339819
 30
0.0
 11
12.19812855306076
 21
6.801226146709897
 31
0.0
  0
LINE
  5
2CFF
330
1E
100
AcDbEntity
  8
7
100
AcDbLine
 10
12.19812855306076
 20
6.801226146709897
 30
0.0
 11
12.19419154518675
 21
6.820911186079975
 31
0.0
  0
LINE
  5
2D00
330
1E
100
AcDbEntity
  8
7
100
AcDbLine
 10
12.24143563967494
 20
6.663430871119345
 30
0.0
 11
12.23749863180092
 21
6.675241894741393
 31
0.0
  0
LINE
  5
2D01
330
1E
100
AcDbEntity
  8
7
100
AcDbLine
 10
12.23749863180092
 20
6.675241894741393
 30
0.0
 11
12.23749863180092
 21
6.694926934111471
 31
0.0
  0
LINE
  5
2D02
330
1E
100
AcDbEntity
  8
7
100
AcDbLine
 10
12.23749863180092
 20
6.694926934111471
 30
0.0
 11
12.23749863180092
 21
6.718548981355567
 31
0.0
  0
LINE
  5
2D03
330
1E
100
AcDbEntity
  8
7
100
AcDbLine
 10
12.23749863180092
 20
6.718548981355567
 30
0.0
 11
12.23356162392691
 21
6.74217102859966
 31
0.0
  0
LINE
  5
2D04
330
1E
100
AcDbEntity
  8
7
100
AcDbLine
 10
12.23356162392691
 20
6.74217102859966
 30
0.0
 11
12.23356162392691
 21
6.769730083717771
 31
0.0
  0
LINE
  5
2D05
330
1E
100
AcDbEntity
  8
7
100
AcDbLine
 10
12.23356162392691
 20
6.769730083717771
 30
0.0
 11
12.22962461605289
 21
6.793352130961867
 31
0.0
  0
LINE
  5
2D06
330
1E
100
AcDbEntity
  8
7
100
AcDbLine
 10
12.22962461605289
 20
6.793352130961867
 30
0.0
 11
12.22962461605289
 21
6.813037170331945
 31
0.0
  0
LINE
  5
2D07
330
1E
100
AcDbEntity
  8
7
100
AcDbLine
 10
12.22962461605289
 20
6.813037170331945
 30
0.0
 11
12.22568760817888
 21
6.820911186079975
 31
0.0
  0
LINE
  5
2D08
330
1E
100
AcDbEntity
  8
7
100
AcDbLine
 10
12.27293170266706
 20
6.663430871119345
 30
0.0
 11
12.27293170266706
 21
6.671304886867378
 31
0.0
  0
LINE
  5
2D09
330
1E
100
AcDbEntity
  8
7
100
AcDbLine
 10
12.27293170266706
 20
6.671304886867378
 30
0.0
 11
12.26899469479305
 21
6.687052918363441
 31
0.0
  0
LINE
  5
2D0A
330
1E
100
AcDbEntity
  8
7
100
AcDbLine
 10
12.26899469479305
 20
6.687052918363441
 30
0.0
 11
12.26899469479305
 21
6.706737957733519
 31
0.0
  0
LINE
  5
2D0B
330
1E
100
AcDbEntity
  8
7
100
AcDbLine
 10
12.26899469479305
 20
6.706737957733519
 30
0.0
 11
12.26505768691903
 21
6.73429701285163
 31
0.0
  0
LINE
  5
2D0C
330
1E
100
AcDbEntity
  8
7
100
AcDbLine
 10
12.26505768691903
 20
6.73429701285163
 30
0.0
 11
12.26505768691903
 21
6.757919060095723
 31
0.0
  0
LINE
  5
2D0D
330
1E
100
AcDbEntity
  8
7
100
AcDbLine
 10
12.26505768691903
 20
6.757919060095723
 30
0.0
 11
12.26112067904502
 21
6.785478115213834
 31
0.0
  0
LINE
  5
2D0E
330
1E
100
AcDbEntity
  8
7
100
AcDbLine
 10
12.26112067904502
 20
6.785478115213834
 30
0.0
 11
12.26112067904502
 21
6.805163154583912
 31
0.0
  0
LINE
  5
2D0F
330
1E
100
AcDbEntity
  8
7
100
AcDbLine
 10
12.26112067904502
 20
6.805163154583912
 30
0.0
 11
12.257183671171
 21
6.820911186079975
 31
0.0
  0
LINE
  5
2D10
330
1E
100
AcDbEntity
  8
7
100
AcDbLine
 10
12.30442776565919
 20
6.663430871119345
 30
0.0
 11
12.30442776565919
 21
6.667367878993363
 31
0.0
  0
LINE
  5
2D11
330
1E
100
AcDbEntity
  8
7
100
AcDbLine
 10
12.30442776565919
 20
6.667367878993363
 30
0.0
 11
12.30049075778517
 21
6.679178902615408
 31
0.0
  0
LINE
  5
2D12
330
1E
100
AcDbEntity
  8
7
100
AcDbLine
 10
12.30049075778517
 20
6.679178902615408
 30
0.0
 11
12.30049075778517
 21
6.698863941985489
 31
0.0
  0
LINE
  5
2D13
330
1E
100
AcDbEntity
  8
7
100
AcDbLine
 10
12.30049075778517
 20
6.698863941985489
 30
0.0
 11
12.29655374991116
 21
6.722485989229582
 31
0.0
  0
LINE
  5
2D14
330
1E
100
AcDbEntity
  8
7
100
AcDbLine
 10
12.29655374991116
 20
6.722485989229582
 30
0.0
 11
12.29655374991116
 21
6.750045044347693
 31
0.0
  0
LINE
  5
2D15
330
1E
100
AcDbEntity
  8
7
100
AcDbLine
 10
12.29655374991116
 20
6.750045044347693
 30
0.0
 11
12.29655374991116
 21
6.773667091591786
 31
0.0
  0
LINE
  5
2D16
330
1E
100
AcDbEntity
  8
7
100
AcDbLine
 10
12.29655374991116
 20
6.773667091591786
 30
0.0
 11
12.29261674203714
 21
6.797289138835882
 31
0.0
  0
LINE
  5
2D17
330
1E
100
AcDbEntity
  8
7
100
AcDbLine
 10
12.29261674203714
 20
6.797289138835882
 30
0.0
 11
12.29261674203714
 21
6.813037170331945
 31
0.0
  0
LINE
  5
2D18
330
1E
100
AcDbEntity
  8
7
100
AcDbLine
 10
12.29261674203714
 20
6.813037170331945
 30
0.0
 11
12.28867973416313
 21
6.820911186079975
 31
0.0
  0
LINE
  5
2D19
330
1E
100
AcDbEntity
  8
7
100
AcDbLine
 10
12.33592382865132
 20
6.663430871119345
 30
0.0
 11
12.3319868207773
 21
6.671304886867378
 31
0.0
  0
LINE
  5
2D1A
330
1E
100
AcDbEntity
  8
7
100
AcDbLine
 10
12.3319868207773
 20
6.671304886867378
 30
0.0
 11
12.3319868207773
 21
6.687052918363441
 31
0.0
  0
LINE
  5
2D1B
330
1E
100
AcDbEntity
  8
7
100
AcDbLine
 10
12.3319868207773
 20
6.687052918363441
 30
0.0
 11
12.32804981290328
 21
6.710674965607534
 31
0.0
  0
LINE
  5
2D1C
330
1E
100
AcDbEntity
  8
7
100
AcDbLine
 10
12.32804981290328
 20
6.710674965607534
 30
0.0
 11
12.32804981290328
 21
6.738234020725645
 31
0.0
  0
LINE
  5
2D1D
330
1E
100
AcDbEntity
  8
7
100
AcDbLine
 10
12.32804981290328
 20
6.738234020725645
 30
0.0
 11
12.32804981290328
 21
6.765793075843756
 31
0.0
  0
LINE
  5
2D1E
330
1E
100
AcDbEntity
  8
7
100
AcDbLine
 10
12.32804981290328
 20
6.765793075843756
 30
0.0
 11
12.32411280502927
 21
6.789415123087849
 31
0.0
  0
LINE
  5
2D1F
330
1E
100
AcDbEntity
  8
7
100
AcDbLine
 10
12.32411280502927
 20
6.789415123087849
 30
0.0
 11
12.32411280502927
 21
6.80910016245793
 31
0.0
  0
LINE
  5
2D20
330
1E
100
AcDbEntity
  8
7
100
AcDbLine
 10
12.32411280502927
 20
6.80910016245793
 30
0.0
 11
12.32017579715525
 21
6.820911186079975
 31
0.0
  0
LINE
  5
2D21
330
1E
100
AcDbEntity
  8
7
100
AcDbLine
 10
12.36741989164344
 20
6.663430871119345
 30
0.0
 11
12.36348288376943
 21
6.667367878993363
 31
0.0
  0
LINE
  5
2D22
330
1E
100
AcDbEntity
  8
7
100
AcDbLine
 10
12.36348288376943
 20
6.667367878993363
 30
0.0
 11
12.36348288376943
 21
6.679178902615408
 31
0.0
  0
LINE
  5
2D23
330
1E
100
AcDbEntity
  8
7
100
AcDbLine
 10
12.36348288376943
 20
6.679178902615408
 30
0.0
 11
12.36348288376943
 21
6.702800949859504
 31
0.0
  0
LINE
  5
2D24
330
1E
100
AcDbEntity
  8
7
100
AcDbLine
 10
12.36348288376943
 20
6.702800949859504
 30
0.0
 11
12.35954587589541
 21
6.726422997103597
 31
0.0
  0
LINE
  5
2D25
330
1E
100
AcDbEntity
  8
7
100
AcDbLine
 10
12.35954587589541
 20
6.726422997103597
 30
0.0
 11
12.35954587589541
 21
6.753982052221708
 31
0.0
  0
LINE
  5
2D26
330
1E
100
AcDbEntity
  8
7
100
AcDbLine
 10
12.35954587589541
 20
6.753982052221708
 30
0.0
 11
12.35560886802139
 21
6.777604099465804
 31
0.0
  0
LINE
  5
2D27
330
1E
100
AcDbEntity
  8
7
100
AcDbLine
 10
12.35560886802139
 20
6.777604099465804
 30
0.0
 11
12.35560886802139
 21
6.801226146709897
 31
0.0
  0
LINE
  5
2D28
330
1E
100
AcDbEntity
  8
7
100
AcDbLine
 10
12.35560886802139
 20
6.801226146709897
 30
0.0
 11
12.35167186014738
 21
6.820911186079975
 31
0.0
  0
LINE
  5
2D29
330
1E
100
AcDbEntity
  8
7
100
AcDbLine
 10
12.39891595463557
 20
6.663430871119345
 30
0.0
 11
12.39497894676155
 21
6.675241894741393
 31
0.0
  0
LINE
  5
2D2A
330
1E
100
AcDbEntity
  8
7
100
AcDbLine
 10
12.39497894676155
 20
6.675241894741393
 30
0.0
 11
12.39497894676155
 21
6.690989926237456
 31
0.0
  0
LINE
  5
2D2B
330
1E
100
AcDbEntity
  8
7
100
AcDbLine
 10
12.39497894676155
 20
6.690989926237456
 30
0.0
 11
12.39104193888754
 21
6.714611973481552
 31
0.0
  0
LINE
  5
2D2C
330
1E
100
AcDbEntity
  8
7
100
AcDbLine
 10
12.39104193888754
 20
6.714611973481552
 30
0.0
 11
12.39104193888754
 21
6.74217102859966
 31
0.0
  0
LINE
  5
2D2D
330
1E
100
AcDbEntity
  8
7
100
AcDbLine
 10
12.39104193888754
 20
6.74217102859966
 30
0.0
 11
12.38710493101352
 21
6.769730083717771
 31
0.0
  0
LINE
  5
2D2E
330
1E
100
AcDbEntity
  8
7
100
AcDbLine
 10
12.38710493101352
 20
6.769730083717771
 30
0.0
 11
12.38710493101352
 21
6.793352130961867
 31
0.0
  0
LINE
  5
2D2F
330
1E
100
AcDbEntity
  8
7
100
AcDbLine
 10
12.38710493101352
 20
6.793352130961867
 30
0.0
 11
12.38710493101352
 21
6.80910016245793
 31
0.0
  0
LINE
  5
2D30
330
1E
100
AcDbEntity
  8
7
100
AcDbLine
 10
12.38710493101352
 20
6.80910016245793
 30
0.0
 11
12.38316792313951
 21
6.820911186079975
 31
0.0
  0
LINE
  5
2D31
330
1E
100
AcDbEntity
  8
7
100
AcDbLine
 10
12.39104193888754
 20
6.820911186079975
 30
0.0
 11
12.39497894676155
 21
6.813037170331945
 31
0.0
  0
LINE
  5
2D32
330
1E
100
AcDbEntity
  8
7
100
AcDbLine
 10
12.39497894676155
 20
6.813037170331945
 30
0.0
 11
12.39497894676155
 21
6.793352130961867
 31
0.0
  0
LINE
  5
2D33
330
1E
100
AcDbEntity
  8
7
100
AcDbLine
 10
12.39497894676155
 20
6.793352130961867
 30
0.0
 11
12.39891595463557
 21
6.769730083717771
 31
0.0
  0
LINE
  5
2D34
330
1E
100
AcDbEntity
  8
7
100
AcDbLine
 10
12.39891595463557
 20
6.769730083717771
 30
0.0
 11
12.39891595463557
 21
6.746108036473678
 31
0.0
  0
LINE
  5
2D35
330
1E
100
AcDbEntity
  8
7
100
AcDbLine
 10
12.39891595463557
 20
6.746108036473678
 30
0.0
 11
12.40285296250958
 21
6.718548981355567
 31
0.0
  0
LINE
  5
2D36
330
1E
100
AcDbEntity
  8
7
100
AcDbLine
 10
12.40285296250958
 20
6.718548981355567
 30
0.0
 11
12.40285296250958
 21
6.694926934111471
 31
0.0
  0
LINE
  5
2D37
330
1E
100
AcDbEntity
  8
7
100
AcDbLine
 10
12.40285296250958
 20
6.694926934111471
 30
0.0
 11
12.40285296250958
 21
6.690989926237456
 31
0.0
  0
LINE
  5
2D38
330
1E
100
AcDbEntity
  8
7
100
AcDbLine
 10
12.35954587589541
 20
6.820911186079975
 30
0.0
 11
12.36348288376943
 21
6.81697417820596
 31
0.0
  0
LINE
  5
2D39
330
1E
100
AcDbEntity
  8
7
100
AcDbLine
 10
12.36348288376943
 20
6.81697417820596
 30
0.0
 11
12.36348288376943
 21
6.801226146709897
 31
0.0
  0
LINE
  5
2D3A
330
1E
100
AcDbEntity
  8
7
100
AcDbLine
 10
12.36348288376943
 20
6.801226146709897
 30
0.0
 11
12.36741989164344
 21
6.781541107339819
 31
0.0
  0
LINE
  5
2D3B
330
1E
100
AcDbEntity
  8
7
100
AcDbLine
 10
12.36741989164344
 20
6.781541107339819
 30
0.0
 11
12.36741989164344
 21
6.753982052221708
 31
0.0
  0
LINE
  5
2D3C
330
1E
100
AcDbEntity
  8
7
100
AcDbLine
 10
12.36741989164344
 20
6.753982052221708
 30
0.0
 11
12.36741989164344
 21
6.730360004977615
 31
0.0
  0
LINE
  5
2D3D
330
1E
100
AcDbEntity
  8
7
100
AcDbLine
 10
12.36741989164344
 20
6.730360004977615
 30
0.0
 11
12.37135689951746
 21
6.702800949859504
 31
0.0
  0
LINE
  5
2D3E
330
1E
100
AcDbEntity
  8
7
100
AcDbLine
 10
12.37135689951746
 20
6.702800949859504
 30
0.0
 11
12.37135689951746
 21
6.683115910489426
 31
0.0
  0
LINE
  5
2D3F
330
1E
100
AcDbEntity
  8
7
100
AcDbLine
 10
12.32804981290328
 20
6.820911186079975
 30
0.0
 11
12.3319868207773
 21
6.820911186079975
 31
0.0
  0
LINE
  5
2D40
330
1E
100
AcDbEntity
  8
7
100
AcDbLine
 10
12.3319868207773
 20
6.820911186079975
 30
0.0
 11
12.3319868207773
 21
6.80910016245793
 31
0.0
  0
LINE
  5
2D41
330
1E
100
AcDbEntity
  8
7
100
AcDbLine
 10
12.3319868207773
 20
6.80910016245793
 30
0.0
 11
12.3319868207773
 21
6.789415123087849
 31
0.0
  0
LINE
  5
2D42
330
1E
100
AcDbEntity
  8
7
100
AcDbLine
 10
12.3319868207773
 20
6.789415123087849
 30
0.0
 11
12.33592382865132
 21
6.765793075843756
 31
0.0
  0
LINE
  5
2D43
330
1E
100
AcDbEntity
  8
7
100
AcDbLine
 10
12.33592382865132
 20
6.765793075843756
 30
0.0
 11
12.33592382865132
 21
6.738234020725645
 31
0.0
  0
LINE
  5
2D44
330
1E
100
AcDbEntity
  8
7
100
AcDbLine
 10
12.33592382865132
 20
6.738234020725645
 30
0.0
 11
12.33986083652533
 21
6.714611973481552
 31
0.0
  0
LINE
  5
2D45
330
1E
100
AcDbEntity
  8
7
100
AcDbLine
 10
12.33986083652533
 20
6.714611973481552
 30
0.0
 11
12.33986083652533
 21
6.690989926237456
 31
0.0
  0
LINE
  5
2D46
330
1E
100
AcDbEntity
  8
7
100
AcDbLine
 10
12.33986083652533
 20
6.690989926237456
 30
0.0
 11
12.34379784439935
 21
6.671304886867378
 31
0.0
  0
LINE
  5
2D47
330
1E
100
AcDbEntity
  8
7
100
AcDbLine
 10
12.34379784439935
 20
6.671304886867378
 30
0.0
 11
12.34379784439935
 21
6.663430871119345
 31
0.0
  0
LINE
  5
2D48
330
1E
100
AcDbEntity
  8
7
100
AcDbLine
 10
12.29655374991116
 20
6.820911186079975
 30
0.0
 11
12.30049075778517
 21
6.813037170331945
 31
0.0
  0
LINE
  5
2D49
330
1E
100
AcDbEntity
  8
7
100
AcDbLine
 10
12.30049075778517
 20
6.813037170331945
 30
0.0
 11
12.30049075778517
 21
6.797289138835882
 31
0.0
  0
LINE
  5
2D4A
330
1E
100
AcDbEntity
  8
7
100
AcDbLine
 10
12.30049075778517
 20
6.797289138835882
 30
0.0
 11
12.30442776565919
 21
6.777604099465804
 31
0.0
  0
LINE
  5
2D4B
330
1E
100
AcDbEntity
  8
7
100
AcDbLine
 10
12.30442776565919
 20
6.777604099465804
 30
0.0
 11
12.30442776565919
 21
6.750045044347693
 31
0.0
  0
LINE
  5
2D4C
330
1E
100
AcDbEntity
  8
7
100
AcDbLine
 10
12.30442776565919
 20
6.750045044347693
 30
0.0
 11
12.30836477353321
 21
6.722485989229582
 31
0.0
  0
LINE
  5
2D4D
330
1E
100
AcDbEntity
  8
7
100
AcDbLine
 10
12.30836477353321
 20
6.722485989229582
 30
0.0
 11
12.30836477353321
 21
6.698863941985489
 31
0.0
  0
LINE
  5
2D4E
330
1E
100
AcDbEntity
  8
7
100
AcDbLine
 10
12.30836477353321
 20
6.698863941985489
 30
0.0
 11
12.30836477353321
 21
6.679178902615408
 31
0.0
  0
LINE
  5
2D4F
330
1E
100
AcDbEntity
  8
7
100
AcDbLine
 10
12.30836477353321
 20
6.679178902615408
 30
0.0
 11
12.31230178140722
 21
6.663430871119345
 31
0.0
  0
LINE
  5
2D50
330
1E
100
AcDbEntity
  8
7
100
AcDbLine
 10
12.26505768691903
 20
6.820911186079975
 30
0.0
 11
12.26899469479305
 21
6.81697417820596
 31
0.0
  0
LINE
  5
2D51
330
1E
100
AcDbEntity
  8
7
100
AcDbLine
 10
12.26899469479305
 20
6.81697417820596
 30
0.0
 11
12.26899469479305
 21
6.805163154583912
 31
0.0
  0
LINE
  5
2D52
330
1E
100
AcDbEntity
  8
7
100
AcDbLine
 10
12.26899469479305
 20
6.805163154583912
 30
0.0
 11
12.27293170266706
 21
6.785478115213834
 31
0.0
  0
LINE
  5
2D53
330
1E
100
AcDbEntity
  8
7
100
AcDbLine
 10
12.27293170266706
 20
6.785478115213834
 30
0.0
 11
12.27293170266706
 21
6.761856067969741
 31
0.0
  0
LINE
  5
2D54
330
1E
100
AcDbEntity
  8
7
100
AcDbLine
 10
12.27293170266706
 20
6.761856067969741
 30
0.0
 11
12.27293170266706
 21
6.73429701285163
 31
0.0
  0
LINE
  5
2D55
330
1E
100
AcDbEntity
  8
7
100
AcDbLine
 10
12.27293170266706
 20
6.73429701285163
 30
0.0
 11
12.27686871054108
 21
6.710674965607534
 31
0.0
  0
LINE
  5
2D56
330
1E
100
AcDbEntity
  8
7
100
AcDbLine
 10
12.27686871054108
 20
6.710674965607534
 30
0.0
 11
12.27686871054108
 21
6.687052918363441
 31
0.0
  0
LINE
  5
2D57
330
1E
100
AcDbEntity
  8
7
100
AcDbLine
 10
12.27686871054108
 20
6.687052918363441
 30
0.0
 11
12.28080571841509
 21
6.671304886867378
 31
0.0
  0
LINE
  5
2D58
330
1E
100
AcDbEntity
  8
7
100
AcDbLine
 10
12.28080571841509
 20
6.671304886867378
 30
0.0
 11
12.28080571841509
 21
6.663430871119345
 31
0.0
  0
LINE
  5
2D59
330
1E
100
AcDbEntity
  8
7
100
AcDbLine
 10
12.23356162392691
 20
6.820911186079975
 30
0.0
 11
12.23749863180092
 21
6.820911186079975
 31
0.0
  0
LINE
  5
2D5A
330
1E
100
AcDbEntity
  8
7
100
AcDbLine
 10
12.23749863180092
 20
6.820911186079975
 30
0.0
 11
12.23749863180092
 21
6.813037170331945
 31
0.0
  0
LINE
  5
2D5B
330
1E
100
AcDbEntity
  8
7
100
AcDbLine
 10
12.23749863180092
 20
6.813037170331945
 30
0.0
 11
12.24143563967494
 21
6.793352130961867
 31
0.0
  0
LINE
  5
2D5C
330
1E
100
AcDbEntity
  8
7
100
AcDbLine
 10
12.24143563967494
 20
6.793352130961867
 30
0.0
 11
12.24143563967494
 21
6.773667091591786
 31
0.0
  0
LINE
  5
2D5D
330
1E
100
AcDbEntity
  8
7
100
AcDbLine
 10
12.24143563967494
 20
6.773667091591786
 30
0.0
 11
12.24143563967494
 21
6.746108036473678
 31
0.0
  0
LINE
  5
2D5E
330
1E
100
AcDbEntity
  8
7
100
AcDbLine
 10
12.24143563967494
 20
6.746108036473678
 30
0.0
 11
12.24537264754895
 21
6.718548981355567
 31
0.0
  0
LINE
  5
2D5F
330
1E
100
AcDbEntity
  8
7
100
AcDbLine
 10
12.24537264754895
 20
6.718548981355567
 30
0.0
 11
12.24537264754895
 21
6.694926934111471
 31
0.0
  0
LINE
  5
2D60
330
1E
100
AcDbEntity
  8
7
100
AcDbLine
 10
12.24537264754895
 20
6.694926934111471
 30
0.0
 11
12.24930965542297
 21
6.675241894741393
 31
0.0
  0
LINE
  5
2D61
330
1E
100
AcDbEntity
  8
7
100
AcDbLine
 10
12.24930965542297
 20
6.675241894741393
 30
0.0
 11
12.24930965542297
 21
6.663430871119345
 31
0.0
  0
LINE
  5
2D62
330
1E
100
AcDbEntity
  8
7
100
AcDbLine
 10
12.2060025688088
 20
6.801226146709897
 30
0.0
 11
12.20993957668281
 21
6.781541107339819
 31
0.0
  0
LINE
  5
2D63
330
1E
100
AcDbEntity
  8
7
100
AcDbLine
 10
12.20993957668281
 20
6.781541107339819
 30
0.0
 11
12.20993957668281
 21
6.757919060095723
 31
0.0
  0
LINE
  5
2D64
330
1E
100
AcDbEntity
  8
7
100
AcDbLine
 10
12.20993957668281
 20
6.757919060095723
 30
0.0
 11
12.21387658455683
 21
6.730360004977615
 31
0.0
  0
LINE
  5
2D65
330
1E
100
AcDbEntity
  8
7
100
AcDbLine
 10
12.21387658455683
 20
6.730360004977615
 30
0.0
 11
12.21387658455683
 21
6.702800949859504
 31
0.0
  0
LINE
  5
2D66
330
1E
100
AcDbEntity
  8
7
100
AcDbLine
 10
12.21387658455683
 20
6.702800949859504
 30
0.0
 11
12.21781359243084
 21
6.683115910489426
 31
0.0
  0
LINE
  5
2D67
330
1E
100
AcDbEntity
  8
7
100
AcDbLine
 10
12.21781359243084
 20
6.683115910489426
 30
0.0
 11
12.21781359243084
 21
6.663430871119345
 31
0.0
  0
LINE
  5
2D68
330
1E
100
AcDbEntity
  8
7
100
AcDbLine
 10
12.2060025688088
 20
6.820911186079975
 30
0.0
 11
12.2060025688088
 21
6.81697417820596
 31
0.0
  0
LINE
  5
2D69
330
1E
100
AcDbEntity
  8
7
100
AcDbLine
 10
12.2060025688088
 20
6.81697417820596
 30
0.0
 11
12.2060025688088
 21
6.801226146709897
 31
0.0
  0
LINE
  5
2D6A
330
1E
100
AcDbEntity
  8
7
100
AcDbLine
 10
12.17450650581667
 20
6.820911186079975
 30
0.0
 11
12.17450650581667
 21
6.80910016245793
 31
0.0
  0
LINE
  5
2D6B
330
1E
100
AcDbEntity
  8
7
100
AcDbLine
 10
12.17450650581667
 20
6.80910016245793
 30
0.0
 11
12.17844351369069
 21
6.793352130961867
 31
0.0
  0
LINE
  5
2D6C
330
1E
100
AcDbEntity
  8
7
100
AcDbLine
 10
12.17844351369069
 20
6.793352130961867
 30
0.0
 11
12.17844351369069
 21
6.769730083717771
 31
0.0
  0
LINE
  5
2D6D
330
1E
100
AcDbEntity
  8
7
100
AcDbLine
 10
12.17844351369069
 20
6.769730083717771
 30
0.0
 11
12.1823805215647
 21
6.74217102859966
 31
0.0
  0
LINE
  5
2D6E
330
1E
100
AcDbEntity
  8
7
100
AcDbLine
 10
12.1823805215647
 20
6.74217102859966
 30
0.0
 11
12.1823805215647
 21
6.714611973481552
 31
0.0
  0
LINE
  5
2D6F
330
1E
100
AcDbEntity
  8
7
100
AcDbLine
 10
12.1823805215647
 20
6.714611973481552
 30
0.0
 11
12.1823805215647
 21
6.690989926237456
 31
0.0
  0
LINE
  5
2D70
330
1E
100
AcDbEntity
  8
7
100
AcDbLine
 10
12.1823805215647
 20
6.690989926237456
 30
0.0
 11
12.18631752943872
 21
6.675241894741393
 31
0.0
  0
LINE
  5
2D71
330
1E
100
AcDbEntity
  8
7
100
AcDbLine
 10
12.18631752943872
 20
6.675241894741393
 30
0.0
 11
12.18631752943872
 21
6.663430871119345
 31
0.0
  0
LINE
  5
2D72
330
1E
100
AcDbEntity
  8
7
100
AcDbLine
 10
12.14694745069856
 20
6.777604099465804
 30
0.0
 11
12.14694745069856
 21
6.753982052221708
 31
0.0
  0
LINE
  5
2D73
330
1E
100
AcDbEntity
  8
7
100
AcDbLine
 10
12.14694745069856
 20
6.753982052221708
 30
0.0
 11
12.15088445857258
 21
6.726422997103597
 31
0.0
  0
LINE
  5
2D74
330
1E
100
AcDbEntity
  8
7
100
AcDbLine
 10
12.15088445857258
 20
6.726422997103597
 30
0.0
 11
12.15088445857258
 21
6.698863941985489
 31
0.0
  0
LINE
  5
2D75
330
1E
100
AcDbEntity
  8
7
100
AcDbLine
 10
12.15088445857258
 20
6.698863941985489
 30
0.0
 11
12.15482146644659
 21
6.679178902615408
 31
0.0
  0
LINE
  5
2D76
330
1E
100
AcDbEntity
  8
7
100
AcDbLine
 10
12.15482146644659
 20
6.679178902615408
 30
0.0
 11
12.15482146644659
 21
6.663430871119345
 31
0.0
  0
LINE
  5
2D77
330
1E
100
AcDbEntity
  8
7
100
AcDbLine
 10
12.14301044282454
 20
6.820911186079975
 30
0.0
 11
12.14301044282454
 21
6.813037170331945
 31
0.0
  0
LINE
  5
2D78
330
1E
100
AcDbEntity
  8
7
100
AcDbLine
 10
12.14301044282454
 20
6.813037170331945
 30
0.0
 11
12.14694745069856
 21
6.801226146709897
 31
0.0
  0
LINE
  5
2D79
330
1E
100
AcDbEntity
  8
7
100
AcDbLine
 10
12.14694745069856
 20
6.801226146709897
 30
0.0
 11
12.14694745069856
 21
6.777604099465804
 31
0.0
  0
LINE
  5
2D7A
330
1E
100
AcDbEntity
  8
7
100
AcDbLine
 10
12.11151437983242
 20
6.820911186079975
 30
0.0
 11
12.11151437983242
 21
6.81697417820596
 31
0.0
  0
LINE
  5
2D7B
330
1E
100
AcDbEntity
  8
7
100
AcDbLine
 10
12.11151437983242
 20
6.81697417820596
 30
0.0
 11
12.11545138770643
 21
6.805163154583912
 31
0.0
  0
LINE
  5
2D7C
330
1E
100
AcDbEntity
  8
7
100
AcDbLine
 10
12.11545138770643
 20
6.805163154583912
 30
0.0
 11
12.11545138770643
 21
6.789415123087849
 31
0.0
  0
LINE
  5
2D7D
330
1E
100
AcDbEntity
  8
7
100
AcDbLine
 10
12.11545138770643
 20
6.789415123087849
 30
0.0
 11
12.11545138770643
 21
6.761856067969741
 31
0.0
  0
LINE
  5
2D7E
330
1E
100
AcDbEntity
  8
7
100
AcDbLine
 10
12.11545138770643
 20
6.761856067969741
 30
0.0
 11
12.11938839558045
 21
6.738234020725645
 31
0.0
  0
LINE
  5
2D7F
330
1E
100
AcDbEntity
  8
7
100
AcDbLine
 10
12.11938839558045
 20
6.738234020725645
 30
0.0
 11
12.11938839558045
 21
6.710674965607534
 31
0.0
  0
LINE
  5
2D80
330
1E
100
AcDbEntity
  8
7
100
AcDbLine
 10
12.11938839558045
 20
6.710674965607534
 30
0.0
 11
12.12332540345447
 21
6.687052918363441
 31
0.0
  0
LINE
  5
2D81
330
1E
100
AcDbEntity
  8
7
100
AcDbLine
 10
12.12332540345447
 20
6.687052918363441
 30
0.0
 11
12.12332540345447
 21
6.671304886867378
 31
0.0
  0
LINE
  5
2D82
330
1E
100
AcDbEntity
  8
7
100
AcDbLine
 10
12.12332540345447
 20
6.671304886867378
 30
0.0
 11
12.12726241132848
 21
6.663430871119345
 31
0.0
  0
LINE
  5
2D83
330
1E
100
AcDbEntity
  8
7
100
AcDbLine
 10
12.38316792313951
 20
6.714611973481552
 30
0.0
 11
12.38316792313951
 21
6.687052918363441
 31
0.0
  0
LINE
  5
2D84
330
1E
100
AcDbEntity
  8
7
100
AcDbLine
 10
12.38316792313951
 20
6.687052918363441
 30
0.0
 11
12.38710493101352
 21
6.663430871119345
 31
0.0
  0
LINE
  5
2D85
330
1E
100
AcDbEntity
  8
7
100
AcDbLine
 10
12.38710493101352
 20
6.663430871119345
 30
0.0
 11
12.39104193888754
 21
6.647682839623282
 31
0.0
  0
LINE
  5
2D86
330
1E
100
AcDbEntity
  8
7
100
AcDbLine
 10
12.37529390739147
 20
6.836659217576038
 30
0.0
 11
12.37529390739147
 21
6.824848193953993
 31
0.0
  0
LINE
  5
2D87
330
1E
100
AcDbEntity
  8
7
100
AcDbLine
 10
12.37529390739147
 20
6.824848193953993
 30
0.0
 11
12.37923091526549
 21
6.805163154583912
 31
0.0
  0
LINE
  5
2D88
330
1E
100
AcDbEntity
  8
7
100
AcDbLine
 10
12.37923091526549
 20
6.805163154583912
 30
0.0
 11
12.37923091526549
 21
6.777604099465804
 31
0.0
  0
LINE
  5
2D89
330
1E
100
AcDbEntity
  8
7
100
AcDbLine
 10
12.37923091526549
 20
6.777604099465804
 30
0.0
 11
12.38316792313951
 21
6.746108036473678
 31
0.0
  0
LINE
  5
2D8A
330
1E
100
AcDbEntity
  8
7
100
AcDbLine
 10
12.38316792313951
 20
6.746108036473678
 30
0.0
 11
12.38316792313951
 21
6.714611973481552
 31
0.0
  0
LINE
  5
2D8B
330
1E
100
AcDbEntity
  8
7
100
AcDbLine
 10
12.34379784439935
 20
6.836659217576038
 30
0.0
 11
12.34379784439935
 21
6.832722209702023
 31
0.0
  0
LINE
  5
2D8C
330
1E
100
AcDbEntity
  8
7
100
AcDbLine
 10
12.34379784439935
 20
6.832722209702023
 30
0.0
 11
12.34773485227337
 21
6.813037170331945
 31
0.0
  0
LINE
  5
2D8D
330
1E
100
AcDbEntity
  8
7
100
AcDbLine
 10
12.34773485227337
 20
6.813037170331945
 30
0.0
 11
12.34773485227337
 21
6.789415123087849
 31
0.0
  0
LINE
  5
2D8E
330
1E
100
AcDbEntity
  8
7
100
AcDbLine
 10
12.34773485227337
 20
6.789415123087849
 30
0.0
 11
12.34773485227337
 21
6.761856067969741
 31
0.0
  0
LINE
  5
2D8F
330
1E
100
AcDbEntity
  8
7
100
AcDbLine
 10
12.34773485227337
 20
6.761856067969741
 30
0.0
 11
12.35167186014738
 21
6.726422997103597
 31
0.0
  0
LINE
  5
2D90
330
1E
100
AcDbEntity
  8
7
100
AcDbLine
 10
12.35167186014738
 20
6.726422997103597
 30
0.0
 11
12.35167186014738
 21
6.698863941985489
 31
0.0
  0
LINE
  5
2D91
330
1E
100
AcDbEntity
  8
7
100
AcDbLine
 10
12.35167186014738
 20
6.698863941985489
 30
0.0
 11
12.35560886802139
 21
6.671304886867378
 31
0.0
  0
LINE
  5
2D92
330
1E
100
AcDbEntity
  8
7
100
AcDbLine
 10
12.35560886802139
 20
6.671304886867378
 30
0.0
 11
12.35560886802139
 21
6.655556855371315
 31
0.0
  0
LINE
  5
2D93
330
1E
100
AcDbEntity
  8
7
100
AcDbLine
 10
12.35560886802139
 20
6.655556855371315
 30
0.0
 11
12.35954587589541
 21
6.647682839623282
 31
0.0
  0
LINE
  5
2D94
330
1E
100
AcDbEntity
  8
7
100
AcDbLine
 10
12.31230178140722
 20
6.836659217576038
 30
0.0
 11
12.31623878928123
 21
6.820911186079975
 31
0.0
  0
LINE
  5
2D95
330
1E
100
AcDbEntity
  8
7
100
AcDbLine
 10
12.31623878928123
 20
6.820911186079975
 30
0.0
 11
12.31623878928123
 21
6.801226146709897
 31
0.0
  0
LINE
  5
2D96
330
1E
100
AcDbEntity
  8
7
100
AcDbLine
 10
12.31623878928123
 20
6.801226146709897
 30
0.0
 11
12.31623878928123
 21
6.773667091591786
 31
0.0
  0
LINE
  5
2D97
330
1E
100
AcDbEntity
  8
7
100
AcDbLine
 10
12.31623878928123
 20
6.773667091591786
 30
0.0
 11
12.32017579715525
 21
6.74217102859966
 31
0.0
  0
LINE
  5
2D98
330
1E
100
AcDbEntity
  8
7
100
AcDbLine
 10
12.32017579715525
 20
6.74217102859966
 30
0.0
 11
12.32017579715525
 21
6.710674965607534
 31
0.0
  0
LINE
  5
2D99
330
1E
100
AcDbEntity
  8
7
100
AcDbLine
 10
12.32017579715525
 20
6.710674965607534
 30
0.0
 11
12.32411280502927
 21
6.683115910489426
 31
0.0
  0
LINE
  5
2D9A
330
1E
100
AcDbEntity
  8
7
100
AcDbLine
 10
12.32411280502927
 20
6.683115910489426
 30
0.0
 11
12.32411280502927
 21
6.65949386324533
 31
0.0
  0
LINE
  5
2D9B
330
1E
100
AcDbEntity
  8
7
100
AcDbLine
 10
12.28080571841509
 20
6.836659217576038
 30
0.0
 11
12.28080571841509
 21
6.828785201828008
 31
0.0
  0
LINE
  5
2D9C
330
1E
100
AcDbEntity
  8
7
100
AcDbLine
 10
12.28080571841509
 20
6.828785201828008
 30
0.0
 11
12.28474272628911
 21
6.80910016245793
 31
0.0
  0
LINE
  5
2D9D
330
1E
100
AcDbEntity
  8
7
100
AcDbLine
 10
12.28474272628911
 20
6.80910016245793
 30
0.0
 11
12.28474272628911
 21
6.785478115213834
 31
0.0
  0
LINE
  5
2D9E
330
1E
100
AcDbEntity
  8
7
100
AcDbLine
 10
12.28474272628911
 20
6.785478115213834
 30
0.0
 11
12.28867973416313
 21
6.753982052221708
 31
0.0
  0
LINE
  5
2D9F
330
1E
100
AcDbEntity
  8
7
100
AcDbLine
 10
12.28867973416313
 20
6.753982052221708
 30
0.0
 11
12.28867973416313
 21
6.722485989229582
 31
0.0
  0
LINE
  5
2DA0
330
1E
100
AcDbEntity
  8
7
100
AcDbLine
 10
12.28867973416313
 20
6.722485989229582
 30
0.0
 11
12.29261674203714
 21
6.690989926237456
 31
0.0
  0
LINE
  5
2DA1
330
1E
100
AcDbEntity
  8
7
100
AcDbLine
 10
12.29261674203714
 20
6.690989926237456
 30
0.0
 11
12.29261674203714
 21
6.667367878993363
 31
0.0
  0
LINE
  5
2DA2
330
1E
100
AcDbEntity
  8
7
100
AcDbLine
 10
12.29261674203714
 20
6.667367878993363
 30
0.0
 11
12.29261674203714
 21
6.6516198474973
 31
0.0
  0
LINE
  5
2DA3
330
1E
100
AcDbEntity
  8
7
100
AcDbLine
 10
12.29261674203714
 20
6.6516198474973
 30
0.0
 11
12.29655374991116
 21
6.647682839623282
 31
0.0
  0
LINE
  5
2DA4
330
1E
100
AcDbEntity
  8
7
100
AcDbLine
 10
12.24930965542297
 20
6.836659217576038
 30
0.0
 11
12.24930965542297
 21
6.832722209702023
 31
0.0
  0
LINE
  5
2DA5
330
1E
100
AcDbEntity
  8
7
100
AcDbLine
 10
12.24930965542297
 20
6.832722209702023
 30
0.0
 11
12.25324666329698
 21
6.81697417820596
 31
0.0
  0
LINE
  5
2DA6
330
1E
100
AcDbEntity
  8
7
100
AcDbLine
 10
12.25324666329698
 20
6.81697417820596
 30
0.0
 11
12.25324666329698
 21
6.797289138835882
 31
0.0
  0
LINE
  5
2DA7
330
1E
100
AcDbEntity
  8
7
100
AcDbLine
 10
12.25324666329698
 20
6.797289138835882
 30
0.0
 11
12.257183671171
 21
6.765793075843756
 31
0.0
  0
LINE
  5
2DA8
330
1E
100
AcDbEntity
  8
7
100
AcDbLine
 10
12.257183671171
 20
6.765793075843756
 30
0.0
 11
12.257183671171
 21
6.73429701285163
 31
0.0
  0
LINE
  5
2DA9
330
1E
100
AcDbEntity
  8
7
100
AcDbLine
 10
12.257183671171
 20
6.73429701285163
 30
0.0
 11
12.257183671171
 21
6.702800949859504
 31
0.0
  0
LINE
  5
2DAA
330
1E
100
AcDbEntity
  8
7
100
AcDbLine
 10
12.257183671171
 20
6.702800949859504
 30
0.0
 11
12.26112067904502
 21
6.675241894741393
 31
0.0
  0
LINE
  5
2DAB
330
1E
100
AcDbEntity
  8
7
100
AcDbLine
 10
12.26112067904502
 20
6.675241894741393
 30
0.0
 11
12.26112067904502
 21
6.65949386324533
 31
0.0
  0
LINE
  5
2DAC
330
1E
100
AcDbEntity
  8
7
100
AcDbLine
 10
12.26112067904502
 20
6.65949386324533
 30
0.0
 11
12.26505768691903
 21
6.647682839623282
 31
0.0
  0
LINE
  5
2DAD
330
1E
100
AcDbEntity
  8
7
100
AcDbLine
 10
12.21781359243084
 20
6.836659217576038
 30
0.0
 11
12.22175060030486
 21
6.824848193953993
 31
0.0
  0
LINE
  5
2DAE
330
1E
100
AcDbEntity
  8
7
100
AcDbLine
 10
12.22175060030486
 20
6.824848193953993
 30
0.0
 11
12.22175060030486
 21
6.805163154583912
 31
0.0
  0
LINE
  5
2DAF
330
1E
100
AcDbEntity
  8
7
100
AcDbLine
 10
12.22175060030486
 20
6.805163154583912
 30
0.0
 11
12.22175060030486
 21
6.777604099465804
 31
0.0
  0
LINE
  5
2DB0
330
1E
100
AcDbEntity
  8
7
100
AcDbLine
 10
12.22175060030486
 20
6.777604099465804
 30
0.0
 11
12.22568760817888
 21
6.746108036473678
 31
0.0
  0
LINE
  5
2DB1
330
1E
100
AcDbEntity
  8
7
100
AcDbLine
 10
12.22568760817888
 20
6.746108036473678
 30
0.0
 11
12.22568760817888
 21
6.714611973481552
 31
0.0
  0
LINE
  5
2DB2
330
1E
100
AcDbEntity
  8
7
100
AcDbLine
 10
12.22568760817888
 20
6.714611973481552
 30
0.0
 11
12.22962461605289
 21
6.687052918363441
 31
0.0
  0
LINE
  5
2DB3
330
1E
100
AcDbEntity
  8
7
100
AcDbLine
 10
12.22962461605289
 20
6.687052918363441
 30
0.0
 11
12.22962461605289
 21
6.663430871119345
 31
0.0
  0
LINE
  5
2DB4
330
1E
100
AcDbEntity
  8
7
100
AcDbLine
 10
12.22962461605289
 20
6.663430871119345
 30
0.0
 11
12.23356162392691
 21
6.647682839623282
 31
0.0
  0
LINE
  5
2DB5
330
1E
100
AcDbEntity
  8
7
100
AcDbLine
 10
12.18631752943872
 20
6.836659217576038
 30
0.0
 11
12.19025453731273
 21
6.832722209702023
 31
0.0
  0
LINE
  5
2DB6
330
1E
100
AcDbEntity
  8
7
100
AcDbLine
 10
12.19025453731273
 20
6.832722209702023
 30
0.0
 11
12.19025453731273
 21
6.813037170331945
 31
0.0
  0
LINE
  5
2DB7
330
1E
100
AcDbEntity
  8
7
100
AcDbLine
 10
12.19025453731273
 20
6.813037170331945
 30
0.0
 11
12.19025453731273
 21
6.789415123087849
 31
0.0
  0
LINE
  5
2DB8
330
1E
100
AcDbEntity
  8
7
100
AcDbLine
 10
12.19025453731273
 20
6.789415123087849
 30
0.0
 11
12.19419154518675
 21
6.761856067969741
 31
0.0
  0
LINE
  5
2DB9
330
1E
100
AcDbEntity
  8
7
100
AcDbLine
 10
12.19419154518675
 20
6.761856067969741
 30
0.0
 11
12.19419154518675
 21
6.726422997103597
 31
0.0
  0
LINE
  5
2DBA
330
1E
100
AcDbEntity
  8
7
100
AcDbLine
 10
12.19419154518675
 20
6.726422997103597
 30
0.0
 11
12.19812855306076
 21
6.698863941985489
 31
0.0
  0
LINE
  5
2DBB
330
1E
100
AcDbEntity
  8
7
100
AcDbLine
 10
12.19812855306076
 20
6.698863941985489
 30
0.0
 11
12.19812855306076
 21
6.671304886867378
 31
0.0
  0
LINE
  5
2DBC
330
1E
100
AcDbEntity
  8
7
100
AcDbLine
 10
12.19812855306076
 20
6.671304886867378
 30
0.0
 11
12.19812855306076
 21
6.655556855371315
 31
0.0
  0
LINE
  5
2DBD
330
1E
100
AcDbEntity
  8
7
100
AcDbLine
 10
12.19812855306076
 20
6.655556855371315
 30
0.0
 11
12.20206556093478
 21
6.647682839623282
 31
0.0
  0
LINE
  5
2DBE
330
1E
100
AcDbEntity
  8
7
100
AcDbLine
 10
12.15875847432061
 20
6.820911186079975
 30
0.0
 11
12.15875847432061
 21
6.801226146709897
 31
0.0
  0
LINE
  5
2DBF
330
1E
100
AcDbEntity
  8
7
100
AcDbLine
 10
12.15875847432061
 20
6.801226146709897
 30
0.0
 11
12.16269548219462
 21
6.773667091591786
 31
0.0
  0
LINE
  5
2DC0
330
1E
100
AcDbEntity
  8
7
100
AcDbLine
 10
12.16269548219462
 20
6.773667091591786
 30
0.0
 11
12.16269548219462
 21
6.74217102859966
 31
0.0
  0
LINE
  5
2DC1
330
1E
100
AcDbEntity
  8
7
100
AcDbLine
 10
12.16269548219462
 20
6.74217102859966
 30
0.0
 11
12.16663249006864
 21
6.710674965607534
 31
0.0
  0
LINE
  5
2DC2
330
1E
100
AcDbEntity
  8
7
100
AcDbLine
 10
12.16663249006864
 20
6.710674965607534
 30
0.0
 11
12.16663249006864
 21
6.683115910489426
 31
0.0
  0
LINE
  5
2DC3
330
1E
100
AcDbEntity
  8
7
100
AcDbLine
 10
12.16663249006864
 20
6.683115910489426
 30
0.0
 11
12.16663249006864
 21
6.65949386324533
 31
0.0
  0
LINE
  5
2DC4
330
1E
100
AcDbEntity
  8
7
100
AcDbLine
 10
12.16663249006864
 20
6.65949386324533
 30
0.0
 11
12.17056949794265
 21
6.647682839623282
 31
0.0
  0
LINE
  5
2DC5
330
1E
100
AcDbEntity
  8
7
100
AcDbLine
 10
12.12332540345447
 20
6.836659217576038
 30
0.0
 11
12.12726241132848
 21
6.828785201828008
 31
0.0
  0
LINE
  5
2DC6
330
1E
100
AcDbEntity
  8
7
100
AcDbLine
 10
12.12726241132848
 20
6.828785201828008
 30
0.0
 11
12.12726241132848
 21
6.80910016245793
 31
0.0
  0
LINE
  5
2DC7
330
1E
100
AcDbEntity
  8
7
100
AcDbLine
 10
12.12726241132848
 20
6.80910016245793
 30
0.0
 11
12.1311994192025
 21
6.785478115213834
 31
0.0
  0
LINE
  5
2DC8
330
1E
100
AcDbEntity
  8
7
100
AcDbLine
 10
12.1311994192025
 20
6.785478115213834
 30
0.0
 11
12.1311994192025
 21
6.753982052221708
 31
0.0
  0
LINE
  5
2DC9
330
1E
100
AcDbEntity
  8
7
100
AcDbLine
 10
12.1311994192025
 20
6.753982052221708
 30
0.0
 11
12.1311994192025
 21
6.722485989229582
 31
0.0
  0
LINE
  5
2DCA
330
1E
100
AcDbEntity
  8
7
100
AcDbLine
 10
12.1311994192025
 20
6.722485989229582
 30
0.0
 11
12.13513642707651
 21
6.690989926237456
 31
0.0
  0
LINE
  5
2DCB
330
1E
100
AcDbEntity
  8
7
100
AcDbLine
 10
12.13513642707651
 20
6.690989926237456
 30
0.0
 11
12.13513642707651
 21
6.667367878993363
 31
0.0
  0
LINE
  5
2DCC
330
1E
100
AcDbEntity
  8
7
100
AcDbLine
 10
12.13513642707651
 20
6.667367878993363
 30
0.0
 11
12.13907343495053
 21
6.6516198474973
 31
0.0
  0
LINE
  5
2DCD
330
1E
100
AcDbEntity
  8
7
100
AcDbLine
 10
12.13907343495053
 20
6.6516198474973
 30
0.0
 11
12.13907343495053
 21
6.647682839623282
 31
0.0
  0
LINE
  5
2DCE
330
1E
100
AcDbEntity
  8
7
100
AcDbLine
 10
12.12332540345447
 20
6.797289138835882
 30
0.0
 11
12.12332540345447
 21
6.820911186079975
 31
0.0
  0
LINE
  5
2DCF
330
1E
100
AcDbEntity
  8
7
100
AcDbLine
 10
12.12332540345447
 20
6.820911186079975
 30
0.0
 11
12.11938839558045
 21
6.836659217576038
 31
0.0
  0
LINE
  5
2DD0
330
1E
100
AcDbEntity
  8
7
100
AcDbLine
 10
12.13513642707651
 20
6.647682839623282
 30
0.0
 11
12.1311994192025
 21
6.65949386324533
 31
0.0
  0
LINE
  5
2DD1
330
1E
100
AcDbEntity
  8
7
100
AcDbLine
 10
12.1311994192025
 20
6.65949386324533
 30
0.0
 11
12.1311994192025
 21
6.679178902615408
 31
0.0
  0
LINE
  5
2DD2
330
1E
100
AcDbEntity
  8
7
100
AcDbLine
 10
12.1311994192025
 20
6.679178902615408
 30
0.0
 11
12.12726241132848
 21
6.702800949859504
 31
0.0
  0
LINE
  5
2DD3
330
1E
100
AcDbEntity
  8
7
100
AcDbLine
 10
12.12726241132848
 20
6.702800949859504
 30
0.0
 11
12.12726241132848
 21
6.73429701285163
 31
0.0
  0
LINE
  5
2DD4
330
1E
100
AcDbEntity
  8
7
100
AcDbLine
 10
12.12726241132848
 20
6.73429701285163
 30
0.0
 11
12.12726241132848
 21
6.765793075843756
 31
0.0
  0
LINE
  5
2DD5
330
1E
100
AcDbEntity
  8
7
100
AcDbLine
 10
12.12726241132848
 20
6.765793075843756
 30
0.0
 11
12.12332540345447
 21
6.797289138835882
 31
0.0
  0
LINE
  5
2DD6
330
1E
100
AcDbEntity
  8
7
100
AcDbLine
 10
12.16663249006864
 20
6.647682839623282
 30
0.0
 11
12.16269548219462
 21
6.6516198474973
 31
0.0
  0
LINE
  5
2DD7
330
1E
100
AcDbEntity
  8
7
100
AcDbLine
 10
12.16269548219462
 20
6.6516198474973
 30
0.0
 11
12.16269548219462
 21
6.667367878993363
 31
0.0
  0
LINE
  5
2DD8
330
1E
100
AcDbEntity
  8
7
100
AcDbLine
 10
12.16269548219462
 20
6.667367878993363
 30
0.0
 11
12.16269548219462
 21
6.690989926237456
 31
0.0
  0
LINE
  5
2DD9
330
1E
100
AcDbEntity
  8
7
100
AcDbLine
 10
12.16269548219462
 20
6.690989926237456
 30
0.0
 11
12.15875847432061
 21
6.722485989229582
 31
0.0
  0
LINE
  5
2DDA
330
1E
100
AcDbEntity
  8
7
100
AcDbLine
 10
12.15875847432061
 20
6.722485989229582
 30
0.0
 11
12.15875847432061
 21
6.753982052221708
 31
0.0
  0
LINE
  5
2DDB
330
1E
100
AcDbEntity
  8
7
100
AcDbLine
 10
12.15875847432061
 20
6.753982052221708
 30
0.0
 11
12.15482146644659
 21
6.785478115213834
 31
0.0
  0
LINE
  5
2DDC
330
1E
100
AcDbEntity
  8
7
100
AcDbLine
 10
12.15482146644659
 20
6.785478115213834
 30
0.0
 11
12.15482146644659
 21
6.80910016245793
 31
0.0
  0
LINE
  5
2DDD
330
1E
100
AcDbEntity
  8
7
100
AcDbLine
 10
12.15482146644659
 20
6.80910016245793
 30
0.0
 11
12.15088445857258
 21
6.828785201828008
 31
0.0
  0
LINE
  5
2DDE
330
1E
100
AcDbEntity
  8
7
100
AcDbLine
 10
12.15088445857258
 20
6.828785201828008
 30
0.0
 11
12.15088445857258
 21
6.836659217576038
 31
0.0
  0
LINE
  5
2DDF
330
1E
100
AcDbEntity
  8
7
100
AcDbLine
 10
12.19812855306076
 20
6.647682839623282
 30
0.0
 11
12.19419154518675
 21
6.647682839623282
 31
0.0
  0
LINE
  5
2DE0
330
1E
100
AcDbEntity
  8
7
100
AcDbLine
 10
12.19419154518675
 20
6.647682839623282
 30
0.0
 11
12.19419154518675
 21
6.65949386324533
 31
0.0
  0
LINE
  5
2DE1
330
1E
100
AcDbEntity
  8
7
100
AcDbLine
 10
12.19419154518675
 20
6.65949386324533
 30
0.0
 11
12.19419154518675
 21
6.683115910489426
 31
0.0
  0
LINE
  5
2DE2
330
1E
100
AcDbEntity
  8
7
100
AcDbLine
 10
12.19419154518675
 20
6.683115910489426
 30
0.0
 11
12.19025453731273
 21
6.710674965607534
 31
0.0
  0
LINE
  5
2DE3
330
1E
100
AcDbEntity
  8
7
100
AcDbLine
 10
12.19025453731273
 20
6.710674965607534
 30
0.0
 11
12.19025453731273
 21
6.74217102859966
 31
0.0
  0
LINE
  5
2DE4
330
1E
100
AcDbEntity
  8
7
100
AcDbLine
 10
12.19025453731273
 20
6.74217102859966
 30
0.0
 11
12.18631752943872
 21
6.773667091591786
 31
0.0
  0
LINE
  5
2DE5
330
1E
100
AcDbEntity
  8
7
100
AcDbLine
 10
12.18631752943872
 20
6.773667091591786
 30
0.0
 11
12.18631752943872
 21
6.801226146709897
 31
0.0
  0
LINE
  5
2DE6
330
1E
100
AcDbEntity
  8
7
100
AcDbLine
 10
12.18631752943872
 20
6.801226146709897
 30
0.0
 11
12.1823805215647
 21
6.820911186079975
 31
0.0
  0
LINE
  5
2DE7
330
1E
100
AcDbEntity
  8
7
100
AcDbLine
 10
12.22962461605289
 20
6.647682839623282
 30
0.0
 11
12.22568760817888
 21
6.655556855371315
 31
0.0
  0
LINE
  5
2DE8
330
1E
100
AcDbEntity
  8
7
100
AcDbLine
 10
12.22568760817888
 20
6.655556855371315
 30
0.0
 11
12.22568760817888
 21
6.671304886867378
 31
0.0
  0
LINE
  5
2DE9
330
1E
100
AcDbEntity
  8
7
100
AcDbLine
 10
12.22568760817888
 20
6.671304886867378
 30
0.0
 11
12.22175060030486
 21
6.698863941985489
 31
0.0
  0
LINE
  5
2DEA
330
1E
100
AcDbEntity
  8
7
100
AcDbLine
 10
12.22175060030486
 20
6.698863941985489
 30
0.0
 11
12.22175060030486
 21
6.730360004977615
 31
0.0
  0
LINE
  5
2DEB
330
1E
100
AcDbEntity
  8
7
100
AcDbLine
 10
12.22175060030486
 20
6.730360004977615
 30
0.0
 11
12.21781359243084
 21
6.761856067969741
 31
0.0
  0
LINE
  5
2DEC
330
1E
100
AcDbEntity
  8
7
100
AcDbLine
 10
12.21781359243084
 20
6.761856067969741
 30
0.0
 11
12.21781359243084
 21
6.789415123087849
 31
0.0
  0
LINE
  5
2DED
330
1E
100
AcDbEntity
  8
7
100
AcDbLine
 10
12.21781359243084
 20
6.789415123087849
 30
0.0
 11
12.21781359243084
 21
6.813037170331945
 31
0.0
  0
LINE
  5
2DEE
330
1E
100
AcDbEntity
  8
7
100
AcDbLine
 10
12.21781359243084
 20
6.813037170331945
 30
0.0
 11
12.21387658455683
 21
6.832722209702023
 31
0.0
  0
LINE
  5
2DEF
330
1E
100
AcDbEntity
  8
7
100
AcDbLine
 10
12.21387658455683
 20
6.832722209702023
 30
0.0
 11
12.21387658455683
 21
6.836659217576038
 31
0.0
  0
LINE
  5
2DF0
330
1E
100
AcDbEntity
  8
7
100
AcDbLine
 10
12.257183671171
 20
6.647682839623282
 30
0.0
 11
12.257183671171
 21
6.6516198474973
 31
0.0
  0
LINE
  5
2DF1
330
1E
100
AcDbEntity
  8
7
100
AcDbLine
 10
12.257183671171
 20
6.6516198474973
 30
0.0
 11
12.257183671171
 21
6.663430871119345
 31
0.0
  0
LINE
  5
2DF2
330
1E
100
AcDbEntity
  8
7
100
AcDbLine
 10
12.257183671171
 20
6.663430871119345
 30
0.0
 11
12.25324666329698
 21
6.687052918363441
 31
0.0
  0
LINE
  5
2DF3
330
1E
100
AcDbEntity
  8
7
100
AcDbLine
 10
12.25324666329698
 20
6.687052918363441
 30
0.0
 11
12.25324666329698
 21
6.714611973481552
 31
0.0
  0
LINE
  5
2DF4
330
1E
100
AcDbEntity
  8
7
100
AcDbLine
 10
12.25324666329698
 20
6.714611973481552
 30
0.0
 11
12.25324666329698
 21
6.746108036473678
 31
0.0
  0
LINE
  5
2DF5
330
1E
100
AcDbEntity
  8
7
100
AcDbLine
 10
12.25324666329698
 20
6.746108036473678
 30
0.0
 11
12.24930965542297
 21
6.777604099465804
 31
0.0
  0
LINE
  5
2DF6
330
1E
100
AcDbEntity
  8
7
100
AcDbLine
 10
12.24930965542297
 20
6.777604099465804
 30
0.0
 11
12.24930965542297
 21
6.805163154583912
 31
0.0
  0
LINE
  5
2DF7
330
1E
100
AcDbEntity
  8
7
100
AcDbLine
 10
12.24930965542297
 20
6.805163154583912
 30
0.0
 11
12.24537264754895
 21
6.824848193953993
 31
0.0
  0
LINE
  5
2DF8
330
1E
100
AcDbEntity
  8
7
100
AcDbLine
 10
12.24537264754895
 20
6.824848193953993
 30
0.0
 11
12.24537264754895
 21
6.836659217576038
 31
0.0
  0
LINE
  5
2DF9
330
1E
100
AcDbEntity
  8
7
100
AcDbLine
 10
12.29261674203714
 20
6.647682839623282
 30
0.0
 11
12.28867973416313
 21
6.647682839623282
 31
0.0
  0
LINE
  5
2DFA
330
1E
100
AcDbEntity
  8
7
100
AcDbLine
 10
12.28867973416313
 20
6.647682839623282
 30
0.0
 11
12.28867973416313
 21
6.65949386324533
 31
0.0
  0
LINE
  5
2DFB
330
1E
100
AcDbEntity
  8
7
100
AcDbLine
 10
12.28867973416313
 20
6.65949386324533
 30
0.0
 11
12.28867973416313
 21
6.679178902615408
 31
0.0
  0
LINE
  5
2DFC
330
1E
100
AcDbEntity
  8
7
100
AcDbLine
 10
12.28867973416313
 20
6.679178902615408
 30
0.0
 11
12.28474272628911
 21
6.702800949859504
 31
0.0
  0
LINE
  5
2DFD
330
1E
100
AcDbEntity
  8
7
100
AcDbLine
 10
12.28474272628911
 20
6.702800949859504
 30
0.0
 11
12.28474272628911
 21
6.73429701285163
 31
0.0
  0
LINE
  5
2DFE
330
1E
100
AcDbEntity
  8
7
100
AcDbLine
 10
12.28474272628911
 20
6.73429701285163
 30
0.0
 11
12.28080571841509
 21
6.765793075843756
 31
0.0
  0
LINE
  5
2DFF
330
1E
100
AcDbEntity
  8
7
100
AcDbLine
 10
12.28080571841509
 20
6.765793075843756
 30
0.0
 11
12.28080571841509
 21
6.797289138835882
 31
0.0
  0
LINE
  5
2E00
330
1E
100
AcDbEntity
  8
7
100
AcDbLine
 10
12.28080571841509
 20
6.797289138835882
 30
0.0
 11
12.27686871054108
 21
6.81697417820596
 31
0.0
  0
LINE
  5
2E01
330
1E
100
AcDbEntity
  8
7
100
AcDbLine
 10
12.27686871054108
 20
6.81697417820596
 30
0.0
 11
12.27686871054108
 21
6.836659217576038
 31
0.0
  0
LINE
  5
2E02
330
1E
100
AcDbEntity
  8
7
100
AcDbLine
 10
12.27686871054108
 20
6.836659217576038
 30
0.0
 11
12.27293170266706
 21
6.836659217576038
 31
0.0
  0
LINE
  5
2E03
330
1E
100
AcDbEntity
  8
7
100
AcDbLine
 10
12.32017579715525
 20
6.647682839623282
 30
0.0
 11
12.32017579715525
 21
6.6516198474973
 31
0.0
  0
LINE
  5
2E04
330
1E
100
AcDbEntity
  8
7
100
AcDbLine
 10
12.32017579715525
 20
6.6516198474973
 30
0.0
 11
12.32017579715525
 21
6.667367878993363
 31
0.0
  0
LINE
  5
2E05
330
1E
100
AcDbEntity
  8
7
100
AcDbLine
 10
12.32017579715525
 20
6.667367878993363
 30
0.0
 11
12.31623878928123
 21
6.690989926237456
 31
0.0
  0
LINE
  5
2E06
330
1E
100
AcDbEntity
  8
7
100
AcDbLine
 10
12.31623878928123
 20
6.690989926237456
 30
0.0
 11
12.31623878928123
 21
6.722485989229582
 31
0.0
  0
LINE
  5
2E07
330
1E
100
AcDbEntity
  8
7
100
AcDbLine
 10
12.31623878928123
 20
6.722485989229582
 30
0.0
 11
12.31230178140722
 21
6.753982052221708
 31
0.0
  0
LINE
  5
2E08
330
1E
100
AcDbEntity
  8
7
100
AcDbLine
 10
12.31230178140722
 20
6.753982052221708
 30
0.0
 11
12.31230178140722
 21
6.785478115213834
 31
0.0
  0
LINE
  5
2E09
330
1E
100
AcDbEntity
  8
7
100
AcDbLine
 10
12.31230178140722
 20
6.785478115213834
 30
0.0
 11
12.31230178140722
 21
6.80910016245793
 31
0.0
  0
LINE
  5
2E0A
330
1E
100
AcDbEntity
  8
7
100
AcDbLine
 10
12.31230178140722
 20
6.80910016245793
 30
0.0
 11
12.30836477353321
 21
6.828785201828008
 31
0.0
  0
LINE
  5
2E0B
330
1E
100
AcDbEntity
  8
7
100
AcDbLine
 10
12.30836477353321
 20
6.828785201828008
 30
0.0
 11
12.30836477353321
 21
6.836659217576038
 31
0.0
  0
LINE
  5
2E0C
330
1E
100
AcDbEntity
  8
7
100
AcDbLine
 10
12.35167186014738
 20
6.65949386324533
 30
0.0
 11
12.34773485227337
 21
6.683115910489426
 31
0.0
  0
LINE
  5
2E0D
330
1E
100
AcDbEntity
  8
7
100
AcDbLine
 10
12.34773485227337
 20
6.683115910489426
 30
0.0
 11
12.34773485227337
 21
6.710674965607534
 31
0.0
  0
LINE
  5
2E0E
330
1E
100
AcDbEntity
  8
7
100
AcDbLine
 10
12.34773485227337
 20
6.710674965607534
 30
0.0
 11
12.34379784439935
 21
6.74217102859966
 31
0.0
  0
LINE
  5
2E0F
330
1E
100
AcDbEntity
  8
7
100
AcDbLine
 10
12.34379784439935
 20
6.74217102859966
 30
0.0
 11
12.34379784439935
 21
6.773667091591786
 31
0.0
  0
LINE
  5
2E10
330
1E
100
AcDbEntity
  8
7
100
AcDbLine
 10
12.34379784439935
 20
6.773667091591786
 30
0.0
 11
12.34379784439935
 21
6.801226146709897
 31
0.0
  0
LINE
  5
2E11
330
1E
100
AcDbEntity
  8
7
100
AcDbLine
 10
12.34379784439935
 20
6.801226146709897
 30
0.0
 11
12.33986083652533
 21
6.820911186079975
 31
0.0
  0
LINE
  5
2E12
330
1E
100
AcDbEntity
  8
7
100
AcDbLine
 10
12.33986083652533
 20
6.820911186079975
 30
0.0
 11
12.33592382865132
 21
6.836659217576038
 31
0.0
  0
LINE
  5
2E13
330
1E
100
AcDbEntity
  8
7
100
AcDbLine
 10
12.38316792313951
 20
6.647682839623282
 30
0.0
 11
12.38316792313951
 21
6.655556855371315
 31
0.0
  0
LINE
  5
2E14
330
1E
100
AcDbEntity
  8
7
100
AcDbLine
 10
12.38316792313951
 20
6.655556855371315
 30
0.0
 11
12.37923091526549
 21
6.671304886867378
 31
0.0
  0
LINE
  5
2E15
330
1E
100
AcDbEntity
  8
7
100
AcDbLine
 10
12.37923091526549
 20
6.671304886867378
 30
0.0
 11
12.37923091526549
 21
6.698863941985489
 31
0.0
  0
LINE
  5
2E16
330
1E
100
AcDbEntity
  8
7
100
AcDbLine
 10
12.37923091526549
 20
6.698863941985489
 30
0.0
 11
12.37923091526549
 21
6.730360004977615
 31
0.0
  0
LINE
  5
2E17
330
1E
100
AcDbEntity
  8
7
100
AcDbLine
 10
12.37923091526549
 20
6.730360004977615
 30
0.0
 11
12.37529390739147
 21
6.761856067969741
 31
0.0
  0
LINE
  5
2E18
330
1E
100
AcDbEntity
  8
7
100
AcDbLine
 10
12.37529390739147
 20
6.761856067969741
 30
0.0
 11
12.37529390739147
 21
6.789415123087849
 31
0.0
  0
LINE
  5
2E19
330
1E
100
AcDbEntity
  8
7
100
AcDbLine
 10
12.37529390739147
 20
6.789415123087849
 30
0.0
 11
12.37135689951746
 21
6.813037170331945
 31
0.0
  0
LINE
  5
2E1A
330
1E
100
AcDbEntity
  8
7
100
AcDbLine
 10
12.37135689951746
 20
6.813037170331945
 30
0.0
 11
12.37135689951746
 21
6.832722209702023
 31
0.0
  0
LINE
  5
2E1B
330
1E
100
AcDbEntity
  8
7
100
AcDbLine
 10
12.37135689951746
 20
6.832722209702023
 30
0.0
 11
12.36741989164344
 21
6.836659217576038
 31
0.0
  0
LINE
  5
2E1C
330
1E
100
AcDbEntity
  8
7
100
AcDbLine
 10
12.40285296250958
 20
6.824848193953993
 30
0.0
 11
12.40285296250958
 21
6.836659217576038
 31
0.0
  0
LINE
  5
2E1D
330
1E
100
AcDbEntity
  8
7
100
AcDbLine
 10
12.40285296250958
 20
6.836659217576038
 30
0.0
 11
12.39891595463557
 21
6.836659217576038
 31
0.0
  0
LINE
  5
2E1E
330
1E
100
AcDbEntity
  8
7
100
AcDbLine
 10
12.40285296250958
 20
6.824848193953993
 30
0.0
 11
12.40285296250958
 21
6.832722209702023
 31
0.0
  0
LINE
  5
2E1F
330
1E
100
AcDbEntity
  8
7
100
AcDbLine
 10
12.40285296250958
 20
6.832722209702023
 30
0.0
 11
12.40285296250958
 21
6.836659217576038
 31
0.0
  0
LINE
  5
2E20
330
1E
100
AcDbEntity
  8
7
100
AcDbLine
 10
12.40285296250958
 20
6.690989926237456
 30
0.0
 11
12.40285296250958
 21
6.671304886867378
 31
0.0
  0
LINE
  5
2E21
330
1E
100
AcDbEntity
  8
7
100
AcDbLine
 10
12.40285296250958
 20
6.671304886867378
 30
0.0
 11
12.40285296250958
 21
6.663430871119345
 31
0.0
  0
LINE
  5
2E22
330
1E
100
AcDbEntity
  8
7
100
AcDbLine
 10
12.40285296250958
 20
6.690989926237456
 30
0.0
 11
12.40285296250958
 21
6.710674965607534
 31
0.0
  0
LINE
  5
2E23
330
1E
100
AcDbEntity
  8
7
100
AcDbLine
 10
12.40285296250958
 20
6.710674965607534
 30
0.0
 11
12.40285296250958
 21
6.738234020725645
 31
0.0
  0
LINE
  5
2E24
330
1E
100
AcDbEntity
  8
7
100
AcDbLine
 10
12.40285296250958
 20
6.738234020725645
 30
0.0
 11
12.40285296250958
 21
6.765793075843756
 31
0.0
  0
LINE
  5
2E25
330
1E
100
AcDbEntity
  8
7
100
AcDbLine
 10
12.40285296250958
 20
6.765793075843756
 30
0.0
 11
12.40285296250958
 21
6.793352130961867
 31
0.0
  0
LINE
  5
2E26
330
1E
100
AcDbEntity
  8
7
100
AcDbLine
 10
12.40285296250958
 20
6.793352130961867
 30
0.0
 11
12.40285296250958
 21
6.81697417820596
 31
0.0
  0
LINE
  5
2E27
330
1E
100
AcDbEntity
  8
7
100
AcDbLine
 10
12.40285296250958
 20
6.81697417820596
 30
0.0
 11
12.40285296250958
 21
6.824848193953993
 31
0.0
  0
LINE
  5
2E28
330
1E
100
AcDbEntity
  8
7
100
AcDbLine
 10
12.11545138770643
 20
11.16343087111934
 30
0.0
 11
12.11545138770643
 21
11.17130488686737
 31
0.0
  0
LINE
  5
2E29
330
1E
100
AcDbEntity
  8
7
100
AcDbLine
 10
12.11545138770643
 20
11.17130488686737
 30
0.0
 11
12.11151437983242
 21
11.18705291836344
 31
0.0
  0
LINE
  5
2E2A
330
1E
100
AcDbEntity
  8
7
100
AcDbLine
 10
12.11151437983242
 20
11.18705291836344
 30
0.0
 11
12.11151437983242
 21
11.20673795773351
 31
0.0
  0
LINE
  5
2E2B
330
1E
100
AcDbEntity
  8
7
100
AcDbLine
 10
12.11151437983242
 20
11.20673795773351
 30
0.0
 11
12.11151437983242
 21
11.23429701285163
 31
0.0
  0
LINE
  5
2E2C
330
1E
100
AcDbEntity
  8
7
100
AcDbLine
 10
12.11151437983242
 20
11.23429701285163
 30
0.0
 11
12.1075773719584
 21
11.26185606796974
 31
0.0
  0
LINE
  5
2E2D
330
1E
100
AcDbEntity
  8
7
100
AcDbLine
 10
12.1075773719584
 20
11.26185606796974
 30
0.0
 11
12.1075773719584
 21
11.29335213096186
 31
0.0
  0
LINE
  5
2E2E
330
1E
100
AcDbEntity
  8
7
100
AcDbLine
 10
12.14694745069856
 20
11.16343087111934
 30
0.0
 11
12.14694745069856
 21
11.16736787899336
 31
0.0
  0
LINE
  5
2E2F
330
1E
100
AcDbEntity
  8
7
100
AcDbLine
 10
12.14694745069856
 20
11.16736787899336
 30
0.0
 11
12.14694745069856
 21
11.1791789026154
 31
0.0
  0
LINE
  5
2E30
330
1E
100
AcDbEntity
  8
7
100
AcDbLine
 10
12.14694745069856
 20
11.1791789026154
 30
0.0
 11
12.14301044282454
 21
11.19886394198549
 31
0.0
  0
LINE
  5
2E31
330
1E
100
AcDbEntity
  8
7
100
AcDbLine
 10
12.14301044282454
 20
11.19886394198549
 30
0.0
 11
12.14301044282454
 21
11.22248598922958
 31
0.0
  0
LINE
  5
2E32
330
1E
100
AcDbEntity
  8
7
100
AcDbLine
 10
12.14301044282454
 20
11.22248598922958
 30
0.0
 11
12.13907343495053
 21
11.25004504434769
 31
0.0
  0
LINE
  5
2E33
330
1E
100
AcDbEntity
  8
7
100
AcDbLine
 10
12.13907343495053
 20
11.25004504434769
 30
0.0
 11
12.13907343495053
 21
11.2776040994658
 31
0.0
  0
LINE
  5
2E34
330
1E
100
AcDbEntity
  8
7
100
AcDbLine
 10
12.13907343495053
 20
11.2776040994658
 30
0.0
 11
12.13513642707651
 21
11.29728913883588
 31
0.0
  0
LINE
  5
2E35
330
1E
100
AcDbEntity
  8
7
100
AcDbLine
 10
12.13513642707651
 20
11.29728913883588
 30
0.0
 11
12.13513642707651
 21
11.31303717033194
 31
0.0
  0
LINE
  5
2E36
330
1E
100
AcDbEntity
  8
7
100
AcDbLine
 10
12.13513642707651
 20
11.31303717033194
 30
0.0
 11
12.13513642707651
 21
11.32091118607997
 31
0.0
  0
LINE
  5
2E37
330
1E
100
AcDbEntity
  8
7
100
AcDbLine
 10
12.17844351369069
 20
11.16343087111934
 30
0.0
 11
12.17844351369069
 21
11.17130488686737
 31
0.0
  0
LINE
  5
2E38
330
1E
100
AcDbEntity
  8
7
100
AcDbLine
 10
12.17844351369069
 20
11.17130488686737
 30
0.0
 11
12.17450650581667
 21
11.19098992623745
 31
0.0
  0
LINE
  5
2E39
330
1E
100
AcDbEntity
  8
7
100
AcDbLine
 10
12.17450650581667
 20
11.19098992623745
 30
0.0
 11
12.17450650581667
 21
11.21461197348155
 31
0.0
  0
LINE
  5
2E3A
330
1E
100
AcDbEntity
  8
7
100
AcDbLine
 10
12.17450650581667
 20
11.21461197348155
 30
0.0
 11
12.17056949794265
 21
11.23823402072564
 31
0.0
  0
LINE
  5
2E3B
330
1E
100
AcDbEntity
  8
7
100
AcDbLine
 10
12.17056949794265
 20
11.23823402072564
 30
0.0
 11
12.17056949794265
 21
11.26579307584375
 31
0.0
  0
LINE
  5
2E3C
330
1E
100
AcDbEntity
  8
7
100
AcDbLine
 10
12.17056949794265
 20
11.26579307584375
 30
0.0
 11
12.16663249006864
 21
11.28941512308784
 31
0.0
  0
LINE
  5
2E3D
330
1E
100
AcDbEntity
  8
7
100
AcDbLine
 10
12.16663249006864
 20
11.28941512308784
 30
0.0
 11
12.16663249006864
 21
11.30910016245793
 31
0.0
  0
LINE
  5
2E3E
330
1E
100
AcDbEntity
  8
7
100
AcDbLine
 10
12.16663249006864
 20
11.30910016245793
 30
0.0
 11
12.16269548219462
 21
11.32091118607997
 31
0.0
  0
LINE
  5
2E3F
330
1E
100
AcDbEntity
  8
7
100
AcDbLine
 10
12.20993957668281
 20
11.16343087111934
 30
0.0
 11
12.20993957668281
 21
11.16736787899336
 31
0.0
  0
LINE
  5
2E40
330
1E
100
AcDbEntity
  8
7
100
AcDbLine
 10
12.20993957668281
 20
11.16736787899336
 30
0.0
 11
12.2060025688088
 21
11.18311591048942
 31
0.0
  0
LINE
  5
2E41
330
1E
100
AcDbEntity
  8
7
100
AcDbLine
 10
12.2060025688088
 20
11.18311591048942
 30
0.0
 11
12.2060025688088
 21
11.2028009498595
 31
0.0
  0
LINE
  5
2E42
330
1E
100
AcDbEntity
  8
7
100
AcDbLine
 10
12.2060025688088
 20
11.2028009498595
 30
0.0
 11
12.20206556093478
 21
11.22642299710359
 31
0.0
  0
LINE
  5
2E43
330
1E
100
AcDbEntity
  8
7
100
AcDbLine
 10
12.20206556093478
 20
11.22642299710359
 30
0.0
 11
12.20206556093478
 21
11.2539820522217
 31
0.0
  0
LINE
  5
2E44
330
1E
100
AcDbEntity
  8
7
100
AcDbLine
 10
12.20206556093478
 20
11.2539820522217
 30
0.0
 11
12.20206556093478
 21
11.28154110733982
 31
0.0
  0
LINE
  5
2E45
330
1E
100
AcDbEntity
  8
7
100
AcDbLine
 10
12.20206556093478
 20
11.28154110733982
 30
0.0
 11
12.19812855306076
 21
11.30122614670989
 31
0.0
  0
LINE
  5
2E46
330
1E
100
AcDbEntity
  8
7
100
AcDbLine
 10
12.19812855306076
 20
11.30122614670989
 30
0.0
 11
12.19419154518675
 21
11.32091118607997
 31
0.0
  0
LINE
  5
2E47
330
1E
100
AcDbEntity
  8
7
100
AcDbLine
 10
12.24143563967494
 20
11.16343087111934
 30
0.0
 11
12.23749863180092
 21
11.17524189474139
 31
0.0
  0
LINE
  5
2E48
330
1E
100
AcDbEntity
  8
7
100
AcDbLine
 10
12.23749863180092
 20
11.17524189474139
 30
0.0
 11
12.23749863180092
 21
11.19492693411147
 31
0.0
  0
LINE
  5
2E49
330
1E
100
AcDbEntity
  8
7
100
AcDbLine
 10
12.23749863180092
 20
11.19492693411147
 30
0.0
 11
12.23749863180092
 21
11.21854898135556
 31
0.0
  0
LINE
  5
2E4A
330
1E
100
AcDbEntity
  8
7
100
AcDbLine
 10
12.23749863180092
 20
11.21854898135556
 30
0.0
 11
12.23356162392691
 21
11.24217102859966
 31
0.0
  0
LINE
  5
2E4B
330
1E
100
AcDbEntity
  8
7
100
AcDbLine
 10
12.23356162392691
 20
11.24217102859966
 30
0.0
 11
12.23356162392691
 21
11.26973008371777
 31
0.0
  0
LINE
  5
2E4C
330
1E
100
AcDbEntity
  8
7
100
AcDbLine
 10
12.23356162392691
 20
11.26973008371777
 30
0.0
 11
12.22962461605289
 21
11.29335213096186
 31
0.0
  0
LINE
  5
2E4D
330
1E
100
AcDbEntity
  8
7
100
AcDbLine
 10
12.22962461605289
 20
11.29335213096186
 30
0.0
 11
12.22962461605289
 21
11.31303717033194
 31
0.0
  0
LINE
  5
2E4E
330
1E
100
AcDbEntity
  8
7
100
AcDbLine
 10
12.22962461605289
 20
11.31303717033194
 30
0.0
 11
12.22568760817888
 21
11.32091118607997
 31
0.0
  0
LINE
  5
2E4F
330
1E
100
AcDbEntity
  8
7
100
AcDbLine
 10
12.27293170266706
 20
11.16343087111934
 30
0.0
 11
12.27293170266706
 21
11.17130488686737
 31
0.0
  0
LINE
  5
2E50
330
1E
100
AcDbEntity
  8
7
100
AcDbLine
 10
12.27293170266706
 20
11.17130488686737
 30
0.0
 11
12.26899469479305
 21
11.18705291836344
 31
0.0
  0
LINE
  5
2E51
330
1E
100
AcDbEntity
  8
7
100
AcDbLine
 10
12.26899469479305
 20
11.18705291836344
 30
0.0
 11
12.26899469479305
 21
11.20673795773351
 31
0.0
  0
LINE
  5
2E52
330
1E
100
AcDbEntity
  8
7
100
AcDbLine
 10
12.26899469479305
 20
11.20673795773351
 30
0.0
 11
12.26505768691903
 21
11.23429701285163
 31
0.0
  0
LINE
  5
2E53
330
1E
100
AcDbEntity
  8
7
100
AcDbLine
 10
12.26505768691903
 20
11.23429701285163
 30
0.0
 11
12.26505768691903
 21
11.25791906009572
 31
0.0
  0
LINE
  5
2E54
330
1E
100
AcDbEntity
  8
7
100
AcDbLine
 10
12.26505768691903
 20
11.25791906009572
 30
0.0
 11
12.26112067904502
 21
11.28547811521383
 31
0.0
  0
LINE
  5
2E55
330
1E
100
AcDbEntity
  8
7
100
AcDbLine
 10
12.26112067904502
 20
11.28547811521383
 30
0.0
 11
12.26112067904502
 21
11.30516315458391
 31
0.0
  0
LINE
  5
2E56
330
1E
100
AcDbEntity
  8
7
100
AcDbLine
 10
12.26112067904502
 20
11.30516315458391
 30
0.0
 11
12.257183671171
 21
11.32091118607997
 31
0.0
  0
LINE
  5
2E57
330
1E
100
AcDbEntity
  8
7
100
AcDbLine
 10
12.30442776565919
 20
11.16343087111934
 30
0.0
 11
12.30442776565919
 21
11.16736787899336
 31
0.0
  0
LINE
  5
2E58
330
1E
100
AcDbEntity
  8
7
100
AcDbLine
 10
12.30442776565919
 20
11.16736787899336
 30
0.0
 11
12.30049075778517
 21
11.1791789026154
 31
0.0
  0
LINE
  5
2E59
330
1E
100
AcDbEntity
  8
7
100
AcDbLine
 10
12.30049075778517
 20
11.1791789026154
 30
0.0
 11
12.30049075778517
 21
11.19886394198549
 31
0.0
  0
LINE
  5
2E5A
330
1E
100
AcDbEntity
  8
7
100
AcDbLine
 10
12.30049075778517
 20
11.19886394198549
 30
0.0
 11
12.29655374991116
 21
11.22248598922958
 31
0.0
  0
LINE
  5
2E5B
330
1E
100
AcDbEntity
  8
7
100
AcDbLine
 10
12.29655374991116
 20
11.22248598922958
 30
0.0
 11
12.29655374991116
 21
11.25004504434769
 31
0.0
  0
LINE
  5
2E5C
330
1E
100
AcDbEntity
  8
7
100
AcDbLine
 10
12.29655374991116
 20
11.25004504434769
 30
0.0
 11
12.29655374991116
 21
11.27366709159178
 31
0.0
  0
LINE
  5
2E5D
330
1E
100
AcDbEntity
  8
7
100
AcDbLine
 10
12.29655374991116
 20
11.27366709159178
 30
0.0
 11
12.29261674203714
 21
11.29728913883588
 31
0.0
  0
LINE
  5
2E5E
330
1E
100
AcDbEntity
  8
7
100
AcDbLine
 10
12.29261674203714
 20
11.29728913883588
 30
0.0
 11
12.29261674203714
 21
11.31303717033194
 31
0.0
  0
LINE
  5
2E5F
330
1E
100
AcDbEntity
  8
7
100
AcDbLine
 10
12.29261674203714
 20
11.31303717033194
 30
0.0
 11
12.28867973416313
 21
11.32091118607997
 31
0.0
  0
LINE
  5
2E60
330
1E
100
AcDbEntity
  8
7
100
AcDbLine
 10
12.33592382865132
 20
11.16343087111934
 30
0.0
 11
12.3319868207773
 21
11.17130488686737
 31
0.0
  0
LINE
  5
2E61
330
1E
100
AcDbEntity
  8
7
100
AcDbLine
 10
12.3319868207773
 20
11.17130488686737
 30
0.0
 11
12.3319868207773
 21
11.18705291836344
 31
0.0
  0
LINE
  5
2E62
330
1E
100
AcDbEntity
  8
7
100
AcDbLine
 10
12.3319868207773
 20
11.18705291836344
 30
0.0
 11
12.32804981290328
 21
11.21067496560753
 31
0.0
  0
LINE
  5
2E63
330
1E
100
AcDbEntity
  8
7
100
AcDbLine
 10
12.32804981290328
 20
11.21067496560753
 30
0.0
 11
12.32804981290328
 21
11.23823402072564
 31
0.0
  0
LINE
  5
2E64
330
1E
100
AcDbEntity
  8
7
100
AcDbLine
 10
12.32804981290328
 20
11.23823402072564
 30
0.0
 11
12.32804981290328
 21
11.26579307584375
 31
0.0
  0
LINE
  5
2E65
330
1E
100
AcDbEntity
  8
7
100
AcDbLine
 10
12.32804981290328
 20
11.26579307584375
 30
0.0
 11
12.32411280502927
 21
11.28941512308784
 31
0.0
  0
LINE
  5
2E66
330
1E
100
AcDbEntity
  8
7
100
AcDbLine
 10
12.32411280502927
 20
11.28941512308784
 30
0.0
 11
12.32411280502927
 21
11.30910016245793
 31
0.0
  0
LINE
  5
2E67
330
1E
100
AcDbEntity
  8
7
100
AcDbLine
 10
12.32411280502927
 20
11.30910016245793
 30
0.0
 11
12.32017579715525
 21
11.32091118607997
 31
0.0
  0
LINE
  5
2E68
330
1E
100
AcDbEntity
  8
7
100
AcDbLine
 10
12.36741989164344
 20
11.16343087111934
 30
0.0
 11
12.36348288376943
 21
11.16736787899336
 31
0.0
  0
LINE
  5
2E69
330
1E
100
AcDbEntity
  8
7
100
AcDbLine
 10
12.36348288376943
 20
11.16736787899336
 30
0.0
 11
12.36348288376943
 21
11.1791789026154
 31
0.0
  0
LINE
  5
2E6A
330
1E
100
AcDbEntity
  8
7
100
AcDbLine
 10
12.36348288376943
 20
11.1791789026154
 30
0.0
 11
12.36348288376943
 21
11.2028009498595
 31
0.0
  0
LINE
  5
2E6B
330
1E
100
AcDbEntity
  8
7
100
AcDbLine
 10
12.36348288376943
 20
11.2028009498595
 30
0.0
 11
12.35954587589541
 21
11.22642299710359
 31
0.0
  0
LINE
  5
2E6C
330
1E
100
AcDbEntity
  8
7
100
AcDbLine
 10
12.35954587589541
 20
11.22642299710359
 30
0.0
 11
12.35954587589541
 21
11.2539820522217
 31
0.0
  0
LINE
  5
2E6D
330
1E
100
AcDbEntity
  8
7
100
AcDbLine
 10
12.35954587589541
 20
11.2539820522217
 30
0.0
 11
12.35560886802139
 21
11.2776040994658
 31
0.0
  0
LINE
  5
2E6E
330
1E
100
AcDbEntity
  8
7
100
AcDbLine
 10
12.35560886802139
 20
11.2776040994658
 30
0.0
 11
12.35560886802139
 21
11.30122614670989
 31
0.0
  0
LINE
  5
2E6F
330
1E
100
AcDbEntity
  8
7
100
AcDbLine
 10
12.35560886802139
 20
11.30122614670989
 30
0.0
 11
12.35167186014738
 21
11.32091118607997
 31
0.0
  0
LINE
  5
2E70
330
1E
100
AcDbEntity
  8
7
100
AcDbLine
 10
12.39891595463557
 20
11.16343087111934
 30
0.0
 11
12.39497894676155
 21
11.17524189474139
 31
0.0
  0
LINE
  5
2E71
330
1E
100
AcDbEntity
  8
7
100
AcDbLine
 10
12.39497894676155
 20
11.17524189474139
 30
0.0
 11
12.39497894676155
 21
11.19098992623745
 31
0.0
  0
LINE
  5
2E72
330
1E
100
AcDbEntity
  8
7
100
AcDbLine
 10
12.39497894676155
 20
11.19098992623745
 30
0.0
 11
12.39104193888754
 21
11.21461197348155
 31
0.0
  0
LINE
  5
2E73
330
1E
100
AcDbEntity
  8
7
100
AcDbLine
 10
12.39104193888754
 20
11.21461197348155
 30
0.0
 11
12.39104193888754
 21
11.24217102859966
 31
0.0
  0
LINE
  5
2E74
330
1E
100
AcDbEntity
  8
7
100
AcDbLine
 10
12.39104193888754
 20
11.24217102859966
 30
0.0
 11
12.38710493101352
 21
11.26973008371777
 31
0.0
  0
LINE
  5
2E75
330
1E
100
AcDbEntity
  8
7
100
AcDbLine
 10
12.38710493101352
 20
11.26973008371777
 30
0.0
 11
12.38710493101352
 21
11.29335213096186
 31
0.0
  0
LINE
  5
2E76
330
1E
100
AcDbEntity
  8
7
100
AcDbLine
 10
12.38710493101352
 20
11.29335213096186
 30
0.0
 11
12.38710493101352
 21
11.30910016245793
 31
0.0
  0
LINE
  5
2E77
330
1E
100
AcDbEntity
  8
7
100
AcDbLine
 10
12.38710493101352
 20
11.30910016245793
 30
0.0
 11
12.38316792313951
 21
11.32091118607997
 31
0.0
  0
LINE
  5
2E78
330
1E
100
AcDbEntity
  8
7
100
AcDbLine
 10
12.39104193888754
 20
11.32091118607997
 30
0.0
 11
12.39497894676155
 21
11.31303717033194
 31
0.0
  0
LINE
  5
2E79
330
1E
100
AcDbEntity
  8
7
100
AcDbLine
 10
12.39497894676155
 20
11.31303717033194
 30
0.0
 11
12.39497894676155
 21
11.29335213096186
 31
0.0
  0
LINE
  5
2E7A
330
1E
100
AcDbEntity
  8
7
100
AcDbLine
 10
12.39497894676155
 20
11.29335213096186
 30
0.0
 11
12.39891595463557
 21
11.26973008371777
 31
0.0
  0
LINE
  5
2E7B
330
1E
100
AcDbEntity
  8
7
100
AcDbLine
 10
12.39891595463557
 20
11.26973008371777
 30
0.0
 11
12.39891595463557
 21
11.24610803647367
 31
0.0
  0
LINE
  5
2E7C
330
1E
100
AcDbEntity
  8
7
100
AcDbLine
 10
12.39891595463557
 20
11.24610803647367
 30
0.0
 11
12.40285296250958
 21
11.21854898135556
 31
0.0
  0
LINE
  5
2E7D
330
1E
100
AcDbEntity
  8
7
100
AcDbLine
 10
12.40285296250958
 20
11.21854898135556
 30
0.0
 11
12.40285296250958
 21
11.19492693411147
 31
0.0
  0
LINE
  5
2E7E
330
1E
100
AcDbEntity
  8
7
100
AcDbLine
 10
12.40285296250958
 20
11.19492693411147
 30
0.0
 11
12.40285296250958
 21
11.19098992623745
 31
0.0
  0
LINE
  5
2E7F
330
1E
100
AcDbEntity
  8
7
100
AcDbLine
 10
12.35954587589541
 20
11.32091118607997
 30
0.0
 11
12.36348288376943
 21
11.31697417820596
 31
0.0
  0
LINE
  5
2E80
330
1E
100
AcDbEntity
  8
7
100
AcDbLine
 10
12.36348288376943
 20
11.31697417820596
 30
0.0
 11
12.36348288376943
 21
11.30122614670989
 31
0.0
  0
LINE
  5
2E81
330
1E
100
AcDbEntity
  8
7
100
AcDbLine
 10
12.36348288376943
 20
11.30122614670989
 30
0.0
 11
12.36741989164344
 21
11.28154110733982
 31
0.0
  0
LINE
  5
2E82
330
1E
100
AcDbEntity
  8
7
100
AcDbLine
 10
12.36741989164344
 20
11.28154110733982
 30
0.0
 11
12.36741989164344
 21
11.2539820522217
 31
0.0
  0
LINE
  5
2E83
330
1E
100
AcDbEntity
  8
7
100
AcDbLine
 10
12.36741989164344
 20
11.2539820522217
 30
0.0
 11
12.36741989164344
 21
11.23036000497761
 31
0.0
  0
LINE
  5
2E84
330
1E
100
AcDbEntity
  8
7
100
AcDbLine
 10
12.36741989164344
 20
11.23036000497761
 30
0.0
 11
12.37135689951746
 21
11.2028009498595
 31
0.0
  0
LINE
  5
2E85
330
1E
100
AcDbEntity
  8
7
100
AcDbLine
 10
12.37135689951746
 20
11.2028009498595
 30
0.0
 11
12.37135689951746
 21
11.18311591048942
 31
0.0
  0
LINE
  5
2E86
330
1E
100
AcDbEntity
  8
7
100
AcDbLine
 10
12.37135689951746
 20
11.18311591048942
 30
0.0
 11
12.37529390739147
 21
11.16343087111934
 31
0.0
  0
LINE
  5
2E87
330
1E
100
AcDbEntity
  8
7
100
AcDbLine
 10
12.32804981290328
 20
11.32091118607997
 30
0.0
 11
12.3319868207773
 21
11.32091118607997
 31
0.0
  0
LINE
  5
2E88
330
1E
100
AcDbEntity
  8
7
100
AcDbLine
 10
12.3319868207773
 20
11.32091118607997
 30
0.0
 11
12.3319868207773
 21
11.30910016245793
 31
0.0
  0
LINE
  5
2E89
330
1E
100
AcDbEntity
  8
7
100
AcDbLine
 10
12.3319868207773
 20
11.30910016245793
 30
0.0
 11
12.3319868207773
 21
11.28941512308784
 31
0.0
  0
LINE
  5
2E8A
330
1E
100
AcDbEntity
  8
7
100
AcDbLine
 10
12.3319868207773
 20
11.28941512308784
 30
0.0
 11
12.33592382865132
 21
11.26579307584375
 31
0.0
  0
LINE
  5
2E8B
330
1E
100
AcDbEntity
  8
7
100
AcDbLine
 10
12.33592382865132
 20
11.26579307584375
 30
0.0
 11
12.33592382865132
 21
11.23823402072564
 31
0.0
  0
LINE
  5
2E8C
330
1E
100
AcDbEntity
  8
7
100
AcDbLine
 10
12.33592382865132
 20
11.23823402072564
 30
0.0
 11
12.33986083652533
 21
11.21461197348155
 31
0.0
  0
LINE
  5
2E8D
330
1E
100
AcDbEntity
  8
7
100
AcDbLine
 10
12.33986083652533
 20
11.21461197348155
 30
0.0
 11
12.33986083652533
 21
11.19098992623745
 31
0.0
  0
LINE
  5
2E8E
330
1E
100
AcDbEntity
  8
7
100
AcDbLine
 10
12.33986083652533
 20
11.19098992623745
 30
0.0
 11
12.34379784439935
 21
11.17130488686737
 31
0.0
  0
LINE
  5
2E8F
330
1E
100
AcDbEntity
  8
7
100
AcDbLine
 10
12.34379784439935
 20
11.17130488686737
 30
0.0
 11
12.34379784439935
 21
11.16343087111934
 31
0.0
  0
LINE
  5
2E90
330
1E
100
AcDbEntity
  8
7
100
AcDbLine
 10
12.29655374991116
 20
11.32091118607997
 30
0.0
 11
12.30049075778517
 21
11.31303717033194
 31
0.0
  0
LINE
  5
2E91
330
1E
100
AcDbEntity
  8
7
100
AcDbLine
 10
12.30049075778517
 20
11.31303717033194
 30
0.0
 11
12.30049075778517
 21
11.29728913883588
 31
0.0
  0
LINE
  5
2E92
330
1E
100
AcDbEntity
  8
7
100
AcDbLine
 10
12.30049075778517
 20
11.29728913883588
 30
0.0
 11
12.30442776565919
 21
11.2776040994658
 31
0.0
  0
LINE
  5
2E93
330
1E
100
AcDbEntity
  8
7
100
AcDbLine
 10
12.30442776565919
 20
11.2776040994658
 30
0.0
 11
12.30442776565919
 21
11.25004504434769
 31
0.0
  0
LINE
  5
2E94
330
1E
100
AcDbEntity
  8
7
100
AcDbLine
 10
12.30442776565919
 20
11.25004504434769
 30
0.0
 11
12.30836477353321
 21
11.22248598922958
 31
0.0
  0
LINE
  5
2E95
330
1E
100
AcDbEntity
  8
7
100
AcDbLine
 10
12.30836477353321
 20
11.22248598922958
 30
0.0
 11
12.30836477353321
 21
11.19886394198549
 31
0.0
  0
LINE
  5
2E96
330
1E
100
AcDbEntity
  8
7
100
AcDbLine
 10
12.30836477353321
 20
11.19886394198549
 30
0.0
 11
12.30836477353321
 21
11.1791789026154
 31
0.0
  0
LINE
  5
2E97
330
1E
100
AcDbEntity
  8
7
100
AcDbLine
 10
12.30836477353321
 20
11.1791789026154
 30
0.0
 11
12.31230178140722
 21
11.16343087111934
 31
0.0
  0
LINE
  5
2E98
330
1E
100
AcDbEntity
  8
7
100
AcDbLine
 10
12.26899469479305
 20
11.30516315458391
 30
0.0
 11
12.27293170266706
 21
11.28547811521383
 31
0.0
  0
LINE
  5
2E99
330
1E
100
AcDbEntity
  8
7
100
AcDbLine
 10
12.27293170266706
 20
11.28547811521383
 30
0.0
 11
12.27293170266706
 21
11.26185606796974
 31
0.0
  0
LINE
  5
2E9A
330
1E
100
AcDbEntity
  8
7
100
AcDbLine
 10
12.27293170266706
 20
11.26185606796974
 30
0.0
 11
12.27293170266706
 21
11.23429701285163
 31
0.0
  0
LINE
  5
2E9B
330
1E
100
AcDbEntity
  8
7
100
AcDbLine
 10
12.27293170266706
 20
11.23429701285163
 30
0.0
 11
12.27686871054108
 21
11.21067496560753
 31
0.0
  0
LINE
  5
2E9C
330
1E
100
AcDbEntity
  8
7
100
AcDbLine
 10
12.27686871054108
 20
11.21067496560753
 30
0.0
 11
12.27686871054108
 21
11.18705291836344
 31
0.0
  0
LINE
  5
2E9D
330
1E
100
AcDbEntity
  8
7
100
AcDbLine
 10
12.27686871054108
 20
11.18705291836344
 30
0.0
 11
12.28080571841509
 21
11.17130488686737
 31
0.0
  0
LINE
  5
2E9E
330
1E
100
AcDbEntity
  8
7
100
AcDbLine
 10
12.28080571841509
 20
11.17130488686737
 30
0.0
 11
12.28080571841509
 21
11.16343087111934
 31
0.0
  0
LINE
  5
2E9F
330
1E
100
AcDbEntity
  8
7
100
AcDbLine
 10
12.26505768691903
 20
11.32091118607997
 30
0.0
 11
12.26899469479305
 21
11.31697417820596
 31
0.0
  0
LINE
  5
2EA0
330
1E
100
AcDbEntity
  8
7
100
AcDbLine
 10
12.26899469479305
 20
11.31697417820596
 30
0.0
 11
12.26899469479305
 21
11.30516315458391
 31
0.0
  0
LINE
  5
2EA1
330
1E
100
AcDbEntity
  8
7
100
AcDbLine
 10
12.23356162392691
 20
11.32091118607997
 30
0.0
 11
12.23749863180092
 21
11.32091118607997
 31
0.0
  0
LINE
  5
2EA2
330
1E
100
AcDbEntity
  8
7
100
AcDbLine
 10
12.23749863180092
 20
11.32091118607997
 30
0.0
 11
12.23749863180092
 21
11.31303717033194
 31
0.0
  0
LINE
  5
2EA3
330
1E
100
AcDbEntity
  8
7
100
AcDbLine
 10
12.23749863180092
 20
11.31303717033194
 30
0.0
 11
12.24143563967494
 21
11.29335213096186
 31
0.0
  0
LINE
  5
2EA4
330
1E
100
AcDbEntity
  8
7
100
AcDbLine
 10
12.24143563967494
 20
11.29335213096186
 30
0.0
 11
12.24143563967494
 21
11.27366709159178
 31
0.0
  0
LINE
  5
2EA5
330
1E
100
AcDbEntity
  8
7
100
AcDbLine
 10
12.24143563967494
 20
11.27366709159178
 30
0.0
 11
12.24143563967494
 21
11.24610803647367
 31
0.0
  0
LINE
  5
2EA6
330
1E
100
AcDbEntity
  8
7
100
AcDbLine
 10
12.24143563967494
 20
11.24610803647367
 30
0.0
 11
12.24537264754895
 21
11.21854898135556
 31
0.0
  0
LINE
  5
2EA7
330
1E
100
AcDbEntity
  8
7
100
AcDbLine
 10
12.24537264754895
 20
11.21854898135556
 30
0.0
 11
12.24537264754895
 21
11.19492693411147
 31
0.0
  0
LINE
  5
2EA8
330
1E
100
AcDbEntity
  8
7
100
AcDbLine
 10
12.24537264754895
 20
11.19492693411147
 30
0.0
 11
12.24930965542297
 21
11.17524189474139
 31
0.0
  0
LINE
  5
2EA9
330
1E
100
AcDbEntity
  8
7
100
AcDbLine
 10
12.24930965542297
 20
11.17524189474139
 30
0.0
 11
12.24930965542297
 21
11.16343087111934
 31
0.0
  0
LINE
  5
2EAA
330
1E
100
AcDbEntity
  8
7
100
AcDbLine
 10
12.20993957668281
 20
11.25791906009572
 30
0.0
 11
12.21387658455683
 21
11.23036000497761
 31
0.0
  0
LINE
  5
2EAB
330
1E
100
AcDbEntity
  8
7
100
AcDbLine
 10
12.21387658455683
 20
11.23036000497761
 30
0.0
 11
12.21387658455683
 21
11.2028009498595
 31
0.0
  0
LINE
  5
2EAC
330
1E
100
AcDbEntity
  8
7
100
AcDbLine
 10
12.21387658455683
 20
11.2028009498595
 30
0.0
 11
12.21781359243084
 21
11.18311591048942
 31
0.0
  0
LINE
  5
2EAD
330
1E
100
AcDbEntity
  8
7
100
AcDbLine
 10
12.21781359243084
 20
11.18311591048942
 30
0.0
 11
12.21781359243084
 21
11.16343087111934
 31
0.0
  0
LINE
  5
2EAE
330
1E
100
AcDbEntity
  8
7
100
AcDbLine
 10
12.2060025688088
 20
11.32091118607997
 30
0.0
 11
12.2060025688088
 21
11.31697417820596
 31
0.0
  0
LINE
  5
2EAF
330
1E
100
AcDbEntity
  8
7
100
AcDbLine
 10
12.2060025688088
 20
11.31697417820596
 30
0.0
 11
12.2060025688088
 21
11.30122614670989
 31
0.0
  0
LINE
  5
2EB0
330
1E
100
AcDbEntity
  8
7
100
AcDbLine
 10
12.2060025688088
 20
11.30122614670989
 30
0.0
 11
12.20993957668281
 21
11.28154110733982
 31
0.0
  0
LINE
  5
2EB1
330
1E
100
AcDbEntity
  8
7
100
AcDbLine
 10
12.20993957668281
 20
11.28154110733982
 30
0.0
 11
12.20993957668281
 21
11.25791906009572
 31
0.0
  0
LINE
  5
2EB2
330
1E
100
AcDbEntity
  8
7
100
AcDbLine
 10
12.17450650581667
 20
11.32091118607997
 30
0.0
 11
12.17450650581667
 21
11.30910016245793
 31
0.0
  0
LINE
  5
2EB3
330
1E
100
AcDbEntity
  8
7
100
AcDbLine
 10
12.17450650581667
 20
11.30910016245793
 30
0.0
 11
12.17844351369069
 21
11.29335213096186
 31
0.0
  0
LINE
  5
2EB4
330
1E
100
AcDbEntity
  8
7
100
AcDbLine
 10
12.17844351369069
 20
11.29335213096186
 30
0.0
 11
12.17844351369069
 21
11.26973008371777
 31
0.0
  0
LINE
  5
2EB5
330
1E
100
AcDbEntity
  8
7
100
AcDbLine
 10
12.17844351369069
 20
11.26973008371777
 30
0.0
 11
12.1823805215647
 21
11.24217102859966
 31
0.0
  0
LINE
  5
2EB6
330
1E
100
AcDbEntity
  8
7
100
AcDbLine
 10
12.1823805215647
 20
11.24217102859966
 30
0.0
 11
12.1823805215647
 21
11.21461197348155
 31
0.0
  0
LINE
  5
2EB7
330
1E
100
AcDbEntity
  8
7
100
AcDbLine
 10
12.1823805215647
 20
11.21461197348155
 30
0.0
 11
12.1823805215647
 21
11.19098992623745
 31
0.0
  0
LINE
  5
2EB8
330
1E
100
AcDbEntity
  8
7
100
AcDbLine
 10
12.1823805215647
 20
11.19098992623745
 30
0.0
 11
12.18631752943872
 21
11.17524189474139
 31
0.0
  0
LINE
  5
2EB9
330
1E
100
AcDbEntity
  8
7
100
AcDbLine
 10
12.18631752943872
 20
11.17524189474139
 30
0.0
 11
12.18631752943872
 21
11.16343087111934
 31
0.0
  0
LINE
  5
2EBA
330
1E
100
AcDbEntity
  8
7
100
AcDbLine
 10
12.15088445857258
 20
11.22642299710359
 30
0.0
 11
12.15088445857258
 21
11.19886394198549
 31
0.0
  0
LINE
  5
2EBB
330
1E
100
AcDbEntity
  8
7
100
AcDbLine
 10
12.15088445857258
 20
11.19886394198549
 30
0.0
 11
12.15482146644659
 21
11.1791789026154
 31
0.0
  0
LINE
  5
2EBC
330
1E
100
AcDbEntity
  8
7
100
AcDbLine
 10
12.15482146644659
 20
11.1791789026154
 30
0.0
 11
12.15482146644659
 21
11.16343087111934
 31
0.0
  0
LINE
  5
2EBD
330
1E
100
AcDbEntity
  8
7
100
AcDbLine
 10
12.14301044282454
 20
11.32091118607997
 30
0.0
 11
12.14301044282454
 21
11.31303717033194
 31
0.0
  0
LINE
  5
2EBE
330
1E
100
AcDbEntity
  8
7
100
AcDbLine
 10
12.14301044282454
 20
11.31303717033194
 30
0.0
 11
12.14694745069856
 21
11.30122614670989
 31
0.0
  0
LINE
  5
2EBF
330
1E
100
AcDbEntity
  8
7
100
AcDbLine
 10
12.14694745069856
 20
11.30122614670989
 30
0.0
 11
12.14694745069856
 21
11.2776040994658
 31
0.0
  0
LINE
  5
2EC0
330
1E
100
AcDbEntity
  8
7
100
AcDbLine
 10
12.14694745069856
 20
11.2776040994658
 30
0.0
 11
12.14694745069856
 21
11.2539820522217
 31
0.0
  0
LINE
  5
2EC1
330
1E
100
AcDbEntity
  8
7
100
AcDbLine
 10
12.14694745069856
 20
11.2539820522217
 30
0.0
 11
12.15088445857258
 21
11.22642299710359
 31
0.0
  0
LINE
  5
2EC2
330
1E
100
AcDbEntity
  8
7
100
AcDbLine
 10
12.11151437983242
 20
11.32091118607997
 30
0.0
 11
12.11151437983242
 21
11.31697417820596
 31
0.0
  0
LINE
  5
2EC3
330
1E
100
AcDbEntity
  8
7
100
AcDbLine
 10
12.11151437983242
 20
11.31697417820596
 30
0.0
 11
12.11545138770643
 21
11.30516315458391
 31
0.0
  0
LINE
  5
2EC4
330
1E
100
AcDbEntity
  8
7
100
AcDbLine
 10
12.11545138770643
 20
11.30516315458391
 30
0.0
 11
12.11545138770643
 21
11.28941512308784
 31
0.0
  0
LINE
  5
2EC5
330
1E
100
AcDbEntity
  8
7
100
AcDbLine
 10
12.11545138770643
 20
11.28941512308784
 30
0.0
 11
12.11545138770643
 21
11.26185606796974
 31
0.0
  0
LINE
  5
2EC6
330
1E
100
AcDbEntity
  8
7
100
AcDbLine
 10
12.11545138770643
 20
11.26185606796974
 30
0.0
 11
12.11938839558045
 21
11.23823402072564
 31
0.0
  0
LINE
  5
2EC7
330
1E
100
AcDbEntity
  8
7
100
AcDbLine
 10
12.11938839558045
 20
11.23823402072564
 30
0.0
 11
12.11938839558045
 21
11.21067496560753
 31
0.0
  0
LINE
  5
2EC8
330
1E
100
AcDbEntity
  8
7
100
AcDbLine
 10
12.11938839558045
 20
11.21067496560753
 30
0.0
 11
12.12332540345447
 21
11.18705291836344
 31
0.0
  0
LINE
  5
2EC9
330
1E
100
AcDbEntity
  8
7
100
AcDbLine
 10
12.12332540345447
 20
11.18705291836344
 30
0.0
 11
12.12332540345447
 21
11.17130488686737
 31
0.0
  0
LINE
  5
2ECA
330
1E
100
AcDbEntity
  8
7
100
AcDbLine
 10
12.12332540345447
 20
11.17130488686737
 30
0.0
 11
12.12726241132848
 21
11.16343087111934
 31
0.0
  0
LINE
  5
2ECB
330
1E
100
AcDbEntity
  8
7
100
AcDbLine
 10
12.37529390739147
 20
11.33665921757603
 30
0.0
 11
12.37529390739147
 21
11.32484819395399
 31
0.0
  0
LINE
  5
2ECC
330
1E
100
AcDbEntity
  8
7
100
AcDbLine
 10
12.37529390739147
 20
11.32484819395399
 30
0.0
 11
12.37923091526549
 21
11.30516315458391
 31
0.0
  0
LINE
  5
2ECD
330
1E
100
AcDbEntity
  8
7
100
AcDbLine
 10
12.37923091526549
 20
11.30516315458391
 30
0.0
 11
12.37923091526549
 21
11.2776040994658
 31
0.0
  0
LINE
  5
2ECE
330
1E
100
AcDbEntity
  8
7
100
AcDbLine
 10
12.37923091526549
 20
11.2776040994658
 30
0.0
 11
12.38316792313951
 21
11.24610803647367
 31
0.0
  0
LINE
  5
2ECF
330
1E
100
AcDbEntity
  8
7
100
AcDbLine
 10
12.38316792313951
 20
11.24610803647367
 30
0.0
 11
12.38316792313951
 21
11.21461197348155
 31
0.0
  0
LINE
  5
2ED0
330
1E
100
AcDbEntity
  8
7
100
AcDbLine
 10
12.38316792313951
 20
11.21461197348155
 30
0.0
 11
12.38316792313951
 21
11.18705291836344
 31
0.0
  0
LINE
  5
2ED1
330
1E
100
AcDbEntity
  8
7
100
AcDbLine
 10
12.38316792313951
 20
11.18705291836344
 30
0.0
 11
12.38710493101352
 21
11.16343087111934
 31
0.0
  0
LINE
  5
2ED2
330
1E
100
AcDbEntity
  8
7
100
AcDbLine
 10
12.34379784439935
 20
11.33665921757603
 30
0.0
 11
12.34379784439935
 21
11.33272220970202
 31
0.0
  0
LINE
  5
2ED3
330
1E
100
AcDbEntity
  8
7
100
AcDbLine
 10
12.34379784439935
 20
11.33272220970202
 30
0.0
 11
12.34773485227337
 21
11.31303717033194
 31
0.0
  0
LINE
  5
2ED4
330
1E
100
AcDbEntity
  8
7
100
AcDbLine
 10
12.34773485227337
 20
11.31303717033194
 30
0.0
 11
12.34773485227337
 21
11.28941512308784
 31
0.0
  0
LINE
  5
2ED5
330
1E
100
AcDbEntity
  8
7
100
AcDbLine
 10
12.34773485227337
 20
11.28941512308784
 30
0.0
 11
12.34773485227337
 21
11.26185606796974
 31
0.0
  0
LINE
  5
2ED6
330
1E
100
AcDbEntity
  8
7
100
AcDbLine
 10
12.34773485227337
 20
11.26185606796974
 30
0.0
 11
12.35167186014738
 21
11.22642299710359
 31
0.0
  0
LINE
  5
2ED7
330
1E
100
AcDbEntity
  8
7
100
AcDbLine
 10
12.35167186014738
 20
11.22642299710359
 30
0.0
 11
12.35167186014738
 21
11.19886394198549
 31
0.0
  0
LINE
  5
2ED8
330
1E
100
AcDbEntity
  8
7
100
AcDbLine
 10
12.35167186014738
 20
11.19886394198549
 30
0.0
 11
12.35560886802139
 21
11.17130488686737
 31
0.0
  0
LINE
  5
2ED9
330
1E
100
AcDbEntity
  8
7
100
AcDbLine
 10
12.35560886802139
 20
11.17130488686737
 30
0.0
 11
12.35560886802139
 21
11.15555685537131
 31
0.0
  0
LINE
  5
2EDA
330
1E
100
AcDbEntity
  8
7
100
AcDbLine
 10
12.35560886802139
 20
11.15555685537131
 30
0.0
 11
12.35954587589541
 21
11.14768283962328
 31
0.0
  0
LINE
  5
2EDB
330
1E
100
AcDbEntity
  8
7
100
AcDbLine
 10
12.31230178140722
 20
11.33665921757603
 30
0.0
 11
12.31623878928123
 21
11.32091118607997
 31
0.0
  0
LINE
  5
2EDC
330
1E
100
AcDbEntity
  8
7
100
AcDbLine
 10
12.31623878928123
 20
11.32091118607997
 30
0.0
 11
12.31623878928123
 21
11.30122614670989
 31
0.0
  0
LINE
  5
2EDD
330
1E
100
AcDbEntity
  8
7
100
AcDbLine
 10
12.31623878928123
 20
11.30122614670989
 30
0.0
 11
12.31623878928123
 21
11.27366709159178
 31
0.0
  0
LINE
  5
2EDE
330
1E
100
AcDbEntity
  8
7
100
AcDbLine
 10
12.31623878928123
 20
11.27366709159178
 30
0.0
 11
12.32017579715525
 21
11.24217102859966
 31
0.0
  0
LINE
  5
2EDF
330
1E
100
AcDbEntity
  8
7
100
AcDbLine
 10
12.32017579715525
 20
11.24217102859966
 30
0.0
 11
12.32017579715525
 21
11.21067496560753
 31
0.0
  0
LINE
  5
2EE0
330
1E
100
AcDbEntity
  8
7
100
AcDbLine
 10
12.32017579715525
 20
11.21067496560753
 30
0.0
 11
12.32411280502927
 21
11.18311591048942
 31
0.0
  0
LINE
  5
2EE1
330
1E
100
AcDbEntity
  8
7
100
AcDbLine
 10
12.32411280502927
 20
11.18311591048942
 30
0.0
 11
12.32411280502927
 21
11.15949386324533
 31
0.0
  0
LINE
  5
2EE2
330
1E
100
AcDbEntity
  8
7
100
AcDbLine
 10
12.32411280502927
 20
11.15949386324533
 30
0.0
 11
12.32804981290328
 21
11.14768283962328
 31
0.0
  0
LINE
  5
2EE3
330
1E
100
AcDbEntity
  8
7
100
AcDbLine
 10
12.28080571841509
 20
11.33665921757603
 30
0.0
 11
12.28080571841509
 21
11.328785201828
 31
0.0
  0
LINE
  5
2EE4
330
1E
100
AcDbEntity
  8
7
100
AcDbLine
 10
12.28080571841509
 20
11.328785201828
 30
0.0
 11
12.28474272628911
 21
11.30910016245793
 31
0.0
  0
LINE
  5
2EE5
330
1E
100
AcDbEntity
  8
7
100
AcDbLine
 10
12.28474272628911
 20
11.30910016245793
 30
0.0
 11
12.28474272628911
 21
11.28547811521383
 31
0.0
  0
LINE
  5
2EE6
330
1E
100
AcDbEntity
  8
7
100
AcDbLine
 10
12.28474272628911
 20
11.28547811521383
 30
0.0
 11
12.28867973416313
 21
11.2539820522217
 31
0.0
  0
LINE
  5
2EE7
330
1E
100
AcDbEntity
  8
7
100
AcDbLine
 10
12.28867973416313
 20
11.2539820522217
 30
0.0
 11
12.28867973416313
 21
11.22248598922958
 31
0.0
  0
LINE
  5
2EE8
330
1E
100
AcDbEntity
  8
7
100
AcDbLine
 10
12.28867973416313
 20
11.22248598922958
 30
0.0
 11
12.29261674203714
 21
11.19098992623745
 31
0.0
  0
LINE
  5
2EE9
330
1E
100
AcDbEntity
  8
7
100
AcDbLine
 10
12.29261674203714
 20
11.19098992623745
 30
0.0
 11
12.29261674203714
 21
11.16736787899336
 31
0.0
  0
LINE
  5
2EEA
330
1E
100
AcDbEntity
  8
7
100
AcDbLine
 10
12.29261674203714
 20
11.16736787899336
 30
0.0
 11
12.29261674203714
 21
11.1516198474973
 31
0.0
  0
LINE
  5
2EEB
330
1E
100
AcDbEntity
  8
7
100
AcDbLine
 10
12.29261674203714
 20
11.1516198474973
 30
0.0
 11
12.29655374991116
 21
11.14768283962328
 31
0.0
  0
LINE
  5
2EEC
330
1E
100
AcDbEntity
  8
7
100
AcDbLine
 10
12.24930965542297
 20
11.33665921757603
 30
0.0
 11
12.24930965542297
 21
11.33272220970202
 31
0.0
  0
LINE
  5
2EED
330
1E
100
AcDbEntity
  8
7
100
AcDbLine
 10
12.24930965542297
 20
11.33272220970202
 30
0.0
 11
12.25324666329698
 21
11.31697417820596
 31
0.0
  0
LINE
  5
2EEE
330
1E
100
AcDbEntity
  8
7
100
AcDbLine
 10
12.25324666329698
 20
11.31697417820596
 30
0.0
 11
12.25324666329698
 21
11.29728913883588
 31
0.0
  0
LINE
  5
2EEF
330
1E
100
AcDbEntity
  8
7
100
AcDbLine
 10
12.25324666329698
 20
11.29728913883588
 30
0.0
 11
12.257183671171
 21
11.26579307584375
 31
0.0
  0
LINE
  5
2EF0
330
1E
100
AcDbEntity
  8
7
100
AcDbLine
 10
12.257183671171
 20
11.26579307584375
 30
0.0
 11
12.257183671171
 21
11.23429701285163
 31
0.0
  0
LINE
  5
2EF1
330
1E
100
AcDbEntity
  8
7
100
AcDbLine
 10
12.257183671171
 20
11.23429701285163
 30
0.0
 11
12.257183671171
 21
11.2028009498595
 31
0.0
  0
LINE
  5
2EF2
330
1E
100
AcDbEntity
  8
7
100
AcDbLine
 10
12.257183671171
 20
11.2028009498595
 30
0.0
 11
12.26112067904502
 21
11.17524189474139
 31
0.0
  0
LINE
  5
2EF3
330
1E
100
AcDbEntity
  8
7
100
AcDbLine
 10
12.26112067904502
 20
11.17524189474139
 30
0.0
 11
12.26112067904502
 21
11.15949386324533
 31
0.0
  0
LINE
  5
2EF4
330
1E
100
AcDbEntity
  8
7
100
AcDbLine
 10
12.26112067904502
 20
11.15949386324533
 30
0.0
 11
12.26505768691903
 21
11.14768283962328
 31
0.0
  0
LINE
  5
2EF5
330
1E
100
AcDbEntity
  8
7
100
AcDbLine
 10
12.22175060030486
 20
11.30516315458391
 30
0.0
 11
12.22175060030486
 21
11.2776040994658
 31
0.0
  0
LINE
  5
2EF6
330
1E
100
AcDbEntity
  8
7
100
AcDbLine
 10
12.22175060030486
 20
11.2776040994658
 30
0.0
 11
12.22568760817888
 21
11.24610803647367
 31
0.0
  0
LINE
  5
2EF7
330
1E
100
AcDbEntity
  8
7
100
AcDbLine
 10
12.22568760817888
 20
11.24610803647367
 30
0.0
 11
12.22568760817888
 21
11.21461197348155
 31
0.0
  0
LINE
  5
2EF8
330
1E
100
AcDbEntity
  8
7
100
AcDbLine
 10
12.22568760817888
 20
11.21461197348155
 30
0.0
 11
12.22962461605289
 21
11.18705291836344
 31
0.0
  0
LINE
  5
2EF9
330
1E
100
AcDbEntity
  8
7
100
AcDbLine
 10
12.22962461605289
 20
11.18705291836344
 30
0.0
 11
12.22962461605289
 21
11.16343087111934
 31
0.0
  0
LINE
  5
2EFA
330
1E
100
AcDbEntity
  8
7
100
AcDbLine
 10
12.22962461605289
 20
11.16343087111934
 30
0.0
 11
12.23356162392691
 21
11.14768283962328
 31
0.0
  0
LINE
  5
2EFB
330
1E
100
AcDbEntity
  8
7
100
AcDbLine
 10
12.21781359243084
 20
11.33665921757603
 30
0.0
 11
12.22175060030486
 21
11.32484819395399
 31
0.0
  0
LINE
  5
2EFC
330
1E
100
AcDbEntity
  8
7
100
AcDbLine
 10
12.22175060030486
 20
11.32484819395399
 30
0.0
 11
12.22175060030486
 21
11.30516315458391
 31
0.0
  0
LINE
  5
2EFD
330
1E
100
AcDbEntity
  8
7
100
AcDbLine
 10
12.18631752943872
 20
11.33665921757603
 30
0.0
 11
12.19025453731273
 21
11.33272220970202
 31
0.0
  0
LINE
  5
2EFE
330
1E
100
AcDbEntity
  8
7
100
AcDbLine
 10
12.19025453731273
 20
11.33272220970202
 30
0.0
 11
12.19025453731273
 21
11.31303717033194
 31
0.0
  0
LINE
  5
2EFF
330
1E
100
AcDbEntity
  8
7
100
AcDbLine
 10
12.19025453731273
 20
11.31303717033194
 30
0.0
 11
12.19025453731273
 21
11.28941512308784
 31
0.0
  0
LINE
  5
2F00
330
1E
100
AcDbEntity
  8
7
100
AcDbLine
 10
12.19025453731273
 20
11.28941512308784
 30
0.0
 11
12.19419154518675
 21
11.26185606796974
 31
0.0
  0
LINE
  5
2F01
330
1E
100
AcDbEntity
  8
7
100
AcDbLine
 10
12.19419154518675
 20
11.26185606796974
 30
0.0
 11
12.19419154518675
 21
11.22642299710359
 31
0.0
  0
LINE
  5
2F02
330
1E
100
AcDbEntity
  8
7
100
AcDbLine
 10
12.19419154518675
 20
11.22642299710359
 30
0.0
 11
12.19812855306076
 21
11.19886394198549
 31
0.0
  0
LINE
  5
2F03
330
1E
100
AcDbEntity
  8
7
100
AcDbLine
 10
12.19812855306076
 20
11.19886394198549
 30
0.0
 11
12.19812855306076
 21
11.17130488686737
 31
0.0
  0
LINE
  5
2F04
330
1E
100
AcDbEntity
  8
7
100
AcDbLine
 10
12.19812855306076
 20
11.17130488686737
 30
0.0
 11
12.19812855306076
 21
11.15555685537131
 31
0.0
  0
LINE
  5
2F05
330
1E
100
AcDbEntity
  8
7
100
AcDbLine
 10
12.19812855306076
 20
11.15555685537131
 30
0.0
 11
12.20206556093478
 21
11.14768283962328
 31
0.0
  0
LINE
  5
2F06
330
1E
100
AcDbEntity
  8
7
100
AcDbLine
 10
12.16269548219462
 20
11.24217102859966
 30
0.0
 11
12.16663249006864
 21
11.21067496560753
 31
0.0
  0
LINE
  5
2F07
330
1E
100
AcDbEntity
  8
7
100
AcDbLine
 10
12.16663249006864
 20
11.21067496560753
 30
0.0
 11
12.16663249006864
 21
11.18311591048942
 31
0.0
  0
LINE
  5
2F08
330
1E
100
AcDbEntity
  8
7
100
AcDbLine
 10
12.16663249006864
 20
11.18311591048942
 30
0.0
 11
12.16663249006864
 21
11.15949386324533
 31
0.0
  0
LINE
  5
2F09
330
1E
100
AcDbEntity
  8
7
100
AcDbLine
 10
12.16663249006864
 20
11.15949386324533
 30
0.0
 11
12.17056949794265
 21
11.14768283962328
 31
0.0
  0
LINE
  5
2F0A
330
1E
100
AcDbEntity
  8
7
100
AcDbLine
 10
12.15482146644659
 20
11.33665921757603
 30
0.0
 11
12.15875847432061
 21
11.32091118607997
 31
0.0
  0
LINE
  5
2F0B
330
1E
100
AcDbEntity
  8
7
100
AcDbLine
 10
12.15875847432061
 20
11.32091118607997
 30
0.0
 11
12.15875847432061
 21
11.30122614670989
 31
0.0
  0
LINE
  5
2F0C
330
1E
100
AcDbEntity
  8
7
100
AcDbLine
 10
12.15875847432061
 20
11.30122614670989
 30
0.0
 11
12.16269548219462
 21
11.27366709159178
 31
0.0
  0
LINE
  5
2F0D
330
1E
100
AcDbEntity
  8
7
100
AcDbLine
 10
12.16269548219462
 20
11.27366709159178
 30
0.0
 11
12.16269548219462
 21
11.24217102859966
 31
0.0
  0
LINE
  5
2F0E
330
1E
100
AcDbEntity
  8
7
100
AcDbLine
 10
12.12332540345447
 20
11.33665921757603
 30
0.0
 11
12.12726241132848
 21
11.328785201828
 31
0.0
  0
LINE
  5
2F0F
330
1E
100
AcDbEntity
  8
7
100
AcDbLine
 10
12.12726241132848
 20
11.328785201828
 30
0.0
 11
12.12726241132848
 21
11.30910016245793
 31
0.0
  0
LINE
  5
2F10
330
1E
100
AcDbEntity
  8
7
100
AcDbLine
 10
12.12726241132848
 20
11.30910016245793
 30
0.0
 11
12.1311994192025
 21
11.28547811521383
 31
0.0
  0
LINE
  5
2F11
330
1E
100
AcDbEntity
  8
7
100
AcDbLine
 10
12.1311994192025
 20
11.28547811521383
 30
0.0
 11
12.1311994192025
 21
11.2539820522217
 31
0.0
  0
LINE
  5
2F12
330
1E
100
AcDbEntity
  8
7
100
AcDbLine
 10
12.1311994192025
 20
11.2539820522217
 30
0.0
 11
12.1311994192025
 21
11.22248598922958
 31
0.0
  0
LINE
  5
2F13
330
1E
100
AcDbEntity
  8
7
100
AcDbLine
 10
12.1311994192025
 20
11.22248598922958
 30
0.0
 11
12.13513642707651
 21
11.19098992623745
 31
0.0
  0
LINE
  5
2F14
330
1E
100
AcDbEntity
  8
7
100
AcDbLine
 10
12.13513642707651
 20
11.19098992623745
 30
0.0
 11
12.13513642707651
 21
11.16736787899336
 31
0.0
  0
LINE
  5
2F15
330
1E
100
AcDbEntity
  8
7
100
AcDbLine
 10
12.13513642707651
 20
11.16736787899336
 30
0.0
 11
12.13907343495053
 21
11.1516198474973
 31
0.0
  0
LINE
  5
2F16
330
1E
100
AcDbEntity
  8
7
100
AcDbLine
 10
12.13907343495053
 20
11.1516198474973
 30
0.0
 11
12.13907343495053
 21
11.14768283962328
 31
0.0
  0
LINE
  5
2F17
330
1E
100
AcDbEntity
  8
7
100
AcDbLine
 10
12.13513642707651
 20
11.14768283962328
 30
0.0
 11
12.1311994192025
 21
11.15949386324533
 31
0.0
  0
LINE
  5
2F18
330
1E
100
AcDbEntity
  8
7
100
AcDbLine
 10
12.1311994192025
 20
11.15949386324533
 30
0.0
 11
12.1311994192025
 21
11.1791789026154
 31
0.0
  0
LINE
  5
2F19
330
1E
100
AcDbEntity
  8
7
100
AcDbLine
 10
12.1311994192025
 20
11.1791789026154
 30
0.0
 11
12.12726241132848
 21
11.2028009498595
 31
0.0
  0
LINE
  5
2F1A
330
1E
100
AcDbEntity
  8
7
100
AcDbLine
 10
12.12726241132848
 20
11.2028009498595
 30
0.0
 11
12.12726241132848
 21
11.23429701285163
 31
0.0
  0
LINE
  5
2F1B
330
1E
100
AcDbEntity
  8
7
100
AcDbLine
 10
12.12726241132848
 20
11.23429701285163
 30
0.0
 11
12.12726241132848
 21
11.26579307584375
 31
0.0
  0
LINE
  5
2F1C
330
1E
100
AcDbEntity
  8
7
100
AcDbLine
 10
12.12726241132848
 20
11.26579307584375
 30
0.0
 11
12.12332540345447
 21
11.29728913883588
 31
0.0
  0
LINE
  5
2F1D
330
1E
100
AcDbEntity
  8
7
100
AcDbLine
 10
12.12332540345447
 20
11.29728913883588
 30
0.0
 11
12.12332540345447
 21
11.32091118607997
 31
0.0
  0
LINE
  5
2F1E
330
1E
100
AcDbEntity
  8
7
100
AcDbLine
 10
12.12332540345447
 20
11.32091118607997
 30
0.0
 11
12.11938839558045
 21
11.33665921757603
 31
0.0
  0
LINE
  5
2F1F
330
1E
100
AcDbEntity
  8
7
100
AcDbLine
 10
12.16663249006864
 20
11.14768283962328
 30
0.0
 11
12.16269548219462
 21
11.1516198474973
 31
0.0
  0
LINE
  5
2F20
330
1E
100
AcDbEntity
  8
7
100
AcDbLine
 10
12.16269548219462
 20
11.1516198474973
 30
0.0
 11
12.16269548219462
 21
11.16736787899336
 31
0.0
  0
LINE
  5
2F21
330
1E
100
AcDbEntity
  8
7
100
AcDbLine
 10
12.16269548219462
 20
11.16736787899336
 30
0.0
 11
12.16269548219462
 21
11.19098992623745
 31
0.0
  0
LINE
  5
2F22
330
1E
100
AcDbEntity
  8
7
100
AcDbLine
 10
12.16269548219462
 20
11.19098992623745
 30
0.0
 11
12.15875847432061
 21
11.22248598922958
 31
0.0
  0
LINE
  5
2F23
330
1E
100
AcDbEntity
  8
7
100
AcDbLine
 10
12.15875847432061
 20
11.22248598922958
 30
0.0
 11
12.15875847432061
 21
11.2539820522217
 31
0.0
  0
LINE
  5
2F24
330
1E
100
AcDbEntity
  8
7
100
AcDbLine
 10
12.15875847432061
 20
11.2539820522217
 30
0.0
 11
12.15482146644659
 21
11.28547811521383
 31
0.0
  0
LINE
  5
2F25
330
1E
100
AcDbEntity
  8
7
100
AcDbLine
 10
12.15482146644659
 20
11.28547811521383
 30
0.0
 11
12.15482146644659
 21
11.30910016245793
 31
0.0
  0
LINE
  5
2F26
330
1E
100
AcDbEntity
  8
7
100
AcDbLine
 10
12.15482146644659
 20
11.30910016245793
 30
0.0
 11
12.15088445857258
 21
11.328785201828
 31
0.0
  0
LINE
  5
2F27
330
1E
100
AcDbEntity
  8
7
100
AcDbLine
 10
12.15088445857258
 20
11.328785201828
 30
0.0
 11
12.15088445857258
 21
11.33665921757603
 31
0.0
  0
LINE
  5
2F28
330
1E
100
AcDbEntity
  8
7
100
AcDbLine
 10
12.19812855306076
 20
11.14768283962328
 30
0.0
 11
12.19419154518675
 21
11.14768283962328
 31
0.0
  0
LINE
  5
2F29
330
1E
100
AcDbEntity
  8
7
100
AcDbLine
 10
12.19419154518675
 20
11.14768283962328
 30
0.0
 11
12.19419154518675
 21
11.15949386324533
 31
0.0
  0
LINE
  5
2F2A
330
1E
100
AcDbEntity
  8
7
100
AcDbLine
 10
12.19419154518675
 20
11.15949386324533
 30
0.0
 11
12.19419154518675
 21
11.18311591048942
 31
0.0
  0
LINE
  5
2F2B
330
1E
100
AcDbEntity
  8
7
100
AcDbLine
 10
12.19419154518675
 20
11.18311591048942
 30
0.0
 11
12.19025453731273
 21
11.21067496560753
 31
0.0
  0
LINE
  5
2F2C
330
1E
100
AcDbEntity
  8
7
100
AcDbLine
 10
12.19025453731273
 20
11.21067496560753
 30
0.0
 11
12.19025453731273
 21
11.24217102859966
 31
0.0
  0
LINE
  5
2F2D
330
1E
100
AcDbEntity
  8
7
100
AcDbLine
 10
12.19025453731273
 20
11.24217102859966
 30
0.0
 11
12.18631752943872
 21
11.27366709159178
 31
0.0
  0
LINE
  5
2F2E
330
1E
100
AcDbEntity
  8
7
100
AcDbLine
 10
12.18631752943872
 20
11.27366709159178
 30
0.0
 11
12.18631752943872
 21
11.30122614670989
 31
0.0
  0
LINE
  5
2F2F
330
1E
100
AcDbEntity
  8
7
100
AcDbLine
 10
12.18631752943872
 20
11.30122614670989
 30
0.0
 11
12.1823805215647
 21
11.32091118607997
 31
0.0
  0
LINE
  5
2F30
330
1E
100
AcDbEntity
  8
7
100
AcDbLine
 10
12.1823805215647
 20
11.32091118607997
 30
0.0
 11
12.1823805215647
 21
11.33665921757603
 31
0.0
  0
LINE
  5
2F31
330
1E
100
AcDbEntity
  8
7
100
AcDbLine
 10
12.22568760817888
 20
11.15555685537131
 30
0.0
 11
12.22568760817888
 21
11.17130488686737
 31
0.0
  0
LINE
  5
2F32
330
1E
100
AcDbEntity
  8
7
100
AcDbLine
 10
12.22568760817888
 20
11.17130488686737
 30
0.0
 11
12.22175060030486
 21
11.19886394198549
 31
0.0
  0
LINE
  5
2F33
330
1E
100
AcDbEntity
  8
7
100
AcDbLine
 10
12.22175060030486
 20
11.19886394198549
 30
0.0
 11
12.22175060030486
 21
11.23036000497761
 31
0.0
  0
LINE
  5
2F34
330
1E
100
AcDbEntity
  8
7
100
AcDbLine
 10
12.22175060030486
 20
11.23036000497761
 30
0.0
 11
12.21781359243084
 21
11.26185606796974
 31
0.0
  0
LINE
  5
2F35
330
1E
100
AcDbEntity
  8
7
100
AcDbLine
 10
12.21781359243084
 20
11.26185606796974
 30
0.0
 11
12.21781359243084
 21
11.28941512308784
 31
0.0
  0
LINE
  5
2F36
330
1E
100
AcDbEntity
  8
7
100
AcDbLine
 10
12.21781359243084
 20
11.28941512308784
 30
0.0
 11
12.21781359243084
 21
11.31303717033194
 31
0.0
  0
LINE
  5
2F37
330
1E
100
AcDbEntity
  8
7
100
AcDbLine
 10
12.21781359243084
 20
11.31303717033194
 30
0.0
 11
12.21387658455683
 21
11.33272220970202
 31
0.0
  0
LINE
  5
2F38
330
1E
100
AcDbEntity
  8
7
100
AcDbLine
 10
12.21387658455683
 20
11.33272220970202
 30
0.0
 11
12.21387658455683
 21
11.33665921757603
 31
0.0
  0
LINE
  5
2F39
330
1E
100
AcDbEntity
  8
7
100
AcDbLine
 10
12.257183671171
 20
11.14768283962328
 30
0.0
 11
12.257183671171
 21
11.1516198474973
 31
0.0
  0
LINE
  5
2F3A
330
1E
100
AcDbEntity
  8
7
100
AcDbLine
 10
12.257183671171
 20
11.1516198474973
 30
0.0
 11
12.257183671171
 21
11.16343087111934
 31
0.0
  0
LINE
  5
2F3B
330
1E
100
AcDbEntity
  8
7
100
AcDbLine
 10
12.257183671171
 20
11.16343087111934
 30
0.0
 11
12.25324666329698
 21
11.18705291836344
 31
0.0
  0
LINE
  5
2F3C
330
1E
100
AcDbEntity
  8
7
100
AcDbLine
 10
12.25324666329698
 20
11.18705291836344
 30
0.0
 11
12.25324666329698
 21
11.21461197348155
 31
0.0
  0
LINE
  5
2F3D
330
1E
100
AcDbEntity
  8
7
100
AcDbLine
 10
12.25324666329698
 20
11.21461197348155
 30
0.0
 11
12.25324666329698
 21
11.24610803647367
 31
0.0
  0
LINE
  5
2F3E
330
1E
100
AcDbEntity
  8
7
100
AcDbLine
 10
12.25324666329698
 20
11.24610803647367
 30
0.0
 11
12.24930965542297
 21
11.2776040994658
 31
0.0
  0
LINE
  5
2F3F
330
1E
100
AcDbEntity
  8
7
100
AcDbLine
 10
12.24930965542297
 20
11.2776040994658
 30
0.0
 11
12.24930965542297
 21
11.30516315458391
 31
0.0
  0
LINE
  5
2F40
330
1E
100
AcDbEntity
  8
7
100
AcDbLine
 10
12.24930965542297
 20
11.30516315458391
 30
0.0
 11
12.24537264754895
 21
11.32484819395399
 31
0.0
  0
LINE
  5
2F41
330
1E
100
AcDbEntity
  8
7
100
AcDbLine
 10
12.24537264754895
 20
11.32484819395399
 30
0.0
 11
12.24537264754895
 21
11.33665921757603
 31
0.0
  0
LINE
  5
2F42
330
1E
100
AcDbEntity
  8
7
100
AcDbLine
 10
12.28474272628911
 20
11.2028009498595
 30
0.0
 11
12.28474272628911
 21
11.23429701285163
 31
0.0
  0
LINE
  5
2F43
330
1E
100
AcDbEntity
  8
7
100
AcDbLine
 10
12.28474272628911
 20
11.23429701285163
 30
0.0
 11
12.28080571841509
 21
11.26579307584375
 31
0.0
  0
LINE
  5
2F44
330
1E
100
AcDbEntity
  8
7
100
AcDbLine
 10
12.28080571841509
 20
11.26579307584375
 30
0.0
 11
12.28080571841509
 21
11.29728913883588
 31
0.0
  0
LINE
  5
2F45
330
1E
100
AcDbEntity
  8
7
100
AcDbLine
 10
12.28080571841509
 20
11.29728913883588
 30
0.0
 11
12.27686871054108
 21
11.31697417820596
 31
0.0
  0
LINE
  5
2F46
330
1E
100
AcDbEntity
  8
7
100
AcDbLine
 10
12.27686871054108
 20
11.31697417820596
 30
0.0
 11
12.27686871054108
 21
11.33665921757603
 31
0.0
  0
LINE
  5
2F47
330
1E
100
AcDbEntity
  8
7
100
AcDbLine
 10
12.27686871054108
 20
11.33665921757603
 30
0.0
 11
12.27293170266706
 21
11.33665921757603
 31
0.0
  0
LINE
  5
2F48
330
1E
100
AcDbEntity
  8
7
100
AcDbLine
 10
12.29261674203714
 20
11.14768283962328
 30
0.0
 11
12.28867973416313
 21
11.14768283962328
 31
0.0
  0
LINE
  5
2F49
330
1E
100
AcDbEntity
  8
7
100
AcDbLine
 10
12.28867973416313
 20
11.14768283962328
 30
0.0
 11
12.28867973416313
 21
11.15949386324533
 31
0.0
  0
LINE
  5
2F4A
330
1E
100
AcDbEntity
  8
7
100
AcDbLine
 10
12.28867973416313
 20
11.15949386324533
 30
0.0
 11
12.28867973416313
 21
11.1791789026154
 31
0.0
  0
LINE
  5
2F4B
330
1E
100
AcDbEntity
  8
7
100
AcDbLine
 10
12.28867973416313
 20
11.1791789026154
 30
0.0
 11
12.28474272628911
 21
11.2028009498595
 31
0.0
  0
LINE
  5
2F4C
330
1E
100
AcDbEntity
  8
7
100
AcDbLine
 10
12.32017579715525
 20
11.14768283962328
 30
0.0
 11
12.32017579715525
 21
11.1516198474973
 31
0.0
  0
LINE
  5
2F4D
330
1E
100
AcDbEntity
  8
7
100
AcDbLine
 10
12.32017579715525
 20
11.1516198474973
 30
0.0
 11
12.32017579715525
 21
11.16736787899336
 31
0.0
  0
LINE
  5
2F4E
330
1E
100
AcDbEntity
  8
7
100
AcDbLine
 10
12.32017579715525
 20
11.16736787899336
 30
0.0
 11
12.31623878928123
 21
11.19098992623745
 31
0.0
  0
LINE
  5
2F4F
330
1E
100
AcDbEntity
  8
7
100
AcDbLine
 10
12.31623878928123
 20
11.19098992623745
 30
0.0
 11
12.31623878928123
 21
11.22248598922958
 31
0.0
  0
LINE
  5
2F50
330
1E
100
AcDbEntity
  8
7
100
AcDbLine
 10
12.31623878928123
 20
11.22248598922958
 30
0.0
 11
12.31230178140722
 21
11.2539820522217
 31
0.0
  0
LINE
  5
2F51
330
1E
100
AcDbEntity
  8
7
100
AcDbLine
 10
12.31230178140722
 20
11.2539820522217
 30
0.0
 11
12.31230178140722
 21
11.28547811521383
 31
0.0
  0
LINE
  5
2F52
330
1E
100
AcDbEntity
  8
7
100
AcDbLine
 10
12.31230178140722
 20
11.28547811521383
 30
0.0
 11
12.31230178140722
 21
11.30910016245793
 31
0.0
  0
LINE
  5
2F53
330
1E
100
AcDbEntity
  8
7
100
AcDbLine
 10
12.31230178140722
 20
11.30910016245793
 30
0.0
 11
12.30836477353321
 21
11.328785201828
 31
0.0
  0
LINE
  5
2F54
330
1E
100
AcDbEntity
  8
7
100
AcDbLine
 10
12.30836477353321
 20
11.328785201828
 30
0.0
 11
12.30836477353321
 21
11.33665921757603
 31
0.0
  0
LINE
  5
2F55
330
1E
100
AcDbEntity
  8
7
100
AcDbLine
 10
12.34379784439935
 20
11.27366709159178
 30
0.0
 11
12.34379784439935
 21
11.30122614670989
 31
0.0
  0
LINE
  5
2F56
330
1E
100
AcDbEntity
  8
7
100
AcDbLine
 10
12.34379784439935
 20
11.30122614670989
 30
0.0
 11
12.33986083652533
 21
11.32091118607997
 31
0.0
  0
LINE
  5
2F57
330
1E
100
AcDbEntity
  8
7
100
AcDbLine
 10
12.33986083652533
 20
11.32091118607997
 30
0.0
 11
12.33592382865132
 21
11.33665921757603
 31
0.0
  0
LINE
  5
2F58
330
1E
100
AcDbEntity
  8
7
100
AcDbLine
 10
12.35167186014738
 20
11.14768283962328
 30
0.0
 11
12.35167186014738
 21
11.15949386324533
 31
0.0
  0
LINE
  5
2F59
330
1E
100
AcDbEntity
  8
7
100
AcDbLine
 10
12.35167186014738
 20
11.15949386324533
 30
0.0
 11
12.34773485227337
 21
11.18311591048942
 31
0.0
  0
LINE
  5
2F5A
330
1E
100
AcDbEntity
  8
7
100
AcDbLine
 10
12.34773485227337
 20
11.18311591048942
 30
0.0
 11
12.34773485227337
 21
11.21067496560753
 31
0.0
  0
LINE
  5
2F5B
330
1E
100
AcDbEntity
  8
7
100
AcDbLine
 10
12.34773485227337
 20
11.21067496560753
 30
0.0
 11
12.34379784439935
 21
11.24217102859966
 31
0.0
  0
LINE
  5
2F5C
330
1E
100
AcDbEntity
  8
7
100
AcDbLine
 10
12.34379784439935
 20
11.24217102859966
 30
0.0
 11
12.34379784439935
 21
11.27366709159178
 31
0.0
  0
LINE
  5
2F5D
330
1E
100
AcDbEntity
  8
7
100
AcDbLine
 10
12.38316792313951
 20
11.14768283962328
 30
0.0
 11
12.38316792313951
 21
11.15555685537131
 31
0.0
  0
LINE
  5
2F5E
330
1E
100
AcDbEntity
  8
7
100
AcDbLine
 10
12.38316792313951
 20
11.15555685537131
 30
0.0
 11
12.37923091526549
 21
11.17130488686737
 31
0.0
  0
LINE
  5
2F5F
330
1E
100
AcDbEntity
  8
7
100
AcDbLine
 10
12.37923091526549
 20
11.17130488686737
 30
0.0
 11
12.37923091526549
 21
11.19886394198549
 31
0.0
  0
LINE
  5
2F60
330
1E
100
AcDbEntity
  8
7
100
AcDbLine
 10
12.37923091526549
 20
11.19886394198549
 30
0.0
 11
12.37923091526549
 21
11.23036000497761
 31
0.0
  0
LINE
  5
2F61
330
1E
100
AcDbEntity
  8
7
100
AcDbLine
 10
12.37923091526549
 20
11.23036000497761
 30
0.0
 11
12.37529390739147
 21
11.26185606796974
 31
0.0
  0
LINE
  5
2F62
330
1E
100
AcDbEntity
  8
7
100
AcDbLine
 10
12.37529390739147
 20
11.26185606796974
 30
0.0
 11
12.37529390739147
 21
11.28941512308784
 31
0.0
  0
LINE
  5
2F63
330
1E
100
AcDbEntity
  8
7
100
AcDbLine
 10
12.37529390739147
 20
11.28941512308784
 30
0.0
 11
12.37135689951746
 21
11.31303717033194
 31
0.0
  0
LINE
  5
2F64
330
1E
100
AcDbEntity
  8
7
100
AcDbLine
 10
12.37135689951746
 20
11.31303717033194
 30
0.0
 11
12.37135689951746
 21
11.33272220970202
 31
0.0
  0
LINE
  5
2F65
330
1E
100
AcDbEntity
  8
7
100
AcDbLine
 10
12.37135689951746
 20
11.33272220970202
 30
0.0
 11
12.36741989164344
 21
11.33665921757603
 31
0.0
  0
LINE
  5
2F66
330
1E
100
AcDbEntity
  8
7
100
AcDbLine
 10
12.40285296250958
 20
11.32484819395399
 30
0.0
 11
12.40285296250958
 21
11.33665921757603
 31
0.0
  0
LINE
  5
2F67
330
1E
100
AcDbEntity
  8
7
100
AcDbLine
 10
12.40285296250958
 20
11.33665921757603
 30
0.0
 11
12.39891595463557
 21
11.33665921757603
 31
0.0
  0
LINE
  5
2F68
330
1E
100
AcDbEntity
  8
7
100
AcDbLine
 10
12.40285296250958
 20
11.32484819395399
 30
0.0
 11
12.40285296250958
 21
11.33272220970202
 31
0.0
  0
LINE
  5
2F69
330
1E
100
AcDbEntity
  8
7
100
AcDbLine
 10
12.40285296250958
 20
11.33272220970202
 30
0.0
 11
12.40285296250958
 21
11.33665921757603
 31
0.0
  0
LINE
  5
2F6A
330
1E
100
AcDbEntity
  8
7
100
AcDbLine
 10
12.40285296250958
 20
11.19098992623745
 30
0.0
 11
12.40285296250958
 21
11.17130488686737
 31
0.0
  0
LINE
  5
2F6B
330
1E
100
AcDbEntity
  8
7
100
AcDbLine
 10
12.40285296250958
 20
11.17130488686737
 30
0.0
 11
12.40285296250958
 21
11.16343087111934
 31
0.0
  0
LINE
  5
2F6C
330
1E
100
AcDbEntity
  8
7
100
AcDbLine
 10
12.40285296250958
 20
11.19098992623745
 30
0.0
 11
12.40285296250958
 21
11.21067496560753
 31
0.0
  0
LINE
  5
2F6D
330
1E
100
AcDbEntity
  8
7
100
AcDbLine
 10
12.40285296250958
 20
11.21067496560753
 30
0.0
 11
12.40285296250958
 21
11.23823402072564
 31
0.0
  0
LINE
  5
2F6E
330
1E
100
AcDbEntity
  8
7
100
AcDbLine
 10
12.40285296250958
 20
11.23823402072564
 30
0.0
 11
12.40285296250958
 21
11.26579307584375
 31
0.0
  0
LINE
  5
2F6F
330
1E
100
AcDbEntity
  8
7
100
AcDbLine
 10
12.40285296250958
 20
11.26579307584375
 30
0.0
 11
12.40285296250958
 21
11.29335213096186
 31
0.0
  0
LINE
  5
2F70
330
1E
100
AcDbEntity
  8
7
100
AcDbLine
 10
12.40285296250958
 20
11.29335213096186
 30
0.0
 11
12.40285296250958
 21
11.31697417820596
 31
0.0
  0
LINE
  5
2F71
330
1E
100
AcDbEntity
  8
7
100
AcDbLine
 10
12.40285296250958
 20
11.31697417820596
 30
0.0
 11
12.40285296250958
 21
11.32484819395399
 31
0.0
  0
LINE
  5
2F72
330
1E
100
AcDbEntity
  8
7
100
AcDbLine
 10
11.90285296250958
 20
6.65949386324533
 30
0.0
 11
11.90285296250958
 21
6.785478115213834
 31
0.0
  0
LINE
  5
2F73
330
1E
100
AcDbEntity
  8
7
100
AcDbLine
 10
11.90285296250958
 20
6.785478115213834
 30
0.0
 11
11.90285296250958
 21
6.935084414426434
 31
0.0
  0
LINE
  5
2F74
330
1E
100
AcDbEntity
  8
7
100
AcDbLine
 10
11.90285296250958
 20
6.935084414426434
 30
0.0
 11
11.90285296250958
 21
7.108312760883126
 31
0.0
  0
LINE
  5
2F75
330
1E
100
AcDbEntity
  8
7
100
AcDbLine
 10
11.90285296250958
 20
7.108312760883126
 30
0.0
 11
11.90285296250958
 21
7.297289138835882
 31
0.0
  0
LINE
  5
2F76
330
1E
100
AcDbEntity
  8
7
100
AcDbLine
 10
11.90285296250958
 20
7.297289138835882
 30
0.0
 11
11.90285296250958
 21
7.494139532536671
 31
0.0
  0
LINE
  5
2F77
330
1E
100
AcDbEntity
  8
7
100
AcDbLine
 10
11.90285296250958
 20
7.494139532536671
 30
0.0
 11
11.90285296250958
 21
10.49413953253667
 31
0.0
  0
LINE
  5
2F78
330
1E
100
AcDbEntity
  8
7
100
AcDbLine
 10
11.90285296250958
 20
10.49413953253667
 30
0.0
 11
11.90285296250958
 21
10.68705291836344
 31
0.0
  0
LINE
  5
2F79
330
1E
100
AcDbEntity
  8
7
100
AcDbLine
 10
11.90285296250958
 20
10.68705291836344
 30
0.0
 11
11.90285296250958
 21
10.87602929631619
 31
0.0
  0
LINE
  5
2F7A
330
1E
100
AcDbEntity
  8
7
100
AcDbLine
 10
11.90285296250958
 20
10.87602929631619
 30
0.0
 11
11.90285296250958
 21
11.04925764277288
 31
0.0
  0
LINE
  5
2F7B
330
1E
100
AcDbEntity
  8
7
100
AcDbLine
 10
11.90285296250958
 20
11.04925764277288
 30
0.0
 11
11.90285296250958
 21
11.19886394198549
 31
0.0
  0
LINE
  5
2F7C
330
1E
100
AcDbEntity
  8
7
100
AcDbLine
 10
11.90285296250958
 20
11.19886394198549
 30
0.0
 11
11.90285296250958
 21
11.32484819395399
 31
0.0
  0
LINE
  5
2F7D
330
1E
100
AcDbEntity
  8
7
100
AcDbLine
 10
11.90285296250958
 20
11.32484819395399
 30
0.0
 11
11.90285296250958
 21
11.41539937505635
 31
0.0
  0
LINE
  5
2F7E
330
1E
100
AcDbEntity
  8
7
100
AcDbLine
 10
11.90285296250958
 20
11.41539937505635
 30
0.0
 11
11.90285296250958
 21
11.47445449316659
 31
0.0
  0
LINE
  5
2F7F
330
1E
100
AcDbEntity
  8
7
100
AcDbLine
 10
11.90285296250958
 20
11.47445449316659
 30
0.0
 11
11.90285296250958
 21
11.49413953253667
 31
0.0
  0
LINE
  5
2F80
330
1E
100
AcDbEntity
  8
7
100
AcDbLine
 10
11.90285296250958
 20
11.49413953253667
 30
0.0
 11
11.9815931199899
 21
11.49413953253667
 31
0.0
  0
LINE
  5
2F81
330
1E
100
AcDbEntity
  8
7
100
AcDbLine
 10
11.90285296250958
 20
6.494139532536671
 30
0.0
 11
11.90285296250958
 21
6.509887564032734
 31
0.0
  0
LINE
  5
2F82
330
1E
100
AcDbEntity
  8
7
100
AcDbLine
 10
11.90285296250958
 20
6.509887564032734
 30
0.0
 11
11.90285296250958
 21
6.568942682142967
 31
0.0
  0
LINE
  5
2F83
330
1E
100
AcDbEntity
  8
7
100
AcDbLine
 10
11.90285296250958
 20
6.568942682142967
 30
0.0
 11
11.90285296250958
 21
6.65949386324533
 31
0.0
  0
LINE
  5
2F84
330
1E
100
AcDbEntity
  8
7
100
AcDbLine
 10
11.9815931199899
 20
7.494139532536671
 30
0.0
 11
11.9815931199899
 21
7.297289138835882
 31
0.0
  0
LINE
  5
2F85
330
1E
100
AcDbEntity
  8
7
100
AcDbLine
 10
11.9815931199899
 20
7.297289138835882
 30
0.0
 11
11.9815931199899
 21
7.108312760883126
 31
0.0
  0
LINE
  5
2F86
330
1E
100
AcDbEntity
  8
7
100
AcDbLine
 10
11.9815931199899
 20
7.108312760883126
 30
0.0
 11
11.9815931199899
 21
6.935084414426434
 31
0.0
  0
LINE
  5
2F87
330
1E
100
AcDbEntity
  8
7
100
AcDbLine
 10
11.9815931199899
 20
6.935084414426434
 30
0.0
 11
11.9815931199899
 21
6.785478115213834
 31
0.0
  0
LINE
  5
2F88
330
1E
100
AcDbEntity
  8
7
100
AcDbLine
 10
11.9815931199899
 20
6.785478115213834
 30
0.0
 11
11.9815931199899
 21
6.65949386324533
 31
0.0
  0
LINE
  5
2F89
330
1E
100
AcDbEntity
  8
7
100
AcDbLine
 10
11.9815931199899
 20
6.65949386324533
 30
0.0
 11
11.9815931199899
 21
6.568942682142967
 31
0.0
  0
LINE
  5
2F8A
330
1E
100
AcDbEntity
  8
7
100
AcDbLine
 10
11.9815931199899
 20
6.568942682142967
 30
0.0
 11
11.9815931199899
 21
6.509887564032734
 31
0.0
  0
LINE
  5
2F8B
330
1E
100
AcDbEntity
  8
7
100
AcDbLine
 10
11.9815931199899
 20
6.509887564032734
 30
0.0
 11
11.9815931199899
 21
6.494139532536671
 31
0.0
  0
LINE
  5
2F8C
330
1E
100
AcDbEntity
  8
7
100
AcDbLine
 10
11.9815931199899
 20
11.49413953253667
 30
0.0
 11
11.9815931199899
 21
11.47445449316659
 31
0.0
  0
LINE
  5
2F8D
330
1E
100
AcDbEntity
  8
7
100
AcDbLine
 10
11.9815931199899
 20
11.47445449316659
 30
0.0
 11
11.9815931199899
 21
11.41539937505635
 31
0.0
  0
LINE
  5
2F8E
330
1E
100
AcDbEntity
  8
7
100
AcDbLine
 10
11.9815931199899
 20
11.41539937505635
 30
0.0
 11
11.9815931199899
 21
11.32484819395399
 31
0.0
  0
LINE
  5
2F8F
330
1E
100
AcDbEntity
  8
7
100
AcDbLine
 10
11.9815931199899
 20
11.32484819395399
 30
0.0
 11
11.9815931199899
 21
11.19886394198549
 31
0.0
  0
LINE
  5
2F90
330
1E
100
AcDbEntity
  8
7
100
AcDbLine
 10
11.9815931199899
 20
11.19886394198549
 30
0.0
 11
11.9815931199899
 21
11.04925764277288
 31
0.0
  0
LINE
  5
2F91
330
1E
100
AcDbEntity
  8
7
100
AcDbLine
 10
11.9815931199899
 20
11.04925764277288
 30
0.0
 11
11.9815931199899
 21
10.87602929631619
 31
0.0
  0
LINE
  5
2F92
330
1E
100
AcDbEntity
  8
7
100
AcDbLine
 10
11.9815931199899
 20
10.87602929631619
 30
0.0
 11
11.9815931199899
 21
10.68705291836344
 31
0.0
  0
LINE
  5
2F93
330
1E
100
AcDbEntity
  8
7
100
AcDbLine
 10
11.9815931199899
 20
10.68705291836344
 30
0.0
 11
11.9815931199899
 21
10.49413953253667
 31
0.0
  0
LINE
  5
2F94
330
1E
100
AcDbEntity
  8
7
100
AcDbLine
 10
12.1075773719584
 20
6.494139532536671
 30
0.0
 11
11.9815931199899
 21
6.494139532536671
 31
0.0
  0
LINE
  5
2F95
330
1E
100
AcDbEntity
  8
7
100
AcDbLine
 10
11.9815931199899
 20
6.494139532536671
 30
0.0
 11
11.90285296250958
 21
6.494139532536671
 31
0.0
  0
LINE
  5
2F96
330
1E
100
AcDbEntity
  8
7
100
AcDbLine
 10
12.1075773719584
 20
7.494139532536671
 30
0.0
 11
12.1075773719584
 21
7.297289138835882
 31
0.0
  0
LINE
  5
2F97
330
1E
100
AcDbEntity
  8
7
100
AcDbLine
 10
12.1075773719584
 20
7.297289138835882
 30
0.0
 11
12.1075773719584
 21
7.108312760883126
 31
0.0
  0
LINE
  5
2F98
330
1E
100
AcDbEntity
  8
7
100
AcDbLine
 10
12.1075773719584
 20
7.108312760883126
 30
0.0
 11
12.1075773719584
 21
6.935084414426434
 31
0.0
  0
LINE
  5
2F99
330
1E
100
AcDbEntity
  8
7
100
AcDbLine
 10
12.1075773719584
 20
6.935084414426434
 30
0.0
 11
12.1075773719584
 21
6.785478115213834
 31
0.0
  0
LINE
  5
2F9A
330
1E
100
AcDbEntity
  8
7
100
AcDbLine
 10
12.1075773719584
 20
6.785478115213834
 30
0.0
 11
12.1075773719584
 21
6.65949386324533
 31
0.0
  0
LINE
  5
2F9B
330
1E
100
AcDbEntity
  8
7
100
AcDbLine
 10
12.1075773719584
 20
6.65949386324533
 30
0.0
 11
12.1075773719584
 21
6.568942682142967
 31
0.0
  0
LINE
  5
2F9C
330
1E
100
AcDbEntity
  8
7
100
AcDbLine
 10
12.1075773719584
 20
6.568942682142967
 30
0.0
 11
12.1075773719584
 21
6.509887564032734
 31
0.0
  0
LINE
  5
2F9D
330
1E
100
AcDbEntity
  8
7
100
AcDbLine
 10
12.1075773719584
 20
6.509887564032734
 30
0.0
 11
12.1075773719584
 21
6.494139532536671
 31
0.0
  0
LINE
  5
2F9E
330
1E
100
AcDbEntity
  8
7
100
AcDbLine
 10
12.1075773719584
 20
11.49413953253667
 30
0.0
 11
12.1075773719584
 21
11.47445449316659
 31
0.0
  0
LINE
  5
2F9F
330
1E
100
AcDbEntity
  8
7
100
AcDbLine
 10
12.1075773719584
 20
11.47445449316659
 30
0.0
 11
12.1075773719584
 21
11.41539937505635
 31
0.0
  0
LINE
  5
2FA0
330
1E
100
AcDbEntity
  8
7
100
AcDbLine
 10
12.1075773719584
 20
11.41539937505635
 30
0.0
 11
12.1075773719584
 21
11.32484819395399
 31
0.0
  0
LINE
  5
2FA1
330
1E
100
AcDbEntity
  8
7
100
AcDbLine
 10
12.1075773719584
 20
11.32484819395399
 30
0.0
 11
12.1075773719584
 21
11.19886394198549
 31
0.0
  0
LINE
  5
2FA2
330
1E
100
AcDbEntity
  8
7
100
AcDbLine
 10
12.1075773719584
 20
11.19886394198549
 30
0.0
 11
12.1075773719584
 21
11.04925764277288
 31
0.0
  0
LINE
  5
2FA3
330
1E
100
AcDbEntity
  8
7
100
AcDbLine
 10
12.1075773719584
 20
11.04925764277288
 30
0.0
 11
12.1075773719584
 21
10.87602929631619
 31
0.0
  0
LINE
  5
2FA4
330
1E
100
AcDbEntity
  8
7
100
AcDbLine
 10
12.1075773719584
 20
10.87602929631619
 30
0.0
 11
12.1075773719584
 21
10.68705291836344
 31
0.0
  0
LINE
  5
2FA5
330
1E
100
AcDbEntity
  8
7
100
AcDbLine
 10
12.1075773719584
 20
10.68705291836344
 30
0.0
 11
12.1075773719584
 21
10.49413953253667
 31
0.0
  0
LINE
  5
2FA6
330
1E
100
AcDbEntity
  8
7
100
AcDbLine
 10
11.9815931199899
 20
10.68705291836344
 30
0.0
 11
11.9815931199899
 21
10.87602929631619
 31
0.0
  0
LINE
  5
2FA7
330
1E
100
AcDbEntity
  8
7
100
AcDbLine
 10
11.9815931199899
 20
10.87602929631619
 30
0.0
 11
11.9815931199899
 21
11.04925764277288
 31
0.0
  0
LINE
  5
2FA8
330
1E
100
AcDbEntity
  8
7
100
AcDbLine
 10
11.9815931199899
 20
11.04925764277288
 30
0.0
 11
11.9815931199899
 21
11.19886394198549
 31
0.0
  0
LINE
  5
2FA9
330
1E
100
AcDbEntity
  8
7
100
AcDbLine
 10
11.9815931199899
 20
11.19886394198549
 30
0.0
 11
11.9815931199899
 21
11.32484819395399
 31
0.0
  0
LINE
  5
2FAA
330
1E
100
AcDbEntity
  8
7
100
AcDbLine
 10
11.9815931199899
 20
11.32484819395399
 30
0.0
 11
11.9815931199899
 21
11.41539937505635
 31
0.0
  0
LINE
  5
2FAB
330
1E
100
AcDbEntity
  8
7
100
AcDbLine
 10
11.9815931199899
 20
11.41539937505635
 30
0.0
 11
11.9815931199899
 21
11.47445449316659
 31
0.0
  0
LINE
  5
2FAC
330
1E
100
AcDbEntity
  8
7
100
AcDbLine
 10
11.9815931199899
 20
11.47445449316659
 30
0.0
 11
11.9815931199899
 21
11.49413953253667
 31
0.0
  0
LINE
  5
2FAD
330
1E
100
AcDbEntity
  8
7
100
AcDbLine
 10
11.9815931199899
 20
6.494139532536671
 30
0.0
 11
11.9815931199899
 21
6.509887564032734
 31
0.0
  0
LINE
  5
2FAE
330
1E
100
AcDbEntity
  8
7
100
AcDbLine
 10
11.9815931199899
 20
6.509887564032734
 30
0.0
 11
11.9815931199899
 21
6.568942682142967
 31
0.0
  0
LINE
  5
2FAF
330
1E
100
AcDbEntity
  8
7
100
AcDbLine
 10
11.9815931199899
 20
6.568942682142967
 30
0.0
 11
11.9815931199899
 21
6.65949386324533
 31
0.0
  0
LINE
  5
2FB0
330
1E
100
AcDbEntity
  8
7
100
AcDbLine
 10
11.9815931199899
 20
6.65949386324533
 30
0.0
 11
11.9815931199899
 21
6.785478115213834
 31
0.0
  0
LINE
  5
2FB1
330
1E
100
AcDbEntity
  8
7
100
AcDbLine
 10
11.9815931199899
 20
6.785478115213834
 30
0.0
 11
11.9815931199899
 21
6.935084414426434
 31
0.0
  0
LINE
  5
2FB2
330
1E
100
AcDbEntity
  8
7
100
AcDbLine
 10
11.9815931199899
 20
6.935084414426434
 30
0.0
 11
11.9815931199899
 21
7.108312760883126
 31
0.0
  0
LINE
  5
2FB3
330
1E
100
AcDbEntity
  8
7
100
AcDbLine
 10
11.9815931199899
 20
7.108312760883126
 30
0.0
 11
11.9815931199899
 21
7.297289138835882
 31
0.0
  0
LINE
  5
2FB4
330
1E
100
AcDbEntity
  8
7
100
AcDbLine
 10
11.9815931199899
 20
7.297289138835882
 30
0.0
 11
11.9815931199899
 21
7.494139532536671
 31
0.0
  0
LINE
  5
2FB5
330
1E
100
AcDbEntity
  8
7
100
AcDbLine
 10
11.9815931199899
 20
7.494139532536671
 30
0.0
 11
11.9815931199899
 21
10.49413953253667
 31
0.0
  0
LINE
  5
2FB6
330
1E
100
AcDbEntity
  8
7
100
AcDbLine
 10
11.9815931199899
 20
10.49413953253667
 30
0.0
 11
11.9815931199899
 21
10.68705291836344
 31
0.0
  0
LINE
  5
2FB7
330
1E
100
AcDbEntity
  8
7
100
AcDbLine
 10
9.30836477353321
 20
10.49413953253667
 30
0.0
 11
9.288679734163132
 21
10.69098992623745
 31
0.0
  0
LINE
  5
2FB8
330
1E
100
AcDbEntity
  8
7
100
AcDbLine
 10
9.288679734163132
 20
10.69098992623745
 30
0.0
 11
9.23356162392691
 21
10.87602929631619
 31
0.0
  0
LINE
  5
2FB9
330
1E
100
AcDbEntity
  8
7
100
AcDbLine
 10
9.23356162392691
 20
10.87602929631619
 30
0.0
 11
9.139073434950532
 21
11.04925764277288
 31
0.0
  0
LINE
  5
2FBA
330
1E
100
AcDbEntity
  8
7
100
AcDbLine
 10
9.139073434950532
 20
11.04925764277288
 30
0.0
 11
9.017026190856043
 21
11.2028009498595
 31
0.0
  0
LINE
  5
2FBB
330
1E
100
AcDbEntity
  8
7
100
AcDbLine
 10
9.017026190856043
 20
11.2028009498595
 30
0.0
 11
8.863482883769432
 21
11.32484819395399
 31
0.0
  0
LINE
  5
2FBC
330
1E
100
AcDbEntity
  8
7
100
AcDbLine
 10
8.863482883769432
 20
11.32484819395399
 30
0.0
 11
8.690254537312736
 21
11.41933638293037
 31
0.0
  0
LINE
  5
2FBD
330
1E
100
AcDbEntity
  8
7
100
AcDbLine
 10
8.690254537312736
 20
11.41933638293037
 30
0.0
 11
8.505215167233998
 21
11.47445449316659
 31
0.0
  0
LINE
  5
2FBE
330
1E
100
AcDbEntity
  8
7
100
AcDbLine
 10
8.505215167233998
 20
11.47445449316659
 30
0.0
 11
8.30836477353321
 21
11.49413953253667
 31
0.0
  0
LINE
  5
2FBF
330
1E
100
AcDbEntity
  8
7
100
AcDbLine
 10
8.30836477353321
 20
6.494139532536671
 30
0.0
 11
8.505215167233998
 21
6.513824571906749
 31
0.0
  0
LINE
  5
2FC0
330
1E
100
AcDbEntity
  8
7
100
AcDbLine
 10
8.505215167233998
 20
6.513824571906749
 30
0.0
 11
8.690254537312736
 21
6.568942682142967
 31
0.0
  0
LINE
  5
2FC1
330
1E
100
AcDbEntity
  8
7
100
AcDbLine
 10
8.690254537312736
 20
6.568942682142967
 30
0.0
 11
8.863482883769432
 21
6.663430871119345
 31
0.0
  0
LINE
  5
2FC2
330
1E
100
AcDbEntity
  8
7
100
AcDbLine
 10
8.863482883769432
 20
6.663430871119345
 30
0.0
 11
9.017026190856043
 21
6.785478115213834
 31
0.0
  0
LINE
  5
2FC3
330
1E
100
AcDbEntity
  8
7
100
AcDbLine
 10
9.017026190856043
 20
6.785478115213834
 30
0.0
 11
9.139073434950532
 21
6.939021422300449
 31
0.0
  0
LINE
  5
2FC4
330
1E
100
AcDbEntity
  8
7
100
AcDbLine
 10
9.139073434950532
 20
6.939021422300449
 30
0.0
 11
9.23356162392691
 21
7.112249768757141
 31
0.0
  0
LINE
  5
2FC5
330
1E
100
AcDbEntity
  8
7
100
AcDbLine
 10
9.23356162392691
 20
7.112249768757141
 30
0.0
 11
9.288679734163132
 21
7.297289138835882
 31
0.0
  0
LINE
  5
2FC6
330
1E
100
AcDbEntity
  8
7
100
AcDbLine
 10
9.288679734163132
 20
7.297289138835882
 30
0.0
 11
9.30836477353321
 21
7.494139532536671
 31
0.0
  0
LINE
  5
2FC7
330
1E
100
AcDbEntity
  8
7
100
AcDbLine
 10
-5.57746199812033
 20
7.494139532536671
 30
0.0
 11
-5.557776958750253
 21
7.297289138835882
 31
0.0
  0
LINE
  5
2FC8
330
1E
100
AcDbEntity
  8
7
100
AcDbLine
 10
-5.557776958750253
 20
7.297289138835882
 30
0.0
 11
-5.50265884851403
 21
7.112249768757141
 31
0.0
  0
LINE
  5
2FC9
330
1E
100
AcDbEntity
  8
7
100
AcDbLine
 10
-5.50265884851403
 20
7.112249768757141
 30
0.0
 11
-5.408170659537653
 21
6.939021422300449
 31
0.0
  0
LINE
  5
2FCA
330
1E
100
AcDbEntity
  8
7
100
AcDbLine
 10
-5.408170659537653
 20
6.939021422300449
 30
0.0
 11
-5.286123415443165
 21
6.785478115213834
 31
0.0
  0
LINE
  5
2FCB
330
1E
100
AcDbEntity
  8
7
100
AcDbLine
 10
-5.286123415443165
 20
6.785478115213834
 30
0.0
 11
-5.132580108356552
 21
6.663430871119345
 31
0.0
  0
LINE
  5
2FCC
330
1E
100
AcDbEntity
  8
7
100
AcDbLine
 10
-5.132580108356552
 20
6.663430871119345
 30
0.0
 11
-4.959351761899858
 21
6.568942682142967
 31
0.0
  0
LINE
  5
2FCD
330
1E
100
AcDbEntity
  8
7
100
AcDbLine
 10
-4.959351761899858
 20
6.568942682142967
 30
0.0
 11
-4.774312391821119
 21
6.513824571906749
 31
0.0
  0
LINE
  5
2FCE
330
1E
100
AcDbEntity
  8
7
100
AcDbLine
 10
-4.774312391821119
 20
6.513824571906749
 30
0.0
 11
-4.57746199812033
 21
6.494139532536671
 31
0.0
  0
LINE
  5
2FCF
330
1E
100
AcDbEntity
  8
7
100
AcDbLine
 10
-4.774312391821119
 20
11.47445449316659
 30
0.0
 11
-4.959351761899858
 21
11.41933638293037
 31
0.0
  0
LINE
  5
2FD0
330
1E
100
AcDbEntity
  8
7
100
AcDbLine
 10
-4.959351761899858
 20
11.41933638293037
 30
0.0
 11
-5.132580108356552
 21
11.32484819395399
 31
0.0
  0
LINE
  5
2FD1
330
1E
100
AcDbEntity
  8
7
100
AcDbLine
 10
-5.132580108356552
 20
11.32484819395399
 30
0.0
 11
-5.286123415443165
 21
11.2028009498595
 31
0.0
  0
LINE
  5
2FD2
330
1E
100
AcDbEntity
  8
7
100
AcDbLine
 10
-5.286123415443165
 20
11.2028009498595
 30
0.0
 11
-5.408170659537653
 21
11.04925764277288
 31
0.0
  0
LINE
  5
2FD3
330
1E
100
AcDbEntity
  8
7
100
AcDbLine
 10
-5.408170659537653
 20
11.04925764277288
 30
0.0
 11
-5.50265884851403
 21
10.87602929631619
 31
0.0
  0
LINE
  5
2FD4
330
1E
100
AcDbEntity
  8
7
100
AcDbLine
 10
-5.50265884851403
 20
10.87602929631619
 30
0.0
 11
-5.557776958750253
 21
10.69098992623745
 31
0.0
  0
LINE
  5
2FD5
330
1E
100
AcDbEntity
  8
7
100
AcDbLine
 10
-5.557776958750253
 20
10.69098992623745
 30
0.0
 11
-5.57746199812033
 21
10.49413953253667
 31
0.0
  0
ENDSEC
  0
SECTION
  2
OBJECTS
  0
DICTIONARY
  5
C
330
0
100
AcDbDictionary
  3
ACAD_GROUP
350
D
  3
ACAD_MLINESTYLE
350
16
  3
ACAD_PLOTSETTINGS
350
18
  3
ACAD_LAYOUT
350
19
1001
ACAD
1000
TREAT_AS_HARD
1070
     0
  0
DICTIONARY
  5
3EB5
330
1E
100
AcDbDictionary
  3
ACAD_LAYOUTSELFREF
350
3EB6
  0
DICTIONARY
  5
3EB3
330
1A
100
AcDbDictionary
  3
ACAD_LAYOUTSELFREF
350
3EB4
  0
DICTIONARY
  5
D
102
{ACAD_REACTORS
330
C
102
}
330
C
100
AcDbDictionary
1001
ACAD
1000
TREAT_AS_HARD
1070
     0
  0
DICTIONARY
  5
16
102
{ACAD_REACTORS
330
C
102
}
330
C
100
AcDbDictionary
  3
STANDARD
350
17
1001
ACAD
1000
TREAT_AS_HARD
1070
     0
  0
DICTIONARY
  5
18
102
{ACAD_REACTORS
330
C
102
}
330
C
100
AcDbDictionary
1001
ACAD
1000
TREAT_AS_HARD
1070
     0
  0
DICTIONARY
  5
19
102
{ACAD_REACTORS
330
C
102
}
330
C
100
AcDbDictionary
1001
ACAD
1000
TREAT_AS_HARD
1070
     0
  0
XRECORD
  5
3EB6
102
{ACAD_REACTORS
330
3EB5
102
}
330
3EB5
100
AcDbXrecord
340
1E
  0
XRECORD
  5
3EB4
102
{ACAD_REACTORS
330
3EB3
102
}
330
3EB3
100
AcDbXrecord
340
1A
  0
MLINESTYLE
  5
17
102
{ACAD_REACTORS
330
16
102
}
330
16
100
AcDbMlineStyle
  2
STANDARD
 70
     0
  3

 62
   256
 51
90.0
 52
90.0
 71
     2
 49
0.5
 62
   256
  6
BYLAYER
 49
-0.5
 62
   256
  6
BYLAYER
  0
ENDSEC
  0
EOF
