ISO-10303-21;
HEADER;
/* Generated by software containing ST-Developer
 * from STEP Tools, Inc. (www.steptools.com) 
 */
/* OPTION: using custom schema-name function */

FILE_DESCRIPTION(
/* description */ (''),
/* implementation_level */ '2;1');

FILE_NAME(
/* name */ 'C.75LG6.stp',
/* time_stamp */ '2014-09-30T10:09:59-05:00',
/* author */ (''),
/* organization */ (''),
/* preprocessor_version */ 'ST-DEVELOPER v11',
/* originating_system */ 'SIEMENS PLM Software NX 7.5',
/* authorisation */ '');

FILE_SCHEMA (('CONFIG_CONTROL_DESIGN'));
ENDSEC;

DATA;
#10=SHAPE_REPRESENTATION_RELATIONSHIP('None',
'relationship between bdk7AA5ptpu-None and bdk7AA5ptpu-None',#94,#11);
#11=ADVANCED_BREP_SHAPE_REPRESENTATION('bdk7AA5ptpu-None',(#95),#579);
#12=CC_DESIGN_APPROVAL(#24,(#82));
#13=CC_DESIGN_APPROVAL(#25,(#84));
#14=CC_DESIGN_APPROVAL(#26,(#31));
#15=APPROVAL_PERSON_ORGANIZATION(#69,#24,#18);
#16=APPROVAL_PERSON_ORGANIZATION(#70,#25,#19);
#17=APPROVAL_PERSON_ORGANIZATION(#71,#26,#20);
#18=APPROVAL_ROLE('approver');
#19=APPROVAL_ROLE('approver');
#20=APPROVAL_ROLE('approver');
#21=APPROVAL_DATE_TIME(#39,#24);
#22=APPROVAL_DATE_TIME(#40,#25);
#23=APPROVAL_DATE_TIME(#41,#26);
#24=APPROVAL(#27,' ');
#25=APPROVAL(#28,' ');
#26=APPROVAL(#29,' ');
#27=APPROVAL_STATUS('not_yet_approved');
#28=APPROVAL_STATUS('not_yet_approved');
#29=APPROVAL_STATUS('not_yet_approved');
#30=CC_DESIGN_SECURITY_CLASSIFICATION(#31,(#84));
#31=SECURITY_CLASSIFICATION(' ',' ',#32);
#32=SECURITY_CLASSIFICATION_LEVEL('confidential');
#33=CC_DESIGN_DATE_AND_TIME_ASSIGNMENT(#37,#35,(#82));
#34=CC_DESIGN_DATE_AND_TIME_ASSIGNMENT(#38,#36,(#31));
#35=DATE_TIME_ROLE('creation_date');
#36=DATE_TIME_ROLE('classification_date');
#37=DATE_AND_TIME(#52,#42);
#38=DATE_AND_TIME(#53,#43);
#39=DATE_AND_TIME(#54,#44);
#40=DATE_AND_TIME(#55,#45);
#41=DATE_AND_TIME(#56,#46);
#42=LOCAL_TIME(0,0,0.,#47);
#43=LOCAL_TIME(0,0,0.,#48);
#44=LOCAL_TIME(0,0,0.,#49);
#45=LOCAL_TIME(0,0,0.,#50);
#46=LOCAL_TIME(0,0,0.,#51);
#47=COORDINATED_UNIVERSAL_TIME_OFFSET(0,0,.BEHIND.);
#48=COORDINATED_UNIVERSAL_TIME_OFFSET(0,0,.BEHIND.);
#49=COORDINATED_UNIVERSAL_TIME_OFFSET(0,0,.BEHIND.);
#50=COORDINATED_UNIVERSAL_TIME_OFFSET(0,0,.BEHIND.);
#51=COORDINATED_UNIVERSAL_TIME_OFFSET(0,0,.BEHIND.);
#52=CALENDAR_DATE(0,1,1);
#53=CALENDAR_DATE(0,1,1);
#54=CALENDAR_DATE(0,1,1);
#55=CALENDAR_DATE(0,1,1);
#56=CALENDAR_DATE(0,1,1);
#57=CC_DESIGN_PERSON_AND_ORGANIZATION_ASSIGNMENT(#65,#61,(#82,#84));
#58=CC_DESIGN_PERSON_AND_ORGANIZATION_ASSIGNMENT(#66,#62,(#86));
#59=CC_DESIGN_PERSON_AND_ORGANIZATION_ASSIGNMENT(#67,#63,(#84));
#60=CC_DESIGN_PERSON_AND_ORGANIZATION_ASSIGNMENT(#68,#64,(#31));
#61=PERSON_AND_ORGANIZATION_ROLE('creator');
#62=PERSON_AND_ORGANIZATION_ROLE('design_owner');
#63=PERSON_AND_ORGANIZATION_ROLE('design_supplier');
#64=PERSON_AND_ORGANIZATION_ROLE('classification_officer');
#65=PERSON_AND_ORGANIZATION(#79,#72);
#66=PERSON_AND_ORGANIZATION(#79,#73);
#67=PERSON_AND_ORGANIZATION(#79,#74);
#68=PERSON_AND_ORGANIZATION(#79,#75);
#69=PERSON_AND_ORGANIZATION(#79,#76);
#70=PERSON_AND_ORGANIZATION(#79,#77);
#71=PERSON_AND_ORGANIZATION(#79,#78);
#72=ORGANIZATION(' ',' ',' ');
#73=ORGANIZATION(' ',' ',' ');
#74=ORGANIZATION(' ',' ',' ');
#75=ORGANIZATION(' ',' ',' ');
#76=ORGANIZATION(' ',' ',' ');
#77=ORGANIZATION(' ',' ',' ');
#78=ORGANIZATION(' ',' ',' ');
#79=PERSON(' ',' ',' ',(' '),$,$);
#80=SHAPE_DEFINITION_REPRESENTATION(#81,#94);
#81=PRODUCT_DEFINITION_SHAPE('','',#82);
#82=PRODUCT_DEFINITION(' ','',#84,#83);
#83=DESIGN_CONTEXT('',#93,'design');
#84=PRODUCT_DEFINITION_FORMATION_WITH_SPECIFIED_SOURCE(' ',' ',#86,.NOT_KNOWN.);
#85=PRODUCT_RELATED_PRODUCT_CATEGORY('detail','',(#86));
#86=PRODUCT('bdk7AA5ptpu','bdk7AA5ptpu',' ',(#91));
#87=PRODUCT_CATEGORY_RELATIONSHIP(' ',' ',#89,#90);
#88=PRODUCT_CATEGORY_RELATIONSHIP('','',#90,#85);
#89=PRODUCT_CATEGORY('part',' ');
#90=PRODUCT_CATEGORY(' ','');
#91=MECHANICAL_CONTEXT(' ',#93,'mechanical');
#92=APPLICATION_PROTOCOL_DEFINITION('international standard',
'config_control_design',1994,#93);
#93=APPLICATION_CONTEXT(
'configuration controlled 3D designs of mechanical parts and assemblies');
#94=SHAPE_REPRESENTATION('bdk7AA5ptpu-None',(#399),#579);
#95=MANIFOLD_SOLID_BREP('',#96);
#96=CLOSED_SHELL('',(#97,#98,#99,#100,#101,#102,#103,#104,#105,#106,#107,
#108,#109,#110,#111,#112));
#97=ADVANCED_FACE('',(#129),#113,.F.);
#98=ADVANCED_FACE('',(#130),#114,.F.);
#99=ADVANCED_FACE('',(#131),#115,.T.);
#100=ADVANCED_FACE('',(#132),#116,.T.);
#101=ADVANCED_FACE('',(#133),#117,.T.);
#102=ADVANCED_FACE('',(#134),#118,.F.);
#103=ADVANCED_FACE('',(#135),#119,.F.);
#104=ADVANCED_FACE('',(#136),#120,.T.);
#105=ADVANCED_FACE('',(#137),#121,.T.);
#106=ADVANCED_FACE('',(#138),#122,.F.);
#107=ADVANCED_FACE('',(#139),#123,.T.);
#108=ADVANCED_FACE('',(#140),#124,.F.);
#109=ADVANCED_FACE('',(#141),#125,.F.);
#110=ADVANCED_FACE('',(#142),#126,.T.);
#111=ADVANCED_FACE('',(#143),#127,.F.);
#112=ADVANCED_FACE('',(#144),#128,.T.);
#113=PLANE('',#400);
#114=PLANE('',#401);
#115=PLANE('',#402);
#116=PLANE('',#403);
#117=PLANE('',#404);
#118=PLANE('',#405);
#119=PLANE('',#406);
#120=PLANE('',#407);
#121=PLANE('',#408);
#122=PLANE('',#409);
#123=PLANE('',#410);
#124=PLANE('',#411);
#125=PLANE('',#412);
#126=PLANE('',#413);
#127=PLANE('',#414);
#128=PLANE('',#415);
#129=FACE_OUTER_BOUND('',#145,.T.);
#130=FACE_OUTER_BOUND('',#146,.T.);
#131=FACE_OUTER_BOUND('',#147,.T.);
#132=FACE_OUTER_BOUND('',#148,.T.);
#133=FACE_OUTER_BOUND('',#149,.T.);
#134=FACE_OUTER_BOUND('',#150,.T.);
#135=FACE_OUTER_BOUND('',#151,.T.);
#136=FACE_OUTER_BOUND('',#152,.T.);
#137=FACE_OUTER_BOUND('',#153,.T.);
#138=FACE_OUTER_BOUND('',#154,.T.);
#139=FACE_OUTER_BOUND('',#155,.T.);
#140=FACE_OUTER_BOUND('',#156,.T.);
#141=FACE_OUTER_BOUND('',#157,.T.);
#142=FACE_OUTER_BOUND('',#158,.T.);
#143=FACE_OUTER_BOUND('',#159,.T.);
#144=FACE_OUTER_BOUND('',#160,.T.);
#145=EDGE_LOOP('',(#161,#162,#163,#164));
#146=EDGE_LOOP('',(#165,#166,#167,#168));
#147=EDGE_LOOP('',(#169,#170,#171,#172));
#148=EDGE_LOOP('',(#173,#174,#175,#176));
#149=EDGE_LOOP('',(#177,#178,#179,#180));
#150=EDGE_LOOP('',(#181,#182,#183,#184));
#151=EDGE_LOOP('',(#185,#186,#187,#188));
#152=EDGE_LOOP('',(#189,#190,#191,#192));
#153=EDGE_LOOP('',(#193,#194,#195,#196));
#154=EDGE_LOOP('',(#197,#198,#199,#200));
#155=EDGE_LOOP('',(#201,#202,#203,#204));
#156=EDGE_LOOP('',(#205,#206,#207,#208));
#157=EDGE_LOOP('',(#209,#210,#211,#212));
#158=EDGE_LOOP('',(#213,#214,#215,#216));
#159=EDGE_LOOP('',(#217,#218,#219,#220,#221,#222,#223,#224,#225,#226,#227,
#228,#229,#230));
#160=EDGE_LOOP('',(#231,#232,#233,#234,#235,#236,#237,#238,#239,#240,#241,
#242,#243,#244));
#161=ORIENTED_EDGE('',*,*,#273,.T.);
#162=ORIENTED_EDGE('',*,*,#274,.F.);
#163=ORIENTED_EDGE('',*,*,#275,.F.);
#164=ORIENTED_EDGE('',*,*,#276,.T.);
#165=ORIENTED_EDGE('',*,*,#277,.T.);
#166=ORIENTED_EDGE('',*,*,#278,.F.);
#167=ORIENTED_EDGE('',*,*,#279,.F.);
#168=ORIENTED_EDGE('',*,*,#274,.T.);
#169=ORIENTED_EDGE('',*,*,#280,.F.);
#170=ORIENTED_EDGE('',*,*,#281,.F.);
#171=ORIENTED_EDGE('',*,*,#282,.T.);
#172=ORIENTED_EDGE('',*,*,#278,.T.);
#173=ORIENTED_EDGE('',*,*,#283,.F.);
#174=ORIENTED_EDGE('',*,*,#284,.F.);
#175=ORIENTED_EDGE('',*,*,#285,.T.);
#176=ORIENTED_EDGE('',*,*,#281,.T.);
#177=ORIENTED_EDGE('',*,*,#286,.F.);
#178=ORIENTED_EDGE('',*,*,#287,.F.);
#179=ORIENTED_EDGE('',*,*,#288,.T.);
#180=ORIENTED_EDGE('',*,*,#284,.T.);
#181=ORIENTED_EDGE('',*,*,#289,.T.);
#182=ORIENTED_EDGE('',*,*,#290,.F.);
#183=ORIENTED_EDGE('',*,*,#291,.F.);
#184=ORIENTED_EDGE('',*,*,#287,.T.);
#185=ORIENTED_EDGE('',*,*,#292,.T.);
#186=ORIENTED_EDGE('',*,*,#293,.F.);
#187=ORIENTED_EDGE('',*,*,#294,.F.);
#188=ORIENTED_EDGE('',*,*,#290,.T.);
#189=ORIENTED_EDGE('',*,*,#295,.F.);
#190=ORIENTED_EDGE('',*,*,#296,.F.);
#191=ORIENTED_EDGE('',*,*,#297,.T.);
#192=ORIENTED_EDGE('',*,*,#293,.T.);
#193=ORIENTED_EDGE('',*,*,#298,.F.);
#194=ORIENTED_EDGE('',*,*,#299,.F.);
#195=ORIENTED_EDGE('',*,*,#300,.T.);
#196=ORIENTED_EDGE('',*,*,#296,.T.);
#197=ORIENTED_EDGE('',*,*,#301,.T.);
#198=ORIENTED_EDGE('',*,*,#302,.F.);
#199=ORIENTED_EDGE('',*,*,#303,.F.);
#200=ORIENTED_EDGE('',*,*,#299,.T.);
#201=ORIENTED_EDGE('',*,*,#304,.F.);
#202=ORIENTED_EDGE('',*,*,#305,.F.);
#203=ORIENTED_EDGE('',*,*,#306,.T.);
#204=ORIENTED_EDGE('',*,*,#302,.T.);
#205=ORIENTED_EDGE('',*,*,#307,.T.);
#206=ORIENTED_EDGE('',*,*,#308,.F.);
#207=ORIENTED_EDGE('',*,*,#309,.F.);
#208=ORIENTED_EDGE('',*,*,#305,.T.);
#209=ORIENTED_EDGE('',*,*,#310,.T.);
#210=ORIENTED_EDGE('',*,*,#311,.F.);
#211=ORIENTED_EDGE('',*,*,#312,.F.);
#212=ORIENTED_EDGE('',*,*,#308,.T.);
#213=ORIENTED_EDGE('',*,*,#313,.F.);
#214=ORIENTED_EDGE('',*,*,#276,.F.);
#215=ORIENTED_EDGE('',*,*,#314,.T.);
#216=ORIENTED_EDGE('',*,*,#311,.T.);
#217=ORIENTED_EDGE('',*,*,#275,.T.);
#218=ORIENTED_EDGE('',*,*,#279,.T.);
#219=ORIENTED_EDGE('',*,*,#282,.F.);
#220=ORIENTED_EDGE('',*,*,#285,.F.);
#221=ORIENTED_EDGE('',*,*,#288,.F.);
#222=ORIENTED_EDGE('',*,*,#291,.T.);
#223=ORIENTED_EDGE('',*,*,#294,.T.);
#224=ORIENTED_EDGE('',*,*,#297,.F.);
#225=ORIENTED_EDGE('',*,*,#300,.F.);
#226=ORIENTED_EDGE('',*,*,#303,.T.);
#227=ORIENTED_EDGE('',*,*,#306,.F.);
#228=ORIENTED_EDGE('',*,*,#309,.T.);
#229=ORIENTED_EDGE('',*,*,#312,.T.);
#230=ORIENTED_EDGE('',*,*,#314,.F.);
#231=ORIENTED_EDGE('',*,*,#273,.F.);
#232=ORIENTED_EDGE('',*,*,#313,.T.);
#233=ORIENTED_EDGE('',*,*,#310,.F.);
#234=ORIENTED_EDGE('',*,*,#307,.F.);
#235=ORIENTED_EDGE('',*,*,#304,.T.);
#236=ORIENTED_EDGE('',*,*,#301,.F.);
#237=ORIENTED_EDGE('',*,*,#298,.T.);
#238=ORIENTED_EDGE('',*,*,#295,.T.);
#239=ORIENTED_EDGE('',*,*,#292,.F.);
#240=ORIENTED_EDGE('',*,*,#289,.F.);
#241=ORIENTED_EDGE('',*,*,#286,.T.);
#242=ORIENTED_EDGE('',*,*,#283,.T.);
#243=ORIENTED_EDGE('',*,*,#280,.T.);
#244=ORIENTED_EDGE('',*,*,#277,.F.);
#245=VERTEX_POINT('',#494);
#246=VERTEX_POINT('',#495);
#247=VERTEX_POINT('',#497);
#248=VERTEX_POINT('',#499);
#249=VERTEX_POINT('',#503);
#250=VERTEX_POINT('',#505);
#251=VERTEX_POINT('',#509);
#252=VERTEX_POINT('',#511);
#253=VERTEX_POINT('',#515);
#254=VERTEX_POINT('',#517);
#255=VERTEX_POINT('',#521);
#256=VERTEX_POINT('',#523);
#257=VERTEX_POINT('',#527);
#258=VERTEX_POINT('',#529);
#259=VERTEX_POINT('',#533);
#260=VERTEX_POINT('',#535);
#261=VERTEX_POINT('',#539);
#262=VERTEX_POINT('',#541);
#263=VERTEX_POINT('',#545);
#264=VERTEX_POINT('',#547);
#265=VERTEX_POINT('',#551);
#266=VERTEX_POINT('',#553);
#267=VERTEX_POINT('',#557);
#268=VERTEX_POINT('',#559);
#269=VERTEX_POINT('',#563);
#270=VERTEX_POINT('',#565);
#271=VERTEX_POINT('',#569);
#272=VERTEX_POINT('',#571);
#273=EDGE_CURVE('',#245,#246,#315,.T.);
#274=EDGE_CURVE('',#247,#246,#316,.T.);
#275=EDGE_CURVE('',#248,#247,#317,.T.);
#276=EDGE_CURVE('',#248,#245,#318,.T.);
#277=EDGE_CURVE('',#246,#249,#319,.T.);
#278=EDGE_CURVE('',#250,#249,#320,.T.);
#279=EDGE_CURVE('',#247,#250,#321,.T.);
#280=EDGE_CURVE('',#251,#249,#322,.T.);
#281=EDGE_CURVE('',#252,#251,#323,.T.);
#282=EDGE_CURVE('',#252,#250,#324,.T.);
#283=EDGE_CURVE('',#253,#251,#325,.T.);
#284=EDGE_CURVE('',#254,#253,#326,.T.);
#285=EDGE_CURVE('',#254,#252,#327,.T.);
#286=EDGE_CURVE('',#255,#253,#328,.T.);
#287=EDGE_CURVE('',#256,#255,#329,.T.);
#288=EDGE_CURVE('',#256,#254,#330,.T.);
#289=EDGE_CURVE('',#255,#257,#331,.T.);
#290=EDGE_CURVE('',#258,#257,#332,.T.);
#291=EDGE_CURVE('',#256,#258,#333,.T.);
#292=EDGE_CURVE('',#257,#259,#334,.T.);
#293=EDGE_CURVE('',#260,#259,#335,.T.);
#294=EDGE_CURVE('',#258,#260,#336,.T.);
#295=EDGE_CURVE('',#261,#259,#337,.T.);
#296=EDGE_CURVE('',#262,#261,#338,.T.);
#297=EDGE_CURVE('',#262,#260,#339,.T.);
#298=EDGE_CURVE('',#263,#261,#340,.T.);
#299=EDGE_CURVE('',#264,#263,#341,.T.);
#300=EDGE_CURVE('',#264,#262,#342,.T.);
#301=EDGE_CURVE('',#263,#265,#343,.T.);
#302=EDGE_CURVE('',#266,#265,#344,.T.);
#303=EDGE_CURVE('',#264,#266,#345,.T.);
#304=EDGE_CURVE('',#267,#265,#346,.T.);
#305=EDGE_CURVE('',#268,#267,#347,.T.);
#306=EDGE_CURVE('',#268,#266,#348,.T.);
#307=EDGE_CURVE('',#267,#269,#349,.T.);
#308=EDGE_CURVE('',#270,#269,#350,.T.);
#309=EDGE_CURVE('',#268,#270,#351,.T.);
#310=EDGE_CURVE('',#269,#271,#352,.T.);
#311=EDGE_CURVE('',#272,#271,#353,.T.);
#312=EDGE_CURVE('',#270,#272,#354,.T.);
#313=EDGE_CURVE('',#245,#271,#355,.T.);
#314=EDGE_CURVE('',#248,#272,#356,.T.);
#315=LINE('',#493,#357);
#316=LINE('',#496,#358);
#317=LINE('',#498,#359);
#318=LINE('',#500,#360);
#319=LINE('',#502,#361);
#320=LINE('',#504,#362);
#321=LINE('',#506,#363);
#322=LINE('',#508,#364);
#323=LINE('',#510,#365);
#324=LINE('',#512,#366);
#325=LINE('',#514,#367);
#326=LINE('',#516,#368);
#327=LINE('',#518,#369);
#328=LINE('',#520,#370);
#329=LINE('',#522,#371);
#330=LINE('',#524,#372);
#331=LINE('',#526,#373);
#332=LINE('',#528,#374);
#333=LINE('',#530,#375);
#334=LINE('',#532,#376);
#335=LINE('',#534,#377);
#336=LINE('',#536,#378);
#337=LINE('',#538,#379);
#338=LINE('',#540,#380);
#339=LINE('',#542,#381);
#340=LINE('',#544,#382);
#341=LINE('',#546,#383);
#342=LINE('',#548,#384);
#343=LINE('',#550,#385);
#344=LINE('',#552,#386);
#345=LINE('',#554,#387);
#346=LINE('',#556,#388);
#347=LINE('',#558,#389);
#348=LINE('',#560,#390);
#349=LINE('',#562,#391);
#350=LINE('',#564,#392);
#351=LINE('',#566,#393);
#352=LINE('',#568,#394);
#353=LINE('',#570,#395);
#354=LINE('',#572,#396);
#355=LINE('',#574,#397);
#356=LINE('',#575,#398);
#357=VECTOR('',#418,1.);
#358=VECTOR('',#419,1.);
#359=VECTOR('',#420,1.);
#360=VECTOR('',#421,1.);
#361=VECTOR('',#424,1.);
#362=VECTOR('',#425,1.);
#363=VECTOR('',#426,1.);
#364=VECTOR('',#429,1.);
#365=VECTOR('',#430,1.);
#366=VECTOR('',#431,1.);
#367=VECTOR('',#434,1.);
#368=VECTOR('',#435,1.);
#369=VECTOR('',#436,1.);
#370=VECTOR('',#439,1.);
#371=VECTOR('',#440,1.);
#372=VECTOR('',#441,1.);
#373=VECTOR('',#444,1.);
#374=VECTOR('',#445,1.);
#375=VECTOR('',#446,1.);
#376=VECTOR('',#449,1.);
#377=VECTOR('',#450,1.);
#378=VECTOR('',#451,1.);
#379=VECTOR('',#454,1.);
#380=VECTOR('',#455,1.);
#381=VECTOR('',#456,1.);
#382=VECTOR('',#459,1.);
#383=VECTOR('',#460,1.);
#384=VECTOR('',#461,1.);
#385=VECTOR('',#464,1.);
#386=VECTOR('',#465,1.);
#387=VECTOR('',#466,1.);
#388=VECTOR('',#469,1.);
#389=VECTOR('',#470,1.);
#390=VECTOR('',#471,1.);
#391=VECTOR('',#474,1.);
#392=VECTOR('',#475,1.);
#393=VECTOR('',#476,1.);
#394=VECTOR('',#479,1.);
#395=VECTOR('',#480,1.);
#396=VECTOR('',#481,1.);
#397=VECTOR('',#484,1.);
#398=VECTOR('',#485,1.);
#399=AXIS2_PLACEMENT_3D('',#492,#416,#417);
#400=AXIS2_PLACEMENT_3D('',#501,#422,#423);
#401=AXIS2_PLACEMENT_3D('',#507,#427,#428);
#402=AXIS2_PLACEMENT_3D('',#513,#432,#433);
#403=AXIS2_PLACEMENT_3D('',#519,#437,#438);
#404=AXIS2_PLACEMENT_3D('',#525,#442,#443);
#405=AXIS2_PLACEMENT_3D('',#531,#447,#448);
#406=AXIS2_PLACEMENT_3D('',#537,#452,#453);
#407=AXIS2_PLACEMENT_3D('',#543,#457,#458);
#408=AXIS2_PLACEMENT_3D('',#549,#462,#463);
#409=AXIS2_PLACEMENT_3D('',#555,#467,#468);
#410=AXIS2_PLACEMENT_3D('',#561,#472,#473);
#411=AXIS2_PLACEMENT_3D('',#567,#477,#478);
#412=AXIS2_PLACEMENT_3D('',#573,#482,#483);
#413=AXIS2_PLACEMENT_3D('',#576,#486,#487);
#414=AXIS2_PLACEMENT_3D('',#577,#488,#489);
#415=AXIS2_PLACEMENT_3D('',#578,#490,#491);
#416=DIRECTION('',(0.,0.,1.));
#417=DIRECTION('',(1.,0.,0.));
#418=DIRECTION('',(-4.55307998944053E-015,0.,-1.));
#419=DIRECTION('',(0.,-1.,0.));
#420=DIRECTION('',(-4.55307998944053E-015,0.,-1.));
#421=DIRECTION('',(0.,-1.,0.));
#422=DIRECTION('',(-1.,0.,4.55307998944053E-015));
#423=DIRECTION('',(4.55364912443912E-015,0.,1.));
#424=DIRECTION('',(-0.937748760723711,0.,-0.347314355823573));
#425=DIRECTION('',(0.,-1.,0.));
#426=DIRECTION('',(-0.937748760723711,0.,-0.347314355823573));
#427=DIRECTION('',(-0.347314355823573,0.,0.937748760723711));
#428=DIRECTION('',(0.937748760723711,0.,0.347314355823573));
#429=DIRECTION('',(1.,0.,0.));
#430=DIRECTION('',(0.,-1.,0.));
#431=DIRECTION('',(1.,0.,0.));
#432=DIRECTION('',(0.,0.,-1.));
#433=DIRECTION('',(-1.,0.,0.));
#434=DIRECTION('',(0.,0.,-1.));
#435=DIRECTION('',(0.,-1.,0.));
#436=DIRECTION('',(0.,0.,-1.));
#437=DIRECTION('',(-1.,0.,0.));
#438=DIRECTION('',(0.,0.,1.));
#439=DIRECTION('',(-1.,0.,0.));
#440=DIRECTION('',(0.,-1.,0.));
#441=DIRECTION('',(-1.,0.,0.));
#442=DIRECTION('',(0.,0.,1.));
#443=DIRECTION('',(1.,0.,0.));
#444=DIRECTION('',(0.,0.,-1.));
#445=DIRECTION('',(0.,-1.,0.));
#446=DIRECTION('',(0.,0.,-1.));
#447=DIRECTION('',(-1.,0.,0.));
#448=DIRECTION('',(0.,0.,1.));
#449=DIRECTION('',(-1.,0.,0.));
#450=DIRECTION('',(0.,-1.,0.));
#451=DIRECTION('',(-1.,0.,0.));
#452=DIRECTION('',(0.,0.,1.));
#453=DIRECTION('',(1.,0.,0.));
#454=DIRECTION('',(0.937748760723712,0.,-0.347314355823571));
#455=DIRECTION('',(0.,-1.,0.));
#456=DIRECTION('',(0.937748760723712,0.,-0.347314355823571));
#457=DIRECTION('',(-0.347314355823571,0.,-0.937748760723712));
#458=DIRECTION('',(-0.937748760723712,0.,0.347314355823571));
#459=DIRECTION('',(4.55307998944053E-015,0.,-1.));
#460=DIRECTION('',(0.,-1.,0.));
#461=DIRECTION('',(4.55307998944053E-015,0.,-1.));
#462=DIRECTION('',(-1.,0.,-4.55307998944053E-015));
#463=DIRECTION('',(-4.55364912443912E-015,0.,1.));
#464=DIRECTION('',(1.,0.,0.));
#465=DIRECTION('',(0.,-1.,0.));
#466=DIRECTION('',(1.,0.,0.));
#467=DIRECTION('',(0.,0.,-1.));
#468=DIRECTION('',(-1.,0.,0.));
#469=DIRECTION('',(0.,0.,-1.));
#470=DIRECTION('',(0.,-1.,0.));
#471=DIRECTION('',(0.,0.,-1.));
#472=DIRECTION('',(-1.,0.,0.));
#473=DIRECTION('',(0.,0.,1.));
#474=DIRECTION('',(-1.,0.,0.));
#475=DIRECTION('',(0.,-1.,0.));
#476=DIRECTION('',(-1.,0.,0.));
#477=DIRECTION('',(0.,0.,1.));
#478=DIRECTION('',(1.,0.,0.));
#479=DIRECTION('',(0.,0.,-1.));
#480=DIRECTION('',(0.,-1.,0.));
#481=DIRECTION('',(0.,0.,-1.));
#482=DIRECTION('',(-1.,0.,0.));
#483=DIRECTION('',(0.,0.,1.));
#484=DIRECTION('',(-1.,0.,0.));
#485=DIRECTION('',(-1.,0.,0.));
#486=DIRECTION('',(0.,0.,1.));
#487=DIRECTION('',(1.,0.,0.));
#488=DIRECTION('',(0.,-1.,0.));
#489=DIRECTION('',(0.,0.,-1.));
#490=DIRECTION('',(0.,-1.,0.));
#491=DIRECTION('',(0.,0.,-1.));
#492=CARTESIAN_POINT('',(0.,0.,0.));
#493=CARTESIAN_POINT('',(-0.37125,0.,0.610000000000001));
#494=CARTESIAN_POINT('',(-0.37125,0.,0.610000000000001));
#495=CARTESIAN_POINT('',(-0.371250000000001,0.,0.580000000000002));
#496=CARTESIAN_POINT('',(-0.371250000000001,72.,0.580000000000002));
#497=CARTESIAN_POINT('',(-0.371250000000001,72.,0.580000000000002));
#498=CARTESIAN_POINT('',(-0.37125,72.,0.610000000000001));
#499=CARTESIAN_POINT('',(-0.37125,72.,0.610000000000001));
#500=CARTESIAN_POINT('',(-0.37125,72.,0.610000000000001));
#501=CARTESIAN_POINT('',(-0.37125,72.,0.610000000000001));
#502=CARTESIAN_POINT('',(-0.371250000000001,0.,0.580000000000002));
#503=CARTESIAN_POINT('',(-0.42525,0.,0.560000000000003));
#504=CARTESIAN_POINT('',(-0.42525,72.,0.560000000000003));
#505=CARTESIAN_POINT('',(-0.42525,72.,0.560000000000003));
#506=CARTESIAN_POINT('',(-0.371250000000001,72.,0.580000000000002));
#507=CARTESIAN_POINT('',(-0.371250000000001,72.,0.580000000000002));
#508=CARTESIAN_POINT('',(-0.47125,0.,0.560000000000003));
#509=CARTESIAN_POINT('',(-0.47125,0.,0.560000000000003));
#510=CARTESIAN_POINT('',(-0.47125,72.,0.560000000000003));
#511=CARTESIAN_POINT('',(-0.47125,72.,0.560000000000003));
#512=CARTESIAN_POINT('',(-0.47125,72.,0.560000000000003));
#513=CARTESIAN_POINT('',(-0.47125,72.,0.560000000000003));
#514=CARTESIAN_POINT('',(-0.47125,0.,0.8));
#515=CARTESIAN_POINT('',(-0.47125,0.,0.8));
#516=CARTESIAN_POINT('',(-0.47125,72.,0.8));
#517=CARTESIAN_POINT('',(-0.47125,72.,0.8));
#518=CARTESIAN_POINT('',(-0.47125,72.,0.8));
#519=CARTESIAN_POINT('',(-0.47125,72.,0.8));
#520=CARTESIAN_POINT('',(0.47125,0.,0.8));
#521=CARTESIAN_POINT('',(0.47125,0.,0.8));
#522=CARTESIAN_POINT('',(0.47125,72.,0.8));
#523=CARTESIAN_POINT('',(0.47125,72.,0.8));
#524=CARTESIAN_POINT('',(0.47125,72.,0.8));
#525=CARTESIAN_POINT('',(0.47125,72.,0.8));
#526=CARTESIAN_POINT('',(0.47125,0.,0.8));
#527=CARTESIAN_POINT('',(0.47125,0.,0.560000000000003));
#528=CARTESIAN_POINT('',(0.47125,72.,0.560000000000003));
#529=CARTESIAN_POINT('',(0.47125,72.,0.560000000000003));
#530=CARTESIAN_POINT('',(0.47125,72.,0.8));
#531=CARTESIAN_POINT('',(0.47125,72.,0.8));
#532=CARTESIAN_POINT('',(0.47125,0.,0.560000000000003));
#533=CARTESIAN_POINT('',(0.42525,0.,0.560000000000003));
#534=CARTESIAN_POINT('',(0.42525,72.,0.560000000000003));
#535=CARTESIAN_POINT('',(0.42525,72.,0.560000000000003));
#536=CARTESIAN_POINT('',(0.47125,72.,0.560000000000003));
#537=CARTESIAN_POINT('',(0.47125,72.,0.560000000000003));
#538=CARTESIAN_POINT('',(0.37125,0.,0.580000000000002));
#539=CARTESIAN_POINT('',(0.37125,0.,0.580000000000002));
#540=CARTESIAN_POINT('',(0.37125,72.,0.580000000000002));
#541=CARTESIAN_POINT('',(0.37125,72.,0.580000000000002));
#542=CARTESIAN_POINT('',(0.37125,72.,0.580000000000002));
#543=CARTESIAN_POINT('',(0.37125,72.,0.580000000000002));
#544=CARTESIAN_POINT('',(0.37125,0.,0.610000000000001));
#545=CARTESIAN_POINT('',(0.37125,0.,0.610000000000001));
#546=CARTESIAN_POINT('',(0.37125,72.,0.610000000000001));
#547=CARTESIAN_POINT('',(0.37125,72.,0.610000000000001));
#548=CARTESIAN_POINT('',(0.37125,72.,0.610000000000001));
#549=CARTESIAN_POINT('',(0.37125,72.,0.610000000000001));
#550=CARTESIAN_POINT('',(0.37125,0.,0.610000000000001));
#551=CARTESIAN_POINT('',(0.42125,0.,0.610000000000001));
#552=CARTESIAN_POINT('',(0.42125,72.,0.610000000000001));
#553=CARTESIAN_POINT('',(0.42125,72.,0.610000000000001));
#554=CARTESIAN_POINT('',(0.37125,72.,0.610000000000001));
#555=CARTESIAN_POINT('',(0.37125,72.,0.610000000000001));
#556=CARTESIAN_POINT('',(0.42125,0.,0.75));
#557=CARTESIAN_POINT('',(0.42125,0.,0.75));
#558=CARTESIAN_POINT('',(0.42125,72.,0.75));
#559=CARTESIAN_POINT('',(0.42125,72.,0.75));
#560=CARTESIAN_POINT('',(0.42125,72.,0.75));
#561=CARTESIAN_POINT('',(0.42125,72.,0.75));
#562=CARTESIAN_POINT('',(0.42125,0.,0.75));
#563=CARTESIAN_POINT('',(-0.42125,0.,0.75));
#564=CARTESIAN_POINT('',(-0.42125,72.,0.75));
#565=CARTESIAN_POINT('',(-0.42125,72.,0.75));
#566=CARTESIAN_POINT('',(0.42125,72.,0.75));
#567=CARTESIAN_POINT('',(0.42125,72.,0.75));
#568=CARTESIAN_POINT('',(-0.42125,0.,0.75));
#569=CARTESIAN_POINT('',(-0.42125,0.,0.610000000000001));
#570=CARTESIAN_POINT('',(-0.42125,72.,0.610000000000001));
#571=CARTESIAN_POINT('',(-0.42125,72.,0.610000000000001));
#572=CARTESIAN_POINT('',(-0.42125,72.,0.75));
#573=CARTESIAN_POINT('',(-0.42125,72.,0.75));
#574=CARTESIAN_POINT('',(-0.37125,0.,0.610000000000001));
#575=CARTESIAN_POINT('',(-0.37125,72.,0.610000000000001));
#576=CARTESIAN_POINT('',(-0.37125,72.,0.610000000000001));
#577=CARTESIAN_POINT('',(-0.371250000000001,72.,0.560000000000003));
#578=CARTESIAN_POINT('',(-0.371250000000001,0.,0.560000000000003));
#579=(
GEOMETRIC_REPRESENTATION_CONTEXT(3)
GLOBAL_UNCERTAINTY_ASSIGNED_CONTEXT((#580))
GLOBAL_UNIT_ASSIGNED_CONTEXT((#585,#582,#581))
REPRESENTATION_CONTEXT('C','TOP_LEVEL_ASSEMBLY_PART')
);
#580=UNCERTAINTY_MEASURE_WITH_UNIT(LENGTH_MEASURE(7.8740157480315E-007),
#585,'DISTANCE_ACCURACY_VALUE','Maximum Tolerance applied to model');
#581=(
NAMED_UNIT(*)
SI_UNIT($,.STERADIAN.)
SOLID_ANGLE_UNIT()
);
#582=(
CONVERSION_BASED_UNIT('DEGREE',#583)
NAMED_UNIT(#587)
PLANE_ANGLE_UNIT()
);
#583=PLANE_ANGLE_MEASURE_WITH_UNIT(PLANE_ANGLE_MEASURE(0.0174532925),#584);
#584=(
NAMED_UNIT(*)
PLANE_ANGLE_UNIT()
SI_UNIT($,.RADIAN.)
);
#585=(
CONVERSION_BASED_UNIT('INCH',#588)
LENGTH_UNIT()
NAMED_UNIT(#586)
);
#586=DIMENSIONAL_EXPONENTS(1.,0.,0.,0.,0.,0.,0.);
#587=DIMENSIONAL_EXPONENTS(0.,0.,0.,0.,0.,0.,0.);
#588=LENGTH_MEASURE_WITH_UNIT(LENGTH_MEASURE(25.4),#589);
#589=(
LENGTH_UNIT()
NAMED_UNIT(*)
SI_UNIT(.MILLI.,.METRE.)
);
ENDSEC;
END-ISO-10303-21;
