  0
SECTION
  2
HEADER
  9
$ACADVER
  1
AC1012
  9
$DWGCODEPAGE
  3
ANSI_1252
  9
$INSBASE
 10
0.0
 20
0.0
 30
0.0
  9
$EXTMIN
 10
-1.984313939214118
 20
1.238433860287109
 30
-0.0015258207003583
  9
$EXTMAX
 10
7.264343284145397
 20
10.10302736598885
 30
0.0000000349246037
  9
$LIMMIN
 10
0.0
 20
0.0
  9
$LIMMAX
 10
12.0
 20
9.0
  9
$ORTHOMODE
 70
     0
  9
$REGENMODE
 70
     1
  9
$FILLMODE
 70
     1
  9
$QTEXTMODE
 70
     0
  9
$MIRRTEXT
 70
     1
  9
$DRAGMODE
 70
     2
  9
$LTSCALE
 40
1.0
  9
$OSMODE
 70
    37
  9
$ATTMODE
 70
     1
  9
$TEXTSIZE
 40
0.2
  9
$TRACEWID
 40
0.05
  9
$TEXTSTYLE
  7
STANDARD
  9
$CLAYER
  8
0
  9
$CELTYPE
  6
BYLAYER
  9
$CECOLOR
 62
   256
  9
$CELTSCALE
 40
1.0
  9
$DELOBJ
 70
     1
  9
$DISPSILH
 70
     0
  9
$DIMSCALE
 40
1.0
  9
$DIMASZ
 40
0.18
  9
$DIMEXO
 40
0.0625
  9
$DIMDLI
 40
0.38
  9
$DIMRND
 40
0.0
  9
$DIMDLE
 40
0.0
  9
$DIMEXE
 40
0.18
  9
$DIMTP
 40
0.0
  9
$DIMTM
 40
0.0
  9
$DIMTXT
 40
0.18
  9
$DIMCEN
 40
0.09
  9
$DIMTSZ
 40
0.0
  9
$DIMTOL
 70
     0
  9
$DIMLIM
 70
     0
  9
$DIMTIH
 70
     1
  9
$DIMTOH
 70
     1
  9
$DIMSE1
 70
     0
  9
$DIMSE2
 70
     0
  9
$DIMTAD
 70
     0
  9
$DIMZIN
 70
     0
  9
$DIMBLK
  1

  9
$DIMASO
 70
     1
  9
$DIMSHO
 70
     1
  9
$DIMPOST
  1

  9
$DIMAPOST
  1

  9
$DIMALT
 70
     0
  9
$DIMALTD
 70
     2
  9
$DIMALTF
 40
25.4
  9
$DIMLFAC
 40
1.0
  9
$DIMTOFL
 70
     0
  9
$DIMTVP
 40
0.0
  9
$DIMTIX
 70
     0
  9
$DIMSOXD
 70
     0
  9
$DIMSAH
 70
     0
  9
$DIMBLK1
  1

  9
$DIMBLK2
  1

  9
$DIMSTYLE
  2
STANDARD
  9
$DIMCLRD
 70
     0
  9
$DIMCLRE
 70
     0
  9
$DIMCLRT
 70
     0
  9
$DIMTFAC
 40
1.0
  9
$DIMGAP
 40
0.09
  9
$DIMJUST
 70
     0
  9
$DIMSD1
 70
     0
  9
$DIMSD2
 70
     0
  9
$DIMTOLJ
 70
     1
  9
$DIMTZIN
 70
     0
  9
$DIMALTZ
 70
     0
  9
$DIMALTTZ
 70
     0
  9
$DIMFIT
 70
     5
  9
$DIMUPT
 70
     0
  9
$DIMUNIT
 70
     2
  9
$DIMDEC
 70
     4
  9
$DIMTDEC
 70
     4
  9
$DIMALTU
 70
     2
  9
$DIMALTTD
 70
     2
  9
$DIMTXSTY
  7
STANDARD
  9
$DIMAUNIT
 70
     0
  9
$LUNITS
 70
     2
  9
$LUPREC
 70
     4
  9
$SKETCHINC
 40
0.1
  9
$FILLETRAD
 40
0.0
  9
$AUNITS
 70
     0
  9
$AUPREC
 70
     0
  9
$MENU
  1
acad
  9
$ELEVATION
 40
0.0
  9
$PELEVATION
 40
0.0
  9
$THICKNESS
 40
0.0
  9
$LIMCHECK
 70
     0
  9
$BLIPMODE
 70
     0
  9
$CHAMFERA
 40
0.0
  9
$CHAMFERB
 40
0.0
  9
$CHAMFERC
 40
0.0
  9
$CHAMFERD
 40
0.0
  9
$SKPOLY
 70
     0
  9
$TDCREATE
 40
2454225.565312500
  9
$TDUPDATE
 40
2454225.567618900
  9
$TDINDWG
 40
0.0012248380
  9
$TDUSRTIMER
 40
0.0012248380
  9
$USRTIMER
 70
     1
  9
$ANGBASE
 50
0.0
  9
$ANGDIR
 70
     0
  9
$PDMODE
 70
     0
  9
$PDSIZE
 40
0.0
  9
$PLINEWID
 40
0.0
  9
$COORDS
 70
     1
  9
$SPLFRAME
 70
     0
  9
$SPLINETYPE
 70
     6
  9
$SPLINESEGS
 70
     8
  9
$ATTDIA
 70
     0
  9
$ATTREQ
 70
     1
  9
$HANDLING
 70
  4097
  9
$HANDSEED
  5
46A2
  9
$SURFTAB1
 70
     6
  9
$SURFTAB2
 70
     6
  9
$SURFTYPE
 70
     6
  9
$SURFU
 70
     6
  9
$SURFV
 70
     6
  9
$UCSNAME
  2

  9
$UCSORG
 10
0.0
 20
0.0
 30
0.0
  9
$UCSXDIR
 10
1.0
 20
0.0
 30
0.0
  9
$UCSYDIR
 10
0.0
 20
1.0
 30
0.0
  9
$PUCSNAME
  2

  9
$PUCSORG
 10
0.0
 20
0.0
 30
0.0
  9
$PUCSXDIR
 10
1.0
 20
0.0
 30
0.0
  9
$PUCSYDIR
 10
0.0
 20
1.0
 30
0.0
  9
$USERI1
 70
     0
  9
$USERI2
 70
     0
  9
$USERI3
 70
     0
  9
$USERI4
 70
     0
  9
$USERI5
 70
     0
  9
$USERR1
 40
0.0
  9
$USERR2
 40
0.0
  9
$USERR3
 40
0.0
  9
$USERR4
 40
0.0
  9
$USERR5
 40
0.0
  9
$WORLDVIEW
 70
     1
  9
$SHADEDGE
 70
     3
  9
$SHADEDIF
 70
    70
  9
$TILEMODE
 70
     1
  9
$MAXACTVP
 70
    16
  9
$PINSBASE
 10
0.0
 20
0.0
 30
0.0
  9
$PLIMCHECK
 70
     0
  9
$PEXTMIN
 10
1.000000000000000E+20
 20
1.000000000000000E+20
 30
1.000000000000000E+20
  9
$PEXTMAX
 10
-1.000000000000000E+20
 20
-1.000000000000000E+20
 30
-1.000000000000000E+20
  9
$PLIMMIN
 10
0.0
 20
0.0
  9
$PLIMMAX
 10
12.0
 20
9.0
  9
$UNITMODE
 70
     0
  9
$VISRETAIN
 70
     0
  9
$PLINEGEN
 70
     0
  9
$PSLTSCALE
 70
     1
  9
$TREEDEPTH
 70
  3020
  9
$PICKSTYLE
 70
     1
  9
$CMLSTYLE
  2
STANDARD
  9
$CMLJUST
 70
     0
  9
$CMLSCALE
 40
1.0
  9
$SAVEIMAGES
 70
     1
  0
ENDSEC
  0
SECTION
  2
CLASSES
  0
CLASS
  1
ACDBDICTIONARYWDFLT
  2
AcDbDictionaryWithDefault
  3
AutoCAD 2000
 90
    32768
280
     0
281
     0
  0
CLASS
  1
ACDBPLACEHOLDER
  2
AcDbPlaceHolder
  3
AutoCAD 2000
 90
    32768
280
     0
281
     0
  0
CLASS
  1
LAYOUT
  2
AcDbLayout
  3
AutoCAD 2000
 90
    32768
280
     0
281
     0
  0
CLASS
  1
LONG_TRANSACTION
  2
AcDbLongTransaction
  3
AutoCAD 2000
 90
    32768
280
     0
281
     0
  0
CLASS
  1
LWPOLYLINE
  2
AcDbPolyline
  3
AutoCAD 2000
 90
    32768
280
     0
281
     1
  0
CLASS
  1
HATCH
  2
AcDbHatch
  3
AutoCAD 2000
 90
    32768
280
     0
281
     1
  0
CLASS
  1
XRECORD
  2
AcDbXrecord
  3
AutoCAD 2000
 90
    32768
280
     0
281
     0
  0
ENDSEC
  0
SECTION
  2
TABLES
  0
TABLE
  2
VPORT
  5
8
330
0
100
AcDbSymbolTable
 70
     3
  0
VPORT
  5
41D9
330
8
100
AcDbSymbolTableRecord
100
AcDbViewportTableRecord
  2
*ACTIVE
 70
     0
 10
0.0
 20
0.0
 11
1.0
 21
1.0
 12
2.640014672465639
 22
5.670730613137981
 13
0.0
 23
0.0
 14
1.0
 24
1.0
 15
0.0
 25
0.0
 16
0.0
 26
0.0
 36
1.0
 17
0.0
 27
0.0
 37
0.0
 40
8.970544822502958
 41
1.838323353293413
 42
50.0
 43
0.0
 44
0.0
 50
0.0
 51
0.0
 71
     0
 72
   100
 73
     1
 74
     1
 75
     0
 76
     0
 77
     0
 78
     0
  0
ENDTAB
  0
TABLE
  2
LTYPE
  5
5
330
0
100
AcDbSymbolTable
 70
    25
  0
LTYPE
  5
13
330
5
100
AcDbSymbolTableRecord
100
AcDbLinetypeTableRecord
  2
BYBLOCK
 70
     0
  3

 72
    65
 73
     0
 40
0.0
  0
LTYPE
  5
14
330
5
100
AcDbSymbolTableRecord
100
AcDbLinetypeTableRecord
  2
BYLAYER
 70
     0
  3

 72
    65
 73
     0
 40
0.0
  0
LTYPE
  5
15
330
5
100
AcDbSymbolTableRecord
100
AcDbLinetypeTableRecord
  2
CONTINUOUS
 70
     0
  3
Solid line
 72
    65
 73
     0
 40
0.0
  0
LTYPE
  5
22
330
5
100
AcDbSymbolTableRecord
100
AcDbLinetypeTableRecord
  2
BORDER
 70
     0
  3
__ __ . __ __ . __ __ . __ __ . __ __ . __ __ .
 72
    65
 73
     6
 40
1.75
 49
0.5
 74
     0
 49
-0.25
 74
     0
 49
0.5
 74
     0
 49
-0.25
 74
     0
 49
0.5
 74
     0
 49
-0.25
 74
     0
  0
LTYPE
  5
23
330
5
100
AcDbSymbolTableRecord
100
AcDbLinetypeTableRecord
  2
BORDER2
 70
     0
  3
__.__.__.__.__.__.__.__.
 72
    65
 73
     6
 40
0.875
 49
0.25
 74
     0
 49
-0.125
 74
     0
 49
0.25
 74
     0
 49
-0.125
 74
     0
 49
0.25
 74
     0
 49
-0.125
 74
     0
  0
LTYPE
  5
24
330
5
100
AcDbSymbolTableRecord
100
AcDbLinetypeTableRecord
  2
BORDERX2
 70
     0
  3
____  ____  .  
 72
    65
 73
     6
 40
3.5
 49
1.0
 74
     0
 49
-0.5
 74
     0
 49
1.0
 74
     0
 49
-0.5
 74
     0
 49
1.0
 74
     0
 49
-0.5
 74
     0
  0
LTYPE
  5
25
330
5
100
AcDbSymbolTableRecord
100
AcDbLinetypeTableRecord
  2
CENTER
 70
     0
  3
____ _ ____ _ ____ _ 
 72
    65
 73
     4
 40
2.0
 49
1.25
 74
     0
 49
-0.25
 74
     0
 49
0.25
 74
     0
 49
-0.25
 74
     0
  0
LTYPE
  5
26
330
5
100
AcDbSymbolTableRecord
100
AcDbLinetypeTableRecord
  2
CENTER2
 70
     0
  3
____ _ ____ _ ____ _ 
 72
    65
 73
     4
 40
1.125
 49
0.75
 74
     0
 49
-0.125
 74
     0
 49
0.125
 74
     0
 49
-0.125
 74
     0
  0
LTYPE
  5
27
330
5
100
AcDbSymbolTableRecord
100
AcDbLinetypeTableRecord
  2
CENTERX2
 70
     0
  3
________  __  
 72
    65
 73
     4
 40
4.0
 49
2.5
 74
     0
 49
-0.5
 74
     0
 49
0.5
 74
     0
 49
-0.5
 74
     0
  0
LTYPE
  5
28
330
5
100
AcDbSymbolTableRecord
100
AcDbLinetypeTableRecord
  2
DASHDOT
 70
     0
  3
__ . __ . __ . __ . 
 72
    65
 73
     4
 40
1.0
 49
0.5
 74
     0
 49
-0.25
 74
     0
 49
0.0
 74
     0
 49
-0.25
 74
     0
  0
LTYPE
  5
29
330
5
100
AcDbSymbolTableRecord
100
AcDbLinetypeTableRecord
  2
DASHDOT2
 70
     0
  3
_._._._._._._._._.
 72
    65
 73
     4
 40
0.5
 49
0.25
 74
     0
 49
-0.125
 74
     0
 49
0.0
 74
     0
 49
-0.125
 74
     0
  0
LTYPE
  5
2A
330
5
100
AcDbSymbolTableRecord
100
AcDbLinetypeTableRecord
  2
DASHDOTX2
 70
     0
  3
____  .  ____  .  
 72
    65
 73
     4
 40
2.0
 49
1.0
 74
     0
 49
-0.5
 74
     0
 49
0.0
 74
     0
 49
-0.5
 74
     0
  0
LTYPE
  5
2B
330
5
100
AcDbSymbolTableRecord
100
AcDbLinetypeTableRecord
  2
DASHED
 70
     0
  3
__ __ __ __ __ __ __ 
 72
    65
 73
     2
 40
0.75
 49
0.5
 74
     0
 49
-0.25
 74
     0
  0
LTYPE
  5
2C
330
5
100
AcDbSymbolTableRecord
100
AcDbLinetypeTableRecord
  2
DASHED2
 70
     0
  3
_ _ _ _ _ _ _ _ _ _ 
 72
    65
 73
     2
 40
0.375
 49
0.25
 74
     0
 49
-0.125
 74
     0
  0
LTYPE
  5
2D
330
5
100
AcDbSymbolTableRecord
100
AcDbLinetypeTableRecord
  2
DASHEDX2
 70
     0
  3
____  ____  ____  
 72
    65
 73
     2
 40
1.5
 49
1.0
 74
     0
 49
-0.5
 74
     0
  0
LTYPE
  5
2E
330
5
100
AcDbSymbolTableRecord
100
AcDbLinetypeTableRecord
  2
DIVIDE
 70
     0
  3
____ . . ____ . . 
 72
    65
 73
     6
 40
1.25
 49
0.5
 74
     0
 49
-0.25
 74
     0
 49
0.0
 74
     0
 49
-0.25
 74
     0
 49
0.0
 74
     0
 49
-0.25
 74
     0
  0
LTYPE
  5
2F
330
5
100
AcDbSymbolTableRecord
100
AcDbLinetypeTableRecord
  2
DIVIDE2
 70
     0
  3
__..__..__..__..__..
 72
    65
 73
     6
 40
0.625
 49
0.25
 74
     0
 49
-0.125
 74
     0
 49
0.0
 74
     0
 49
-0.125
 74
     0
 49
0.0
 74
     0
 49
-0.125
 74
     0
  0
LTYPE
  5
30
330
5
100
AcDbSymbolTableRecord
100
AcDbLinetypeTableRecord
  2
DIVIDEX2
 70
     0
  3
________  .  .  
 72
    65
 73
     6
 40
2.5
 49
1.0
 74
     0
 49
-0.5
 74
     0
 49
0.0
 74
     0
 49
-0.5
 74
     0
 49
0.0
 74
     0
 49
-0.5
 74
     0
  0
LTYPE
  5
31
330
5
100
AcDbSymbolTableRecord
100
AcDbLinetypeTableRecord
  2
DOT
 70
     0
  3
. . . . . . . . . 
 72
    65
 73
     2
 40
0.25
 49
0.0
 74
     0
 49
-0.25
 74
     0
  0
LTYPE
  5
32
330
5
100
AcDbSymbolTableRecord
100
AcDbLinetypeTableRecord
  2
DOT2
 70
     0
  3
..................
 72
    65
 73
     2
 40
0.125
 49
0.0
 74
     0
 49
-0.125
 74
     0
  0
LTYPE
  5
33
330
5
100
AcDbSymbolTableRecord
100
AcDbLinetypeTableRecord
  2
DOTX2
 70
     0
  3
.  .  .  .  .  .  
 72
    65
 73
     2
 40
0.5
 49
0.0
 74
     0
 49
-0.5
 74
     0
  0
LTYPE
  5
34
330
5
100
AcDbSymbolTableRecord
100
AcDbLinetypeTableRecord
  2
HIDDEN
 70
     0
  3
__ __ __ __ __ __ 
 72
    65
 73
     2
 40
0.375
 49
0.25
 74
     0
 49
-0.125
 74
     0
  0
LTYPE
  5
35
330
5
100
AcDbSymbolTableRecord
100
AcDbLinetypeTableRecord
  2
HIDDEN2
 70
     0
  3
_ _ _ _ _ _ _ _ _ 
 72
    65
 73
     2
 40
0.1875
 49
0.125
 74
     0
 49
-0.0625
 74
     0
  0
LTYPE
  5
36
330
5
100
AcDbSymbolTableRecord
100
AcDbLinetypeTableRecord
  2
HIDDENX2
 70
     0
  3
____ ____ ____ ____ 
 72
    65
 73
     2
 40
0.75
 49
0.5
 74
     0
 49
-0.25
 74
     0
  0
LTYPE
  5
37
330
5
100
AcDbSymbolTableRecord
100
AcDbLinetypeTableRecord
  2
PHANTOM
 70
     0
  3
______  __  __  
 72
    65
 73
     6
 40
2.5
 49
1.25
 74
     0
 49
-0.25
 74
     0
 49
0.25
 74
     0
 49
-0.25
 74
     0
 49
0.25
 74
     0
 49
-0.25
 74
     0
  0
LTYPE
  5
38
330
5
100
AcDbSymbolTableRecord
100
AcDbLinetypeTableRecord
  2
PHANTOM2
 70
     0
  3
___ _ _ ___ _ _ 
 72
    65
 73
     6
 40
1.25
 49
0.625
 74
     0
 49
-0.125
 74
     0
 49
0.125
 74
     0
 49
-0.125
 74
     0
 49
0.125
 74
     0
 49
-0.125
 74
     0
  0
LTYPE
  5
39
330
5
100
AcDbSymbolTableRecord
100
AcDbLinetypeTableRecord
  2
PHANTOMX2
 70
     0
  3
___ _ _ ___ _ _ 
 72
    65
 73
     6
 40
5.0
 49
2.5
 74
     0
 49
-0.5
 74
     0
 49
0.5
 74
     0
 49
-0.5
 74
     0
 49
0.5
 74
     0
 49
-0.5
 74
     0
  0
ENDTAB
  0
TABLE
  2
LAYER
  5
2
330
0
100
AcDbSymbolTable
 70
   257
  0
LAYER
  5
10
330
2
100
AcDbSymbolTableRecord
100
AcDbLayerTableRecord
  2
0
 70
     0
 62
     7
  6
CONTINUOUS
  0
LAYER
  5
3A
330
2
100
AcDbSymbolTableRecord
100
AcDbLayerTableRecord
  2
1
 70
     0
 62
     1
  6
CONTINUOUS
  0
LAYER
  5
3B
330
2
100
AcDbSymbolTableRecord
100
AcDbLayerTableRecord
  2
2
 70
     0
 62
     2
  6
CONTINUOUS
  0
LAYER
  5
3C
330
2
100
AcDbSymbolTableRecord
100
AcDbLayerTableRecord
  2
3
 70
     0
 62
     3
  6
CONTINUOUS
  0
LAYER
  5
3D
330
2
100
AcDbSymbolTableRecord
100
AcDbLayerTableRecord
  2
4
 70
     0
 62
     4
  6
CONTINUOUS
  0
LAYER
  5
3E
330
2
100
AcDbSymbolTableRecord
100
AcDbLayerTableRecord
  2
5
 70
     0
 62
     5
  6
CONTINUOUS
  0
LAYER
  5
3F
330
2
100
AcDbSymbolTableRecord
100
AcDbLayerTableRecord
  2
6
 70
     0
 62
     6
  6
CONTINUOUS
  0
LAYER
  5
40
330
2
100
AcDbSymbolTableRecord
100
AcDbLayerTableRecord
  2
7
 70
     0
 62
     7
  6
CONTINUOUS
  0
LAYER
  5
41
330
2
100
AcDbSymbolTableRecord
100
AcDbLayerTableRecord
  2
8
 70
     0
 62
     8
  6
CONTINUOUS
  0
LAYER
  5
42
330
2
100
AcDbSymbolTableRecord
100
AcDbLayerTableRecord
  2
9
 70
     0
 62
     9
  6
CONTINUOUS
  0
LAYER
  5
43
330
2
100
AcDbSymbolTableRecord
100
AcDbLayerTableRecord
  2
10
 70
     0
 62
    10
  6
CONTINUOUS
  0
LAYER
  5
44
330
2
100
AcDbSymbolTableRecord
100
AcDbLayerTableRecord
  2
11
 70
     0
 62
    11
  6
CONTINUOUS
  0
LAYER
  5
45
330
2
100
AcDbSymbolTableRecord
100
AcDbLayerTableRecord
  2
12
 70
     0
 62
    12
  6
CONTINUOUS
  0
LAYER
  5
46
330
2
100
AcDbSymbolTableRecord
100
AcDbLayerTableRecord
  2
13
 70
     0
 62
    13
  6
CONTINUOUS
  0
LAYER
  5
47
330
2
100
AcDbSymbolTableRecord
100
AcDbLayerTableRecord
  2
14
 70
     0
 62
    14
  6
CONTINUOUS
  0
LAYER
  5
48
330
2
100
AcDbSymbolTableRecord
100
AcDbLayerTableRecord
  2
15
 70
     0
 62
    15
  6
CONTINUOUS
  0
LAYER
  5
49
330
2
100
AcDbSymbolTableRecord
100
AcDbLayerTableRecord
  2
16
 70
     0
 62
    16
  6
CONTINUOUS
  0
LAYER
  5
4A
330
2
100
AcDbSymbolTableRecord
100
AcDbLayerTableRecord
  2
17
 70
     0
 62
    17
  6
CONTINUOUS
  0
LAYER
  5
4B
330
2
100
AcDbSymbolTableRecord
100
AcDbLayerTableRecord
  2
18
 70
     0
 62
    18
  6
CONTINUOUS
  0
LAYER
  5
4C
330
2
100
AcDbSymbolTableRecord
100
AcDbLayerTableRecord
  2
19
 70
     0
 62
    19
  6
CONTINUOUS
  0
LAYER
  5
4D
330
2
100
AcDbSymbolTableRecord
100
AcDbLayerTableRecord
  2
20
 70
     0
 62
    20
  6
CONTINUOUS
  0
LAYER
  5
4E
330
2
100
AcDbSymbolTableRecord
100
AcDbLayerTableRecord
  2
21
 70
     0
 62
    21
  6
CONTINUOUS
  0
LAYER
  5
4F
330
2
100
AcDbSymbolTableRecord
100
AcDbLayerTableRecord
  2
22
 70
     0
 62
    22
  6
CONTINUOUS
  0
LAYER
  5
50
330
2
100
AcDbSymbolTableRecord
100
AcDbLayerTableRecord
  2
23
 70
     0
 62
    23
  6
CONTINUOUS
  0
LAYER
  5
51
330
2
100
AcDbSymbolTableRecord
100
AcDbLayerTableRecord
  2
24
 70
     0
 62
    24
  6
CONTINUOUS
  0
LAYER
  5
52
330
2
100
AcDbSymbolTableRecord
100
AcDbLayerTableRecord
  2
25
 70
     0
 62
    25
  6
CONTINUOUS
  0
LAYER
  5
53
330
2
100
AcDbSymbolTableRecord
100
AcDbLayerTableRecord
  2
26
 70
     0
 62
    26
  6
CONTINUOUS
  0
LAYER
  5
54
330
2
100
AcDbSymbolTableRecord
100
AcDbLayerTableRecord
  2
27
 70
     0
 62
    27
  6
CONTINUOUS
  0
LAYER
  5
55
330
2
100
AcDbSymbolTableRecord
100
AcDbLayerTableRecord
  2
28
 70
     0
 62
    28
  6
CONTINUOUS
  0
LAYER
  5
56
330
2
100
AcDbSymbolTableRecord
100
AcDbLayerTableRecord
  2
29
 70
     0
 62
    29
  6
CONTINUOUS
  0
LAYER
  5
57
330
2
100
AcDbSymbolTableRecord
100
AcDbLayerTableRecord
  2
30
 70
     0
 62
    30
  6
CONTINUOUS
  0
LAYER
  5
58
330
2
100
AcDbSymbolTableRecord
100
AcDbLayerTableRecord
  2
31
 70
     0
 62
    31
  6
CONTINUOUS
  0
LAYER
  5
59
330
2
100
AcDbSymbolTableRecord
100
AcDbLayerTableRecord
  2
32
 70
     0
 62
    32
  6
CONTINUOUS
  0
LAYER
  5
5A
330
2
100
AcDbSymbolTableRecord
100
AcDbLayerTableRecord
  2
33
 70
     0
 62
    33
  6
CONTINUOUS
  0
LAYER
  5
5B
330
2
100
AcDbSymbolTableRecord
100
AcDbLayerTableRecord
  2
34
 70
     0
 62
    34
  6
CONTINUOUS
  0
LAYER
  5
5C
330
2
100
AcDbSymbolTableRecord
100
AcDbLayerTableRecord
  2
35
 70
     0
 62
    35
  6
CONTINUOUS
  0
LAYER
  5
5D
330
2
100
AcDbSymbolTableRecord
100
AcDbLayerTableRecord
  2
36
 70
     0
 62
    36
  6
CONTINUOUS
  0
LAYER
  5
5E
330
2
100
AcDbSymbolTableRecord
100
AcDbLayerTableRecord
  2
37
 70
     0
 62
    37
  6
CONTINUOUS
  0
LAYER
  5
5F
330
2
100
AcDbSymbolTableRecord
100
AcDbLayerTableRecord
  2
38
 70
     0
 62
    38
  6
CONTINUOUS
  0
LAYER
  5
60
330
2
100
AcDbSymbolTableRecord
100
AcDbLayerTableRecord
  2
39
 70
     0
 62
    39
  6
CONTINUOUS
  0
LAYER
  5
61
330
2
100
AcDbSymbolTableRecord
100
AcDbLayerTableRecord
  2
40
 70
     0
 62
    40
  6
CONTINUOUS
  0
LAYER
  5
62
330
2
100
AcDbSymbolTableRecord
100
AcDbLayerTableRecord
  2
41
 70
     0
 62
    41
  6
CONTINUOUS
  0
LAYER
  5
63
330
2
100
AcDbSymbolTableRecord
100
AcDbLayerTableRecord
  2
42
 70
     0
 62
    42
  6
CONTINUOUS
  0
LAYER
  5
64
330
2
100
AcDbSymbolTableRecord
100
AcDbLayerTableRecord
  2
43
 70
     0
 62
    43
  6
CONTINUOUS
  0
LAYER
  5
65
330
2
100
AcDbSymbolTableRecord
100
AcDbLayerTableRecord
  2
44
 70
     0
 62
    44
  6
CONTINUOUS
  0
LAYER
  5
66
330
2
100
AcDbSymbolTableRecord
100
AcDbLayerTableRecord
  2
45
 70
     0
 62
    45
  6
CONTINUOUS
  0
LAYER
  5
67
330
2
100
AcDbSymbolTableRecord
100
AcDbLayerTableRecord
  2
46
 70
     0
 62
    46
  6
CONTINUOUS
  0
LAYER
  5
68
330
2
100
AcDbSymbolTableRecord
100
AcDbLayerTableRecord
  2
47
 70
     0
 62
    47
  6
CONTINUOUS
  0
LAYER
  5
69
330
2
100
AcDbSymbolTableRecord
100
AcDbLayerTableRecord
  2
48
 70
     0
 62
    48
  6
CONTINUOUS
  0
LAYER
  5
6A
330
2
100
AcDbSymbolTableRecord
100
AcDbLayerTableRecord
  2
49
 70
     0
 62
    49
  6
CONTINUOUS
  0
LAYER
  5
6B
330
2
100
AcDbSymbolTableRecord
100
AcDbLayerTableRecord
  2
50
 70
     0
 62
    50
  6
CONTINUOUS
  0
LAYER
  5
6C
330
2
100
AcDbSymbolTableRecord
100
AcDbLayerTableRecord
  2
51
 70
     0
 62
    51
  6
CONTINUOUS
  0
LAYER
  5
6D
330
2
100
AcDbSymbolTableRecord
100
AcDbLayerTableRecord
  2
52
 70
     0
 62
    52
  6
CONTINUOUS
  0
LAYER
  5
6E
330
2
100
AcDbSymbolTableRecord
100
AcDbLayerTableRecord
  2
53
 70
     0
 62
    53
  6
CONTINUOUS
  0
LAYER
  5
6F
330
2
100
AcDbSymbolTableRecord
100
AcDbLayerTableRecord
  2
54
 70
     0
 62
    54
  6
CONTINUOUS
  0
LAYER
  5
70
330
2
100
AcDbSymbolTableRecord
100
AcDbLayerTableRecord
  2
55
 70
     0
 62
    55
  6
CONTINUOUS
  0
LAYER
  5
71
330
2
100
AcDbSymbolTableRecord
100
AcDbLayerTableRecord
  2
56
 70
     0
 62
    56
  6
CONTINUOUS
  0
LAYER
  5
72
330
2
100
AcDbSymbolTableRecord
100
AcDbLayerTableRecord
  2
57
 70
     0
 62
    57
  6
CONTINUOUS
  0
LAYER
  5
73
330
2
100
AcDbSymbolTableRecord
100
AcDbLayerTableRecord
  2
58
 70
     0
 62
    58
  6
CONTINUOUS
  0
LAYER
  5
74
330
2
100
AcDbSymbolTableRecord
100
AcDbLayerTableRecord
  2
59
 70
     0
 62
    59
  6
CONTINUOUS
  0
LAYER
  5
75
330
2
100
AcDbSymbolTableRecord
100
AcDbLayerTableRecord
  2
60
 70
     0
 62
    60
  6
CONTINUOUS
  0
LAYER
  5
76
330
2
100
AcDbSymbolTableRecord
100
AcDbLayerTableRecord
  2
61
 70
     0
 62
    61
  6
CONTINUOUS
  0
LAYER
  5
77
330
2
100
AcDbSymbolTableRecord
100
AcDbLayerTableRecord
  2
62
 70
     0
 62
    62
  6
CONTINUOUS
  0
LAYER
  5
78
330
2
100
AcDbSymbolTableRecord
100
AcDbLayerTableRecord
  2
63
 70
     0
 62
    63
  6
CONTINUOUS
  0
LAYER
  5
79
330
2
100
AcDbSymbolTableRecord
100
AcDbLayerTableRecord
  2
64
 70
     0
 62
    64
  6
CONTINUOUS
  0
LAYER
  5
7A
330
2
100
AcDbSymbolTableRecord
100
AcDbLayerTableRecord
  2
65
 70
     0
 62
    65
  6
CONTINUOUS
  0
LAYER
  5
7B
330
2
100
AcDbSymbolTableRecord
100
AcDbLayerTableRecord
  2
66
 70
     0
 62
    66
  6
CONTINUOUS
  0
LAYER
  5
7C
330
2
100
AcDbSymbolTableRecord
100
AcDbLayerTableRecord
  2
67
 70
     0
 62
    67
  6
CONTINUOUS
  0
LAYER
  5
7D
330
2
100
AcDbSymbolTableRecord
100
AcDbLayerTableRecord
  2
68
 70
     0
 62
    68
  6
CONTINUOUS
  0
LAYER
  5
7E
330
2
100
AcDbSymbolTableRecord
100
AcDbLayerTableRecord
  2
69
 70
     0
 62
    69
  6
CONTINUOUS
  0
LAYER
  5
7F
330
2
100
AcDbSymbolTableRecord
100
AcDbLayerTableRecord
  2
70
 70
     0
 62
    70
  6
CONTINUOUS
  0
LAYER
  5
80
330
2
100
AcDbSymbolTableRecord
100
AcDbLayerTableRecord
  2
71
 70
     0
 62
    71
  6
CONTINUOUS
  0
LAYER
  5
81
330
2
100
AcDbSymbolTableRecord
100
AcDbLayerTableRecord
  2
72
 70
     0
 62
    72
  6
CONTINUOUS
  0
LAYER
  5
82
330
2
100
AcDbSymbolTableRecord
100
AcDbLayerTableRecord
  2
73
 70
     0
 62
    73
  6
CONTINUOUS
  0
LAYER
  5
83
330
2
100
AcDbSymbolTableRecord
100
AcDbLayerTableRecord
  2
74
 70
     0
 62
    74
  6
CONTINUOUS
  0
LAYER
  5
84
330
2
100
AcDbSymbolTableRecord
100
AcDbLayerTableRecord
  2
75
 70
     0
 62
    75
  6
CONTINUOUS
  0
LAYER
  5
85
330
2
100
AcDbSymbolTableRecord
100
AcDbLayerTableRecord
  2
76
 70
     0
 62
    76
  6
CONTINUOUS
  0
LAYER
  5
86
330
2
100
AcDbSymbolTableRecord
100
AcDbLayerTableRecord
  2
77
 70
     0
 62
    77
  6
CONTINUOUS
  0
LAYER
  5
87
330
2
100
AcDbSymbolTableRecord
100
AcDbLayerTableRecord
  2
78
 70
     0
 62
    78
  6
CONTINUOUS
  0
LAYER
  5
88
330
2
100
AcDbSymbolTableRecord
100
AcDbLayerTableRecord
  2
79
 70
     0
 62
    79
  6
CONTINUOUS
  0
LAYER
  5
89
330
2
100
AcDbSymbolTableRecord
100
AcDbLayerTableRecord
  2
80
 70
     0
 62
    80
  6
CONTINUOUS
  0
LAYER
  5
8A
330
2
100
AcDbSymbolTableRecord
100
AcDbLayerTableRecord
  2
81
 70
     0
 62
    81
  6
CONTINUOUS
  0
LAYER
  5
8B
330
2
100
AcDbSymbolTableRecord
100
AcDbLayerTableRecord
  2
82
 70
     0
 62
    82
  6
CONTINUOUS
  0
LAYER
  5
8C
330
2
100
AcDbSymbolTableRecord
100
AcDbLayerTableRecord
  2
83
 70
     0
 62
    83
  6
CONTINUOUS
  0
LAYER
  5
8D
330
2
100
AcDbSymbolTableRecord
100
AcDbLayerTableRecord
  2
84
 70
     0
 62
    84
  6
CONTINUOUS
  0
LAYER
  5
8E
330
2
100
AcDbSymbolTableRecord
100
AcDbLayerTableRecord
  2
85
 70
     0
 62
    85
  6
CONTINUOUS
  0
LAYER
  5
8F
330
2
100
AcDbSymbolTableRecord
100
AcDbLayerTableRecord
  2
86
 70
     0
 62
    86
  6
CONTINUOUS
  0
LAYER
  5
90
330
2
100
AcDbSymbolTableRecord
100
AcDbLayerTableRecord
  2
87
 70
     0
 62
    87
  6
CONTINUOUS
  0
LAYER
  5
91
330
2
100
AcDbSymbolTableRecord
100
AcDbLayerTableRecord
  2
88
 70
     0
 62
    88
  6
CONTINUOUS
  0
LAYER
  5
92
330
2
100
AcDbSymbolTableRecord
100
AcDbLayerTableRecord
  2
89
 70
     0
 62
    89
  6
CONTINUOUS
  0
LAYER
  5
93
330
2
100
AcDbSymbolTableRecord
100
AcDbLayerTableRecord
  2
90
 70
     0
 62
    90
  6
CONTINUOUS
  0
LAYER
  5
94
330
2
100
AcDbSymbolTableRecord
100
AcDbLayerTableRecord
  2
91
 70
     0
 62
    91
  6
CONTINUOUS
  0
LAYER
  5
95
330
2
100
AcDbSymbolTableRecord
100
AcDbLayerTableRecord
  2
92
 70
     0
 62
    92
  6
CONTINUOUS
  0
LAYER
  5
96
330
2
100
AcDbSymbolTableRecord
100
AcDbLayerTableRecord
  2
93
 70
     0
 62
    93
  6
CONTINUOUS
  0
LAYER
  5
97
330
2
100
AcDbSymbolTableRecord
100
AcDbLayerTableRecord
  2
94
 70
     0
 62
    94
  6
CONTINUOUS
  0
LAYER
  5
98
330
2
100
AcDbSymbolTableRecord
100
AcDbLayerTableRecord
  2
95
 70
     0
 62
    95
  6
CONTINUOUS
  0
LAYER
  5
99
330
2
100
AcDbSymbolTableRecord
100
AcDbLayerTableRecord
  2
96
 70
     0
 62
    96
  6
CONTINUOUS
  0
LAYER
  5
9A
330
2
100
AcDbSymbolTableRecord
100
AcDbLayerTableRecord
  2
97
 70
     0
 62
    97
  6
CONTINUOUS
  0
LAYER
  5
9B
330
2
100
AcDbSymbolTableRecord
100
AcDbLayerTableRecord
  2
98
 70
     0
 62
    98
  6
CONTINUOUS
  0
LAYER
  5
9C
330
2
100
AcDbSymbolTableRecord
100
AcDbLayerTableRecord
  2
99
 70
     0
 62
    99
  6
CONTINUOUS
  0
LAYER
  5
9D
330
2
100
AcDbSymbolTableRecord
100
AcDbLayerTableRecord
  2
100
 70
     0
 62
   100
  6
CONTINUOUS
  0
LAYER
  5
9E
330
2
100
AcDbSymbolTableRecord
100
AcDbLayerTableRecord
  2
101
 70
     0
 62
   101
  6
CONTINUOUS
  0
LAYER
  5
9F
330
2
100
AcDbSymbolTableRecord
100
AcDbLayerTableRecord
  2
102
 70
     0
 62
   102
  6
CONTINUOUS
  0
LAYER
  5
A0
330
2
100
AcDbSymbolTableRecord
100
AcDbLayerTableRecord
  2
103
 70
     0
 62
   103
  6
CONTINUOUS
  0
LAYER
  5
A1
330
2
100
AcDbSymbolTableRecord
100
AcDbLayerTableRecord
  2
104
 70
     0
 62
   104
  6
CONTINUOUS
  0
LAYER
  5
A2
330
2
100
AcDbSymbolTableRecord
100
AcDbLayerTableRecord
  2
105
 70
     0
 62
   105
  6
CONTINUOUS
  0
LAYER
  5
A3
330
2
100
AcDbSymbolTableRecord
100
AcDbLayerTableRecord
  2
106
 70
     0
 62
   106
  6
CONTINUOUS
  0
LAYER
  5
A4
330
2
100
AcDbSymbolTableRecord
100
AcDbLayerTableRecord
  2
107
 70
     0
 62
   107
  6
CONTINUOUS
  0
LAYER
  5
A5
330
2
100
AcDbSymbolTableRecord
100
AcDbLayerTableRecord
  2
108
 70
     0
 62
   108
  6
CONTINUOUS
  0
LAYER
  5
A6
330
2
100
AcDbSymbolTableRecord
100
AcDbLayerTableRecord
  2
109
 70
     0
 62
   109
  6
CONTINUOUS
  0
LAYER
  5
A7
330
2
100
AcDbSymbolTableRecord
100
AcDbLayerTableRecord
  2
110
 70
     0
 62
   110
  6
CONTINUOUS
  0
LAYER
  5
A8
330
2
100
AcDbSymbolTableRecord
100
AcDbLayerTableRecord
  2
111
 70
     0
 62
   111
  6
CONTINUOUS
  0
LAYER
  5
A9
330
2
100
AcDbSymbolTableRecord
100
AcDbLayerTableRecord
  2
112
 70
     0
 62
   112
  6
CONTINUOUS
  0
LAYER
  5
AA
330
2
100
AcDbSymbolTableRecord
100
AcDbLayerTableRecord
  2
113
 70
     0
 62
   113
  6
CONTINUOUS
  0
LAYER
  5
AB
330
2
100
AcDbSymbolTableRecord
100
AcDbLayerTableRecord
  2
114
 70
     0
 62
   114
  6
CONTINUOUS
  0
LAYER
  5
AC
330
2
100
AcDbSymbolTableRecord
100
AcDbLayerTableRecord
  2
115
 70
     0
 62
   115
  6
CONTINUOUS
  0
LAYER
  5
AD
330
2
100
AcDbSymbolTableRecord
100
AcDbLayerTableRecord
  2
116
 70
     0
 62
   116
  6
CONTINUOUS
  0
LAYER
  5
AE
330
2
100
AcDbSymbolTableRecord
100
AcDbLayerTableRecord
  2
117
 70
     0
 62
   117
  6
CONTINUOUS
  0
LAYER
  5
AF
330
2
100
AcDbSymbolTableRecord
100
AcDbLayerTableRecord
  2
118
 70
     0
 62
   118
  6
CONTINUOUS
  0
LAYER
  5
B0
330
2
100
AcDbSymbolTableRecord
100
AcDbLayerTableRecord
  2
119
 70
     0
 62
   119
  6
CONTINUOUS
  0
LAYER
  5
B1
330
2
100
AcDbSymbolTableRecord
100
AcDbLayerTableRecord
  2
120
 70
     0
 62
   120
  6
CONTINUOUS
  0
LAYER
  5
B2
330
2
100
AcDbSymbolTableRecord
100
AcDbLayerTableRecord
  2
121
 70
     0
 62
   121
  6
CONTINUOUS
  0
LAYER
  5
B3
330
2
100
AcDbSymbolTableRecord
100
AcDbLayerTableRecord
  2
122
 70
     0
 62
   122
  6
CONTINUOUS
  0
LAYER
  5
B4
330
2
100
AcDbSymbolTableRecord
100
AcDbLayerTableRecord
  2
123
 70
     0
 62
   123
  6
CONTINUOUS
  0
LAYER
  5
B5
330
2
100
AcDbSymbolTableRecord
100
AcDbLayerTableRecord
  2
124
 70
     0
 62
   124
  6
CONTINUOUS
  0
LAYER
  5
B6
330
2
100
AcDbSymbolTableRecord
100
AcDbLayerTableRecord
  2
125
 70
     0
 62
   125
  6
CONTINUOUS
  0
LAYER
  5
B7
330
2
100
AcDbSymbolTableRecord
100
AcDbLayerTableRecord
  2
126
 70
     0
 62
   126
  6
CONTINUOUS
  0
LAYER
  5
B8
330
2
100
AcDbSymbolTableRecord
100
AcDbLayerTableRecord
  2
127
 70
     0
 62
   127
  6
CONTINUOUS
  0
LAYER
  5
B9
330
2
100
AcDbSymbolTableRecord
100
AcDbLayerTableRecord
  2
128
 70
     0
 62
   128
  6
CONTINUOUS
  0
LAYER
  5
BA
330
2
100
AcDbSymbolTableRecord
100
AcDbLayerTableRecord
  2
129
 70
     0
 62
   129
  6
CONTINUOUS
  0
LAYER
  5
BB
330
2
100
AcDbSymbolTableRecord
100
AcDbLayerTableRecord
  2
130
 70
     0
 62
   130
  6
CONTINUOUS
  0
LAYER
  5
BC
330
2
100
AcDbSymbolTableRecord
100
AcDbLayerTableRecord
  2
131
 70
     0
 62
   131
  6
CONTINUOUS
  0
LAYER
  5
BD
330
2
100
AcDbSymbolTableRecord
100
AcDbLayerTableRecord
  2
132
 70
     0
 62
   132
  6
CONTINUOUS
  0
LAYER
  5
BE
330
2
100
AcDbSymbolTableRecord
100
AcDbLayerTableRecord
  2
133
 70
     0
 62
   133
  6
CONTINUOUS
  0
LAYER
  5
BF
330
2
100
AcDbSymbolTableRecord
100
AcDbLayerTableRecord
  2
134
 70
     0
 62
   134
  6
CONTINUOUS
  0
LAYER
  5
C0
330
2
100
AcDbSymbolTableRecord
100
AcDbLayerTableRecord
  2
135
 70
     0
 62
   135
  6
CONTINUOUS
  0
LAYER
  5
C1
330
2
100
AcDbSymbolTableRecord
100
AcDbLayerTableRecord
  2
136
 70
     0
 62
   136
  6
CONTINUOUS
  0
LAYER
  5
C2
330
2
100
AcDbSymbolTableRecord
100
AcDbLayerTableRecord
  2
137
 70
     0
 62
   137
  6
CONTINUOUS
  0
LAYER
  5
C3
330
2
100
AcDbSymbolTableRecord
100
AcDbLayerTableRecord
  2
138
 70
     0
 62
   138
  6
CONTINUOUS
  0
LAYER
  5
C4
330
2
100
AcDbSymbolTableRecord
100
AcDbLayerTableRecord
  2
139
 70
     0
 62
   139
  6
CONTINUOUS
  0
LAYER
  5
C5
330
2
100
AcDbSymbolTableRecord
100
AcDbLayerTableRecord
  2
140
 70
     0
 62
   140
  6
CONTINUOUS
  0
LAYER
  5
C6
330
2
100
AcDbSymbolTableRecord
100
AcDbLayerTableRecord
  2
141
 70
     0
 62
   141
  6
CONTINUOUS
  0
LAYER
  5
C7
330
2
100
AcDbSymbolTableRecord
100
AcDbLayerTableRecord
  2
142
 70
     0
 62
   142
  6
CONTINUOUS
  0
LAYER
  5
C8
330
2
100
AcDbSymbolTableRecord
100
AcDbLayerTableRecord
  2
143
 70
     0
 62
   143
  6
CONTINUOUS
  0
LAYER
  5
C9
330
2
100
AcDbSymbolTableRecord
100
AcDbLayerTableRecord
  2
144
 70
     0
 62
   144
  6
CONTINUOUS
  0
LAYER
  5
CA
330
2
100
AcDbSymbolTableRecord
100
AcDbLayerTableRecord
  2
145
 70
     0
 62
   145
  6
CONTINUOUS
  0
LAYER
  5
CB
330
2
100
AcDbSymbolTableRecord
100
AcDbLayerTableRecord
  2
146
 70
     0
 62
   146
  6
CONTINUOUS
  0
LAYER
  5
CC
330
2
100
AcDbSymbolTableRecord
100
AcDbLayerTableRecord
  2
147
 70
     0
 62
   147
  6
CONTINUOUS
  0
LAYER
  5
CD
330
2
100
AcDbSymbolTableRecord
100
AcDbLayerTableRecord
  2
148
 70
     0
 62
   148
  6
CONTINUOUS
  0
LAYER
  5
CE
330
2
100
AcDbSymbolTableRecord
100
AcDbLayerTableRecord
  2
149
 70
     0
 62
   149
  6
CONTINUOUS
  0
LAYER
  5
CF
330
2
100
AcDbSymbolTableRecord
100
AcDbLayerTableRecord
  2
150
 70
     0
 62
   150
  6
CONTINUOUS
  0
LAYER
  5
D0
330
2
100
AcDbSymbolTableRecord
100
AcDbLayerTableRecord
  2
151
 70
     0
 62
   151
  6
CONTINUOUS
  0
LAYER
  5
D1
330
2
100
AcDbSymbolTableRecord
100
AcDbLayerTableRecord
  2
152
 70
     0
 62
   152
  6
CONTINUOUS
  0
LAYER
  5
D2
330
2
100
AcDbSymbolTableRecord
100
AcDbLayerTableRecord
  2
153
 70
     0
 62
   153
  6
CONTINUOUS
  0
LAYER
  5
D3
330
2
100
AcDbSymbolTableRecord
100
AcDbLayerTableRecord
  2
154
 70
     0
 62
   154
  6
CONTINUOUS
  0
LAYER
  5
D4
330
2
100
AcDbSymbolTableRecord
100
AcDbLayerTableRecord
  2
155
 70
     0
 62
   155
  6
CONTINUOUS
  0
LAYER
  5
D5
330
2
100
AcDbSymbolTableRecord
100
AcDbLayerTableRecord
  2
156
 70
     0
 62
   156
  6
CONTINUOUS
  0
LAYER
  5
D6
330
2
100
AcDbSymbolTableRecord
100
AcDbLayerTableRecord
  2
157
 70
     0
 62
   157
  6
CONTINUOUS
  0
LAYER
  5
D7
330
2
100
AcDbSymbolTableRecord
100
AcDbLayerTableRecord
  2
158
 70
     0
 62
   158
  6
CONTINUOUS
  0
LAYER
  5
D8
330
2
100
AcDbSymbolTableRecord
100
AcDbLayerTableRecord
  2
159
 70
     0
 62
   159
  6
CONTINUOUS
  0
LAYER
  5
D9
330
2
100
AcDbSymbolTableRecord
100
AcDbLayerTableRecord
  2
160
 70
     0
 62
   160
  6
CONTINUOUS
  0
LAYER
  5
DA
330
2
100
AcDbSymbolTableRecord
100
AcDbLayerTableRecord
  2
161
 70
     0
 62
   161
  6
CONTINUOUS
  0
LAYER
  5
DB
330
2
100
AcDbSymbolTableRecord
100
AcDbLayerTableRecord
  2
162
 70
     0
 62
   162
  6
CONTINUOUS
  0
LAYER
  5
DC
330
2
100
AcDbSymbolTableRecord
100
AcDbLayerTableRecord
  2
163
 70
     0
 62
   163
  6
CONTINUOUS
  0
LAYER
  5
DD
330
2
100
AcDbSymbolTableRecord
100
AcDbLayerTableRecord
  2
164
 70
     0
 62
   164
  6
CONTINUOUS
  0
LAYER
  5
DE
330
2
100
AcDbSymbolTableRecord
100
AcDbLayerTableRecord
  2
165
 70
     0
 62
   165
  6
CONTINUOUS
  0
LAYER
  5
DF
330
2
100
AcDbSymbolTableRecord
100
AcDbLayerTableRecord
  2
166
 70
     0
 62
   166
  6
CONTINUOUS
  0
LAYER
  5
E0
330
2
100
AcDbSymbolTableRecord
100
AcDbLayerTableRecord
  2
167
 70
     0
 62
   167
  6
CONTINUOUS
  0
LAYER
  5
E1
330
2
100
AcDbSymbolTableRecord
100
AcDbLayerTableRecord
  2
168
 70
     0
 62
   168
  6
CONTINUOUS
  0
LAYER
  5
E2
330
2
100
AcDbSymbolTableRecord
100
AcDbLayerTableRecord
  2
169
 70
     0
 62
   169
  6
CONTINUOUS
  0
LAYER
  5
E3
330
2
100
AcDbSymbolTableRecord
100
AcDbLayerTableRecord
  2
170
 70
     0
 62
   170
  6
CONTINUOUS
  0
LAYER
  5
E4
330
2
100
AcDbSymbolTableRecord
100
AcDbLayerTableRecord
  2
171
 70
     0
 62
   171
  6
CONTINUOUS
  0
LAYER
  5
E5
330
2
100
AcDbSymbolTableRecord
100
AcDbLayerTableRecord
  2
172
 70
     0
 62
   172
  6
CONTINUOUS
  0
LAYER
  5
E6
330
2
100
AcDbSymbolTableRecord
100
AcDbLayerTableRecord
  2
173
 70
     0
 62
   173
  6
CONTINUOUS
  0
LAYER
  5
E7
330
2
100
AcDbSymbolTableRecord
100
AcDbLayerTableRecord
  2
174
 70
     0
 62
   174
  6
CONTINUOUS
  0
LAYER
  5
E8
330
2
100
AcDbSymbolTableRecord
100
AcDbLayerTableRecord
  2
175
 70
     0
 62
   175
  6
CONTINUOUS
  0
LAYER
  5
E9
330
2
100
AcDbSymbolTableRecord
100
AcDbLayerTableRecord
  2
176
 70
     0
 62
   176
  6
CONTINUOUS
  0
LAYER
  5
EA
330
2
100
AcDbSymbolTableRecord
100
AcDbLayerTableRecord
  2
177
 70
     0
 62
   177
  6
CONTINUOUS
  0
LAYER
  5
EB
330
2
100
AcDbSymbolTableRecord
100
AcDbLayerTableRecord
  2
178
 70
     0
 62
   178
  6
CONTINUOUS
  0
LAYER
  5
EC
330
2
100
AcDbSymbolTableRecord
100
AcDbLayerTableRecord
  2
179
 70
     0
 62
   179
  6
CONTINUOUS
  0
LAYER
  5
ED
330
2
100
AcDbSymbolTableRecord
100
AcDbLayerTableRecord
  2
180
 70
     0
 62
   180
  6
CONTINUOUS
  0
LAYER
  5
EE
330
2
100
AcDbSymbolTableRecord
100
AcDbLayerTableRecord
  2
181
 70
     0
 62
   181
  6
CONTINUOUS
  0
LAYER
  5
EF
330
2
100
AcDbSymbolTableRecord
100
AcDbLayerTableRecord
  2
182
 70
     0
 62
   182
  6
CONTINUOUS
  0
LAYER
  5
F0
330
2
100
AcDbSymbolTableRecord
100
AcDbLayerTableRecord
  2
183
 70
     0
 62
   183
  6
CONTINUOUS
  0
LAYER
  5
F1
330
2
100
AcDbSymbolTableRecord
100
AcDbLayerTableRecord
  2
184
 70
     0
 62
   184
  6
CONTINUOUS
  0
LAYER
  5
F2
330
2
100
AcDbSymbolTableRecord
100
AcDbLayerTableRecord
  2
185
 70
     0
 62
   185
  6
CONTINUOUS
  0
LAYER
  5
F3
330
2
100
AcDbSymbolTableRecord
100
AcDbLayerTableRecord
  2
186
 70
     0
 62
   186
  6
CONTINUOUS
  0
LAYER
  5
F4
330
2
100
AcDbSymbolTableRecord
100
AcDbLayerTableRecord
  2
187
 70
     0
 62
   187
  6
CONTINUOUS
  0
LAYER
  5
F5
330
2
100
AcDbSymbolTableRecord
100
AcDbLayerTableRecord
  2
188
 70
     0
 62
   188
  6
CONTINUOUS
  0
LAYER
  5
F6
330
2
100
AcDbSymbolTableRecord
100
AcDbLayerTableRecord
  2
189
 70
     0
 62
   189
  6
CONTINUOUS
  0
LAYER
  5
F7
330
2
100
AcDbSymbolTableRecord
100
AcDbLayerTableRecord
  2
190
 70
     0
 62
   190
  6
CONTINUOUS
  0
LAYER
  5
F8
330
2
100
AcDbSymbolTableRecord
100
AcDbLayerTableRecord
  2
191
 70
     0
 62
   191
  6
CONTINUOUS
  0
LAYER
  5
F9
330
2
100
AcDbSymbolTableRecord
100
AcDbLayerTableRecord
  2
192
 70
     0
 62
   192
  6
CONTINUOUS
  0
LAYER
  5
FA
330
2
100
AcDbSymbolTableRecord
100
AcDbLayerTableRecord
  2
193
 70
     0
 62
   193
  6
CONTINUOUS
  0
LAYER
  5
FB
330
2
100
AcDbSymbolTableRecord
100
AcDbLayerTableRecord
  2
194
 70
     0
 62
   194
  6
CONTINUOUS
  0
LAYER
  5
FC
330
2
100
AcDbSymbolTableRecord
100
AcDbLayerTableRecord
  2
195
 70
     0
 62
   195
  6
CONTINUOUS
  0
LAYER
  5
FD
330
2
100
AcDbSymbolTableRecord
100
AcDbLayerTableRecord
  2
196
 70
     0
 62
   196
  6
CONTINUOUS
  0
LAYER
  5
FE
330
2
100
AcDbSymbolTableRecord
100
AcDbLayerTableRecord
  2
197
 70
     0
 62
   197
  6
CONTINUOUS
  0
LAYER
  5
FF
330
2
100
AcDbSymbolTableRecord
100
AcDbLayerTableRecord
  2
198
 70
     0
 62
   198
  6
CONTINUOUS
  0
LAYER
  5
100
330
2
100
AcDbSymbolTableRecord
100
AcDbLayerTableRecord
  2
199
 70
     0
 62
   199
  6
CONTINUOUS
  0
LAYER
  5
101
330
2
100
AcDbSymbolTableRecord
100
AcDbLayerTableRecord
  2
200
 70
     0
 62
   200
  6
CONTINUOUS
  0
LAYER
  5
102
330
2
100
AcDbSymbolTableRecord
100
AcDbLayerTableRecord
  2
201
 70
     0
 62
   201
  6
CONTINUOUS
  0
LAYER
  5
103
330
2
100
AcDbSymbolTableRecord
100
AcDbLayerTableRecord
  2
202
 70
     0
 62
   202
  6
CONTINUOUS
  0
LAYER
  5
104
330
2
100
AcDbSymbolTableRecord
100
AcDbLayerTableRecord
  2
203
 70
     0
 62
   203
  6
CONTINUOUS
  0
LAYER
  5
105
330
2
100
AcDbSymbolTableRecord
100
AcDbLayerTableRecord
  2
204
 70
     0
 62
   204
  6
CONTINUOUS
  0
LAYER
  5
106
330
2
100
AcDbSymbolTableRecord
100
AcDbLayerTableRecord
  2
205
 70
     0
 62
   205
  6
CONTINUOUS
  0
LAYER
  5
107
330
2
100
AcDbSymbolTableRecord
100
AcDbLayerTableRecord
  2
206
 70
     0
 62
   206
  6
CONTINUOUS
  0
LAYER
  5
108
330
2
100
AcDbSymbolTableRecord
100
AcDbLayerTableRecord
  2
207
 70
     0
 62
   207
  6
CONTINUOUS
  0
LAYER
  5
109
330
2
100
AcDbSymbolTableRecord
100
AcDbLayerTableRecord
  2
208
 70
     0
 62
   208
  6
CONTINUOUS
  0
LAYER
  5
10A
330
2
100
AcDbSymbolTableRecord
100
AcDbLayerTableRecord
  2
209
 70
     0
 62
   209
  6
CONTINUOUS
  0
LAYER
  5
10B
330
2
100
AcDbSymbolTableRecord
100
AcDbLayerTableRecord
  2
210
 70
     0
 62
   210
  6
CONTINUOUS
  0
LAYER
  5
10C
330
2
100
AcDbSymbolTableRecord
100
AcDbLayerTableRecord
  2
211
 70
     0
 62
   211
  6
CONTINUOUS
  0
LAYER
  5
10D
330
2
100
AcDbSymbolTableRecord
100
AcDbLayerTableRecord
  2
212
 70
     0
 62
   212
  6
CONTINUOUS
  0
LAYER
  5
10E
330
2
100
AcDbSymbolTableRecord
100
AcDbLayerTableRecord
  2
213
 70
     0
 62
   213
  6
CONTINUOUS
  0
LAYER
  5
10F
330
2
100
AcDbSymbolTableRecord
100
AcDbLayerTableRecord
  2
214
 70
     0
 62
   214
  6
CONTINUOUS
  0
LAYER
  5
110
330
2
100
AcDbSymbolTableRecord
100
AcDbLayerTableRecord
  2
215
 70
     0
 62
   215
  6
CONTINUOUS
  0
LAYER
  5
111
330
2
100
AcDbSymbolTableRecord
100
AcDbLayerTableRecord
  2
216
 70
     0
 62
   216
  6
CONTINUOUS
  0
LAYER
  5
112
330
2
100
AcDbSymbolTableRecord
100
AcDbLayerTableRecord
  2
217
 70
     0
 62
   217
  6
CONTINUOUS
  0
LAYER
  5
113
330
2
100
AcDbSymbolTableRecord
100
AcDbLayerTableRecord
  2
218
 70
     0
 62
   218
  6
CONTINUOUS
  0
LAYER
  5
114
330
2
100
AcDbSymbolTableRecord
100
AcDbLayerTableRecord
  2
219
 70
     0
 62
   219
  6
CONTINUOUS
  0
LAYER
  5
115
330
2
100
AcDbSymbolTableRecord
100
AcDbLayerTableRecord
  2
220
 70
     0
 62
   220
  6
CONTINUOUS
  0
LAYER
  5
116
330
2
100
AcDbSymbolTableRecord
100
AcDbLayerTableRecord
  2
221
 70
     0
 62
   221
  6
CONTINUOUS
  0
LAYER
  5
117
330
2
100
AcDbSymbolTableRecord
100
AcDbLayerTableRecord
  2
222
 70
     0
 62
   222
  6
CONTINUOUS
  0
LAYER
  5
118
330
2
100
AcDbSymbolTableRecord
100
AcDbLayerTableRecord
  2
223
 70
     0
 62
   223
  6
CONTINUOUS
  0
LAYER
  5
119
330
2
100
AcDbSymbolTableRecord
100
AcDbLayerTableRecord
  2
224
 70
     0
 62
   224
  6
CONTINUOUS
  0
LAYER
  5
11A
330
2
100
AcDbSymbolTableRecord
100
AcDbLayerTableRecord
  2
225
 70
     0
 62
   225
  6
CONTINUOUS
  0
LAYER
  5
11B
330
2
100
AcDbSymbolTableRecord
100
AcDbLayerTableRecord
  2
226
 70
     0
 62
   226
  6
CONTINUOUS
  0
LAYER
  5
11C
330
2
100
AcDbSymbolTableRecord
100
AcDbLayerTableRecord
  2
227
 70
     0
 62
   227
  6
CONTINUOUS
  0
LAYER
  5
11D
330
2
100
AcDbSymbolTableRecord
100
AcDbLayerTableRecord
  2
228
 70
     0
 62
   228
  6
CONTINUOUS
  0
LAYER
  5
11E
330
2
100
AcDbSymbolTableRecord
100
AcDbLayerTableRecord
  2
229
 70
     0
 62
   229
  6
CONTINUOUS
  0
LAYER
  5
11F
330
2
100
AcDbSymbolTableRecord
100
AcDbLayerTableRecord
  2
230
 70
     0
 62
   230
  6
CONTINUOUS
  0
LAYER
  5
120
330
2
100
AcDbSymbolTableRecord
100
AcDbLayerTableRecord
  2
231
 70
     0
 62
   231
  6
CONTINUOUS
  0
LAYER
  5
121
330
2
100
AcDbSymbolTableRecord
100
AcDbLayerTableRecord
  2
232
 70
     0
 62
   232
  6
CONTINUOUS
  0
LAYER
  5
122
330
2
100
AcDbSymbolTableRecord
100
AcDbLayerTableRecord
  2
233
 70
     0
 62
   233
  6
CONTINUOUS
  0
LAYER
  5
123
330
2
100
AcDbSymbolTableRecord
100
AcDbLayerTableRecord
  2
234
 70
     0
 62
   234
  6
CONTINUOUS
  0
LAYER
  5
124
330
2
100
AcDbSymbolTableRecord
100
AcDbLayerTableRecord
  2
235
 70
     0
 62
   235
  6
CONTINUOUS
  0
LAYER
  5
125
330
2
100
AcDbSymbolTableRecord
100
AcDbLayerTableRecord
  2
236
 70
     0
 62
   236
  6
CONTINUOUS
  0
LAYER
  5
126
330
2
100
AcDbSymbolTableRecord
100
AcDbLayerTableRecord
  2
237
 70
     0
 62
   237
  6
CONTINUOUS
  0
LAYER
  5
127
330
2
100
AcDbSymbolTableRecord
100
AcDbLayerTableRecord
  2
238
 70
     0
 62
   238
  6
CONTINUOUS
  0
LAYER
  5
128
330
2
100
AcDbSymbolTableRecord
100
AcDbLayerTableRecord
  2
239
 70
     0
 62
   239
  6
CONTINUOUS
  0
LAYER
  5
129
330
2
100
AcDbSymbolTableRecord
100
AcDbLayerTableRecord
  2
240
 70
     0
 62
   240
  6
CONTINUOUS
  0
LAYER
  5
12A
330
2
100
AcDbSymbolTableRecord
100
AcDbLayerTableRecord
  2
241
 70
     0
 62
   241
  6
CONTINUOUS
  0
LAYER
  5
12B
330
2
100
AcDbSymbolTableRecord
100
AcDbLayerTableRecord
  2
242
 70
     0
 62
   242
  6
CONTINUOUS
  0
LAYER
  5
12C
330
2
100
AcDbSymbolTableRecord
100
AcDbLayerTableRecord
  2
243
 70
     0
 62
   243
  6
CONTINUOUS
  0
LAYER
  5
12D
330
2
100
AcDbSymbolTableRecord
100
AcDbLayerTableRecord
  2
244
 70
     0
 62
   244
  6
CONTINUOUS
  0
LAYER
  5
12E
330
2
100
AcDbSymbolTableRecord
100
AcDbLayerTableRecord
  2
245
 70
     0
 62
   245
  6
CONTINUOUS
  0
LAYER
  5
12F
330
2
100
AcDbSymbolTableRecord
100
AcDbLayerTableRecord
  2
246
 70
     0
 62
   246
  6
CONTINUOUS
  0
LAYER
  5
130
330
2
100
AcDbSymbolTableRecord
100
AcDbLayerTableRecord
  2
247
 70
     0
 62
   247
  6
CONTINUOUS
  0
LAYER
  5
131
330
2
100
AcDbSymbolTableRecord
100
AcDbLayerTableRecord
  2
248
 70
     0
 62
   248
  6
CONTINUOUS
  0
LAYER
  5
132
330
2
100
AcDbSymbolTableRecord
100
AcDbLayerTableRecord
  2
249
 70
     0
 62
   249
  6
CONTINUOUS
  0
LAYER
  5
133
330
2
100
AcDbSymbolTableRecord
100
AcDbLayerTableRecord
  2
250
 70
     0
 62
   250
  6
CONTINUOUS
  0
LAYER
  5
134
330
2
100
AcDbSymbolTableRecord
100
AcDbLayerTableRecord
  2
251
 70
     0
 62
   251
  6
CONTINUOUS
  0
LAYER
  5
135
330
2
100
AcDbSymbolTableRecord
100
AcDbLayerTableRecord
  2
252
 70
     0
 62
   252
  6
CONTINUOUS
  0
LAYER
  5
136
330
2
100
AcDbSymbolTableRecord
100
AcDbLayerTableRecord
  2
253
 70
     0
 62
   253
  6
CONTINUOUS
  0
LAYER
  5
137
330
2
100
AcDbSymbolTableRecord
100
AcDbLayerTableRecord
  2
254
 70
     0
 62
   254
  6
CONTINUOUS
  0
LAYER
  5
138
330
2
100
AcDbSymbolTableRecord
100
AcDbLayerTableRecord
  2
255
 70
     0
 62
   255
  6
CONTINUOUS
  0
LAYER
  5
41CA
330
2
100
AcDbSymbolTableRecord
100
AcDbLayerTableRecord
  2
DEFPOINTS
 70
     0
 62
     7
  6
CONTINUOUS
  0
ENDTAB
  0
TABLE
  2
STYLE
  5
3
330
0
100
AcDbSymbolTable
 70
     1
  0
STYLE
  5
11
330
3
100
AcDbSymbolTableRecord
100
AcDbTextStyleTableRecord
  2
STANDARD
 70
     0
 40
0.0
 41
1.0
 50
0.0
 71
     0
 42
0.2
  3
txt
  4

  0
ENDTAB
  0
TABLE
  2
VIEW
  5
6
330
0
100
AcDbSymbolTable
 70
     0
  0
ENDTAB
  0
TABLE
  2
UCS
  5
7
330
0
100
AcDbSymbolTable
 70
     0
  0
ENDTAB
  0
TABLE
  2
APPID
  5
9
330
0
100
AcDbSymbolTable
 70
     1
  0
APPID
  5
12
330
9
100
AcDbSymbolTableRecord
100
AcDbRegAppTableRecord
  2
ACAD
 70
     0
  0
ENDTAB
  0
TABLE
  2
DIMSTYLE
  5
A
330
0
100
AcDbSymbolTable
 70
     1
  0
DIMSTYLE
105
41C6
102
{ACAD_REACTORS
330
41C9
102
}
330
A
100
AcDbSymbolTableRecord
100
AcDbDimStyleTableRecord
  2
STANDARD
 70
     0
  3

  4

  5

  6

  7

 40
1.0
 41
0.18
 42
0.0625
 43
0.38
 44
0.18
 45
0.0
 46
0.0
 47
0.0
 48
0.0
140
0.18
141
0.09
142
0.0
143
25.4
144
1.0
145
0.0
146
1.0
147
0.09
 71
     0
 72
     0
 73
     1
 74
     1
 75
     0
 76
     0
 77
     0
 78
     0
170
     0
171
     2
172
     0
173
     0
174
     0
175
     0
176
     0
177
     0
178
     0
270
     2
271
     4
272
     4
273
     2
274
     2
340
11
275
     0
280
     0
281
     0
282
     0
283
     1
284
     0
285
     0
286
     0
287
     3
288
     0
  0
ENDTAB
  0
TABLE
  2
BLOCK_RECORD
  5
1
330
0
100
AcDbSymbolTable
 70
     1
  0
BLOCK_RECORD
  5
1E
102
{ACAD_XDICTIONARY
360
41DC
102
}
330
1
100
AcDbSymbolTableRecord
100
AcDbBlockTableRecord
  2
*MODEL_SPACE
  0
BLOCK_RECORD
  5
1A
102
{ACAD_XDICTIONARY
360
41DA
102
}
330
1
100
AcDbSymbolTableRecord
100
AcDbBlockTableRecord
  2
*PAPER_SPACE
  0
BLOCK_RECORD
  5
41CB
330
1
100
AcDbSymbolTableRecord
100
AcDbBlockTableRecord
  2
*D0
  0
ENDTAB
  0
ENDSEC
  0
SECTION
  2
BLOCKS
  0
BLOCK
  5
13B
330
1E
100
AcDbEntity
  8
0
100
AcDbBlockBegin
  2
*MODEL_SPACE
 70
     0
 10
0.0
 20
0.0
 30
0.0
  3
*MODEL_SPACE
  1

  0
ENDBLK
  5
13C
330
1E
100
AcDbEntity
  8
0
100
AcDbBlockEnd
  0
BLOCK
  5
139
330
1A
100
AcDbEntity
 67
     1
  8
0
100
AcDbBlockBegin
  2
*PAPER_SPACE
 70
     0
 10
0.0
 20
0.0
 30
0.0
  3
*PAPER_SPACE
  1

  0
ENDBLK
  5
13A
330
1A
100
AcDbEntity
 67
     1
  8
0
100
AcDbBlockEnd
  0
BLOCK
  5
41D6
330
41CB
100
AcDbEntity
  8
0
100
AcDbBlockBegin
  2
*D0
 70
     1
 10
0.0
 20
0.0
 30
0.0
  3
*D0
  1

  0
LINE
  5
41CC
330
41CB
100
AcDbEntity
  8
0
 62
     0
100
AcDbLine
 10
-3.89494177228062
 20
10.10282132102908
 30
0.0
 11
-5.73230881180889
 21
10.10282132102908
 31
0.0
  0
LINE
  5
41CD
330
41CB
100
AcDbEntity
  8
0
 62
     0
100
AcDbLine
 10
-3.894941772280621
 20
3.44140399819444
 30
0.0
 11
-5.732308811808891
 21
3.44140399819444
 31
0.0
  0
LINE
  5
41CE
330
41CB
100
AcDbEntity
  8
0
 62
     0
100
AcDbLine
 10
-5.552308811808891
 20
9.922821321029086
 30
0.0
 11
-5.552308811808891
 21
6.952112659611763
 31
0.0
  0
LINE
  5
41CF
330
41CB
100
AcDbEntity
  8
0
 62
     0
100
AcDbLine
 10
-5.552308811808892
 20
3.62140399819444
 30
0.0
 11
-5.552308811808891
 21
6.592112659611763
 31
0.0
  0
SOLID
  5
41D0
330
41CB
100
AcDbEntity
  8
0
 62
     0
100
AcDbTrace
 10
-5.582308811808891
 20
9.922821321029086
 30
0.0
 11
-5.52230881180889
 21
9.922821321029086
 31
0.0
 12
-5.55230881180889
 22
10.10282132102908
 32
0.0
 13
-5.55230881180889
 23
10.10282132102908
 33
0.0
  0
SOLID
  5
41D1
330
41CB
100
AcDbEntity
  8
0
 62
     0
100
AcDbTrace
 10
-5.582308811808892
 20
3.62140399819444
 30
0.0
 11
-5.522308811808891
 21
3.62140399819444
 31
0.0
 12
-5.552308811808892
 22
3.44140399819444
 32
0.0
 13
-5.552308811808892
 23
3.44140399819444
 33
0.0
  0
MTEXT
  5
41D2
330
41CB
100
AcDbEntity
  8
0
 62
     0
100
AcDbMText
 10
-5.552308811808893
 20
6.772112659611762
 30
0.0
 40
0.18
 41
0.0
 71
     5
 72
     1
  1
\A1;6.6614
1001
ACAD
1000
MTEXTBEGIN
1070
    73
1070
     1
1070
    44
1040
1.0
1070
    74
1070
     0
1000
MTEXTEND
  0
POINT
  5
41D3
330
41CB
100
AcDbEntity
  8
DEFPOINTS
 62
     0
100
AcDbPoint
 10
-3.83244177228062
 20
10.10282132102908
 30
0.0
  0
POINT
  5
41D4
330
41CB
100
AcDbEntity
  8
DEFPOINTS
 62
     0
100
AcDbPoint
 10
-3.832441772280621
 20
3.44140399819444
 30
0.0
  0
POINT
  5
41D5
330
41CB
100
AcDbEntity
  8
DEFPOINTS
 62
     0
100
AcDbPoint
 10
-5.552308811808892
 20
3.44140399819444
 30
0.0
  0
ENDBLK
  5
41D7
330
41CB
100
AcDbEntity
  8
0
100
AcDbBlockEnd
  0
ENDSEC
  0
SECTION
  2
ENTITIES
  0
LINE
  5
1B8C
330
1E
100
AcDbEntity
  8
0
100
AcDbLine
 10
0.474644841892606
 20
8.715026045438532
 30
0.0
 11
0.6518101962233152
 21
8.770144155674755
 31
0.0
  0
LINE
  5
1B8D
330
1E
100
AcDbEntity
  8
0
100
AcDbLine
 10
0.6518101962233152
 20
8.770144155674755
 30
0.0
 11
0.5986605899241022
 21
8.852821321029084
 31
0.0
  0
LINE
  5
1B8E
330
1E
100
AcDbEntity
  8
0
100
AcDbLine
 10
0.5986605899241022
 20
8.852821321029084
 30
0.0
 11
0.474644841892606
 21
8.715026045438532
 31
0.0
  0
LINE
  5
1B8F
330
1E
100
AcDbEntity
  8
0
100
AcDbLine
 10
0.6518101962233152
 20
8.772112659611762
 30
0.0
 11
0.6498416922863069
 21
8.770144155674755
 31
0.0
  0
LINE
  5
1B90
330
1E
100
AcDbEntity
  8
0
100
AcDbLine
 10
0.6518101962233152
 20
8.772112659611762
 30
0.0
 11
0.6498416922863069
 21
8.770144155674755
 31
0.0
  0
LINE
  5
1B91
330
1E
100
AcDbEntity
  8
0
100
AcDbLine
 10
0.6498416922863069
 20
8.774081163548769
 30
0.0
 11
0.6360621647272522
 21
8.766207147800738
 31
0.0
  0
LINE
  5
1B92
330
1E
100
AcDbEntity
  8
0
100
AcDbLine
 10
0.6478731883492995
 20
8.778018171422786
 30
0.0
 11
0.6203141332311893
 21
8.762270139926723
 31
0.0
  0
LINE
  5
1B93
330
1E
100
AcDbEntity
  8
0
100
AcDbLine
 10
0.6439361804752837
 20
8.781955179296801
 30
0.0
 11
0.6065346056721337
 21
8.756364628115699
 31
0.0
  0
LINE
  5
1B94
330
1E
100
AcDbEntity
  8
0
100
AcDbLine
 10
0.6419676765382754
 20
8.783923683233808
 30
0.0
 11
0.5927550781130791
 21
8.752427620241682
 31
0.0
  0
LINE
  5
1B95
330
1E
100
AcDbEntity
  8
0
100
AcDbLine
 10
0.639999172601268
 20
8.787860691107825
 30
0.0
 11
0.5770070466170161
 21
8.74652210843066
 31
0.0
  0
LINE
  5
1B96
330
1E
100
AcDbEntity
  8
0
100
AcDbLine
 10
0.6380306686642597
 20
8.79179769898184
 30
0.0
 11
0.5632275190579606
 21
8.742585100556643
 31
0.0
  0
LINE
  5
1B97
330
1E
100
AcDbEntity
  8
0
100
AcDbLine
 10
0.6360621647272522
 20
8.795734706855856
 30
0.0
 11
0.5474794875618976
 21
8.738648092682629
 31
0.0
  0
LINE
  5
1B98
330
1E
100
AcDbEntity
  8
0
100
AcDbLine
 10
0.6340936607902439
 20
8.797703210792864
 30
0.0
 11
0.533699960002843
 21
8.732742580871605
 31
0.0
  0
LINE
  5
1B99
330
1E
100
AcDbEntity
  8
0
100
AcDbLine
 10
0.6321251568532365
 20
8.80164021866688
 30
0.0
 11
0.51795192850678
 21
8.728805572997588
 31
0.0
  0
LINE
  5
1B9A
330
1E
100
AcDbEntity
  8
0
100
AcDbLine
 10
0.6301566529162282
 20
8.805577226540895
 30
0.0
 11
0.5041724009477245
 21
8.722900061186564
 31
0.0
  0
LINE
  5
1B9B
330
1E
100
AcDbEntity
  8
0
100
AcDbLine
 10
0.6281881489792207
 20
8.807545730477903
 30
0.0
 11
0.4884243694516615
 21
8.718963053312549
 31
0.0
  0
LINE
  5
1B9C
330
1E
100
AcDbEntity
  8
0
100
AcDbLine
 10
0.6262196450422124
 20
8.811482738351919
 30
0.0
 11
0.474644841892606
 21
8.715026045438532
 31
0.0
  0
LINE
  5
1B9D
330
1E
100
AcDbEntity
  8
0
100
AcDbLine
 10
0.5986605899241022
 20
8.852821321029084
 30
0.0
 11
0.5986605899241022
 21
8.850852817092077
 31
0.0
  0
LINE
  5
1B9E
330
1E
100
AcDbEntity
  8
0
100
AcDbLine
 10
0.5986605899241022
 20
8.852821321029084
 30
0.0
 11
0.5986605899241022
 21
8.850852817092077
 31
0.0
  0
LINE
  5
1B9F
330
1E
100
AcDbEntity
  8
0
100
AcDbLine
 10
0.602597597798118
 20
8.848884313155069
 30
0.0
 11
0.5888180702390633
 21
8.841010297407038
 31
0.0
  0
LINE
  5
1BA0
330
1E
100
AcDbEntity
  8
0
100
AcDbLine
 10
0.6045661017351263
 20
8.844947305281053
 30
0.0
 11
0.5789755505540235
 21
8.82919927378499
 31
0.0
  0
LINE
  5
1BA1
330
1E
100
AcDbEntity
  8
0
100
AcDbLine
 10
0.6065346056721337
 20
8.841010297407038
 30
0.0
 11
0.5671645269319763
 21
8.817388250162943
 31
0.0
  0
LINE
  5
1BA2
330
1E
100
AcDbEntity
  8
0
100
AcDbLine
 10
0.608503109609142
 20
8.839041793470029
 30
0.0
 11
0.5573220072469374
 21
8.805577226540895
 31
0.0
  0
LINE
  5
1BA3
330
1E
100
AcDbEntity
  8
0
100
AcDbLine
 10
0.6104716135461495
 20
8.835104785596014
 30
0.0
 11
0.5474794875618976
 21
8.793766202918849
 31
0.0
  0
LINE
  5
1BA4
330
1E
100
AcDbEntity
  8
0
100
AcDbLine
 10
0.6124401174831578
 20
8.831167777721997
 30
0.0
 11
0.5356684639398504
 21
8.783923683233808
 31
0.0
  0
LINE
  5
1BA5
330
1E
100
AcDbEntity
  8
0
100
AcDbLine
 10
0.6144086214201652
 20
8.82919927378499
 30
0.0
 11
0.5258259442548115
 21
8.772112659611762
 31
0.0
  0
LINE
  5
1BA6
330
1E
100
AcDbEntity
  8
0
100
AcDbLine
 10
0.6163771253571735
 20
8.825262265910975
 30
0.0
 11
0.5159834245697717
 21
8.760301635989714
 31
0.0
  0
LINE
  5
1BA7
330
1E
100
AcDbEntity
  8
0
100
AcDbLine
 10
0.6183456292941809
 20
8.821325258036958
 30
0.0
 11
0.5061409048847328
 21
8.748490612367668
 31
0.0
  0
LINE
  5
1BA8
330
1E
100
AcDbEntity
  8
0
100
AcDbLine
 10
0.6203141332311893
 20
8.817388250162943
 30
0.0
 11
0.4943298812626855
 21
8.736679588745619
 31
0.0
  0
LINE
  5
1BA9
330
1E
100
AcDbEntity
  8
0
100
AcDbLine
 10
0.624251141105205
 20
8.815419746225934
 30
0.0
 11
0.4844873615776458
 21
8.724868565123573
 31
0.0
  0
LINE
  5
1BAA
330
1E
100
AcDbEntity
  8
0
100
AcDbLine
 10
0.6262196450422124
 20
8.811482738351919
 30
0.0
 11
0.474644841892606
 21
8.715026045438532
 31
0.0
  0
LINE
  5
347F
330
1E
100
AcDbEntity
  8
0
100
AcDbLine
 10
-1.984016575430228
 20
9.106758328903101
 30
0.0
 11
-1.984016575430228
 21
9.839041793470029
 31
0.0
  0
POLYLINE
  5
3480
330
1E
100
AcDbEntity
  8
0
100
AcDb2dPolyline
 66
     1
 10
0.0
 20
0.0
 30
0.0
  0
VERTEX
  5
41DE
330
3480
100
AcDbEntity
  8
0
100
AcDbVertex
100
AcDb2dVertex
 10
-1.984016575430228
 20
9.839041793470029
 30
0.0
  0
VERTEX
  5
41DF
330
3480
100
AcDbEntity
  8
0
100
AcDbVertex
100
AcDb2dVertex
 10
-1.974174055745189
 20
9.907939431265305
 30
0.0
  0
VERTEX
  5
41E0
330
3480
100
AcDbEntity
  8
0
100
AcDbVertex
100
AcDb2dVertex
 10
-1.948583504564086
 20
9.970931557249556
 30
0.0
  0
VERTEX
  5
41E1
330
3480
100
AcDbEntity
  8
0
100
AcDbVertex
100
AcDb2dVertex
 10
-1.90724492188692
 20
10.02604966748577
 30
0.0
  0
VERTEX
  5
41E2
330
3480
100
AcDbEntity
  8
0
100
AcDbVertex
100
AcDb2dVertex
 10
-1.8521268116507
 20
10.06738825016294
 30
0.0
  0
VERTEX
  5
41E3
330
3480
100
AcDbEntity
  8
0
100
AcDbVertex
100
AcDb2dVertex
 10
-1.78716618172944
 20
10.09494730528105
 30
0.0
  0
VERTEX
  5
41E4
330
3480
100
AcDbEntity
  8
0
100
AcDbVertex
100
AcDb2dVertex
 10
-1.720237047871173
 20
10.10282132102908
 30
0.0
  0
SEQEND
  5
41E5
330
3480
100
AcDbEntity
  8
0
  0
LINE
  5
3489
330
1E
100
AcDbEntity
  8
0
100
AcDbLine
 10
-1.720237047871172
 20
10.10282132102908
 30
0.0
 11
2.452991298585519
 21
10.10282132102908
 31
0.0
  0
POLYLINE
  5
348A
330
1E
100
AcDbEntity
  8
0
100
AcDb2dPolyline
 66
     1
 10
0.0
 20
0.0
 30
0.0
  0
VERTEX
  5
41E6
330
348A
100
AcDbEntity
  8
0
100
AcDbVertex
100
AcDb2dVertex
 10
2.452991298585519
 20
10.10282132102908
 30
0.0
  0
VERTEX
  5
41E7
330
348A
100
AcDbEntity
  8
0
100
AcDbVertex
100
AcDb2dVertex
 10
2.521888936380795
 20
10.09494730528105
 30
0.0
  0
VERTEX
  5
41E8
330
348A
100
AcDbEntity
  8
0
100
AcDbVertex
100
AcDb2dVertex
 10
2.586849566302054
 20
10.06738825016294
 30
0.0
  0
VERTEX
  5
41E9
330
348A
100
AcDbEntity
  8
0
100
AcDbVertex
100
AcDb2dVertex
 10
2.639999172601267
 20
10.02604966748577
 30
0.0
  0
VERTEX
  5
41EA
330
348A
100
AcDbEntity
  8
0
100
AcDbVertex
100
AcDb2dVertex
 10
2.683306259215441
 20
9.970931557249556
 30
0.0
  0
VERTEX
  5
41EB
330
348A
100
AcDbEntity
  8
0
100
AcDbVertex
100
AcDb2dVertex
 10
2.708896810396542
 20
9.907939431265305
 30
0.0
  0
VERTEX
  5
41EC
330
348A
100
AcDbEntity
  8
0
100
AcDbVertex
100
AcDb2dVertex
 10
2.718739330081582
 20
9.839041793470029
 30
0.0
  0
SEQEND
  5
41ED
330
348A
100
AcDbEntity
  8
0
  0
LINE
  5
3493
330
1E
100
AcDbEntity
  8
0
100
AcDbLine
 10
2.718739330081582
 20
9.106758328903101
 30
0.0
 11
2.718739330081582
 21
9.839041793470029
 31
0.0
  0
LINE
  5
3494
330
1E
100
AcDbEntity
  8
0
100
AcDbLine
 10
-1.678898465194007
 20
3.44140399819444
 30
0.0
 11
-1.984016575430228
 21
3.44140399819444
 31
0.0
  0
LINE
  5
3495
330
1E
100
AcDbEntity
  8
0
100
AcDbLine
 10
-1.984016575430228
 20
3.925655966698375
 30
0.0
 11
-1.984016575430228
 21
3.44140399819444
 31
0.0
  0
LINE
  5
3496
330
1E
100
AcDbEntity
  8
0
100
AcDbLine
 10
2.718739330081582
 20
4.376443368273179
 30
0.0
 11
2.718739330081582
 21
8.655970927328297
 31
0.0
  0
LINE
  5
3497
330
1E
100
AcDbEntity
  8
0
100
AcDbLine
 10
-1.984016575430228
 20
4.376443368273179
 30
0.0
 11
-1.984016575430228
 21
8.655970927328297
 31
0.0
  0
POLYLINE
  5
3498
330
1E
100
AcDbEntity
  8
0
100
AcDb2dPolyline
 66
     1
 10
0.0
 20
0.0
 30
0.0
  0
VERTEX
  5
41EE
330
3498
100
AcDbEntity
  8
0
100
AcDbVertex
100
AcDb2dVertex
 10
-1.749764606926291
 20
3.522112659611762
 30
0.0
  0
VERTEX
  5
41EF
330
3498
100
AcDbEntity
  8
0
100
AcDbVertex
100
AcDb2dVertex
 10
-1.145433898264873
 20
3.526049667485777
 30
0.0
  0
VERTEX
  5
41F0
330
3498
100
AcDbEntity
  8
0
100
AcDbVertex
100
AcDb2dVertex
 10
-0.5411031896034571
 20
3.528018171422786
 30
0.0
  0
VERTEX
  5
41F1
330
3498
100
AcDbEntity
  8
0
100
AcDbVertex
100
AcDb2dVertex
 10
0.0651960229949689
 20
3.529986675359793
 30
0.0
  0
VERTEX
  5
41F2
330
3498
100
AcDbEntity
  8
0
100
AcDbVertex
100
AcDb2dVertex
 10
0.6695267316563856
 20
3.529986675359793
 30
0.0
  0
VERTEX
  5
41F3
330
3498
100
AcDbEntity
  8
0
100
AcDbVertex
100
AcDb2dVertex
 10
1.275825944254811
 20
3.528018171422786
 30
0.0
  0
VERTEX
  5
41F4
330
3498
100
AcDbEntity
  8
0
100
AcDbVertex
100
AcDb2dVertex
 10
1.880156652916228
 20
3.526049667485777
 30
0.0
  0
VERTEX
  5
41F5
330
3498
100
AcDbEntity
  8
0
100
AcDbVertex
100
AcDb2dVertex
 10
2.484487361577645
 20
3.522112659611762
 30
0.0
  0
SEQEND
  5
41F6
330
3498
100
AcDbEntity
  8
0
  0
LINE
  5
34A2
330
1E
100
AcDbEntity
  8
0
100
AcDbLine
 10
2.484487361577645
 20
3.522112659611762
 30
0.0
 11
2.484487361577645
 21
7.839041793470029
 31
0.0
  0
POLYLINE
  5
34A3
330
1E
100
AcDbEntity
  8
0
100
AcDb2dPolyline
 66
     1
 10
0.0
 20
0.0
 30
0.0
  0
VERTEX
  5
41F7
330
34A3
100
AcDbEntity
  8
0
100
AcDbVertex
100
AcDb2dVertex
 10
-1.749764606926291
 20
7.839041793470029
 30
0.0
  0
VERTEX
  5
41F8
330
34A3
100
AcDbEntity
  8
0
100
AcDbVertex
100
AcDb2dVertex
 10
-1.045040197477472
 20
7.839041793470029
 30
0.0
  0
VERTEX
  5
41F9
330
34A3
100
AcDbEntity
  8
0
100
AcDbVertex
100
AcDb2dVertex
 10
-0.3383472840916459
 20
7.839041793470029
 30
0.0
  0
VERTEX
  5
41FA
330
34A3
100
AcDbEntity
  8
0
100
AcDbVertex
100
AcDb2dVertex
 10
0.3663771253571735
 20
7.839041793470029
 30
0.0
  0
VERTEX
  5
41FB
330
34A3
100
AcDbEntity
  8
0
100
AcDbVertex
100
AcDb2dVertex
 10
1.073070038743
 20
7.839041793470029
 30
0.0
  0
VERTEX
  5
41FC
330
34A3
100
AcDbEntity
  8
0
100
AcDbVertex
100
AcDb2dVertex
 10
1.779762952128827
 20
7.839041793470029
 30
0.0
  0
VERTEX
  5
41FD
330
34A3
100
AcDbEntity
  8
0
100
AcDbVertex
100
AcDb2dVertex
 10
2.484487361577645
 20
7.839041793470029
 30
0.0
  0
SEQEND
  5
41FE
330
34A3
100
AcDbEntity
  8
0
  0
LINE
  5
34AC
330
1E
100
AcDbEntity
  8
0
100
AcDbLine
 10
-1.749764606926291
 20
7.839041793470029
 30
0.0
 11
-1.749764606926291
 21
3.522112659611762
 31
0.0
  0
POLYLINE
  5
34AD
330
1E
100
AcDbEntity
  8
0
100
AcDb2dPolyline
 66
     1
 10
0.0
 20
0.0
 30
0.0
  0
VERTEX
  5
41FF
330
34AD
100
AcDbEntity
  8
0
100
AcDbVertex
100
AcDb2dVertex
 10
2.484487361577645
 20
7.839041793470029
 30
0.0
  0
VERTEX
  5
4200
330
34AD
100
AcDbEntity
  8
0
100
AcDbVertex
100
AcDb2dVertex
 10
2.484487361577645
 20
8.488648092682629
 30
0.0
  0
VERTEX
  5
4201
330
34AD
100
AcDbEntity
  8
0
100
AcDbVertex
100
AcDb2dVertex
 10
2.486455865514653
 20
9.140222895832234
 30
0.0
  0
VERTEX
  5
4202
330
34AD
100
AcDbEntity
  8
0
100
AcDbVertex
100
AcDb2dVertex
 10
2.490392873388668
 20
9.789829195044832
 30
0.0
  0
SEQEND
  5
4203
330
34AD
100
AcDbEntity
  8
0
  0
POLYLINE
  5
34B3
330
1E
100
AcDbEntity
  8
0
100
AcDb2dPolyline
 66
     1
 10
0.0
 20
0.0
 30
0.0
  0
VERTEX
  5
4204
330
34B3
100
AcDbEntity
  8
0
100
AcDbVertex
100
AcDb2dVertex
 10
2.490392873388668
 20
9.789829195044832
 30
0.0
  0
VERTEX
  5
4205
330
34B3
100
AcDbEntity
  8
0
100
AcDbVertex
100
AcDb2dVertex
 10
2.484487361577645
 20
9.817388250162943
 30
0.0
  0
VERTEX
  5
4206
330
34B3
100
AcDbEntity
  8
0
100
AcDbVertex
100
AcDb2dVertex
 10
2.47070783401859
 20
9.842978801344045
 30
0.0
  0
VERTEX
  5
4207
330
34B3
100
AcDbEntity
  8
0
100
AcDbVertex
100
AcDb2dVertex
 10
2.451022794648511
 20
9.860695336777116
 30
0.0
  0
VERTEX
  5
4208
330
34B3
100
AcDbEntity
  8
0
100
AcDbVertex
100
AcDb2dVertex
 10
2.425432243467409
 20
9.872506360399164
 30
0.0
  0
VERTEX
  5
4209
330
34B3
100
AcDbEntity
  8
0
100
AcDbVertex
100
AcDb2dVertex
 10
2.403778700160322
 20
9.874474864336171
 30
0.0
  0
SEQEND
  5
420A
330
34B3
100
AcDbEntity
  8
0
  0
POLYLINE
  5
34BB
330
1E
100
AcDbEntity
  8
0
100
AcDb2dPolyline
 66
     1
 10
0.0
 20
0.0
 30
0.0
  0
VERTEX
  5
420B
330
34BB
100
AcDbEntity
  8
0
100
AcDbVertex
100
AcDb2dVertex
 10
2.403778700160322
 20
9.874474864336171
 30
0.0
  0
VERTEX
  5
420C
330
34BB
100
AcDbEntity
  8
0
100
AcDbVertex
100
AcDb2dVertex
 10
1.726613345829614
 20
9.870537856462155
 30
0.0
  0
VERTEX
  5
420D
330
34BB
100
AcDbEntity
  8
0
100
AcDbVertex
100
AcDb2dVertex
 10
1.047479487561897
 20
9.868569352525147
 30
0.0
  0
VERTEX
  5
420E
330
34BB
100
AcDbEntity
  8
0
100
AcDbVertex
100
AcDb2dVertex
 10
0.3663771253571735
 20
9.868569352525147
 30
0.0
  0
VERTEX
  5
420F
330
34BB
100
AcDbEntity
  8
0
100
AcDbVertex
100
AcDb2dVertex
 10
-0.3127567329105432
 20
9.868569352525147
 30
0.0
  0
VERTEX
  5
4210
330
34BB
100
AcDbEntity
  8
0
100
AcDbVertex
100
AcDb2dVertex
 10
-0.9918905911782598
 20
9.870537856462155
 30
0.0
  0
VERTEX
  5
4211
330
34BB
100
AcDbEntity
  8
0
100
AcDbVertex
100
AcDb2dVertex
 10
-1.669055945508968
 20
9.874474864336171
 30
0.0
  0
SEQEND
  5
4212
330
34BB
100
AcDbEntity
  8
0
  0
POLYLINE
  5
34C4
330
1E
100
AcDbEntity
  8
0
100
AcDb2dPolyline
 66
     1
 10
0.0
 20
0.0
 30
0.0
  0
VERTEX
  5
4213
330
34C4
100
AcDbEntity
  8
0
100
AcDbVertex
100
AcDb2dVertex
 10
-1.669055945508968
 20
9.874474864336171
 30
0.0
  0
VERTEX
  5
4214
330
34C4
100
AcDbEntity
  8
0
100
AcDbVertex
100
AcDb2dVertex
 10
-1.698583504564086
 20
9.870537856462155
 30
0.0
  0
VERTEX
  5
4215
330
34C4
100
AcDbEntity
  8
0
100
AcDbVertex
100
AcDb2dVertex
 10
-1.724174055745189
 20
9.856758328903101
 30
0.0
  0
VERTEX
  5
4216
330
34C4
100
AcDbEntity
  8
0
100
AcDbVertex
100
AcDb2dVertex
 10
-1.741890591178259
 20
9.835104785596014
 30
0.0
  0
VERTEX
  5
4217
330
34C4
100
AcDbEntity
  8
0
100
AcDbVertex
100
AcDb2dVertex
 10
-1.753701614800307
 20
9.809514234414912
 30
0.0
  0
VERTEX
  5
4218
330
34C4
100
AcDbEntity
  8
0
100
AcDbVertex
100
AcDb2dVertex
 10
-1.755670118737314
 20
9.789829195044832
 30
0.0
  0
SEQEND
  5
4219
330
34C4
100
AcDbEntity
  8
0
  0
POLYLINE
  5
34CC
330
1E
100
AcDbEntity
  8
0
100
AcDb2dPolyline
 66
     1
 10
0.0
 20
0.0
 30
0.0
  0
VERTEX
  5
421A
330
34CC
100
AcDbEntity
  8
0
100
AcDbVertex
100
AcDb2dVertex
 10
-1.755670118737314
 20
9.789829195044832
 30
0.0
  0
VERTEX
  5
421B
330
34CC
100
AcDbEntity
  8
0
100
AcDbVertex
100
AcDb2dVertex
 10
-1.751733110863299
 20
9.140222895832234
 30
0.0
  0
VERTEX
  5
421C
330
34CC
100
AcDbEntity
  8
0
100
AcDbVertex
100
AcDb2dVertex
 10
-1.749764606926291
 20
8.488648092682629
 30
0.0
  0
VERTEX
  5
421D
330
34CC
100
AcDbEntity
  8
0
100
AcDbVertex
100
AcDb2dVertex
 10
-1.749764606926291
 20
7.839041793470029
 30
0.0
  0
SEQEND
  5
421E
330
34CC
100
AcDbEntity
  8
0
  0
POLYLINE
  5
34D2
330
1E
100
AcDbEntity
  8
0
100
AcDb2dPolyline
 66
     1
 10
0.0
 20
0.0
 30
0.0
  0
VERTEX
  5
421F
330
34D2
100
AcDbEntity
  8
0
100
AcDbVertex
100
AcDb2dVertex
 10
-0.5686622447215673
 20
8.787860691107825
 30
0.0
  0
VERTEX
  5
4220
330
34D2
100
AcDbEntity
  8
0
100
AcDbVertex
100
AcDb2dVertex
 10
-0.5686622447215673
 20
8.614632344651132
 30
0.0
  0
VERTEX
  5
4221
330
34D2
100
AcDbEntity
  8
0
100
AcDbVertex
100
AcDb2dVertex
 10
-0.5706307486585747
 20
8.439435494257431
 30
0.0
  0
SEQEND
  5
4222
330
34D2
100
AcDbEntity
  8
0
  0
POLYLINE
  5
34D7
330
1E
100
AcDbEntity
  8
0
100
AcDb2dPolyline
 66
     1
 10
0.0
 20
0.0
 30
0.0
  0
VERTEX
  5
4223
330
34D7
100
AcDbEntity
  8
0
100
AcDbVertex
100
AcDb2dVertex
 10
-0.5686622447215673
 20
8.787860691107825
 30
0.0
  0
VERTEX
  5
4224
330
34D7
100
AcDbEntity
  8
0
100
AcDbVertex
100
AcDb2dVertex
 10
-0.5686622447215673
 20
8.789829195044832
 30
0.0
  0
VERTEX
  5
4225
330
34D7
100
AcDbEntity
  8
0
100
AcDbVertex
100
AcDb2dVertex
 10
-0.566693740784559
 20
8.799671714729871
 30
0.0
  0
VERTEX
  5
4226
330
34D7
100
AcDbEntity
  8
0
100
AcDbVertex
100
AcDb2dVertex
 10
-0.5627567329105432
 20
8.807545730477903
 30
0.0
  0
VERTEX
  5
4227
330
34D7
100
AcDbEntity
  8
0
100
AcDbVertex
100
AcDb2dVertex
 10
-0.5548827171625117
 20
8.815419746225934
 30
0.0
  0
VERTEX
  5
4228
330
34D7
100
AcDbEntity
  8
0
100
AcDbVertex
100
AcDb2dVertex
 10
-0.5450401974774728
 20
8.819356754099951
 30
0.0
  0
VERTEX
  5
4229
330
34D7
100
AcDbEntity
  8
0
100
AcDbVertex
100
AcDb2dVertex
 10
-0.5371661817294413
 20
8.819356754099951
 30
0.0
  0
SEQEND
  5
422A
330
34D7
100
AcDbEntity
  8
0
  0
POLYLINE
  5
34E0
330
1E
100
AcDbEntity
  8
0
100
AcDb2dPolyline
 66
     1
 10
0.0
 20
0.0
 30
0.0
  0
VERTEX
  5
422B
330
34E0
100
AcDbEntity
  8
0
100
AcDbVertex
100
AcDb2dVertex
 10
1.271888936380795
 20
8.819356754099951
 30
0.0
  0
VERTEX
  5
422C
330
34E0
100
AcDbEntity
  8
0
100
AcDbVertex
100
AcDb2dVertex
 10
0.3663771253571735
 20
8.819356754099951
 30
0.0
  0
VERTEX
  5
422D
330
34E0
100
AcDbEntity
  8
0
100
AcDbVertex
100
AcDb2dVertex
 10
-0.5371661817294413
 20
8.819356754099951
 30
0.0
  0
SEQEND
  5
422E
330
34E0
100
AcDbEntity
  8
0
  0
POLYLINE
  5
34E5
330
1E
100
AcDbEntity
  8
0
100
AcDb2dPolyline
 66
     1
 10
0.0
 20
0.0
 30
0.0
  0
VERTEX
  5
422F
330
34E5
100
AcDbEntity
  8
0
100
AcDbVertex
100
AcDb2dVertex
 10
1.271888936380795
 20
8.819356754099951
 30
0.0
  0
VERTEX
  5
4230
330
34E5
100
AcDbEntity
  8
0
100
AcDbVertex
100
AcDb2dVertex
 10
1.279762952128827
 20
8.819356754099951
 30
0.0
  0
VERTEX
  5
4231
330
34E5
100
AcDbEntity
  8
0
100
AcDbVertex
100
AcDb2dVertex
 10
1.287636967876858
 20
8.815419746225934
 30
0.0
  0
VERTEX
  5
4232
330
34E5
100
AcDbEntity
  8
0
100
AcDbVertex
100
AcDb2dVertex
 10
1.297479487561897
 20
8.807545730477903
 30
0.0
  0
VERTEX
  5
4233
330
34E5
100
AcDbEntity
  8
0
100
AcDbVertex
100
AcDb2dVertex
 10
1.301416495435913
 20
8.799671714729871
 30
0.0
  0
VERTEX
  5
4234
330
34E5
100
AcDbEntity
  8
0
100
AcDbVertex
100
AcDb2dVertex
 10
1.303384999372921
 20
8.787860691107825
 30
0.0
  0
SEQEND
  5
4235
330
34E5
100
AcDbEntity
  8
0
  0
POLYLINE
  5
34ED
330
1E
100
AcDbEntity
  8
0
100
AcDb2dPolyline
 66
     1
 10
0.0
 20
0.0
 30
0.0
  0
VERTEX
  5
4236
330
34ED
100
AcDbEntity
  8
0
100
AcDbVertex
100
AcDb2dVertex
 10
1.303384999372921
 20
8.787860691107825
 30
0.0
  0
VERTEX
  5
4237
330
34ED
100
AcDbEntity
  8
0
100
AcDbVertex
100
AcDb2dVertex
 10
1.303384999372921
 20
8.614632344651132
 30
0.0
  0
VERTEX
  5
4238
330
34ED
100
AcDbEntity
  8
0
100
AcDbVertex
100
AcDb2dVertex
 10
1.303384999372921
 20
8.439435494257431
 30
0.0
  0
SEQEND
  5
4239
330
34ED
100
AcDbEntity
  8
0
  0
POLYLINE
  5
34F2
330
1E
100
AcDbEntity
  8
0
100
AcDb2dPolyline
 66
     1
 10
0.0
 20
0.0
 30
0.0
  0
VERTEX
  5
423A
330
34F2
100
AcDbEntity
  8
0
100
AcDbVertex
100
AcDb2dVertex
 10
1.303384999372921
 20
8.439435494257431
 30
0.0
  0
VERTEX
  5
423B
330
34F2
100
AcDbEntity
  8
0
100
AcDbVertex
100
AcDb2dVertex
 10
1.303384999372921
 20
8.435498486383416
 30
0.0
  0
VERTEX
  5
423C
330
34F2
100
AcDbEntity
  8
0
100
AcDbVertex
100
AcDb2dVertex
 10
1.301416495435913
 20
8.425655966698375
 30
0.0
  0
VERTEX
  5
423D
330
34F2
100
AcDbEntity
  8
0
100
AcDbVertex
100
AcDb2dVertex
 10
1.293542479687881
 20
8.415813447013336
 30
0.0
  0
VERTEX
  5
423E
330
34F2
100
AcDbEntity
  8
0
100
AcDbVertex
100
AcDb2dVertex
 10
1.28566846393985
 20
8.409907935202312
 30
0.0
  0
VERTEX
  5
423F
330
34F2
100
AcDbEntity
  8
0
100
AcDbVertex
100
AcDb2dVertex
 10
1.275825944254811
 20
8.407939431265305
 30
0.0
  0
VERTEX
  5
4240
330
34F2
100
AcDbEntity
  8
0
100
AcDbVertex
100
AcDb2dVertex
 10
1.273857440317803
 20
8.407939431265305
 30
0.0
  0
SEQEND
  5
4241
330
34F2
100
AcDbEntity
  8
0
  0
POLYLINE
  5
34FB
330
1E
100
AcDbEntity
  8
0
100
AcDb2dPolyline
 66
     1
 10
0.0
 20
0.0
 30
0.0
  0
VERTEX
  5
4242
330
34FB
100
AcDbEntity
  8
0
100
AcDbVertex
100
AcDb2dVertex
 10
1.273857440317803
 20
8.407939431265305
 30
0.0
  0
VERTEX
  5
4243
330
34FB
100
AcDbEntity
  8
0
100
AcDbVertex
100
AcDb2dVertex
 10
0.3663771253571735
 20
8.407939431265305
 30
0.0
  0
VERTEX
  5
4244
330
34FB
100
AcDbEntity
  8
0
100
AcDbVertex
100
AcDb2dVertex
 10
-0.5391346856664488
 20
8.407939431265305
 30
0.0
  0
SEQEND
  5
4245
330
34FB
100
AcDbEntity
  8
0
  0
POLYLINE
  5
3500
330
1E
100
AcDbEntity
  8
0
100
AcDb2dPolyline
 66
     1
 10
0.0
 20
0.0
 30
0.0
  0
VERTEX
  5
4246
330
3500
100
AcDbEntity
  8
0
100
AcDbVertex
100
AcDb2dVertex
 10
-0.5391346856664488
 20
8.407939431265305
 30
0.0
  0
VERTEX
  5
4247
330
3500
100
AcDbEntity
  8
0
100
AcDbVertex
100
AcDb2dVertex
 10
-0.5430716935404645
 20
8.407939431265305
 30
0.0
  0
VERTEX
  5
4248
330
3500
100
AcDbEntity
  8
0
100
AcDbVertex
100
AcDb2dVertex
 10
-0.5529142132255043
 20
8.411876439139321
 30
0.0
  0
VERTEX
  5
4249
330
3500
100
AcDbEntity
  8
0
100
AcDbVertex
100
AcDb2dVertex
 10
-0.5607882289735358
 20
8.417781950950343
 30
0.0
  0
VERTEX
  5
424A
330
3500
100
AcDbEntity
  8
0
100
AcDbVertex
100
AcDb2dVertex
 10
-0.566693740784559
 20
8.427624470635384
 30
0.0
  0
VERTEX
  5
424B
330
3500
100
AcDbEntity
  8
0
100
AcDbVertex
100
AcDb2dVertex
 10
-0.5706307486585747
 20
8.437466990320423
 30
0.0
  0
VERTEX
  5
424C
330
3500
100
AcDbEntity
  8
0
100
AcDbVertex
100
AcDb2dVertex
 10
-0.5706307486585747
 20
8.439435494257431
 30
0.0
  0
SEQEND
  5
424D
330
3500
100
AcDbEntity
  8
0
  0
LINE
  5
3509
330
1E
100
AcDbEntity
  8
0
100
AcDbLine
 10
-1.678898465194007
 20
3.44140399819444
 30
0.0
 11
-1.672992953382983
 21
3.461089037564518
 31
0.0
  0
LINE
  5
350A
330
1E
100
AcDbEntity
  8
0
100
AcDbLine
 10
-1.562756732910543
 20
3.461089037564518
 30
0.0
 11
-1.672992953382983
 21
3.461089037564518
 31
0.0
  0
LINE
  5
350B
330
1E
100
AcDbEntity
  8
0
100
AcDbLine
 10
-1.562756732910543
 20
3.461089037564518
 30
0.0
 11
-1.558819725036527
 21
3.506364628115699
 31
0.0
  0
LINE
  5
350C
330
1E
100
AcDbEntity
  8
0
100
AcDbLine
 10
2.291573975750874
 20
3.506364628115699
 30
0.0
 11
-1.558819725036527
 21
3.506364628115699
 31
0.0
  0
LINE
  5
350D
330
1E
100
AcDbEntity
  8
0
100
AcDbLine
 10
2.297479487561897
 20
3.461089037564518
 30
0.0
 11
2.291573975750874
 21
3.506364628115699
 31
0.0
  0
LINE
  5
350E
330
1E
100
AcDbEntity
  8
0
100
AcDbLine
 10
2.297479487561897
 20
3.461089037564518
 30
0.0
 11
2.407715708034338
 21
3.461089037564518
 31
0.0
  0
LINE
  5
350F
330
1E
100
AcDbEntity
  8
0
100
AcDbLine
 10
2.411652715908354
 20
3.44140399819444
 30
0.0
 11
2.407715708034338
 21
3.461089037564518
 31
0.0
  0
LINE
  5
3510
330
1E
100
AcDbEntity
  8
0
100
AcDbLine
 10
2.718739330081582
 20
3.44140399819444
 30
0.0
 11
2.411652715908354
 21
3.44140399819444
 31
0.0
  0
LINE
  5
3511
330
1E
100
AcDbEntity
  8
0
100
AcDbLine
 10
2.718739330081582
 20
3.44140399819444
 30
0.0
 11
2.647873188349299
 21
3.510301635989714
 31
0.0
  0
POLYLINE
  5
3512
330
1E
100
AcDbEntity
  8
0
100
AcDb2dPolyline
 66
     1
 10
0.0
 20
0.0
 30
0.0
  0
VERTEX
  5
424E
330
3512
100
AcDbEntity
  8
0
100
AcDbVertex
100
AcDb2dVertex
 10
2.647873188349299
 20
3.510301635989714
 30
0.0
  0
VERTEX
  5
424F
330
3512
100
AcDbEntity
  8
0
100
AcDbVertex
100
AcDb2dVertex
 10
2.638030668664259
 20
3.51423864386373
 30
0.0
  0
VERTEX
  5
4250
330
3512
100
AcDbEntity
  8
0
100
AcDbVertex
100
AcDb2dVertex
 10
2.614408621420165
 20
3.518175651737745
 30
0.0
  0
VERTEX
  5
4251
330
3512
100
AcDbEntity
  8
0
100
AcDbVertex
100
AcDb2dVertex
 10
2.578975550554023
 20
3.520144155674755
 30
0.0
  0
VERTEX
  5
4252
330
3512
100
AcDbEntity
  8
0
100
AcDbVertex
100
AcDb2dVertex
 10
2.533699960002842
 20
3.522112659611762
 30
0.0
  0
VERTEX
  5
4253
330
3512
100
AcDbEntity
  8
0
100
AcDbVertex
100
AcDb2dVertex
 10
2.484487361577645
 20
3.522112659611762
 30
0.0
  0
SEQEND
  5
4254
330
3512
100
AcDbEntity
  8
0
  0
POLYLINE
  5
351A
330
1E
100
AcDbEntity
  8
0
100
AcDb2dPolyline
 66
     1
 10
0.0
 20
0.0
 30
0.0
  0
VERTEX
  5
4255
330
351A
100
AcDbEntity
  8
0
100
AcDbVertex
100
AcDb2dVertex
 10
-1.749764606926291
 20
3.522112659611762
 30
0.0
  0
VERTEX
  5
4256
330
351A
100
AcDbEntity
  8
0
100
AcDbVertex
100
AcDb2dVertex
 10
-1.798977205351488
 20
3.522112659611762
 30
0.0
  0
VERTEX
  5
4257
330
351A
100
AcDbEntity
  8
0
100
AcDbVertex
100
AcDb2dVertex
 10
-1.844252795902669
 20
3.520144155674755
 30
0.0
  0
VERTEX
  5
4258
330
351A
100
AcDbEntity
  8
0
100
AcDbVertex
100
AcDb2dVertex
 10
-1.87968586676881
 20
3.518175651737745
 30
0.0
  0
VERTEX
  5
4259
330
351A
100
AcDbEntity
  8
0
100
AcDbVertex
100
AcDb2dVertex
 10
-1.903307914012905
 20
3.51423864386373
 30
0.0
  0
VERTEX
  5
425A
330
351A
100
AcDbEntity
  8
0
100
AcDbVertex
100
AcDb2dVertex
 10
-1.913150433697945
 20
3.510301635989714
 30
0.0
  0
SEQEND
  5
425B
330
351A
100
AcDbEntity
  8
0
  0
LINE
  5
3522
330
1E
100
AcDbEntity
  8
0
100
AcDbLine
 10
-1.984016575430228
 20
3.44140399819444
 30
0.0
 11
-1.913150433697945
 21
3.510301635989714
 31
0.0
  0
POLYLINE
  5
3523
330
1E
100
AcDbEntity
  8
0
100
AcDb2dPolyline
 66
     1
 10
0.0
 20
0.0
 30
0.0
  0
VERTEX
  5
425C
330
3523
100
AcDbEntity
  8
0
100
AcDbVertex
100
AcDb2dVertex
 10
2.218739330081582
 20
3.555577226540895
 30
0.0
  0
VERTEX
  5
425D
330
3523
100
AcDbEntity
  8
0
100
AcDbVertex
100
AcDb2dVertex
 10
1.762046416695755
 20
3.555577226540895
 30
0.0
  0
VERTEX
  5
425E
330
3523
100
AcDbEntity
  8
0
100
AcDbVertex
100
AcDb2dVertex
 10
1.307322007246937
 20
3.555577226540895
 30
0.0
  0
VERTEX
  5
425F
330
3523
100
AcDbEntity
  8
0
100
AcDbVertex
100
AcDb2dVertex
 10
0.7069283064595356
 20
3.555577226540895
 30
0.0
  0
VERTEX
  5
4260
330
3523
100
AcDbEntity
  8
0
100
AcDbVertex
100
AcDb2dVertex
 10
0.1065346056721337
 20
3.555577226540895
 30
0.0
  0
VERTEX
  5
4261
330
3523
100
AcDbEntity
  8
0
100
AcDbVertex
100
AcDb2dVertex
 10
-0.6887409848790469
 20
3.555577226540895
 30
0.0
  0
VERTEX
  5
4262
330
3523
100
AcDbEntity
  8
0
100
AcDbVertex
100
AcDb2dVertex
 10
-1.484016575430228
 20
3.555577226540895
 30
0.0
  0
SEQEND
  5
4263
330
3523
100
AcDbEntity
  8
0
  0
POLYLINE
  5
352C
330
1E
100
AcDbEntity
  8
0
100
AcDb2dPolyline
 66
     1
 10
0.0
 20
0.0
 30
0.0
  0
VERTEX
  5
4264
330
352C
100
AcDbEntity
  8
0
100
AcDbVertex
100
AcDb2dVertex
 10
2.218739330081582
 20
3.585104785596014
 30
0.0
  0
VERTEX
  5
4265
330
352C
100
AcDbEntity
  8
0
100
AcDbVertex
100
AcDb2dVertex
 10
2.222676337955598
 20
3.585104785596014
 30
0.0
  0
VERTEX
  5
4266
330
352C
100
AcDbEntity
  8
0
100
AcDbVertex
100
AcDb2dVertex
 10
2.228581849766621
 20
3.581167777721997
 30
0.0
  0
VERTEX
  5
4267
330
352C
100
AcDbEntity
  8
0
100
AcDbVertex
100
AcDb2dVertex
 10
2.230550353703629
 20
3.577230769847982
 30
0.0
  0
VERTEX
  5
4268
330
352C
100
AcDbEntity
  8
0
100
AcDbVertex
100
AcDb2dVertex
 10
2.232518857640637
 20
3.573293761973966
 30
0.0
  0
VERTEX
  5
4269
330
352C
100
AcDbEntity
  8
0
100
AcDbVertex
100
AcDb2dVertex
 10
2.232518857640637
 20
3.571325258036958
 30
0.0
  0
VERTEX
  5
426A
330
352C
100
AcDbEntity
  8
0
100
AcDbVertex
100
AcDb2dVertex
 10
2.232518857640637
 20
3.565419746225934
 30
0.0
  0
VERTEX
  5
426B
330
352C
100
AcDbEntity
  8
0
100
AcDbVertex
100
AcDb2dVertex
 10
2.230550353703629
 20
3.561482738351919
 30
0.0
  0
VERTEX
  5
426C
330
352C
100
AcDbEntity
  8
0
100
AcDbVertex
100
AcDb2dVertex
 10
2.226613345829614
 20
3.557545730477903
 30
0.0
  0
VERTEX
  5
426D
330
352C
100
AcDbEntity
  8
0
100
AcDbVertex
100
AcDb2dVertex
 10
2.222676337955598
 20
3.555577226540895
 30
0.0
  0
VERTEX
  5
426E
330
352C
100
AcDbEntity
  8
0
100
AcDbVertex
100
AcDb2dVertex
 10
2.218739330081582
 20
3.555577226540895
 30
0.0
  0
SEQEND
  5
426F
330
352C
100
AcDbEntity
  8
0
  0
LINE
  5
3539
330
1E
100
AcDbEntity
  8
0
100
AcDbLine
 10
1.683306259215441
 20
3.585104785596014
 30
0.0
 11
2.218739330081582
 21
3.585104785596014
 31
0.0
  0
POLYLINE
  5
353A
330
1E
100
AcDbEntity
  8
0
100
AcDb2dPolyline
 66
     1
 10
0.0
 20
0.0
 30
0.0
  0
VERTEX
  5
4270
330
353A
100
AcDbEntity
  8
0
100
AcDbVertex
100
AcDb2dVertex
 10
1.683306259215441
 20
3.585104785596014
 30
0.0
  0
VERTEX
  5
4271
330
353A
100
AcDbEntity
  8
0
100
AcDbVertex
100
AcDb2dVertex
 10
1.673463739530401
 20
3.587073289533021
 30
0.0
  0
VERTEX
  5
4272
330
353A
100
AcDbEntity
  8
0
100
AcDbVertex
100
AcDb2dVertex
 10
1.663621219845362
 20
3.592978801344045
 30
0.0
  0
VERTEX
  5
4273
330
353A
100
AcDbEntity
  8
0
100
AcDbVertex
100
AcDb2dVertex
 10
1.657715708034338
 20
3.598884313155069
 30
0.0
  0
VERTEX
  5
4274
330
353A
100
AcDbEntity
  8
0
100
AcDbVertex
100
AcDb2dVertex
 10
1.653778700160322
 20
3.608726832840108
 30
0.0
  0
VERTEX
  5
4275
330
353A
100
AcDbEntity
  8
0
100
AcDbVertex
100
AcDb2dVertex
 10
1.651810196223315
 20
3.61660084858814
 30
0.0
  0
SEQEND
  5
4276
330
353A
100
AcDbEntity
  8
0
  0
LINE
  5
3542
330
1E
100
AcDbEntity
  8
0
100
AcDbLine
 10
1.651810196223315
 20
3.61660084858814
 30
0.0
 11
1.651810196223315
 21
3.630380376147195
 31
0.0
  0
POLYLINE
  5
3543
330
1E
100
AcDbEntity
  8
0
100
AcDb2dPolyline
 66
     1
 10
0.0
 20
0.0
 30
0.0
  0
VERTEX
  5
4277
330
3543
100
AcDbEntity
  8
0
100
AcDbVertex
100
AcDb2dVertex
 10
1.622282637168196
 20
3.630380376147195
 30
0.0
  0
VERTEX
  5
4278
330
3543
100
AcDbEntity
  8
0
100
AcDbVertex
100
AcDb2dVertex
 10
1.622282637168196
 20
3.63431738402121
 30
0.0
  0
VERTEX
  5
4279
330
3543
100
AcDbEntity
  8
0
100
AcDbVertex
100
AcDb2dVertex
 10
1.624251141105204
 20
3.638254391895227
 30
0.0
  0
VERTEX
  5
427A
330
3543
100
AcDbEntity
  8
0
100
AcDbVertex
100
AcDb2dVertex
 10
1.62818814897922
 20
3.642191399769242
 30
0.0
  0
VERTEX
  5
427B
330
3543
100
AcDbEntity
  8
0
100
AcDbVertex
100
AcDb2dVertex
 10
1.632125156853236
 20
3.644159903706249
 30
0.0
  0
VERTEX
  5
427C
330
3543
100
AcDbEntity
  8
0
100
AcDbVertex
100
AcDb2dVertex
 10
1.638030668664259
 20
3.646128407643258
 30
0.0
  0
VERTEX
  5
427D
330
3543
100
AcDbEntity
  8
0
100
AcDbVertex
100
AcDb2dVertex
 10
1.641967676538275
 20
3.644159903706249
 30
0.0
  0
VERTEX
  5
427E
330
3543
100
AcDbEntity
  8
0
100
AcDbVertex
100
AcDb2dVertex
 10
1.645904684412291
 20
3.642191399769242
 30
0.0
  0
VERTEX
  5
427F
330
3543
100
AcDbEntity
  8
0
100
AcDbVertex
100
AcDb2dVertex
 10
1.649841692286306
 20
3.638254391895227
 30
0.0
  0
VERTEX
  5
4280
330
3543
100
AcDbEntity
  8
0
100
AcDbVertex
100
AcDb2dVertex
 10
1.651810196223315
 20
3.63431738402121
 30
0.0
  0
VERTEX
  5
4281
330
3543
100
AcDbEntity
  8
0
100
AcDbVertex
100
AcDb2dVertex
 10
1.651810196223315
 20
3.630380376147195
 30
0.0
  0
SEQEND
  5
4282
330
3543
100
AcDbEntity
  8
0
  0
LINE
  5
3550
330
1E
100
AcDbEntity
  8
0
100
AcDbLine
 10
1.622282637168196
 20
3.61660084858814
 30
0.0
 11
1.622282637168196
 21
3.630380376147195
 31
0.0
  0
POLYLINE
  5
3551
330
1E
100
AcDbEntity
  8
0
100
AcDb2dPolyline
 66
     1
 10
0.0
 20
0.0
 30
0.0
  0
VERTEX
  5
4283
330
3551
100
AcDbEntity
  8
0
100
AcDbVertex
100
AcDb2dVertex
 10
1.622282637168196
 20
3.61660084858814
 30
0.0
  0
VERTEX
  5
4284
330
3551
100
AcDbEntity
  8
0
100
AcDbVertex
100
AcDb2dVertex
 10
1.622282637168196
 20
3.610695336777116
 30
0.0
  0
VERTEX
  5
4285
330
3551
100
AcDbEntity
  8
0
100
AcDbVertex
100
AcDb2dVertex
 10
1.61834562929418
 20
3.600852817092077
 30
0.0
  0
VERTEX
  5
4286
330
3551
100
AcDbEntity
  8
0
100
AcDbVertex
100
AcDb2dVertex
 10
1.610471613546149
 20
3.592978801344045
 30
0.0
  0
VERTEX
  5
4287
330
3551
100
AcDbEntity
  8
0
100
AcDbVertex
100
AcDb2dVertex
 10
1.60062909386111
 20
3.587073289533021
 30
0.0
  0
VERTEX
  5
4288
330
3551
100
AcDbEntity
  8
0
100
AcDbVertex
100
AcDb2dVertex
 10
1.59078657417607
 20
3.585104785596014
 30
0.0
  0
SEQEND
  5
4289
330
3551
100
AcDbEntity
  8
0
  0
LINE
  5
3559
330
1E
100
AcDbEntity
  8
0
100
AcDbLine
 10
1.049447991498905
 20
3.585104785596014
 30
0.0
 11
1.59078657417607
 21
3.585104785596014
 31
0.0
  0
POLYLINE
  5
355A
330
1E
100
AcDbEntity
  8
0
100
AcDb2dPolyline
 66
     1
 10
0.0
 20
0.0
 30
0.0
  0
VERTEX
  5
428A
330
355A
100
AcDbEntity
  8
0
100
AcDbVertex
100
AcDb2dVertex
 10
1.049447991498905
 20
3.585104785596014
 30
0.0
  0
VERTEX
  5
428B
330
355A
100
AcDbEntity
  8
0
100
AcDbVertex
100
AcDb2dVertex
 10
1.037636967876858
 20
3.587073289533021
 30
0.0
  0
VERTEX
  5
428C
330
355A
100
AcDbEntity
  8
0
100
AcDbVertex
100
AcDb2dVertex
 10
1.029762952128827
 20
3.592978801344045
 30
0.0
  0
VERTEX
  5
428D
330
355A
100
AcDbEntity
  8
0
100
AcDbVertex
100
AcDb2dVertex
 10
1.021888936380795
 20
3.598884313155069
 30
0.0
  0
VERTEX
  5
428E
330
355A
100
AcDbEntity
  8
0
100
AcDbVertex
100
AcDb2dVertex
 10
1.017951928506779
 20
3.608726832840108
 30
0.0
  0
VERTEX
  5
428F
330
355A
100
AcDbEntity
  8
0
100
AcDbVertex
100
AcDb2dVertex
 10
1.017951928506779
 20
3.61660084858814
 30
0.0
  0
SEQEND
  5
4290
330
355A
100
AcDbEntity
  8
0
  0
LINE
  5
3562
330
1E
100
AcDbEntity
  8
0
100
AcDbLine
 10
1.017951928506779
 20
3.61660084858814
 30
0.0
 11
1.017951928506779
 21
3.630380376147195
 31
0.0
  0
POLYLINE
  5
3563
330
1E
100
AcDbEntity
  8
0
100
AcDb2dPolyline
 66
     1
 10
0.0
 20
0.0
 30
0.0
  0
VERTEX
  5
4291
330
3563
100
AcDbEntity
  8
0
100
AcDbVertex
100
AcDb2dVertex
 10
0.986455865514654
 20
3.630380376147195
 30
0.0
  0
VERTEX
  5
4292
330
3563
100
AcDbEntity
  8
0
100
AcDbVertex
100
AcDb2dVertex
 10
0.9884243694516614
 20
3.63431738402121
 30
0.0
  0
VERTEX
  5
4293
330
3563
100
AcDbEntity
  8
0
100
AcDbVertex
100
AcDb2dVertex
 10
0.9903928733886697
 20
3.638254391895227
 30
0.0
  0
VERTEX
  5
4294
330
3563
100
AcDbEntity
  8
0
100
AcDbVertex
100
AcDb2dVertex
 10
0.9923613773256771
 20
3.642191399769242
 30
0.0
  0
VERTEX
  5
4295
330
3563
100
AcDbEntity
  8
0
100
AcDbVertex
100
AcDb2dVertex
 10
0.9982668891367012
 20
3.644159903706249
 30
0.0
  0
VERTEX
  5
4296
330
3563
100
AcDbEntity
  8
0
100
AcDbVertex
100
AcDb2dVertex
 10
1.002203897010716
 20
3.646128407643258
 30
0.0
  0
VERTEX
  5
4297
330
3563
100
AcDbEntity
  8
0
100
AcDbVertex
100
AcDb2dVertex
 10
1.00810940882174
 20
3.644159903706249
 30
0.0
  0
VERTEX
  5
4298
330
3563
100
AcDbEntity
  8
0
100
AcDbVertex
100
AcDb2dVertex
 10
1.012046416695755
 20
3.642191399769242
 30
0.0
  0
VERTEX
  5
4299
330
3563
100
AcDbEntity
  8
0
100
AcDbVertex
100
AcDb2dVertex
 10
1.015983424569771
 20
3.638254391895227
 30
0.0
  0
VERTEX
  5
429A
330
3563
100
AcDbEntity
  8
0
100
AcDbVertex
100
AcDb2dVertex
 10
1.015983424569771
 20
3.63431738402121
 30
0.0
  0
VERTEX
  5
429B
330
3563
100
AcDbEntity
  8
0
100
AcDbVertex
100
AcDb2dVertex
 10
1.017951928506779
 20
3.630380376147195
 30
0.0
  0
SEQEND
  5
429C
330
3563
100
AcDbEntity
  8
0
  0
LINE
  5
3570
330
1E
100
AcDbEntity
  8
0
100
AcDbLine
 10
0.986455865514654
 20
3.61660084858814
 30
0.0
 11
0.986455865514654
 21
3.630380376147195
 31
0.0
  0
POLYLINE
  5
3571
330
1E
100
AcDbEntity
  8
0
100
AcDb2dPolyline
 66
     1
 10
0.0
 20
0.0
 30
0.0
  0
VERTEX
  5
429D
330
3571
100
AcDbEntity
  8
0
100
AcDbVertex
100
AcDb2dVertex
 10
0.986455865514654
 20
3.61660084858814
 30
0.0
  0
VERTEX
  5
429E
330
3571
100
AcDbEntity
  8
0
100
AcDbVertex
100
AcDb2dVertex
 10
0.986455865514654
 20
3.610695336777116
 30
0.0
  0
VERTEX
  5
429F
330
3571
100
AcDbEntity
  8
0
100
AcDbVertex
100
AcDb2dVertex
 10
0.9825188576406373
 20
3.600852817092077
 30
0.0
  0
VERTEX
  5
42A0
330
3571
100
AcDbEntity
  8
0
100
AcDbVertex
100
AcDb2dVertex
 10
0.9766133458296142
 20
3.592978801344045
 30
0.0
  0
VERTEX
  5
42A1
330
3571
100
AcDbEntity
  8
0
100
AcDbVertex
100
AcDb2dVertex
 10
0.9667708261445744
 20
3.587073289533021
 30
0.0
  0
VERTEX
  5
42A2
330
3571
100
AcDbEntity
  8
0
100
AcDbVertex
100
AcDb2dVertex
 10
0.9569283064595355
 20
3.585104785596014
 30
0.0
  0
SEQEND
  5
42A3
330
3571
100
AcDbEntity
  8
0
  0
POLYLINE
  5
3579
330
1E
100
AcDbEntity
  8
0
100
AcDb2dPolyline
 66
     1
 10
0.0
 20
0.0
 30
0.0
  0
VERTEX
  5
42A4
330
3579
100
AcDbEntity
  8
0
100
AcDbVertex
100
AcDb2dVertex
 10
0.9569283064595355
 20
3.585104785596014
 30
0.0
  0
VERTEX
  5
42A5
330
3579
100
AcDbEntity
  8
0
100
AcDbVertex
100
AcDb2dVertex
 10
0.6281881489792207
 20
3.585104785596014
 30
0.0
  0
VERTEX
  5
42A6
330
3579
100
AcDbEntity
  8
0
100
AcDbVertex
100
AcDb2dVertex
 10
0.4136212198453624
 20
3.585104785596014
 30
0.0
  0
SEQEND
  5
42A7
330
3579
100
AcDbEntity
  8
0
  0
POLYLINE
  5
357E
330
1E
100
AcDbEntity
  8
0
100
AcDb2dPolyline
 66
     1
 10
0.0
 20
0.0
 30
0.0
  0
VERTEX
  5
42A8
330
357E
100
AcDbEntity
  8
0
100
AcDbVertex
100
AcDb2dVertex
 10
0.4136212198453624
 20
3.585104785596014
 30
0.0
  0
VERTEX
  5
42A9
330
357E
100
AcDbEntity
  8
0
100
AcDbVertex
100
AcDb2dVertex
 10
0.4037787001603226
 20
3.587073289533021
 30
0.0
  0
VERTEX
  5
42AA
330
357E
100
AcDbEntity
  8
0
100
AcDbVertex
100
AcDb2dVertex
 10
0.3939361804752837
 20
3.592978801344045
 30
0.0
  0
VERTEX
  5
42AB
330
357E
100
AcDbEntity
  8
0
100
AcDbVertex
100
AcDb2dVertex
 10
0.3880306686642596
 20
3.598884313155069
 30
0.0
  0
VERTEX
  5
42AC
330
357E
100
AcDbEntity
  8
0
100
AcDbVertex
100
AcDb2dVertex
 10
0.3821251568532364
 20
3.608726832840108
 30
0.0
  0
VERTEX
  5
42AD
330
357E
100
AcDbEntity
  8
0
100
AcDbVertex
100
AcDb2dVertex
 10
0.3821251568532364
 20
3.61660084858814
 30
0.0
  0
SEQEND
  5
42AE
330
357E
100
AcDbEntity
  8
0
  0
LINE
  5
3586
330
1E
100
AcDbEntity
  8
0
100
AcDbLine
 10
0.3821251568532364
 20
3.61660084858814
 30
0.0
 11
0.3821251568532364
 21
3.630380376147195
 31
0.0
  0
POLYLINE
  5
3587
330
1E
100
AcDbEntity
  8
0
100
AcDb2dPolyline
 66
     1
 10
0.0
 20
0.0
 30
0.0
  0
VERTEX
  5
42AF
330
3587
100
AcDbEntity
  8
0
100
AcDbVertex
100
AcDb2dVertex
 10
0.3525975977981179
 20
3.630380376147195
 30
0.0
  0
VERTEX
  5
42B0
330
3587
100
AcDbEntity
  8
0
100
AcDbVertex
100
AcDb2dVertex
 10
0.3525975977981179
 20
3.63431738402121
 30
0.0
  0
VERTEX
  5
42B1
330
3587
100
AcDbEntity
  8
0
100
AcDbVertex
100
AcDb2dVertex
 10
0.3545661017351263
 20
3.638254391895227
 30
0.0
  0
VERTEX
  5
42B2
330
3587
100
AcDbEntity
  8
0
100
AcDbVertex
100
AcDb2dVertex
 10
0.358503109609142
 20
3.642191399769242
 30
0.0
  0
VERTEX
  5
42B3
330
3587
100
AcDbEntity
  8
0
100
AcDbVertex
100
AcDb2dVertex
 10
0.3624401174831577
 20
3.644159903706249
 30
0.0
  0
VERTEX
  5
42B4
330
3587
100
AcDbEntity
  8
0
100
AcDbVertex
100
AcDb2dVertex
 10
0.3683456292941809
 20
3.646128407643258
 30
0.0
  0
VERTEX
  5
42B5
330
3587
100
AcDbEntity
  8
0
100
AcDbVertex
100
AcDb2dVertex
 10
0.3722826371681966
 20
3.644159903706249
 30
0.0
  0
VERTEX
  5
42B6
330
3587
100
AcDbEntity
  8
0
100
AcDbVertex
100
AcDb2dVertex
 10
0.3762196450422124
 20
3.642191399769242
 30
0.0
  0
VERTEX
  5
42B7
330
3587
100
AcDbEntity
  8
0
100
AcDbVertex
100
AcDb2dVertex
 10
0.3801566529162281
 20
3.638254391895227
 30
0.0
  0
VERTEX
  5
42B8
330
3587
100
AcDbEntity
  8
0
100
AcDbVertex
100
AcDb2dVertex
 10
0.3821251568532364
 20
3.63431738402121
 30
0.0
  0
VERTEX
  5
42B9
330
3587
100
AcDbEntity
  8
0
100
AcDbVertex
100
AcDb2dVertex
 10
0.3821251568532364
 20
3.630380376147195
 30
0.0
  0
SEQEND
  5
42BA
330
3587
100
AcDbEntity
  8
0
  0
LINE
  5
3594
330
1E
100
AcDbEntity
  8
0
100
AcDbLine
 10
0.3525975977981179
 20
3.61660084858814
 30
0.0
 11
0.3525975977981179
 21
3.630380376147195
 31
0.0
  0
POLYLINE
  5
3595
330
1E
100
AcDbEntity
  8
0
100
AcDb2dPolyline
 66
     1
 10
0.0
 20
0.0
 30
0.0
  0
VERTEX
  5
42BB
330
3595
100
AcDbEntity
  8
0
100
AcDbVertex
100
AcDb2dVertex
 10
0.3525975977981179
 20
3.61660084858814
 30
0.0
  0
VERTEX
  5
42BC
330
3595
100
AcDbEntity
  8
0
100
AcDbVertex
100
AcDb2dVertex
 10
0.3506290938611105
 20
3.610695336777116
 30
0.0
  0
VERTEX
  5
42BD
330
3595
100
AcDbEntity
  8
0
100
AcDbVertex
100
AcDb2dVertex
 10
0.3466920859870948
 20
3.600852817092077
 30
0.0
  0
VERTEX
  5
42BE
330
3595
100
AcDbEntity
  8
0
100
AcDbVertex
100
AcDb2dVertex
 10
0.3407865741760707
 20
3.592978801344045
 30
0.0
  0
VERTEX
  5
42BF
330
3595
100
AcDbEntity
  8
0
100
AcDbVertex
100
AcDb2dVertex
 10
0.3309440544910318
 20
3.587073289533021
 30
0.0
  0
VERTEX
  5
42C0
330
3595
100
AcDbEntity
  8
0
100
AcDbVertex
100
AcDb2dVertex
 10
0.321101534805992
 20
3.585104785596014
 30
0.0
  0
SEQEND
  5
42C1
330
3595
100
AcDbEntity
  8
0
  0
LINE
  5
359D
330
1E
100
AcDbEntity
  8
0
100
AcDbLine
 10
0.321101534805992
 20
3.585104785596014
 30
0.0
 11
-0.2222055518081811
 21
3.585104785596014
 31
0.0
  0
POLYLINE
  5
359E
330
1E
100
AcDbEntity
  8
0
100
AcDb2dPolyline
 66
     1
 10
0.0
 20
0.0
 30
0.0
  0
VERTEX
  5
42C2
330
359E
100
AcDbEntity
  8
0
100
AcDbVertex
100
AcDb2dVertex
 10
-0.2222055518081811
 20
3.585104785596014
 30
0.0
  0
VERTEX
  5
42C3
330
359E
100
AcDbEntity
  8
0
100
AcDbVertex
100
AcDb2dVertex
 10
-0.23204807149322
 20
3.587073289533021
 30
0.0
  0
VERTEX
  5
42C4
330
359E
100
AcDbEntity
  8
0
100
AcDbVertex
100
AcDb2dVertex
 10
-0.2399220872412515
 20
3.592978801344045
 30
0.0
  0
VERTEX
  5
42C5
330
359E
100
AcDbEntity
  8
0
100
AcDbVertex
100
AcDb2dVertex
 10
-0.247796102989283
 20
3.598884313155069
 30
0.0
  0
VERTEX
  5
42C6
330
359E
100
AcDbEntity
  8
0
100
AcDbVertex
100
AcDb2dVertex
 10
-0.2517331108632987
 20
3.608726832840108
 30
0.0
  0
VERTEX
  5
42C7
330
359E
100
AcDbEntity
  8
0
100
AcDbVertex
100
AcDb2dVertex
 10
-0.2537016148003071
 20
3.61660084858814
 30
0.0
  0
SEQEND
  5
42C8
330
359E
100
AcDbEntity
  8
0
  0
LINE
  5
35A6
330
1E
100
AcDbEntity
  8
0
100
AcDbLine
 10
-0.2537016148003071
 20
3.61660084858814
 30
0.0
 11
-0.2537016148003071
 21
3.630380376147195
 31
0.0
  0
POLYLINE
  5
35A7
330
1E
100
AcDbEntity
  8
0
100
AcDb2dPolyline
 66
     1
 10
0.0
 20
0.0
 30
0.0
  0
VERTEX
  5
42C9
330
35A7
100
AcDbEntity
  8
0
100
AcDbVertex
100
AcDb2dVertex
 10
-0.2832291738554255
 20
3.630380376147195
 30
0.0
  0
VERTEX
  5
42CA
330
35A7
100
AcDbEntity
  8
0
100
AcDbVertex
100
AcDb2dVertex
 10
-0.2832291738554255
 20
3.63431738402121
 30
0.0
  0
VERTEX
  5
42CB
330
35A7
100
AcDbEntity
  8
0
100
AcDbVertex
100
AcDb2dVertex
 10
-0.2812606699184172
 20
3.638254391895227
 30
0.0
  0
VERTEX
  5
42CC
330
35A7
100
AcDbEntity
  8
0
100
AcDbVertex
100
AcDb2dVertex
 10
-0.2773236620444015
 20
3.642191399769242
 30
0.0
  0
VERTEX
  5
42CD
330
35A7
100
AcDbEntity
  8
0
100
AcDbVertex
100
AcDb2dVertex
 10
-0.2733866541703858
 20
3.644159903706249
 30
0.0
  0
VERTEX
  5
42CE
330
35A7
100
AcDbEntity
  8
0
100
AcDbVertex
100
AcDb2dVertex
 10
-0.2674811423593617
 20
3.646128407643258
 30
0.0
  0
VERTEX
  5
42CF
330
35A7
100
AcDbEntity
  8
0
100
AcDbVertex
100
AcDb2dVertex
 10
-0.263544134485346
 20
3.644159903706249
 30
0.0
  0
VERTEX
  5
42D0
330
35A7
100
AcDbEntity
  8
0
100
AcDbVertex
100
AcDb2dVertex
 10
-0.2576386226743228
 20
3.642191399769242
 30
0.0
  0
VERTEX
  5
42D1
330
35A7
100
AcDbEntity
  8
0
100
AcDbVertex
100
AcDb2dVertex
 10
-0.2556701187373145
 20
3.638254391895227
 30
0.0
  0
VERTEX
  5
42D2
330
35A7
100
AcDbEntity
  8
0
100
AcDbVertex
100
AcDb2dVertex
 10
-0.2537016148003071
 20
3.63431738402121
 30
0.0
  0
VERTEX
  5
42D3
330
35A7
100
AcDbEntity
  8
0
100
AcDbVertex
100
AcDb2dVertex
 10
-0.2537016148003071
 20
3.630380376147195
 30
0.0
  0
SEQEND
  5
42D4
330
35A7
100
AcDbEntity
  8
0
  0
LINE
  5
35B4
330
1E
100
AcDbEntity
  8
0
100
AcDbLine
 10
-0.2832291738554255
 20
3.61660084858814
 30
0.0
 11
-0.2832291738554255
 21
3.630380376147195
 31
0.0
  0
POLYLINE
  5
35B5
330
1E
100
AcDbEntity
  8
0
100
AcDb2dPolyline
 66
     1
 10
0.0
 20
0.0
 30
0.0
  0
VERTEX
  5
42D5
330
35B5
100
AcDbEntity
  8
0
100
AcDbVertex
100
AcDb2dVertex
 10
-0.2832291738554255
 20
3.61660084858814
 30
0.0
  0
VERTEX
  5
42D6
330
35B5
100
AcDbEntity
  8
0
100
AcDbVertex
100
AcDb2dVertex
 10
-0.2832291738554255
 20
3.610695336777116
 30
0.0
  0
VERTEX
  5
42D7
330
35B5
100
AcDbEntity
  8
0
100
AcDbVertex
100
AcDb2dVertex
 10
-0.2871661817294413
 20
3.600852817092077
 30
0.0
  0
VERTEX
  5
42D8
330
35B5
100
AcDbEntity
  8
0
100
AcDbVertex
100
AcDb2dVertex
 10
-0.2950401974774728
 20
3.592978801344045
 30
0.0
  0
VERTEX
  5
42D9
330
35B5
100
AcDbEntity
  8
0
100
AcDbVertex
100
AcDb2dVertex
 10
-0.3029142132255043
 20
3.587073289533021
 30
0.0
  0
VERTEX
  5
42DA
330
35B5
100
AcDbEntity
  8
0
100
AcDbVertex
100
AcDb2dVertex
 10
-0.3127567329105432
 20
3.585104785596014
 30
0.0
  0
VERTEX
  5
42DB
330
35B5
100
AcDbEntity
  8
0
100
AcDbVertex
100
AcDb2dVertex
 10
-0.3147252368475515
 20
3.585104785596014
 30
0.0
  0
SEQEND
  5
42DC
330
35B5
100
AcDbEntity
  8
0
  0
POLYLINE
  5
35BE
330
1E
100
AcDbEntity
  8
0
100
AcDb2dPolyline
 66
     1
 10
0.0
 20
0.0
 30
0.0
  0
VERTEX
  5
42DD
330
35BE
100
AcDbEntity
  8
0
100
AcDbVertex
100
AcDb2dVertex
 10
-0.3147252368475515
 20
3.585104785596014
 30
0.0
  0
VERTEX
  5
42DE
330
35BE
100
AcDbEntity
  8
0
100
AcDbVertex
100
AcDb2dVertex
 10
-0.572599252595583
 20
3.585104785596014
 30
0.0
  0
VERTEX
  5
42DF
330
35BE
100
AcDbEntity
  8
0
100
AcDbVertex
100
AcDb2dVertex
 10
-0.8560638195247163
 20
3.585104785596014
 30
0.0
  0
SEQEND
  5
42E0
330
35BE
100
AcDbEntity
  8
0
  0
POLYLINE
  5
35C3
330
1E
100
AcDbEntity
  8
0
100
AcDb2dPolyline
 66
     1
 10
0.0
 20
0.0
 30
0.0
  0
VERTEX
  5
42E1
330
35C3
100
AcDbEntity
  8
0
100
AcDbVertex
100
AcDb2dVertex
 10
-0.8560638195247163
 20
3.585104785596014
 30
0.0
  0
VERTEX
  5
42E2
330
35C3
100
AcDbEntity
  8
0
100
AcDbVertex
100
AcDb2dVertex
 10
-0.8659063392097561
 20
3.587073289533021
 30
0.0
  0
VERTEX
  5
42E3
330
35C3
100
AcDbEntity
  8
0
100
AcDbVertex
100
AcDb2dVertex
 10
-0.875748858894795
 20
3.592978801344045
 30
0.0
  0
VERTEX
  5
42E4
330
35C3
100
AcDbEntity
  8
0
100
AcDbVertex
100
AcDb2dVertex
 10
-0.8836228746428265
 20
3.598884313155069
 30
0.0
  0
VERTEX
  5
42E5
330
35C3
100
AcDbEntity
  8
0
100
AcDbVertex
100
AcDb2dVertex
 10
-0.8875598825168422
 20
3.608726832840108
 30
0.0
  0
VERTEX
  5
42E6
330
35C3
100
AcDbEntity
  8
0
100
AcDbVertex
100
AcDb2dVertex
 10
-0.8875598825168422
 20
3.61660084858814
 30
0.0
  0
SEQEND
  5
42E7
330
35C3
100
AcDbEntity
  8
0
  0
LINE
  5
35CB
330
1E
100
AcDbEntity
  8
0
100
AcDbLine
 10
-0.8875598825168422
 20
3.61660084858814
 30
0.0
 11
-0.8875598825168422
 21
3.630380376147195
 31
0.0
  0
POLYLINE
  5
35CC
330
1E
100
AcDbEntity
  8
0
100
AcDb2dPolyline
 66
     1
 10
0.0
 20
0.0
 30
0.0
  0
VERTEX
  5
42E8
330
35CC
100
AcDbEntity
  8
0
100
AcDbVertex
100
AcDb2dVertex
 10
-0.9170874415719607
 20
3.630380376147195
 30
0.0
  0
VERTEX
  5
42E9
330
35CC
100
AcDbEntity
  8
0
100
AcDbVertex
100
AcDb2dVertex
 10
-0.9170874415719607
 20
3.63431738402121
 30
0.0
  0
VERTEX
  5
42EA
330
35CC
100
AcDbEntity
  8
0
100
AcDbVertex
100
AcDb2dVertex
 10
-0.9151189376349524
 20
3.638254391895227
 30
0.0
  0
VERTEX
  5
42EB
330
35CC
100
AcDbEntity
  8
0
100
AcDbVertex
100
AcDb2dVertex
 10
-0.9111819297609367
 20
3.642191399769242
 30
0.0
  0
VERTEX
  5
42EC
330
35CC
100
AcDbEntity
  8
0
100
AcDbVertex
100
AcDb2dVertex
 10
-0.9072449218869209
 20
3.644159903706249
 30
0.0
  0
VERTEX
  5
42ED
330
35CC
100
AcDbEntity
  8
0
100
AcDbVertex
100
AcDb2dVertex
 10
-0.9033079140129052
 20
3.646128407643258
 30
0.0
  0
VERTEX
  5
42EE
330
35CC
100
AcDbEntity
  8
0
100
AcDbVertex
100
AcDb2dVertex
 10
-0.897402402201882
 20
3.644159903706249
 30
0.0
  0
VERTEX
  5
42EF
330
35CC
100
AcDbEntity
  8
0
100
AcDbVertex
100
AcDb2dVertex
 10
-0.8934653943278663
 20
3.642191399769242
 30
0.0
  0
VERTEX
  5
42F0
330
35CC
100
AcDbEntity
  8
0
100
AcDbVertex
100
AcDb2dVertex
 10
-0.8895283864538505
 20
3.638254391895227
 30
0.0
  0
VERTEX
  5
42F1
330
35CC
100
AcDbEntity
  8
0
100
AcDbVertex
100
AcDb2dVertex
 10
-0.8875598825168422
 20
3.63431738402121
 30
0.0
  0
VERTEX
  5
42F2
330
35CC
100
AcDbEntity
  8
0
100
AcDbVertex
100
AcDb2dVertex
 10
-0.8875598825168422
 20
3.630380376147195
 30
0.0
  0
SEQEND
  5
42F3
330
35CC
100
AcDbEntity
  8
0
  0
LINE
  5
35D9
330
1E
100
AcDbEntity
  8
0
100
AcDbLine
 10
-0.9170874415719607
 20
3.61660084858814
 30
0.0
 11
-0.9170874415719607
 21
3.630380376147195
 31
0.0
  0
POLYLINE
  5
35DA
330
1E
100
AcDbEntity
  8
0
100
AcDb2dPolyline
 66
     1
 10
0.0
 20
0.0
 30
0.0
  0
VERTEX
  5
42F4
330
35DA
100
AcDbEntity
  8
0
100
AcDbVertex
100
AcDb2dVertex
 10
-0.9170874415719607
 20
3.61660084858814
 30
0.0
  0
VERTEX
  5
42F5
330
35DA
100
AcDbEntity
  8
0
100
AcDbVertex
100
AcDb2dVertex
 10
-0.9190559455089681
 20
3.610695336777116
 30
0.0
  0
VERTEX
  5
42F6
330
35DA
100
AcDbEntity
  8
0
100
AcDbVertex
100
AcDb2dVertex
 10
-0.9229929533829839
 20
3.600852817092077
 30
0.0
  0
VERTEX
  5
42F7
330
35DA
100
AcDbEntity
  8
0
100
AcDbVertex
100
AcDb2dVertex
 10
-0.9288984651940079
 20
3.592978801344045
 30
0.0
  0
VERTEX
  5
42F8
330
35DA
100
AcDbEntity
  8
0
100
AcDbVertex
100
AcDb2dVertex
 10
-0.9387409848790468
 20
3.587073289533021
 30
0.0
  0
VERTEX
  5
42F9
330
35DA
100
AcDbEntity
  8
0
100
AcDbVertex
100
AcDb2dVertex
 10
-0.9485835045640866
 20
3.585104785596014
 30
0.0
  0
SEQEND
  5
42FA
330
35DA
100
AcDbEntity
  8
0
  0
LINE
  5
35E2
330
1E
100
AcDbEntity
  8
0
100
AcDbLine
 10
-0.9485835045640866
 20
3.585104785596014
 30
0.0
 11
-1.484016575430228
 21
3.585104785596014
 31
0.0
  0
POLYLINE
  5
35E3
330
1E
100
AcDbEntity
  8
0
100
AcDb2dPolyline
 66
     1
 10
0.0
 20
0.0
 30
0.0
  0
VERTEX
  5
42FB
330
35E3
100
AcDbEntity
  8
0
100
AcDbVertex
100
AcDb2dVertex
 10
-1.484016575430228
 20
3.555577226540895
 30
0.0
  0
VERTEX
  5
42FC
330
35E3
100
AcDbEntity
  8
0
100
AcDbVertex
100
AcDb2dVertex
 10
-1.485985079367236
 20
3.555577226540895
 30
0.0
  0
VERTEX
  5
42FD
330
35E3
100
AcDbEntity
  8
0
100
AcDbVertex
100
AcDb2dVertex
 10
-1.489922087241251
 20
3.557545730477903
 30
0.0
  0
VERTEX
  5
42FE
330
35E3
100
AcDbEntity
  8
0
100
AcDbVertex
100
AcDb2dVertex
 10
-1.493859095115267
 20
3.559514234414912
 30
0.0
  0
VERTEX
  5
42FF
330
35E3
100
AcDbEntity
  8
0
100
AcDbVertex
100
AcDb2dVertex
 10
-1.497796102989283
 20
3.563451242288927
 30
0.0
  0
VERTEX
  5
4300
330
35E3
100
AcDbEntity
  8
0
100
AcDbVertex
100
AcDb2dVertex
 10
-1.499764606926291
 20
3.569356754099951
 30
0.0
  0
VERTEX
  5
4301
330
35E3
100
AcDbEntity
  8
0
100
AcDbVertex
100
AcDb2dVertex
 10
-1.497796102989283
 20
3.573293761973966
 30
0.0
  0
VERTEX
  5
4302
330
35E3
100
AcDbEntity
  8
0
100
AcDbVertex
100
AcDb2dVertex
 10
-1.495827599052275
 20
3.57919927378499
 30
0.0
  0
VERTEX
  5
4303
330
35E3
100
AcDbEntity
  8
0
100
AcDbVertex
100
AcDb2dVertex
 10
-1.493859095115267
 20
3.581167777721997
 30
0.0
  0
VERTEX
  5
4304
330
35E3
100
AcDbEntity
  8
0
100
AcDbVertex
100
AcDb2dVertex
 10
-1.487953583304244
 20
3.585104785596014
 30
0.0
  0
VERTEX
  5
4305
330
35E3
100
AcDbEntity
  8
0
100
AcDbVertex
100
AcDb2dVertex
 10
-1.484016575430228
 20
3.585104785596014
 30
0.0
  0
SEQEND
  5
4306
330
35E3
100
AcDbEntity
  8
0
  0
LINE
  5
35F0
330
1E
100
AcDbEntity
  8
0
100
AcDbLine
 10
-1.984016575430228
 20
3.925655966698375
 30
0.0
 11
-1.976142559682196
 21
3.927624470635384
 31
0.0
  0
LINE
  5
35F1
330
1E
100
AcDbEntity
  8
0
100
AcDbLine
 10
-1.976142559682196
 20
4.374474864336171
 30
0.0
 11
-1.976142559682196
 21
3.927624470635384
 31
0.0
  0
LINE
  5
35F2
330
1E
100
AcDbEntity
  8
0
100
AcDbLine
 10
-1.984016575430228
 20
4.376443368273179
 30
0.0
 11
-1.976142559682196
 21
4.374474864336171
 31
0.0
  0
LINE
  5
35F3
330
1E
100
AcDbEntity
  8
0
100
AcDbLine
 10
-1.976142559682196
 20
8.657939431265305
 30
0.0
 11
-1.984016575430228
 21
8.655970927328297
 31
0.0
  0
LINE
  5
35F4
330
1E
100
AcDbEntity
  8
0
100
AcDbLine
 10
-1.976142559682196
 20
9.104789824966092
 30
0.0
 11
-1.976142559682196
 21
8.657939431265305
 31
0.0
  0
LINE
  5
35F5
330
1E
100
AcDbEntity
  8
0
100
AcDbLine
 10
-1.976142559682196
 20
9.104789824966092
 30
0.0
 11
-1.984016575430228
 21
9.106758328903101
 31
0.0
  0
LINE
  5
35F6
330
1E
100
AcDbEntity
  8
0
100
AcDbLine
 10
2.710865314333551
 20
9.104789824966092
 30
0.0
 11
2.718739330081582
 21
9.106758328903101
 31
0.0
  0
LINE
  5
35F7
330
1E
100
AcDbEntity
  8
0
100
AcDbLine
 10
2.710865314333551
 20
9.104789824966092
 30
0.0
 11
2.710865314333551
 21
8.657939431265305
 31
0.0
  0
LINE
  5
35F8
330
1E
100
AcDbEntity
  8
0
100
AcDbLine
 10
2.710865314333551
 20
8.657939431265305
 30
0.0
 11
2.718739330081582
 21
8.655970927328297
 31
0.0
  0
LINE
  5
35F9
330
1E
100
AcDbEntity
  8
0
100
AcDbLine
 10
2.718739330081582
 20
4.376443368273179
 30
0.0
 11
2.710865314333551
 21
4.374474864336171
 31
0.0
  0
LINE
  5
35FA
330
1E
100
AcDbEntity
  8
0
100
AcDbLine
 10
2.710865314333551
 20
4.374474864336171
 30
0.0
 11
2.710865314333551
 21
3.927624470635384
 31
0.0
  0
LINE
  5
35FB
330
1E
100
AcDbEntity
  8
0
100
AcDbLine
 10
2.718739330081582
 20
3.925655966698375
 30
0.0
 11
2.710865314333551
 21
3.927624470635384
 31
0.0
  0
LINE
  5
35FC
330
1E
100
AcDbEntity
  8
0
100
AcDbLine
 10
2.718739330081582
 20
3.925655966698375
 30
0.0
 11
2.718739330081582
 21
3.44140399819444
 31
0.0
  0
LINE
  5
35FD
330
1E
100
AcDbEntity
  8
0
100
AcDbLine
 10
-1.720237047871172
 20
10.10282132102908
 30
0.0
 11
-1.655276417949913
 21
10.03982919504483
 31
0.0
  0
POLYLINE
  5
35FE
330
1E
100
AcDbEntity
  8
0
100
AcDb2dPolyline
 66
     1
 10
0.0
 20
0.0
 30
0.0
  0
VERTEX
  5
4307
330
35FE
100
AcDbEntity
  8
0
100
AcDbVertex
100
AcDb2dVertex
 10
-1.655276417949913
 20
10.03982919504483
 30
0.0
  0
VERTEX
  5
4308
330
35FE
100
AcDbEntity
  8
0
100
AcDbVertex
100
AcDb2dVertex
 10
-0.98204807149322
 20
10.03589218717081
 30
0.0
  0
VERTEX
  5
4309
330
35FE
100
AcDbEntity
  8
0
100
AcDbVertex
100
AcDb2dVertex
 10
-0.30685122109952
 20
10.0339236832338
 30
0.0
  0
VERTEX
  5
430A
330
35FE
100
AcDbEntity
  8
0
100
AcDbVertex
100
AcDb2dVertex
 10
0.3663771253571735
 20
10.0319551792968
 30
0.0
  0
VERTEX
  5
430B
330
35FE
100
AcDbEntity
  8
0
100
AcDbVertex
100
AcDb2dVertex
 10
1.041573975750874
 20
10.0339236832338
 30
0.0
  0
VERTEX
  5
430C
330
35FE
100
AcDbEntity
  8
0
100
AcDbVertex
100
AcDb2dVertex
 10
1.716770826144574
 20
10.03589218717081
 30
0.0
  0
VERTEX
  5
430D
330
35FE
100
AcDbEntity
  8
0
100
AcDbVertex
100
AcDb2dVertex
 10
2.389999172601267
 20
10.03982919504483
 30
0.0
  0
SEQEND
  5
430E
330
35FE
100
AcDbEntity
  8
0
  0
LINE
  5
3607
330
1E
100
AcDbEntity
  8
0
100
AcDbLine
 10
2.452991298585519
 20
10.10282132102908
 30
0.0
 11
2.389999172601267
 21
10.03982919504483
 31
0.0
  0
LINE
  5
3608
330
1E
100
AcDbEntity
  8
0
100
AcDbLine
 10
-1.984016575430228
 20
9.839041793470029
 30
0.0
 11
-1.919055945508969
 21
9.774081163548769
 31
0.0
  0
POLYLINE
  5
3609
330
1E
100
AcDbEntity
  8
0
100
AcDb2dPolyline
 66
     1
 10
0.0
 20
0.0
 30
0.0
  0
VERTEX
  5
430F
330
3609
100
AcDbEntity
  8
0
100
AcDbVertex
100
AcDb2dVertex
 10
-1.919055945508968
 20
9.774081163548769
 30
0.0
  0
VERTEX
  5
4310
330
3609
100
AcDbEntity
  8
0
100
AcDbVertex
100
AcDb2dVertex
 10
-1.903307914012905
 20
9.862663840714123
 30
0.0
  0
VERTEX
  5
4311
330
3609
100
AcDbEntity
  8
0
100
AcDbVertex
100
AcDb2dVertex
 10
-1.861969331335739
 20
9.939435494257431
 30
0.0
  0
VERTEX
  5
4312
330
3609
100
AcDbEntity
  8
0
100
AcDbVertex
100
AcDb2dVertex
 10
-1.795040197477472
 20
9.998490612367668
 30
0.0
  0
VERTEX
  5
4313
330
3609
100
AcDbEntity
  8
0
100
AcDbVertex
100
AcDb2dVertex
 10
-1.712363032123141
 20
10.0319551792968
 30
0.0
  0
VERTEX
  5
4314
330
3609
100
AcDbEntity
  8
0
100
AcDbVertex
100
AcDb2dVertex
 10
-1.655276417949913
 20
10.03982919504483
 30
0.0
  0
SEQEND
  5
4315
330
3609
100
AcDbEntity
  8
0
  0
POLYLINE
  5
3611
330
1E
100
AcDbEntity
  8
0
100
AcDb2dPolyline
 66
     1
 10
0.0
 20
0.0
 30
0.0
  0
VERTEX
  5
4316
330
3611
100
AcDbEntity
  8
0
100
AcDbVertex
100
AcDb2dVertex
 10
2.389999172601267
 20
10.03982919504483
 30
0.0
  0
VERTEX
  5
4317
330
3611
100
AcDbEntity
  8
0
100
AcDbVertex
100
AcDb2dVertex
 10
2.476613345829614
 20
10.02408116354877
 30
0.0
  0
VERTEX
  5
4318
330
3611
100
AcDbEntity
  8
0
100
AcDbVertex
100
AcDb2dVertex
 10
2.555353503309929
 20
9.980774076934595
 30
0.0
  0
VERTEX
  5
4319
330
3611
100
AcDbEntity
  8
0
100
AcDbVertex
100
AcDb2dVertex
 10
2.614408621420165
 20
9.913844943076329
 30
0.0
  0
VERTEX
  5
431A
330
3611
100
AcDbEntity
  8
0
100
AcDbVertex
100
AcDb2dVertex
 10
2.647873188349299
 20
9.831167777721997
 30
0.0
  0
VERTEX
  5
431B
330
3611
100
AcDbEntity
  8
0
100
AcDbVertex
100
AcDb2dVertex
 10
2.653778700160322
 20
9.774081163548769
 30
0.0
  0
SEQEND
  5
431C
330
3611
100
AcDbEntity
  8
0
  0
LINE
  5
3619
330
1E
100
AcDbEntity
  8
0
100
AcDbLine
 10
2.718739330081582
 20
9.839041793470029
 30
0.0
 11
2.653778700160322
 21
9.774081163548769
 31
0.0
  0
POLYLINE
  5
361A
330
1E
100
AcDbEntity
  8
0
100
AcDb2dPolyline
 66
     1
 10
0.0
 20
0.0
 30
0.0
  0
VERTEX
  5
431D
330
361A
100
AcDbEntity
  8
0
100
AcDbVertex
100
AcDb2dVertex
 10
2.653778700160322
 20
9.774081163548769
 30
0.0
  0
VERTEX
  5
431E
330
361A
100
AcDbEntity
  8
0
100
AcDbVertex
100
AcDb2dVertex
 10
2.649841692286306
 20
9.130380376147195
 30
0.0
  0
VERTEX
  5
431F
330
361A
100
AcDbEntity
  8
0
100
AcDbVertex
100
AcDb2dVertex
 10
2.647873188349299
 20
8.484711084808612
 30
0.0
  0
VERTEX
  5
4320
330
361A
100
AcDbEntity
  8
0
100
AcDbVertex
100
AcDb2dVertex
 10
2.647873188349299
 20
7.839041793470029
 30
0.0
  0
SEQEND
  5
4321
330
361A
100
AcDbEntity
  8
0
  0
LINE
  5
3620
330
1E
100
AcDbEntity
  8
0
100
AcDbLine
 10
2.647873188349299
 20
7.839041793470029
 30
0.0
 11
2.647873188349299
 21
3.510301635989714
 31
0.0
  0
LINE
  5
3621
330
1E
100
AcDbEntity
  8
0
100
AcDbLine
 10
-1.913150433697945
 20
3.510301635989714
 30
0.0
 11
-1.913150433697945
 21
7.839041793470029
 31
0.0
  0
POLYLINE
  5
3622
330
1E
100
AcDbEntity
  8
0
100
AcDb2dPolyline
 66
     1
 10
0.0
 20
0.0
 30
0.0
  0
VERTEX
  5
4322
330
3622
100
AcDbEntity
  8
0
100
AcDbVertex
100
AcDb2dVertex
 10
-1.913150433697945
 20
7.839041793470029
 30
0.0
  0
VERTEX
  5
4323
330
3622
100
AcDbEntity
  8
0
100
AcDbVertex
100
AcDb2dVertex
 10
-1.915118937634952
 20
8.484711084808612
 30
0.0
  0
VERTEX
  5
4324
330
3622
100
AcDbEntity
  8
0
100
AcDbVertex
100
AcDb2dVertex
 10
-1.91708744157196
 20
9.130380376147195
 30
0.0
  0
VERTEX
  5
4325
330
3622
100
AcDbEntity
  8
0
100
AcDbVertex
100
AcDb2dVertex
 10
-1.919055945508968
 20
9.774081163548769
 30
0.0
  0
SEQEND
  5
4326
330
3622
100
AcDbEntity
  8
0
  0
POLYLINE
  5
3628
330
1E
100
AcDbEntity
  8
0
100
AcDb2dPolyline
 66
     1
 10
0.0
 20
0.0
 30
0.0
  0
VERTEX
  5
4327
330
3628
100
AcDbEntity
  8
0
100
AcDbVertex
100
AcDb2dVertex
 10
-1.913150433697945
 20
7.839041793470029
 30
0.0
  0
VERTEX
  5
4328
330
3628
100
AcDbEntity
  8
0
100
AcDbVertex
100
AcDb2dVertex
 10
-1.897402402201881
 20
7.839041793470029
 30
0.0
  0
VERTEX
  5
4329
330
3628
100
AcDbEntity
  8
0
100
AcDbVertex
100
AcDb2dVertex
 10
-1.861969331335739
 20
7.839041793470029
 30
0.0
  0
VERTEX
  5
432A
330
3628
100
AcDbEntity
  8
0
100
AcDbVertex
100
AcDb2dVertex
 10
-1.810788228973535
 20
7.839041793470029
 30
0.0
  0
VERTEX
  5
432B
330
3628
100
AcDbEntity
  8
0
100
AcDbVertex
100
AcDb2dVertex
 10
-1.749764606926291
 20
7.839041793470029
 30
0.0
  0
SEQEND
  5
432C
330
3628
100
AcDbEntity
  8
0
  0
POLYLINE
  5
362F
330
1E
100
AcDbEntity
  8
0
100
AcDb2dPolyline
 66
     1
 10
0.0
 20
0.0
 30
0.0
  0
VERTEX
  5
432D
330
362F
100
AcDbEntity
  8
0
100
AcDbVertex
100
AcDb2dVertex
 10
-1.919055945508968
 20
9.774081163548769
 30
0.0
  0
VERTEX
  5
432E
330
362F
100
AcDbEntity
  8
0
100
AcDbVertex
100
AcDb2dVertex
 10
-1.903307914012905
 20
9.779986675359793
 30
0.0
  0
VERTEX
  5
432F
330
362F
100
AcDbEntity
  8
0
100
AcDbVertex
100
AcDb2dVertex
 10
-1.867874843146763
 20
9.783923683233808
 30
0.0
  0
VERTEX
  5
4330
330
362F
100
AcDbEntity
  8
0
100
AcDbVertex
100
AcDb2dVertex
 10
-1.816693740784558
 20
9.787860691107825
 30
0.0
  0
VERTEX
  5
4331
330
362F
100
AcDbEntity
  8
0
100
AcDbVertex
100
AcDb2dVertex
 10
-1.755670118737314
 20
9.789829195044832
 30
0.0
  0
SEQEND
  5
4332
330
362F
100
AcDbEntity
  8
0
  0
POLYLINE
  5
3636
330
1E
100
AcDbEntity
  8
0
100
AcDb2dPolyline
 66
     1
 10
0.0
 20
0.0
 30
0.0
  0
VERTEX
  5
4333
330
3636
100
AcDbEntity
  8
0
100
AcDbVertex
100
AcDb2dVertex
 10
-1.655276417949913
 20
10.03982919504483
 30
0.0
  0
VERTEX
  5
4334
330
3636
100
AcDbEntity
  8
0
100
AcDbVertex
100
AcDb2dVertex
 10
-1.661181929760936
 20
10.02408116354877
 30
0.0
  0
VERTEX
  5
4335
330
3636
100
AcDbEntity
  8
0
100
AcDbVertex
100
AcDb2dVertex
 10
-1.665118937634952
 20
9.986679588745619
 30
0.0
  0
VERTEX
  5
4336
330
3636
100
AcDbEntity
  8
0
100
AcDbVertex
100
AcDb2dVertex
 10
-1.669055945508968
 20
9.935498486383416
 30
0.0
  0
VERTEX
  5
4337
330
3636
100
AcDbEntity
  8
0
100
AcDbVertex
100
AcDb2dVertex
 10
-1.669055945508968
 20
9.874474864336171
 30
0.0
  0
SEQEND
  5
4338
330
3636
100
AcDbEntity
  8
0
  0
POLYLINE
  5
363D
330
1E
100
AcDbEntity
  8
0
100
AcDb2dPolyline
 66
     1
 10
0.0
 20
0.0
 30
0.0
  0
VERTEX
  5
4339
330
363D
100
AcDbEntity
  8
0
100
AcDbVertex
100
AcDb2dVertex
 10
2.389999172601267
 20
10.03982919504483
 30
0.0
  0
VERTEX
  5
433A
330
363D
100
AcDbEntity
  8
0
100
AcDbVertex
100
AcDb2dVertex
 10
2.393936180475283
 20
10.02408116354877
 30
0.0
  0
VERTEX
  5
433B
330
363D
100
AcDbEntity
  8
0
100
AcDbVertex
100
AcDb2dVertex
 10
2.399841692286306
 20
9.986679588745619
 30
0.0
  0
VERTEX
  5
433C
330
363D
100
AcDbEntity
  8
0
100
AcDbVertex
100
AcDb2dVertex
 10
2.401810196223315
 20
9.935498486383416
 30
0.0
  0
VERTEX
  5
433D
330
363D
100
AcDbEntity
  8
0
100
AcDbVertex
100
AcDb2dVertex
 10
2.403778700160322
 20
9.874474864336171
 30
0.0
  0
SEQEND
  5
433E
330
363D
100
AcDbEntity
  8
0
  0
POLYLINE
  5
3644
330
1E
100
AcDbEntity
  8
0
100
AcDb2dPolyline
 66
     1
 10
0.0
 20
0.0
 30
0.0
  0
VERTEX
  5
433F
330
3644
100
AcDbEntity
  8
0
100
AcDbVertex
100
AcDb2dVertex
 10
2.653778700160322
 20
9.774081163548769
 30
0.0
  0
VERTEX
  5
4340
330
3644
100
AcDbEntity
  8
0
100
AcDbVertex
100
AcDb2dVertex
 10
2.638030668664259
 20
9.779986675359793
 30
0.0
  0
VERTEX
  5
4341
330
3644
100
AcDbEntity
  8
0
100
AcDbVertex
100
AcDb2dVertex
 10
2.602597597798117
 20
9.783923683233808
 30
0.0
  0
VERTEX
  5
4342
330
3644
100
AcDbEntity
  8
0
100
AcDbVertex
100
AcDb2dVertex
 10
2.551416495435913
 20
9.787860691107825
 30
0.0
  0
VERTEX
  5
4343
330
3644
100
AcDbEntity
  8
0
100
AcDbVertex
100
AcDb2dVertex
 10
2.490392873388668
 20
9.789829195044832
 30
0.0
  0
SEQEND
  5
4344
330
3644
100
AcDbEntity
  8
0
  0
POLYLINE
  5
364B
330
1E
100
AcDbEntity
  8
0
100
AcDb2dPolyline
 66
     1
 10
0.0
 20
0.0
 30
0.0
  0
VERTEX
  5
4345
330
364B
100
AcDbEntity
  8
0
100
AcDbVertex
100
AcDb2dVertex
 10
2.647873188349299
 20
7.839041793470029
 30
0.0
  0
VERTEX
  5
4346
330
364B
100
AcDbEntity
  8
0
100
AcDbVertex
100
AcDb2dVertex
 10
2.632125156853236
 20
7.839041793470029
 30
0.0
  0
VERTEX
  5
4347
330
364B
100
AcDbEntity
  8
0
100
AcDbVertex
100
AcDb2dVertex
 10
2.596692085987094
 20
7.839041793470029
 30
0.0
  0
VERTEX
  5
4348
330
364B
100
AcDbEntity
  8
0
100
AcDbVertex
100
AcDb2dVertex
 10
2.54551098362489
 20
7.839041793470029
 30
0.0
  0
VERTEX
  5
4349
330
364B
100
AcDbEntity
  8
0
100
AcDbVertex
100
AcDb2dVertex
 10
2.484487361577645
 20
7.839041793470029
 30
0.0
  0
SEQEND
  5
434A
330
364B
100
AcDbEntity
  8
0
  0
POLYLINE
  5
3652
330
1E
100
AcDbEntity
  8
0
100
AcDb2dPolyline
 66
     1
 10
0.0
 20
0.0
 30
0.0
  0
VERTEX
  5
434B
330
3652
100
AcDbEntity
  8
0
100
AcDbVertex
100
AcDb2dVertex
 10
0.2896054718138661
 20
8.614632344651132
 30
0.0
  0
VERTEX
  5
434C
330
3652
100
AcDbEntity
  8
0
100
AcDbVertex
100
AcDb2dVertex
 10
0.2974794875618976
 20
8.650065415517273
 30
0.0
  0
VERTEX
  5
434D
330
3652
100
AcDbEntity
  8
0
100
AcDbVertex
100
AcDb2dVertex
 10
0.3230700387430003
 20
8.677624470635384
 30
0.0
  0
VERTEX
  5
434E
330
3652
100
AcDbEntity
  8
0
100
AcDbVertex
100
AcDb2dVertex
 10
0.358503109609142
 20
8.691403998194438
 30
0.0
  0
VERTEX
  5
434F
330
3652
100
AcDbEntity
  8
0
100
AcDbVertex
100
AcDb2dVertex
 10
0.3939361804752837
 20
8.687466990320423
 30
0.0
  0
VERTEX
  5
4350
330
3652
100
AcDbEntity
  8
0
100
AcDbVertex
100
AcDb2dVertex
 10
0.4254322434674096
 20
8.665813447013336
 30
0.0
  0
VERTEX
  5
4351
330
3652
100
AcDbEntity
  8
0
100
AcDbVertex
100
AcDb2dVertex
 10
0.44314877890048
 20
8.632348880084203
 30
0.0
  0
VERTEX
  5
4352
330
3652
100
AcDbEntity
  8
0
100
AcDbVertex
100
AcDb2dVertex
 10
0.44314877890048
 20
8.594947305281053
 30
0.0
  0
VERTEX
  5
4353
330
3652
100
AcDbEntity
  8
0
100
AcDbVertex
100
AcDb2dVertex
 10
0.4254322434674096
 20
8.561482738351919
 30
0.0
  0
VERTEX
  5
4354
330
3652
100
AcDbEntity
  8
0
100
AcDbVertex
100
AcDb2dVertex
 10
0.3939361804752837
 20
8.54179769898184
 30
0.0
  0
VERTEX
  5
4355
330
3652
100
AcDbEntity
  8
0
100
AcDbVertex
100
AcDb2dVertex
 10
0.358503109609142
 20
8.535892187170817
 30
0.0
  0
VERTEX
  5
4356
330
3652
100
AcDbEntity
  8
0
100
AcDbVertex
100
AcDb2dVertex
 10
0.3230700387430003
 20
8.549671714729871
 30
0.0
  0
VERTEX
  5
4357
330
3652
100
AcDbEntity
  8
0
100
AcDbVertex
100
AcDb2dVertex
 10
0.2974794875618976
 20
8.577230769847982
 30
0.0
  0
VERTEX
  5
4358
330
3652
100
AcDbEntity
  8
0
100
AcDbVertex
100
AcDb2dVertex
 10
0.2896054718138661
 20
8.614632344651132
 30
0.0
  0
SEQEND
  5
4359
330
3652
100
AcDbEntity
  8
0
  0
POLYLINE
  5
3662
330
1E
100
AcDbEntity
  8
0
100
AcDb2dPolyline
 66
     1
 10
0.0
 20
0.0
 30
0.0
  0
VERTEX
  5
435A
330
3662
100
AcDbEntity
  8
0
100
AcDbVertex
100
AcDb2dVertex
 10
0.2876369678768586
 20
8.614632344651132
 30
0.0
  0
VERTEX
  5
435B
330
3662
100
AcDbEntity
  8
0
100
AcDbVertex
100
AcDb2dVertex
 10
0.2955109836248901
 20
8.648096911580266
 30
0.0
  0
VERTEX
  5
435C
330
3662
100
AcDbEntity
  8
0
100
AcDbVertex
100
AcDb2dVertex
 10
0.3171645269319763
 20
8.675655966698375
 30
0.0
  0
VERTEX
  5
435D
330
3662
100
AcDbEntity
  8
0
100
AcDbVertex
100
AcDb2dVertex
 10
0.3486605899241022
 20
8.691403998194438
 30
0.0
  0
VERTEX
  5
435E
330
3662
100
AcDbEntity
  8
0
100
AcDbVertex
100
AcDb2dVertex
 10
0.3840936607902439
 20
8.691403998194438
 30
0.0
  0
VERTEX
  5
435F
330
3662
100
AcDbEntity
  8
0
100
AcDbVertex
100
AcDb2dVertex
 10
0.4175582277193782
 20
8.675655966698375
 30
0.0
  0
VERTEX
  5
4360
330
3662
100
AcDbEntity
  8
0
100
AcDbVertex
100
AcDb2dVertex
 10
0.4392117710264643
 20
8.648096911580266
 30
0.0
  0
VERTEX
  5
4361
330
3662
100
AcDbEntity
  8
0
100
AcDbVertex
100
AcDb2dVertex
 10
0.4470857867744958
 20
8.614632344651132
 30
0.0
  0
VERTEX
  5
4362
330
3662
100
AcDbEntity
  8
0
100
AcDbVertex
100
AcDb2dVertex
 10
0.4392117710264643
 20
8.57919927378499
 30
0.0
  0
VERTEX
  5
4363
330
3662
100
AcDbEntity
  8
0
100
AcDbVertex
100
AcDb2dVertex
 10
0.4175582277193782
 20
8.55164021866688
 30
0.0
  0
VERTEX
  5
4364
330
3662
100
AcDbEntity
  8
0
100
AcDbVertex
100
AcDb2dVertex
 10
0.3840936607902439
 20
8.535892187170817
 30
0.0
  0
VERTEX
  5
4365
330
3662
100
AcDbEntity
  8
0
100
AcDbVertex
100
AcDb2dVertex
 10
0.3486605899241022
 20
8.535892187170817
 30
0.0
  0
VERTEX
  5
4366
330
3662
100
AcDbEntity
  8
0
100
AcDbVertex
100
AcDb2dVertex
 10
0.3171645269319763
 20
8.55164021866688
 30
0.0
  0
VERTEX
  5
4367
330
3662
100
AcDbEntity
  8
0
100
AcDbVertex
100
AcDb2dVertex
 10
0.2955109836248901
 20
8.57919927378499
 30
0.0
  0
VERTEX
  5
4368
330
3662
100
AcDbEntity
  8
0
100
AcDbVertex
100
AcDb2dVertex
 10
0.2876369678768586
 20
8.614632344651132
 30
0.0
  0
SEQEND
  5
4369
330
3662
100
AcDbEntity
  8
0
  0
POLYLINE
  5
3673
330
1E
100
AcDbEntity
  8
0
100
AcDb2dPolyline
 66
     1
 10
0.0
 20
0.0
 30
0.0
  0
VERTEX
  5
436A
330
3673
100
AcDbEntity
  8
0
100
AcDbVertex
100
AcDb2dVertex
 10
0.5120464166957559
 20
8.614632344651132
 30
0.0
  0
VERTEX
  5
436B
330
3673
100
AcDbEntity
  8
0
100
AcDbVertex
100
AcDb2dVertex
 10
0.5041724009477245
 20
8.663844943076329
 30
0.0
  0
VERTEX
  5
436C
330
3673
100
AcDbEntity
  8
0
100
AcDbVertex
100
AcDb2dVertex
 10
0.4785818497666217
 20
8.707152029690501
 30
0.0
  0
VERTEX
  5
436D
330
3673
100
AcDbEntity
  8
0
100
AcDbVertex
100
AcDb2dVertex
 10
0.4392117710264643
 20
8.740616596619636
 30
0.0
  0
VERTEX
  5
436E
330
3673
100
AcDbEntity
  8
0
100
AcDbVertex
100
AcDb2dVertex
 10
0.3919676765382753
 20
8.756364628115699
 30
0.0
  0
VERTEX
  5
436F
330
3673
100
AcDbEntity
  8
0
100
AcDbVertex
100
AcDb2dVertex
 10
0.342755078113079
 20
8.756364628115699
 30
0.0
  0
VERTEX
  5
4370
330
3673
100
AcDbEntity
  8
0
100
AcDbVertex
100
AcDb2dVertex
 10
0.2955109836248901
 20
8.740616596619636
 30
0.0
  0
VERTEX
  5
4371
330
3673
100
AcDbEntity
  8
0
100
AcDbVertex
100
AcDb2dVertex
 10
0.2561409048847327
 20
8.707152029690501
 30
0.0
  0
VERTEX
  5
4372
330
3673
100
AcDbEntity
  8
0
100
AcDbVertex
100
AcDb2dVertex
 10
0.23055035370363
 20
8.663844943076329
 30
0.0
  0
VERTEX
  5
4373
330
3673
100
AcDbEntity
  8
0
100
AcDbVertex
100
AcDb2dVertex
 10
0.2226763379555985
 20
8.614632344651132
 30
0.0
  0
VERTEX
  5
4374
330
3673
100
AcDbEntity
  8
0
100
AcDbVertex
100
AcDb2dVertex
 10
0.23055035370363
 20
8.565419746225934
 30
0.0
  0
VERTEX
  5
4375
330
3673
100
AcDbEntity
  8
0
100
AcDbVertex
100
AcDb2dVertex
 10
0.2561409048847327
 20
8.520144155674755
 30
0.0
  0
VERTEX
  5
4376
330
3673
100
AcDbEntity
  8
0
100
AcDbVertex
100
AcDb2dVertex
 10
0.2955109836248901
 20
8.488648092682629
 30
0.0
  0
VERTEX
  5
4377
330
3673
100
AcDbEntity
  8
0
100
AcDbVertex
100
AcDb2dVertex
 10
0.342755078113079
 20
8.470931557249556
 30
0.0
  0
VERTEX
  5
4378
330
3673
100
AcDbEntity
  8
0
100
AcDbVertex
100
AcDb2dVertex
 10
0.3919676765382753
 20
8.470931557249556
 30
0.0
  0
VERTEX
  5
4379
330
3673
100
AcDbEntity
  8
0
100
AcDbVertex
100
AcDb2dVertex
 10
0.4392117710264643
 20
8.488648092682629
 30
0.0
  0
VERTEX
  5
437A
330
3673
100
AcDbEntity
  8
0
100
AcDbVertex
100
AcDb2dVertex
 10
0.4785818497666217
 20
8.520144155674755
 30
0.0
  0
VERTEX
  5
437B
330
3673
100
AcDbEntity
  8
0
100
AcDbVertex
100
AcDb2dVertex
 10
0.5041724009477245
 20
8.565419746225934
 30
0.0
  0
VERTEX
  5
437C
330
3673
100
AcDbEntity
  8
0
100
AcDbVertex
100
AcDb2dVertex
 10
0.5120464166957559
 20
8.614632344651132
 30
0.0
  0
SEQEND
  5
437D
330
3673
100
AcDbEntity
  8
0
  0
CIRCLE
  5
3688
330
1E
100
AcDbEntity
  8
0
100
AcDbCircle
 10
0.3673613773256772
 20
8.613648092682629
 30
0.0
 40
0.1505937676564529
  0
LINE
  5
3689
330
1E
100
AcDbEntity
  8
0
100
AcDbLine
 10
1.238424369451661
 20
8.819356754099951
 30
0.0
 11
1.240392873388669
 21
8.409907935202312
 31
0.0
  0
LINE
  5
368A
330
1E
100
AcDbEntity
  8
0
100
AcDbLine
 10
1.238424369451661
 20
8.819356754099951
 30
0.0
 11
-0.5037016148003071
 21
8.819356754099951
 31
0.0
  0
LINE
  5
368B
330
1E
100
AcDbEntity
  8
0
100
AcDbLine
 10
-0.5056701187373145
 20
8.409907935202312
 30
0.0
 11
-0.5037016148003071
 21
8.819356754099951
 31
0.0
  0
LINE
  5
368C
330
1E
100
AcDbEntity
  8
0
100
AcDbLine
 10
1.240392873388669
 20
8.409907935202312
 30
0.0
 11
-0.5056701187373145
 21
8.409907935202312
 31
0.0
  0
LINE
  5
368D
330
1E
100
AcDbEntity
  8
0
100
AcDbLine
 10
1.238424369451661
 20
8.819356754099951
 30
0.0
 11
1.240392873388669
 21
8.819356754099951
 31
0.0
  0
LINE
  5
368E
330
1E
100
AcDbEntity
  8
0
100
AcDbLine
 10
1.240392873388669
 20
8.409907935202312
 30
0.0
 11
1.242361377325677
 21
8.407939431265305
 31
0.0
  0
LINE
  5
368F
330
1E
100
AcDbEntity
  8
0
100
AcDbLine
 10
1.271888936380795
 20
8.407939431265305
 30
0.0
 11
1.242361377325677
 21
8.407939431265305
 31
0.0
  0
POLYLINE
  5
3690
330
1E
100
AcDbEntity
  8
0
100
AcDb2dPolyline
 66
     1
 10
0.0
 20
0.0
 30
0.0
  0
VERTEX
  5
437E
330
3690
100
AcDbEntity
  8
0
100
AcDbVertex
100
AcDb2dVertex
 10
1.303384999372921
 20
8.439435494257431
 30
0.0
  0
VERTEX
  5
437F
330
3690
100
AcDbEntity
  8
0
100
AcDbVertex
100
AcDb2dVertex
 10
1.293542479687881
 20
8.417781950950343
 30
0.0
  0
VERTEX
  5
4380
330
3690
100
AcDbEntity
  8
0
100
AcDbVertex
100
AcDb2dVertex
 10
1.271888936380795
 20
8.407939431265305
 30
0.0
  0
SEQEND
  5
4381
330
3690
100
AcDbEntity
  8
0
  0
LINE
  5
3695
330
1E
100
AcDbEntity
  8
0
100
AcDbLine
 10
1.301416495435913
 20
8.787860691107825
 30
0.0
 11
1.303384999372921
 21
8.439435494257431
 31
0.0
  0
POLYLINE
  5
3696
330
1E
100
AcDbEntity
  8
0
100
AcDb2dPolyline
 66
     1
 10
0.0
 20
0.0
 30
0.0
  0
VERTEX
  5
4382
330
3696
100
AcDbEntity
  8
0
100
AcDbVertex
100
AcDb2dVertex
 10
1.269920432443787
 20
8.819356754099951
 30
0.0
  0
VERTEX
  5
4383
330
3696
100
AcDbEntity
  8
0
100
AcDbVertex
100
AcDb2dVertex
 10
1.291573975750874
 20
8.809514234414912
 30
0.0
  0
VERTEX
  5
4384
330
3696
100
AcDbEntity
  8
0
100
AcDbVertex
100
AcDb2dVertex
 10
1.301416495435913
 20
8.787860691107825
 30
0.0
  0
SEQEND
  5
4385
330
3696
100
AcDbEntity
  8
0
  0
LINE
  5
369B
330
1E
100
AcDbEntity
  8
0
100
AcDbLine
 10
1.240392873388669
 20
8.819356754099951
 30
0.0
 11
1.269920432443787
 21
8.819356754099951
 31
0.0
  0
LINE
  5
369C
330
1E
100
AcDbEntity
  8
0
100
AcDbLine
 10
-0.5056701187373145
 20
8.409907935202312
 30
0.0
 11
-0.5076386226743228
 21
8.407939431265305
 31
0.0
  0
LINE
  5
369D
330
1E
100
AcDbEntity
  8
0
100
AcDbLine
 10
-0.5056701187373145
 20
8.819356754099951
 30
0.0
 11
-0.5037016148003071
 21
8.819356754099951
 31
0.0
  0
LINE
  5
369E
330
1E
100
AcDbEntity
  8
0
100
AcDbLine
 10
-0.535197677792433
 20
8.819356754099951
 30
0.0
 11
-0.5056701187373145
 21
8.819356754099951
 31
0.0
  0
POLYLINE
  5
369F
330
1E
100
AcDbEntity
  8
0
100
AcDb2dPolyline
 66
     1
 10
0.0
 20
0.0
 30
0.0
  0
VERTEX
  5
4386
330
369F
100
AcDbEntity
  8
0
100
AcDbVertex
100
AcDb2dVertex
 10
-0.566693740784559
 20
8.787860691107825
 30
0.0
  0
VERTEX
  5
4387
330
369F
100
AcDbEntity
  8
0
100
AcDbVertex
100
AcDb2dVertex
 10
-0.5588197250365275
 20
8.809514234414912
 30
0.0
  0
VERTEX
  5
4388
330
369F
100
AcDbEntity
  8
0
100
AcDbVertex
100
AcDb2dVertex
 10
-0.535197677792433
 20
8.819356754099951
 30
0.0
  0
SEQEND
  5
4389
330
369F
100
AcDbEntity
  8
0
  0
LINE
  5
36A4
330
1E
100
AcDbEntity
  8
0
100
AcDbLine
 10
-0.566693740784559
 20
8.787860691107825
 30
0.0
 11
-0.5686622447215673
 21
8.439435494257431
 31
0.0
  0
POLYLINE
  5
36A5
330
1E
100
AcDbEntity
  8
0
100
AcDb2dPolyline
 66
     1
 10
0.0
 20
0.0
 30
0.0
  0
VERTEX
  5
438A
330
36A5
100
AcDbEntity
  8
0
100
AcDbVertex
100
AcDb2dVertex
 10
-0.5371661817294413
 20
8.407939431265305
 30
0.0
  0
VERTEX
  5
438B
330
36A5
100
AcDbEntity
  8
0
100
AcDbVertex
100
AcDb2dVertex
 10
-0.5588197250365275
 20
8.417781950950343
 30
0.0
  0
VERTEX
  5
438C
330
36A5
100
AcDbEntity
  8
0
100
AcDbVertex
100
AcDb2dVertex
 10
-0.5686622447215673
 20
8.439435494257431
 30
0.0
  0
SEQEND
  5
438D
330
36A5
100
AcDbEntity
  8
0
  0
LINE
  5
36AA
330
1E
100
AcDbEntity
  8
0
100
AcDbLine
 10
-0.5076386226743228
 20
8.407939431265305
 30
0.0
 11
-0.5371661817294413
 21
8.407939431265305
 31
0.0
  0
LINE
  5
36AB
330
1E
100
AcDbEntity
  8
0
100
AcDbLine
 10
1.303384999372921
 20
8.439435494257431
 30
0.0
 11
1.303384999372921
 21
8.439435494257431
 31
0.0
  0
LINE
  5
36AC
330
1E
100
AcDbEntity
  8
0
100
AcDbLine
 10
1.301416495435913
 20
8.787860691107825
 30
0.0
 11
1.303384999372921
 21
8.787860691107825
 31
0.0
  0
LINE
  5
36AD
330
1E
100
AcDbEntity
  8
0
100
AcDbLine
 10
-0.535197677792433
 20
8.819356754099951
 30
0.0
 11
-0.5371661817294413
 21
8.819356754099951
 31
0.0
  0
LINE
  5
36AE
330
1E
100
AcDbEntity
  8
0
100
AcDbLine
 10
-0.5686622447215673
 20
8.787860691107825
 30
0.0
 11
-0.566693740784559
 21
8.787860691107825
 31
0.0
  0
LINE
  5
36AF
330
1E
100
AcDbEntity
  8
0
100
AcDbLine
 10
1.271888936380795
 20
8.819356754099951
 30
0.0
 11
1.269920432443787
 21
8.819356754099951
 31
0.0
  0
LINE
  5
36B0
330
1E
100
AcDbEntity
  8
0
100
AcDbLine
 10
1.271888936380795
 20
8.407939431265305
 30
0.0
 11
1.273857440317803
 21
8.407939431265305
 31
0.0
  0
LINE
  5
36B1
330
1E
100
AcDbEntity
  8
0
100
AcDbLine
 10
-0.5391346856664488
 20
8.407939431265305
 30
0.0
 11
-0.5371661817294413
 21
8.407939431265305
 31
0.0
  0
LINE
  5
36B2
330
1E
100
AcDbEntity
  8
0
100
AcDbLine
 10
-0.5686622447215673
 20
8.439435494257431
 30
0.0
 11
-0.5706307486585747
 21
8.439435494257431
 31
0.0
  0
LINE
  5
36B3
330
1E
100
AcDbEntity
  8
0
100
AcDbLine
 10
-0.5115756305483386
 20
8.819356754099951
 30
0.0
 11
-0.5037016148003071
 21
8.811482738351919
 31
0.0
  0
LINE
  5
36B4
330
1E
100
AcDbEntity
  8
0
100
AcDbLine
 10
-0.5037016148003071
 20
8.718963053312549
 30
0.0
 11
-0.566693740784559
 21
8.655970927328297
 31
0.0
  0
LINE
  5
36B5
330
1E
100
AcDbEntity
  8
0
100
AcDbLine
 10
-0.5686622447215673
 20
8.612663840714123
 30
0.0
 11
-0.5037016148003071
 21
8.675655966698375
 31
0.0
  0
LINE
  5
36B6
330
1E
100
AcDbEntity
  8
0
100
AcDbLine
 10
1.246298385199692
 20
8.819356754099951
 30
0.0
 11
1.238424369451661
 21
8.811482738351919
 31
0.0
  0
LINE
  5
36B7
330
1E
100
AcDbEntity
  8
0
100
AcDbLine
 10
1.301416495435913
 20
8.612663840714123
 30
0.0
 11
1.238424369451661
 21
8.675655966698375
 31
0.0
  0
LINE
  5
36B8
330
1E
100
AcDbEntity
  8
0
100
AcDbLine
 10
1.238424369451661
 20
8.718963053312549
 30
0.0
 11
1.301416495435913
 21
8.655970927328297
 31
0.0
  0
LINE
  5
36B9
330
1E
100
AcDbEntity
  8
0
100
AcDbLine
 10
-0.5037016148003071
 20
8.811482738351919
 30
0.0
 11
-0.5292921659814099
 21
8.811482738351919
 31
0.0
  0
LINE
  5
36BA
330
1E
100
AcDbEntity
  8
0
100
AcDbLine
 10
-0.566693740784559
 20
8.693372502131447
 30
0.0
 11
-0.5037016148003071
 21
8.756364628115699
 31
0.0
  0
LINE
  5
36BB
330
1E
100
AcDbEntity
  8
0
100
AcDbLine
 10
1.238424369451661
 20
8.811482738351919
 30
0.0
 11
1.262046416695755
 21
8.811482738351919
 31
0.0
  0
LINE
  5
36BC
330
1E
100
AcDbEntity
  8
0
100
AcDbLine
 10
1.238424369451661
 20
8.756364628115699
 30
0.0
 11
1.301416495435913
 21
8.693372502131447
 31
0.0
  0
LINE
  5
36BD
330
1E
100
AcDbEntity
  8
0
100
AcDbLine
 10
2.407715708034338
 20
3.457152029690503
 30
0.0
 11
2.407715708034338
 21
3.44140399819444
 31
0.0
  0
LINE
  5
36BE
330
1E
100
AcDbEntity
  8
0
100
AcDbLine
 10
-1.674961457319992
 20
3.44140399819444
 30
0.0
 11
2.407715708034338
 21
3.44140399819444
 31
0.0
  0
LINE
  5
36BF
330
1E
100
AcDbEntity
  8
0
100
AcDbLine
 10
-1.674961457319992
 20
3.44140399819444
 30
0.0
 11
-1.674961457319992
 21
3.457152029690503
 31
0.0
  0
LINE
  5
36C0
330
1E
100
AcDbEntity
  8
0
100
AcDbLine
 10
2.403778700160322
 20
3.461089037564518
 30
0.0
 11
2.403778700160322
 21
3.461089037564518
 31
0.0
  0
LINE
  5
36C1
330
1E
100
AcDbEntity
  8
0
100
AcDbLine
 10
2.407715708034338
 20
3.44140399819444
 30
0.0
 11
2.403778700160322
 21
3.461089037564518
 31
0.0
  0
LINE
  5
36C2
330
1E
100
AcDbEntity
  8
0
100
AcDbLine
 10
1.712833818270558
 20
3.461089037564518
 30
0.0
 11
2.403778700160322
 21
3.461089037564518
 31
0.0
  0
LINE
  5
36C3
330
1E
100
AcDbEntity
  8
0
100
AcDbLine
 10
1.708896810396542
 20
3.506364628115699
 30
0.0
 11
1.712833818270558
 21
3.461089037564518
 31
0.0
  0
LINE
  5
36C4
330
1E
100
AcDbEntity
  8
0
100
AcDbLine
 10
1.708896810396542
 20
3.506364628115699
 30
0.0
 11
1.645904684412291
 21
3.506364628115699
 31
0.0
  0
LINE
  5
36C5
330
1E
100
AcDbEntity
  8
0
100
AcDbLine
 10
1.645904684412291
 20
3.506364628115699
 30
0.0
 11
1.639999172601267
 21
3.461089037564518
 31
0.0
  0
LINE
  5
36C6
330
1E
100
AcDbEntity
  8
0
100
AcDbLine
 10
1.059290511183944
 20
3.461089037564518
 30
0.0
 11
1.639999172601267
 21
3.461089037564518
 31
0.0
  0
LINE
  5
36C7
330
1E
100
AcDbEntity
  8
0
100
AcDbLine
 10
1.053384999372921
 20
3.506364628115699
 30
0.0
 11
1.059290511183944
 21
3.461089037564518
 31
0.0
  0
LINE
  5
36C8
330
1E
100
AcDbEntity
  8
0
100
AcDbLine
 10
1.053384999372921
 20
3.506364628115699
 30
0.0
 11
0.9923613773256771
 21
3.506364628115699
 31
0.0
  0
LINE
  5
36C9
330
1E
100
AcDbEntity
  8
0
100
AcDbLine
 10
0.9923613773256771
 20
3.506364628115699
 30
0.0
 11
0.986455865514654
 21
3.461089037564518
 31
0.0
  0
LINE
  5
36CA
330
1E
100
AcDbEntity
  8
0
100
AcDbLine
 10
0.4037787001603226
 20
3.461089037564518
 30
0.0
 11
0.986455865514654
 21
3.461089037564518
 31
0.0
  0
LINE
  5
36CB
330
1E
100
AcDbEntity
  8
0
100
AcDbLine
 10
0.3978731883492994
 20
3.506364628115699
 30
0.0
 11
0.4037787001603226
 21
3.461089037564518
 31
0.0
  0
LINE
  5
36CC
330
1E
100
AcDbEntity
  8
0
100
AcDbLine
 10
0.3978731883492994
 20
3.506364628115699
 30
0.0
 11
0.336849566302055
 21
3.506364628115699
 31
0.0
  0
LINE
  5
36CD
330
1E
100
AcDbEntity
  8
0
100
AcDbLine
 10
0.336849566302055
 20
3.506364628115699
 30
0.0
 11
0.3309440544910318
 21
3.461089037564518
 31
0.0
  0
LINE
  5
36CE
330
1E
100
AcDbEntity
  8
0
100
AcDbLine
 10
-0.2517331108632987
 20
3.461089037564518
 30
0.0
 11
0.3309440544910318
 21
3.461089037564518
 31
0.0
  0
LINE
  5
36CF
330
1E
100
AcDbEntity
  8
0
100
AcDbLine
 10
-0.2576386226743228
 20
3.506364628115699
 30
0.0
 11
-0.2517331108632987
 21
3.461089037564518
 31
0.0
  0
LINE
  5
36D0
330
1E
100
AcDbEntity
  8
0
100
AcDbLine
 10
-0.2576386226743228
 20
3.506364628115699
 30
0.0
 11
-0.3186622447215672
 21
3.506364628115699
 31
0.0
  0
LINE
  5
36D1
330
1E
100
AcDbEntity
  8
0
100
AcDbLine
 10
-0.3186622447215672
 20
3.506364628115699
 30
0.0
 11
-0.3245677565325904
 21
3.461089037564518
 31
0.0
  0
LINE
  5
36D2
330
1E
100
AcDbEntity
  8
0
100
AcDbLine
 10
-0.9072449218869209
 20
3.461089037564518
 30
0.0
 11
-0.3245677565325904
 21
3.461089037564518
 31
0.0
  0
LINE
  5
36D3
330
1E
100
AcDbEntity
  8
0
100
AcDbLine
 10
-0.9111819297609367
 20
3.506364628115699
 30
0.0
 11
-0.9072449218869209
 21
3.461089037564518
 31
0.0
  0
LINE
  5
36D4
330
1E
100
AcDbEntity
  8
0
100
AcDbLine
 10
-0.9111819297609367
 20
3.506364628115699
 30
0.0
 11
-0.9741740557451885
 21
3.506364628115699
 31
0.0
  0
LINE
  5
36D5
330
1E
100
AcDbEntity
  8
0
100
AcDbLine
 10
-0.9741740557451885
 20
3.506364628115699
 30
0.0
 11
-0.9800795675562126
 21
3.461089037564518
 31
0.0
  0
LINE
  5
36D6
330
1E
100
AcDbEntity
  8
0
100
AcDbLine
 10
-1.669055945508969
 20
3.461089037564518
 30
0.0
 11
-0.9800795675562126
 21
3.461089037564518
 31
0.0
  0
LINE
  5
36D7
330
1E
100
AcDbEntity
  8
0
100
AcDbLine
 10
-1.674961457319992
 20
3.44140399819444
 30
0.0
 11
-1.669055945508969
 21
3.461089037564518
 31
0.0
  0
LINE
  5
36D8
330
1E
100
AcDbEntity
  8
0
100
AcDbLine
 10
-1.669055945508969
 20
3.461089037564518
 30
0.0
 11
-1.669055945508969
 21
3.461089037564518
 31
0.0
  0
LINE
  5
36D9
330
1E
100
AcDbEntity
  8
0
100
AcDbLine
 10
-0.5037016148003071
 20
8.785892187170817
 30
0.0
 11
-0.5371661817294413
 21
8.819356754099951
 31
0.0
  0
LINE
  5
36DA
330
1E
100
AcDbEntity
  8
0
100
AcDbLine
 10
-0.9800795675562126
 20
3.506364628115699
 30
0.0
 11
-0.9800795675562126
 21
3.461089037564518
 31
0.0
  0
LINE
  5
36DB
330
1E
100
AcDbEntity
  8
0
100
AcDbLine
 10
-0.9111819297609367
 20
3.506364628115699
 30
0.0
 11
-0.9111819297609367
 21
3.506364628115699
 31
0.0
  0
LINE
  5
36DC
330
1E
100
AcDbEntity
  8
0
100
AcDbLine
 10
-0.9741740557451885
 20
3.506364628115699
 30
0.0
 11
-0.9741740557451885
 21
3.506364628115699
 31
0.0
  0
LINE
  5
36DD
330
1E
100
AcDbEntity
  8
0
100
AcDbLine
 10
-0.3245677565325904
 20
3.506364628115699
 30
0.0
 11
-0.3245677565325904
 21
3.461089037564518
 31
0.0
  0
LINE
  5
36DE
330
1E
100
AcDbEntity
  8
0
100
AcDbLine
 10
-0.9072449218869209
 20
3.506364628115699
 30
0.0
 11
-0.9072449218869209
 21
3.461089037564518
 31
0.0
  0
LINE
  5
36DF
330
1E
100
AcDbEntity
  8
0
100
AcDbLine
 10
-0.2576386226743228
 20
3.506364628115699
 30
0.0
 11
-0.2576386226743228
 21
3.506364628115699
 31
0.0
  0
LINE
  5
36E0
330
1E
100
AcDbEntity
  8
0
100
AcDbLine
 10
-0.3186622447215672
 20
3.506364628115699
 30
0.0
 11
-0.3186622447215672
 21
3.506364628115699
 31
0.0
  0
LINE
  5
36E1
330
1E
100
AcDbEntity
  8
0
100
AcDbLine
 10
0.3309440544910318
 20
3.506364628115699
 30
0.0
 11
0.3309440544910318
 21
3.461089037564518
 31
0.0
  0
LINE
  5
36E2
330
1E
100
AcDbEntity
  8
0
100
AcDbLine
 10
-0.2517331108632987
 20
3.506364628115699
 30
0.0
 11
-0.2517331108632987
 21
3.461089037564518
 31
0.0
  0
LINE
  5
36E3
330
1E
100
AcDbEntity
  8
0
100
AcDbLine
 10
0.3978731883492994
 20
3.506364628115699
 30
0.0
 11
0.3978731883492994
 21
3.506364628115699
 31
0.0
  0
LINE
  5
36E4
330
1E
100
AcDbEntity
  8
0
100
AcDbLine
 10
0.336849566302055
 20
3.506364628115699
 30
0.0
 11
0.336849566302055
 21
3.506364628115699
 31
0.0
  0
LINE
  5
36E5
330
1E
100
AcDbEntity
  8
0
100
AcDbLine
 10
0.986455865514654
 20
3.506364628115699
 30
0.0
 11
0.986455865514654
 21
3.461089037564518
 31
0.0
  0
LINE
  5
36E6
330
1E
100
AcDbEntity
  8
0
100
AcDbLine
 10
0.4037787001603226
 20
3.506364628115699
 30
0.0
 11
0.4037787001603226
 21
3.461089037564518
 31
0.0
  0
LINE
  5
36E7
330
1E
100
AcDbEntity
  8
0
100
AcDbLine
 10
1.053384999372921
 20
3.506364628115699
 30
0.0
 11
1.053384999372921
 21
3.506364628115699
 31
0.0
  0
LINE
  5
36E8
330
1E
100
AcDbEntity
  8
0
100
AcDbLine
 10
0.9923613773256771
 20
3.506364628115699
 30
0.0
 11
0.9923613773256771
 21
3.506364628115699
 31
0.0
  0
LINE
  5
36E9
330
1E
100
AcDbEntity
  8
0
100
AcDbLine
 10
1.639999172601267
 20
3.506364628115699
 30
0.0
 11
1.639999172601267
 21
3.461089037564518
 31
0.0
  0
LINE
  5
36EA
330
1E
100
AcDbEntity
  8
0
100
AcDbLine
 10
1.059290511183944
 20
3.506364628115699
 30
0.0
 11
1.059290511183944
 21
3.461089037564518
 31
0.0
  0
LINE
  5
36EB
330
1E
100
AcDbEntity
  8
0
100
AcDbLine
 10
1.708896810396542
 20
3.506364628115699
 30
0.0
 11
1.708896810396542
 21
3.506364628115699
 31
0.0
  0
LINE
  5
36EC
330
1E
100
AcDbEntity
  8
0
100
AcDbLine
 10
1.645904684412291
 20
3.506364628115699
 30
0.0
 11
1.645904684412291
 21
3.506364628115699
 31
0.0
  0
LINE
  5
36ED
330
1E
100
AcDbEntity
  8
0
100
AcDbLine
 10
1.712833818270558
 20
3.506364628115699
 30
0.0
 11
1.712833818270558
 21
3.461089037564518
 31
0.0
  0
LINE
  5
36EE
330
1E
100
AcDbEntity
  8
0
100
AcDbLine
 10
1.238424369451661
 20
8.785892187170817
 30
0.0
 11
1.271888936380795
 21
8.819356754099951
 31
0.0
  0
POLYLINE
  5
36EF
330
1E
100
AcDbEntity
  8
0
100
AcDb2dPolyline
 66
     1
 10
0.0
 20
0.0
 30
0.0
  0
VERTEX
  5
438E
330
36EF
100
AcDbEntity
  8
0
100
AcDbVertex
100
AcDb2dVertex
 10
0.4234637395304013
 20
8.614632344651132
 30
0.0
  0
VERTEX
  5
438F
330
36EF
100
AcDbEntity
  8
0
100
AcDbVertex
100
AcDb2dVertex
 10
0.4155897237823698
 20
8.644159903706249
 30
0.0
  0
VERTEX
  5
4390
330
36EF
100
AcDbEntity
  8
0
100
AcDbVertex
100
AcDb2dVertex
 10
0.3899991726012679
 20
8.665813447013336
 30
0.0
  0
VERTEX
  5
4391
330
36EF
100
AcDbEntity
  8
0
100
AcDbVertex
100
AcDb2dVertex
 10
0.358503109609142
 20
8.669750454887353
 30
0.0
  0
VERTEX
  5
4392
330
36EF
100
AcDbEntity
  8
0
100
AcDbVertex
100
AcDb2dVertex
 10
0.3309440544910318
 20
8.655970927328297
 30
0.0
  0
VERTEX
  5
4393
330
36EF
100
AcDbEntity
  8
0
100
AcDbVertex
100
AcDb2dVertex
 10
0.3132275190579605
 20
8.630380376147195
 30
0.0
  0
VERTEX
  5
4394
330
36EF
100
AcDbEntity
  8
0
100
AcDbVertex
100
AcDb2dVertex
 10
0.3132275190579605
 20
8.598884313155069
 30
0.0
  0
VERTEX
  5
4395
330
36EF
100
AcDbEntity
  8
0
100
AcDbVertex
100
AcDb2dVertex
 10
0.3309440544910318
 20
8.571325258036958
 30
0.0
  0
VERTEX
  5
4396
330
36EF
100
AcDbEntity
  8
0
100
AcDbVertex
100
AcDb2dVertex
 10
0.358503109609142
 20
8.557545730477903
 30
0.0
  0
VERTEX
  5
4397
330
36EF
100
AcDbEntity
  8
0
100
AcDbVertex
100
AcDb2dVertex
 10
0.3899991726012679
 20
8.563451242288927
 30
0.0
  0
VERTEX
  5
4398
330
36EF
100
AcDbEntity
  8
0
100
AcDbVertex
100
AcDb2dVertex
 10
0.4155897237823698
 20
8.583136281659006
 30
0.0
  0
VERTEX
  5
4399
330
36EF
100
AcDbEntity
  8
0
100
AcDbVertex
100
AcDb2dVertex
 10
0.4234637395304013
 20
8.614632344651132
 30
0.0
  0
SEQEND
  5
439A
330
36EF
100
AcDbEntity
  8
0
  0
POLYLINE
  5
36FD
330
1E
100
AcDbEntity
  8
0
100
AcDb2dPolyline
 66
     1
 10
0.0
 20
0.0
 30
0.0
  0
VERTEX
  5
439B
330
36FD
100
AcDbEntity
  8
0
100
AcDbVertex
100
AcDb2dVertex
 10
0.4274007474044171
 20
8.614632344651132
 30
0.0
  0
VERTEX
  5
439C
330
36FD
100
AcDbEntity
  8
0
100
AcDbVertex
100
AcDb2dVertex
 10
0.4195267316563856
 20
8.644159903706249
 30
0.0
  0
VERTEX
  5
439D
330
36FD
100
AcDbEntity
  8
0
100
AcDbVertex
100
AcDb2dVertex
 10
0.3978731883492994
 20
8.665813447013336
 30
0.0
  0
VERTEX
  5
439E
330
36FD
100
AcDbEntity
  8
0
100
AcDbVertex
100
AcDb2dVertex
 10
0.3663771253571735
 20
8.673687462761368
 30
0.0
  0
VERTEX
  5
439F
330
36FD
100
AcDbEntity
  8
0
100
AcDbVertex
100
AcDb2dVertex
 10
0.336849566302055
 20
8.665813447013336
 30
0.0
  0
VERTEX
  5
43A0
330
36FD
100
AcDbEntity
  8
0
100
AcDbVertex
100
AcDb2dVertex
 10
0.3151960229949688
 20
8.644159903706249
 30
0.0
  0
VERTEX
  5
43A1
330
36FD
100
AcDbEntity
  8
0
100
AcDbVertex
100
AcDb2dVertex
 10
0.3073220072469374
 20
8.614632344651132
 30
0.0
  0
VERTEX
  5
43A2
330
36FD
100
AcDbEntity
  8
0
100
AcDbVertex
100
AcDb2dVertex
 10
0.3151960229949688
 20
8.585104785596014
 30
0.0
  0
VERTEX
  5
43A3
330
36FD
100
AcDbEntity
  8
0
100
AcDbVertex
100
AcDb2dVertex
 10
0.336849566302055
 20
8.563451242288927
 30
0.0
  0
VERTEX
  5
43A4
330
36FD
100
AcDbEntity
  8
0
100
AcDbVertex
100
AcDb2dVertex
 10
0.3663771253571735
 20
8.553608722603888
 30
0.0
  0
VERTEX
  5
43A5
330
36FD
100
AcDbEntity
  8
0
100
AcDbVertex
100
AcDb2dVertex
 10
0.3978731883492994
 20
8.563451242288927
 30
0.0
  0
VERTEX
  5
43A6
330
36FD
100
AcDbEntity
  8
0
100
AcDbVertex
100
AcDb2dVertex
 10
0.4195267316563856
 20
8.585104785596014
 30
0.0
  0
VERTEX
  5
43A7
330
36FD
100
AcDbEntity
  8
0
100
AcDbVertex
100
AcDb2dVertex
 10
0.4274007474044171
 20
8.614632344651132
 30
0.0
  0
SEQEND
  5
43A8
330
36FD
100
AcDbEntity
  8
0
  0
LINE
  5
372D
330
1E
100
AcDbEntity
  8
0
100
AcDbLine
 10
6.004172400947723
 20
3.555577226540895
 30
0.0
 11
6.004172400947723
 21
3.529986675359793
 31
0.0
  0
LINE
  5
372E
330
1E
100
AcDbEntity
  8
0
100
AcDbLine
 10
6.004172400947723
 20
7.839041793470029
 30
0.0
 11
6.004172400947723
 21
3.646128407643258
 31
0.0
  0
LINE
  5
372F
330
1E
100
AcDbEntity
  8
0
100
AcDbLine
 10
6.037636967876858
 20
3.646128407643258
 30
0.0
 11
6.027794448191819
 21
3.646128407643258
 31
0.0
  0
LINE
  5
3730
330
1E
100
AcDbEntity
  8
0
100
AcDbLine
 10
6.012046416695755
 20
3.646128407643258
 30
0.0
 11
6.002203897010716
 21
3.646128407643258
 31
0.0
  0
LINE
  5
3731
330
1E
100
AcDbEntity
  8
0
100
AcDbLine
 10
6.002203897010716
 20
3.646128407643258
 30
0.0
 11
5.994329881262684
 21
3.646128407643258
 31
0.0
  0
LINE
  5
3732
330
1E
100
AcDbEntity
  8
0
100
AcDbLine
 10
7.159684211971345
 20
8.949278013942469
 30
0.0
 11
7.175432243467408
 21
8.949278013942469
 31
0.0
  0
POLYLINE
  5
3755
330
1E
100
AcDbEntity
  8
0
100
AcDb2dPolyline
 66
     1
 10
0.0
 20
0.0
 30
0.0
  0
VERTEX
  5
43A9
330
3755
100
AcDbEntity
  8
0
100
AcDbVertex
100
AcDb2dVertex
 10
6.012046416695755
 20
8.407939431265305
 30
0.0
  0
VERTEX
  5
43AA
330
3755
100
AcDbEntity
  8
0
100
AcDbVertex
100
AcDb2dVertex
 10
6.006140904884732
 20
8.122506360399164
 30
0.0
  0
VERTEX
  5
43AB
330
3755
100
AcDbEntity
  8
0
100
AcDbVertex
100
AcDb2dVertex
 10
6.004172400947723
 20
7.839041793470029
 30
0.0
  0
SEQEND
  5
43AC
330
3755
100
AcDbEntity
  8
0
  0
POLYLINE
  5
375A
330
1E
100
AcDbEntity
  8
0
100
AcDb2dPolyline
 66
     1
 10
0.0
 20
0.0
 30
0.0
  0
VERTEX
  5
43AD
330
375A
100
AcDbEntity
  8
0
100
AcDbVertex
100
AcDb2dVertex
 10
6.088818070239062
 20
9.868569352525147
 30
0.0
  0
VERTEX
  5
43AE
330
375A
100
AcDbEntity
  8
0
100
AcDbVertex
100
AcDb2dVertex
 10
6.051416495435914
 20
9.344947305281053
 30
0.0
  0
VERTEX
  5
43AF
330
375A
100
AcDbEntity
  8
0
100
AcDbVertex
100
AcDb2dVertex
 10
6.023857440317803
 20
8.819356754099951
 30
0.0
  0
SEQEND
  5
43B0
330
375A
100
AcDbEntity
  8
0
  0
POLYLINE
  5
375F
330
1E
100
AcDbEntity
  8
0
100
AcDb2dPolyline
 66
     1
 10
0.0
 20
0.0
 30
0.0
  0
VERTEX
  5
43B1
330
375F
100
AcDbEntity
  8
0
100
AcDbVertex
100
AcDb2dVertex
 10
6.256140904884732
 20
10.0319551792968
 30
0.0
  0
VERTEX
  5
43B2
330
375F
100
AcDbEntity
  8
0
100
AcDbVertex
100
AcDb2dVertex
 10
6.195117282837488
 20
10.01817565173774
 30
0.0
  0
VERTEX
  5
43B3
330
375F
100
AcDbEntity
  8
0
100
AcDbVertex
100
AcDb2dVertex
 10
6.141967676538275
 20
9.980774076934595
 30
0.0
  0
VERTEX
  5
43B4
330
375F
100
AcDbEntity
  8
0
100
AcDbVertex
100
AcDb2dVertex
 10
6.106534605672134
 20
9.929592974572392
 30
0.0
  0
VERTEX
  5
43B5
330
375F
100
AcDbEntity
  8
0
100
AcDbVertex
100
AcDb2dVertex
 10
6.088818070239062
 20
9.868569352525147
 30
0.0
  0
SEQEND
  5
43B6
330
375F
100
AcDbEntity
  8
0
  0
POLYLINE
  5
3766
330
1E
100
AcDbEntity
  8
0
100
AcDb2dPolyline
 66
     1
 10
0.0
 20
0.0
 30
0.0
  0
VERTEX
  5
43B7
330
3766
100
AcDbEntity
  8
0
100
AcDbVertex
100
AcDb2dVertex
 10
5.994329881262684
 20
3.646128407643258
 30
0.0
  0
VERTEX
  5
43B8
330
3766
100
AcDbEntity
  8
0
100
AcDbVertex
100
AcDb2dVertex
 10
5.994329881262684
 20
3.600852817092077
 30
0.0
  0
VERTEX
  5
43B9
330
3766
100
AcDbEntity
  8
0
100
AcDbVertex
100
AcDb2dVertex
 10
5.994329881262684
 20
3.555577226540895
 30
0.0
  0
SEQEND
  5
43BA
330
3766
100
AcDbEntity
  8
0
  0
POLYLINE
  5
376B
330
1E
100
AcDbEntity
  8
0
100
AcDb2dPolyline
 66
     1
 10
0.0
 20
0.0
 30
0.0
  0
VERTEX
  5
43BB
330
376B
100
AcDbEntity
  8
0
100
AcDbVertex
100
AcDb2dVertex
 10
7.264014920632764
 20
10.10282132102908
 30
0.0
  0
VERTEX
  5
43BC
330
376B
100
AcDbEntity
  8
0
100
AcDbVertex
100
AcDb2dVertex
 10
7.264014920632764
 20
10.09494730528105
 30
0.0
  0
VERTEX
  5
43BD
330
376B
100
AcDbEntity
  8
0
100
AcDbVertex
100
AcDb2dVertex
 10
7.264014920632764
 20
10.06738825016294
 30
0.0
  0
VERTEX
  5
43BE
330
376B
100
AcDbEntity
  8
0
100
AcDbVertex
100
AcDb2dVertex
 10
7.264014920632764
 20
10.02604966748577
 30
0.0
  0
VERTEX
  5
43BF
330
376B
100
AcDbEntity
  8
0
100
AcDbVertex
100
AcDb2dVertex
 10
7.264014920632764
 20
9.970931557249556
 30
0.0
  0
VERTEX
  5
43C0
330
376B
100
AcDbEntity
  8
0
100
AcDbVertex
100
AcDb2dVertex
 10
7.264014920632764
 20
9.907939431265305
 30
0.0
  0
VERTEX
  5
43C1
330
376B
100
AcDbEntity
  8
0
100
AcDbVertex
100
AcDb2dVertex
 10
7.264014920632764
 20
9.839041793470029
 30
0.0
  0
SEQEND
  5
43C2
330
376B
100
AcDbEntity
  8
0
  0
LINE
  5
3774
330
1E
100
AcDbEntity
  8
0
100
AcDbLine
 10
7.264014920632764
 20
9.106758328903101
 30
0.0
 11
7.264014920632764
 21
9.839041793470029
 31
0.0
  0
LINE
  5
3775
330
1E
100
AcDbEntity
  8
0
100
AcDbLine
 10
7.264014920632764
 20
4.376443368273179
 30
0.0
 11
7.264014920632764
 21
8.655970927328297
 31
0.0
  0
POLYLINE
  5
3776
330
1E
100
AcDbEntity
  8
0
100
AcDb2dPolyline
 66
     1
 10
0.0
 20
0.0
 30
0.0
  0
VERTEX
  5
43C3
330
3776
100
AcDbEntity
  8
0
100
AcDbVertex
100
AcDb2dVertex
 10
6.075038542680008
 20
3.555577226540895
 30
0.0
  0
VERTEX
  5
43C4
330
3776
100
AcDbEntity
  8
0
100
AcDbVertex
100
AcDb2dVertex
 10
6.075038542680008
 20
3.559514234414912
 30
0.0
  0
VERTEX
  5
43C5
330
3776
100
AcDbEntity
  8
0
100
AcDbVertex
100
AcDb2dVertex
 10
6.077007046617016
 20
3.563451242288927
 30
0.0
  0
VERTEX
  5
43C6
330
3776
100
AcDbEntity
  8
0
100
AcDbVertex
100
AcDb2dVertex
 10
6.077007046617016
 20
3.567388250162943
 30
0.0
  0
VERTEX
  5
43C7
330
3776
100
AcDbEntity
  8
0
100
AcDbVertex
100
AcDb2dVertex
 10
6.077007046617016
 20
3.571325258036958
 30
0.0
  0
VERTEX
  5
43C8
330
3776
100
AcDbEntity
  8
0
100
AcDbVertex
100
AcDb2dVertex
 10
6.077007046617016
 20
3.575262265910975
 30
0.0
  0
VERTEX
  5
43C9
330
3776
100
AcDbEntity
  8
0
100
AcDbVertex
100
AcDb2dVertex
 10
6.075038542680008
 20
3.57919927378499
 30
0.0
  0
VERTEX
  5
43CA
330
3776
100
AcDbEntity
  8
0
100
AcDbVertex
100
AcDb2dVertex
 10
6.075038542680008
 20
3.583136281659006
 30
0.0
  0
VERTEX
  5
43CB
330
3776
100
AcDbEntity
  8
0
100
AcDbVertex
100
AcDb2dVertex
 10
6.075038542680008
 20
3.585104785596014
 30
0.0
  0
SEQEND
  5
43CC
330
3776
100
AcDbEntity
  8
0
  0
POLYLINE
  5
3781
330
1E
100
AcDbEntity
  8
0
100
AcDb2dPolyline
 66
     1
 10
0.0
 20
0.0
 30
0.0
  0
VERTEX
  5
43CD
330
3781
100
AcDbEntity
  8
0
100
AcDbVertex
100
AcDb2dVertex
 10
6.014014920632764
 20
3.630380376147195
 30
0.0
  0
VERTEX
  5
43CE
330
3781
100
AcDbEntity
  8
0
100
AcDbVertex
100
AcDb2dVertex
 10
6.014014920632764
 20
3.636285887958218
 30
0.0
  0
VERTEX
  5
43CF
330
3781
100
AcDbEntity
  8
0
100
AcDbVertex
100
AcDb2dVertex
 10
6.014014920632764
 20
3.640222895832234
 30
0.0
  0
VERTEX
  5
43D0
330
3781
100
AcDbEntity
  8
0
100
AcDbVertex
100
AcDb2dVertex
 10
6.012046416695755
 20
3.642191399769242
 30
0.0
  0
VERTEX
  5
43D1
330
3781
100
AcDbEntity
  8
0
100
AcDbVertex
100
AcDb2dVertex
 10
6.012046416695755
 20
3.646128407643258
 30
0.0
  0
SEQEND
  5
43D2
330
3781
100
AcDbEntity
  8
0
  0
LINE
  5
3788
330
1E
100
AcDbEntity
  8
0
100
AcDbLine
 10
6.014014920632764
 20
3.630380376147195
 30
0.0
 11
6.014014920632764
 21
3.61660084858814
 31
0.0
  0
POLYLINE
  5
3789
330
1E
100
AcDbEntity
  8
0
100
AcDb2dPolyline
 66
     1
 10
0.0
 20
0.0
 30
0.0
  0
VERTEX
  5
43D3
330
3789
100
AcDbEntity
  8
0
100
AcDbVertex
100
AcDb2dVertex
 10
6.014014920632764
 20
3.61660084858814
 30
0.0
  0
VERTEX
  5
43D4
330
3789
100
AcDbEntity
  8
0
100
AcDbVertex
100
AcDb2dVertex
 10
6.014014920632764
 20
3.612663840714123
 30
0.0
  0
VERTEX
  5
43D5
330
3789
100
AcDbEntity
  8
0
100
AcDbVertex
100
AcDb2dVertex
 10
6.014014920632764
 20
3.602821321029084
 30
0.0
  0
VERTEX
  5
43D6
330
3789
100
AcDbEntity
  8
0
100
AcDbVertex
100
AcDb2dVertex
 10
6.014014920632764
 20
3.594947305281053
 30
0.0
  0
VERTEX
  5
43D7
330
3789
100
AcDbEntity
  8
0
100
AcDbVertex
100
AcDb2dVertex
 10
6.014014920632764
 20
3.589041793470029
 30
0.0
  0
VERTEX
  5
43D8
330
3789
100
AcDbEntity
  8
0
100
AcDbVertex
100
AcDb2dVertex
 10
6.014014920632764
 20
3.585104785596014
 30
0.0
  0
SEQEND
  5
43D9
330
3789
100
AcDbEntity
  8
0
  0
POLYLINE
  5
3791
330
1E
100
AcDbEntity
  8
0
100
AcDb2dPolyline
 66
     1
 10
0.0
 20
0.0
 30
0.0
  0
VERTEX
  5
43DA
330
3791
100
AcDbEntity
  8
0
100
AcDbVertex
100
AcDb2dVertex
 10
6.037636967876858
 20
3.630380376147195
 30
0.0
  0
VERTEX
  5
43DB
330
3791
100
AcDbEntity
  8
0
100
AcDbVertex
100
AcDb2dVertex
 10
6.037636967876858
 20
3.636285887958218
 30
0.0
  0
VERTEX
  5
43DC
330
3791
100
AcDbEntity
  8
0
100
AcDbVertex
100
AcDb2dVertex
 10
6.037636967876858
 20
3.640222895832234
 30
0.0
  0
VERTEX
  5
43DD
330
3791
100
AcDbEntity
  8
0
100
AcDbVertex
100
AcDb2dVertex
 10
6.037636967876858
 20
3.642191399769242
 30
0.0
  0
VERTEX
  5
43DE
330
3791
100
AcDbEntity
  8
0
100
AcDbVertex
100
AcDb2dVertex
 10
6.037636967876858
 20
3.646128407643258
 30
0.0
  0
SEQEND
  5
43DF
330
3791
100
AcDbEntity
  8
0
  0
LINE
  5
3798
330
1E
100
AcDbEntity
  8
0
100
AcDbLine
 10
6.037636967876858
 20
3.630380376147195
 30
0.0
 11
6.037636967876858
 21
3.61660084858814
 31
0.0
  0
POLYLINE
  5
3799
330
1E
100
AcDbEntity
  8
0
100
AcDb2dPolyline
 66
     1
 10
0.0
 20
0.0
 30
0.0
  0
VERTEX
  5
43E0
330
3799
100
AcDbEntity
  8
0
100
AcDbVertex
100
AcDb2dVertex
 10
6.037636967876858
 20
3.61660084858814
 30
0.0
  0
VERTEX
  5
43E1
330
3799
100
AcDbEntity
  8
0
100
AcDbVertex
100
AcDb2dVertex
 10
6.037636967876858
 20
3.612663840714123
 30
0.0
  0
VERTEX
  5
43E2
330
3799
100
AcDbEntity
  8
0
100
AcDbVertex
100
AcDb2dVertex
 10
6.039605471813866
 20
3.602821321029084
 30
0.0
  0
VERTEX
  5
43E3
330
3799
100
AcDbEntity
  8
0
100
AcDbVertex
100
AcDb2dVertex
 10
6.039605471813866
 20
3.594947305281053
 30
0.0
  0
VERTEX
  5
43E4
330
3799
100
AcDbEntity
  8
0
100
AcDbVertex
100
AcDb2dVertex
 10
6.039605471813866
 20
3.589041793470029
 30
0.0
  0
VERTEX
  5
43E5
330
3799
100
AcDbEntity
  8
0
100
AcDbVertex
100
AcDb2dVertex
 10
6.039605471813866
 20
3.585104785596014
 30
0.0
  0
SEQEND
  5
43E6
330
3799
100
AcDbEntity
  8
0
  0
POLYLINE
  5
37A1
330
1E
100
AcDbEntity
  8
0
100
AcDb2dPolyline
 66
     1
 10
0.0
 20
0.0
 30
0.0
  0
VERTEX
  5
43E7
330
37A1
100
AcDbEntity
  8
0
100
AcDbVertex
100
AcDb2dVertex
 10
6.004172400947723
 20
3.529986675359793
 30
0.0
  0
VERTEX
  5
43E8
330
37A1
100
AcDbEntity
  8
0
100
AcDbVertex
100
AcDb2dVertex
 10
6.014014920632764
 20
3.528018171422786
 30
0.0
  0
VERTEX
  5
43E9
330
37A1
100
AcDbEntity
  8
0
100
AcDbVertex
100
AcDb2dVertex
 10
6.04551098362489
 20
3.526049667485777
 30
0.0
  0
VERTEX
  5
43EA
330
37A1
100
AcDbEntity
  8
0
100
AcDbVertex
100
AcDb2dVertex
 10
6.096692085987093
 20
3.522112659611762
 30
0.0
  0
SEQEND
  5
43EB
330
37A1
100
AcDbEntity
  8
0
  0
LINE
  5
37A7
330
1E
100
AcDbEntity
  8
0
100
AcDbLine
 10
6.096692085987093
 20
3.522112659611762
 30
0.0
 11
6.096692085987093
 21
7.839041793470029
 31
0.0
  0
POLYLINE
  5
37A8
330
1E
100
AcDbEntity
  8
0
100
AcDb2dPolyline
 66
     1
 10
0.0
 20
0.0
 30
0.0
  0
VERTEX
  5
43EC
330
37A8
100
AcDbEntity
  8
0
100
AcDbVertex
100
AcDb2dVertex
 10
6.004172400947723
 20
7.839041793470029
 30
0.0
  0
VERTEX
  5
43ED
330
37A8
100
AcDbEntity
  8
0
100
AcDbVertex
100
AcDb2dVertex
 10
6.014014920632764
 20
7.839041793470029
 30
0.0
  0
VERTEX
  5
43EE
330
37A8
100
AcDbEntity
  8
0
100
AcDbVertex
100
AcDb2dVertex
 10
6.04551098362489
 20
7.839041793470029
 30
0.0
  0
VERTEX
  5
43EF
330
37A8
100
AcDbEntity
  8
0
100
AcDbVertex
100
AcDb2dVertex
 10
6.096692085987093
 20
7.839041793470029
 30
0.0
  0
SEQEND
  5
43F0
330
37A8
100
AcDbEntity
  8
0
  0
POLYLINE
  5
37AE
330
1E
100
AcDbEntity
  8
0
100
AcDb2dPolyline
 66
     1
 10
0.0
 20
0.0
 30
0.0
  0
VERTEX
  5
43F1
330
37AE
100
AcDbEntity
  8
0
100
AcDbVertex
100
AcDb2dVertex
 10
6.096692085987093
 20
7.839041793470029
 30
0.0
  0
VERTEX
  5
43F2
330
37AE
100
AcDbEntity
  8
0
100
AcDbVertex
100
AcDb2dVertex
 10
6.106534605672134
 20
8.488648092682629
 30
0.0
  0
VERTEX
  5
43F3
330
37AE
100
AcDbEntity
  8
0
100
AcDbVertex
100
AcDb2dVertex
 10
6.132125156853236
 20
9.140222895832234
 30
0.0
  0
VERTEX
  5
43F4
330
37AE
100
AcDbEntity
  8
0
100
AcDbVertex
100
AcDb2dVertex
 10
6.175432243467408
 20
9.789829195044832
 30
0.0
  0
SEQEND
  5
43F5
330
37AE
100
AcDbEntity
  8
0
  0
POLYLINE
  5
37B4
330
1E
100
AcDbEntity
  8
0
100
AcDb2dPolyline
 66
     1
 10
0.0
 20
0.0
 30
0.0
  0
VERTEX
  5
43F6
330
37B4
100
AcDbEntity
  8
0
100
AcDbVertex
100
AcDb2dVertex
 10
6.175432243467408
 20
9.789829195044832
 30
0.0
  0
VERTEX
  5
43F7
330
37B4
100
AcDbEntity
  8
0
100
AcDbVertex
100
AcDb2dVertex
 10
6.177400747404417
 20
9.817388250162943
 30
0.0
  0
VERTEX
  5
43F8
330
37B4
100
AcDbEntity
  8
0
100
AcDbVertex
100
AcDb2dVertex
 10
6.179369251341425
 20
9.842978801344045
 30
0.0
  0
VERTEX
  5
43F9
330
37B4
100
AcDbEntity
  8
0
100
AcDbVertex
100
AcDb2dVertex
 10
6.179369251341425
 20
9.860695336777116
 30
0.0
  0
VERTEX
  5
43FA
330
37B4
100
AcDbEntity
  8
0
100
AcDbVertex
100
AcDb2dVertex
 10
6.177400747404417
 20
9.872506360399164
 30
0.0
  0
VERTEX
  5
43FB
330
37B4
100
AcDbEntity
  8
0
100
AcDbVertex
100
AcDb2dVertex
 10
6.175432243467408
 20
9.874474864336171
 30
0.0
  0
SEQEND
  5
43FC
330
37B4
100
AcDbEntity
  8
0
  0
POLYLINE
  5
37BC
330
1E
100
AcDbEntity
  8
0
100
AcDb2dPolyline
 66
     1
 10
0.0
 20
0.0
 30
0.0
  0
VERTEX
  5
43FD
330
37BC
100
AcDbEntity
  8
0
100
AcDbVertex
100
AcDb2dVertex
 10
6.175432243467408
 20
9.874474864336171
 30
0.0
  0
VERTEX
  5
43FE
330
37BC
100
AcDbEntity
  8
0
100
AcDbVertex
100
AcDb2dVertex
 10
6.128188148979219
 20
9.870537856462155
 30
0.0
  0
VERTEX
  5
43FF
330
37BC
100
AcDbEntity
  8
0
100
AcDbVertex
100
AcDb2dVertex
 10
6.098660589924103
 20
9.868569352525147
 30
0.0
  0
VERTEX
  5
4400
330
37BC
100
AcDbEntity
  8
0
100
AcDbVertex
100
AcDb2dVertex
 10
6.088818070239062
 20
9.868569352525147
 30
0.0
  0
SEQEND
  5
4401
330
37BC
100
AcDbEntity
  8
0
  0
POLYLINE
  5
37C2
330
1E
100
AcDbEntity
  8
0
100
AcDb2dPolyline
 66
     1
 10
0.0
 20
0.0
 30
0.0
  0
VERTEX
  5
4402
330
37C2
100
AcDbEntity
  8
0
100
AcDbVertex
100
AcDb2dVertex
 10
6.041573975750873
 20
8.819356754099951
 30
0.0
  0
VERTEX
  5
4403
330
37C2
100
AcDbEntity
  8
0
100
AcDbVertex
100
AcDb2dVertex
 10
6.027794448191819
 20
8.819356754099951
 30
0.0
  0
VERTEX
  5
4404
330
37C2
100
AcDbEntity
  8
0
100
AcDbVertex
100
AcDb2dVertex
 10
6.023857440317803
 20
8.819356754099951
 30
0.0
  0
SEQEND
  5
4405
330
37C2
100
AcDbEntity
  8
0
  0
POLYLINE
  5
37C7
330
1E
100
AcDbEntity
  8
0
100
AcDb2dPolyline
 66
     1
 10
0.0
 20
0.0
 30
0.0
  0
VERTEX
  5
4406
330
37C7
100
AcDbEntity
  8
0
100
AcDbVertex
100
AcDb2dVertex
 10
6.041573975750873
 20
8.819356754099951
 30
0.0
  0
VERTEX
  5
4407
330
37C7
100
AcDbEntity
  8
0
100
AcDbVertex
100
AcDb2dVertex
 10
6.041573975750873
 20
8.815419746225934
 30
0.0
  0
VERTEX
  5
4408
330
37C7
100
AcDbEntity
  8
0
100
AcDbVertex
100
AcDb2dVertex
 10
6.041573975750873
 20
8.807545730477903
 30
0.0
  0
VERTEX
  5
4409
330
37C7
100
AcDbEntity
  8
0
100
AcDbVertex
100
AcDb2dVertex
 10
6.041573975750873
 20
8.799671714729871
 30
0.0
  0
VERTEX
  5
440A
330
37C7
100
AcDbEntity
  8
0
100
AcDbVertex
100
AcDb2dVertex
 10
6.041573975750873
 20
8.787860691107825
 30
0.0
  0
SEQEND
  5
440B
330
37C7
100
AcDbEntity
  8
0
  0
POLYLINE
  5
37CE
330
1E
100
AcDbEntity
  8
0
100
AcDb2dPolyline
 66
     1
 10
0.0
 20
0.0
 30
0.0
  0
VERTEX
  5
440C
330
37CE
100
AcDbEntity
  8
0
100
AcDbVertex
100
AcDb2dVertex
 10
6.041573975750873
 20
8.787860691107825
 30
0.0
  0
VERTEX
  5
440D
330
37CE
100
AcDbEntity
  8
0
100
AcDbVertex
100
AcDb2dVertex
 10
6.035668463939851
 20
8.614632344651132
 30
0.0
  0
VERTEX
  5
440E
330
37CE
100
AcDbEntity
  8
0
100
AcDbVertex
100
AcDb2dVertex
 10
6.029762952128827
 20
8.439435494257431
 30
0.0
  0
SEQEND
  5
440F
330
37CE
100
AcDbEntity
  8
0
  0
POLYLINE
  5
37D3
330
1E
100
AcDbEntity
  8
0
100
AcDb2dPolyline
 66
     1
 10
0.0
 20
0.0
 30
0.0
  0
VERTEX
  5
4410
330
37D3
100
AcDbEntity
  8
0
100
AcDbVertex
100
AcDb2dVertex
 10
6.029762952128827
 20
8.439435494257431
 30
0.0
  0
VERTEX
  5
4411
330
37D3
100
AcDbEntity
  8
0
100
AcDbVertex
100
AcDb2dVertex
 10
6.029762952128827
 20
8.435498486383416
 30
0.0
  0
VERTEX
  5
4412
330
37D3
100
AcDbEntity
  8
0
100
AcDbVertex
100
AcDb2dVertex
 10
6.029762952128827
 20
8.425655966698375
 30
0.0
  0
VERTEX
  5
4413
330
37D3
100
AcDbEntity
  8
0
100
AcDbVertex
100
AcDb2dVertex
 10
6.029762952128827
 20
8.415813447013336
 30
0.0
  0
VERTEX
  5
4414
330
37D3
100
AcDbEntity
  8
0
100
AcDbVertex
100
AcDb2dVertex
 10
6.027794448191819
 20
8.409907935202312
 30
0.0
  0
VERTEX
  5
4415
330
37D3
100
AcDbEntity
  8
0
100
AcDbVertex
100
AcDb2dVertex
 10
6.027794448191819
 20
8.407939431265305
 30
0.0
  0
SEQEND
  5
4416
330
37D3
100
AcDbEntity
  8
0
  0
POLYLINE
  5
37DB
330
1E
100
AcDbEntity
  8
0
100
AcDb2dPolyline
 66
     1
 10
0.0
 20
0.0
 30
0.0
  0
VERTEX
  5
4417
330
37DB
100
AcDbEntity
  8
0
100
AcDbVertex
100
AcDb2dVertex
 10
6.027794448191819
 20
8.407939431265305
 30
0.0
  0
VERTEX
  5
4418
330
37DB
100
AcDbEntity
  8
0
100
AcDbVertex
100
AcDb2dVertex
 10
6.015983424569771
 20
8.407939431265305
 30
0.0
  0
VERTEX
  5
4419
330
37DB
100
AcDbEntity
  8
0
100
AcDbVertex
100
AcDb2dVertex
 10
6.012046416695755
 20
8.407939431265305
 30
0.0
  0
SEQEND
  5
441A
330
37DB
100
AcDbEntity
  8
0
  0
LINE
  5
37E0
330
1E
100
AcDbEntity
  8
0
100
AcDbLine
 10
7.264014920632764
 20
3.44140399819444
 30
0.0
 11
6.264014920632764
 21
3.510301635989714
 31
0.0
  0
POLYLINE
  5
37E1
330
1E
100
AcDbEntity
  8
0
100
AcDb2dPolyline
 66
     1
 10
0.0
 20
0.0
 30
0.0
  0
VERTEX
  5
441B
330
37E1
100
AcDbEntity
  8
0
100
AcDbVertex
100
AcDb2dVertex
 10
6.264014920632764
 20
3.510301635989714
 30
0.0
  0
VERTEX
  5
441C
330
37E1
100
AcDbEntity
  8
0
100
AcDbVertex
100
AcDb2dVertex
 10
6.214802322207566
 20
3.51423864386373
 30
0.0
  0
VERTEX
  5
441D
330
37E1
100
AcDbEntity
  8
0
100
AcDbVertex
100
AcDb2dVertex
 10
6.169526731656386
 20
3.518175651737745
 30
0.0
  0
VERTEX
  5
441E
330
37E1
100
AcDbEntity
  8
0
100
AcDbVertex
100
AcDb2dVertex
 10
6.134093660790243
 20
3.520144155674755
 30
0.0
  0
VERTEX
  5
441F
330
37E1
100
AcDbEntity
  8
0
100
AcDbVertex
100
AcDb2dVertex
 10
6.108503109609142
 20
3.522112659611762
 30
0.0
  0
VERTEX
  5
4420
330
37E1
100
AcDbEntity
  8
0
100
AcDbVertex
100
AcDb2dVertex
 10
6.096692085987093
 20
3.522112659611762
 30
0.0
  0
SEQEND
  5
4421
330
37E1
100
AcDbEntity
  8
0
  0
POLYLINE
  5
37E9
330
1E
100
AcDbEntity
  8
0
100
AcDb2dPolyline
 66
     1
 10
0.0
 20
0.0
 30
0.0
  0
VERTEX
  5
4422
330
37E9
100
AcDbEntity
  8
0
100
AcDbVertex
100
AcDb2dVertex
 10
6.065196022994967
 20
3.555577226540895
 30
0.0
  0
VERTEX
  5
4423
330
37E9
100
AcDbEntity
  8
0
100
AcDbVertex
100
AcDb2dVertex
 10
6.033699960002842
 20
3.555577226540895
 30
0.0
  0
VERTEX
  5
4424
330
37E9
100
AcDbEntity
  8
0
100
AcDbVertex
100
AcDb2dVertex
 10
6.012046416695755
 20
3.555577226540895
 30
0.0
  0
VERTEX
  5
4425
330
37E9
100
AcDbEntity
  8
0
100
AcDbVertex
100
AcDb2dVertex
 10
5.996298385199692
 20
3.555577226540895
 30
0.0
  0
SEQEND
  5
4426
330
37E9
100
AcDbEntity
  8
0
  0
POLYLINE
  5
37EF
330
1E
100
AcDbEntity
  8
0
100
AcDb2dPolyline
 66
     1
 10
0.0
 20
0.0
 30
0.0
  0
VERTEX
  5
4427
330
37EF
100
AcDbEntity
  8
0
100
AcDbVertex
100
AcDb2dVertex
 10
6.065196022994967
 20
3.585104785596014
 30
0.0
  0
VERTEX
  5
4428
330
37EF
100
AcDbEntity
  8
0
100
AcDbVertex
100
AcDb2dVertex
 10
6.065196022994967
 20
3.581167777721997
 30
0.0
  0
VERTEX
  5
4429
330
37EF
100
AcDbEntity
  8
0
100
AcDbVertex
100
AcDb2dVertex
 10
6.065196022994967
 20
3.577230769847982
 30
0.0
  0
VERTEX
  5
442A
330
37EF
100
AcDbEntity
  8
0
100
AcDbVertex
100
AcDb2dVertex
 10
6.067164526931977
 20
3.573293761973966
 30
0.0
  0
VERTEX
  5
442B
330
37EF
100
AcDbEntity
  8
0
100
AcDbVertex
100
AcDb2dVertex
 10
6.067164526931977
 20
3.571325258036958
 30
0.0
  0
VERTEX
  5
442C
330
37EF
100
AcDbEntity
  8
0
100
AcDbVertex
100
AcDb2dVertex
 10
6.067164526931977
 20
3.565419746225934
 30
0.0
  0
VERTEX
  5
442D
330
37EF
100
AcDbEntity
  8
0
100
AcDbVertex
100
AcDb2dVertex
 10
6.065196022994967
 20
3.561482738351919
 30
0.0
  0
VERTEX
  5
442E
330
37EF
100
AcDbEntity
  8
0
100
AcDbVertex
100
AcDb2dVertex
 10
6.065196022994967
 20
3.557545730477903
 30
0.0
  0
VERTEX
  5
442F
330
37EF
100
AcDbEntity
  8
0
100
AcDbVertex
100
AcDb2dVertex
 10
6.065196022994967
 20
3.555577226540895
 30
0.0
  0
SEQEND
  5
4430
330
37EF
100
AcDbEntity
  8
0
  0
LINE
  5
37FA
330
1E
100
AcDbEntity
  8
0
100
AcDbLine
 10
6.029762952128827
 20
3.585104785596014
 30
0.0
 11
6.065196022994967
 21
3.585104785596014
 31
0.0
  0
POLYLINE
  5
37FB
330
1E
100
AcDbEntity
  8
0
100
AcDb2dPolyline
 66
     1
 10
0.0
 20
0.0
 30
0.0
  0
VERTEX
  5
4431
330
37FB
100
AcDbEntity
  8
0
100
AcDbVertex
100
AcDb2dVertex
 10
6.029762952128827
 20
3.585104785596014
 30
0.0
  0
VERTEX
  5
4432
330
37FB
100
AcDbEntity
  8
0
100
AcDbVertex
100
AcDb2dVertex
 10
6.029762952128827
 20
3.587073289533021
 30
0.0
  0
VERTEX
  5
4433
330
37FB
100
AcDbEntity
  8
0
100
AcDbVertex
100
AcDb2dVertex
 10
6.029762952128827
 20
3.592978801344045
 30
0.0
  0
VERTEX
  5
4434
330
37FB
100
AcDbEntity
  8
0
100
AcDbVertex
100
AcDb2dVertex
 10
6.027794448191819
 20
3.598884313155069
 30
0.0
  0
VERTEX
  5
4435
330
37FB
100
AcDbEntity
  8
0
100
AcDbVertex
100
AcDb2dVertex
 10
6.027794448191819
 20
3.608726832840108
 30
0.0
  0
VERTEX
  5
4436
330
37FB
100
AcDbEntity
  8
0
100
AcDbVertex
100
AcDb2dVertex
 10
6.027794448191819
 20
3.61660084858814
 30
0.0
  0
SEQEND
  5
4437
330
37FB
100
AcDbEntity
  8
0
  0
LINE
  5
3803
330
1E
100
AcDbEntity
  8
0
100
AcDbLine
 10
6.027794448191819
 20
3.61660084858814
 30
0.0
 11
6.027794448191819
 21
3.630380376147195
 31
0.0
  0
POLYLINE
  5
3804
330
1E
100
AcDbEntity
  8
0
100
AcDb2dPolyline
 66
     1
 10
0.0
 20
0.0
 30
0.0
  0
VERTEX
  5
4438
330
3804
100
AcDbEntity
  8
0
100
AcDbVertex
100
AcDb2dVertex
 10
6.027794448191819
 20
3.630380376147195
 30
0.0
  0
VERTEX
  5
4439
330
3804
100
AcDbEntity
  8
0
100
AcDbVertex
100
AcDb2dVertex
 10
6.027794448191819
 20
3.63431738402121
 30
0.0
  0
VERTEX
  5
443A
330
3804
100
AcDbEntity
  8
0
100
AcDbVertex
100
AcDb2dVertex
 10
6.027794448191819
 20
3.638254391895227
 30
0.0
  0
VERTEX
  5
443B
330
3804
100
AcDbEntity
  8
0
100
AcDbVertex
100
AcDb2dVertex
 10
6.027794448191819
 20
3.642191399769242
 30
0.0
  0
VERTEX
  5
443C
330
3804
100
AcDbEntity
  8
0
100
AcDbVertex
100
AcDb2dVertex
 10
6.027794448191819
 20
3.644159903706249
 30
0.0
  0
SEQEND
  5
443D
330
3804
100
AcDbEntity
  8
0
  0
POLYLINE
  5
380B
330
1E
100
AcDbEntity
  8
0
100
AcDb2dPolyline
 66
     1
 10
0.0
 20
0.0
 30
0.0
  0
VERTEX
  5
443E
330
380B
100
AcDbEntity
  8
0
100
AcDbVertex
100
AcDb2dVertex
 10
6.027794448191819
 20
3.646128407643258
 30
0.0
  0
VERTEX
  5
443F
330
380B
100
AcDbEntity
  8
0
100
AcDbVertex
100
AcDb2dVertex
 10
6.027794448191819
 20
3.644159903706249
 30
0.0
  0
VERTEX
  5
4440
330
380B
100
AcDbEntity
  8
0
100
AcDbVertex
100
AcDb2dVertex
 10
6.027794448191819
 20
3.642191399769242
 30
0.0
  0
VERTEX
  5
4441
330
380B
100
AcDbEntity
  8
0
100
AcDbVertex
100
AcDb2dVertex
 10
6.027794448191819
 20
3.638254391895227
 30
0.0
  0
VERTEX
  5
4442
330
380B
100
AcDbEntity
  8
0
100
AcDbVertex
100
AcDb2dVertex
 10
6.027794448191819
 20
3.63431738402121
 30
0.0
  0
VERTEX
  5
4443
330
380B
100
AcDbEntity
  8
0
100
AcDbVertex
100
AcDb2dVertex
 10
6.027794448191819
 20
3.630380376147195
 30
0.0
  0
SEQEND
  5
4444
330
380B
100
AcDbEntity
  8
0
  0
LINE
  5
3813
330
1E
100
AcDbEntity
  8
0
100
AcDbLine
 10
6.027794448191819
 20
3.61660084858814
 30
0.0
 11
6.027794448191819
 21
3.630380376147195
 31
0.0
  0
POLYLINE
  5
3814
330
1E
100
AcDbEntity
  8
0
100
AcDb2dPolyline
 66
     1
 10
0.0
 20
0.0
 30
0.0
  0
VERTEX
  5
4445
330
3814
100
AcDbEntity
  8
0
100
AcDbVertex
100
AcDb2dVertex
 10
6.027794448191819
 20
3.61660084858814
 30
0.0
  0
VERTEX
  5
4446
330
3814
100
AcDbEntity
  8
0
100
AcDbVertex
100
AcDb2dVertex
 10
6.027794448191819
 20
3.610695336777116
 30
0.0
  0
VERTEX
  5
4447
330
3814
100
AcDbEntity
  8
0
100
AcDbVertex
100
AcDb2dVertex
 10
6.02582594425481
 20
3.600852817092077
 30
0.0
  0
VERTEX
  5
4448
330
3814
100
AcDbEntity
  8
0
100
AcDbVertex
100
AcDb2dVertex
 10
6.02582594425481
 20
3.592978801344045
 30
0.0
  0
VERTEX
  5
4449
330
3814
100
AcDbEntity
  8
0
100
AcDbVertex
100
AcDb2dVertex
 10
6.02582594425481
 20
3.587073289533021
 30
0.0
  0
VERTEX
  5
444A
330
3814
100
AcDbEntity
  8
0
100
AcDbVertex
100
AcDb2dVertex
 10
6.02582594425481
 20
3.585104785596014
 30
0.0
  0
SEQEND
  5
444B
330
3814
100
AcDbEntity
  8
0
  0
LINE
  5
381C
330
1E
100
AcDbEntity
  8
0
100
AcDbLine
 10
6.004172400947723
 20
3.585104785596014
 30
0.0
 11
6.02582594425481
 21
3.585104785596014
 31
0.0
  0
POLYLINE
  5
381D
330
1E
100
AcDbEntity
  8
0
100
AcDb2dPolyline
 66
     1
 10
0.0
 20
0.0
 30
0.0
  0
VERTEX
  5
444C
330
381D
100
AcDbEntity
  8
0
100
AcDbVertex
100
AcDb2dVertex
 10
6.004172400947723
 20
3.585104785596014
 30
0.0
  0
VERTEX
  5
444D
330
381D
100
AcDbEntity
  8
0
100
AcDbVertex
100
AcDb2dVertex
 10
6.004172400947723
 20
3.587073289533021
 30
0.0
  0
VERTEX
  5
444E
330
381D
100
AcDbEntity
  8
0
100
AcDbVertex
100
AcDb2dVertex
 10
6.004172400947723
 20
3.592978801344045
 30
0.0
  0
VERTEX
  5
444F
330
381D
100
AcDbEntity
  8
0
100
AcDbVertex
100
AcDb2dVertex
 10
6.004172400947723
 20
3.598884313155069
 30
0.0
  0
VERTEX
  5
4450
330
381D
100
AcDbEntity
  8
0
100
AcDbVertex
100
AcDb2dVertex
 10
6.004172400947723
 20
3.608726832840108
 30
0.0
  0
VERTEX
  5
4451
330
381D
100
AcDbEntity
  8
0
100
AcDbVertex
100
AcDb2dVertex
 10
6.002203897010716
 20
3.61660084858814
 30
0.0
  0
SEQEND
  5
4452
330
381D
100
AcDbEntity
  8
0
  0
LINE
  5
3825
330
1E
100
AcDbEntity
  8
0
100
AcDbLine
 10
6.002203897010716
 20
3.61660084858814
 30
0.0
 11
6.002203897010716
 21
3.630380376147195
 31
0.0
  0
POLYLINE
  5
3826
330
1E
100
AcDbEntity
  8
0
100
AcDb2dPolyline
 66
     1
 10
0.0
 20
0.0
 30
0.0
  0
VERTEX
  5
4453
330
3826
100
AcDbEntity
  8
0
100
AcDbVertex
100
AcDb2dVertex
 10
6.002203897010716
 20
3.646128407643258
 30
0.0
  0
VERTEX
  5
4454
330
3826
100
AcDbEntity
  8
0
100
AcDbVertex
100
AcDb2dVertex
 10
6.002203897010716
 20
3.644159903706249
 30
0.0
  0
VERTEX
  5
4455
330
3826
100
AcDbEntity
  8
0
100
AcDbVertex
100
AcDb2dVertex
 10
6.002203897010716
 20
3.642191399769242
 30
0.0
  0
VERTEX
  5
4456
330
3826
100
AcDbEntity
  8
0
100
AcDbVertex
100
AcDb2dVertex
 10
6.002203897010716
 20
3.638254391895227
 30
0.0
  0
VERTEX
  5
4457
330
3826
100
AcDbEntity
  8
0
100
AcDbVertex
100
AcDb2dVertex
 10
6.002203897010716
 20
3.63431738402121
 30
0.0
  0
VERTEX
  5
4458
330
3826
100
AcDbEntity
  8
0
100
AcDbVertex
100
AcDb2dVertex
 10
6.002203897010716
 20
3.630380376147195
 30
0.0
  0
SEQEND
  5
4459
330
3826
100
AcDbEntity
  8
0
  0
LINE
  5
382E
330
1E
100
AcDbEntity
  8
0
100
AcDbLine
 10
6.002203897010716
 20
3.61660084858814
 30
0.0
 11
6.002203897010716
 21
3.630380376147195
 31
0.0
  0
POLYLINE
  5
382F
330
1E
100
AcDbEntity
  8
0
100
AcDb2dPolyline
 66
     1
 10
0.0
 20
0.0
 30
0.0
  0
VERTEX
  5
445A
330
382F
100
AcDbEntity
  8
0
100
AcDbVertex
100
AcDb2dVertex
 10
6.002203897010716
 20
3.61660084858814
 30
0.0
  0
VERTEX
  5
445B
330
382F
100
AcDbEntity
  8
0
100
AcDbVertex
100
AcDb2dVertex
 10
6.002203897010716
 20
3.610695336777116
 30
0.0
  0
VERTEX
  5
445C
330
382F
100
AcDbEntity
  8
0
100
AcDbVertex
100
AcDb2dVertex
 10
6.002203897010716
 20
3.600852817092077
 30
0.0
  0
VERTEX
  5
445D
330
382F
100
AcDbEntity
  8
0
100
AcDbVertex
100
AcDb2dVertex
 10
6.002203897010716
 20
3.592978801344045
 30
0.0
  0
VERTEX
  5
445E
330
382F
100
AcDbEntity
  8
0
100
AcDbVertex
100
AcDb2dVertex
 10
6.002203897010716
 20
3.587073289533021
 30
0.0
  0
VERTEX
  5
445F
330
382F
100
AcDbEntity
  8
0
100
AcDbVertex
100
AcDb2dVertex
 10
6.002203897010716
 20
3.585104785596014
 30
0.0
  0
SEQEND
  5
4460
330
382F
100
AcDbEntity
  8
0
  0
POLYLINE
  5
3837
330
1E
100
AcDbEntity
  8
0
100
AcDb2dPolyline
 66
     1
 10
0.0
 20
0.0
 30
0.0
  0
VERTEX
  5
4461
330
3837
100
AcDbEntity
  8
0
100
AcDbVertex
100
AcDb2dVertex
 10
6.002203897010716
 20
3.585104785596014
 30
0.0
  0
VERTEX
  5
4462
330
3837
100
AcDbEntity
  8
0
100
AcDbVertex
100
AcDb2dVertex
 10
5.996298385199692
 20
3.585104785596014
 30
0.0
  0
VERTEX
  5
4463
330
3837
100
AcDbEntity
  8
0
100
AcDbVertex
100
AcDb2dVertex
 10
5.994329881262684
 20
3.585104785596014
 30
0.0
  0
SEQEND
  5
4464
330
3837
100
AcDbEntity
  8
0
  0
POLYLINE
  5
383C
330
1E
100
AcDbEntity
  8
0
100
AcDb2dPolyline
 66
     1
 10
0.0
 20
0.0
 30
0.0
  0
VERTEX
  5
4465
330
383C
100
AcDbEntity
  8
0
100
AcDbVertex
100
AcDb2dVertex
 10
5.994329881262684
 20
3.585104785596014
 30
0.0
  0
VERTEX
  5
4466
330
383C
100
AcDbEntity
  8
0
100
AcDbVertex
100
AcDb2dVertex
 10
5.994329881262684
 20
3.587073289533021
 30
0.0
  0
VERTEX
  5
4467
330
383C
100
AcDbEntity
  8
0
100
AcDbVertex
100
AcDb2dVertex
 10
5.994329881262684
 20
3.592978801344045
 30
0.0
  0
VERTEX
  5
4468
330
383C
100
AcDbEntity
  8
0
100
AcDbVertex
100
AcDb2dVertex
 10
5.994329881262684
 20
3.598884313155069
 30
0.0
  0
VERTEX
  5
4469
330
383C
100
AcDbEntity
  8
0
100
AcDbVertex
100
AcDb2dVertex
 10
5.994329881262684
 20
3.608726832840108
 30
0.0
  0
VERTEX
  5
446A
330
383C
100
AcDbEntity
  8
0
100
AcDbVertex
100
AcDb2dVertex
 10
5.994329881262684
 20
3.61660084858814
 30
0.0
  0
SEQEND
  5
446B
330
383C
100
AcDbEntity
  8
0
  0
LINE
  5
3844
330
1E
100
AcDbEntity
  8
0
100
AcDbLine
 10
5.994329881262684
 20
3.61660084858814
 30
0.0
 11
5.994329881262684
 21
3.630380376147195
 31
0.0
  0
POLYLINE
  5
3845
330
1E
100
AcDbEntity
  8
0
100
AcDb2dPolyline
 66
     1
 10
0.0
 20
0.0
 30
0.0
  0
VERTEX
  5
446C
330
3845
100
AcDbEntity
  8
0
100
AcDbVertex
100
AcDb2dVertex
 10
5.994329881262684
 20
3.646128407643258
 30
0.0
  0
VERTEX
  5
446D
330
3845
100
AcDbEntity
  8
0
100
AcDbVertex
100
AcDb2dVertex
 10
5.994329881262684
 20
3.644159903706249
 30
0.0
  0
VERTEX
  5
446E
330
3845
100
AcDbEntity
  8
0
100
AcDbVertex
100
AcDb2dVertex
 10
5.994329881262684
 20
3.642191399769242
 30
0.0
  0
VERTEX
  5
446F
330
3845
100
AcDbEntity
  8
0
100
AcDbVertex
100
AcDb2dVertex
 10
5.994329881262684
 20
3.638254391895227
 30
0.0
  0
VERTEX
  5
4470
330
3845
100
AcDbEntity
  8
0
100
AcDbVertex
100
AcDb2dVertex
 10
5.994329881262684
 20
3.63431738402121
 30
0.0
  0
VERTEX
  5
4471
330
3845
100
AcDbEntity
  8
0
100
AcDbVertex
100
AcDb2dVertex
 10
5.994329881262684
 20
3.630380376147195
 30
0.0
  0
SEQEND
  5
4472
330
3845
100
AcDbEntity
  8
0
  0
LINE
  5
384D
330
1E
100
AcDbEntity
  8
0
100
AcDbLine
 10
6.075038542680008
 20
3.555577226540895
 30
0.0
 11
6.065196022994967
 21
3.555577226540895
 31
0.0
  0
LINE
  5
384E
330
1E
100
AcDbEntity
  8
0
100
AcDbLine
 10
6.075038542680008
 20
3.585104785596014
 30
0.0
 11
6.065196022994967
 21
3.585104785596014
 31
0.0
  0
LINE
  5
384F
330
1E
100
AcDbEntity
  8
0
100
AcDbLine
 10
6.037636967876858
 20
3.61660084858814
 30
0.0
 11
6.027794448191819
 21
3.61660084858814
 31
0.0
  0
LINE
  5
3850
330
1E
100
AcDbEntity
  8
0
100
AcDbLine
 10
6.037636967876858
 20
3.630380376147195
 30
0.0
 11
6.027794448191819
 21
3.630380376147195
 31
0.0
  0
LINE
  5
3851
330
1E
100
AcDbEntity
  8
0
100
AcDbLine
 10
6.014014920632764
 20
3.61660084858814
 30
0.0
 11
6.002203897010716
 21
3.61660084858814
 31
0.0
  0
LINE
  5
3852
330
1E
100
AcDbEntity
  8
0
100
AcDbLine
 10
6.014014920632764
 20
3.630380376147195
 30
0.0
 11
6.002203897010716
 21
3.630380376147195
 31
0.0
  0
LINE
  5
3853
330
1E
100
AcDbEntity
  8
0
100
AcDbLine
 10
6.002203897010716
 20
3.61660084858814
 30
0.0
 11
5.994329881262684
 21
3.61660084858814
 31
0.0
  0
LINE
  5
3854
330
1E
100
AcDbEntity
  8
0
100
AcDbLine
 10
6.002203897010716
 20
3.630380376147195
 30
0.0
 11
5.994329881262684
 21
3.630380376147195
 31
0.0
  0
LINE
  5
3855
330
1E
100
AcDbEntity
  8
0
100
AcDbLine
 10
7.159684211971345
 20
9.104789824966092
 30
0.0
 11
7.264014920632764
 21
9.106758328903101
 31
0.0
  0
LINE
  5
3856
330
1E
100
AcDbEntity
  8
0
100
AcDbLine
 10
7.159684211971345
 20
9.104789824966092
 30
0.0
 11
7.159684211971345
 21
8.657939431265305
 31
0.0
  0
LINE
  5
3857
330
1E
100
AcDbEntity
  8
0
100
AcDbLine
 10
7.159684211971345
 20
8.657939431265305
 30
0.0
 11
7.264014920632764
 21
8.655970927328297
 31
0.0
  0
LINE
  5
3858
330
1E
100
AcDbEntity
  8
0
100
AcDbLine
 10
7.264014920632764
 20
4.376443368273179
 30
0.0
 11
7.159684211971345
 21
4.374474864336171
 31
0.0
  0
LINE
  5
3859
330
1E
100
AcDbEntity
  8
0
100
AcDbLine
 10
7.159684211971345
 20
4.374474864336171
 30
0.0
 11
7.159684211971345
 21
3.927624470635384
 31
0.0
  0
LINE
  5
385A
330
1E
100
AcDbEntity
  8
0
100
AcDbLine
 10
7.264014920632764
 20
3.925655966698375
 30
0.0
 11
7.159684211971345
 21
3.927624470635384
 31
0.0
  0
LINE
  5
385B
330
1E
100
AcDbEntity
  8
0
100
AcDbLine
 10
7.264014920632764
 20
3.925655966698375
 30
0.0
 11
7.264014920632764
 21
3.44140399819444
 31
0.0
  0
POLYLINE
  5
385C
330
1E
100
AcDbEntity
  8
0
100
AcDb2dPolyline
 66
     1
 10
0.0
 20
0.0
 30
0.0
  0
VERTEX
  5
4473
330
385C
100
AcDbEntity
  8
0
100
AcDbVertex
100
AcDb2dVertex
 10
6.256140904884732
 20
10.0319551792968
 30
0.0
  0
VERTEX
  5
4474
330
385C
100
AcDbEntity
  8
0
100
AcDbVertex
100
AcDb2dVertex
 10
6.265983424569771
 20
10.0339236832338
 30
0.0
  0
VERTEX
  5
4475
330
385C
100
AcDbEntity
  8
0
100
AcDbVertex
100
AcDb2dVertex
 10
6.293542479687882
 20
10.03589218717081
 30
0.0
  0
VERTEX
  5
4476
330
385C
100
AcDbEntity
  8
0
100
AcDbVertex
100
AcDb2dVertex
 10
6.342755078113079
 20
10.03982919504483
 30
0.0
  0
SEQEND
  5
4477
330
385C
100
AcDbEntity
  8
0
  0
LINE
  5
3862
330
1E
100
AcDbEntity
  8
0
100
AcDbLine
 10
7.264014920632764
 20
10.10282132102908
 30
0.0
 11
6.342755078113079
 21
10.03982919504483
 31
0.0
  0
POLYLINE
  5
3863
330
1E
100
AcDbEntity
  8
0
100
AcDb2dPolyline
 66
     1
 10
0.0
 20
0.0
 30
0.0
  0
VERTEX
  5
4478
330
3863
100
AcDbEntity
  8
0
100
AcDbVertex
100
AcDb2dVertex
 10
6.342755078113079
 20
10.03982919504483
 30
0.0
  0
VERTEX
  5
4479
330
3863
100
AcDbEntity
  8
0
100
AcDbVertex
100
AcDb2dVertex
 10
6.340786574176071
 20
10.02408116354877
 30
0.0
  0
VERTEX
  5
447A
330
3863
100
AcDbEntity
  8
0
100
AcDbVertex
100
AcDb2dVertex
 10
6.340786574176071
 20
9.980774076934595
 30
0.0
  0
VERTEX
  5
447B
330
3863
100
AcDbEntity
  8
0
100
AcDbVertex
100
AcDb2dVertex
 10
6.340786574176071
 20
9.913844943076329
 30
0.0
  0
VERTEX
  5
447C
330
3863
100
AcDbEntity
  8
0
100
AcDbVertex
100
AcDb2dVertex
 10
6.340786574176071
 20
9.831167777721997
 30
0.0
  0
VERTEX
  5
447D
330
3863
100
AcDbEntity
  8
0
100
AcDbVertex
100
AcDb2dVertex
 10
6.342755078113079
 20
9.774081163548769
 30
0.0
  0
SEQEND
  5
447E
330
3863
100
AcDbEntity
  8
0
  0
LINE
  5
386B
330
1E
100
AcDbEntity
  8
0
100
AcDbLine
 10
7.264014920632764
 20
9.839041793470029
 30
0.0
 11
6.342755078113079
 21
9.774081163548769
 31
0.0
  0
POLYLINE
  5
386C
330
1E
100
AcDbEntity
  8
0
100
AcDb2dPolyline
 66
     1
 10
0.0
 20
0.0
 30
0.0
  0
VERTEX
  5
447F
330
386C
100
AcDbEntity
  8
0
100
AcDbVertex
100
AcDb2dVertex
 10
6.342755078113079
 20
9.774081163548769
 30
0.0
  0
VERTEX
  5
4480
330
386C
100
AcDbEntity
  8
0
100
AcDbVertex
100
AcDb2dVertex
 10
6.299447991498904
 20
9.130380376147195
 30
0.0
  0
VERTEX
  5
4481
330
386C
100
AcDbEntity
  8
0
100
AcDbVertex
100
AcDb2dVertex
 10
6.271888936380795
 20
8.484711084808612
 30
0.0
  0
VERTEX
  5
4482
330
386C
100
AcDbEntity
  8
0
100
AcDbVertex
100
AcDb2dVertex
 10
6.264014920632764
 20
7.839041793470029
 30
0.0
  0
SEQEND
  5
4483
330
386C
100
AcDbEntity
  8
0
  0
LINE
  5
3872
330
1E
100
AcDbEntity
  8
0
100
AcDbLine
 10
6.264014920632764
 20
7.839041793470029
 30
0.0
 11
6.264014920632764
 21
3.510301635989714
 31
0.0
  0
POLYLINE
  5
3873
330
1E
100
AcDbEntity
  8
0
100
AcDb2dPolyline
 66
     1
 10
0.0
 20
0.0
 30
0.0
  0
VERTEX
  5
4484
330
3873
100
AcDbEntity
  8
0
100
AcDbVertex
100
AcDb2dVertex
 10
6.342755078113079
 20
10.03982919504483
 30
0.0
  0
VERTEX
  5
4485
330
3873
100
AcDbEntity
  8
0
100
AcDbVertex
100
AcDb2dVertex
 10
6.279762952128827
 20
10.02408116354877
 30
0.0
  0
VERTEX
  5
4486
330
3873
100
AcDbEntity
  8
0
100
AcDbVertex
100
AcDb2dVertex
 10
6.228581849766621
 20
9.986679588745619
 30
0.0
  0
VERTEX
  5
4487
330
3873
100
AcDbEntity
  8
0
100
AcDbVertex
100
AcDb2dVertex
 10
6.191180274963471
 20
9.935498486383416
 30
0.0
  0
VERTEX
  5
4488
330
3873
100
AcDbEntity
  8
0
100
AcDbVertex
100
AcDb2dVertex
 10
6.175432243467408
 20
9.874474864336171
 30
0.0
  0
SEQEND
  5
4489
330
3873
100
AcDbEntity
  8
0
  0
POLYLINE
  5
387A
330
1E
100
AcDbEntity
  8
0
100
AcDb2dPolyline
 66
     1
 10
0.0
 20
0.0
 30
0.0
  0
VERTEX
  5
448A
330
387A
100
AcDbEntity
  8
0
100
AcDbVertex
100
AcDb2dVertex
 10
6.342755078113079
 20
9.774081163548769
 30
0.0
  0
VERTEX
  5
448B
330
387A
100
AcDbEntity
  8
0
100
AcDbVertex
100
AcDb2dVertex
 10
6.281731456065834
 20
9.779986675359793
 30
0.0
  0
VERTEX
  5
448C
330
387A
100
AcDbEntity
  8
0
100
AcDbVertex
100
AcDb2dVertex
 10
6.228581849766621
 20
9.783923683233808
 30
0.0
  0
VERTEX
  5
448D
330
387A
100
AcDbEntity
  8
0
100
AcDbVertex
100
AcDb2dVertex
 10
6.19314877890048
 20
9.787860691107825
 30
0.0
  0
VERTEX
  5
448E
330
387A
100
AcDbEntity
  8
0
100
AcDbVertex
100
AcDb2dVertex
 10
6.175432243467408
 20
9.789829195044832
 30
0.0
  0
SEQEND
  5
448F
330
387A
100
AcDbEntity
  8
0
  0
POLYLINE
  5
3881
330
1E
100
AcDbEntity
  8
0
100
AcDb2dPolyline
 66
     1
 10
0.0
 20
0.0
 30
0.0
  0
VERTEX
  5
4490
330
3881
100
AcDbEntity
  8
0
100
AcDbVertex
100
AcDb2dVertex
 10
6.264014920632764
 20
7.839041793470029
 30
0.0
  0
VERTEX
  5
4491
330
3881
100
AcDbEntity
  8
0
100
AcDbVertex
100
AcDb2dVertex
 10
6.202991298585519
 20
7.839041793470029
 30
0.0
  0
VERTEX
  5
4492
330
3881
100
AcDbEntity
  8
0
100
AcDbVertex
100
AcDb2dVertex
 10
6.149841692286306
 20
7.839041793470029
 30
0.0
  0
VERTEX
  5
4493
330
3881
100
AcDbEntity
  8
0
100
AcDbVertex
100
AcDb2dVertex
 10
6.112440117483156
 20
7.839041793470029
 30
0.0
  0
VERTEX
  5
4494
330
3881
100
AcDbEntity
  8
0
100
AcDbVertex
100
AcDb2dVertex
 10
6.096692085987093
 20
7.839041793470029
 30
0.0
  0
SEQEND
  5
4495
330
3881
100
AcDbEntity
  8
0
  0
LINE
  5
3888
330
1E
100
AcDbEntity
  8
0
100
AcDbLine
 10
7.19314877890048
 20
9.020144155674755
 30
0.0
 11
7.159684211971345
 21
9.018175651737745
 31
0.0
  0
LINE
  5
3889
330
1E
100
AcDbEntity
  8
0
100
AcDbLine
 10
7.19314877890048
 20
9.020144155674755
 30
0.0
 11
7.201022794648512
 21
9.016207147800738
 31
0.0
  0
LINE
  5
388A
330
1E
100
AcDbEntity
  8
0
100
AcDbLine
 10
7.201022794648512
 20
9.016207147800738
 30
0.0
 11
7.201022794648512
 21
9.094947305281053
 31
0.0
  0
LINE
  5
388B
330
1E
100
AcDbEntity
  8
0
100
AcDbLine
 10
7.201022794648512
 20
9.094947305281053
 30
0.0
 11
7.159684211971345
 21
9.092978801344045
 31
0.0
  0
LINE
  5
388C
330
1E
100
AcDbEntity
  8
0
100
AcDbLine
 10
7.204959802522527
 20
9.010301635989714
 30
0.0
 11
7.201022794648512
 21
9.016207147800738
 31
0.0
  0
LINE
  5
388D
330
1E
100
AcDbEntity
  8
0
100
AcDbLine
 10
7.201022794648512
 20
9.094947305281053
 30
0.0
 11
7.204959802522527
 21
9.094947305281053
 31
0.0
  0
LINE
  5
388E
330
1E
100
AcDbEntity
  8
0
100
AcDbLine
 10
7.201022794648512
 20
8.667781950950343
 30
0.0
 11
7.159684211971345
 21
8.669750454887353
 31
0.0
  0
LINE
  5
388F
330
1E
100
AcDbEntity
  8
0
100
AcDbLine
 10
7.201022794648512
 20
8.667781950950343
 30
0.0
 11
7.201022794648512
 21
8.74652210843066
 31
0.0
  0
LINE
  5
3890
330
1E
100
AcDbEntity
  8
0
100
AcDbLine
 10
7.201022794648512
 20
8.74652210843066
 30
0.0
 11
7.19314877890048
 21
8.744553604493651
 31
0.0
  0
LINE
  5
3891
330
1E
100
AcDbEntity
  8
0
100
AcDbLine
 10
7.19314877890048
 20
8.744553604493651
 30
0.0
 11
7.159684211971345
 21
8.744553604493651
 31
0.0
  0
LINE
  5
3892
330
1E
100
AcDbEntity
  8
0
100
AcDbLine
 10
7.204959802522527
 20
8.667781950950343
 30
0.0
 11
7.201022794648512
 21
8.667781950950343
 31
0.0
  0
LINE
  5
3893
330
1E
100
AcDbEntity
  8
0
100
AcDbLine
 10
7.201022794648512
 20
8.74652210843066
 30
0.0
 11
7.204959802522527
 21
8.754396124178692
 31
0.0
  0
LINE
  5
3894
330
1E
100
AcDbEntity
  8
0
100
AcDbLine
 10
7.264014920632764
 20
9.09691580921806
 30
0.0
 11
7.204959802522527
 21
9.094947305281053
 31
0.0
  0
LINE
  5
3895
330
1E
100
AcDbEntity
  8
0
100
AcDbLine
 10
7.204959802522527
 20
9.094947305281053
 30
0.0
 11
7.204959802522527
 21
8.667781950950343
 31
0.0
  0
LINE
  5
3896
330
1E
100
AcDbEntity
  8
0
100
AcDbLine
 10
7.264014920632764
 20
8.665813447013336
 30
0.0
 11
7.204959802522527
 21
8.667781950950343
 31
0.0
  0
LINE
  5
3897
330
1E
100
AcDbEntity
  8
0
100
AcDbLine
 10
7.264014920632764
 20
9.09691580921806
 30
0.0
 11
7.264014920632764
 21
8.665813447013336
 31
0.0
  0
LINE
  5
3898
330
1E
100
AcDbEntity
  8
0
100
AcDbLine
 10
7.201022794648512
 20
4.362663840714123
 30
0.0
 11
7.159684211971345
 21
4.362663840714123
 31
0.0
  0
LINE
  5
3899
330
1E
100
AcDbEntity
  8
0
100
AcDbLine
 10
7.19314877890048
 20
4.287860691107825
 30
0.0
 11
7.159684211971345
 21
4.287860691107825
 31
0.0
  0
LINE
  5
389A
330
1E
100
AcDbEntity
  8
0
100
AcDbLine
 10
7.19314877890048
 20
4.287860691107825
 30
0.0
 11
7.201022794648512
 21
4.285892187170817
 31
0.0
  0
LINE
  5
389B
330
1E
100
AcDbEntity
  8
0
100
AcDbLine
 10
7.201022794648512
 20
4.285892187170817
 30
0.0
 11
7.201022794648512
 21
4.362663840714123
 31
0.0
  0
LINE
  5
389C
330
1E
100
AcDbEntity
  8
0
100
AcDbLine
 10
7.201022794648512
 20
4.362663840714123
 30
0.0
 11
7.204959802522527
 21
4.362663840714123
 31
0.0
  0
LINE
  5
389D
330
1E
100
AcDbEntity
  8
0
100
AcDbLine
 10
7.201022794648512
 20
4.285892187170817
 30
0.0
 11
7.204959802522527
 21
4.278018171422786
 31
0.0
  0
LINE
  5
389E
330
1E
100
AcDbEntity
  8
0
100
AcDbLine
 10
7.201022794648512
 20
3.937466990320423
 30
0.0
 11
7.201022794648512
 21
4.016207147800738
 31
0.0
  0
LINE
  5
389F
330
1E
100
AcDbEntity
  8
0
100
AcDbLine
 10
7.204959802522527
 20
3.937466990320423
 30
0.0
 11
7.201022794648512
 21
3.937466990320423
 31
0.0
  0
LINE
  5
38A0
330
1E
100
AcDbEntity
  8
0
100
AcDbLine
 10
7.201022794648512
 20
4.016207147800738
 30
0.0
 11
7.204959802522527
 21
4.022112659611762
 31
0.0
  0
LINE
  5
38A1
330
1E
100
AcDbEntity
  8
0
100
AcDbLine
 10
7.204959802522527
 20
4.362663840714123
 30
0.0
 11
7.204959802522527
 21
3.937466990320423
 31
0.0
  0
LINE
  5
38A2
330
1E
100
AcDbEntity
  8
0
100
AcDbLine
 10
7.264014920632764
 20
3.935498486383416
 30
0.0
 11
7.204959802522527
 21
3.937466990320423
 31
0.0
  0
LINE
  5
38A3
330
1E
100
AcDbEntity
  8
0
100
AcDbLine
 10
7.264014920632764
 20
4.36660084858814
 30
0.0
 11
7.264014920632764
 21
3.935498486383416
 31
0.0
  0
LINE
  5
38A4
330
1E
100
AcDbEntity
  8
0
100
AcDbLine
 10
7.264014920632764
 20
4.36660084858814
 30
0.0
 11
7.204959802522527
 21
4.362663840714123
 31
0.0
  0
LINE
  5
38A5
330
1E
100
AcDbEntity
  8
0
100
AcDbLine
 10
7.19314877890048
 20
4.012270139926723
 30
0.0
 11
7.159684211971345
 21
4.01423864386373
 31
0.0
  0
LINE
  5
38A6
330
1E
100
AcDbEntity
  8
0
100
AcDbLine
 10
7.201022794648512
 20
3.937466990320423
 30
0.0
 11
7.159684211971345
 21
3.939435494257431
 31
0.0
  0
LINE
  5
38A7
330
1E
100
AcDbEntity
  8
0
100
AcDbLine
 10
7.201022794648512
 20
4.016207147800738
 30
0.0
 11
7.19314877890048
 21
4.012270139926723
 31
0.0
  0
LINE
  5
38A8
330
1E
100
AcDbEntity
  8
0
100
AcDbLine
 10
7.175432243467408
 20
8.744553604493651
 30
0.0
 11
7.175432243467408
 21
9.018175651737745
 31
0.0
  0
LINE
  5
38A9
330
1E
100
AcDbEntity
  8
0
100
AcDbLine
 10
7.175432243467408
 20
8.811482738351919
 30
0.0
 11
7.159684211971345
 21
8.811482738351919
 31
0.0
  0
LINE
  5
38AA
330
1E
100
AcDbEntity
  8
0
100
AcDbLine
 10
7.175432243467408
 20
8.986679588745619
 30
0.0
 11
7.159684211971345
 21
8.986679588745619
 31
0.0
  0
LINE
  5
38AB
330
1E
100
AcDbEntity
  8
0
100
AcDbLine
 10
7.159684211971345
 20
9.016207147800738
 30
0.0
 11
7.197085786774495
 21
9.020144155674755
 31
0.0
  0
LINE
  5
38AC
330
1E
100
AcDbEntity
  8
0
100
AcDbLine
 10
7.264014920632764
 20
8.655970927328297
 30
0.0
 11
7.264014920632764
 21
8.665813447013336
 31
0.0
  0
LINE
  5
38AD
330
1E
100
AcDbEntity
  8
0
100
AcDbLine
 10
7.197085786774495
 20
8.744553604493651
 30
0.0
 11
7.159684211971345
 21
8.74652210843066
 31
0.0
  0
LINE
  5
38AE
330
1E
100
AcDbEntity
  8
0
100
AcDbLine
 10
7.264014920632764
 20
9.09691580921806
 30
0.0
 11
7.264014920632764
 21
9.106758328903101
 31
0.0
  0
LINE
  5
38AF
330
1E
100
AcDbEntity
  8
0
100
AcDbLine
 10
7.264014920632764
 20
4.36660084858814
 30
0.0
 11
7.264014920632764
 21
4.376443368273179
 31
0.0
  0
LINE
  5
38B0
330
1E
100
AcDbEntity
  8
0
100
AcDbLine
 10
7.264014920632764
 20
3.925655966698375
 30
0.0
 11
7.264014920632764
 21
3.935498486383416
 31
0.0
  0
LINE
  5
38B1
330
1E
100
AcDbEntity
  8
0
100
AcDbLine
 10
7.197085786774495
 20
4.012270139926723
 30
0.0
 11
7.159684211971345
 21
4.016207147800738
 31
0.0
  0
LINE
  5
38B2
330
1E
100
AcDbEntity
  8
0
100
AcDbLine
 10
7.197085786774495
 20
4.287860691107825
 30
0.0
 11
7.159684211971345
 21
4.285892187170817
 31
0.0
  0
LINE
  5
38B3
330
1E
100
AcDbEntity
  8
0
100
AcDbLine
 10
-1.499764606926291
 20
2.435498486383416
 30
0.0
 11
-1.499764606926291
 21
2.425655966698376
 31
0.0
  0
LINE
  5
38B4
330
1E
100
AcDbEntity
  8
0
100
AcDbLine
 10
2.232518857640637
 20
2.425655966698376
 30
0.0
 11
2.232518857640637
 21
2.435498486383416
 31
0.0
  0
LINE
  5
38B5
330
1E
100
AcDbEntity
  8
0
100
AcDbLine
 10
0.1498416922863068
 20
2.173687462761368
 30
0.0
 11
0.1537787001603226
 21
1.957152029690502
 31
0.0
  0
LINE
  5
38B6
330
1E
100
AcDbEntity
  8
0
100
AcDbLine
 10
0.5809440544910319
 20
1.957152029690502
 30
0.0
 11
0.5848810623650476
 21
2.173687462761368
 31
0.0
  0
LINE
  5
38B7
330
1E
100
AcDbEntity
  8
0
100
AcDbLine
 10
-0.1533079140129052
 20
1.888254391895226
 30
0.0
 11
-0.1611819297609367
 21
1.528018171422785
 31
0.0
  0
LINE
  5
38B8
330
1E
100
AcDbEntity
  8
0
100
AcDbLine
 10
0.895904684412291
 20
1.528018171422785
 30
0.0
 11
0.8880306686642596
 21
1.888254391895226
 31
0.0
  0
LINE
  5
38B9
330
1E
100
AcDbEntity
  8
0
100
AcDbLine
 10
1.561259015120953
 20
1.888254391895226
 30
0.0
 11
1.561259015120953
 21
1.817388250162943
 31
0.0
  0
LINE
  5
38BA
330
1E
100
AcDbEntity
  8
0
100
AcDbLine
 10
1.557322007246937
 20
1.677624470635384
 30
0.0
 11
1.555353503309929
 21
1.528018171422785
 31
0.0
  0
LINE
  5
38BB
330
1E
100
AcDbEntity
  8
0
100
AcDbLine
 10
-0.8206307486585746
 20
1.528018171422785
 30
0.0
 11
-0.8245677565325904
 21
1.677624470635384
 31
0.0
  0
LINE
  5
38BC
330
1E
100
AcDbEntity
  8
0
100
AcDbLine
 10
-0.8265362604695987
 20
1.815419746225935
 30
0.0
 11
-0.8265362604695987
 21
1.888254391895226
 31
0.0
  0
POLYLINE
  5
38BD
330
1E
100
AcDbEntity
  8
0
100
AcDb2dPolyline
 66
     1
 10
0.0
 20
0.0
 30
0.0
  0
VERTEX
  5
4496
330
38BD
100
AcDbEntity
  8
0
100
AcDbVertex
100
AcDb2dVertex
 10
0.5514164954359134
 20
1.927624470635384
 30
0.0
  0
VERTEX
  5
4497
330
38BD
100
AcDbEntity
  8
0
100
AcDbVertex
100
AcDb2dVertex
 10
0.5711015348059921
 20
1.937466990320423
 30
0.0
  0
VERTEX
  5
4498
330
38BD
100
AcDbEntity
  8
0
100
AcDbVertex
100
AcDb2dVertex
 10
0.5809440544910319
 20
1.957152029690502
 30
0.0
  0
SEQEND
  5
4499
330
38BD
100
AcDbEntity
  8
0
  0
POLYLINE
  5
38C2
330
1E
100
AcDbEntity
  8
0
100
AcDb2dPolyline
 66
     1
 10
0.0
 20
0.0
 30
0.0
  0
VERTEX
  5
449A
330
38C2
100
AcDbEntity
  8
0
100
AcDbVertex
100
AcDb2dVertex
 10
0.1537787001603226
 20
1.957152029690502
 30
0.0
  0
VERTEX
  5
449B
330
38C2
100
AcDbEntity
  8
0
100
AcDbVertex
100
AcDb2dVertex
 10
0.1616527159083541
 20
1.937466990320423
 30
0.0
  0
VERTEX
  5
449C
330
38C2
100
AcDbEntity
  8
0
100
AcDbVertex
100
AcDb2dVertex
 10
0.1833062592154411
 20
1.927624470635384
 30
0.0
  0
SEQEND
  5
449D
330
38C2
100
AcDbEntity
  8
0
  0
POLYLINE
  5
38C7
330
1E
100
AcDbEntity
  8
0
100
AcDb2dPolyline
 66
     1
 10
0.0
 20
0.0
 30
0.0
  0
VERTEX
  5
449E
330
38C7
100
AcDbEntity
  8
0
100
AcDbVertex
100
AcDb2dVertex
 10
0.8880306686642596
 20
1.888254391895226
 30
0.0
  0
VERTEX
  5
449F
330
38C7
100
AcDbEntity
  8
0
100
AcDbVertex
100
AcDb2dVertex
 10
0.8860621647272521
 20
1.896128407643257
 30
0.0
  0
VERTEX
  5
44A0
330
38C7
100
AcDbEntity
  8
0
100
AcDbVertex
100
AcDb2dVertex
 10
0.8781881489792207
 20
1.898096911580266
 30
0.0
  0
SEQEND
  5
44A1
330
38C7
100
AcDbEntity
  8
0
  0
POLYLINE
  5
38CC
330
1E
100
AcDbEntity
  8
0
100
AcDb2dPolyline
 66
     1
 10
0.0
 20
0.0
 30
0.0
  0
VERTEX
  5
44A2
330
38CC
100
AcDbEntity
  8
0
100
AcDbVertex
100
AcDb2dVertex
 10
-0.1434653943278663
 20
1.898096911580266
 30
0.0
  0
VERTEX
  5
44A3
330
38CC
100
AcDbEntity
  8
0
100
AcDbVertex
100
AcDb2dVertex
 10
-0.1513394100758978
 20
1.896128407643257
 30
0.0
  0
VERTEX
  5
44A4
330
38CC
100
AcDbEntity
  8
0
100
AcDbVertex
100
AcDb2dVertex
 10
-0.1533079140129052
 20
1.888254391895226
 30
0.0
  0
SEQEND
  5
44A5
330
38CC
100
AcDbEntity
  8
0
  0
POLYLINE
  5
38D1
330
1E
100
AcDbEntity
  8
0
100
AcDb2dPolyline
 66
     1
 10
0.0
 20
0.0
 30
0.0
  0
VERTEX
  5
44A6
330
38D1
100
AcDbEntity
  8
0
100
AcDbVertex
100
AcDb2dVertex
 10
1.571101534805992
 20
1.898096911580266
 30
0.0
  0
VERTEX
  5
44A7
330
38D1
100
AcDbEntity
  8
0
100
AcDbVertex
100
AcDb2dVertex
 10
1.565196022994968
 20
1.896128407643257
 30
0.0
  0
VERTEX
  5
44A8
330
38D1
100
AcDbEntity
  8
0
100
AcDbVertex
100
AcDb2dVertex
 10
1.561259015120953
 20
1.888254391895226
 30
0.0
  0
SEQEND
  5
44A9
330
38D1
100
AcDbEntity
  8
0
  0
POLYLINE
  5
38D6
330
1E
100
AcDbEntity
  8
0
100
AcDb2dPolyline
 66
     1
 10
0.0
 20
0.0
 30
0.0
  0
VERTEX
  5
44AA
330
38D6
100
AcDbEntity
  8
0
100
AcDbVertex
100
AcDb2dVertex
 10
-0.8265362604695987
 20
1.888254391895226
 30
0.0
  0
VERTEX
  5
44AB
330
38D6
100
AcDbEntity
  8
0
100
AcDbVertex
100
AcDb2dVertex
 10
-0.8304732683436144
 20
1.896128407643257
 30
0.0
  0
VERTEX
  5
44AC
330
38D6
100
AcDbEntity
  8
0
100
AcDbVertex
100
AcDb2dVertex
 10
-0.8363787801546376
 20
1.898096911580266
 30
0.0
  0
SEQEND
  5
44AD
330
38D6
100
AcDbEntity
  8
0
  0
POLYLINE
  5
38DB
330
1E
100
AcDbEntity
  8
0
100
AcDb2dPolyline
 66
     1
 10
0.0
 20
0.0
 30
0.0
  0
VERTEX
  5
44AE
330
38DB
100
AcDbEntity
  8
0
100
AcDbVertex
100
AcDb2dVertex
 10
0.5120464166957559
 20
1.898096911580266
 30
0.0
  0
VERTEX
  5
44AF
330
38DB
100
AcDbEntity
  8
0
100
AcDbVertex
100
AcDb2dVertex
 10
0.5002353930737087
 20
1.91187643913932
 30
0.0
  0
VERTEX
  5
44B0
330
38DB
100
AcDbEntity
  8
0
100
AcDbVertex
100
AcDb2dVertex
 10
0.4844873615776458
 20
1.917781950950344
 30
0.0
  0
SEQEND
  5
44B1
330
38DB
100
AcDbEntity
  8
0
  0
POLYLINE
  5
38E0
330
1E
100
AcDbEntity
  8
0
100
AcDb2dPolyline
 66
     1
 10
0.0
 20
0.0
 30
0.0
  0
VERTEX
  5
44B2
330
38E0
100
AcDbEntity
  8
0
100
AcDbVertex
100
AcDb2dVertex
 10
0.2502353930737087
 20
1.917781950950344
 30
0.0
  0
VERTEX
  5
44B3
330
38E0
100
AcDbEntity
  8
0
100
AcDbVertex
100
AcDb2dVertex
 10
0.2325188576406383
 20
1.91187643913932
 30
0.0
  0
VERTEX
  5
44B4
330
38E0
100
AcDbEntity
  8
0
100
AcDbVertex
100
AcDb2dVertex
 10
0.2226763379555985
 20
1.898096911580266
 30
0.0
  0
SEQEND
  5
44B5
330
38E0
100
AcDbEntity
  8
0
  0
POLYLINE
  5
38E5
330
1E
100
AcDbEntity
  8
0
100
AcDb2dPolyline
 66
     1
 10
0.0
 20
0.0
 30
0.0
  0
VERTEX
  5
44B6
330
38E5
100
AcDbEntity
  8
0
100
AcDbVertex
100
AcDb2dVertex
 10
1.077007046617016
 20
1.703215021816486
 30
0.0
  0
VERTEX
  5
44B7
330
38E5
100
AcDbEntity
  8
0
100
AcDbVertex
100
AcDb2dVertex
 10
1.078975550554023
 20
1.713057541501526
 30
0.0
  0
VERTEX
  5
44B8
330
38E5
100
AcDbEntity
  8
0
100
AcDbVertex
100
AcDb2dVertex
 10
1.106534605672133
 20
1.778018171422785
 30
0.0
  0
VERTEX
  5
44B9
330
38E5
100
AcDbEntity
  8
0
100
AcDbVertex
100
AcDb2dVertex
 10
1.157715708034338
 20
1.833136281659005
 30
0.0
  0
VERTEX
  5
44BA
330
38E5
100
AcDbEntity
  8
0
100
AcDbVertex
100
AcDb2dVertex
 10
1.224644841892605
 20
1.864632344651131
 30
0.0
  0
SEQEND
  5
44BB
330
38E5
100
AcDbEntity
  8
0
  0
LINE
  5
38EC
330
1E
100
AcDbEntity
  8
0
100
AcDbLine
 10
1.234487361577645
 20
1.86660084858814
 30
0.0
 11
1.29551098362489
 21
1.876443368273179
 31
0.0
  0
POLYLINE
  5
38ED
330
1E
100
AcDbEntity
  8
0
100
AcDb2dPolyline
 66
     1
 10
0.0
 20
0.0
 30
0.0
  0
VERTEX
  5
44BC
330
38ED
100
AcDbEntity
  8
0
100
AcDbVertex
100
AcDb2dVertex
 10
1.29551098362489
 20
1.876443368273179
 30
0.0
  0
VERTEX
  5
44BD
330
38ED
100
AcDbEntity
  8
0
100
AcDbVertex
100
AcDb2dVertex
 10
1.510077912758748
 20
1.876443368273179
 30
0.0
  0
VERTEX
  5
44BE
330
38ED
100
AcDbEntity
  8
0
100
AcDbVertex
100
AcDb2dVertex
 10
1.561259015120953
 20
1.876443368273179
 30
0.0
  0
SEQEND
  5
44BF
330
38ED
100
AcDbEntity
  8
0
  0
LINE
  5
38F2
330
1E
100
AcDbEntity
  8
0
100
AcDbLine
 10
1.828975550554023
 20
1.876443368273179
 30
0.0
 11
1.921495235593393
 21
1.876443368273179
 31
0.0
  0
POLYLINE
  5
38F3
330
1E
100
AcDbEntity
  8
0
100
AcDb2dPolyline
 66
     1
 10
0.0
 20
0.0
 30
0.0
  0
VERTEX
  5
44C0
330
38F3
100
AcDbEntity
  8
0
100
AcDbVertex
100
AcDb2dVertex
 10
2.136062164727252
 20
1.703215021816486
 30
0.0
  0
VERTEX
  5
44C1
330
38F3
100
AcDbEntity
  8
0
100
AcDbVertex
100
AcDb2dVertex
 10
2.122282637168196
 20
1.754396124178691
 30
0.0
  0
VERTEX
  5
44C2
330
38F3
100
AcDbEntity
  8
0
100
AcDbVertex
100
AcDb2dVertex
 10
2.084881062365047
 20
1.809514234414911
 30
0.0
  0
VERTEX
  5
44C3
330
38F3
100
AcDbEntity
  8
0
100
AcDbVertex
100
AcDb2dVertex
 10
2.029762952128827
 20
1.850852817092077
 30
0.0
  0
VERTEX
  5
44C4
330
38F3
100
AcDbEntity
  8
0
100
AcDbVertex
100
AcDb2dVertex
 10
1.960865314333551
 20
1.872506360399163
 30
0.0
  0
VERTEX
  5
44C5
330
38F3
100
AcDbEntity
  8
0
100
AcDbVertex
100
AcDb2dVertex
 10
1.921495235593393
 20
1.876443368273179
 30
0.0
  0
SEQEND
  5
44C6
330
38F3
100
AcDbEntity
  8
0
  0
LINE
  5
38FB
330
1E
100
AcDbEntity
  8
0
100
AcDbLine
 10
2.281731456065834
 20
1.95912053362751
 30
0.0
 11
2.289605471813866
 21
1.703215021816486
 31
0.0
  0
POLYLINE
  5
38FC
330
1E
100
AcDbEntity
  8
0
100
AcDb2dPolyline
 66
     1
 10
0.0
 20
0.0
 30
0.0
  0
VERTEX
  5
44C7
330
38FC
100
AcDbEntity
  8
0
100
AcDbVertex
100
AcDb2dVertex
 10
2.157715708034338
 20
2.077230769847982
 30
0.0
  0
VERTEX
  5
44C8
330
38FC
100
AcDbEntity
  8
0
100
AcDbVertex
100
AcDb2dVertex
 10
2.199054290711504
 20
2.071325258036958
 30
0.0
  0
VERTEX
  5
44C9
330
38FC
100
AcDbEntity
  8
0
100
AcDbVertex
100
AcDb2dVertex
 10
2.234487361577645
 20
2.05164021866688
 30
0.0
  0
VERTEX
  5
44CA
330
38FC
100
AcDbEntity
  8
0
100
AcDbVertex
100
AcDb2dVertex
 10
2.262046416695755
 20
2.020144155674754
 30
0.0
  0
VERTEX
  5
44CB
330
38FC
100
AcDbEntity
  8
0
100
AcDbVertex
100
AcDb2dVertex
 10
2.277794448191818
 20
1.982742580871605
 30
0.0
  0
VERTEX
  5
44CC
330
38FC
100
AcDbEntity
  8
0
100
AcDbVertex
100
AcDb2dVertex
 10
2.281731456065834
 20
1.95912053362751
 30
0.0
  0
SEQEND
  5
44CD
330
38FC
100
AcDbEntity
  8
0
  0
LINE
  5
3904
330
1E
100
AcDbEntity
  8
0
100
AcDbLine
 10
2.157715708034338
 20
2.077230769847982
 30
0.0
 11
1.712833818270558
 21
2.077230769847982
 31
0.0
  0
POLYLINE
  5
3905
330
1E
100
AcDbEntity
  8
0
100
AcDb2dPolyline
 66
     1
 10
0.0
 20
0.0
 30
0.0
  0
VERTEX
  5
44CE
330
3905
100
AcDbEntity
  8
0
100
AcDbVertex
100
AcDb2dVertex
 10
1.641967676538275
 20
2.077230769847982
 30
0.0
  0
VERTEX
  5
44CF
330
3905
100
AcDbEntity
  8
0
100
AcDbVertex
100
AcDb2dVertex
 10
1.612440117483157
 20
2.077230769847982
 30
0.0
  0
VERTEX
  5
44D0
330
3905
100
AcDbEntity
  8
0
100
AcDbVertex
100
AcDb2dVertex
 10
1.334881062365047
 20
2.077230769847982
 30
0.0
  0
VERTEX
  5
44D1
330
3905
100
AcDbEntity
  8
0
100
AcDbVertex
100
AcDb2dVertex
 10
1.057322007246937
 20
2.077230769847982
 30
0.0
  0
SEQEND
  5
44D2
330
3905
100
AcDbEntity
  8
0
  0
POLYLINE
  5
390B
330
1E
100
AcDbEntity
  8
0
100
AcDb2dPolyline
 66
     1
 10
0.0
 20
0.0
 30
0.0
  0
VERTEX
  5
44D3
330
390B
100
AcDbEntity
  8
0
100
AcDbVertex
100
AcDb2dVertex
 10
0.986455865514654
 20
2.053608722603888
 30
0.0
  0
VERTEX
  5
44D4
330
390B
100
AcDbEntity
  8
0
100
AcDbVertex
100
AcDb2dVertex
 10
0.9628338182705586
 20
2.033923683233809
 30
0.0
  0
VERTEX
  5
44D5
330
390B
100
AcDbEntity
  8
0
100
AcDbVertex
100
AcDb2dVertex
 10
0.9431487789004799
 20
1.998490612367668
 30
0.0
  0
VERTEX
  5
44D6
330
390B
100
AcDbEntity
  8
0
100
AcDbVertex
100
AcDb2dVertex
 10
0.9352747631524485
 20
1.95912053362751
 30
0.0
  0
SEQEND
  5
44D7
330
390B
100
AcDbEntity
  8
0
  0
LINE
  5
3911
330
1E
100
AcDbEntity
  8
0
100
AcDbLine
 10
0.9352747631524485
 20
1.95912053362751
 30
0.0
 11
0.9254322434674095
 21
1.703215021816486
 31
0.0
  0
POLYLINE
  5
3912
330
1E
100
AcDbEntity
  8
0
100
AcDb2dPolyline
 66
     1
 10
0.0
 20
0.0
 30
0.0
  0
VERTEX
  5
44D8
330
3912
100
AcDbEntity
  8
0
100
AcDbVertex
100
AcDb2dVertex
 10
-0.3422842919656617
 20
1.703215021816486
 30
0.0
  0
VERTEX
  5
44D9
330
3912
100
AcDbEntity
  8
0
100
AcDbVertex
100
AcDb2dVertex
 10
-0.3442527959026691
 20
1.713057541501526
 30
0.0
  0
VERTEX
  5
44DA
330
3912
100
AcDbEntity
  8
0
100
AcDbVertex
100
AcDb2dVertex
 10
-0.3718118510207793
 20
1.778018171422785
 30
0.0
  0
VERTEX
  5
44DB
330
3912
100
AcDbEntity
  8
0
100
AcDbVertex
100
AcDb2dVertex
 10
-0.422992953382984
 20
1.833136281659005
 30
0.0
  0
VERTEX
  5
44DC
330
3912
100
AcDbEntity
  8
0
100
AcDbVertex
100
AcDb2dVertex
 10
-0.4899220872412516
 20
1.864632344651131
 30
0.0
  0
SEQEND
  5
44DD
330
3912
100
AcDbEntity
  8
0
  0
LINE
  5
3919
330
1E
100
AcDbEntity
  8
0
100
AcDbLine
 10
-0.4997646069262914
 20
1.86660084858814
 30
0.0
 11
-0.5607882289735358
 21
1.876443368273179
 31
0.0
  0
LINE
  5
391A
330
1E
100
AcDbEntity
  8
0
100
AcDbLine
 10
-0.2005520085010941
 20
1.95912053362751
 30
0.0
 11
-0.1907094888160552
 21
1.703215021816486
 31
0.0
  0
POLYLINE
  5
391B
330
1E
100
AcDbEntity
  8
0
100
AcDb2dPolyline
 66
     1
 10
0.0
 20
0.0
 30
0.0
  0
VERTEX
  5
44DE
330
391B
100
AcDbEntity
  8
0
100
AcDbVertex
100
AcDb2dVertex
 10
-0.2517331108632987
 20
2.053608722603888
 30
0.0
  0
VERTEX
  5
44DF
330
391B
100
AcDbEntity
  8
0
100
AcDbVertex
100
AcDb2dVertex
 10
-0.2281110636192043
 20
2.033923683233809
 30
0.0
  0
VERTEX
  5
44E0
330
391B
100
AcDbEntity
  8
0
100
AcDbVertex
100
AcDb2dVertex
 10
-0.2084260242491256
 20
1.998490612367668
 30
0.0
  0
VERTEX
  5
44E1
330
391B
100
AcDbEntity
  8
0
100
AcDbVertex
100
AcDb2dVertex
 10
-0.2005520085010941
 20
1.95912053362751
 30
0.0
  0
SEQEND
  5
44E2
330
391B
100
AcDbEntity
  8
0
  0
LINE
  5
3921
330
1E
100
AcDbEntity
  8
0
100
AcDbLine
 10
-1.422992953382983
 20
2.077230769847982
 30
0.0
 11
-0.9781110636192043
 21
2.077230769847982
 31
0.0
  0
POLYLINE
  5
3922
330
1E
100
AcDbEntity
  8
0
100
AcDb2dPolyline
 66
     1
 10
0.0
 20
0.0
 30
0.0
  0
VERTEX
  5
44E3
330
3922
100
AcDbEntity
  8
0
100
AcDbVertex
100
AcDb2dVertex
 10
-0.9072449218869209
 20
2.077230769847982
 30
0.0
  0
VERTEX
  5
44E4
330
3922
100
AcDbEntity
  8
0
100
AcDbVertex
100
AcDb2dVertex
 10
-0.8777173628318033
 20
2.077230769847982
 30
0.0
  0
VERTEX
  5
44E5
330
3922
100
AcDbEntity
  8
0
100
AcDbVertex
100
AcDb2dVertex
 10
-0.6001583077136932
 20
2.077230769847982
 30
0.0
  0
VERTEX
  5
44E6
330
3922
100
AcDbEntity
  8
0
100
AcDbVertex
100
AcDb2dVertex
 10
-0.322599252595583
 20
2.077230769847982
 30
0.0
  0
SEQEND
  5
44E7
330
3922
100
AcDbEntity
  8
0
  0
POLYLINE
  5
3928
330
1E
100
AcDbEntity
  8
0
100
AcDb2dPolyline
 66
     1
 10
0.0
 20
0.0
 30
0.0
  0
VERTEX
  5
44E8
330
3928
100
AcDbEntity
  8
0
100
AcDbVertex
100
AcDb2dVertex
 10
-1.422992953382984
 20
2.077230769847982
 30
0.0
  0
VERTEX
  5
44E9
330
3928
100
AcDbEntity
  8
0
100
AcDbVertex
100
AcDb2dVertex
 10
-1.464331536060149
 20
2.071325258036958
 30
0.0
  0
VERTEX
  5
44EA
330
3928
100
AcDbEntity
  8
0
100
AcDbVertex
100
AcDb2dVertex
 10
-1.501733110863299
 20
2.05164021866688
 30
0.0
  0
VERTEX
  5
44EB
330
3928
100
AcDbEntity
  8
0
100
AcDbVertex
100
AcDb2dVertex
 10
-1.529292165981409
 20
2.020144155674754
 30
0.0
  0
VERTEX
  5
44EC
330
3928
100
AcDbEntity
  8
0
100
AcDbVertex
100
AcDb2dVertex
 10
-1.543071693540464
 20
1.982742580871605
 30
0.0
  0
VERTEX
  5
44ED
330
3928
100
AcDbEntity
  8
0
100
AcDbVertex
100
AcDb2dVertex
 10
-1.54700870141448
 20
1.95912053362751
 30
0.0
  0
SEQEND
  5
44EE
330
3928
100
AcDbEntity
  8
0
  0
LINE
  5
3930
330
1E
100
AcDbEntity
  8
0
100
AcDbLine
 10
-1.54700870141448
 20
1.95912053362751
 30
0.0
 11
-1.554882717162511
 21
1.703215021816486
 31
0.0
  0
POLYLINE
  5
3931
330
1E
100
AcDbEntity
  8
0
100
AcDb2dPolyline
 66
     1
 10
0.0
 20
0.0
 30
0.0
  0
VERTEX
  5
44EF
330
3931
100
AcDbEntity
  8
0
100
AcDbVertex
100
AcDb2dVertex
 10
-1.401339410075897
 20
1.703215021816486
 30
0.0
  0
VERTEX
  5
44F0
330
3931
100
AcDbEntity
  8
0
100
AcDbVertex
100
AcDb2dVertex
 10
-1.387559882516842
 20
1.754396124178691
 30
0.0
  0
VERTEX
  5
44F1
330
3931
100
AcDbEntity
  8
0
100
AcDbVertex
100
AcDb2dVertex
 10
-1.350158307713692
 20
1.809514234414911
 30
0.0
  0
VERTEX
  5
44F2
330
3931
100
AcDbEntity
  8
0
100
AcDbVertex
100
AcDb2dVertex
 10
-1.295040197477472
 20
1.850852817092077
 30
0.0
  0
VERTEX
  5
44F3
330
3931
100
AcDbEntity
  8
0
100
AcDbVertex
100
AcDb2dVertex
 10
-1.226142559682196
 20
1.872506360399163
 30
0.0
  0
VERTEX
  5
44F4
330
3931
100
AcDbEntity
  8
0
100
AcDbVertex
100
AcDb2dVertex
 10
-1.186772480942039
 20
1.876443368273179
 30
0.0
  0
SEQEND
  5
44F5
330
3931
100
AcDbEntity
  8
0
  0
POLYLINE
  5
3939
330
1E
100
AcDbEntity
  8
0
100
AcDb2dPolyline
 66
     1
 10
0.0
 20
0.0
 30
0.0
  0
VERTEX
  5
44F6
330
3939
100
AcDbEntity
  8
0
100
AcDbVertex
100
AcDb2dVertex
 10
-0.5607882289735358
 20
1.876443368273179
 30
0.0
  0
VERTEX
  5
44F7
330
3939
100
AcDbEntity
  8
0
100
AcDbVertex
100
AcDb2dVertex
 10
-0.7753551581073932
 20
1.876443368273179
 30
0.0
  0
VERTEX
  5
44F8
330
3939
100
AcDbEntity
  8
0
100
AcDbVertex
100
AcDb2dVertex
 10
-0.8265362604695987
 20
1.876443368273179
 30
0.0
  0
SEQEND
  5
44F9
330
3939
100
AcDbEntity
  8
0
  0
LINE
  5
393E
330
1E
100
AcDbEntity
  8
0
100
AcDbLine
 10
-1.100158307713693
 20
1.876443368273179
 30
0.0
 11
-1.186772480942039
 21
1.876443368273179
 31
0.0
  0
LINE
  5
393F
330
1E
100
AcDbEntity
  8
0
100
AcDbLine
 10
-1.678898465194007
 20
1.238648092682628
 30
0.0
 11
-1.984016575430228
 21
1.238648092682628
 31
0.0
  0
POLYLINE
  5
3940
330
1E
100
AcDbEntity
  8
0
100
AcDb2dPolyline
 66
     1
 10
0.0
 20
0.0
 30
0.0
  0
VERTEX
  5
44FA
330
3940
100
AcDbEntity
  8
0
100
AcDbVertex
100
AcDb2dVertex
 10
-1.749764606926291
 20
2.405970927328297
 30
0.0
  0
VERTEX
  5
44FB
330
3940
100
AcDbEntity
  8
0
100
AcDbVertex
100
AcDb2dVertex
 10
-1.145433898264873
 20
2.451246517879479
 30
0.0
  0
VERTEX
  5
44FC
330
3940
100
AcDbEntity
  8
0
100
AcDbVertex
100
AcDb2dVertex
 10
-0.5411031896034571
 20
2.480774076934596
 30
0.0
  0
VERTEX
  5
44FD
330
3940
100
AcDbEntity
  8
0
100
AcDbVertex
100
AcDb2dVertex
 10
0.0651960229949689
 20
2.496522108430659
 30
0.0
  0
VERTEX
  5
44FE
330
3940
100
AcDbEntity
  8
0
100
AcDbVertex
100
AcDb2dVertex
 10
0.6695267316563856
 20
2.496522108430659
 30
0.0
  0
VERTEX
  5
44FF
330
3940
100
AcDbEntity
  8
0
100
AcDbVertex
100
AcDb2dVertex
 10
1.275825944254811
 20
2.480774076934596
 30
0.0
  0
VERTEX
  5
4500
330
3940
100
AcDbEntity
  8
0
100
AcDbVertex
100
AcDb2dVertex
 10
1.880156652916228
 20
2.451246517879479
 30
0.0
  0
VERTEX
  5
4501
330
3940
100
AcDbEntity
  8
0
100
AcDbVertex
100
AcDb2dVertex
 10
2.484487361577645
 20
2.405970927328297
 30
0.0
  0
SEQEND
  5
4502
330
3940
100
AcDbEntity
  8
0
  0
POLYLINE
  5
394A
330
1E
100
AcDbEntity
  8
0
100
AcDb2dPolyline
 66
     1
 10
0.0
 20
0.0
 30
0.0
  0
VERTEX
  5
4503
330
394A
100
AcDbEntity
  8
0
100
AcDbVertex
100
AcDb2dVertex
 10
-0.428898465194008
 20
1.703215021816486
 30
0.0
  0
VERTEX
  5
4504
330
394A
100
AcDbEntity
  8
0
100
AcDbVertex
100
AcDb2dVertex
 10
-0.4328354730680238
 20
1.718963053312549
 30
0.0
  0
VERTEX
  5
4505
330
394A
100
AcDbEntity
  8
0
100
AcDbVertex
100
AcDb2dVertex
 10
-0.4859850793672358
 20
1.774081163548769
 30
0.0
  0
SEQEND
  5
4506
330
394A
100
AcDbEntity
  8
0
  0
LINE
  5
394F
330
1E
100
AcDbEntity
  8
0
100
AcDbLine
 10
-1.186772480942039
 20
1.793766202918848
 30
0.0
 11
-1.11984334708377
 21
1.793766202918848
 31
0.0
  0
POLYLINE
  5
3950
330
1E
100
AcDbEntity
  8
0
100
AcDb2dPolyline
 66
     1
 10
0.0
 20
0.0
 30
0.0
  0
VERTEX
  5
4507
330
3950
100
AcDbEntity
  8
0
100
AcDbVertex
100
AcDb2dVertex
 10
-1.318662244721566
 20
1.703215021816486
 30
0.0
  0
VERTEX
  5
4508
330
3950
100
AcDbEntity
  8
0
100
AcDbVertex
100
AcDb2dVertex
 10
-1.306851221099519
 20
1.730774076934596
 30
0.0
  0
VERTEX
  5
4509
330
3950
100
AcDbEntity
  8
0
100
AcDbVertex
100
AcDb2dVertex
 10
-1.277323662044401
 20
1.76423864386373
 30
0.0
  0
VERTEX
  5
450A
330
3950
100
AcDbEntity
  8
0
100
AcDbVertex
100
AcDb2dVertex
 10
-1.235985079367236
 20
1.785892187170817
 30
0.0
  0
VERTEX
  5
450B
330
3950
100
AcDbEntity
  8
0
100
AcDbVertex
100
AcDb2dVertex
 10
-1.186772480942039
 20
1.793766202918848
 30
0.0
  0
SEQEND
  5
450C
330
3950
100
AcDbEntity
  8
0
  0
POLYLINE
  5
3957
330
1E
100
AcDbEntity
  8
0
100
AcDb2dPolyline
 66
     1
 10
0.0
 20
0.0
 30
0.0
  0
VERTEX
  5
450D
330
3957
100
AcDbEntity
  8
0
100
AcDbVertex
100
AcDb2dVertex
 10
-1.239922087241251
 20
1.703215021816486
 30
0.0
  0
VERTEX
  5
450E
330
3957
100
AcDbEntity
  8
0
100
AcDbVertex
100
AcDb2dVertex
 10
-1.237953583304244
 20
1.705183525753494
 30
0.0
  0
VERTEX
  5
450F
330
3957
100
AcDbEntity
  8
0
100
AcDbVertex
100
AcDb2dVertex
 10
-1.196615000627078
 20
1.728805572997589
 30
0.0
  0
VERTEX
  5
4510
330
3957
100
AcDbEntity
  8
0
100
AcDbVertex
100
AcDb2dVertex
 10
-1.13952838645385
 20
1.738648092682628
 30
0.0
  0
SEQEND
  5
4511
330
3957
100
AcDbEntity
  8
0
  0
LINE
  5
395D
330
1E
100
AcDbEntity
  8
0
100
AcDbLine
 10
-1.121811851020779
 20
1.738648092682628
 30
0.0
 11
-1.13952838645385
 21
1.738648092682628
 31
0.0
  0
POLYLINE
  5
395E
330
1E
100
AcDbEntity
  8
0
100
AcDb2dPolyline
 66
     1
 10
0.0
 20
0.0
 30
0.0
  0
VERTEX
  5
4512
330
395E
100
AcDbEntity
  8
0
100
AcDbVertex
100
AcDb2dVertex
 10
1.874251141105204
 20
1.738648092682628
 30
0.0
  0
VERTEX
  5
4513
330
395E
100
AcDbEntity
  8
0
100
AcDbVertex
100
AcDb2dVertex
 10
1.893936180475283
 20
1.73667958874562
 30
0.0
  0
VERTEX
  5
4514
330
395E
100
AcDbEntity
  8
0
100
AcDbVertex
100
AcDb2dVertex
 10
1.972676337955598
 20
1.701246517879479
 30
0.0
  0
SEQEND
  5
4515
330
395E
100
AcDbEntity
  8
0
  0
POLYLINE
  5
3963
330
1E
100
AcDbEntity
  8
0
100
AcDb2dPolyline
 66
     1
 10
0.0
 20
0.0
 30
0.0
  0
VERTEX
  5
4516
330
3963
100
AcDbEntity
  8
0
100
AcDbVertex
100
AcDb2dVertex
 10
1.874251141105204
 20
1.703215021816486
 30
0.0
  0
VERTEX
  5
4517
330
3963
100
AcDbEntity
  8
0
100
AcDbVertex
100
AcDb2dVertex
 10
1.874251141105204
 20
1.718963053312549
 30
0.0
  0
VERTEX
  5
4518
330
3963
100
AcDbEntity
  8
0
100
AcDbVertex
100
AcDb2dVertex
 10
1.874251141105204
 20
1.738648092682628
 30
0.0
  0
SEQEND
  5
4519
330
3963
100
AcDbEntity
  8
0
  0
POLYLINE
  5
3968
330
1E
100
AcDbEntity
  8
0
100
AcDb2dPolyline
 66
     1
 10
0.0
 20
0.0
 30
0.0
  0
VERTEX
  5
451A
330
3968
100
AcDbEntity
  8
0
100
AcDbVertex
100
AcDb2dVertex
 10
1.163621219845362
 20
1.703215021816486
 30
0.0
  0
VERTEX
  5
451B
330
3968
100
AcDbEntity
  8
0
100
AcDbVertex
100
AcDb2dVertex
 10
1.167558227719378
 20
1.718963053312549
 30
0.0
  0
VERTEX
  5
451C
330
3968
100
AcDbEntity
  8
0
100
AcDbVertex
100
AcDb2dVertex
 10
1.22070783401859
 20
1.774081163548769
 30
0.0
  0
SEQEND
  5
451D
330
3968
100
AcDbEntity
  8
0
  0
LINE
  5
396D
330
1E
100
AcDbEntity
  8
0
100
AcDbLine
 10
1.874251141105204
 20
1.738648092682628
 30
0.0
 11
1.856534605672133
 21
1.738648092682628
 31
0.0
  0
POLYLINE
  5
396E
330
1E
100
AcDbEntity
  8
0
100
AcDb2dPolyline
 66
     1
 10
0.0
 20
0.0
 30
0.0
  0
VERTEX
  5
451E
330
396E
100
AcDbEntity
  8
0
100
AcDbVertex
100
AcDb2dVertex
 10
2.053384999372921
 20
1.703215021816486
 30
0.0
  0
VERTEX
  5
451F
330
396E
100
AcDbEntity
  8
0
100
AcDbVertex
100
AcDb2dVertex
 10
2.041573975750874
 20
1.730774076934596
 30
0.0
  0
VERTEX
  5
4520
330
396E
100
AcDbEntity
  8
0
100
AcDbVertex
100
AcDb2dVertex
 10
2.010077912758748
 20
1.76423864386373
 30
0.0
  0
VERTEX
  5
4521
330
396E
100
AcDbEntity
  8
0
100
AcDbVertex
100
AcDb2dVertex
 10
1.97070783401859
 20
1.785892187170817
 30
0.0
  0
VERTEX
  5
4522
330
396E
100
AcDbEntity
  8
0
100
AcDbVertex
100
AcDb2dVertex
 10
1.921495235593393
 20
1.793766202918848
 30
0.0
  0
SEQEND
  5
4523
330
396E
100
AcDbEntity
  8
0
  0
LINE
  5
3975
330
1E
100
AcDbEntity
  8
0
100
AcDbLine
 10
1.921495235593393
 20
1.793766202918848
 30
0.0
 11
1.854566101735126
 21
1.793766202918848
 31
0.0
  0
LINE
  5
3976
330
1E
100
AcDbEntity
  8
0
100
AcDbLine
 10
0.8644086214201651
 20
1.898096911580266
 30
0.0
 11
0.8663771253571734
 21
1.961089037564518
 31
0.0
  0
POLYLINE
  5
3977
330
1E
100
AcDbEntity
  8
0
100
AcDb2dPolyline
 66
     1
 10
0.0
 20
0.0
 30
0.0
  0
VERTEX
  5
4524
330
3977
100
AcDbEntity
  8
0
100
AcDbVertex
100
AcDb2dVertex
 10
0.8663771253571734
 20
1.961089037564518
 30
0.0
  0
VERTEX
  5
4525
330
3977
100
AcDbEntity
  8
0
100
AcDbVertex
100
AcDb2dVertex
 10
0.8742511411052049
 20
2.012270139926722
 30
0.0
  0
VERTEX
  5
4526
330
3977
100
AcDbEntity
  8
0
100
AcDbVertex
100
AcDb2dVertex
 10
0.9018101962233151
 20
2.067388250162943
 30
0.0
  0
VERTEX
  5
4527
330
3977
100
AcDbEntity
  8
0
100
AcDbVertex
100
AcDb2dVertex
 10
0.986455865514654
 20
2.130380376147194
 30
0.0
  0
SEQEND
  5
4528
330
3977
100
AcDbEntity
  8
0
  0
LINE
  5
397D
330
1E
100
AcDbEntity
  8
0
100
AcDbLine
 10
2.157715708034338
 20
2.146128407643257
 30
0.0
 11
1.714802322207567
 21
2.146128407643257
 31
0.0
  0
LINE
  5
397E
330
1E
100
AcDbEntity
  8
0
100
AcDbLine
 10
1.639999172601267
 20
2.146128407643257
 30
0.0
 11
1.059290511183944
 21
2.146128407643257
 31
0.0
  0
POLYLINE
  5
397F
330
1E
100
AcDbEntity
  8
0
100
AcDb2dPolyline
 66
     1
 10
0.0
 20
0.0
 30
0.0
  0
VERTEX
  5
4529
330
397F
100
AcDbEntity
  8
0
100
AcDbVertex
100
AcDb2dVertex
 10
2.291573975750874
 20
2.08904179347003
 30
0.0
  0
VERTEX
  5
452A
330
397F
100
AcDbEntity
  8
0
100
AcDbVertex
100
AcDb2dVertex
 10
2.269920432443787
 20
2.110695336777116
 30
0.0
  0
VERTEX
  5
452B
330
397F
100
AcDbEntity
  8
0
100
AcDbVertex
100
AcDb2dVertex
 10
2.212833818270558
 20
2.138254391895226
 30
0.0
  0
VERTEX
  5
452C
330
397F
100
AcDbEntity
  8
0
100
AcDbVertex
100
AcDb2dVertex
 10
2.157715708034338
 20
2.146128407643257
 30
0.0
  0
SEQEND
  5
452D
330
397F
100
AcDbEntity
  8
0
  0
POLYLINE
  5
3985
330
1E
100
AcDbEntity
  8
0
100
AcDb2dPolyline
 66
     1
 10
0.0
 20
0.0
 30
0.0
  0
VERTEX
  5
452E
330
3985
100
AcDbEntity
  8
0
100
AcDbVertex
100
AcDb2dVertex
 10
2.293542479687881
 20
2.14415990370625
 30
0.0
  0
VERTEX
  5
452F
330
3985
100
AcDbEntity
  8
0
100
AcDbVertex
100
AcDb2dVertex
 10
2.10062909386111
 20
2.159907935202313
 30
0.0
  0
VERTEX
  5
4530
330
3985
100
AcDbEntity
  8
0
100
AcDbVertex
100
AcDb2dVertex
 10
1.907715708034338
 20
2.173687462761368
 30
0.0
  0
SEQEND
  5
4531
330
3985
100
AcDbEntity
  8
0
  0
POLYLINE
  5
398A
330
1E
100
AcDbEntity
  8
0
100
AcDb2dPolyline
 66
     1
 10
0.0
 20
0.0
 30
0.0
  0
VERTEX
  5
4532
330
398A
100
AcDbEntity
  8
0
100
AcDbVertex
100
AcDb2dVertex
 10
-1.172992953382984
 20
2.173687462761368
 30
0.0
  0
VERTEX
  5
4533
330
398A
100
AcDbEntity
  8
0
100
AcDbVertex
100
AcDb2dVertex
 10
-1.365906339209755
 20
2.159907935202313
 30
0.0
  0
VERTEX
  5
4534
330
398A
100
AcDbEntity
  8
0
100
AcDbVertex
100
AcDb2dVertex
 10
-1.558819725036527
 20
2.14415990370625
 30
0.0
  0
SEQEND
  5
4535
330
398A
100
AcDbEntity
  8
0
  0
POLYLINE
  5
398F
330
1E
100
AcDbEntity
  8
0
100
AcDb2dPolyline
 66
     1
 10
0.0
 20
0.0
 30
0.0
  0
VERTEX
  5
4536
330
398F
100
AcDbEntity
  8
0
100
AcDbVertex
100
AcDb2dVertex
 10
-1.422992953382984
 20
2.146128407643257
 30
0.0
  0
VERTEX
  5
4537
330
398F
100
AcDbEntity
  8
0
100
AcDbVertex
100
AcDb2dVertex
 10
-1.487953583304244
 20
2.13431738402121
 30
0.0
  0
VERTEX
  5
4538
330
398F
100
AcDbEntity
  8
0
100
AcDbVertex
100
AcDb2dVertex
 10
-1.556851221099519
 20
2.08904179347003
 30
0.0
  0
SEQEND
  5
4539
330
398F
100
AcDbEntity
  8
0
  0
LINE
  5
3994
330
1E
100
AcDbEntity
  8
0
100
AcDbLine
 10
-0.3245677565325904
 20
2.146128407643257
 30
0.0
 11
-0.9052764179499135
 21
2.146128407643257
 31
0.0
  0
LINE
  5
3995
330
1E
100
AcDbEntity
  8
0
100
AcDbLine
 10
-0.9800795675562126
 20
2.146128407643257
 30
0.0
 11
-1.422992953382983
 21
2.146128407643257
 31
0.0
  0
POLYLINE
  5
3996
330
1E
100
AcDbEntity
  8
0
100
AcDb2dPolyline
 66
     1
 10
0.0
 20
0.0
 30
0.0
  0
VERTEX
  5
453A
330
3996
100
AcDbEntity
  8
0
100
AcDbVertex
100
AcDb2dVertex
 10
-0.2517331108632987
 20
2.130380376147194
 30
0.0
  0
VERTEX
  5
453B
330
3996
100
AcDbEntity
  8
0
100
AcDbVertex
100
AcDb2dVertex
 10
-0.2025205124381024
 20
2.102821321029084
 30
0.0
  0
VERTEX
  5
453C
330
3996
100
AcDbEntity
  8
0
100
AcDbVertex
100
AcDb2dVertex
 10
-0.1592134258239293
 20
2.055577226540895
 30
0.0
  0
VERTEX
  5
453D
330
3996
100
AcDbEntity
  8
0
100
AcDbVertex
100
AcDb2dVertex
 10
-0.1355913785798348
 20
1.996522108430659
 30
0.0
  0
VERTEX
  5
453E
330
3996
100
AcDbEntity
  8
0
100
AcDbVertex
100
AcDb2dVertex
 10
-0.1316543707058191
 20
1.961089037564518
 30
0.0
  0
SEQEND
  5
453F
330
3996
100
AcDbEntity
  8
0
  0
LINE
  5
399D
330
1E
100
AcDbEntity
  8
0
100
AcDbLine
 10
-0.1316543707058191
 20
1.961089037564518
 30
0.0
 11
-0.1296858667688108
 21
1.898096911580266
 31
0.0
  0
LINE
  5
399E
330
1E
100
AcDbEntity
  8
0
100
AcDbLine
 10
-1.678898465194007
 20
1.238648092682628
 30
0.0
 11
-1.672992953382983
 21
1.531955179296801
 31
0.0
  0
LINE
  5
399F
330
1E
100
AcDbEntity
  8
0
100
AcDbLine
 10
-1.562756732910543
 20
1.531955179296801
 30
0.0
 11
-1.672992953382983
 21
1.531955179296801
 31
0.0
  0
LINE
  5
39A0
330
1E
100
AcDbEntity
  8
0
100
AcDbLine
 10
-1.562756732910543
 20
1.531955179296801
 30
0.0
 11
-1.558819725036527
 21
2.173687462761368
 31
0.0
  0
LINE
  5
39A1
330
1E
100
AcDbEntity
  8
0
100
AcDbLine
 10
2.291573975750874
 20
2.173687462761368
 30
0.0
 11
-1.558819725036527
 21
2.173687462761368
 31
0.0
  0
LINE
  5
39A2
330
1E
100
AcDbEntity
  8
0
100
AcDbLine
 10
2.297479487561897
 20
1.531955179296801
 30
0.0
 11
2.291573975750874
 21
2.173687462761368
 31
0.0
  0
LINE
  5
39A3
330
1E
100
AcDbEntity
  8
0
100
AcDbLine
 10
2.297479487561897
 20
1.531955179296801
 30
0.0
 11
2.407715708034338
 21
1.531955179296801
 31
0.0
  0
LINE
  5
39A4
330
1E
100
AcDbEntity
  8
0
100
AcDbLine
 10
2.411652715908354
 20
1.238648092682628
 30
0.0
 11
2.407715708034338
 21
1.531955179296801
 31
0.0
  0
LINE
  5
39A5
330
1E
100
AcDbEntity
  8
0
100
AcDbLine
 10
2.718739330081582
 20
1.238648092682628
 30
0.0
 11
2.411652715908354
 21
1.238648092682628
 31
0.0
  0
LINE
  5
39A6
330
1E
100
AcDbEntity
  8
0
100
AcDbLine
 10
2.718739330081582
 20
1.238648092682628
 30
0.0
 11
2.647873188349299
 21
2.238648092682628
 31
0.0
  0
POLYLINE
  5
39A7
330
1E
100
AcDbEntity
  8
0
100
AcDb2dPolyline
 66
     1
 10
0.0
 20
0.0
 30
0.0
  0
VERTEX
  5
4540
330
39A7
100
AcDbEntity
  8
0
100
AcDbVertex
100
AcDb2dVertex
 10
2.647873188349299
 20
2.238648092682628
 30
0.0
  0
VERTEX
  5
4541
330
39A7
100
AcDbEntity
  8
0
100
AcDbVertex
100
AcDb2dVertex
 10
2.638030668664259
 20
2.287860691107825
 30
0.0
  0
VERTEX
  5
4542
330
39A7
100
AcDbEntity
  8
0
100
AcDbVertex
100
AcDb2dVertex
 10
2.614408621420165
 20
2.333136281659005
 30
0.0
  0
VERTEX
  5
4543
330
39A7
100
AcDbEntity
  8
0
100
AcDbVertex
100
AcDb2dVertex
 10
2.578975550554023
 20
2.368569352525147
 30
0.0
  0
VERTEX
  5
4544
330
39A7
100
AcDbEntity
  8
0
100
AcDbVertex
100
AcDb2dVertex
 10
2.533699960002842
 20
2.39415990370625
 30
0.0
  0
VERTEX
  5
4545
330
39A7
100
AcDbEntity
  8
0
100
AcDbVertex
100
AcDb2dVertex
 10
2.484487361577645
 20
2.405970927328297
 30
0.0
  0
SEQEND
  5
4546
330
39A7
100
AcDbEntity
  8
0
  0
POLYLINE
  5
39AF
330
1E
100
AcDbEntity
  8
0
100
AcDb2dPolyline
 66
     1
 10
0.0
 20
0.0
 30
0.0
  0
VERTEX
  5
4547
330
39AF
100
AcDbEntity
  8
0
100
AcDbVertex
100
AcDb2dVertex
 10
-1.749764606926291
 20
2.405970927328297
 30
0.0
  0
VERTEX
  5
4548
330
39AF
100
AcDbEntity
  8
0
100
AcDbVertex
100
AcDb2dVertex
 10
-1.798977205351488
 20
2.39415990370625
 30
0.0
  0
VERTEX
  5
4549
330
39AF
100
AcDbEntity
  8
0
100
AcDbVertex
100
AcDb2dVertex
 10
-1.844252795902669
 20
2.368569352525147
 30
0.0
  0
VERTEX
  5
454A
330
39AF
100
AcDbEntity
  8
0
100
AcDbVertex
100
AcDb2dVertex
 10
-1.87968586676881
 20
2.333136281659005
 30
0.0
  0
VERTEX
  5
454B
330
39AF
100
AcDbEntity
  8
0
100
AcDbVertex
100
AcDb2dVertex
 10
-1.903307914012905
 20
2.287860691107825
 30
0.0
  0
VERTEX
  5
454C
330
39AF
100
AcDbEntity
  8
0
100
AcDbVertex
100
AcDb2dVertex
 10
-1.913150433697945
 20
2.238648092682628
 30
0.0
  0
SEQEND
  5
454D
330
39AF
100
AcDbEntity
  8
0
  0
LINE
  5
39B7
330
1E
100
AcDbEntity
  8
0
100
AcDbLine
 10
-1.984016575430228
 20
1.238648092682628
 30
0.0
 11
-1.913150433697945
 21
2.238648092682628
 31
0.0
  0
POLYLINE
  5
39B8
330
1E
100
AcDbEntity
  8
0
100
AcDb2dPolyline
 66
     1
 10
0.0
 20
0.0
 30
0.0
  0
VERTEX
  5
454E
330
39B8
100
AcDbEntity
  8
0
100
AcDbVertex
100
AcDb2dVertex
 10
2.218739330081582
 20
2.437466990320423
 30
0.0
  0
VERTEX
  5
454F
330
39B8
100
AcDbEntity
  8
0
100
AcDbVertex
100
AcDb2dVertex
 10
1.762046416695755
 20
2.466994549375542
 30
0.0
  0
VERTEX
  5
4550
330
39B8
100
AcDbEntity
  8
0
100
AcDbVertex
100
AcDb2dVertex
 10
1.307322007246937
 20
2.490616596619636
 30
0.0
  0
VERTEX
  5
4551
330
39B8
100
AcDbEntity
  8
0
100
AcDbVertex
100
AcDb2dVertex
 10
0.7069283064595356
 20
2.506364628115699
 30
0.0
  0
VERTEX
  5
4552
330
39B8
100
AcDbEntity
  8
0
100
AcDbVertex
100
AcDb2dVertex
 10
0.1065346056721337
 20
2.506364628115699
 30
0.0
  0
VERTEX
  5
4553
330
39B8
100
AcDbEntity
  8
0
100
AcDbVertex
100
AcDb2dVertex
 10
-0.6887409848790469
 20
2.484711084808612
 30
0.0
  0
VERTEX
  5
4554
330
39B8
100
AcDbEntity
  8
0
100
AcDbVertex
100
AcDb2dVertex
 10
-1.484016575430228
 20
2.437466990320423
 30
0.0
  0
SEQEND
  5
4555
330
39B8
100
AcDbEntity
  8
0
  0
POLYLINE
  5
39C1
330
1E
100
AcDbEntity
  8
0
100
AcDb2dPolyline
 66
     1
 10
0.0
 20
0.0
 30
0.0
  0
VERTEX
  5
4556
330
39C1
100
AcDbEntity
  8
0
100
AcDbVertex
100
AcDb2dVertex
 10
2.232518857640637
 20
2.435498486383416
 30
0.0
  0
VERTEX
  5
4557
330
39C1
100
AcDbEntity
  8
0
100
AcDbVertex
100
AcDb2dVertex
 10
2.230550353703629
 20
2.435498486383416
 30
0.0
  0
VERTEX
  5
4558
330
39C1
100
AcDbEntity
  8
0
100
AcDbVertex
100
AcDb2dVertex
 10
2.226613345829614
 20
2.437466990320423
 30
0.0
  0
VERTEX
  5
4559
330
39C1
100
AcDbEntity
  8
0
100
AcDbVertex
100
AcDb2dVertex
 10
2.222676337955598
 20
2.437466990320423
 30
0.0
  0
VERTEX
  5
455A
330
39C1
100
AcDbEntity
  8
0
100
AcDbVertex
100
AcDb2dVertex
 10
2.218739330081582
 20
2.437466990320423
 30
0.0
  0
SEQEND
  5
455B
330
39C1
100
AcDbEntity
  8
0
  0
POLYLINE
  5
39C8
330
1E
100
AcDbEntity
  8
0
100
AcDb2dPolyline
 66
     1
 10
0.0
 20
0.0
 30
0.0
  0
VERTEX
  5
455C
330
39C8
100
AcDbEntity
  8
0
100
AcDbVertex
100
AcDb2dVertex
 10
-1.484016575430228
 20
2.437466990320423
 30
0.0
  0
VERTEX
  5
455D
330
39C8
100
AcDbEntity
  8
0
100
AcDbVertex
100
AcDb2dVertex
 10
-1.485985079367236
 20
2.437466990320423
 30
0.0
  0
VERTEX
  5
455E
330
39C8
100
AcDbEntity
  8
0
100
AcDbVertex
100
AcDb2dVertex
 10
-1.489922087241251
 20
2.437466990320423
 30
0.0
  0
VERTEX
  5
455F
330
39C8
100
AcDbEntity
  8
0
100
AcDbVertex
100
AcDb2dVertex
 10
-1.493859095115267
 20
2.437466990320423
 30
0.0
  0
VERTEX
  5
4560
330
39C8
100
AcDbEntity
  8
0
100
AcDbVertex
100
AcDb2dVertex
 10
-1.497796102989283
 20
2.435498486383416
 30
0.0
  0
VERTEX
  5
4561
330
39C8
100
AcDbEntity
  8
0
100
AcDbVertex
100
AcDb2dVertex
 10
-1.499764606926291
 20
2.435498486383416
 30
0.0
  0
SEQEND
  5
4562
330
39C8
100
AcDbEntity
  8
0
  0
LINE
  5
39D0
330
1E
100
AcDbEntity
  8
0
100
AcDbLine
 10
-1.484016575430228
 20
2.427624470635383
 30
0.0
 11
-1.484016575430228
 21
2.437466990320423
 31
0.0
  0
LINE
  5
39D1
330
1E
100
AcDbEntity
  8
0
100
AcDbLine
 10
2.218739330081582
 20
2.427624470635383
 30
0.0
 11
2.218739330081582
 21
2.437466990320423
 31
0.0
  0
POLYLINE
  5
39D2
330
1E
100
AcDbEntity
  8
0
100
AcDb2dPolyline
 66
     1
 10
0.0
 20
0.0
 30
0.0
  0
VERTEX
  5
4563
330
39D2
100
AcDbEntity
  8
0
100
AcDbVertex
100
AcDb2dVertex
 10
-1.13952838645385
 20
1.703215021816486
 30
0.0
  0
VERTEX
  5
4564
330
39D2
100
AcDbEntity
  8
0
100
AcDbVertex
100
AcDb2dVertex
 10
-1.13952838645385
 20
1.718963053312549
 30
0.0
  0
VERTEX
  5
4565
330
39D2
100
AcDbEntity
  8
0
100
AcDbVertex
100
AcDb2dVertex
 10
-1.13952838645385
 20
1.738648092682628
 30
0.0
  0
SEQEND
  5
4566
330
39D2
100
AcDbEntity
  8
0
  0
POLYLINE
  5
39D7
330
1E
100
AcDbEntity
  8
0
100
AcDb2dPolyline
 66
     1
 10
0.0
 20
0.0
 30
0.0
  0
VERTEX
  5
4567
330
39D7
100
AcDbEntity
  8
0
100
AcDbVertex
100
AcDb2dVertex
 10
0.5514164954359134
 20
1.927624470635384
 30
0.0
  0
VERTEX
  5
4568
330
39D7
100
AcDbEntity
  8
0
100
AcDbVertex
100
AcDb2dVertex
 10
0.5396054718138661
 20
1.927624470635384
 30
0.0
  0
VERTEX
  5
4569
330
39D7
100
AcDbEntity
  8
0
100
AcDbVertex
100
AcDb2dVertex
 10
0.5081094088217402
 20
1.927624470635384
 30
0.0
  0
VERTEX
  5
456A
330
39D7
100
AcDbEntity
  8
0
100
AcDbVertex
100
AcDb2dVertex
 10
0.4608653143335513
 20
1.927624470635384
 30
0.0
  0
VERTEX
  5
456B
330
39D7
100
AcDbEntity
  8
0
100
AcDbVertex
100
AcDb2dVertex
 10
0.3998416922863068
 20
1.927624470635384
 30
0.0
  0
SEQEND
  5
456C
330
39D7
100
AcDbEntity
  8
0
  0
POLYLINE
  5
39DE
330
1E
100
AcDbEntity
  8
0
100
AcDb2dPolyline
 66
     1
 10
0.0
 20
0.0
 30
0.0
  0
VERTEX
  5
456D
330
39DE
100
AcDbEntity
  8
0
100
AcDbVertex
100
AcDb2dVertex
 10
0.3348810623650475
 20
1.927624470635384
 30
0.0
  0
VERTEX
  5
456E
330
39DE
100
AcDbEntity
  8
0
100
AcDbVertex
100
AcDb2dVertex
 10
0.2738574403178031
 20
1.927624470635384
 30
0.0
  0
VERTEX
  5
456F
330
39DE
100
AcDbEntity
  8
0
100
AcDbVertex
100
AcDb2dVertex
 10
0.2266133458296142
 20
1.927624470635384
 30
0.0
  0
VERTEX
  5
4570
330
39DE
100
AcDbEntity
  8
0
100
AcDbVertex
100
AcDb2dVertex
 10
0.1951172828374883
 20
1.927624470635384
 30
0.0
  0
VERTEX
  5
4571
330
39DE
100
AcDbEntity
  8
0
100
AcDbVertex
100
AcDb2dVertex
 10
0.1833062592154411
 20
1.927624470635384
 30
0.0
  0
SEQEND
  5
4572
330
39DE
100
AcDbEntity
  8
0
  0
POLYLINE
  5
39E5
330
1E
100
AcDbEntity
  8
0
100
AcDb2dPolyline
 66
     1
 10
0.0
 20
0.0
 30
0.0
  0
VERTEX
  5
4573
330
39E5
100
AcDbEntity
  8
0
100
AcDbVertex
100
AcDb2dVertex
 10
0.1537787001603226
 20
1.957152029690502
 30
0.0
  0
VERTEX
  5
4574
330
39E5
100
AcDbEntity
  8
0
100
AcDbVertex
100
AcDb2dVertex
 10
0.1616527159083541
 20
1.957152029690502
 30
0.0
  0
VERTEX
  5
4575
330
39E5
100
AcDbEntity
  8
0
100
AcDbVertex
100
AcDb2dVertex
 10
0.1872432670894568
 20
1.957152029690502
 30
0.0
  0
VERTEX
  5
4576
330
39E5
100
AcDbEntity
  8
0
100
AcDbVertex
100
AcDb2dVertex
 10
0.2266133458296142
 20
1.957152029690502
 30
0.0
  0
VERTEX
  5
4577
330
39E5
100
AcDbEntity
  8
0
100
AcDbVertex
100
AcDb2dVertex
 10
0.2758259442548114
 20
1.957152029690502
 30
0.0
  0
VERTEX
  5
4578
330
39E5
100
AcDbEntity
  8
0
100
AcDbVertex
100
AcDb2dVertex
 10
0.3329125584280392
 20
1.957152029690502
 30
0.0
  0
SEQEND
  5
4579
330
39E5
100
AcDbEntity
  8
0
  0
POLYLINE
  5
39ED
330
1E
100
AcDbEntity
  8
0
100
AcDb2dPolyline
 66
     1
 10
0.0
 20
0.0
 30
0.0
  0
VERTEX
  5
457A
330
39ED
100
AcDbEntity
  8
0
100
AcDbVertex
100
AcDb2dVertex
 10
0.4018101962233152
 20
1.957152029690502
 30
0.0
  0
VERTEX
  5
457B
330
39ED
100
AcDbEntity
  8
0
100
AcDbVertex
100
AcDb2dVertex
 10
0.458896810396543
 20
1.957152029690502
 30
0.0
  0
VERTEX
  5
457C
330
39ED
100
AcDbEntity
  8
0
100
AcDbVertex
100
AcDb2dVertex
 10
0.5081094088217402
 20
1.957152029690502
 30
0.0
  0
VERTEX
  5
457D
330
39ED
100
AcDbEntity
  8
0
100
AcDbVertex
100
AcDb2dVertex
 10
0.5474794875618976
 20
1.957152029690502
 30
0.0
  0
VERTEX
  5
457E
330
39ED
100
AcDbEntity
  8
0
100
AcDbVertex
100
AcDb2dVertex
 10
0.5730700387430004
 20
1.957152029690502
 30
0.0
  0
VERTEX
  5
457F
330
39ED
100
AcDbEntity
  8
0
100
AcDbVertex
100
AcDb2dVertex
 10
0.5809440544910319
 20
1.957152029690502
 30
0.0
  0
SEQEND
  5
4580
330
39ED
100
AcDbEntity
  8
0
  0
LINE
  5
39F5
330
1E
100
AcDbEntity
  8
0
100
AcDbLine
 10
-1.54700870141448
 20
1.95912053362751
 30
0.0
 11
-1.560788228973535
 21
1.95912053362751
 31
0.0
  0
LINE
  5
39F6
330
1E
100
AcDbEntity
  8
0
100
AcDbLine
 10
-0.1316543707058191
 20
1.898096911580266
 30
0.0
 11
-0.1336228746428265
 21
1.961089037564518
 31
0.0
  0
POLYLINE
  5
39F7
330
1E
100
AcDbEntity
  8
0
100
AcDb2dPolyline
 66
     1
 10
0.0
 20
0.0
 30
0.0
  0
VERTEX
  5
4581
330
39F7
100
AcDbEntity
  8
0
100
AcDbVertex
100
AcDb2dVertex
 10
-0.2005520085010941
 20
1.95912053362751
 30
0.0
  0
VERTEX
  5
4582
330
39F7
100
AcDbEntity
  8
0
100
AcDbVertex
100
AcDb2dVertex
 10
-0.163150433697945
 20
1.961089037564518
 30
0.0
  0
VERTEX
  5
4583
330
39F7
100
AcDbEntity
  8
0
100
AcDbVertex
100
AcDb2dVertex
 10
-0.1336228746428265
 20
1.961089037564518
 30
0.0
  0
SEQEND
  5
4584
330
39F7
100
AcDbEntity
  8
0
  0
LINE
  5
39FC
330
1E
100
AcDbEntity
  8
0
100
AcDbLine
 10
-0.1316543707058191
 20
1.961089037564518
 30
0.0
 11
-0.1336228746428265
 21
1.961089037564518
 31
0.0
  0
POLYLINE
  5
39FD
330
1E
100
AcDbEntity
  8
0
100
AcDb2dPolyline
 66
     1
 10
0.0
 20
0.0
 30
0.0
  0
VERTEX
  5
4585
330
39FD
100
AcDbEntity
  8
0
100
AcDbVertex
100
AcDb2dVertex
 10
-0.1336228746428265
 20
1.961089037564518
 30
0.0
  0
VERTEX
  5
4586
330
39FD
100
AcDbEntity
  8
0
100
AcDbVertex
100
AcDb2dVertex
 10
-0.1434653943278663
 20
2.01423864386373
 30
0.0
  0
VERTEX
  5
4587
330
39FD
100
AcDbEntity
  8
0
100
AcDbVertex
100
AcDb2dVertex
 10
-0.1670874415719608
 20
2.063451242288927
 30
0.0
  0
VERTEX
  5
4588
330
39FD
100
AcDbEntity
  8
0
100
AcDbVertex
100
AcDb2dVertex
 10
-0.2517331108632987
 20
2.128411872210187
 30
0.0
  0
SEQEND
  5
4589
330
39FD
100
AcDbEntity
  8
0
  0
LINE
  5
3A03
330
1E
100
AcDbEntity
  8
0
100
AcDbLine
 10
-1.422992953382983
 20
2.146128407643257
 30
0.0
 11
-1.422992953382983
 21
2.14415990370625
 31
0.0
  0
LINE
  5
3A04
330
1E
100
AcDbEntity
  8
0
100
AcDbLine
 10
-0.3245677565325904
 20
2.14415990370625
 30
0.0
 11
-0.9052764179499135
 21
2.14415990370625
 31
0.0
  0
LINE
  5
3A05
330
1E
100
AcDbEntity
  8
0
100
AcDbLine
 10
-0.9800795675562126
 20
2.14415990370625
 30
0.0
 11
-1.422992953382983
 21
2.14415990370625
 31
0.0
  0
POLYLINE
  5
3A06
330
1E
100
AcDbEntity
  8
0
100
AcDb2dPolyline
 66
     1
 10
0.0
 20
0.0
 30
0.0
  0
VERTEX
  5
458A
330
3A06
100
AcDbEntity
  8
0
100
AcDbVertex
100
AcDb2dVertex
 10
-1.558819725036527
 20
2.087073289533021
 30
0.0
  0
VERTEX
  5
458B
330
3A06
100
AcDbEntity
  8
0
100
AcDbVertex
100
AcDb2dVertex
 10
-1.543071693540464
 20
2.102821321029084
 30
0.0
  0
VERTEX
  5
458C
330
3A06
100
AcDbEntity
  8
0
100
AcDbVertex
100
AcDb2dVertex
 10
-1.485985079367236
 20
2.13431738402121
 30
0.0
  0
VERTEX
  5
458D
330
3A06
100
AcDbEntity
  8
0
100
AcDbVertex
100
AcDb2dVertex
 10
-1.422992953382984
 20
2.14415990370625
 30
0.0
  0
SEQEND
  5
458E
330
3A06
100
AcDbEntity
  8
0
  0
POLYLINE
  5
3A0C
330
1E
100
AcDbEntity
  8
0
100
AcDb2dPolyline
 66
     1
 10
0.0
 20
0.0
 30
0.0
  0
VERTEX
  5
458F
330
3A0C
100
AcDbEntity
  8
0
100
AcDbVertex
100
AcDb2dVertex
 10
-1.422992953382984
 20
2.14415990370625
 30
0.0
  0
VERTEX
  5
4590
330
3A0C
100
AcDbEntity
  8
0
100
AcDbVertex
100
AcDb2dVertex
 10
-1.422992953382984
 20
2.1067583289031
 30
0.0
  0
VERTEX
  5
4591
330
3A0C
100
AcDbEntity
  8
0
100
AcDbVertex
100
AcDb2dVertex
 10
-1.422992953382984
 20
2.077230769847982
 30
0.0
  0
SEQEND
  5
4592
330
3A0C
100
AcDbEntity
  8
0
  0
POLYLINE
  5
3A11
330
1E
100
AcDbEntity
  8
0
100
AcDb2dPolyline
 66
     1
 10
0.0
 20
0.0
 30
0.0
  0
VERTEX
  5
4593
330
3A11
100
AcDbEntity
  8
0
100
AcDbVertex
100
AcDb2dVertex
 10
-0.4879535833042441
 20
1.815419746225935
 30
0.0
  0
VERTEX
  5
4594
330
3A11
100
AcDbEntity
  8
0
100
AcDbVertex
100
AcDb2dVertex
 10
-0.4643315360601497
 20
1.805577226540895
 30
0.0
  0
VERTEX
  5
4595
330
3A11
100
AcDbEntity
  8
0
100
AcDbVertex
100
AcDb2dVertex
 10
-0.4249614573199923
 20
1.772112659611762
 30
0.0
  0
VERTEX
  5
4596
330
3A11
100
AcDbEntity
  8
0
100
AcDbVertex
100
AcDb2dVertex
 10
-0.3895283864538506
 20
1.703215021816486
 30
0.0
  0
SEQEND
  5
4597
330
3A11
100
AcDbEntity
  8
0
  0
LINE
  5
3A17
330
1E
100
AcDbEntity
  8
0
100
AcDbLine
 10
-0.763544134485346
 20
1.833136281659005
 30
0.0
 11
-0.8265362604695987
 21
1.833136281659005
 31
0.0
  0
LINE
  5
3A18
330
1E
100
AcDbEntity
  8
0
100
AcDbLine
 10
-1.117874843146763
 20
1.833136281659005
 30
0.0
 11
-1.186772480942039
 21
1.833136281659005
 31
0.0
  0
POLYLINE
  5
3A19
330
1E
100
AcDbEntity
  8
0
100
AcDb2dPolyline
 66
     1
 10
0.0
 20
0.0
 30
0.0
  0
VERTEX
  5
4598
330
3A19
100
AcDbEntity
  8
0
100
AcDbVertex
100
AcDb2dVertex
 10
-1.186772480942039
 20
1.793766202918848
 30
0.0
  0
VERTEX
  5
4599
330
3A19
100
AcDbEntity
  8
0
100
AcDbVertex
100
AcDb2dVertex
 10
-1.186772480942039
 20
1.815419746225935
 30
0.0
  0
VERTEX
  5
459A
330
3A19
100
AcDbEntity
  8
0
100
AcDbVertex
100
AcDb2dVertex
 10
-1.186772480942039
 20
1.833136281659005
 30
0.0
  0
SEQEND
  5
459B
330
3A19
100
AcDbEntity
  8
0
  0
POLYLINE
  5
3A1E
330
1E
100
AcDbEntity
  8
0
100
AcDb2dPolyline
 66
     1
 10
0.0
 20
0.0
 30
0.0
  0
VERTEX
  5
459C
330
3A1E
100
AcDbEntity
  8
0
100
AcDbVertex
100
AcDb2dVertex
 10
-1.186772480942039
 20
1.833136281659005
 30
0.0
  0
VERTEX
  5
459D
330
3A1E
100
AcDbEntity
  8
0
100
AcDbVertex
100
AcDb2dVertex
 10
-1.235985079367236
 20
1.825262265910974
 30
0.0
  0
VERTEX
  5
459E
330
3A1E
100
AcDbEntity
  8
0
100
AcDbVertex
100
AcDb2dVertex
 10
-1.283229173855425
 20
1.805577226540895
 30
0.0
  0
VERTEX
  5
459F
330
3A1E
100
AcDbEntity
  8
0
100
AcDbVertex
100
AcDb2dVertex
 10
-1.322599252595582
 20
1.772112659611762
 30
0.0
  0
VERTEX
  5
45A0
330
3A1E
100
AcDbEntity
  8
0
100
AcDbVertex
100
AcDb2dVertex
 10
-1.358032323461724
 20
1.703215021816486
 30
0.0
  0
SEQEND
  5
45A1
330
3A1E
100
AcDbEntity
  8
0
  0
POLYLINE
  5
3A25
330
1E
100
AcDbEntity
  8
0
100
AcDb2dPolyline
 66
     1
 10
0.0
 20
0.0
 30
0.0
  0
VERTEX
  5
45A2
330
3A25
100
AcDbEntity
  8
0
100
AcDbVertex
100
AcDb2dVertex
 10
-1.186772480942039
 20
1.876443368273179
 30
0.0
  0
VERTEX
  5
45A3
330
3A25
100
AcDbEntity
  8
0
100
AcDbVertex
100
AcDb2dVertex
 10
-1.186772480942039
 20
1.850852817092077
 30
0.0
  0
VERTEX
  5
45A4
330
3A25
100
AcDbEntity
  8
0
100
AcDbVertex
100
AcDb2dVertex
 10
-1.186772480942039
 20
1.833136281659005
 30
0.0
  0
SEQEND
  5
45A5
330
3A25
100
AcDbEntity
  8
0
  0
LINE
  5
3A2A
330
1E
100
AcDbEntity
  8
0
100
AcDbLine
 10
-0.5607882289735358
 20
1.876443368273179
 30
0.0
 11
-0.5607882289735358
 21
1.868569352525147
 31
0.0
  0
LINE
  5
3A2B
330
1E
100
AcDbEntity
  8
0
100
AcDbLine
 10
0.8663771253571734
 20
1.898096911580266
 30
0.0
 11
0.8683456292941809
 21
1.961089037564518
 31
0.0
  0
POLYLINE
  5
3A2C
330
1E
100
AcDbEntity
  8
0
100
AcDb2dPolyline
 66
     1
 10
0.0
 20
0.0
 30
0.0
  0
VERTEX
  5
45A6
330
3A2C
100
AcDbEntity
  8
0
100
AcDbVertex
100
AcDb2dVertex
 10
0.9352747631524485
 20
1.95912053362751
 30
0.0
  0
VERTEX
  5
45A7
330
3A2C
100
AcDbEntity
  8
0
100
AcDbVertex
100
AcDb2dVertex
 10
0.8978731883492994
 20
1.961089037564518
 30
0.0
  0
VERTEX
  5
45A8
330
3A2C
100
AcDbEntity
  8
0
100
AcDbVertex
100
AcDb2dVertex
 10
0.8683456292941809
 20
1.961089037564518
 30
0.0
  0
SEQEND
  5
45A9
330
3A2C
100
AcDbEntity
  8
0
  0
LINE
  5
3A31
330
1E
100
AcDbEntity
  8
0
100
AcDbLine
 10
0.8663771253571734
 20
1.961089037564518
 30
0.0
 11
0.8683456292941809
 21
1.961089037564518
 31
0.0
  0
POLYLINE
  5
3A32
330
1E
100
AcDbEntity
  8
0
100
AcDb2dPolyline
 66
     1
 10
0.0
 20
0.0
 30
0.0
  0
VERTEX
  5
45AA
330
3A32
100
AcDbEntity
  8
0
100
AcDbVertex
100
AcDb2dVertex
 10
0.8683456292941809
 20
1.961089037564518
 30
0.0
  0
VERTEX
  5
45AB
330
3A32
100
AcDbEntity
  8
0
100
AcDbVertex
100
AcDb2dVertex
 10
0.8781881489792207
 20
2.01423864386373
 30
0.0
  0
VERTEX
  5
45AC
330
3A32
100
AcDbEntity
  8
0
100
AcDbVertex
100
AcDb2dVertex
 10
0.9018101962233151
 20
2.063451242288927
 30
0.0
  0
VERTEX
  5
45AD
330
3A32
100
AcDbEntity
  8
0
100
AcDbVertex
100
AcDb2dVertex
 10
0.986455865514654
 20
2.128411872210187
 30
0.0
  0
SEQEND
  5
45AE
330
3A32
100
AcDbEntity
  8
0
  0
LINE
  5
3A38
330
1E
100
AcDbEntity
  8
0
100
AcDbLine
 10
1.059290511183944
 20
2.14415990370625
 30
0.0
 11
1.639999172601267
 21
2.14415990370625
 31
0.0
  0
LINE
  5
3A39
330
1E
100
AcDbEntity
  8
0
100
AcDbLine
 10
1.714802322207567
 20
2.14415990370625
 30
0.0
 11
2.157715708034338
 21
2.14415990370625
 31
0.0
  0
LINE
  5
3A3A
330
1E
100
AcDbEntity
  8
0
100
AcDbLine
 10
2.157715708034338
 20
2.146128407643257
 30
0.0
 11
2.157715708034338
 21
2.14415990370625
 31
0.0
  0
LINE
  5
3A3B
330
1E
100
AcDbEntity
  8
0
100
AcDbLine
 10
2.281731456065834
 20
1.95912053362751
 30
0.0
 11
2.293542479687881
 21
1.95912053362751
 31
0.0
  0
POLYLINE
  5
3A3C
330
1E
100
AcDbEntity
  8
0
100
AcDb2dPolyline
 66
     1
 10
0.0
 20
0.0
 30
0.0
  0
VERTEX
  5
45AF
330
3A3C
100
AcDbEntity
  8
0
100
AcDbVertex
100
AcDb2dVertex
 10
2.293542479687881
 20
2.087073289533021
 30
0.0
  0
VERTEX
  5
45B0
330
3A3C
100
AcDbEntity
  8
0
100
AcDbVertex
100
AcDb2dVertex
 10
2.275825944254811
 20
2.102821321029084
 30
0.0
  0
VERTEX
  5
45B1
330
3A3C
100
AcDbEntity
  8
0
100
AcDbVertex
100
AcDb2dVertex
 10
2.22070783401859
 20
2.13431738402121
 30
0.0
  0
VERTEX
  5
45B2
330
3A3C
100
AcDbEntity
  8
0
100
AcDbVertex
100
AcDb2dVertex
 10
2.157715708034338
 20
2.14415990370625
 30
0.0
  0
SEQEND
  5
45B3
330
3A3C
100
AcDbEntity
  8
0
  0
POLYLINE
  5
3A42
330
1E
100
AcDbEntity
  8
0
100
AcDb2dPolyline
 66
     1
 10
0.0
 20
0.0
 30
0.0
  0
VERTEX
  5
45B4
330
3A42
100
AcDbEntity
  8
0
100
AcDbVertex
100
AcDb2dVertex
 10
2.157715708034338
 20
2.14415990370625
 30
0.0
  0
VERTEX
  5
45B5
330
3A42
100
AcDbEntity
  8
0
100
AcDbVertex
100
AcDb2dVertex
 10
2.157715708034338
 20
2.1067583289031
 30
0.0
  0
VERTEX
  5
45B6
330
3A42
100
AcDbEntity
  8
0
100
AcDbVertex
100
AcDb2dVertex
 10
2.157715708034338
 20
2.077230769847982
 30
0.0
  0
SEQEND
  5
45B7
330
3A42
100
AcDbEntity
  8
0
  0
POLYLINE
  5
3A47
330
1E
100
AcDbEntity
  8
0
100
AcDb2dPolyline
 66
     1
 10
0.0
 20
0.0
 30
0.0
  0
VERTEX
  5
45B8
330
3A47
100
AcDbEntity
  8
0
100
AcDbVertex
100
AcDb2dVertex
 10
1.222676337955598
 20
1.815419746225935
 30
0.0
  0
VERTEX
  5
45B9
330
3A47
100
AcDbEntity
  8
0
100
AcDbVertex
100
AcDb2dVertex
 10
1.199054290711504
 20
1.805577226540895
 30
0.0
  0
VERTEX
  5
45BA
330
3A47
100
AcDbEntity
  8
0
100
AcDbVertex
100
AcDb2dVertex
 10
1.159684211971346
 20
1.772112659611762
 30
0.0
  0
VERTEX
  5
45BB
330
3A47
100
AcDbEntity
  8
0
100
AcDbVertex
100
AcDb2dVertex
 10
1.124251141105204
 20
1.703215021816486
 30
0.0
  0
SEQEND
  5
45BC
330
3A47
100
AcDbEntity
  8
0
  0
POLYLINE
  5
3A4D
330
1E
100
AcDbEntity
  8
0
100
AcDb2dPolyline
 66
     1
 10
0.0
 20
0.0
 30
0.0
  0
VERTEX
  5
45BD
330
3A4D
100
AcDbEntity
  8
0
100
AcDbVertex
100
AcDb2dVertex
 10
1.921495235593393
 20
1.793766202918848
 30
0.0
  0
VERTEX
  5
45BE
330
3A4D
100
AcDbEntity
  8
0
100
AcDbVertex
100
AcDb2dVertex
 10
1.921495235593393
 20
1.815419746225935
 30
0.0
  0
VERTEX
  5
45BF
330
3A4D
100
AcDbEntity
  8
0
100
AcDbVertex
100
AcDb2dVertex
 10
1.921495235593393
 20
1.833136281659005
 30
0.0
  0
SEQEND
  5
45C0
330
3A4D
100
AcDbEntity
  8
0
  0
LINE
  5
3A52
330
1E
100
AcDbEntity
  8
0
100
AcDbLine
 10
1.496298385199692
 20
1.833136281659005
 30
0.0
 11
1.561259015120953
 21
1.833136281659005
 31
0.0
  0
LINE
  5
3A53
330
1E
100
AcDbEntity
  8
0
100
AcDbLine
 10
1.852597597798117
 20
1.833136281659005
 30
0.0
 11
1.921495235593393
 21
1.833136281659005
 31
0.0
  0
POLYLINE
  5
3A54
330
1E
100
AcDbEntity
  8
0
100
AcDb2dPolyline
 66
     1
 10
0.0
 20
0.0
 30
0.0
  0
VERTEX
  5
45C1
330
3A54
100
AcDbEntity
  8
0
100
AcDbVertex
100
AcDb2dVertex
 10
1.921495235593393
 20
1.833136281659005
 30
0.0
  0
VERTEX
  5
45C2
330
3A54
100
AcDbEntity
  8
0
100
AcDbVertex
100
AcDb2dVertex
 10
1.97070783401859
 20
1.825262265910974
 30
0.0
  0
VERTEX
  5
45C3
330
3A54
100
AcDbEntity
  8
0
100
AcDbVertex
100
AcDb2dVertex
 10
2.017951928506779
 20
1.805577226540895
 30
0.0
  0
VERTEX
  5
45C4
330
3A54
100
AcDbEntity
  8
0
100
AcDbVertex
100
AcDb2dVertex
 10
2.055353503309929
 20
1.772112659611762
 30
0.0
  0
VERTEX
  5
45C5
330
3A54
100
AcDbEntity
  8
0
100
AcDbVertex
100
AcDb2dVertex
 10
2.09078657417607
 20
1.703215021816486
 30
0.0
  0
SEQEND
  5
45C6
330
3A54
100
AcDbEntity
  8
0
  0
POLYLINE
  5
3A5B
330
1E
100
AcDbEntity
  8
0
100
AcDb2dPolyline
 66
     1
 10
0.0
 20
0.0
 30
0.0
  0
VERTEX
  5
45C7
330
3A5B
100
AcDbEntity
  8
0
100
AcDbVertex
100
AcDb2dVertex
 10
1.921495235593393
 20
1.876443368273179
 30
0.0
  0
VERTEX
  5
45C8
330
3A5B
100
AcDbEntity
  8
0
100
AcDbVertex
100
AcDb2dVertex
 10
1.921495235593393
 20
1.850852817092077
 30
0.0
  0
VERTEX
  5
45C9
330
3A5B
100
AcDbEntity
  8
0
100
AcDbVertex
100
AcDb2dVertex
 10
1.921495235593393
 20
1.833136281659005
 30
0.0
  0
SEQEND
  5
45CA
330
3A5B
100
AcDbEntity
  8
0
  0
LINE
  5
3A60
330
1E
100
AcDbEntity
  8
0
100
AcDbLine
 10
1.29551098362489
 20
1.876443368273179
 30
0.0
 11
1.29551098362489
 21
1.868569352525147
 31
0.0
  0
LINE
  5
3A61
330
1E
100
AcDbEntity
  8
0
100
AcDbLine
 10
-1.671024449445976
 20
1.407939431265305
 30
0.0
 11
-1.674961457319992
 21
1.407939431265305
 31
0.0
  0
LINE
  5
3A62
330
1E
100
AcDbEntity
  8
0
100
AcDbLine
 10
-1.123780354957787
 20
1.677624470635384
 30
0.0
 11
-1.115906339209756
 21
1.868569352525147
 31
0.0
  0
LINE
  5
3A63
330
1E
100
AcDbEntity
  8
0
100
AcDbLine
 10
-0.897402402201882
 20
1.528018171422785
 30
0.0
 11
-0.897402402201882
 21
1.677624470635384
 31
0.0
  0
LINE
  5
3A64
330
1E
100
AcDbEntity
  8
0
100
AcDbLine
 10
-0.8954338982648737
 20
1.86660084858814
 30
0.0
 11
-0.8954338982648737
 21
1.888254391895226
 31
0.0
  0
POLYLINE
  5
3A65
330
1E
100
AcDbEntity
  8
0
100
AcDb2dPolyline
 66
     1
 10
0.0
 20
0.0
 30
0.0
  0
VERTEX
  5
45CB
330
3A65
100
AcDbEntity
  8
0
100
AcDbVertex
100
AcDb2dVertex
 10
-0.9092134258239292
 20
1.888254391895226
 30
0.0
  0
VERTEX
  5
45CC
330
3A65
100
AcDbEntity
  8
0
100
AcDbVertex
100
AcDb2dVertex
 10
-0.9033079140129052
 20
1.888254391895226
 30
0.0
  0
VERTEX
  5
45CD
330
3A65
100
AcDbEntity
  8
0
100
AcDbVertex
100
AcDb2dVertex
 10
-0.8954338982648737
 20
1.888254391895226
 30
0.0
  0
SEQEND
  5
45CE
330
3A65
100
AcDbEntity
  8
0
  0
LINE
  5
3A6A
330
1E
100
AcDbEntity
  8
0
100
AcDbLine
 10
-0.8560638195247163
 20
1.528018171422785
 30
0.0
 11
-0.8540953155877089
 21
1.677624470635384
 31
0.0
  0
LINE
  5
3A6B
330
1E
100
AcDbEntity
  8
0
100
AcDbLine
 10
-0.8540953155877089
 20
1.83904179347003
 30
0.0
 11
-0.8540953155877089
 21
1.888254391895226
 31
0.0
  0
LINE
  5
3A6C
330
1E
100
AcDbEntity
  8
0
100
AcDbLine
 10
-0.8954338982648737
 20
1.888254391895226
 30
0.0
 11
-0.8540953155877089
 21
1.888254391895226
 31
0.0
  0
POLYLINE
  5
3A6D
330
1E
100
AcDbEntity
  8
0
100
AcDb2dPolyline
 66
     1
 10
0.0
 20
0.0
 30
0.0
  0
VERTEX
  5
45CF
330
3A6D
100
AcDbEntity
  8
0
100
AcDbVertex
100
AcDb2dVertex
 10
-0.8540953155877089
 20
1.888254391895226
 30
0.0
  0
VERTEX
  5
45D0
330
3A6D
100
AcDbEntity
  8
0
100
AcDbVertex
100
AcDb2dVertex
 10
-0.8363787801546376
 20
1.888254391895226
 30
0.0
  0
VERTEX
  5
45D1
330
3A6D
100
AcDbEntity
  8
0
100
AcDbVertex
100
AcDb2dVertex
 10
-0.8265362604695987
 20
1.888254391895226
 30
0.0
  0
SEQEND
  5
45D2
330
3A6D
100
AcDbEntity
  8
0
  0
POLYLINE
  5
3A72
330
1E
100
AcDbEntity
  8
0
100
AcDb2dPolyline
 66
     1
 10
0.0
 20
0.0
 30
0.0
  0
VERTEX
  5
45D3
330
3A72
100
AcDbEntity
  8
0
100
AcDbVertex
100
AcDb2dVertex
 10
1.643936180475283
 20
1.888254391895226
 30
0.0
  0
VERTEX
  5
45D4
330
3A72
100
AcDbEntity
  8
0
100
AcDbVertex
100
AcDb2dVertex
 10
1.638030668664259
 20
1.888254391895226
 30
0.0
  0
VERTEX
  5
45D5
330
3A72
100
AcDbEntity
  8
0
100
AcDbVertex
100
AcDb2dVertex
 10
1.630156652916228
 20
1.888254391895226
 30
0.0
  0
SEQEND
  5
45D6
330
3A72
100
AcDbEntity
  8
0
  0
LINE
  5
3A77
330
1E
100
AcDbEntity
  8
0
100
AcDbLine
 10
1.632125156853236
 20
1.528018171422785
 30
0.0
 11
1.630156652916228
 21
1.677624470635384
 31
0.0
  0
LINE
  5
3A78
330
1E
100
AcDbEntity
  8
0
100
AcDbLine
 10
1.630156652916228
 20
1.86660084858814
 30
0.0
 11
1.630156652916228
 21
1.888254391895226
 31
0.0
  0
LINE
  5
3A79
330
1E
100
AcDbEntity
  8
0
100
AcDbLine
 10
1.630156652916228
 20
1.888254391895226
 30
0.0
 11
1.588818070239063
 21
1.888254391895226
 31
0.0
  0
LINE
  5
3A7A
330
1E
100
AcDbEntity
  8
0
100
AcDbLine
 10
1.588818070239063
 20
1.528018171422785
 30
0.0
 11
1.588818070239063
 21
1.677624470635384
 31
0.0
  0
LINE
  5
3A7B
330
1E
100
AcDbEntity
  8
0
100
AcDbLine
 10
1.588818070239063
 20
1.842978801344045
 30
0.0
 11
1.588818070239063
 21
1.888254391895226
 31
0.0
  0
POLYLINE
  5
3A7C
330
1E
100
AcDbEntity
  8
0
100
AcDb2dPolyline
 66
     1
 10
0.0
 20
0.0
 30
0.0
  0
VERTEX
  5
45D7
330
3A7C
100
AcDbEntity
  8
0
100
AcDbVertex
100
AcDb2dVertex
 10
1.588818070239063
 20
1.888254391895226
 30
0.0
  0
VERTEX
  5
45D8
330
3A7C
100
AcDbEntity
  8
0
100
AcDbVertex
100
AcDb2dVertex
 10
1.569133030868984
 20
1.888254391895226
 30
0.0
  0
VERTEX
  5
45D9
330
3A7C
100
AcDbEntity
  8
0
100
AcDbVertex
100
AcDb2dVertex
 10
1.561259015120953
 20
1.888254391895226
 30
0.0
  0
SEQEND
  5
45DA
330
3A7C
100
AcDbEntity
  8
0
  0
LINE
  5
3A81
330
1E
100
AcDbEntity
  8
0
100
AcDbLine
 10
0.8939361804752836
 20
1.528018171422785
 30
0.0
 11
0.8880306686642596
 21
1.888254391895226
 31
0.0
  0
LINE
  5
3A82
330
1E
100
AcDbEntity
  8
0
100
AcDbLine
 10
0.8880306686642596
 20
1.888254391895226
 30
0.0
 11
0.8801566529162281
 21
1.888254391895226
 31
0.0
  0
LINE
  5
3A83
330
1E
100
AcDbEntity
  8
0
100
AcDbLine
 10
0.8880306686642596
 20
1.528018171422785
 30
0.0
 11
0.8801566529162281
 21
1.888254391895226
 31
0.0
  0
POLYLINE
  5
3A84
330
1E
100
AcDbEntity
  8
0
100
AcDb2dPolyline
 66
     1
 10
0.0
 20
0.0
 30
0.0
  0
VERTEX
  5
45DB
330
3A84
100
AcDbEntity
  8
0
100
AcDbVertex
100
AcDb2dVertex
 10
0.8801566529162281
 20
1.888254391895226
 30
0.0
  0
VERTEX
  5
45DC
330
3A84
100
AcDbEntity
  8
0
100
AcDbVertex
100
AcDb2dVertex
 10
0.8663771253571734
 20
1.888254391895226
 30
0.0
  0
VERTEX
  5
45DD
330
3A84
100
AcDbEntity
  8
0
100
AcDbVertex
100
AcDb2dVertex
 10
0.8388180702390632
 20
1.888254391895226
 30
0.0
  0
SEQEND
  5
45DE
330
3A84
100
AcDbEntity
  8
0
  0
LINE
  5
3A89
330
1E
100
AcDbEntity
  8
0
100
AcDbLine
 10
0.8407865741760707
 20
1.528018171422785
 30
0.0
 11
0.8388180702390632
 21
1.888254391895226
 31
0.0
  0
POLYLINE
  5
3A8A
330
1E
100
AcDbEntity
  8
0
100
AcDb2dPolyline
 66
     1
 10
0.0
 20
0.0
 30
0.0
  0
VERTEX
  5
45DF
330
3A8A
100
AcDbEntity
  8
0
100
AcDbVertex
100
AcDb2dVertex
 10
-0.1040953155877089
 20
1.888254391895226
 30
0.0
  0
VERTEX
  5
45E0
330
3A8A
100
AcDbEntity
  8
0
100
AcDbVertex
100
AcDb2dVertex
 10
0.1124401174831577
 20
1.888254391895226
 30
0.0
  0
VERTEX
  5
45E1
330
3A8A
100
AcDbEntity
  8
0
100
AcDbVertex
100
AcDb2dVertex
 10
0.3348810623650475
 20
1.888254391895226
 30
0.0
  0
SEQEND
  5
45E2
330
3A8A
100
AcDbEntity
  8
0
  0
POLYLINE
  5
3A8F
330
1E
100
AcDbEntity
  8
0
100
AcDb2dPolyline
 66
     1
 10
0.0
 20
0.0
 30
0.0
  0
VERTEX
  5
45E3
330
3A8F
100
AcDbEntity
  8
0
100
AcDbVertex
100
AcDb2dVertex
 10
0.3998416922863068
 20
1.888254391895226
 30
0.0
  0
VERTEX
  5
45E4
330
3A8F
100
AcDbEntity
  8
0
100
AcDbVertex
100
AcDb2dVertex
 10
0.6222826371681967
 20
1.888254391895226
 30
0.0
  0
VERTEX
  5
45E5
330
3A8F
100
AcDbEntity
  8
0
100
AcDbVertex
100
AcDb2dVertex
 10
0.8388180702390632
 20
1.888254391895226
 30
0.0
  0
SEQEND
  5
45E6
330
3A8F
100
AcDbEntity
  8
0
  0
LINE
  5
3A94
330
1E
100
AcDbEntity
  8
0
100
AcDbLine
 10
-0.1060638195247163
 20
1.528018171422785
 30
0.0
 11
-0.1040953155877089
 21
1.888254391895226
 31
0.0
  0
LINE
  5
3A95
330
1E
100
AcDbEntity
  8
0
100
AcDbLine
 10
-0.1592134258239293
 20
1.528018171422785
 30
0.0
 11
-0.1533079140129052
 21
1.888254391895226
 31
0.0
  0
LINE
  5
3A96
330
1E
100
AcDbEntity
  8
0
100
AcDbLine
 10
-0.1533079140129052
 20
1.528018171422785
 30
0.0
 11
-0.147402402201882
 21
1.888254391895226
 31
0.0
  0
LINE
  5
3A97
330
1E
100
AcDbEntity
  8
0
100
AcDbLine
 10
-0.1533079140129052
 20
1.888254391895226
 30
0.0
 11
-0.147402402201882
 21
1.888254391895226
 31
0.0
  0
POLYLINE
  5
3A98
330
1E
100
AcDbEntity
  8
0
100
AcDb2dPolyline
 66
     1
 10
0.0
 20
0.0
 30
0.0
  0
VERTEX
  5
45E7
330
3A98
100
AcDbEntity
  8
0
100
AcDbVertex
100
AcDb2dVertex
 10
-0.147402402201882
 20
1.888254391895226
 30
0.0
  0
VERTEX
  5
45E8
330
3A98
100
AcDbEntity
  8
0
100
AcDbVertex
100
AcDb2dVertex
 10
-0.1316543707058191
 20
1.888254391895226
 30
0.0
  0
VERTEX
  5
45E9
330
3A98
100
AcDbEntity
  8
0
100
AcDbVertex
100
AcDb2dVertex
 10
-0.1040953155877089
 20
1.888254391895226
 30
0.0
  0
SEQEND
  5
45EA
330
3A98
100
AcDbEntity
  8
0
  0
LINE
  5
3A9D
330
1E
100
AcDbEntity
  8
0
100
AcDbLine
 10
2.29551098362489
 20
1.703215021816486
 30
0.0
 11
1.856534605672133
 21
1.703215021816486
 31
0.0
  0
LINE
  5
3A9E
330
1E
100
AcDbEntity
  8
0
100
AcDbLine
 10
1.218739330081582
 20
1.703215021816486
 30
0.0
 11
1.057322007246937
 21
1.703215021816486
 31
0.0
  0
LINE
  5
3A9F
330
1E
100
AcDbEntity
  8
0
100
AcDbLine
 10
0.986455865514654
 20
1.703215021816486
 30
0.0
 11
0.8919676765382753
 21
1.703215021816486
 31
0.0
  0
LINE
  5
3AA0
330
1E
100
AcDbEntity
  8
0
100
AcDbLine
 10
-1.562756732910543
 20
1.703215021816486
 30
0.0
 11
-1.121811851020779
 21
1.703215021816486
 31
0.0
  0
LINE
  5
3AA1
330
1E
100
AcDbEntity
  8
0
100
AcDbLine
 10
-0.4840165754302284
 20
1.703215021816486
 30
0.0
 11
-0.322599252595583
 21
1.703215021816486
 31
0.0
  0
LINE
  5
3AA2
330
1E
100
AcDbEntity
  8
0
100
AcDbLine
 10
-0.2537016148003071
 20
1.703215021816486
 30
0.0
 11
-0.157244921886921
 21
1.703215021816486
 31
0.0
  0
LINE
  5
3AA3
330
1E
100
AcDbEntity
  8
0
100
AcDbLine
 10
-0.5174811423593618
 20
1.528018171422785
 30
0.0
 11
-0.5292921659814099
 21
1.677624470635384
 31
0.0
  0
LINE
  5
3AA4
330
1E
100
AcDbEntity
  8
0
100
AcDbLine
 10
-0.5292921659814099
 20
1.677624470635384
 30
0.0
 11
-0.5312606699184173
 21
1.779986675359793
 31
0.0
  0
LINE
  5
3AA5
330
1E
100
AcDbEntity
  8
0
100
AcDbLine
 10
-0.5942527959026691
 20
1.779986675359793
 30
0.0
 11
-0.5312606699184173
 21
1.779986675359793
 31
0.0
  0
LINE
  5
3AA6
330
1E
100
AcDbEntity
  8
0
100
AcDbLine
 10
-0.678898465194008
 20
1.677624470635384
 30
0.0
 11
-0.678898465194008
 21
1.6815614785094
 31
0.0
  0
LINE
  5
3AA7
330
1E
100
AcDbEntity
  8
0
100
AcDbLine
 10
-0.678898465194008
 20
1.528018171422785
 30
0.0
 11
-0.678898465194008
 21
1.677624470635384
 31
0.0
  0
LINE
  5
3AA8
330
1E
100
AcDbEntity
  8
0
100
AcDbLine
 10
-0.4722055518081812
 20
1.528018171422785
 30
0.0
 11
-0.4820480714932201
 21
1.677624470635384
 31
0.0
  0
LINE
  5
3AA9
330
1E
100
AcDbEntity
  8
0
100
AcDbLine
 10
-0.5292921659814099
 20
1.677624470635384
 30
0.0
 11
-0.4820480714932201
 21
1.677624470635384
 31
0.0
  0
LINE
  5
3AAA
330
1E
100
AcDbEntity
  8
0
100
AcDbLine
 10
-0.4820480714932201
 20
1.677624470635384
 30
0.0
 11
-0.4899220872412516
 21
1.868569352525147
 31
0.0
  0
LINE
  5
3AAB
330
1E
100
AcDbEntity
  8
0
100
AcDbLine
 10
1.413621219845362
 20
1.528018171422785
 30
0.0
 11
1.413621219845362
 21
1.677624470635384
 31
0.0
  0
LINE
  5
3AAC
330
1E
100
AcDbEntity
  8
0
100
AcDbLine
 10
1.413621219845362
 20
1.677624470635384
 30
0.0
 11
1.413621219845362
 21
1.6815614785094
 31
0.0
  0
LINE
  5
3AAD
330
1E
100
AcDbEntity
  8
0
100
AcDbLine
 10
1.328975550554023
 20
1.779986675359793
 30
0.0
 11
1.265983424569771
 21
1.779986675359793
 31
0.0
  0
LINE
  5
3AAE
330
1E
100
AcDbEntity
  8
0
100
AcDbLine
 10
1.262046416695755
 20
1.677624470635384
 30
0.0
 11
1.265983424569771
 21
1.779986675359793
 31
0.0
  0
LINE
  5
3AAF
330
1E
100
AcDbEntity
  8
0
100
AcDbLine
 10
1.252203897010716
 20
1.528018171422785
 30
0.0
 11
1.262046416695755
 21
1.677624470635384
 31
0.0
  0
LINE
  5
3AB0
330
1E
100
AcDbEntity
  8
0
100
AcDbLine
 10
1.216770826144574
 20
1.677624470635384
 30
0.0
 11
1.262046416695755
 21
1.677624470635384
 31
0.0
  0
LINE
  5
3AB1
330
1E
100
AcDbEntity
  8
0
100
AcDbLine
 10
1.204959802522527
 20
1.528018171422785
 30
0.0
 11
1.216770826144574
 21
1.677624470635384
 31
0.0
  0
LINE
  5
3AB2
330
1E
100
AcDbEntity
  8
0
100
AcDbLine
 10
1.216770826144574
 20
1.677624470635384
 30
0.0
 11
1.224644841892605
 21
1.868569352525147
 31
0.0
  0
LINE
  5
3AB3
330
1E
100
AcDbEntity
  8
0
100
AcDbLine
 10
2.407715708034338
 20
1.238648092682628
 30
0.0
 11
2.411652715908354
 21
1.238648092682628
 31
0.0
  0
LINE
  5
3AB4
330
1E
100
AcDbEntity
  8
0
100
AcDbLine
 10
-1.674961457319992
 20
1.238648092682628
 30
0.0
 11
2.407715708034338
 21
1.238648092682628
 31
0.0
  0
LINE
  5
3AB5
330
1E
100
AcDbEntity
  8
0
100
AcDbLine
 10
-1.674961457319992
 20
1.238648092682628
 30
0.0
 11
-1.678898465194007
 21
1.238648092682628
 31
0.0
  0
LINE
  5
3AB6
330
1E
100
AcDbEntity
  8
0
100
AcDbLine
 10
2.40574720409733
 20
1.407939431265305
 30
0.0
 11
2.409684211971346
 21
1.407939431265305
 31
0.0
  0
LINE
  5
3AB7
330
1E
100
AcDbEntity
  8
0
100
AcDbLine
 10
-0.9092134258239292
 20
1.915813447013336
 30
0.0
 11
-0.9052764179499135
 21
2.173687462761368
 31
0.0
  0
LINE
  5
3AB8
330
1E
100
AcDbEntity
  8
0
100
AcDbLine
 10
-0.3206307486585747
 20
1.915813447013336
 30
0.0
 11
-0.3245677565325904
 21
2.173687462761368
 31
0.0
  0
LINE
  5
3AB9
330
1E
100
AcDbEntity
  8
0
100
AcDbLine
 10
-0.2556701187373145
 20
1.915813447013336
 30
0.0
 11
-0.2497646069262913
 21
2.173687462761368
 31
0.0
  0
LINE
  5
3ABA
330
1E
100
AcDbEntity
  8
0
100
AcDbLine
 10
0.3348810623650475
 20
1.915813447013336
 30
0.0
 11
0.3289755505540235
 21
2.173687462761368
 31
0.0
  0
LINE
  5
3ABB
330
1E
100
AcDbEntity
  8
0
100
AcDbLine
 10
0.3998416922863068
 20
1.915813447013336
 30
0.0
 11
0.4037787001603226
 21
2.173687462761368
 31
0.0
  0
LINE
  5
3ABC
330
1E
100
AcDbEntity
  8
0
100
AcDbLine
 10
0.9884243694516614
 20
1.915813447013336
 30
0.0
 11
0.9844873615776457
 21
2.173687462761368
 31
0.0
  0
LINE
  5
3ABD
330
1E
100
AcDbEntity
  8
0
100
AcDbLine
 10
1.055353503309929
 20
1.915813447013336
 30
0.0
 11
1.059290511183944
 21
2.173687462761368
 31
0.0
  0
LINE
  5
3ABE
330
1E
100
AcDbEntity
  8
0
100
AcDbLine
 10
1.643936180475283
 20
1.915813447013336
 30
0.0
 11
1.639999172601267
 21
2.173687462761368
 31
0.0
  0
LINE
  5
3ABF
330
1E
100
AcDbEntity
  8
0
100
AcDbLine
 10
1.710865314333551
 20
1.915813447013336
 30
0.0
 11
1.714802322207567
 21
2.173687462761368
 31
0.0
  0
LINE
  5
3AC0
330
1E
100
AcDbEntity
  8
0
100
AcDbLine
 10
2.29551098362489
 20
1.528018171422785
 30
0.0
 11
2.297479487561897
 21
1.654002423391289
 31
0.0
  0
LINE
  5
3AC1
330
1E
100
AcDbEntity
  8
0
100
AcDbLine
 10
2.305353503309929
 20
1.528018171422785
 30
0.0
 11
2.305353503309929
 21
1.531955179296801
 31
0.0
  0
LINE
  5
3AC2
330
1E
100
AcDbEntity
  8
0
100
AcDbLine
 10
2.407715708034338
 20
1.238648092682628
 30
0.0
 11
2.403778700160322
 21
1.528018171422785
 31
0.0
  0
LINE
  5
3AC3
330
1E
100
AcDbEntity
  8
0
100
AcDbLine
 10
1.712833818270558
 20
1.528018171422785
 30
0.0
 11
2.403778700160322
 21
1.528018171422785
 31
0.0
  0
LINE
  5
3AC4
330
1E
100
AcDbEntity
  8
0
100
AcDbLine
 10
1.708896810396542
 20
2.167781950950344
 30
0.0
 11
1.712833818270558
 21
1.528018171422785
 31
0.0
  0
LINE
  5
3AC5
330
1E
100
AcDbEntity
  8
0
100
AcDbLine
 10
1.708896810396542
 20
2.167781950950344
 30
0.0
 11
1.645904684412291
 21
2.167781950950344
 31
0.0
  0
LINE
  5
3AC6
330
1E
100
AcDbEntity
  8
0
100
AcDbLine
 10
1.645904684412291
 20
2.167781950950344
 30
0.0
 11
1.639999172601267
 21
1.528018171422785
 31
0.0
  0
LINE
  5
3AC7
330
1E
100
AcDbEntity
  8
0
100
AcDbLine
 10
1.059290511183944
 20
1.528018171422785
 30
0.0
 11
1.639999172601267
 21
1.528018171422785
 31
0.0
  0
LINE
  5
3AC8
330
1E
100
AcDbEntity
  8
0
100
AcDbLine
 10
1.053384999372921
 20
2.167781950950344
 30
0.0
 11
1.059290511183944
 21
1.528018171422785
 31
0.0
  0
LINE
  5
3AC9
330
1E
100
AcDbEntity
  8
0
100
AcDbLine
 10
1.053384999372921
 20
2.167781950950344
 30
0.0
 11
0.9923613773256771
 21
2.167781950950344
 31
0.0
  0
LINE
  5
3ACA
330
1E
100
AcDbEntity
  8
0
100
AcDbLine
 10
0.9923613773256771
 20
2.167781950950344
 30
0.0
 11
0.986455865514654
 21
1.528018171422785
 31
0.0
  0
LINE
  5
3ACB
330
1E
100
AcDbEntity
  8
0
100
AcDbLine
 10
0.4037787001603226
 20
1.528018171422785
 30
0.0
 11
0.986455865514654
 21
1.528018171422785
 31
0.0
  0
LINE
  5
3ACC
330
1E
100
AcDbEntity
  8
0
100
AcDbLine
 10
0.3978731883492994
 20
2.167781950950344
 30
0.0
 11
0.4037787001603226
 21
1.528018171422785
 31
0.0
  0
LINE
  5
3ACD
330
1E
100
AcDbEntity
  8
0
100
AcDbLine
 10
0.3978731883492994
 20
2.167781950950344
 30
0.0
 11
0.336849566302055
 21
2.167781950950344
 31
0.0
  0
LINE
  5
3ACE
330
1E
100
AcDbEntity
  8
0
100
AcDbLine
 10
0.336849566302055
 20
2.167781950950344
 30
0.0
 11
0.3309440544910318
 21
1.528018171422785
 31
0.0
  0
LINE
  5
3ACF
330
1E
100
AcDbEntity
  8
0
100
AcDbLine
 10
-0.2517331108632987
 20
1.528018171422785
 30
0.0
 11
0.3309440544910318
 21
1.528018171422785
 31
0.0
  0
LINE
  5
3AD0
330
1E
100
AcDbEntity
  8
0
100
AcDbLine
 10
-0.2576386226743228
 20
2.167781950950344
 30
0.0
 11
-0.2517331108632987
 21
1.528018171422785
 31
0.0
  0
LINE
  5
3AD1
330
1E
100
AcDbEntity
  8
0
100
AcDbLine
 10
-0.2576386226743228
 20
2.167781950950344
 30
0.0
 11
-0.3186622447215672
 21
2.167781950950344
 31
0.0
  0
LINE
  5
3AD2
330
1E
100
AcDbEntity
  8
0
100
AcDbLine
 10
-0.3186622447215672
 20
2.167781950950344
 30
0.0
 11
-0.3245677565325904
 21
1.528018171422785
 31
0.0
  0
LINE
  5
3AD3
330
1E
100
AcDbEntity
  8
0
100
AcDbLine
 10
-0.9072449218869209
 20
1.528018171422785
 30
0.0
 11
-0.3245677565325904
 21
1.528018171422785
 31
0.0
  0
LINE
  5
3AD4
330
1E
100
AcDbEntity
  8
0
100
AcDbLine
 10
-0.9111819297609367
 20
2.167781950950344
 30
0.0
 11
-0.9072449218869209
 21
1.528018171422785
 31
0.0
  0
LINE
  5
3AD5
330
1E
100
AcDbEntity
  8
0
100
AcDbLine
 10
-0.9111819297609367
 20
2.167781950950344
 30
0.0
 11
-0.9741740557451885
 21
2.167781950950344
 31
0.0
  0
LINE
  5
3AD6
330
1E
100
AcDbEntity
  8
0
100
AcDbLine
 10
-0.9741740557451885
 20
2.167781950950344
 30
0.0
 11
-0.9800795675562126
 21
1.528018171422785
 31
0.0
  0
LINE
  5
3AD7
330
1E
100
AcDbEntity
  8
0
100
AcDbLine
 10
-1.669055945508969
 20
1.528018171422785
 30
0.0
 11
-0.9800795675562126
 21
1.528018171422785
 31
0.0
  0
LINE
  5
3AD8
330
1E
100
AcDbEntity
  8
0
100
AcDbLine
 10
-1.674961457319992
 20
1.238648092682628
 30
0.0
 11
-1.669055945508969
 21
1.528018171422785
 31
0.0
  0
LINE
  5
3AD9
330
1E
100
AcDbEntity
  8
0
100
AcDbLine
 10
-1.560788228973535
 20
1.528018171422785
 30
0.0
 11
-1.562756732910543
 21
1.654002423391289
 31
0.0
  0
LINE
  5
3ADA
330
1E
100
AcDbEntity
  8
0
100
AcDbLine
 10
-1.570630748658574
 20
1.528018171422785
 30
0.0
 11
-1.570630748658574
 21
1.531955179296801
 31
0.0
  0
LINE
  5
3ADB
330
1E
100
AcDbEntity
  8
0
100
AcDbLine
 10
-0.9761425596821968
 20
1.915813447013336
 30
0.0
 11
-0.9800795675562126
 21
2.173687462761368
 31
0.0
  0
LINE
  5
3ADC
330
1E
100
AcDbEntity
  8
0
100
AcDbLine
 10
-1.135591378579833
 20
1.528018171422785
 30
0.0
 11
-1.123780354957787
 21
1.677624470635384
 31
0.0
  0
LINE
  5
3ADD
330
1E
100
AcDbEntity
  8
0
100
AcDbLine
 10
1.86834562929418
 20
1.528018171422785
 30
0.0
 11
1.858503109609142
 21
1.677624470635384
 31
0.0
  0
LINE
  5
3ADE
330
1E
100
AcDbEntity
  8
0
100
AcDbLine
 10
1.858503109609142
 20
1.677624470635384
 30
0.0
 11
1.85062909386111
 21
1.868569352525147
 31
0.0
  0
LINE
  5
3ADF
330
1E
100
AcDbEntity
  8
0
100
AcDbLine
 10
1.85062909386111
 20
1.868569352525147
 30
0.0
 11
1.828975550554023
 21
1.868569352525147
 31
0.0
  0
LINE
  5
3AE0
330
1E
100
AcDbEntity
  8
0
100
AcDbLine
 10
1.72070783401859
 20
1.868569352525147
 30
0.0
 11
1.828975550554023
 21
1.868569352525147
 31
0.0
  0
LINE
  5
3AE1
330
1E
100
AcDbEntity
  8
0
100
AcDbLine
 10
1.72070783401859
 20
1.868569352525147
 30
0.0
 11
1.710865314333551
 21
1.868569352525147
 31
0.0
  0
LINE
  5
3AE2
330
1E
100
AcDbEntity
  8
0
100
AcDbLine
 10
-0.9761425596821968
 20
1.868569352525147
 30
0.0
 11
-0.9918905911782598
 21
1.868569352525147
 31
0.0
  0
LINE
  5
3AE3
330
1E
100
AcDbEntity
  8
0
100
AcDbLine
 10
-1.100158307713693
 20
1.868569352525147
 30
0.0
 11
-0.9918905911782598
 21
1.868569352525147
 31
0.0
  0
LINE
  5
3AE4
330
1E
100
AcDbEntity
  8
0
100
AcDbLine
 10
-1.100158307713693
 20
1.868569352525147
 30
0.0
 11
-1.111969331335739
 21
1.868569352525147
 31
0.0
  0
LINE
  5
3AE5
330
1E
100
AcDbEntity
  8
0
100
AcDbLine
 10
-1.123780354957787
 20
1.677624470635384
 30
0.0
 11
-1.111969331335739
 21
1.868569352525147
 31
0.0
  0
POLYLINE
  5
3AE6
330
1E
100
AcDbEntity
  8
0
100
AcDb2dPolyline
 66
     1
 10
0.0
 20
0.0
 30
0.0
  0
VERTEX
  5
45EB
330
3AE6
100
AcDbEntity
  8
0
100
AcDbVertex
100
AcDb2dVertex
 10
-0.9781110636192043
 20
2.022112659611762
 30
0.0
  0
VERTEX
  5
45EC
330
3AE6
100
AcDbEntity
  8
0
100
AcDbVertex
100
AcDb2dVertex
 10
-1.005670118737314
 20
2.028018171422785
 30
0.0
  0
VERTEX
  5
45ED
330
3AE6
100
AcDbEntity
  8
0
100
AcDbVertex
100
AcDb2dVertex
 10
-1.00960712661133
 20
2.028018171422785
 30
0.0
  0
SEQEND
  5
45EE
330
3AE6
100
AcDbEntity
  8
0
  0
LINE
  5
3AEB
330
1E
100
AcDbEntity
  8
0
100
AcDbLine
 10
-1.017481142359361
 20
2.028018171422785
 30
0.0
 11
-1.00960712661133
 21
2.028018171422785
 31
0.0
  0
LINE
  5
3AEC
330
1E
100
AcDbEntity
  8
0
100
AcDbLine
 10
-0.8029142132255042
 20
1.797703210792864
 30
0.0
 11
-0.8265362604695987
 21
1.817388250162943
 31
0.0
  0
LINE
  5
3AED
330
1E
100
AcDbEntity
  8
0
100
AcDbLine
 10
-1.115906339209756
 20
1.868569352525147
 30
0.0
 11
-1.111969331335739
 21
1.868569352525147
 31
0.0
  0
LINE
  5
3AEE
330
1E
100
AcDbEntity
  8
0
100
AcDbLine
 10
-0.8521268116507005
 20
1.898096911580266
 30
0.0
 11
-0.8934653943278663
 21
1.898096911580266
 31
0.0
  0
POLYLINE
  5
3AEF
330
1E
100
AcDbEntity
  8
0
100
AcDb2dPolyline
 66
     1
 10
0.0
 20
0.0
 30
0.0
  0
VERTEX
  5
45EF
330
3AEF
100
AcDbEntity
  8
0
100
AcDbVertex
100
AcDb2dVertex
 10
-0.8363787801546376
 20
1.898096911580266
 30
0.0
  0
VERTEX
  5
45F0
330
3AEF
100
AcDbEntity
  8
0
100
AcDbVertex
100
AcDb2dVertex
 10
-0.8422842919656616
 20
1.898096911580266
 30
0.0
  0
VERTEX
  5
45F1
330
3AEF
100
AcDbEntity
  8
0
100
AcDbVertex
100
AcDb2dVertex
 10
-0.8521268116507005
 20
1.898096911580266
 30
0.0
  0
SEQEND
  5
45F2
330
3AEF
100
AcDbEntity
  8
0
  0
POLYLINE
  5
3AF4
330
1E
100
AcDbEntity
  8
0
100
AcDb2dPolyline
 66
     1
 10
0.0
 20
0.0
 30
0.0
  0
VERTEX
  5
45F3
330
3AF4
100
AcDbEntity
  8
0
100
AcDbVertex
100
AcDb2dVertex
 10
-0.8934653943278663
 20
1.898096911580266
 30
0.0
  0
VERTEX
  5
45F4
330
3AF4
100
AcDbEntity
  8
0
100
AcDbVertex
100
AcDb2dVertex
 10
-0.9013394100758977
 20
1.898096911580266
 30
0.0
  0
VERTEX
  5
45F5
330
3AF4
100
AcDbEntity
  8
0
100
AcDbVertex
100
AcDb2dVertex
 10
-0.9092134258239292
 20
1.898096911580266
 30
0.0
  0
SEQEND
  5
45F6
330
3AF4
100
AcDbEntity
  8
0
  0
POLYLINE
  5
3AF9
330
1E
100
AcDbEntity
  8
0
100
AcDb2dPolyline
 66
     1
 10
0.0
 20
0.0
 30
0.0
  0
VERTEX
  5
45F7
330
3AF9
100
AcDbEntity
  8
0
100
AcDbVertex
100
AcDb2dVertex
 10
-0.8521268116507005
 20
1.898096911580266
 30
0.0
  0
VERTEX
  5
45F8
330
3AF9
100
AcDbEntity
  8
0
100
AcDbVertex
100
AcDb2dVertex
 10
-0.8540953155877089
 20
1.896128407643257
 30
0.0
  0
VERTEX
  5
45F9
330
3AF9
100
AcDbEntity
  8
0
100
AcDbVertex
100
AcDb2dVertex
 10
-0.8540953155877089
 20
1.888254391895226
 30
0.0
  0
SEQEND
  5
45FA
330
3AF9
100
AcDbEntity
  8
0
  0
POLYLINE
  5
3AFE
330
1E
100
AcDbEntity
  8
0
100
AcDb2dPolyline
 66
     1
 10
0.0
 20
0.0
 30
0.0
  0
VERTEX
  5
45FB
330
3AFE
100
AcDbEntity
  8
0
100
AcDbVertex
100
AcDb2dVertex
 10
-0.8934653943278663
 20
1.898096911580266
 30
0.0
  0
VERTEX
  5
45FC
330
3AFE
100
AcDbEntity
  8
0
100
AcDbVertex
100
AcDb2dVertex
 10
-0.8954338982648737
 20
1.896128407643257
 30
0.0
  0
VERTEX
  5
45FD
330
3AFE
100
AcDbEntity
  8
0
100
AcDbVertex
100
AcDb2dVertex
 10
-0.8954338982648737
 20
1.888254391895226
 30
0.0
  0
SEQEND
  5
45FE
330
3AFE
100
AcDbEntity
  8
0
  0
LINE
  5
3B03
330
1E
100
AcDbEntity
  8
0
100
AcDbLine
 10
2.36834562929418
 20
1.528018171422785
 30
0.0
 11
2.36834562929418
 21
1.531955179296801
 31
0.0
  0
LINE
  5
3B04
330
1E
100
AcDbEntity
  8
0
100
AcDbLine
 10
-0.672992953382984
 20
1.716994549375542
 30
0.0
 11
-0.5647252368475515
 21
1.805577226540895
 31
0.0
  0
POLYLINE
  5
3B05
330
1E
100
AcDbEntity
  8
0
100
AcDb2dPolyline
 66
     1
 10
0.0
 20
0.0
 30
0.0
  0
VERTEX
  5
45FF
330
3B05
100
AcDbEntity
  8
0
100
AcDbVertex
100
AcDb2dVertex
 10
-0.672992953382984
 20
1.716994549375542
 30
0.0
  0
VERTEX
  5
4600
330
3B05
100
AcDbEntity
  8
0
100
AcDbVertex
100
AcDb2dVertex
 10
-0.6769299612569997
 20
1.711089037564518
 30
0.0
  0
VERTEX
  5
4601
330
3B05
100
AcDbEntity
  8
0
100
AcDbVertex
100
AcDb2dVertex
 10
-0.6769299612569997
 20
1.703215021816486
 30
0.0
  0
SEQEND
  5
4602
330
3B05
100
AcDbEntity
  8
0
  0
LINE
  5
3B0A
330
1E
100
AcDbEntity
  8
0
100
AcDbLine
 10
-0.678898465194008
 20
1.687466990320423
 30
0.0
 11
-0.6769299612569997
 21
1.703215021816486
 31
0.0
  0
POLYLINE
  5
3B0B
330
1E
100
AcDbEntity
  8
0
100
AcDb2dPolyline
 66
     1
 10
0.0
 20
0.0
 30
0.0
  0
VERTEX
  5
4603
330
3B0B
100
AcDbEntity
  8
0
100
AcDbVertex
100
AcDb2dVertex
 10
-0.6848039770050312
 20
1.677624470635384
 30
0.0
  0
VERTEX
  5
4604
330
3B0B
100
AcDbEntity
  8
0
100
AcDbVertex
100
AcDb2dVertex
 10
-0.6808669691310154
 20
1.679592974572392
 30
0.0
  0
VERTEX
  5
4605
330
3B0B
100
AcDbEntity
  8
0
100
AcDbVertex
100
AcDb2dVertex
 10
-0.678898465194008
 20
1.687466990320423
 30
0.0
  0
SEQEND
  5
4606
330
3B0B
100
AcDbEntity
  8
0
  0
LINE
  5
3B10
330
1E
100
AcDbEntity
  8
0
100
AcDbLine
 10
-0.7143315360601497
 20
1.677624470635384
 30
0.0
 11
-0.6848039770050312
 21
1.677624470635384
 31
0.0
  0
LINE
  5
3B11
330
1E
100
AcDbEntity
  8
0
100
AcDbLine
 10
-0.7143315360601497
 20
1.677624470635384
 30
0.0
 11
-0.7418905911782599
 21
1.677624470635384
 31
0.0
  0
LINE
  5
3B12
330
1E
100
AcDbEntity
  8
0
100
AcDbLine
 10
-0.7143315360601497
 20
1.677624470635384
 30
0.0
 11
-0.7123630321231414
 21
1.70912053362751
 31
0.0
  0
LINE
  5
3B13
330
1E
100
AcDbEntity
  8
0
100
AcDbLine
 10
-0.7438590951152673
 20
1.70912053362751
 30
0.0
 11
-0.7123630321231414
 21
1.70912053362751
 31
0.0
  0
POLYLINE
  5
3B14
330
1E
100
AcDbEntity
  8
0
100
AcDb2dPolyline
 66
     1
 10
0.0
 20
0.0
 30
0.0
  0
VERTEX
  5
4607
330
3B14
100
AcDbEntity
  8
0
100
AcDbVertex
100
AcDb2dVertex
 10
-0.6907094888160552
 20
1.762270139926722
 30
0.0
  0
VERTEX
  5
4608
330
3B14
100
AcDbEntity
  8
0
100
AcDbVertex
100
AcDb2dVertex
 10
-0.7064575203121182
 20
1.738648092682628
 30
0.0
  0
VERTEX
  5
4609
330
3B14
100
AcDbEntity
  8
0
100
AcDbVertex
100
AcDb2dVertex
 10
-0.7123630321231414
 20
1.70912053362751
 30
0.0
  0
SEQEND
  5
460A
330
3B14
100
AcDbEntity
  8
0
  0
LINE
  5
3B19
330
1E
100
AcDbEntity
  8
0
100
AcDbLine
 10
-0.7655126384223543
 20
1.762270139926722
 30
0.0
 11
-0.6907094888160552
 21
1.762270139926722
 31
0.0
  0
LINE
  5
3B1A
330
1E
100
AcDbEntity
  8
0
100
AcDbLine
 10
-0.6907094888160552
 20
1.762270139926722
 30
0.0
 11
-0.588347284091646
 21
1.852821321029084
 31
0.0
  0
LINE
  5
3B1B
330
1E
100
AcDbEntity
  8
0
100
AcDbLine
 10
-0.7399220872412516
 20
1.852821321029084
 30
0.0
 11
-0.588347284091646
 21
1.852821321029084
 31
0.0
  0
LINE
  5
3B1C
330
1E
100
AcDbEntity
  8
0
100
AcDbLine
 10
-0.8048827171625116
 20
1.795734706855856
 30
0.0
 11
-0.7399220872412516
 21
1.852821321029084
 31
0.0
  0
LINE
  5
3B1D
330
1E
100
AcDbEntity
  8
0
100
AcDbLine
 10
-0.5529142132255043
 20
1.868569352525147
 30
0.0
 11
-0.7044890163751099
 21
1.868569352525147
 31
0.0
  0
POLYLINE
  5
3B1E
330
1E
100
AcDbEntity
  8
0
100
AcDb2dPolyline
 66
     1
 10
0.0
 20
0.0
 30
0.0
  0
VERTEX
  5
460B
330
3B1E
100
AcDbEntity
  8
0
100
AcDbVertex
100
AcDb2dVertex
 10
-0.7044890163751099
 20
1.868569352525147
 30
0.0
  0
VERTEX
  5
460C
330
3B1E
100
AcDbEntity
  8
0
100
AcDbVertex
100
AcDb2dVertex
 10
-0.7222055518081812
 20
1.864632344651131
 30
0.0
  0
VERTEX
  5
460D
330
3B1E
100
AcDbEntity
  8
0
100
AcDbVertex
100
AcDb2dVertex
 10
-0.7399220872412516
 20
1.852821321029084
 30
0.0
  0
SEQEND
  5
460E
330
3B1E
100
AcDbEntity
  8
0
  0
POLYLINE
  5
3B23
330
1E
100
AcDbEntity
  8
0
100
AcDb2dPolyline
 66
     1
 10
0.0
 20
0.0
 30
0.0
  0
VERTEX
  5
460F
330
3B23
100
AcDbEntity
  8
0
100
AcDbVertex
100
AcDb2dVertex
 10
-0.5529142132255043
 20
1.868569352525147
 30
0.0
  0
VERTEX
  5
4610
330
3B23
100
AcDbEntity
  8
0
100
AcDbVertex
100
AcDb2dVertex
 10
-0.572599252595583
 20
1.864632344651131
 30
0.0
  0
VERTEX
  5
4611
330
3B23
100
AcDbEntity
  8
0
100
AcDbVertex
100
AcDb2dVertex
 10
-0.588347284091646
 20
1.852821321029084
 30
0.0
  0
SEQEND
  5
4612
330
3B23
100
AcDbEntity
  8
0
  0
LINE
  5
3B28
330
1E
100
AcDbEntity
  8
0
100
AcDbLine
 10
-0.4899220872412516
 20
1.868569352525147
 30
0.0
 11
-0.5529142132255043
 21
1.868569352525147
 31
0.0
  0
POLYLINE
  5
3B29
330
1E
100
AcDbEntity
  8
0
100
AcDb2dPolyline
 66
     1
 10
0.0
 20
0.0
 30
0.0
  0
VERTEX
  5
4613
330
3B29
100
AcDbEntity
  8
0
100
AcDbVertex
100
AcDb2dVertex
 10
-0.5312606699184173
 20
1.779986675359793
 30
0.0
  0
VERTEX
  5
4614
330
3B29
100
AcDbEntity
  8
0
100
AcDbVertex
100
AcDb2dVertex
 10
-0.5430716935404645
 20
1.805577226540895
 30
0.0
  0
VERTEX
  5
4615
330
3B29
100
AcDbEntity
  8
0
100
AcDbVertex
100
AcDb2dVertex
 10
-0.5647252368475515
 20
1.805577226540895
 30
0.0
  0
SEQEND
  5
4616
330
3B29
100
AcDbEntity
  8
0
  0
POLYLINE
  5
3B2E
330
1E
100
AcDbEntity
  8
0
100
AcDb2dPolyline
 66
     1
 10
0.0
 20
0.0
 30
0.0
  0
VERTEX
  5
4617
330
3B2E
100
AcDbEntity
  8
0
100
AcDbVertex
100
AcDb2dVertex
 10
0.8348810623650475
 20
1.898096911580266
 30
0.0
  0
VERTEX
  5
4618
330
3B2E
100
AcDbEntity
  8
0
100
AcDbVertex
100
AcDb2dVertex
 10
0.6203141332311893
 20
1.898096911580266
 30
0.0
  0
VERTEX
  5
4619
330
3B2E
100
AcDbEntity
  8
0
100
AcDbVertex
100
AcDb2dVertex
 10
0.3998416922863068
 20
1.898096911580266
 30
0.0
  0
SEQEND
  5
461A
330
3B2E
100
AcDbEntity
  8
0
  0
POLYLINE
  5
3B33
330
1E
100
AcDbEntity
  8
0
100
AcDb2dPolyline
 66
     1
 10
0.0
 20
0.0
 30
0.0
  0
VERTEX
  5
461B
330
3B33
100
AcDbEntity
  8
0
100
AcDbVertex
100
AcDb2dVertex
 10
0.3348810623650475
 20
1.898096911580266
 30
0.0
  0
VERTEX
  5
461C
330
3B33
100
AcDbEntity
  8
0
100
AcDbVertex
100
AcDb2dVertex
 10
0.1124401174831577
 20
1.898096911580266
 30
0.0
  0
VERTEX
  5
461D
330
3B33
100
AcDbEntity
  8
0
100
AcDbVertex
100
AcDb2dVertex
 10
-0.1001583077136932
 20
1.898096911580266
 30
0.0
  0
SEQEND
  5
461E
330
3B33
100
AcDbEntity
  8
0
  0
POLYLINE
  5
3B38
330
1E
100
AcDbEntity
  8
0
100
AcDb2dPolyline
 66
     1
 10
0.0
 20
0.0
 30
0.0
  0
VERTEX
  5
461F
330
3B38
100
AcDbEntity
  8
0
100
AcDbVertex
100
AcDb2dVertex
 10
0.8348810623650475
 20
1.898096911580266
 30
0.0
  0
VERTEX
  5
4620
330
3B38
100
AcDbEntity
  8
0
100
AcDbVertex
100
AcDb2dVertex
 10
0.858503109609142
 20
1.898096911580266
 30
0.0
  0
VERTEX
  5
4621
330
3B38
100
AcDbEntity
  8
0
100
AcDbVertex
100
AcDb2dVertex
 10
0.8703141332311892
 20
1.898096911580266
 30
0.0
  0
SEQEND
  5
4622
330
3B38
100
AcDbEntity
  8
0
  0
LINE
  5
3B3D
330
1E
100
AcDbEntity
  8
0
100
AcDbLine
 10
0.8703141332311892
 20
1.898096911580266
 30
0.0
 11
0.8781881489792207
 21
1.898096911580266
 31
0.0
  0
LINE
  5
3B3E
330
1E
100
AcDbEntity
  8
0
100
AcDbLine
 10
-0.1375598825168423
 20
1.898096911580266
 30
0.0
 11
-0.1434653943278663
 21
1.898096911580266
 31
0.0
  0
POLYLINE
  5
3B3F
330
1E
100
AcDbEntity
  8
0
100
AcDb2dPolyline
 66
     1
 10
0.0
 20
0.0
 30
0.0
  0
VERTEX
  5
4623
330
3B3F
100
AcDbEntity
  8
0
100
AcDbVertex
100
AcDb2dVertex
 10
-0.1001583077136932
 20
1.898096911580266
 30
0.0
  0
VERTEX
  5
4624
330
3B3F
100
AcDbEntity
  8
0
100
AcDbVertex
100
AcDb2dVertex
 10
-0.1237803549577876
 20
1.898096911580266
 30
0.0
  0
VERTEX
  5
4625
330
3B3F
100
AcDbEntity
  8
0
100
AcDbVertex
100
AcDb2dVertex
 10
-0.1375598825168423
 20
1.898096911580266
 30
0.0
  0
SEQEND
  5
4626
330
3B3F
100
AcDbEntity
  8
0
  0
POLYLINE
  5
3B44
330
1E
100
AcDbEntity
  8
0
100
AcDb2dPolyline
 66
     1
 10
0.0
 20
0.0
 30
0.0
  0
VERTEX
  5
4627
330
3B44
100
AcDbEntity
  8
0
100
AcDbVertex
100
AcDb2dVertex
 10
-0.147402402201882
 20
1.888254391895226
 30
0.0
  0
VERTEX
  5
4628
330
3B44
100
AcDbEntity
  8
0
100
AcDbVertex
100
AcDb2dVertex
 10
-0.1434653943278663
 20
1.896128407643257
 30
0.0
  0
VERTEX
  5
4629
330
3B44
100
AcDbEntity
  8
0
100
AcDbVertex
100
AcDb2dVertex
 10
-0.1375598825168423
 20
1.898096911580266
 30
0.0
  0
SEQEND
  5
462A
330
3B44
100
AcDbEntity
  8
0
  0
POLYLINE
  5
3B49
330
1E
100
AcDbEntity
  8
0
100
AcDb2dPolyline
 66
     1
 10
0.0
 20
0.0
 30
0.0
  0
VERTEX
  5
462B
330
3B49
100
AcDbEntity
  8
0
100
AcDbVertex
100
AcDb2dVertex
 10
-0.1040953155877089
 20
1.888254391895226
 30
0.0
  0
VERTEX
  5
462C
330
3B49
100
AcDbEntity
  8
0
100
AcDbVertex
100
AcDb2dVertex
 10
-0.1040953155877089
 20
1.896128407643257
 30
0.0
  0
VERTEX
  5
462D
330
3B49
100
AcDbEntity
  8
0
100
AcDbVertex
100
AcDb2dVertex
 10
-0.1001583077136932
 20
1.898096911580266
 30
0.0
  0
SEQEND
  5
462E
330
3B49
100
AcDbEntity
  8
0
  0
POLYLINE
  5
3B4E
330
1E
100
AcDbEntity
  8
0
100
AcDb2dPolyline
 66
     1
 10
0.0
 20
0.0
 30
0.0
  0
VERTEX
  5
462F
330
3B4E
100
AcDbEntity
  8
0
100
AcDbVertex
100
AcDb2dVertex
 10
-0.1533079140129052
 20
1.888254391895226
 30
0.0
  0
VERTEX
  5
4630
330
3B4E
100
AcDbEntity
  8
0
100
AcDbVertex
100
AcDb2dVertex
 10
-0.1513394100758978
 20
1.896128407643257
 30
0.0
  0
VERTEX
  5
4631
330
3B4E
100
AcDbEntity
  8
0
100
AcDbVertex
100
AcDb2dVertex
 10
-0.1434653943278663
 20
1.898096911580266
 30
0.0
  0
SEQEND
  5
4632
330
3B4E
100
AcDbEntity
  8
0
  0
POLYLINE
  5
3B53
330
1E
100
AcDbEntity
  8
0
100
AcDb2dPolyline
 66
     1
 10
0.0
 20
0.0
 30
0.0
  0
VERTEX
  5
4633
330
3B53
100
AcDbEntity
  8
0
100
AcDbVertex
100
AcDb2dVertex
 10
0.8388180702390632
 20
1.888254391895226
 30
0.0
  0
VERTEX
  5
4634
330
3B53
100
AcDbEntity
  8
0
100
AcDbVertex
100
AcDb2dVertex
 10
0.8368495663020549
 20
1.896128407643257
 30
0.0
  0
VERTEX
  5
4635
330
3B53
100
AcDbEntity
  8
0
100
AcDbVertex
100
AcDb2dVertex
 10
0.8348810623650475
 20
1.898096911580266
 30
0.0
  0
SEQEND
  5
4636
330
3B53
100
AcDbEntity
  8
0
  0
POLYLINE
  5
3B58
330
1E
100
AcDbEntity
  8
0
100
AcDb2dPolyline
 66
     1
 10
0.0
 20
0.0
 30
0.0
  0
VERTEX
  5
4637
330
3B58
100
AcDbEntity
  8
0
100
AcDbVertex
100
AcDb2dVertex
 10
0.8801566529162281
 20
1.888254391895226
 30
0.0
  0
VERTEX
  5
4638
330
3B58
100
AcDbEntity
  8
0
100
AcDbVertex
100
AcDb2dVertex
 10
0.8781881489792207
 20
1.896128407643257
 30
0.0
  0
VERTEX
  5
4639
330
3B58
100
AcDbEntity
  8
0
100
AcDbVertex
100
AcDb2dVertex
 10
0.8703141332311892
 20
1.898096911580266
 30
0.0
  0
SEQEND
  5
463A
330
3B58
100
AcDbEntity
  8
0
  0
POLYLINE
  5
3B5D
330
1E
100
AcDbEntity
  8
0
100
AcDb2dPolyline
 66
     1
 10
0.0
 20
0.0
 30
0.0
  0
VERTEX
  5
463B
330
3B5D
100
AcDbEntity
  8
0
100
AcDbVertex
100
AcDb2dVertex
 10
0.8880306686642596
 20
1.888254391895226
 30
0.0
  0
VERTEX
  5
463C
330
3B5D
100
AcDbEntity
  8
0
100
AcDbVertex
100
AcDb2dVertex
 10
0.8860621647272521
 20
1.896128407643257
 30
0.0
  0
VERTEX
  5
463D
330
3B5D
100
AcDbEntity
  8
0
100
AcDbVertex
100
AcDb2dVertex
 10
0.8781881489792207
 20
1.898096911580266
 30
0.0
  0
SEQEND
  5
463E
330
3B5D
100
AcDbEntity
  8
0
  0
LINE
  5
3B62
330
1E
100
AcDbEntity
  8
0
100
AcDbLine
 10
1.407715708034338
 20
1.716994549375542
 30
0.0
 11
1.297479487561897
 21
1.805577226540895
 31
0.0
  0
POLYLINE
  5
3B63
330
1E
100
AcDbEntity
  8
0
100
AcDb2dPolyline
 66
     1
 10
0.0
 20
0.0
 30
0.0
  0
VERTEX
  5
463F
330
3B63
100
AcDbEntity
  8
0
100
AcDbVertex
100
AcDb2dVertex
 10
1.407715708034338
 20
1.716994549375542
 30
0.0
  0
VERTEX
  5
4640
330
3B63
100
AcDbEntity
  8
0
100
AcDbVertex
100
AcDb2dVertex
 10
1.411652715908354
 20
1.711089037564518
 30
0.0
  0
VERTEX
  5
4641
330
3B63
100
AcDbEntity
  8
0
100
AcDbVertex
100
AcDb2dVertex
 10
1.411652715908354
 20
1.703215021816486
 30
0.0
  0
SEQEND
  5
4642
330
3B63
100
AcDbEntity
  8
0
  0
LINE
  5
3B68
330
1E
100
AcDbEntity
  8
0
100
AcDbLine
 10
1.411652715908354
 20
1.687466990320423
 30
0.0
 11
1.411652715908354
 21
1.703215021816486
 31
0.0
  0
POLYLINE
  5
3B69
330
1E
100
AcDbEntity
  8
0
100
AcDb2dPolyline
 66
     1
 10
0.0
 20
0.0
 30
0.0
  0
VERTEX
  5
4643
330
3B69
100
AcDbEntity
  8
0
100
AcDbVertex
100
AcDb2dVertex
 10
1.419526731656385
 20
1.677624470635384
 30
0.0
  0
VERTEX
  5
4644
330
3B69
100
AcDbEntity
  8
0
100
AcDbVertex
100
AcDb2dVertex
 10
1.413621219845362
 20
1.679592974572392
 30
0.0
  0
VERTEX
  5
4645
330
3B69
100
AcDbEntity
  8
0
100
AcDbVertex
100
AcDb2dVertex
 10
1.411652715908354
 20
1.687466990320423
 30
0.0
  0
SEQEND
  5
4646
330
3B69
100
AcDbEntity
  8
0
  0
LINE
  5
3B6E
330
1E
100
AcDbEntity
  8
0
100
AcDbLine
 10
1.476613345829614
 20
1.677624470635384
 30
0.0
 11
1.447085786774495
 21
1.677624470635384
 31
0.0
  0
LINE
  5
3B6F
330
1E
100
AcDbEntity
  8
0
100
AcDbLine
 10
1.447085786774495
 20
1.677624470635384
 30
0.0
 11
1.419526731656385
 21
1.677624470635384
 31
0.0
  0
LINE
  5
3B70
330
1E
100
AcDbEntity
  8
0
100
AcDbLine
 10
1.447085786774495
 20
1.677624470635384
 30
0.0
 11
1.447085786774495
 21
1.70912053362751
 31
0.0
  0
LINE
  5
3B71
330
1E
100
AcDbEntity
  8
0
100
AcDbLine
 10
1.476613345829614
 20
1.70912053362751
 30
0.0
 11
1.447085786774495
 21
1.70912053362751
 31
0.0
  0
LINE
  5
3B72
330
1E
100
AcDbEntity
  8
0
100
AcDbLine
 10
1.498266889136701
 20
1.762270139926722
 30
0.0
 11
1.425432243467409
 21
1.762270139926722
 31
0.0
  0
POLYLINE
  5
3B73
330
1E
100
AcDbEntity
  8
0
100
AcDb2dPolyline
 66
     1
 10
0.0
 20
0.0
 30
0.0
  0
VERTEX
  5
4647
330
3B73
100
AcDbEntity
  8
0
100
AcDbVertex
100
AcDb2dVertex
 10
1.425432243467409
 20
1.762270139926722
 30
0.0
  0
VERTEX
  5
4648
330
3B73
100
AcDbEntity
  8
0
100
AcDbVertex
100
AcDb2dVertex
 10
1.441180274963472
 20
1.738648092682628
 30
0.0
  0
VERTEX
  5
4649
330
3B73
100
AcDbEntity
  8
0
100
AcDbVertex
100
AcDb2dVertex
 10
1.447085786774495
 20
1.70912053362751
 30
0.0
  0
SEQEND
  5
464A
330
3B73
100
AcDbEntity
  8
0
  0
LINE
  5
3B78
330
1E
100
AcDbEntity
  8
0
100
AcDbLine
 10
1.537636967876858
 20
1.797703210792864
 30
0.0
 11
1.474644841892605
 21
1.852821321029084
 31
0.0
  0
LINE
  5
3B79
330
1E
100
AcDbEntity
  8
0
100
AcDbLine
 10
1.474644841892605
 20
1.852821321029084
 30
0.0
 11
1.323070038743
 21
1.852821321029084
 31
0.0
  0
LINE
  5
3B7A
330
1E
100
AcDbEntity
  8
0
100
AcDbLine
 10
1.425432243467409
 20
1.762270139926722
 30
0.0
 11
1.323070038743
 21
1.852821321029084
 31
0.0
  0
POLYLINE
  5
3B7B
330
1E
100
AcDbEntity
  8
0
100
AcDb2dPolyline
 66
     1
 10
0.0
 20
0.0
 30
0.0
  0
VERTEX
  5
464B
330
3B7B
100
AcDbEntity
  8
0
100
AcDbVertex
100
AcDb2dVertex
 10
1.439211771026464
 20
1.868569352525147
 30
0.0
  0
VERTEX
  5
464C
330
3B7B
100
AcDbEntity
  8
0
100
AcDbVertex
100
AcDb2dVertex
 10
1.456928306459535
 20
1.864632344651131
 30
0.0
  0
VERTEX
  5
464D
330
3B7B
100
AcDbEntity
  8
0
100
AcDbVertex
100
AcDb2dVertex
 10
1.474644841892605
 20
1.852821321029084
 30
0.0
  0
SEQEND
  5
464E
330
3B7B
100
AcDbEntity
  8
0
  0
LINE
  5
3B80
330
1E
100
AcDbEntity
  8
0
100
AcDbLine
 10
1.439211771026464
 20
1.868569352525147
 30
0.0
 11
1.287636967876858
 21
1.868569352525147
 31
0.0
  0
POLYLINE
  5
3B81
330
1E
100
AcDbEntity
  8
0
100
AcDb2dPolyline
 66
     1
 10
0.0
 20
0.0
 30
0.0
  0
VERTEX
  5
464F
330
3B81
100
AcDbEntity
  8
0
100
AcDbVertex
100
AcDb2dVertex
 10
1.287636967876858
 20
1.868569352525147
 30
0.0
  0
VERTEX
  5
4650
330
3B81
100
AcDbEntity
  8
0
100
AcDbVertex
100
AcDb2dVertex
 10
1.305353503309929
 20
1.864632344651131
 30
0.0
  0
VERTEX
  5
4651
330
3B81
100
AcDbEntity
  8
0
100
AcDbVertex
100
AcDb2dVertex
 10
1.323070038743
 20
1.852821321029084
 30
0.0
  0
SEQEND
  5
4652
330
3B81
100
AcDbEntity
  8
0
  0
LINE
  5
3B86
330
1E
100
AcDbEntity
  8
0
100
AcDbLine
 10
1.224644841892605
 20
1.868569352525147
 30
0.0
 11
1.287636967876858
 21
1.868569352525147
 31
0.0
  0
POLYLINE
  5
3B87
330
1E
100
AcDbEntity
  8
0
100
AcDb2dPolyline
 66
     1
 10
0.0
 20
0.0
 30
0.0
  0
VERTEX
  5
4653
330
3B87
100
AcDbEntity
  8
0
100
AcDbVertex
100
AcDb2dVertex
 10
1.265983424569771
 20
1.779986675359793
 30
0.0
  0
VERTEX
  5
4654
330
3B87
100
AcDbEntity
  8
0
100
AcDbVertex
100
AcDb2dVertex
 10
1.277794448191818
 20
1.805577226540895
 30
0.0
  0
VERTEX
  5
4655
330
3B87
100
AcDbEntity
  8
0
100
AcDbVertex
100
AcDb2dVertex
 10
1.297479487561897
 20
1.805577226540895
 30
0.0
  0
SEQEND
  5
4656
330
3B87
100
AcDbEntity
  8
0
  0
LINE
  5
3B8C
330
1E
100
AcDbEntity
  8
0
100
AcDbLine
 10
-0.9072449218869209
 20
1.868569352525147
 30
0.0
 11
-0.8698433470837718
 21
1.852821321029084
 31
0.0
  0
POLYLINE
  5
3B8D
330
1E
100
AcDbEntity
  8
0
100
AcDb2dPolyline
 66
     1
 10
0.0
 20
0.0
 30
0.0
  0
VERTEX
  5
4657
330
3B8D
100
AcDbEntity
  8
0
100
AcDbVertex
100
AcDb2dVertex
 10
1.636062164727252
 20
1.868569352525147
 30
0.0
  0
VERTEX
  5
4658
330
3B8D
100
AcDbEntity
  8
0
100
AcDbVertex
100
AcDb2dVertex
 10
1.61834562929418
 20
1.864632344651131
 30
0.0
  0
VERTEX
  5
4659
330
3B8D
100
AcDbEntity
  8
0
100
AcDbVertex
100
AcDb2dVertex
 10
1.60062909386111
 20
1.852821321029084
 30
0.0
  0
SEQEND
  5
465A
330
3B8D
100
AcDbEntity
  8
0
  0
LINE
  5
3B92
330
1E
100
AcDbEntity
  8
0
100
AcDbLine
 10
1.643936180475283
 20
1.868569352525147
 30
0.0
 11
1.636062164727252
 21
1.868569352525147
 31
0.0
  0
LINE
  5
3B93
330
1E
100
AcDbEntity
  8
0
100
AcDbLine
 10
-0.9092134258239292
 20
1.868569352525147
 30
0.0
 11
-0.9072449218869209
 21
1.868569352525147
 31
0.0
  0
LINE
  5
3B94
330
1E
100
AcDbEntity
  8
0
100
AcDbLine
 10
-0.7655126384223543
 20
1.762270139926722
 30
0.0
 11
-0.8698433470837718
 21
1.852821321029084
 31
0.0
  0
POLYLINE
  5
3B95
330
1E
100
AcDbEntity
  8
0
100
AcDb2dPolyline
 66
     1
 10
0.0
 20
0.0
 30
0.0
  0
VERTEX
  5
465B
330
3B95
100
AcDbEntity
  8
0
100
AcDbVertex
100
AcDb2dVertex
 10
-0.7655126384223543
 20
1.762270139926722
 30
0.0
  0
VERTEX
  5
465C
330
3B95
100
AcDbEntity
  8
0
100
AcDbVertex
100
AcDb2dVertex
 10
-0.7497646069262914
 20
1.738648092682628
 30
0.0
  0
VERTEX
  5
465D
330
3B95
100
AcDbEntity
  8
0
100
AcDbVertex
100
AcDb2dVertex
 10
-0.7438590951152673
 20
1.70912053362751
 30
0.0
  0
SEQEND
  5
465E
330
3B95
100
AcDbEntity
  8
0
  0
LINE
  5
3B9A
330
1E
100
AcDbEntity
  8
0
100
AcDbLine
 10
-0.7418905911782599
 20
1.677624470635384
 30
0.0
 11
-0.7438590951152673
 21
1.70912053362751
 31
0.0
  0
LINE
  5
3B9B
330
1E
100
AcDbEntity
  8
0
100
AcDbLine
 10
-0.9072449218869209
 20
1.677624470635384
 30
0.0
 11
-0.7694496462963701
 21
1.677624470635384
 31
0.0
  0
LINE
  5
3B9C
330
1E
100
AcDbEntity
  8
0
100
AcDbLine
 10
-0.7418905911782599
 20
1.677624470635384
 30
0.0
 11
-0.7694496462963701
 21
1.677624470635384
 31
0.0
  0
LINE
  5
3B9D
330
1E
100
AcDbEntity
  8
0
100
AcDbLine
 10
-0.9072449218869209
 20
1.687466990320423
 30
0.0
 11
-0.7773236620444015
 21
1.687466990320423
 31
0.0
  0
LINE
  5
3B9E
330
1E
100
AcDbEntity
  8
0
100
AcDbLine
 10
-0.7694496462963701
 20
1.677624470635384
 30
0.0
 11
-0.7773236620444015
 21
1.687466990320423
 31
0.0
  0
LINE
  5
3B9F
330
1E
100
AcDbEntity
  8
0
100
AcDbLine
 10
-0.9072449218869209
 20
1.703215021816486
 30
0.0
 11
-0.7773236620444015
 21
1.703215021816486
 31
0.0
  0
LINE
  5
3BA0
330
1E
100
AcDbEntity
  8
0
100
AcDbLine
 10
-0.7773236620444015
 20
1.687466990320423
 30
0.0
 11
-0.7773236620444015
 21
1.703215021816486
 31
0.0
  0
LINE
  5
3BA1
330
1E
100
AcDbEntity
  8
0
100
AcDbLine
 10
-0.9072449218869209
 20
1.716994549375542
 30
0.0
 11
-0.7832291738554256
 21
1.716994549375542
 31
0.0
  0
LINE
  5
3BA2
330
1E
100
AcDbEntity
  8
0
100
AcDbLine
 10
-0.7832291738554256
 20
1.716994549375542
 30
0.0
 11
-0.7773236620444015
 21
1.703215021816486
 31
0.0
  0
LINE
  5
3BA3
330
1E
100
AcDbEntity
  8
0
100
AcDbLine
 10
-0.9092134258239292
 20
1.805577226540895
 30
0.0
 11
-0.8934653943278663
 21
1.805577226540895
 31
0.0
  0
LINE
  5
3BA4
330
1E
100
AcDbEntity
  8
0
100
AcDbLine
 10
-0.7832291738554256
 20
1.716994549375542
 30
0.0
 11
-0.8934653943278663
 21
1.805577226540895
 31
0.0
  0
LINE
  5
3BA5
330
1E
100
AcDbEntity
  8
0
100
AcDbLine
 10
-0.9092134258239292
 20
1.809514234414911
 30
0.0
 11
-0.8934653943278663
 21
1.805577226540895
 31
0.0
  0
LINE
  5
3BA6
330
1E
100
AcDbEntity
  8
0
100
AcDbLine
 10
1.643936180475283
 20
1.805577226540895
 30
0.0
 11
1.626219645042212
 21
1.805577226540895
 31
0.0
  0
LINE
  5
3BA7
330
1E
100
AcDbEntity
  8
0
100
AcDbLine
 10
1.517951928506779
 20
1.716994549375542
 30
0.0
 11
1.626219645042212
 21
1.805577226540895
 31
0.0
  0
LINE
  5
3BA8
330
1E
100
AcDbEntity
  8
0
100
AcDbLine
 10
1.641967676538275
 20
1.716994549375542
 30
0.0
 11
1.517951928506779
 21
1.716994549375542
 31
0.0
  0
POLYLINE
  5
3BA9
330
1E
100
AcDbEntity
  8
0
100
AcDb2dPolyline
 66
     1
 10
0.0
 20
0.0
 30
0.0
  0
VERTEX
  5
465F
330
3BA9
100
AcDbEntity
  8
0
100
AcDbVertex
100
AcDb2dVertex
 10
1.517951928506779
 20
1.716994549375542
 30
0.0
  0
VERTEX
  5
4660
330
3BA9
100
AcDbEntity
  8
0
100
AcDbVertex
100
AcDb2dVertex
 10
1.514014920632764
 20
1.711089037564518
 30
0.0
  0
VERTEX
  5
4661
330
3BA9
100
AcDbEntity
  8
0
100
AcDbVertex
100
AcDb2dVertex
 10
1.512046416695755
 20
1.703215021816486
 30
0.0
  0
SEQEND
  5
4662
330
3BA9
100
AcDbEntity
  8
0
  0
LINE
  5
3BAE
330
1E
100
AcDbEntity
  8
0
100
AcDbLine
 10
1.641967676538275
 20
1.703215021816486
 30
0.0
 11
1.512046416695755
 21
1.703215021816486
 31
0.0
  0
LINE
  5
3BAF
330
1E
100
AcDbEntity
  8
0
100
AcDbLine
 10
1.512046416695755
 20
1.687466990320423
 30
0.0
 11
1.512046416695755
 21
1.703215021816486
 31
0.0
  0
LINE
  5
3BB0
330
1E
100
AcDbEntity
  8
0
100
AcDbLine
 10
1.641967676538275
 20
1.687466990320423
 30
0.0
 11
1.512046416695755
 21
1.687466990320423
 31
0.0
  0
POLYLINE
  5
3BB1
330
1E
100
AcDbEntity
  8
0
100
AcDb2dPolyline
 66
     1
 10
0.0
 20
0.0
 30
0.0
  0
VERTEX
  5
4663
330
3BB1
100
AcDbEntity
  8
0
100
AcDbVertex
100
AcDb2dVertex
 10
1.504172400947724
 20
1.677624470635384
 30
0.0
  0
VERTEX
  5
4664
330
3BB1
100
AcDbEntity
  8
0
100
AcDbVertex
100
AcDb2dVertex
 10
1.510077912758748
 20
1.679592974572392
 30
0.0
  0
VERTEX
  5
4665
330
3BB1
100
AcDbEntity
  8
0
100
AcDbVertex
100
AcDb2dVertex
 10
1.512046416695755
 20
1.687466990320423
 30
0.0
  0
SEQEND
  5
4666
330
3BB1
100
AcDbEntity
  8
0
  0
LINE
  5
3BB6
330
1E
100
AcDbEntity
  8
0
100
AcDbLine
 10
1.641967676538275
 20
1.677624470635384
 30
0.0
 11
1.504172400947724
 21
1.677624470635384
 31
0.0
  0
LINE
  5
3BB7
330
1E
100
AcDbEntity
  8
0
100
AcDbLine
 10
1.476613345829614
 20
1.677624470635384
 30
0.0
 11
1.504172400947724
 21
1.677624470635384
 31
0.0
  0
LINE
  5
3BB8
330
1E
100
AcDbEntity
  8
0
100
AcDbLine
 10
1.476613345829614
 20
1.677624470635384
 30
0.0
 11
1.476613345829614
 21
1.70912053362751
 31
0.0
  0
POLYLINE
  5
3BB9
330
1E
100
AcDbEntity
  8
0
100
AcDb2dPolyline
 66
     1
 10
0.0
 20
0.0
 30
0.0
  0
VERTEX
  5
4667
330
3BB9
100
AcDbEntity
  8
0
100
AcDbVertex
100
AcDb2dVertex
 10
1.498266889136701
 20
1.762270139926722
 30
0.0
  0
VERTEX
  5
4668
330
3BB9
100
AcDbEntity
  8
0
100
AcDbVertex
100
AcDb2dVertex
 10
1.482518857640637
 20
1.738648092682628
 30
0.0
  0
VERTEX
  5
4669
330
3BB9
100
AcDbEntity
  8
0
100
AcDbVertex
100
AcDb2dVertex
 10
1.476613345829614
 20
1.70912053362751
 30
0.0
  0
SEQEND
  5
466A
330
3BB9
100
AcDbEntity
  8
0
  0
LINE
  5
3BBE
330
1E
100
AcDbEntity
  8
0
100
AcDbLine
 10
1.498266889136701
 20
1.762270139926722
 30
0.0
 11
1.60062909386111
 21
1.852821321029084
 31
0.0
  0
POLYLINE
  5
3BBF
330
1E
100
AcDbEntity
  8
0
100
AcDb2dPolyline
 66
     1
 10
0.0
 20
0.0
 30
0.0
  0
VERTEX
  5
466B
330
3BBF
100
AcDbEntity
  8
0
100
AcDbVertex
100
AcDb2dVertex
 10
1.643936180475283
 20
1.807545730477904
 30
0.0
  0
VERTEX
  5
466C
330
3BBF
100
AcDbEntity
  8
0
100
AcDbVertex
100
AcDb2dVertex
 10
1.634093660790243
 20
1.809514234414911
 30
0.0
  0
VERTEX
  5
466D
330
3BBF
100
AcDbEntity
  8
0
100
AcDbVertex
100
AcDb2dVertex
 10
1.626219645042212
 20
1.805577226540895
 30
0.0
  0
SEQEND
  5
466E
330
3BBF
100
AcDbEntity
  8
0
  0
LINE
  5
3BC4
330
1E
100
AcDbEntity
  8
0
100
AcDbLine
 10
-1.100158307713693
 20
1.868569352525147
 30
0.0
 11
-1.096221299839676
 21
1.988648092682628
 31
0.0
  0
LINE
  5
3BC5
330
1E
100
AcDbEntity
  8
0
100
AcDbLine
 10
-0.9761425596821968
 20
1.988648092682628
 30
0.0
 11
-0.9938590951152672
 21
1.988648092682628
 31
0.0
  0
LINE
  5
3BC6
330
1E
100
AcDbEntity
  8
0
100
AcDbLine
 10
-0.9918905911782598
 20
1.868569352525147
 30
0.0
 11
-0.9938590951152672
 21
1.988648092682628
 31
0.0
  0
LINE
  5
3BC7
330
1E
100
AcDbEntity
  8
0
100
AcDbLine
 10
-1.068662244721567
 20
2.028018171422785
 30
0.0
 11
-1.023386654170385
 21
2.028018171422785
 31
0.0
  0
POLYLINE
  5
3BC8
330
1E
100
AcDbEntity
  8
0
100
AcDb2dPolyline
 66
     1
 10
0.0
 20
0.0
 30
0.0
  0
VERTEX
  5
466F
330
3BC8
100
AcDbEntity
  8
0
100
AcDbVertex
100
AcDb2dVertex
 10
-1.068662244721566
 20
2.028018171422785
 30
0.0
  0
VERTEX
  5
4670
330
3BC8
100
AcDbEntity
  8
0
100
AcDbVertex
100
AcDb2dVertex
 10
-1.088347284091645
 20
2.016207147800738
 30
0.0
  0
VERTEX
  5
4671
330
3BC8
100
AcDbEntity
  8
0
100
AcDbVertex
100
AcDb2dVertex
 10
-1.096221299839676
 20
1.988648092682628
 30
0.0
  0
SEQEND
  5
4672
330
3BC8
100
AcDbEntity
  8
0
  0
POLYLINE
  5
3BCD
330
1E
100
AcDbEntity
  8
0
100
AcDb2dPolyline
 66
     1
 10
0.0
 20
0.0
 30
0.0
  0
VERTEX
  5
4673
330
3BCD
100
AcDbEntity
  8
0
100
AcDbVertex
100
AcDb2dVertex
 10
-0.9938590951152672
 20
1.988648092682628
 30
0.0
  0
VERTEX
  5
4674
330
3BCD
100
AcDbEntity
  8
0
100
AcDbVertex
100
AcDb2dVertex
 10
-1.003701614800307
 20
2.016207147800738
 30
0.0
  0
VERTEX
  5
4675
330
3BCD
100
AcDbEntity
  8
0
100
AcDbVertex
100
AcDb2dVertex
 10
-1.023386654170385
 20
2.028018171422785
 30
0.0
  0
SEQEND
  5
4676
330
3BCD
100
AcDbEntity
  8
0
  0
LINE
  5
3BD2
330
1E
100
AcDbEntity
  8
0
100
AcDbLine
 10
-1.023386654170385
 20
2.028018171422785
 30
0.0
 11
-1.017481142359361
 21
2.028018171422785
 31
0.0
  0
LINE
  5
3BD3
330
1E
100
AcDbEntity
  8
0
100
AcDbLine
 10
1.72070783401859
 20
1.868569352525147
 30
0.0
 11
1.72070783401859
 21
1.988648092682628
 31
0.0
  0
LINE
  5
3BD4
330
1E
100
AcDbEntity
  8
0
100
AcDbLine
 10
1.72070783401859
 20
1.988648092682628
 30
0.0
 11
1.710865314333551
 21
1.988648092682628
 31
0.0
  0
LINE
  5
3BD5
330
1E
100
AcDbEntity
  8
0
100
AcDbLine
 10
1.828975550554023
 20
1.868569352525147
 30
0.0
 11
1.828975550554023
 21
1.988648092682628
 31
0.0
  0
LINE
  5
3BD6
330
1E
100
AcDbEntity
  8
0
100
AcDbLine
 10
1.750235393073708
 20
2.028018171422785
 30
0.0
 11
1.801416495435913
 21
2.028018171422785
 31
0.0
  0
POLYLINE
  5
3BD7
330
1E
100
AcDbEntity
  8
0
100
AcDb2dPolyline
 66
     1
 10
0.0
 20
0.0
 30
0.0
  0
VERTEX
  5
4677
330
3BD7
100
AcDbEntity
  8
0
100
AcDbVertex
100
AcDb2dVertex
 10
1.750235393073708
 20
2.028018171422785
 30
0.0
  0
VERTEX
  5
4678
330
3BD7
100
AcDbEntity
  8
0
100
AcDbVertex
100
AcDb2dVertex
 10
1.730550353703629
 20
2.016207147800738
 30
0.0
  0
VERTEX
  5
4679
330
3BD7
100
AcDbEntity
  8
0
100
AcDbVertex
100
AcDb2dVertex
 10
1.72070783401859
 20
1.988648092682628
 30
0.0
  0
SEQEND
  5
467A
330
3BD7
100
AcDbEntity
  8
0
  0
POLYLINE
  5
3BDC
330
1E
100
AcDbEntity
  8
0
100
AcDb2dPolyline
 66
     1
 10
0.0
 20
0.0
 30
0.0
  0
VERTEX
  5
467B
330
3BDC
100
AcDbEntity
  8
0
100
AcDbVertex
100
AcDb2dVertex
 10
1.828975550554023
 20
1.988648092682628
 30
0.0
  0
VERTEX
  5
467C
330
3BDC
100
AcDbEntity
  8
0
100
AcDbVertex
100
AcDb2dVertex
 10
1.821101534805992
 20
2.016207147800738
 30
0.0
  0
VERTEX
  5
467D
330
3BDC
100
AcDbEntity
  8
0
100
AcDbVertex
100
AcDb2dVertex
 10
1.801416495435913
 20
2.028018171422785
 30
0.0
  0
SEQEND
  5
467E
330
3BDC
100
AcDbEntity
  8
0
  0
LINE
  5
3BE1
330
1E
100
AcDbEntity
  8
0
100
AcDbLine
 10
1.744329881262685
 20
2.028018171422785
 30
0.0
 11
1.750235393073708
 21
2.028018171422785
 31
0.0
  0
POLYLINE
  5
3BE2
330
1E
100
AcDbEntity
  8
0
100
AcDb2dPolyline
 66
     1
 10
0.0
 20
0.0
 30
0.0
  0
VERTEX
  5
467F
330
3BE2
100
AcDbEntity
  8
0
100
AcDbVertex
100
AcDb2dVertex
 10
-0.9781110636192043
 20
2.018175651737746
 30
0.0
  0
VERTEX
  5
4680
330
3BE2
100
AcDbEntity
  8
0
100
AcDbVertex
100
AcDb2dVertex
 10
-0.9859850793672357
 20
2.022112659611762
 30
0.0
  0
VERTEX
  5
4681
330
3BE2
100
AcDbEntity
  8
0
100
AcDbVertex
100
AcDb2dVertex
 10
-1.013544134485345
 20
2.028018171422785
 30
0.0
  0
VERTEX
  5
4682
330
3BE2
100
AcDbEntity
  8
0
100
AcDbVertex
100
AcDb2dVertex
 10
-1.017481142359361
 20
2.028018171422785
 30
0.0
  0
SEQEND
  5
4683
330
3BE2
100
AcDbEntity
  8
0
  0
POLYLINE
  5
3BE8
330
1E
100
AcDbEntity
  8
0
100
AcDb2dPolyline
 66
     1
 10
0.0
 20
0.0
 30
0.0
  0
VERTEX
  5
4684
330
3BE8
100
AcDbEntity
  8
0
100
AcDbVertex
100
AcDb2dVertex
 10
1.712833818270558
 20
2.022112659611762
 30
0.0
  0
VERTEX
  5
4685
330
3BE8
100
AcDbEntity
  8
0
100
AcDbVertex
100
AcDb2dVertex
 10
1.740392873388669
 20
2.028018171422785
 30
0.0
  0
VERTEX
  5
4686
330
3BE8
100
AcDbEntity
  8
0
100
AcDbVertex
100
AcDb2dVertex
 10
1.744329881262685
 20
2.028018171422785
 30
0.0
  0
SEQEND
  5
4687
330
3BE8
100
AcDbEntity
  8
0
  0
LINE
  5
3BED
330
1E
100
AcDbEntity
  8
0
100
AcDbLine
 10
-1.633622874642826
 20
1.531955179296801
 30
0.0
 11
-1.633622874642826
 21
1.528018171422785
 31
0.0
  0
POLYLINE
  5
3BEE
330
1E
100
AcDbEntity
  8
0
100
AcDb2dPolyline
 66
     1
 10
0.0
 20
0.0
 30
0.0
  0
VERTEX
  5
4688
330
3BEE
100
AcDbEntity
  8
0
100
AcDbVertex
100
AcDb2dVertex
 10
0.2502353930737087
 20
1.917781950950344
 30
0.0
  0
VERTEX
  5
4689
330
3BEE
100
AcDbEntity
  8
0
100
AcDbVertex
100
AcDb2dVertex
 10
0.2620464166957559
 20
1.917781950950344
 30
0.0
  0
VERTEX
  5
468A
330
3BEE
100
AcDbEntity
  8
0
100
AcDbVertex
100
AcDb2dVertex
 10
0.2915739757508744
 20
1.917781950950344
 30
0.0
  0
VERTEX
  5
468B
330
3BEE
100
AcDbEntity
  8
0
100
AcDbVertex
100
AcDb2dVertex
 10
0.3348810623650475
 20
1.917781950950344
 30
0.0
  0
SEQEND
  5
468C
330
3BEE
100
AcDbEntity
  8
0
  0
POLYLINE
  5
3BF4
330
1E
100
AcDbEntity
  8
0
100
AcDb2dPolyline
 66
     1
 10
0.0
 20
0.0
 30
0.0
  0
VERTEX
  5
468D
330
3BF4
100
AcDbEntity
  8
0
100
AcDbVertex
100
AcDb2dVertex
 10
0.3998416922863068
 20
1.917781950950344
 30
0.0
  0
VERTEX
  5
468E
330
3BF4
100
AcDbEntity
  8
0
100
AcDbVertex
100
AcDb2dVertex
 10
0.44314877890048
 20
1.917781950950344
 30
0.0
  0
VERTEX
  5
468F
330
3BF4
100
AcDbEntity
  8
0
100
AcDbVertex
100
AcDb2dVertex
 10
0.4726763379555985
 20
1.917781950950344
 30
0.0
  0
VERTEX
  5
4690
330
3BF4
100
AcDbEntity
  8
0
100
AcDbVertex
100
AcDb2dVertex
 10
0.4844873615776458
 20
1.917781950950344
 30
0.0
  0
SEQEND
  5
4691
330
3BF4
100
AcDbEntity
  8
0
  0
LINE
  5
3BFA
330
1E
100
AcDbEntity
  8
0
100
AcDbLine
 10
1.586849566302054
 20
1.898096911580266
 30
0.0
 11
1.62818814897922
 21
1.898096911580266
 31
0.0
  0
POLYLINE
  5
3BFB
330
1E
100
AcDbEntity
  8
0
100
AcDb2dPolyline
 66
     1
 10
0.0
 20
0.0
 30
0.0
  0
VERTEX
  5
4692
330
3BFB
100
AcDbEntity
  8
0
100
AcDbVertex
100
AcDb2dVertex
 10
1.62818814897922
 20
1.898096911580266
 30
0.0
  0
VERTEX
  5
4693
330
3BFB
100
AcDbEntity
  8
0
100
AcDbVertex
100
AcDb2dVertex
 10
1.636062164727252
 20
1.898096911580266
 30
0.0
  0
VERTEX
  5
4694
330
3BFB
100
AcDbEntity
  8
0
100
AcDbVertex
100
AcDb2dVertex
 10
1.643936180475283
 20
1.898096911580266
 30
0.0
  0
SEQEND
  5
4695
330
3BFB
100
AcDbEntity
  8
0
  0
POLYLINE
  5
3C00
330
1E
100
AcDbEntity
  8
0
100
AcDb2dPolyline
 66
     1
 10
0.0
 20
0.0
 30
0.0
  0
VERTEX
  5
4696
330
3C00
100
AcDbEntity
  8
0
100
AcDbVertex
100
AcDb2dVertex
 10
1.571101534805992
 20
1.898096911580266
 30
0.0
  0
VERTEX
  5
4697
330
3C00
100
AcDbEntity
  8
0
100
AcDbVertex
100
AcDb2dVertex
 10
1.577007046617016
 20
1.898096911580266
 30
0.0
  0
VERTEX
  5
4698
330
3C00
100
AcDbEntity
  8
0
100
AcDbVertex
100
AcDb2dVertex
 10
1.586849566302054
 20
1.898096911580266
 30
0.0
  0
SEQEND
  5
4699
330
3C00
100
AcDbEntity
  8
0
  0
POLYLINE
  5
3C05
330
1E
100
AcDbEntity
  8
0
100
AcDb2dPolyline
 66
     1
 10
0.0
 20
0.0
 30
0.0
  0
VERTEX
  5
469A
330
3C05
100
AcDbEntity
  8
0
100
AcDbVertex
100
AcDb2dVertex
 10
1.586849566302054
 20
1.898096911580266
 30
0.0
  0
VERTEX
  5
469B
330
3C05
100
AcDbEntity
  8
0
100
AcDbVertex
100
AcDb2dVertex
 10
1.588818070239063
 20
1.896128407643257
 30
0.0
  0
VERTEX
  5
469C
330
3C05
100
AcDbEntity
  8
0
100
AcDbVertex
100
AcDb2dVertex
 10
1.588818070239063
 20
1.888254391895226
 30
0.0
  0
SEQEND
  5
469D
330
3C05
100
AcDbEntity
  8
0
  0
POLYLINE
  5
3C0A
330
1E
100
AcDbEntity
  8
0
100
AcDb2dPolyline
 66
     1
 10
0.0
 20
0.0
 30
0.0
  0
VERTEX
  5
469E
330
3C0A
100
AcDbEntity
  8
0
100
AcDbVertex
100
AcDb2dVertex
 10
1.62818814897922
 20
1.898096911580266
 30
0.0
  0
VERTEX
  5
469F
330
3C0A
100
AcDbEntity
  8
0
100
AcDbVertex
100
AcDb2dVertex
 10
1.630156652916228
 20
1.896128407643257
 30
0.0
  0
VERTEX
  5
46A0
330
3C0A
100
AcDbEntity
  8
0
100
AcDbVertex
100
AcDb2dVertex
 10
1.630156652916228
 20
1.888254391895226
 30
0.0
  0
SEQEND
  5
46A1
330
3C0A
100
AcDbEntity
  8
0
  0
ENDSEC
  0
SECTION
  2
OBJECTS
  0
DICTIONARY
  5
C
330
0
100
AcDbDictionary
  3
ACAD_GROUP
350
D
  3
ACAD_MLINESTYLE
350
16
  3
ACAD_PLOTSETTINGS
350
18
  3
ACAD_LAYOUT
350
19
1001
ACAD
1000
TREAT_AS_HARD
1070
     0
  0
DICTIONARY
  5
41DC
330
1E
100
AcDbDictionary
  3
ACAD_LAYOUTSELFREF
350
41DD
  0
DICTIONARY
  5
41DA
330
1A
100
AcDbDictionary
  3
ACAD_LAYOUTSELFREF
350
41DB
  0
DICTIONARY
  5
D
102
{ACAD_REACTORS
330
C
102
}
330
C
100
AcDbDictionary
1001
ACAD
1000
TREAT_AS_HARD
1070
     0
  0
DICTIONARY
  5
16
102
{ACAD_REACTORS
330
C
102
}
330
C
100
AcDbDictionary
  3
STANDARD
350
17
1001
ACAD
1000
TREAT_AS_HARD
1070
     0
  0
DICTIONARY
  5
18
102
{ACAD_REACTORS
330
C
102
}
330
C
100
AcDbDictionary
1001
ACAD
1000
TREAT_AS_HARD
1070
     0
  0
DICTIONARY
  5
19
102
{ACAD_REACTORS
330
C
102
}
330
C
100
AcDbDictionary
1001
ACAD
1000
TREAT_AS_HARD
1070
     0
  0
XRECORD
  5
41DD
102
{ACAD_REACTORS
330
41DC
102
}
330
41DC
100
AcDbXrecord
340
1E
  0
XRECORD
  5
41DB
102
{ACAD_REACTORS
330
41DA
102
}
330
41DA
100
AcDbXrecord
340
1A
  0
MLINESTYLE
  5
17
102
{ACAD_REACTORS
330
16
102
}
330
16
100
AcDbMlineStyle
  2
STANDARD
 70
     0
  3

 62
   256
 51
90.0
 52
90.0
 71
     2
 49
0.5
 62
   256
  6
BYLAYER
 49
-0.5
 62
   256
  6
BYLAYER
  0
ENDSEC
  0
EOF
