  0
SECTION
  2
HEADER
  9
$ACADVER
  1
AC1015
  9
$ACADMAINTVER
 70
     6
  9
$DWGCODEPAGE
  3
ANSI_1252
  9
$INSBASE
 10
0.0
 20
0.0
 30
0.0
  9
$EXTMIN
 10
-0.5
 20
-0.5
 30
-0.5
  9
$EXTMAX
 10
5.0
 20
5.0
 30
5.0
  9
$LIMMIN
 10
-0.5
 20
-0.5
  9
$LIMMAX
 10
5.0
 20
5.0
  9
$ORTHOMODE
 70
     0
  9
$REGENMODE
 70
     1
  9
$FILLMODE
 70
     1
  9
$QTEXTMODE
 70
     0
  9
$MIRRTEXT
 70
     1
  9
$LTSCALE
 40
1.0
  9
$ATTMODE
 70
     1
  9
$TEXTSIZE
 40
0.2
  9
$TRACEWID
 40
0.05
  9
$TEXTSTYLE
  7
Standard
  9
$CLAYER
  8
0
  9
$CELTYPE
  6
Continuous
  9
$CECOLOR
 62
   256
  9
$CELTSCALE
 40
1.0
  9
$DISPSILH
 70
     0
  9
$DIMSCALE
 40
1.0
  9
$DIMASZ
 40
0.18
  9
$DIMEXO
 40
0.0625
  9
$DIMDLI
 40
0.38
  9
$DIMRND
 40
0.0
  9
$DIMDLE
 40
0.0
  9
$DIMEXE
 40
0.18
  9
$DIMTP
 40
0.0
  9
$DIMTM
 40
0.0
  9
$DIMTXT
 40
0.18
  9
$DIMCEN
 40
0.09
  9
$DIMTSZ
 40
0.0
  9
$DIMTOL
 70
     0
  9
$DIMLIM
 70
     0
  9
$DIMTIH
 70
     1
  9
$DIMTOH
 70
     1
  9
$DIMSE1
 70
     0
  9
$DIMSE2
 70
     0
  9
$DIMTAD
 70
     0
  9
$DIMZIN
 70
     0
  9
$DIMBLK
  1

  9
$DIMASO
 70
     1
  9
$DIMSHO
 70
     1
  9
$DIMPOST
  1

  9
$DIMAPOST
  1

  9
$DIMALT
 70
     0
  9
$DIMALTD
 70
     2
  9
$DIMALTF
 40
25.4
  9
$DIMLFAC
 40
1.0
  9
$DIMTOFL
 70
     0
  9
$DIMTVP
 40
0.0
  9
$DIMTIX
 70
     0
  9
$DIMSOXD
 70
     0
  9
$DIMSAH
 70
     0
  9
$DIMBLK1
  1

  9
$DIMBLK2
  1

  9
$DIMSTYLE
  2
Standard
  9
$DIMCLRD
 70
     0
  9
$DIMCLRE
 70
     0
  9
$DIMCLRT
 70
     0
  9
$DIMTFAC
 40
1.0
  9
$DIMGAP
 40
0.09
  9
$DIMJUST
 70
     0
  9
$DIMSD1
 70
     0
  9
$DIMSD2
 70
     0
  9
$DIMTOLJ
 70
     1
  9
$DIMTZIN
 70
     0
  9
$DIMALTZ
 70
     0
  9
$DIMALTTZ
 70
     0
  9
$DIMUPT
 70
     0
  9
$DIMDEC
 70
     4
  9
$DIMTDEC
 70
     4
  9
$DIMALTU
 70
     2
  9
$DIMALTTD
 70
     2
  9
$DIMTXSTY
  7
Standard
  9
$DIMAUNIT
 70
     0
  9
$DIMADEC
 70
     0
  9
$DIMALTRND
 40
0.0
  9
$DIMAZIN
 70
     0
  9
$DIMDSEP
 70
     0
  9
$DIMATFIT
 70
     3
  9
$DIMFRAC
 70
     0
  9
$DIMLDRBLK
  1

  9
$DIMLUNIT
 70
     2
  9
$DIMLWD
 70
     0
  9
$DIMLWE
 70
     0
  9
$DIMTMOVE
 70
     0
  9
$LUNITS
 70
     2
  9
$LUPREC
 70
     4
  9
$SKETCHINC
 40
0.1
  9
$FILLETRAD
 40
0.0
  9
$AUNITS
 70
     0
  9
$AUPREC
 70
     0
  9
$MENU
  1
acad
  9
$ELEVATION
 40
0.0
  9
$PELEVATION
 40
0.0
  9
$THICKNESS
 40
0.0
  9
$LIMCHECK
 70
     0
  9
$CHAMFERA
 40
0.0
  9
$CHAMFERB
 40
0.0
  9
$CHAMFERC
 40
0.0
  9
$CHAMFERD
 40
0.0
  9
$SKPOLY
 70
     0
  9
$TDCREATE
 40
0.000000000
  9
$TDUCREATE
 40
0.000000000
  9
$TDUPDATE
 40
0.000000000
  9
$TDUUPDATE
 40
0.000000000
  9
$TDINDWG
 40
0.0000000000
  9
$TDUSRTIMER
 40
0.0000000000
  9
$USRTIMER
 70
     1
  9
$ANGBASE
 50
0.0
  9
$ANGDIR
 70
     0
  9
$PDMODE
 70
     0
  9
$PDSIZE
 40
0.0
  9
$PLINEWID
 40
0.0
  9
$SPLFRAME
 70
     0
  9
$SPLINETYPE
 70
     6
  9
$SPLINESEGS
 70
     8
  9
$HANDSEED
  5
2CE
  9
$SURFTAB1
 70
     6
  9
$SURFTAB2
 70
     6
  9
$SURFTYPE
 70
     6
  9
$SURFU
 70
     6
  9
$SURFV
 70
     6
  9
$UCSBASE
  2

  9
$UCSNAME
  2

  9
$UCSORG
 10
0.0
 20
0.0
 30
0.0
  9
$UCSXDIR
 10
1.0
 20
0.0
 30
0.0
  9
$UCSYDIR
 10
0.0
 20
1.0
 30
0.0
  9
$UCSORTHOREF
  2

  9
$UCSORTHOVIEW
 70
     0
  9
$UCSORGTOP
 10
0.0
 20
0.0
 30
0.0
  9
$UCSORGBOTTOM
 10
0.0
 20
0.0
 30
0.0
  9
$UCSORGLEFT
 10
0.0
 20
0.0
 30
0.0
  9
$UCSORGRIGHT
 10
0.0
 20
0.0
 30
0.0
  9
$UCSORGFRONT
 10
0.0
 20
0.0
 30
0.0
  9
$UCSORGBACK
 10
0.0
 20
0.0
 30
0.0
  9
$PUCSBASE
  2

  9
$PUCSNAME
  2

  9
$PUCSORG
 10
0.0
 20
0.0
 30
0.0
  9
$PUCSXDIR
 10
1.0
 20
0.0
 30
0.0
  9
$PUCSYDIR
 10
0.0
 20
1.0
 30
0.0
  9
$PUCSORTHOREF
  2

  9
$PUCSORTHOVIEW
 70
     0
  9
$PUCSORGTOP
 10
0.0
 20
0.0
 30
0.0
  9
$PUCSORGBOTTOM
 10
0.0
 20
0.0
 30
0.0
  9
$PUCSORGLEFT
 10
0.0
 20
0.0
 30
0.0
  9
$PUCSORGRIGHT
 10
0.0
 20
0.0
 30
0.0
  9
$PUCSORGFRONT
 10
0.0
 20
0.0
 30
0.0
  9
$PUCSORGBACK
 10
0.0
 20
0.0
 30
0.0
  9
$USERI1
 70
     0
  9
$USERI2
 70
     0
  9
$USERI3
 70
     0
  9
$USERI4
 70
     0
  9
$USERI5
 70
     0
  9
$USERR1
 40
0.0
  9
$USERR2
 40
0.0
  9
$USERR3
 40
0.0
  9
$USERR4
 40
0.0
  9
$USERR5
 40
0.0
  9
$WORLDVIEW
 70
     1
  9
$SHADEDGE
 70
     3
  9
$SHADEDIF
 70
    70
  9
$TILEMODE
 70
     0
  9
$MAXACTVP
 70
    64
  9
$PINSBASE
 10
0.0
 20
0.0
 30
0.0
  9
$PLIMCHECK
 70
     0
  9
$PEXTMIN
 10
-0.5
 20
-0.5
 30
-0.5
  9
$PEXTMAX
 10
11.0
 20
8.5
 30
5.0
  9
$PLIMMIN
 10
-0.5
 20
-0.5
  9
$PLIMMAX
 10
11.0
 20
8.5
  9
$UNITMODE
 70
     0
  9
$VISRETAIN
 70
     0
  9
$PLINEGEN
 70
     1
  9
$PSLTSCALE
 70
     0
  9
$TREEDEPTH
 70
  3020
  9
$CMLSTYLE
  2
Standard
  9
$CMLJUST
 70
     0
  9
$CMLSCALE
 40
1.0
  9
$PROXYGRAPHICS
 70
     0
  9
$MEASUREMENT
 70
     0
  9
$CELWEIGHT
370
     0
  9
$ENDCAPS
280
     0
  9
$JOINSTYLE
280
     0
  9
$LWDISPLAY
290
     0
  9
$INSUNITS
 70
     0
  9
$HYPERLINKBASE
  1

  9
$STYLESHEET
  1

  9
$XEDIT
290
     1
  9
$CEPSNTYPE
380
     0
  9
$PSTYLEMODE
290
     1
  9
$FINGERPRINTGUID
  2

  9
$VERSIONGUID
  2

  9
$EXTNAMES
290
     1
  9
$PSVPSCALE
 40
0.0
  0
ENDSEC
  0
SECTION
  2
CLASSES
  0
CLASS
  1
LWPOLYLINE
  2
AcDbPolyline
  3
AutoCAD 2000
 90
        0
280
     0
281
     1
  0
CLASS
  1
IMAGE
  2
AcDbRasterImage
  3
ISM
 90
      127
280
     0
281
     1
  0
CLASS
  1
OLE2FRAME
  2
AcDbOle2Frame
  3
AutoCAD 2000
 90
        0
280
     0
281
     1
  0
CLASS
  1
HATCH
  2
AcDbHatch
  3
AutoCAD 2000
 90
        0
280
     0
281
     1
  0
CLASS
  1
DICTIONARYVAR
  2
AcDbDictionaryVar
  3
AutoCAD 2000
 90
        0
280
     0
281
     0
  0
CLASS
  1
RASTERVARIABLES
  2
AcDbRasterVariables
  3
ISM
 90
        0
280
     0
281
     0
  0
CLASS
  1
IMAGEDEF
  2
AcDbRasterImageDef
  3
ISM
 90
        0
280
     0
281
     0
  0
CLASS
  1
IMAGEDEF_REACTOR
  2
AcDbRasterImageDefReactor
  3
ISM
 90
        1
280
     0
281
     0
  0
CLASS
  1
IDBUFFER
  2
AcDbIdBuffer
  3
AutoCAD 2000
 90
        0
280
     0
281
     0
  0
CLASS
  1
SPATIAL_FILTER
  2
AcDbSpatialFilter
  3
AutoCAD 2000
 90
        0
280
     0
281
     0
  0
CLASS
  1
XRECORD
  2
AcDbXrecord
  3
AutoCAD 2000
 90
        0
280
     0
281
     0
  0
CLASS
  1
SORTENTSTABLE
  2
AcDbSortentsTable
  3
AutoCAD 2000
 90
        0
280
     0
281
     0
  0
CLASS
  1
LAYER_INDEX
  2
AcDbLayerIndex
  3
AutoCAD 2000
 90
        0
280
     0
281
     0
  0
CLASS
  1
SPATIAL_INDEX
  2
AcDbSpatialIndex
  3
AutoCAD 2000
 90
        0
280
     0
281
     0
  0
CLASS
  1
OBJECT_PTR
  2
CAseDLPNTableRecord
  3
"ASE-LPNTableRecord"
 90
        1
280
     0
281
     0
  0
CLASS
  1
LAYOUT
  2
AcDbLayout
  3
AutoCAD 2000
 90
        0
280
     0
281
     0
  0
CLASS
  1
PLOTSETTINGS
  2
AcDbPlotSettings
  3
AutoCAD 2000
 90
        0
280
     0
281
     0
  0
CLASS
  1
ACDBDICTIONARYWDFLT
  2
AcDbDictionaryWithDefault
  3
AutoCAD 2000
 90
        0
280
     0
281
     0
  0
CLASS
  1
ACDBPLACEHOLDER
  2
AcDbPlaceHolder
  3
AutoCAD 2000
 90
        0
280
     0
281
     0
  0
CLASS
  1
VBA_PROJECT
  2
AcDbVbaProject
  3
acadvba
 90
        0
280
     0
281
     0
  0
CLASS
  1
WIPEOUT
  2
AcDbWipeout
  3
WipeOut|AutoCAD Express Tool|expresstools@autodesk.com
 90
      127
280
     0
281
     1
  0
CLASS
  1
WIPEOUTVARIABLES
  2
AcDbWipeoutVariables
  3
WipeOut|AutoCAD Express Tool|expresstools@autodesk.com
 90
        0
280
     0
281
     0
  0
CLASS
  1
RTEXT
  2
RText
  3
RText|AutoCAD Express Tool|expresstools@autodesk.com
 90
        0
280
     0
281
     1
  0
CLASS
  1
ARCALIGNEDTEXT
  2
AcDbArcAlignedText
  3
ATEXT|AutoCAD Express Tool|expresstools@autodesk.com
 90
        0
280
     0
281
     1
  0
ENDSEC
  0
SECTION
  2
TABLES
  0
TABLE
  2
VPORT
  5
7
100
AcDbSymbolTable
 70
    16
  0
VPORT
  5
29E
100
AcDbSymbolTableRecord
100
AcDbViewportTableRecord
  2
*ACTIVE
 70
     0
 10
0.0
 20
0.0
 11
1.0
 21
1.0
 12
0.0
 22
0.0
 13
0.0
 23
0.0
 14
1.0
 24
1.0
 15
0.0
 25
0.0
 16
0.718873
 26
-0.585049
 36
0.375419
 17
0.0
 27
0.0
 37
0.0
 40
63.182916
 41
0.688564
 42
50.0
 43
31.28612
 44
-31.28612
 50
0.0
 51
0.0
 71
    16
 72
   100
 73
     1
 74
     1
 75
     0
 76
     0
 77
     0
 78
     0
281
     0
 65
     0
110
0.0
120
0.0
130
0.0
111
1.0
121
0.0
131
0.0
112
0.0
122
1.0
132
0.0
345
0
346
0
 79
     0
146
0.0
  0
VPORT
  5
29F
100
AcDbSymbolTableRecord
100
AcDbViewportTableRecord
  2
L1
 70
     0
 10
0.0
 20
0.0
 11
1.0
 21
1.0
 12
0.0
 22
0.0
 13
0.0
 23
0.0
 14
1.0
 24
1.0
 15
0.0
 25
0.0
 16
0.718873
 26
-0.585049
 36
0.375419
 17
0.0
 27
0.0
 37
0.0
 40
63.182916
 41
0.688564
 42
50.0
 43
31.28612
 44
-31.28612
 50
0.0
 51
0.0
 71
    16
 72
   100
 73
     1
 74
     1
 75
     0
 76
     0
 77
     0
 78
     0
281
     0
 65
     0
110
0.0
120
0.0
130
0.0
111
1.0
121
0.0
131
0.0
112
0.0
122
1.0
132
0.0
345
0
346
0
 79
     0
146
0.0
  0
VPORT
  5
2A0
100
AcDbSymbolTableRecord
100
AcDbViewportTableRecord
  2
L2
 70
     0
 10
0.0
 20
0.0
 11
0.5
 21
1.0
 12
0.0
 22
0.0
 13
0.0
 23
0.0
 14
1.0
 24
1.0
 15
0.0
 25
0.0
 16
0.0
 26
-1.0
 36
0.0
 17
0.0
 27
0.0
 37
0.0
 40
61.046088
 41
0.688564
 42
50.0
 43
31.360698
 44
-31.360698
 50
0.0
 51
0.0
 71
    16
 72
   100
 73
     1
 74
     1
 75
     0
 76
     0
 77
     0
 78
     0
281
     0
 65
     0
110
0.0
120
0.0
130
0.0
111
1.0
121
0.0
131
0.0
112
0.0
122
1.0
132
0.0
345
0
346
0
 79
     0
146
0.0
  0
VPORT
  5
2A1
100
AcDbSymbolTableRecord
100
AcDbViewportTableRecord
  2
L2
 70
     0
 10
0.5
 20
0.0
 11
1.0
 21
1.0
 12
0.0
 22
0.0
 13
0.0
 23
0.0
 14
1.0
 24
1.0
 15
0.0
 25
0.0
 16
1.0
 26
0.0
 36
0.0
 17
0.0
 27
0.0
 37
0.0
 40
61.046088
 41
0.688564
 42
50.0
 43
30.943437
 44
-30.943437
 50
0.0
 51
0.0
 71
    16
 72
   100
 73
     1
 74
     1
 75
     0
 76
     0
 77
     0
 78
     0
281
     0
 65
     0
110
0.0
120
0.0
130
0.0
111
1.0
121
0.0
131
0.0
112
0.0
122
1.0
132
0.0
345
0
346
0
 79
     0
146
0.0
  0
VPORT
  5
2A2
100
AcDbSymbolTableRecord
100
AcDbViewportTableRecord
  2
L3
 70
     0
 10
0.0
 20
0.5
 11
1.0
 21
1.0
 12
0.0
 22
0.0
 13
0.0
 23
0.0
 14
1.0
 24
1.0
 15
0.0
 25
0.0
 16
0.0
 26
0.0
 36
1.0
 17
0.0
 27
0.0
 37
0.0
 40
10.166631
 41
0.688564
 42
50.0
 43
30.523044
 44
-30.523044
 50
0.0
 51
0.0
 71
    16
 72
   100
 73
     1
 74
     1
 75
     0
 76
     0
 77
     0
 78
     0
281
     0
 65
     0
110
0.0
120
0.0
130
0.0
111
1.0
121
0.0
131
0.0
112
0.0
122
1.0
132
0.0
345
0
346
0
 79
     0
146
0.0
  0
VPORT
  5
2A3
100
AcDbSymbolTableRecord
100
AcDbViewportTableRecord
  2
L3
 70
     0
 10
0.0
 20
0.0
 11
1.0
 21
0.5
 12
0.0
 22
0.0
 13
0.0
 23
0.0
 14
1.0
 24
1.0
 15
0.0
 25
0.0
 16
0.0
 26
-1.0
 36
0.0
 17
0.0
 27
0.0
 37
0.0
 40
61.046088
 41
0.688564
 42
50.0
 43
31.360698
 44
-31.360698
 50
0.0
 51
0.0
 71
    16
 72
   100
 73
     1
 74
     1
 75
     0
 76
     0
 77
     0
 78
     0
281
     0
 65
     0
110
0.0
120
0.0
130
0.0
111
1.0
121
0.0
131
0.0
112
0.0
122
1.0
132
0.0
345
0
346
0
 79
     0
146
0.0
  0
VPORT
  5
2A4
100
AcDbSymbolTableRecord
100
AcDbViewportTableRecord
  2
L4
 70
     0
 10
0.0
 20
0.5
 11
0.5
 21
1.0
 12
0.0
 22
0.0
 13
0.0
 23
0.0
 14
1.0
 24
1.0
 15
0.0
 25
0.0
 16
0.0
 26
0.0
 36
1.0
 17
0.0
 27
0.0
 37
0.0
 40
10.166631
 41
0.688564
 42
50.0
 43
30.523044
 44
-30.523044
 50
0.0
 51
0.0
 71
    16
 72
   100
 73
     1
 74
     1
 75
     0
 76
     0
 77
     0
 78
     0
281
     0
 65
     0
110
0.0
120
0.0
130
0.0
111
1.0
121
0.0
131
0.0
112
0.0
122
1.0
132
0.0
345
0
346
0
 79
     0
146
0.0
  0
VPORT
  5
2A5
100
AcDbSymbolTableRecord
100
AcDbViewportTableRecord
  2
L4
 70
     0
 10
0.0
 20
0.0
 11
0.5
 21
0.5
 12
0.0
 22
0.0
 13
0.0
 23
0.0
 14
1.0
 24
1.0
 15
0.0
 25
0.0
 16
0.0
 26
-1.0
 36
0.0
 17
0.0
 27
0.0
 37
0.0
 40
61.046088
 41
0.688564
 42
50.0
 43
31.360698
 44
-31.360698
 50
0.0
 51
0.0
 71
    16
 72
   100
 73
     1
 74
     1
 75
     0
 76
     0
 77
     0
 78
     0
281
     0
 65
     0
110
0.0
120
0.0
130
0.0
111
1.0
121
0.0
131
0.0
112
0.0
122
1.0
132
0.0
345
0
346
0
 79
     0
146
0.0
  0
VPORT
  5
2A6
100
AcDbSymbolTableRecord
100
AcDbViewportTableRecord
  2
L4
 70
     0
 10
0.5
 20
0.0
 11
1.0
 21
0.5
 12
0.0
 22
0.0
 13
0.0
 23
0.0
 14
1.0
 24
1.0
 15
0.0
 25
0.0
 16
1.0
 26
0.0
 36
0.0
 17
0.0
 27
0.0
 37
0.0
 40
61.046088
 41
0.688564
 42
50.0
 43
30.943437
 44
-30.943437
 50
0.0
 51
0.0
 71
    16
 72
   100
 73
     1
 74
     1
 75
     0
 76
     0
 77
     0
 78
     0
281
     0
 65
     0
110
0.0
120
0.0
130
0.0
111
1.0
121
0.0
131
0.0
112
0.0
122
1.0
132
0.0
345
0
346
0
 79
     0
146
0.0
  0
VPORT
  5
2A7
100
AcDbSymbolTableRecord
100
AcDbViewportTableRecord
  2
L4
 70
     0
 10
0.5
 20
0.5
 11
1.0
 21
1.0
 12
0.0
 22
0.0
 13
0.0
 23
0.0
 14
1.0
 24
1.0
 15
0.0
 25
0.0
 16
0.57735
 26
-0.57735
 36
0.57735
 17
0.0
 27
0.0
 37
0.0
 40
59.873046
 41
0.688564
 42
50.0
 43
31.171027
 44
-31.171027
 50
0.0
 51
0.0
 71
    16
 72
   100
 73
     1
 74
     1
 75
     0
 76
     0
 77
     0
 78
     0
281
     0
 65
     0
110
0.0
120
0.0
130
0.0
111
1.0
121
0.0
131
0.0
112
0.0
122
1.0
132
0.0
345
0
346
0
 79
     0
146
0.0
  0
VPORT
  5
2A8
100
AcDbSymbolTableRecord
100
AcDbViewportTableRecord
  2
L6
 70
     0
 10
0.0
 20
0.5
 11
0.333333
 21
1.0
 12
0.0
 22
0.0
 13
0.0
 23
0.0
 14
1.0
 24
1.0
 15
0.0
 25
0.0
 16
0.718873
 26
-0.585049
 36
0.375419
 17
0.0
 27
0.0
 37
0.0
 40
63.182916
 41
0.688564
 42
50.0
 43
31.28612
 44
-31.28612
 50
0.0
 51
0.0
 71
    16
 72
   100
 73
     1
 74
     1
 75
     0
 76
     0
 77
     0
 78
     0
281
     0
 65
     0
110
0.0
120
0.0
130
0.0
111
1.0
121
0.0
131
0.0
112
0.0
122
1.0
132
0.0
345
0
346
0
 79
     0
146
0.0
  0
VPORT
  5
2A9
100
AcDbSymbolTableRecord
100
AcDbViewportTableRecord
  2
L6
 70
     0
 10
0.0
 20
0.0
 11
0.333333
 21
0.5
 12
0.0
 22
0.0
 13
0.0
 23
0.0
 14
1.0
 24
1.0
 15
0.0
 25
0.0
 16
-1.0
 26
0.0
 36
0.0
 17
0.0
 27
0.0
 37
0.0
 40
61.046088
 41
0.688564
 42
50.0
 43
30.943437
 44
-30.943437
 50
0.0
 51
0.0
 71
    16
 72
   100
 73
     1
 74
     1
 75
     0
 76
     0
 77
     0
 78
     0
281
     0
 65
     0
110
0.0
120
0.0
130
0.0
111
1.0
121
0.0
131
0.0
112
0.0
122
1.0
132
0.0
345
0
346
0
 79
     0
146
0.0
  0
VPORT
  5
2AA
100
AcDbSymbolTableRecord
100
AcDbViewportTableRecord
  2
L6
 70
     0
 10
0.333333
 20
0.5
 11
0.666667
 21
1.0
 12
0.0
 22
0.0
 13
0.0
 23
0.0
 14
1.0
 24
1.0
 15
0.0
 25
0.0
 16
0.0
 26
0.0
 36
1.0
 17
0.0
 27
0.0
 37
0.0
 40
10.166631
 41
0.688564
 42
50.0
 43
30.523044
 44
-30.523044
 50
0.0
 51
0.0
 71
    16
 72
   100
 73
     1
 74
     1
 75
     0
 76
     0
 77
     0
 78
     0
281
     0
 65
     0
110
0.0
120
0.0
130
0.0
111
1.0
121
0.0
131
0.0
112
0.0
122
1.0
132
0.0
345
0
346
0
 79
     0
146
0.0
  0
VPORT
  5
2AB
100
AcDbSymbolTableRecord
100
AcDbViewportTableRecord
  2
L6
 70
     0
 10
0.333333
 20
0.0
 11
0.666667
 21
0.5
 12
0.0
 22
0.0
 13
0.0
 23
0.0
 14
1.0
 24
1.0
 15
0.0
 25
0.0
 16
0.0
 26
-1.0
 36
0.0
 17
0.0
 27
0.0
 37
0.0
 40
61.046088
 41
0.688564
 42
50.0
 43
31.360698
 44
-31.360698
 50
0.0
 51
0.0
 71
    16
 72
   100
 73
     1
 74
     1
 75
     0
 76
     0
 77
     0
 78
     0
281
     0
 65
     0
110
0.0
120
0.0
130
0.0
111
1.0
121
0.0
131
0.0
112
0.0
122
1.0
132
0.0
345
0
346
0
 79
     0
146
0.0
  0
VPORT
  5
2AC
100
AcDbSymbolTableRecord
100
AcDbViewportTableRecord
  2
L6
 70
     0
 10
0.666667
 20
0.5
 11
1.0
 21
1.0
 12
0.0
 22
0.0
 13
0.0
 23
0.0
 14
1.0
 24
1.0
 15
0.0
 25
0.0
 16
0.57735
 26
-0.57735
 36
0.57735
 17
0.0
 27
0.0
 37
0.0
 40
59.873046
 41
0.688564
 42
50.0
 43
31.171027
 44
-31.171027
 50
0.0
 51
0.0
 71
    16
 72
   100
 73
     1
 74
     1
 75
     0
 76
     0
 77
     0
 78
     0
281
     0
 65
     0
110
0.0
120
0.0
130
0.0
111
1.0
121
0.0
131
0.0
112
0.0
122
1.0
132
0.0
345
0
346
0
 79
     0
146
0.0
  0
VPORT
  5
2AD
100
AcDbSymbolTableRecord
100
AcDbViewportTableRecord
  2
L6
 70
     0
 10
0.666667
 20
0.0
 11
1.0
 21
0.5
 12
0.0
 22
0.0
 13
0.0
 23
0.0
 14
1.0
 24
1.0
 15
0.0
 25
0.0
 16
1.0
 26
0.0
 36
0.0
 17
0.0
 27
0.0
 37
0.0
 40
61.046088
 41
0.688564
 42
50.0
 43
30.943437
 44
-30.943437
 50
0.0
 51
0.0
 71
    16
 72
   100
 73
     1
 74
     1
 75
     0
 76
     0
 77
     0
 78
     0
281
     0
 65
     0
110
0.0
120
0.0
130
0.0
111
1.0
121
0.0
131
0.0
112
0.0
122
1.0
132
0.0
345
0
346
0
 79
     0
146
0.0
  0
ENDTAB
  0
TABLE
  2
LTYPE
  5
4
100
AcDbSymbolTable
 70
     9
  0
LTYPE
  5
11
100
AcDbSymbolTableRecord
100
AcDbLinetypeTableRecord
  2
ByBlock
 70
    64
  3

 72
    65
 73
     0
 40
0.0
  0
LTYPE
  5
12
100
AcDbSymbolTableRecord
100
AcDbLinetypeTableRecord
  2
ByLayer
 70
    64
  3

 72
    65
 73
     0
 40
0.0
  0
LTYPE
  5
13
100
AcDbSymbolTableRecord
100
AcDbLinetypeTableRecord
  2
Continuous
 70
    64
  3
Solid line
 72
    65
 73
     0
 40
0.0
  0
LTYPE
  5
24
100
AcDbSymbolTableRecord
100
AcDbLinetypeTableRecord
  2
DASHED
 70
    64
  3
__ __ __ __ __ __ __ __ __
 72
    65
 73
     2
 40
25.72
 49
12.86
 74
     0
 49
-12.86
 74
     0
  0
LTYPE
  5
25
100
AcDbSymbolTableRecord
100
AcDbLinetypeTableRecord
  2
HIDDEN
 70
    64
  3
_ _ _ _ _ _ _ _ _ _ _ _ _ _ _
 72
    65
 73
     2
 40
0.5
 49
0.25
 74
     0
 49
-0.25
 74
     0
  0
LTYPE
  5
26
100
AcDbSymbolTableRecord
100
AcDbLinetypeTableRecord
  2
PHANTOM
 70
    64
  3
____ _ _ ____ _ _ _____ _ _ ____
 72
    65
 73
     6
 40
50.5
 49
18.0
 74
     0
 49
-6.5
 74
     0
 49
6.5
 74
     0
 49
-6.5
 74
     0
 49
6.5
 74
     0
 49
-6.5
 74
     0
  0
LTYPE
  5
27
100
AcDbSymbolTableRecord
100
AcDbLinetypeTableRecord
  2
CENTER
 70
    64
  3
____ _ ____ _ ____ _ ____
 72
    65
 73
     4
 40
47.5
 49
22.0
 74
     0
 49
-8.5
 74
     0
 49
8.5
 74
     0
 49
-8.5
 74
     0
  0
LTYPE
  5
28
100
AcDbSymbolTableRecord
100
AcDbLinetypeTableRecord
  2
DOT
 70
    64
  3
.........................
 72
    65
 73
     2
 40
10.0
 49
0.0
 74
     0
 49
-10.0
 74
     0
  0
LTYPE
  5
29
100
AcDbSymbolTableRecord
100
AcDbLinetypeTableRecord
  2
DASHDOT
 70
    64
  3
_._._._._._._._._._._._._._._._.
 72
    65
 73
     4
 40
70.0
 49
31.0
 74
     0
 49
-13.0
 74
     0
 49
13.0
 74
     0
 49
-13.0
 74
     0
  0
ENDTAB
  0
TABLE
  2
LAYER
  5
2
100
AcDbSymbolTable
 70
     2
  0
LAYER
  5
14
100
AcDbSymbolTableRecord
100
AcDbLayerTableRecord
  2
0
 70
     0
 62
     7
  6
Continuous
290
     1
370
    -3
390
1D
  0
LAYER
  5
2A
100
AcDbSymbolTableRecord
100
AcDbLayerTableRecord
  2
1
 70
     0
 62
     7
  6
Continuous
290
     1
370
    -3
390
1D
  0
ENDTAB
  0
TABLE
  2
STYLE
  5
3
100
AcDbSymbolTable
 70
     2
  0
STYLE
  5
17
100
AcDbSymbolTableRecord
100
AcDbTextStyleTableRecord
  2
Standard
 70
     0
 40
0.0
 41
1.0
 50
0.0
 71
     0
 42
0.0
  3
txt
  4

  0
STYLE
  5
84
100
AcDbSymbolTableRecord
100
AcDbTextStyleTableRecord
  2
blockfont
 70
     0
 40
0.0
 41
1.0
 50
0.0
 71
     0
 42
0.2
  3
simplex.shx
  4

  0
ENDTAB
  0
TABLE
  2
VIEW
  5
5
100
AcDbSymbolTable
 70
     8
  0
VIEW
  5
2B
100
AcDbSymbolTableRecord
100
AcDbViewTableRecord
  2
TOP
 70
     0
 40
10.166631
 10
0.0
 20
0.0
 41
14.399606
 11
0.0
 21
0.0
 31
1.0
 12
0.0
 22
0.0
 32
0.0
 42
50.0
 43
30.523044
 44
-30.523044
 50
0.0
 71
    16
281
     0
 72
     0
110
0.0
120
0.0
130
0.0
111
1.0
121
0.0
131
0.0
112
0.0
122
1.0
132
0.0
  0
VIEW
  5
2C
100
AcDbSymbolTableRecord
100
AcDbViewTableRecord
  2
FRONT
 70
     0
 40
61.046088
 10
0.0
 20
0.0
 41
14.399606
 11
0.0
 21
-1.0
 31
0.0
 12
0.0
 22
0.0
 32
0.0
 42
50.0
 43
31.360698
 44
-31.360698
 50
0.0
 71
    16
281
     0
 72
     0
110
0.0
120
0.0
130
0.0
111
1.0
121
0.0
131
0.0
112
0.0
122
1.0
132
0.0
  0
VIEW
  5
2D
100
AcDbSymbolTableRecord
100
AcDbViewTableRecord
  2
RIGHT
 70
     0
 40
61.046088
 10
0.0
 20
0.0
 41
10.166631
 11
1.0
 21
0.0
 31
0.0
 12
0.0
 22
0.0
 32
0.0
 42
50.0
 43
30.943437
 44
-30.943437
 50
0.0
 71
    16
281
     0
 72
     0
110
0.0
120
0.0
130
0.0
111
1.0
121
0.0
131
0.0
112
0.0
122
1.0
132
0.0
  0
VIEW
  5
2E
100
AcDbSymbolTableRecord
100
AcDbViewTableRecord
  2
BACK
 70
     0
 40
61.046088
 10
0.0
 20
0.0
 41
14.399606
 11
0.0
 21
1.0
 31
0.0
 12
0.0
 22
0.0
 32
0.0
 42
50.0
 43
31.360698
 44
-31.360698
 50
0.0
 71
    16
281
     0
 72
     0
110
0.0
120
0.0
130
0.0
111
1.0
121
0.0
131
0.0
112
0.0
122
1.0
132
0.0
  0
VIEW
  5
2F
100
AcDbSymbolTableRecord
100
AcDbViewTableRecord
  2
BOTTOM
 70
     0
 40
10.166631
 10
0.0
 20
0.0
 41
14.399606
 11
0.0
 21
0.0
 31
-1.0
 12
0.0
 22
0.0
 32
0.0
 42
50.0
 43
30.523044
 44
-30.523044
 50
180.0
 71
    16
281
     0
 72
     0
110
0.0
120
0.0
130
0.0
111
1.0
121
0.0
131
0.0
112
0.0
122
1.0
132
0.0
  0
VIEW
  5
30
100
AcDbSymbolTableRecord
100
AcDbViewTableRecord
  2
LEFT
 70
     0
 40
61.046088
 10
0.0
 20
0.0
 41
10.166631
 11
-1.0
 21
0.0
 31
0.0
 12
0.0
 22
0.0
 32
0.0
 42
50.0
 43
30.943437
 44
-30.943437
 50
0.0
 71
    16
281
     0
 72
     0
110
0.0
120
0.0
130
0.0
111
1.0
121
0.0
131
0.0
112
0.0
122
1.0
132
0.0
  0
VIEW
  5
31
100
AcDbSymbolTableRecord
100
AcDbViewTableRecord
  2
TFR-ISO
 70
     0
 40
59.873046
 10
0.0
 20
0.0
 41
17.370953
 11
0.57735
 21
-0.57735
 31
0.57735
 12
0.0
 22
0.0
 32
0.0
 42
50.0
 43
31.171027
 44
-31.171027
 50
0.0
 71
    16
281
     0
 72
     0
110
0.0
120
0.0
130
0.0
111
1.0
121
0.0
131
0.0
112
0.0
122
1.0
132
0.0
  0
VIEW
  5
32
100
AcDbSymbolTableRecord
100
AcDbViewTableRecord
  2
TFR-TRI
 70
     0
 40
63.182916
 10
0.0
 20
0.0
 41
16.974592
 11
0.718873
 21
-0.585049
 31
0.375419
 12
0.0
 22
0.0
 32
0.0
 42
50.0
 43
32.711686
 44
-32.711686
 50
0.0
 71
    16
281
     0
 72
     0
110
0.0
120
0.0
130
0.0
111
1.0
121
0.0
131
0.0
112
0.0
122
1.0
132
0.0
  0
ENDTAB
  0
TABLE
  2
UCS
  5
6
100
AcDbSymbolTable
 70
     0
  0
ENDTAB
  0
TABLE
  2
APPID
  5
8
100
AcDbSymbolTable
 70
     1
  0
APPID
  5
16
100
AcDbSymbolTableRecord
100
AcDbRegAppTableRecord
  2
ACAD
 70
     0
  0
ENDTAB
  0
TABLE
  2
DIMSTYLE
  5
9
100
AcDbSymbolTable
 70
     1
100
AcDbDimStyleTable
 71
     0
  0
DIMSTYLE
105
18
100
AcDbSymbolTableRecord
100
AcDbDimStyleTableRecord
  2
Standard
 70
     0
  3

  4

 40
1.0
 41
0.18
 42
0.0625
 43
0.38
 44
0.18
 45
0.0
 46
0.0
 47
0.0
 48
0.0
 71
     0
 72
     0
 73
     1
 74
     1
 75
     0
 76
     0
 77
     0
 78
     0
 79
     0
140
0.18
141
0.09
142
0.0
143
25.4
144
1.0
145
0.0
146
1.0
147
0.09
148
0.0
170
     0
171
     2
172
     0
173
     0
174
     0
175
     0
176
     0
177
     0
178
     0
179
     0
271
     4
272
     4
273
     2
274
     2
275
     0
276
     0
277
     2
278
    46
279
     0
280
     0
281
     0
282
     0
283
     1
284
     0
285
     0
286
     0
288
     0
289
     3
340
17
341
0
342
0
343
0
344
0
371
    -2
372
    -2
  0
ENDTAB
  0
TABLE
  2
BLOCK_RECORD
  5
1
100
AcDbSymbolTable
 70
    61
  0
BLOCK_RECORD
  5
A
100
AcDbSymbolTableRecord
100
AcDbBlockTableRecord
  2
*MODEL_SPACE
340
20
  0
BLOCK_RECORD
  5
B
100
AcDbSymbolTableRecord
100
AcDbBlockTableRecord
  2
*PAPER_SPACE
340
21
  0
BLOCK_RECORD
  5
81
100
AcDbSymbolTableRecord
100
AcDbBlockTableRecord
  2
ASSORTED_DRAFT121
340
0
102
{BLKREFS
331
86
102
}
  0
BLOCK_RECORD
  5
87
100
AcDbSymbolTableRecord
100
AcDbBlockTableRecord
  2
ASSORTED_DRAFT122
340
0
102
{BLKREFS
331
8B
102
}
  0
BLOCK_RECORD
  5
8C
100
AcDbSymbolTableRecord
100
AcDbBlockTableRecord
  2
ASSORTED_DRAFT123
340
0
102
{BLKREFS
331
90
102
}
  0
BLOCK_RECORD
  5
91
100
AcDbSymbolTableRecord
100
AcDbBlockTableRecord
  2
ASSORTED_DRAFT124
340
0
102
{BLKREFS
331
95
102
}
  0
BLOCK_RECORD
  5
96
100
AcDbSymbolTableRecord
100
AcDbBlockTableRecord
  2
ASSORTED_DRAFT125
340
0
102
{BLKREFS
331
9A
102
}
  0
BLOCK_RECORD
  5
9B
100
AcDbSymbolTableRecord
100
AcDbBlockTableRecord
  2
ASSORTED_DRAFT126
340
0
102
{BLKREFS
331
9F
102
}
  0
BLOCK_RECORD
  5
A0
100
AcDbSymbolTableRecord
100
AcDbBlockTableRecord
  2
ASSORTED_DRAFT127
340
0
102
{BLKREFS
331
A4
102
}
  0
BLOCK_RECORD
  5
A5
100
AcDbSymbolTableRecord
100
AcDbBlockTableRecord
  2
ASSORTED_DRAFT128
340
0
102
{BLKREFS
331
A9
102
}
  0
BLOCK_RECORD
  5
AA
100
AcDbSymbolTableRecord
100
AcDbBlockTableRecord
  2
ASSORTED_DRAFT129
340
0
102
{BLKREFS
331
AE
102
}
  0
BLOCK_RECORD
  5
AF
100
AcDbSymbolTableRecord
100
AcDbBlockTableRecord
  2
ASSORTED_DRAFT130
340
0
102
{BLKREFS
331
B3
102
}
  0
BLOCK_RECORD
  5
B4
100
AcDbSymbolTableRecord
100
AcDbBlockTableRecord
  2
ASSORTED_DRAFT131
340
0
102
{BLKREFS
331
B8
102
}
  0
BLOCK_RECORD
  5
B9
100
AcDbSymbolTableRecord
100
AcDbBlockTableRecord
  2
ASSORTED_DRAFT132
340
0
102
{BLKREFS
331
BD
102
}
  0
BLOCK_RECORD
  5
BE
100
AcDbSymbolTableRecord
100
AcDbBlockTableRecord
  2
ASSORTED_DRAFT133
340
0
102
{BLKREFS
331
C2
102
}
  0
BLOCK_RECORD
  5
C3
100
AcDbSymbolTableRecord
100
AcDbBlockTableRecord
  2
ASSORTED_DRAFT134
340
0
102
{BLKREFS
331
C7
102
}
  0
BLOCK_RECORD
  5
C8
100
AcDbSymbolTableRecord
100
AcDbBlockTableRecord
  2
ASSORTED_DRAFT135
340
0
102
{BLKREFS
331
CC
102
}
  0
BLOCK_RECORD
  5
CD
100
AcDbSymbolTableRecord
100
AcDbBlockTableRecord
  2
ASSORTED_DRAFT136
340
0
102
{BLKREFS
331
D1
102
}
  0
BLOCK_RECORD
  5
D2
100
AcDbSymbolTableRecord
100
AcDbBlockTableRecord
  2
ASSORTED_DRAFT137
340
0
102
{BLKREFS
331
D6
102
}
  0
BLOCK_RECORD
  5
D7
100
AcDbSymbolTableRecord
100
AcDbBlockTableRecord
  2
ASSORTED_DRAFT138
340
0
102
{BLKREFS
331
DB
102
}
  0
BLOCK_RECORD
  5
DC
100
AcDbSymbolTableRecord
100
AcDbBlockTableRecord
  2
ASSORTED_DRAFT139
340
0
102
{BLKREFS
331
E0
102
}
  0
BLOCK_RECORD
  5
E1
100
AcDbSymbolTableRecord
100
AcDbBlockTableRecord
  2
ASSORTED_DRAFT140
340
0
102
{BLKREFS
331
E5
102
}
  0
BLOCK_RECORD
  5
E6
100
AcDbSymbolTableRecord
100
AcDbBlockTableRecord
  2
ASSORTED_DRAFT141
340
0
102
{BLKREFS
331
EA
102
}
  0
BLOCK_RECORD
  5
EB
100
AcDbSymbolTableRecord
100
AcDbBlockTableRecord
  2
ASSORTED_DRAFT142
340
0
102
{BLKREFS
331
EF
102
}
  0
BLOCK_RECORD
  5
F0
100
AcDbSymbolTableRecord
100
AcDbBlockTableRecord
  2
ASSORTED_DRAFT143
340
0
102
{BLKREFS
331
F4
102
}
  0
BLOCK_RECORD
  5
F5
100
AcDbSymbolTableRecord
100
AcDbBlockTableRecord
  2
ASSORTED_DRAFT144
340
0
102
{BLKREFS
331
F9
102
}
  0
BLOCK_RECORD
  5
FA
100
AcDbSymbolTableRecord
100
AcDbBlockTableRecord
  2
ASSORTED_DRAFT145
340
0
102
{BLKREFS
331
FE
102
}
  0
BLOCK_RECORD
  5
FF
100
AcDbSymbolTableRecord
100
AcDbBlockTableRecord
  2
ASSORTED_DRAFT146
340
0
102
{BLKREFS
331
103
102
}
  0
BLOCK_RECORD
  5
104
100
AcDbSymbolTableRecord
100
AcDbBlockTableRecord
  2
ASSORTED_DRAFT147
340
0
102
{BLKREFS
331
108
102
}
  0
BLOCK_RECORD
  5
113
100
AcDbSymbolTableRecord
100
AcDbBlockTableRecord
  2
ASSORTED_DRAFT148
340
0
102
{BLKREFS
331
147
102
}
  0
BLOCK_RECORD
  5
148
100
AcDbSymbolTableRecord
100
AcDbBlockTableRecord
  2
ASSORTED_DRAFT149
340
0
102
{BLKREFS
331
18E
102
}
  0
BLOCK_RECORD
  5
18F
100
AcDbSymbolTableRecord
100
AcDbBlockTableRecord
  2
ASSORTED_DRAFT150
340
0
102
{BLKREFS
331
1C2
102
}
  0
BLOCK_RECORD
  5
1C3
100
AcDbSymbolTableRecord
100
AcDbBlockTableRecord
  2
ASSORTED_DRAFT151
340
0
102
{BLKREFS
331
1F7
102
}
  0
BLOCK_RECORD
  5
1FA
100
AcDbSymbolTableRecord
100
AcDbBlockTableRecord
  2
ASSORTED_DRAFT152
340
0
102
{BLKREFS
331
1FE
102
}
  0
BLOCK_RECORD
  5
20B
100
AcDbSymbolTableRecord
100
AcDbBlockTableRecord
  2
ASSORTED_DRAFT153
340
0
102
{BLKREFS
331
20F
102
}
  0
BLOCK_RECORD
  5
210
100
AcDbSymbolTableRecord
100
AcDbBlockTableRecord
  2
ASSORTED_DRAFT154
340
0
102
{BLKREFS
331
214
102
}
  0
BLOCK_RECORD
  5
215
100
AcDbSymbolTableRecord
100
AcDbBlockTableRecord
  2
ASSORTED_DRAFT155
340
0
102
{BLKREFS
331
219
102
}
  0
BLOCK_RECORD
  5
21A
100
AcDbSymbolTableRecord
100
AcDbBlockTableRecord
  2
ASSORTED_DRAFT156
340
0
102
{BLKREFS
331
21E
102
}
  0
BLOCK_RECORD
  5
21F
100
AcDbSymbolTableRecord
100
AcDbBlockTableRecord
  2
ASSORTED_DRAFT157
340
0
102
{BLKREFS
331
223
102
}
  0
BLOCK_RECORD
  5
224
100
AcDbSymbolTableRecord
100
AcDbBlockTableRecord
  2
ASSORTED_DRAFT158
340
0
102
{BLKREFS
331
228
102
}
  0
BLOCK_RECORD
  5
229
100
AcDbSymbolTableRecord
100
AcDbBlockTableRecord
  2
ASSORTED_DRAFT159
340
0
102
{BLKREFS
331
22D
102
}
  0
BLOCK_RECORD
  5
22E
100
AcDbSymbolTableRecord
100
AcDbBlockTableRecord
  2
ASSORTED_DRAFT160
340
0
102
{BLKREFS
331
232
102
}
  0
BLOCK_RECORD
  5
233
100
AcDbSymbolTableRecord
100
AcDbBlockTableRecord
  2
ASSORTED_DRAFT161
340
0
102
{BLKREFS
331
237
102
}
  0
BLOCK_RECORD
  5
238
100
AcDbSymbolTableRecord
100
AcDbBlockTableRecord
  2
ASSORTED_DRAFT162
340
0
102
{BLKREFS
331
23C
102
}
  0
BLOCK_RECORD
  5
23D
100
AcDbSymbolTableRecord
100
AcDbBlockTableRecord
  2
ASSORTED_DRAFT163
340
0
102
{BLKREFS
331
241
102
}
  0
BLOCK_RECORD
  5
242
100
AcDbSymbolTableRecord
100
AcDbBlockTableRecord
  2
ASSORTED_DRAFT164
340
0
102
{BLKREFS
331
246
102
}
  0
BLOCK_RECORD
  5
247
100
AcDbSymbolTableRecord
100
AcDbBlockTableRecord
  2
ASSORTED_DRAFT165
340
0
102
{BLKREFS
331
24B
102
}
  0
BLOCK_RECORD
  5
24C
100
AcDbSymbolTableRecord
100
AcDbBlockTableRecord
  2
ASSORTED_DRAFT166
340
0
102
{BLKREFS
331
250
102
}
  0
BLOCK_RECORD
  5
251
100
AcDbSymbolTableRecord
100
AcDbBlockTableRecord
  2
ASSORTED_DRAFT167
340
0
102
{BLKREFS
331
255
102
}
  0
BLOCK_RECORD
  5
256
100
AcDbSymbolTableRecord
100
AcDbBlockTableRecord
  2
ASSORTED_DRAFT168
340
0
102
{BLKREFS
331
25A
102
}
  0
BLOCK_RECORD
  5
25B
100
AcDbSymbolTableRecord
100
AcDbBlockTableRecord
  2
ASSORTED_DRAFT169
340
0
102
{BLKREFS
331
25F
102
}
  0
BLOCK_RECORD
  5
260
100
AcDbSymbolTableRecord
100
AcDbBlockTableRecord
  2
ASSORTED_DRAFT170
340
0
102
{BLKREFS
331
264
102
}
  0
BLOCK_RECORD
  5
265
100
AcDbSymbolTableRecord
100
AcDbBlockTableRecord
  2
ASSORTED_DRAFT171
340
0
102
{BLKREFS
331
269
102
}
  0
BLOCK_RECORD
  5
26A
100
AcDbSymbolTableRecord
100
AcDbBlockTableRecord
  2
ASSORTED_DRAFT172
340
0
102
{BLKREFS
331
26E
102
}
  0
BLOCK_RECORD
  5
26F
100
AcDbSymbolTableRecord
100
AcDbBlockTableRecord
  2
ASSORTED_DRAFT173
340
0
102
{BLKREFS
331
273
102
}
  0
BLOCK_RECORD
  5
274
100
AcDbSymbolTableRecord
100
AcDbBlockTableRecord
  2
ASSORTED_DRAFT174
340
0
102
{BLKREFS
331
278
102
}
  0
BLOCK_RECORD
  5
279
100
AcDbSymbolTableRecord
100
AcDbBlockTableRecord
  2
ASSORTED_DRAFT175
340
0
102
{BLKREFS
331
27D
102
}
  0
BLOCK_RECORD
  5
27E
100
AcDbSymbolTableRecord
100
AcDbBlockTableRecord
  2
ASSORTED_DRAFT176
340
0
102
{BLKREFS
331
282
102
}
  0
BLOCK_RECORD
  5
283
100
AcDbSymbolTableRecord
100
AcDbBlockTableRecord
  2
ASSORTED_DRAFT177
340
0
102
{BLKREFS
331
287
102
}
  0
BLOCK_RECORD
  5
288
100
AcDbSymbolTableRecord
100
AcDbBlockTableRecord
  2
ASSORTED_DRAFT178
340
0
102
{BLKREFS
331
28C
102
}
  0
BLOCK_RECORD
  5
28D
100
AcDbSymbolTableRecord
100
AcDbBlockTableRecord
  2
ASSORTED_DRAFT179
340
0
102
{BLKREFS
331
291
102
}
  0
BLOCK_RECORD
  5
292
100
AcDbSymbolTableRecord
100
AcDbBlockTableRecord
  2
ASSORTED_DRAFT180
340
0
102
{BLKREFS
331
296
102
}
  0
BLOCK_RECORD
  5
2AE
100
AcDbSymbolTableRecord
100
AcDbBlockTableRecord
  2
V10290MV_45PPI-MEDIA_00_MODEL
340
0
102
{BLKREFS
331
2C9
331
2CA
331
2CB
331
2CC
331
2CD
102
}
  0
ENDTAB
  0
ENDSEC
  0
SECTION
  2
BLOCKS
  0
BLOCK
  5
D
100
AcDbEntity
  8
0
390
0
100
AcDbBlockBegin
  2
*MODEL_SPACE
 70
     0
 10
0.0
 20
0.0
 30
0.0
  3
*MODEL_SPACE
  1

  0
ENDBLK
  5
E
100
AcDbEntity
  8
0
390
0
100
AcDbBlockEnd
  0
BLOCK
  5
F
100
AcDbEntity
 67
     1
  8
0
390
0
100
AcDbBlockBegin
  2
*PAPER_SPACE
 70
     0
 10
0.0
 20
0.0
 30
0.0
  3
*PAPER_SPACE
  1

  0
ENDBLK
  5
10
100
AcDbEntity
 67
     1
  8
0
390
0
100
AcDbBlockEnd
  0
BLOCK
  5
82
100
AcDbEntity
  8
0
390
0
100
AcDbBlockBegin
  2
ASSORTED_DRAFT121
 70
     0
 10
0.0
 20
0.0
 30
0.0
  3
ASSORTED_DRAFT121
  1

  0
MTEXT
  5
83
100
AcDbEntity
  8
1
390
0
  6
Continuous
 62
     7
100
AcDbMText
 10
0.395758
 20
0.314102
 30
0.0
 40
0.059805
 41
0.0
 71
     7
 72
     5
  1
\W01.000;\Fsimplex.shx;REV
  7
blockfont
210
0.0
220
0.0
230
1.0
 73
     2
 44
0.903614
  0
ENDBLK
  5
85
100
AcDbEntity
  8
0
390
0
100
AcDbBlockEnd
  0
BLOCK
  5
88
100
AcDbEntity
  8
0
390
0
100
AcDbBlockBegin
  2
ASSORTED_DRAFT122
 70
     0
 10
0.0
 20
0.0
 30
0.0
  3
ASSORTED_DRAFT122
  1

  0
MTEXT
  5
89
100
AcDbEntity
  8
1
390
0
  6
Continuous
 62
     7
100
AcDbMText
 10
0.737996
 20
0.314102
 30
0.0
 40
0.059805
 41
0.0
 71
     7
 72
     5
  1
\W01.000;\Fsimplex.shx;DATE
  7
blockfont
210
0.0
220
0.0
230
1.0
 73
     2
 44
0.903614
  0
ENDBLK
  5
8A
100
AcDbEntity
  8
0
390
0
100
AcDbBlockEnd
  0
BLOCK
  5
8D
100
AcDbEntity
  8
0
390
0
100
AcDbBlockBegin
  2
ASSORTED_DRAFT123
 70
     0
 10
0.0
 20
0.0
 30
0.0
  3
ASSORTED_DRAFT123
  1

  0
MTEXT
  5
8E
100
AcDbEntity
  8
1
390
0
  6
Continuous
 62
     7
100
AcDbMText
 10
1.181665
 20
0.314102
 30
0.0
 40
0.059805
 41
0.0
 71
     7
 72
     5
  1
\W01.000;\Fsimplex.shx;BY
  7
blockfont
210
0.0
220
0.0
230
1.0
 73
     2
 44
0.903614
  0
ENDBLK
  5
8F
100
AcDbEntity
  8
0
390
0
100
AcDbBlockEnd
  0
BLOCK
  5
92
100
AcDbEntity
  8
0
390
0
100
AcDbBlockBegin
  2
ASSORTED_DRAFT124
 70
     0
 10
0.0
 20
0.0
 30
0.0
  3
ASSORTED_DRAFT124
  1

  0
MTEXT
  5
93
100
AcDbEntity
  8
1
390
0
  6
Continuous
 62
     7
100
AcDbMText
 10
1.490291
 20
0.314102
 30
0.0
 40
0.059805
 41
0.0
 71
     7
 72
     5
  1
\W01.000;\Fsimplex.shx;CHK
  7
blockfont
210
0.0
220
0.0
230
1.0
 73
     2
 44
0.903614
  0
ENDBLK
  5
94
100
AcDbEntity
  8
0
390
0
100
AcDbBlockEnd
  0
BLOCK
  5
97
100
AcDbEntity
  8
0
390
0
100
AcDbBlockBegin
  2
ASSORTED_DRAFT125
 70
     0
 10
0.0
 20
0.0
 30
0.0
  3
ASSORTED_DRAFT125
  1

  0
MTEXT
  5
98
100
AcDbEntity
  8
1
390
0
  6
Continuous
 62
     7
100
AcDbMText
 10
2.764402
 20
0.314102
 30
0.0
 40
0.059805
 41
0.0
 71
     7
 72
     5
  1
\W01.000;\Fsimplex.shx;DESCRIPTION
  7
blockfont
210
0.0
220
0.0
230
1.0
 73
     2
 44
0.903614
  0
ENDBLK
  5
99
100
AcDbEntity
  8
0
390
0
100
AcDbBlockEnd
  0
BLOCK
  5
9C
100
AcDbEntity
  8
0
390
0
100
AcDbBlockBegin
  2
ASSORTED_DRAFT126
 70
     0
 10
0.0
 20
0.0
 30
0.0
  3
ASSORTED_DRAFT126
  1

  0
MTEXT
  5
9D
100
AcDbEntity
  8
1
390
0
  6
Continuous
 62
     7
100
AcDbMText
 10
4.725963
 20
0.314102
 30
0.0
 40
0.059805
 41
0.0
 71
     7
 72
     5
  1
\W01.000;\Fsimplex.shx;ECN
  7
blockfont
210
0.0
220
0.0
230
1.0
 73
     2
 44
0.903614
  0
ENDBLK
  5
9E
100
AcDbEntity
  8
0
390
0
100
AcDbBlockEnd
  0
BLOCK
  5
A1
100
AcDbEntity
  8
0
390
0
100
AcDbBlockBegin
  2
ASSORTED_DRAFT127
 70
     0
 10
0.0
 20
0.0
 30
0.0
  3
ASSORTED_DRAFT127
  1

  0
MTEXT
  5
A2
100
AcDbEntity
  8
1
390
0
  6
Continuous
 62
     7
100
AcDbMText
 10
5.233606
 20
0.314102
 30
0.0
 40
0.059805
 41
0.0
 71
     7
 72
     5
  1
\W01.000;\Fsimplex.shx;R
  7
blockfont
210
0.0
220
0.0
230
1.0
 73
     2
 44
0.903614
  0
ENDBLK
  5
A3
100
AcDbEntity
  8
0
390
0
100
AcDbBlockEnd
  0
BLOCK
  5
A6
100
AcDbEntity
  8
0
390
0
100
AcDbBlockBegin
  2
ASSORTED_DRAFT128
 70
     0
 10
0.0
 20
0.0
 30
0.0
  3
ASSORTED_DRAFT128
  1

  0
MTEXT
  5
A7
100
AcDbEntity
  8
1
390
0
  6
Continuous
 62
     7
100
AcDbMText
 10
5.049683
 20
0.314102
 30
0.0
 40
0.059805
 41
0.0
 71
     7
 72
     5
  1
\W01.000;\Fsimplex.shx;-
  7
blockfont
210
0.0
220
0.0
230
1.0
 73
     2
 44
0.903614
  0
ENDBLK
  5
A8
100
AcDbEntity
  8
0
390
0
100
AcDbBlockEnd
  0
BLOCK
  5
AB
100
AcDbEntity
  8
0
390
0
100
AcDbBlockBegin
  2
ASSORTED_DRAFT129
 70
     0
 10
0.0
 20
0.0
 30
0.0
  3
ASSORTED_DRAFT129
  1

  0
MTEXT
  5
AC
100
AcDbEntity
  8
1
390
0
  6
Continuous
 62
     7
100
AcDbMText
 10
5.484391
 20
0.314102
 30
0.0
 40
0.059805
 41
0.0
 71
     7
 72
     5
  1
\W01.000;\Fsimplex.shx;CUST
  7
blockfont
210
0.0
220
0.0
230
1.0
 73
     2
 44
0.903614
  0
ENDBLK
  5
AD
100
AcDbEntity
  8
0
390
0
100
AcDbBlockEnd
  0
BLOCK
  5
B0
100
AcDbEntity
  8
0
390
0
100
AcDbBlockBegin
  2
ASSORTED_DRAFT130
 70
     0
 10
0.0
 20
0.0
 30
0.0
  3
ASSORTED_DRAFT130
  1

  0
MTEXT
  5
B1
100
AcDbEntity
  8
1
390
0
  6
Continuous
 62
     7
100
AcDbMText
 10
5.901821
 20
0.314102
 30
0.0
 40
0.059805
 41
0.0
 71
     7
 72
     5
  1
\W01.000;\Fsimplex.shx;SUP
  7
blockfont
210
0.0
220
0.0
230
1.0
 73
     2
 44
0.903614
  0
ENDBLK
  5
B2
100
AcDbEntity
  8
0
390
0
100
AcDbBlockEnd
  0
BLOCK
  5
B5
100
AcDbEntity
  8
0
390
0
100
AcDbBlockBegin
  2
ASSORTED_DRAFT131
 70
     0
 10
0.0
 20
0.0
 30
0.0
  3
ASSORTED_DRAFT131
  1

  0
MTEXT
  5
B6
100
AcDbEntity
  8
1
390
0
  6
Continuous
 62
     7
100
AcDbMText
 10
10.497983
 20
0.386425
 30
0.0
 40
0.149512
 41
0.0
 71
     7
 72
     5
  1
\W01.000;\Fsimplex.shx;A
  7
blockfont
210
0.0
220
0.0
230
1.0
 73
     2
 44
0.903614
  0
ENDBLK
  5
B7
100
AcDbEntity
  8
0
390
0
100
AcDbBlockEnd
  0
BLOCK
  5
BA
100
AcDbEntity
  8
0
390
0
100
AcDbBlockBegin
  2
ASSORTED_DRAFT132
 70
     0
 10
0.0
 20
0.0
 30
0.0
  3
ASSORTED_DRAFT132
  1

  0
MTEXT
  5
BB
100
AcDbEntity
  8
1
390
0
  6
Continuous
 62
     7
100
AcDbMText
 10
10.484706
 20
0.649206
 30
0.0
 40
0.037378
 41
0.0
 71
     7
 72
     5
  1
\W01.000;\Fsimplex.shx;DWG
  7
blockfont
210
0.0
220
0.0
230
1.0
 73
     2
 44
0.903614
  0
ENDBLK
  5
BC
100
AcDbEntity
  8
0
390
0
100
AcDbBlockEnd
  0
BLOCK
  5
BF
100
AcDbEntity
  8
0
390
0
100
AcDbBlockBegin
  2
ASSORTED_DRAFT133
 70
     0
 10
0.0
 20
0.0
 30
0.0
  3
ASSORTED_DRAFT133
  1

  0
MTEXT
  5
C0
100
AcDbEntity
  8
1
390
0
  6
Continuous
 62
     7
100
AcDbMText
 10
10.464343
 20
0.308016
 30
0.0
 40
0.037378
 41
0.0
 71
     7
 72
     5
  1
\W01.000;\Fsimplex.shx;SIZE
  7
blockfont
210
0.0
220
0.0
230
1.0
 73
     2
 44
0.903614
  0
ENDBLK
  5
C1
100
AcDbEntity
  8
0
390
0
100
AcDbBlockEnd
  0
BLOCK
  5
C4
100
AcDbEntity
  8
0
390
0
100
AcDbBlockBegin
  2
ASSORTED_DRAFT134
 70
     0
 10
0.0
 20
0.0
 30
0.0
  3
ASSORTED_DRAFT134
  1

  0
MTEXT
  5
C5
100
AcDbEntity
  8
1
390
0
  6
Continuous
 62
     7
100
AcDbMText
 10
9.223454
 20
0.927089
 30
0.0
 40
0.037378
 41
0.0
 71
     7
 72
     5
  1
\W01.000;\Fsimplex.shx;SCALE
  7
blockfont
210
0.0
220
0.0
230
1.0
 73
     2
 44
0.903614
  0
ENDBLK
  5
C6
100
AcDbEntity
  8
0
390
0
100
AcDbBlockEnd
  0
BLOCK
  5
C9
100
AcDbEntity
  8
0
390
0
100
AcDbBlockBegin
  2
ASSORTED_DRAFT135
 70
     0
 10
0.0
 20
0.0
 30
0.0
  3
ASSORTED_DRAFT135
  1

  0
MTEXT
  5
CA
100
AcDbEntity
  8
1
390
0
  6
Continuous
 62
     7
100
AcDbMText
 10
9.22389
 20
0.683192
 30
0.0
 40
0.037378
 41
0.0
 71
     7
 72
     5
  1
\W01.000;\Fsimplex.shx;DRAWING NO.
  7
blockfont
210
0.0
220
0.0
230
1.0
 73
     2
 44
0.903614
  0
ENDBLK
  5
CB
100
AcDbEntity
  8
0
390
0
100
AcDbBlockEnd
  0
BLOCK
  5
CE
100
AcDbEntity
  8
0
390
0
100
AcDbBlockBegin
  2
ASSORTED_DRAFT136
 70
     0
 10
0.0
 20
0.0
 30
0.0
  3
ASSORTED_DRAFT136
  1

  0
MTEXT
  5
CF
100
AcDbEntity
  8
1
390
0
  6
Continuous
 62
     7
100
AcDbMText
 10
6.636288
 20
0.931754
 30
0.0
 40
0.037378
 41
0.0
 71
     7
 72
     5
  1
\W01.000;\Fsimplex.shx;DRAWN BY
  7
blockfont
210
0.0
220
0.0
230
1.0
 73
     2
 44
0.903614
  0
ENDBLK
  5
D0
100
AcDbEntity
  8
0
390
0
100
AcDbBlockEnd
  0
BLOCK
  5
D3
100
AcDbEntity
  8
0
390
0
100
AcDbBlockBegin
  2
ASSORTED_DRAFT137
 70
     0
 10
0.0
 20
0.0
 30
0.0
  3
ASSORTED_DRAFT137
  1

  0
MTEXT
  5
D4
100
AcDbEntity
  8
1
390
0
  6
Continuous
 62
     7
100
AcDbMText
 10
6.63844
 20
0.683858
 30
0.0
 40
0.037378
 41
0.0
 71
     7
 72
     5
  1
\W01.000;\Fsimplex.shx;DATE
  7
blockfont
210
0.0
220
0.0
230
1.0
 73
     2
 44
0.903614
  0
ENDBLK
  5
D5
100
AcDbEntity
  8
0
390
0
100
AcDbBlockEnd
  0
BLOCK
  5
D8
100
AcDbEntity
  8
0
390
0
100
AcDbBlockBegin
  2
ASSORTED_DRAFT138
 70
     0
 10
0.0
 20
0.0
 30
0.0
  3
ASSORTED_DRAFT138
  1

  0
MTEXT
  5
D9
100
AcDbEntity
  8
1
390
0
  6
Continuous
 62
     7
100
AcDbMText
 10
6.637402
 20
0.440627
 30
0.0
 40
0.037378
 41
0.0
 71
     7
 72
     5
  1
\W01.000;\Fsimplex.shx;CHK'D
  7
blockfont
210
0.0
220
0.0
230
1.0
 73
     2
 44
0.903614
  0
ENDBLK
  5
DA
100
AcDbEntity
  8
0
390
0
100
AcDbBlockEnd
  0
BLOCK
  5
DD
100
AcDbEntity
  8
0
390
0
100
AcDbBlockBegin
  2
ASSORTED_DRAFT139
 70
     0
 10
0.0
 20
0.0
 30
0.0
  3
ASSORTED_DRAFT139
  1

  0
MTEXT
  5
DE
100
AcDbEntity
  8
1
390
0
  6
Continuous
 62
     7
100
AcDbMText
 10
9.223092
 20
1.409566
 30
0.0
 40
0.037378
 41
0.0
 71
     7
 72
     5
  1
\W01.000;\Fsimplex.shx;UNLESS OTHERWISE SPECIFIED,
  7
blockfont
210
0.0
220
0.0
230
1.0
 73
     2
 44
0.903614
  0
ENDBLK
  5
DF
100
AcDbEntity
  8
0
390
0
100
AcDbBlockEnd
  0
BLOCK
  5
E2
100
AcDbEntity
  8
0
390
0
100
AcDbBlockBegin
  2
ASSORTED_DRAFT140
 70
     0
 10
0.0
 20
0.0
 30
0.0
  3
ASSORTED_DRAFT140
  1

  0
MTEXT
  5
E3
100
AcDbEntity
  8
1
390
0
  6
Continuous
 62
     7
100
AcDbMText
 10
9.219542
 20
1.254298
 30
0.0
 40
0.037378
 41
0.0
 71
     7
 72
     5
  1
\W01.000;\Fsimplex.shx;ALL DIMENSIONS ARE GIVEN
  7
blockfont
210
0.0
220
0.0
230
1.0
 73
     2
 44
0.903614
  0
ENDBLK
  5
E4
100
AcDbEntity
  8
0
390
0
100
AcDbBlockEnd
  0
BLOCK
  5
E7
100
AcDbEntity
  8
0
390
0
100
AcDbBlockBegin
  2
ASSORTED_DRAFT141
 70
     0
 10
0.0
 20
0.0
 30
0.0
  3
ASSORTED_DRAFT141
  1

  0
MTEXT
  5
E8
100
AcDbEntity
  8
1
390
0
  6
Continuous
 62
     7
100
AcDbMText
 10
9.204498
 20
1.095031
 30
0.0
 40
0.037378
 41
0.0
 71
     7
 72
     5
  1
\W01.000;\Fsimplex.shx;IN INCHES, THIRD ANGLE PROJECTION.
  7
blockfont
210
0.0
220
0.0
230
1.0
 73
     2
 44
0.903614
  0
ENDBLK
  5
E9
100
AcDbEntity
  8
0
390
0
100
AcDbBlockEnd
  0
BLOCK
  5
EC
100
AcDbEntity
  8
0
390
0
100
AcDbBlockBegin
  2
ASSORTED_DRAFT142
 70
     0
 10
0.0
 20
0.0
 30
0.0
  3
ASSORTED_DRAFT142
  1

  0
MTEXT
  5
ED
100
AcDbEntity
  8
1
390
0
  6
Continuous
 62
     7
100
AcDbMText
 10
6.758117
 20
2.025067
 30
0.0
 40
0.336401
 41
0.0
 71
     7
 72
     5
  1
\W01.000;\Fsimplex.shx;P
  7
blockfont
210
0.0
220
0.0
230
1.0
 73
     2
 44
0.903614
  0
ENDBLK
  5
EE
100
AcDbEntity
  8
0
390
0
100
AcDbBlockEnd
  0
BLOCK
  5
F1
100
AcDbEntity
  8
0
390
0
100
AcDbBlockBegin
  2
ASSORTED_DRAFT143
 70
     0
 10
0.0
 20
0.0
 30
0.0
  3
ASSORTED_DRAFT143
  1

  0
MTEXT
  5
F2
100
AcDbEntity
  8
1
390
0
  6
Continuous
 62
     7
100
AcDbMText
 10
6.991983
 20
2.049207
 30
0.0
 40
0.261645
 41
0.0
 71
     7
 72
     5
  1
\W01.000;\Fsimplex.shx;ANDUIT
  7
blockfont
210
0.0
220
0.0
230
1.0
 73
     2
 44
0.903614
  0
ENDBLK
  5
F3
100
AcDbEntity
  8
0
390
0
100
AcDbBlockEnd
  0
BLOCK
  5
F6
100
AcDbEntity
  8
0
390
0
100
AcDbBlockBegin
  2
ASSORTED_DRAFT144
 70
     0
 10
0.0
 20
0.0
 30
0.0
  3
ASSORTED_DRAFT144
  1

  0
MTEXT
  5
F7
100
AcDbEntity
  8
1
390
0
  6
Continuous
 62
     7
100
AcDbMText
 10
8.663751
 20
2.106225
 30
0.0
 40
0.074756
 41
0.0
 71
     7
 72
     5
  1
\W01.000;\Fsimplex.shx;CORP.
  7
blockfont
210
0.0
220
0.0
230
1.0
 73
     2
 44
0.903614
  0
ENDBLK
  5
F8
100
AcDbEntity
  8
0
390
0
100
AcDbBlockEnd
  0
BLOCK
  5
FB
100
AcDbEntity
  8
0
390
0
100
AcDbBlockBegin
  2
ASSORTED_DRAFT145
 70
     0
 10
0.0
 20
0.0
 30
0.0
  3
ASSORTED_DRAFT145
  1

  0
MTEXT
  5
FC
100
AcDbEntity
  8
1
390
0
  6
Continuous
 62
     7
100
AcDbMText
 10
9.187264
 20
2.11226
 30
0.0
 40
0.056067
 41
0.0
 71
     7
 72
     5
  1
\W01.000;\Fsimplex.shx;TINLEY PARK, ILLINOIS
  7
blockfont
210
0.0
220
0.0
230
1.0
 73
     2
 44
0.903614
  0
ENDBLK
  5
FD
100
AcDbEntity
  8
0
390
0
100
AcDbBlockEnd
  0
BLOCK
  5
100
100
AcDbEntity
  8
0
390
0
100
AcDbBlockBegin
  2
ASSORTED_DRAFT146
 70
     0
 10
0.0
 20
0.0
 30
0.0
  3
ASSORTED_DRAFT146
  1

  0
MTEXT
  5
101
100
AcDbEntity
  8
1
390
0
  6
Continuous
 62
     7
100
AcDbMText
 10
7.422528
 20
0.885736
 30
0.0
 40
0.056067
 41
0.0
 71
     7
 72
     5
  1
\W01.000;\Fsimplex.shx;MAT'L:
  7
blockfont
210
0.0
220
0.0
230
1.0
 73
     2
 44
0.903614
  0
ENDBLK
  5
102
100
AcDbEntity
  8
0
390
0
100
AcDbBlockEnd
  0
BLOCK
  5
105
100
AcDbEntity
  8
0
390
0
100
AcDbBlockBegin
  2
ASSORTED_DRAFT147
 70
     0
 10
0.0
 20
0.0
 30
0.0
  3
ASSORTED_DRAFT147
  1

  0
MTEXT
  5
106
100
AcDbEntity
  8
1
390
0
  6
Continuous
 62
     7
100
AcDbMText
 10
0.689637
 20
8.015177
 30
0.0
 40
0.070866
 41
0.0
 71
     7
 72
     5
  1
\W01.000;\Fsimplex.shx;THIS COPY IS PROVIDED ON A RESTRICTED BASIS AND IS NOT TO BE USED IN ANY WAY DETRIMENTAL TO THE INTERESTS OF PANDUIT CORP.
  7
blockfont
210
0.0
220
0.0
230
1.0
 73
     2
 44
0.903614
  0
ENDBLK
  5
107
100
AcDbEntity
  8
0
390
0
100
AcDbBlockEnd
  0
BLOCK
  5
114
100
AcDbEntity
  8
0
390
0
100
AcDbBlockBegin
  2
ASSORTED_DRAFT148
 70
     0
 10
0.0
 20
0.0
 30
0.0
  3
ASSORTED_DRAFT148
  1

  0
LINE
  5
115
100
AcDbEntity
  8
0
390
0
  6
Continuous
 62
     3
100
AcDbLine
 10
5.494578
 20
8.20386
 30
0.0
 11
5.557078
 21
8.20386
 31
0.0
  0
LINE
  5
116
100
AcDbEntity
  8
0
390
0
  6
Continuous
 62
     3
100
AcDbLine
 10
5.494578
 20
8.20886
 30
0.0
 11
5.557078
 21
8.20886
 31
0.0
  0
LINE
  5
117
100
AcDbEntity
  8
0
390
0
  6
Continuous
 62
     3
100
AcDbLine
 10
5.494578
 20
8.21386
 30
0.0
 11
5.557078
 21
8.21386
 31
0.0
  0
LINE
  5
118
100
AcDbEntity
  8
0
390
0
  6
Continuous
 62
     3
100
AcDbLine
 10
5.494578
 20
8.21886
 30
0.0
 11
5.557078
 21
8.21886
 31
0.0
  0
LINE
  5
119
100
AcDbEntity
  8
0
390
0
  6
Continuous
 62
     3
100
AcDbLine
 10
5.494578
 20
8.22386
 30
0.0
 11
5.557078
 21
8.22386
 31
0.0
  0
LINE
  5
11A
100
AcDbEntity
  8
0
390
0
  6
Continuous
 62
     3
100
AcDbLine
 10
5.494578
 20
8.22886
 30
0.0
 11
5.557078
 21
8.22886
 31
0.0
  0
LINE
  5
11B
100
AcDbEntity
  8
0
390
0
  6
Continuous
 62
     3
100
AcDbLine
 10
5.494578
 20
8.23386
 30
0.0
 11
5.557078
 21
8.23386
 31
0.0
  0
LINE
  5
11C
100
AcDbEntity
  8
0
390
0
  6
Continuous
 62
     3
100
AcDbLine
 10
5.494578
 20
8.23886
 30
0.0
 11
5.557078
 21
8.23886
 31
0.0
  0
LINE
  5
11D
100
AcDbEntity
  8
0
390
0
  6
Continuous
 62
     3
100
AcDbLine
 10
5.494578
 20
8.24386
 30
0.0
 11
5.557078
 21
8.24386
 31
0.0
  0
LINE
  5
11E
100
AcDbEntity
  8
0
390
0
  6
Continuous
 62
     3
100
AcDbLine
 10
5.494578
 20
8.24886
 30
0.0
 11
5.557078
 21
8.24886
 31
0.0
  0
LINE
  5
11F
100
AcDbEntity
  8
0
390
0
  6
Continuous
 62
     3
100
AcDbLine
 10
5.494578
 20
8.25386
 30
0.0
 11
5.557078
 21
8.25386
 31
0.0
  0
LINE
  5
120
100
AcDbEntity
  8
0
390
0
  6
Continuous
 62
     3
100
AcDbLine
 10
5.494578
 20
8.25886
 30
0.0
 11
5.557078
 21
8.25886
 31
0.0
  0
LINE
  5
121
100
AcDbEntity
  8
0
390
0
  6
Continuous
 62
     3
100
AcDbLine
 10
5.494578
 20
8.26386
 30
0.0
 11
5.557078
 21
8.26386
 31
0.0
  0
LINE
  5
122
100
AcDbEntity
  8
0
390
0
  6
Continuous
 62
     3
100
AcDbLine
 10
5.494578
 20
8.26886
 30
0.0
 11
5.557078
 21
8.26886
 31
0.0
  0
LINE
  5
123
100
AcDbEntity
  8
0
390
0
  6
Continuous
 62
     3
100
AcDbLine
 10
5.494578
 20
8.27386
 30
0.0
 11
5.557078
 21
8.27386
 31
0.0
  0
LINE
  5
124
100
AcDbEntity
  8
0
390
0
  6
Continuous
 62
     3
100
AcDbLine
 10
5.494578
 20
8.27886
 30
0.0
 11
5.557078
 21
8.27886
 31
0.0
  0
LINE
  5
125
100
AcDbEntity
  8
0
390
0
  6
Continuous
 62
     3
100
AcDbLine
 10
5.494578
 20
8.28386
 30
0.0
 11
5.557078
 21
8.28386
 31
0.0
  0
LINE
  5
126
100
AcDbEntity
  8
0
390
0
  6
Continuous
 62
     3
100
AcDbLine
 10
5.494578
 20
8.28886
 30
0.0
 11
5.557078
 21
8.28886
 31
0.0
  0
LINE
  5
127
100
AcDbEntity
  8
0
390
0
  6
Continuous
 62
     3
100
AcDbLine
 10
5.404827
 20
8.29386
 30
0.0
 11
5.646828
 21
8.29386
 31
0.0
  0
LINE
  5
128
100
AcDbEntity
  8
0
390
0
  6
Continuous
 62
     3
100
AcDbLine
 10
5.408827
 20
8.29886
 30
0.0
 11
5.642828
 21
8.29886
 31
0.0
  0
LINE
  5
129
100
AcDbEntity
  8
0
390
0
  6
Continuous
 62
     3
100
AcDbLine
 10
5.412827
 20
8.30386
 30
0.0
 11
5.638828
 21
8.30386
 31
0.0
  0
LINE
  5
12A
100
AcDbEntity
  8
0
390
0
  6
Continuous
 62
     3
100
AcDbLine
 10
5.416827
 20
8.30886
 30
0.0
 11
5.634828
 21
8.30886
 31
0.0
  0
LINE
  5
12B
100
AcDbEntity
  8
0
390
0
  6
Continuous
 62
     3
100
AcDbLine
 10
5.420827
 20
8.31386
 30
0.0
 11
5.630828
 21
8.31386
 31
0.0
  0
LINE
  5
12C
100
AcDbEntity
  8
0
390
0
  6
Continuous
 62
     3
100
AcDbLine
 10
5.424827
 20
8.31886
 30
0.0
 11
5.626828
 21
8.31886
 31
0.0
  0
LINE
  5
12D
100
AcDbEntity
  8
0
390
0
  6
Continuous
 62
     3
100
AcDbLine
 10
5.428827
 20
8.32386
 30
0.0
 11
5.622828
 21
8.32386
 31
0.0
  0
LINE
  5
12E
100
AcDbEntity
  8
0
390
0
  6
Continuous
 62
     3
100
AcDbLine
 10
5.432827
 20
8.32886
 30
0.0
 11
5.618828
 21
8.32886
 31
0.0
  0
LINE
  5
12F
100
AcDbEntity
  8
0
390
0
  6
Continuous
 62
     3
100
AcDbLine
 10
5.436827
 20
8.33386
 30
0.0
 11
5.614828
 21
8.33386
 31
0.0
  0
LINE
  5
130
100
AcDbEntity
  8
0
390
0
  6
Continuous
 62
     3
100
AcDbLine
 10
5.440827
 20
8.33886
 30
0.0
 11
5.610828
 21
8.33886
 31
0.0
  0
LINE
  5
131
100
AcDbEntity
  8
0
390
0
  6
Continuous
 62
     3
100
AcDbLine
 10
5.444827
 20
8.34386
 30
0.0
 11
5.606828
 21
8.34386
 31
0.0
  0
LINE
  5
132
100
AcDbEntity
  8
0
390
0
  6
Continuous
 62
     3
100
AcDbLine
 10
5.448827
 20
8.34886
 30
0.0
 11
5.602828
 21
8.34886
 31
0.0
  0
LINE
  5
133
100
AcDbEntity
  8
0
390
0
  6
Continuous
 62
     3
100
AcDbLine
 10
5.452827
 20
8.35386
 30
0.0
 11
5.598828
 21
8.35386
 31
0.0
  0
LINE
  5
134
100
AcDbEntity
  8
0
390
0
  6
Continuous
 62
     3
100
AcDbLine
 10
5.456827
 20
8.35886
 30
0.0
 11
5.594828
 21
8.35886
 31
0.0
  0
LINE
  5
135
100
AcDbEntity
  8
0
390
0
  6
Continuous
 62
     3
100
AcDbLine
 10
5.460827
 20
8.36386
 30
0.0
 11
5.590828
 21
8.36386
 31
0.0
  0
LINE
  5
136
100
AcDbEntity
  8
0
390
0
  6
Continuous
 62
     3
100
AcDbLine
 10
5.464827
 20
8.36886
 30
0.0
 11
5.586828
 21
8.36886
 31
0.0
  0
LINE
  5
137
100
AcDbEntity
  8
0
390
0
  6
Continuous
 62
     3
100
AcDbLine
 10
5.468827
 20
8.37386
 30
0.0
 11
5.582828
 21
8.37386
 31
0.0
  0
LINE
  5
138
100
AcDbEntity
  8
0
390
0
  6
Continuous
 62
     3
100
AcDbLine
 10
5.472827
 20
8.37886
 30
0.0
 11
5.578828
 21
8.37886
 31
0.0
  0
LINE
  5
139
100
AcDbEntity
  8
0
390
0
  6
Continuous
 62
     3
100
AcDbLine
 10
5.476827
 20
8.38386
 30
0.0
 11
5.574828
 21
8.38386
 31
0.0
  0
LINE
  5
13A
100
AcDbEntity
  8
0
390
0
  6
Continuous
 62
     3
100
AcDbLine
 10
5.480827
 20
8.38886
 30
0.0
 11
5.570828
 21
8.38886
 31
0.0
  0
LINE
  5
13B
100
AcDbEntity
  8
0
390
0
  6
Continuous
 62
     3
100
AcDbLine
 10
5.484827
 20
8.39386
 30
0.0
 11
5.566828
 21
8.39386
 31
0.0
  0
LINE
  5
13C
100
AcDbEntity
  8
0
390
0
  6
Continuous
 62
     3
100
AcDbLine
 10
5.488827
 20
8.39886
 30
0.0
 11
5.562828
 21
8.39886
 31
0.0
  0
LINE
  5
13D
100
AcDbEntity
  8
0
390
0
  6
Continuous
 62
     3
100
AcDbLine
 10
5.492827
 20
8.40386
 30
0.0
 11
5.558828
 21
8.40386
 31
0.0
  0
LINE
  5
13E
100
AcDbEntity
  8
0
390
0
  6
Continuous
 62
     3
100
AcDbLine
 10
5.496827
 20
8.40886
 30
0.0
 11
5.554828
 21
8.40886
 31
0.0
  0
LINE
  5
13F
100
AcDbEntity
  8
0
390
0
  6
Continuous
 62
     3
100
AcDbLine
 10
5.500827
 20
8.41386
 30
0.0
 11
5.550828
 21
8.41386
 31
0.0
  0
LINE
  5
140
100
AcDbEntity
  8
0
390
0
  6
Continuous
 62
     3
100
AcDbLine
 10
5.504827
 20
8.41886
 30
0.0
 11
5.546828
 21
8.41886
 31
0.0
  0
LINE
  5
141
100
AcDbEntity
  8
0
390
0
  6
Continuous
 62
     3
100
AcDbLine
 10
5.508827
 20
8.42386
 30
0.0
 11
5.542828
 21
8.42386
 31
0.0
  0
LINE
  5
142
100
AcDbEntity
  8
0
390
0
  6
Continuous
 62
     3
100
AcDbLine
 10
5.512827
 20
8.42886
 30
0.0
 11
5.538828
 21
8.42886
 31
0.0
  0
LINE
  5
143
100
AcDbEntity
  8
0
390
0
  6
Continuous
 62
     3
100
AcDbLine
 10
5.516827
 20
8.43386
 30
0.0
 11
5.534828
 21
8.43386
 31
0.0
  0
LINE
  5
144
100
AcDbEntity
  8
0
390
0
  6
Continuous
 62
     3
100
AcDbLine
 10
5.520827
 20
8.43886
 30
0.0
 11
5.530828
 21
8.43886
 31
0.0
  0
LINE
  5
145
100
AcDbEntity
  8
0
390
0
  6
Continuous
 62
     3
100
AcDbLine
 10
5.524827
 20
8.44386
 30
0.0
 11
5.526828
 21
8.44386
 31
0.0
  0
ENDBLK
  5
146
100
AcDbEntity
  8
0
390
0
100
AcDbBlockEnd
  0
BLOCK
  5
149
100
AcDbEntity
  8
0
390
0
100
AcDbBlockBegin
  2
ASSORTED_DRAFT149
 70
     0
 10
0.0
 20
0.0
 30
0.0
  3
ASSORTED_DRAFT149
  1

  0
LINE
  5
14A
100
AcDbEntity
  8
0
390
0
  6
Continuous
 62
     3
100
AcDbLine
 10
0.210405
 20
4.10693
 30
0.0
 11
0.216655
 21
4.10693
 31
0.0
  0
LINE
  5
14B
100
AcDbEntity
  8
0
390
0
  6
Continuous
 62
     3
100
AcDbLine
 10
0.204155
 20
4.11193
 30
0.0
 11
0.216655
 21
4.11193
 31
0.0
  0
LINE
  5
14C
100
AcDbEntity
  8
0
390
0
  6
Continuous
 62
     3
100
AcDbLine
 10
0.197905
 20
4.11693
 30
0.0
 11
0.216655
 21
4.11693
 31
0.0
  0
LINE
  5
14D
100
AcDbEntity
  8
0
390
0
  6
Continuous
 62
     3
100
AcDbLine
 10
0.191655
 20
4.12193
 30
0.0
 11
0.216655
 21
4.12193
 31
0.0
  0
LINE
  5
14E
100
AcDbEntity
  8
0
390
0
  6
Continuous
 62
     3
100
AcDbLine
 10
0.185405
 20
4.12693
 30
0.0
 11
0.216655
 21
4.12693
 31
0.0
  0
LINE
  5
14F
100
AcDbEntity
  8
0
390
0
  6
Continuous
 62
     3
100
AcDbLine
 10
0.179155
 20
4.13193
 30
0.0
 11
0.216655
 21
4.13193
 31
0.0
  0
LINE
  5
150
100
AcDbEntity
  8
0
390
0
  6
Continuous
 62
     3
100
AcDbLine
 10
0.172905
 20
4.13693
 30
0.0
 11
0.216655
 21
4.13693
 31
0.0
  0
LINE
  5
151
100
AcDbEntity
  8
0
390
0
  6
Continuous
 62
     3
100
AcDbLine
 10
0.166655
 20
4.14193
 30
0.0
 11
0.216655
 21
4.14193
 31
0.0
  0
LINE
  5
152
100
AcDbEntity
  8
0
390
0
  6
Continuous
 62
     3
100
AcDbLine
 10
0.160405
 20
4.14693
 30
0.0
 11
0.216655
 21
4.14693
 31
0.0
  0
LINE
  5
153
100
AcDbEntity
  8
0
390
0
  6
Continuous
 62
     3
100
AcDbLine
 10
0.154155
 20
4.15193
 30
0.0
 11
0.216655
 21
4.15193
 31
0.0
  0
LINE
  5
154
100
AcDbEntity
  8
0
390
0
  6
Continuous
 62
     3
100
AcDbLine
 10
0.147905
 20
4.15693
 30
0.0
 11
0.216655
 21
4.15693
 31
0.0
  0
LINE
  5
155
100
AcDbEntity
  8
0
390
0
  6
Continuous
 62
     3
100
AcDbLine
 10
0.141655
 20
4.16193
 30
0.0
 11
0.216655
 21
4.16193
 31
0.0
  0
LINE
  5
156
100
AcDbEntity
  8
0
390
0
  6
Continuous
 62
     3
100
AcDbLine
 10
0.135405
 20
4.16693
 30
0.0
 11
0.216655
 21
4.16693
 31
0.0
  0
LINE
  5
157
100
AcDbEntity
  8
0
390
0
  6
Continuous
 62
     3
100
AcDbLine
 10
0.129155
 20
4.17193
 30
0.0
 11
0.216655
 21
4.17193
 31
0.0
  0
LINE
  5
158
100
AcDbEntity
  8
0
390
0
  6
Continuous
 62
     3
100
AcDbLine
 10
0.122905
 20
4.17693
 30
0.0
 11
0.216655
 21
4.17693
 31
0.0
  0
LINE
  5
159
100
AcDbEntity
  8
0
390
0
  6
Continuous
 62
     3
100
AcDbLine
 10
0.116655
 20
4.18193
 30
0.0
 11
0.216655
 21
4.18193
 31
0.0
  0
LINE
  5
15A
100
AcDbEntity
  8
0
390
0
  6
Continuous
 62
     3
100
AcDbLine
 10
0.110405
 20
4.18693
 30
0.0
 11
0.216655
 21
4.18693
 31
0.0
  0
LINE
  5
15B
100
AcDbEntity
  8
0
390
0
  6
Continuous
 62
     3
100
AcDbLine
 10
0.104155
 20
4.19193
 30
0.0
 11
0.216655
 21
4.19193
 31
0.0
  0
LINE
  5
15C
100
AcDbEntity
  8
0
390
0
  6
Continuous
 62
     3
100
AcDbLine
 10
0.097905
 20
4.19693
 30
0.0
 11
0.301655
 21
4.19693
 31
0.0
  0
LINE
  5
15D
100
AcDbEntity
  8
0
390
0
  6
Continuous
 62
     3
100
AcDbLine
 10
0.091655
 20
4.20193
 30
0.0
 11
0.301655
 21
4.20193
 31
0.0
  0
LINE
  5
15E
100
AcDbEntity
  8
0
390
0
  6
Continuous
 62
     3
100
AcDbLine
 10
0.085405
 20
4.20693
 30
0.0
 11
0.301655
 21
4.20693
 31
0.0
  0
LINE
  5
15F
100
AcDbEntity
  8
0
390
0
  6
Continuous
 62
     3
100
AcDbLine
 10
0.079155
 20
4.21193
 30
0.0
 11
0.301655
 21
4.21193
 31
0.0
  0
LINE
  5
160
100
AcDbEntity
  8
0
390
0
  6
Continuous
 62
     3
100
AcDbLine
 10
0.072905
 20
4.21693
 30
0.0
 11
0.301655
 21
4.21693
 31
0.0
  0
LINE
  5
161
100
AcDbEntity
  8
0
390
0
  6
Continuous
 62
     3
100
AcDbLine
 10
0.066655
 20
4.22193
 30
0.0
 11
0.301655
 21
4.22193
 31
0.0
  0
LINE
  5
162
100
AcDbEntity
  8
0
390
0
  6
Continuous
 62
     3
100
AcDbLine
 10
0.060405
 20
4.22693
 30
0.0
 11
0.301655
 21
4.22693
 31
0.0
  0
LINE
  5
163
100
AcDbEntity
  8
0
390
0
  6
Continuous
 62
     3
100
AcDbLine
 10
0.066655
 20
4.23193
 30
0.0
 11
0.301655
 21
4.23193
 31
0.0
  0
LINE
  5
164
100
AcDbEntity
  8
0
390
0
  6
Continuous
 62
     3
100
AcDbLine
 10
0.072905
 20
4.23693
 30
0.0
 11
0.301655
 21
4.23693
 31
0.0
  0
LINE
  5
165
100
AcDbEntity
  8
0
390
0
  6
Continuous
 62
     3
100
AcDbLine
 10
0.079155
 20
4.24193
 30
0.0
 11
0.301655
 21
4.24193
 31
0.0
  0
LINE
  5
166
100
AcDbEntity
  8
0
390
0
  6
Continuous
 62
     3
100
AcDbLine
 10
0.085405
 20
4.24693
 30
0.0
 11
0.301655
 21
4.24693
 31
0.0
  0
LINE
  5
167
100
AcDbEntity
  8
0
390
0
  6
Continuous
 62
     3
100
AcDbLine
 10
0.091655
 20
4.25193
 30
0.0
 11
0.301655
 21
4.25193
 31
0.0
  0
LINE
  5
168
100
AcDbEntity
  8
0
390
0
  6
Continuous
 62
     3
100
AcDbLine
 10
0.097905
 20
4.25693
 30
0.0
 11
0.301655
 21
4.25693
 31
0.0
  0
LINE
  5
169
100
AcDbEntity
  8
0
390
0
  6
Continuous
 62
     3
100
AcDbLine
 10
0.104155
 20
4.26193
 30
0.0
 11
0.216655
 21
4.26193
 31
0.0
  0
LINE
  5
16A
100
AcDbEntity
  8
0
390
0
  6
Continuous
 62
     3
100
AcDbLine
 10
0.216655
 20
4.26193
 30
0.0
 11
0.216655
 21
4.26193
 31
0.0
  0
LINE
  5
16B
100
AcDbEntity
  8
0
390
0
  6
Continuous
 62
     3
100
AcDbLine
 10
0.110405
 20
4.26693
 30
0.0
 11
0.216655
 21
4.26693
 31
0.0
  0
LINE
  5
16C
100
AcDbEntity
  8
0
390
0
  6
Continuous
 62
     3
100
AcDbLine
 10
0.216655
 20
4.26693
 30
0.0
 11
0.216655
 21
4.26693
 31
0.0
  0
LINE
  5
16D
100
AcDbEntity
  8
0
390
0
  6
Continuous
 62
     3
100
AcDbLine
 10
0.116655
 20
4.27193
 30
0.0
 11
0.216655
 21
4.27193
 31
0.0
  0
LINE
  5
16E
100
AcDbEntity
  8
0
390
0
  6
Continuous
 62
     3
100
AcDbLine
 10
0.216655
 20
4.27193
 30
0.0
 11
0.216655
 21
4.27193
 31
0.0
  0
LINE
  5
16F
100
AcDbEntity
  8
0
390
0
  6
Continuous
 62
     3
100
AcDbLine
 10
0.122905
 20
4.27693
 30
0.0
 11
0.216655
 21
4.27693
 31
0.0
  0
LINE
  5
170
100
AcDbEntity
  8
0
390
0
  6
Continuous
 62
     3
100
AcDbLine
 10
0.216655
 20
4.27693
 30
0.0
 11
0.216655
 21
4.27693
 31
0.0
  0
LINE
  5
171
100
AcDbEntity
  8
0
390
0
  6
Continuous
 62
     3
100
AcDbLine
 10
0.129155
 20
4.28193
 30
0.0
 11
0.216655
 21
4.28193
 31
0.0
  0
LINE
  5
172
100
AcDbEntity
  8
0
390
0
  6
Continuous
 62
     3
100
AcDbLine
 10
0.216655
 20
4.28193
 30
0.0
 11
0.216655
 21
4.28193
 31
0.0
  0
LINE
  5
173
100
AcDbEntity
  8
0
390
0
  6
Continuous
 62
     3
100
AcDbLine
 10
0.135405
 20
4.28693
 30
0.0
 11
0.216655
 21
4.28693
 31
0.0
  0
LINE
  5
174
100
AcDbEntity
  8
0
390
0
  6
Continuous
 62
     3
100
AcDbLine
 10
0.216655
 20
4.28693
 30
0.0
 11
0.216655
 21
4.28693
 31
0.0
  0
LINE
  5
175
100
AcDbEntity
  8
0
390
0
  6
Continuous
 62
     3
100
AcDbLine
 10
0.141655
 20
4.29193
 30
0.0
 11
0.216655
 21
4.29193
 31
0.0
  0
LINE
  5
176
100
AcDbEntity
  8
0
390
0
  6
Continuous
 62
     3
100
AcDbLine
 10
0.216655
 20
4.29193
 30
0.0
 11
0.216655
 21
4.29193
 31
0.0
  0
LINE
  5
177
100
AcDbEntity
  8
0
390
0
  6
Continuous
 62
     3
100
AcDbLine
 10
0.147905
 20
4.29693
 30
0.0
 11
0.216655
 21
4.29693
 31
0.0
  0
LINE
  5
178
100
AcDbEntity
  8
0
390
0
  6
Continuous
 62
     3
100
AcDbLine
 10
0.216655
 20
4.29693
 30
0.0
 11
0.216655
 21
4.29693
 31
0.0
  0
LINE
  5
179
100
AcDbEntity
  8
0
390
0
  6
Continuous
 62
     3
100
AcDbLine
 10
0.154155
 20
4.30193
 30
0.0
 11
0.216655
 21
4.30193
 31
0.0
  0
LINE
  5
17A
100
AcDbEntity
  8
0
390
0
  6
Continuous
 62
     3
100
AcDbLine
 10
0.216655
 20
4.30193
 30
0.0
 11
0.216655
 21
4.30193
 31
0.0
  0
LINE
  5
17B
100
AcDbEntity
  8
0
390
0
  6
Continuous
 62
     3
100
AcDbLine
 10
0.160405
 20
4.30693
 30
0.0
 11
0.216655
 21
4.30693
 31
0.0
  0
LINE
  5
17C
100
AcDbEntity
  8
0
390
0
  6
Continuous
 62
     3
100
AcDbLine
 10
0.216655
 20
4.30693
 30
0.0
 11
0.216655
 21
4.30693
 31
0.0
  0
LINE
  5
17D
100
AcDbEntity
  8
0
390
0
  6
Continuous
 62
     3
100
AcDbLine
 10
0.166655
 20
4.31193
 30
0.0
 11
0.216655
 21
4.31193
 31
0.0
  0
LINE
  5
17E
100
AcDbEntity
  8
0
390
0
  6
Continuous
 62
     3
100
AcDbLine
 10
0.216655
 20
4.31193
 30
0.0
 11
0.216655
 21
4.31193
 31
0.0
  0
LINE
  5
17F
100
AcDbEntity
  8
0
390
0
  6
Continuous
 62
     3
100
AcDbLine
 10
0.172905
 20
4.31693
 30
0.0
 11
0.216655
 21
4.31693
 31
0.0
  0
LINE
  5
180
100
AcDbEntity
  8
0
390
0
  6
Continuous
 62
     3
100
AcDbLine
 10
0.216655
 20
4.31693
 30
0.0
 11
0.216655
 21
4.31693
 31
0.0
  0
LINE
  5
181
100
AcDbEntity
  8
0
390
0
  6
Continuous
 62
     3
100
AcDbLine
 10
0.179155
 20
4.32193
 30
0.0
 11
0.216655
 21
4.32193
 31
0.0
  0
LINE
  5
182
100
AcDbEntity
  8
0
390
0
  6
Continuous
 62
     3
100
AcDbLine
 10
0.216655
 20
4.32193
 30
0.0
 11
0.216655
 21
4.32193
 31
0.0
  0
LINE
  5
183
100
AcDbEntity
  8
0
390
0
  6
Continuous
 62
     3
100
AcDbLine
 10
0.185405
 20
4.32693
 30
0.0
 11
0.216655
 21
4.32693
 31
0.0
  0
LINE
  5
184
100
AcDbEntity
  8
0
390
0
  6
Continuous
 62
     3
100
AcDbLine
 10
0.216655
 20
4.32693
 30
0.0
 11
0.216655
 21
4.32693
 31
0.0
  0
LINE
  5
185
100
AcDbEntity
  8
0
390
0
  6
Continuous
 62
     3
100
AcDbLine
 10
0.191655
 20
4.33193
 30
0.0
 11
0.216655
 21
4.33193
 31
0.0
  0
LINE
  5
186
100
AcDbEntity
  8
0
390
0
  6
Continuous
 62
     3
100
AcDbLine
 10
0.216655
 20
4.33193
 30
0.0
 11
0.216655
 21
4.33193
 31
0.0
  0
LINE
  5
187
100
AcDbEntity
  8
0
390
0
  6
Continuous
 62
     3
100
AcDbLine
 10
0.197905
 20
4.33693
 30
0.0
 11
0.216655
 21
4.33693
 31
0.0
  0
LINE
  5
188
100
AcDbEntity
  8
0
390
0
  6
Continuous
 62
     3
100
AcDbLine
 10
0.216655
 20
4.33693
 30
0.0
 11
0.216655
 21
4.33693
 31
0.0
  0
LINE
  5
189
100
AcDbEntity
  8
0
390
0
  6
Continuous
 62
     3
100
AcDbLine
 10
0.204155
 20
4.34193
 30
0.0
 11
0.216655
 21
4.34193
 31
0.0
  0
LINE
  5
18A
100
AcDbEntity
  8
0
390
0
  6
Continuous
 62
     3
100
AcDbLine
 10
0.216655
 20
4.34193
 30
0.0
 11
0.216655
 21
4.34193
 31
0.0
  0
LINE
  5
18B
100
AcDbEntity
  8
0
390
0
  6
Continuous
 62
     3
100
AcDbLine
 10
0.210405
 20
4.34693
 30
0.0
 11
0.216655
 21
4.34693
 31
0.0
  0
LINE
  5
18C
100
AcDbEntity
  8
0
390
0
  6
Continuous
 62
     3
100
AcDbLine
 10
0.216655
 20
4.34693
 30
0.0
 11
0.216655
 21
4.34693
 31
0.0
  0
ENDBLK
  5
18D
100
AcDbEntity
  8
0
390
0
100
AcDbBlockEnd
  0
BLOCK
  5
190
100
AcDbEntity
  8
0
390
0
100
AcDbBlockBegin
  2
ASSORTED_DRAFT150
 70
     0
 10
0.0
 20
0.0
 30
0.0
  3
ASSORTED_DRAFT150
  1

  0
LINE
  5
191
100
AcDbEntity
  8
0
390
0
  6
Continuous
 62
     3
100
AcDbLine
 10
5.521827
 20
0.01375
 30
0.0
 11
5.529827
 21
0.01375
 31
0.0
  0
LINE
  5
192
100
AcDbEntity
  8
0
390
0
  6
Continuous
 62
     3
100
AcDbLine
 10
5.517827
 20
0.01875
 30
0.0
 11
5.533827
 21
0.01875
 31
0.0
  0
LINE
  5
193
100
AcDbEntity
  8
0
390
0
  6
Continuous
 62
     3
100
AcDbLine
 10
5.513827
 20
0.02375
 30
0.0
 11
5.537827
 21
0.02375
 31
0.0
  0
LINE
  5
194
100
AcDbEntity
  8
0
390
0
  6
Continuous
 62
     3
100
AcDbLine
 10
5.509827
 20
0.02875
 30
0.0
 11
5.541827
 21
0.02875
 31
0.0
  0
LINE
  5
195
100
AcDbEntity
  8
0
390
0
  6
Continuous
 62
     3
100
AcDbLine
 10
5.505827
 20
0.03375
 30
0.0
 11
5.545827
 21
0.03375
 31
0.0
  0
LINE
  5
196
100
AcDbEntity
  8
0
390
0
  6
Continuous
 62
     3
100
AcDbLine
 10
5.501827
 20
0.03875
 30
0.0
 11
5.549827
 21
0.03875
 31
0.0
  0
LINE
  5
197
100
AcDbEntity
  8
0
390
0
  6
Continuous
 62
     3
100
AcDbLine
 10
5.497827
 20
0.04375
 30
0.0
 11
5.553827
 21
0.04375
 31
0.0
  0
LINE
  5
198
100
AcDbEntity
  8
0
390
0
  6
Continuous
 62
     3
100
AcDbLine
 10
5.493827
 20
0.04875
 30
0.0
 11
5.557827
 21
0.04875
 31
0.0
  0
LINE
  5
199
100
AcDbEntity
  8
0
390
0
  6
Continuous
 62
     3
100
AcDbLine
 10
5.489827
 20
0.05375
 30
0.0
 11
5.561827
 21
0.05375
 31
0.0
  0
LINE
  5
19A
100
AcDbEntity
  8
0
390
0
  6
Continuous
 62
     3
100
AcDbLine
 10
5.485827
 20
0.05875
 30
0.0
 11
5.565827
 21
0.05875
 31
0.0
  0
LINE
  5
19B
100
AcDbEntity
  8
0
390
0
  6
Continuous
 62
     3
100
AcDbLine
 10
5.481827
 20
0.06375
 30
0.0
 11
5.569827
 21
0.06375
 31
0.0
  0
LINE
  5
19C
100
AcDbEntity
  8
0
390
0
  6
Continuous
 62
     3
100
AcDbLine
 10
5.477827
 20
0.06875
 30
0.0
 11
5.573827
 21
0.06875
 31
0.0
  0
LINE
  5
19D
100
AcDbEntity
  8
0
390
0
  6
Continuous
 62
     3
100
AcDbLine
 10
5.473827
 20
0.07375
 30
0.0
 11
5.577827
 21
0.07375
 31
0.0
  0
LINE
  5
19E
100
AcDbEntity
  8
0
390
0
  6
Continuous
 62
     3
100
AcDbLine
 10
5.469827
 20
0.07875
 30
0.0
 11
5.581827
 21
0.07875
 31
0.0
  0
LINE
  5
19F
100
AcDbEntity
  8
0
390
0
  6
Continuous
 62
     3
100
AcDbLine
 10
5.465827
 20
0.08375
 30
0.0
 11
5.585827
 21
0.08375
 31
0.0
  0
LINE
  5
1A0
100
AcDbEntity
  8
0
390
0
  6
Continuous
 62
     3
100
AcDbLine
 10
5.461827
 20
0.08875
 30
0.0
 11
5.589827
 21
0.08875
 31
0.0
  0
LINE
  5
1A1
100
AcDbEntity
  8
0
390
0
  6
Continuous
 62
     3
100
AcDbLine
 10
5.457827
 20
0.09375
 30
0.0
 11
5.593827
 21
0.09375
 31
0.0
  0
LINE
  5
1A2
100
AcDbEntity
  8
0
390
0
  6
Continuous
 62
     3
100
AcDbLine
 10
5.453827
 20
0.09875
 30
0.0
 11
5.597827
 21
0.09875
 31
0.0
  0
LINE
  5
1A3
100
AcDbEntity
  8
0
390
0
  6
Continuous
 62
     3
100
AcDbLine
 10
5.449827
 20
0.10375
 30
0.0
 11
5.601827
 21
0.10375
 31
0.0
  0
LINE
  5
1A4
100
AcDbEntity
  8
0
390
0
  6
Continuous
 62
     3
100
AcDbLine
 10
5.445827
 20
0.10875
 30
0.0
 11
5.605827
 21
0.10875
 31
0.0
  0
LINE
  5
1A5
100
AcDbEntity
  8
0
390
0
  6
Continuous
 62
     3
100
AcDbLine
 10
5.441827
 20
0.11375
 30
0.0
 11
5.609827
 21
0.11375
 31
0.0
  0
LINE
  5
1A6
100
AcDbEntity
  8
0
390
0
  6
Continuous
 62
     3
100
AcDbLine
 10
5.437827
 20
0.11875
 30
0.0
 11
5.613827
 21
0.11875
 31
0.0
  0
LINE
  5
1A7
100
AcDbEntity
  8
0
390
0
  6
Continuous
 62
     3
100
AcDbLine
 10
5.433827
 20
0.12375
 30
0.0
 11
5.617827
 21
0.12375
 31
0.0
  0
LINE
  5
1A8
100
AcDbEntity
  8
0
390
0
  6
Continuous
 62
     3
100
AcDbLine
 10
5.429828
 20
0.12875
 30
0.0
 11
5.621827
 21
0.12875
 31
0.0
  0
LINE
  5
1A9
100
AcDbEntity
  8
0
390
0
  6
Continuous
 62
     3
100
AcDbLine
 10
5.425827
 20
0.13375
 30
0.0
 11
5.625827
 21
0.13375
 31
0.0
  0
LINE
  5
1AA
100
AcDbEntity
  8
0
390
0
  6
Continuous
 62
     3
100
AcDbLine
 10
5.421828
 20
0.13875
 30
0.0
 11
5.629828
 21
0.13875
 31
0.0
  0
LINE
  5
1AB
100
AcDbEntity
  8
0
390
0
  6
Continuous
 62
     3
100
AcDbLine
 10
5.417827
 20
0.14375
 30
0.0
 11
5.633827
 21
0.14375
 31
0.0
  0
LINE
  5
1AC
100
AcDbEntity
  8
0
390
0
  6
Continuous
 62
     3
100
AcDbLine
 10
5.413828
 20
0.14875
 30
0.0
 11
5.637828
 21
0.14875
 31
0.0
  0
LINE
  5
1AD
100
AcDbEntity
  8
0
390
0
  6
Continuous
 62
     3
100
AcDbLine
 10
5.409827
 20
0.15375
 30
0.0
 11
5.641827
 21
0.15375
 31
0.0
  0
LINE
  5
1AE
100
AcDbEntity
  8
0
390
0
  6
Continuous
 62
     3
100
AcDbLine
 10
5.405828
 20
0.15875
 30
0.0
 11
5.645828
 21
0.15875
 31
0.0
  0
LINE
  5
1AF
100
AcDbEntity
  8
0
390
0
  6
Continuous
 62
     3
100
AcDbLine
 10
5.401828
 20
0.16375
 30
0.0
 11
5.649827
 21
0.16375
 31
0.0
  0
LINE
  5
1B0
100
AcDbEntity
  8
0
390
0
  6
Continuous
 62
     3
100
AcDbLine
 10
5.494578
 20
0.16875
 30
0.0
 11
5.557078
 21
0.16875
 31
0.0
  0
LINE
  5
1B1
100
AcDbEntity
  8
0
390
0
  6
Continuous
 62
     3
100
AcDbLine
 10
5.494578
 20
0.17375
 30
0.0
 11
5.557078
 21
0.17375
 31
0.0
  0
LINE
  5
1B2
100
AcDbEntity
  8
0
390
0
  6
Continuous
 62
     3
100
AcDbLine
 10
5.494578
 20
0.17875
 30
0.0
 11
5.557078
 21
0.17875
 31
0.0
  0
LINE
  5
1B3
100
AcDbEntity
  8
0
390
0
  6
Continuous
 62
     3
100
AcDbLine
 10
5.494578
 20
0.18375
 30
0.0
 11
5.557078
 21
0.18375
 31
0.0
  0
LINE
  5
1B4
100
AcDbEntity
  8
0
390
0
  6
Continuous
 62
     3
100
AcDbLine
 10
5.494578
 20
0.18875
 30
0.0
 11
5.557078
 21
0.18875
 31
0.0
  0
LINE
  5
1B5
100
AcDbEntity
  8
0
390
0
  6
Continuous
 62
     3
100
AcDbLine
 10
5.494578
 20
0.19375
 30
0.0
 11
5.557078
 21
0.19375
 31
0.0
  0
LINE
  5
1B6
100
AcDbEntity
  8
0
390
0
  6
Continuous
 62
     3
100
AcDbLine
 10
5.494578
 20
0.19875
 30
0.0
 11
5.557078
 21
0.19875
 31
0.0
  0
LINE
  5
1B7
100
AcDbEntity
  8
0
390
0
  6
Continuous
 62
     3
100
AcDbLine
 10
5.494578
 20
0.20375
 30
0.0
 11
5.557078
 21
0.20375
 31
0.0
  0
LINE
  5
1B8
100
AcDbEntity
  8
0
390
0
  6
Continuous
 62
     3
100
AcDbLine
 10
5.494578
 20
0.20875
 30
0.0
 11
5.557078
 21
0.20875
 31
0.0
  0
LINE
  5
1B9
100
AcDbEntity
  8
0
390
0
  6
Continuous
 62
     3
100
AcDbLine
 10
5.494578
 20
0.21375
 30
0.0
 11
5.557078
 21
0.21375
 31
0.0
  0
LINE
  5
1BA
100
AcDbEntity
  8
0
390
0
  6
Continuous
 62
     3
100
AcDbLine
 10
5.494578
 20
0.21875
 30
0.0
 11
5.557078
 21
0.21875
 31
0.0
  0
LINE
  5
1BB
100
AcDbEntity
  8
0
390
0
  6
Continuous
 62
     3
100
AcDbLine
 10
5.494578
 20
0.22375
 30
0.0
 11
5.557078
 21
0.22375
 31
0.0
  0
LINE
  5
1BC
100
AcDbEntity
  8
0
390
0
  6
Continuous
 62
     3
100
AcDbLine
 10
5.494578
 20
0.22875
 30
0.0
 11
5.557078
 21
0.22875
 31
0.0
  0
LINE
  5
1BD
100
AcDbEntity
  8
0
390
0
  6
Continuous
 62
     3
100
AcDbLine
 10
5.494578
 20
0.23375
 30
0.0
 11
5.557078
 21
0.23375
 31
0.0
  0
LINE
  5
1BE
100
AcDbEntity
  8
0
390
0
  6
Continuous
 62
     3
100
AcDbLine
 10
5.494578
 20
0.23875
 30
0.0
 11
5.557078
 21
0.23875
 31
0.0
  0
LINE
  5
1BF
100
AcDbEntity
  8
0
390
0
  6
Continuous
 62
     3
100
AcDbLine
 10
5.494578
 20
0.24375
 30
0.0
 11
5.557078
 21
0.24375
 31
0.0
  0
LINE
  5
1C0
100
AcDbEntity
  8
0
390
0
  6
Continuous
 62
     3
100
AcDbLine
 10
5.494578
 20
0.24875
 30
0.0
 11
5.557078
 21
0.24875
 31
0.0
  0
ENDBLK
  5
1C1
100
AcDbEntity
  8
0
390
0
100
AcDbBlockEnd
  0
BLOCK
  5
1C4
100
AcDbEntity
  8
0
390
0
100
AcDbBlockBegin
  2
ASSORTED_DRAFT151
 70
     0
 10
0.0
 20
0.0
 30
0.0
  3
ASSORTED_DRAFT151
  1

  0
LINE
  5
1C5
100
AcDbEntity
  8
0
390
0
  6
Continuous
 62
     3
100
AcDbLine
 10
10.835
 20
4.10693
 30
0.0
 11
10.84125
 21
4.10693
 31
0.0
  0
LINE
  5
1C6
100
AcDbEntity
  8
0
390
0
  6
Continuous
 62
     3
100
AcDbLine
 10
10.835
 20
4.11193
 30
0.0
 11
10.8475
 21
4.11193
 31
0.0
  0
LINE
  5
1C7
100
AcDbEntity
  8
0
390
0
  6
Continuous
 62
     3
100
AcDbLine
 10
10.835
 20
4.11693
 30
0.0
 11
10.85375
 21
4.11693
 31
0.0
  0
LINE
  5
1C8
100
AcDbEntity
  8
0
390
0
  6
Continuous
 62
     3
100
AcDbLine
 10
10.835
 20
4.12193
 30
0.0
 11
10.86
 21
4.12193
 31
0.0
  0
LINE
  5
1C9
100
AcDbEntity
  8
0
390
0
  6
Continuous
 62
     3
100
AcDbLine
 10
10.835
 20
4.12693
 30
0.0
 11
10.86625
 21
4.12693
 31
0.0
  0
LINE
  5
1CA
100
AcDbEntity
  8
0
390
0
  6
Continuous
 62
     3
100
AcDbLine
 10
10.835
 20
4.13193
 30
0.0
 11
10.8725
 21
4.13193
 31
0.0
  0
LINE
  5
1CB
100
AcDbEntity
  8
0
390
0
  6
Continuous
 62
     3
100
AcDbLine
 10
10.835
 20
4.13693
 30
0.0
 11
10.87875
 21
4.13693
 31
0.0
  0
LINE
  5
1CC
100
AcDbEntity
  8
0
390
0
  6
Continuous
 62
     3
100
AcDbLine
 10
10.835
 20
4.14193
 30
0.0
 11
10.885
 21
4.14193
 31
0.0
  0
LINE
  5
1CD
100
AcDbEntity
  8
0
390
0
  6
Continuous
 62
     3
100
AcDbLine
 10
10.835
 20
4.14693
 30
0.0
 11
10.89125
 21
4.14693
 31
0.0
  0
LINE
  5
1CE
100
AcDbEntity
  8
0
390
0
  6
Continuous
 62
     3
100
AcDbLine
 10
10.835
 20
4.15193
 30
0.0
 11
10.8975
 21
4.15193
 31
0.0
  0
LINE
  5
1CF
100
AcDbEntity
  8
0
390
0
  6
Continuous
 62
     3
100
AcDbLine
 10
10.835
 20
4.15693
 30
0.0
 11
10.90375
 21
4.15693
 31
0.0
  0
LINE
  5
1D0
100
AcDbEntity
  8
0
390
0
  6
Continuous
 62
     3
100
AcDbLine
 10
10.835
 20
4.16193
 30
0.0
 11
10.91
 21
4.16193
 31
0.0
  0
LINE
  5
1D1
100
AcDbEntity
  8
0
390
0
  6
Continuous
 62
     3
100
AcDbLine
 10
10.835
 20
4.16693
 30
0.0
 11
10.91625
 21
4.16693
 31
0.0
  0
LINE
  5
1D2
100
AcDbEntity
  8
0
390
0
  6
Continuous
 62
     3
100
AcDbLine
 10
10.835
 20
4.17193
 30
0.0
 11
10.9225
 21
4.17193
 31
0.0
  0
LINE
  5
1D3
100
AcDbEntity
  8
0
390
0
  6
Continuous
 62
     3
100
AcDbLine
 10
10.835
 20
4.17693
 30
0.0
 11
10.92875
 21
4.17693
 31
0.0
  0
LINE
  5
1D4
100
AcDbEntity
  8
0
390
0
  6
Continuous
 62
     3
100
AcDbLine
 10
10.835
 20
4.18193
 30
0.0
 11
10.935
 21
4.18193
 31
0.0
  0
LINE
  5
1D5
100
AcDbEntity
  8
0
390
0
  6
Continuous
 62
     3
100
AcDbLine
 10
10.835
 20
4.18693
 30
0.0
 11
10.94125
 21
4.18693
 31
0.0
  0
LINE
  5
1D6
100
AcDbEntity
  8
0
390
0
  6
Continuous
 62
     3
100
AcDbLine
 10
10.835
 20
4.19193
 30
0.0
 11
10.9475
 21
4.19193
 31
0.0
  0
LINE
  5
1D7
100
AcDbEntity
  8
0
390
0
  6
Continuous
 62
     3
100
AcDbLine
 10
10.75
 20
4.19693
 30
0.0
 11
10.95375
 21
4.19693
 31
0.0
  0
LINE
  5
1D8
100
AcDbEntity
  8
0
390
0
  6
Continuous
 62
     3
100
AcDbLine
 10
10.75
 20
4.20193
 30
0.0
 11
10.96
 21
4.20193
 31
0.0
  0
LINE
  5
1D9
100
AcDbEntity
  8
0
390
0
  6
Continuous
 62
     3
100
AcDbLine
 10
10.75
 20
4.20693
 30
0.0
 11
10.96625
 21
4.20693
 31
0.0
  0
LINE
  5
1DA
100
AcDbEntity
  8
0
390
0
  6
Continuous
 62
     3
100
AcDbLine
 10
10.75
 20
4.21193
 30
0.0
 11
10.9725
 21
4.21193
 31
0.0
  0
LINE
  5
1DB
100
AcDbEntity
  8
0
390
0
  6
Continuous
 62
     3
100
AcDbLine
 10
10.75
 20
4.21693
 30
0.0
 11
10.97875
 21
4.21693
 31
0.0
  0
LINE
  5
1DC
100
AcDbEntity
  8
0
390
0
  6
Continuous
 62
     3
100
AcDbLine
 10
10.75
 20
4.22193
 30
0.0
 11
10.985
 21
4.22193
 31
0.0
  0
LINE
  5
1DD
100
AcDbEntity
  8
0
390
0
  6
Continuous
 62
     3
100
AcDbLine
 10
10.75
 20
4.22693
 30
0.0
 11
10.99125
 21
4.22693
 31
0.0
  0
LINE
  5
1DE
100
AcDbEntity
  8
0
390
0
  6
Continuous
 62
     3
100
AcDbLine
 10
10.75
 20
4.23193
 30
0.0
 11
10.985
 21
4.23193
 31
0.0
  0
LINE
  5
1DF
100
AcDbEntity
  8
0
390
0
  6
Continuous
 62
     3
100
AcDbLine
 10
10.75
 20
4.23693
 30
0.0
 11
10.97875
 21
4.23693
 31
0.0
  0
LINE
  5
1E0
100
AcDbEntity
  8
0
390
0
  6
Continuous
 62
     3
100
AcDbLine
 10
10.75
 20
4.24193
 30
0.0
 11
10.9725
 21
4.24193
 31
0.0
  0
LINE
  5
1E1
100
AcDbEntity
  8
0
390
0
  6
Continuous
 62
     3
100
AcDbLine
 10
10.75
 20
4.24693
 30
0.0
 11
10.96625
 21
4.24693
 31
0.0
  0
LINE
  5
1E2
100
AcDbEntity
  8
0
390
0
  6
Continuous
 62
     3
100
AcDbLine
 10
10.75
 20
4.25193
 30
0.0
 11
10.96
 21
4.25193
 31
0.0
  0
LINE
  5
1E3
100
AcDbEntity
  8
0
390
0
  6
Continuous
 62
     3
100
AcDbLine
 10
10.75
 20
4.25693
 30
0.0
 11
10.95375
 21
4.25693
 31
0.0
  0
LINE
  5
1E4
100
AcDbEntity
  8
0
390
0
  6
Continuous
 62
     3
100
AcDbLine
 10
10.835
 20
4.26193
 30
0.0
 11
10.9475
 21
4.26193
 31
0.0
  0
LINE
  5
1E5
100
AcDbEntity
  8
0
390
0
  6
Continuous
 62
     3
100
AcDbLine
 10
10.835
 20
4.26693
 30
0.0
 11
10.94125
 21
4.26693
 31
0.0
  0
LINE
  5
1E6
100
AcDbEntity
  8
0
390
0
  6
Continuous
 62
     3
100
AcDbLine
 10
10.835
 20
4.27193
 30
0.0
 11
10.935
 21
4.27193
 31
0.0
  0
LINE
  5
1E7
100
AcDbEntity
  8
0
390
0
  6
Continuous
 62
     3
100
AcDbLine
 10
10.835
 20
4.27693
 30
0.0
 11
10.92875
 21
4.27693
 31
0.0
  0
LINE
  5
1E8
100
AcDbEntity
  8
0
390
0
  6
Continuous
 62
     3
100
AcDbLine
 10
10.835
 20
4.28193
 30
0.0
 11
10.9225
 21
4.28193
 31
0.0
  0
LINE
  5
1E9
100
AcDbEntity
  8
0
390
0
  6
Continuous
 62
     3
100
AcDbLine
 10
10.835
 20
4.28693
 30
0.0
 11
10.91625
 21
4.28693
 31
0.0
  0
LINE
  5
1EA
100
AcDbEntity
  8
0
390
0
  6
Continuous
 62
     3
100
AcDbLine
 10
10.835
 20
4.29193
 30
0.0
 11
10.91
 21
4.29193
 31
0.0
  0
LINE
  5
1EB
100
AcDbEntity
  8
0
390
0
  6
Continuous
 62
     3
100
AcDbLine
 10
10.835
 20
4.29693
 30
0.0
 11
10.90375
 21
4.29693
 31
0.0
  0
LINE
  5
1EC
100
AcDbEntity
  8
0
390
0
  6
Continuous
 62
     3
100
AcDbLine
 10
10.835
 20
4.30193
 30
0.0
 11
10.8975
 21
4.30193
 31
0.0
  0
LINE
  5
1ED
100
AcDbEntity
  8
0
390
0
  6
Continuous
 62
     3
100
AcDbLine
 10
10.835
 20
4.30693
 30
0.0
 11
10.89125
 21
4.30693
 31
0.0
  0
LINE
  5
1EE
100
AcDbEntity
  8
0
390
0
  6
Continuous
 62
     3
100
AcDbLine
 10
10.835
 20
4.31193
 30
0.0
 11
10.885
 21
4.31193
 31
0.0
  0
LINE
  5
1EF
100
AcDbEntity
  8
0
390
0
  6
Continuous
 62
     3
100
AcDbLine
 10
10.835
 20
4.31693
 30
0.0
 11
10.87875
 21
4.31693
 31
0.0
  0
LINE
  5
1F0
100
AcDbEntity
  8
0
390
0
  6
Continuous
 62
     3
100
AcDbLine
 10
10.835
 20
4.32193
 30
0.0
 11
10.8725
 21
4.32193
 31
0.0
  0
LINE
  5
1F1
100
AcDbEntity
  8
0
390
0
  6
Continuous
 62
     3
100
AcDbLine
 10
10.835
 20
4.32693
 30
0.0
 11
10.86625
 21
4.32693
 31
0.0
  0
LINE
  5
1F2
100
AcDbEntity
  8
0
390
0
  6
Continuous
 62
     3
100
AcDbLine
 10
10.835
 20
4.33193
 30
0.0
 11
10.86
 21
4.33193
 31
0.0
  0
LINE
  5
1F3
100
AcDbEntity
  8
0
390
0
  6
Continuous
 62
     3
100
AcDbLine
 10
10.835
 20
4.33693
 30
0.0
 11
10.85375
 21
4.33693
 31
0.0
  0
LINE
  5
1F4
100
AcDbEntity
  8
0
390
0
  6
Continuous
 62
     3
100
AcDbLine
 10
10.835
 20
4.34193
 30
0.0
 11
10.8475
 21
4.34193
 31
0.0
  0
LINE
  5
1F5
100
AcDbEntity
  8
0
390
0
  6
Continuous
 62
     3
100
AcDbLine
 10
10.835
 20
4.34693
 30
0.0
 11
10.84125
 21
4.34693
 31
0.0
  0
ENDBLK
  5
1F6
100
AcDbEntity
  8
0
390
0
100
AcDbBlockEnd
  0
BLOCK
  5
1FB
100
AcDbEntity
  8
0
390
0
100
AcDbBlockBegin
  2
ASSORTED_DRAFT152
 70
     0
 10
0.0
 20
0.0
 30
0.0
  3
ASSORTED_DRAFT152
  1

  0
MTEXT
  5
1FC
100
AcDbEntity
  8
1
390
0
  6
Continuous
 62
     7
100
AcDbMText
 10
6.375401
 20
0.314102
 30
0.0
 40
0.059805
 41
0.0
 71
     8
 72
     5
  1
\W01.000;\Fsimplex.shx;OTH
  7
blockfont
210
0.0
220
0.0
230
1.0
 73
     2
 44
0.903614
  0
ENDBLK
  5
1FD
100
AcDbEntity
  8
0
390
0
100
AcDbBlockEnd
  0
BLOCK
  5
20C
100
AcDbEntity
  8
0
390
0
100
AcDbBlockBegin
  2
ASSORTED_DRAFT153
 70
     0
 10
0.0
 20
0.0
 30
0.0
  3
ASSORTED_DRAFT153
  1

  0
MTEXT
  5
20D
100
AcDbEntity
  8
1
390
0
  6
Continuous
 62
     7
100
AcDbMText
 10
0.395758
 20
0.314102
 30
0.0
 40
0.059805
 41
0.0
 71
     7
 72
     5
  1
\W01.000;\Fsimplex.shx;REV
  7
blockfont
210
0.0
220
0.0
230
1.0
 73
     2
 44
0.903614
  0
ENDBLK
  5
20E
100
AcDbEntity
  8
0
390
0
100
AcDbBlockEnd
  0
BLOCK
  5
211
100
AcDbEntity
  8
0
390
0
100
AcDbBlockBegin
  2
ASSORTED_DRAFT154
 70
     0
 10
0.0
 20
0.0
 30
0.0
  3
ASSORTED_DRAFT154
  1

  0
MTEXT
  5
212
100
AcDbEntity
  8
1
390
0
  6
Continuous
 62
     7
100
AcDbMText
 10
0.737996
 20
0.314102
 30
0.0
 40
0.059805
 41
0.0
 71
     7
 72
     5
  1
\W01.000;\Fsimplex.shx;DATE
  7
blockfont
210
0.0
220
0.0
230
1.0
 73
     2
 44
0.903614
  0
ENDBLK
  5
213
100
AcDbEntity
  8
0
390
0
100
AcDbBlockEnd
  0
BLOCK
  5
216
100
AcDbEntity
  8
0
390
0
100
AcDbBlockBegin
  2
ASSORTED_DRAFT155
 70
     0
 10
0.0
 20
0.0
 30
0.0
  3
ASSORTED_DRAFT155
  1

  0
MTEXT
  5
217
100
AcDbEntity
  8
1
390
0
  6
Continuous
 62
     7
100
AcDbMText
 10
1.181665
 20
0.314102
 30
0.0
 40
0.059805
 41
0.0
 71
     7
 72
     5
  1
\W01.000;\Fsimplex.shx;BY
  7
blockfont
210
0.0
220
0.0
230
1.0
 73
     2
 44
0.903614
  0
ENDBLK
  5
218
100
AcDbEntity
  8
0
390
0
100
AcDbBlockEnd
  0
BLOCK
  5
21B
100
AcDbEntity
  8
0
390
0
100
AcDbBlockBegin
  2
ASSORTED_DRAFT156
 70
     0
 10
0.0
 20
0.0
 30
0.0
  3
ASSORTED_DRAFT156
  1

  0
MTEXT
  5
21C
100
AcDbEntity
  8
1
390
0
  6
Continuous
 62
     7
100
AcDbMText
 10
1.490291
 20
0.314102
 30
0.0
 40
0.059805
 41
0.0
 71
     7
 72
     5
  1
\W01.000;\Fsimplex.shx;CHK
  7
blockfont
210
0.0
220
0.0
230
1.0
 73
     2
 44
0.903614
  0
ENDBLK
  5
21D
100
AcDbEntity
  8
0
390
0
100
AcDbBlockEnd
  0
BLOCK
  5
220
100
AcDbEntity
  8
0
390
0
100
AcDbBlockBegin
  2
ASSORTED_DRAFT157
 70
     0
 10
0.0
 20
0.0
 30
0.0
  3
ASSORTED_DRAFT157
  1

  0
MTEXT
  5
221
100
AcDbEntity
  8
1
390
0
  6
Continuous
 62
     7
100
AcDbMText
 10
2.764402
 20
0.314102
 30
0.0
 40
0.059805
 41
0.0
 71
     7
 72
     5
  1
\W01.000;\Fsimplex.shx;DESCRIPTION
  7
blockfont
210
0.0
220
0.0
230
1.0
 73
     2
 44
0.903614
  0
ENDBLK
  5
222
100
AcDbEntity
  8
0
390
0
100
AcDbBlockEnd
  0
BLOCK
  5
225
100
AcDbEntity
  8
0
390
0
100
AcDbBlockBegin
  2
ASSORTED_DRAFT158
 70
     0
 10
0.0
 20
0.0
 30
0.0
  3
ASSORTED_DRAFT158
  1

  0
MTEXT
  5
226
100
AcDbEntity
  8
1
390
0
  6
Continuous
 62
     7
100
AcDbMText
 10
4.725963
 20
0.314102
 30
0.0
 40
0.059805
 41
0.0
 71
     7
 72
     5
  1
\W01.000;\Fsimplex.shx;ECN
  7
blockfont
210
0.0
220
0.0
230
1.0
 73
     2
 44
0.903614
  0
ENDBLK
  5
227
100
AcDbEntity
  8
0
390
0
100
AcDbBlockEnd
  0
BLOCK
  5
22A
100
AcDbEntity
  8
0
390
0
100
AcDbBlockBegin
  2
ASSORTED_DRAFT159
 70
     0
 10
0.0
 20
0.0
 30
0.0
  3
ASSORTED_DRAFT159
  1

  0
MTEXT
  5
22B
100
AcDbEntity
  8
1
390
0
  6
Continuous
 62
     7
100
AcDbMText
 10
5.233606
 20
0.314102
 30
0.0
 40
0.059805
 41
0.0
 71
     7
 72
     5
  1
\W01.000;\Fsimplex.shx;R
  7
blockfont
210
0.0
220
0.0
230
1.0
 73
     2
 44
0.903614
  0
ENDBLK
  5
22C
100
AcDbEntity
  8
0
390
0
100
AcDbBlockEnd
  0
BLOCK
  5
22F
100
AcDbEntity
  8
0
390
0
100
AcDbBlockBegin
  2
ASSORTED_DRAFT160
 70
     0
 10
0.0
 20
0.0
 30
0.0
  3
ASSORTED_DRAFT160
  1

  0
MTEXT
  5
230
100
AcDbEntity
  8
1
390
0
  6
Continuous
 62
     7
100
AcDbMText
 10
5.049683
 20
0.314102
 30
0.0
 40
0.059805
 41
0.0
 71
     7
 72
     5
  1
\W01.000;\Fsimplex.shx;-
  7
blockfont
210
0.0
220
0.0
230
1.0
 73
     2
 44
0.903614
  0
ENDBLK
  5
231
100
AcDbEntity
  8
0
390
0
100
AcDbBlockEnd
  0
BLOCK
  5
234
100
AcDbEntity
  8
0
390
0
100
AcDbBlockBegin
  2
ASSORTED_DRAFT161
 70
     0
 10
0.0
 20
0.0
 30
0.0
  3
ASSORTED_DRAFT161
  1

  0
MTEXT
  5
235
100
AcDbEntity
  8
1
390
0
  6
Continuous
 62
     7
100
AcDbMText
 10
5.484391
 20
0.314102
 30
0.0
 40
0.059805
 41
0.0
 71
     7
 72
     5
  1
\W01.000;\Fsimplex.shx;CUST
  7
blockfont
210
0.0
220
0.0
230
1.0
 73
     2
 44
0.903614
  0
ENDBLK
  5
236
100
AcDbEntity
  8
0
390
0
100
AcDbBlockEnd
  0
BLOCK
  5
239
100
AcDbEntity
  8
0
390
0
100
AcDbBlockBegin
  2
ASSORTED_DRAFT162
 70
     0
 10
0.0
 20
0.0
 30
0.0
  3
ASSORTED_DRAFT162
  1

  0
MTEXT
  5
23A
100
AcDbEntity
  8
1
390
0
  6
Continuous
 62
     7
100
AcDbMText
 10
5.901821
 20
0.314102
 30
0.0
 40
0.059805
 41
0.0
 71
     7
 72
     5
  1
\W01.000;\Fsimplex.shx;SUP
  7
blockfont
210
0.0
220
0.0
230
1.0
 73
     2
 44
0.903614
  0
ENDBLK
  5
23B
100
AcDbEntity
  8
0
390
0
100
AcDbBlockEnd
  0
BLOCK
  5
23E
100
AcDbEntity
  8
0
390
0
100
AcDbBlockBegin
  2
ASSORTED_DRAFT163
 70
     0
 10
0.0
 20
0.0
 30
0.0
  3
ASSORTED_DRAFT163
  1

  0
MTEXT
  5
23F
100
AcDbEntity
  8
1
390
0
  6
Continuous
 62
     7
100
AcDbMText
 10
10.497983
 20
0.386425
 30
0.0
 40
0.149512
 41
0.0
 71
     7
 72
     5
  1
\W01.000;\Fsimplex.shx;A
  7
blockfont
210
0.0
220
0.0
230
1.0
 73
     2
 44
0.903614
  0
ENDBLK
  5
240
100
AcDbEntity
  8
0
390
0
100
AcDbBlockEnd
  0
BLOCK
  5
243
100
AcDbEntity
  8
0
390
0
100
AcDbBlockBegin
  2
ASSORTED_DRAFT164
 70
     0
 10
0.0
 20
0.0
 30
0.0
  3
ASSORTED_DRAFT164
  1

  0
MTEXT
  5
244
100
AcDbEntity
  8
1
390
0
  6
Continuous
 62
     7
100
AcDbMText
 10
10.484706
 20
0.649206
 30
0.0
 40
0.037378
 41
0.0
 71
     7
 72
     5
  1
\W01.000;\Fsimplex.shx;DWG
  7
blockfont
210
0.0
220
0.0
230
1.0
 73
     2
 44
0.903614
  0
ENDBLK
  5
245
100
AcDbEntity
  8
0
390
0
100
AcDbBlockEnd
  0
BLOCK
  5
248
100
AcDbEntity
  8
0
390
0
100
AcDbBlockBegin
  2
ASSORTED_DRAFT165
 70
     0
 10
0.0
 20
0.0
 30
0.0
  3
ASSORTED_DRAFT165
  1

  0
MTEXT
  5
249
100
AcDbEntity
  8
1
390
0
  6
Continuous
 62
     7
100
AcDbMText
 10
10.464343
 20
0.308016
 30
0.0
 40
0.037378
 41
0.0
 71
     7
 72
     5
  1
\W01.000;\Fsimplex.shx;SIZE
  7
blockfont
210
0.0
220
0.0
230
1.0
 73
     2
 44
0.903614
  0
ENDBLK
  5
24A
100
AcDbEntity
  8
0
390
0
100
AcDbBlockEnd
  0
BLOCK
  5
24D
100
AcDbEntity
  8
0
390
0
100
AcDbBlockBegin
  2
ASSORTED_DRAFT166
 70
     0
 10
0.0
 20
0.0
 30
0.0
  3
ASSORTED_DRAFT166
  1

  0
MTEXT
  5
24E
100
AcDbEntity
  8
1
390
0
  6
Continuous
 62
     7
100
AcDbMText
 10
9.223454
 20
0.927089
 30
0.0
 40
0.037378
 41
0.0
 71
     7
 72
     5
  1
\W01.000;\Fsimplex.shx;SCALE
  7
blockfont
210
0.0
220
0.0
230
1.0
 73
     2
 44
0.903614
  0
ENDBLK
  5
24F
100
AcDbEntity
  8
0
390
0
100
AcDbBlockEnd
  0
BLOCK
  5
252
100
AcDbEntity
  8
0
390
0
100
AcDbBlockBegin
  2
ASSORTED_DRAFT167
 70
     0
 10
0.0
 20
0.0
 30
0.0
  3
ASSORTED_DRAFT167
  1

  0
MTEXT
  5
253
100
AcDbEntity
  8
1
390
0
  6
Continuous
 62
     7
100
AcDbMText
 10
9.22389
 20
0.683192
 30
0.0
 40
0.037378
 41
0.0
 71
     7
 72
     5
  1
\W01.000;\Fsimplex.shx;DRAWING NO.
  7
blockfont
210
0.0
220
0.0
230
1.0
 73
     2
 44
0.903614
  0
ENDBLK
  5
254
100
AcDbEntity
  8
0
390
0
100
AcDbBlockEnd
  0
BLOCK
  5
257
100
AcDbEntity
  8
0
390
0
100
AcDbBlockBegin
  2
ASSORTED_DRAFT168
 70
     0
 10
0.0
 20
0.0
 30
0.0
  3
ASSORTED_DRAFT168
  1

  0
MTEXT
  5
258
100
AcDbEntity
  8
1
390
0
  6
Continuous
 62
     7
100
AcDbMText
 10
6.636288
 20
0.931754
 30
0.0
 40
0.037378
 41
0.0
 71
     7
 72
     5
  1
\W01.000;\Fsimplex.shx;DRAWN BY
  7
blockfont
210
0.0
220
0.0
230
1.0
 73
     2
 44
0.903614
  0
ENDBLK
  5
259
100
AcDbEntity
  8
0
390
0
100
AcDbBlockEnd
  0
BLOCK
  5
25C
100
AcDbEntity
  8
0
390
0
100
AcDbBlockBegin
  2
ASSORTED_DRAFT169
 70
     0
 10
0.0
 20
0.0
 30
0.0
  3
ASSORTED_DRAFT169
  1

  0
MTEXT
  5
25D
100
AcDbEntity
  8
1
390
0
  6
Continuous
 62
     7
100
AcDbMText
 10
6.63844
 20
0.683858
 30
0.0
 40
0.037378
 41
0.0
 71
     7
 72
     5
  1
\W01.000;\Fsimplex.shx;DATE
  7
blockfont
210
0.0
220
0.0
230
1.0
 73
     2
 44
0.903614
  0
ENDBLK
  5
25E
100
AcDbEntity
  8
0
390
0
100
AcDbBlockEnd
  0
BLOCK
  5
261
100
AcDbEntity
  8
0
390
0
100
AcDbBlockBegin
  2
ASSORTED_DRAFT170
 70
     0
 10
0.0
 20
0.0
 30
0.0
  3
ASSORTED_DRAFT170
  1

  0
MTEXT
  5
262
100
AcDbEntity
  8
1
390
0
  6
Continuous
 62
     7
100
AcDbMText
 10
6.637402
 20
0.440627
 30
0.0
 40
0.037378
 41
0.0
 71
     7
 72
     5
  1
\W01.000;\Fsimplex.shx;CHK'D
  7
blockfont
210
0.0
220
0.0
230
1.0
 73
     2
 44
0.903614
  0
ENDBLK
  5
263
100
AcDbEntity
  8
0
390
0
100
AcDbBlockEnd
  0
BLOCK
  5
266
100
AcDbEntity
  8
0
390
0
100
AcDbBlockBegin
  2
ASSORTED_DRAFT171
 70
     0
 10
0.0
 20
0.0
 30
0.0
  3
ASSORTED_DRAFT171
  1

  0
MTEXT
  5
267
100
AcDbEntity
  8
1
390
0
  6
Continuous
 62
     7
100
AcDbMText
 10
9.223092
 20
1.409566
 30
0.0
 40
0.037378
 41
0.0
 71
     7
 72
     5
  1
\W01.000;\Fsimplex.shx;UNLESS OTHERWISE SPECIFIED,
  7
blockfont
210
0.0
220
0.0
230
1.0
 73
     2
 44
0.903614
  0
ENDBLK
  5
268
100
AcDbEntity
  8
0
390
0
100
AcDbBlockEnd
  0
BLOCK
  5
26B
100
AcDbEntity
  8
0
390
0
100
AcDbBlockBegin
  2
ASSORTED_DRAFT172
 70
     0
 10
0.0
 20
0.0
 30
0.0
  3
ASSORTED_DRAFT172
  1

  0
MTEXT
  5
26C
100
AcDbEntity
  8
1
390
0
  6
Continuous
 62
     7
100
AcDbMText
 10
9.219542
 20
1.254298
 30
0.0
 40
0.037378
 41
0.0
 71
     7
 72
     5
  1
\W01.000;\Fsimplex.shx;ALL DIMENSIONS ARE GIVEN
  7
blockfont
210
0.0
220
0.0
230
1.0
 73
     2
 44
0.903614
  0
ENDBLK
  5
26D
100
AcDbEntity
  8
0
390
0
100
AcDbBlockEnd
  0
BLOCK
  5
270
100
AcDbEntity
  8
0
390
0
100
AcDbBlockBegin
  2
ASSORTED_DRAFT173
 70
     0
 10
0.0
 20
0.0
 30
0.0
  3
ASSORTED_DRAFT173
  1

  0
MTEXT
  5
271
100
AcDbEntity
  8
1
390
0
  6
Continuous
 62
     7
100
AcDbMText
 10
9.204498
 20
1.095031
 30
0.0
 40
0.037378
 41
0.0
 71
     7
 72
     5
  1
\W01.000;\Fsimplex.shx;IN INCHES, THIRD ANGLE PROJECTION.
  7
blockfont
210
0.0
220
0.0
230
1.0
 73
     2
 44
0.903614
  0
ENDBLK
  5
272
100
AcDbEntity
  8
0
390
0
100
AcDbBlockEnd
  0
BLOCK
  5
275
100
AcDbEntity
  8
0
390
0
100
AcDbBlockBegin
  2
ASSORTED_DRAFT174
 70
     0
 10
0.0
 20
0.0
 30
0.0
  3
ASSORTED_DRAFT174
  1

  0
MTEXT
  5
276
100
AcDbEntity
  8
1
390
0
  6
Continuous
 62
     7
100
AcDbMText
 10
6.758117
 20
2.025067
 30
0.0
 40
0.336401
 41
0.0
 71
     7
 72
     5
  1
\W01.000;\Fsimplex.shx;P
  7
blockfont
210
0.0
220
0.0
230
1.0
 73
     2
 44
0.903614
  0
ENDBLK
  5
277
100
AcDbEntity
  8
0
390
0
100
AcDbBlockEnd
  0
BLOCK
  5
27A
100
AcDbEntity
  8
0
390
0
100
AcDbBlockBegin
  2
ASSORTED_DRAFT175
 70
     0
 10
0.0
 20
0.0
 30
0.0
  3
ASSORTED_DRAFT175
  1

  0
MTEXT
  5
27B
100
AcDbEntity
  8
1
390
0
  6
Continuous
 62
     7
100
AcDbMText
 10
6.991983
 20
2.049207
 30
0.0
 40
0.261645
 41
0.0
 71
     7
 72
     5
  1
\W01.000;\Fsimplex.shx;ANDUIT
  7
blockfont
210
0.0
220
0.0
230
1.0
 73
     2
 44
0.903614
  0
ENDBLK
  5
27C
100
AcDbEntity
  8
0
390
0
100
AcDbBlockEnd
  0
BLOCK
  5
27F
100
AcDbEntity
  8
0
390
0
100
AcDbBlockBegin
  2
ASSORTED_DRAFT176
 70
     0
 10
0.0
 20
0.0
 30
0.0
  3
ASSORTED_DRAFT176
  1

  0
MTEXT
  5
280
100
AcDbEntity
  8
1
390
0
  6
Continuous
 62
     7
100
AcDbMText
 10
8.663751
 20
2.106225
 30
0.0
 40
0.074756
 41
0.0
 71
     7
 72
     5
  1
\W01.000;\Fsimplex.shx;CORP.
  7
blockfont
210
0.0
220
0.0
230
1.0
 73
     2
 44
0.903614
  0
ENDBLK
  5
281
100
AcDbEntity
  8
0
390
0
100
AcDbBlockEnd
  0
BLOCK
  5
284
100
AcDbEntity
  8
0
390
0
100
AcDbBlockBegin
  2
ASSORTED_DRAFT177
 70
     0
 10
0.0
 20
0.0
 30
0.0
  3
ASSORTED_DRAFT177
  1

  0
MTEXT
  5
285
100
AcDbEntity
  8
1
390
0
  6
Continuous
 62
     7
100
AcDbMText
 10
9.187264
 20
2.11226
 30
0.0
 40
0.056067
 41
0.0
 71
     7
 72
     5
  1
\W01.000;\Fsimplex.shx;TINLEY PARK, ILLINOIS
  7
blockfont
210
0.0
220
0.0
230
1.0
 73
     2
 44
0.903614
  0
ENDBLK
  5
286
100
AcDbEntity
  8
0
390
0
100
AcDbBlockEnd
  0
BLOCK
  5
289
100
AcDbEntity
  8
0
390
0
100
AcDbBlockBegin
  2
ASSORTED_DRAFT178
 70
     0
 10
0.0
 20
0.0
 30
0.0
  3
ASSORTED_DRAFT178
  1

  0
MTEXT
  5
28A
100
AcDbEntity
  8
1
390
0
  6
Continuous
 62
     7
100
AcDbMText
 10
7.422528
 20
0.885736
 30
0.0
 40
0.056067
 41
0.0
 71
     7
 72
     5
  1
\W01.000;\Fsimplex.shx;MAT'L:
  7
blockfont
210
0.0
220
0.0
230
1.0
 73
     2
 44
0.903614
  0
ENDBLK
  5
28B
100
AcDbEntity
  8
0
390
0
100
AcDbBlockEnd
  0
BLOCK
  5
28E
100
AcDbEntity
  8
0
390
0
100
AcDbBlockBegin
  2
ASSORTED_DRAFT179
 70
     0
 10
0.0
 20
0.0
 30
0.0
  3
ASSORTED_DRAFT179
  1

  0
MTEXT
  5
28F
100
AcDbEntity
  8
1
390
0
  6
Continuous
 62
     7
100
AcDbMText
 10
0.689637
 20
8.015177
 30
0.0
 40
0.070866
 41
0.0
 71
     7
 72
     5
  1
\W01.000;\Fsimplex.shx;THIS COPY IS PROVIDED ON A RESTRICTED BASIS AND IS NOT TO BE USED IN ANY WAY DETRIMENTAL TO THE INTERESTS OF PANDUIT CORP.
  7
blockfont
210
0.0
220
0.0
230
1.0
 73
     2
 44
0.903614
  0
ENDBLK
  5
290
100
AcDbEntity
  8
0
390
0
100
AcDbBlockEnd
  0
BLOCK
  5
293
100
AcDbEntity
  8
0
390
0
100
AcDbBlockBegin
  2
ASSORTED_DRAFT180
 70
     0
 10
0.0
 20
0.0
 30
0.0
  3
ASSORTED_DRAFT180
  1

  0
MTEXT
  5
294
100
AcDbEntity
  8
1
390
0
  6
Continuous
 62
     7
100
AcDbMText
 10
6.375401
 20
0.314102
 30
0.0
 40
0.059805
 41
0.0
 71
     8
 72
     5
  1
\W01.000;\Fsimplex.shx;OTH
  7
blockfont
210
0.0
220
0.0
230
1.0
 73
     2
 44
0.903614
  0
ENDBLK
  5
295
100
AcDbEntity
  8
0
390
0
100
AcDbBlockEnd
  0
BLOCK
  5
2AF
100
AcDbEntity
  8
0
390
0
100
AcDbBlockBegin
  2
V10290MV_45PPI-MEDIA_00_MODEL
 70
     0
 10
0.0
 20
0.0
 30
0.0
  3

  1

  0
LINE
  5
2B0
100
AcDbEntity
  8
1
390
0
  6
Continuous
 62
     3
100
AcDbLine
 10
0.375
 20
0.0
 30
0.0
 11
0.0
 21
0.375
 31
0.0
  0
LINE
  5
2B1
100
AcDbEntity
  8
1
390
0
  6
Continuous
 62
     3
100
AcDbLine
 10
4.125
 20
4.5
 30
0.0
 11
4.5
 21
4.125
 31
0.0
  0
LINE
  5
2B2
100
AcDbEntity
  8
1
390
0
  6
Continuous
 62
     3
100
AcDbLine
 10
4.125
 20
4.5
 30
0.0
 11
0.375
 21
4.5
 31
0.0
  0
LINE
  5
2B3
100
AcDbEntity
  8
1
390
0
  6
Continuous
 62
     3
100
AcDbLine
 10
4.125
 20
0.0
 30
0.0
 11
4.125
 21
0.0
 31
0.125
  0
LINE
  5
2B4
100
AcDbEntity
  8
1
390
0
  6
Continuous
 62
     3
100
AcDbLine
 10
0.0
 20
0.375
 30
0.0
 11
0.0
 21
0.375
 31
0.125
  0
LINE
  5
2B5
100
AcDbEntity
  8
1
390
0
  6
Continuous
 62
     3
100
AcDbLine
 10
0.0
 20
0.375
 30
0.125
 11
0.0
 21
4.125
 31
0.125
  0
LINE
  5
2B6
100
AcDbEntity
  8
1
390
0
  6
Continuous
 62
     3
100
AcDbLine
 10
4.125
 20
4.5
 30
0.125
 11
4.125
 21
4.5
 31
0.0
  0
LINE
  5
2B7
100
AcDbEntity
  8
1
390
0
  6
Continuous
 62
     3
100
AcDbLine
 10
4.125
 20
0.0
 30
0.125
 11
0.375
 21
0.0
 31
0.125
  0
LINE
  5
2B8
100
AcDbEntity
  8
1
390
0
  6
Continuous
 62
     3
100
AcDbLine
 10
0.0
 20
4.125
 30
0.0
 11
0.0
 21
0.375
 31
0.0
  0
LINE
  5
2B9
100
AcDbEntity
  8
1
390
0
  6
Continuous
 62
     3
100
AcDbLine
 10
0.375
 20
4.5
 30
0.0
 11
0.375
 21
4.5
 31
0.125
  0
LINE
  5
2BA
100
AcDbEntity
  8
1
390
0
  6
Continuous
 62
     3
100
AcDbLine
 10
0.375
 20
0.0
 30
0.0
 11
4.125
 21
0.0
 31
0.0
  0
LINE
  5
2BB
100
AcDbEntity
  8
1
390
0
  6
Continuous
 62
     3
100
AcDbLine
 10
4.5
 20
4.125
 30
0.125
 11
4.5
 21
0.375
 31
0.125
  0
LINE
  5
2BC
100
AcDbEntity
  8
1
390
0
  6
Continuous
 62
     3
100
AcDbLine
 10
0.375
 20
4.5
 30
0.125
 11
0.0
 21
4.125
 31
0.125
  0
LINE
  5
2BD
100
AcDbEntity
  8
1
390
0
  6
Continuous
 62
     3
100
AcDbLine
 10
0.375
 20
0.0
 30
0.125
 11
0.375
 21
0.0
 31
0.0
  0
LINE
  5
2BE
100
AcDbEntity
  8
1
390
0
  6
Continuous
 62
     3
100
AcDbLine
 10
4.5
 20
0.375
 30
0.0
 11
4.5
 21
4.125
 31
0.0
  0
LINE
  5
2BF
100
AcDbEntity
  8
1
390
0
  6
Continuous
 62
     3
100
AcDbLine
 10
0.0
 20
4.125
 30
0.0
 11
0.375
 21
4.5
 31
0.0
  0
LINE
  5
2C0
100
AcDbEntity
  8
1
390
0
  6
Continuous
 62
     3
100
AcDbLine
 10
4.5
 20
0.375
 30
0.0
 11
4.125
 21
0.0
 31
0.0
  0
LINE
  5
2C1
100
AcDbEntity
  8
1
390
0
  6
Continuous
 62
     3
100
AcDbLine
 10
4.5
 20
4.125
 30
0.0
 11
4.5
 21
4.125
 31
0.125
  0
LINE
  5
2C2
100
AcDbEntity
  8
1
390
0
  6
Continuous
 62
     3
100
AcDbLine
 10
0.0
 20
4.125
 30
0.125
 11
0.0
 21
4.125
 31
0.0
  0
LINE
  5
2C3
100
AcDbEntity
  8
1
390
0
  6
Continuous
 62
     3
100
AcDbLine
 10
0.0
 20
0.375
 30
0.125
 11
0.375
 21
0.0
 31
0.125
  0
LINE
  5
2C4
100
AcDbEntity
  8
1
390
0
  6
Continuous
 62
     3
100
AcDbLine
 10
4.5
 20
4.125
 30
0.125
 11
4.125
 21
4.5
 31
0.125
  0
LINE
  5
2C5
100
AcDbEntity
  8
1
390
0
  6
Continuous
 62
     3
100
AcDbLine
 10
0.375
 20
4.5
 30
0.125
 11
4.125
 21
4.5
 31
0.125
  0
LINE
  5
2C6
100
AcDbEntity
  8
1
390
0
  6
Continuous
 62
     3
100
AcDbLine
 10
4.5
 20
0.375
 30
0.125
 11
4.5
 21
0.375
 31
0.0
  0
LINE
  5
2C7
100
AcDbEntity
  8
1
390
0
  6
Continuous
 62
     3
100
AcDbLine
 10
4.125
 20
0.0
 30
0.125
 11
4.5
 21
0.375
 31
0.125
  0
ENDBLK
  5
2C8
100
AcDbEntity
  8
0
390
0
100
AcDbBlockEnd
  0
ENDSEC
  0
SECTION
  2
ENTITIES
  0
VIEWPORT
  5
33
100
AcDbEntity
 67
     1
  8
0
390
0
100
AcDbViewport
 10
5.5
 20
4.25
 30
0.0
 40
11.0
 41
8.5
 68
     1
 69
     1
 12
5.5
 22
4.25
 13
0.0
 23
0.0
 14
0.0
 24
0.0
 15
0.0
 25
0.0
 16
0.0
 26
0.0
 36
1.0
 17
0.0
 27
0.0
 37
0.0
 42
50.115242
 43
0.0
 44
0.0
 45
8.5
 50
0.0
 51
0.0
 72
   100
 90
    32800
340
0
  1

281
     0
 71
     0
 74
     1
110
0.0
120
0.0
130
0.0
111
1.0
121
0.0
131
0.0
112
0.0
122
1.0
132
0.0
345
0
346
0
 79
     0
146
0.0
  0
POINT
  5
34
102
{ACAD_REACTORS
330
299
102
}
100
AcDbEntity
 67
     1
  8
1
390
0
  6
Continuous
 62
     3
100
AcDbPoint
 10
-0.008345
 20
8.49386
 30
0.0
  0
POINT
  5
35
102
{ACAD_REACTORS
330
299
102
}
100
AcDbEntity
 67
     1
  8
1
390
0
  6
Continuous
 62
     3
100
AcDbPoint
 10
11.06
 20
8.49386
 30
0.0
  0
POINT
  5
36
102
{ACAD_REACTORS
330
299
102
}
100
AcDbEntity
 67
     1
  8
1
390
0
  6
Continuous
 62
     3
100
AcDbPoint
 10
11.06
 20
-0.03
 30
0.0
  0
POINT
  5
37
102
{ACAD_REACTORS
330
299
102
}
100
AcDbEntity
 67
     1
  8
1
390
0
  6
Continuous
 62
     3
100
AcDbPoint
 10
-0.008345
 20
-0.03
 30
0.0
  0
LINE
  5
38
102
{ACAD_REACTORS
330
299
330
29A
102
}
100
AcDbEntity
 67
     1
  8
1
390
0
  6
Continuous
 62
     7
100
AcDbLine
 10
0.301655
 20
0.25
 30
0.0
 11
10.75
 21
0.25
 31
0.0
  0
LINE
  5
39
102
{ACAD_REACTORS
330
299
330
29A
102
}
100
AcDbEntity
 67
     1
  8
1
390
0
  6
Continuous
 62
     7
100
AcDbLine
 10
0.301655
 20
8.20386
 30
0.0
 11
10.75
 21
8.20386
 31
0.0
  0
LINE
  5
3A
102
{ACAD_REACTORS
330
299
330
29A
102
}
100
AcDbEntity
 67
     1
  8
1
390
0
  6
Continuous
 62
     7
100
AcDbLine
 10
0.301655
 20
8.20386
 30
0.0
 11
0.301655
 21
0.25
 31
0.0
  0
LINE
  5
3B
102
{ACAD_REACTORS
330
299
330
29A
102
}
100
AcDbEntity
 67
     1
  8
1
390
0
  6
Continuous
 62
     7
100
AcDbLine
 10
7.357996
 20
0.25
 30
0.0
 11
7.357996
 21
1.037558
 31
0.0
  0
LINE
  5
3C
102
{ACAD_REACTORS
330
299
330
29A
102
}
100
AcDbEntity
 67
     1
  8
1
390
0
  6
Continuous
 62
     7
100
AcDbLine
 10
6.585438
 20
3.035295
 30
0.0
 11
6.585438
 21
0.25
 31
0.0
  0
LINE
  5
3D
102
{ACAD_REACTORS
330
299
330
29A
102
}
100
AcDbEntity
 67
     1
  8
1
390
0
  6
Continuous
 62
     7
100
AcDbLine
 10
6.191659
 20
0.25
 30
0.0
 11
6.191659
 21
2.573295
 31
0.0
  0
LINE
  5
3E
102
{ACAD_REACTORS
330
299
330
29A
102
}
100
AcDbEntity
 67
     1
  8
1
390
0
  6
Continuous
 62
     7
100
AcDbLine
 10
5.827307
 20
0.25
 30
0.0
 11
5.827307
 21
2.573295
 31
0.0
  0
LINE
  5
3F
102
{ACAD_REACTORS
330
299
330
29A
102
}
100
AcDbEntity
 67
     1
  8
1
390
0
  6
Continuous
 62
     7
100
AcDbLine
 10
5.450266
 20
0.25
 30
0.0
 11
5.450266
 21
2.573295
 31
0.0
  0
LINE
  5
40
102
{ACAD_REACTORS
330
299
330
29A
102
}
100
AcDbEntity
 67
     1
  8
1
390
0
  6
Continuous
 62
     7
100
AcDbLine
 10
5.125768
 20
0.511645
 30
0.0
 11
5.125768
 21
2.573295
 31
0.0
  0
LINE
  5
41
102
{ACAD_REACTORS
330
299
330
29A
102
}
100
AcDbEntity
 67
     1
  8
1
390
0
  6
Continuous
 62
     7
100
AcDbLine
 10
0.301655
 20
0.511645
 30
0.0
 11
7.357996
 21
0.511645
 31
0.0
  0
LINE
  5
42
102
{ACAD_REACTORS
330
299
330
29A
102
}
100
AcDbEntity
 67
     1
  8
1
390
0
  6
Continuous
 62
     7
100
AcDbLine
 10
0.301655
 20
0.784601
 30
0.0
 11
7.357996
 21
0.784601
 31
0.0
  0
LINE
  5
43
102
{ACAD_REACTORS
330
299
330
29A
102
}
100
AcDbEntity
 67
     1
  8
1
390
0
  6
Continuous
 62
     7
100
AcDbLine
 10
0.301655
 20
1.037558
 30
0.0
 11
10.75
 21
1.037558
 31
0.0
  0
LINE
  5
44
102
{ACAD_REACTORS
330
299
330
29A
102
}
100
AcDbEntity
 67
     1
  8
1
390
0
  6
Continuous
 62
     7
100
AcDbLine
 10
6.585438
 20
1.291514
 30
0.0
 11
0.301655
 21
1.291514
 31
0.0
  0
LINE
  5
45
102
{ACAD_REACTORS
330
299
330
29A
102
}
100
AcDbEntity
 67
     1
  8
1
390
0
  6
Continuous
 62
     7
100
AcDbLine
 10
10.75
 20
1.54347
 30
0.0
 11
6.585438
 21
1.54347
 31
0.0
  0
LINE
  5
46
102
{ACAD_REACTORS
330
299
330
29A
102
}
100
AcDbEntity
 67
     1
  8
1
390
0
  6
Continuous
 62
     7
100
AcDbLine
 10
6.585438
 20
2.057382
 30
0.0
 11
10.75
 21
2.057382
 31
0.0
  0
LINE
  5
47
102
{ACAD_REACTORS
330
299
330
29A
102
}
100
AcDbEntity
 67
     1
  8
1
390
0
  6
Continuous
 62
     7
100
AcDbLine
 10
9.156445
 20
0.784601
 30
0.0
 11
10.75
 21
0.784601
 31
0.0
  0
LINE
  5
48
102
{ACAD_REACTORS
330
299
330
29A
102
}
100
AcDbEntity
 67
     1
  8
1
390
0
  6
Continuous
 62
     7
100
AcDbLine
 10
10.347525
 20
0.784601
 30
0.0
 11
10.347525
 21
0.25
 31
0.0
  0
LINE
  5
49
102
{ACAD_REACTORS
330
299
330
29A
102
}
100
AcDbEntity
 67
     1
  8
1
390
0
  6
Continuous
 62
     7
100
AcDbLine
 10
10.75
 20
8.20386
 30
0.0
 11
10.75
 21
0.25
 31
0.0
  0
LINE
  5
4A
102
{ACAD_REACTORS
330
299
330
29A
102
}
100
AcDbEntity
 67
     1
  8
1
390
0
  6
Continuous
 62
     7
100
AcDbLine
 10
0.646582
 20
0.25
 30
0.0
 11
0.646582
 21
2.573295
 31
0.0
  0
LINE
  5
4B
102
{ACAD_REACTORS
330
299
330
29A
102
}
100
AcDbEntity
 67
     1
  8
1
390
0
  6
Continuous
 62
     7
100
AcDbLine
 10
1.12633
 20
0.25
 30
0.0
 11
1.12633
 21
2.573295
 31
0.0
  0
LINE
  5
4C
102
{ACAD_REACTORS
330
299
330
29A
102
}
100
AcDbEntity
 67
     1
  8
1
390
0
  6
Continuous
 62
     7
100
AcDbLine
 10
1.430401
 20
0.25
 30
0.0
 11
1.430401
 21
2.573295
 31
0.0
  0
LINE
  5
4D
102
{ACAD_REACTORS
330
299
330
29A
102
}
100
AcDbEntity
 67
     1
  8
1
390
0
  6
Continuous
 62
     7
100
AcDbLine
 10
1.734425
 20
0.25
 30
0.0
 11
1.734425
 21
2.573295
 31
0.0
  0
LINE
  5
4E
102
{ACAD_REACTORS
330
299
330
29A
102
}
100
AcDbEntity
 67
     1
  8
1
390
0
  6
Continuous
 62
     7
100
AcDbLine
 10
4.511886
 20
0.25
 30
0.0
 11
4.511886
 21
2.573295
 31
0.0
  0
LINE
  5
4F
102
{ACAD_REACTORS
330
299
330
29A
102
}
100
AcDbEntity
 67
     1
  8
1
390
0
  6
Continuous
 62
     7
100
AcDbLine
 10
9.156445
 20
1.51347
 30
0.0
 11
9.156445
 21
0.25
 31
0.0
  0
LINE
  5
50
102
{ACAD_REACTORS
330
299
330
29A
102
}
100
AcDbEntity
 67
     1
  8
1
390
0
  6
Continuous
 62
     7
100
AcDbLine
 10
0.301655
 20
1.54347
 30
0.0
 11
6.585438
 21
1.54347
 31
0.0
  0
LINE
  5
51
102
{ACAD_REACTORS
330
299
330
29A
102
}
100
AcDbEntity
 67
     1
  8
1
390
0
  6
Continuous
 62
     7
100
AcDbLine
 10
6.585438
 20
1.799426
 30
0.0
 11
0.301655
 21
1.799426
 31
0.0
  0
LINE
  5
52
102
{ACAD_REACTORS
330
299
330
29A
102
}
100
AcDbEntity
 67
     1
  8
1
390
0
  6
Continuous
 62
     7
100
AcDbLine
 10
6.585438
 20
2.057382
 30
0.0
 11
0.301655
 21
2.057382
 31
0.0
  0
LINE
  5
53
102
{ACAD_REACTORS
330
299
330
29A
102
}
100
AcDbEntity
 67
     1
  8
1
390
0
  6
Continuous
 62
     7
100
AcDbLine
 10
6.585438
 20
2.310339
 30
0.0
 11
0.301655
 21
2.310339
 31
0.0
  0
LINE
  5
54
102
{ACAD_REACTORS
330
299
330
29A
102
}
100
AcDbEntity
 67
     1
  8
1
390
0
  6
Continuous
 62
     7
100
AcDbLine
 10
10.75
 20
2.573295
 30
0.0
 11
0.301655
 21
2.573295
 31
0.0
  0
LINE
  5
55
102
{ACAD_REACTORS
330
299
330
29A
102
}
100
AcDbEntity
 67
     1
  8
1
390
0
  6
Continuous
 62
     7
100
AcDbLine
 10
10.75
 20
2.804295
 30
0.0
 11
6.585438
 21
2.804295
 31
0.0
  0
LINE
  5
56
102
{ACAD_REACTORS
330
299
102
}
100
AcDbEntity
 67
     1
  8
1
390
0
  6
Continuous
 62
     3
100
AcDbLine
 10
5.650828
 20
8.28886
 30
0.0
 11
5.557078
 21
8.28886
 31
0.0
  0
LINE
  5
57
102
{ACAD_REACTORS
330
299
102
}
100
AcDbEntity
 67
     1
  8
1
390
0
  6
Continuous
 62
     3
100
AcDbLine
 10
5.557078
 20
8.20386
 30
0.0
 11
5.557078
 21
8.28886
 31
0.0
  0
LINE
  5
58
102
{ACAD_REACTORS
330
299
102
}
100
AcDbEntity
 67
     1
  8
1
390
0
  6
Continuous
 62
     3
100
AcDbLine
 10
5.494578
 20
8.20386
 30
0.0
 11
5.494578
 21
8.28886
 31
0.0
  0
LINE
  5
59
102
{ACAD_REACTORS
330
299
102
}
100
AcDbEntity
 67
     1
  8
1
390
0
  6
Continuous
 62
     3
100
AcDbLine
 10
5.494578
 20
8.20386
 30
0.0
 11
5.557078
 21
8.20386
 31
0.0
  0
LINE
  5
5A
102
{ACAD_REACTORS
330
299
102
}
100
AcDbEntity
 67
     1
  8
1
390
0
  6
Continuous
 62
     3
100
AcDbLine
 10
5.525828
 20
8.44511
 30
0.0
 11
5.650828
 21
8.28886
 31
0.0
  0
LINE
  5
5B
102
{ACAD_REACTORS
330
299
102
}
100
AcDbEntity
 67
     1
  8
1
390
0
  6
Continuous
 62
     3
100
AcDbLine
 10
5.525828
 20
8.44511
 30
0.0
 11
5.400828
 21
8.28886
 31
0.0
  0
LINE
  5
5C
102
{ACAD_REACTORS
330
299
102
}
100
AcDbEntity
 67
     1
  8
1
390
0
  6
Continuous
 62
     3
100
AcDbLine
 10
5.494578
 20
8.28886
 30
0.0
 11
5.400828
 21
8.28886
 31
0.0
  0
LINE
  5
5D
102
{ACAD_REACTORS
330
299
102
}
100
AcDbEntity
 67
     1
  8
1
390
0
  6
Continuous
 62
     3
100
AcDbLine
 10
0.301655
 20
4.25818
 30
0.0
 11
0.216655
 21
4.25818
 31
0.0
  0
LINE
  5
5E
102
{ACAD_REACTORS
330
299
102
}
100
AcDbEntity
 67
     1
  8
1
390
0
  6
Continuous
 62
     3
100
AcDbLine
 10
0.301655
 20
4.19568
 30
0.0
 11
0.216655
 21
4.19568
 31
0.0
  0
LINE
  5
5F
102
{ACAD_REACTORS
330
299
102
}
100
AcDbEntity
 67
     1
  8
1
390
0
  6
Continuous
 62
     3
100
AcDbLine
 10
0.301655
 20
4.19568
 30
0.0
 11
0.301655
 21
4.25818
 31
0.0
  0
LINE
  5
60
102
{ACAD_REACTORS
330
299
102
}
100
AcDbEntity
 67
     1
  8
1
390
0
  6
Continuous
 62
     3
100
AcDbLine
 10
0.060405
 20
4.22693
 30
0.0
 11
0.216655
 21
4.35193
 31
0.0
  0
LINE
  5
61
102
{ACAD_REACTORS
330
299
102
}
100
AcDbEntity
 67
     1
  8
1
390
0
  6
Continuous
 62
     3
100
AcDbLine
 10
0.216655
 20
4.35193
 30
0.0
 11
0.216655
 21
4.25818
 31
0.0
  0
LINE
  5
62
102
{ACAD_REACTORS
330
299
102
}
100
AcDbEntity
 67
     1
  8
1
390
0
  6
Continuous
 62
     3
100
AcDbLine
 10
0.060405
 20
4.22693
 30
0.0
 11
0.216655
 21
4.10193
 31
0.0
  0
LINE
  5
63
102
{ACAD_REACTORS
330
299
102
}
100
AcDbEntity
 67
     1
  8
1
390
0
  6
Continuous
 62
     3
100
AcDbLine
 10
0.216655
 20
4.19568
 30
0.0
 11
0.216655
 21
4.10193
 31
0.0
  0
LINE
  5
64
102
{ACAD_REACTORS
330
299
102
}
100
AcDbEntity
 67
     1
  8
1
390
0
  6
Continuous
 62
     3
100
AcDbLine
 10
5.494578
 20
0.25
 30
0.0
 11
5.494578
 21
0.165
 31
0.0
  0
LINE
  5
65
102
{ACAD_REACTORS
330
299
102
}
100
AcDbEntity
 67
     1
  8
1
390
0
  6
Continuous
 62
     3
100
AcDbLine
 10
5.557078
 20
0.25
 30
0.0
 11
5.557078
 21
0.165
 31
0.0
  0
LINE
  5
66
102
{ACAD_REACTORS
330
299
102
}
100
AcDbEntity
 67
     1
  8
1
390
0
  6
Continuous
 62
     3
100
AcDbLine
 10
5.557078
 20
0.25
 30
0.0
 11
5.494578
 21
0.25
 31
0.0
  0
LINE
  5
67
102
{ACAD_REACTORS
330
299
102
}
100
AcDbEntity
 67
     1
  8
1
390
0
  6
Continuous
 62
     3
100
AcDbLine
 10
5.525827
 20
0.00875
 30
0.0
 11
5.650828
 21
0.165
 31
0.0
  0
LINE
  5
68
102
{ACAD_REACTORS
330
299
102
}
100
AcDbEntity
 67
     1
  8
1
390
0
  6
Continuous
 62
     3
100
AcDbLine
 10
5.557078
 20
0.165
 30
0.0
 11
5.650828
 21
0.165
 31
0.0
  0
LINE
  5
69
102
{ACAD_REACTORS
330
299
102
}
100
AcDbEntity
 67
     1
  8
1
390
0
  6
Continuous
 62
     3
100
AcDbLine
 10
5.525827
 20
0.00875
 30
0.0
 11
5.400828
 21
0.165
 31
0.0
  0
LINE
  5
6A
102
{ACAD_REACTORS
330
299
102
}
100
AcDbEntity
 67
     1
  8
1
390
0
  6
Continuous
 62
     3
100
AcDbLine
 10
5.400828
 20
0.165
 30
0.0
 11
5.494578
 21
0.165
 31
0.0
  0
LINE
  5
6B
102
{ACAD_REACTORS
330
299
102
}
100
AcDbEntity
 67
     1
  8
1
390
0
  6
Continuous
 62
     3
100
AcDbLine
 10
10.75
 20
4.19568
 30
0.0
 11
10.835
 21
4.19568
 31
0.0
  0
LINE
  5
6C
102
{ACAD_REACTORS
330
299
102
}
100
AcDbEntity
 67
     1
  8
1
390
0
  6
Continuous
 62
     3
100
AcDbLine
 10
10.75
 20
4.25818
 30
0.0
 11
10.835
 21
4.25818
 31
0.0
  0
LINE
  5
6D
102
{ACAD_REACTORS
330
299
102
}
100
AcDbEntity
 67
     1
  8
1
390
0
  6
Continuous
 62
     3
100
AcDbLine
 10
10.75
 20
4.25818
 30
0.0
 11
10.75
 21
4.19568
 31
0.0
  0
LINE
  5
6E
102
{ACAD_REACTORS
330
299
102
}
100
AcDbEntity
 67
     1
  8
1
390
0
  6
Continuous
 62
     3
100
AcDbLine
 10
10.99125
 20
4.22693
 30
0.0
 11
10.835
 21
4.35193
 31
0.0
  0
LINE
  5
6F
102
{ACAD_REACTORS
330
299
102
}
100
AcDbEntity
 67
     1
  8
1
390
0
  6
Continuous
 62
     3
100
AcDbLine
 10
10.835
 20
4.25818
 30
0.0
 11
10.835
 21
4.35193
 31
0.0
  0
LINE
  5
70
102
{ACAD_REACTORS
330
299
102
}
100
AcDbEntity
 67
     1
  8
1
390
0
  6
Continuous
 62
     3
100
AcDbLine
 10
10.99125
 20
4.22693
 30
0.0
 11
10.835
 21
4.10193
 31
0.0
  0
LINE
  5
71
102
{ACAD_REACTORS
330
299
102
}
100
AcDbEntity
 67
     1
  8
1
390
0
  6
Continuous
 62
     3
100
AcDbLine
 10
10.835
 20
4.10193
 30
0.0
 11
10.835
 21
4.19568
 31
0.0
  0
LINE
  5
72
102
{ACAD_REACTORS
330
299
102
}
100
AcDbEntity
 67
     1
  8
1
390
0
  6
Continuous
 62
     7
100
AcDbLine
 10
10.75
 20
3.035295
 30
0.0
 11
6.585438
 21
3.035295
 31
0.0
  0
LINE
  5
73
102
{ACAD_REACTORS
330
299
330
29C
102
}
100
AcDbEntity
 67
     1
  8
1
390
0
  6
Continuous
 62
     7
100
AcDbLine
 10
7.553318
 20
1.107409
 30
0.0
 11
7.553318
 21
1.414636
 31
0.0
  0
LINE
  5
74
102
{ACAD_REACTORS
330
299
330
29C
102
}
100
AcDbEntity
 67
     1
  8
1
390
0
  6
Continuous
 62
     7
100
AcDbLine
 10
8.708318
 20
1.107409
 30
0.0
 11
8.708318
 21
1.414636
 31
0.0
  0
LINE
  5
75
102
{ACAD_REACTORS
330
299
330
29C
102
}
100
AcDbEntity
 67
     1
  8
1
390
0
  6
Continuous
 62
     7
100
AcDbLine
 10
7.612021
 20
1.392617
 30
0.0
 11
7.586104
 21
1.392617
 31
0.0
  0
LINE
  5
76
102
{ACAD_REACTORS
330
299
330
29C
102
}
100
AcDbEntity
 67
     1
  8
1
390
0
  6
Continuous
 62
     7
100
AcDbLine
 10
7.586104
 20
1.392617
 30
0.0
 11
7.586104
 21
1.319427
 31
0.0
  0
LINE
  5
77
102
{ACAD_REACTORS
330
299
330
29C
102
}
100
AcDbEntity
 67
     1
  8
1
390
0
  6
Continuous
 62
     7
100
AcDbLine
 10
7.586104
 20
1.319427
 30
0.0
 11
7.612021
 21
1.319427
 31
0.0
  0
LINE
  5
78
102
{ACAD_REACTORS
330
299
330
29C
102
}
100
AcDbEntity
 67
     1
  8
1
390
0
  6
Continuous
 62
     7
100
AcDbLine
 10
8.676159
 20
1.391188
 30
0.0
 11
8.650242
 21
1.391188
 31
0.0
  0
LINE
  5
79
102
{ACAD_REACTORS
330
299
330
29C
102
}
100
AcDbEntity
 67
     1
  8
1
390
0
  6
Continuous
 62
     7
100
AcDbLine
 10
8.676159
 20
1.317997
 30
0.0
 11
8.676159
 21
1.391188
 31
0.0
  0
LINE
  5
7A
102
{ACAD_REACTORS
330
299
330
29C
102
}
100
AcDbEntity
 67
     1
  8
1
390
0
  6
Continuous
 62
     7
100
AcDbLine
 10
8.650242
 20
1.317997
 30
0.0
 11
8.676159
 21
1.317997
 31
0.0
  0
LINE
  5
7B
100
AcDbEntity
 67
     1
  8
1
390
0
  6
Continuous
 62
     3
100
AcDbLine
 10
6.348566
 20
7.598628
 30
0.0
 11
10.048566
 21
7.598628
 31
0.0
  0
LINE
  5
7C
100
AcDbEntity
 67
     1
  8
1
390
0
  6
Continuous
 62
     3
100
AcDbLine
 10
6.348566
 20
7.198628
 30
0.0
 11
10.048566
 21
7.198628
 31
0.0
  0
LINE
  5
7D
100
AcDbEntity
 67
     1
  8
1
390
0
  6
Continuous
 62
     3
100
AcDbLine
 10
6.348566
 20
6.798628
 30
0.0
 11
10.048566
 21
6.798628
 31
0.0
  0
LINE
  5
7E
100
AcDbEntity
 67
     1
  8
1
390
0
  6
Continuous
 62
     3
100
AcDbLine
 10
6.348566
 20
7.598628
 30
0.0
 11
6.348566
 21
6.798628
 31
0.0
  0
LINE
  5
7F
100
AcDbEntity
 67
     1
  8
1
390
0
  6
Continuous
 62
     3
100
AcDbLine
 10
8.348566
 20
7.598628
 30
0.0
 11
8.348566
 21
6.798628
 31
0.0
  0
LINE
  5
80
100
AcDbEntity
 67
     1
  8
1
390
0
  6
Continuous
 62
     3
100
AcDbLine
 10
10.048566
 20
7.598628
 30
0.0
 11
10.048566
 21
6.798628
 31
0.0
  0
INSERT
  5
86
102
{ACAD_REACTORS
330
299
330
29A
102
}
100
AcDbEntity
 67
     1
  8
1
390
0
  6
Continuous
 62
     7
100
AcDbBlockReference
  2
ASSORTED_DRAFT121
 10
0.0
 20
0.0
 30
0.0
  0
INSERT
  5
8B
102
{ACAD_REACTORS
330
299
330
29A
102
}
100
AcDbEntity
 67
     1
  8
1
390
0
  6
Continuous
 62
     7
100
AcDbBlockReference
  2
ASSORTED_DRAFT122
 10
0.0
 20
0.0
 30
0.0
  0
INSERT
  5
90
102
{ACAD_REACTORS
330
299
330
29A
102
}
100
AcDbEntity
 67
     1
  8
1
390
0
  6
Continuous
 62
     7
100
AcDbBlockReference
  2
ASSORTED_DRAFT123
 10
0.0
 20
0.0
 30
0.0
  0
INSERT
  5
95
102
{ACAD_REACTORS
330
299
330
29A
102
}
100
AcDbEntity
 67
     1
  8
1
390
0
  6
Continuous
 62
     7
100
AcDbBlockReference
  2
ASSORTED_DRAFT124
 10
0.0
 20
0.0
 30
0.0
  0
INSERT
  5
9A
102
{ACAD_REACTORS
330
299
330
29A
102
}
100
AcDbEntity
 67
     1
  8
1
390
0
  6
Continuous
 62
     7
100
AcDbBlockReference
  2
ASSORTED_DRAFT125
 10
0.0
 20
0.0
 30
0.0
  0
INSERT
  5
9F
102
{ACAD_REACTORS
330
299
330
29A
102
}
100
AcDbEntity
 67
     1
  8
1
390
0
  6
Continuous
 62
     7
100
AcDbBlockReference
  2
ASSORTED_DRAFT126
 10
0.0
 20
0.0
 30
0.0
  0
INSERT
  5
A4
102
{ACAD_REACTORS
330
299
330
29A
102
}
100
AcDbEntity
 67
     1
  8
1
390
0
  6
Continuous
 62
     7
100
AcDbBlockReference
  2
ASSORTED_DRAFT127
 10
0.0
 20
0.0
 30
0.0
  0
INSERT
  5
A9
102
{ACAD_REACTORS
330
299
330
29A
102
}
100
AcDbEntity
 67
     1
  8
1
390
0
  6
Continuous
 62
     7
100
AcDbBlockReference
  2
ASSORTED_DRAFT128
 10
0.0
 20
0.0
 30
0.0
  0
INSERT
  5
AE
102
{ACAD_REACTORS
330
299
330
29A
102
}
100
AcDbEntity
 67
     1
  8
1
390
0
  6
Continuous
 62
     7
100
AcDbBlockReference
  2
ASSORTED_DRAFT129
 10
0.0
 20
0.0
 30
0.0
  0
INSERT
  5
B3
102
{ACAD_REACTORS
330
299
330
29A
102
}
100
AcDbEntity
 67
     1
  8
1
390
0
  6
Continuous
 62
     7
100
AcDbBlockReference
  2
ASSORTED_DRAFT130
 10
0.0
 20
0.0
 30
0.0
  0
INSERT
  5
B8
102
{ACAD_REACTORS
330
299
330
29A
102
}
100
AcDbEntity
 67
     1
  8
1
390
0
  6
Continuous
 62
     7
100
AcDbBlockReference
  2
ASSORTED_DRAFT131
 10
0.0
 20
0.0
 30
0.0
  0
INSERT
  5
BD
102
{ACAD_REACTORS
330
299
330
29A
102
}
100
AcDbEntity
 67
     1
  8
1
390
0
  6
Continuous
 62
     7
100
AcDbBlockReference
  2
ASSORTED_DRAFT132
 10
0.0
 20
0.0
 30
0.0
  0
INSERT
  5
C2
102
{ACAD_REACTORS
330
299
330
29A
102
}
100
AcDbEntity
 67
     1
  8
1
390
0
  6
Continuous
 62
     7
100
AcDbBlockReference
  2
ASSORTED_DRAFT133
 10
0.0
 20
0.0
 30
0.0
  0
INSERT
  5
C7
102
{ACAD_REACTORS
330
299
330
29A
102
}
100
AcDbEntity
 67
     1
  8
1
390
0
  6
Continuous
 62
     7
100
AcDbBlockReference
  2
ASSORTED_DRAFT134
 10
0.0
 20
0.0
 30
0.0
  0
INSERT
  5
CC
102
{ACAD_REACTORS
330
299
330
29A
102
}
100
AcDbEntity
 67
     1
  8
1
390
0
  6
Continuous
 62
     7
100
AcDbBlockReference
  2
ASSORTED_DRAFT135
 10
0.0
 20
0.0
 30
0.0
  0
INSERT
  5
D1
102
{ACAD_REACTORS
330
299
330
29A
102
}
100
AcDbEntity
 67
     1
  8
1
390
0
  6
Continuous
 62
     7
100
AcDbBlockReference
  2
ASSORTED_DRAFT136
 10
0.0
 20
0.0
 30
0.0
  0
INSERT
  5
D6
102
{ACAD_REACTORS
330
299
330
29A
102
}
100
AcDbEntity
 67
     1
  8
1
390
0
  6
Continuous
 62
     7
100
AcDbBlockReference
  2
ASSORTED_DRAFT137
 10
0.0
 20
0.0
 30
0.0
  0
INSERT
  5
DB
102
{ACAD_REACTORS
330
299
330
29A
102
}
100
AcDbEntity
 67
     1
  8
1
390
0
  6
Continuous
 62
     7
100
AcDbBlockReference
  2
ASSORTED_DRAFT138
 10
0.0
 20
0.0
 30
0.0
  0
INSERT
  5
E0
102
{ACAD_REACTORS
330
299
330
29A
102
}
100
AcDbEntity
 67
     1
  8
1
390
0
  6
Continuous
 62
     7
100
AcDbBlockReference
  2
ASSORTED_DRAFT139
 10
0.0
 20
0.0
 30
0.0
  0
INSERT
  5
E5
102
{ACAD_REACTORS
330
299
330
29A
102
}
100
AcDbEntity
 67
     1
  8
1
390
0
  6
Continuous
 62
     7
100
AcDbBlockReference
  2
ASSORTED_DRAFT140
 10
0.0
 20
0.0
 30
0.0
  0
INSERT
  5
EA
102
{ACAD_REACTORS
330
299
330
29A
102
}
100
AcDbEntity
 67
     1
  8
1
390
0
  6
Continuous
 62
     7
100
AcDbBlockReference
  2
ASSORTED_DRAFT141
 10
0.0
 20
0.0
 30
0.0
  0
INSERT
  5
EF
102
{ACAD_REACTORS
330
299
330
29A
102
}
100
AcDbEntity
 67
     1
  8
1
390
0
  6
Continuous
 62
     7
100
AcDbBlockReference
  2
ASSORTED_DRAFT142
 10
0.0
 20
0.0
 30
0.0
  0
INSERT
  5
F4
102
{ACAD_REACTORS
330
299
330
29A
102
}
100
AcDbEntity
 67
     1
  8
1
390
0
  6
Continuous
 62
     7
100
AcDbBlockReference
  2
ASSORTED_DRAFT143
 10
0.0
 20
0.0
 30
0.0
  0
INSERT
  5
F9
102
{ACAD_REACTORS
330
299
330
29A
102
}
100
AcDbEntity
 67
     1
  8
1
390
0
  6
Continuous
 62
     7
100
AcDbBlockReference
  2
ASSORTED_DRAFT144
 10
0.0
 20
0.0
 30
0.0
  0
INSERT
  5
FE
102
{ACAD_REACTORS
330
299
330
29A
102
}
100
AcDbEntity
 67
     1
  8
1
390
0
  6
Continuous
 62
     7
100
AcDbBlockReference
  2
ASSORTED_DRAFT145
 10
0.0
 20
0.0
 30
0.0
  0
INSERT
  5
103
102
{ACAD_REACTORS
330
299
330
29A
102
}
100
AcDbEntity
 67
     1
  8
1
390
0
  6
Continuous
 62
     7
100
AcDbBlockReference
  2
ASSORTED_DRAFT146
 10
0.0
 20
0.0
 30
0.0
  0
INSERT
  5
108
102
{ACAD_REACTORS
330
299
330
29A
102
}
100
AcDbEntity
 67
     1
  8
1
390
0
  6
Continuous
 62
     7
100
AcDbBlockReference
  2
ASSORTED_DRAFT147
 10
0.0
 20
0.0
 30
0.0
  0
MTEXT
  5
109
102
{ACAD_REACTORS
330
299
330
29A
102
}
100
AcDbEntity
 67
     1
  8
1
390
0
  6
Continuous
 62
     7
100
AcDbMText
 10
6.622451
 20
2.722241
 30
0.0
 40
0.037378
 41
0.0
 71
     7
 72
     5
  1
\W01.000;\Fsimplex.shx;CAD FILENAME/LAYERS
  7
blockfont
210
0.0
220
0.0
230
1.0
 73
     2
 44
0.903614
  0
MTEXT
  5
10A
102
{ACAD_REACTORS
330
299
330
29A
102
}
100
AcDbEntity
 67
     1
  8
1
390
0
  6
Continuous
 62
     3
100
AcDbMText
 10
0.48
 20
0.577396
 30
0.0
 40
0.07
 41
0.0
 71
     8
 72
     5
  1
\W01.000;\Fsimplex.shx;00
  7
blockfont
210
0.0
220
0.0
230
1.0
 73
     2
 44
0.903614
  0
MTEXT
  5
10B
102
{ACAD_REACTORS
330
299
330
29A
102
}
100
AcDbEntity
 67
     1
  8
1
390
0
  6
Continuous
 62
     3
100
AcDbMText
 10
0.89
 20
0.58974
 30
0.0
 40
0.055
 41
0.0
 71
     8
 72
     5
  1
\W01.000;\Fsimplex.shx;12-6-06
  7
blockfont
210
0.0
220
0.0
230
1.0
 73
     2
 44
0.903614
  0
MTEXT
  5
10C
102
{ACAD_REACTORS
330
299
330
29A
102
}
100
AcDbEntity
 67
     1
  8
1
390
0
  6
Continuous
 62
     3
100
AcDbMText
 10
1.27
 20
0.58151
 30
0.0
 40
0.065
 41
0.0
 71
     8
 72
     5
  1
\W01.000;\Fsimplex.shx;MAV
  7
blockfont
210
0.0
220
0.0
230
1.0
 73
     2
 44
0.903614
  0
MTEXT
  5
10D
102
{ACAD_REACTORS
330
299
330
29A
102
}
100
AcDbEntity
 67
     1
  8
1
390
0
  6
Continuous
 62
     3
100
AcDbMText
 10
2.72935
 20
0.57575
 30
0.0
 40
0.072
 41
0.0
 71
     8
 72
     5
  1
\W01.000;\Fsimplex.shx;RELEASED TO PRODUCTION
  7
blockfont
210
0.0
220
0.0
230
1.0
 73
     2
 44
0.903614
  0
MTEXT
  5
10E
102
{ACAD_REACTORS
330
299
330
29A
102
}
100
AcDbEntity
 67
     1
  8
1
390
0
  6
Continuous
 62
     3
100
AcDbMText
 10
9.05
 20
2.603469
 30
0.0
 40
0.093
 41
0.0
 71
     8
 72
     5
  1
\W01.000;\Fsimplex.shx;V10290MV_DC_00A.PRT 
  7
blockfont
210
0.0
220
0.0
230
1.0
 73
     2
 44
0.903614
  0
MTEXT
  5
10F
102
{ACAD_REACTORS
330
299
330
29A
102
}
100
AcDbEntity
 67
     1
  8
1
390
0
  6
Continuous
 62
     3
100
AcDbMText
 10
8.723512
 20
1.646202
 30
0.0
 40
0.11
 41
0.0
 71
     8
 72
     5
  1
\W01.000;\Fsimplex.shx;FILTER REPLACEMENT KIT (PZCFR)\PCUSTOMER DRAWING
  7
blockfont
210
0.0
220
0.0
230
1.0
 73
     2
 44
0.903614
  0
MTEXT
  5
110
102
{ACAD_REACTORS
330
299
330
29A
102
}
100
AcDbEntity
 67
     1
  8
1
390
0
  6
Continuous
 62
     3
100
AcDbMText
 10
6.95
 20
0.542396
 30
0.0
 40
0.07
 41
0.0
 71
     8
 72
     5
  1
\W01.000;\Fsimplex.shx;12-6-06
  7
blockfont
210
0.0
220
0.0
230
1.0
 73
     2
 44
0.903614
  0
MTEXT
  5
111
102
{ACAD_REACTORS
330
299
330
29A
102
}
100
AcDbEntity
 67
     1
  8
1
390
0
  6
Continuous
 62
     3
100
AcDbMText
 10
9.75
 20
0.395938
 30
0.0
 40
0.09
 41
0.0
 71
     8
 72
     5
  1
\W01.000;\Fsimplex.shx;10290-63
  7
blockfont
210
0.0
220
0.0
230
1.0
 73
     2
 44
0.903614
  0
MTEXT
  5
112
102
{ACAD_REACTORS
330
299
330
29A
102
}
100
AcDbEntity
 67
     1
  8
1
390
0
  6
Continuous
 62
     3
100
AcDbMText
 10
8.25
 20
0.547135
 30
0.0
 40
0.125
 41
0.0
 71
     8
 72
     5
  1
\W01.000;\Fsimplex.shx;N/A
  7
blockfont
210
0.0
220
0.0
230
1.0
 73
     2
 44
0.903614
  0
INSERT
  5
147
102
{ACAD_REACTORS
330
299
102
}
100
AcDbEntity
 67
     1
  8
1
390
0
  6
Continuous
 62
     3
100
AcDbBlockReference
  2
ASSORTED_DRAFT148
 10
0.0
 20
0.0
 30
0.0
  0
INSERT
  5
18E
102
{ACAD_REACTORS
330
299
102
}
100
AcDbEntity
 67
     1
  8
1
390
0
  6
Continuous
 62
     3
100
AcDbBlockReference
  2
ASSORTED_DRAFT149
 10
0.0
 20
0.0
 30
0.0
  0
INSERT
  5
1C2
102
{ACAD_REACTORS
330
299
102
}
100
AcDbEntity
 67
     1
  8
1
390
0
  6
Continuous
 62
     3
100
AcDbBlockReference
  2
ASSORTED_DRAFT150
 10
0.0
 20
0.0
 30
0.0
  0
INSERT
  5
1F7
102
{ACAD_REACTORS
330
299
102
}
100
AcDbEntity
 67
     1
  8
1
390
0
  6
Continuous
 62
     3
100
AcDbBlockReference
  2
ASSORTED_DRAFT151
 10
0.0
 20
0.0
 30
0.0
  0
MTEXT
  5
1F8
102
{ACAD_REACTORS
330
299
102
}
100
AcDbEntity
 67
     1
  8
1
390
0
  6
Continuous
 62
     3
100
AcDbMText
 10
10.028298
 20
0.848781
 30
0.0
 40
0.09
 41
0.0
 71
     8
 72
     5
  1
\W01.000;\Fsimplex.shx;NONE
  7
blockfont
210
0.0
220
0.0
230
1.0
 73
     2
 44
0.903614
  0
MTEXT
  5
1F9
102
{ACAD_REACTORS
330
299
102
}
100
AcDbEntity
 67
     1
  8
1
390
0
  6
Continuous
 62
     3
100
AcDbMText
 10
6.95
 20
0.813706
 30
0.0
 40
0.072
 41
0.0
 71
     8
 72
     5
  1
\W01.000;\Fsimplex.shx;MAV
  7
blockfont
210
0.0
220
0.0
230
1.0
 73
     2
 44
0.903614
  0
INSERT
  5
1FE
102
{ACAD_REACTORS
330
299
102
}
100
AcDbEntity
 67
     1
  8
1
390
0
  6
Continuous
 62
     7
100
AcDbBlockReference
  2
ASSORTED_DRAFT152
 10
0.0
 20
0.0
 30
0.0
  0
MTEXT
  5
1FF
102
{ACAD_REACTORS
330
299
102
}
100
AcDbEntity
 67
     1
  8
1
390
0
  6
Continuous
 62
     3
100
AcDbMText
 10
8.95
 20
2.834469
 30
0.0
 40
0.093
 41
0.0
 71
     8
 72
     5
  1
\W01.000;\Fsimplex.shx;V10290MV_45PPI-MEDIA_00.PRT
  7
blockfont
210
0.0
220
0.0
230
1.0
 73
     2
 44
0.903614
  0
MTEXT
  5
200
102
{ACAD_REACTORS
330
299
102
}
100
AcDbEntity
 67
     1
  8
1
390
0
  6
Continuous
 62
     7
100
AcDbMText
 10
6.898137
 20
2.953241
 30
0.0
 40
0.037378
 41
0.0
 71
     8
 72
     5
  1
\W01.000;\Fsimplex.shx;MODEL FILENAME
  7
blockfont
210
0.0
220
0.0
230
1.0
 73
     2
 44
0.903614
  0
MTEXT
  5
201
102
{ACAD_REACTORS
330
299
102
}
100
AcDbEntity
 67
     1
  8
1
390
0
  6
Continuous
 62
     3
100
AcDbMText
 10
4.822283
 20
0.589513
 30
0.0
 40
0.065
 41
0.0
 71
     8
 72
     5
  1
\W01.000;\Fsimplex.shx;10290-63
  7
blockfont
210
0.0
220
0.0
230
1.0
 73
     2
 44
0.903614
  0
MTEXT
  5
202
102
{ACAD_REACTORS
330
299
330
29C
102
}
100
AcDbEntity
 67
     1
  8
1
390
0
  6
Continuous
 62
     7
100
AcDbMText
 10
6.674778
 20
1.436748
 30
0.0
 40
0.04
 41
0.0
 71
     7
 72
     5
  1
\W01.000;\Fsimplex.shx;UNLESS OTHERWISE SPECIFIED, DIMENSIONAL TOLERANCES ARE:
  7
blockfont
210
0.0
220
0.0
230
1.0
 73
     2
 44
1.204819
  0
MTEXT
  5
203
102
{ACAD_REACTORS
330
299
330
29C
102
}
100
AcDbEntity
 67
     1
  8
1
390
0
  6
Continuous
 62
     7
100
AcDbMText
 10
7.625931
 20
1.088414
 30
0.0
 40
0.05
 41
0.0
 71
     7
 72
     5
  1
\W01.000;\Fsimplex.shx;METRIC - MILLIMETER\PX.     +/- 0.8\PX.X    +/- 0.4\PX.XX   +/- 0.13
  7
blockfont
210
0.0
220
0.0
230
1.0
 73
     2
 44
0.903614
  0
MTEXT
  5
204
102
{ACAD_REACTORS
330
299
330
29C
102
}
100
AcDbEntity
 67
     1
  8
1
390
0
  6
Continuous
 62
     7
100
AcDbMText
 10
6.664138
 20
1.086181
 30
0.0
 40
0.05
 41
0.0
 71
     7
 72
     5
  1
\W01.000;\Fsimplex.shx;INCHES\PX.X    +/- 0.03\PX.XX   +/- 0.015\PX.XXX  +/- 0.005
  7
blockfont
210
0.0
220
0.0
230
1.0
 73
     2
 44
0.903614
  0
MTEXT
  5
205
102
{ACAD_REACTORS
330
299
330
299
330
299
330
299
330
299
330
299
330
299
330
299
330
299
330
299
330
299
330
299
330
299
330
299
330
299
330
299
330
299
330
299
330
299
330
299
330
299
330
299
330
299
330
299
330
299
330
299
330
299
330
299
330
29C
330
29C
330
29C
330
29C
330
29C
330
29C
330
29C
330
29C
330
29C
330
29C
330
29C
330
29C
330
29C
330
29C
330
29C
330
29C
102
}
100
AcDbEntity
 67
     1
  8
1
390
0
  6
Continuous
 62
     7
100
AcDbMText
 10
8.777292
 20
1.161971
 30
0.0
 40
0.05
 41
0.0
 71
     7
 72
     5
  1
\W01.000;\Fsimplex.shx;ANGLE\P\P+/-  1%%d
  7
blockfont
210
0.0
220
0.0
230
1.0
 73
     2
 44
0.903614
  0
MTEXT
  5
206
100
AcDbEntity
 67
     1
  8
1
390
0
  6
Continuous
 62
     3
100
AcDbMText
 10
6.526288
 20
5.280422
 30
0.0
 40
0.09
 41
0.0
 71
     7
 72
     5
  1
\W01.000;\Fsimplex.shx;NOTES:\P1. VISIT OUR ON-LINE CATALOG AT \P   WWW.PANDUIT.COM FOR A CURRENT LIST\P   OF PRODUCTS APPLICABLE FOR USE WITH\P   THIS PART.\P2. COMPONENTS: (5) 45PPI SHEETS OF MEDIA\P3. DIMENSIONS IN PARENTHESIS ARE METRIC.
  7
blockfont
210
0.0
220
0.0
230
1.0
 73
     2
 44
0.903614
  0
MTEXT
  5
207
100
AcDbEntity
 67
     1
  8
1
390
0
  6
Continuous
 62
     3
100
AcDbMText
 10
6.602762
 20
7.31636
 30
0.0
 40
0.09
 41
0.0
 71
     7
 72
     5
  1
\W01.000;\Fsimplex.shx;PANDUIT PART NO.
  7
blockfont
210
0.0
220
0.0
230
1.0
 73
     2
 44
0.903614
  0
MTEXT
  5
208
100
AcDbEntity
 67
     1
  8
1
390
0
  6
Continuous
 62
     3
100
AcDbMText
 10
8.987365
 20
7.31636
 30
0.0
 40
0.09
 41
0.0
 71
     7
 72
     5
  1
\W01.000;\Fsimplex.shx;WEIGHT
  7
blockfont
210
0.0
220
0.0
230
1.0
 73
     2
 44
0.903614
  0
MTEXT
  5
209
100
AcDbEntity
 67
     1
  8
1
390
0
  6
Continuous
 62
     3
100
AcDbMText
 10
7.130762
 20
6.911518
 30
0.0
 40
0.09
 41
0.0
 71
     7
 72
     5
  1
\W01.000;\Fsimplex.shx;PZCFR
  7
blockfont
210
0.0
220
0.0
230
1.0
 73
     2
 44
0.903614
  0
MTEXT
  5
20A
100
AcDbEntity
 67
     1
  8
1
390
0
  6
Continuous
 62
     3
100
AcDbMText
 10
8.659148
 20
6.867151
 30
0.0
 40
0.09
 41
0.0
 71
     7
 72
     5
  1
\W01.000;\Fsimplex.shx; .1 LBS/EACH\P.045 Kg/EACH
  7
blockfont
210
0.0
220
0.0
230
1.0
 73
     2
 44
0.903614
  0
INSERT
  5
20F
100
AcDbEntity
 67
     1
  8
1
390
0
  6
Continuous
 62
     7
100
AcDbBlockReference
  2
ASSORTED_DRAFT153
 10
0.0
 20
0.0
 30
0.0
  0
INSERT
  5
214
100
AcDbEntity
 67
     1
  8
1
390
0
  6
Continuous
 62
     7
100
AcDbBlockReference
  2
ASSORTED_DRAFT154
 10
0.0
 20
0.0
 30
0.0
  0
INSERT
  5
219
100
AcDbEntity
 67
     1
  8
1
390
0
  6
Continuous
 62
     7
100
AcDbBlockReference
  2
ASSORTED_DRAFT155
 10
0.0
 20
0.0
 30
0.0
  0
INSERT
  5
21E
100
AcDbEntity
 67
     1
  8
1
390
0
  6
Continuous
 62
     7
100
AcDbBlockReference
  2
ASSORTED_DRAFT156
 10
0.0
 20
0.0
 30
0.0
  0
INSERT
  5
223
100
AcDbEntity
 67
     1
  8
1
390
0
  6
Continuous
 62
     7
100
AcDbBlockReference
  2
ASSORTED_DRAFT157
 10
0.0
 20
0.0
 30
0.0
  0
INSERT
  5
228
100
AcDbEntity
 67
     1
  8
1
390
0
  6
Continuous
 62
     7
100
AcDbBlockReference
  2
ASSORTED_DRAFT158
 10
0.0
 20
0.0
 30
0.0
  0
INSERT
  5
22D
100
AcDbEntity
 67
     1
  8
1
390
0
  6
Continuous
 62
     7
100
AcDbBlockReference
  2
ASSORTED_DRAFT159
 10
0.0
 20
0.0
 30
0.0
  0
INSERT
  5
232
100
AcDbEntity
 67
     1
  8
1
390
0
  6
Continuous
 62
     7
100
AcDbBlockReference
  2
ASSORTED_DRAFT160
 10
0.0
 20
0.0
 30
0.0
  0
INSERT
  5
237
100
AcDbEntity
 67
     1
  8
1
390
0
  6
Continuous
 62
     7
100
AcDbBlockReference
  2
ASSORTED_DRAFT161
 10
0.0
 20
0.0
 30
0.0
  0
INSERT
  5
23C
100
AcDbEntity
 67
     1
  8
1
390
0
  6
Continuous
 62
     7
100
AcDbBlockReference
  2
ASSORTED_DRAFT162
 10
0.0
 20
0.0
 30
0.0
  0
INSERT
  5
241
100
AcDbEntity
 67
     1
  8
1
390
0
  6
Continuous
 62
     7
100
AcDbBlockReference
  2
ASSORTED_DRAFT163
 10
0.0
 20
0.0
 30
0.0
  0
INSERT
  5
246
100
AcDbEntity
 67
     1
  8
1
390
0
  6
Continuous
 62
     7
100
AcDbBlockReference
  2
ASSORTED_DRAFT164
 10
0.0
 20
0.0
 30
0.0
  0
INSERT
  5
24B
100
AcDbEntity
 67
     1
  8
1
390
0
  6
Continuous
 62
     7
100
AcDbBlockReference
  2
ASSORTED_DRAFT165
 10
0.0
 20
0.0
 30
0.0
  0
INSERT
  5
250
100
AcDbEntity
 67
     1
  8
1
390
0
  6
Continuous
 62
     7
100
AcDbBlockReference
  2
ASSORTED_DRAFT166
 10
0.0
 20
0.0
 30
0.0
  0
INSERT
  5
255
100
AcDbEntity
 67
     1
  8
1
390
0
  6
Continuous
 62
     7
100
AcDbBlockReference
  2
ASSORTED_DRAFT167
 10
0.0
 20
0.0
 30
0.0
  0
INSERT
  5
25A
100
AcDbEntity
 67
     1
  8
1
390
0
  6
Continuous
 62
     7
100
AcDbBlockReference
  2
ASSORTED_DRAFT168
 10
0.0
 20
0.0
 30
0.0
  0
INSERT
  5
25F
100
AcDbEntity
 67
     1
  8
1
390
0
  6
Continuous
 62
     7
100
AcDbBlockReference
  2
ASSORTED_DRAFT169
 10
0.0
 20
0.0
 30
0.0
  0
INSERT
  5
264
100
AcDbEntity
 67
     1
  8
1
390
0
  6
Continuous
 62
     7
100
AcDbBlockReference
  2
ASSORTED_DRAFT170
 10
0.0
 20
0.0
 30
0.0
  0
INSERT
  5
269
100
AcDbEntity
 67
     1
  8
1
390
0
  6
Continuous
 62
     7
100
AcDbBlockReference
  2
ASSORTED_DRAFT171
 10
0.0
 20
0.0
 30
0.0
  0
INSERT
  5
26E
100
AcDbEntity
 67
     1
  8
1
390
0
  6
Continuous
 62
     7
100
AcDbBlockReference
  2
ASSORTED_DRAFT172
 10
0.0
 20
0.0
 30
0.0
  0
INSERT
  5
273
100
AcDbEntity
 67
     1
  8
1
390
0
  6
Continuous
 62
     7
100
AcDbBlockReference
  2
ASSORTED_DRAFT173
 10
0.0
 20
0.0
 30
0.0
  0
INSERT
  5
278
100
AcDbEntity
 67
     1
  8
1
390
0
  6
Continuous
 62
     7
100
AcDbBlockReference
  2
ASSORTED_DRAFT174
 10
0.0
 20
0.0
 30
0.0
  0
INSERT
  5
27D
100
AcDbEntity
 67
     1
  8
1
390
0
  6
Continuous
 62
     7
100
AcDbBlockReference
  2
ASSORTED_DRAFT175
 10
0.0
 20
0.0
 30
0.0
  0
INSERT
  5
282
100
AcDbEntity
 67
     1
  8
1
390
0
  6
Continuous
 62
     7
100
AcDbBlockReference
  2
ASSORTED_DRAFT176
 10
0.0
 20
0.0
 30
0.0
  0
INSERT
  5
287
100
AcDbEntity
 67
     1
  8
1
390
0
  6
Continuous
 62
     7
100
AcDbBlockReference
  2
ASSORTED_DRAFT177
 10
0.0
 20
0.0
 30
0.0
  0
INSERT
  5
28C
100
AcDbEntity
 67
     1
  8
1
390
0
  6
Continuous
 62
     7
100
AcDbBlockReference
  2
ASSORTED_DRAFT178
 10
0.0
 20
0.0
 30
0.0
  0
INSERT
  5
291
100
AcDbEntity
 67
     1
  8
1
390
0
  6
Continuous
 62
     7
100
AcDbBlockReference
  2
ASSORTED_DRAFT179
 10
0.0
 20
0.0
 30
0.0
  0
INSERT
  5
296
100
AcDbEntity
 67
     1
  8
1
390
0
  6
Continuous
 62
     7
100
AcDbBlockReference
  2
ASSORTED_DRAFT180
 10
0.0
 20
0.0
 30
0.0
  0
VIEWPORT
  5
297
100
AcDbEntity
 67
     1
  8
0
390
0
100
AcDbViewport
 10
3.59093
 20
5.191461
 30
0.0
 40
3.519927
 41
3.620135
 68
     1
 69
     2
 12
-0.179442
 22
0.941522
 13
0.0
 23
0.0
 14
0.0
 24
0.0
 15
0.0
 25
0.0
 16
0.718873
 26
-0.585049
 36
0.375419
 17
0.0
 27
0.0
 37
0.0
 42
25.057621
 43
0.0
 44
0.0
 45
7.24027
 50
0.0
 51
0.0
 72
   100
 90
    32800
340
0
  1

281
     0
 71
     0
 74
     1
110
0.0
120
0.0
130
0.0
111
1.0
121
0.0
131
0.0
112
0.0
122
1.0
132
0.0
345
0
346
0
 79
     0
146
0.0
  0
INSERT
  5
2C9
100
AcDbEntity
  8
1
390
0
  6
Continuous
 62
     3
100
AcDbBlockReference
  2
V10290MV_45PPI-MEDIA_00_MODEL
 10
0.0
 20
0.0
 30
0.0
210
0.0
220
-1.0
230
0.0
  0
INSERT
  5
2CA
100
AcDbEntity
  8
1
390
0
  6
Continuous
 62
     3
100
AcDbBlockReference
  2
V10290MV_45PPI-MEDIA_00_MODEL
 10
0.0
 20
0.0
 30
1.0
210
0.0
220
-1.0
230
0.0
  0
INSERT
  5
2CB
100
AcDbEntity
  8
1
390
0
  6
Continuous
 62
     3
100
AcDbBlockReference
  2
V10290MV_45PPI-MEDIA_00_MODEL
 10
0.0
 20
0.0
 30
2.0
210
0.0
220
-1.0
230
0.0
  0
INSERT
  5
2CC
100
AcDbEntity
  8
1
390
0
  6
Continuous
 62
     3
100
AcDbBlockReference
  2
V10290MV_45PPI-MEDIA_00_MODEL
 10
0.0
 20
0.0
 30
3.0
210
0.0
220
-1.0
230
0.0
  0
INSERT
  5
2CD
100
AcDbEntity
  8
1
390
0
  6
Continuous
 62
     3
100
AcDbBlockReference
  2
V10290MV_45PPI-MEDIA_00_MODEL
 10
0.0
 20
0.0
 30
4.0
210
0.0
220
-1.0
230
0.0
  0
ENDSEC
  0
SECTION
  2
OBJECTS
  0
DICTIONARY
  5
19
100
AcDbDictionary
280
     0
281
     1
  3
ACAD_GROUP
350
1A
  3
ACAD_MLINESTYLE
350
1B
  3
ACAD_LAYOUT
350
1E
  3
ACAD_PLOTSETTINGS
350
22
  3
ACAD_PLOTSTYLENAME
350
1F
  3
ACAD_WIPEOUT_VARS
350
23
  0
DICTIONARY
  5
1A
102
{ACAD_REACTORS
330
19
102
}
100
AcDbDictionary
280
     0
281
     1
  3
0ASIZE
350
299
  3
ASIZE
350
29A
  3
DUAL DIMENSION TOL
350
29C
  0
DICTIONARY
  5
1B
102
{ACAD_REACTORS
330
19
102
}
100
AcDbDictionary
280
     0
281
     1
  3
Standard
350
1C
  0
MLINESTYLE
  5
1C
102
{ACAD_REACTORS
330
1B
102
}
100
AcDbMlineStyle
  2
Standard
 70
     0
  3

 62
     0
 51
90.0
 52
90.0
 71
     2
 49
0.5
 62
   256
  6
ByLayer
 49
-0.5
 62
   256
  6
ByLayer
  0
ACDBDICTIONARYWDFLT
  5
1F
102
{ACAD_REACTORS
330
19
102
}
100
AcDbDictionary
281
     1
  3
Normal
350
1D
100
AcDbDictionaryWithDefault
340
1D
  0
ACDBPLACEHOLDER
  5
1D
102
{ACAD_REACTORS
330
1F
102
}
  0
LAYOUT
  5
20
102
{ACAD_REACTORS
330
1E
102
}
100
AcDbPlotSettings
  1

  2

  4

  6

 40
0.0
 41
0.0
 42
0.0
 43
0.0
 44
0.0
 45
0.0
 46
0.0
 47
0.0
 48
0.0
 49
0.0
140
0.0
141
0.0
142
1.0
143
1.0
 70
  1024
 72
     0
 73
     0
 74
     0
  7

 75
     0
147
1.0
148
0.0
149
0.0
100
AcDbLayout
  1
Model
 70
     0
 71
     0
 10
0.0
 20
0.0
 11
0.0
 21
0.0
 12
0.0
 22
0.0
 32
0.0
 14
0.0
 24
0.0
 34
0.0
 15
0.0
 25
0.0
 35
0.0
146
0.0
 13
0.0
 23
0.0
 33
0.0
 16
0.0
 26
0.0
 36
0.0
 17
0.0
 27
0.0
 37
0.0
 76
     0
330
A
331
0
345
0
346
0
  0
LAYOUT
  5
21
102
{ACAD_REACTORS
330
1E
102
}
100
AcDbPlotSettings
  1

  2

  4

  6

 40
0.0
 41
0.0
 42
0.0
 43
0.0
 44
0.0
 45
0.0
 46
0.0
 47
0.0
 48
0.0
 49
0.0
140
0.0
141
0.0
142
1.0
143
1.0
 70
     0
 72
     0
 73
     0
 74
     0
  7

 75
     0
147
1.0
148
0.0
149
0.0
100
AcDbLayout
  1
Layout1
 70
     0
 71
     0
 10
0.0
 20
0.0
 11
0.0
 21
0.0
 12
0.0
 22
0.0
 32
0.0
 14
0.0
 24
0.0
 34
0.0
 15
0.0
 25
0.0
 35
0.0
146
0.0
 13
0.0
 23
0.0
 33
0.0
 16
0.0
 26
0.0
 36
0.0
 17
0.0
 27
0.0
 37
0.0
 76
     0
330
B
331
0
345
0
346
0
  0
DICTIONARY
  5
1E
102
{ACAD_REACTORS
330
19
102
}
100
AcDbDictionary
280
     0
281
     1
  3
Layout1
350
21
  3
Model
350
20
  3
SH1
350
298
  0
DICTIONARY
  5
22
102
{ACAD_REACTORS
330
19
102
}
100
AcDbDictionary
280
     0
281
     1
  0
WIPEOUTVARIABLES
  5
23
100
AcDbWipeoutVariables
 70
     1
  0
LAYOUT
  5
298
102
{ACAD_REACTORS
330
1E
102
}
100
AcDbPlotSettings
  1

  2

  4

  6

 40
20.0
 41
20.0
 42
20.0
 43
20.0
 44
319.4
 45
255.9
 46
0.0
 47
0.0
 48
0.0
 49
0.0
140
319.4
141
255.9
142
1.0
143
1.0
 70
     0
 72
     0
 73
     0
 74
     1
  7

 75
     0
147
1.0
148
0.0
149
0.0
100
AcDbLayout
  1
SH1
 70
     0
 71
     1
 10
0.0
 20
0.0
 11
11.0
 21
8.5
 12
0.0
 22
0.0
 32
0.0
 14
0.0
 24
0.0
 34
0.0
 15
11.0
 25
8.5
 35
0.0
146
0.0
 13
0.0
 23
0.0
 33
0.0
 16
0.0
 26
0.0
 36
0.0
 17
0.0
 27
0.0
 37
0.0
 76
     0
330
B
331
33
345
0
346
0
  0
GROUP
  5
299
102
{ACAD_REACTORS
330
1A
102
}
100
AcDbGroup
300
0ASIZE
 70
     1
 71
     1
340
34
340
35
340
36
340
37
340
38
340
39
340
3A
340
3B
340
3C
340
3D
340
3E
340
3F
340
40
340
41
340
42
340
43
340
44
340
45
340
46
340
47
340
48
340
49
340
4A
340
4B
340
4C
340
4D
340
4E
340
4F
340
50
340
51
340
52
340
53
340
54
340
55
340
56
340
57
340
58
340
59
340
5A
340
5B
340
5C
340
5D
340
5E
340
5F
340
60
340
61
340
62
340
63
340
64
340
65
340
66
340
67
340
68
340
69
340
6A
340
6B
340
6C
340
6D
340
6E
340
6F
340
70
340
71
340
72
340
73
340
74
340
75
340
76
340
77
340
78
340
79
340
7A
340
86
340
8B
340
90
340
95
340
9A
340
9F
340
A4
340
A9
340
AE
340
B3
340
B8
340
BD
340
C2
340
C7
340
CC
340
D1
340
D6
340
DB
340
E0
340
E5
340
EA
340
EF
340
F4
340
F9
340
FE
340
103
340
108
340
109
340
10A
340
10B
340
10C
340
10D
340
10E
340
10F
340
110
340
111
340
112
340
147
340
18E
340
1C2
340
1F7
340
1F8
340
1F9
340
1FE
340
1FF
340
200
340
201
340
202
340
203
340
204
340
205
340
205
340
205
340
205
340
205
340
205
340
205
340
205
340
205
340
205
340
205
340
205
340
205
340
205
340
205
340
205
340
205
340
205
340
205
340
205
340
205
340
205
340
205
340
205
340
205
340
205
340
205
340
205
  0
GROUP
  5
29A
102
{ACAD_REACTORS
330
1A
102
}
100
AcDbGroup
300
ASIZE
 70
     1
 71
     1
340
38
340
39
340
3A
340
3B
340
3C
340
3D
340
3E
340
3F
340
40
340
41
340
42
340
43
340
44
340
45
340
46
340
47
340
48
340
49
340
4A
340
4B
340
4C
340
4D
340
4E
340
4F
340
50
340
51
340
52
340
53
340
54
340
55
340
86
340
8B
340
90
340
95
340
9A
340
9F
340
A4
340
A9
340
AE
340
B3
340
B8
340
BD
340
C2
340
C7
340
CC
340
D1
340
D6
340
DB
340
E0
340
E5
340
EA
340
EF
340
F4
340
F9
340
FE
340
103
340
108
340
109
340
112
340
111
340
110
340
10F
340
10E
340
10D
340
10C
340
10B
340
10A
  0
GROUP
  5
29C
102
{ACAD_REACTORS
330
1A
102
}
100
AcDbGroup
300
DUAL DIMENSION TOL
 70
     1
 71
     1
340
73
340
74
340
75
340
76
340
77
340
78
340
79
340
7A
340
202
340
203
340
204
340
205
340
205
340
205
340
205
340
205
340
205
340
205
340
205
340
205
340
205
340
205
340
205
340
205
340
205
340
205
340
205
  0
ENDSEC
  0
EOF
