  0
SECTION
  2
HEADER
  9
$ACADVER
  1
AC1014
  9
$ACADMAINTVER
 70
     9
  9
$DWGCODEPAGE
  3
ANSI_1252
  9
$INSBASE
 10
0.0
 20
0.0
 30
0.0
  9
$EXTMIN
 10
2.038670366178976
 20
-13.45310775112
 30
-0.0015258207003583
  9
$EXTMAX
 10
39.55310023056563
 20
16.72983671938534
 30
0.0000000349246037
  9
$LIMMIN
 10
0.0
 20
0.0
  9
$LIMMAX
 10
12.0
 20
9.0
  9
$ORTHOMODE
 70
     0
  9
$REGENMODE
 70
     1
  9
$FILLMODE
 70
     1
  9
$QTEXTMODE
 70
     0
  9
$MIRRTEXT
 70
     1
  9
$DRAGMODE
 70
     2
  9
$LTSCALE
 40
1.0
  9
$OSMODE
 70
    37
  9
$ATTMODE
 70
     1
  9
$TEXTSIZE
 40
0.2
  9
$TRACEWID
 40
0.05
  9
$TEXTSTYLE
  7
STANDARD
  9
$CLAYER
  8
0
  9
$CELTYPE
  6
BYLAYER
  9
$CECOLOR
 62
   256
  9
$CELTSCALE
 40
1.0
  9
$DELOBJ
 70
     1
  9
$DISPSILH
 70
     0
  9
$DIMSCALE
 40
1.0
  9
$DIMASZ
 40
0.18
  9
$DIMEXO
 40
0.0625
  9
$DIMDLI
 40
0.38
  9
$DIMRND
 40
0.0
  9
$DIMDLE
 40
0.0
  9
$DIMEXE
 40
0.18
  9
$DIMTP
 40
0.0
  9
$DIMTM
 40
0.0
  9
$DIMTXT
 40
0.18
  9
$DIMCEN
 40
0.09
  9
$DIMTSZ
 40
0.0
  9
$DIMTOL
 70
     0
  9
$DIMLIM
 70
     0
  9
$DIMTIH
 70
     1
  9
$DIMTOH
 70
     1
  9
$DIMSE1
 70
     0
  9
$DIMSE2
 70
     0
  9
$DIMTAD
 70
     0
  9
$DIMZIN
 70
     0
  9
$DIMBLK
  1

  9
$DIMASO
 70
     1
  9
$DIMSHO
 70
     1
  9
$DIMPOST
  1

  9
$DIMAPOST
  1

  9
$DIMALT
 70
     0
  9
$DIMALTD
 70
     2
  9
$DIMALTF
 40
25.4
  9
$DIMLFAC
 40
1.0
  9
$DIMTOFL
 70
     0
  9
$DIMTVP
 40
0.0
  9
$DIMTIX
 70
     0
  9
$DIMSOXD
 70
     0
  9
$DIMSAH
 70
     0
  9
$DIMBLK1
  1

  9
$DIMBLK2
  1

  9
$DIMSTYLE
  2
STANDARD
  9
$DIMCLRD
 70
     0
  9
$DIMCLRE
 70
     0
  9
$DIMCLRT
 70
     0
  9
$DIMTFAC
 40
1.0
  9
$DIMGAP
 40
0.09
  9
$DIMJUST
 70
     0
  9
$DIMSD1
 70
     0
  9
$DIMSD2
 70
     0
  9
$DIMTOLJ
 70
     1
  9
$DIMTZIN
 70
     0
  9
$DIMALTZ
 70
     0
  9
$DIMALTTZ
 70
     0
  9
$DIMFIT
 70
     5
  9
$DIMUPT
 70
     0
  9
$DIMUNIT
 70
     2
  9
$DIMDEC
 70
     4
  9
$DIMTDEC
 70
     4
  9
$DIMALTU
 70
     2
  9
$DIMALTTD
 70
     2
  9
$DIMTXSTY
  7
STANDARD
  9
$DIMAUNIT
 70
     0
  9
$LUNITS
 70
     2
  9
$LUPREC
 70
     4
  9
$SKETCHINC
 40
0.1
  9
$FILLETRAD
 40
0.0
  9
$AUNITS
 70
     0
  9
$AUPREC
 70
     0
  9
$MENU
  1
acad
  9
$ELEVATION
 40
0.0
  9
$PELEVATION
 40
0.0
  9
$THICKNESS
 40
0.0
  9
$LIMCHECK
 70
     0
  9
$BLIPMODE
 70
     0
  9
$CHAMFERA
 40
0.0
  9
$CHAMFERB
 40
0.0
  9
$CHAMFERC
 40
0.0
  9
$CHAMFERD
 40
0.0
  9
$SKPOLY
 70
     0
  9
$TDCREATE
 40
2452410.520752315
  9
$TDUPDATE
 40
2452410.523089190
  9
$TDINDWG
 40
0.0018261690
  9
$TDUSRTIMER
 40
0.0018261690
  9
$USRTIMER
 70
     1
  9
$ANGBASE
 50
0.0
  9
$ANGDIR
 70
     0
  9
$PDMODE
 70
     0
  9
$PDSIZE
 40
0.0
  9
$PLINEWID
 40
0.0
  9
$COORDS
 70
     2
  9
$SPLFRAME
 70
     0
  9
$SPLINETYPE
 70
     6
  9
$SPLINESEGS
 70
     8
  9
$ATTDIA
 70
     0
  9
$ATTREQ
 70
     1
  9
$HANDLING
 70
-16383
  9
$HANDSEED
  5
35A3
  9
$SURFTAB1
 70
     6
  9
$SURFTAB2
 70
     6
  9
$SURFTYPE
 70
     6
  9
$SURFU
 70
     6
  9
$SURFV
 70
     6
  9
$UCSNAME
  2

  9
$UCSORG
 10
0.0
 20
0.0
 30
0.0
  9
$UCSXDIR
 10
1.0
 20
0.0
 30
0.0
  9
$UCSYDIR
 10
0.0
 20
1.0
 30
0.0
  9
$PUCSNAME
  2

  9
$PUCSORG
 10
0.0
 20
0.0
 30
0.0
  9
$PUCSXDIR
 10
1.0
 20
0.0
 30
0.0
  9
$PUCSYDIR
 10
0.0
 20
1.0
 30
0.0
  9
$USERI1
 70
     0
  9
$USERI2
 70
     0
  9
$USERI3
 70
     0
  9
$USERI4
 70
     0
  9
$USERI5
 70
     0
  9
$USERR1
 40
0.0
  9
$USERR2
 40
0.0
  9
$USERR3
 40
0.0
  9
$USERR4
 40
0.0
  9
$USERR5
 40
0.0
  9
$WORLDVIEW
 70
     1
  9
$SHADEDGE
 70
     3
  9
$SHADEDIF
 70
    70
  9
$TILEMODE
 70
     1
  9
$MAXACTVP
 70
    16
  9
$PINSBASE
 10
0.0
 20
0.0
 30
0.0
  9
$PLIMCHECK
 70
     0
  9
$PEXTMIN
 10
1.000000000000000E+20
 20
1.000000000000000E+20
 30
1.000000000000000E+20
  9
$PEXTMAX
 10
-1.000000000000000E+20
 20
-1.000000000000000E+20
 30
-1.000000000000000E+20
  9
$PLIMMIN
 10
0.0
 20
0.0
  9
$PLIMMAX
 10
12.0
 20
9.0
  9
$UNITMODE
 70
     0
  9
$VISRETAIN
 70
     0
  9
$PLINEGEN
 70
     0
  9
$PSLTSCALE
 70
     1
  9
$TREEDEPTH
 70
  3020
  9
$PICKSTYLE
 70
     0
  9
$CMLSTYLE
  2
STANDARD
  9
$CMLJUST
 70
     0
  9
$CMLSCALE
 40
1.0
  9
$PROXYGRAPHICS
 70
     1
  9
$MEASUREMENT
 70
     0
  0
ENDSEC
  0
SECTION
  2
CLASSES
  0
CLASS
  1
ACDBDICTIONARYWDFLT
  2
AcDbDictionaryWithDefault
  3
AutoCAD 2000
 90
        0
280
     0
281
     0
  0
CLASS
  1
ACDBPLACEHOLDER
  2
AcDbPlaceHolder
  3
AutoCAD 2000
 90
        0
280
     0
281
     0
  0
CLASS
  1
LAYOUT
  2
AcDbLayout
  3
AutoCAD 2000
 90
        0
280
     0
281
     0
  0
CLASS
  1
LONG_TRANSACTION
  2
AcDbLongTransaction
  3
AutoCAD 2000
 90
        0
280
     0
281
     0
  0
CLASS
  1
LWPOLYLINE
  2
AcDbPolyline
  3
AutoCAD 2000
 90
        0
280
     0
281
     1
  0
CLASS
  1
HATCH
  2
AcDbHatch
  3
AutoCAD 2000
 90
        0
280
     0
281
     1
  0
CLASS
  1
XRECORD
  2
AcDbXrecord
  3
AutoCAD 2000
 90
        0
280
     0
281
     0
  0
ENDSEC
  0
SECTION
  2
TABLES
  0
TABLE
  2
VPORT
  5
8
330
0
100
AcDbSymbolTable
 70
     3
  0
VPORT
  5
357D
330
8
100
AcDbSymbolTableRecord
100
AcDbViewportTableRecord
  2
*ACTIVE
 70
     0
 10
0.0
 20
0.0
 11
1.0
 21
1.0
 12
20.7958852983723
 22
1.638364484132672
 13
0.0
 23
0.0
 14
1.0
 24
1.0
 15
0.0
 25
0.0
 16
0.0
 26
0.0
 36
1.0
 17
0.0
 27
0.0
 37
0.0
 40
30.42537775942506
 41
1.498659517426273
 42
50.0
 43
0.0
 44
0.0
 50
0.0
 51
0.0
 71
     0
 72
   100
 73
     1
 74
     1
 75
     0
 76
     0
 77
     0
 78
     0
  0
ENDTAB
  0
TABLE
  2
LTYPE
  5
5
330
0
100
AcDbSymbolTable
 70
    25
  0
LTYPE
  5
13
330
5
100
AcDbSymbolTableRecord
100
AcDbLinetypeTableRecord
  2
BYBLOCK
 70
     0
  3

 72
    65
 73
     0
 40
0.0
  0
LTYPE
  5
14
330
5
100
AcDbSymbolTableRecord
100
AcDbLinetypeTableRecord
  2
BYLAYER
 70
     0
  3

 72
    65
 73
     0
 40
0.0
  0
LTYPE
  5
15
330
5
100
AcDbSymbolTableRecord
100
AcDbLinetypeTableRecord
  2
CONTINUOUS
 70
     0
  3
Solid line
 72
    65
 73
     0
 40
0.0
  0
LTYPE
  5
22
330
5
100
AcDbSymbolTableRecord
100
AcDbLinetypeTableRecord
  2
BORDER
 70
     0
  3
__ __ . __ __ . __ __ . __ __ . __ __ . __ __ .
 72
    65
 73
     6
 40
1.75
 49
0.5
 74
     0
 49
-0.25
 74
     0
 49
0.5
 74
     0
 49
-0.25
 74
     0
 49
0.5
 74
     0
 49
-0.25
 74
     0
  0
LTYPE
  5
23
330
5
100
AcDbSymbolTableRecord
100
AcDbLinetypeTableRecord
  2
BORDER2
 70
     0
  3
__.__.__.__.__.__.__.__.__.__.__.__.__.__.__.__
 72
    65
 73
     6
 40
0.875
 49
0.25
 74
     0
 49
-0.125
 74
     0
 49
0.25
 74
     0
 49
-0.125
 74
     0
 49
0.25
 74
     0
 49
-0.125
 74
     0
  0
LTYPE
  5
24
330
5
100
AcDbSymbolTableRecord
100
AcDbLinetypeTableRecord
  2
BORDERX2
 70
     0
  3
____  ____  .  ____  ____  .  
 72
    65
 73
     6
 40
3.5
 49
1.0
 74
     0
 49
-0.5
 74
     0
 49
1.0
 74
     0
 49
-0.5
 74
     0
 49
1.0
 74
     0
 49
-0.5
 74
     0
  0
LTYPE
  5
25
330
5
100
AcDbSymbolTableRecord
100
AcDbLinetypeTableRecord
  2
CENTER
 70
     0
  3
____ _ ____ _ ____ _ ____ _ ____ _ ____ _ ____
 72
    65
 73
     4
 40
2.0
 49
1.25
 74
     0
 49
-0.25
 74
     0
 49
0.25
 74
     0
 49
-0.25
 74
     0
  0
LTYPE
  5
26
330
5
100
AcDbSymbolTableRecord
100
AcDbLinetypeTableRecord
  2
CENTER2
 70
     0
  3
____ _ ____ _ ____ _ ____ _ ____ _ ____ _ ____
 72
    65
 73
     4
 40
1.125
 49
0.75
 74
     0
 49
-0.125
 74
     0
 49
0.125
 74
     0
 49
-0.125
 74
     0
  0
LTYPE
  5
27
330
5
100
AcDbSymbolTableRecord
100
AcDbLinetypeTableRecord
  2
CENTERX2
 70
     0
  3
________  __  ________  __  ________  __  
 72
    65
 73
     4
 40
4.0
 49
2.5
 74
     0
 49
-0.5
 74
     0
 49
0.5
 74
     0
 49
-0.5
 74
     0
  0
LTYPE
  5
28
330
5
100
AcDbSymbolTableRecord
100
AcDbLinetypeTableRecord
  2
DASHDOT
 70
     0
  3
__ . __ . __ . __ . __ . __ . __ . 
 72
    65
 73
     4
 40
1.0
 49
0.5
 74
     0
 49
-0.25
 74
     0
 49
0.0
 74
     0
 49
-0.25
 74
     0
  0
LTYPE
  5
29
330
5
100
AcDbSymbolTableRecord
100
AcDbLinetypeTableRecord
  2
DASHDOT2
 70
     0
  3
_._._._._._._._._._._._._._._._.
 72
    65
 73
     4
 40
0.5
 49
0.25
 74
     0
 49
-0.125
 74
     0
 49
0.0
 74
     0
 49
-0.125
 74
     0
  0
LTYPE
  5
2A
330
5
100
AcDbSymbolTableRecord
100
AcDbLinetypeTableRecord
  2
DASHDOTX2
 70
     0
  3
____  .  ____  .  ____  .  ____  .  
 72
    65
 73
     4
 40
2.0
 49
1.0
 74
     0
 49
-0.5
 74
     0
 49
0.0
 74
     0
 49
-0.5
 74
     0
  0
LTYPE
  5
2B
330
5
100
AcDbSymbolTableRecord
100
AcDbLinetypeTableRecord
  2
DASHED
 70
     0
  3
__ __ __ __ __ __ __ __ __ __ __ __ 
 72
    65
 73
     2
 40
0.75
 49
0.5
 74
     0
 49
-0.25
 74
     0
  0
LTYPE
  5
2C
330
5
100
AcDbSymbolTableRecord
100
AcDbLinetypeTableRecord
  2
DASHED2
 70
     0
  3
_ _ _ _ _ _ _ _ _ _ _ _ _ _ _ _ _ _ 
 72
    65
 73
     2
 40
0.375
 49
0.25
 74
     0
 49
-0.125
 74
     0
  0
LTYPE
  5
2D
330
5
100
AcDbSymbolTableRecord
100
AcDbLinetypeTableRecord
  2
DASHEDX2
 70
     0
  3
____  ____  ____  ____  ____  ____  
 72
    65
 73
     2
 40
1.5
 49
1.0
 74
     0
 49
-0.5
 74
     0
  0
LTYPE
  5
2E
330
5
100
AcDbSymbolTableRecord
100
AcDbLinetypeTableRecord
  2
DIVIDE
 70
     0
  3
____ . . ____ . . ____ . . ____ . . 
 72
    65
 73
     6
 40
1.25
 49
0.5
 74
     0
 49
-0.25
 74
     0
 49
0.0
 74
     0
 49
-0.25
 74
     0
 49
0.0
 74
     0
 49
-0.25
 74
     0
  0
LTYPE
  5
2F
330
5
100
AcDbSymbolTableRecord
100
AcDbLinetypeTableRecord
  2
DIVIDE2
 70
     0
  3
__..__..__..__..__..__..__..__..__..
 72
    65
 73
     6
 40
0.625
 49
0.25
 74
     0
 49
-0.125
 74
     0
 49
0.0
 74
     0
 49
-0.125
 74
     0
 49
0.0
 74
     0
 49
-0.125
 74
     0
  0
LTYPE
  5
30
330
5
100
AcDbSymbolTableRecord
100
AcDbLinetypeTableRecord
  2
DIVIDEX2
 70
     0
  3
________  .  .  ________  .  .  ________  .  . 
 72
    65
 73
     6
 40
2.5
 49
1.0
 74
     0
 49
-0.5
 74
     0
 49
0.0
 74
     0
 49
-0.5
 74
     0
 49
0.0
 74
     0
 49
-0.5
 74
     0
  0
LTYPE
  5
31
330
5
100
AcDbSymbolTableRecord
100
AcDbLinetypeTableRecord
  2
DOT
 70
     0
  3
. . . . . . . . . . . . . . . . . . 
 72
    65
 73
     2
 40
0.25
 49
0.0
 74
     0
 49
-0.25
 74
     0
  0
LTYPE
  5
32
330
5
100
AcDbSymbolTableRecord
100
AcDbLinetypeTableRecord
  2
DOT2
 70
     0
  3
....................................
 72
    65
 73
     2
 40
0.125
 49
0.0
 74
     0
 49
-0.125
 74
     0
  0
LTYPE
  5
33
330
5
100
AcDbSymbolTableRecord
100
AcDbLinetypeTableRecord
  2
DOTX2
 70
     0
  3
.  .  .  .  .  .  .  .  .  .  .  .  .  
 72
    65
 73
     2
 40
0.5
 49
0.0
 74
     0
 49
-0.5
 74
     0
  0
LTYPE
  5
34
330
5
100
AcDbSymbolTableRecord
100
AcDbLinetypeTableRecord
  2
HIDDEN
 70
     0
  3
__ __ __ __ __ __ __ __ __ __ __ __ 
 72
    65
 73
     2
 40
0.375
 49
0.25
 74
     0
 49
-0.125
 74
     0
  0
LTYPE
  5
35
330
5
100
AcDbSymbolTableRecord
100
AcDbLinetypeTableRecord
  2
HIDDEN2
 70
     0
  3
_ _ _ _ _ _ _ _ _ _ _ _ _ _ _ _ _ _ 
 72
    65
 73
     2
 40
0.1875
 49
0.125
 74
     0
 49
-0.0625
 74
     0
  0
LTYPE
  5
36
330
5
100
AcDbSymbolTableRecord
100
AcDbLinetypeTableRecord
  2
HIDDENX2
 70
     0
  3
____ ____ ____ ____ ____ ____ ____ 
 72
    65
 73
     2
 40
0.75
 49
0.5
 74
     0
 49
-0.25
 74
     0
  0
LTYPE
  5
37
330
5
100
AcDbSymbolTableRecord
100
AcDbLinetypeTableRecord
  2
PHANTOM
 70
     0
  3
______  __  __  ______  __  __  
 72
    65
 73
     6
 40
2.5
 49
1.25
 74
     0
 49
-0.25
 74
     0
 49
0.25
 74
     0
 49
-0.25
 74
     0
 49
0.25
 74
     0
 49
-0.25
 74
     0
  0
LTYPE
  5
38
330
5
100
AcDbSymbolTableRecord
100
AcDbLinetypeTableRecord
  2
PHANTOM2
 70
     0
  3
___ _ _ ___ _ _ ___ _ _ ___ _ _ 
 72
    65
 73
     6
 40
1.25
 49
0.625
 74
     0
 49
-0.125
 74
     0
 49
0.125
 74
     0
 49
-0.125
 74
     0
 49
0.125
 74
     0
 49
-0.125
 74
     0
  0
LTYPE
  5
39
330
5
100
AcDbSymbolTableRecord
100
AcDbLinetypeTableRecord
  2
PHANTOMX2
 70
     0
  3
___ _ _ ___ _ _ ___ _ _ ___ _ _ 
 72
    65
 73
     6
 40
5.0
 49
2.5
 74
     0
 49
-0.5
 74
     0
 49
0.5
 74
     0
 49
-0.5
 74
     0
 49
0.5
 74
     0
 49
-0.5
 74
     0
  0
ENDTAB
  0
TABLE
  2
LAYER
  5
2
330
0
100
AcDbSymbolTable
 70
   256
  0
LAYER
  5
10
330
2
100
AcDbSymbolTableRecord
100
AcDbLayerTableRecord
  2
0
 70
     0
 62
     7
  6
CONTINUOUS
  0
LAYER
  5
3A
330
2
100
AcDbSymbolTableRecord
100
AcDbLayerTableRecord
  2
1
 70
     0
 62
     1
  6
CONTINUOUS
  0
LAYER
  5
3B
330
2
100
AcDbSymbolTableRecord
100
AcDbLayerTableRecord
  2
2
 70
     0
 62
     2
  6
CONTINUOUS
  0
LAYER
  5
3C
330
2
100
AcDbSymbolTableRecord
100
AcDbLayerTableRecord
  2
3
 70
     0
 62
     3
  6
CONTINUOUS
  0
LAYER
  5
3D
330
2
100
AcDbSymbolTableRecord
100
AcDbLayerTableRecord
  2
4
 70
     0
 62
     4
  6
CONTINUOUS
  0
LAYER
  5
3E
330
2
100
AcDbSymbolTableRecord
100
AcDbLayerTableRecord
  2
5
 70
     0
 62
     5
  6
CONTINUOUS
  0
LAYER
  5
3F
330
2
100
AcDbSymbolTableRecord
100
AcDbLayerTableRecord
  2
6
 70
     0
 62
     6
  6
CONTINUOUS
  0
LAYER
  5
40
330
2
100
AcDbSymbolTableRecord
100
AcDbLayerTableRecord
  2
7
 70
     0
 62
     7
  6
CONTINUOUS
  0
LAYER
  5
41
330
2
100
AcDbSymbolTableRecord
100
AcDbLayerTableRecord
  2
8
 70
     0
 62
     8
  6
CONTINUOUS
  0
LAYER
  5
42
330
2
100
AcDbSymbolTableRecord
100
AcDbLayerTableRecord
  2
9
 70
     0
 62
     9
  6
CONTINUOUS
  0
LAYER
  5
43
330
2
100
AcDbSymbolTableRecord
100
AcDbLayerTableRecord
  2
10
 70
     0
 62
    10
  6
CONTINUOUS
  0
LAYER
  5
44
330
2
100
AcDbSymbolTableRecord
100
AcDbLayerTableRecord
  2
11
 70
     0
 62
    11
  6
CONTINUOUS
  0
LAYER
  5
45
330
2
100
AcDbSymbolTableRecord
100
AcDbLayerTableRecord
  2
12
 70
     0
 62
    12
  6
CONTINUOUS
  0
LAYER
  5
46
330
2
100
AcDbSymbolTableRecord
100
AcDbLayerTableRecord
  2
13
 70
     0
 62
    13
  6
CONTINUOUS
  0
LAYER
  5
47
330
2
100
AcDbSymbolTableRecord
100
AcDbLayerTableRecord
  2
14
 70
     0
 62
    14
  6
CONTINUOUS
  0
LAYER
  5
48
330
2
100
AcDbSymbolTableRecord
100
AcDbLayerTableRecord
  2
15
 70
     0
 62
    15
  6
CONTINUOUS
  0
LAYER
  5
49
330
2
100
AcDbSymbolTableRecord
100
AcDbLayerTableRecord
  2
16
 70
     0
 62
    16
  6
CONTINUOUS
  0
LAYER
  5
4A
330
2
100
AcDbSymbolTableRecord
100
AcDbLayerTableRecord
  2
17
 70
     0
 62
    17
  6
CONTINUOUS
  0
LAYER
  5
4B
330
2
100
AcDbSymbolTableRecord
100
AcDbLayerTableRecord
  2
18
 70
     0
 62
    18
  6
CONTINUOUS
  0
LAYER
  5
4C
330
2
100
AcDbSymbolTableRecord
100
AcDbLayerTableRecord
  2
19
 70
     0
 62
    19
  6
CONTINUOUS
  0
LAYER
  5
4D
330
2
100
AcDbSymbolTableRecord
100
AcDbLayerTableRecord
  2
20
 70
     0
 62
    20
  6
CONTINUOUS
  0
LAYER
  5
4E
330
2
100
AcDbSymbolTableRecord
100
AcDbLayerTableRecord
  2
21
 70
     0
 62
    21
  6
CONTINUOUS
  0
LAYER
  5
4F
330
2
100
AcDbSymbolTableRecord
100
AcDbLayerTableRecord
  2
22
 70
     0
 62
    22
  6
CONTINUOUS
  0
LAYER
  5
50
330
2
100
AcDbSymbolTableRecord
100
AcDbLayerTableRecord
  2
23
 70
     0
 62
    23
  6
CONTINUOUS
  0
LAYER
  5
51
330
2
100
AcDbSymbolTableRecord
100
AcDbLayerTableRecord
  2
24
 70
     0
 62
    24
  6
CONTINUOUS
  0
LAYER
  5
52
330
2
100
AcDbSymbolTableRecord
100
AcDbLayerTableRecord
  2
25
 70
     0
 62
    25
  6
CONTINUOUS
  0
LAYER
  5
53
330
2
100
AcDbSymbolTableRecord
100
AcDbLayerTableRecord
  2
26
 70
     0
 62
    26
  6
CONTINUOUS
  0
LAYER
  5
54
330
2
100
AcDbSymbolTableRecord
100
AcDbLayerTableRecord
  2
27
 70
     0
 62
    27
  6
CONTINUOUS
  0
LAYER
  5
55
330
2
100
AcDbSymbolTableRecord
100
AcDbLayerTableRecord
  2
28
 70
     0
 62
    28
  6
CONTINUOUS
  0
LAYER
  5
56
330
2
100
AcDbSymbolTableRecord
100
AcDbLayerTableRecord
  2
29
 70
     0
 62
    29
  6
CONTINUOUS
  0
LAYER
  5
57
330
2
100
AcDbSymbolTableRecord
100
AcDbLayerTableRecord
  2
30
 70
     0
 62
    30
  6
CONTINUOUS
  0
LAYER
  5
58
330
2
100
AcDbSymbolTableRecord
100
AcDbLayerTableRecord
  2
31
 70
     0
 62
    31
  6
CONTINUOUS
  0
LAYER
  5
59
330
2
100
AcDbSymbolTableRecord
100
AcDbLayerTableRecord
  2
32
 70
     0
 62
    32
  6
CONTINUOUS
  0
LAYER
  5
5A
330
2
100
AcDbSymbolTableRecord
100
AcDbLayerTableRecord
  2
33
 70
     0
 62
    33
  6
CONTINUOUS
  0
LAYER
  5
5B
330
2
100
AcDbSymbolTableRecord
100
AcDbLayerTableRecord
  2
34
 70
     0
 62
    34
  6
CONTINUOUS
  0
LAYER
  5
5C
330
2
100
AcDbSymbolTableRecord
100
AcDbLayerTableRecord
  2
35
 70
     0
 62
    35
  6
CONTINUOUS
  0
LAYER
  5
5D
330
2
100
AcDbSymbolTableRecord
100
AcDbLayerTableRecord
  2
36
 70
     0
 62
    36
  6
CONTINUOUS
  0
LAYER
  5
5E
330
2
100
AcDbSymbolTableRecord
100
AcDbLayerTableRecord
  2
37
 70
     0
 62
    37
  6
CONTINUOUS
  0
LAYER
  5
5F
330
2
100
AcDbSymbolTableRecord
100
AcDbLayerTableRecord
  2
38
 70
     0
 62
    38
  6
CONTINUOUS
  0
LAYER
  5
60
330
2
100
AcDbSymbolTableRecord
100
AcDbLayerTableRecord
  2
39
 70
     0
 62
    39
  6
CONTINUOUS
  0
LAYER
  5
61
330
2
100
AcDbSymbolTableRecord
100
AcDbLayerTableRecord
  2
40
 70
     0
 62
    40
  6
CONTINUOUS
  0
LAYER
  5
62
330
2
100
AcDbSymbolTableRecord
100
AcDbLayerTableRecord
  2
41
 70
     0
 62
    41
  6
CONTINUOUS
  0
LAYER
  5
63
330
2
100
AcDbSymbolTableRecord
100
AcDbLayerTableRecord
  2
42
 70
     0
 62
    42
  6
CONTINUOUS
  0
LAYER
  5
64
330
2
100
AcDbSymbolTableRecord
100
AcDbLayerTableRecord
  2
43
 70
     0
 62
    43
  6
CONTINUOUS
  0
LAYER
  5
65
330
2
100
AcDbSymbolTableRecord
100
AcDbLayerTableRecord
  2
44
 70
     0
 62
    44
  6
CONTINUOUS
  0
LAYER
  5
66
330
2
100
AcDbSymbolTableRecord
100
AcDbLayerTableRecord
  2
45
 70
     0
 62
    45
  6
CONTINUOUS
  0
LAYER
  5
67
330
2
100
AcDbSymbolTableRecord
100
AcDbLayerTableRecord
  2
46
 70
     0
 62
    46
  6
CONTINUOUS
  0
LAYER
  5
68
330
2
100
AcDbSymbolTableRecord
100
AcDbLayerTableRecord
  2
47
 70
     0
 62
    47
  6
CONTINUOUS
  0
LAYER
  5
69
330
2
100
AcDbSymbolTableRecord
100
AcDbLayerTableRecord
  2
48
 70
     0
 62
    48
  6
CONTINUOUS
  0
LAYER
  5
6A
330
2
100
AcDbSymbolTableRecord
100
AcDbLayerTableRecord
  2
49
 70
     0
 62
    49
  6
CONTINUOUS
  0
LAYER
  5
6B
330
2
100
AcDbSymbolTableRecord
100
AcDbLayerTableRecord
  2
50
 70
     0
 62
    50
  6
CONTINUOUS
  0
LAYER
  5
6C
330
2
100
AcDbSymbolTableRecord
100
AcDbLayerTableRecord
  2
51
 70
     0
 62
    51
  6
CONTINUOUS
  0
LAYER
  5
6D
330
2
100
AcDbSymbolTableRecord
100
AcDbLayerTableRecord
  2
52
 70
     0
 62
    52
  6
CONTINUOUS
  0
LAYER
  5
6E
330
2
100
AcDbSymbolTableRecord
100
AcDbLayerTableRecord
  2
53
 70
     0
 62
    53
  6
CONTINUOUS
  0
LAYER
  5
6F
330
2
100
AcDbSymbolTableRecord
100
AcDbLayerTableRecord
  2
54
 70
     0
 62
    54
  6
CONTINUOUS
  0
LAYER
  5
70
330
2
100
AcDbSymbolTableRecord
100
AcDbLayerTableRecord
  2
55
 70
     0
 62
    55
  6
CONTINUOUS
  0
LAYER
  5
71
330
2
100
AcDbSymbolTableRecord
100
AcDbLayerTableRecord
  2
56
 70
     0
 62
    56
  6
CONTINUOUS
  0
LAYER
  5
72
330
2
100
AcDbSymbolTableRecord
100
AcDbLayerTableRecord
  2
57
 70
     0
 62
    57
  6
CONTINUOUS
  0
LAYER
  5
73
330
2
100
AcDbSymbolTableRecord
100
AcDbLayerTableRecord
  2
58
 70
     0
 62
    58
  6
CONTINUOUS
  0
LAYER
  5
74
330
2
100
AcDbSymbolTableRecord
100
AcDbLayerTableRecord
  2
59
 70
     0
 62
    59
  6
CONTINUOUS
  0
LAYER
  5
75
330
2
100
AcDbSymbolTableRecord
100
AcDbLayerTableRecord
  2
60
 70
     0
 62
    60
  6
CONTINUOUS
  0
LAYER
  5
76
330
2
100
AcDbSymbolTableRecord
100
AcDbLayerTableRecord
  2
61
 70
     0
 62
    61
  6
CONTINUOUS
  0
LAYER
  5
77
330
2
100
AcDbSymbolTableRecord
100
AcDbLayerTableRecord
  2
62
 70
     0
 62
    62
  6
CONTINUOUS
  0
LAYER
  5
78
330
2
100
AcDbSymbolTableRecord
100
AcDbLayerTableRecord
  2
63
 70
     0
 62
    63
  6
CONTINUOUS
  0
LAYER
  5
79
330
2
100
AcDbSymbolTableRecord
100
AcDbLayerTableRecord
  2
64
 70
     0
 62
    64
  6
CONTINUOUS
  0
LAYER
  5
7A
330
2
100
AcDbSymbolTableRecord
100
AcDbLayerTableRecord
  2
65
 70
     0
 62
    65
  6
CONTINUOUS
  0
LAYER
  5
7B
330
2
100
AcDbSymbolTableRecord
100
AcDbLayerTableRecord
  2
66
 70
     0
 62
    66
  6
CONTINUOUS
  0
LAYER
  5
7C
330
2
100
AcDbSymbolTableRecord
100
AcDbLayerTableRecord
  2
67
 70
     0
 62
    67
  6
CONTINUOUS
  0
LAYER
  5
7D
330
2
100
AcDbSymbolTableRecord
100
AcDbLayerTableRecord
  2
68
 70
     0
 62
    68
  6
CONTINUOUS
  0
LAYER
  5
7E
330
2
100
AcDbSymbolTableRecord
100
AcDbLayerTableRecord
  2
69
 70
     0
 62
    69
  6
CONTINUOUS
  0
LAYER
  5
7F
330
2
100
AcDbSymbolTableRecord
100
AcDbLayerTableRecord
  2
70
 70
     0
 62
    70
  6
CONTINUOUS
  0
LAYER
  5
80
330
2
100
AcDbSymbolTableRecord
100
AcDbLayerTableRecord
  2
71
 70
     0
 62
    71
  6
CONTINUOUS
  0
LAYER
  5
81
330
2
100
AcDbSymbolTableRecord
100
AcDbLayerTableRecord
  2
72
 70
     0
 62
    72
  6
CONTINUOUS
  0
LAYER
  5
82
330
2
100
AcDbSymbolTableRecord
100
AcDbLayerTableRecord
  2
73
 70
     0
 62
    73
  6
CONTINUOUS
  0
LAYER
  5
83
330
2
100
AcDbSymbolTableRecord
100
AcDbLayerTableRecord
  2
74
 70
     0
 62
    74
  6
CONTINUOUS
  0
LAYER
  5
84
330
2
100
AcDbSymbolTableRecord
100
AcDbLayerTableRecord
  2
75
 70
     0
 62
    75
  6
CONTINUOUS
  0
LAYER
  5
85
330
2
100
AcDbSymbolTableRecord
100
AcDbLayerTableRecord
  2
76
 70
     0
 62
    76
  6
CONTINUOUS
  0
LAYER
  5
86
330
2
100
AcDbSymbolTableRecord
100
AcDbLayerTableRecord
  2
77
 70
     0
 62
    77
  6
CONTINUOUS
  0
LAYER
  5
87
330
2
100
AcDbSymbolTableRecord
100
AcDbLayerTableRecord
  2
78
 70
     0
 62
    78
  6
CONTINUOUS
  0
LAYER
  5
88
330
2
100
AcDbSymbolTableRecord
100
AcDbLayerTableRecord
  2
79
 70
     0
 62
    79
  6
CONTINUOUS
  0
LAYER
  5
89
330
2
100
AcDbSymbolTableRecord
100
AcDbLayerTableRecord
  2
80
 70
     0
 62
    80
  6
CONTINUOUS
  0
LAYER
  5
8A
330
2
100
AcDbSymbolTableRecord
100
AcDbLayerTableRecord
  2
81
 70
     0
 62
    81
  6
CONTINUOUS
  0
LAYER
  5
8B
330
2
100
AcDbSymbolTableRecord
100
AcDbLayerTableRecord
  2
82
 70
     0
 62
    82
  6
CONTINUOUS
  0
LAYER
  5
8C
330
2
100
AcDbSymbolTableRecord
100
AcDbLayerTableRecord
  2
83
 70
     0
 62
    83
  6
CONTINUOUS
  0
LAYER
  5
8D
330
2
100
AcDbSymbolTableRecord
100
AcDbLayerTableRecord
  2
84
 70
     0
 62
    84
  6
CONTINUOUS
  0
LAYER
  5
8E
330
2
100
AcDbSymbolTableRecord
100
AcDbLayerTableRecord
  2
85
 70
     0
 62
    85
  6
CONTINUOUS
  0
LAYER
  5
8F
330
2
100
AcDbSymbolTableRecord
100
AcDbLayerTableRecord
  2
86
 70
     0
 62
    86
  6
CONTINUOUS
  0
LAYER
  5
90
330
2
100
AcDbSymbolTableRecord
100
AcDbLayerTableRecord
  2
87
 70
     0
 62
    87
  6
CONTINUOUS
  0
LAYER
  5
91
330
2
100
AcDbSymbolTableRecord
100
AcDbLayerTableRecord
  2
88
 70
     0
 62
    88
  6
CONTINUOUS
  0
LAYER
  5
92
330
2
100
AcDbSymbolTableRecord
100
AcDbLayerTableRecord
  2
89
 70
     0
 62
    89
  6
CONTINUOUS
  0
LAYER
  5
93
330
2
100
AcDbSymbolTableRecord
100
AcDbLayerTableRecord
  2
90
 70
     0
 62
    90
  6
CONTINUOUS
  0
LAYER
  5
94
330
2
100
AcDbSymbolTableRecord
100
AcDbLayerTableRecord
  2
91
 70
     0
 62
    91
  6
CONTINUOUS
  0
LAYER
  5
95
330
2
100
AcDbSymbolTableRecord
100
AcDbLayerTableRecord
  2
92
 70
     0
 62
    92
  6
CONTINUOUS
  0
LAYER
  5
96
330
2
100
AcDbSymbolTableRecord
100
AcDbLayerTableRecord
  2
93
 70
     0
 62
    93
  6
CONTINUOUS
  0
LAYER
  5
97
330
2
100
AcDbSymbolTableRecord
100
AcDbLayerTableRecord
  2
94
 70
     0
 62
    94
  6
CONTINUOUS
  0
LAYER
  5
98
330
2
100
AcDbSymbolTableRecord
100
AcDbLayerTableRecord
  2
95
 70
     0
 62
    95
  6
CONTINUOUS
  0
LAYER
  5
99
330
2
100
AcDbSymbolTableRecord
100
AcDbLayerTableRecord
  2
96
 70
     0
 62
    96
  6
CONTINUOUS
  0
LAYER
  5
9A
330
2
100
AcDbSymbolTableRecord
100
AcDbLayerTableRecord
  2
97
 70
     0
 62
    97
  6
CONTINUOUS
  0
LAYER
  5
9B
330
2
100
AcDbSymbolTableRecord
100
AcDbLayerTableRecord
  2
98
 70
     0
 62
    98
  6
CONTINUOUS
  0
LAYER
  5
9C
330
2
100
AcDbSymbolTableRecord
100
AcDbLayerTableRecord
  2
99
 70
     0
 62
    99
  6
CONTINUOUS
  0
LAYER
  5
9D
330
2
100
AcDbSymbolTableRecord
100
AcDbLayerTableRecord
  2
100
 70
     0
 62
   100
  6
CONTINUOUS
  0
LAYER
  5
9E
330
2
100
AcDbSymbolTableRecord
100
AcDbLayerTableRecord
  2
101
 70
     0
 62
   101
  6
CONTINUOUS
  0
LAYER
  5
9F
330
2
100
AcDbSymbolTableRecord
100
AcDbLayerTableRecord
  2
102
 70
     0
 62
   102
  6
CONTINUOUS
  0
LAYER
  5
A0
330
2
100
AcDbSymbolTableRecord
100
AcDbLayerTableRecord
  2
103
 70
     0
 62
   103
  6
CONTINUOUS
  0
LAYER
  5
A1
330
2
100
AcDbSymbolTableRecord
100
AcDbLayerTableRecord
  2
104
 70
     0
 62
   104
  6
CONTINUOUS
  0
LAYER
  5
A2
330
2
100
AcDbSymbolTableRecord
100
AcDbLayerTableRecord
  2
105
 70
     0
 62
   105
  6
CONTINUOUS
  0
LAYER
  5
A3
330
2
100
AcDbSymbolTableRecord
100
AcDbLayerTableRecord
  2
106
 70
     0
 62
   106
  6
CONTINUOUS
  0
LAYER
  5
A4
330
2
100
AcDbSymbolTableRecord
100
AcDbLayerTableRecord
  2
107
 70
     0
 62
   107
  6
CONTINUOUS
  0
LAYER
  5
A5
330
2
100
AcDbSymbolTableRecord
100
AcDbLayerTableRecord
  2
108
 70
     0
 62
   108
  6
CONTINUOUS
  0
LAYER
  5
A6
330
2
100
AcDbSymbolTableRecord
100
AcDbLayerTableRecord
  2
109
 70
     0
 62
   109
  6
CONTINUOUS
  0
LAYER
  5
A7
330
2
100
AcDbSymbolTableRecord
100
AcDbLayerTableRecord
  2
110
 70
     0
 62
   110
  6
CONTINUOUS
  0
LAYER
  5
A8
330
2
100
AcDbSymbolTableRecord
100
AcDbLayerTableRecord
  2
111
 70
     0
 62
   111
  6
CONTINUOUS
  0
LAYER
  5
A9
330
2
100
AcDbSymbolTableRecord
100
AcDbLayerTableRecord
  2
112
 70
     0
 62
   112
  6
CONTINUOUS
  0
LAYER
  5
AA
330
2
100
AcDbSymbolTableRecord
100
AcDbLayerTableRecord
  2
113
 70
     0
 62
   113
  6
CONTINUOUS
  0
LAYER
  5
AB
330
2
100
AcDbSymbolTableRecord
100
AcDbLayerTableRecord
  2
114
 70
     0
 62
   114
  6
CONTINUOUS
  0
LAYER
  5
AC
330
2
100
AcDbSymbolTableRecord
100
AcDbLayerTableRecord
  2
115
 70
     0
 62
   115
  6
CONTINUOUS
  0
LAYER
  5
AD
330
2
100
AcDbSymbolTableRecord
100
AcDbLayerTableRecord
  2
116
 70
     0
 62
   116
  6
CONTINUOUS
  0
LAYER
  5
AE
330
2
100
AcDbSymbolTableRecord
100
AcDbLayerTableRecord
  2
117
 70
     0
 62
   117
  6
CONTINUOUS
  0
LAYER
  5
AF
330
2
100
AcDbSymbolTableRecord
100
AcDbLayerTableRecord
  2
118
 70
     0
 62
   118
  6
CONTINUOUS
  0
LAYER
  5
B0
330
2
100
AcDbSymbolTableRecord
100
AcDbLayerTableRecord
  2
119
 70
     0
 62
   119
  6
CONTINUOUS
  0
LAYER
  5
B1
330
2
100
AcDbSymbolTableRecord
100
AcDbLayerTableRecord
  2
120
 70
     0
 62
   120
  6
CONTINUOUS
  0
LAYER
  5
B2
330
2
100
AcDbSymbolTableRecord
100
AcDbLayerTableRecord
  2
121
 70
     0
 62
   121
  6
CONTINUOUS
  0
LAYER
  5
B3
330
2
100
AcDbSymbolTableRecord
100
AcDbLayerTableRecord
  2
122
 70
     0
 62
   122
  6
CONTINUOUS
  0
LAYER
  5
B4
330
2
100
AcDbSymbolTableRecord
100
AcDbLayerTableRecord
  2
123
 70
     0
 62
   123
  6
CONTINUOUS
  0
LAYER
  5
B5
330
2
100
AcDbSymbolTableRecord
100
AcDbLayerTableRecord
  2
124
 70
     0
 62
   124
  6
CONTINUOUS
  0
LAYER
  5
B6
330
2
100
AcDbSymbolTableRecord
100
AcDbLayerTableRecord
  2
125
 70
     0
 62
   125
  6
CONTINUOUS
  0
LAYER
  5
B7
330
2
100
AcDbSymbolTableRecord
100
AcDbLayerTableRecord
  2
126
 70
     0
 62
   126
  6
CONTINUOUS
  0
LAYER
  5
B8
330
2
100
AcDbSymbolTableRecord
100
AcDbLayerTableRecord
  2
127
 70
     0
 62
   127
  6
CONTINUOUS
  0
LAYER
  5
B9
330
2
100
AcDbSymbolTableRecord
100
AcDbLayerTableRecord
  2
128
 70
     0
 62
   128
  6
CONTINUOUS
  0
LAYER
  5
BA
330
2
100
AcDbSymbolTableRecord
100
AcDbLayerTableRecord
  2
129
 70
     0
 62
   129
  6
CONTINUOUS
  0
LAYER
  5
BB
330
2
100
AcDbSymbolTableRecord
100
AcDbLayerTableRecord
  2
130
 70
     0
 62
   130
  6
CONTINUOUS
  0
LAYER
  5
BC
330
2
100
AcDbSymbolTableRecord
100
AcDbLayerTableRecord
  2
131
 70
     0
 62
   131
  6
CONTINUOUS
  0
LAYER
  5
BD
330
2
100
AcDbSymbolTableRecord
100
AcDbLayerTableRecord
  2
132
 70
     0
 62
   132
  6
CONTINUOUS
  0
LAYER
  5
BE
330
2
100
AcDbSymbolTableRecord
100
AcDbLayerTableRecord
  2
133
 70
     0
 62
   133
  6
CONTINUOUS
  0
LAYER
  5
BF
330
2
100
AcDbSymbolTableRecord
100
AcDbLayerTableRecord
  2
134
 70
     0
 62
   134
  6
CONTINUOUS
  0
LAYER
  5
C0
330
2
100
AcDbSymbolTableRecord
100
AcDbLayerTableRecord
  2
135
 70
     0
 62
   135
  6
CONTINUOUS
  0
LAYER
  5
C1
330
2
100
AcDbSymbolTableRecord
100
AcDbLayerTableRecord
  2
136
 70
     0
 62
   136
  6
CONTINUOUS
  0
LAYER
  5
C2
330
2
100
AcDbSymbolTableRecord
100
AcDbLayerTableRecord
  2
137
 70
     0
 62
   137
  6
CONTINUOUS
  0
LAYER
  5
C3
330
2
100
AcDbSymbolTableRecord
100
AcDbLayerTableRecord
  2
138
 70
     0
 62
   138
  6
CONTINUOUS
  0
LAYER
  5
C4
330
2
100
AcDbSymbolTableRecord
100
AcDbLayerTableRecord
  2
139
 70
     0
 62
   139
  6
CONTINUOUS
  0
LAYER
  5
C5
330
2
100
AcDbSymbolTableRecord
100
AcDbLayerTableRecord
  2
140
 70
     0
 62
   140
  6
CONTINUOUS
  0
LAYER
  5
C6
330
2
100
AcDbSymbolTableRecord
100
AcDbLayerTableRecord
  2
141
 70
     0
 62
   141
  6
CONTINUOUS
  0
LAYER
  5
C7
330
2
100
AcDbSymbolTableRecord
100
AcDbLayerTableRecord
  2
142
 70
     0
 62
   142
  6
CONTINUOUS
  0
LAYER
  5
C8
330
2
100
AcDbSymbolTableRecord
100
AcDbLayerTableRecord
  2
143
 70
     0
 62
   143
  6
CONTINUOUS
  0
LAYER
  5
C9
330
2
100
AcDbSymbolTableRecord
100
AcDbLayerTableRecord
  2
144
 70
     0
 62
   144
  6
CONTINUOUS
  0
LAYER
  5
CA
330
2
100
AcDbSymbolTableRecord
100
AcDbLayerTableRecord
  2
145
 70
     0
 62
   145
  6
CONTINUOUS
  0
LAYER
  5
CB
330
2
100
AcDbSymbolTableRecord
100
AcDbLayerTableRecord
  2
146
 70
     0
 62
   146
  6
CONTINUOUS
  0
LAYER
  5
CC
330
2
100
AcDbSymbolTableRecord
100
AcDbLayerTableRecord
  2
147
 70
     0
 62
   147
  6
CONTINUOUS
  0
LAYER
  5
CD
330
2
100
AcDbSymbolTableRecord
100
AcDbLayerTableRecord
  2
148
 70
     0
 62
   148
  6
CONTINUOUS
  0
LAYER
  5
CE
330
2
100
AcDbSymbolTableRecord
100
AcDbLayerTableRecord
  2
149
 70
     0
 62
   149
  6
CONTINUOUS
  0
LAYER
  5
CF
330
2
100
AcDbSymbolTableRecord
100
AcDbLayerTableRecord
  2
150
 70
     0
 62
   150
  6
CONTINUOUS
  0
LAYER
  5
D0
330
2
100
AcDbSymbolTableRecord
100
AcDbLayerTableRecord
  2
151
 70
     0
 62
   151
  6
CONTINUOUS
  0
LAYER
  5
D1
330
2
100
AcDbSymbolTableRecord
100
AcDbLayerTableRecord
  2
152
 70
     0
 62
   152
  6
CONTINUOUS
  0
LAYER
  5
D2
330
2
100
AcDbSymbolTableRecord
100
AcDbLayerTableRecord
  2
153
 70
     0
 62
   153
  6
CONTINUOUS
  0
LAYER
  5
D3
330
2
100
AcDbSymbolTableRecord
100
AcDbLayerTableRecord
  2
154
 70
     0
 62
   154
  6
CONTINUOUS
  0
LAYER
  5
D4
330
2
100
AcDbSymbolTableRecord
100
AcDbLayerTableRecord
  2
155
 70
     0
 62
   155
  6
CONTINUOUS
  0
LAYER
  5
D5
330
2
100
AcDbSymbolTableRecord
100
AcDbLayerTableRecord
  2
156
 70
     0
 62
   156
  6
CONTINUOUS
  0
LAYER
  5
D6
330
2
100
AcDbSymbolTableRecord
100
AcDbLayerTableRecord
  2
157
 70
     0
 62
   157
  6
CONTINUOUS
  0
LAYER
  5
D7
330
2
100
AcDbSymbolTableRecord
100
AcDbLayerTableRecord
  2
158
 70
     0
 62
   158
  6
CONTINUOUS
  0
LAYER
  5
D8
330
2
100
AcDbSymbolTableRecord
100
AcDbLayerTableRecord
  2
159
 70
     0
 62
   159
  6
CONTINUOUS
  0
LAYER
  5
D9
330
2
100
AcDbSymbolTableRecord
100
AcDbLayerTableRecord
  2
160
 70
     0
 62
   160
  6
CONTINUOUS
  0
LAYER
  5
DA
330
2
100
AcDbSymbolTableRecord
100
AcDbLayerTableRecord
  2
161
 70
     0
 62
   161
  6
CONTINUOUS
  0
LAYER
  5
DB
330
2
100
AcDbSymbolTableRecord
100
AcDbLayerTableRecord
  2
162
 70
     0
 62
   162
  6
CONTINUOUS
  0
LAYER
  5
DC
330
2
100
AcDbSymbolTableRecord
100
AcDbLayerTableRecord
  2
163
 70
     0
 62
   163
  6
CONTINUOUS
  0
LAYER
  5
DD
330
2
100
AcDbSymbolTableRecord
100
AcDbLayerTableRecord
  2
164
 70
     0
 62
   164
  6
CONTINUOUS
  0
LAYER
  5
DE
330
2
100
AcDbSymbolTableRecord
100
AcDbLayerTableRecord
  2
165
 70
     0
 62
   165
  6
CONTINUOUS
  0
LAYER
  5
DF
330
2
100
AcDbSymbolTableRecord
100
AcDbLayerTableRecord
  2
166
 70
     0
 62
   166
  6
CONTINUOUS
  0
LAYER
  5
E0
330
2
100
AcDbSymbolTableRecord
100
AcDbLayerTableRecord
  2
167
 70
     0
 62
   167
  6
CONTINUOUS
  0
LAYER
  5
E1
330
2
100
AcDbSymbolTableRecord
100
AcDbLayerTableRecord
  2
168
 70
     0
 62
   168
  6
CONTINUOUS
  0
LAYER
  5
E2
330
2
100
AcDbSymbolTableRecord
100
AcDbLayerTableRecord
  2
169
 70
     0
 62
   169
  6
CONTINUOUS
  0
LAYER
  5
E3
330
2
100
AcDbSymbolTableRecord
100
AcDbLayerTableRecord
  2
170
 70
     0
 62
   170
  6
CONTINUOUS
  0
LAYER
  5
E4
330
2
100
AcDbSymbolTableRecord
100
AcDbLayerTableRecord
  2
171
 70
     0
 62
   171
  6
CONTINUOUS
  0
LAYER
  5
E5
330
2
100
AcDbSymbolTableRecord
100
AcDbLayerTableRecord
  2
172
 70
     0
 62
   172
  6
CONTINUOUS
  0
LAYER
  5
E6
330
2
100
AcDbSymbolTableRecord
100
AcDbLayerTableRecord
  2
173
 70
     0
 62
   173
  6
CONTINUOUS
  0
LAYER
  5
E7
330
2
100
AcDbSymbolTableRecord
100
AcDbLayerTableRecord
  2
174
 70
     0
 62
   174
  6
CONTINUOUS
  0
LAYER
  5
E8
330
2
100
AcDbSymbolTableRecord
100
AcDbLayerTableRecord
  2
175
 70
     0
 62
   175
  6
CONTINUOUS
  0
LAYER
  5
E9
330
2
100
AcDbSymbolTableRecord
100
AcDbLayerTableRecord
  2
176
 70
     0
 62
   176
  6
CONTINUOUS
  0
LAYER
  5
EA
330
2
100
AcDbSymbolTableRecord
100
AcDbLayerTableRecord
  2
177
 70
     0
 62
   177
  6
CONTINUOUS
  0
LAYER
  5
EB
330
2
100
AcDbSymbolTableRecord
100
AcDbLayerTableRecord
  2
178
 70
     0
 62
   178
  6
CONTINUOUS
  0
LAYER
  5
EC
330
2
100
AcDbSymbolTableRecord
100
AcDbLayerTableRecord
  2
179
 70
     0
 62
   179
  6
CONTINUOUS
  0
LAYER
  5
ED
330
2
100
AcDbSymbolTableRecord
100
AcDbLayerTableRecord
  2
180
 70
     0
 62
   180
  6
CONTINUOUS
  0
LAYER
  5
EE
330
2
100
AcDbSymbolTableRecord
100
AcDbLayerTableRecord
  2
181
 70
     0
 62
   181
  6
CONTINUOUS
  0
LAYER
  5
EF
330
2
100
AcDbSymbolTableRecord
100
AcDbLayerTableRecord
  2
182
 70
     0
 62
   182
  6
CONTINUOUS
  0
LAYER
  5
F0
330
2
100
AcDbSymbolTableRecord
100
AcDbLayerTableRecord
  2
183
 70
     0
 62
   183
  6
CONTINUOUS
  0
LAYER
  5
F1
330
2
100
AcDbSymbolTableRecord
100
AcDbLayerTableRecord
  2
184
 70
     0
 62
   184
  6
CONTINUOUS
  0
LAYER
  5
F2
330
2
100
AcDbSymbolTableRecord
100
AcDbLayerTableRecord
  2
185
 70
     0
 62
   185
  6
CONTINUOUS
  0
LAYER
  5
F3
330
2
100
AcDbSymbolTableRecord
100
AcDbLayerTableRecord
  2
186
 70
     0
 62
   186
  6
CONTINUOUS
  0
LAYER
  5
F4
330
2
100
AcDbSymbolTableRecord
100
AcDbLayerTableRecord
  2
187
 70
     0
 62
   187
  6
CONTINUOUS
  0
LAYER
  5
F5
330
2
100
AcDbSymbolTableRecord
100
AcDbLayerTableRecord
  2
188
 70
     0
 62
   188
  6
CONTINUOUS
  0
LAYER
  5
F6
330
2
100
AcDbSymbolTableRecord
100
AcDbLayerTableRecord
  2
189
 70
     0
 62
   189
  6
CONTINUOUS
  0
LAYER
  5
F7
330
2
100
AcDbSymbolTableRecord
100
AcDbLayerTableRecord
  2
190
 70
     0
 62
   190
  6
CONTINUOUS
  0
LAYER
  5
F8
330
2
100
AcDbSymbolTableRecord
100
AcDbLayerTableRecord
  2
191
 70
     0
 62
   191
  6
CONTINUOUS
  0
LAYER
  5
F9
330
2
100
AcDbSymbolTableRecord
100
AcDbLayerTableRecord
  2
192
 70
     0
 62
   192
  6
CONTINUOUS
  0
LAYER
  5
FA
330
2
100
AcDbSymbolTableRecord
100
AcDbLayerTableRecord
  2
193
 70
     0
 62
   193
  6
CONTINUOUS
  0
LAYER
  5
FB
330
2
100
AcDbSymbolTableRecord
100
AcDbLayerTableRecord
  2
194
 70
     0
 62
   194
  6
CONTINUOUS
  0
LAYER
  5
FC
330
2
100
AcDbSymbolTableRecord
100
AcDbLayerTableRecord
  2
195
 70
     0
 62
   195
  6
CONTINUOUS
  0
LAYER
  5
FD
330
2
100
AcDbSymbolTableRecord
100
AcDbLayerTableRecord
  2
196
 70
     0
 62
   196
  6
CONTINUOUS
  0
LAYER
  5
FE
330
2
100
AcDbSymbolTableRecord
100
AcDbLayerTableRecord
  2
197
 70
     0
 62
   197
  6
CONTINUOUS
  0
LAYER
  5
FF
330
2
100
AcDbSymbolTableRecord
100
AcDbLayerTableRecord
  2
198
 70
     0
 62
   198
  6
CONTINUOUS
  0
LAYER
  5
100
330
2
100
AcDbSymbolTableRecord
100
AcDbLayerTableRecord
  2
199
 70
     0
 62
   199
  6
CONTINUOUS
  0
LAYER
  5
101
330
2
100
AcDbSymbolTableRecord
100
AcDbLayerTableRecord
  2
200
 70
     0
 62
   200
  6
CONTINUOUS
  0
LAYER
  5
102
330
2
100
AcDbSymbolTableRecord
100
AcDbLayerTableRecord
  2
201
 70
     0
 62
   201
  6
CONTINUOUS
  0
LAYER
  5
103
330
2
100
AcDbSymbolTableRecord
100
AcDbLayerTableRecord
  2
202
 70
     0
 62
   202
  6
CONTINUOUS
  0
LAYER
  5
104
330
2
100
AcDbSymbolTableRecord
100
AcDbLayerTableRecord
  2
203
 70
     0
 62
   203
  6
CONTINUOUS
  0
LAYER
  5
105
330
2
100
AcDbSymbolTableRecord
100
AcDbLayerTableRecord
  2
204
 70
     0
 62
   204
  6
CONTINUOUS
  0
LAYER
  5
106
330
2
100
AcDbSymbolTableRecord
100
AcDbLayerTableRecord
  2
205
 70
     0
 62
   205
  6
CONTINUOUS
  0
LAYER
  5
107
330
2
100
AcDbSymbolTableRecord
100
AcDbLayerTableRecord
  2
206
 70
     0
 62
   206
  6
CONTINUOUS
  0
LAYER
  5
108
330
2
100
AcDbSymbolTableRecord
100
AcDbLayerTableRecord
  2
207
 70
     0
 62
   207
  6
CONTINUOUS
  0
LAYER
  5
109
330
2
100
AcDbSymbolTableRecord
100
AcDbLayerTableRecord
  2
208
 70
     0
 62
   208
  6
CONTINUOUS
  0
LAYER
  5
10A
330
2
100
AcDbSymbolTableRecord
100
AcDbLayerTableRecord
  2
209
 70
     0
 62
   209
  6
CONTINUOUS
  0
LAYER
  5
10B
330
2
100
AcDbSymbolTableRecord
100
AcDbLayerTableRecord
  2
210
 70
     0
 62
   210
  6
CONTINUOUS
  0
LAYER
  5
10C
330
2
100
AcDbSymbolTableRecord
100
AcDbLayerTableRecord
  2
211
 70
     0
 62
   211
  6
CONTINUOUS
  0
LAYER
  5
10D
330
2
100
AcDbSymbolTableRecord
100
AcDbLayerTableRecord
  2
212
 70
     0
 62
   212
  6
CONTINUOUS
  0
LAYER
  5
10E
330
2
100
AcDbSymbolTableRecord
100
AcDbLayerTableRecord
  2
213
 70
     0
 62
   213
  6
CONTINUOUS
  0
LAYER
  5
10F
330
2
100
AcDbSymbolTableRecord
100
AcDbLayerTableRecord
  2
214
 70
     0
 62
   214
  6
CONTINUOUS
  0
LAYER
  5
110
330
2
100
AcDbSymbolTableRecord
100
AcDbLayerTableRecord
  2
215
 70
     0
 62
   215
  6
CONTINUOUS
  0
LAYER
  5
111
330
2
100
AcDbSymbolTableRecord
100
AcDbLayerTableRecord
  2
216
 70
     0
 62
   216
  6
CONTINUOUS
  0
LAYER
  5
112
330
2
100
AcDbSymbolTableRecord
100
AcDbLayerTableRecord
  2
217
 70
     0
 62
   217
  6
CONTINUOUS
  0
LAYER
  5
113
330
2
100
AcDbSymbolTableRecord
100
AcDbLayerTableRecord
  2
218
 70
     0
 62
   218
  6
CONTINUOUS
  0
LAYER
  5
114
330
2
100
AcDbSymbolTableRecord
100
AcDbLayerTableRecord
  2
219
 70
     0
 62
   219
  6
CONTINUOUS
  0
LAYER
  5
115
330
2
100
AcDbSymbolTableRecord
100
AcDbLayerTableRecord
  2
220
 70
     0
 62
   220
  6
CONTINUOUS
  0
LAYER
  5
116
330
2
100
AcDbSymbolTableRecord
100
AcDbLayerTableRecord
  2
221
 70
     0
 62
   221
  6
CONTINUOUS
  0
LAYER
  5
117
330
2
100
AcDbSymbolTableRecord
100
AcDbLayerTableRecord
  2
222
 70
     0
 62
   222
  6
CONTINUOUS
  0
LAYER
  5
118
330
2
100
AcDbSymbolTableRecord
100
AcDbLayerTableRecord
  2
223
 70
     0
 62
   223
  6
CONTINUOUS
  0
LAYER
  5
119
330
2
100
AcDbSymbolTableRecord
100
AcDbLayerTableRecord
  2
224
 70
     0
 62
   224
  6
CONTINUOUS
  0
LAYER
  5
11A
330
2
100
AcDbSymbolTableRecord
100
AcDbLayerTableRecord
  2
225
 70
     0
 62
   225
  6
CONTINUOUS
  0
LAYER
  5
11B
330
2
100
AcDbSymbolTableRecord
100
AcDbLayerTableRecord
  2
226
 70
     0
 62
   226
  6
CONTINUOUS
  0
LAYER
  5
11C
330
2
100
AcDbSymbolTableRecord
100
AcDbLayerTableRecord
  2
227
 70
     0
 62
   227
  6
CONTINUOUS
  0
LAYER
  5
11D
330
2
100
AcDbSymbolTableRecord
100
AcDbLayerTableRecord
  2
228
 70
     0
 62
   228
  6
CONTINUOUS
  0
LAYER
  5
11E
330
2
100
AcDbSymbolTableRecord
100
AcDbLayerTableRecord
  2
229
 70
     0
 62
   229
  6
CONTINUOUS
  0
LAYER
  5
11F
330
2
100
AcDbSymbolTableRecord
100
AcDbLayerTableRecord
  2
230
 70
     0
 62
   230
  6
CONTINUOUS
  0
LAYER
  5
120
330
2
100
AcDbSymbolTableRecord
100
AcDbLayerTableRecord
  2
231
 70
     0
 62
   231
  6
CONTINUOUS
  0
LAYER
  5
121
330
2
100
AcDbSymbolTableRecord
100
AcDbLayerTableRecord
  2
232
 70
     0
 62
   232
  6
CONTINUOUS
  0
LAYER
  5
122
330
2
100
AcDbSymbolTableRecord
100
AcDbLayerTableRecord
  2
233
 70
     0
 62
   233
  6
CONTINUOUS
  0
LAYER
  5
123
330
2
100
AcDbSymbolTableRecord
100
AcDbLayerTableRecord
  2
234
 70
     0
 62
   234
  6
CONTINUOUS
  0
LAYER
  5
124
330
2
100
AcDbSymbolTableRecord
100
AcDbLayerTableRecord
  2
235
 70
     0
 62
   235
  6
CONTINUOUS
  0
LAYER
  5
125
330
2
100
AcDbSymbolTableRecord
100
AcDbLayerTableRecord
  2
236
 70
     0
 62
   236
  6
CONTINUOUS
  0
LAYER
  5
126
330
2
100
AcDbSymbolTableRecord
100
AcDbLayerTableRecord
  2
237
 70
     0
 62
   237
  6
CONTINUOUS
  0
LAYER
  5
127
330
2
100
AcDbSymbolTableRecord
100
AcDbLayerTableRecord
  2
238
 70
     0
 62
   238
  6
CONTINUOUS
  0
LAYER
  5
128
330
2
100
AcDbSymbolTableRecord
100
AcDbLayerTableRecord
  2
239
 70
     0
 62
   239
  6
CONTINUOUS
  0
LAYER
  5
129
330
2
100
AcDbSymbolTableRecord
100
AcDbLayerTableRecord
  2
240
 70
     0
 62
   240
  6
CONTINUOUS
  0
LAYER
  5
12A
330
2
100
AcDbSymbolTableRecord
100
AcDbLayerTableRecord
  2
241
 70
     0
 62
   241
  6
CONTINUOUS
  0
LAYER
  5
12B
330
2
100
AcDbSymbolTableRecord
100
AcDbLayerTableRecord
  2
242
 70
     0
 62
   242
  6
CONTINUOUS
  0
LAYER
  5
12C
330
2
100
AcDbSymbolTableRecord
100
AcDbLayerTableRecord
  2
243
 70
     0
 62
   243
  6
CONTINUOUS
  0
LAYER
  5
12D
330
2
100
AcDbSymbolTableRecord
100
AcDbLayerTableRecord
  2
244
 70
     0
 62
   244
  6
CONTINUOUS
  0
LAYER
  5
12E
330
2
100
AcDbSymbolTableRecord
100
AcDbLayerTableRecord
  2
245
 70
     0
 62
   245
  6
CONTINUOUS
  0
LAYER
  5
12F
330
2
100
AcDbSymbolTableRecord
100
AcDbLayerTableRecord
  2
246
 70
     0
 62
   246
  6
CONTINUOUS
  0
LAYER
  5
130
330
2
100
AcDbSymbolTableRecord
100
AcDbLayerTableRecord
  2
247
 70
     0
 62
   247
  6
CONTINUOUS
  0
LAYER
  5
131
330
2
100
AcDbSymbolTableRecord
100
AcDbLayerTableRecord
  2
248
 70
     0
 62
   248
  6
CONTINUOUS
  0
LAYER
  5
132
330
2
100
AcDbSymbolTableRecord
100
AcDbLayerTableRecord
  2
249
 70
     0
 62
   249
  6
CONTINUOUS
  0
LAYER
  5
133
330
2
100
AcDbSymbolTableRecord
100
AcDbLayerTableRecord
  2
250
 70
     0
 62
   250
  6
CONTINUOUS
  0
LAYER
  5
134
330
2
100
AcDbSymbolTableRecord
100
AcDbLayerTableRecord
  2
251
 70
     0
 62
   251
  6
CONTINUOUS
  0
LAYER
  5
135
330
2
100
AcDbSymbolTableRecord
100
AcDbLayerTableRecord
  2
252
 70
     0
 62
   252
  6
CONTINUOUS
  0
LAYER
  5
136
330
2
100
AcDbSymbolTableRecord
100
AcDbLayerTableRecord
  2
253
 70
     0
 62
   253
  6
CONTINUOUS
  0
LAYER
  5
137
330
2
100
AcDbSymbolTableRecord
100
AcDbLayerTableRecord
  2
254
 70
     0
 62
   254
  6
CONTINUOUS
  0
LAYER
  5
138
330
2
100
AcDbSymbolTableRecord
100
AcDbLayerTableRecord
  2
255
 70
     0
 62
   255
  6
CONTINUOUS
  0
ENDTAB
  0
TABLE
  2
STYLE
  5
3
330
0
100
AcDbSymbolTable
 70
     1
  0
STYLE
  5
11
330
3
100
AcDbSymbolTableRecord
100
AcDbTextStyleTableRecord
  2
STANDARD
 70
     0
 40
0.0
 41
1.0
 50
0.0
 71
     0
 42
0.2
  3
monotxt
  4

  0
ENDTAB
  0
TABLE
  2
VIEW
  5
6
330
0
100
AcDbSymbolTable
 70
     0
  0
ENDTAB
  0
TABLE
  2
UCS
  5
7
330
0
100
AcDbSymbolTable
 70
     0
  0
ENDTAB
  0
TABLE
  2
APPID
  5
9
330
0
100
AcDbSymbolTable
 70
     1
  0
APPID
  5
12
330
9
100
AcDbSymbolTableRecord
100
AcDbRegAppTableRecord
  2
ACAD
 70
     0
  0
ENDTAB
  0
TABLE
  2
DIMSTYLE
  5
A
330
0
100
AcDbSymbolTable
 70
     1
  0
DIMSTYLE
105
2FE8
330
A
100
AcDbSymbolTableRecord
100
AcDbDimStyleTableRecord
  2
STANDARD
 70
     0
  3

  4

  5

  6

  7

 40
1.0
 41
0.18
 42
0.0625
 43
0.38
 44
0.18
 45
0.0
 46
0.0
 47
0.0
 48
0.0
140
0.18
141
0.09
142
0.0
143
25.4
144
1.0
145
0.0
146
1.0
147
0.09
 71
     0
 72
     0
 73
     1
 74
     1
 75
     0
 76
     0
 77
     0
 78
     0
170
     0
171
     2
172
     0
173
     0
174
     0
175
     0
176
     0
177
     0
178
     0
270
     2
271
     4
272
     4
273
     2
274
     2
340
11
275
     0
280
     0
281
     0
282
     0
283
     1
284
     0
285
     0
286
     0
287
     3
288
     0
  0
ENDTAB
  0
TABLE
  2
BLOCK_RECORD
  5
1
330
0
100
AcDbSymbolTable
 70
     0
  0
BLOCK_RECORD
  5
1E
102
{ACAD_XDICTIONARY
360
35A1
102
}
330
1
100
AcDbSymbolTableRecord
100
AcDbBlockTableRecord
  2
*MODEL_SPACE
  0
BLOCK_RECORD
  5
1A
102
{ACAD_XDICTIONARY
360
359F
102
}
330
1
100
AcDbSymbolTableRecord
100
AcDbBlockTableRecord
  2
*PAPER_SPACE
  0
ENDTAB
  0
ENDSEC
  0
SECTION
  2
BLOCKS
  0
BLOCK
  5
13B
330
1E
100
AcDbEntity
  8
0
100
AcDbBlockBegin
  2
*MODEL_SPACE
 70
     0
 10
0.0
 20
0.0
 30
0.0
  3
*MODEL_SPACE
  1

  0
ENDBLK
  5
13C
330
1E
100
AcDbEntity
  8
0
100
AcDbBlockEnd
  0
BLOCK
  5
139
330
1A
100
AcDbEntity
 67
     1
  8
0
100
AcDbBlockBegin
  2
*PAPER_SPACE
 70
     0
 10
0.0
 20
0.0
 30
0.0
  3
*PAPER_SPACE
  1

  0
ENDBLK
  5
13A
330
1A
100
AcDbEntity
 67
     1
  8
0
100
AcDbBlockEnd
  0
ENDSEC
  0
SECTION
  2
ENTITIES
  0
LINE
  5
1DE3
330
1E
100
AcDbEntity
  8
3
100
AcDbLine
 10
2.110948228597528
 20
15.77615968945236
 30
0.0
 11
2.110948228597528
 21
15.75253764220826
 31
0.0
  0
LINE
  5
1DE4
330
1E
100
AcDbEntity
  8
3
100
AcDbLine
 10
2.110948228597528
 20
15.24860063433425
 30
0.0
 11
2.110948228597528
 21
15.23285260283818
 31
0.0
  0
LINE
  5
1DE5
330
1E
100
AcDbEntity
  8
3
100
AcDbLine
 10
2.110948228597528
 20
14.72104157921614
 30
0.0
 11
2.110948228597528
 21
14.70529354772008
 31
0.0
  0
LINE
  5
1DE6
330
1E
100
AcDbEntity
  8
3
100
AcDbLine
 10
2.110948228597528
 20
14.19348252409802
 30
0.0
 11
2.110948228597528
 21
14.17773449260196
 31
0.0
  0
LINE
  5
1DE7
330
1E
100
AcDbEntity
  8
3
100
AcDbLine
 10
2.236932480566032
 20
14.17773449260196
 30
0.0
 11
2.236932480566032
 21
14.19348252409802
 31
0.0
  0
LINE
  5
1DE8
330
1E
100
AcDbEntity
  8
3
100
AcDbLine
 10
2.236932480566032
 20
14.70529354772008
 30
0.0
 11
2.236932480566032
 21
14.72104157921614
 31
0.0
  0
LINE
  5
1DE9
330
1E
100
AcDbEntity
  8
3
100
AcDbLine
 10
2.236932480566032
 20
15.23285260283818
 30
0.0
 11
2.236932480566032
 21
15.24860063433425
 31
0.0
  0
LINE
  5
1DEA
330
1E
100
AcDbEntity
  8
3
100
AcDbLine
 10
2.236932480566032
 20
15.75253764220826
 30
0.0
 11
2.236932480566032
 21
15.77615968945236
 31
0.0
  0
LINE
  5
1DEB
330
1E
100
AcDbEntity
  8
3
100
AcDbLine
 10
2.040082086865245
 20
14.70529354772008
 30
0.0
 11
2.040082086865245
 21
14.19348252409802
 31
0.0
  0
LINE
  5
1DEC
330
1E
100
AcDbEntity
  8
3
100
AcDbLine
 10
2.040082086865245
 20
15.75253764220826
 30
0.0
 11
2.040082086865245
 21
15.24860063433425
 31
0.0
  0
LINE
  5
1DED
330
1E
100
AcDbEntity
  8
3
100
AcDbLine
 10
2.040082086865245
 20
15.23285260283818
 30
0.0
 11
2.040082086865245
 21
14.72104157921614
 31
0.0
  0
LINE
  5
1DEE
330
1E
100
AcDbEntity
  8
3
100
AcDbLine
 10
2.040082086865245
 20
14.17773449260196
 30
0.0
 11
2.040082086865245
 21
13.66592346897992
 31
0.0
  0
LINE
  5
1DEF
330
1E
100
AcDbEntity
  8
3
100
AcDbLine
 10
2.040082086865245
 20
16.28009669732638
 30
0.0
 11
2.040082086865245
 21
15.77615968945236
 31
0.0
  0
LINE
  5
1E0E
330
1E
100
AcDbEntity
  8
3
100
AcDbLine
 10
16.02433405536918
 20
14.79190772094842
 30
0.0
 11
16.02433405536918
 21
13.28797071307441
 31
0.0
  0
LINE
  5
1E0F
330
1E
100
AcDbEntity
  8
3
100
AcDbLine
 10
8.520397047495166
 20
14.79190772094842
 30
0.0
 11
6.024334055369182
 21
14.79190772094842
 31
0.0
  0
LINE
  5
1E10
330
1E
100
AcDbEntity
  8
3
100
AcDbLine
 10
18.52039704749516
 20
14.79190772094842
 30
0.0
 11
16.02433405536918
 21
14.79190772094842
 31
0.0
  0
LINE
  5
1E11
330
1E
100
AcDbEntity
  8
3
100
AcDbLine
 10
8.520397047495166
 20
13.28797071307441
 30
0.0
 11
8.520397047495166
 21
14.79190772094842
 31
0.0
  0
LINE
  5
1E12
330
1E
100
AcDbEntity
  8
3
100
AcDbLine
 10
18.52039704749516
 20
13.28797071307441
 30
0.0
 11
18.52039704749516
 21
14.79190772094842
 31
0.0
  0
LINE
  5
1E13
330
1E
100
AcDbEntity
  8
3
100
AcDbLine
 10
6.024334055369182
 20
13.28797071307441
 30
0.0
 11
8.520397047495166
 21
13.28797071307441
 31
0.0
  0
LINE
  5
1E14
330
1E
100
AcDbEntity
  8
3
100
AcDbLine
 10
16.02433405536918
 20
13.28797071307441
 30
0.0
 11
18.52039704749516
 21
13.28797071307441
 31
0.0
  0
LINE
  5
1E15
330
1E
100
AcDbEntity
  8
3
100
AcDbLine
 10
6.024334055369182
 20
14.79190772094842
 30
0.0
 11
6.024334055369182
 21
13.28797071307441
 31
0.0
  0
LINE
  5
1E16
330
1E
100
AcDbEntity
  8
3
100
AcDbLine
 10
18.2054364175739
 20
15.72891559496417
 30
0.0
 11
16.33929468529044
 21
15.72891559496417
 31
0.0
  0
LINE
  5
1E17
330
1E
100
AcDbEntity
  8
3
100
AcDbLine
 10
16.81960964592036
 20
16.22497858709015
 30
0.0
 11
16.81960964592036
 21
15.72891559496417
 31
0.0
  0
LINE
  5
1E18
330
1E
100
AcDbEntity
  8
3
100
AcDbLine
 10
18.2054364175739
 20
16.22497858709015
 30
0.0
 11
16.33929468529044
 21
16.22497858709015
 31
0.0
  0
LINE
  5
1E19
330
1E
100
AcDbEntity
  8
3
100
AcDbLine
 10
18.2054364175739
 20
16.22497858709015
 30
0.0
 11
18.2054364175739
 21
15.72891559496417
 31
0.0
  0
LINE
  5
1E1A
330
1E
100
AcDbEntity
  8
3
100
AcDbLine
 10
16.33929468529044
 20
15.72891559496417
 30
0.0
 11
16.33929468529044
 21
16.22497858709015
 31
0.0
  0
LINE
  5
1E6B
330
1E
100
AcDbEntity
  8
3
100
AcDbLine
 10
17.39441279552666
 20
16.05175024063346
 30
0.0
 11
17.30779862229831
 21
16.05175024063346
 31
0.0
  0
ARC
  5
1EC3
330
1E
100
AcDbEntity
  8
3
100
AcDbCircle
 10
16.5787959976264
 20
16.03140903328438
 30
0.0
 40
0.1037700148447341
100
AcDbArc
 50
199.5773652935315
 51
299.9645414289857
  0
LINE
  5
1EDE
330
1E
100
AcDbEntity
  8
3
100
AcDbLine
 10
17.60701122072351
 20
16.00450614614527
 30
0.0
 11
17.59126318922745
 21
16.00450614614527
 31
0.0
  0
LINE
  5
1F07
330
1E
100
AcDbEntity
  8
3
100
AcDbLine
 10
16.59913720497548
 20
15.93364000441298
 30
0.0
 11
16.62275925221957
 21
15.95726205165709
 31
0.0
  0
ARC
  5
1F50
330
1E
100
AcDbEntity
  8
3
100
AcDbCircle
 10
16.68055452781012
 20
16.03458488630274
 30
0.0
 40
0.1200336820070478
100
AcDbArc
 50
319.8907043654953
 51
59.8345453264452
  0
ARC
  5
1FAD
330
1E
100
AcDbEntity
  8
3
100
AcDbCircle
 10
16.45259302299822
 20
16.03556476381807
 30
0.0
 40
0.1596825218586543
100
AcDbArc
 50
29.72491485311499
 51
23.40429748363058
  0
ARC
  5
1FC7
330
1E
100
AcDbEntity
  8
3
100
AcDbCircle
 10
16.58402417474942
 20
16.03689121091541
 30
0.0
 40
0.095022163766199
100
AcDbArc
 50
8.996362418729857
 51
99.92645732871075
  0
ARC
  5
1FDD
330
1E
100
AcDbEntity
  8
3
100
AcDbCircle
 10
16.58732618135343
 20
16.03993921701142
 30
0.0
 40
0.114782517615065
100
AcDbArc
 50
174.0909425250973
 51
247.8294994934634
  0
LINE
  5
203A
330
1E
100
AcDbEntity
  8
3
100
AcDbLine
 10
18.2054364175739
 20
16.22497858709015
 30
0.0
 11
16.33929468529044
 21
16.22497858709015
 31
0.0
  0
LINE
  5
2048
330
1E
100
AcDbEntity
  8
3
100
AcDbLine
 10
16.33929468529044
 20
15.72891559496417
 30
0.0
 11
16.3550427167865
 21
15.74466362646023
 31
0.0
  0
LINE
  5
2049
330
1E
100
AcDbEntity
  8
3
100
AcDbLine
 10
18.18968838607784
 20
15.74466362646023
 30
0.0
 11
18.2054364175739
 21
15.72891559496417
 31
0.0
  0
LINE
  5
204A
330
1E
100
AcDbEntity
  8
3
100
AcDbLine
 10
18.18968838607784
 20
16.2092305555941
 30
0.0
 11
18.2054364175739
 21
16.22497858709015
 31
0.0
  0
LINE
  5
204B
330
1E
100
AcDbEntity
  8
3
100
AcDbLine
 10
16.33929468529044
 20
16.22497858709015
 30
0.0
 11
16.3550427167865
 21
16.2092305555941
 31
0.0
  0
LINE
  5
21B7
330
1E
100
AcDbEntity
  8
3
100
AcDbLine
 10
3.244806496314064
 20
13.47694709102716
 30
0.0
 11
3.213310433321938
 21
13.54781323275944
 31
0.0
  0
LINE
  5
21CC
330
1E
100
AcDbEntity
  8
3
100
AcDbLine
 10
3.260554527810127
 20
13.39033291779882
 30
0.0
 11
3.292050590802253
 21
13.47694709102716
 31
0.0
  0
LINE
  5
21CD
330
1E
100
AcDbEntity
  8
3
100
AcDbLine
 10
17.37079074828256
 20
15.09899433512165
 30
0.0
 11
17.17394035458178
 21
15.09899433512165
 31
0.0
  0
LINE
  5
21CE
330
1E
100
AcDbEntity
  8
3
100
AcDbLine
 10
17.37079074828256
 20
14.84702583118465
 30
0.0
 11
17.17394035458178
 21
14.84702583118465
 31
0.0
  0
LINE
  5
21CF
330
1E
100
AcDbEntity
  8
3
100
AcDbLine
 10
17.37079074828256
 20
14.84702583118465
 30
0.0
 11
17.37079074828256
 21
15.09899433512165
 31
0.0
  0
LINE
  5
21D0
330
1E
100
AcDbEntity
  8
3
100
AcDbLine
 10
17.17394035458178
 20
15.09899433512165
 30
0.0
 11
17.17394035458178
 21
14.84702583118465
 31
0.0
  0
LINE
  5
21D1
330
1E
100
AcDbEntity
  8
3
100
AcDbLine
 10
7.370790748282569
 20
15.09899433512165
 30
0.0
 11
7.17394035458178
 21
15.09899433512165
 31
0.0
  0
LINE
  5
21D2
330
1E
100
AcDbEntity
  8
3
100
AcDbLine
 10
7.370790748282569
 20
14.84702583118465
 30
0.0
 11
7.17394035458178
 21
14.84702583118465
 31
0.0
  0
LINE
  5
21D3
330
1E
100
AcDbEntity
  8
3
100
AcDbLine
 10
7.370790748282569
 20
14.84702583118465
 30
0.0
 11
7.370790748282569
 21
15.09899433512165
 31
0.0
  0
LINE
  5
21D4
330
1E
100
AcDbEntity
  8
3
100
AcDbLine
 10
7.17394035458178
 20
15.09899433512165
 30
0.0
 11
7.17394035458178
 21
14.84702583118465
 31
0.0
  0
LINE
  5
21D5
330
1E
100
AcDbEntity
  8
3
100
AcDbLine
 10
20.13457027584162
 20
15.2092305555941
 30
0.0
 11
20.13457027584162
 21
15.47694709102716
 31
0.0
  0
LINE
  5
21D6
330
1E
100
AcDbEntity
  8
3
100
AcDbLine
 10
20.41803484277076
 20
14.47694709102716
 30
0.0
 11
20.41803484277076
 21
14.7367896107122
 31
0.0
  0
LINE
  5
21D7
330
1E
100
AcDbEntity
  8
3
100
AcDbLine
 10
4.134570275841623
 20
15.2092305555941
 30
0.0
 11
4.134570275841623
 21
15.47694709102716
 31
0.0
  0
LINE
  5
21D8
330
1E
100
AcDbEntity
  8
3
100
AcDbLine
 10
4.418034842770756
 20
14.47694709102716
 30
0.0
 11
4.418034842770756
 21
14.7367896107122
 31
0.0
  0
LINE
  5
21D9
330
1E
100
AcDbEntity
  8
3
100
AcDbLine
 10
16.47315295300697
 20
15.09899433512165
 30
0.0
 11
16.47315295300697
 21
14.84702583118465
 31
0.0
  0
LINE
  5
21DA
330
1E
100
AcDbEntity
  8
3
100
AcDbLine
 10
18.07157814985737
 20
15.09899433512165
 30
0.0
 11
18.07157814985737
 21
14.84702583118465
 31
0.0
  0
LINE
  5
21DB
330
1E
100
AcDbEntity
  8
3
100
AcDbLine
 10
20.42590885851879
 20
14.76041165795629
 30
0.0
 11
20.52039704749516
 21
14.88639590992479
 31
0.0
  0
LINE
  5
21E6
330
1E
100
AcDbEntity
  8
3
100
AcDbLine
 10
20.13457027584162
 20
14.47694709102716
 30
0.0
 11
20.41803484277076
 21
14.47694709102716
 31
0.0
  0
LINE
  5
21E7
330
1E
100
AcDbEntity
  8
3
100
AcDbLine
 10
20.13457027584162
 20
14.47694709102716
 30
0.0
 11
20.13457027584162
 21
14.7367896107122
 31
0.0
  0
LINE
  5
21F8
330
1E
100
AcDbEntity
  8
3
100
AcDbLine
 10
20.13457027584162
 20
15.47694709102716
 30
0.0
 11
20.41803484277076
 21
15.47694709102716
 31
0.0
  0
LINE
  5
21F9
330
1E
100
AcDbEntity
  8
3
100
AcDbLine
 10
20.41803484277076
 20
15.2092305555941
 30
0.0
 11
20.41803484277076
 21
15.47694709102716
 31
0.0
  0
LINE
  5
21FF
330
1E
100
AcDbEntity
  8
3
100
AcDbLine
 10
4.418034842770756
 20
15.2092305555941
 30
0.0
 11
4.418034842770756
 21
15.47694709102716
 31
0.0
  0
LINE
  5
2210
330
1E
100
AcDbEntity
  8
3
100
AcDbLine
 10
4.134570275841623
 20
14.47694709102716
 30
0.0
 11
4.418034842770756
 21
14.47694709102716
 31
0.0
  0
LINE
  5
2211
330
1E
100
AcDbEntity
  8
3
100
AcDbLine
 10
4.134570275841623
 20
14.47694709102716
 30
0.0
 11
4.134570275841623
 21
14.7367896107122
 31
0.0
  0
LINE
  5
2222
330
1E
100
AcDbEntity
  8
3
100
AcDbLine
 10
4.134570275841623
 20
15.47694709102716
 30
0.0
 11
4.418034842770756
 21
15.47694709102716
 31
0.0
  0
LINE
  5
2223
330
1E
100
AcDbEntity
  8
3
100
AcDbLine
 10
6.473152953006978
 20
15.09899433512165
 30
0.0
 11
6.473152953006978
 21
14.84702583118465
 31
0.0
  0
LINE
  5
2224
330
1E
100
AcDbEntity
  8
3
100
AcDbLine
 10
8.071578149857373
 20
15.09899433512165
 30
0.0
 11
8.071578149857373
 21
14.84702583118465
 31
0.0
  0
LINE
  5
2225
330
1E
100
AcDbEntity
  8
3
100
AcDbLine
 10
21.19756240182587
 20
15.87852189417676
 30
0.0
 11
21.18968838607784
 21
15.84702583118464
 31
0.0
  0
LINE
  5
2226
330
1E
100
AcDbEntity
  8
3
100
AcDbLine
 10
21.18968838607784
 20
15.84702583118464
 30
0.0
 11
21.19756240182587
 21
15.81552976819251
 31
0.0
  0
LINE
  5
222C
330
1E
100
AcDbEntity
  8
3
100
AcDbLine
 10
10.27630255930619
 20
15.97301008315315
 30
0.0
 11
14.27630255930619
 21
15.97301008315315
 31
0.0
  0
LINE
  5
223F
330
1E
100
AcDbEntity
  8
3
100
AcDbLine
 10
10.27630255930619
 20
13.97301008315315
 30
0.0
 11
14.27630255930619
 21
13.97301008315315
 31
0.0
  0
LINE
  5
224E
330
1E
100
AcDbEntity
  8
3
100
AcDbLine
 10
10.01646003962115
 20
14.00450614614527
 30
0.0
 11
10.27630255930619
 21
13.97301008315315
 31
0.0
  0
LINE
  5
224F
330
1E
100
AcDbEntity
  8
3
100
AcDbLine
 10
22.07157814985737
 20
13.22497858709016
 30
0.0
 11
2.473152953006978
 21
13.22497858709016
 31
0.0
  0
LINE
  5
2250
330
1E
100
AcDbEntity
  8
3
100
AcDbLine
 10
22.07157814985737
 20
13.22497858709016
 30
0.0
 11
22.07157814985737
 21
13.24860063433424
 31
0.0
  0
LINE
  5
2251
330
1E
100
AcDbEntity
  8
3
100
AcDbLine
 10
22.07157814985737
 20
16.69741953197204
 30
0.0
 11
22.07157814985737
 21
16.72891559496417
 31
0.0
  0
LINE
  5
2252
330
1E
100
AcDbEntity
  8
3
100
AcDbLine
 10
2.473152953006978
 20
16.72891559496417
 30
0.0
 11
22.07157814985737
 21
16.72891559496417
 31
0.0
  0
LINE
  5
2253
330
1E
100
AcDbEntity
  8
3
100
AcDbLine
 10
2.473152953006978
 20
16.72891559496417
 30
0.0
 11
2.473152953006978
 21
16.69741953197204
 31
0.0
  0
LINE
  5
2254
330
1E
100
AcDbEntity
  8
3
100
AcDbLine
 10
2.473152953006978
 20
13.24860063433424
 30
0.0
 11
2.473152953006978
 21
13.22497858709016
 31
0.0
  0
LINE
  5
226B
330
1E
100
AcDbEntity
  8
3
100
AcDbLine
 10
22.13457027584162
 20
16.72891559496417
 30
0.0
 11
22.24480649631406
 21
16.72891559496417
 31
0.0
  0
LINE
  5
2277
330
1E
100
AcDbEntity
  8
3
100
AcDbLine
 10
22.24480649631406
 20
13.24860063433424
 30
0.0
 11
22.24480649631406
 21
13.23285260283818
 31
0.0
  0
LINE
  5
2278
330
1E
100
AcDbEntity
  8
3
100
AcDbLine
 10
22.24480649631406
 20
13.23285260283818
 30
0.0
 11
22.24480649631406
 21
13.22497858709016
 31
0.0
  0
LINE
  5
2288
330
1E
100
AcDbEntity
  8
3
100
AcDbLine
 10
2.339294685290441
 20
16.66592346897992
 30
0.0
 11
2.299924606550284
 21
16.66592346897992
 31
0.0
  0
LINE
  5
2289
330
1E
100
AcDbEntity
  8
3
100
AcDbLine
 10
2.299924606550284
 20
13.28797071307441
 30
0.0
 11
2.339294685290441
 21
13.28797071307441
 31
0.0
  0
LINE
  5
229F
330
1E
100
AcDbEntity
  8
3
100
AcDbLine
 10
8.032208071117214
 20
14.84702583118465
 30
0.0
 11
7.795987598676269
 21
14.84702583118465
 31
0.0
  0
LINE
  5
22AF
330
1E
100
AcDbEntity
  8
3
100
AcDbLine
 10
7.677877362455795
 20
15.09899433512165
 30
0.0
 11
7.677877362455795
 21
14.84702583118465
 31
0.0
  0
LINE
  5
22B0
330
1E
100
AcDbEntity
  8
3
100
AcDbLine
 10
7.677877362455795
 20
15.09899433512165
 30
0.0
 11
7.370790748282569
 21
15.09899433512165
 31
0.0
  0
LINE
  5
22B1
330
1E
100
AcDbEntity
  8
3
100
AcDbLine
 10
7.677877362455795
 20
14.84702583118465
 30
0.0
 11
7.370790748282569
 21
14.84702583118465
 31
0.0
  0
LINE
  5
22CD
330
1E
100
AcDbEntity
  8
3
100
AcDbLine
 10
6.874727756156584
 20
14.84702583118465
 30
0.0
 11
6.874727756156584
 21
15.09899433512165
 31
0.0
  0
LINE
  5
22CE
330
1E
100
AcDbEntity
  8
3
100
AcDbLine
 10
6.874727756156584
 20
14.84702583118465
 30
0.0
 11
7.17394035458178
 21
14.84702583118465
 31
0.0
  0
LINE
  5
22CF
330
1E
100
AcDbEntity
  8
3
100
AcDbLine
 10
6.874727756156584
 20
15.09899433512165
 30
0.0
 11
7.17394035458178
 21
15.09899433512165
 31
0.0
  0
LINE
  5
22EB
330
1E
100
AcDbEntity
  8
3
100
AcDbLine
 10
17.67787736245579
 20
15.09899433512165
 30
0.0
 11
17.67787736245579
 21
14.84702583118465
 31
0.0
  0
LINE
  5
22EC
330
1E
100
AcDbEntity
  8
3
100
AcDbLine
 10
17.67787736245579
 20
15.09899433512165
 30
0.0
 11
17.37079074828256
 21
15.09899433512165
 31
0.0
  0
LINE
  5
22ED
330
1E
100
AcDbEntity
  8
3
100
AcDbLine
 10
17.67787736245579
 20
14.84702583118465
 30
0.0
 11
17.37079074828256
 21
14.84702583118465
 31
0.0
  0
LINE
  5
230C
330
1E
100
AcDbEntity
  8
3
100
AcDbLine
 10
16.87472775615658
 20
14.84702583118465
 30
0.0
 11
16.87472775615658
 21
15.09899433512165
 31
0.0
  0
LINE
  5
230D
330
1E
100
AcDbEntity
  8
3
100
AcDbLine
 10
16.87472775615658
 20
14.84702583118465
 30
0.0
 11
17.17394035458178
 21
14.84702583118465
 31
0.0
  0
LINE
  5
230E
330
1E
100
AcDbEntity
  8
3
100
AcDbLine
 10
16.87472775615658
 20
15.09899433512165
 30
0.0
 11
17.17394035458178
 21
15.09899433512165
 31
0.0
  0
LINE
  5
231A
330
1E
100
AcDbEntity
  8
3
100
AcDbLine
 10
21.36291673253453
 20
16.5635612642555
 30
0.0
 11
21.33142066954241
 21
16.47694709102716
 31
0.0
  0
LINE
  5
235D
330
1E
100
AcDbEntity
  8
3
100
AcDbLine
 10
22.18181437032981
 20
13.24860063433424
 30
0.0
 11
21.18181437032981
 21
13.24860063433424
 31
0.0
  0
LINE
  5
235E
330
1E
100
AcDbEntity
  8
3
100
AcDbLine
 10
22.18181437032981
 20
13.24860063433424
 30
0.0
 11
22.18181437032981
 21
16.69741953197204
 31
0.0
  0
LINE
  5
235F
330
1E
100
AcDbEntity
  8
3
100
AcDbLine
 10
21.18181437032981
 20
16.69741953197204
 30
0.0
 11
22.18181437032981
 21
16.69741953197204
 31
0.0
  0
LINE
  5
2360
330
1E
100
AcDbEntity
  8
3
100
AcDbLine
 10
21.18181437032981
 20
13.24860063433424
 30
0.0
 11
21.18181437032981
 21
16.69741953197204
 31
0.0
  0
LINE
  5
236C
330
1E
100
AcDbEntity
  8
3
100
AcDbLine
 10
2.299924606550284
 20
13.24860063433424
 30
0.0
 11
2.284176575054221
 21
13.24860063433424
 31
0.0
  0
LINE
  5
236D
330
1E
100
AcDbEntity
  8
3
100
AcDbLine
 10
2.27630255930619
 20
13.24860063433424
 30
0.0
 11
2.268428543558158
 21
13.24860063433424
 31
0.0
  0
LINE
  5
236E
330
1E
100
AcDbEntity
  8
3
100
AcDbLine
 10
2.260554527810127
 20
13.24860063433424
 30
0.0
 11
2.236932480566032
 21
13.24860063433424
 31
0.0
  0
LINE
  5
236F
330
1E
100
AcDbEntity
  8
3
100
AcDbLine
 10
2.236932480566032
 20
15.23285260283818
 30
0.0
 11
2.236932480566032
 21
15.24860063433425
 31
0.0
  0
LINE
  5
2370
330
1E
100
AcDbEntity
  8
3
100
AcDbLine
 10
2.236932480566032
 20
15.75253764220826
 30
0.0
 11
2.236932480566032
 21
15.77615968945236
 31
0.0
  0
LINE
  5
2371
330
1E
100
AcDbEntity
  8
3
100
AcDbLine
 10
2.299924606550284
 20
15.77615968945236
 30
0.0
 11
2.299924606550284
 21
15.75253764220826
 31
0.0
  0
LINE
  5
2372
330
1E
100
AcDbEntity
  8
3
100
AcDbLine
 10
2.299924606550284
 20
15.24860063433425
 30
0.0
 11
2.299924606550284
 21
15.23285260283818
 31
0.0
  0
LINE
  5
2373
330
1E
100
AcDbEntity
  8
3
100
AcDbLine
 10
2.236932480566032
 20
14.17773449260196
 30
0.0
 11
2.236932480566032
 21
14.19348252409802
 31
0.0
  0
LINE
  5
2374
330
1E
100
AcDbEntity
  8
3
100
AcDbLine
 10
2.236932480566032
 20
14.70529354772008
 30
0.0
 11
2.236932480566032
 21
14.72104157921614
 31
0.0
  0
LINE
  5
2375
330
1E
100
AcDbEntity
  8
3
100
AcDbLine
 10
2.299924606550284
 20
14.72104157921614
 30
0.0
 11
2.299924606550284
 21
14.70529354772008
 31
0.0
  0
LINE
  5
2376
330
1E
100
AcDbEntity
  8
3
100
AcDbLine
 10
2.299924606550284
 20
14.19348252409802
 30
0.0
 11
2.299924606550284
 21
14.17773449260196
 31
0.0
  0
LINE
  5
2377
330
1E
100
AcDbEntity
  8
3
100
AcDbLine
 10
2.299924606550284
 20
13.66592346897992
 30
0.0
 11
2.299924606550284
 21
13.24860063433424
 31
0.0
  0
LINE
  5
2378
330
1E
100
AcDbEntity
  8
3
100
AcDbLine
 10
2.236932480566032
 20
13.24860063433424
 30
0.0
 11
2.236932480566032
 21
13.66592346897992
 31
0.0
  0
LINE
  5
2379
330
1E
100
AcDbEntity
  8
3
100
AcDbLine
 10
2.299924606550284
 20
13.24860063433424
 30
0.0
 11
2.236932480566032
 21
13.24860063433424
 31
0.0
  0
LINE
  5
237A
330
1E
100
AcDbEntity
  8
3
100
AcDbLine
 10
2.236932480566032
 20
16.28009669732638
 30
0.0
 11
2.236932480566032
 21
16.69741953197204
 31
0.0
  0
LINE
  5
237B
330
1E
100
AcDbEntity
  8
3
100
AcDbLine
 10
2.299924606550284
 20
16.28009669732638
 30
0.0
 11
2.299924606550284
 21
15.77615968945236
 31
0.0
  0
LINE
  5
237C
330
1E
100
AcDbEntity
  8
3
100
AcDbLine
 10
2.299924606550284
 20
15.23285260283818
 30
0.0
 11
2.299924606550284
 21
14.72104157921614
 31
0.0
  0
LINE
  5
237D
330
1E
100
AcDbEntity
  8
3
100
AcDbLine
 10
2.299924606550284
 20
14.17773449260196
 30
0.0
 11
2.299924606550284
 21
13.66592346897992
 31
0.0
  0
LINE
  5
237E
330
1E
100
AcDbEntity
  8
3
100
AcDbLine
 10
2.299924606550284
 20
16.69741953197204
 30
0.0
 11
2.299924606550284
 21
16.28009669732638
 31
0.0
  0
LINE
  5
237F
330
1E
100
AcDbEntity
  8
3
100
AcDbLine
 10
2.236932480566032
 20
16.69741953197204
 30
0.0
 11
2.299924606550284
 21
16.69741953197204
 31
0.0
  0
LINE
  5
23AA
330
1E
100
AcDbEntity
  8
3
100
AcDbLine
 10
2.339294685290441
 20
15.75253764220826
 30
0.0
 11
2.339294685290441
 21
16.69741953197204
 31
0.0
  0
LINE
  5
23AB
330
1E
100
AcDbEntity
  8
3
100
AcDbLine
 10
2.339294685290441
 20
14.70529354772008
 30
0.0
 11
2.339294685290441
 21
15.24860063433425
 31
0.0
  0
LINE
  5
23E2
330
1E
100
AcDbEntity
  8
3
100
AcDbLine
 10
3.024334055369182
 20
14.09899433512165
 30
0.0
 11
3.055830118361308
 21
14.0123801618933
 31
0.0
  0
LINE
  5
23FD
330
1E
100
AcDbEntity
  8
3
100
AcDbLine
 10
2.339294685290441
 20
15.75253764220826
 30
0.0
 11
2.299924606550284
 21
15.75253764220826
 31
0.0
  0
LINE
  5
23FE
330
1E
100
AcDbEntity
  8
3
100
AcDbLine
 10
2.339294685290441
 20
15.24860063433425
 30
0.0
 11
2.299924606550284
 21
15.24860063433425
 31
0.0
  0
LINE
  5
23FF
330
1E
100
AcDbEntity
  8
3
100
AcDbLine
 10
2.339294685290441
 20
14.70529354772008
 30
0.0
 11
2.299924606550284
 21
14.70529354772008
 31
0.0
  0
LINE
  5
2400
330
1E
100
AcDbEntity
  8
3
100
AcDbLine
 10
2.339294685290441
 20
14.19348252409802
 30
0.0
 11
2.299924606550284
 21
14.19348252409802
 31
0.0
  0
LINE
  5
2401
330
1E
100
AcDbEntity
  8
3
100
AcDbLine
 10
2.339294685290441
 20
13.24860063433424
 30
0.0
 11
2.339294685290441
 21
14.19348252409802
 31
0.0
  0
LINE
  5
2402
330
1E
100
AcDbEntity
  8
3
100
AcDbLine
 10
3.433782874266821
 20
13.24860063433424
 30
0.0
 11
2.339294685290441
 21
13.24860063433424
 31
0.0
  0
LINE
  5
2403
330
1E
100
AcDbEntity
  8
3
100
AcDbLine
 10
3.433782874266821
 20
16.69741953197204
 30
0.0
 11
3.433782874266821
 21
13.24860063433424
 31
0.0
  0
LINE
  5
2404
330
1E
100
AcDbEntity
  8
3
100
AcDbLine
 10
2.339294685290441
 20
16.69741953197204
 30
0.0
 11
3.433782874266821
 21
16.69741953197204
 31
0.0
  0
LINE
  5
2416
330
1E
100
AcDbEntity
  8
3
100
AcDbLine
 10
2.299924606550284
 20
14.70529354772008
 30
0.0
 11
2.299924606550284
 21
14.19348252409802
 31
0.0
  0
LINE
  5
2425
330
1E
100
AcDbEntity
  8
3
100
AcDbLine
 10
2.299924606550284
 20
15.75253764220826
 30
0.0
 11
2.299924606550284
 21
15.24860063433425
 31
0.0
  0
LINE
  5
2426
330
1E
100
AcDbEntity
  8
3
100
AcDbLine
 10
3.339294685290441
 20
1.980884098901181
 30
0.0
 11
3.339294685290441
 21
2.091120319373626
 31
0.0
  0
LINE
  5
2427
330
1E
100
AcDbEntity
  8
3
100
AcDbLine
 10
2.969215945132962
 20
2.091120319373626
 30
0.0
 11
2.969215945132962
 21
1.980884098901181
 31
0.0
  0
LINE
  5
2428
330
1E
100
AcDbEntity
  8
3
100
AcDbLine
 10
2.740869488440049
 20
1.634427405987789
 30
0.0
 11
2.410160827022725
 21
1.634427405987789
 31
0.0
  0
LINE
  5
2429
330
1E
100
AcDbEntity
  8
3
100
AcDbLine
 10
2.410160827022725
 20
1.413954965042915
 30
0.0
 11
2.740869488440049
 21
1.413954965042915
 31
0.0
  0
LINE
  5
242A
330
1E
100
AcDbEntity
  8
3
100
AcDbLine
 10
21.6542553152117
 20
1.980884098901181
 30
0.0
 11
21.6542553152117
 21
2.091120319373626
 31
0.0
  0
LINE
  5
242B
330
1E
100
AcDbEntity
  8
3
100
AcDbLine
 10
21.27630255930619
 20
2.091120319373626
 30
0.0
 11
21.27630255930619
 21
1.980884098901181
 31
0.0
  0
LINE
  5
242C
330
1E
100
AcDbEntity
  8
3
100
AcDbLine
 10
21.81173563017233
 20
1.413954965042915
 30
0.0
 11
22.13457027584162
 21
1.413954965042915
 31
0.0
  0
LINE
  5
242D
330
1E
100
AcDbEntity
  8
3
100
AcDbLine
 10
22.13457027584162
 20
1.634427405987789
 30
0.0
 11
21.81173563017233
 21
1.634427405987789
 31
0.0
  0
LINE
  5
2442
330
1E
100
AcDbEntity
  8
3
100
AcDbLine
 10
8.520397047495166
 20
-13.34195054676811
 30
0.0
 11
6.024334055369182
 21
-13.34195054676811
 31
0.0
  0
LINE
  5
2443
330
1E
100
AcDbEntity
  8
3
100
AcDbLine
 10
18.52039704749516
 20
-13.34195054676811
 30
0.0
 11
16.02433405536918
 21
-13.34195054676811
 31
0.0
  0
LINE
  5
2444
330
1E
100
AcDbEntity
  8
3
100
AcDbLine
 10
6.024334055369182
 20
-13.34195054676811
 30
0.0
 11
8.520397047495166
 21
-13.34195054676811
 31
0.0
  0
LINE
  5
2445
330
1E
100
AcDbEntity
  8
3
100
AcDbLine
 10
16.02433405536918
 20
-13.34195054676811
 30
0.0
 11
18.52039704749516
 21
-13.34195054676811
 31
0.0
  0
LINE
  5
2446
330
1E
100
AcDbEntity
  8
3
100
AcDbLine
 10
22.38653877977863
 20
1.343088823310633
 30
0.0
 11
22.42590885851878
 21
1.366710870554722
 31
0.0
  0
LINE
  5
2447
330
1E
100
AcDbEntity
  8
3
100
AcDbLine
 10
22.42590885851878
 20
1.366710870554722
 30
0.0
 11
22.45740492151091
 21
1.398206933546855
 31
0.0
  0
LINE
  5
244D
330
1E
100
AcDbEntity
  8
3
100
AcDbLine
 10
22.39441279552666
 20
1.343088823310633
 30
0.0
 11
22.39441279552666
 21
1.335214807562604
 31
0.0
  0
LINE
  5
244E
330
1E
100
AcDbEntity
  8
3
100
AcDbLine
 10
22.39441279552666
 20
1.713167563468115
 30
0.0
 11
22.39441279552666
 21
1.705293547720085
 31
0.0
  0
LINE
  5
246E
330
1E
100
AcDbEntity
  8
3
100
AcDbLine
 10
2.158192323085717
 20
1.335214807562604
 30
0.0
 11
2.158192323085717
 21
1.343088823310633
 31
0.0
  0
LINE
  5
246F
330
1E
100
AcDbEntity
  8
3
100
AcDbLine
 10
2.158192323085717
 20
1.705293547720085
 30
0.0
 11
2.158192323085717
 21
1.713167563468115
 31
0.0
  0
LINE
  5
2475
330
1E
100
AcDbEntity
  8
3
100
AcDbLine
 10
2.087326181353434
 20
1.579309295751581
 30
0.0
 11
2.087326181353434
 21
1.650175437483863
 31
0.0
  0
LINE
  5
2485
330
1E
100
AcDbEntity
  8
3
100
AcDbLine
 10
21.83535767741642
 20
-0.78289542865787
 30
0.0
 11
21.83535767741642
 21
-0.5860450349570847
 31
0.0
  0
LINE
  5
2486
330
1E
100
AcDbEntity
  8
3
100
AcDbLine
 10
21.83535767741642
 20
-0.78289542865787
 30
0.0
 11
21.94559389788886
 21
-0.78289542865787
 31
0.0
  0
LINE
  5
248C
330
1E
100
AcDbEntity
  8
3
100
AcDbLine
 10
21.83535767741642
 20
-10.78289542865787
 30
0.0
 11
21.83535767741642
 21
-10.58604503495708
 31
0.0
  0
LINE
  5
2493
330
1E
100
AcDbEntity
  8
3
100
AcDbLine
 10
17.37079074828256
 20
-13.14510015306732
 30
0.0
 11
17.17394035458178
 21
-13.14510015306732
 31
0.0
  0
LINE
  5
2499
330
1E
100
AcDbEntity
  8
3
100
AcDbLine
 10
17.17394035458178
 20
-13.04273794834291
 30
0.0
 11
17.17394035458178
 21
-13.14510015306732
 31
0.0
  0
LINE
  5
249A
330
1E
100
AcDbEntity
  8
3
100
AcDbLine
 10
7.370790748282569
 20
-13.14510015306732
 30
0.0
 11
7.17394035458178
 21
-13.14510015306732
 31
0.0
  0
LINE
  5
24A1
330
1E
100
AcDbEntity
  8
3
100
AcDbLine
 10
2.433782874266821
 20
0.0832463036255966
 30
0.0
 11
2.42590885851879
 21
0.0832463036255966
 31
0.0
  0
LINE
  5
24A2
330
1E
100
AcDbEntity
  8
3
100
AcDbLine
 10
2.42590885851879
 20
0.0832463036255966
 30
0.0
 11
2.433782874266821
 21
0.0753722878775669
 31
0.0
  0
LINE
  5
24A3
330
1E
100
AcDbEntity
  8
3
100
AcDbLine
 10
2.410160827022725
 20
0.0517502406334636
 30
0.0
 11
2.433782874266821
 21
0.0753722878775669
 31
0.0
  0
LINE
  5
24A4
330
1E
100
AcDbEntity
  8
3
100
AcDbLine
 10
2.591263189227451
 20
-0.223840310547633
 30
0.0
 11
2.410160827022725
 21
-0.050611964090951
 31
0.0
  0
LINE
  5
24A5
330
1E
100
AcDbEntity
  8
3
100
AcDbLine
 10
2.662129330959734
 20
-0.1529741688153514
 30
0.0
 11
2.591263189227451
 21
-0.223840310547633
 31
0.0
  0
LINE
  5
24A6
330
1E
100
AcDbEntity
  8
3
100
AcDbLine
 10
2.662129330959734
 20
-0.1529741688153514
 30
0.0
 11
2.433782874266821
 21
0.0832463036255966
 31
0.0
  0
LINE
  5
24A7
330
1E
100
AcDbEntity
  8
3
100
AcDbLine
 10
2.433782874266821
 20
-9.916753696374406
 30
0.0
 11
2.42590885851879
 21
-9.916753696374406
 31
0.0
  0
LINE
  5
24A8
330
1E
100
AcDbEntity
  8
3
100
AcDbLine
 10
2.42590885851879
 20
-9.916753696374406
 30
0.0
 11
2.433782874266821
 21
-9.92462771212244
 31
0.0
  0
LINE
  5
24A9
330
1E
100
AcDbEntity
  8
3
100
AcDbLine
 10
2.410160827022725
 20
-9.948249759366532
 30
0.0
 11
2.433782874266821
 21
-9.92462771212244
 31
0.0
  0
LINE
  5
24AA
330
1E
100
AcDbEntity
  8
3
100
AcDbLine
 10
2.591263189227451
 20
-10.22384031054763
 30
0.0
 11
2.410160827022725
 21
-10.05061196409094
 31
0.0
  0
LINE
  5
24AB
330
1E
100
AcDbEntity
  8
3
100
AcDbLine
 10
2.662129330959734
 20
-10.15297416881535
 30
0.0
 11
2.591263189227451
 21
-10.22384031054763
 31
0.0
  0
LINE
  5
24AC
330
1E
100
AcDbEntity
  8
3
100
AcDbLine
 10
2.662129330959734
 20
-10.15297416881535
 30
0.0
 11
2.433782874266821
 21
-9.916753696374406
 31
0.0
  0
LINE
  5
24AD
330
1E
100
AcDbEntity
  8
3
100
AcDbLine
 10
22.07157814985737
 20
-13.34195054676811
 30
0.0
 11
2.473152953006978
 21
-13.34195054676811
 31
0.0
  0
LINE
  5
24B3
330
1E
100
AcDbEntity
  8
3
100
AcDbLine
 10
22.13457027584162
 20
-13.27895842078385
 30
0.0
 11
22.13457027584162
 21
1.9100179571689
 31
0.0
  0
LINE
  5
24C3
330
1E
100
AcDbEntity
  8
3
100
AcDbLine
 10
2.299924606550284
 20
-13.27895842078385
 30
0.0
 11
2.299924606550284
 21
1.9100179571689
 31
0.0
  0
LINE
  5
24C9
330
1E
100
AcDbEntity
  8
3
100
AcDbLine
 10
2.473152953006978
 20
-13.45218676724055
 30
0.0
 11
22.07157814985737
 21
-13.45218676724055
 31
0.0
  0
LINE
  5
24DE
330
1E
100
AcDbEntity
  8
3
100
AcDbLine
 10
2.299924606550284
 20
1.973010083153152
 30
0.0
 11
2.410160827022725
 21
1.973010083153152
 31
0.0
  0
LINE
  5
24E5
330
1E
100
AcDbEntity
  8
3
100
AcDbLine
 10
2.433782874266821
 20
-11.44431275149251
 30
0.0
 11
2.410160827022725
 21
-11.42069070424842
 31
0.0
  0
LINE
  5
24EB
330
1E
100
AcDbEntity
  8
3
100
AcDbLine
 10
2.410160827022725
 20
-11.30258046802795
 30
0.0
 11
2.591263189227451
 21
-11.12935212157125
 31
0.0
  0
LINE
  5
24F6
330
1E
100
AcDbEntity
  8
3
100
AcDbLine
 10
2.717247441195954
 20
-11.0899820428311
 30
0.0
 11
2.607011220723514
 21
-11.0899820428311
 31
0.0
  0
LINE
  5
2501
330
1E
100
AcDbEntity
  8
3
100
AcDbLine
 10
2.607011220723514
 20
-11.0899820428311
 30
0.0
 11
2.607011220723514
 21
-10.27108440503582
 31
0.0
  0
LINE
  5
250C
330
1E
100
AcDbEntity
  8
3
100
AcDbLine
 10
2.42590885851879
 20
-9.916753696374406
 30
0.0
 11
2.410160827022725
 21
-9.932501727870469
 31
0.0
  0
LINE
  5
2512
330
1E
100
AcDbEntity
  8
3
100
AcDbLine
 10
2.433782874266821
 20
-1.444312751492521
 30
0.0
 11
2.410160827022725
 21
-1.420690704248418
 31
0.0
  0
LINE
  5
2518
330
1E
100
AcDbEntity
  8
3
100
AcDbLine
 10
2.410160827022725
 20
-1.302580468027958
 30
0.0
 11
2.591263189227451
 21
-1.129352121571262
 31
0.0
  0
LINE
  5
2523
330
1E
100
AcDbEntity
  8
3
100
AcDbLine
 10
2.717247441195954
 20
-1.089982042831099
 30
0.0
 11
2.607011220723514
 21
-1.089982042831099
 31
0.0
  0
LINE
  5
252E
330
1E
100
AcDbEntity
  8
3
100
AcDbLine
 10
2.607011220723514
 20
-1.089982042831099
 30
0.0
 11
2.607011220723514
 21
-0.2710844050358254
 31
0.0
  0
LINE
  5
2539
330
1E
100
AcDbEntity
  8
3
100
AcDbLine
 10
2.42590885851879
 20
0.0832463036255966
 30
0.0
 11
2.410160827022725
 21
0.067498272129523
 31
0.0
  0
LINE
  5
253F
330
1E
100
AcDbEntity
  8
3
100
AcDbLine
 10
8.032208071117214
 20
-13.32620251527204
 30
0.0
 11
8.016460039621151
 21
-13.34195054676811
 31
0.0
  0
LINE
  5
2545
330
1E
100
AcDbEntity
  8
3
100
AcDbLine
 10
7.898349803400677
 20
-13.34195054676811
 30
0.0
 11
7.717247441195954
 21
-13.16872220031141
 31
0.0
  0
LINE
  5
2550
330
1E
100
AcDbEntity
  8
3
100
AcDbLine
 10
7.677877362455795
 20
-13.04273794834291
 30
0.0
 11
7.677877362455795
 21
-13.14510015306732
 31
0.0
  0
LINE
  5
2556
330
1E
100
AcDbEntity
  8
3
100
AcDbLine
 10
7.677877362455795
 20
-13.14510015306732
 30
0.0
 11
7.370790748282569
 21
-13.14510015306732
 31
0.0
  0
LINE
  5
2557
330
1E
100
AcDbEntity
  8
3
100
AcDbLine
 10
7.677877362455795
 20
-13.04273794834291
 30
0.0
 11
7.370790748282569
 21
-13.04273794834291
 31
0.0
  0
LINE
  5
255D
330
1E
100
AcDbEntity
  8
3
100
AcDbLine
 10
6.53614507899123
 20
-13.34195054676811
 30
0.0
 11
6.520397047495167
 21
-13.32620251527204
 31
0.0
  0
LINE
  5
2563
330
1E
100
AcDbEntity
  8
3
100
AcDbLine
 10
6.520397047495167
 20
-13.32620251527204
 30
0.0
 11
6.74874350418808
 21
-13.0899820428311
 31
0.0
  0
LINE
  5
2569
330
1E
100
AcDbEntity
  8
3
100
AcDbLine
 10
6.874727756156584
 20
-13.14510015306732
 30
0.0
 11
6.874727756156584
 21
-13.04273794834291
 31
0.0
  0
LINE
  5
256F
330
1E
100
AcDbEntity
  8
3
100
AcDbLine
 10
6.874727756156584
 20
-13.14510015306732
 30
0.0
 11
7.17394035458178
 21
-13.14510015306732
 31
0.0
  0
LINE
  5
2570
330
1E
100
AcDbEntity
  8
3
100
AcDbLine
 10
6.874727756156584
 20
-13.04273794834291
 30
0.0
 11
7.17394035458178
 21
-13.04273794834291
 31
0.0
  0
LINE
  5
2571
330
1E
100
AcDbEntity
  8
3
100
AcDbLine
 10
18.03220807111721
 20
-13.32620251527204
 30
0.0
 11
18.01646003962115
 21
-13.34195054676811
 31
0.0
  0
LINE
  5
2577
330
1E
100
AcDbEntity
  8
3
100
AcDbLine
 10
17.89834980340067
 20
-13.34195054676811
 30
0.0
 11
17.71724744119595
 21
-13.16872220031141
 31
0.0
  0
LINE
  5
2582
330
1E
100
AcDbEntity
  8
3
100
AcDbLine
 10
17.67787736245579
 20
-13.04273794834291
 30
0.0
 11
17.67787736245579
 21
-13.14510015306732
 31
0.0
  0
LINE
  5
2588
330
1E
100
AcDbEntity
  8
3
100
AcDbLine
 10
17.67787736245579
 20
-13.14510015306732
 30
0.0
 11
17.37079074828256
 21
-13.14510015306732
 31
0.0
  0
LINE
  5
2589
330
1E
100
AcDbEntity
  8
3
100
AcDbLine
 10
17.67787736245579
 20
-13.04273794834291
 30
0.0
 11
17.37079074828256
 21
-13.04273794834291
 31
0.0
  0
LINE
  5
258F
330
1E
100
AcDbEntity
  8
3
100
AcDbLine
 10
16.53614507899122
 20
-13.34195054676811
 30
0.0
 11
16.52039704749516
 21
-13.32620251527204
 31
0.0
  0
LINE
  5
2595
330
1E
100
AcDbEntity
  8
3
100
AcDbLine
 10
16.52039704749516
 20
-13.32620251527204
 30
0.0
 11
16.74874350418808
 21
-13.0899820428311
 31
0.0
  0
LINE
  5
259B
330
1E
100
AcDbEntity
  8
3
100
AcDbLine
 10
16.87472775615658
 20
-13.14510015306732
 30
0.0
 11
16.87472775615658
 21
-13.04273794834291
 31
0.0
  0
LINE
  5
25A1
330
1E
100
AcDbEntity
  8
3
100
AcDbLine
 10
16.87472775615658
 20
-13.14510015306732
 30
0.0
 11
17.17394035458178
 21
-13.14510015306732
 31
0.0
  0
LINE
  5
25A2
330
1E
100
AcDbEntity
  8
3
100
AcDbLine
 10
16.87472775615658
 20
-13.04273794834291
 30
0.0
 11
17.17394035458178
 21
-13.04273794834291
 31
0.0
  0
LINE
  5
25A8
330
1E
100
AcDbEntity
  8
3
100
AcDbLine
 10
22.13457027584162
 20
-11.42069070424842
 30
0.0
 11
22.11882224434556
 21
-11.44431275149251
 31
0.0
  0
LINE
  5
25AE
330
1E
100
AcDbEntity
  8
3
100
AcDbLine
 10
22.11882224434556
 20
-11.44431275149251
 30
0.0
 11
21.88260177190461
 21
-11.20809227905157
 31
0.0
  0
LINE
  5
25B4
330
1E
100
AcDbEntity
  8
3
100
AcDbLine
 10
21.94559389788886
 20
-11.0899820428311
 30
0.0
 11
21.83535767741642
 21
-11.0899820428311
 31
0.0
  0
LINE
  5
25BA
330
1E
100
AcDbEntity
  8
3
100
AcDbLine
 10
21.83535767741642
 20
-11.0899820428311
 30
0.0
 11
21.83535767741642
 21
-10.78289542865787
 31
0.0
  0
LINE
  5
25BB
330
1E
100
AcDbEntity
  8
3
100
AcDbLine
 10
21.94559389788886
 20
-11.0899820428311
 30
0.0
 11
21.94559389788886
 21
-10.78289542865787
 31
0.0
  0
LINE
  5
25BC
330
1E
100
AcDbEntity
  8
3
100
AcDbLine
 10
22.11882224434556
 20
-9.92462771212244
 30
0.0
 11
22.13457027584162
 21
-9.948249759366532
 31
0.0
  0
LINE
  5
25C2
330
1E
100
AcDbEntity
  8
3
100
AcDbLine
 10
22.13457027584162
 20
-10.066359995587
 30
0.0
 11
21.96134192938492
 21
-10.23958834204369
 31
0.0
  0
LINE
  5
25CD
330
1E
100
AcDbEntity
  8
3
100
AcDbLine
 10
21.83535767741642
 20
-10.27895842078385
 30
0.0
 11
21.94559389788886
 21
-10.27895842078385
 31
0.0
  0
LINE
  5
25D3
330
1E
100
AcDbEntity
  8
3
100
AcDbLine
 10
21.83535767741642
 20
-10.27895842078385
 30
0.0
 11
21.83535767741642
 21
-10.58604503495708
 31
0.0
  0
LINE
  5
25D4
330
1E
100
AcDbEntity
  8
3
100
AcDbLine
 10
21.94559389788886
 20
-10.27895842078385
 30
0.0
 11
21.94559389788886
 21
-10.58604503495708
 31
0.0
  0
LINE
  5
25DA
330
1E
100
AcDbEntity
  8
3
100
AcDbLine
 10
22.13457027584162
 20
-1.420690704248418
 30
0.0
 11
22.11882224434556
 21
-1.444312751492521
 31
0.0
  0
LINE
  5
25DB
330
1E
100
AcDbEntity
  8
3
100
AcDbLine
 10
22.13457027584162
 20
-1.302580468027958
 30
0.0
 11
21.96134192938492
 21
-1.129352121571262
 31
0.0
  0
LINE
  5
25DC
330
1E
100
AcDbEntity
  8
3
100
AcDbLine
 10
21.96134192938492
 20
-1.129352121571262
 30
0.0
 11
21.88260177190461
 21
-1.208092279051573
 31
0.0
  0
LINE
  5
25DD
330
1E
100
AcDbEntity
  8
3
100
AcDbLine
 10
22.11882224434556
 20
-1.444312751492521
 30
0.0
 11
21.88260177190461
 21
-1.208092279051573
 31
0.0
  0
LINE
  5
25E3
330
1E
100
AcDbEntity
  8
3
100
AcDbLine
 10
21.94559389788886
 20
-1.089982042831099
 30
0.0
 11
21.83535767741642
 21
-1.089982042831099
 31
0.0
  0
LINE
  5
25E9
330
1E
100
AcDbEntity
  8
3
100
AcDbLine
 10
21.83535767741642
 20
-1.089982042831099
 30
0.0
 11
21.83535767741642
 21
-0.78289542865787
 31
0.0
  0
LINE
  5
25EA
330
1E
100
AcDbEntity
  8
3
100
AcDbLine
 10
21.94559389788886
 20
-1.089982042831099
 30
0.0
 11
21.94559389788886
 21
-0.78289542865787
 31
0.0
  0
LINE
  5
25EB
330
1E
100
AcDbEntity
  8
3
100
AcDbLine
 10
22.11882224434556
 20
0.0753722878775669
 30
0.0
 11
22.13457027584162
 21
0.0517502406334636
 31
0.0
  0
LINE
  5
25F1
330
1E
100
AcDbEntity
  8
3
100
AcDbLine
 10
22.13457027584162
 20
-0.0663599955870105
 30
0.0
 11
21.96134192938492
 21
-0.2395883420437066
 31
0.0
  0
LINE
  5
25FC
330
1E
100
AcDbEntity
  8
3
100
AcDbLine
 10
21.83535767741642
 20
-0.2789584207838551
 30
0.0
 11
21.94559389788886
 21
-0.2789584207838551
 31
0.0
  0
LINE
  5
2602
330
1E
100
AcDbEntity
  8
3
100
AcDbLine
 10
21.83535767741642
 20
-0.2789584207838551
 30
0.0
 11
21.83535767741642
 21
-0.5860450349570847
 31
0.0
  0
LINE
  5
2603
330
1E
100
AcDbEntity
  8
3
100
AcDbLine
 10
21.94559389788886
 20
-0.2789584207838551
 30
0.0
 11
21.94559389788886
 21
-0.5860450349570847
 31
0.0
  0
LINE
  5
2604
330
1E
100
AcDbEntity
  8
3
100
AcDbLine
 10
21.18181437032981
 20
2.091120319373626
 30
0.0
 11
22.18181437032981
 21
2.091120319373626
 31
0.0
  0
LINE
  5
2605
330
1E
100
AcDbEntity
  8
3
100
AcDbLine
 10
22.18181437032981
 20
2.154112445357878
 30
0.0
 11
21.18181437032981
 21
2.154112445357878
 31
0.0
  0
LINE
  5
2606
330
1E
100
AcDbEntity
  8
3
100
AcDbLine
 10
21.18181437032981
 20
2.091120319373626
 30
0.0
 11
21.18181437032981
 21
2.154112445357878
 31
0.0
  0
LINE
  5
2607
330
1E
100
AcDbEntity
  8
3
100
AcDbLine
 10
22.30779862229832
 20
1.240726618586219
 30
0.0
 11
22.30779862229832
 21
2.028128193389374
 31
0.0
  0
LINE
  5
2612
330
1E
100
AcDbEntity
  8
3
100
AcDbLine
 10
22.24480649631406
 20
2.028128193389374
 30
0.0
 11
22.24480649631406
 21
1.957262051657092
 31
0.0
  0
LINE
  5
2613
330
1E
100
AcDbEntity
  8
3
100
AcDbLine
 10
22.30779862229832
 20
1.240726618586219
 30
0.0
 11
22.24480649631406
 21
1.240726618586219
 31
0.0
  0
LINE
  5
2614
330
1E
100
AcDbEntity
  8
3
100
AcDbLine
 10
2.299924606550284
 20
2.059624256381493
 30
0.0
 11
2.284176575054221
 21
2.059624256381493
 31
0.0
  0
LINE
  5
2615
330
1E
100
AcDbEntity
  8
3
100
AcDbLine
 10
2.27630255930619
 20
2.059624256381493
 30
0.0
 11
2.268428543558158
 21
2.059624256381493
 31
0.0
  0
LINE
  5
2616
330
1E
100
AcDbEntity
  8
3
100
AcDbLine
 10
2.260554527810127
 20
2.059624256381493
 30
0.0
 11
2.236932480566032
 21
2.059624256381493
 31
0.0
  0
LINE
  5
2617
330
1E
100
AcDbEntity
  8
3
100
AcDbLine
 10
2.299924606550284
 20
2.059624256381493
 30
0.0
 11
2.236932480566032
 21
2.059624256381493
 31
0.0
  0
LINE
  5
2618
330
1E
100
AcDbEntity
  8
3
100
AcDbLine
 10
2.236932480566032
 20
0.9651360674051225
 30
0.0
 11
2.299924606550284
 21
0.9651360674051225
 31
0.0
  0
LINE
  5
2619
330
1E
100
AcDbEntity
  8
3
100
AcDbLine
 10
2.236932480566032
 20
2.059624256381493
 30
0.0
 11
2.236932480566032
 21
0.9651360674051225
 31
0.0
  0
LINE
  5
261A
330
1E
100
AcDbEntity
  8
3
100
AcDbLine
 10
2.236932480566032
 20
2.059624256381493
 30
0.0
 11
2.236932480566032
 21
2.224978587090159
 31
0.0
  0
LINE
  5
261B
330
1E
100
AcDbEntity
  8
3
100
AcDbLine
 10
2.299924606550284
 20
2.059624256381493
 30
0.0
 11
2.299924606550284
 21
1.957262051657092
 31
0.0
  0
LINE
  5
261C
330
1E
100
AcDbEntity
  8
3
100
AcDbLine
 10
2.299924606550284
 20
2.059624256381493
 30
0.0
 11
2.299924606550284
 21
2.224978587090159
 31
0.0
  0
LINE
  5
2629
330
1E
100
AcDbEntity
  8
3
100
AcDbLine
 10
2.17394035458178
 20
2.091120319373626
 30
0.0
 11
2.17394035458178
 21
2.154112445357878
 31
0.0
  0
LINE
  5
2631
330
1E
100
AcDbEntity
  8
3
100
AcDbLine
 10
2.339294685290441
 20
2.154112445357878
 30
0.0
 11
2.299924606550284
 21
2.154112445357878
 31
0.0
  0
LINE
  5
2632
330
1E
100
AcDbEntity
  8
3
100
AcDbLine
 10
2.236932480566032
 20
2.154112445357878
 30
0.0
 11
2.17394035458178
 21
2.154112445357878
 31
0.0
  0
LINE
  5
2633
330
1E
100
AcDbEntity
  8
3
100
AcDbLine
 10
3.433782874266821
 20
2.154112445357878
 30
0.0
 11
2.339294685290441
 21
2.154112445357878
 31
0.0
  0
LINE
  5
2634
330
1E
100
AcDbEntity
  8
3
100
AcDbLine
 10
3.433782874266821
 20
2.091120319373626
 30
0.0
 11
3.433782874266821
 21
2.154112445357878
 31
0.0
  0
LINE
  5
2635
330
1E
100
AcDbEntity
  8
3
100
AcDbLine
 10
2.339294685290441
 20
2.091120319373626
 30
0.0
 11
2.339294685290441
 21
2.154112445357878
 31
0.0
  0
LINE
  5
2636
330
1E
100
AcDbEntity
  8
3
100
AcDbLine
 10
2.339294685290441
 20
2.091120319373626
 30
0.0
 11
3.433782874266821
 21
2.091120319373626
 31
0.0
  0
LINE
  5
2637
330
1E
100
AcDbEntity
  8
3
100
AcDbLine
 10
2.339294685290441
 20
2.091120319373626
 30
0.0
 11
2.299924606550284
 21
2.091120319373626
 31
0.0
  0
LINE
  5
2638
330
1E
100
AcDbEntity
  8
3
100
AcDbLine
 10
2.236932480566032
 20
2.091120319373626
 30
0.0
 11
2.17394035458178
 21
2.091120319373626
 31
0.0
  0
LINE
  5
2642
330
1E
100
AcDbEntity
  8
3
100
AcDbLine
 10
38.60701122072351
 20
2.287970713074411
 30
0.0
 11
38.58338917347941
 21
2.287970713074411
 31
0.0
  0
LINE
  5
2643
330
1E
100
AcDbEntity
  8
3
100
AcDbLine
 10
38.0794521656054
 20
2.287970713074411
 30
0.0
 11
38.0558301183613
 21
2.287970713074411
 31
0.0
  0
LINE
  5
2644
330
1E
100
AcDbEntity
  8
3
100
AcDbLine
 10
37.55189311048728
 20
2.287970713074411
 30
0.0
 11
37.52827106324319
 21
2.287970713074411
 31
0.0
  0
LINE
  5
2645
330
1E
100
AcDbEntity
  8
3
100
AcDbLine
 10
37.02433405536918
 20
2.287970713074411
 30
0.0
 11
37.00071200812507
 21
2.287970713074411
 31
0.0
  0
LINE
  5
2646
330
1E
100
AcDbEntity
  8
3
100
AcDbLine
 10
37.00071200812507
 20
2.161986461105907
 30
0.0
 11
37.55189311048728
 21
2.161986461105907
 31
0.0
  0
LINE
  5
2647
330
1E
100
AcDbEntity
  8
3
100
AcDbLine
 10
38.0558301183613
 20
2.161986461105907
 30
0.0
 11
38.60701122072351
 21
2.161986461105907
 31
0.0
  0
LINE
  5
2648
330
1E
100
AcDbEntity
  8
3
100
AcDbLine
 10
38.58338917347941
 20
2.358836854806693
 30
0.0
 11
38.0794521656054
 21
2.358836854806693
 31
0.0
  0
LINE
  5
2649
330
1E
100
AcDbEntity
  8
3
100
AcDbLine
 10
37.52827106324319
 20
2.358836854806693
 30
0.0
 11
37.02433405536918
 21
2.358836854806693
 31
0.0
  0
LINE
  5
264A
330
1E
100
AcDbEntity
  8
3
100
AcDbLine
 10
38.0558301183613
 20
2.358836854806693
 30
0.0
 11
37.55189311048728
 21
2.358836854806693
 31
0.0
  0
LINE
  5
264B
330
1E
100
AcDbEntity
  8
3
100
AcDbLine
 10
39.11094822859752
 20
2.358836854806693
 30
0.0
 11
38.60701122072351
 21
2.358836854806693
 31
0.0
  0
LINE
  5
264C
330
1E
100
AcDbEntity
  8
3
100
AcDbLine
 10
37.00071200812507
 20
2.358836854806693
 30
0.0
 11
36.49677500025106
 21
2.358836854806693
 31
0.0
  0
LINE
  5
264D
330
1E
100
AcDbEntity
  8
3
100
AcDbLine
 10
37.61488523647154
 20
-13.34195054676811
 30
0.0
 11
36.11882224434555
 21
-13.34195054676811
 31
0.0
  0
LINE
  5
264E
330
1E
100
AcDbEntity
  8
3
100
AcDbLine
 10
36.11882224434555
 20
-13.34195054676811
 30
0.0
 11
37.61488523647154
 21
-13.34195054676811
 31
0.0
  0
LINE
  5
264F
330
1E
100
AcDbEntity
  8
3
100
AcDbLine
 10
36.11882224434555
 20
-13.34195054676811
 30
0.0
 11
37.61488523647154
 21
-13.34195054676811
 31
0.0
  0
LINE
  5
2650
330
1E
100
AcDbEntity
  8
3
100
AcDbLine
 10
37.61488523647154
 20
-13.34195054676811
 30
0.0
 11
36.11882224434555
 21
-13.34195054676811
 31
0.0
  0
LINE
  5
2651
330
1E
100
AcDbEntity
  8
3
100
AcDbLine
 10
39.21331043332193
 20
1.390332917798826
 30
0.0
 11
39.21331043332193
 21
1.492695122523226
 31
0.0
  0
LINE
  5
2657
330
1E
100
AcDbEntity
  8
3
100
AcDbLine
 10
39.15031830733768
 20
1.390332917798826
 30
0.0
 11
39.15031830733768
 21
1.492695122523226
 31
0.0
  0
LINE
  5
2663
330
1E
100
AcDbEntity
  8
3
100
AcDbLine
 10
39.15031830733768
 20
1.555687248507478
 30
0.0
 11
39.15031830733768
 21
1.650175437483863
 31
0.0
  0
LINE
  5
2673
330
1E
100
AcDbEntity
  8
3
100
AcDbLine
 10
39.3077986222983
 20
1.492695122523226
 30
0.0
 11
39.3077986222983
 21
1.555687248507478
 31
0.0
  0
LINE
  5
2674
330
1E
100
AcDbEntity
  8
3
100
AcDbLine
 10
39.21331043332193
 20
1.492695122523226
 30
0.0
 11
39.3077986222983
 21
1.492695122523226
 31
0.0
  0
LINE
  5
267B
330
1E
100
AcDbEntity
  8
3
100
AcDbLine
 10
39.21331043332193
 20
1.555687248507478
 30
0.0
 11
39.3077986222983
 21
1.555687248507478
 31
0.0
  0
LINE
  5
267C
330
1E
100
AcDbEntity
  8
3
100
AcDbLine
 10
39.0558301183613
 20
1.492695122523226
 30
0.0
 11
39.15031830733768
 21
1.492695122523226
 31
0.0
  0
LINE
  5
2699
330
1E
100
AcDbEntity
  8
3
100
AcDbLine
 10
36.46527893725894
 20
1.390332917798826
 30
0.0
 11
36.46527893725894
 21
1.492695122523226
 31
0.0
  0
LINE
  5
269F
330
1E
100
AcDbEntity
  8
3
100
AcDbLine
 10
36.39441279552666
 20
1.390332917798826
 30
0.0
 11
36.39441279552666
 21
1.492695122523226
 31
0.0
  0
LINE
  5
26A0
330
1E
100
AcDbEntity
  8
3
100
AcDbLine
 10
36.39441279552666
 20
1.390332917798826
 30
0.0
 11
36.39441279552666
 21
1.358836854806693
 31
0.0
  0
LINE
  5
26A1
330
1E
100
AcDbEntity
  8
3
100
AcDbLine
 10
36.39441279552666
 20
1.358836854806693
 30
0.0
 11
36.39441279552666
 21
1.343088823310633
 31
0.0
  0
LINE
  5
26A8
330
1E
100
AcDbEntity
  8
3
100
AcDbLine
 10
36.39441279552666
 20
1.555687248507478
 30
0.0
 11
36.39441279552666
 21
1.650175437483863
 31
0.0
  0
LINE
  5
26B8
330
1E
100
AcDbEntity
  8
3
100
AcDbLine
 10
36.55189311048728
 20
1.492695122523226
 30
0.0
 11
36.55189311048728
 21
1.555687248507478
 31
0.0
  0
LINE
  5
26B9
330
1E
100
AcDbEntity
  8
3
100
AcDbLine
 10
36.46527893725894
 20
1.492695122523226
 30
0.0
 11
36.55189311048728
 21
1.492695122523226
 31
0.0
  0
LINE
  5
26C0
330
1E
100
AcDbEntity
  8
3
100
AcDbLine
 10
36.46527893725894
 20
1.555687248507478
 30
0.0
 11
36.55189311048728
 21
1.555687248507478
 31
0.0
  0
LINE
  5
26C1
330
1E
100
AcDbEntity
  8
3
100
AcDbLine
 10
36.30779862229831
 20
1.492695122523226
 30
0.0
 11
36.39441279552666
 21
1.492695122523226
 31
0.0
  0
LINE
  5
26CD
330
1E
100
AcDbEntity
  8
3
100
AcDbLine
 10
36.43378287426681
 20
1.327340791814574
 30
0.0
 11
36.54401909473925
 21
1.358836854806693
 31
0.0
  0
LINE
  5
26DB
330
1E
100
AcDbEntity
  8
3
100
AcDbLine
 10
37.67787736245578
 20
-0.78289542865787
 30
0.0
 11
37.92984586639279
 21
-0.78289542865787
 31
0.0
  0
LINE
  5
26DC
330
1E
100
AcDbEntity
  8
3
100
AcDbLine
 10
37.92984586639279
 20
-0.5860450349570847
 30
0.0
 11
37.67787736245578
 21
-0.5860450349570847
 31
0.0
  0
LINE
  5
26DD
330
1E
100
AcDbEntity
  8
3
100
AcDbLine
 10
37.67787736245578
 20
-10.78289542865787
 30
0.0
 11
37.92984586639279
 21
-10.78289542865787
 31
0.0
  0
LINE
  5
26DE
330
1E
100
AcDbEntity
  8
3
100
AcDbLine
 10
37.92984586639279
 20
-10.58604503495708
 30
0.0
 11
37.67787736245578
 21
-10.58604503495708
 31
0.0
  0
LINE
  5
26DF
330
1E
100
AcDbEntity
  8
3
100
AcDbLine
 10
36.0558301183613
 20
-13.27895842078385
 30
0.0
 11
36.0558301183613
 21
1.9100179571689
 31
0.0
  0
LINE
  5
26E5
330
1E
100
AcDbEntity
  8
3
100
AcDbLine
 10
39.55189311048728
 20
-13.27895842078385
 30
0.0
 11
39.55189311048728
 21
1.9100179571689
 31
0.0
  0
LINE
  5
26F1
330
1E
100
AcDbEntity
  8
3
100
AcDbLine
 10
37.92984586639279
 20
0.1147423666177154
 30
0.0
 11
37.67787736245578
 21
0.1147423666177154
 31
0.0
  0
LINE
  5
26F2
330
1E
100
AcDbEntity
  8
3
100
AcDbLine
 10
37.92984586639279
 20
-1.48368283023267
 30
0.0
 11
37.92984586639279
 21
0.1147423666177154
 31
0.0
  0
LINE
  5
26F8
330
1E
100
AcDbEntity
  8
3
100
AcDbLine
 10
37.92984586639279
 20
-9.885257633382281
 30
0.0
 11
37.67787736245578
 21
-9.885257633382281
 31
0.0
  0
LINE
  5
26F9
330
1E
100
AcDbEntity
  8
3
100
AcDbLine
 10
37.92984586639279
 20
-11.48368283023267
 30
0.0
 11
37.92984586639279
 21
-9.885257633382281
 31
0.0
  0
LINE
  5
26FF
330
1E
100
AcDbEntity
  8
3
100
AcDbLine
 10
36.0558301183613
 20
-13.27895842078385
 30
0.0
 11
39.55189311048728
 21
-13.27895842078385
 31
0.0
  0
LINE
  5
2705
330
1E
100
AcDbEntity
  8
3
100
AcDbLine
 10
37.92984586639279
 20
-11.3655725940122
 30
0.0
 11
37.67787736245578
 21
-11.3655725940122
 31
0.0
  0
LINE
  5
2706
330
1E
100
AcDbEntity
  8
3
100
AcDbLine
 10
37.92984586639279
 20
-11.12935212157125
 30
0.0
 11
37.67787736245578
 21
-11.12935212157125
 31
0.0
  0
LINE
  5
2707
330
1E
100
AcDbEntity
  8
3
100
AcDbLine
 10
37.92984586639279
 20
-11.0899820428311
 30
0.0
 11
37.67787736245578
 21
-11.0899820428311
 31
0.0
  0
LINE
  5
2708
330
1E
100
AcDbEntity
  8
3
100
AcDbLine
 10
37.67787736245578
 20
-10.00336786960275
 30
0.0
 11
37.92984586639279
 21
-10.00336786960275
 31
0.0
  0
LINE
  5
2709
330
1E
100
AcDbEntity
  8
3
100
AcDbLine
 10
37.67787736245578
 20
-10.23958834204369
 30
0.0
 11
37.92984586639279
 21
-10.23958834204369
 31
0.0
  0
LINE
  5
270A
330
1E
100
AcDbEntity
  8
3
100
AcDbLine
 10
37.67787736245578
 20
-10.27895842078385
 30
0.0
 11
37.92984586639279
 21
-10.27895842078385
 31
0.0
  0
LINE
  5
270B
330
1E
100
AcDbEntity
  8
3
100
AcDbLine
 10
37.92984586639279
 20
-1.36557259401221
 30
0.0
 11
37.67787736245578
 21
-1.36557259401221
 31
0.0
  0
LINE
  5
270C
330
1E
100
AcDbEntity
  8
3
100
AcDbLine
 10
37.92984586639279
 20
-1.129352121571262
 30
0.0
 11
37.67787736245578
 21
-1.129352121571262
 31
0.0
  0
LINE
  5
270D
330
1E
100
AcDbEntity
  8
3
100
AcDbLine
 10
37.92984586639279
 20
-1.089982042831099
 30
0.0
 11
37.67787736245578
 21
-1.089982042831099
 31
0.0
  0
LINE
  5
270E
330
1E
100
AcDbEntity
  8
3
100
AcDbLine
 10
37.67787736245578
 20
-0.0033678696027586
 30
0.0
 11
37.92984586639279
 21
-0.0033678696027586
 31
0.0
  0
LINE
  5
270F
330
1E
100
AcDbEntity
  8
3
100
AcDbLine
 10
37.67787736245578
 20
-0.2395883420437066
 30
0.0
 11
37.92984586639279
 21
-0.2395883420437066
 31
0.0
  0
LINE
  5
2710
330
1E
100
AcDbEntity
  8
3
100
AcDbLine
 10
37.67787736245578
 20
-0.2789584207838551
 30
0.0
 11
37.92984586639279
 21
-0.2789584207838551
 31
0.0
  0
LINE
  5
271C
330
1E
100
AcDbEntity
  8
3
100
AcDbLine
 10
36.0794521656054
 20
1.240726618586219
 30
0.0
 11
36.0794521656054
 21
2.028128193389374
 31
0.0
  0
LINE
  5
271D
330
1E
100
AcDbEntity
  8
3
100
AcDbLine
 10
39.52827106324319
 20
1.240726618586219
 30
0.0
 11
36.0794521656054
 21
1.240726618586219
 31
0.0
  0
LINE
  5
2728
330
1E
100
AcDbEntity
  8
3
100
AcDbLine
 10
38.60701122072351
 20
2.154112445357878
 30
0.0
 11
38.60701122072351
 21
2.224978587090159
 31
0.0
  0
LINE
  5
272E
330
1E
100
AcDbEntity
  8
3
100
AcDbLine
 10
37.55189311048728
 20
2.154112445357878
 30
0.0
 11
37.55189311048728
 21
2.224978587090159
 31
0.0
  0
LINE
  5
2758
330
1E
100
AcDbEntity
  8
3
100
AcDbLine
 10
37.52827106324319
 20
2.161986461105907
 30
0.0
 11
37.52827106324319
 21
2.154112445357878
 31
0.0
  0
LINE
  5
275E
330
1E
100
AcDbEntity
  8
3
100
AcDbLine
 10
37.02433405536918
 20
2.154112445357878
 30
0.0
 11
37.02433405536918
 21
2.161986461105907
 31
0.0
  0
LINE
  5
275F
330
1E
100
AcDbEntity
  8
3
100
AcDbLine
 10
37.52827106324319
 20
2.224978587090159
 30
0.0
 11
37.02433405536918
 21
2.224978587090159
 31
0.0
  0
LINE
  5
2765
330
1E
100
AcDbEntity
  8
3
100
AcDbLine
 10
38.58338917347941
 20
2.161986461105907
 30
0.0
 11
38.58338917347941
 21
2.154112445357878
 31
0.0
  0
LINE
  5
276B
330
1E
100
AcDbEntity
  8
3
100
AcDbLine
 10
38.0794521656054
 20
2.154112445357878
 30
0.0
 11
38.0794521656054
 21
2.161986461105907
 31
0.0
  0
LINE
  5
276C
330
1E
100
AcDbEntity
  8
3
100
AcDbLine
 10
38.58338917347941
 20
2.224978587090159
 30
0.0
 11
38.0794521656054
 21
2.224978587090159
 31
0.0
  0
LINE
  5
2FEB
330
1E
100
AcDbEntity
  8
3
100
AcDbLine
 10
39.11094822859752
 20
2.154112445357878
 30
0.0
 11
39.11094822859752
 21
2.224978587090159
 31
0.0
  0
LINE
  5
2FEC
330
1E
100
AcDbEntity
  8
3
100
AcDbLine
 10
39.11094822859752
 20
2.224978587090159
 30
0.0
 11
38.60701122072351
 21
2.224978587090159
 31
0.0
  0
LINE
  5
2FED
330
1E
100
AcDbEntity
  8
3
100
AcDbLine
 10
39.52827106324319
 20
1.240726618586219
 30
0.0
 11
39.52827106324319
 21
2.028128193389374
 31
0.0
  0
LINE
  5
2FEE
330
1E
100
AcDbEntity
  8
3
100
AcDbLine
 10
39.52827106324319
 20
2.028128193389374
 30
0.0
 11
36.0794521656054
 21
2.028128193389374
 31
0.0
  0
LINE
  5
2FEF
330
1E
100
AcDbEntity
  8
3
100
AcDbLine
 10
36.0794521656054
 20
2.154112445357878
 30
0.0
 11
39.52827106324319
 21
2.154112445357878
 31
0.0
  0
LINE
  5
2FF0
330
1E
100
AcDbEntity
  8
3
100
AcDbLine
 10
39.52827106324319
 20
2.154112445357878
 30
0.0
 11
39.52827106324319
 21
2.122616382365745
 31
0.0
  0
LINE
  5
2FF1
330
1E
100
AcDbEntity
  8
3
100
AcDbLine
 10
39.52827106324319
 20
2.122616382365745
 30
0.0
 11
39.52827106324319
 21
2.028128193389374
 31
0.0
  0
LINE
  5
2FF2
330
1E
100
AcDbEntity
  8
3
100
AcDbLine
 10
39.55189311048728
 20
-13.27895842078385
 30
0.0
 11
39.55189311048728
 21
-13.40494267275236
 31
0.0
  0
LINE
  5
2FF3
330
1E
100
AcDbEntity
  8
3
100
AcDbLine
 10
39.55189311048728
 20
-13.40494267275236
 30
0.0
 11
39.55189311048728
 21
-13.45218676724055
 31
0.0
  0
LINE
  5
2FF4
330
1E
100
AcDbEntity
  8
3
100
AcDbLine
 10
39.55189311048728
 20
-13.45218676724055
 30
0.0
 11
36.0558301183613
 21
-13.45218676724055
 31
0.0
  0
LINE
  5
2FF5
330
1E
100
AcDbEntity
  8
3
100
AcDbLine
 10
2.410160827022725
 20
-13.27895842078385
 30
0.0
 11
2.410160827022725
 21
1.9100179571689
 31
0.0
  0
LINE
  5
2FF6
330
1E
100
AcDbEntity
  8
3
100
AcDbLine
 10
2.410160827022725
 20
1.9100179571689
 30
0.0
 11
2.299924606550284
 21
1.9100179571689
 31
0.0
  0
LINE
  5
2FF7
330
1E
100
AcDbEntity
  8
3
100
AcDbLine
 10
22.24480649631406
 20
-13.27895842078385
 30
0.0
 11
22.24480649631406
 21
1.9100179571689
 31
0.0
  0
LINE
  5
2FF8
330
1E
100
AcDbEntity
  8
3
100
AcDbLine
 10
22.24480649631406
 20
1.9100179571689
 30
0.0
 11
22.13457027584162
 21
1.9100179571689
 31
0.0
  0
LINE
  5
2FF9
330
1E
100
AcDbEntity
  8
3
100
AcDbLine
 10
2.418034842770758
 20
-9.885257633382281
 30
0.0
 11
2.418034842770758
 21
-9.901005664878343
 31
0.0
  0
LINE
  5
2FFA
330
1E
100
AcDbEntity
  8
3
100
AcDbLine
 10
2.418034842770758
 20
-9.901005664878343
 30
0.0
 11
2.42590885851879
 21
-9.916753696374406
 31
0.0
  0
LINE
  5
2FFB
330
1E
100
AcDbEntity
  8
3
100
AcDbLine
 10
2.307798622298316
 20
-13.27895842078385
 30
0.0
 11
2.355042716786504
 21
-13.39706865700432
 31
0.0
  0
LINE
  5
2FFC
330
1E
100
AcDbEntity
  8
3
100
AcDbLine
 10
2.355042716786504
 20
-13.39706865700432
 30
0.0
 11
2.473152953006978
 21
-13.44431275149251
 31
0.0
  0
LINE
  5
2FFD
330
1E
100
AcDbEntity
  8
3
100
AcDbLine
 10
2.418034842770758
 20
-13.27895842078385
 30
0.0
 11
2.433782874266821
 21
-13.31832849952401
 31
0.0
  0
LINE
  5
2FFE
330
1E
100
AcDbEntity
  8
3
100
AcDbLine
 10
2.433782874266821
 20
-13.31832849952401
 30
0.0
 11
2.473152953006978
 21
-13.33407653102007
 31
0.0
  0
LINE
  5
2FFF
330
1E
100
AcDbEntity
  8
3
100
AcDbLine
 10
2.433782874266821
 20
-11.44431275149251
 30
0.0
 11
2.662129330959734
 21
-11.20809227905157
 31
0.0
  0
LINE
  5
3000
330
1E
100
AcDbEntity
  8
3
100
AcDbLine
 10
2.662129330959734
 20
-11.20809227905157
 30
0.0
 11
2.591263189227451
 21
-11.12935212157125
 31
0.0
  0
LINE
  5
3001
330
1E
100
AcDbEntity
  8
3
100
AcDbLine
 10
2.433782874266821
 20
-11.44431275149251
 30
0.0
 11
2.42590885851879
 21
-11.46006078298858
 31
0.0
  0
LINE
  5
3002
330
1E
100
AcDbEntity
  8
3
100
AcDbLine
 10
2.42590885851879
 20
-11.46006078298858
 30
0.0
 11
2.418034842770758
 21
-11.48368283023267
 31
0.0
  0
LINE
  5
3003
330
1E
100
AcDbEntity
  8
3
100
AcDbLine
 10
2.599137204975482
 20
-10.27108440503582
 30
0.0
 11
2.591263189227451
 21
-10.24746235779173
 31
0.0
  0
LINE
  5
3004
330
1E
100
AcDbEntity
  8
3
100
AcDbLine
 10
2.591263189227451
 20
-10.24746235779173
 30
0.0
 11
2.583389173479419
 21
-10.23171432629567
 31
0.0
  0
LINE
  5
3005
330
1E
100
AcDbEntity
  8
3
100
AcDbLine
 10
2.709373425447923
 20
-10.27108440503582
 30
0.0
 11
2.69362539395186
 21
-10.20809227905157
 31
0.0
  0
LINE
  5
3006
330
1E
100
AcDbEntity
  8
3
100
AcDbLine
 10
2.69362539395186
 20
-10.20809227905157
 30
0.0
 11
2.662129330959734
 21
-10.15297416881535
 31
0.0
  0
LINE
  5
3007
330
1E
100
AcDbEntity
  8
3
100
AcDbLine
 10
2.717247441195954
 20
-11.0899820428311
 30
0.0
 11
2.717247441195954
 21
-10.27108440503582
 31
0.0
  0
LINE
  5
3008
330
1E
100
AcDbEntity
  8
3
100
AcDbLine
 10
2.717247441195954
 20
-10.27108440503582
 30
0.0
 11
2.607011220723514
 21
-10.27108440503582
 31
0.0
  0
LINE
  5
3009
330
1E
100
AcDbEntity
  8
3
100
AcDbLine
 10
2.583389173479419
 20
-11.12935212157125
 30
0.0
 11
2.591263189227451
 21
-11.11360409007519
 31
0.0
  0
LINE
  5
300A
330
1E
100
AcDbEntity
  8
3
100
AcDbLine
 10
2.591263189227451
 20
-11.11360409007519
 30
0.0
 11
2.599137204975482
 21
-11.0899820428311
 31
0.0
  0
LINE
  5
300B
330
1E
100
AcDbEntity
  8
3
100
AcDbLine
 10
2.662129330959734
 20
-11.20809227905157
 30
0.0
 11
2.69362539395186
 21
-11.15297416881535
 31
0.0
  0
LINE
  5
300C
330
1E
100
AcDbEntity
  8
3
100
AcDbLine
 10
2.69362539395186
 20
-11.15297416881535
 30
0.0
 11
2.709373425447923
 21
-11.0899820428311
 31
0.0
  0
LINE
  5
300D
330
1E
100
AcDbEntity
  8
3
100
AcDbLine
 10
6.874727756156584
 20
-13.04273794834291
 30
0.0
 11
6.811735630172332
 21
-13.05848597983897
 31
0.0
  0
LINE
  5
300E
330
1E
100
AcDbEntity
  8
3
100
AcDbLine
 10
6.811735630172332
 20
-13.05848597983897
 30
0.0
 11
6.756617519936112
 21
-13.0899820428311
 31
0.0
  0
LINE
  5
300F
330
1E
100
AcDbEntity
  8
3
100
AcDbLine
 10
6.874727756156584
 20
-13.15297416881535
 30
0.0
 11
6.851105708912488
 21
-13.16084818456338
 31
0.0
  0
LINE
  5
3010
330
1E
100
AcDbEntity
  8
3
100
AcDbLine
 10
6.851105708912488
 20
-13.16084818456338
 30
0.0
 11
6.835357677416425
 21
-13.16872220031141
 31
0.0
  0
LINE
  5
3011
330
1E
100
AcDbEntity
  8
3
100
AcDbLine
 10
6.654255315211702
 20
-13.34195054676811
 30
0.0
 11
6.827483661668395
 21
-13.16872220031141
 31
0.0
  0
LINE
  5
3012
330
1E
100
AcDbEntity
  8
3
100
AcDbLine
 10
6.827483661668395
 20
-13.16872220031141
 30
0.0
 11
6.74874350418808
 21
-13.0899820428311
 31
0.0
  0
LINE
  5
3013
330
1E
100
AcDbEntity
  8
3
100
AcDbLine
 10
6.473152953006978
 20
-13.33407653102007
 30
0.0
 11
6.496775000251073
 21
-13.32620251527204
 31
0.0
  0
LINE
  5
3014
330
1E
100
AcDbEntity
  8
3
100
AcDbLine
 10
6.496775000251073
 20
-13.32620251527204
 30
0.0
 11
6.512523031747136
 21
-13.31832849952401
 31
0.0
  0
LINE
  5
3015
330
1E
100
AcDbEntity
  8
3
100
AcDbLine
 10
8.032208071117214
 20
-13.32620251527204
 30
0.0
 11
7.795987598676269
 21
-13.0899820428311
 31
0.0
  0
LINE
  5
3016
330
1E
100
AcDbEntity
  8
3
100
AcDbLine
 10
7.795987598676269
 20
-13.0899820428311
 30
0.0
 11
7.717247441195954
 21
-13.16872220031141
 31
0.0
  0
LINE
  5
3017
330
1E
100
AcDbEntity
  8
3
100
AcDbLine
 10
7.717247441195954
 20
-13.16872220031141
 30
0.0
 11
7.701499409699891
 21
-13.16084818456338
 31
0.0
  0
LINE
  5
3018
330
1E
100
AcDbEntity
  8
3
100
AcDbLine
 10
7.701499409699891
 20
-13.16084818456338
 30
0.0
 11
7.677877362455795
 21
-13.15297416881535
 31
0.0
  0
LINE
  5
3019
330
1E
100
AcDbEntity
  8
3
100
AcDbLine
 10
7.795987598676269
 20
-13.0899820428311
 30
0.0
 11
7.740869488440047
 21
-13.05848597983897
 31
0.0
  0
LINE
  5
301A
330
1E
100
AcDbEntity
  8
3
100
AcDbLine
 10
7.740869488440047
 20
-13.05848597983897
 30
0.0
 11
7.677877362455795
 21
-13.04273794834291
 31
0.0
  0
LINE
  5
301B
330
1E
100
AcDbEntity
  8
3
100
AcDbLine
 10
7.370790748282569
 20
-13.14510015306732
 30
0.0
 11
7.370790748282569
 21
-13.04273794834291
 31
0.0
  0
LINE
  5
301C
330
1E
100
AcDbEntity
  8
3
100
AcDbLine
 10
7.370790748282569
 20
-13.04273794834291
 30
0.0
 11
7.17394035458178
 21
-13.04273794834291
 31
0.0
  0
LINE
  5
301D
330
1E
100
AcDbEntity
  8
3
100
AcDbLine
 10
7.17394035458178
 20
-13.04273794834291
 30
0.0
 11
7.17394035458178
 21
-13.14510015306732
 31
0.0
  0
LINE
  5
301E
330
1E
100
AcDbEntity
  8
3
100
AcDbLine
 10
8.032208071117214
 20
-13.31832849952401
 30
0.0
 11
8.047956102613277
 21
-13.32620251527204
 31
0.0
  0
LINE
  5
301F
330
1E
100
AcDbEntity
  8
3
100
AcDbLine
 10
8.047956102613277
 20
-13.32620251527204
 30
0.0
 11
8.071578149857373
 21
-13.33407653102007
 31
0.0
  0
LINE
  5
3020
330
1E
100
AcDbEntity
  8
3
100
AcDbLine
 10
22.11882224434556
 20
-9.92462771212244
 30
0.0
 11
22.12669626009359
 21
-9.908879680626377
 31
0.0
  0
LINE
  5
3021
330
1E
100
AcDbEntity
  8
3
100
AcDbLine
 10
22.12669626009359
 20
-9.908879680626377
 30
0.0
 11
22.13457027584162
 21
-9.885257633382281
 31
0.0
  0
LINE
  5
3022
330
1E
100
AcDbEntity
  8
3
100
AcDbLine
 10
17.37079074828256
 20
-13.14510015306732
 30
0.0
 11
17.37079074828256
 21
-13.04273794834291
 31
0.0
  0
LINE
  5
3023
330
1E
100
AcDbEntity
  8
3
100
AcDbLine
 10
17.37079074828256
 20
-13.04273794834291
 30
0.0
 11
17.17394035458178
 21
-13.04273794834291
 31
0.0
  0
LINE
  5
3024
330
1E
100
AcDbEntity
  8
3
100
AcDbLine
 10
16.87472775615658
 20
-13.04273794834291
 30
0.0
 11
16.81173563017233
 21
-13.05848597983897
 31
0.0
  0
LINE
  5
3025
330
1E
100
AcDbEntity
  8
3
100
AcDbLine
 10
16.81173563017233
 20
-13.05848597983897
 30
0.0
 11
16.75661751993611
 21
-13.0899820428311
 31
0.0
  0
LINE
  5
3026
330
1E
100
AcDbEntity
  8
3
100
AcDbLine
 10
16.87472775615658
 20
-13.15297416881535
 30
0.0
 11
16.85110570891248
 21
-13.16084818456338
 31
0.0
  0
LINE
  5
3027
330
1E
100
AcDbEntity
  8
3
100
AcDbLine
 10
16.85110570891248
 20
-13.16084818456338
 30
0.0
 11
16.83535767741642
 21
-13.16872220031141
 31
0.0
  0
LINE
  5
3028
330
1E
100
AcDbEntity
  8
3
100
AcDbLine
 10
16.6542553152117
 20
-13.34195054676811
 30
0.0
 11
16.82748366166839
 21
-13.16872220031141
 31
0.0
  0
LINE
  5
3029
330
1E
100
AcDbEntity
  8
3
100
AcDbLine
 10
16.82748366166839
 20
-13.16872220031141
 30
0.0
 11
16.74874350418808
 21
-13.0899820428311
 31
0.0
  0
LINE
  5
302A
330
1E
100
AcDbEntity
  8
3
100
AcDbLine
 10
16.47315295300697
 20
-13.33407653102007
 30
0.0
 11
16.49677500025107
 21
-13.32620251527204
 31
0.0
  0
LINE
  5
302B
330
1E
100
AcDbEntity
  8
3
100
AcDbLine
 10
16.49677500025107
 20
-13.32620251527204
 30
0.0
 11
16.51252303174713
 21
-13.31832849952401
 31
0.0
  0
LINE
  5
302C
330
1E
100
AcDbEntity
  8
3
100
AcDbLine
 10
17.71724744119595
 20
-13.16872220031141
 30
0.0
 11
17.70149940969989
 21
-13.16084818456338
 31
0.0
  0
LINE
  5
302D
330
1E
100
AcDbEntity
  8
3
100
AcDbLine
 10
17.70149940969989
 20
-13.16084818456338
 30
0.0
 11
17.67787736245579
 21
-13.15297416881535
 31
0.0
  0
LINE
  5
302E
330
1E
100
AcDbEntity
  8
3
100
AcDbLine
 10
17.79598759867627
 20
-13.0899820428311
 30
0.0
 11
17.74086948844004
 21
-13.05848597983897
 31
0.0
  0
LINE
  5
302F
330
1E
100
AcDbEntity
  8
3
100
AcDbLine
 10
17.74086948844004
 20
-13.05848597983897
 30
0.0
 11
17.67787736245579
 21
-13.04273794834291
 31
0.0
  0
LINE
  5
3030
330
1E
100
AcDbEntity
  8
3
100
AcDbLine
 10
18.03220807111721
 20
-13.32620251527204
 30
0.0
 11
17.79598759867627
 21
-13.0899820428311
 31
0.0
  0
LINE
  5
3031
330
1E
100
AcDbEntity
  8
3
100
AcDbLine
 10
17.79598759867627
 20
-13.0899820428311
 30
0.0
 11
17.71724744119595
 21
-13.16872220031141
 31
0.0
  0
LINE
  5
3032
330
1E
100
AcDbEntity
  8
3
100
AcDbLine
 10
18.03220807111721
 20
-13.31832849952401
 30
0.0
 11
18.04795610261327
 21
-13.32620251527204
 31
0.0
  0
LINE
  5
3033
330
1E
100
AcDbEntity
  8
3
100
AcDbLine
 10
18.04795610261327
 20
-13.32620251527204
 30
0.0
 11
18.07157814985737
 21
-13.33407653102007
 31
0.0
  0
LINE
  5
3034
330
1E
100
AcDbEntity
  8
3
100
AcDbLine
 10
22.07157814985737
 20
-13.44431275149251
 30
0.0
 11
22.18968838607784
 21
-13.39706865700432
 31
0.0
  0
LINE
  5
3035
330
1E
100
AcDbEntity
  8
3
100
AcDbLine
 10
22.18968838607784
 20
-13.39706865700432
 30
0.0
 11
22.23693248056603
 21
-13.27895842078385
 31
0.0
  0
LINE
  5
3036
330
1E
100
AcDbEntity
  8
3
100
AcDbLine
 10
22.07157814985737
 20
-13.33407653102007
 30
0.0
 11
22.11094822859752
 21
-13.31832849952401
 31
0.0
  0
LINE
  5
3037
330
1E
100
AcDbEntity
  8
3
100
AcDbLine
 10
22.11094822859752
 20
-13.31832849952401
 30
0.0
 11
22.12669626009359
 21
-13.27895842078385
 31
0.0
  0
LINE
  5
3038
330
1E
100
AcDbEntity
  8
3
100
AcDbLine
 10
22.11882224434556
 20
-9.92462771212244
 30
0.0
 11
21.88260177190461
 21
-10.16084818456338
 31
0.0
  0
LINE
  5
3039
330
1E
100
AcDbEntity
  8
3
100
AcDbLine
 10
21.88260177190461
 20
-10.16084818456338
 30
0.0
 11
21.96134192938492
 21
-10.23958834204369
 31
0.0
  0
LINE
  5
303A
330
1E
100
AcDbEntity
  8
3
100
AcDbLine
 10
22.13457027584162
 20
-11.30258046802795
 30
0.0
 11
21.96134192938492
 21
-11.12935212157125
 31
0.0
  0
LINE
  5
303B
330
1E
100
AcDbEntity
  8
3
100
AcDbLine
 10
21.96134192938492
 20
-11.12935212157125
 30
0.0
 11
21.88260177190461
 21
-11.20809227905157
 31
0.0
  0
LINE
  5
303C
330
1E
100
AcDbEntity
  8
3
100
AcDbLine
 10
21.96134192938492
 20
-10.23958834204369
 30
0.0
 11
21.95346791363689
 21
-10.25533637353976
 31
0.0
  0
LINE
  5
303D
330
1E
100
AcDbEntity
  8
3
100
AcDbLine
 10
21.95346791363689
 20
-10.25533637353976
 30
0.0
 11
21.94559389788886
 21
-10.27895842078385
 31
0.0
  0
LINE
  5
303E
330
1E
100
AcDbEntity
  8
3
100
AcDbLine
 10
21.88260177190461
 20
-10.16084818456338
 30
0.0
 11
21.85110570891248
 21
-10.2159662947996
 31
0.0
  0
LINE
  5
303F
330
1E
100
AcDbEntity
  8
3
100
AcDbLine
 10
21.85110570891248
 20
-10.2159662947996
 30
0.0
 11
21.83535767741642
 21
-10.27895842078385
 31
0.0
  0
LINE
  5
3040
330
1E
100
AcDbEntity
  8
3
100
AcDbLine
 10
21.83535767741642
 20
-11.0899820428311
 30
0.0
 11
21.85110570891248
 21
-11.15297416881535
 31
0.0
  0
LINE
  5
3041
330
1E
100
AcDbEntity
  8
3
100
AcDbLine
 10
21.85110570891248
 20
-11.15297416881535
 30
0.0
 11
21.88260177190461
 21
-11.20809227905157
 31
0.0
  0
LINE
  5
3042
330
1E
100
AcDbEntity
  8
3
100
AcDbLine
 10
21.94559389788886
 20
-11.0899820428311
 30
0.0
 11
21.95346791363689
 21
-11.11360409007519
 31
0.0
  0
LINE
  5
3043
330
1E
100
AcDbEntity
  8
3
100
AcDbLine
 10
21.95346791363689
 20
-11.11360409007519
 30
0.0
 11
21.96134192938492
 21
-11.12935212157125
 31
0.0
  0
LINE
  5
3044
330
1E
100
AcDbEntity
  8
3
100
AcDbLine
 10
21.83535767741642
 20
-10.78289542865787
 30
0.0
 11
21.94559389788886
 21
-10.78289542865787
 31
0.0
  0
LINE
  5
3045
330
1E
100
AcDbEntity
  8
3
100
AcDbLine
 10
21.94559389788886
 20
-10.78289542865787
 30
0.0
 11
21.94559389788886
 21
-10.58604503495708
 31
0.0
  0
LINE
  5
3046
330
1E
100
AcDbEntity
  8
3
100
AcDbLine
 10
21.94559389788886
 20
-10.58604503495708
 30
0.0
 11
21.83535767741642
 21
-10.58604503495708
 31
0.0
  0
LINE
  5
3047
330
1E
100
AcDbEntity
  8
3
100
AcDbLine
 10
22.13457027584162
 20
-11.48368283023267
 30
0.0
 11
22.12669626009359
 21
-11.46006078298858
 31
0.0
  0
LINE
  5
3048
330
1E
100
AcDbEntity
  8
3
100
AcDbLine
 10
22.12669626009359
 20
-11.46006078298858
 30
0.0
 11
22.11882224434556
 21
-11.44431275149251
 31
0.0
  0
LINE
  5
3049
330
1E
100
AcDbEntity
  8
3
100
AcDbLine
 10
37.92984586639279
 20
-11.48368283023267
 30
0.0
 11
37.67787736245578
 21
-11.48368283023267
 31
0.0
  0
LINE
  5
304A
330
1E
100
AcDbEntity
  8
3
100
AcDbLine
 10
37.67787736245578
 20
-11.48368283023267
 30
0.0
 11
37.67787736245578
 21
-9.885257633382281
 31
0.0
  0
LINE
  5
304B
330
1E
100
AcDbEntity
  8
3
100
AcDbLine
 10
36.0558301183613
 20
-13.45218676724055
 30
0.0
 11
36.0558301183613
 21
-13.40494267275236
 31
0.0
  0
LINE
  5
304C
330
1E
100
AcDbEntity
  8
3
100
AcDbLine
 10
36.0558301183613
 20
-13.40494267275236
 30
0.0
 11
36.0558301183613
 21
-13.27895842078385
 31
0.0
  0
LINE
  5
3050
330
1E
100
AcDbEntity
  8
3
100
AcDbLine
 10
2.087326181353434
 20
1.398206933546855
 30
0.0
 11
2.11882224434556
 21
1.366710870554722
 31
0.0
  0
LINE
  5
3051
330
1E
100
AcDbEntity
  8
3
100
AcDbLine
 10
2.11882224434556
 20
1.366710870554722
 30
0.0
 11
2.158192323085717
 21
1.343088823310633
 31
0.0
  0
LINE
  5
3052
330
1E
100
AcDbEntity
  8
3
100
AcDbLine
 10
2.158192323085717
 20
1.343088823310633
 30
0.0
 11
2.197562401825875
 21
1.335214807562604
 31
0.0
  0
LINE
  5
3053
330
1E
100
AcDbEntity
  8
3
100
AcDbLine
 10
2.197562401825875
 20
1.335214807562604
 30
0.0
 11
2.236932480566032
 21
1.327340791814574
 31
0.0
  0
LINE
  5
3054
330
1E
100
AcDbEntity
  8
3
100
AcDbLine
 10
2.433782874266821
 20
-1.444312751492521
 30
0.0
 11
2.662129330959734
 21
-1.208092279051573
 31
0.0
  0
LINE
  5
3055
330
1E
100
AcDbEntity
  8
3
100
AcDbLine
 10
2.662129330959734
 20
-1.208092279051573
 30
0.0
 11
2.591263189227451
 21
-1.129352121571262
 31
0.0
  0
LINE
  5
3056
330
1E
100
AcDbEntity
  8
3
100
AcDbLine
 10
2.433782874266821
 20
-1.444312751492521
 30
0.0
 11
2.42590885851879
 21
-1.46006078298858
 31
0.0
  0
LINE
  5
3057
330
1E
100
AcDbEntity
  8
3
100
AcDbLine
 10
2.42590885851879
 20
-1.46006078298858
 30
0.0
 11
2.418034842770758
 21
-1.48368283023267
 31
0.0
  0
LINE
  5
3058
330
1E
100
AcDbEntity
  8
3
100
AcDbLine
 10
2.599137204975482
 20
-0.2710844050358254
 30
0.0
 11
2.591263189227451
 21
-0.2474623577917363
 31
0.0
  0
LINE
  5
3059
330
1E
100
AcDbEntity
  8
3
100
AcDbLine
 10
2.591263189227451
 20
-0.2474623577917363
 30
0.0
 11
2.583389173479419
 21
-0.2317143262956627
 31
0.0
  0
LINE
  5
305A
330
1E
100
AcDbEntity
  8
3
100
AcDbLine
 10
2.709373425447923
 20
-0.2710844050358254
 30
0.0
 11
2.69362539395186
 21
-0.2080922790515736
 31
0.0
  0
LINE
  5
305B
330
1E
100
AcDbEntity
  8
3
100
AcDbLine
 10
2.69362539395186
 20
-0.2080922790515736
 30
0.0
 11
2.662129330959734
 21
-0.1529741688153514
 31
0.0
  0
LINE
  5
305C
330
1E
100
AcDbEntity
  8
3
100
AcDbLine
 10
2.717247441195954
 20
-1.089982042831099
 30
0.0
 11
2.717247441195954
 21
-0.2710844050358254
 31
0.0
  0
LINE
  5
305D
330
1E
100
AcDbEntity
  8
3
100
AcDbLine
 10
2.717247441195954
 20
-0.2710844050358254
 30
0.0
 11
2.607011220723514
 21
-0.2710844050358254
 31
0.0
  0
LINE
  5
305E
330
1E
100
AcDbEntity
  8
3
100
AcDbLine
 10
2.583389173479419
 20
-1.129352121571262
 30
0.0
 11
2.591263189227451
 21
-1.113604090075202
 31
0.0
  0
LINE
  5
305F
330
1E
100
AcDbEntity
  8
3
100
AcDbLine
 10
2.591263189227451
 20
-1.113604090075202
 30
0.0
 11
2.599137204975482
 21
-1.089982042831099
 31
0.0
  0
LINE
  5
3060
330
1E
100
AcDbEntity
  8
3
100
AcDbLine
 10
2.662129330959734
 20
-1.208092279051573
 30
0.0
 11
2.69362539395186
 21
-1.152974168815351
 31
0.0
  0
LINE
  5
3061
330
1E
100
AcDbEntity
  8
3
100
AcDbLine
 10
2.69362539395186
 20
-1.152974168815351
 30
0.0
 11
2.709373425447923
 21
-1.089982042831099
 31
0.0
  0
LINE
  5
3062
330
1E
100
AcDbEntity
  8
3
100
AcDbLine
 10
2.418034842770758
 20
0.1147423666177154
 30
0.0
 11
2.418034842770758
 21
0.098994335121656
 31
0.0
  0
LINE
  5
3063
330
1E
100
AcDbEntity
  8
3
100
AcDbLine
 10
2.418034842770758
 20
0.098994335121656
 30
0.0
 11
2.42590885851879
 21
0.0832463036255966
 31
0.0
  0
LINE
  5
3064
330
1E
100
AcDbEntity
  8
3
100
AcDbLine
 10
3.339294685290441
 20
1.980884098901181
 30
0.0
 11
3.307798622298316
 21
1.980884098901181
 31
0.0
  0
LINE
  5
3065
330
1E
100
AcDbEntity
  8
3
100
AcDbLine
 10
3.307798622298316
 20
1.980884098901181
 30
0.0
 11
3.213310433321938
 21
1.980884098901181
 31
0.0
  0
LINE
  5
3066
330
1E
100
AcDbEntity
  8
3
100
AcDbLine
 10
3.213310433321938
 20
1.980884098901181
 30
0.0
 11
3.095200197101465
 21
1.980884098901181
 31
0.0
  0
LINE
  5
3067
330
1E
100
AcDbEntity
  8
3
100
AcDbLine
 10
3.095200197101465
 20
1.980884098901181
 30
0.0
 11
3.000712008125088
 21
1.980884098901181
 31
0.0
  0
LINE
  5
3068
330
1E
100
AcDbEntity
  8
3
100
AcDbLine
 10
3.000712008125088
 20
1.980884098901181
 30
0.0
 11
2.969215945132962
 21
1.980884098901181
 31
0.0
  0
LINE
  5
3069
330
1E
100
AcDbEntity
  8
3
100
AcDbLine
 10
2.17394035458178
 20
2.169860476853937
 30
0.0
 11
2.221184449069969
 21
2.193482524098026
 31
0.0
  0
LINE
  5
306A
330
1E
100
AcDbEntity
  8
3
100
AcDbLine
 10
2.221184449069969
 20
2.193482524098026
 30
0.0
 11
2.221184449069969
 21
2.248600634334248
 31
0.0
  0
LINE
  5
306B
330
1E
100
AcDbEntity
  8
3
100
AcDbLine
 10
2.221184449069969
 20
2.248600634334248
 30
0.0
 11
2.17394035458178
 21
2.280096697326381
 31
0.0
  0
LINE
  5
306C
330
1E
100
AcDbEntity
  8
3
100
AcDbLine
 10
2.17394035458178
 20
2.280096697326381
 30
0.0
 11
2.126696260093591
 21
2.256474650082278
 31
0.0
  0
LINE
  5
306D
330
1E
100
AcDbEntity
  8
3
100
AcDbLine
 10
2.126696260093591
 20
2.256474650082278
 30
0.0
 11
2.126696260093591
 21
2.20135653984607
 31
0.0
  0
LINE
  5
306E
330
1E
100
AcDbEntity
  8
3
100
AcDbLine
 10
2.126696260093591
 20
2.20135653984607
 30
0.0
 11
2.17394035458178
 21
2.169860476853937
 31
0.0
  0
LINE
  5
306F
330
1E
100
AcDbEntity
  8
3
100
AcDbLine
 10
2.236932480566032
 20
2.224978587090159
 30
0.0
 11
2.197562401825875
 21
2.280096697326381
 31
0.0
  0
LINE
  5
3070
330
1E
100
AcDbEntity
  8
3
100
AcDbLine
 10
2.197562401825875
 20
2.280096697326381
 30
0.0
 11
2.126696260093591
 21
2.272222681578352
 31
0.0
  0
LINE
  5
3071
330
1E
100
AcDbEntity
  8
3
100
AcDbLine
 10
2.126696260093591
 20
2.272222681578352
 30
0.0
 11
2.11882224434556
 21
2.20135653984607
 31
0.0
  0
LINE
  5
3072
330
1E
100
AcDbEntity
  8
3
100
AcDbLine
 10
2.11882224434556
 20
2.20135653984607
 30
0.0
 11
2.17394035458178
 21
2.161986461105907
 31
0.0
  0
LINE
  5
3073
330
1E
100
AcDbEntity
  8
3
100
AcDbLine
 10
2.087326181353434
 20
2.3115927603185
 30
0.0
 11
2.047956102613277
 21
2.224978587090159
 31
0.0
  0
LINE
  5
3074
330
1E
100
AcDbEntity
  8
3
100
AcDbLine
 10
2.047956102613277
 20
2.224978587090159
 30
0.0
 11
2.087326181353434
 21
2.138364413861818
 31
0.0
  0
LINE
  5
3075
330
1E
100
AcDbEntity
  8
3
100
AcDbLine
 10
2.087326181353434
 20
2.138364413861818
 30
0.0
 11
2.17394035458178
 21
2.098994335121656
 31
0.0
  0
LINE
  5
3076
330
1E
100
AcDbEntity
  8
3
100
AcDbLine
 10
2.299924606550284
 20
2.224978587090159
 30
0.0
 11
2.260554527810127
 21
2.3115927603185
 31
0.0
  0
LINE
  5
3077
330
1E
100
AcDbEntity
  8
3
100
AcDbLine
 10
2.260554527810127
 20
2.3115927603185
 30
0.0
 11
2.17394035458178
 21
2.350962839058663
 31
0.0
  0
LINE
  5
3078
330
1E
100
AcDbEntity
  8
3
100
AcDbLine
 10
2.17394035458178
 20
2.350962839058663
 30
0.0
 11
2.087326181353434
 21
2.3115927603185
 31
0.0
  0
LINE
  5
3079
330
1E
100
AcDbEntity
  8
3
100
AcDbLine
 10
2.299924606550284
 20
1.9100179571689
 30
0.0
 11
2.299924606550284
 21
1.941514020161019
 31
0.0
  0
LINE
  5
307A
330
1E
100
AcDbEntity
  8
3
100
AcDbLine
 10
2.299924606550284
 20
1.941514020161019
 30
0.0
 11
2.299924606550284
 21
1.957262051657092
 31
0.0
  0
LINE
  5
307B
330
1E
100
AcDbEntity
  8
3
100
AcDbLine
 10
2.087326181353434
 20
1.390332917798826
 30
0.0
 11
2.087326181353434
 21
1.469073075279137
 31
0.0
  0
LINE
  5
307C
330
1E
100
AcDbEntity
  8
3
100
AcDbLine
 10
2.087326181353434
 20
1.469073075279137
 30
0.0
 11
2.087326181353434
 21
1.579309295751581
 31
0.0
  0
LINE
  5
307D
330
1E
100
AcDbEntity
  8
3
100
AcDbLine
 10
2.158192323085717
 20
1.705293547720085
 30
0.0
 11
2.11882224434556
 21
1.681671500475982
 31
0.0
  0
LINE
  5
307E
330
1E
100
AcDbEntity
  8
3
100
AcDbLine
 10
2.11882224434556
 20
1.681671500475982
 30
0.0
 11
2.087326181353434
 21
1.650175437483863
 31
0.0
  0
LINE
  5
307F
330
1E
100
AcDbEntity
  8
3
100
AcDbLine
 10
2.236932480566032
 20
1.721041579216144
 30
0.0
 11
2.197562401825875
 21
1.713167563468115
 31
0.0
  0
LINE
  5
3080
330
1E
100
AcDbEntity
  8
3
100
AcDbLine
 10
2.197562401825875
 20
1.713167563468115
 30
0.0
 11
2.158192323085717
 21
1.705293547720085
 31
0.0
  0
LINE
  5
3081
330
1E
100
AcDbEntity
  8
3
100
AcDbLine
 10
2.410160827022725
 20
1.973010083153152
 30
0.0
 11
2.410160827022725
 21
1.957262051657092
 31
0.0
  0
LINE
  5
3082
330
1E
100
AcDbEntity
  8
3
100
AcDbLine
 10
2.410160827022725
 20
1.957262051657092
 30
0.0
 11
2.410160827022725
 21
1.9100179571689
 31
0.0
  0
LINE
  5
3083
330
1E
100
AcDbEntity
  8
3
100
AcDbLine
 10
2.740869488440049
 20
1.413954965042915
 30
0.0
 11
2.740869488440049
 21
1.445451028035034
 31
0.0
  0
LINE
  5
3084
330
1E
100
AcDbEntity
  8
3
100
AcDbLine
 10
2.740869488440049
 20
1.445451028035034
 30
0.0
 11
2.740869488440049
 21
1.524191185515359
 31
0.0
  0
LINE
  5
3085
330
1E
100
AcDbEntity
  8
3
100
AcDbLine
 10
2.740869488440049
 20
1.524191185515359
 30
0.0
 11
2.740869488440049
 21
1.60293134299567
 31
0.0
  0
LINE
  5
3086
330
1E
100
AcDbEntity
  8
3
100
AcDbLine
 10
2.740869488440049
 20
1.60293134299567
 30
0.0
 11
2.740869488440049
 21
1.634427405987789
 31
0.0
  0
LINE
  5
308A
330
1E
100
AcDbEntity
  8
3
100
AcDbLine
 10
3.284176575054221
 20
13.52419118551535
 30
0.0
 11
3.229058464818001
 21
13.59505732724764
 31
0.0
  0
LINE
  5
308B
330
1E
100
AcDbEntity
  8
3
100
AcDbLine
 10
3.229058464818001
 20
13.59505732724764
 30
0.0
 11
3.134570275841623
 21
13.6108053587437
 31
0.0
  0
LINE
  5
308C
330
1E
100
AcDbEntity
  8
3
100
AcDbLine
 10
3.134570275841623
 20
13.6108053587437
 30
0.0
 11
3.055830118361308
 21
13.5635612642555
 31
0.0
  0
LINE
  5
308D
330
1E
100
AcDbEntity
  8
3
100
AcDbLine
 10
3.055830118361308
 20
13.5635612642555
 30
0.0
 11
3.024334055369182
 21
13.47694709102716
 31
0.0
  0
LINE
  5
308E
330
1E
100
AcDbEntity
  8
3
100
AcDbLine
 10
3.024334055369182
 20
13.47694709102716
 30
0.0
 11
3.055830118361308
 21
13.39033291779882
 31
0.0
  0
LINE
  5
308F
330
1E
100
AcDbEntity
  8
3
100
AcDbLine
 10
3.055830118361308
 20
13.39033291779882
 30
0.0
 11
3.134570275841623
 21
13.34308882331063
 31
0.0
  0
LINE
  5
3090
330
1E
100
AcDbEntity
  8
3
100
AcDbLine
 10
3.134570275841623
 20
13.34308882331063
 30
0.0
 11
3.221184449069969
 21
13.35883685480669
 31
0.0
  0
LINE
  5
3091
330
1E
100
AcDbEntity
  8
3
100
AcDbLine
 10
3.221184449069969
 20
13.35883685480669
 30
0.0
 11
3.284176575054221
 21
13.42970299653897
 31
0.0
  0
LINE
  5
3092
330
1E
100
AcDbEntity
  8
3
100
AcDbLine
 10
3.284176575054221
 20
13.42970299653897
 30
0.0
 11
3.284176575054221
 21
13.52419118551535
 31
0.0
  0
LINE
  5
3093
330
1E
100
AcDbEntity
  8
3
100
AcDbLine
 10
3.055830118361308
 20
14.0123801618933
 30
0.0
 11
3.134570275841623
 21
13.96513606740512
 31
0.0
  0
LINE
  5
3094
330
1E
100
AcDbEntity
  8
3
100
AcDbLine
 10
3.134570275841623
 20
13.96513606740512
 30
0.0
 11
3.221184449069969
 21
13.98088409890118
 31
0.0
  0
LINE
  5
3095
330
1E
100
AcDbEntity
  8
3
100
AcDbLine
 10
3.221184449069969
 20
13.98088409890118
 30
0.0
 11
3.284176575054221
 21
14.05175024063346
 31
0.0
  0
LINE
  5
3096
330
1E
100
AcDbEntity
  8
3
100
AcDbLine
 10
3.284176575054221
 20
14.05175024063346
 30
0.0
 11
3.284176575054221
 21
14.14623842960985
 31
0.0
  0
LINE
  5
3097
330
1E
100
AcDbEntity
  8
3
100
AcDbLine
 10
3.284176575054221
 20
14.14623842960985
 30
0.0
 11
3.229058464818001
 21
14.21710457134213
 31
0.0
  0
LINE
  5
3098
330
1E
100
AcDbEntity
  8
3
100
AcDbLine
 10
3.229058464818001
 20
14.21710457134213
 30
0.0
 11
3.134570275841623
 21
14.23285260283819
 31
0.0
  0
LINE
  5
3099
330
1E
100
AcDbEntity
  8
3
100
AcDbLine
 10
3.134570275841623
 20
14.23285260283819
 30
0.0
 11
3.055830118361308
 21
14.18560850834999
 31
0.0
  0
LINE
  5
309A
330
1E
100
AcDbEntity
  8
3
100
AcDbLine
 10
3.055830118361308
 20
14.18560850834999
 30
0.0
 11
3.024334055369182
 21
14.09899433512165
 31
0.0
  0
LINE
  5
309B
330
1E
100
AcDbEntity
  8
3
100
AcDbLine
 10
3.024334055369182
 20
14.72891559496417
 30
0.0
 11
3.055830118361308
 21
14.64230142173583
 31
0.0
  0
LINE
  5
309C
330
1E
100
AcDbEntity
  8
3
100
AcDbLine
 10
3.055830118361308
 20
14.64230142173583
 30
0.0
 11
3.134570275841623
 21
14.59505732724764
 31
0.0
  0
LINE
  5
309D
330
1E
100
AcDbEntity
  8
3
100
AcDbLine
 10
3.134570275841623
 20
14.59505732724764
 30
0.0
 11
3.221184449069969
 21
14.6108053587437
 31
0.0
  0
LINE
  5
309E
330
1E
100
AcDbEntity
  8
3
100
AcDbLine
 10
3.221184449069969
 20
14.6108053587437
 30
0.0
 11
3.284176575054221
 21
14.68167150047598
 31
0.0
  0
LINE
  5
309F
330
1E
100
AcDbEntity
  8
3
100
AcDbLine
 10
3.284176575054221
 20
14.68167150047598
 30
0.0
 11
3.284176575054221
 21
14.77615968945236
 31
0.0
  0
LINE
  5
30A0
330
1E
100
AcDbEntity
  8
3
100
AcDbLine
 10
3.284176575054221
 20
14.77615968945236
 30
0.0
 11
3.229058464818001
 21
14.84702583118465
 31
0.0
  0
LINE
  5
30A1
330
1E
100
AcDbEntity
  8
3
100
AcDbLine
 10
3.229058464818001
 20
14.84702583118465
 30
0.0
 11
3.134570275841623
 21
14.8627738626807
 31
0.0
  0
LINE
  5
30A2
330
1E
100
AcDbEntity
  8
3
100
AcDbLine
 10
3.134570275841623
 20
14.8627738626807
 30
0.0
 11
3.055830118361308
 21
14.81552976819251
 31
0.0
  0
LINE
  5
30A3
330
1E
100
AcDbEntity
  8
3
100
AcDbLine
 10
3.055830118361308
 20
14.81552976819251
 30
0.0
 11
3.024334055369182
 21
14.72891559496417
 31
0.0
  0
LINE
  5
30A4
330
1E
100
AcDbEntity
  8
3
100
AcDbLine
 10
3.024334055369182
 20
15.22497858709016
 30
0.0
 11
3.055830118361308
 21
15.13836441386182
 31
0.0
  0
LINE
  5
30A5
330
1E
100
AcDbEntity
  8
3
100
AcDbLine
 10
3.055830118361308
 20
15.13836441386182
 30
0.0
 11
3.134570275841623
 21
15.09112031937362
 31
0.0
  0
LINE
  5
30A6
330
1E
100
AcDbEntity
  8
3
100
AcDbLine
 10
3.134570275841623
 20
15.09112031937362
 30
0.0
 11
3.221184449069969
 21
15.10686835086968
 31
0.0
  0
LINE
  5
30A7
330
1E
100
AcDbEntity
  8
3
100
AcDbLine
 10
3.221184449069969
 20
15.10686835086968
 30
0.0
 11
3.284176575054221
 21
15.17773449260196
 31
0.0
  0
LINE
  5
30A8
330
1E
100
AcDbEntity
  8
3
100
AcDbLine
 10
3.284176575054221
 20
15.17773449260196
 30
0.0
 11
3.284176575054221
 21
15.27222268157835
 31
0.0
  0
LINE
  5
30A9
330
1E
100
AcDbEntity
  8
3
100
AcDbLine
 10
3.284176575054221
 20
15.27222268157835
 30
0.0
 11
3.229058464818001
 21
15.34308882331063
 31
0.0
  0
LINE
  5
30AA
330
1E
100
AcDbEntity
  8
3
100
AcDbLine
 10
3.229058464818001
 20
15.34308882331063
 30
0.0
 11
3.134570275841623
 21
15.35883685480669
 31
0.0
  0
LINE
  5
30AB
330
1E
100
AcDbEntity
  8
3
100
AcDbLine
 10
3.134570275841623
 20
15.35883685480669
 30
0.0
 11
3.055830118361308
 21
15.3115927603185
 31
0.0
  0
LINE
  5
30AC
330
1E
100
AcDbEntity
  8
3
100
AcDbLine
 10
3.055830118361308
 20
15.3115927603185
 30
0.0
 11
3.024334055369182
 21
15.22497858709016
 31
0.0
  0
LINE
  5
30AD
330
1E
100
AcDbEntity
  8
3
100
AcDbLine
 10
3.292050590802253
 20
13.47694709102716
 30
0.0
 11
3.260554527810127
 21
13.5635612642555
 31
0.0
  0
LINE
  5
30AE
330
1E
100
AcDbEntity
  8
3
100
AcDbLine
 10
3.260554527810127
 20
13.5635612642555
 30
0.0
 11
3.181814370329812
 21
13.6108053587437
 31
0.0
  0
LINE
  5
30AF
330
1E
100
AcDbEntity
  8
3
100
AcDbLine
 10
3.181814370329812
 20
13.6108053587437
 30
0.0
 11
3.095200197101465
 21
13.59505732724764
 31
0.0
  0
LINE
  5
30B0
330
1E
100
AcDbEntity
  8
3
100
AcDbLine
 10
3.095200197101465
 20
13.59505732724764
 30
0.0
 11
3.032208071117214
 21
13.52419118551535
 31
0.0
  0
LINE
  5
30B1
330
1E
100
AcDbEntity
  8
3
100
AcDbLine
 10
3.032208071117214
 20
13.52419118551535
 30
0.0
 11
3.032208071117214
 21
13.42970299653897
 31
0.0
  0
LINE
  5
30B2
330
1E
100
AcDbEntity
  8
3
100
AcDbLine
 10
3.032208071117214
 20
13.42970299653897
 30
0.0
 11
3.087326181353434
 21
13.35883685480669
 31
0.0
  0
LINE
  5
30B3
330
1E
100
AcDbEntity
  8
3
100
AcDbLine
 10
3.087326181353434
 20
13.35883685480669
 30
0.0
 11
3.181814370329812
 21
13.34308882331063
 31
0.0
  0
LINE
  5
30B4
330
1E
100
AcDbEntity
  8
3
100
AcDbLine
 10
3.181814370329812
 20
13.34308882331063
 30
0.0
 11
3.260554527810127
 21
13.39033291779882
 31
0.0
  0
LINE
  5
30B5
330
1E
100
AcDbEntity
  8
3
100
AcDbLine
 10
3.292050590802253
 20
14.09899433512165
 30
0.0
 11
3.260554527810127
 21
14.18560850834999
 31
0.0
  0
LINE
  5
30B6
330
1E
100
AcDbEntity
  8
3
100
AcDbLine
 10
3.260554527810127
 20
14.18560850834999
 30
0.0
 11
3.181814370329812
 21
14.23285260283819
 31
0.0
  0
LINE
  5
30B7
330
1E
100
AcDbEntity
  8
3
100
AcDbLine
 10
3.181814370329812
 20
14.23285260283819
 30
0.0
 11
3.095200197101465
 21
14.21710457134213
 31
0.0
  0
LINE
  5
30B8
330
1E
100
AcDbEntity
  8
3
100
AcDbLine
 10
3.095200197101465
 20
14.21710457134213
 30
0.0
 11
3.032208071117214
 21
14.14623842960985
 31
0.0
  0
LINE
  5
30B9
330
1E
100
AcDbEntity
  8
3
100
AcDbLine
 10
3.032208071117214
 20
14.14623842960985
 30
0.0
 11
3.032208071117214
 21
14.05175024063346
 31
0.0
  0
LINE
  5
30BA
330
1E
100
AcDbEntity
  8
3
100
AcDbLine
 10
3.032208071117214
 20
14.05175024063346
 30
0.0
 11
3.087326181353434
 21
13.98088409890118
 31
0.0
  0
LINE
  5
30BB
330
1E
100
AcDbEntity
  8
3
100
AcDbLine
 10
3.087326181353434
 20
13.98088409890118
 30
0.0
 11
3.181814370329812
 21
13.96513606740512
 31
0.0
  0
LINE
  5
30BC
330
1E
100
AcDbEntity
  8
3
100
AcDbLine
 10
3.181814370329812
 20
13.96513606740512
 30
0.0
 11
3.260554527810127
 21
14.0123801618933
 31
0.0
  0
LINE
  5
30BD
330
1E
100
AcDbEntity
  8
3
100
AcDbLine
 10
3.260554527810127
 20
14.0123801618933
 30
0.0
 11
3.292050590802253
 21
14.09899433512165
 31
0.0
  0
LINE
  5
30BE
330
1E
100
AcDbEntity
  8
3
100
AcDbLine
 10
3.181814370329812
 20
14.59505732724764
 30
0.0
 11
3.260554527810127
 21
14.64230142173583
 31
0.0
  0
LINE
  5
30BF
330
1E
100
AcDbEntity
  8
3
100
AcDbLine
 10
3.260554527810127
 20
14.64230142173583
 30
0.0
 11
3.292050590802253
 21
14.72891559496417
 31
0.0
  0
LINE
  5
30C0
330
1E
100
AcDbEntity
  8
3
100
AcDbLine
 10
3.292050590802253
 20
14.72891559496417
 30
0.0
 11
3.260554527810127
 21
14.81552976819251
 31
0.0
  0
LINE
  5
30C1
330
1E
100
AcDbEntity
  8
3
100
AcDbLine
 10
3.260554527810127
 20
14.81552976819251
 30
0.0
 11
3.181814370329812
 21
14.8627738626807
 31
0.0
  0
LINE
  5
30C2
330
1E
100
AcDbEntity
  8
3
100
AcDbLine
 10
3.181814370329812
 20
14.8627738626807
 30
0.0
 11
3.095200197101465
 21
14.84702583118465
 31
0.0
  0
LINE
  5
30C3
330
1E
100
AcDbEntity
  8
3
100
AcDbLine
 10
3.095200197101465
 20
14.84702583118465
 30
0.0
 11
3.032208071117214
 21
14.77615968945236
 31
0.0
  0
LINE
  5
30C4
330
1E
100
AcDbEntity
  8
3
100
AcDbLine
 10
3.032208071117214
 20
14.77615968945236
 30
0.0
 11
3.032208071117214
 21
14.68167150047598
 31
0.0
  0
LINE
  5
30C5
330
1E
100
AcDbEntity
  8
3
100
AcDbLine
 10
3.032208071117214
 20
14.68167150047598
 30
0.0
 11
3.087326181353434
 21
14.6108053587437
 31
0.0
  0
LINE
  5
30C6
330
1E
100
AcDbEntity
  8
3
100
AcDbLine
 10
3.087326181353434
 20
14.6108053587437
 30
0.0
 11
3.181814370329812
 21
14.59505732724764
 31
0.0
  0
LINE
  5
30C7
330
1E
100
AcDbEntity
  8
3
100
AcDbLine
 10
3.292050590802253
 20
15.22497858709016
 30
0.0
 11
3.260554527810127
 21
15.3115927603185
 31
0.0
  0
LINE
  5
30C8
330
1E
100
AcDbEntity
  8
3
100
AcDbLine
 10
3.260554527810127
 20
15.3115927603185
 30
0.0
 11
3.181814370329812
 21
15.35883685480669
 31
0.0
  0
LINE
  5
30C9
330
1E
100
AcDbEntity
  8
3
100
AcDbLine
 10
3.181814370329812
 20
15.35883685480669
 30
0.0
 11
3.095200197101465
 21
15.34308882331063
 31
0.0
  0
LINE
  5
30CA
330
1E
100
AcDbEntity
  8
3
100
AcDbLine
 10
3.095200197101465
 20
15.34308882331063
 30
0.0
 11
3.032208071117214
 21
15.27222268157835
 31
0.0
  0
LINE
  5
30CB
330
1E
100
AcDbEntity
  8
3
100
AcDbLine
 10
3.032208071117214
 20
15.27222268157835
 30
0.0
 11
3.032208071117214
 21
15.17773449260196
 31
0.0
  0
LINE
  5
30CC
330
1E
100
AcDbEntity
  8
3
100
AcDbLine
 10
3.032208071117214
 20
15.17773449260196
 30
0.0
 11
3.087326181353434
 21
15.10686835086968
 31
0.0
  0
LINE
  5
30CD
330
1E
100
AcDbEntity
  8
3
100
AcDbLine
 10
3.087326181353434
 20
15.10686835086968
 30
0.0
 11
3.181814370329812
 21
15.09112031937362
 31
0.0
  0
LINE
  5
30CE
330
1E
100
AcDbEntity
  8
3
100
AcDbLine
 10
3.181814370329812
 20
15.09112031937362
 30
0.0
 11
3.260554527810127
 21
15.13836441386182
 31
0.0
  0
LINE
  5
30CF
330
1E
100
AcDbEntity
  8
3
100
AcDbLine
 10
3.260554527810127
 20
15.13836441386182
 30
0.0
 11
3.292050590802253
 21
15.22497858709016
 31
0.0
  0
LINE
  5
30D0
330
1E
100
AcDbEntity
  8
3
100
AcDbLine
 10
3.244806496314064
 20
14.09899433512165
 30
0.0
 11
3.213310433321938
 21
14.16986047685393
 31
0.0
  0
LINE
  5
30D1
330
1E
100
AcDbEntity
  8
3
100
AcDbLine
 10
3.213310433321938
 20
14.16986047685393
 30
0.0
 11
3.142444291589654
 21
14.18560850834999
 31
0.0
  0
LINE
  5
30D2
330
1E
100
AcDbEntity
  8
3
100
AcDbLine
 10
3.142444291589654
 20
14.18560850834999
 30
0.0
 11
3.079452165605403
 21
14.13836441386181
 31
0.0
  0
LINE
  5
30D3
330
1E
100
AcDbEntity
  8
3
100
AcDbLine
 10
3.079452165605403
 20
14.13836441386181
 30
0.0
 11
3.079452165605403
 21
14.05962425638149
 31
0.0
  0
LINE
  5
30D4
330
1E
100
AcDbEntity
  8
3
100
AcDbLine
 10
3.079452165605403
 20
14.05962425638149
 30
0.0
 11
3.142444291589654
 21
14.0123801618933
 31
0.0
  0
LINE
  5
30D5
330
1E
100
AcDbEntity
  8
3
100
AcDbLine
 10
3.142444291589654
 20
14.0123801618933
 30
0.0
 11
3.213310433321938
 21
14.02812819338937
 31
0.0
  0
LINE
  5
30D6
330
1E
100
AcDbEntity
  8
3
100
AcDbLine
 10
3.213310433321938
 20
14.02812819338937
 30
0.0
 11
3.244806496314064
 21
14.09899433512165
 31
0.0
  0
LINE
  5
30D7
330
1E
100
AcDbEntity
  8
3
100
AcDbLine
 10
2.473152953006978
 20
13.22497858709016
 30
0.0
 11
2.433782874266821
 21
13.22497858709016
 31
0.0
  0
LINE
  5
30D8
330
1E
100
AcDbEntity
  8
3
100
AcDbLine
 10
2.433782874266821
 20
13.22497858709016
 30
0.0
 11
2.410160827022725
 21
13.22497858709016
 31
0.0
  0
LINE
  5
30D9
330
1E
100
AcDbEntity
  8
3
100
AcDbLine
 10
2.410160827022725
 20
13.22497858709016
 30
0.0
 11
2.299924606550284
 21
13.22497858709016
 31
0.0
  0
LINE
  5
30DA
330
1E
100
AcDbEntity
  8
3
100
AcDbLine
 10
2.299924606550284
 20
13.66592346897992
 30
0.0
 11
2.268428543558158
 21
13.66592346897992
 31
0.0
  0
LINE
  5
30DB
330
1E
100
AcDbEntity
  8
3
100
AcDbLine
 10
2.268428543558158
 20
13.66592346897992
 30
0.0
 11
2.17394035458178
 21
13.66592346897992
 31
0.0
  0
LINE
  5
30DC
330
1E
100
AcDbEntity
  8
3
100
AcDbLine
 10
2.17394035458178
 20
13.66592346897992
 30
0.0
 11
2.079452165605403
 21
13.66592346897992
 31
0.0
  0
LINE
  5
30DD
330
1E
100
AcDbEntity
  8
3
100
AcDbLine
 10
2.079452165605403
 20
13.66592346897992
 30
0.0
 11
2.040082086865245
 21
13.66592346897992
 31
0.0
  0
LINE
  5
30DE
330
1E
100
AcDbEntity
  8
3
100
AcDbLine
 10
2.299924606550284
 20
13.22497858709016
 30
0.0
 11
2.299924606550284
 21
13.23285260283818
 31
0.0
  0
LINE
  5
30DF
330
1E
100
AcDbEntity
  8
3
100
AcDbLine
 10
2.299924606550284
 20
13.23285260283818
 30
0.0
 11
2.299924606550284
 21
13.24860063433424
 31
0.0
  0
LINE
  5
30E0
330
1E
100
AcDbEntity
  8
3
100
AcDbLine
 10
2.087326181353434
 20
13.63442740598779
 30
0.0
 11
2.087326181353434
 21
13.65017543748386
 31
0.0
  0
LINE
  5
30E1
330
1E
100
AcDbEntity
  8
3
100
AcDbLine
 10
2.087326181353434
 20
13.65017543748386
 30
0.0
 11
2.087326181353434
 21
13.66592346897992
 31
0.0
  0
LINE
  5
30E2
330
1E
100
AcDbEntity
  8
3
100
AcDbLine
 10
2.087326181353434
 20
13.46907307527913
 30
0.0
 11
2.087326181353434
 21
13.49269512252322
 31
0.0
  0
LINE
  5
30E3
330
1E
100
AcDbEntity
  8
3
100
AcDbLine
 10
2.087326181353434
 20
13.49269512252322
 30
0.0
 11
2.087326181353434
 21
13.5635612642555
 31
0.0
  0
LINE
  5
30E4
330
1E
100
AcDbEntity
  8
3
100
AcDbLine
 10
2.158192323085717
 20
13.5635612642555
 30
0.0
 11
2.158192323085717
 21
13.60293134299567
 31
0.0
  0
LINE
  5
30E5
330
1E
100
AcDbEntity
  8
3
100
AcDbLine
 10
2.158192323085717
 20
13.60293134299567
 30
0.0
 11
2.158192323085717
 21
13.63442740598779
 31
0.0
  0
LINE
  5
30E6
330
1E
100
AcDbEntity
  8
3
100
AcDbLine
 10
2.158192323085717
 20
13.63442740598779
 30
0.0
 11
2.11882224434556
 21
13.63442740598779
 31
0.0
  0
LINE
  5
30E7
330
1E
100
AcDbEntity
  8
3
100
AcDbLine
 10
2.11882224434556
 20
13.63442740598779
 30
0.0
 11
2.087326181353434
 21
13.63442740598779
 31
0.0
  0
LINE
  5
30E8
330
1E
100
AcDbEntity
  8
3
100
AcDbLine
 10
2.087326181353434
 20
13.5635612642555
 30
0.0
 11
2.11882224434556
 21
13.5635612642555
 31
0.0
  0
LINE
  5
30E9
330
1E
100
AcDbEntity
  8
3
100
AcDbLine
 10
2.11882224434556
 20
13.5635612642555
 30
0.0
 11
2.158192323085717
 21
13.5635612642555
 31
0.0
  0
LINE
  5
30EA
330
1E
100
AcDbEntity
  8
3
100
AcDbLine
 10
2.087326181353434
 20
13.47694709102716
 30
0.0
 11
2.158192323085717
 21
13.42182898079094
 31
0.0
  0
LINE
  5
30EB
330
1E
100
AcDbEntity
  8
3
100
AcDbLine
 10
2.158192323085717
 20
13.42182898079094
 30
0.0
 11
2.236932480566032
 21
13.40608094929488
 31
0.0
  0
LINE
  5
30EC
330
1E
100
AcDbEntity
  8
3
100
AcDbLine
 10
2.410160827022725
 20
13.24860063433424
 30
0.0
 11
2.410160827022725
 21
13.23285260283818
 31
0.0
  0
LINE
  5
30ED
330
1E
100
AcDbEntity
  8
3
100
AcDbLine
 10
2.410160827022725
 20
13.23285260283818
 30
0.0
 11
2.410160827022725
 21
13.22497858709016
 31
0.0
  0
LINE
  5
30EE
330
1E
100
AcDbEntity
  8
3
100
AcDbLine
 10
3.213310433321938
 20
13.54781323275944
 30
0.0
 11
3.142444291589654
 21
13.5635612642555
 31
0.0
  0
LINE
  5
30EF
330
1E
100
AcDbEntity
  8
3
100
AcDbLine
 10
3.142444291589654
 20
13.5635612642555
 30
0.0
 11
3.079452165605403
 21
13.51631716976733
 31
0.0
  0
LINE
  5
30F0
330
1E
100
AcDbEntity
  8
3
100
AcDbLine
 10
3.079452165605403
 20
13.51631716976733
 30
0.0
 11
3.079452165605403
 21
13.437577012287
 31
0.0
  0
LINE
  5
30F1
330
1E
100
AcDbEntity
  8
3
100
AcDbLine
 10
3.079452165605403
 20
13.437577012287
 30
0.0
 11
3.142444291589654
 21
13.39033291779882
 31
0.0
  0
LINE
  5
30F2
330
1E
100
AcDbEntity
  8
3
100
AcDbLine
 10
3.142444291589654
 20
13.39033291779882
 30
0.0
 11
3.213310433321938
 21
13.40608094929488
 31
0.0
  0
LINE
  5
30F3
330
1E
100
AcDbEntity
  8
3
100
AcDbLine
 10
3.213310433321938
 20
13.40608094929488
 30
0.0
 11
3.244806496314064
 21
13.47694709102716
 31
0.0
  0
LINE
  5
30F4
330
1E
100
AcDbEntity
  8
3
100
AcDbLine
 10
2.299924606550284
 20
15.24860063433425
 30
0.0
 11
2.268428543558158
 21
15.24860063433425
 31
0.0
  0
LINE
  5
30F5
330
1E
100
AcDbEntity
  8
3
100
AcDbLine
 10
2.268428543558158
 20
15.24860063433425
 30
0.0
 11
2.17394035458178
 21
15.24860063433425
 31
0.0
  0
LINE
  5
30F6
330
1E
100
AcDbEntity
  8
3
100
AcDbLine
 10
2.17394035458178
 20
15.24860063433425
 30
0.0
 11
2.079452165605403
 21
15.24860063433425
 31
0.0
  0
LINE
  5
30F7
330
1E
100
AcDbEntity
  8
3
100
AcDbLine
 10
2.079452165605403
 20
15.24860063433425
 30
0.0
 11
2.040082086865245
 21
15.24860063433425
 31
0.0
  0
LINE
  5
30F8
330
1E
100
AcDbEntity
  8
3
100
AcDbLine
 10
2.299924606550284
 20
14.19348252409802
 30
0.0
 11
2.268428543558158
 21
14.19348252409802
 31
0.0
  0
LINE
  5
30F9
330
1E
100
AcDbEntity
  8
3
100
AcDbLine
 10
2.268428543558158
 20
14.19348252409802
 30
0.0
 11
2.17394035458178
 21
14.19348252409802
 31
0.0
  0
LINE
  5
30FA
330
1E
100
AcDbEntity
  8
3
100
AcDbLine
 10
2.17394035458178
 20
14.19348252409802
 30
0.0
 11
2.079452165605403
 21
14.19348252409802
 31
0.0
  0
LINE
  5
30FB
330
1E
100
AcDbEntity
  8
3
100
AcDbLine
 10
2.079452165605403
 20
14.19348252409802
 30
0.0
 11
2.040082086865245
 21
14.19348252409802
 31
0.0
  0
LINE
  5
30FC
330
1E
100
AcDbEntity
  8
3
100
AcDbLine
 10
2.17394035458178
 20
14.70529354772008
 30
0.0
 11
2.268428543558158
 21
14.70529354772008
 31
0.0
  0
LINE
  5
30FD
330
1E
100
AcDbEntity
  8
3
100
AcDbLine
 10
2.268428543558158
 20
14.70529354772008
 30
0.0
 11
2.299924606550284
 21
14.70529354772008
 31
0.0
  0
LINE
  5
30FE
330
1E
100
AcDbEntity
  8
3
100
AcDbLine
 10
2.040082086865245
 20
14.70529354772008
 30
0.0
 11
2.079452165605403
 21
14.70529354772008
 31
0.0
  0
LINE
  5
30FF
330
1E
100
AcDbEntity
  8
3
100
AcDbLine
 10
2.079452165605403
 20
14.70529354772008
 30
0.0
 11
2.17394035458178
 21
14.70529354772008
 31
0.0
  0
LINE
  5
3100
330
1E
100
AcDbEntity
  8
3
100
AcDbLine
 10
2.040082086865245
 20
15.23285260283818
 30
0.0
 11
2.079452165605403
 21
15.23285260283818
 31
0.0
  0
LINE
  5
3101
330
1E
100
AcDbEntity
  8
3
100
AcDbLine
 10
2.079452165605403
 20
15.23285260283818
 30
0.0
 11
2.17394035458178
 21
15.23285260283818
 31
0.0
  0
LINE
  5
3102
330
1E
100
AcDbEntity
  8
3
100
AcDbLine
 10
2.17394035458178
 20
15.23285260283818
 30
0.0
 11
2.268428543558158
 21
15.23285260283818
 31
0.0
  0
LINE
  5
3103
330
1E
100
AcDbEntity
  8
3
100
AcDbLine
 10
2.268428543558158
 20
15.23285260283818
 30
0.0
 11
2.299924606550284
 21
15.23285260283818
 31
0.0
  0
LINE
  5
3104
330
1E
100
AcDbEntity
  8
3
100
AcDbLine
 10
2.299924606550284
 20
14.72104157921614
 30
0.0
 11
2.268428543558158
 21
14.72104157921614
 31
0.0
  0
LINE
  5
3105
330
1E
100
AcDbEntity
  8
3
100
AcDbLine
 10
2.268428543558158
 20
14.72104157921614
 30
0.0
 11
2.17394035458178
 21
14.72104157921614
 31
0.0
  0
LINE
  5
3106
330
1E
100
AcDbEntity
  8
3
100
AcDbLine
 10
2.17394035458178
 20
14.72104157921614
 30
0.0
 11
2.079452165605403
 21
14.72104157921614
 31
0.0
  0
LINE
  5
3107
330
1E
100
AcDbEntity
  8
3
100
AcDbLine
 10
2.079452165605403
 20
14.72104157921614
 30
0.0
 11
2.040082086865245
 21
14.72104157921614
 31
0.0
  0
LINE
  5
3108
330
1E
100
AcDbEntity
  8
3
100
AcDbLine
 10
2.040082086865245
 20
14.17773449260196
 30
0.0
 11
2.079452165605403
 21
14.17773449260196
 31
0.0
  0
LINE
  5
3109
330
1E
100
AcDbEntity
  8
3
100
AcDbLine
 10
2.079452165605403
 20
14.17773449260196
 30
0.0
 11
2.17394035458178
 21
14.17773449260196
 31
0.0
  0
LINE
  5
310A
330
1E
100
AcDbEntity
  8
3
100
AcDbLine
 10
2.17394035458178
 20
14.17773449260196
 30
0.0
 11
2.268428543558158
 21
14.17773449260196
 31
0.0
  0
LINE
  5
310B
330
1E
100
AcDbEntity
  8
3
100
AcDbLine
 10
2.268428543558158
 20
14.17773449260196
 30
0.0
 11
2.299924606550284
 21
14.17773449260196
 31
0.0
  0
LINE
  5
310C
330
1E
100
AcDbEntity
  8
3
100
AcDbLine
 10
3.244806496314064
 20
14.72891559496417
 30
0.0
 11
3.213310433321938
 21
14.79978173669645
 31
0.0
  0
LINE
  5
310D
330
1E
100
AcDbEntity
  8
3
100
AcDbLine
 10
3.213310433321938
 20
14.79978173669645
 30
0.0
 11
3.142444291589654
 21
14.81552976819251
 31
0.0
  0
LINE
  5
310E
330
1E
100
AcDbEntity
  8
3
100
AcDbLine
 10
3.142444291589654
 20
14.81552976819251
 30
0.0
 11
3.079452165605403
 21
14.76828567370433
 31
0.0
  0
LINE
  5
310F
330
1E
100
AcDbEntity
  8
3
100
AcDbLine
 10
3.079452165605403
 20
14.76828567370433
 30
0.0
 11
3.079452165605403
 21
14.68954551622401
 31
0.0
  0
LINE
  5
3110
330
1E
100
AcDbEntity
  8
3
100
AcDbLine
 10
3.079452165605403
 20
14.68954551622401
 30
0.0
 11
3.142444291589654
 21
14.64230142173583
 31
0.0
  0
LINE
  5
3111
330
1E
100
AcDbEntity
  8
3
100
AcDbLine
 10
3.142444291589654
 20
14.64230142173583
 30
0.0
 11
3.213310433321938
 21
14.65804945323189
 31
0.0
  0
LINE
  5
3112
330
1E
100
AcDbEntity
  8
3
100
AcDbLine
 10
3.213310433321938
 20
14.65804945323189
 30
0.0
 11
3.244806496314064
 21
14.72891559496417
 31
0.0
  0
LINE
  5
3113
330
1E
100
AcDbEntity
  8
3
100
AcDbLine
 10
3.244806496314064
 20
15.22497858709016
 30
0.0
 11
3.213310433321938
 21
15.29584472882244
 31
0.0
  0
LINE
  5
3114
330
1E
100
AcDbEntity
  8
3
100
AcDbLine
 10
3.213310433321938
 20
15.29584472882244
 30
0.0
 11
3.142444291589654
 21
15.3115927603185
 31
0.0
  0
LINE
  5
3115
330
1E
100
AcDbEntity
  8
3
100
AcDbLine
 10
3.142444291589654
 20
15.3115927603185
 30
0.0
 11
3.079452165605403
 21
15.26434866583032
 31
0.0
  0
LINE
  5
3116
330
1E
100
AcDbEntity
  8
3
100
AcDbLine
 10
3.079452165605403
 20
15.26434866583032
 30
0.0
 11
3.079452165605403
 21
15.18560850834999
 31
0.0
  0
LINE
  5
3117
330
1E
100
AcDbEntity
  8
3
100
AcDbLine
 10
3.079452165605403
 20
15.18560850834999
 30
0.0
 11
3.142444291589654
 21
15.13836441386182
 31
0.0
  0
LINE
  5
3118
330
1E
100
AcDbEntity
  8
3
100
AcDbLine
 10
3.142444291589654
 20
15.13836441386182
 30
0.0
 11
3.213310433321938
 21
15.15411244535787
 31
0.0
  0
LINE
  5
3119
330
1E
100
AcDbEntity
  8
3
100
AcDbLine
 10
3.213310433321938
 20
15.15411244535787
 30
0.0
 11
3.244806496314064
 21
15.22497858709016
 31
0.0
  0
LINE
  5
311A
330
1E
100
AcDbEntity
  8
3
100
AcDbLine
 10
4.11882224434556
 20
15.19348252409802
 30
0.0
 11
4.126696260093591
 21
15.20135653984607
 31
0.0
  0
LINE
  5
311B
330
1E
100
AcDbEntity
  8
3
100
AcDbLine
 10
4.126696260093591
 20
15.20135653984607
 30
0.0
 11
4.126696260093591
 21
15.2092305555941
 31
0.0
  0
LINE
  5
311C
330
1E
100
AcDbEntity
  8
3
100
AcDbLine
 10
4.126696260093591
 20
15.18560850834999
 30
0.0
 11
4.032208071117214
 21
15.05962425638149
 31
0.0
  0
LINE
  5
311D
330
1E
100
AcDbEntity
  8
3
100
AcDbLine
 10
4.032208071117214
 20
15.05962425638149
 30
0.0
 11
4.032208071117214
 21
14.88639590992479
 31
0.0
  0
LINE
  5
311E
330
1E
100
AcDbEntity
  8
3
100
AcDbLine
 10
4.032208071117214
 20
14.88639590992479
 30
0.0
 11
4.126696260093591
 21
14.76041165795629
 31
0.0
  0
LINE
  5
311F
330
1E
100
AcDbEntity
  8
3
100
AcDbLine
 10
4.126696260093591
 20
14.7367896107122
 30
0.0
 11
4.126696260093591
 21
14.74466362646023
 31
0.0
  0
LINE
  5
3120
330
1E
100
AcDbEntity
  8
3
100
AcDbLine
 10
4.126696260093591
 20
14.74466362646023
 30
0.0
 11
4.11882224434556
 21
14.75253764220826
 31
0.0
  0
LINE
  5
3121
330
1E
100
AcDbEntity
  8
3
100
AcDbLine
 10
4.425908858518788
 20
14.75253764220826
 30
0.0
 11
4.418034842770756
 21
14.74466362646023
 31
0.0
  0
LINE
  5
3122
330
1E
100
AcDbEntity
  8
3
100
AcDbLine
 10
4.418034842770756
 20
14.74466362646023
 30
0.0
 11
4.418034842770756
 21
14.7367896107122
 31
0.0
  0
LINE
  5
3123
330
1E
100
AcDbEntity
  8
3
100
AcDbLine
 10
4.425908858518788
 20
14.76041165795629
 30
0.0
 11
4.520397047495167
 21
14.88639590992479
 31
0.0
  0
LINE
  5
3124
330
1E
100
AcDbEntity
  8
3
100
AcDbLine
 10
4.520397047495167
 20
14.88639590992479
 30
0.0
 11
4.520397047495167
 21
15.05962425638149
 31
0.0
  0
LINE
  5
3125
330
1E
100
AcDbEntity
  8
3
100
AcDbLine
 10
4.520397047495167
 20
15.05962425638149
 30
0.0
 11
4.425908858518788
 21
15.18560850834999
 31
0.0
  0
LINE
  5
3126
330
1E
100
AcDbEntity
  8
3
100
AcDbLine
 10
4.418034842770756
 20
15.2092305555941
 30
0.0
 11
4.418034842770756
 21
15.20135653984607
 31
0.0
  0
LINE
  5
3127
330
1E
100
AcDbEntity
  8
3
100
AcDbLine
 10
4.418034842770756
 20
15.20135653984607
 30
0.0
 11
4.425908858518788
 21
15.19348252409802
 31
0.0
  0
LINE
  5
3128
330
1E
100
AcDbEntity
  8
3
100
AcDbLine
 10
3.024334055369182
 20
15.84702583118464
 30
0.0
 11
3.055830118361308
 21
15.76041165795629
 31
0.0
  0
LINE
  5
3129
330
1E
100
AcDbEntity
  8
3
100
AcDbLine
 10
3.055830118361308
 20
15.76041165795629
 30
0.0
 11
3.134570275841623
 21
15.71316756346811
 31
0.0
  0
LINE
  5
312A
330
1E
100
AcDbEntity
  8
3
100
AcDbLine
 10
3.134570275841623
 20
15.71316756346811
 30
0.0
 11
3.221184449069969
 21
15.72891559496417
 31
0.0
  0
LINE
  5
312B
330
1E
100
AcDbEntity
  8
3
100
AcDbLine
 10
3.221184449069969
 20
15.72891559496417
 30
0.0
 11
3.284176575054221
 21
15.79978173669645
 31
0.0
  0
LINE
  5
312C
330
1E
100
AcDbEntity
  8
3
100
AcDbLine
 10
3.284176575054221
 20
15.79978173669645
 30
0.0
 11
3.284176575054221
 21
15.89426992567284
 31
0.0
  0
LINE
  5
312D
330
1E
100
AcDbEntity
  8
3
100
AcDbLine
 10
3.284176575054221
 20
15.89426992567284
 30
0.0
 11
3.229058464818001
 21
15.96513606740512
 31
0.0
  0
LINE
  5
312E
330
1E
100
AcDbEntity
  8
3
100
AcDbLine
 10
3.134570275841623
 20
16.34308882331063
 30
0.0
 11
3.221184449069969
 21
16.35883685480669
 31
0.0
  0
LINE
  5
312F
330
1E
100
AcDbEntity
  8
3
100
AcDbLine
 10
3.221184449069969
 20
16.35883685480669
 30
0.0
 11
3.284176575054221
 21
16.42970299653897
 31
0.0
  0
LINE
  5
3130
330
1E
100
AcDbEntity
  8
3
100
AcDbLine
 10
3.284176575054221
 20
16.42970299653897
 30
0.0
 11
3.284176575054221
 21
16.52419118551535
 31
0.0
  0
LINE
  5
3131
330
1E
100
AcDbEntity
  8
3
100
AcDbLine
 10
3.284176575054221
 20
16.52419118551535
 30
0.0
 11
3.229058464818001
 21
16.59505732724764
 31
0.0
  0
LINE
  5
3132
330
1E
100
AcDbEntity
  8
3
100
AcDbLine
 10
3.229058464818001
 20
16.59505732724764
 30
0.0
 11
3.134570275841623
 21
16.6108053587437
 31
0.0
  0
LINE
  5
3133
330
1E
100
AcDbEntity
  8
3
100
AcDbLine
 10
3.134570275841623
 20
16.6108053587437
 30
0.0
 11
3.055830118361308
 21
16.5635612642555
 31
0.0
  0
LINE
  5
3134
330
1E
100
AcDbEntity
  8
3
100
AcDbLine
 10
3.055830118361308
 20
16.5635612642555
 30
0.0
 11
3.024334055369182
 21
16.47694709102716
 31
0.0
  0
LINE
  5
3135
330
1E
100
AcDbEntity
  8
3
100
AcDbLine
 10
3.087326181353434
 20
15.72891559496417
 30
0.0
 11
3.181814370329812
 21
15.71316756346811
 31
0.0
  0
LINE
  5
3136
330
1E
100
AcDbEntity
  8
3
100
AcDbLine
 10
3.181814370329812
 20
15.71316756346811
 30
0.0
 11
3.260554527810127
 21
15.76041165795629
 31
0.0
  0
LINE
  5
3137
330
1E
100
AcDbEntity
  8
3
100
AcDbLine
 10
3.260554527810127
 20
15.76041165795629
 30
0.0
 11
3.292050590802253
 21
15.84702583118464
 31
0.0
  0
LINE
  5
3138
330
1E
100
AcDbEntity
  8
3
100
AcDbLine
 10
3.292050590802253
 20
15.84702583118464
 30
0.0
 11
3.260554527810127
 21
15.93364000441298
 31
0.0
  0
LINE
  5
3139
330
1E
100
AcDbEntity
  8
3
100
AcDbLine
 10
3.260554527810127
 20
15.93364000441298
 30
0.0
 11
3.181814370329812
 21
15.98088409890118
 31
0.0
  0
LINE
  5
313A
330
1E
100
AcDbEntity
  8
3
100
AcDbLine
 10
3.181814370329812
 20
15.98088409890118
 30
0.0
 11
3.095200197101465
 21
15.96513606740512
 31
0.0
  0
LINE
  5
313B
330
1E
100
AcDbEntity
  8
3
100
AcDbLine
 10
3.095200197101465
 20
15.96513606740512
 30
0.0
 11
3.032208071117214
 21
15.89426992567284
 31
0.0
  0
LINE
  5
313C
330
1E
100
AcDbEntity
  8
3
100
AcDbLine
 10
3.032208071117214
 20
15.89426992567284
 30
0.0
 11
3.032208071117214
 21
15.79978173669645
 31
0.0
  0
LINE
  5
313D
330
1E
100
AcDbEntity
  8
3
100
AcDbLine
 10
3.032208071117214
 20
15.79978173669645
 30
0.0
 11
3.087326181353434
 21
15.72891559496417
 31
0.0
  0
LINE
  5
313E
330
1E
100
AcDbEntity
  8
3
100
AcDbLine
 10
3.292050590802253
 20
16.47694709102716
 30
0.0
 11
3.260554527810127
 21
16.5635612642555
 31
0.0
  0
LINE
  5
313F
330
1E
100
AcDbEntity
  8
3
100
AcDbLine
 10
3.260554527810127
 20
16.5635612642555
 30
0.0
 11
3.181814370329812
 21
16.6108053587437
 31
0.0
  0
LINE
  5
3140
330
1E
100
AcDbEntity
  8
3
100
AcDbLine
 10
3.181814370329812
 20
16.6108053587437
 30
0.0
 11
3.095200197101465
 21
16.59505732724764
 31
0.0
  0
LINE
  5
3141
330
1E
100
AcDbEntity
  8
3
100
AcDbLine
 10
3.095200197101465
 20
16.59505732724764
 30
0.0
 11
3.032208071117214
 21
16.52419118551535
 31
0.0
  0
LINE
  5
3142
330
1E
100
AcDbEntity
  8
3
100
AcDbLine
 10
3.032208071117214
 20
16.52419118551535
 30
0.0
 11
3.032208071117214
 21
16.42970299653897
 31
0.0
  0
LINE
  5
3143
330
1E
100
AcDbEntity
  8
3
100
AcDbLine
 10
3.032208071117214
 20
16.42970299653897
 30
0.0
 11
3.087326181353434
 21
16.35883685480669
 31
0.0
  0
LINE
  5
3144
330
1E
100
AcDbEntity
  8
3
100
AcDbLine
 10
3.087326181353434
 20
16.35883685480669
 30
0.0
 11
3.181814370329812
 21
16.34308882331063
 31
0.0
  0
LINE
  5
3145
330
1E
100
AcDbEntity
  8
3
100
AcDbLine
 10
3.181814370329812
 20
16.34308882331063
 30
0.0
 11
3.260554527810127
 21
16.39033291779882
 31
0.0
  0
LINE
  5
3146
330
1E
100
AcDbEntity
  8
3
100
AcDbLine
 10
3.260554527810127
 20
16.39033291779882
 30
0.0
 11
3.292050590802253
 21
16.47694709102716
 31
0.0
  0
LINE
  5
3147
330
1E
100
AcDbEntity
  8
3
100
AcDbLine
 10
2.299924606550284
 20
16.72891559496417
 30
0.0
 11
2.410160827022725
 21
16.72891559496417
 31
0.0
  0
LINE
  5
3148
330
1E
100
AcDbEntity
  8
3
100
AcDbLine
 10
2.410160827022725
 20
16.72891559496417
 30
0.0
 11
2.433782874266821
 21
16.72891559496417
 31
0.0
  0
LINE
  5
3149
330
1E
100
AcDbEntity
  8
3
100
AcDbLine
 10
2.433782874266821
 20
16.72891559496417
 30
0.0
 11
2.473152953006978
 21
16.72891559496417
 31
0.0
  0
LINE
  5
314A
330
1E
100
AcDbEntity
  8
3
100
AcDbLine
 10
2.040082086865245
 20
15.75253764220826
 30
0.0
 11
2.079452165605403
 21
15.75253764220826
 31
0.0
  0
LINE
  5
314B
330
1E
100
AcDbEntity
  8
3
100
AcDbLine
 10
2.079452165605403
 20
15.75253764220826
 30
0.0
 11
2.17394035458178
 21
15.75253764220826
 31
0.0
  0
LINE
  5
314C
330
1E
100
AcDbEntity
  8
3
100
AcDbLine
 10
2.17394035458178
 20
15.75253764220826
 30
0.0
 11
2.268428543558158
 21
15.75253764220826
 31
0.0
  0
LINE
  5
314D
330
1E
100
AcDbEntity
  8
3
100
AcDbLine
 10
2.268428543558158
 20
15.75253764220826
 30
0.0
 11
2.299924606550284
 21
15.75253764220826
 31
0.0
  0
LINE
  5
314E
330
1E
100
AcDbEntity
  8
3
100
AcDbLine
 10
2.040082086865245
 20
16.28009669732638
 30
0.0
 11
2.079452165605403
 21
16.28009669732638
 31
0.0
  0
LINE
  5
314F
330
1E
100
AcDbEntity
  8
3
100
AcDbLine
 10
2.079452165605403
 20
16.28009669732638
 30
0.0
 11
2.17394035458178
 21
16.28009669732638
 31
0.0
  0
LINE
  5
3150
330
1E
100
AcDbEntity
  8
3
100
AcDbLine
 10
2.17394035458178
 20
16.28009669732638
 30
0.0
 11
2.268428543558158
 21
16.28009669732638
 31
0.0
  0
LINE
  5
3151
330
1E
100
AcDbEntity
  8
3
100
AcDbLine
 10
2.268428543558158
 20
16.28009669732638
 30
0.0
 11
2.299924606550284
 21
16.28009669732638
 31
0.0
  0
LINE
  5
3152
330
1E
100
AcDbEntity
  8
3
100
AcDbLine
 10
2.299924606550284
 20
15.77615968945236
 30
0.0
 11
2.268428543558158
 21
15.77615968945236
 31
0.0
  0
LINE
  5
3153
330
1E
100
AcDbEntity
  8
3
100
AcDbLine
 10
2.268428543558158
 20
15.77615968945236
 30
0.0
 11
2.17394035458178
 21
15.77615968945236
 31
0.0
  0
LINE
  5
3154
330
1E
100
AcDbEntity
  8
3
100
AcDbLine
 10
2.17394035458178
 20
15.77615968945236
 30
0.0
 11
2.079452165605403
 21
15.77615968945236
 31
0.0
  0
LINE
  5
3155
330
1E
100
AcDbEntity
  8
3
100
AcDbLine
 10
2.079452165605403
 20
15.77615968945236
 30
0.0
 11
2.040082086865245
 21
15.77615968945236
 31
0.0
  0
LINE
  5
3156
330
1E
100
AcDbEntity
  8
3
100
AcDbLine
 10
2.299924606550284
 20
16.69741953197204
 30
0.0
 11
2.299924606550284
 21
16.72104157921614
 31
0.0
  0
LINE
  5
3157
330
1E
100
AcDbEntity
  8
3
100
AcDbLine
 10
2.299924606550284
 20
16.72104157921614
 30
0.0
 11
2.299924606550284
 21
16.72891559496417
 31
0.0
  0
LINE
  5
3158
330
1E
100
AcDbEntity
  8
3
100
AcDbLine
 10
2.087326181353434
 20
16.38245890205078
 30
0.0
 11
2.087326181353434
 21
16.45332504378307
 31
0.0
  0
LINE
  5
3159
330
1E
100
AcDbEntity
  8
3
100
AcDbLine
 10
2.087326181353434
 20
16.45332504378307
 30
0.0
 11
2.087326181353434
 21
16.48482110677519
 31
0.0
  0
LINE
  5
315A
330
1E
100
AcDbEntity
  8
3
100
AcDbLine
 10
2.087326181353434
 20
16.28009669732638
 30
0.0
 11
2.087326181353434
 21
16.30371874457047
 31
0.0
  0
LINE
  5
315B
330
1E
100
AcDbEntity
  8
3
100
AcDbLine
 10
2.087326181353434
 20
16.30371874457047
 30
0.0
 11
2.087326181353434
 21
16.31946677606653
 31
0.0
  0
LINE
  5
315C
330
1E
100
AcDbEntity
  8
3
100
AcDbLine
 10
2.158192323085717
 20
16.31946677606653
 30
0.0
 11
2.158192323085717
 21
16.35096283905866
 31
0.0
  0
LINE
  5
315D
330
1E
100
AcDbEntity
  8
3
100
AcDbLine
 10
2.158192323085717
 20
16.35096283905866
 30
0.0
 11
2.158192323085717
 21
16.38245890205078
 31
0.0
  0
LINE
  5
315E
330
1E
100
AcDbEntity
  8
3
100
AcDbLine
 10
2.158192323085717
 20
16.38245890205078
 30
0.0
 11
2.11882224434556
 21
16.38245890205078
 31
0.0
  0
LINE
  5
315F
330
1E
100
AcDbEntity
  8
3
100
AcDbLine
 10
2.11882224434556
 20
16.38245890205078
 30
0.0
 11
2.087326181353434
 21
16.38245890205078
 31
0.0
  0
LINE
  5
3160
330
1E
100
AcDbEntity
  8
3
100
AcDbLine
 10
2.087326181353434
 20
16.31946677606653
 30
0.0
 11
2.11882224434556
 21
16.31946677606653
 31
0.0
  0
LINE
  5
3161
330
1E
100
AcDbEntity
  8
3
100
AcDbLine
 10
2.11882224434556
 20
16.31946677606653
 30
0.0
 11
2.158192323085717
 21
16.31946677606653
 31
0.0
  0
LINE
  5
3162
330
1E
100
AcDbEntity
  8
3
100
AcDbLine
 10
2.236932480566032
 20
16.54781323275944
 30
0.0
 11
2.158192323085717
 21
16.53206520126339
 31
0.0
  0
LINE
  5
3163
330
1E
100
AcDbEntity
  8
3
100
AcDbLine
 10
2.158192323085717
 20
16.53206520126339
 30
0.0
 11
2.087326181353434
 21
16.47694709102716
 31
0.0
  0
LINE
  5
3164
330
1E
100
AcDbEntity
  8
3
100
AcDbLine
 10
3.229058464818001
 20
15.96513606740512
 30
0.0
 11
3.134570275841623
 21
15.98088409890118
 31
0.0
  0
LINE
  5
3165
330
1E
100
AcDbEntity
  8
3
100
AcDbLine
 10
3.134570275841623
 20
15.98088409890118
 30
0.0
 11
3.055830118361308
 21
15.93364000441298
 31
0.0
  0
LINE
  5
3166
330
1E
100
AcDbEntity
  8
3
100
AcDbLine
 10
3.055830118361308
 20
15.93364000441298
 30
0.0
 11
3.024334055369182
 21
15.84702583118464
 31
0.0
  0
LINE
  5
3167
330
1E
100
AcDbEntity
  8
3
100
AcDbLine
 10
3.024334055369182
 20
16.47694709102716
 30
0.0
 11
3.055830118361308
 21
16.39033291779882
 31
0.0
  0
LINE
  5
3168
330
1E
100
AcDbEntity
  8
3
100
AcDbLine
 10
3.055830118361308
 20
16.39033291779882
 30
0.0
 11
3.134570275841623
 21
16.34308882331063
 31
0.0
  0
LINE
  5
3169
330
1E
100
AcDbEntity
  8
3
100
AcDbLine
 10
2.410160827022725
 20
16.72891559496417
 30
0.0
 11
2.410160827022725
 21
16.72104157921614
 31
0.0
  0
LINE
  5
316A
330
1E
100
AcDbEntity
  8
3
100
AcDbLine
 10
2.410160827022725
 20
16.72104157921614
 30
0.0
 11
2.410160827022725
 21
16.69741953197204
 31
0.0
  0
LINE
  5
316B
330
1E
100
AcDbEntity
  8
3
100
AcDbLine
 10
3.244806496314064
 20
15.84702583118464
 30
0.0
 11
3.213310433321938
 21
15.91789197291693
 31
0.0
  0
LINE
  5
316C
330
1E
100
AcDbEntity
  8
3
100
AcDbLine
 10
3.213310433321938
 20
15.91789197291693
 30
0.0
 11
3.142444291589654
 21
15.93364000441298
 31
0.0
  0
LINE
  5
316D
330
1E
100
AcDbEntity
  8
3
100
AcDbLine
 10
3.142444291589654
 20
15.93364000441298
 30
0.0
 11
3.079452165605403
 21
15.88639590992479
 31
0.0
  0
LINE
  5
316E
330
1E
100
AcDbEntity
  8
3
100
AcDbLine
 10
3.079452165605403
 20
15.88639590992479
 30
0.0
 11
3.079452165605403
 21
15.80765575244448
 31
0.0
  0
LINE
  5
316F
330
1E
100
AcDbEntity
  8
3
100
AcDbLine
 10
3.079452165605403
 20
15.80765575244448
 30
0.0
 11
3.142444291589654
 21
15.76041165795629
 31
0.0
  0
LINE
  5
3170
330
1E
100
AcDbEntity
  8
3
100
AcDbLine
 10
3.142444291589654
 20
15.76041165795629
 30
0.0
 11
3.213310433321938
 21
15.77615968945236
 31
0.0
  0
LINE
  5
3171
330
1E
100
AcDbEntity
  8
3
100
AcDbLine
 10
3.213310433321938
 20
15.77615968945236
 30
0.0
 11
3.244806496314064
 21
15.84702583118464
 31
0.0
  0
LINE
  5
3172
330
1E
100
AcDbEntity
  8
3
100
AcDbLine
 10
3.244806496314064
 20
16.47694709102716
 30
0.0
 11
3.213310433321938
 21
16.54781323275944
 31
0.0
  0
LINE
  5
3173
330
1E
100
AcDbEntity
  8
3
100
AcDbLine
 10
3.213310433321938
 20
16.54781323275944
 30
0.0
 11
3.142444291589654
 21
16.5635612642555
 31
0.0
  0
LINE
  5
3174
330
1E
100
AcDbEntity
  8
3
100
AcDbLine
 10
3.142444291589654
 20
16.5635612642555
 30
0.0
 11
3.079452165605403
 21
16.51631716976733
 31
0.0
  0
LINE
  5
3175
330
1E
100
AcDbEntity
  8
3
100
AcDbLine
 10
3.079452165605403
 20
16.51631716976733
 30
0.0
 11
3.079452165605403
 21
16.437577012287
 31
0.0
  0
LINE
  5
3176
330
1E
100
AcDbEntity
  8
3
100
AcDbLine
 10
3.079452165605403
 20
16.437577012287
 30
0.0
 11
3.142444291589654
 21
16.39033291779882
 31
0.0
  0
LINE
  5
3177
330
1E
100
AcDbEntity
  8
3
100
AcDbLine
 10
3.142444291589654
 20
16.39033291779882
 30
0.0
 11
3.213310433321938
 21
16.40608094929488
 31
0.0
  0
LINE
  5
3178
330
1E
100
AcDbEntity
  8
3
100
AcDbLine
 10
3.213310433321938
 20
16.40608094929488
 30
0.0
 11
3.244806496314064
 21
16.47694709102716
 31
0.0
  0
LINE
  5
3179
330
1E
100
AcDbEntity
  8
3
100
AcDbLine
 10
6.74874350418808
 20
15.09899433512165
 30
0.0
 11
6.803861614424301
 21
15.09899433512165
 31
0.0
  0
LINE
  5
317A
330
1E
100
AcDbEntity
  8
3
100
AcDbLine
 10
6.803861614424301
 20
15.09899433512165
 30
0.0
 11
6.874727756156584
 21
15.09899433512165
 31
0.0
  0
LINE
  5
317B
330
1E
100
AcDbEntity
  8
3
100
AcDbLine
 10
6.74874350418808
 20
14.84702583118465
 30
0.0
 11
6.803861614424301
 21
14.84702583118465
 31
0.0
  0
LINE
  5
317C
330
1E
100
AcDbEntity
  8
3
100
AcDbLine
 10
6.803861614424301
 20
14.84702583118465
 30
0.0
 11
6.874727756156584
 21
14.84702583118465
 31
0.0
  0
LINE
  5
317D
330
1E
100
AcDbEntity
  8
3
100
AcDbLine
 10
6.520397047495167
 20
14.84702583118465
 30
0.0
 11
6.74874350418808
 21
14.84702583118465
 31
0.0
  0
LINE
  5
317E
330
1E
100
AcDbEntity
  8
3
100
AcDbLine
 10
6.74874350418808
 20
14.84702583118465
 30
0.0
 11
6.74874350418808
 21
15.09899433512165
 31
0.0
  0
LINE
  5
317F
330
1E
100
AcDbEntity
  8
3
100
AcDbLine
 10
6.473152953006978
 20
14.84702583118465
 30
0.0
 11
6.496775000251073
 21
14.84702583118465
 31
0.0
  0
LINE
  5
3180
330
1E
100
AcDbEntity
  8
3
100
AcDbLine
 10
6.496775000251073
 20
14.84702583118465
 30
0.0
 11
6.520397047495167
 21
14.84702583118465
 31
0.0
  0
LINE
  5
3181
330
1E
100
AcDbEntity
  8
3
100
AcDbLine
 10
6.520397047495167
 20
14.84702583118465
 30
0.0
 11
6.520397047495167
 21
15.09899433512165
 31
0.0
  0
LINE
  5
3182
330
1E
100
AcDbEntity
  8
3
100
AcDbLine
 10
6.520397047495167
 20
15.09899433512165
 30
0.0
 11
6.74874350418808
 21
15.09899433512165
 31
0.0
  0
LINE
  5
3183
330
1E
100
AcDbEntity
  8
3
100
AcDbLine
 10
6.473152953006978
 20
15.09899433512165
 30
0.0
 11
6.496775000251073
 21
15.09899433512165
 31
0.0
  0
LINE
  5
3184
330
1E
100
AcDbEntity
  8
3
100
AcDbLine
 10
6.496775000251073
 20
15.09899433512165
 30
0.0
 11
6.520397047495167
 21
15.09899433512165
 31
0.0
  0
LINE
  5
3185
330
1E
100
AcDbEntity
  8
3
100
AcDbLine
 10
8.032208071117214
 20
15.09899433512165
 30
0.0
 11
7.795987598676269
 21
15.09899433512165
 31
0.0
  0
LINE
  5
3186
330
1E
100
AcDbEntity
  8
3
100
AcDbLine
 10
7.795987598676269
 20
15.09899433512165
 30
0.0
 11
7.795987598676269
 21
14.84702583118465
 31
0.0
  0
LINE
  5
3187
330
1E
100
AcDbEntity
  8
3
100
AcDbLine
 10
7.795987598676269
 20
14.84702583118465
 30
0.0
 11
7.740869488440047
 21
14.84702583118465
 31
0.0
  0
LINE
  5
3188
330
1E
100
AcDbEntity
  8
3
100
AcDbLine
 10
7.740869488440047
 20
14.84702583118465
 30
0.0
 11
7.677877362455795
 21
14.84702583118465
 31
0.0
  0
LINE
  5
3189
330
1E
100
AcDbEntity
  8
3
100
AcDbLine
 10
7.795987598676269
 20
15.09899433512165
 30
0.0
 11
7.740869488440047
 21
15.09899433512165
 31
0.0
  0
LINE
  5
318A
330
1E
100
AcDbEntity
  8
3
100
AcDbLine
 10
7.740869488440047
 20
15.09899433512165
 30
0.0
 11
7.677877362455795
 21
15.09899433512165
 31
0.0
  0
LINE
  5
318B
330
1E
100
AcDbEntity
  8
3
100
AcDbLine
 10
8.071578149857373
 20
15.09899433512165
 30
0.0
 11
8.047956102613277
 21
15.09899433512165
 31
0.0
  0
LINE
  5
318C
330
1E
100
AcDbEntity
  8
3
100
AcDbLine
 10
8.047956102613277
 20
15.09899433512165
 30
0.0
 11
8.032208071117214
 21
15.09899433512165
 31
0.0
  0
LINE
  5
318D
330
1E
100
AcDbEntity
  8
3
100
AcDbLine
 10
8.032208071117214
 20
15.09899433512165
 30
0.0
 11
8.032208071117214
 21
14.84702583118465
 31
0.0
  0
LINE
  5
318E
330
1E
100
AcDbEntity
  8
3
100
AcDbLine
 10
8.071578149857373
 20
14.84702583118465
 30
0.0
 11
8.047956102613277
 21
14.84702583118465
 31
0.0
  0
LINE
  5
318F
330
1E
100
AcDbEntity
  8
3
100
AcDbLine
 10
8.047956102613277
 20
14.84702583118465
 30
0.0
 11
8.032208071117214
 21
14.84702583118465
 31
0.0
  0
LINE
  5
31DE
330
1E
100
AcDbEntity
  8
3
100
AcDbLine
 10
22.30779862229832
 20
1.327340791814574
 30
0.0
 11
22.34716870103847
 21
1.335214807562604
 31
0.0
  0
LINE
  5
31DF
330
1E
100
AcDbEntity
  8
3
100
AcDbLine
 10
22.34716870103847
 20
1.335214807562604
 30
0.0
 11
22.38653877977863
 21
1.343088823310633
 31
0.0
  0
LINE
  5
31E0
330
1E
100
AcDbEntity
  8
3
100
AcDbLine
 10
22.13457027584162
 20
-1.48368283023267
 30
0.0
 11
22.12669626009359
 21
-1.46006078298858
 31
0.0
  0
LINE
  5
31E1
330
1E
100
AcDbEntity
  8
3
100
AcDbLine
 10
22.12669626009359
 20
-1.46006078298858
 30
0.0
 11
22.11882224434556
 21
-1.444312751492521
 31
0.0
  0
LINE
  5
31E2
330
1E
100
AcDbEntity
  8
3
100
AcDbLine
 10
22.11882224434556
 20
0.0753722878775669
 30
0.0
 11
21.88260177190461
 21
-0.1608481845633811
 31
0.0
  0
LINE
  5
31E3
330
1E
100
AcDbEntity
  8
3
100
AcDbLine
 10
21.88260177190461
 20
-0.1608481845633811
 30
0.0
 11
21.96134192938492
 21
-0.2395883420437066
 31
0.0
  0
LINE
  5
31E4
330
1E
100
AcDbEntity
  8
3
100
AcDbLine
 10
21.96134192938492
 20
-0.2395883420437066
 30
0.0
 11
21.95346791363689
 21
-0.255336373539766
 31
0.0
  0
LINE
  5
31E5
330
1E
100
AcDbEntity
  8
3
100
AcDbLine
 10
21.95346791363689
 20
-0.255336373539766
 30
0.0
 11
21.94559389788886
 21
-0.2789584207838551
 31
0.0
  0
LINE
  5
31E6
330
1E
100
AcDbEntity
  8
3
100
AcDbLine
 10
21.88260177190461
 20
-0.1608481845633811
 30
0.0
 11
21.85110570891248
 21
-0.2159662947996033
 31
0.0
  0
LINE
  5
31E7
330
1E
100
AcDbEntity
  8
3
100
AcDbLine
 10
21.85110570891248
 20
-0.2159662947996033
 30
0.0
 11
21.83535767741642
 21
-0.2789584207838551
 31
0.0
  0
LINE
  5
31E8
330
1E
100
AcDbEntity
  8
3
100
AcDbLine
 10
21.83535767741642
 20
-1.089982042831099
 30
0.0
 11
21.85110570891248
 21
-1.152974168815351
 31
0.0
  0
LINE
  5
31E9
330
1E
100
AcDbEntity
  8
3
100
AcDbLine
 10
21.85110570891248
 20
-1.152974168815351
 30
0.0
 11
21.88260177190461
 21
-1.208092279051573
 31
0.0
  0
LINE
  5
31EA
330
1E
100
AcDbEntity
  8
3
100
AcDbLine
 10
21.94559389788886
 20
-1.089982042831099
 30
0.0
 11
21.95346791363689
 21
-1.113604090075202
 31
0.0
  0
LINE
  5
31EB
330
1E
100
AcDbEntity
  8
3
100
AcDbLine
 10
21.95346791363689
 20
-1.113604090075202
 30
0.0
 11
21.96134192938492
 21
-1.129352121571262
 31
0.0
  0
LINE
  5
31EC
330
1E
100
AcDbEntity
  8
3
100
AcDbLine
 10
21.94559389788886
 20
-0.78289542865787
 30
0.0
 11
21.94559389788886
 21
-0.5860450349570847
 31
0.0
  0
LINE
  5
31ED
330
1E
100
AcDbEntity
  8
3
100
AcDbLine
 10
21.94559389788886
 20
-0.5860450349570847
 30
0.0
 11
21.83535767741642
 21
-0.5860450349570847
 31
0.0
  0
LINE
  5
31EE
330
1E
100
AcDbEntity
  8
3
100
AcDbLine
 10
22.11882224434556
 20
0.0753722878775669
 30
0.0
 11
22.12669626009359
 21
0.0911203193736263
 31
0.0
  0
LINE
  5
31EF
330
1E
100
AcDbEntity
  8
3
100
AcDbLine
 10
22.12669626009359
 20
0.0911203193736263
 30
0.0
 11
22.13457027584162
 21
0.1147423666177154
 31
0.0
  0
LINE
  5
31F3
330
1E
100
AcDbEntity
  8
3
100
AcDbLine
 10
21.6542553152117
 20
1.980884098901181
 30
0.0
 11
21.61488523647154
 21
1.980884098901181
 31
0.0
  0
LINE
  5
31F4
330
1E
100
AcDbEntity
  8
3
100
AcDbLine
 10
21.61488523647154
 20
1.980884098901181
 30
0.0
 11
21.52039704749516
 21
1.980884098901181
 31
0.0
  0
LINE
  5
31F5
330
1E
100
AcDbEntity
  8
3
100
AcDbLine
 10
21.52039704749516
 20
1.980884098901181
 30
0.0
 11
21.41016082702272
 21
1.980884098901181
 31
0.0
  0
LINE
  5
31F6
330
1E
100
AcDbEntity
  8
3
100
AcDbLine
 10
21.41016082702272
 20
1.980884098901181
 30
0.0
 11
21.31567263804635
 21
1.980884098901181
 31
0.0
  0
LINE
  5
31F7
330
1E
100
AcDbEntity
  8
3
100
AcDbLine
 10
21.31567263804635
 20
1.980884098901181
 30
0.0
 11
21.27630255930619
 21
1.980884098901181
 31
0.0
  0
LINE
  5
31F8
330
1E
100
AcDbEntity
  8
3
100
AcDbLine
 10
21.81173563017233
 20
1.634427405987789
 30
0.0
 11
21.81173563017233
 21
1.60293134299567
 31
0.0
  0
LINE
  5
31F9
330
1E
100
AcDbEntity
  8
3
100
AcDbLine
 10
21.81173563017233
 20
1.60293134299567
 30
0.0
 11
21.81173563017233
 21
1.524191185515359
 31
0.0
  0
LINE
  5
31FA
330
1E
100
AcDbEntity
  8
3
100
AcDbLine
 10
21.81173563017233
 20
1.524191185515359
 30
0.0
 11
21.81173563017233
 21
1.445451028035034
 31
0.0
  0
LINE
  5
31FB
330
1E
100
AcDbEntity
  8
3
100
AcDbLine
 10
21.81173563017233
 20
1.445451028035034
 30
0.0
 11
21.81173563017233
 21
1.413954965042915
 31
0.0
  0
LINE
  5
31FC
330
1E
100
AcDbEntity
  8
3
100
AcDbLine
 10
22.23693248056603
 20
2.028128193389374
 30
0.0
 11
22.22118444906997
 21
2.067498272129522
 31
0.0
  0
LINE
  5
31FD
330
1E
100
AcDbEntity
  8
3
100
AcDbLine
 10
22.22118444906997
 20
2.067498272129522
 30
0.0
 11
22.18181437032981
 21
2.083246303625596
 31
0.0
  0
LINE
  5
31FE
330
1E
100
AcDbEntity
  8
3
100
AcDbLine
 10
22.30779862229832
 20
2.028128193389374
 30
0.0
 11
22.26842854355815
 21
2.114742366617715
 31
0.0
  0
LINE
  5
31FF
330
1E
100
AcDbEntity
  8
3
100
AcDbLine
 10
22.26842854355815
 20
2.114742366617715
 30
0.0
 11
22.18181437032981
 21
2.154112445357878
 31
0.0
  0
LINE
  5
3200
330
1E
100
AcDbEntity
  8
3
100
AcDbLine
 10
22.13457027584162
 20
1.9100179571689
 30
0.0
 11
22.13457027584162
 21
1.957262051657092
 31
0.0
  0
LINE
  5
3201
330
1E
100
AcDbEntity
  8
3
100
AcDbLine
 10
22.13457027584162
 20
1.957262051657092
 30
0.0
 11
22.13457027584162
 21
1.973010083153152
 31
0.0
  0
LINE
  5
3202
330
1E
100
AcDbEntity
  8
3
100
AcDbLine
 10
22.13457027584162
 20
1.973010083153152
 30
0.0
 11
22.24480649631406
 21
1.973010083153152
 31
0.0
  0
LINE
  5
3203
330
1E
100
AcDbEntity
  8
3
100
AcDbLine
 10
22.24480649631406
 20
1.957262051657092
 30
0.0
 11
22.24480649631406
 21
1.941514020161019
 31
0.0
  0
LINE
  5
3204
330
1E
100
AcDbEntity
  8
3
100
AcDbLine
 10
22.24480649631406
 20
1.941514020161019
 30
0.0
 11
22.24480649631406
 21
1.9100179571689
 31
0.0
  0
LINE
  5
3205
330
1E
100
AcDbEntity
  8
3
100
AcDbLine
 10
22.46527893725895
 20
1.650175437483863
 30
0.0
 11
22.46527893725895
 21
1.579309295751581
 31
0.0
  0
LINE
  5
3206
330
1E
100
AcDbEntity
  8
3
100
AcDbLine
 10
22.46527893725895
 20
1.579309295751581
 30
0.0
 11
22.46527893725895
 21
1.469073075279137
 31
0.0
  0
LINE
  5
3207
330
1E
100
AcDbEntity
  8
3
100
AcDbLine
 10
22.46527893725895
 20
1.469073075279137
 30
0.0
 11
22.46527893725895
 21
1.390332917798826
 31
0.0
  0
LINE
  5
3208
330
1E
100
AcDbEntity
  8
3
100
AcDbLine
 10
22.45740492151091
 20
1.650175437483863
 30
0.0
 11
22.42590885851878
 21
1.681671500475982
 31
0.0
  0
LINE
  5
3209
330
1E
100
AcDbEntity
  8
3
100
AcDbLine
 10
22.42590885851878
 20
1.681671500475982
 30
0.0
 11
22.38653877977863
 21
1.705293547720085
 31
0.0
  0
LINE
  5
320A
330
1E
100
AcDbEntity
  8
3
100
AcDbLine
 10
22.38653877977863
 20
1.705293547720085
 30
0.0
 11
22.34716870103847
 21
1.713167563468115
 31
0.0
  0
LINE
  5
320B
330
1E
100
AcDbEntity
  8
3
100
AcDbLine
 10
22.34716870103847
 20
1.713167563468115
 30
0.0
 11
22.30779862229832
 21
1.721041579216144
 31
0.0
  0
LINE
  5
320C
330
1E
100
AcDbEntity
  8
3
100
AcDbLine
 10
18.18968838607784
 20
15.74466362646023
 30
0.0
 11
18.18968838607784
 21
16.2092305555941
 31
0.0
  0
LINE
  5
320D
330
1E
100
AcDbEntity
  8
3
100
AcDbLine
 10
18.18968838607784
 20
16.2092305555941
 30
0.0
 11
16.3550427167865
 21
16.2092305555941
 31
0.0
  0
LINE
  5
320E
330
1E
100
AcDbEntity
  8
3
100
AcDbLine
 10
16.3550427167865
 20
16.2092305555941
 30
0.0
 11
16.3550427167865
 21
15.74466362646023
 31
0.0
  0
LINE
  5
320F
330
1E
100
AcDbEntity
  8
3
100
AcDbLine
 10
16.3550427167865
 20
15.74466362646023
 30
0.0
 11
18.18968838607784
 21
15.74466362646023
 31
0.0
  0
LINE
  5
3210
330
1E
100
AcDbEntity
  8
3
100
AcDbLine
 10
18.2054364175739
 20
16.22497858709015
 30
0.0
 11
18.2054364175739
 21
15.72891559496417
 31
0.0
  0
LINE
  5
3211
330
1E
100
AcDbEntity
  8
3
100
AcDbLine
 10
18.2054364175739
 20
15.72891559496417
 30
0.0
 11
16.33929468529044
 21
15.72891559496417
 31
0.0
  0
LINE
  5
3212
330
1E
100
AcDbEntity
  8
3
100
AcDbLine
 10
16.33929468529044
 20
15.72891559496417
 30
0.0
 11
16.33929468529044
 21
16.22497858709015
 31
0.0
  0
LINE
  5
3213
330
1E
100
AcDbEntity
  8
3
100
AcDbLine
 10
16.74086948844004
 20
16.13836441386181
 30
0.0
 11
16.73299547269201
 21
16.13836441386181
 31
0.0
  0
LINE
  5
3214
330
1E
100
AcDbEntity
  8
3
100
AcDbLine
 10
16.73299547269201
 20
16.13836441386181
 30
0.0
 11
16.72512145694398
 21
16.14623842960984
 31
0.0
  0
LINE
  5
3215
330
1E
100
AcDbEntity
  8
3
100
AcDbLine
 10
16.72512145694398
 20
16.14623842960984
 30
0.0
 11
16.70937342544792
 21
16.14623842960984
 31
0.0
  0
LINE
  5
3216
330
1E
100
AcDbEntity
  8
3
100
AcDbLine
 10
16.70937342544792
 20
16.14623842960984
 30
0.0
 11
16.70149940969989
 21
16.15411244535787
 31
0.0
  0
LINE
  5
3217
330
1E
100
AcDbEntity
  8
3
100
AcDbLine
 10
16.70149940969989
 20
16.15411244535787
 30
0.0
 11
16.69362539395185
 21
16.15411244535787
 31
0.0
  0
LINE
  5
3218
330
1E
100
AcDbEntity
  8
3
100
AcDbLine
 10
16.69362539395185
 20
16.15411244535787
 30
0.0
 11
16.68575137820383
 21
16.15411244535787
 31
0.0
  0
LINE
  5
3219
330
1E
100
AcDbEntity
  8
3
100
AcDbLine
 10
16.68575137820383
 20
16.15411244535787
 30
0.0
 11
16.67787736245579
 21
16.15411244535787
 31
0.0
  0
LINE
  5
321A
330
1E
100
AcDbEntity
  8
3
100
AcDbLine
 10
16.67787736245579
 20
16.15411244535787
 30
0.0
 11
16.36291673253453
 21
16.15411244535787
 31
0.0
  0
LINE
  5
321B
330
1E
100
AcDbEntity
  8
3
100
AcDbLine
 10
16.36291673253453
 20
16.15411244535787
 30
0.0
 11
16.36291673253453
 21
15.79978173669645
 31
0.0
  0
LINE
  5
321C
330
1E
100
AcDbEntity
  8
3
100
AcDbLine
 10
16.36291673253453
 20
15.79978173669645
 30
0.0
 11
16.5282710632432
 21
15.79978173669645
 31
0.0
  0
LINE
  5
321D
330
1E
100
AcDbEntity
  8
3
100
AcDbLine
 10
16.5282710632432
 20
15.79978173669645
 30
0.0
 11
16.5282710632432
 21
15.9100179571689
 31
0.0
  0
LINE
  5
325B
330
1E
100
AcDbEntity
  8
3
100
AcDbLine
 10
10.27630255930619
 20
15.97301008315315
 30
0.0
 11
10.01646003962115
 21
15.94151402016102
 31
0.0
  0
LINE
  5
325C
330
1E
100
AcDbEntity
  8
3
100
AcDbLine
 10
10.01646003962115
 20
15.94151402016102
 30
0.0
 11
9.780239567180206
 21
15.83915181543662
 31
0.0
  0
LINE
  5
325D
330
1E
100
AcDbEntity
  8
3
100
AcDbLine
 10
9.780239567180206
 20
15.83915181543662
 30
0.0
 11
9.567641141983354
 21
15.68167150047598
 31
0.0
  0
LINE
  5
325E
330
1E
100
AcDbEntity
  8
3
100
AcDbLine
 10
9.567641141983354
 20
15.68167150047598
 30
0.0
 11
9.410160827022725
 21
15.47694709102716
 31
0.0
  0
LINE
  5
325F
330
1E
100
AcDbEntity
  8
3
100
AcDbLine
 10
9.410160827022725
 20
15.47694709102716
 30
0.0
 11
9.307798622298317
 21
15.23285260283818
 31
0.0
  0
LINE
  5
3260
330
1E
100
AcDbEntity
  8
3
100
AcDbLine
 10
9.307798622298317
 20
15.23285260283818
 30
0.0
 11
9.276302559306191
 21
14.97301008315315
 31
0.0
  0
LINE
  5
3261
330
1E
100
AcDbEntity
  8
3
100
AcDbLine
 10
9.276302559306191
 20
14.97301008315315
 30
0.0
 11
9.307798622298317
 21
14.71316756346811
 31
0.0
  0
LINE
  5
3262
330
1E
100
AcDbEntity
  8
3
100
AcDbLine
 10
9.307798622298317
 20
14.71316756346811
 30
0.0
 11
9.410160827022725
 21
14.47694709102716
 31
0.0
  0
LINE
  5
3263
330
1E
100
AcDbEntity
  8
3
100
AcDbLine
 10
9.410160827022725
 20
14.47694709102716
 30
0.0
 11
9.567641141983354
 21
14.26434866583032
 31
0.0
  0
LINE
  5
3264
330
1E
100
AcDbEntity
  8
3
100
AcDbLine
 10
9.567641141983354
 20
14.26434866583032
 30
0.0
 11
9.772365551432173
 21
14.10686835086968
 31
0.0
  0
LINE
  5
3265
330
1E
100
AcDbEntity
  8
3
100
AcDbLine
 10
9.772365551432173
 20
14.10686835086968
 30
0.0
 11
10.01646003962115
 21
14.00450614614527
 31
0.0
  0
LINE
  5
3266
330
1E
100
AcDbEntity
  8
3
100
AcDbLine
 10
14.77236555143217
 20
14.10686835086968
 30
0.0
 11
14.98496397662902
 21
14.26434866583032
 31
0.0
  0
LINE
  5
3267
330
1E
100
AcDbEntity
  8
3
100
AcDbLine
 10
14.98496397662902
 20
14.26434866583032
 30
0.0
 11
15.14244429158965
 21
14.46907307527913
 31
0.0
  0
LINE
  5
3268
330
1E
100
AcDbEntity
  8
3
100
AcDbLine
 10
15.14244429158965
 20
14.46907307527913
 30
0.0
 11
15.24480649631406
 21
14.71316756346811
 31
0.0
  0
LINE
  5
3269
330
1E
100
AcDbEntity
  8
3
100
AcDbLine
 10
15.24480649631406
 20
14.71316756346811
 30
0.0
 11
15.27630255930619
 21
14.97301008315315
 31
0.0
  0
LINE
  5
326A
330
1E
100
AcDbEntity
  8
3
100
AcDbLine
 10
15.27630255930619
 20
14.97301008315315
 30
0.0
 11
15.24480649631406
 21
15.23285260283818
 31
0.0
  0
LINE
  5
326B
330
1E
100
AcDbEntity
  8
3
100
AcDbLine
 10
15.24480649631406
 20
15.23285260283818
 30
0.0
 11
15.14244429158965
 21
15.46907307527913
 31
0.0
  0
LINE
  5
326C
330
1E
100
AcDbEntity
  8
3
100
AcDbLine
 10
15.14244429158965
 20
15.46907307527913
 30
0.0
 11
14.98496397662902
 21
15.68167150047598
 31
0.0
  0
LINE
  5
326D
330
1E
100
AcDbEntity
  8
3
100
AcDbLine
 10
14.98496397662902
 20
15.68167150047598
 30
0.0
 11
14.7802395671802
 21
15.83915181543662
 31
0.0
  0
LINE
  5
326E
330
1E
100
AcDbEntity
  8
3
100
AcDbLine
 10
14.7802395671802
 20
15.83915181543662
 30
0.0
 11
14.53614507899122
 21
15.94151402016102
 31
0.0
  0
LINE
  5
326F
330
1E
100
AcDbEntity
  8
3
100
AcDbLine
 10
14.53614507899122
 20
15.94151402016102
 30
0.0
 11
14.27630255930619
 21
15.97301008315315
 31
0.0
  0
LINE
  5
3270
330
1E
100
AcDbEntity
  8
3
100
AcDbLine
 10
14.27630255930619
 20
13.97301008315315
 30
0.0
 11
14.53614507899122
 21
14.00450614614527
 31
0.0
  0
LINE
  5
3271
330
1E
100
AcDbEntity
  8
3
100
AcDbLine
 10
14.53614507899122
 20
14.00450614614527
 30
0.0
 11
14.77236555143217
 21
14.10686835086968
 31
0.0
  0
LINE
  5
3272
330
1E
100
AcDbEntity
  8
3
100
AcDbLine
 10
20.11882224434556
 20
15.19348252409802
 30
0.0
 11
20.12669626009359
 21
15.20135653984607
 31
0.0
  0
LINE
  5
3273
330
1E
100
AcDbEntity
  8
3
100
AcDbLine
 10
20.12669626009359
 20
15.20135653984607
 30
0.0
 11
20.12669626009359
 21
15.2092305555941
 31
0.0
  0
LINE
  5
3274
330
1E
100
AcDbEntity
  8
3
100
AcDbLine
 10
20.12669626009359
 20
15.18560850834999
 30
0.0
 11
20.03220807111721
 21
15.05962425638149
 31
0.0
  0
LINE
  5
3275
330
1E
100
AcDbEntity
  8
3
100
AcDbLine
 10
20.03220807111721
 20
15.05962425638149
 30
0.0
 11
20.03220807111721
 21
14.88639590992479
 31
0.0
  0
LINE
  5
3276
330
1E
100
AcDbEntity
  8
3
100
AcDbLine
 10
20.03220807111721
 20
14.88639590992479
 30
0.0
 11
20.12669626009359
 21
14.76041165795629
 31
0.0
  0
LINE
  5
3277
330
1E
100
AcDbEntity
  8
3
100
AcDbLine
 10
20.12669626009359
 20
14.7367896107122
 30
0.0
 11
20.12669626009359
 21
14.74466362646023
 31
0.0
  0
LINE
  5
3278
330
1E
100
AcDbEntity
  8
3
100
AcDbLine
 10
20.12669626009359
 20
14.74466362646023
 30
0.0
 11
20.11882224434556
 21
14.75253764220826
 31
0.0
  0
LINE
  5
3279
330
1E
100
AcDbEntity
  8
3
100
AcDbLine
 10
16.74874350418808
 20
15.09899433512165
 30
0.0
 11
16.8038616144243
 21
15.09899433512165
 31
0.0
  0
LINE
  5
327A
330
1E
100
AcDbEntity
  8
3
100
AcDbLine
 10
16.8038616144243
 20
15.09899433512165
 30
0.0
 11
16.87472775615658
 21
15.09899433512165
 31
0.0
  0
LINE
  5
327B
330
1E
100
AcDbEntity
  8
3
100
AcDbLine
 10
16.74874350418808
 20
14.84702583118465
 30
0.0
 11
16.8038616144243
 21
14.84702583118465
 31
0.0
  0
LINE
  5
327C
330
1E
100
AcDbEntity
  8
3
100
AcDbLine
 10
16.8038616144243
 20
14.84702583118465
 30
0.0
 11
16.87472775615658
 21
14.84702583118465
 31
0.0
  0
LINE
  5
327D
330
1E
100
AcDbEntity
  8
3
100
AcDbLine
 10
16.52039704749516
 20
14.84702583118465
 30
0.0
 11
16.74874350418808
 21
14.84702583118465
 31
0.0
  0
LINE
  5
327E
330
1E
100
AcDbEntity
  8
3
100
AcDbLine
 10
16.74874350418808
 20
14.84702583118465
 30
0.0
 11
16.74874350418808
 21
15.09899433512165
 31
0.0
  0
LINE
  5
327F
330
1E
100
AcDbEntity
  8
3
100
AcDbLine
 10
16.52039704749516
 20
14.84702583118465
 30
0.0
 11
16.52039704749516
 21
15.09899433512165
 31
0.0
  0
LINE
  5
3280
330
1E
100
AcDbEntity
  8
3
100
AcDbLine
 10
16.52039704749516
 20
15.09899433512165
 30
0.0
 11
16.74874350418808
 21
15.09899433512165
 31
0.0
  0
LINE
  5
3281
330
1E
100
AcDbEntity
  8
3
100
AcDbLine
 10
16.47315295300697
 20
14.84702583118465
 30
0.0
 11
16.49677500025107
 21
14.84702583118465
 31
0.0
  0
LINE
  5
3282
330
1E
100
AcDbEntity
  8
3
100
AcDbLine
 10
16.49677500025107
 20
14.84702583118465
 30
0.0
 11
16.52039704749516
 21
14.84702583118465
 31
0.0
  0
LINE
  5
3283
330
1E
100
AcDbEntity
  8
3
100
AcDbLine
 10
16.47315295300697
 20
15.09899433512165
 30
0.0
 11
16.49677500025107
 21
15.09899433512165
 31
0.0
  0
LINE
  5
3284
330
1E
100
AcDbEntity
  8
3
100
AcDbLine
 10
16.49677500025107
 20
15.09899433512165
 30
0.0
 11
16.52039704749516
 21
15.09899433512165
 31
0.0
  0
LINE
  5
3285
330
1E
100
AcDbEntity
  8
3
100
AcDbLine
 10
17.79598759867627
 20
14.84702583118465
 30
0.0
 11
17.74086948844004
 21
14.84702583118465
 31
0.0
  0
LINE
  5
3286
330
1E
100
AcDbEntity
  8
3
100
AcDbLine
 10
17.74086948844004
 20
14.84702583118465
 30
0.0
 11
17.67787736245579
 21
14.84702583118465
 31
0.0
  0
LINE
  5
3287
330
1E
100
AcDbEntity
  8
3
100
AcDbLine
 10
17.79598759867627
 20
15.09899433512165
 30
0.0
 11
17.74086948844004
 21
15.09899433512165
 31
0.0
  0
LINE
  5
3288
330
1E
100
AcDbEntity
  8
3
100
AcDbLine
 10
17.74086948844004
 20
15.09899433512165
 30
0.0
 11
17.67787736245579
 21
15.09899433512165
 31
0.0
  0
LINE
  5
3289
330
1E
100
AcDbEntity
  8
3
100
AcDbLine
 10
18.03220807111721
 20
15.09899433512165
 30
0.0
 11
17.79598759867627
 21
15.09899433512165
 31
0.0
  0
LINE
  5
328A
330
1E
100
AcDbEntity
  8
3
100
AcDbLine
 10
17.79598759867627
 20
15.09899433512165
 30
0.0
 11
17.79598759867627
 21
14.84702583118465
 31
0.0
  0
LINE
  5
328B
330
1E
100
AcDbEntity
  8
3
100
AcDbLine
 10
18.07157814985737
 20
15.09899433512165
 30
0.0
 11
18.04795610261327
 21
15.09899433512165
 31
0.0
  0
LINE
  5
328C
330
1E
100
AcDbEntity
  8
3
100
AcDbLine
 10
18.04795610261327
 20
15.09899433512165
 30
0.0
 11
18.03220807111721
 21
15.09899433512165
 31
0.0
  0
LINE
  5
328D
330
1E
100
AcDbEntity
  8
3
100
AcDbLine
 10
18.03220807111721
 20
15.09899433512165
 30
0.0
 11
18.03220807111721
 21
14.84702583118465
 31
0.0
  0
LINE
  5
328E
330
1E
100
AcDbEntity
  8
3
100
AcDbLine
 10
18.03220807111721
 20
14.84702583118465
 30
0.0
 11
17.79598759867627
 21
14.84702583118465
 31
0.0
  0
LINE
  5
328F
330
1E
100
AcDbEntity
  8
3
100
AcDbLine
 10
18.07157814985737
 20
14.84702583118465
 30
0.0
 11
18.04795610261327
 21
14.84702583118465
 31
0.0
  0
LINE
  5
3290
330
1E
100
AcDbEntity
  8
3
100
AcDbLine
 10
18.04795610261327
 20
14.84702583118465
 30
0.0
 11
18.03220807111721
 21
14.84702583118465
 31
0.0
  0
LINE
  5
3291
330
1E
100
AcDbEntity
  8
3
100
AcDbLine
 10
17.30779862229831
 20
16.05175024063346
 30
0.0
 11
17.30779862229831
 21
15.90214394142087
 31
0.0
  0
LINE
  5
3292
330
1E
100
AcDbEntity
  8
3
100
AcDbLine
 10
17.30779862229831
 20
15.90214394142087
 30
0.0
 11
17.24480649631406
 21
16.05175024063346
 31
0.0
  0
LINE
  5
3293
330
1E
100
AcDbEntity
  8
3
100
AcDbLine
 10
17.24480649631406
 20
16.05175024063346
 30
0.0
 11
17.18181437032981
 21
16.05175024063346
 31
0.0
  0
LINE
  5
3294
330
1E
100
AcDbEntity
  8
3
100
AcDbLine
 10
17.12669626009359
 20
15.93364000441298
 30
0.0
 11
17.08732618135343
 21
15.83127779968859
 31
0.0
  0
LINE
  5
3295
330
1E
100
AcDbEntity
  8
3
100
AcDbLine
 10
17.08732618135343
 20
15.83127779968859
 30
0.0
 11
17.15819232308571
 21
15.83127779968859
 31
0.0
  0
LINE
  5
3296
330
1E
100
AcDbEntity
  8
3
100
AcDbLine
 10
17.15819232308571
 20
15.83127779968859
 30
0.0
 11
17.17394035458178
 21
15.87064787842873
 31
0.0
  0
LINE
  5
3297
330
1E
100
AcDbEntity
  8
3
100
AcDbLine
 10
17.17394035458178
 20
15.87064787842873
 30
0.0
 11
17.24480649631406
 21
15.87064787842873
 31
0.0
  0
LINE
  5
3298
330
1E
100
AcDbEntity
  8
3
100
AcDbLine
 10
17.24480649631406
 20
15.87064787842873
 30
0.0
 11
17.26055452781013
 21
15.83127779968859
 31
0.0
  0
LINE
  5
3299
330
1E
100
AcDbEntity
  8
3
100
AcDbLine
 10
17.26055452781013
 20
15.83127779968859
 30
0.0
 11
17.37079074828256
 21
15.83127779968859
 31
0.0
  0
LINE
  5
329A
330
1E
100
AcDbEntity
  8
3
100
AcDbLine
 10
17.37079074828256
 20
15.83127779968859
 30
0.0
 11
17.37079074828256
 21
15.91789197291693
 31
0.0
  0
LINE
  5
329B
330
1E
100
AcDbEntity
  8
3
100
AcDbLine
 10
17.37079074828256
 20
15.91789197291693
 30
0.0
 11
17.40228681127469
 21
15.83127779968859
 31
0.0
  0
LINE
  5
329C
330
1E
100
AcDbEntity
  8
3
100
AcDbLine
 10
17.40228681127469
 20
15.83127779968859
 30
0.0
 11
17.48102696875501
 21
15.83127779968859
 31
0.0
  0
LINE
  5
329D
330
1E
100
AcDbEntity
  8
3
100
AcDbLine
 10
17.48102696875501
 20
15.83127779968859
 30
0.0
 11
17.48102696875501
 21
16.05175024063346
 31
0.0
  0
LINE
  5
329E
330
1E
100
AcDbEntity
  8
3
100
AcDbLine
 10
17.48102696875501
 20
16.05175024063346
 30
0.0
 11
17.41803484277076
 21
16.05175024063346
 31
0.0
  0
LINE
  5
329F
330
1E
100
AcDbEntity
  8
3
100
AcDbLine
 10
17.41803484277076
 20
16.05175024063346
 30
0.0
 11
17.41803484277076
 21
15.97301008315315
 31
0.0
  0
LINE
  5
32A0
330
1E
100
AcDbEntity
  8
3
100
AcDbLine
 10
17.41803484277076
 20
15.97301008315315
 30
0.0
 11
17.39441279552666
 21
16.05175024063346
 31
0.0
  0
LINE
  5
32A1
330
1E
100
AcDbEntity
  8
3
100
AcDbLine
 10
16.55189311048729
 20
15.96513606740512
 30
0.0
 11
16.55976712623532
 21
15.94938803590904
 31
0.0
  0
LINE
  5
32A2
330
1E
100
AcDbEntity
  8
3
100
AcDbLine
 10
16.55976712623532
 20
15.94938803590904
 30
0.0
 11
16.57551515773138
 21
15.93364000441298
 31
0.0
  0
LINE
  5
32A3
330
1E
100
AcDbEntity
  8
3
100
AcDbLine
 10
16.57551515773138
 20
15.93364000441298
 30
0.0
 11
16.56764114198335
 21
15.93364000441298
 31
0.0
  0
LINE
  5
32A4
330
1E
100
AcDbEntity
  8
3
100
AcDbLine
 10
16.56764114198335
 20
15.93364000441298
 30
0.0
 11
16.55976712623532
 21
15.94938803590904
 31
0.0
  0
LINE
  5
32A5
330
1E
100
AcDbEntity
  8
3
100
AcDbLine
 10
16.55976712623532
 20
15.94938803590904
 30
0.0
 11
16.54401909473926
 21
15.96513606740512
 31
0.0
  0
LINE
  5
32A6
330
1E
100
AcDbEntity
  8
3
100
AcDbLine
 10
16.54401909473926
 20
15.96513606740512
 30
0.0
 11
16.54401909473926
 21
15.98088409890118
 31
0.0
  0
LINE
  5
32A7
330
1E
100
AcDbEntity
  8
3
100
AcDbLine
 10
16.54401909473926
 20
15.98088409890118
 30
0.0
 11
16.53614507899122
 21
15.99663213039724
 31
0.0
  0
LINE
  5
32A8
330
1E
100
AcDbEntity
  8
3
100
AcDbLine
 10
16.53614507899122
 20
15.99663213039724
 30
0.0
 11
16.53614507899122
 21
16.0123801618933
 31
0.0
  0
LINE
  5
32A9
330
1E
100
AcDbEntity
  8
3
100
AcDbLine
 10
16.53614507899122
 20
16.0123801618933
 30
0.0
 11
16.53614507899122
 21
16.0360022091374
 31
0.0
  0
LINE
  5
32AA
330
1E
100
AcDbEntity
  8
3
100
AcDbLine
 10
16.53614507899122
 20
16.0360022091374
 30
0.0
 11
16.53614507899122
 21
16.05175024063346
 31
0.0
  0
LINE
  5
32AB
330
1E
100
AcDbEntity
  8
3
100
AcDbLine
 10
16.53614507899122
 20
16.05175024063346
 30
0.0
 11
16.54401909473926
 21
16.06749827212952
 31
0.0
  0
LINE
  5
32AC
330
1E
100
AcDbEntity
  8
3
100
AcDbLine
 10
16.54401909473926
 20
16.06749827212952
 30
0.0
 11
16.54401909473926
 21
16.08324630362559
 31
0.0
  0
LINE
  5
32AD
330
1E
100
AcDbEntity
  8
3
100
AcDbLine
 10
16.54401909473926
 20
16.08324630362559
 30
0.0
 11
16.55189311048729
 21
16.09112031937362
 31
0.0
  0
LINE
  5
32AE
330
1E
100
AcDbEntity
  8
3
100
AcDbLine
 10
16.55189311048729
 20
16.09112031937362
 30
0.0
 11
16.55976712623532
 21
16.11474236661771
 31
0.0
  0
LINE
  5
32AF
330
1E
100
AcDbEntity
  8
3
100
AcDbLine
 10
16.55976712623532
 20
16.11474236661771
 30
0.0
 11
16.56764114198335
 21
16.13836441386181
 31
0.0
  0
LINE
  5
32B0
330
1E
100
AcDbEntity
  8
3
100
AcDbLine
 10
16.56764114198335
 20
16.13836441386181
 30
0.0
 11
16.57551515773138
 21
16.13049039811377
 31
0.0
  0
LINE
  5
32B1
330
1E
100
AcDbEntity
  8
3
100
AcDbLine
 10
16.57551515773138
 20
16.13049039811377
 30
0.0
 11
16.55976712623532
 21
16.11474236661771
 31
0.0
  0
LINE
  5
32B2
330
1E
100
AcDbEntity
  8
3
100
AcDbLine
 10
16.55976712623532
 20
16.11474236661771
 30
0.0
 11
16.55189311048729
 21
16.09112031937362
 31
0.0
  0
LINE
  5
32B3
330
1E
100
AcDbEntity
  8
3
100
AcDbLine
 10
16.55189311048729
 20
16.09112031937362
 30
0.0
 11
16.55189311048729
 21
16.07537228787755
 31
0.0
  0
LINE
  5
32B4
330
1E
100
AcDbEntity
  8
3
100
AcDbLine
 10
16.55189311048729
 20
16.07537228787755
 30
0.0
 11
16.54401909473926
 21
16.06749827212952
 31
0.0
  0
LINE
  5
32B5
330
1E
100
AcDbEntity
  8
3
100
AcDbLine
 10
16.54401909473926
 20
16.06749827212952
 30
0.0
 11
16.54401909473926
 21
16.05175024063346
 31
0.0
  0
LINE
  5
32B6
330
1E
100
AcDbEntity
  8
3
100
AcDbLine
 10
16.54401909473926
 20
16.05175024063346
 30
0.0
 11
16.54401909473926
 21
16.0360022091374
 31
0.0
  0
LINE
  5
32B7
330
1E
100
AcDbEntity
  8
3
100
AcDbLine
 10
16.54401909473926
 20
16.0360022091374
 30
0.0
 11
16.54401909473926
 21
16.0123801618933
 31
0.0
  0
LINE
  5
32B8
330
1E
100
AcDbEntity
  8
3
100
AcDbLine
 10
16.54401909473926
 20
16.0123801618933
 30
0.0
 11
16.54401909473926
 21
15.99663213039724
 31
0.0
  0
LINE
  5
32B9
330
1E
100
AcDbEntity
  8
3
100
AcDbLine
 10
16.54401909473926
 20
15.99663213039724
 30
0.0
 11
16.54401909473926
 21
15.98088409890118
 31
0.0
  0
LINE
  5
32BA
330
1E
100
AcDbEntity
  8
3
100
AcDbLine
 10
16.54401909473926
 20
15.98088409890118
 30
0.0
 11
16.55189311048729
 21
15.96513606740512
 31
0.0
  0
LINE
  5
32BB
330
1E
100
AcDbEntity
  8
3
100
AcDbLine
 10
16.55189311048729
 20
16.02025417764134
 30
0.0
 11
16.56764114198335
 21
16.02025417764134
 31
0.0
  0
LINE
  5
32BC
330
1E
100
AcDbEntity
  8
3
100
AcDbLine
 10
16.56764114198335
 20
16.02025417764134
 30
0.0
 11
16.58338917347941
 21
16.02025417764134
 31
0.0
  0
LINE
  5
32BD
330
1E
100
AcDbEntity
  8
3
100
AcDbLine
 10
16.58338917347941
 20
16.02025417764134
 30
0.0
 11
16.61488523647154
 21
16.02812819338937
 31
0.0
  0
LINE
  5
32BE
330
1E
100
AcDbEntity
  8
3
100
AcDbLine
 10
16.61488523647154
 20
16.02812819338937
 30
0.0
 11
16.63850728371564
 21
16.0360022091374
 31
0.0
  0
LINE
  5
32BF
330
1E
100
AcDbEntity
  8
3
100
AcDbLine
 10
16.63850728371564
 20
16.0360022091374
 30
0.0
 11
16.66212933095973
 21
16.0360022091374
 31
0.0
  0
LINE
  5
32C0
330
1E
100
AcDbEntity
  8
3
100
AcDbLine
 10
16.66212933095973
 20
16.0360022091374
 30
0.0
 11
16.67000334670776
 21
16.04387622488543
 31
0.0
  0
LINE
  5
32C1
330
1E
100
AcDbEntity
  8
3
100
AcDbLine
 10
16.67000334670776
 20
16.04387622488543
 30
0.0
 11
16.67787736245579
 21
16.04387622488543
 31
0.0
  0
LINE
  5
32C2
330
1E
100
AcDbEntity
  8
3
100
AcDbLine
 10
16.67787736245579
 20
16.04387622488543
 30
0.0
 11
16.67000334670776
 21
16.0360022091374
 31
0.0
  0
LINE
  5
32C3
330
1E
100
AcDbEntity
  8
3
100
AcDbLine
 10
16.67000334670776
 20
16.0360022091374
 30
0.0
 11
16.66212933095973
 21
16.0360022091374
 31
0.0
  0
LINE
  5
32C4
330
1E
100
AcDbEntity
  8
3
100
AcDbLine
 10
16.66212933095973
 20
16.0360022091374
 30
0.0
 11
16.63850728371564
 21
16.02812819338937
 31
0.0
  0
LINE
  5
32C5
330
1E
100
AcDbEntity
  8
3
100
AcDbLine
 10
16.63850728371564
 20
16.02812819338937
 30
0.0
 11
16.61488523647154
 21
16.02025417764134
 31
0.0
  0
LINE
  5
32C6
330
1E
100
AcDbEntity
  8
3
100
AcDbLine
 10
16.61488523647154
 20
16.02025417764134
 30
0.0
 11
16.58338917347941
 21
16.02025417764134
 31
0.0
  0
LINE
  5
32C7
330
1E
100
AcDbEntity
  8
3
100
AcDbLine
 10
16.58338917347941
 20
16.02025417764134
 30
0.0
 11
16.56764114198335
 21
16.02025417764134
 31
0.0
  0
LINE
  5
32C8
330
1E
100
AcDbEntity
  8
3
100
AcDbLine
 10
16.56764114198335
 20
16.02025417764134
 30
0.0
 11
16.55189311048729
 21
16.02025417764134
 31
0.0
  0
LINE
  5
32C9
330
1E
100
AcDbEntity
  8
3
100
AcDbLine
 10
16.55189311048729
 20
16.02025417764134
 30
0.0
 11
16.53614507899122
 21
16.02025417764134
 31
0.0
  0
LINE
  5
32CA
330
1E
100
AcDbEntity
  8
3
100
AcDbLine
 10
16.53614507899122
 20
16.02025417764134
 30
0.0
 11
16.51252303174713
 21
16.02812819338937
 31
0.0
  0
LINE
  5
32CB
330
1E
100
AcDbEntity
  8
3
100
AcDbLine
 10
16.51252303174713
 20
16.02812819338937
 30
0.0
 11
16.49677500025107
 21
16.0360022091374
 31
0.0
  0
LINE
  5
32CC
330
1E
100
AcDbEntity
  8
3
100
AcDbLine
 10
16.49677500025107
 20
16.0360022091374
 30
0.0
 11
16.47315295300697
 21
16.04387622488543
 31
0.0
  0
LINE
  5
32CD
330
1E
100
AcDbEntity
  8
3
100
AcDbLine
 10
16.47315295300697
 20
16.04387622488543
 30
0.0
 11
16.49677500025107
 21
16.0360022091374
 31
0.0
  0
LINE
  5
32CE
330
1E
100
AcDbEntity
  8
3
100
AcDbLine
 10
16.49677500025107
 20
16.0360022091374
 30
0.0
 11
16.51252303174713
 21
16.02812819338937
 31
0.0
  0
LINE
  5
32CF
330
1E
100
AcDbEntity
  8
3
100
AcDbLine
 10
16.51252303174713
 20
16.02812819338937
 30
0.0
 11
16.53614507899122
 21
16.02812819338937
 31
0.0
  0
LINE
  5
32D0
330
1E
100
AcDbEntity
  8
3
100
AcDbLine
 10
16.53614507899122
 20
16.02812819338937
 30
0.0
 11
16.55189311048729
 21
16.02025417764134
 31
0.0
  0
LINE
  5
32D1
330
1E
100
AcDbEntity
  8
3
100
AcDbLine
 10
16.67787736245579
 20
16.02025417764134
 30
0.0
 11
16.67787736245579
 21
16.02812819338937
 31
0.0
  0
LINE
  5
32D2
330
1E
100
AcDbEntity
  8
3
100
AcDbLine
 10
16.67787736245579
 20
16.02812819338937
 30
0.0
 11
16.67787736245579
 21
16.0360022091374
 31
0.0
  0
LINE
  5
32D3
330
1E
100
AcDbEntity
  8
3
100
AcDbLine
 10
16.54401909473926
 20
15.93364000441298
 30
0.0
 11
16.55189311048729
 21
15.93364000441298
 31
0.0
  0
LINE
  5
32D4
330
1E
100
AcDbEntity
  8
3
100
AcDbLine
 10
16.55189311048729
 20
15.93364000441298
 30
0.0
 11
16.55976712623532
 21
15.93364000441298
 31
0.0
  0
LINE
  5
32D5
330
1E
100
AcDbEntity
  8
3
100
AcDbLine
 10
16.55976712623532
 20
15.93364000441298
 30
0.0
 11
16.56764114198335
 21
15.93364000441298
 31
0.0
  0
LINE
  5
32D6
330
1E
100
AcDbEntity
  8
3
100
AcDbLine
 10
16.56764114198335
 20
15.93364000441298
 30
0.0
 11
16.57551515773138
 21
15.93364000441298
 31
0.0
  0
LINE
  5
32D7
330
1E
100
AcDbEntity
  8
3
100
AcDbLine
 10
16.57551515773138
 20
15.93364000441298
 30
0.0
 11
16.58338917347941
 21
15.93364000441298
 31
0.0
  0
LINE
  5
32D8
330
1E
100
AcDbEntity
  8
3
100
AcDbLine
 10
16.58338917347941
 20
15.93364000441298
 30
0.0
 11
16.59126318922745
 21
15.93364000441298
 31
0.0
  0
LINE
  5
32D9
330
1E
100
AcDbEntity
  8
3
100
AcDbLine
 10
16.59126318922745
 20
15.93364000441298
 30
0.0
 11
16.59913720497548
 21
15.93364000441298
 31
0.0
  0
LINE
  5
32DA
330
1E
100
AcDbEntity
  8
3
100
AcDbLine
 10
16.59913720497548
 20
15.93364000441298
 30
0.0
 11
16.60701122072351
 21
15.93364000441298
 31
0.0
  0
LINE
  5
32DB
330
1E
100
AcDbEntity
  8
3
100
AcDbLine
 10
16.60701122072351
 20
15.93364000441298
 30
0.0
 11
16.61488523647154
 21
15.94151402016102
 31
0.0
  0
LINE
  5
32DC
330
1E
100
AcDbEntity
  8
3
100
AcDbLine
 10
16.61488523647154
 20
15.94151402016102
 30
0.0
 11
16.62275925221957
 21
15.94151402016102
 31
0.0
  0
LINE
  5
32DD
330
1E
100
AcDbEntity
  8
3
100
AcDbLine
 10
16.62275925221957
 20
15.94151402016102
 30
0.0
 11
16.6306332679676
 21
15.94938803590904
 31
0.0
  0
LINE
  5
32DE
330
1E
100
AcDbEntity
  8
3
100
AcDbLine
 10
16.6306332679676
 20
15.94938803590904
 30
0.0
 11
16.63850728371564
 21
15.94938803590904
 31
0.0
  0
LINE
  5
32DF
330
1E
100
AcDbEntity
  8
3
100
AcDbLine
 10
16.63850728371564
 20
15.94938803590904
 30
0.0
 11
16.63850728371564
 21
15.95726205165709
 31
0.0
  0
LINE
  5
32E0
330
1E
100
AcDbEntity
  8
3
100
AcDbLine
 10
16.63850728371564
 20
15.95726205165709
 30
0.0
 11
16.64638129946367
 21
15.95726205165709
 31
0.0
  0
LINE
  5
32E1
330
1E
100
AcDbEntity
  8
3
100
AcDbLine
 10
16.64638129946367
 20
15.95726205165709
 30
0.0
 11
16.64638129946367
 21
15.96513606740512
 31
0.0
  0
LINE
  5
32E2
330
1E
100
AcDbEntity
  8
3
100
AcDbLine
 10
16.64638129946367
 20
15.96513606740512
 30
0.0
 11
16.6542553152117
 21
15.96513606740512
 31
0.0
  0
LINE
  5
32E3
330
1E
100
AcDbEntity
  8
3
100
AcDbLine
 10
16.6542553152117
 20
15.96513606740512
 30
0.0
 11
16.6542553152117
 21
15.97301008315315
 31
0.0
  0
LINE
  5
32E4
330
1E
100
AcDbEntity
  8
3
100
AcDbLine
 10
16.6542553152117
 20
15.97301008315315
 30
0.0
 11
16.66212933095973
 21
15.98088409890118
 31
0.0
  0
LINE
  5
32E5
330
1E
100
AcDbEntity
  8
3
100
AcDbLine
 10
16.66212933095973
 20
15.98088409890118
 30
0.0
 11
16.67000334670776
 21
15.98875811464921
 31
0.0
  0
LINE
  5
32E6
330
1E
100
AcDbEntity
  8
3
100
AcDbLine
 10
16.67000334670776
 20
15.98875811464921
 30
0.0
 11
16.67000334670776
 21
15.99663213039724
 31
0.0
  0
LINE
  5
32E7
330
1E
100
AcDbEntity
  8
3
100
AcDbLine
 10
16.67000334670776
 20
15.99663213039724
 30
0.0
 11
16.67000334670776
 21
16.00450614614527
 31
0.0
  0
LINE
  5
32E8
330
1E
100
AcDbEntity
  8
3
100
AcDbLine
 10
16.67000334670776
 20
16.00450614614527
 30
0.0
 11
16.67787736245579
 21
16.00450614614527
 31
0.0
  0
LINE
  5
32E9
330
1E
100
AcDbEntity
  8
3
100
AcDbLine
 10
16.67787736245579
 20
16.00450614614527
 30
0.0
 11
16.67787736245579
 21
16.0123801618933
 31
0.0
  0
LINE
  5
32EA
330
1E
100
AcDbEntity
  8
3
100
AcDbLine
 10
16.67787736245579
 20
16.0123801618933
 30
0.0
 11
16.67787736245579
 21
16.02025417764134
 31
0.0
  0
LINE
  5
32EB
330
1E
100
AcDbEntity
  8
3
100
AcDbLine
 10
16.56764114198335
 20
16.13049039811377
 30
0.0
 11
16.55976712623532
 21
16.13049039811377
 31
0.0
  0
LINE
  5
32EC
330
1E
100
AcDbEntity
  8
3
100
AcDbLine
 10
16.55976712623532
 20
16.13049039811377
 30
0.0
 11
16.55189311048729
 21
16.13049039811377
 31
0.0
  0
LINE
  5
32ED
330
1E
100
AcDbEntity
  8
3
100
AcDbLine
 10
16.55189311048729
 20
16.13049039811377
 30
0.0
 11
16.54401909473926
 21
16.13049039811377
 31
0.0
  0
LINE
  5
32EE
330
1E
100
AcDbEntity
  8
3
100
AcDbLine
 10
16.54401909473926
 20
16.13049039811377
 30
0.0
 11
16.53614507899122
 21
16.12261638236574
 31
0.0
  0
LINE
  5
32EF
330
1E
100
AcDbEntity
  8
3
100
AcDbLine
 10
16.53614507899122
 20
16.12261638236574
 30
0.0
 11
16.5282710632432
 21
16.12261638236574
 31
0.0
  0
LINE
  5
32F0
330
1E
100
AcDbEntity
  8
3
100
AcDbLine
 10
16.5282710632432
 20
16.12261638236574
 30
0.0
 11
16.52039704749516
 21
16.11474236661771
 31
0.0
  0
LINE
  5
32F1
330
1E
100
AcDbEntity
  8
3
100
AcDbLine
 10
16.52039704749516
 20
16.11474236661771
 30
0.0
 11
16.51252303174713
 21
16.11474236661771
 31
0.0
  0
LINE
  5
32F2
330
1E
100
AcDbEntity
  8
3
100
AcDbLine
 10
16.51252303174713
 20
16.11474236661771
 30
0.0
 11
16.51252303174713
 21
16.10686835086968
 31
0.0
  0
LINE
  5
32F3
330
1E
100
AcDbEntity
  8
3
100
AcDbLine
 10
16.51252303174713
 20
16.10686835086968
 30
0.0
 11
16.5046490159991
 21
16.10686835086968
 31
0.0
  0
LINE
  5
32F4
330
1E
100
AcDbEntity
  8
3
100
AcDbLine
 10
16.5046490159991
 20
16.10686835086968
 30
0.0
 11
16.5046490159991
 21
16.09899433512165
 31
0.0
  0
LINE
  5
32F5
330
1E
100
AcDbEntity
  8
3
100
AcDbLine
 10
16.5046490159991
 20
16.09899433512165
 30
0.0
 11
16.49677500025107
 21
16.09899433512165
 31
0.0
  0
LINE
  5
32F6
330
1E
100
AcDbEntity
  8
3
100
AcDbLine
 10
16.49677500025107
 20
16.09899433512165
 30
0.0
 11
16.48890098450304
 21
16.09112031937362
 31
0.0
  0
LINE
  5
32F7
330
1E
100
AcDbEntity
  8
3
100
AcDbLine
 10
16.48890098450304
 20
16.09112031937362
 30
0.0
 11
16.48890098450304
 21
16.08324630362559
 31
0.0
  0
LINE
  5
32F8
330
1E
100
AcDbEntity
  8
3
100
AcDbLine
 10
16.48890098450304
 20
16.08324630362559
 30
0.0
 11
16.48102696875501
 21
16.07537228787755
 31
0.0
  0
LINE
  5
32F9
330
1E
100
AcDbEntity
  8
3
100
AcDbLine
 10
16.48102696875501
 20
16.07537228787755
 30
0.0
 11
16.48102696875501
 21
16.06749827212952
 31
0.0
  0
LINE
  5
32FA
330
1E
100
AcDbEntity
  8
3
100
AcDbLine
 10
16.48102696875501
 20
16.06749827212952
 30
0.0
 11
16.48102696875501
 21
16.05962425638149
 31
0.0
  0
LINE
  5
32FB
330
1E
100
AcDbEntity
  8
3
100
AcDbLine
 10
16.48102696875501
 20
16.05962425638149
 30
0.0
 11
16.48102696875501
 21
16.05175024063346
 31
0.0
  0
LINE
  5
32FC
330
1E
100
AcDbEntity
  8
3
100
AcDbLine
 10
16.48102696875501
 20
16.05175024063346
 30
0.0
 11
16.47315295300697
 21
16.05175024063346
 31
0.0
  0
LINE
  5
32FD
330
1E
100
AcDbEntity
  8
3
100
AcDbLine
 10
16.67787736245579
 20
16.0360022091374
 30
0.0
 11
16.67787736245579
 21
16.04387622488543
 31
0.0
  0
LINE
  5
32FE
330
1E
100
AcDbEntity
  8
3
100
AcDbLine
 10
16.67787736245579
 20
16.04387622488543
 30
0.0
 11
16.67787736245579
 21
16.05175024063346
 31
0.0
  0
LINE
  5
32FF
330
1E
100
AcDbEntity
  8
3
100
AcDbLine
 10
16.59126318922745
 20
16.11474236661771
 30
0.0
 11
16.57551515773138
 21
16.13049039811377
 31
0.0
  0
LINE
  5
3300
330
1E
100
AcDbEntity
  8
3
100
AcDbLine
 10
16.57551515773138
 20
16.13049039811377
 30
0.0
 11
16.58338917347941
 21
16.13836441386181
 31
0.0
  0
LINE
  5
3301
330
1E
100
AcDbEntity
  8
3
100
AcDbLine
 10
16.58338917347941
 20
16.13836441386181
 30
0.0
 11
16.59126318922745
 21
16.12261638236574
 31
0.0
  0
LINE
  5
3302
330
1E
100
AcDbEntity
  8
3
100
AcDbLine
 10
16.59126318922745
 20
16.12261638236574
 30
0.0
 11
16.59913720497548
 21
16.09899433512165
 31
0.0
  0
LINE
  5
3303
330
1E
100
AcDbEntity
  8
3
100
AcDbLine
 10
17.14244429158965
 20
16.10686835086968
 30
0.0
 11
17.13457027584162
 21
16.10686835086968
 31
0.0
  0
LINE
  5
3304
330
1E
100
AcDbEntity
  8
3
100
AcDbLine
 10
17.13457027584162
 20
16.10686835086968
 30
0.0
 11
17.12669626009359
 21
16.11474236661771
 31
0.0
  0
LINE
  5
3305
330
1E
100
AcDbEntity
  8
3
100
AcDbLine
 10
17.12669626009359
 20
16.11474236661771
 30
0.0
 11
17.11882224434556
 21
16.11474236661771
 31
0.0
  0
LINE
  5
3306
330
1E
100
AcDbEntity
  8
3
100
AcDbLine
 10
17.11882224434556
 20
16.11474236661771
 30
0.0
 11
17.11094822859752
 21
16.12261638236574
 31
0.0
  0
LINE
  5
3307
330
1E
100
AcDbEntity
  8
3
100
AcDbLine
 10
17.11094822859752
 20
16.12261638236574
 30
0.0
 11
17.09520019710146
 21
16.12261638236574
 31
0.0
  0
LINE
  5
3308
330
1E
100
AcDbEntity
  8
3
100
AcDbLine
 10
17.09520019710146
 20
16.12261638236574
 30
0.0
 11
17.08732618135343
 21
16.12261638236574
 31
0.0
  0
LINE
  5
3309
330
1E
100
AcDbEntity
  8
3
100
AcDbLine
 10
17.08732618135343
 20
16.12261638236574
 30
0.0
 11
16.88260177190461
 21
16.12261638236574
 31
0.0
  0
LINE
  5
330A
330
1E
100
AcDbEntity
  8
3
100
AcDbLine
 10
16.88260177190461
 20
16.12261638236574
 30
0.0
 11
16.88260177190461
 21
15.83127779968859
 31
0.0
  0
LINE
  5
330B
330
1E
100
AcDbEntity
  8
3
100
AcDbLine
 10
16.88260177190461
 20
15.83127779968859
 30
0.0
 11
17.00858602387311
 21
15.83127779968859
 31
0.0
  0
LINE
  5
330C
330
1E
100
AcDbEntity
  8
3
100
AcDbLine
 10
17.00858602387311
 20
15.83127779968859
 30
0.0
 11
17.00858602387311
 21
15.92576598866496
 31
0.0
  0
LINE
  5
330D
330
1E
100
AcDbEntity
  8
3
100
AcDbLine
 10
17.00858602387311
 20
15.92576598866496
 30
0.0
 11
17.08732618135343
 21
15.92576598866496
 31
0.0
  0
LINE
  5
330E
330
1E
100
AcDbEntity
  8
3
100
AcDbLine
 10
17.08732618135343
 20
15.92576598866496
 30
0.0
 11
17.09520019710146
 21
15.92576598866496
 31
0.0
  0
LINE
  5
330F
330
1E
100
AcDbEntity
  8
3
100
AcDbLine
 10
17.09520019710146
 20
15.92576598866496
 30
0.0
 11
17.1030742128495
 21
15.92576598866496
 31
0.0
  0
LINE
  5
3310
330
1E
100
AcDbEntity
  8
3
100
AcDbLine
 10
17.1030742128495
 20
15.92576598866496
 30
0.0
 11
17.11094822859752
 21
15.92576598866496
 31
0.0
  0
LINE
  5
3311
330
1E
100
AcDbEntity
  8
3
100
AcDbLine
 10
17.11094822859752
 20
15.92576598866496
 30
0.0
 11
17.12669626009359
 21
15.93364000441298
 31
0.0
  0
LINE
  5
3312
330
1E
100
AcDbEntity
  8
3
100
AcDbLine
 10
17.18181437032981
 20
16.05175024063346
 30
0.0
 11
17.17394035458178
 21
16.05962425638149
 31
0.0
  0
LINE
  5
3313
330
1E
100
AcDbEntity
  8
3
100
AcDbLine
 10
17.17394035458178
 20
16.05962425638149
 30
0.0
 11
17.17394035458178
 21
16.07537228787755
 31
0.0
  0
LINE
  5
3314
330
1E
100
AcDbEntity
  8
3
100
AcDbLine
 10
17.17394035458178
 20
16.07537228787755
 30
0.0
 11
17.16606633883375
 21
16.08324630362559
 31
0.0
  0
LINE
  5
3315
330
1E
100
AcDbEntity
  8
3
100
AcDbLine
 10
17.16606633883375
 20
16.08324630362559
 30
0.0
 11
17.16606633883375
 21
16.09112031937362
 31
0.0
  0
LINE
  5
3316
330
1E
100
AcDbEntity
  8
3
100
AcDbLine
 10
17.16606633883375
 20
16.09112031937362
 30
0.0
 11
17.15819232308571
 21
16.09112031937362
 31
0.0
  0
LINE
  5
3317
330
1E
100
AcDbEntity
  8
3
100
AcDbLine
 10
17.15819232308571
 20
16.09112031937362
 30
0.0
 11
17.15031830733768
 21
16.09899433512165
 31
0.0
  0
LINE
  5
3318
330
1E
100
AcDbEntity
  8
3
100
AcDbLine
 10
17.15031830733768
 20
16.09899433512165
 30
0.0
 11
17.15031830733768
 21
16.10686835086968
 31
0.0
  0
LINE
  5
3319
330
1E
100
AcDbEntity
  8
3
100
AcDbLine
 10
17.15031830733768
 20
16.10686835086968
 30
0.0
 11
17.14244429158965
 21
16.10686835086968
 31
0.0
  0
LINE
  5
331A
330
1E
100
AcDbEntity
  8
3
100
AcDbLine
 10
17.21331043332193
 20
15.98088409890118
 30
0.0
 11
17.19756240182587
 21
15.91789197291693
 31
0.0
  0
LINE
  5
331B
330
1E
100
AcDbEntity
  8
3
100
AcDbLine
 10
17.19756240182587
 20
15.91789197291693
 30
0.0
 11
17.23693248056603
 21
15.91789197291693
 31
0.0
  0
LINE
  5
331C
330
1E
100
AcDbEntity
  8
3
100
AcDbLine
 10
17.23693248056603
 20
15.91789197291693
 30
0.0
 11
17.21331043332193
 21
15.98088409890118
 31
0.0
  0
LINE
  5
331D
330
1E
100
AcDbEntity
  8
3
100
AcDbLine
 10
16.5282710632432
 20
15.9100179571689
 30
0.0
 11
16.67000334670776
 21
15.9100179571689
 31
0.0
  0
LINE
  5
331E
330
1E
100
AcDbEntity
  8
3
100
AcDbLine
 10
16.67000334670776
 20
15.9100179571689
 30
0.0
 11
16.68575137820383
 21
15.9100179571689
 31
0.0
  0
LINE
  5
331F
330
1E
100
AcDbEntity
  8
3
100
AcDbLine
 10
16.68575137820383
 20
15.9100179571689
 30
0.0
 11
16.70149940969989
 21
15.9100179571689
 31
0.0
  0
LINE
  5
3320
330
1E
100
AcDbEntity
  8
3
100
AcDbLine
 10
16.70149940969989
 20
15.9100179571689
 30
0.0
 11
16.70937342544792
 21
15.91789197291693
 31
0.0
  0
LINE
  5
3321
330
1E
100
AcDbEntity
  8
3
100
AcDbLine
 10
16.70937342544792
 20
15.91789197291693
 30
0.0
 11
16.71724744119595
 21
15.91789197291693
 31
0.0
  0
LINE
  5
3322
330
1E
100
AcDbEntity
  8
3
100
AcDbLine
 10
16.71724744119595
 20
15.91789197291693
 30
0.0
 11
16.72512145694398
 21
15.91789197291693
 31
0.0
  0
LINE
  5
3323
330
1E
100
AcDbEntity
  8
3
100
AcDbLine
 10
16.72512145694398
 20
15.91789197291693
 30
0.0
 11
16.73299547269201
 21
15.92576598866496
 31
0.0
  0
LINE
  5
3324
330
1E
100
AcDbEntity
  8
3
100
AcDbLine
 10
16.73299547269201
 20
15.92576598866496
 30
0.0
 11
16.74086948844004
 21
15.92576598866496
 31
0.0
  0
LINE
  5
3325
330
1E
100
AcDbEntity
  8
3
100
AcDbLine
 10
16.74086948844004
 20
15.92576598866496
 30
0.0
 11
16.74086948844004
 21
15.93364000441298
 31
0.0
  0
LINE
  5
3326
330
1E
100
AcDbEntity
  8
3
100
AcDbLine
 10
16.74086948844004
 20
15.93364000441298
 30
0.0
 11
16.74874350418808
 21
15.94151402016102
 31
0.0
  0
LINE
  5
3327
330
1E
100
AcDbEntity
  8
3
100
AcDbLine
 10
16.74874350418808
 20
15.94151402016102
 30
0.0
 11
16.75661751993611
 21
15.94151402016102
 31
0.0
  0
LINE
  5
3328
330
1E
100
AcDbEntity
  8
3
100
AcDbLine
 10
16.75661751993611
 20
15.94151402016102
 30
0.0
 11
16.76449153568414
 21
15.94151402016102
 31
0.0
  0
LINE
  5
3329
330
1E
100
AcDbEntity
  8
3
100
AcDbLine
 10
16.76449153568414
 20
15.94151402016102
 30
0.0
 11
16.77236555143217
 21
15.94938803590904
 31
0.0
  0
LINE
  5
332A
330
1E
100
AcDbEntity
  8
3
100
AcDbLine
 10
16.77236555143217
 20
15.94938803590904
 30
0.0
 11
16.77236555143217
 21
15.95726205165709
 31
0.0
  0
LINE
  5
332B
330
1E
100
AcDbEntity
  8
3
100
AcDbLine
 10
17.05583011836131
 20
15.98875811464921
 30
0.0
 11
17.05583011836131
 21
16.06749827212952
 31
0.0
  0
LINE
  5
332C
330
1E
100
AcDbEntity
  8
3
100
AcDbLine
 10
17.05583011836131
 20
16.06749827212952
 30
0.0
 11
17.05583011836131
 21
16.07537228787755
 31
0.0
  0
LINE
  5
332D
330
1E
100
AcDbEntity
  8
3
100
AcDbLine
 10
17.05583011836131
 20
16.07537228787755
 30
0.0
 11
17.04795610261327
 21
16.07537228787755
 31
0.0
  0
LINE
  5
332E
330
1E
100
AcDbEntity
  8
3
100
AcDbLine
 10
17.04795610261327
 20
16.07537228787755
 30
0.0
 11
17.04008208686524
 21
16.07537228787755
 31
0.0
  0
LINE
  5
332F
330
1E
100
AcDbEntity
  8
3
100
AcDbLine
 10
17.04008208686524
 20
16.07537228787755
 30
0.0
 11
17.01646003962115
 21
16.07537228787755
 31
0.0
  0
LINE
  5
3330
330
1E
100
AcDbEntity
  8
3
100
AcDbLine
 10
17.01646003962115
 20
16.07537228787755
 30
0.0
 11
17.01646003962115
 21
15.97301008315315
 31
0.0
  0
LINE
  5
3331
330
1E
100
AcDbEntity
  8
3
100
AcDbLine
 10
17.01646003962115
 20
15.97301008315315
 30
0.0
 11
17.04008208686524
 21
15.97301008315315
 31
0.0
  0
LINE
  5
3332
330
1E
100
AcDbEntity
  8
3
100
AcDbLine
 10
17.04008208686524
 20
15.97301008315315
 30
0.0
 11
17.04795610261327
 21
15.97301008315315
 31
0.0
  0
LINE
  5
3333
330
1E
100
AcDbEntity
  8
3
100
AcDbLine
 10
17.04795610261327
 20
15.97301008315315
 30
0.0
 11
17.04795610261327
 21
15.98088409890118
 31
0.0
  0
LINE
  5
3334
330
1E
100
AcDbEntity
  8
3
100
AcDbLine
 10
17.04795610261327
 20
15.98088409890118
 30
0.0
 11
17.05583011836131
 21
15.98088409890118
 31
0.0
  0
LINE
  5
3335
330
1E
100
AcDbEntity
  8
3
100
AcDbLine
 10
17.05583011836131
 20
15.98088409890118
 30
0.0
 11
17.05583011836131
 21
15.98875811464921
 31
0.0
  0
LINE
  5
3336
330
1E
100
AcDbEntity
  8
3
100
AcDbLine
 10
16.64638129946367
 20
16.07537228787755
 30
0.0
 11
16.6542553152117
 21
16.05962425638149
 31
0.0
  0
LINE
  5
3337
330
1E
100
AcDbEntity
  8
3
100
AcDbLine
 10
16.6542553152117
 20
16.05962425638149
 30
0.0
 11
16.6542553152117
 21
16.04387622488543
 31
0.0
  0
LINE
  5
3338
330
1E
100
AcDbEntity
  8
3
100
AcDbLine
 10
16.6542553152117
 20
16.04387622488543
 30
0.0
 11
16.6542553152117
 21
16.02812819338937
 31
0.0
  0
LINE
  5
3339
330
1E
100
AcDbEntity
  8
3
100
AcDbLine
 10
16.6542553152117
 20
16.02812819338937
 30
0.0
 11
16.6542553152117
 21
16.00450614614527
 31
0.0
  0
LINE
  5
333A
330
1E
100
AcDbEntity
  8
3
100
AcDbLine
 10
16.6542553152117
 20
16.00450614614527
 30
0.0
 11
16.6542553152117
 21
15.99663213039724
 31
0.0
  0
LINE
  5
333B
330
1E
100
AcDbEntity
  8
3
100
AcDbLine
 10
16.6542553152117
 20
15.99663213039724
 30
0.0
 11
16.64638129946367
 21
15.98875811464921
 31
0.0
  0
LINE
  5
333C
330
1E
100
AcDbEntity
  8
3
100
AcDbLine
 10
16.64638129946367
 20
15.98875811464921
 30
0.0
 11
16.64638129946367
 21
15.98088409890118
 31
0.0
  0
LINE
  5
333D
330
1E
100
AcDbEntity
  8
3
100
AcDbLine
 10
16.64638129946367
 20
15.98088409890118
 30
0.0
 11
16.63850728371564
 21
15.97301008315315
 31
0.0
  0
LINE
  5
333E
330
1E
100
AcDbEntity
  8
3
100
AcDbLine
 10
16.63850728371564
 20
15.97301008315315
 30
0.0
 11
16.6306332679676
 21
15.95726205165709
 31
0.0
  0
LINE
  5
333F
330
1E
100
AcDbEntity
  8
3
100
AcDbLine
 10
16.6306332679676
 20
15.95726205165709
 30
0.0
 11
16.62275925221957
 21
15.94938803590904
 31
0.0
  0
LINE
  5
3340
330
1E
100
AcDbEntity
  8
3
100
AcDbLine
 10
16.62275925221957
 20
15.94938803590904
 30
0.0
 11
16.59913720497548
 21
15.93364000441298
 31
0.0
  0
LINE
  5
3341
330
1E
100
AcDbEntity
  8
3
100
AcDbLine
 10
16.62275925221957
 20
15.95726205165709
 30
0.0
 11
16.6306332679676
 21
15.96513606740512
 31
0.0
  0
LINE
  5
3342
330
1E
100
AcDbEntity
  8
3
100
AcDbLine
 10
16.6306332679676
 20
15.96513606740512
 30
0.0
 11
16.6306332679676
 21
15.97301008315315
 31
0.0
  0
LINE
  5
3343
330
1E
100
AcDbEntity
  8
3
100
AcDbLine
 10
16.6306332679676
 20
15.97301008315315
 30
0.0
 11
16.64638129946367
 21
15.98875811464921
 31
0.0
  0
LINE
  5
3344
330
1E
100
AcDbEntity
  8
3
100
AcDbLine
 10
16.64638129946367
 20
15.98875811464921
 30
0.0
 11
16.64638129946367
 21
15.99663213039724
 31
0.0
  0
LINE
  5
3345
330
1E
100
AcDbEntity
  8
3
100
AcDbLine
 10
16.64638129946367
 20
15.99663213039724
 30
0.0
 11
16.6542553152117
 21
16.0123801618933
 31
0.0
  0
LINE
  5
3346
330
1E
100
AcDbEntity
  8
3
100
AcDbLine
 10
16.6542553152117
 20
16.0123801618933
 30
0.0
 11
16.6542553152117
 21
16.02812819338937
 31
0.0
  0
LINE
  5
3347
330
1E
100
AcDbEntity
  8
3
100
AcDbLine
 10
16.6542553152117
 20
16.02812819338937
 30
0.0
 11
16.6542553152117
 21
16.04387622488543
 31
0.0
  0
LINE
  5
3348
330
1E
100
AcDbEntity
  8
3
100
AcDbLine
 10
16.6542553152117
 20
16.04387622488543
 30
0.0
 11
16.64638129946367
 21
16.05962425638149
 31
0.0
  0
LINE
  5
3349
330
1E
100
AcDbEntity
  8
3
100
AcDbLine
 10
16.64638129946367
 20
16.05962425638149
 30
0.0
 11
16.64638129946367
 21
16.06749827212952
 31
0.0
  0
LINE
  5
334A
330
1E
100
AcDbEntity
  8
3
100
AcDbLine
 10
16.64638129946367
 20
16.06749827212952
 30
0.0
 11
16.63850728371564
 21
16.08324630362559
 31
0.0
  0
LINE
  5
334B
330
1E
100
AcDbEntity
  8
3
100
AcDbLine
 10
16.63850728371564
 20
16.08324630362559
 30
0.0
 11
16.6306332679676
 21
16.09899433512165
 31
0.0
  0
LINE
  5
334C
330
1E
100
AcDbEntity
  8
3
100
AcDbLine
 10
16.6306332679676
 20
16.09899433512165
 30
0.0
 11
16.61488523647154
 21
16.11474236661771
 31
0.0
  0
LINE
  5
334D
330
1E
100
AcDbEntity
  8
3
100
AcDbLine
 10
16.61488523647154
 20
16.11474236661771
 30
0.0
 11
16.60701122072351
 21
16.12261638236574
 31
0.0
  0
LINE
  5
334E
330
1E
100
AcDbEntity
  8
3
100
AcDbLine
 10
16.60701122072351
 20
16.12261638236574
 30
0.0
 11
16.59913720497548
 21
16.13049039811377
 31
0.0
  0
LINE
  5
334F
330
1E
100
AcDbEntity
  8
3
100
AcDbLine
 10
16.59913720497548
 20
16.13049039811377
 30
0.0
 11
16.59913720497548
 21
16.13836441386181
 31
0.0
  0
LINE
  5
3350
330
1E
100
AcDbEntity
  8
3
100
AcDbLine
 10
16.59913720497548
 20
16.13836441386181
 30
0.0
 11
16.60701122072351
 21
16.13049039811377
 31
0.0
  0
LINE
  5
3351
330
1E
100
AcDbEntity
  8
3
100
AcDbLine
 10
16.60701122072351
 20
16.13049039811377
 30
0.0
 11
16.61488523647154
 21
16.12261638236574
 31
0.0
  0
LINE
  5
3352
330
1E
100
AcDbEntity
  8
3
100
AcDbLine
 10
16.61488523647154
 20
16.12261638236574
 30
0.0
 11
16.62275925221957
 21
16.11474236661771
 31
0.0
  0
LINE
  5
3353
330
1E
100
AcDbEntity
  8
3
100
AcDbLine
 10
16.62275925221957
 20
16.11474236661771
 30
0.0
 11
16.6306332679676
 21
16.09899433512165
 31
0.0
  0
LINE
  5
3354
330
1E
100
AcDbEntity
  8
3
100
AcDbLine
 10
16.6306332679676
 20
16.09899433512165
 30
0.0
 11
16.64638129946367
 21
16.09112031937362
 31
0.0
  0
LINE
  5
3355
330
1E
100
AcDbEntity
  8
3
100
AcDbLine
 10
16.64638129946367
 20
16.09112031937362
 30
0.0
 11
16.64638129946367
 21
16.07537228787755
 31
0.0
  0
LINE
  5
3356
330
1E
100
AcDbEntity
  8
3
100
AcDbLine
 10
16.5046490159991
 20
15.99663213039724
 30
0.0
 11
16.51252303174713
 21
15.98875811464921
 31
0.0
  0
LINE
  5
3357
330
1E
100
AcDbEntity
  8
3
100
AcDbLine
 10
16.51252303174713
 20
15.98875811464921
 30
0.0
 11
16.52039704749516
 21
15.97301008315315
 31
0.0
  0
LINE
  5
3358
330
1E
100
AcDbEntity
  8
3
100
AcDbLine
 10
16.52039704749516
 20
15.97301008315315
 30
0.0
 11
16.53614507899122
 21
15.95726205165709
 31
0.0
  0
LINE
  5
3359
330
1E
100
AcDbEntity
  8
3
100
AcDbLine
 10
16.53614507899122
 20
15.95726205165709
 30
0.0
 11
16.55189311048729
 21
15.93364000441298
 31
0.0
  0
LINE
  5
335A
330
1E
100
AcDbEntity
  8
3
100
AcDbLine
 10
16.55189311048729
 20
15.93364000441298
 30
0.0
 11
16.5282710632432
 21
15.94938803590904
 31
0.0
  0
LINE
  5
335B
330
1E
100
AcDbEntity
  8
3
100
AcDbLine
 10
16.5282710632432
 20
15.94938803590904
 30
0.0
 11
16.51252303174713
 21
15.97301008315315
 31
0.0
  0
LINE
  5
335C
330
1E
100
AcDbEntity
  8
3
100
AcDbLine
 10
16.51252303174713
 20
15.97301008315315
 30
0.0
 11
16.5046490159991
 21
15.98875811464921
 31
0.0
  0
LINE
  5
335D
330
1E
100
AcDbEntity
  8
3
100
AcDbLine
 10
16.5046490159991
 20
15.98875811464921
 30
0.0
 11
16.49677500025107
 21
15.99663213039724
 31
0.0
  0
LINE
  5
335E
330
1E
100
AcDbEntity
  8
3
100
AcDbLine
 10
16.49677500025107
 20
15.99663213039724
 30
0.0
 11
16.49677500025107
 21
16.00450614614527
 31
0.0
  0
LINE
  5
335F
330
1E
100
AcDbEntity
  8
3
100
AcDbLine
 10
16.49677500025107
 20
16.00450614614527
 30
0.0
 11
16.49677500025107
 21
16.02812819338937
 31
0.0
  0
LINE
  5
3360
330
1E
100
AcDbEntity
  8
3
100
AcDbLine
 10
16.49677500025107
 20
16.02812819338937
 30
0.0
 11
16.49677500025107
 21
16.04387622488543
 31
0.0
  0
LINE
  5
3361
330
1E
100
AcDbEntity
  8
3
100
AcDbLine
 10
16.49677500025107
 20
16.04387622488543
 30
0.0
 11
16.49677500025107
 21
16.05962425638149
 31
0.0
  0
LINE
  5
3362
330
1E
100
AcDbEntity
  8
3
100
AcDbLine
 10
16.49677500025107
 20
16.05962425638149
 30
0.0
 11
16.49677500025107
 21
16.06749827212952
 31
0.0
  0
LINE
  5
3363
330
1E
100
AcDbEntity
  8
3
100
AcDbLine
 10
16.49677500025107
 20
16.06749827212952
 30
0.0
 11
16.5046490159991
 21
16.07537228787755
 31
0.0
  0
LINE
  5
3364
330
1E
100
AcDbEntity
  8
3
100
AcDbLine
 10
16.5046490159991
 20
16.07537228787755
 30
0.0
 11
16.52039704749516
 21
16.09899433512165
 31
0.0
  0
LINE
  5
3365
330
1E
100
AcDbEntity
  8
3
100
AcDbLine
 10
16.52039704749516
 20
16.09899433512165
 30
0.0
 11
16.5282710632432
 21
16.11474236661771
 31
0.0
  0
LINE
  5
3366
330
1E
100
AcDbEntity
  8
3
100
AcDbLine
 10
16.5282710632432
 20
16.11474236661771
 30
0.0
 11
16.54401909473926
 21
16.13049039811377
 31
0.0
  0
LINE
  5
3367
330
1E
100
AcDbEntity
  8
3
100
AcDbLine
 10
16.54401909473926
 20
16.13049039811377
 30
0.0
 11
16.55189311048729
 21
16.13049039811377
 31
0.0
  0
LINE
  5
3368
330
1E
100
AcDbEntity
  8
3
100
AcDbLine
 10
16.55189311048729
 20
16.13049039811377
 30
0.0
 11
16.54401909473926
 21
16.13049039811377
 31
0.0
  0
LINE
  5
3369
330
1E
100
AcDbEntity
  8
3
100
AcDbLine
 10
16.54401909473926
 20
16.13049039811377
 30
0.0
 11
16.53614507899122
 21
16.11474236661771
 31
0.0
  0
LINE
  5
336A
330
1E
100
AcDbEntity
  8
3
100
AcDbLine
 10
16.53614507899122
 20
16.11474236661771
 30
0.0
 11
16.52039704749516
 21
16.09899433512165
 31
0.0
  0
LINE
  5
336B
330
1E
100
AcDbEntity
  8
3
100
AcDbLine
 10
16.52039704749516
 20
16.09899433512165
 30
0.0
 11
16.5046490159991
 21
16.06749827212952
 31
0.0
  0
LINE
  5
336C
330
1E
100
AcDbEntity
  8
3
100
AcDbLine
 10
16.5046490159991
 20
16.06749827212952
 30
0.0
 11
16.5046490159991
 21
16.05962425638149
 31
0.0
  0
LINE
  5
336D
330
1E
100
AcDbEntity
  8
3
100
AcDbLine
 10
16.5046490159991
 20
16.05962425638149
 30
0.0
 11
16.49677500025107
 21
16.04387622488543
 31
0.0
  0
LINE
  5
336E
330
1E
100
AcDbEntity
  8
3
100
AcDbLine
 10
16.49677500025107
 20
16.04387622488543
 30
0.0
 11
16.49677500025107
 21
16.02812819338937
 31
0.0
  0
LINE
  5
336F
330
1E
100
AcDbEntity
  8
3
100
AcDbLine
 10
16.49677500025107
 20
16.02812819338937
 30
0.0
 11
16.5046490159991
 21
16.00450614614527
 31
0.0
  0
LINE
  5
3370
330
1E
100
AcDbEntity
  8
3
100
AcDbLine
 10
16.5046490159991
 20
16.00450614614527
 30
0.0
 11
16.5046490159991
 21
15.99663213039724
 31
0.0
  0
LINE
  5
3371
330
1E
100
AcDbEntity
  8
3
100
AcDbLine
 10
16.6306332679676
 20
15.94151402016102
 30
0.0
 11
16.63850728371564
 21
15.94938803590904
 31
0.0
  0
LINE
  5
3372
330
1E
100
AcDbEntity
  8
3
100
AcDbLine
 10
16.63850728371564
 20
15.94938803590904
 30
0.0
 11
16.64638129946367
 21
15.95726205165709
 31
0.0
  0
LINE
  5
3373
330
1E
100
AcDbEntity
  8
3
100
AcDbLine
 10
16.64638129946367
 20
15.95726205165709
 30
0.0
 11
16.6542553152117
 21
15.96513606740512
 31
0.0
  0
LINE
  5
3374
330
1E
100
AcDbEntity
  8
3
100
AcDbLine
 10
16.6542553152117
 20
15.96513606740512
 30
0.0
 11
16.66212933095973
 21
15.97301008315315
 31
0.0
  0
LINE
  5
3375
330
1E
100
AcDbEntity
  8
3
100
AcDbLine
 10
16.66212933095973
 20
15.97301008315315
 30
0.0
 11
16.67000334670776
 21
15.98088409890118
 31
0.0
  0
LINE
  5
3376
330
1E
100
AcDbEntity
  8
3
100
AcDbLine
 10
16.67000334670776
 20
15.98088409890118
 30
0.0
 11
16.67000334670776
 21
15.98875811464921
 31
0.0
  0
LINE
  5
3377
330
1E
100
AcDbEntity
  8
3
100
AcDbLine
 10
16.67000334670776
 20
15.98875811464921
 30
0.0
 11
16.67000334670776
 21
15.99663213039724
 31
0.0
  0
LINE
  5
3378
330
1E
100
AcDbEntity
  8
3
100
AcDbLine
 10
16.67000334670776
 20
15.99663213039724
 30
0.0
 11
16.67787736245579
 21
16.00450614614527
 31
0.0
  0
LINE
  5
3379
330
1E
100
AcDbEntity
  8
3
100
AcDbLine
 10
16.67787736245579
 20
16.00450614614527
 30
0.0
 11
16.67787736245579
 21
16.0123801618933
 31
0.0
  0
LINE
  5
337A
330
1E
100
AcDbEntity
  8
3
100
AcDbLine
 10
16.67787736245579
 20
16.0123801618933
 30
0.0
 11
16.67787736245579
 21
16.02025417764134
 31
0.0
  0
LINE
  5
337B
330
1E
100
AcDbEntity
  8
3
100
AcDbLine
 10
16.67787736245579
 20
16.02025417764134
 30
0.0
 11
16.67787736245579
 21
16.02812819338937
 31
0.0
  0
LINE
  5
337C
330
1E
100
AcDbEntity
  8
3
100
AcDbLine
 10
16.67787736245579
 20
16.02812819338937
 30
0.0
 11
16.67787736245579
 21
16.0360022091374
 31
0.0
  0
LINE
  5
337D
330
1E
100
AcDbEntity
  8
3
100
AcDbLine
 10
16.52039704749516
 20
16.12261638236574
 30
0.0
 11
16.51252303174713
 21
16.11474236661771
 31
0.0
  0
LINE
  5
337E
330
1E
100
AcDbEntity
  8
3
100
AcDbLine
 10
16.51252303174713
 20
16.11474236661771
 30
0.0
 11
16.5046490159991
 21
16.11474236661771
 31
0.0
  0
LINE
  5
337F
330
1E
100
AcDbEntity
  8
3
100
AcDbLine
 10
16.5046490159991
 20
16.11474236661771
 30
0.0
 11
16.5046490159991
 21
16.10686835086968
 31
0.0
  0
LINE
  5
3380
330
1E
100
AcDbEntity
  8
3
100
AcDbLine
 10
16.5046490159991
 20
16.10686835086968
 30
0.0
 11
16.49677500025107
 21
16.09899433512165
 31
0.0
  0
LINE
  5
3381
330
1E
100
AcDbEntity
  8
3
100
AcDbLine
 10
16.49677500025107
 20
16.09899433512165
 30
0.0
 11
16.48890098450304
 21
16.09112031937362
 31
0.0
  0
LINE
  5
3382
330
1E
100
AcDbEntity
  8
3
100
AcDbLine
 10
16.48890098450304
 20
16.09112031937362
 30
0.0
 11
16.48890098450304
 21
16.08324630362559
 31
0.0
  0
LINE
  5
3383
330
1E
100
AcDbEntity
  8
3
100
AcDbLine
 10
16.48890098450304
 20
16.08324630362559
 30
0.0
 11
16.48102696875501
 21
16.08324630362559
 31
0.0
  0
LINE
  5
3384
330
1E
100
AcDbEntity
  8
3
100
AcDbLine
 10
16.48102696875501
 20
16.08324630362559
 30
0.0
 11
16.48102696875501
 21
16.07537228787755
 31
0.0
  0
LINE
  5
3385
330
1E
100
AcDbEntity
  8
3
100
AcDbLine
 10
16.48102696875501
 20
16.07537228787755
 30
0.0
 11
16.48102696875501
 21
16.06749827212952
 31
0.0
  0
LINE
  5
3386
330
1E
100
AcDbEntity
  8
3
100
AcDbLine
 10
16.48102696875501
 20
16.06749827212952
 30
0.0
 11
16.47315295300697
 21
16.05962425638149
 31
0.0
  0
LINE
  5
3387
330
1E
100
AcDbEntity
  8
3
100
AcDbLine
 10
16.47315295300697
 20
16.05962425638149
 30
0.0
 11
16.47315295300697
 21
16.05175024063346
 31
0.0
  0
LINE
  5
3388
330
1E
100
AcDbEntity
  8
3
100
AcDbLine
 10
16.47315295300697
 20
16.05175024063346
 30
0.0
 11
16.47315295300697
 21
16.04387622488543
 31
0.0
  0
LINE
  5
3389
330
1E
100
AcDbEntity
  8
3
100
AcDbLine
 10
16.47315295300697
 20
16.04387622488543
 30
0.0
 11
16.47315295300697
 21
16.0360022091374
 31
0.0
  0
LINE
  5
338A
330
1E
100
AcDbEntity
  8
3
100
AcDbLine
 10
16.47315295300697
 20
16.0360022091374
 30
0.0
 11
16.47315295300697
 21
16.02812819338937
 31
0.0
  0
LINE
  5
338B
330
1E
100
AcDbEntity
  8
3
100
AcDbLine
 10
16.47315295300697
 20
16.02812819338937
 30
0.0
 11
16.47315295300697
 21
16.02025417764134
 31
0.0
  0
LINE
  5
338C
330
1E
100
AcDbEntity
  8
3
100
AcDbLine
 10
16.47315295300697
 20
16.02025417764134
 30
0.0
 11
16.47315295300697
 21
16.0123801618933
 31
0.0
  0
LINE
  5
338D
330
1E
100
AcDbEntity
  8
3
100
AcDbLine
 10
16.47315295300697
 20
16.0123801618933
 30
0.0
 11
16.47315295300697
 21
16.00450614614527
 31
0.0
  0
LINE
  5
338E
330
1E
100
AcDbEntity
  8
3
100
AcDbLine
 10
16.47315295300697
 20
16.00450614614527
 30
0.0
 11
16.48102696875501
 21
15.99663213039724
 31
0.0
  0
LINE
  5
338F
330
1E
100
AcDbEntity
  8
3
100
AcDbLine
 10
16.6542553152117
 20
16.09899433512165
 30
0.0
 11
16.6542553152117
 21
16.10686835086968
 31
0.0
  0
LINE
  5
3390
330
1E
100
AcDbEntity
  8
3
100
AcDbLine
 10
16.6542553152117
 20
16.10686835086968
 30
0.0
 11
16.64638129946367
 21
16.10686835086968
 31
0.0
  0
LINE
  5
3391
330
1E
100
AcDbEntity
  8
3
100
AcDbLine
 10
16.64638129946367
 20
16.10686835086968
 30
0.0
 11
16.63850728371564
 21
16.11474236661771
 31
0.0
  0
LINE
  5
3392
330
1E
100
AcDbEntity
  8
3
100
AcDbLine
 10
16.63850728371564
 20
16.11474236661771
 30
0.0
 11
16.6306332679676
 21
16.12261638236574
 31
0.0
  0
LINE
  5
3393
330
1E
100
AcDbEntity
  8
3
100
AcDbLine
 10
16.6306332679676
 20
16.12261638236574
 30
0.0
 11
16.62275925221957
 21
16.12261638236574
 31
0.0
  0
LINE
  5
3394
330
1E
100
AcDbEntity
  8
3
100
AcDbLine
 10
16.62275925221957
 20
16.12261638236574
 30
0.0
 11
16.62275925221957
 21
16.13049039811377
 31
0.0
  0
LINE
  5
3395
330
1E
100
AcDbEntity
  8
3
100
AcDbLine
 10
16.62275925221957
 20
16.13049039811377
 30
0.0
 11
16.61488523647154
 21
16.13049039811377
 31
0.0
  0
LINE
  5
3396
330
1E
100
AcDbEntity
  8
3
100
AcDbLine
 10
16.61488523647154
 20
16.13049039811377
 30
0.0
 11
16.60701122072351
 21
16.13049039811377
 31
0.0
  0
LINE
  5
3397
330
1E
100
AcDbEntity
  8
3
100
AcDbLine
 10
16.60701122072351
 20
16.13049039811377
 30
0.0
 11
16.59913720497548
 21
16.13049039811377
 31
0.0
  0
LINE
  5
3398
330
1E
100
AcDbEntity
  8
3
100
AcDbLine
 10
16.59913720497548
 20
16.13049039811377
 30
0.0
 11
16.59126318922745
 21
16.13836441386181
 31
0.0
  0
LINE
  5
3399
330
1E
100
AcDbEntity
  8
3
100
AcDbLine
 10
16.59126318922745
 20
16.13836441386181
 30
0.0
 11
16.58338917347941
 21
16.13836441386181
 31
0.0
  0
LINE
  5
339A
330
1E
100
AcDbEntity
  8
3
100
AcDbLine
 10
16.58338917347941
 20
16.13836441386181
 30
0.0
 11
16.57551515773138
 21
16.13836441386181
 31
0.0
  0
LINE
  5
339B
330
1E
100
AcDbEntity
  8
3
100
AcDbLine
 10
16.57551515773138
 20
16.13836441386181
 30
0.0
 11
16.56764114198335
 21
16.13836441386181
 31
0.0
  0
LINE
  5
339C
330
1E
100
AcDbEntity
  8
3
100
AcDbLine
 10
16.56764114198335
 20
16.13836441386181
 30
0.0
 11
16.55976712623532
 21
16.13836441386181
 31
0.0
  0
LINE
  5
339D
330
1E
100
AcDbEntity
  8
3
100
AcDbLine
 10
16.55976712623532
 20
16.13836441386181
 30
0.0
 11
16.55189311048729
 21
16.13049039811377
 31
0.0
  0
LINE
  5
339E
330
1E
100
AcDbEntity
  8
3
100
AcDbLine
 10
16.55189311048729
 20
16.13049039811377
 30
0.0
 11
16.54401909473926
 21
16.13049039811377
 31
0.0
  0
LINE
  5
339F
330
1E
100
AcDbEntity
  8
3
100
AcDbLine
 10
16.54401909473926
 20
16.13049039811377
 30
0.0
 11
16.53614507899122
 21
16.13049039811377
 31
0.0
  0
LINE
  5
33A0
330
1E
100
AcDbEntity
  8
3
100
AcDbLine
 10
16.53614507899122
 20
16.13049039811377
 30
0.0
 11
16.5282710632432
 21
16.12261638236574
 31
0.0
  0
LINE
  5
33A1
330
1E
100
AcDbEntity
  8
3
100
AcDbLine
 10
16.5282710632432
 20
16.12261638236574
 30
0.0
 11
16.52039704749516
 21
16.12261638236574
 31
0.0
  0
LINE
  5
33A2
330
1E
100
AcDbEntity
  8
3
100
AcDbLine
 10
16.67787736245579
 20
16.0360022091374
 30
0.0
 11
16.67787736245579
 21
16.04387622488543
 31
0.0
  0
LINE
  5
33A3
330
1E
100
AcDbEntity
  8
3
100
AcDbLine
 10
16.67787736245579
 20
16.04387622488543
 30
0.0
 11
16.67787736245579
 21
16.05175024063346
 31
0.0
  0
LINE
  5
33A4
330
1E
100
AcDbEntity
  8
3
100
AcDbLine
 10
16.67787736245579
 20
16.05175024063346
 30
0.0
 11
16.67787736245579
 21
16.05962425638149
 31
0.0
  0
LINE
  5
33A5
330
1E
100
AcDbEntity
  8
3
100
AcDbLine
 10
16.67787736245579
 20
16.05962425638149
 30
0.0
 11
16.67787736245579
 21
16.06749827212952
 31
0.0
  0
LINE
  5
33A6
330
1E
100
AcDbEntity
  8
3
100
AcDbLine
 10
16.67787736245579
 20
16.06749827212952
 30
0.0
 11
16.67000334670776
 21
16.06749827212952
 31
0.0
  0
LINE
  5
33A7
330
1E
100
AcDbEntity
  8
3
100
AcDbLine
 10
16.67000334670776
 20
16.06749827212952
 30
0.0
 11
16.67000334670776
 21
16.07537228787755
 31
0.0
  0
LINE
  5
33A8
330
1E
100
AcDbEntity
  8
3
100
AcDbLine
 10
16.67000334670776
 20
16.07537228787755
 30
0.0
 11
16.67000334670776
 21
16.08324630362559
 31
0.0
  0
LINE
  5
33A9
330
1E
100
AcDbEntity
  8
3
100
AcDbLine
 10
16.67000334670776
 20
16.08324630362559
 30
0.0
 11
16.66212933095973
 21
16.09112031937362
 31
0.0
  0
LINE
  5
33AA
330
1E
100
AcDbEntity
  8
3
100
AcDbLine
 10
16.66212933095973
 20
16.09112031937362
 30
0.0
 11
16.6542553152117
 21
16.09899433512165
 31
0.0
  0
LINE
  5
33AB
330
1E
100
AcDbEntity
  8
3
100
AcDbLine
 10
16.52039704749516
 20
15.98088409890118
 30
0.0
 11
16.53614507899122
 21
15.97301008315315
 31
0.0
  0
LINE
  5
33AC
330
1E
100
AcDbEntity
  8
3
100
AcDbLine
 10
16.53614507899122
 20
15.97301008315315
 30
0.0
 11
16.55189311048729
 21
15.97301008315315
 31
0.0
  0
LINE
  5
33AD
330
1E
100
AcDbEntity
  8
3
100
AcDbLine
 10
16.55189311048729
 20
15.97301008315315
 30
0.0
 11
16.56764114198335
 21
15.97301008315315
 31
0.0
  0
LINE
  5
33AE
330
1E
100
AcDbEntity
  8
3
100
AcDbLine
 10
16.56764114198335
 20
15.97301008315315
 30
0.0
 11
16.58338917347941
 21
15.97301008315315
 31
0.0
  0
LINE
  5
33AF
330
1E
100
AcDbEntity
  8
3
100
AcDbLine
 10
16.58338917347941
 20
15.97301008315315
 30
0.0
 11
16.59913720497548
 21
15.97301008315315
 31
0.0
  0
LINE
  5
33B0
330
1E
100
AcDbEntity
  8
3
100
AcDbLine
 10
16.59913720497548
 20
15.97301008315315
 30
0.0
 11
16.61488523647154
 21
15.97301008315315
 31
0.0
  0
LINE
  5
33B1
330
1E
100
AcDbEntity
  8
3
100
AcDbLine
 10
16.61488523647154
 20
15.97301008315315
 30
0.0
 11
16.63850728371564
 21
15.98088409890118
 31
0.0
  0
LINE
  5
33B2
330
1E
100
AcDbEntity
  8
3
100
AcDbLine
 10
16.63850728371564
 20
15.98088409890118
 30
0.0
 11
16.64638129946367
 21
15.98875811464921
 31
0.0
  0
LINE
  5
33B3
330
1E
100
AcDbEntity
  8
3
100
AcDbLine
 10
16.64638129946367
 20
15.98875811464921
 30
0.0
 11
16.6542553152117
 21
15.99663213039724
 31
0.0
  0
LINE
  5
33B4
330
1E
100
AcDbEntity
  8
3
100
AcDbLine
 10
16.6542553152117
 20
15.99663213039724
 30
0.0
 11
16.67000334670776
 21
16.00450614614527
 31
0.0
  0
LINE
  5
33B5
330
1E
100
AcDbEntity
  8
3
100
AcDbLine
 10
16.67000334670776
 20
16.00450614614527
 30
0.0
 11
16.67787736245579
 21
15.99663213039724
 31
0.0
  0
LINE
  5
33B6
330
1E
100
AcDbEntity
  8
3
100
AcDbLine
 10
16.67787736245579
 20
15.99663213039724
 30
0.0
 11
16.66212933095973
 21
15.98875811464921
 31
0.0
  0
LINE
  5
33B7
330
1E
100
AcDbEntity
  8
3
100
AcDbLine
 10
16.66212933095973
 20
15.98875811464921
 30
0.0
 11
16.6542553152117
 21
15.98088409890118
 31
0.0
  0
LINE
  5
33B8
330
1E
100
AcDbEntity
  8
3
100
AcDbLine
 10
16.6542553152117
 20
15.98088409890118
 30
0.0
 11
16.63850728371564
 21
15.98088409890118
 31
0.0
  0
LINE
  5
33B9
330
1E
100
AcDbEntity
  8
3
100
AcDbLine
 10
16.63850728371564
 20
15.98088409890118
 30
0.0
 11
16.61488523647154
 21
15.97301008315315
 31
0.0
  0
LINE
  5
33BA
330
1E
100
AcDbEntity
  8
3
100
AcDbLine
 10
16.61488523647154
 20
15.97301008315315
 30
0.0
 11
16.59913720497548
 21
15.97301008315315
 31
0.0
  0
LINE
  5
33BB
330
1E
100
AcDbEntity
  8
3
100
AcDbLine
 10
16.59913720497548
 20
15.97301008315315
 30
0.0
 11
16.58338917347941
 21
15.96513606740512
 31
0.0
  0
LINE
  5
33BC
330
1E
100
AcDbEntity
  8
3
100
AcDbLine
 10
16.58338917347941
 20
15.96513606740512
 30
0.0
 11
16.56764114198335
 21
15.96513606740512
 31
0.0
  0
LINE
  5
33BD
330
1E
100
AcDbEntity
  8
3
100
AcDbLine
 10
16.56764114198335
 20
15.96513606740512
 30
0.0
 11
16.55189311048729
 21
15.96513606740512
 31
0.0
  0
LINE
  5
33BE
330
1E
100
AcDbEntity
  8
3
100
AcDbLine
 10
16.55189311048729
 20
15.96513606740512
 30
0.0
 11
16.53614507899122
 21
15.97301008315315
 31
0.0
  0
LINE
  5
33BF
330
1E
100
AcDbEntity
  8
3
100
AcDbLine
 10
16.53614507899122
 20
15.97301008315315
 30
0.0
 11
16.51252303174713
 21
15.98088409890118
 31
0.0
  0
LINE
  5
33C0
330
1E
100
AcDbEntity
  8
3
100
AcDbLine
 10
16.51252303174713
 20
15.98088409890118
 30
0.0
 11
16.49677500025107
 21
15.98875811464921
 31
0.0
  0
LINE
  5
33C1
330
1E
100
AcDbEntity
  8
3
100
AcDbLine
 10
16.49677500025107
 20
15.98875811464921
 30
0.0
 11
16.48102696875501
 21
15.99663213039724
 31
0.0
  0
LINE
  5
33C2
330
1E
100
AcDbEntity
  8
3
100
AcDbLine
 10
16.48102696875501
 20
15.99663213039724
 30
0.0
 11
16.48102696875501
 21
16.00450614614527
 31
0.0
  0
LINE
  5
33C3
330
1E
100
AcDbEntity
  8
3
100
AcDbLine
 10
16.48102696875501
 20
16.00450614614527
 30
0.0
 11
16.49677500025107
 21
15.98875811464921
 31
0.0
  0
LINE
  5
33C4
330
1E
100
AcDbEntity
  8
3
100
AcDbLine
 10
16.49677500025107
 20
15.98875811464921
 30
0.0
 11
16.52039704749516
 21
15.98088409890118
 31
0.0
  0
LINE
  5
33C5
330
1E
100
AcDbEntity
  8
3
100
AcDbLine
 10
16.49677500025107
 20
16.09112031937362
 30
0.0
 11
16.51252303174713
 21
16.08324630362559
 31
0.0
  0
LINE
  5
33C6
330
1E
100
AcDbEntity
  8
3
100
AcDbLine
 10
16.51252303174713
 20
16.08324630362559
 30
0.0
 11
16.5282710632432
 21
16.08324630362559
 31
0.0
  0
LINE
  5
33C7
330
1E
100
AcDbEntity
  8
3
100
AcDbLine
 10
16.5282710632432
 20
16.08324630362559
 30
0.0
 11
16.54401909473926
 21
16.07537228787755
 31
0.0
  0
LINE
  5
33C8
330
1E
100
AcDbEntity
  8
3
100
AcDbLine
 10
16.54401909473926
 20
16.07537228787755
 30
0.0
 11
16.55976712623532
 21
16.07537228787755
 31
0.0
  0
LINE
  5
33C9
330
1E
100
AcDbEntity
  8
3
100
AcDbLine
 10
16.55976712623532
 20
16.07537228787755
 30
0.0
 11
16.57551515773138
 21
16.07537228787755
 31
0.0
  0
LINE
  5
33CA
330
1E
100
AcDbEntity
  8
3
100
AcDbLine
 10
16.57551515773138
 20
16.07537228787755
 30
0.0
 11
16.58338917347941
 21
16.07537228787755
 31
0.0
  0
LINE
  5
33CB
330
1E
100
AcDbEntity
  8
3
100
AcDbLine
 10
16.58338917347941
 20
16.07537228787755
 30
0.0
 11
16.60701122072351
 21
16.07537228787755
 31
0.0
  0
LINE
  5
33CC
330
1E
100
AcDbEntity
  8
3
100
AcDbLine
 10
16.60701122072351
 20
16.07537228787755
 30
0.0
 11
16.6306332679676
 21
16.08324630362559
 31
0.0
  0
LINE
  5
33CD
330
1E
100
AcDbEntity
  8
3
100
AcDbLine
 10
16.6306332679676
 20
16.08324630362559
 30
0.0
 11
16.64638129946367
 21
16.09112031937362
 31
0.0
  0
LINE
  5
33CE
330
1E
100
AcDbEntity
  8
3
100
AcDbLine
 10
16.64638129946367
 20
16.09112031937362
 30
0.0
 11
16.6542553152117
 21
16.09112031937362
 31
0.0
  0
LINE
  5
33CF
330
1E
100
AcDbEntity
  8
3
100
AcDbLine
 10
16.6542553152117
 20
16.09112031937362
 30
0.0
 11
16.66212933095973
 21
16.09112031937362
 31
0.0
  0
LINE
  5
33D0
330
1E
100
AcDbEntity
  8
3
100
AcDbLine
 10
16.66212933095973
 20
16.09112031937362
 30
0.0
 11
16.64638129946367
 21
16.08324630362559
 31
0.0
  0
LINE
  5
33D1
330
1E
100
AcDbEntity
  8
3
100
AcDbLine
 10
16.64638129946367
 20
16.08324630362559
 30
0.0
 11
16.6306332679676
 21
16.07537228787755
 31
0.0
  0
LINE
  5
33D2
330
1E
100
AcDbEntity
  8
3
100
AcDbLine
 10
16.6306332679676
 20
16.07537228787755
 30
0.0
 11
16.60701122072351
 21
16.07537228787755
 31
0.0
  0
LINE
  5
33D3
330
1E
100
AcDbEntity
  8
3
100
AcDbLine
 10
16.60701122072351
 20
16.07537228787755
 30
0.0
 11
16.58338917347941
 21
16.06749827212952
 31
0.0
  0
LINE
  5
33D4
330
1E
100
AcDbEntity
  8
3
100
AcDbLine
 10
16.58338917347941
 20
16.06749827212952
 30
0.0
 11
16.57551515773138
 21
16.06749827212952
 31
0.0
  0
LINE
  5
33D5
330
1E
100
AcDbEntity
  8
3
100
AcDbLine
 10
16.57551515773138
 20
16.06749827212952
 30
0.0
 11
16.55976712623532
 21
16.07537228787755
 31
0.0
  0
LINE
  5
33D6
330
1E
100
AcDbEntity
  8
3
100
AcDbLine
 10
16.55976712623532
 20
16.07537228787755
 30
0.0
 11
16.54401909473926
 21
16.07537228787755
 31
0.0
  0
LINE
  5
33D7
330
1E
100
AcDbEntity
  8
3
100
AcDbLine
 10
16.54401909473926
 20
16.07537228787755
 30
0.0
 11
16.5282710632432
 21
16.07537228787755
 31
0.0
  0
LINE
  5
33D8
330
1E
100
AcDbEntity
  8
3
100
AcDbLine
 10
16.5282710632432
 20
16.07537228787755
 30
0.0
 11
16.51252303174713
 21
16.08324630362559
 31
0.0
  0
LINE
  5
33D9
330
1E
100
AcDbEntity
  8
3
100
AcDbLine
 10
16.51252303174713
 20
16.08324630362559
 30
0.0
 11
16.49677500025107
 21
16.09112031937362
 31
0.0
  0
LINE
  5
33DA
330
1E
100
AcDbEntity
  8
3
100
AcDbLine
 10
18.14244429158965
 20
16.05175024063346
 30
0.0
 11
18.14244429158965
 21
16.0123801618933
 31
0.0
  0
LINE
  5
33DB
330
1E
100
AcDbEntity
  8
3
100
AcDbLine
 10
18.14244429158965
 20
16.0123801618933
 30
0.0
 11
18.09520019710146
 21
16.0123801618933
 31
0.0
  0
LINE
  5
33DC
330
1E
100
AcDbEntity
  8
3
100
AcDbLine
 10
18.09520019710146
 20
16.0123801618933
 30
0.0
 11
18.09520019710146
 21
15.83127779968859
 31
0.0
  0
LINE
  5
33DD
330
1E
100
AcDbEntity
  8
3
100
AcDbLine
 10
18.09520019710146
 20
15.83127779968859
 30
0.0
 11
18.03220807111721
 21
15.83127779968859
 31
0.0
  0
LINE
  5
33DE
330
1E
100
AcDbEntity
  8
3
100
AcDbLine
 10
18.03220807111721
 20
15.83127779968859
 30
0.0
 11
18.03220807111721
 21
16.0123801618933
 31
0.0
  0
LINE
  5
33DF
330
1E
100
AcDbEntity
  8
3
100
AcDbLine
 10
18.03220807111721
 20
16.0123801618933
 30
0.0
 11
17.97708996088099
 21
16.0123801618933
 31
0.0
  0
LINE
  5
33E0
330
1E
100
AcDbEntity
  8
3
100
AcDbLine
 10
17.97708996088099
 20
16.0123801618933
 30
0.0
 11
17.97708996088099
 21
16.05175024063346
 31
0.0
  0
LINE
  5
33E1
330
1E
100
AcDbEntity
  8
3
100
AcDbLine
 10
17.97708996088099
 20
16.05175024063346
 30
0.0
 11
18.14244429158965
 21
16.05175024063346
 31
0.0
  0
LINE
  5
33E2
330
1E
100
AcDbEntity
  8
3
100
AcDbLine
 10
17.68575137820382
 20
16.0360022091374
 30
0.0
 11
17.68575137820382
 21
16.02812819338937
 31
0.0
  0
LINE
  5
33E3
330
1E
100
AcDbEntity
  8
3
100
AcDbLine
 10
17.68575137820382
 20
16.02812819338937
 30
0.0
 11
17.68575137820382
 21
15.8627738626807
 31
0.0
  0
LINE
  5
33E4
330
1E
100
AcDbEntity
  8
3
100
AcDbLine
 10
17.68575137820382
 20
15.8627738626807
 30
0.0
 11
17.68575137820382
 21
15.85489984693268
 31
0.0
  0
LINE
  5
33E5
330
1E
100
AcDbEntity
  8
3
100
AcDbLine
 10
17.68575137820382
 20
15.85489984693268
 30
0.0
 11
17.68575137820382
 21
15.84702583118464
 31
0.0
  0
LINE
  5
33E6
330
1E
100
AcDbEntity
  8
3
100
AcDbLine
 10
17.68575137820382
 20
15.84702583118464
 30
0.0
 11
17.67787736245579
 21
15.83915181543662
 31
0.0
  0
LINE
  5
33E7
330
1E
100
AcDbEntity
  8
3
100
AcDbLine
 10
17.67787736245579
 20
15.83915181543662
 30
0.0
 11
17.67000334670776
 21
15.83915181543662
 31
0.0
  0
LINE
  5
33E8
330
1E
100
AcDbEntity
  8
3
100
AcDbLine
 10
17.67000334670776
 20
15.83915181543662
 30
0.0
 11
17.67000334670776
 21
15.83127779968859
 31
0.0
  0
LINE
  5
33E9
330
1E
100
AcDbEntity
  8
3
100
AcDbLine
 10
17.67000334670776
 20
15.83127779968859
 30
0.0
 11
17.66212933095973
 21
15.83127779968859
 31
0.0
  0
LINE
  5
33EA
330
1E
100
AcDbEntity
  8
3
100
AcDbLine
 10
17.66212933095973
 20
15.83127779968859
 30
0.0
 11
17.6542553152117
 21
15.83127779968859
 31
0.0
  0
LINE
  5
33EB
330
1E
100
AcDbEntity
  8
3
100
AcDbLine
 10
17.6542553152117
 20
15.83127779968859
 30
0.0
 11
17.64638129946367
 21
15.83127779968859
 31
0.0
  0
LINE
  5
33EC
330
1E
100
AcDbEntity
  8
3
100
AcDbLine
 10
17.64638129946367
 20
15.83127779968859
 30
0.0
 11
17.51252303174713
 21
15.83127779968859
 31
0.0
  0
LINE
  5
33ED
330
1E
100
AcDbEntity
  8
3
100
AcDbLine
 10
17.51252303174713
 20
15.83127779968859
 30
0.0
 11
17.51252303174713
 21
16.05175024063346
 31
0.0
  0
LINE
  5
33EE
330
1E
100
AcDbEntity
  8
3
100
AcDbLine
 10
17.51252303174713
 20
16.05175024063346
 30
0.0
 11
17.64638129946367
 21
16.05175024063346
 31
0.0
  0
LINE
  5
33EF
330
1E
100
AcDbEntity
  8
3
100
AcDbLine
 10
17.64638129946367
 20
16.05175024063346
 30
0.0
 11
17.6542553152117
 21
16.05175024063346
 31
0.0
  0
LINE
  5
33F0
330
1E
100
AcDbEntity
  8
3
100
AcDbLine
 10
17.6542553152117
 20
16.05175024063346
 30
0.0
 11
17.66212933095973
 21
16.05175024063346
 31
0.0
  0
LINE
  5
33F1
330
1E
100
AcDbEntity
  8
3
100
AcDbLine
 10
17.66212933095973
 20
16.05175024063346
 30
0.0
 11
17.67000334670776
 21
16.05175024063346
 31
0.0
  0
LINE
  5
33F2
330
1E
100
AcDbEntity
  8
3
100
AcDbLine
 10
17.67000334670776
 20
16.05175024063346
 30
0.0
 11
17.67787736245579
 21
16.04387622488543
 31
0.0
  0
LINE
  5
33F3
330
1E
100
AcDbEntity
  8
3
100
AcDbLine
 10
17.67787736245579
 20
16.04387622488543
 30
0.0
 11
17.68575137820382
 21
16.0360022091374
 31
0.0
  0
LINE
  5
33F4
330
1E
100
AcDbEntity
  8
3
100
AcDbLine
 10
17.89834980340067
 20
16.05175024063346
 30
0.0
 11
17.96921594513296
 21
16.05175024063346
 31
0.0
  0
LINE
  5
33F5
330
1E
100
AcDbEntity
  8
3
100
AcDbLine
 10
17.96921594513296
 20
16.05175024063346
 30
0.0
 11
17.96921594513296
 21
15.83127779968859
 31
0.0
  0
LINE
  5
33F6
330
1E
100
AcDbEntity
  8
3
100
AcDbLine
 10
17.96921594513296
 20
15.83127779968859
 30
0.0
 11
17.89834980340067
 21
15.83127779968859
 31
0.0
  0
LINE
  5
33F7
330
1E
100
AcDbEntity
  8
3
100
AcDbLine
 10
17.89834980340067
 20
15.83127779968859
 30
0.0
 11
17.89834980340067
 21
16.05175024063346
 31
0.0
  0
LINE
  5
33F8
330
1E
100
AcDbEntity
  8
3
100
AcDbLine
 10
17.59126318922745
 20
16.00450614614527
 30
0.0
 11
17.59126318922745
 21
15.88639590992479
 31
0.0
  0
LINE
  5
33F9
330
1E
100
AcDbEntity
  8
3
100
AcDbLine
 10
17.59126318922745
 20
15.88639590992479
 30
0.0
 11
17.60701122072351
 21
15.88639590992479
 31
0.0
  0
LINE
  5
33FA
330
1E
100
AcDbEntity
  8
3
100
AcDbLine
 10
17.60701122072351
 20
15.88639590992479
 30
0.0
 11
17.61488523647154
 21
15.88639590992479
 31
0.0
  0
LINE
  5
33FB
330
1E
100
AcDbEntity
  8
3
100
AcDbLine
 10
17.61488523647154
 20
15.88639590992479
 30
0.0
 11
17.62275925221957
 21
15.89426992567284
 31
0.0
  0
LINE
  5
33FC
330
1E
100
AcDbEntity
  8
3
100
AcDbLine
 10
17.62275925221957
 20
15.89426992567284
 30
0.0
 11
17.62275925221957
 21
15.90214394142087
 31
0.0
  0
LINE
  5
33FD
330
1E
100
AcDbEntity
  8
3
100
AcDbLine
 10
17.62275925221957
 20
15.90214394142087
 30
0.0
 11
17.62275925221957
 21
15.99663213039724
 31
0.0
  0
LINE
  5
33FE
330
1E
100
AcDbEntity
  8
3
100
AcDbLine
 10
17.62275925221957
 20
15.99663213039724
 30
0.0
 11
17.61488523647154
 21
16.00450614614527
 31
0.0
  0
LINE
  5
33FF
330
1E
100
AcDbEntity
  8
3
100
AcDbLine
 10
17.61488523647154
 20
16.00450614614527
 30
0.0
 11
17.60701122072351
 21
16.00450614614527
 31
0.0
  0
LINE
  5
3400
330
1E
100
AcDbEntity
  8
3
100
AcDbLine
 10
17.8038616144243
 20
15.87852189417676
 30
0.0
 11
17.78811358292823
 21
15.87852189417676
 31
0.0
  0
LINE
  5
3401
330
1E
100
AcDbEntity
  8
3
100
AcDbLine
 10
17.78811358292823
 20
15.87852189417676
 30
0.0
 11
17.78811358292823
 21
15.88639590992479
 31
0.0
  0
LINE
  5
3402
330
1E
100
AcDbEntity
  8
3
100
AcDbLine
 10
17.78811358292823
 20
15.88639590992479
 30
0.0
 11
17.7802395671802
 21
15.88639590992479
 31
0.0
  0
LINE
  5
3403
330
1E
100
AcDbEntity
  8
3
100
AcDbLine
 10
17.7802395671802
 20
15.88639590992479
 30
0.0
 11
17.7802395671802
 21
15.89426992567284
 31
0.0
  0
LINE
  5
3404
330
1E
100
AcDbEntity
  8
3
100
AcDbLine
 10
17.7802395671802
 20
15.89426992567284
 30
0.0
 11
17.7802395671802
 21
16.05175024063346
 31
0.0
  0
LINE
  5
3405
330
1E
100
AcDbEntity
  8
3
100
AcDbLine
 10
17.7802395671802
 20
16.05175024063346
 30
0.0
 11
17.70937342544792
 21
16.05175024063346
 31
0.0
  0
LINE
  5
3406
330
1E
100
AcDbEntity
  8
3
100
AcDbLine
 10
17.72512145694398
 20
15.84702583118464
 30
0.0
 11
17.72512145694398
 21
15.83915181543662
 31
0.0
  0
LINE
  5
3407
330
1E
100
AcDbEntity
  8
3
100
AcDbLine
 10
17.72512145694398
 20
15.83915181543662
 30
0.0
 11
17.73299547269201
 21
15.83915181543662
 31
0.0
  0
LINE
  5
3408
330
1E
100
AcDbEntity
  8
3
100
AcDbLine
 10
17.73299547269201
 20
15.83915181543662
 30
0.0
 11
17.74086948844004
 21
15.83127779968859
 31
0.0
  0
LINE
  5
3409
330
1E
100
AcDbEntity
  8
3
100
AcDbLine
 10
17.74086948844004
 20
15.83127779968859
 30
0.0
 11
17.74874350418808
 21
15.83127779968859
 31
0.0
  0
LINE
  5
340A
330
1E
100
AcDbEntity
  8
3
100
AcDbLine
 10
17.74874350418808
 20
15.83127779968859
 30
0.0
 11
17.75661751993611
 21
15.83127779968859
 31
0.0
  0
LINE
  5
340B
330
1E
100
AcDbEntity
  8
3
100
AcDbLine
 10
17.75661751993611
 20
15.83127779968859
 30
0.0
 11
17.83535767741642
 21
15.83127779968859
 31
0.0
  0
LINE
  5
340C
330
1E
100
AcDbEntity
  8
3
100
AcDbLine
 10
17.83535767741642
 20
15.83127779968859
 30
0.0
 11
17.84323169316445
 21
15.83127779968859
 31
0.0
  0
LINE
  5
340D
330
1E
100
AcDbEntity
  8
3
100
AcDbLine
 10
17.84323169316445
 20
15.83127779968859
 30
0.0
 11
17.85110570891248
 21
15.83915181543662
 31
0.0
  0
LINE
  5
340E
330
1E
100
AcDbEntity
  8
3
100
AcDbLine
 10
17.85110570891248
 20
15.83915181543662
 30
0.0
 11
17.85897972466052
 21
15.83915181543662
 31
0.0
  0
LINE
  5
340F
330
1E
100
AcDbEntity
  8
3
100
AcDbLine
 10
17.85897972466052
 20
15.83915181543662
 30
0.0
 11
17.86685374040855
 21
15.84702583118464
 31
0.0
  0
LINE
  5
3410
330
1E
100
AcDbEntity
  8
3
100
AcDbLine
 10
17.86685374040855
 20
15.84702583118464
 30
0.0
 11
17.86685374040855
 21
15.85489984693268
 31
0.0
  0
LINE
  5
3411
330
1E
100
AcDbEntity
  8
3
100
AcDbLine
 10
17.86685374040855
 20
15.85489984693268
 30
0.0
 11
17.86685374040855
 21
15.8627738626807
 31
0.0
  0
LINE
  5
3412
330
1E
100
AcDbEntity
  8
3
100
AcDbLine
 10
17.86685374040855
 20
15.8627738626807
 30
0.0
 11
17.87472775615658
 21
15.87064787842873
 31
0.0
  0
LINE
  5
3413
330
1E
100
AcDbEntity
  8
3
100
AcDbLine
 10
17.87472775615658
 20
15.87064787842873
 30
0.0
 11
17.87472775615658
 21
15.87852189417676
 31
0.0
  0
LINE
  5
3414
330
1E
100
AcDbEntity
  8
3
100
AcDbLine
 10
17.87472775615658
 20
15.87852189417676
 30
0.0
 11
17.87472775615658
 21
16.05175024063346
 31
0.0
  0
LINE
  5
3415
330
1E
100
AcDbEntity
  8
3
100
AcDbLine
 10
17.87472775615658
 20
16.05175024063346
 30
0.0
 11
17.81173563017233
 21
16.05175024063346
 31
0.0
  0
LINE
  5
3416
330
1E
100
AcDbEntity
  8
3
100
AcDbLine
 10
17.81173563017233
 20
16.05175024063346
 30
0.0
 11
17.81173563017233
 21
15.94151402016102
 31
0.0
  0
LINE
  5
3417
330
1E
100
AcDbEntity
  8
3
100
AcDbLine
 10
17.81173563017233
 20
15.94151402016102
 30
0.0
 11
17.81173563017233
 21
15.89426992567284
 31
0.0
  0
LINE
  5
3418
330
1E
100
AcDbEntity
  8
3
100
AcDbLine
 10
17.81173563017233
 20
15.89426992567284
 30
0.0
 11
17.81173563017233
 21
15.88639590992479
 31
0.0
  0
LINE
  5
3419
330
1E
100
AcDbEntity
  8
3
100
AcDbLine
 10
17.81173563017233
 20
15.88639590992479
 30
0.0
 11
17.81173563017233
 21
15.87852189417676
 31
0.0
  0
LINE
  5
341A
330
1E
100
AcDbEntity
  8
3
100
AcDbLine
 10
17.81173563017233
 20
15.87852189417676
 30
0.0
 11
17.8038616144243
 21
15.87852189417676
 31
0.0
  0
LINE
  5
341B
330
1E
100
AcDbEntity
  8
3
100
AcDbLine
 10
17.70937342544792
 20
16.05175024063346
 30
0.0
 11
17.70937342544792
 21
15.87852189417676
 31
0.0
  0
LINE
  5
341C
330
1E
100
AcDbEntity
  8
3
100
AcDbLine
 10
17.70937342544792
 20
15.87852189417676
 30
0.0
 11
17.70937342544792
 21
15.87064787842873
 31
0.0
  0
LINE
  5
341D
330
1E
100
AcDbEntity
  8
3
100
AcDbLine
 10
17.70937342544792
 20
15.87064787842873
 30
0.0
 11
17.70937342544792
 21
15.8627738626807
 31
0.0
  0
LINE
  5
341E
330
1E
100
AcDbEntity
  8
3
100
AcDbLine
 10
17.70937342544792
 20
15.8627738626807
 30
0.0
 11
17.70937342544792
 21
15.85489984693268
 31
0.0
  0
LINE
  5
341F
330
1E
100
AcDbEntity
  8
3
100
AcDbLine
 10
17.70937342544792
 20
15.85489984693268
 30
0.0
 11
17.71724744119595
 21
15.85489984693268
 31
0.0
  0
LINE
  5
3420
330
1E
100
AcDbEntity
  8
3
100
AcDbLine
 10
17.71724744119595
 20
15.85489984693268
 30
0.0
 11
17.71724744119595
 21
15.84702583118464
 31
0.0
  0
LINE
  5
3421
330
1E
100
AcDbEntity
  8
3
100
AcDbLine
 10
17.71724744119595
 20
15.84702583118464
 30
0.0
 11
17.72512145694398
 21
15.84702583118464
 31
0.0
  0
LINE
  5
3422
330
1E
100
AcDbEntity
  8
3
100
AcDbLine
 10
22.18181437032981
 20
16.69741953197204
 30
0.0
 11
22.26842854355815
 21
16.69741953197204
 31
0.0
  0
LINE
  5
3423
330
1E
100
AcDbEntity
  8
3
100
AcDbLine
 10
22.26842854355815
 20
16.69741953197204
 30
0.0
 11
22.30779862229832
 21
16.69741953197204
 31
0.0
  0
LINE
  5
3424
330
1E
100
AcDbEntity
  8
3
100
AcDbLine
 10
22.30779862229832
 20
16.69741953197204
 30
0.0
 11
22.30779862229832
 21
13.24860063433424
 31
0.0
  0
LINE
  5
3425
330
1E
100
AcDbEntity
  8
3
100
AcDbLine
 10
21.33142066954241
 20
14.09899433512165
 30
0.0
 11
21.36291673253453
 21
14.0123801618933
 31
0.0
  0
LINE
  5
3426
330
1E
100
AcDbEntity
  8
3
100
AcDbLine
 10
21.36291673253453
 20
14.0123801618933
 30
0.0
 11
21.44165689001485
 21
13.96513606740512
 31
0.0
  0
LINE
  5
3427
330
1E
100
AcDbEntity
  8
3
100
AcDbLine
 10
21.44165689001485
 20
13.96513606740512
 30
0.0
 11
21.52827106324319
 21
13.98088409890118
 31
0.0
  0
LINE
  5
3428
330
1E
100
AcDbEntity
  8
3
100
AcDbLine
 10
21.52827106324319
 20
13.98088409890118
 30
0.0
 11
21.59126318922745
 21
14.05175024063346
 31
0.0
  0
LINE
  5
3429
330
1E
100
AcDbEntity
  8
3
100
AcDbLine
 10
21.59126318922745
 20
14.05175024063346
 30
0.0
 11
21.59126318922745
 21
14.14623842960985
 31
0.0
  0
LINE
  5
342A
330
1E
100
AcDbEntity
  8
3
100
AcDbLine
 10
21.59126318922745
 20
14.14623842960985
 30
0.0
 11
21.53614507899122
 21
14.21710457134213
 31
0.0
  0
LINE
  5
342B
330
1E
100
AcDbEntity
  8
3
100
AcDbLine
 10
21.53614507899122
 20
14.21710457134213
 30
0.0
 11
21.44165689001485
 21
14.23285260283819
 31
0.0
  0
LINE
  5
342C
330
1E
100
AcDbEntity
  8
3
100
AcDbLine
 10
21.48890098450304
 20
13.96513606740512
 30
0.0
 11
21.56764114198335
 21
14.0123801618933
 31
0.0
  0
LINE
  5
342D
330
1E
100
AcDbEntity
  8
3
100
AcDbLine
 10
21.56764114198335
 20
14.0123801618933
 30
0.0
 11
21.59913720497548
 21
14.09899433512165
 31
0.0
  0
LINE
  5
342E
330
1E
100
AcDbEntity
  8
3
100
AcDbLine
 10
21.59913720497548
 20
14.09899433512165
 30
0.0
 11
21.56764114198335
 21
14.18560850834999
 31
0.0
  0
LINE
  5
342F
330
1E
100
AcDbEntity
  8
3
100
AcDbLine
 10
21.56764114198335
 20
14.18560850834999
 30
0.0
 11
21.48890098450304
 21
14.23285260283819
 31
0.0
  0
LINE
  5
3430
330
1E
100
AcDbEntity
  8
3
100
AcDbLine
 10
21.48890098450304
 20
14.23285260283819
 30
0.0
 11
21.40228681127469
 21
14.21710457134213
 31
0.0
  0
LINE
  5
3431
330
1E
100
AcDbEntity
  8
3
100
AcDbLine
 10
21.40228681127469
 20
14.21710457134213
 30
0.0
 11
21.33929468529044
 21
14.14623842960985
 31
0.0
  0
LINE
  5
3432
330
1E
100
AcDbEntity
  8
3
100
AcDbLine
 10
21.33929468529044
 20
14.14623842960985
 30
0.0
 11
21.33929468529044
 21
14.05175024063346
 31
0.0
  0
LINE
  5
3433
330
1E
100
AcDbEntity
  8
3
100
AcDbLine
 10
21.33929468529044
 20
14.05175024063346
 30
0.0
 11
21.39441279552666
 21
13.98088409890118
 31
0.0
  0
LINE
  5
3434
330
1E
100
AcDbEntity
  8
3
100
AcDbLine
 10
21.39441279552666
 20
13.98088409890118
 30
0.0
 11
21.48890098450304
 21
13.96513606740512
 31
0.0
  0
LINE
  5
3435
330
1E
100
AcDbEntity
  8
3
100
AcDbLine
 10
21.55189311048729
 20
14.09899433512165
 30
0.0
 11
21.52039704749516
 21
14.16986047685393
 31
0.0
  0
LINE
  5
3436
330
1E
100
AcDbEntity
  8
3
100
AcDbLine
 10
21.52039704749516
 20
14.16986047685393
 30
0.0
 11
21.44953090576288
 21
14.18560850834999
 31
0.0
  0
LINE
  5
3437
330
1E
100
AcDbEntity
  8
3
100
AcDbLine
 10
21.44953090576288
 20
14.18560850834999
 30
0.0
 11
21.38653877977863
 21
14.13836441386181
 31
0.0
  0
LINE
  5
3438
330
1E
100
AcDbEntity
  8
3
100
AcDbLine
 10
21.38653877977863
 20
14.13836441386181
 30
0.0
 11
21.38653877977863
 21
14.05962425638149
 31
0.0
  0
LINE
  5
3439
330
1E
100
AcDbEntity
  8
3
100
AcDbLine
 10
21.38653877977863
 20
14.05962425638149
 30
0.0
 11
21.44953090576288
 21
14.0123801618933
 31
0.0
  0
LINE
  5
343A
330
1E
100
AcDbEntity
  8
3
100
AcDbLine
 10
21.44953090576288
 20
14.0123801618933
 30
0.0
 11
21.52039704749516
 21
14.02812819338937
 31
0.0
  0
LINE
  5
343B
330
1E
100
AcDbEntity
  8
3
100
AcDbLine
 10
21.52039704749516
 20
14.02812819338937
 30
0.0
 11
21.55189311048729
 21
14.09899433512165
 31
0.0
  0
LINE
  5
343C
330
1E
100
AcDbEntity
  8
3
100
AcDbLine
 10
21.33142066954241
 20
13.47694709102716
 30
0.0
 11
21.36291673253453
 21
13.39033291779882
 31
0.0
  0
LINE
  5
343D
330
1E
100
AcDbEntity
  8
3
100
AcDbLine
 10
21.36291673253453
 20
13.39033291779882
 30
0.0
 11
21.44165689001485
 21
13.34308882331063
 31
0.0
  0
LINE
  5
343E
330
1E
100
AcDbEntity
  8
3
100
AcDbLine
 10
21.44165689001485
 20
13.34308882331063
 30
0.0
 11
21.52827106324319
 21
13.35883685480669
 31
0.0
  0
LINE
  5
343F
330
1E
100
AcDbEntity
  8
3
100
AcDbLine
 10
21.52827106324319
 20
13.35883685480669
 30
0.0
 11
21.59126318922745
 21
13.42970299653897
 31
0.0
  0
LINE
  5
3440
330
1E
100
AcDbEntity
  8
3
100
AcDbLine
 10
21.59126318922745
 20
13.42970299653897
 30
0.0
 11
21.59126318922745
 21
13.52419118551535
 31
0.0
  0
LINE
  5
3441
330
1E
100
AcDbEntity
  8
3
100
AcDbLine
 10
21.59126318922745
 20
13.52419118551535
 30
0.0
 11
21.53614507899122
 21
13.59505732724764
 31
0.0
  0
LINE
  5
3442
330
1E
100
AcDbEntity
  8
3
100
AcDbLine
 10
21.53614507899122
 20
13.59505732724764
 30
0.0
 11
21.44165689001485
 21
13.6108053587437
 31
0.0
  0
LINE
  5
3443
330
1E
100
AcDbEntity
  8
3
100
AcDbLine
 10
21.44165689001485
 20
13.6108053587437
 30
0.0
 11
21.36291673253453
 21
13.5635612642555
 31
0.0
  0
LINE
  5
3444
330
1E
100
AcDbEntity
  8
3
100
AcDbLine
 10
21.36291673253453
 20
13.5635612642555
 30
0.0
 11
21.33142066954241
 21
13.47694709102716
 31
0.0
  0
LINE
  5
3445
330
1E
100
AcDbEntity
  8
3
100
AcDbLine
 10
21.59913720497548
 20
13.47694709102716
 30
0.0
 11
21.56764114198335
 21
13.5635612642555
 31
0.0
  0
LINE
  5
3446
330
1E
100
AcDbEntity
  8
3
100
AcDbLine
 10
21.56764114198335
 20
13.5635612642555
 30
0.0
 11
21.48890098450304
 21
13.6108053587437
 31
0.0
  0
LINE
  5
3447
330
1E
100
AcDbEntity
  8
3
100
AcDbLine
 10
21.48890098450304
 20
13.6108053587437
 30
0.0
 11
21.40228681127469
 21
13.59505732724764
 31
0.0
  0
LINE
  5
3448
330
1E
100
AcDbEntity
  8
3
100
AcDbLine
 10
21.40228681127469
 20
13.59505732724764
 30
0.0
 11
21.33929468529044
 21
13.52419118551535
 31
0.0
  0
LINE
  5
3449
330
1E
100
AcDbEntity
  8
3
100
AcDbLine
 10
21.33929468529044
 20
13.52419118551535
 30
0.0
 11
21.33929468529044
 21
13.42970299653897
 31
0.0
  0
LINE
  5
344A
330
1E
100
AcDbEntity
  8
3
100
AcDbLine
 10
21.33929468529044
 20
13.42970299653897
 30
0.0
 11
21.39441279552666
 21
13.35883685480669
 31
0.0
  0
LINE
  5
344B
330
1E
100
AcDbEntity
  8
3
100
AcDbLine
 10
21.39441279552666
 20
13.35883685480669
 30
0.0
 11
21.48890098450304
 21
13.34308882331063
 31
0.0
  0
LINE
  5
344C
330
1E
100
AcDbEntity
  8
3
100
AcDbLine
 10
21.48890098450304
 20
13.34308882331063
 30
0.0
 11
21.56764114198335
 21
13.39033291779882
 31
0.0
  0
LINE
  5
344D
330
1E
100
AcDbEntity
  8
3
100
AcDbLine
 10
21.56764114198335
 20
13.39033291779882
 30
0.0
 11
21.59913720497548
 21
13.47694709102716
 31
0.0
  0
LINE
  5
344E
330
1E
100
AcDbEntity
  8
3
100
AcDbLine
 10
21.38653877977863
 20
13.51631716976733
 30
0.0
 11
21.38653877977863
 21
13.437577012287
 31
0.0
  0
LINE
  5
344F
330
1E
100
AcDbEntity
  8
3
100
AcDbLine
 10
21.38653877977863
 20
13.437577012287
 30
0.0
 11
21.44953090576288
 21
13.39033291779882
 31
0.0
  0
LINE
  5
3450
330
1E
100
AcDbEntity
  8
3
100
AcDbLine
 10
21.44953090576288
 20
13.39033291779882
 30
0.0
 11
21.52039704749516
 21
13.40608094929488
 31
0.0
  0
LINE
  5
3451
330
1E
100
AcDbEntity
  8
3
100
AcDbLine
 10
21.52039704749516
 20
13.40608094929488
 30
0.0
 11
21.55189311048729
 21
13.47694709102716
 31
0.0
  0
LINE
  5
3452
330
1E
100
AcDbEntity
  8
3
100
AcDbLine
 10
21.55189311048729
 20
13.47694709102716
 30
0.0
 11
21.52039704749516
 21
13.54781323275944
 31
0.0
  0
LINE
  5
3453
330
1E
100
AcDbEntity
  8
3
100
AcDbLine
 10
21.52039704749516
 20
13.54781323275944
 30
0.0
 11
21.44953090576288
 21
13.5635612642555
 31
0.0
  0
LINE
  5
3454
330
1E
100
AcDbEntity
  8
3
100
AcDbLine
 10
21.44953090576288
 20
13.5635612642555
 30
0.0
 11
21.38653877977863
 21
13.51631716976733
 31
0.0
  0
LINE
  5
3455
330
1E
100
AcDbEntity
  8
3
100
AcDbLine
 10
20.41803484277076
 20
15.2092305555941
 30
0.0
 11
20.41803484277076
 21
15.20135653984607
 31
0.0
  0
LINE
  5
3456
330
1E
100
AcDbEntity
  8
3
100
AcDbLine
 10
20.41803484277076
 20
15.20135653984607
 30
0.0
 11
20.42590885851879
 21
15.19348252409802
 31
0.0
  0
LINE
  5
3457
330
1E
100
AcDbEntity
  8
3
100
AcDbLine
 10
20.42590885851879
 20
14.75253764220826
 30
0.0
 11
20.41803484277076
 21
14.74466362646023
 31
0.0
  0
LINE
  5
3458
330
1E
100
AcDbEntity
  8
3
100
AcDbLine
 10
20.41803484277076
 20
14.74466362646023
 30
0.0
 11
20.41803484277076
 21
14.7367896107122
 31
0.0
  0
LINE
  5
3459
330
1E
100
AcDbEntity
  8
3
100
AcDbLine
 10
20.52039704749516
 20
14.88639590992479
 30
0.0
 11
20.52039704749516
 21
15.05962425638149
 31
0.0
  0
LINE
  5
345A
330
1E
100
AcDbEntity
  8
3
100
AcDbLine
 10
20.52039704749516
 20
15.05962425638149
 30
0.0
 11
20.42590885851879
 21
15.18560850834999
 31
0.0
  0
LINE
  5
345B
330
1E
100
AcDbEntity
  8
3
100
AcDbLine
 10
21.44165689001485
 20
14.23285260283819
 30
0.0
 11
21.36291673253453
 21
14.18560850834999
 31
0.0
  0
LINE
  5
345C
330
1E
100
AcDbEntity
  8
3
100
AcDbLine
 10
21.36291673253453
 20
14.18560850834999
 30
0.0
 11
21.33142066954241
 21
14.09899433512165
 31
0.0
  0
LINE
  5
345D
330
1E
100
AcDbEntity
  8
3
100
AcDbLine
 10
21.52827106324319
 20
14.6108053587437
 30
0.0
 11
21.59126318922745
 21
14.68167150047598
 31
0.0
  0
LINE
  5
345E
330
1E
100
AcDbEntity
  8
3
100
AcDbLine
 10
21.59126318922745
 20
14.68167150047598
 30
0.0
 11
21.59126318922745
 21
14.77615968945236
 31
0.0
  0
LINE
  5
345F
330
1E
100
AcDbEntity
  8
3
100
AcDbLine
 10
21.59126318922745
 20
14.77615968945236
 30
0.0
 11
21.53614507899122
 21
14.84702583118465
 31
0.0
  0
LINE
  5
3460
330
1E
100
AcDbEntity
  8
3
100
AcDbLine
 10
21.53614507899122
 20
14.84702583118465
 30
0.0
 11
21.44165689001485
 21
14.8627738626807
 31
0.0
  0
LINE
  5
3461
330
1E
100
AcDbEntity
  8
3
100
AcDbLine
 10
21.44165689001485
 20
14.8627738626807
 30
0.0
 11
21.36291673253453
 21
14.81552976819251
 31
0.0
  0
LINE
  5
3462
330
1E
100
AcDbEntity
  8
3
100
AcDbLine
 10
21.36291673253453
 20
14.81552976819251
 30
0.0
 11
21.33142066954241
 21
14.72891559496417
 31
0.0
  0
LINE
  5
3463
330
1E
100
AcDbEntity
  8
3
100
AcDbLine
 10
21.33142066954241
 20
14.72891559496417
 30
0.0
 11
21.36291673253453
 21
14.64230142173583
 31
0.0
  0
LINE
  5
3464
330
1E
100
AcDbEntity
  8
3
100
AcDbLine
 10
21.36291673253453
 20
14.64230142173583
 30
0.0
 11
21.44165689001485
 21
14.59505732724764
 31
0.0
  0
LINE
  5
3465
330
1E
100
AcDbEntity
  8
3
100
AcDbLine
 10
21.44165689001485
 20
14.59505732724764
 30
0.0
 11
21.52827106324319
 21
14.6108053587437
 31
0.0
  0
LINE
  5
3466
330
1E
100
AcDbEntity
  8
3
100
AcDbLine
 10
21.33142066954241
 20
15.22497858709016
 30
0.0
 11
21.36291673253453
 21
15.13836441386182
 31
0.0
  0
LINE
  5
3467
330
1E
100
AcDbEntity
  8
3
100
AcDbLine
 10
21.36291673253453
 20
15.13836441386182
 30
0.0
 11
21.44165689001485
 21
15.09112031937362
 31
0.0
  0
LINE
  5
3468
330
1E
100
AcDbEntity
  8
3
100
AcDbLine
 10
21.44165689001485
 20
15.09112031937362
 30
0.0
 11
21.52827106324319
 21
15.10686835086968
 31
0.0
  0
LINE
  5
3469
330
1E
100
AcDbEntity
  8
3
100
AcDbLine
 10
21.52827106324319
 20
15.10686835086968
 30
0.0
 11
21.59126318922745
 21
15.17773449260196
 31
0.0
  0
LINE
  5
346A
330
1E
100
AcDbEntity
  8
3
100
AcDbLine
 10
21.59126318922745
 20
15.17773449260196
 30
0.0
 11
21.59126318922745
 21
15.27222268157835
 31
0.0
  0
LINE
  5
346B
330
1E
100
AcDbEntity
  8
3
100
AcDbLine
 10
21.59126318922745
 20
15.27222268157835
 30
0.0
 11
21.53614507899122
 21
15.34308882331063
 31
0.0
  0
LINE
  5
346C
330
1E
100
AcDbEntity
  8
3
100
AcDbLine
 10
21.53614507899122
 20
15.34308882331063
 30
0.0
 11
21.44165689001485
 21
15.35883685480669
 31
0.0
  0
LINE
  5
346D
330
1E
100
AcDbEntity
  8
3
100
AcDbLine
 10
21.44165689001485
 20
15.35883685480669
 30
0.0
 11
21.36291673253453
 21
15.3115927603185
 31
0.0
  0
LINE
  5
346E
330
1E
100
AcDbEntity
  8
3
100
AcDbLine
 10
21.36291673253453
 20
15.3115927603185
 30
0.0
 11
21.33142066954241
 21
15.22497858709016
 31
0.0
  0
LINE
  5
346F
330
1E
100
AcDbEntity
  8
3
100
AcDbLine
 10
21.19756240182587
 20
14.13049039811377
 30
0.0
 11
21.18968838607784
 21
14.09899433512165
 31
0.0
  0
LINE
  5
3470
330
1E
100
AcDbEntity
  8
3
100
AcDbLine
 10
21.18968838607784
 20
14.09899433512165
 30
0.0
 11
21.19756240182587
 21
14.06749827212952
 31
0.0
  0
LINE
  5
3471
330
1E
100
AcDbEntity
  8
3
100
AcDbLine
 10
21.59913720497548
 20
14.72891559496417
 30
0.0
 11
21.56764114198335
 21
14.81552976819251
 31
0.0
  0
LINE
  5
3472
330
1E
100
AcDbEntity
  8
3
100
AcDbLine
 10
21.56764114198335
 20
14.81552976819251
 30
0.0
 11
21.48890098450304
 21
14.8627738626807
 31
0.0
  0
LINE
  5
3473
330
1E
100
AcDbEntity
  8
3
100
AcDbLine
 10
21.48890098450304
 20
14.8627738626807
 30
0.0
 11
21.40228681127469
 21
14.84702583118465
 31
0.0
  0
LINE
  5
3474
330
1E
100
AcDbEntity
  8
3
100
AcDbLine
 10
21.40228681127469
 20
14.84702583118465
 30
0.0
 11
21.33929468529044
 21
14.77615968945236
 31
0.0
  0
LINE
  5
3475
330
1E
100
AcDbEntity
  8
3
100
AcDbLine
 10
21.33929468529044
 20
14.77615968945236
 30
0.0
 11
21.33929468529044
 21
14.68167150047598
 31
0.0
  0
LINE
  5
3476
330
1E
100
AcDbEntity
  8
3
100
AcDbLine
 10
21.33929468529044
 20
14.68167150047598
 30
0.0
 11
21.39441279552666
 21
14.6108053587437
 31
0.0
  0
LINE
  5
3477
330
1E
100
AcDbEntity
  8
3
100
AcDbLine
 10
21.39441279552666
 20
14.6108053587437
 30
0.0
 11
21.48890098450304
 21
14.59505732724764
 31
0.0
  0
LINE
  5
3478
330
1E
100
AcDbEntity
  8
3
100
AcDbLine
 10
21.48890098450304
 20
14.59505732724764
 30
0.0
 11
21.56764114198335
 21
14.64230142173583
 31
0.0
  0
LINE
  5
3479
330
1E
100
AcDbEntity
  8
3
100
AcDbLine
 10
21.56764114198335
 20
14.64230142173583
 30
0.0
 11
21.59913720497548
 21
14.72891559496417
 31
0.0
  0
LINE
  5
347A
330
1E
100
AcDbEntity
  8
3
100
AcDbLine
 10
21.55189311048729
 20
14.72891559496417
 30
0.0
 11
21.52039704749516
 21
14.79978173669645
 31
0.0
  0
LINE
  5
347B
330
1E
100
AcDbEntity
  8
3
100
AcDbLine
 10
21.52039704749516
 20
14.79978173669645
 30
0.0
 11
21.44953090576288
 21
14.81552976819251
 31
0.0
  0
LINE
  5
347C
330
1E
100
AcDbEntity
  8
3
100
AcDbLine
 10
21.44953090576288
 20
14.81552976819251
 30
0.0
 11
21.38653877977863
 21
14.76828567370433
 31
0.0
  0
LINE
  5
347D
330
1E
100
AcDbEntity
  8
3
100
AcDbLine
 10
21.38653877977863
 20
14.76828567370433
 30
0.0
 11
21.38653877977863
 21
14.68954551622401
 31
0.0
  0
LINE
  5
347E
330
1E
100
AcDbEntity
  8
3
100
AcDbLine
 10
21.38653877977863
 20
14.68954551622401
 30
0.0
 11
21.44953090576288
 21
14.64230142173583
 31
0.0
  0
LINE
  5
347F
330
1E
100
AcDbEntity
  8
3
100
AcDbLine
 10
21.44953090576288
 20
14.64230142173583
 30
0.0
 11
21.52039704749516
 21
14.65804945323189
 31
0.0
  0
LINE
  5
3480
330
1E
100
AcDbEntity
  8
3
100
AcDbLine
 10
21.52039704749516
 20
14.65804945323189
 30
0.0
 11
21.55189311048729
 21
14.72891559496417
 31
0.0
  0
LINE
  5
3481
330
1E
100
AcDbEntity
  8
3
100
AcDbLine
 10
21.33929468529044
 20
15.17773449260196
 30
0.0
 11
21.39441279552666
 21
15.10686835086968
 31
0.0
  0
LINE
  5
3482
330
1E
100
AcDbEntity
  8
3
100
AcDbLine
 10
21.39441279552666
 20
15.10686835086968
 30
0.0
 11
21.48890098450304
 21
15.09112031937362
 31
0.0
  0
LINE
  5
3483
330
1E
100
AcDbEntity
  8
3
100
AcDbLine
 10
21.48890098450304
 20
15.09112031937362
 30
0.0
 11
21.56764114198335
 21
15.13836441386182
 31
0.0
  0
LINE
  5
3484
330
1E
100
AcDbEntity
  8
3
100
AcDbLine
 10
21.56764114198335
 20
15.13836441386182
 30
0.0
 11
21.59913720497548
 21
15.22497858709016
 31
0.0
  0
LINE
  5
3485
330
1E
100
AcDbEntity
  8
3
100
AcDbLine
 10
21.59913720497548
 20
15.22497858709016
 30
0.0
 11
21.56764114198335
 21
15.3115927603185
 31
0.0
  0
LINE
  5
3486
330
1E
100
AcDbEntity
  8
3
100
AcDbLine
 10
21.56764114198335
 20
15.3115927603185
 30
0.0
 11
21.48890098450304
 21
15.35883685480669
 31
0.0
  0
LINE
  5
3487
330
1E
100
AcDbEntity
  8
3
100
AcDbLine
 10
21.48890098450304
 20
15.35883685480669
 30
0.0
 11
21.40228681127469
 21
15.34308882331063
 31
0.0
  0
LINE
  5
3488
330
1E
100
AcDbEntity
  8
3
100
AcDbLine
 10
21.40228681127469
 20
15.34308882331063
 30
0.0
 11
21.33929468529044
 21
15.27222268157835
 31
0.0
  0
LINE
  5
3489
330
1E
100
AcDbEntity
  8
3
100
AcDbLine
 10
21.33929468529044
 20
15.27222268157835
 30
0.0
 11
21.33929468529044
 21
15.17773449260196
 31
0.0
  0
LINE
  5
348A
330
1E
100
AcDbEntity
  8
3
100
AcDbLine
 10
21.55189311048729
 20
15.22497858709016
 30
0.0
 11
21.52039704749516
 21
15.29584472882244
 31
0.0
  0
LINE
  5
348B
330
1E
100
AcDbEntity
  8
3
100
AcDbLine
 10
21.52039704749516
 20
15.29584472882244
 30
0.0
 11
21.44953090576288
 21
15.3115927603185
 31
0.0
  0
LINE
  5
348C
330
1E
100
AcDbEntity
  8
3
100
AcDbLine
 10
21.44953090576288
 20
15.3115927603185
 30
0.0
 11
21.38653877977863
 21
15.26434866583032
 31
0.0
  0
LINE
  5
348D
330
1E
100
AcDbEntity
  8
3
100
AcDbLine
 10
21.38653877977863
 20
15.26434866583032
 30
0.0
 11
21.38653877977863
 21
15.18560850834999
 31
0.0
  0
LINE
  5
348E
330
1E
100
AcDbEntity
  8
3
100
AcDbLine
 10
21.38653877977863
 20
15.18560850834999
 30
0.0
 11
21.44953090576288
 21
15.13836441386182
 31
0.0
  0
LINE
  5
348F
330
1E
100
AcDbEntity
  8
3
100
AcDbLine
 10
21.44953090576288
 20
15.13836441386182
 30
0.0
 11
21.52039704749516
 21
15.15411244535787
 31
0.0
  0
LINE
  5
3490
330
1E
100
AcDbEntity
  8
3
100
AcDbLine
 10
21.52039704749516
 20
15.15411244535787
 30
0.0
 11
21.55189311048729
 21
15.22497858709016
 31
0.0
  0
LINE
  5
3491
330
1E
100
AcDbEntity
  8
3
100
AcDbLine
 10
22.30779862229832
 20
13.24860063433424
 30
0.0
 11
22.26842854355815
 21
13.24860063433424
 31
0.0
  0
LINE
  5
3492
330
1E
100
AcDbEntity
  8
3
100
AcDbLine
 10
22.26842854355815
 20
13.24860063433424
 30
0.0
 11
22.18181437032981
 21
13.24860063433424
 31
0.0
  0
LINE
  5
3493
330
1E
100
AcDbEntity
  8
3
100
AcDbLine
 10
22.13457027584162
 20
13.22497858709016
 30
0.0
 11
22.13457027584162
 21
13.23285260283818
 31
0.0
  0
LINE
  5
3494
330
1E
100
AcDbEntity
  8
3
100
AcDbLine
 10
22.13457027584162
 20
13.23285260283818
 30
0.0
 11
22.13457027584162
 21
13.24860063433424
 31
0.0
  0
LINE
  5
3495
330
1E
100
AcDbEntity
  8
3
100
AcDbLine
 10
22.24480649631406
 20
13.22497858709016
 30
0.0
 11
22.13457027584162
 21
13.22497858709016
 31
0.0
  0
LINE
  5
3496
330
1E
100
AcDbEntity
  8
3
100
AcDbLine
 10
22.13457027584162
 20
13.22497858709016
 30
0.0
 11
22.11882224434556
 21
13.22497858709016
 31
0.0
  0
LINE
  5
3497
330
1E
100
AcDbEntity
  8
3
100
AcDbLine
 10
22.11882224434556
 20
13.22497858709016
 30
0.0
 11
22.07157814985737
 21
13.22497858709016
 31
0.0
  0
LINE
  5
3498
330
1E
100
AcDbEntity
  8
3
100
AcDbLine
 10
22.46527893725895
 20
13.5635612642555
 30
0.0
 11
22.46527893725895
 21
13.49269512252322
 31
0.0
  0
LINE
  5
3499
330
1E
100
AcDbEntity
  8
3
100
AcDbLine
 10
22.46527893725895
 20
13.49269512252322
 30
0.0
 11
22.46527893725895
 21
13.46907307527913
 31
0.0
  0
LINE
  5
349A
330
1E
100
AcDbEntity
  8
3
100
AcDbLine
 10
22.46527893725895
 20
13.7367896107122
 30
0.0
 11
22.46527893725895
 21
13.70529354772008
 31
0.0
  0
LINE
  5
349B
330
1E
100
AcDbEntity
  8
3
100
AcDbLine
 10
22.46527893725895
 20
13.70529354772008
 30
0.0
 11
22.46527893725895
 21
13.63442740598779
 31
0.0
  0
LINE
  5
349C
330
1E
100
AcDbEntity
  8
3
100
AcDbLine
 10
22.39441279552666
 20
13.63442740598779
 30
0.0
 11
22.39441279552666
 21
13.60293134299567
 31
0.0
  0
LINE
  5
349D
330
1E
100
AcDbEntity
  8
3
100
AcDbLine
 10
22.39441279552666
 20
13.60293134299567
 30
0.0
 11
22.39441279552666
 21
13.5635612642555
 31
0.0
  0
LINE
  5
349E
330
1E
100
AcDbEntity
  8
3
100
AcDbLine
 10
22.39441279552666
 20
13.5635612642555
 30
0.0
 11
22.42590885851878
 21
13.5635612642555
 31
0.0
  0
LINE
  5
349F
330
1E
100
AcDbEntity
  8
3
100
AcDbLine
 10
22.42590885851878
 20
13.5635612642555
 30
0.0
 11
22.46527893725895
 21
13.5635612642555
 31
0.0
  0
LINE
  5
34A0
330
1E
100
AcDbEntity
  8
3
100
AcDbLine
 10
22.46527893725895
 20
13.63442740598779
 30
0.0
 11
22.42590885851878
 21
13.63442740598779
 31
0.0
  0
LINE
  5
34A1
330
1E
100
AcDbEntity
  8
3
100
AcDbLine
 10
22.42590885851878
 20
13.63442740598779
 30
0.0
 11
22.39441279552666
 21
13.63442740598779
 31
0.0
  0
LINE
  5
34A2
330
1E
100
AcDbEntity
  8
3
100
AcDbLine
 10
22.30779862229832
 20
13.40608094929488
 30
0.0
 11
22.38653877977863
 21
13.42182898079094
 31
0.0
  0
LINE
  5
34A3
330
1E
100
AcDbEntity
  8
3
100
AcDbLine
 10
22.38653877977863
 20
13.42182898079094
 30
0.0
 11
22.45740492151091
 21
13.47694709102716
 31
0.0
  0
LINE
  5
34A4
330
1E
100
AcDbEntity
  8
3
100
AcDbLine
 10
22.45740492151091
 20
13.72891559496417
 30
0.0
 11
22.38653877977863
 21
13.78403370520039
 31
0.0
  0
LINE
  5
34A5
330
1E
100
AcDbEntity
  8
3
100
AcDbLine
 10
22.38653877977863
 20
13.78403370520039
 30
0.0
 11
22.30779862229832
 21
13.79978173669645
 31
0.0
  0
LINE
  5
34A6
330
1E
100
AcDbEntity
  8
3
100
AcDbLine
 10
21.33142066954241
 20
15.84702583118464
 30
0.0
 11
21.36291673253453
 21
15.76041165795629
 31
0.0
  0
LINE
  5
34A7
330
1E
100
AcDbEntity
  8
3
100
AcDbLine
 10
21.36291673253453
 20
15.76041165795629
 30
0.0
 11
21.44165689001485
 21
15.71316756346811
 31
0.0
  0
LINE
  5
34A8
330
1E
100
AcDbEntity
  8
3
100
AcDbLine
 10
21.44165689001485
 20
15.71316756346811
 30
0.0
 11
21.52827106324319
 21
15.72891559496417
 31
0.0
  0
LINE
  5
34A9
330
1E
100
AcDbEntity
  8
3
100
AcDbLine
 10
21.52827106324319
 20
15.72891559496417
 30
0.0
 11
21.59126318922745
 21
15.79978173669645
 31
0.0
  0
LINE
  5
34AA
330
1E
100
AcDbEntity
  8
3
100
AcDbLine
 10
21.59126318922745
 20
15.79978173669645
 30
0.0
 11
21.59126318922745
 21
15.89426992567284
 31
0.0
  0
LINE
  5
34AB
330
1E
100
AcDbEntity
  8
3
100
AcDbLine
 10
21.59126318922745
 20
15.89426992567284
 30
0.0
 11
21.53614507899122
 21
15.96513606740512
 31
0.0
  0
LINE
  5
34AC
330
1E
100
AcDbEntity
  8
3
100
AcDbLine
 10
21.53614507899122
 20
15.96513606740512
 30
0.0
 11
21.44165689001485
 21
15.98088409890118
 31
0.0
  0
LINE
  5
34AD
330
1E
100
AcDbEntity
  8
3
100
AcDbLine
 10
21.44165689001485
 20
15.98088409890118
 30
0.0
 11
21.36291673253453
 21
15.93364000441298
 31
0.0
  0
LINE
  5
34AE
330
1E
100
AcDbEntity
  8
3
100
AcDbLine
 10
21.36291673253453
 20
15.93364000441298
 30
0.0
 11
21.33142066954241
 21
15.84702583118464
 31
0.0
  0
LINE
  5
34AF
330
1E
100
AcDbEntity
  8
3
100
AcDbLine
 10
21.33142066954241
 20
16.47694709102716
 30
0.0
 11
21.36291673253453
 21
16.39033291779882
 31
0.0
  0
LINE
  5
34B0
330
1E
100
AcDbEntity
  8
3
100
AcDbLine
 10
21.36291673253453
 20
16.39033291779882
 30
0.0
 11
21.44165689001485
 21
16.34308882331063
 31
0.0
  0
LINE
  5
34B1
330
1E
100
AcDbEntity
  8
3
100
AcDbLine
 10
21.44165689001485
 20
16.34308882331063
 30
0.0
 11
21.52827106324319
 21
16.35883685480669
 31
0.0
  0
LINE
  5
34B2
330
1E
100
AcDbEntity
  8
3
100
AcDbLine
 10
21.52827106324319
 20
16.35883685480669
 30
0.0
 11
21.59126318922745
 21
16.42970299653897
 31
0.0
  0
LINE
  5
34B3
330
1E
100
AcDbEntity
  8
3
100
AcDbLine
 10
21.59126318922745
 20
16.42970299653897
 30
0.0
 11
21.59126318922745
 21
16.52419118551535
 31
0.0
  0
LINE
  5
34B4
330
1E
100
AcDbEntity
  8
3
100
AcDbLine
 10
21.59126318922745
 20
16.52419118551535
 30
0.0
 11
21.53614507899122
 21
16.59505732724764
 31
0.0
  0
LINE
  5
34B5
330
1E
100
AcDbEntity
  8
3
100
AcDbLine
 10
21.53614507899122
 20
16.59505732724764
 30
0.0
 11
21.44165689001485
 21
16.6108053587437
 31
0.0
  0
LINE
  5
34B6
330
1E
100
AcDbEntity
  8
3
100
AcDbLine
 10
21.44165689001485
 20
16.6108053587437
 30
0.0
 11
21.36291673253453
 21
16.5635612642555
 31
0.0
  0
LINE
  5
34B7
330
1E
100
AcDbEntity
  8
3
100
AcDbLine
 10
21.59913720497548
 20
15.84702583118464
 30
0.0
 11
21.56764114198335
 21
15.93364000441298
 31
0.0
  0
LINE
  5
34B8
330
1E
100
AcDbEntity
  8
3
100
AcDbLine
 10
21.56764114198335
 20
15.93364000441298
 30
0.0
 11
21.48890098450304
 21
15.98088409890118
 31
0.0
  0
LINE
  5
34B9
330
1E
100
AcDbEntity
  8
3
100
AcDbLine
 10
21.48890098450304
 20
15.98088409890118
 30
0.0
 11
21.40228681127469
 21
15.96513606740512
 31
0.0
  0
LINE
  5
34BA
330
1E
100
AcDbEntity
  8
3
100
AcDbLine
 10
21.40228681127469
 20
15.96513606740512
 30
0.0
 11
21.33929468529044
 21
15.89426992567284
 31
0.0
  0
LINE
  5
34BB
330
1E
100
AcDbEntity
  8
3
100
AcDbLine
 10
21.33929468529044
 20
15.89426992567284
 30
0.0
 11
21.33929468529044
 21
15.79978173669645
 31
0.0
  0
LINE
  5
34BC
330
1E
100
AcDbEntity
  8
3
100
AcDbLine
 10
21.33929468529044
 20
15.79978173669645
 30
0.0
 11
21.39441279552666
 21
15.72891559496417
 31
0.0
  0
LINE
  5
34BD
330
1E
100
AcDbEntity
  8
3
100
AcDbLine
 10
21.39441279552666
 20
15.72891559496417
 30
0.0
 11
21.48890098450304
 21
15.71316756346811
 31
0.0
  0
LINE
  5
34BE
330
1E
100
AcDbEntity
  8
3
100
AcDbLine
 10
21.48890098450304
 20
15.71316756346811
 30
0.0
 11
21.56764114198335
 21
15.76041165795629
 31
0.0
  0
LINE
  5
34BF
330
1E
100
AcDbEntity
  8
3
100
AcDbLine
 10
21.56764114198335
 20
15.76041165795629
 30
0.0
 11
21.59913720497548
 21
15.84702583118464
 31
0.0
  0
LINE
  5
34C0
330
1E
100
AcDbEntity
  8
3
100
AcDbLine
 10
21.44953090576288
 20
15.76041165795629
 30
0.0
 11
21.52039704749516
 21
15.77615968945236
 31
0.0
  0
LINE
  5
34C1
330
1E
100
AcDbEntity
  8
3
100
AcDbLine
 10
21.52039704749516
 20
15.77615968945236
 30
0.0
 11
21.55189311048729
 21
15.84702583118464
 31
0.0
  0
LINE
  5
34C2
330
1E
100
AcDbEntity
  8
3
100
AcDbLine
 10
21.55189311048729
 20
15.84702583118464
 30
0.0
 11
21.52039704749516
 21
15.91789197291693
 31
0.0
  0
LINE
  5
34C3
330
1E
100
AcDbEntity
  8
3
100
AcDbLine
 10
21.52039704749516
 20
15.91789197291693
 30
0.0
 11
21.44953090576288
 21
15.93364000441298
 31
0.0
  0
LINE
  5
34C4
330
1E
100
AcDbEntity
  8
3
100
AcDbLine
 10
21.44953090576288
 20
15.93364000441298
 30
0.0
 11
21.38653877977863
 21
15.88639590992479
 31
0.0
  0
LINE
  5
34C5
330
1E
100
AcDbEntity
  8
3
100
AcDbLine
 10
21.38653877977863
 20
15.88639590992479
 30
0.0
 11
21.38653877977863
 21
15.80765575244448
 31
0.0
  0
LINE
  5
34C6
330
1E
100
AcDbEntity
  8
3
100
AcDbLine
 10
21.38653877977863
 20
15.80765575244448
 30
0.0
 11
21.44953090576288
 21
15.76041165795629
 31
0.0
  0
LINE
  5
34C7
330
1E
100
AcDbEntity
  8
3
100
AcDbLine
 10
21.40228681127469
 20
16.59505732724764
 30
0.0
 11
21.33929468529044
 21
16.52419118551535
 31
0.0
  0
LINE
  5
34C8
330
1E
100
AcDbEntity
  8
3
100
AcDbLine
 10
21.33929468529044
 20
16.52419118551535
 30
0.0
 11
21.33929468529044
 21
16.42970299653897
 31
0.0
  0
LINE
  5
34C9
330
1E
100
AcDbEntity
  8
3
100
AcDbLine
 10
21.33929468529044
 20
16.42970299653897
 30
0.0
 11
21.39441279552666
 21
16.35883685480669
 31
0.0
  0
LINE
  5
34CA
330
1E
100
AcDbEntity
  8
3
100
AcDbLine
 10
21.39441279552666
 20
16.35883685480669
 30
0.0
 11
21.48890098450304
 21
16.34308882331063
 31
0.0
  0
LINE
  5
34CB
330
1E
100
AcDbEntity
  8
3
100
AcDbLine
 10
21.48890098450304
 20
16.34308882331063
 30
0.0
 11
21.56764114198335
 21
16.39033291779882
 31
0.0
  0
LINE
  5
34CC
330
1E
100
AcDbEntity
  8
3
100
AcDbLine
 10
21.56764114198335
 20
16.39033291779882
 30
0.0
 11
21.59913720497548
 21
16.47694709102716
 31
0.0
  0
LINE
  5
34CD
330
1E
100
AcDbEntity
  8
3
100
AcDbLine
 10
21.59913720497548
 20
16.47694709102716
 30
0.0
 11
21.56764114198335
 21
16.5635612642555
 31
0.0
  0
LINE
  5
34CE
330
1E
100
AcDbEntity
  8
3
100
AcDbLine
 10
21.56764114198335
 20
16.5635612642555
 30
0.0
 11
21.48890098450304
 21
16.6108053587437
 31
0.0
  0
LINE
  5
34CF
330
1E
100
AcDbEntity
  8
3
100
AcDbLine
 10
21.48890098450304
 20
16.6108053587437
 30
0.0
 11
21.40228681127469
 21
16.59505732724764
 31
0.0
  0
LINE
  5
34D0
330
1E
100
AcDbEntity
  8
3
100
AcDbLine
 10
21.55189311048729
 20
16.47694709102716
 30
0.0
 11
21.52039704749516
 21
16.54781323275944
 31
0.0
  0
LINE
  5
34D1
330
1E
100
AcDbEntity
  8
3
100
AcDbLine
 10
21.52039704749516
 20
16.54781323275944
 30
0.0
 11
21.44953090576288
 21
16.5635612642555
 31
0.0
  0
LINE
  5
34D2
330
1E
100
AcDbEntity
  8
3
100
AcDbLine
 10
21.44953090576288
 20
16.5635612642555
 30
0.0
 11
21.38653877977863
 21
16.51631716976733
 31
0.0
  0
LINE
  5
34D3
330
1E
100
AcDbEntity
  8
3
100
AcDbLine
 10
21.38653877977863
 20
16.51631716976733
 30
0.0
 11
21.38653877977863
 21
16.437577012287
 31
0.0
  0
LINE
  5
34D4
330
1E
100
AcDbEntity
  8
3
100
AcDbLine
 10
21.38653877977863
 20
16.437577012287
 30
0.0
 11
21.44953090576288
 21
16.39033291779882
 31
0.0
  0
LINE
  5
34D5
330
1E
100
AcDbEntity
  8
3
100
AcDbLine
 10
21.44953090576288
 20
16.39033291779882
 30
0.0
 11
21.52039704749516
 21
16.40608094929488
 31
0.0
  0
LINE
  5
34D6
330
1E
100
AcDbEntity
  8
3
100
AcDbLine
 10
21.52039704749516
 20
16.40608094929488
 30
0.0
 11
21.55189311048729
 21
16.47694709102716
 31
0.0
  0
LINE
  5
34D7
330
1E
100
AcDbEntity
  8
3
100
AcDbLine
 10
22.13457027584162
 20
16.69741953197204
 30
0.0
 11
22.13457027584162
 21
16.72104157921614
 31
0.0
  0
LINE
  5
34D8
330
1E
100
AcDbEntity
  8
3
100
AcDbLine
 10
22.13457027584162
 20
16.72104157921614
 30
0.0
 11
22.13457027584162
 21
16.72891559496417
 31
0.0
  0
LINE
  5
34D9
330
1E
100
AcDbEntity
  8
3
100
AcDbLine
 10
22.24480649631406
 20
16.72891559496417
 30
0.0
 11
22.24480649631406
 21
16.72104157921614
 31
0.0
  0
LINE
  5
34DA
330
1E
100
AcDbEntity
  8
3
100
AcDbLine
 10
22.24480649631406
 20
16.72104157921614
 30
0.0
 11
22.24480649631406
 21
16.69741953197204
 31
0.0
  0
LINE
  5
34DB
330
1E
100
AcDbEntity
  8
3
100
AcDbLine
 10
22.07157814985737
 20
16.72891559496417
 30
0.0
 11
22.11882224434556
 21
16.72891559496417
 31
0.0
  0
LINE
  5
34DC
330
1E
100
AcDbEntity
  8
3
100
AcDbLine
 10
22.11882224434556
 20
16.72891559496417
 30
0.0
 11
22.13457027584162
 21
16.72891559496417
 31
0.0
  0
LINE
  5
34DD
330
1E
100
AcDbEntity
  8
3
100
AcDbLine
 10
22.46527893725895
 20
16.31946677606653
 30
0.0
 11
22.46527893725895
 21
16.24860063433424
 31
0.0
  0
LINE
  5
34DE
330
1E
100
AcDbEntity
  8
3
100
AcDbLine
 10
22.46527893725895
 20
16.24860063433424
 30
0.0
 11
22.46527893725895
 21
16.21710457134213
 31
0.0
  0
LINE
  5
34DF
330
1E
100
AcDbEntity
  8
3
100
AcDbLine
 10
22.46527893725895
 20
16.48482110677519
 30
0.0
 11
22.46527893725895
 21
16.45332504378307
 31
0.0
  0
LINE
  5
34E0
330
1E
100
AcDbEntity
  8
3
100
AcDbLine
 10
22.46527893725895
 20
16.45332504378307
 30
0.0
 11
22.46527893725895
 21
16.38245890205078
 31
0.0
  0
LINE
  5
34E1
330
1E
100
AcDbEntity
  8
3
100
AcDbLine
 10
22.39441279552666
 20
16.38245890205078
 30
0.0
 11
22.39441279552666
 21
16.35096283905866
 31
0.0
  0
LINE
  5
34E2
330
1E
100
AcDbEntity
  8
3
100
AcDbLine
 10
22.39441279552666
 20
16.35096283905866
 30
0.0
 11
22.39441279552666
 21
16.31946677606653
 31
0.0
  0
LINE
  5
34E3
330
1E
100
AcDbEntity
  8
3
100
AcDbLine
 10
22.39441279552666
 20
16.31946677606653
 30
0.0
 11
22.42590885851878
 21
16.31946677606653
 31
0.0
  0
LINE
  5
34E4
330
1E
100
AcDbEntity
  8
3
100
AcDbLine
 10
22.42590885851878
 20
16.31946677606653
 30
0.0
 11
22.46527893725895
 21
16.31946677606653
 31
0.0
  0
LINE
  5
34E5
330
1E
100
AcDbEntity
  8
3
100
AcDbLine
 10
22.46527893725895
 20
16.38245890205078
 30
0.0
 11
22.42590885851878
 21
16.38245890205078
 31
0.0
  0
LINE
  5
34E6
330
1E
100
AcDbEntity
  8
3
100
AcDbLine
 10
22.42590885851878
 20
16.38245890205078
 30
0.0
 11
22.39441279552666
 21
16.38245890205078
 31
0.0
  0
LINE
  5
34E7
330
1E
100
AcDbEntity
  8
3
100
AcDbLine
 10
22.30779862229832
 20
16.15411244535787
 30
0.0
 11
22.38653877977863
 21
16.16986047685393
 31
0.0
  0
LINE
  5
34E8
330
1E
100
AcDbEntity
  8
3
100
AcDbLine
 10
22.38653877977863
 20
16.16986047685393
 30
0.0
 11
22.45740492151091
 21
16.22497858709015
 31
0.0
  0
LINE
  5
34E9
330
1E
100
AcDbEntity
  8
3
100
AcDbLine
 10
22.45740492151091
 20
16.47694709102716
 30
0.0
 11
22.38653877977863
 21
16.53206520126339
 31
0.0
  0
LINE
  5
34EA
330
1E
100
AcDbEntity
  8
3
100
AcDbLine
 10
22.38653877977863
 20
16.53206520126339
 30
0.0
 11
22.30779862229832
 21
16.54781323275944
 31
0.0
  0
LINE
  5
34EB
330
1E
100
AcDbEntity
  8
3
100
AcDbLine
 10
36.54401909473925
 20
1.358836854806693
 30
0.0
 11
36.61488523647153
 21
1.445451028035034
 31
0.0
  0
LINE
  5
34EC
330
1E
100
AcDbEntity
  8
3
100
AcDbLine
 10
36.61488523647153
 20
1.445451028035034
 30
0.0
 11
36.63063326796761
 21
1.555687248507478
 31
0.0
  0
LINE
  5
34ED
330
1E
100
AcDbEntity
  8
3
100
AcDbLine
 10
36.63063326796761
 20
1.555687248507478
 30
0.0
 11
36.58338917347942
 21
1.650175437483863
 31
0.0
  0
LINE
  5
34EE
330
1E
100
AcDbEntity
  8
3
100
AcDbLine
 10
36.58338917347942
 20
1.650175437483863
 30
0.0
 11
36.48890098450303
 21
1.713167563468115
 31
0.0
  0
LINE
  5
34EF
330
1E
100
AcDbEntity
  8
3
100
AcDbLine
 10
36.48890098450303
 20
1.713167563468115
 30
0.0
 11
36.3786647640306
 21
1.713167563468115
 31
0.0
  0
LINE
  5
34F0
330
1E
100
AcDbEntity
  8
3
100
AcDbLine
 10
36.3786647640306
 20
1.713167563468115
 30
0.0
 11
36.28417657505421
 21
1.650175437483863
 31
0.0
  0
LINE
  5
34F1
330
1E
100
AcDbEntity
  8
3
100
AcDbLine
 10
36.28417657505421
 20
1.650175437483863
 30
0.0
 11
36.23693248056602
 21
1.555687248507478
 31
0.0
  0
LINE
  5
34F2
330
1E
100
AcDbEntity
  8
3
100
AcDbLine
 10
36.23693248056602
 20
1.555687248507478
 30
0.0
 11
36.2526805120621
 21
1.445451028035034
 31
0.0
  0
LINE
  5
34F3
330
1E
100
AcDbEntity
  8
3
100
AcDbLine
 10
36.2526805120621
 20
1.445451028035034
 30
0.0
 11
36.32354665379438
 21
1.358836854806693
 31
0.0
  0
LINE
  5
34F4
330
1E
100
AcDbEntity
  8
3
100
AcDbLine
 10
36.32354665379438
 20
1.358836854806693
 30
0.0
 11
36.43378287426681
 21
1.327340791814574
 31
0.0
  0
LINE
  5
34F5
330
1E
100
AcDbEntity
  8
3
100
AcDbLine
 10
36.40228681127469
 20
1.343088823310633
 30
0.0
 11
36.43378287426681
 21
1.343088823310633
 31
0.0
  0
LINE
  5
34F6
330
1E
100
AcDbEntity
  8
3
100
AcDbLine
 10
36.43378287426681
 20
1.343088823310633
 30
0.0
 11
36.46527893725894
 21
1.343088823310633
 31
0.0
  0
LINE
  5
34F7
330
1E
100
AcDbEntity
  8
3
100
AcDbLine
 10
36.46527893725894
 20
1.343088823310633
 30
0.0
 11
36.46527893725894
 21
1.358836854806693
 31
0.0
  0
LINE
  5
34F8
330
1E
100
AcDbEntity
  8
3
100
AcDbLine
 10
36.46527893725894
 20
1.358836854806693
 30
0.0
 11
36.46527893725894
 21
1.390332917798826
 31
0.0
  0
LINE
  5
34F9
330
1E
100
AcDbEntity
  8
3
100
AcDbLine
 10
37.92984586639279
 20
-1.48368283023267
 30
0.0
 11
37.67787736245578
 21
-1.48368283023267
 31
0.0
  0
LINE
  5
34FA
330
1E
100
AcDbEntity
  8
3
100
AcDbLine
 10
37.67787736245578
 20
-1.48368283023267
 30
0.0
 11
37.67787736245578
 21
0.1147423666177154
 31
0.0
  0
LINE
  5
34FB
330
1E
100
AcDbEntity
  8
3
100
AcDbLine
 10
37.02433405536918
 20
2.224978587090159
 30
0.0
 11
37.02433405536918
 21
2.31946677606653
 31
0.0
  0
LINE
  5
34FC
330
1E
100
AcDbEntity
  8
3
100
AcDbLine
 10
37.02433405536918
 20
2.31946677606653
 30
0.0
 11
37.02433405536918
 21
2.358836854806693
 31
0.0
  0
LINE
  5
34FD
330
1E
100
AcDbEntity
  8
3
100
AcDbLine
 10
37.00071200812507
 20
2.358836854806693
 30
0.0
 11
37.00071200812507
 21
2.31946677606653
 31
0.0
  0
LINE
  5
34FE
330
1E
100
AcDbEntity
  8
3
100
AcDbLine
 10
37.00071200812507
 20
2.31946677606653
 30
0.0
 11
37.00071200812507
 21
2.224978587090159
 31
0.0
  0
LINE
  5
34FF
330
1E
100
AcDbEntity
  8
3
100
AcDbLine
 10
37.00071200812507
 20
2.154112445357878
 30
0.0
 11
37.00071200812507
 21
2.224978587090159
 31
0.0
  0
LINE
  5
3500
330
1E
100
AcDbEntity
  8
3
100
AcDbLine
 10
37.00071200812507
 20
2.224978587090159
 30
0.0
 11
36.49677500025106
 21
2.224978587090159
 31
0.0
  0
LINE
  5
3501
330
1E
100
AcDbEntity
  8
3
100
AcDbLine
 10
36.0794521656054
 20
2.028128193389374
 30
0.0
 11
36.0794521656054
 21
2.122616382365745
 31
0.0
  0
LINE
  5
3502
330
1E
100
AcDbEntity
  8
3
100
AcDbLine
 10
36.0794521656054
 20
2.122616382365745
 30
0.0
 11
36.0794521656054
 21
2.154112445357878
 31
0.0
  0
LINE
  5
3503
330
1E
100
AcDbEntity
  8
3
100
AcDbLine
 10
36.08732618135343
 20
1.957262051657092
 30
0.0
 11
36.07157814985737
 21
1.933640004412989
 31
0.0
  0
LINE
  5
3504
330
1E
100
AcDbEntity
  8
3
100
AcDbLine
 10
36.07157814985737
 20
1.933640004412989
 30
0.0
 11
36.06370413410933
 21
1.9100179571689
 31
0.0
  0
LINE
  5
3505
330
1E
100
AcDbEntity
  8
3
100
AcDbLine
 10
36.49677500025106
 20
2.154112445357878
 30
0.0
 11
36.49677500025106
 21
2.224978587090159
 31
0.0
  0
LINE
  5
3506
330
1E
100
AcDbEntity
  8
3
100
AcDbLine
 10
36.49677500025106
 20
2.224978587090159
 30
0.0
 11
36.49677500025106
 21
2.31946677606653
 31
0.0
  0
LINE
  5
3507
330
1E
100
AcDbEntity
  8
3
100
AcDbLine
 10
36.49677500025106
 20
2.31946677606653
 30
0.0
 11
36.49677500025106
 21
2.358836854806693
 31
0.0
  0
LINE
  5
3508
330
1E
100
AcDbEntity
  8
3
100
AcDbLine
 10
36.40228681127469
 20
1.642301421735833
 30
0.0
 11
36.32354665379438
 21
1.579309295751581
 31
0.0
  0
LINE
  5
3509
330
1E
100
AcDbEntity
  8
3
100
AcDbLine
 10
36.32354665379438
 20
1.579309295751581
 30
0.0
 11
36.32354665379438
 21
1.469073075279137
 31
0.0
  0
LINE
  5
350A
330
1E
100
AcDbEntity
  8
3
100
AcDbLine
 10
36.32354665379438
 20
1.469073075279137
 30
0.0
 11
36.40228681127469
 21
1.406080949294885
 31
0.0
  0
LINE
  5
350B
330
1E
100
AcDbEntity
  8
3
100
AcDbLine
 10
36.30779862229831
 20
1.492695122523226
 30
0.0
 11
36.30779862229831
 21
1.555687248507478
 31
0.0
  0
LINE
  5
350C
330
1E
100
AcDbEntity
  8
3
100
AcDbLine
 10
36.30779862229831
 20
1.555687248507478
 30
0.0
 11
36.39441279552666
 21
1.555687248507478
 31
0.0
  0
LINE
  5
350D
330
1E
100
AcDbEntity
  8
3
100
AcDbLine
 10
36.46527893725894
 20
1.406080949294885
 30
0.0
 11
36.54401909473925
 21
1.469073075279137
 31
0.0
  0
LINE
  5
350E
330
1E
100
AcDbEntity
  8
3
100
AcDbLine
 10
36.54401909473925
 20
1.469073075279137
 30
0.0
 11
36.54401909473925
 21
1.579309295751581
 31
0.0
  0
LINE
  5
350F
330
1E
100
AcDbEntity
  8
3
100
AcDbLine
 10
36.54401909473925
 20
1.579309295751581
 30
0.0
 11
36.46527893725894
 21
1.642301421735833
 31
0.0
  0
LINE
  5
3510
330
1E
100
AcDbEntity
  8
3
100
AcDbLine
 10
36.46527893725894
 20
1.705293547720085
 30
0.0
 11
36.43378287426681
 21
1.705293547720085
 31
0.0
  0
LINE
  5
3511
330
1E
100
AcDbEntity
  8
3
100
AcDbLine
 10
36.43378287426681
 20
1.705293547720085
 30
0.0
 11
36.40228681127469
 21
1.705293547720085
 31
0.0
  0
LINE
  5
3512
330
1E
100
AcDbEntity
  8
3
100
AcDbLine
 10
36.39441279552666
 20
1.705293547720085
 30
0.0
 11
36.39441279552666
 21
1.681671500475982
 31
0.0
  0
LINE
  5
3513
330
1E
100
AcDbEntity
  8
3
100
AcDbLine
 10
36.39441279552666
 20
1.681671500475982
 30
0.0
 11
36.39441279552666
 21
1.650175437483863
 31
0.0
  0
LINE
  5
3514
330
1E
100
AcDbEntity
  8
3
100
AcDbLine
 10
36.46527893725894
 20
1.555687248507478
 30
0.0
 11
36.46527893725894
 21
1.650175437483863
 31
0.0
  0
LINE
  5
3515
330
1E
100
AcDbEntity
  8
3
100
AcDbLine
 10
36.46527893725894
 20
1.650175437483863
 30
0.0
 11
36.46527893725894
 21
1.681671500475982
 31
0.0
  0
LINE
  5
3516
330
1E
100
AcDbEntity
  8
3
100
AcDbLine
 10
36.46527893725894
 20
1.681671500475982
 30
0.0
 11
36.46527893725894
 21
1.705293547720085
 31
0.0
  0
LINE
  5
3517
330
1E
100
AcDbEntity
  8
3
100
AcDbLine
 10
38.0558301183613
 20
2.154112445357878
 30
0.0
 11
38.0558301183613
 21
2.224978587090159
 31
0.0
  0
LINE
  5
3518
330
1E
100
AcDbEntity
  8
3
100
AcDbLine
 10
38.0558301183613
 20
2.224978587090159
 30
0.0
 11
37.55189311048728
 21
2.224978587090159
 31
0.0
  0
LINE
  5
3519
330
1E
100
AcDbEntity
  8
3
100
AcDbLine
 10
37.52827106324319
 20
2.358836854806693
 30
0.0
 11
37.52827106324319
 21
2.31946677606653
 31
0.0
  0
LINE
  5
351A
330
1E
100
AcDbEntity
  8
3
100
AcDbLine
 10
37.52827106324319
 20
2.31946677606653
 30
0.0
 11
37.52827106324319
 21
2.224978587090159
 31
0.0
  0
LINE
  5
351B
330
1E
100
AcDbEntity
  8
3
100
AcDbLine
 10
37.55189311048728
 20
2.224978587090159
 30
0.0
 11
37.55189311048728
 21
2.31946677606653
 31
0.0
  0
LINE
  5
351C
330
1E
100
AcDbEntity
  8
3
100
AcDbLine
 10
37.55189311048728
 20
2.31946677606653
 30
0.0
 11
37.55189311048728
 21
2.358836854806693
 31
0.0
  0
LINE
  5
351D
330
1E
100
AcDbEntity
  8
3
100
AcDbLine
 10
38.0794521656054
 20
2.224978587090159
 30
0.0
 11
38.0794521656054
 21
2.31946677606653
 31
0.0
  0
LINE
  5
351E
330
1E
100
AcDbEntity
  8
3
100
AcDbLine
 10
38.0794521656054
 20
2.31946677606653
 30
0.0
 11
38.0794521656054
 21
2.358836854806693
 31
0.0
  0
LINE
  5
351F
330
1E
100
AcDbEntity
  8
3
100
AcDbLine
 10
38.58338917347941
 20
2.358836854806693
 30
0.0
 11
38.58338917347941
 21
2.31946677606653
 31
0.0
  0
LINE
  5
3520
330
1E
100
AcDbEntity
  8
3
100
AcDbLine
 10
38.58338917347941
 20
2.31946677606653
 30
0.0
 11
38.58338917347941
 21
2.224978587090159
 31
0.0
  0
LINE
  5
3521
330
1E
100
AcDbEntity
  8
3
100
AcDbLine
 10
38.60701122072351
 20
2.224978587090159
 30
0.0
 11
38.60701122072351
 21
2.31946677606653
 31
0.0
  0
LINE
  5
3522
330
1E
100
AcDbEntity
  8
3
100
AcDbLine
 10
38.60701122072351
 20
2.31946677606653
 30
0.0
 11
38.60701122072351
 21
2.358836854806693
 31
0.0
  0
LINE
  5
3523
330
1E
100
AcDbEntity
  8
3
100
AcDbLine
 10
38.0558301183613
 20
2.358836854806693
 30
0.0
 11
38.0558301183613
 21
2.31946677606653
 31
0.0
  0
LINE
  5
3524
330
1E
100
AcDbEntity
  8
3
100
AcDbLine
 10
38.0558301183613
 20
2.31946677606653
 30
0.0
 11
38.0558301183613
 21
2.224978587090159
 31
0.0
  0
LINE
  5
3525
330
1E
100
AcDbEntity
  8
3
100
AcDbLine
 10
39.00071200812508
 20
1.445451028035034
 30
0.0
 11
39.07157814985737
 21
1.358836854806693
 31
0.0
  0
LINE
  5
3526
330
1E
100
AcDbEntity
  8
3
100
AcDbLine
 10
39.07157814985737
 20
1.358836854806693
 30
0.0
 11
39.1818143703298
 21
1.327340791814574
 31
0.0
  0
LINE
  5
3527
330
1E
100
AcDbEntity
  8
3
100
AcDbLine
 10
39.1818143703298
 20
1.327340791814574
 30
0.0
 11
39.29205059080224
 21
1.358836854806693
 31
0.0
  0
LINE
  5
3528
330
1E
100
AcDbEntity
  8
3
100
AcDbLine
 10
39.29205059080224
 20
1.358836854806693
 30
0.0
 11
39.36291673253453
 21
1.445451028035034
 31
0.0
  0
LINE
  5
3529
330
1E
100
AcDbEntity
  8
3
100
AcDbLine
 10
39.36291673253453
 20
1.445451028035034
 30
0.0
 11
39.3786647640306
 21
1.555687248507478
 31
0.0
  0
LINE
  5
352A
330
1E
100
AcDbEntity
  8
3
100
AcDbLine
 10
39.3786647640306
 20
1.555687248507478
 30
0.0
 11
39.33142066954241
 21
1.650175437483863
 31
0.0
  0
LINE
  5
352B
330
1E
100
AcDbEntity
  8
3
100
AcDbLine
 10
39.33142066954241
 20
1.650175437483863
 30
0.0
 11
39.23693248056602
 21
1.713167563468115
 31
0.0
  0
LINE
  5
352C
330
1E
100
AcDbEntity
  8
3
100
AcDbLine
 10
39.23693248056602
 20
1.713167563468115
 30
0.0
 11
39.12669626009358
 21
1.713167563468115
 31
0.0
  0
LINE
  5
352D
330
1E
100
AcDbEntity
  8
3
100
AcDbLine
 10
39.12669626009358
 20
1.713167563468115
 30
0.0
 11
39.03220807111721
 21
1.650175437483863
 31
0.0
  0
LINE
  5
352E
330
1E
100
AcDbEntity
  8
3
100
AcDbLine
 10
39.03220807111721
 20
1.650175437483863
 30
0.0
 11
38.98496397662901
 21
1.555687248507478
 31
0.0
  0
LINE
  5
352F
330
1E
100
AcDbEntity
  8
3
100
AcDbLine
 10
38.98496397662901
 20
1.555687248507478
 30
0.0
 11
39.00071200812508
 21
1.445451028035034
 31
0.0
  0
LINE
  5
3530
330
1E
100
AcDbEntity
  8
3
100
AcDbLine
 10
39.15031830733768
 20
1.343088823310633
 30
0.0
 11
39.1818143703298
 21
1.343088823310633
 31
0.0
  0
LINE
  5
3531
330
1E
100
AcDbEntity
  8
3
100
AcDbLine
 10
39.1818143703298
 20
1.343088823310633
 30
0.0
 11
39.21331043332193
 21
1.343088823310633
 31
0.0
  0
LINE
  5
3532
330
1E
100
AcDbEntity
  8
3
100
AcDbLine
 10
39.15031830733768
 20
1.390332917798826
 30
0.0
 11
39.15031830733768
 21
1.358836854806693
 31
0.0
  0
LINE
  5
3533
330
1E
100
AcDbEntity
  8
3
100
AcDbLine
 10
39.15031830733768
 20
1.358836854806693
 30
0.0
 11
39.15031830733768
 21
1.343088823310633
 31
0.0
  0
LINE
  5
3534
330
1E
100
AcDbEntity
  8
3
100
AcDbLine
 10
39.21331043332193
 20
1.343088823310633
 30
0.0
 11
39.21331043332193
 21
1.358836854806693
 31
0.0
  0
LINE
  5
3535
330
1E
100
AcDbEntity
  8
3
100
AcDbLine
 10
39.21331043332193
 20
1.358836854806693
 30
0.0
 11
39.21331043332193
 21
1.390332917798826
 31
0.0
  0
LINE
  5
3536
330
1E
100
AcDbEntity
  8
3
100
AcDbLine
 10
39.11094822859752
 20
2.358836854806693
 30
0.0
 11
39.11094822859752
 21
2.31946677606653
 31
0.0
  0
LINE
  5
3537
330
1E
100
AcDbEntity
  8
3
100
AcDbLine
 10
39.11094822859752
 20
2.31946677606653
 30
0.0
 11
39.11094822859752
 21
2.224978587090159
 31
0.0
  0
LINE
  5
3538
330
1E
100
AcDbEntity
  8
3
100
AcDbLine
 10
39.54401909473925
 20
1.9100179571689
 30
0.0
 11
39.53614507899122
 21
1.933640004412989
 31
0.0
  0
LINE
  5
3539
330
1E
100
AcDbEntity
  8
3
100
AcDbLine
 10
39.53614507899122
 20
1.933640004412989
 30
0.0
 11
39.52039704749516
 21
1.957262051657092
 31
0.0
  0
LINE
  5
353A
330
1E
100
AcDbEntity
  8
3
100
AcDbLine
 10
39.15031830733768
 20
1.642301421735833
 30
0.0
 11
39.07157814985737
 21
1.579309295751581
 31
0.0
  0
LINE
  5
353B
330
1E
100
AcDbEntity
  8
3
100
AcDbLine
 10
39.07157814985737
 20
1.579309295751581
 30
0.0
 11
39.07157814985737
 21
1.469073075279137
 31
0.0
  0
LINE
  5
353C
330
1E
100
AcDbEntity
  8
3
100
AcDbLine
 10
39.07157814985737
 20
1.469073075279137
 30
0.0
 11
39.15031830733768
 21
1.406080949294885
 31
0.0
  0
LINE
  5
353D
330
1E
100
AcDbEntity
  8
3
100
AcDbLine
 10
39.0558301183613
 20
1.492695122523226
 30
0.0
 11
39.0558301183613
 21
1.555687248507478
 31
0.0
  0
LINE
  5
353E
330
1E
100
AcDbEntity
  8
3
100
AcDbLine
 10
39.0558301183613
 20
1.555687248507478
 30
0.0
 11
39.15031830733768
 21
1.555687248507478
 31
0.0
  0
LINE
  5
353F
330
1E
100
AcDbEntity
  8
3
100
AcDbLine
 10
39.21331043332193
 20
1.406080949294885
 30
0.0
 11
39.29205059080224
 21
1.469073075279137
 31
0.0
  0
LINE
  5
3540
330
1E
100
AcDbEntity
  8
3
100
AcDbLine
 10
39.29205059080224
 20
1.469073075279137
 30
0.0
 11
39.29205059080224
 21
1.579309295751581
 31
0.0
  0
LINE
  5
3541
330
1E
100
AcDbEntity
  8
3
100
AcDbLine
 10
39.29205059080224
 20
1.579309295751581
 30
0.0
 11
39.21331043332193
 21
1.642301421735833
 31
0.0
  0
LINE
  5
3542
330
1E
100
AcDbEntity
  8
3
100
AcDbLine
 10
39.21331043332193
 20
1.705293547720085
 30
0.0
 11
39.1818143703298
 21
1.705293547720085
 31
0.0
  0
LINE
  5
3543
330
1E
100
AcDbEntity
  8
3
100
AcDbLine
 10
39.1818143703298
 20
1.705293547720085
 30
0.0
 11
39.15031830733768
 21
1.705293547720085
 31
0.0
  0
LINE
  5
3544
330
1E
100
AcDbEntity
  8
3
100
AcDbLine
 10
39.15031830733768
 20
1.705293547720085
 30
0.0
 11
39.15031830733768
 21
1.681671500475982
 31
0.0
  0
LINE
  5
3545
330
1E
100
AcDbEntity
  8
3
100
AcDbLine
 10
39.15031830733768
 20
1.681671500475982
 30
0.0
 11
39.15031830733768
 21
1.650175437483863
 31
0.0
  0
LINE
  5
3546
330
1E
100
AcDbEntity
  8
3
100
AcDbLine
 10
39.21331043332193
 20
1.555687248507478
 30
0.0
 11
39.21331043332193
 21
1.650175437483863
 31
0.0
  0
LINE
  5
3547
330
1E
100
AcDbEntity
  8
3
100
AcDbLine
 10
39.21331043332193
 20
1.650175437483863
 30
0.0
 11
39.21331043332193
 21
1.681671500475982
 31
0.0
  0
LINE
  5
3548
330
1E
100
AcDbEntity
  8
3
100
AcDbLine
 10
39.21331043332193
 20
1.681671500475982
 30
0.0
 11
39.21331043332193
 21
1.705293547720085
 31
0.0
  0
ENDSEC
  0
SECTION
  2
OBJECTS
  0
DICTIONARY
  5
C
330
0
100
AcDbDictionary
  3
ACAD_GROUP
350
D
  3
ACAD_LAYOUT
350
19
  3
ACAD_MLINESTYLE
350
16
  3
ACAD_PLOTSETTINGS
350
18
  3
ACAD_PLOTSTYLENAME
350
E
  3
ACDBHEADERROUNDTRIPXREC
350
357E
  0
DICTIONARY
  5
35A1
330
1E
100
AcDbDictionary
280
     1
  3
ACAD_LAYOUTSELFREF
360
35A2
  0
DICTIONARY
  5
359F
330
1A
100
AcDbDictionary
280
     1
  3
ACAD_LAYOUTSELFREF
360
35A0
  0
DICTIONARY
  5
D
102
{ACAD_REACTORS
330
C
102
}
330
C
100
AcDbDictionary
  0
DICTIONARY
  5
19
102
{ACAD_REACTORS
330
C
102
}
330
C
100
AcDbDictionary
  0
DICTIONARY
  5
16
102
{ACAD_REACTORS
330
C
102
}
330
C
100
AcDbDictionary
  3
STANDARD
350
17
  0
DICTIONARY
  5
18
102
{ACAD_REACTORS
330
C
102
}
330
C
100
AcDbDictionary
  0
ACDBDICTIONARYWDFLT
  5
E
102
{ACAD_REACTORS
330
C
102
}
330
C
100
AcDbDictionary
281
     1
  3
Normal
350
F
100
AcDbDictionaryWithDefault
340
F
  0
DICTIONARY
  5
357E
102
{ACAD_REACTORS
330
C
102
}
330
C
100
AcDbDictionary
  3
CEPSNTYPE
350
3588
  3
DIMSTYLEDATA
350
358C
  3
FINGERPRINTGUID
350
3589
  3
HYPERLINKBASE
350
3581
  3
INSUNITS
350
3587
  3
LAYOUTDICT
350
3583
  3
LWETCUNION
350
3586
  3
PLOTSETDICT
350
3584
  3
PLOTSTYLNAMDICT
350
3585
  3
PSVPSCALE
350
358B
  3
PUCSBASE
350
358F
  3
PUCSORGBACK
350
3595
  3
PUCSORGBOTTOM
350
3591
  3
PUCSORGFRONT
350
3594
  3
PUCSORGLEFT
350
3592
  3
PUCSORGRIGHT
350
3593
  3
PUCSORGTOP
350
3590
  3
PUCSORTHOREF
350
358D
  3
PUCSORTHOVIEW
350
358E
  3
STYLESHEET
350
3582
  3
TSTACKALIGN
350
357F
  3
TSTACKSIZE
350
3580
  3
UCSBASE
350
3598
  3
UCSORGBACK
350
359E
  3
UCSORGBOTTOM
350
359A
  3
UCSORGFRONT
350
359D
  3
UCSORGLEFT
350
359B
  3
UCSORGRIGHT
350
359C
  3
UCSORGTOP
350
3599
  3
UCSORTHOREF
350
3596
  3
UCSORTHOVIEW
350
3597
  3
VERSIONGUID
350
358A
  0
XRECORD
  5
35A2
102
{ACAD_REACTORS
330
35A1
102
}
330
35A1
100
AcDbXrecord
340
1E
  0
XRECORD
  5
35A0
102
{ACAD_REACTORS
330
359F
102
}
330
359F
100
AcDbXrecord
340
1A
  0
MLINESTYLE
  5
17
102
{ACAD_REACTORS
330
16
102
}
330
16
100
AcDbMlineStyle
  2
STANDARD
 70
     0
  3

 62
   256
 51
90.0
 52
90.0
 71
     2
 49
0.5
 62
   256
  6
BYLAYER
 49
-0.5
 62
   256
  6
BYLAYER
  0
ACDBPLACEHOLDER
  5
F
102
{ACAD_REACTORS
330
E
102
}
330
E
100
AcDbPlaceHolder
280
     0
  0
XRECORD
  5
3588
102
{ACAD_REACTORS
330
357E
102
}
330
357E
100
AcDbXrecord
 90
        0
  0
XRECORD
  5
358C
102
{ACAD_REACTORS
330
357E
102
}
330
357E
100
AcDbXrecord
1000
DSTYLE
1002
{
1070
   279
 70
     2
1002
}
  0
XRECORD
  5
3589
102
{ACAD_REACTORS
330
357E
102
}
330
357E
100
AcDbXrecord
  1
{77A92A32-6829-11D6-B7DB-00B0D0207C23}
  0
XRECORD
  5
3581
102
{ACAD_REACTORS
330
357E
102
}
330
357E
100
AcDbXrecord
  1

  0
XRECORD
  5
3587
102
{ACAD_REACTORS
330
357E
102
}
330
357E
100
AcDbXrecord
 90
        0
  0
XRECORD
  5
3583
102
{ACAD_REACTORS
330
357E
102
}
330
357E
100
AcDbXrecord
340
19
  0
XRECORD
  5
3586
102
{ACAD_REACTORS
330
357E
102
}
330
357E
100
AcDbXrecord
 90
    14877
  0
XRECORD
  5
3584
102
{ACAD_REACTORS
330
357E
102
}
330
357E
100
AcDbXrecord
340
18
  0
XRECORD
  5
3585
102
{ACAD_REACTORS
330
357E
102
}
330
357E
100
AcDbXrecord
340
E
  0
XRECORD
  5
358B
102
{ACAD_REACTORS
330
357E
102
}
330
357E
100
AcDbXrecord
 40
0.0
  0
XRECORD
  5
358F
102
{ACAD_REACTORS
330
357E
102
}
330
357E
100
AcDbXrecord
340
0
  0
XRECORD
  5
3595
102
{ACAD_REACTORS
330
357E
102
}
330
357E
100
AcDbXrecord
 10
0.0
 20
0.0
 30
0.0
  0
XRECORD
  5
3591
102
{ACAD_REACTORS
330
357E
102
}
330
357E
100
AcDbXrecord
 10
0.0
 20
0.0
 30
0.0
  0
XRECORD
  5
3594
102
{ACAD_REACTORS
330
357E
102
}
330
357E
100
AcDbXrecord
 10
0.0
 20
0.0
 30
0.0
  0
XRECORD
  5
3592
102
{ACAD_REACTORS
330
357E
102
}
330
357E
100
AcDbXrecord
 10
0.0
 20
0.0
 30
0.0
  0
XRECORD
  5
3593
102
{ACAD_REACTORS
330
357E
102
}
330
357E
100
AcDbXrecord
 10
0.0
 20
0.0
 30
0.0
  0
XRECORD
  5
3590
102
{ACAD_REACTORS
330
357E
102
}
330
357E
100
AcDbXrecord
 10
0.0
 20
0.0
 30
0.0
  0
XRECORD
  5
358D
102
{ACAD_REACTORS
330
357E
102
}
330
357E
100
AcDbXrecord
340
0
  0
XRECORD
  5
358E
102
{ACAD_REACTORS
330
357E
102
}
330
357E
100
AcDbXrecord
 70
     0
  0
XRECORD
  5
3582
102
{ACAD_REACTORS
330
357E
102
}
330
357E
100
AcDbXrecord
  1

  0
XRECORD
  5
357F
102
{ACAD_REACTORS
330
357E
102
}
330
357E
100
AcDbXrecord
 90
        1
  0
XRECORD
  5
3580
102
{ACAD_REACTORS
330
357E
102
}
330
357E
100
AcDbXrecord
 90
       70
  0
XRECORD
  5
3598
102
{ACAD_REACTORS
330
357E
102
}
330
357E
100
AcDbXrecord
340
0
  0
XRECORD
  5
359E
102
{ACAD_REACTORS
330
357E
102
}
330
357E
100
AcDbXrecord
 10
0.0
 20
0.0
 30
0.0
  0
XRECORD
  5
359A
102
{ACAD_REACTORS
330
357E
102
}
330
357E
100
AcDbXrecord
 10
0.0
 20
0.0
 30
0.0
  0
XRECORD
  5
359D
102
{ACAD_REACTORS
330
357E
102
}
330
357E
100
AcDbXrecord
 10
0.0
 20
0.0
 30
0.0
  0
XRECORD
  5
359B
102
{ACAD_REACTORS
330
357E
102
}
330
357E
100
AcDbXrecord
 10
0.0
 20
0.0
 30
0.0
  0
XRECORD
  5
359C
102
{ACAD_REACTORS
330
357E
102
}
330
357E
100
AcDbXrecord
 10
0.0
 20
0.0
 30
0.0
  0
XRECORD
  5
3599
102
{ACAD_REACTORS
330
357E
102
}
330
357E
100
AcDbXrecord
 10
0.0
 20
0.0
 30
0.0
  0
XRECORD
  5
3596
102
{ACAD_REACTORS
330
357E
102
}
330
357E
100
AcDbXrecord
340
0
  0
XRECORD
  5
3597
102
{ACAD_REACTORS
330
357E
102
}
330
357E
100
AcDbXrecord
 70
     0
  0
XRECORD
  5
358A
102
{ACAD_REACTORS
330
357E
102
}
330
357E
100
AcDbXrecord
  1
{77A92A36-6829-11D6-B7DB-00B0D0207C23}
  0
ENDSEC
  0
EOF
