  0
SECTION
  2
HEADER
  9
$ACADVER
  1
AC1012
  9
$DWGCODEPAGE
  3
ANSI_1252
  9
$INSBASE
 10
0.0
 20
0.0
 30
0.0
  9
$EXTMIN
 10
10.93743900551628
 20
12.01121524489859
 30
-0.0015258207003583
  9
$EXTMAX
 10
17.35803226073974
 20
14.76260378742893
 30
0.0000000349246037
  9
$LIMMIN
 10
0.0
 20
0.0
  9
$LIMMAX
 10
12.0
 20
9.0
  9
$ORTHOMODE
 70
     0
  9
$REGENMODE
 70
     1
  9
$FILLMODE
 70
     1
  9
$QTEXTMODE
 70
     0
  9
$MIRRTEXT
 70
     1
  9
$DRAGMODE
 70
     2
  9
$LTSCALE
 40
1.0
  9
$OSMODE
 70
    33
  9
$ATTMODE
 70
     1
  9
$TEXTSIZE
 40
0.2
  9
$TRACEWID
 40
0.05
  9
$TEXTSTYLE
  7
STANDARD
  9
$CLAYER
  8
0
  9
$CELTYPE
  6
BYLAYER
  9
$CECOLOR
 62
   256
  9
$CELTSCALE
 40
1.0
  9
$DELOBJ
 70
     1
  9
$DISPSILH
 70
     0
  9
$DIMSCALE
 40
1.0
  9
$DIMASZ
 40
0.18
  9
$DIMEXO
 40
0.0625
  9
$DIMDLI
 40
0.38
  9
$DIMRND
 40
0.0
  9
$DIMDLE
 40
0.0
  9
$DIMEXE
 40
0.18
  9
$DIMTP
 40
0.0
  9
$DIMTM
 40
0.0
  9
$DIMTXT
 40
0.18
  9
$DIMCEN
 40
0.09
  9
$DIMTSZ
 40
0.0
  9
$DIMTOL
 70
     0
  9
$DIMLIM
 70
     0
  9
$DIMTIH
 70
     1
  9
$DIMTOH
 70
     1
  9
$DIMSE1
 70
     0
  9
$DIMSE2
 70
     0
  9
$DIMTAD
 70
     0
  9
$DIMZIN
 70
     0
  9
$DIMBLK
  1

  9
$DIMASO
 70
     1
  9
$DIMSHO
 70
     1
  9
$DIMPOST
  1

  9
$DIMAPOST
  1

  9
$DIMALT
 70
     0
  9
$DIMALTD
 70
     2
  9
$DIMALTF
 40
25.4
  9
$DIMLFAC
 40
1.0
  9
$DIMTOFL
 70
     0
  9
$DIMTVP
 40
0.0
  9
$DIMTIX
 70
     0
  9
$DIMSOXD
 70
     0
  9
$DIMSAH
 70
     0
  9
$DIMBLK1
  1

  9
$DIMBLK2
  1

  9
$DIMSTYLE
  2
STANDARD
  9
$DIMCLRD
 70
     0
  9
$DIMCLRE
 70
     0
  9
$DIMCLRT
 70
     0
  9
$DIMTFAC
 40
1.0
  9
$DIMGAP
 40
0.09
  9
$DIMJUST
 70
     0
  9
$DIMSD1
 70
     0
  9
$DIMSD2
 70
     0
  9
$DIMTOLJ
 70
     1
  9
$DIMTZIN
 70
     0
  9
$DIMALTZ
 70
     0
  9
$DIMALTTZ
 70
     0
  9
$DIMFIT
 70
     5
  9
$DIMUPT
 70
     0
  9
$DIMUNIT
 70
     2
  9
$DIMDEC
 70
     4
  9
$DIMTDEC
 70
     4
  9
$DIMALTU
 70
     2
  9
$DIMALTTD
 70
     2
  9
$DIMTXSTY
  7
STANDARD
  9
$DIMAUNIT
 70
     0
  9
$LUNITS
 70
     2
  9
$LUPREC
 70
     4
  9
$SKETCHINC
 40
0.1
  9
$FILLETRAD
 40
0.0
  9
$AUNITS
 70
     0
  9
$AUPREC
 70
     0
  9
$MENU
  1
acad
  9
$ELEVATION
 40
0.0
  9
$PELEVATION
 40
0.0
  9
$THICKNESS
 40
0.0
  9
$LIMCHECK
 70
     0
  9
$BLIPMODE
 70
     0
  9
$CHAMFERA
 40
0.0
  9
$CHAMFERB
 40
0.0
  9
$CHAMFERC
 40
0.0
  9
$CHAMFERD
 40
0.0
  9
$SKPOLY
 70
     0
  9
$TDCREATE
 40
2452489.373969907
  9
$TDUPDATE
 40
2452489.404264699
  9
$TDINDWG
 40
0.0008011343
  9
$TDUSRTIMER
 40
0.0008011343
  9
$USRTIMER
 70
     1
  9
$ANGBASE
 50
0.0
  9
$ANGDIR
 70
     0
  9
$PDMODE
 70
     0
  9
$PDSIZE
 40
0.0
  9
$PLINEWID
 40
0.0
  9
$COORDS
 70
     0
  9
$SPLFRAME
 70
     0
  9
$SPLINETYPE
 70
     6
  9
$SPLINESEGS
 70
     8
  9
$ATTDIA
 70
     0
  9
$ATTREQ
 70
     1
  9
$HANDLING
 70
  4097
  9
$HANDSEED
  5
46D2
  9
$SURFTAB1
 70
     6
  9
$SURFTAB2
 70
     6
  9
$SURFTYPE
 70
     6
  9
$SURFU
 70
     6
  9
$SURFV
 70
     6
  9
$UCSNAME
  2

  9
$UCSORG
 10
0.0
 20
0.0
 30
0.0
  9
$UCSXDIR
 10
1.0
 20
0.0
 30
0.0
  9
$UCSYDIR
 10
0.0
 20
1.0
 30
0.0
  9
$PUCSNAME
  2

  9
$PUCSORG
 10
0.0
 20
0.0
 30
0.0
  9
$PUCSXDIR
 10
1.0
 20
0.0
 30
0.0
  9
$PUCSYDIR
 10
0.0
 20
1.0
 30
0.0
  9
$USERI1
 70
     0
  9
$USERI2
 70
     0
  9
$USERI3
 70
     0
  9
$USERI4
 70
     0
  9
$USERI5
 70
     0
  9
$USERR1
 40
0.0
  9
$USERR2
 40
0.0
  9
$USERR3
 40
0.0
  9
$USERR4
 40
0.0
  9
$USERR5
 40
0.0
  9
$WORLDVIEW
 70
     1
  9
$SHADEDGE
 70
     3
  9
$SHADEDIF
 70
    70
  9
$TILEMODE
 70
     1
  9
$MAXACTVP
 70
    16
  9
$PINSBASE
 10
0.0
 20
0.0
 30
0.0
  9
$PLIMCHECK
 70
     0
  9
$PEXTMIN
 10
1.000000000000000E+20
 20
1.000000000000000E+20
 30
1.000000000000000E+20
  9
$PEXTMAX
 10
-1.000000000000000E+20
 20
-1.000000000000000E+20
 30
-1.000000000000000E+20
  9
$PLIMMIN
 10
0.0
 20
0.0
  9
$PLIMMAX
 10
12.0
 20
9.0
  9
$UNITMODE
 70
     0
  9
$VISRETAIN
 70
     0
  9
$PLINEGEN
 70
     0
  9
$PSLTSCALE
 70
     1
  9
$TREEDEPTH
 70
  3020
  9
$PICKSTYLE
 70
     1
  9
$CMLSTYLE
  2
STANDARD
  9
$CMLJUST
 70
     0
  9
$CMLSCALE
 40
1.0
  9
$SAVEIMAGES
 70
     1
  0
ENDSEC
  0
SECTION
  2
CLASSES
  0
CLASS
  1
ACDBDICTIONARYWDFLT
  2
AcDbDictionaryWithDefault
  3
AutoCAD 2000
 90
    32768
280
     0
281
     0
  0
CLASS
  1
ACDBPLACEHOLDER
  2
AcDbPlaceHolder
  3
AutoCAD 2000
 90
    32768
280
     0
281
     0
  0
CLASS
  1
LAYOUT
  2
AcDbLayout
  3
AutoCAD 2000
 90
    32768
280
     0
281
     0
  0
CLASS
  1
LONG_TRANSACTION
  2
AcDbLongTransaction
  3
AutoCAD 2000
 90
    32768
280
     0
281
     0
  0
CLASS
  1
LWPOLYLINE
  2
AcDbPolyline
  3
AutoCAD 2000
 90
    32768
280
     0
281
     1
  0
CLASS
  1
HATCH
  2
AcDbHatch
  3
AutoCAD 2000
 90
    32768
280
     0
281
     1
  0
CLASS
  1
XRECORD
  2
AcDbXrecord
  3
AutoCAD 2000
 90
    32768
280
     0
281
     0
  0
ENDSEC
  0
SECTION
  2
TABLES
  0
TABLE
  2
VPORT
  5
8
330
0
100
AcDbSymbolTable
 70
     3
  0
VPORT
  5
46CD
330
8
100
AcDbSymbolTableRecord
100
AcDbViewportTableRecord
  2
*ACTIVE
 70
     0
 10
0.0
 20
0.0
 11
1.0
 21
1.0
 12
14.14773563312801
 22
13.38690951616376
 13
0.0
 23
0.0
 14
1.0
 24
1.0
 15
0.0
 25
0.0
 16
0.0
 26
0.0
 36
1.0
 17
0.0
 27
0.0
 37
0.0
 40
3.985977236243661
 41
1.618610747051113
 42
50.0
 43
0.0
 44
0.0
 50
0.0
 51
0.0
 71
     0
 72
   100
 73
     1
 74
     1
 75
     0
 76
     0
 77
     0
 78
     0
  0
ENDTAB
  0
TABLE
  2
LTYPE
  5
5
330
0
100
AcDbSymbolTable
 70
    25
  0
LTYPE
  5
13
330
5
100
AcDbSymbolTableRecord
100
AcDbLinetypeTableRecord
  2
BYBLOCK
 70
     0
  3

 72
    65
 73
     0
 40
0.0
  0
LTYPE
  5
14
330
5
100
AcDbSymbolTableRecord
100
AcDbLinetypeTableRecord
  2
BYLAYER
 70
     0
  3

 72
    65
 73
     0
 40
0.0
  0
LTYPE
  5
15
330
5
100
AcDbSymbolTableRecord
100
AcDbLinetypeTableRecord
  2
CONTINUOUS
 70
     0
  3
Solid line
 72
    65
 73
     0
 40
0.0
  0
LTYPE
  5
22
330
5
100
AcDbSymbolTableRecord
100
AcDbLinetypeTableRecord
  2
BORDER
 70
     0
  3
__ __ . __ __ . __ __ . __ __ . __ __ . __ __ .
 72
    65
 73
     6
 40
1.75
 49
0.5
 74
     0
 49
-0.25
 74
     0
 49
0.5
 74
     0
 49
-0.25
 74
     0
 49
0.5
 74
     0
 49
-0.25
 74
     0
  0
LTYPE
  5
23
330
5
100
AcDbSymbolTableRecord
100
AcDbLinetypeTableRecord
  2
BORDER2
 70
     0
  3
__.__.__.__.__.__.__.__.__.__.__.__.__.__.__.__
 72
    65
 73
     6
 40
0.875
 49
0.25
 74
     0
 49
-0.125
 74
     0
 49
0.25
 74
     0
 49
-0.125
 74
     0
 49
0.25
 74
     0
 49
-0.125
 74
     0
  0
LTYPE
  5
24
330
5
100
AcDbSymbolTableRecord
100
AcDbLinetypeTableRecord
  2
BORDERX2
 70
     0
  3
____  ____  .  ____  ____  .  
 72
    65
 73
     6
 40
3.5
 49
1.0
 74
     0
 49
-0.5
 74
     0
 49
1.0
 74
     0
 49
-0.5
 74
     0
 49
1.0
 74
     0
 49
-0.5
 74
     0
  0
LTYPE
  5
25
330
5
100
AcDbSymbolTableRecord
100
AcDbLinetypeTableRecord
  2
CENTER
 70
     0
  3
____ _ ____ _ ____ _ ____ _ ____ _ ____ _ ____
 72
    65
 73
     4
 40
2.0
 49
1.25
 74
     0
 49
-0.25
 74
     0
 49
0.25
 74
     0
 49
-0.25
 74
     0
  0
LTYPE
  5
26
330
5
100
AcDbSymbolTableRecord
100
AcDbLinetypeTableRecord
  2
CENTER2
 70
     0
  3
____ _ ____ _ ____ _ ____ _ ____ _ ____ _ ____
 72
    65
 73
     4
 40
1.125
 49
0.75
 74
     0
 49
-0.125
 74
     0
 49
0.125
 74
     0
 49
-0.125
 74
     0
  0
LTYPE
  5
27
330
5
100
AcDbSymbolTableRecord
100
AcDbLinetypeTableRecord
  2
CENTERX2
 70
     0
  3
________  __  ________  __  ________  __  
 72
    65
 73
     4
 40
4.0
 49
2.5
 74
     0
 49
-0.5
 74
     0
 49
0.5
 74
     0
 49
-0.5
 74
     0
  0
LTYPE
  5
28
330
5
100
AcDbSymbolTableRecord
100
AcDbLinetypeTableRecord
  2
DASHDOT
 70
     0
  3
__ . __ . __ . __ . __ . __ . __ . 
 72
    65
 73
     4
 40
1.0
 49
0.5
 74
     0
 49
-0.25
 74
     0
 49
0.0
 74
     0
 49
-0.25
 74
     0
  0
LTYPE
  5
29
330
5
100
AcDbSymbolTableRecord
100
AcDbLinetypeTableRecord
  2
DASHDOT2
 70
     0
  3
_._._._._._._._._._._._._._._._.
 72
    65
 73
     4
 40
0.5
 49
0.25
 74
     0
 49
-0.125
 74
     0
 49
0.0
 74
     0
 49
-0.125
 74
     0
  0
LTYPE
  5
2A
330
5
100
AcDbSymbolTableRecord
100
AcDbLinetypeTableRecord
  2
DASHDOTX2
 70
     0
  3
____  .  ____  .  ____  .  ____  .  
 72
    65
 73
     4
 40
2.0
 49
1.0
 74
     0
 49
-0.5
 74
     0
 49
0.0
 74
     0
 49
-0.5
 74
     0
  0
LTYPE
  5
2B
330
5
100
AcDbSymbolTableRecord
100
AcDbLinetypeTableRecord
  2
DASHED
 70
     0
  3
__ __ __ __ __ __ __ __ __ __ __ __ 
 72
    65
 73
     2
 40
0.75
 49
0.5
 74
     0
 49
-0.25
 74
     0
  0
LTYPE
  5
2C
330
5
100
AcDbSymbolTableRecord
100
AcDbLinetypeTableRecord
  2
DASHED2
 70
     0
  3
_ _ _ _ _ _ _ _ _ _ _ _ _ _ _ _ _ _ 
 72
    65
 73
     2
 40
0.375
 49
0.25
 74
     0
 49
-0.125
 74
     0
  0
LTYPE
  5
2D
330
5
100
AcDbSymbolTableRecord
100
AcDbLinetypeTableRecord
  2
DASHEDX2
 70
     0
  3
____  ____  ____  ____  ____  ____  
 72
    65
 73
     2
 40
1.5
 49
1.0
 74
     0
 49
-0.5
 74
     0
  0
LTYPE
  5
2E
330
5
100
AcDbSymbolTableRecord
100
AcDbLinetypeTableRecord
  2
DIVIDE
 70
     0
  3
____ . . ____ . . ____ . . ____ . . 
 72
    65
 73
     6
 40
1.25
 49
0.5
 74
     0
 49
-0.25
 74
     0
 49
0.0
 74
     0
 49
-0.25
 74
     0
 49
0.0
 74
     0
 49
-0.25
 74
     0
  0
LTYPE
  5
2F
330
5
100
AcDbSymbolTableRecord
100
AcDbLinetypeTableRecord
  2
DIVIDE2
 70
     0
  3
__..__..__..__..__..__..__..__..__..
 72
    65
 73
     6
 40
0.625
 49
0.25
 74
     0
 49
-0.125
 74
     0
 49
0.0
 74
     0
 49
-0.125
 74
     0
 49
0.0
 74
     0
 49
-0.125
 74
     0
  0
LTYPE
  5
30
330
5
100
AcDbSymbolTableRecord
100
AcDbLinetypeTableRecord
  2
DIVIDEX2
 70
     0
  3
________  .  .  ________  .  .  ________  .  . 
 72
    65
 73
     6
 40
2.5
 49
1.0
 74
     0
 49
-0.5
 74
     0
 49
0.0
 74
     0
 49
-0.5
 74
     0
 49
0.0
 74
     0
 49
-0.5
 74
     0
  0
LTYPE
  5
31
330
5
100
AcDbSymbolTableRecord
100
AcDbLinetypeTableRecord
  2
DOT
 70
     0
  3
. . . . . . . . . . . . . . . . . . 
 72
    65
 73
     2
 40
0.25
 49
0.0
 74
     0
 49
-0.25
 74
     0
  0
LTYPE
  5
32
330
5
100
AcDbSymbolTableRecord
100
AcDbLinetypeTableRecord
  2
DOT2
 70
     0
  3
....................................
 72
    65
 73
     2
 40
0.125
 49
0.0
 74
     0
 49
-0.125
 74
     0
  0
LTYPE
  5
33
330
5
100
AcDbSymbolTableRecord
100
AcDbLinetypeTableRecord
  2
DOTX2
 70
     0
  3
.  .  .  .  .  .  .  .  .  .  .  .  .  
 72
    65
 73
     2
 40
0.5
 49
0.0
 74
     0
 49
-0.5
 74
     0
  0
LTYPE
  5
34
330
5
100
AcDbSymbolTableRecord
100
AcDbLinetypeTableRecord
  2
HIDDEN
 70
     0
  3
__ __ __ __ __ __ __ __ __ __ __ __ 
 72
    65
 73
     2
 40
0.375
 49
0.25
 74
     0
 49
-0.125
 74
     0
  0
LTYPE
  5
35
330
5
100
AcDbSymbolTableRecord
100
AcDbLinetypeTableRecord
  2
HIDDEN2
 70
     0
  3
_ _ _ _ _ _ _ _ _ _ _ _ _ _ _ _ _ _ 
 72
    65
 73
     2
 40
0.1875
 49
0.125
 74
     0
 49
-0.0625
 74
     0
  0
LTYPE
  5
36
330
5
100
AcDbSymbolTableRecord
100
AcDbLinetypeTableRecord
  2
HIDDENX2
 70
     0
  3
____ ____ ____ ____ ____ ____ ____ 
 72
    65
 73
     2
 40
0.75
 49
0.5
 74
     0
 49
-0.25
 74
     0
  0
LTYPE
  5
37
330
5
100
AcDbSymbolTableRecord
100
AcDbLinetypeTableRecord
  2
PHANTOM
 70
     0
  3
______  __  __  ______  __  __  
 72
    65
 73
     6
 40
2.5
 49
1.25
 74
     0
 49
-0.25
 74
     0
 49
0.25
 74
     0
 49
-0.25
 74
     0
 49
0.25
 74
     0
 49
-0.25
 74
     0
  0
LTYPE
  5
38
330
5
100
AcDbSymbolTableRecord
100
AcDbLinetypeTableRecord
  2
PHANTOM2
 70
     0
  3
___ _ _ ___ _ _ ___ _ _ ___ _ _ 
 72
    65
 73
     6
 40
1.25
 49
0.625
 74
     0
 49
-0.125
 74
     0
 49
0.125
 74
     0
 49
-0.125
 74
     0
 49
0.125
 74
     0
 49
-0.125
 74
     0
  0
LTYPE
  5
39
330
5
100
AcDbSymbolTableRecord
100
AcDbLinetypeTableRecord
  2
PHANTOMX2
 70
     0
  3
___ _ _ ___ _ _ ___ _ _ ___ _ _ 
 72
    65
 73
     6
 40
5.0
 49
2.5
 74
     0
 49
-0.5
 74
     0
 49
0.5
 74
     0
 49
-0.5
 74
     0
 49
0.5
 74
     0
 49
-0.5
 74
     0
  0
ENDTAB
  0
TABLE
  2
LAYER
  5
2
330
0
100
AcDbSymbolTable
 70
   256
  0
LAYER
  5
10
330
2
100
AcDbSymbolTableRecord
100
AcDbLayerTableRecord
  2
0
 70
     0
 62
     7
  6
CONTINUOUS
  0
LAYER
  5
3A
330
2
100
AcDbSymbolTableRecord
100
AcDbLayerTableRecord
  2
1
 70
     0
 62
     1
  6
CONTINUOUS
  0
LAYER
  5
3B
330
2
100
AcDbSymbolTableRecord
100
AcDbLayerTableRecord
  2
2
 70
     0
 62
     2
  6
CONTINUOUS
  0
LAYER
  5
3C
330
2
100
AcDbSymbolTableRecord
100
AcDbLayerTableRecord
  2
3
 70
     0
 62
     3
  6
CONTINUOUS
  0
LAYER
  5
3D
330
2
100
AcDbSymbolTableRecord
100
AcDbLayerTableRecord
  2
4
 70
     0
 62
     4
  6
CONTINUOUS
  0
LAYER
  5
3E
330
2
100
AcDbSymbolTableRecord
100
AcDbLayerTableRecord
  2
5
 70
     0
 62
     5
  6
CONTINUOUS
  0
LAYER
  5
3F
330
2
100
AcDbSymbolTableRecord
100
AcDbLayerTableRecord
  2
6
 70
     0
 62
     6
  6
CONTINUOUS
  0
LAYER
  5
40
330
2
100
AcDbSymbolTableRecord
100
AcDbLayerTableRecord
  2
7
 70
     0
 62
     7
  6
CONTINUOUS
  0
LAYER
  5
41
330
2
100
AcDbSymbolTableRecord
100
AcDbLayerTableRecord
  2
8
 70
     0
 62
     8
  6
CONTINUOUS
  0
LAYER
  5
42
330
2
100
AcDbSymbolTableRecord
100
AcDbLayerTableRecord
  2
9
 70
     0
 62
     9
  6
CONTINUOUS
  0
LAYER
  5
43
330
2
100
AcDbSymbolTableRecord
100
AcDbLayerTableRecord
  2
10
 70
     0
 62
    10
  6
CONTINUOUS
  0
LAYER
  5
44
330
2
100
AcDbSymbolTableRecord
100
AcDbLayerTableRecord
  2
11
 70
     0
 62
    11
  6
CONTINUOUS
  0
LAYER
  5
45
330
2
100
AcDbSymbolTableRecord
100
AcDbLayerTableRecord
  2
12
 70
     0
 62
    12
  6
CONTINUOUS
  0
LAYER
  5
46
330
2
100
AcDbSymbolTableRecord
100
AcDbLayerTableRecord
  2
13
 70
     0
 62
    13
  6
CONTINUOUS
  0
LAYER
  5
47
330
2
100
AcDbSymbolTableRecord
100
AcDbLayerTableRecord
  2
14
 70
     0
 62
    14
  6
CONTINUOUS
  0
LAYER
  5
48
330
2
100
AcDbSymbolTableRecord
100
AcDbLayerTableRecord
  2
15
 70
     0
 62
    15
  6
CONTINUOUS
  0
LAYER
  5
49
330
2
100
AcDbSymbolTableRecord
100
AcDbLayerTableRecord
  2
16
 70
     0
 62
    16
  6
CONTINUOUS
  0
LAYER
  5
4A
330
2
100
AcDbSymbolTableRecord
100
AcDbLayerTableRecord
  2
17
 70
     0
 62
    17
  6
CONTINUOUS
  0
LAYER
  5
4B
330
2
100
AcDbSymbolTableRecord
100
AcDbLayerTableRecord
  2
18
 70
     0
 62
    18
  6
CONTINUOUS
  0
LAYER
  5
4C
330
2
100
AcDbSymbolTableRecord
100
AcDbLayerTableRecord
  2
19
 70
     0
 62
    19
  6
CONTINUOUS
  0
LAYER
  5
4D
330
2
100
AcDbSymbolTableRecord
100
AcDbLayerTableRecord
  2
20
 70
     0
 62
    20
  6
CONTINUOUS
  0
LAYER
  5
4E
330
2
100
AcDbSymbolTableRecord
100
AcDbLayerTableRecord
  2
21
 70
     0
 62
    21
  6
CONTINUOUS
  0
LAYER
  5
4F
330
2
100
AcDbSymbolTableRecord
100
AcDbLayerTableRecord
  2
22
 70
     0
 62
    22
  6
CONTINUOUS
  0
LAYER
  5
50
330
2
100
AcDbSymbolTableRecord
100
AcDbLayerTableRecord
  2
23
 70
     0
 62
    23
  6
CONTINUOUS
  0
LAYER
  5
51
330
2
100
AcDbSymbolTableRecord
100
AcDbLayerTableRecord
  2
24
 70
     0
 62
    24
  6
CONTINUOUS
  0
LAYER
  5
52
330
2
100
AcDbSymbolTableRecord
100
AcDbLayerTableRecord
  2
25
 70
     0
 62
    25
  6
CONTINUOUS
  0
LAYER
  5
53
330
2
100
AcDbSymbolTableRecord
100
AcDbLayerTableRecord
  2
26
 70
     0
 62
    26
  6
CONTINUOUS
  0
LAYER
  5
54
330
2
100
AcDbSymbolTableRecord
100
AcDbLayerTableRecord
  2
27
 70
     0
 62
    27
  6
CONTINUOUS
  0
LAYER
  5
55
330
2
100
AcDbSymbolTableRecord
100
AcDbLayerTableRecord
  2
28
 70
     0
 62
    28
  6
CONTINUOUS
  0
LAYER
  5
56
330
2
100
AcDbSymbolTableRecord
100
AcDbLayerTableRecord
  2
29
 70
     0
 62
    29
  6
CONTINUOUS
  0
LAYER
  5
57
330
2
100
AcDbSymbolTableRecord
100
AcDbLayerTableRecord
  2
30
 70
     0
 62
    30
  6
CONTINUOUS
  0
LAYER
  5
58
330
2
100
AcDbSymbolTableRecord
100
AcDbLayerTableRecord
  2
31
 70
     0
 62
    31
  6
CONTINUOUS
  0
LAYER
  5
59
330
2
100
AcDbSymbolTableRecord
100
AcDbLayerTableRecord
  2
32
 70
     0
 62
    32
  6
CONTINUOUS
  0
LAYER
  5
5A
330
2
100
AcDbSymbolTableRecord
100
AcDbLayerTableRecord
  2
33
 70
     0
 62
    33
  6
CONTINUOUS
  0
LAYER
  5
5B
330
2
100
AcDbSymbolTableRecord
100
AcDbLayerTableRecord
  2
34
 70
     0
 62
    34
  6
CONTINUOUS
  0
LAYER
  5
5C
330
2
100
AcDbSymbolTableRecord
100
AcDbLayerTableRecord
  2
35
 70
     0
 62
    35
  6
CONTINUOUS
  0
LAYER
  5
5D
330
2
100
AcDbSymbolTableRecord
100
AcDbLayerTableRecord
  2
36
 70
     0
 62
    36
  6
CONTINUOUS
  0
LAYER
  5
5E
330
2
100
AcDbSymbolTableRecord
100
AcDbLayerTableRecord
  2
37
 70
     0
 62
    37
  6
CONTINUOUS
  0
LAYER
  5
5F
330
2
100
AcDbSymbolTableRecord
100
AcDbLayerTableRecord
  2
38
 70
     0
 62
    38
  6
CONTINUOUS
  0
LAYER
  5
60
330
2
100
AcDbSymbolTableRecord
100
AcDbLayerTableRecord
  2
39
 70
     0
 62
    39
  6
CONTINUOUS
  0
LAYER
  5
61
330
2
100
AcDbSymbolTableRecord
100
AcDbLayerTableRecord
  2
40
 70
     0
 62
    40
  6
CONTINUOUS
  0
LAYER
  5
62
330
2
100
AcDbSymbolTableRecord
100
AcDbLayerTableRecord
  2
41
 70
     0
 62
    41
  6
CONTINUOUS
  0
LAYER
  5
63
330
2
100
AcDbSymbolTableRecord
100
AcDbLayerTableRecord
  2
42
 70
     0
 62
    42
  6
CONTINUOUS
  0
LAYER
  5
64
330
2
100
AcDbSymbolTableRecord
100
AcDbLayerTableRecord
  2
43
 70
     0
 62
    43
  6
CONTINUOUS
  0
LAYER
  5
65
330
2
100
AcDbSymbolTableRecord
100
AcDbLayerTableRecord
  2
44
 70
     0
 62
    44
  6
CONTINUOUS
  0
LAYER
  5
66
330
2
100
AcDbSymbolTableRecord
100
AcDbLayerTableRecord
  2
45
 70
     0
 62
    45
  6
CONTINUOUS
  0
LAYER
  5
67
330
2
100
AcDbSymbolTableRecord
100
AcDbLayerTableRecord
  2
46
 70
     0
 62
    46
  6
CONTINUOUS
  0
LAYER
  5
68
330
2
100
AcDbSymbolTableRecord
100
AcDbLayerTableRecord
  2
47
 70
     0
 62
    47
  6
CONTINUOUS
  0
LAYER
  5
69
330
2
100
AcDbSymbolTableRecord
100
AcDbLayerTableRecord
  2
48
 70
     0
 62
    48
  6
CONTINUOUS
  0
LAYER
  5
6A
330
2
100
AcDbSymbolTableRecord
100
AcDbLayerTableRecord
  2
49
 70
     0
 62
    49
  6
CONTINUOUS
  0
LAYER
  5
6B
330
2
100
AcDbSymbolTableRecord
100
AcDbLayerTableRecord
  2
50
 70
     0
 62
    50
  6
CONTINUOUS
  0
LAYER
  5
6C
330
2
100
AcDbSymbolTableRecord
100
AcDbLayerTableRecord
  2
51
 70
     0
 62
    51
  6
CONTINUOUS
  0
LAYER
  5
6D
330
2
100
AcDbSymbolTableRecord
100
AcDbLayerTableRecord
  2
52
 70
     0
 62
    52
  6
CONTINUOUS
  0
LAYER
  5
6E
330
2
100
AcDbSymbolTableRecord
100
AcDbLayerTableRecord
  2
53
 70
     0
 62
    53
  6
CONTINUOUS
  0
LAYER
  5
6F
330
2
100
AcDbSymbolTableRecord
100
AcDbLayerTableRecord
  2
54
 70
     0
 62
    54
  6
CONTINUOUS
  0
LAYER
  5
70
330
2
100
AcDbSymbolTableRecord
100
AcDbLayerTableRecord
  2
55
 70
     0
 62
    55
  6
CONTINUOUS
  0
LAYER
  5
71
330
2
100
AcDbSymbolTableRecord
100
AcDbLayerTableRecord
  2
56
 70
     0
 62
    56
  6
CONTINUOUS
  0
LAYER
  5
72
330
2
100
AcDbSymbolTableRecord
100
AcDbLayerTableRecord
  2
57
 70
     0
 62
    57
  6
CONTINUOUS
  0
LAYER
  5
73
330
2
100
AcDbSymbolTableRecord
100
AcDbLayerTableRecord
  2
58
 70
     0
 62
    58
  6
CONTINUOUS
  0
LAYER
  5
74
330
2
100
AcDbSymbolTableRecord
100
AcDbLayerTableRecord
  2
59
 70
     0
 62
    59
  6
CONTINUOUS
  0
LAYER
  5
75
330
2
100
AcDbSymbolTableRecord
100
AcDbLayerTableRecord
  2
60
 70
     0
 62
    60
  6
CONTINUOUS
  0
LAYER
  5
76
330
2
100
AcDbSymbolTableRecord
100
AcDbLayerTableRecord
  2
61
 70
     0
 62
    61
  6
CONTINUOUS
  0
LAYER
  5
77
330
2
100
AcDbSymbolTableRecord
100
AcDbLayerTableRecord
  2
62
 70
     0
 62
    62
  6
CONTINUOUS
  0
LAYER
  5
78
330
2
100
AcDbSymbolTableRecord
100
AcDbLayerTableRecord
  2
63
 70
     0
 62
    63
  6
CONTINUOUS
  0
LAYER
  5
79
330
2
100
AcDbSymbolTableRecord
100
AcDbLayerTableRecord
  2
64
 70
     0
 62
    64
  6
CONTINUOUS
  0
LAYER
  5
7A
330
2
100
AcDbSymbolTableRecord
100
AcDbLayerTableRecord
  2
65
 70
     0
 62
    65
  6
CONTINUOUS
  0
LAYER
  5
7B
330
2
100
AcDbSymbolTableRecord
100
AcDbLayerTableRecord
  2
66
 70
     0
 62
    66
  6
CONTINUOUS
  0
LAYER
  5
7C
330
2
100
AcDbSymbolTableRecord
100
AcDbLayerTableRecord
  2
67
 70
     0
 62
    67
  6
CONTINUOUS
  0
LAYER
  5
7D
330
2
100
AcDbSymbolTableRecord
100
AcDbLayerTableRecord
  2
68
 70
     0
 62
    68
  6
CONTINUOUS
  0
LAYER
  5
7E
330
2
100
AcDbSymbolTableRecord
100
AcDbLayerTableRecord
  2
69
 70
     0
 62
    69
  6
CONTINUOUS
  0
LAYER
  5
7F
330
2
100
AcDbSymbolTableRecord
100
AcDbLayerTableRecord
  2
70
 70
     0
 62
    70
  6
CONTINUOUS
  0
LAYER
  5
80
330
2
100
AcDbSymbolTableRecord
100
AcDbLayerTableRecord
  2
71
 70
     0
 62
    71
  6
CONTINUOUS
  0
LAYER
  5
81
330
2
100
AcDbSymbolTableRecord
100
AcDbLayerTableRecord
  2
72
 70
     0
 62
    72
  6
CONTINUOUS
  0
LAYER
  5
82
330
2
100
AcDbSymbolTableRecord
100
AcDbLayerTableRecord
  2
73
 70
     0
 62
    73
  6
CONTINUOUS
  0
LAYER
  5
83
330
2
100
AcDbSymbolTableRecord
100
AcDbLayerTableRecord
  2
74
 70
     0
 62
    74
  6
CONTINUOUS
  0
LAYER
  5
84
330
2
100
AcDbSymbolTableRecord
100
AcDbLayerTableRecord
  2
75
 70
     0
 62
    75
  6
CONTINUOUS
  0
LAYER
  5
85
330
2
100
AcDbSymbolTableRecord
100
AcDbLayerTableRecord
  2
76
 70
     0
 62
    76
  6
CONTINUOUS
  0
LAYER
  5
86
330
2
100
AcDbSymbolTableRecord
100
AcDbLayerTableRecord
  2
77
 70
     0
 62
    77
  6
CONTINUOUS
  0
LAYER
  5
87
330
2
100
AcDbSymbolTableRecord
100
AcDbLayerTableRecord
  2
78
 70
     0
 62
    78
  6
CONTINUOUS
  0
LAYER
  5
88
330
2
100
AcDbSymbolTableRecord
100
AcDbLayerTableRecord
  2
79
 70
     0
 62
    79
  6
CONTINUOUS
  0
LAYER
  5
89
330
2
100
AcDbSymbolTableRecord
100
AcDbLayerTableRecord
  2
80
 70
     0
 62
    80
  6
CONTINUOUS
  0
LAYER
  5
8A
330
2
100
AcDbSymbolTableRecord
100
AcDbLayerTableRecord
  2
81
 70
     0
 62
    81
  6
CONTINUOUS
  0
LAYER
  5
8B
330
2
100
AcDbSymbolTableRecord
100
AcDbLayerTableRecord
  2
82
 70
     0
 62
    82
  6
CONTINUOUS
  0
LAYER
  5
8C
330
2
100
AcDbSymbolTableRecord
100
AcDbLayerTableRecord
  2
83
 70
     0
 62
    83
  6
CONTINUOUS
  0
LAYER
  5
8D
330
2
100
AcDbSymbolTableRecord
100
AcDbLayerTableRecord
  2
84
 70
     0
 62
    84
  6
CONTINUOUS
  0
LAYER
  5
8E
330
2
100
AcDbSymbolTableRecord
100
AcDbLayerTableRecord
  2
85
 70
     0
 62
    85
  6
CONTINUOUS
  0
LAYER
  5
8F
330
2
100
AcDbSymbolTableRecord
100
AcDbLayerTableRecord
  2
86
 70
     0
 62
    86
  6
CONTINUOUS
  0
LAYER
  5
90
330
2
100
AcDbSymbolTableRecord
100
AcDbLayerTableRecord
  2
87
 70
     0
 62
    87
  6
CONTINUOUS
  0
LAYER
  5
91
330
2
100
AcDbSymbolTableRecord
100
AcDbLayerTableRecord
  2
88
 70
     0
 62
    88
  6
CONTINUOUS
  0
LAYER
  5
92
330
2
100
AcDbSymbolTableRecord
100
AcDbLayerTableRecord
  2
89
 70
     0
 62
    89
  6
CONTINUOUS
  0
LAYER
  5
93
330
2
100
AcDbSymbolTableRecord
100
AcDbLayerTableRecord
  2
90
 70
     0
 62
    90
  6
CONTINUOUS
  0
LAYER
  5
94
330
2
100
AcDbSymbolTableRecord
100
AcDbLayerTableRecord
  2
91
 70
     0
 62
    91
  6
CONTINUOUS
  0
LAYER
  5
95
330
2
100
AcDbSymbolTableRecord
100
AcDbLayerTableRecord
  2
92
 70
     0
 62
    92
  6
CONTINUOUS
  0
LAYER
  5
96
330
2
100
AcDbSymbolTableRecord
100
AcDbLayerTableRecord
  2
93
 70
     0
 62
    93
  6
CONTINUOUS
  0
LAYER
  5
97
330
2
100
AcDbSymbolTableRecord
100
AcDbLayerTableRecord
  2
94
 70
     0
 62
    94
  6
CONTINUOUS
  0
LAYER
  5
98
330
2
100
AcDbSymbolTableRecord
100
AcDbLayerTableRecord
  2
95
 70
     0
 62
    95
  6
CONTINUOUS
  0
LAYER
  5
99
330
2
100
AcDbSymbolTableRecord
100
AcDbLayerTableRecord
  2
96
 70
     0
 62
    96
  6
CONTINUOUS
  0
LAYER
  5
9A
330
2
100
AcDbSymbolTableRecord
100
AcDbLayerTableRecord
  2
97
 70
     0
 62
    97
  6
CONTINUOUS
  0
LAYER
  5
9B
330
2
100
AcDbSymbolTableRecord
100
AcDbLayerTableRecord
  2
98
 70
     0
 62
    98
  6
CONTINUOUS
  0
LAYER
  5
9C
330
2
100
AcDbSymbolTableRecord
100
AcDbLayerTableRecord
  2
99
 70
     0
 62
    99
  6
CONTINUOUS
  0
LAYER
  5
9D
330
2
100
AcDbSymbolTableRecord
100
AcDbLayerTableRecord
  2
100
 70
     0
 62
   100
  6
CONTINUOUS
  0
LAYER
  5
9E
330
2
100
AcDbSymbolTableRecord
100
AcDbLayerTableRecord
  2
101
 70
     0
 62
   101
  6
CONTINUOUS
  0
LAYER
  5
9F
330
2
100
AcDbSymbolTableRecord
100
AcDbLayerTableRecord
  2
102
 70
     0
 62
   102
  6
CONTINUOUS
  0
LAYER
  5
A0
330
2
100
AcDbSymbolTableRecord
100
AcDbLayerTableRecord
  2
103
 70
     0
 62
   103
  6
CONTINUOUS
  0
LAYER
  5
A1
330
2
100
AcDbSymbolTableRecord
100
AcDbLayerTableRecord
  2
104
 70
     0
 62
   104
  6
CONTINUOUS
  0
LAYER
  5
A2
330
2
100
AcDbSymbolTableRecord
100
AcDbLayerTableRecord
  2
105
 70
     0
 62
   105
  6
CONTINUOUS
  0
LAYER
  5
A3
330
2
100
AcDbSymbolTableRecord
100
AcDbLayerTableRecord
  2
106
 70
     0
 62
   106
  6
CONTINUOUS
  0
LAYER
  5
A4
330
2
100
AcDbSymbolTableRecord
100
AcDbLayerTableRecord
  2
107
 70
     0
 62
   107
  6
CONTINUOUS
  0
LAYER
  5
A5
330
2
100
AcDbSymbolTableRecord
100
AcDbLayerTableRecord
  2
108
 70
     0
 62
   108
  6
CONTINUOUS
  0
LAYER
  5
A6
330
2
100
AcDbSymbolTableRecord
100
AcDbLayerTableRecord
  2
109
 70
     0
 62
   109
  6
CONTINUOUS
  0
LAYER
  5
A7
330
2
100
AcDbSymbolTableRecord
100
AcDbLayerTableRecord
  2
110
 70
     0
 62
   110
  6
CONTINUOUS
  0
LAYER
  5
A8
330
2
100
AcDbSymbolTableRecord
100
AcDbLayerTableRecord
  2
111
 70
     0
 62
   111
  6
CONTINUOUS
  0
LAYER
  5
A9
330
2
100
AcDbSymbolTableRecord
100
AcDbLayerTableRecord
  2
112
 70
     0
 62
   112
  6
CONTINUOUS
  0
LAYER
  5
AA
330
2
100
AcDbSymbolTableRecord
100
AcDbLayerTableRecord
  2
113
 70
     0
 62
   113
  6
CONTINUOUS
  0
LAYER
  5
AB
330
2
100
AcDbSymbolTableRecord
100
AcDbLayerTableRecord
  2
114
 70
     0
 62
   114
  6
CONTINUOUS
  0
LAYER
  5
AC
330
2
100
AcDbSymbolTableRecord
100
AcDbLayerTableRecord
  2
115
 70
     0
 62
   115
  6
CONTINUOUS
  0
LAYER
  5
AD
330
2
100
AcDbSymbolTableRecord
100
AcDbLayerTableRecord
  2
116
 70
     0
 62
   116
  6
CONTINUOUS
  0
LAYER
  5
AE
330
2
100
AcDbSymbolTableRecord
100
AcDbLayerTableRecord
  2
117
 70
     0
 62
   117
  6
CONTINUOUS
  0
LAYER
  5
AF
330
2
100
AcDbSymbolTableRecord
100
AcDbLayerTableRecord
  2
118
 70
     0
 62
   118
  6
CONTINUOUS
  0
LAYER
  5
B0
330
2
100
AcDbSymbolTableRecord
100
AcDbLayerTableRecord
  2
119
 70
     0
 62
   119
  6
CONTINUOUS
  0
LAYER
  5
B1
330
2
100
AcDbSymbolTableRecord
100
AcDbLayerTableRecord
  2
120
 70
     0
 62
   120
  6
CONTINUOUS
  0
LAYER
  5
B2
330
2
100
AcDbSymbolTableRecord
100
AcDbLayerTableRecord
  2
121
 70
     0
 62
   121
  6
CONTINUOUS
  0
LAYER
  5
B3
330
2
100
AcDbSymbolTableRecord
100
AcDbLayerTableRecord
  2
122
 70
     0
 62
   122
  6
CONTINUOUS
  0
LAYER
  5
B4
330
2
100
AcDbSymbolTableRecord
100
AcDbLayerTableRecord
  2
123
 70
     0
 62
   123
  6
CONTINUOUS
  0
LAYER
  5
B5
330
2
100
AcDbSymbolTableRecord
100
AcDbLayerTableRecord
  2
124
 70
     0
 62
   124
  6
CONTINUOUS
  0
LAYER
  5
B6
330
2
100
AcDbSymbolTableRecord
100
AcDbLayerTableRecord
  2
125
 70
     0
 62
   125
  6
CONTINUOUS
  0
LAYER
  5
B7
330
2
100
AcDbSymbolTableRecord
100
AcDbLayerTableRecord
  2
126
 70
     0
 62
   126
  6
CONTINUOUS
  0
LAYER
  5
B8
330
2
100
AcDbSymbolTableRecord
100
AcDbLayerTableRecord
  2
127
 70
     0
 62
   127
  6
CONTINUOUS
  0
LAYER
  5
B9
330
2
100
AcDbSymbolTableRecord
100
AcDbLayerTableRecord
  2
128
 70
     0
 62
   128
  6
CONTINUOUS
  0
LAYER
  5
BA
330
2
100
AcDbSymbolTableRecord
100
AcDbLayerTableRecord
  2
129
 70
     0
 62
   129
  6
CONTINUOUS
  0
LAYER
  5
BB
330
2
100
AcDbSymbolTableRecord
100
AcDbLayerTableRecord
  2
130
 70
     0
 62
   130
  6
CONTINUOUS
  0
LAYER
  5
BC
330
2
100
AcDbSymbolTableRecord
100
AcDbLayerTableRecord
  2
131
 70
     0
 62
   131
  6
CONTINUOUS
  0
LAYER
  5
BD
330
2
100
AcDbSymbolTableRecord
100
AcDbLayerTableRecord
  2
132
 70
     0
 62
   132
  6
CONTINUOUS
  0
LAYER
  5
BE
330
2
100
AcDbSymbolTableRecord
100
AcDbLayerTableRecord
  2
133
 70
     0
 62
   133
  6
CONTINUOUS
  0
LAYER
  5
BF
330
2
100
AcDbSymbolTableRecord
100
AcDbLayerTableRecord
  2
134
 70
     0
 62
   134
  6
CONTINUOUS
  0
LAYER
  5
C0
330
2
100
AcDbSymbolTableRecord
100
AcDbLayerTableRecord
  2
135
 70
     0
 62
   135
  6
CONTINUOUS
  0
LAYER
  5
C1
330
2
100
AcDbSymbolTableRecord
100
AcDbLayerTableRecord
  2
136
 70
     0
 62
   136
  6
CONTINUOUS
  0
LAYER
  5
C2
330
2
100
AcDbSymbolTableRecord
100
AcDbLayerTableRecord
  2
137
 70
     0
 62
   137
  6
CONTINUOUS
  0
LAYER
  5
C3
330
2
100
AcDbSymbolTableRecord
100
AcDbLayerTableRecord
  2
138
 70
     0
 62
   138
  6
CONTINUOUS
  0
LAYER
  5
C4
330
2
100
AcDbSymbolTableRecord
100
AcDbLayerTableRecord
  2
139
 70
     0
 62
   139
  6
CONTINUOUS
  0
LAYER
  5
C5
330
2
100
AcDbSymbolTableRecord
100
AcDbLayerTableRecord
  2
140
 70
     0
 62
   140
  6
CONTINUOUS
  0
LAYER
  5
C6
330
2
100
AcDbSymbolTableRecord
100
AcDbLayerTableRecord
  2
141
 70
     0
 62
   141
  6
CONTINUOUS
  0
LAYER
  5
C7
330
2
100
AcDbSymbolTableRecord
100
AcDbLayerTableRecord
  2
142
 70
     0
 62
   142
  6
CONTINUOUS
  0
LAYER
  5
C8
330
2
100
AcDbSymbolTableRecord
100
AcDbLayerTableRecord
  2
143
 70
     0
 62
   143
  6
CONTINUOUS
  0
LAYER
  5
C9
330
2
100
AcDbSymbolTableRecord
100
AcDbLayerTableRecord
  2
144
 70
     0
 62
   144
  6
CONTINUOUS
  0
LAYER
  5
CA
330
2
100
AcDbSymbolTableRecord
100
AcDbLayerTableRecord
  2
145
 70
     0
 62
   145
  6
CONTINUOUS
  0
LAYER
  5
CB
330
2
100
AcDbSymbolTableRecord
100
AcDbLayerTableRecord
  2
146
 70
     0
 62
   146
  6
CONTINUOUS
  0
LAYER
  5
CC
330
2
100
AcDbSymbolTableRecord
100
AcDbLayerTableRecord
  2
147
 70
     0
 62
   147
  6
CONTINUOUS
  0
LAYER
  5
CD
330
2
100
AcDbSymbolTableRecord
100
AcDbLayerTableRecord
  2
148
 70
     0
 62
   148
  6
CONTINUOUS
  0
LAYER
  5
CE
330
2
100
AcDbSymbolTableRecord
100
AcDbLayerTableRecord
  2
149
 70
     0
 62
   149
  6
CONTINUOUS
  0
LAYER
  5
CF
330
2
100
AcDbSymbolTableRecord
100
AcDbLayerTableRecord
  2
150
 70
     0
 62
   150
  6
CONTINUOUS
  0
LAYER
  5
D0
330
2
100
AcDbSymbolTableRecord
100
AcDbLayerTableRecord
  2
151
 70
     0
 62
   151
  6
CONTINUOUS
  0
LAYER
  5
D1
330
2
100
AcDbSymbolTableRecord
100
AcDbLayerTableRecord
  2
152
 70
     0
 62
   152
  6
CONTINUOUS
  0
LAYER
  5
D2
330
2
100
AcDbSymbolTableRecord
100
AcDbLayerTableRecord
  2
153
 70
     0
 62
   153
  6
CONTINUOUS
  0
LAYER
  5
D3
330
2
100
AcDbSymbolTableRecord
100
AcDbLayerTableRecord
  2
154
 70
     0
 62
   154
  6
CONTINUOUS
  0
LAYER
  5
D4
330
2
100
AcDbSymbolTableRecord
100
AcDbLayerTableRecord
  2
155
 70
     0
 62
   155
  6
CONTINUOUS
  0
LAYER
  5
D5
330
2
100
AcDbSymbolTableRecord
100
AcDbLayerTableRecord
  2
156
 70
     0
 62
   156
  6
CONTINUOUS
  0
LAYER
  5
D6
330
2
100
AcDbSymbolTableRecord
100
AcDbLayerTableRecord
  2
157
 70
     0
 62
   157
  6
CONTINUOUS
  0
LAYER
  5
D7
330
2
100
AcDbSymbolTableRecord
100
AcDbLayerTableRecord
  2
158
 70
     0
 62
   158
  6
CONTINUOUS
  0
LAYER
  5
D8
330
2
100
AcDbSymbolTableRecord
100
AcDbLayerTableRecord
  2
159
 70
     0
 62
   159
  6
CONTINUOUS
  0
LAYER
  5
D9
330
2
100
AcDbSymbolTableRecord
100
AcDbLayerTableRecord
  2
160
 70
     0
 62
   160
  6
CONTINUOUS
  0
LAYER
  5
DA
330
2
100
AcDbSymbolTableRecord
100
AcDbLayerTableRecord
  2
161
 70
     0
 62
   161
  6
CONTINUOUS
  0
LAYER
  5
DB
330
2
100
AcDbSymbolTableRecord
100
AcDbLayerTableRecord
  2
162
 70
     0
 62
   162
  6
CONTINUOUS
  0
LAYER
  5
DC
330
2
100
AcDbSymbolTableRecord
100
AcDbLayerTableRecord
  2
163
 70
     0
 62
   163
  6
CONTINUOUS
  0
LAYER
  5
DD
330
2
100
AcDbSymbolTableRecord
100
AcDbLayerTableRecord
  2
164
 70
     0
 62
   164
  6
CONTINUOUS
  0
LAYER
  5
DE
330
2
100
AcDbSymbolTableRecord
100
AcDbLayerTableRecord
  2
165
 70
     0
 62
   165
  6
CONTINUOUS
  0
LAYER
  5
DF
330
2
100
AcDbSymbolTableRecord
100
AcDbLayerTableRecord
  2
166
 70
     0
 62
   166
  6
CONTINUOUS
  0
LAYER
  5
E0
330
2
100
AcDbSymbolTableRecord
100
AcDbLayerTableRecord
  2
167
 70
     0
 62
   167
  6
CONTINUOUS
  0
LAYER
  5
E1
330
2
100
AcDbSymbolTableRecord
100
AcDbLayerTableRecord
  2
168
 70
     0
 62
   168
  6
CONTINUOUS
  0
LAYER
  5
E2
330
2
100
AcDbSymbolTableRecord
100
AcDbLayerTableRecord
  2
169
 70
     0
 62
   169
  6
CONTINUOUS
  0
LAYER
  5
E3
330
2
100
AcDbSymbolTableRecord
100
AcDbLayerTableRecord
  2
170
 70
     0
 62
   170
  6
CONTINUOUS
  0
LAYER
  5
E4
330
2
100
AcDbSymbolTableRecord
100
AcDbLayerTableRecord
  2
171
 70
     0
 62
   171
  6
CONTINUOUS
  0
LAYER
  5
E5
330
2
100
AcDbSymbolTableRecord
100
AcDbLayerTableRecord
  2
172
 70
     0
 62
   172
  6
CONTINUOUS
  0
LAYER
  5
E6
330
2
100
AcDbSymbolTableRecord
100
AcDbLayerTableRecord
  2
173
 70
     0
 62
   173
  6
CONTINUOUS
  0
LAYER
  5
E7
330
2
100
AcDbSymbolTableRecord
100
AcDbLayerTableRecord
  2
174
 70
     0
 62
   174
  6
CONTINUOUS
  0
LAYER
  5
E8
330
2
100
AcDbSymbolTableRecord
100
AcDbLayerTableRecord
  2
175
 70
     0
 62
   175
  6
CONTINUOUS
  0
LAYER
  5
E9
330
2
100
AcDbSymbolTableRecord
100
AcDbLayerTableRecord
  2
176
 70
     0
 62
   176
  6
CONTINUOUS
  0
LAYER
  5
EA
330
2
100
AcDbSymbolTableRecord
100
AcDbLayerTableRecord
  2
177
 70
     0
 62
   177
  6
CONTINUOUS
  0
LAYER
  5
EB
330
2
100
AcDbSymbolTableRecord
100
AcDbLayerTableRecord
  2
178
 70
     0
 62
   178
  6
CONTINUOUS
  0
LAYER
  5
EC
330
2
100
AcDbSymbolTableRecord
100
AcDbLayerTableRecord
  2
179
 70
     0
 62
   179
  6
CONTINUOUS
  0
LAYER
  5
ED
330
2
100
AcDbSymbolTableRecord
100
AcDbLayerTableRecord
  2
180
 70
     0
 62
   180
  6
CONTINUOUS
  0
LAYER
  5
EE
330
2
100
AcDbSymbolTableRecord
100
AcDbLayerTableRecord
  2
181
 70
     0
 62
   181
  6
CONTINUOUS
  0
LAYER
  5
EF
330
2
100
AcDbSymbolTableRecord
100
AcDbLayerTableRecord
  2
182
 70
     0
 62
   182
  6
CONTINUOUS
  0
LAYER
  5
F0
330
2
100
AcDbSymbolTableRecord
100
AcDbLayerTableRecord
  2
183
 70
     0
 62
   183
  6
CONTINUOUS
  0
LAYER
  5
F1
330
2
100
AcDbSymbolTableRecord
100
AcDbLayerTableRecord
  2
184
 70
     0
 62
   184
  6
CONTINUOUS
  0
LAYER
  5
F2
330
2
100
AcDbSymbolTableRecord
100
AcDbLayerTableRecord
  2
185
 70
     0
 62
   185
  6
CONTINUOUS
  0
LAYER
  5
F3
330
2
100
AcDbSymbolTableRecord
100
AcDbLayerTableRecord
  2
186
 70
     0
 62
   186
  6
CONTINUOUS
  0
LAYER
  5
F4
330
2
100
AcDbSymbolTableRecord
100
AcDbLayerTableRecord
  2
187
 70
     0
 62
   187
  6
CONTINUOUS
  0
LAYER
  5
F5
330
2
100
AcDbSymbolTableRecord
100
AcDbLayerTableRecord
  2
188
 70
     0
 62
   188
  6
CONTINUOUS
  0
LAYER
  5
F6
330
2
100
AcDbSymbolTableRecord
100
AcDbLayerTableRecord
  2
189
 70
     0
 62
   189
  6
CONTINUOUS
  0
LAYER
  5
F7
330
2
100
AcDbSymbolTableRecord
100
AcDbLayerTableRecord
  2
190
 70
     0
 62
   190
  6
CONTINUOUS
  0
LAYER
  5
F8
330
2
100
AcDbSymbolTableRecord
100
AcDbLayerTableRecord
  2
191
 70
     0
 62
   191
  6
CONTINUOUS
  0
LAYER
  5
F9
330
2
100
AcDbSymbolTableRecord
100
AcDbLayerTableRecord
  2
192
 70
     0
 62
   192
  6
CONTINUOUS
  0
LAYER
  5
FA
330
2
100
AcDbSymbolTableRecord
100
AcDbLayerTableRecord
  2
193
 70
     0
 62
   193
  6
CONTINUOUS
  0
LAYER
  5
FB
330
2
100
AcDbSymbolTableRecord
100
AcDbLayerTableRecord
  2
194
 70
     0
 62
   194
  6
CONTINUOUS
  0
LAYER
  5
FC
330
2
100
AcDbSymbolTableRecord
100
AcDbLayerTableRecord
  2
195
 70
     0
 62
   195
  6
CONTINUOUS
  0
LAYER
  5
FD
330
2
100
AcDbSymbolTableRecord
100
AcDbLayerTableRecord
  2
196
 70
     0
 62
   196
  6
CONTINUOUS
  0
LAYER
  5
FE
330
2
100
AcDbSymbolTableRecord
100
AcDbLayerTableRecord
  2
197
 70
     0
 62
   197
  6
CONTINUOUS
  0
LAYER
  5
FF
330
2
100
AcDbSymbolTableRecord
100
AcDbLayerTableRecord
  2
198
 70
     0
 62
   198
  6
CONTINUOUS
  0
LAYER
  5
100
330
2
100
AcDbSymbolTableRecord
100
AcDbLayerTableRecord
  2
199
 70
     0
 62
   199
  6
CONTINUOUS
  0
LAYER
  5
101
330
2
100
AcDbSymbolTableRecord
100
AcDbLayerTableRecord
  2
200
 70
     0
 62
   200
  6
CONTINUOUS
  0
LAYER
  5
102
330
2
100
AcDbSymbolTableRecord
100
AcDbLayerTableRecord
  2
201
 70
     0
 62
   201
  6
CONTINUOUS
  0
LAYER
  5
103
330
2
100
AcDbSymbolTableRecord
100
AcDbLayerTableRecord
  2
202
 70
     0
 62
   202
  6
CONTINUOUS
  0
LAYER
  5
104
330
2
100
AcDbSymbolTableRecord
100
AcDbLayerTableRecord
  2
203
 70
     0
 62
   203
  6
CONTINUOUS
  0
LAYER
  5
105
330
2
100
AcDbSymbolTableRecord
100
AcDbLayerTableRecord
  2
204
 70
     0
 62
   204
  6
CONTINUOUS
  0
LAYER
  5
106
330
2
100
AcDbSymbolTableRecord
100
AcDbLayerTableRecord
  2
205
 70
     0
 62
   205
  6
CONTINUOUS
  0
LAYER
  5
107
330
2
100
AcDbSymbolTableRecord
100
AcDbLayerTableRecord
  2
206
 70
     0
 62
   206
  6
CONTINUOUS
  0
LAYER
  5
108
330
2
100
AcDbSymbolTableRecord
100
AcDbLayerTableRecord
  2
207
 70
     0
 62
   207
  6
CONTINUOUS
  0
LAYER
  5
109
330
2
100
AcDbSymbolTableRecord
100
AcDbLayerTableRecord
  2
208
 70
     0
 62
   208
  6
CONTINUOUS
  0
LAYER
  5
10A
330
2
100
AcDbSymbolTableRecord
100
AcDbLayerTableRecord
  2
209
 70
     0
 62
   209
  6
CONTINUOUS
  0
LAYER
  5
10B
330
2
100
AcDbSymbolTableRecord
100
AcDbLayerTableRecord
  2
210
 70
     0
 62
   210
  6
CONTINUOUS
  0
LAYER
  5
10C
330
2
100
AcDbSymbolTableRecord
100
AcDbLayerTableRecord
  2
211
 70
     0
 62
   211
  6
CONTINUOUS
  0
LAYER
  5
10D
330
2
100
AcDbSymbolTableRecord
100
AcDbLayerTableRecord
  2
212
 70
     0
 62
   212
  6
CONTINUOUS
  0
LAYER
  5
10E
330
2
100
AcDbSymbolTableRecord
100
AcDbLayerTableRecord
  2
213
 70
     0
 62
   213
  6
CONTINUOUS
  0
LAYER
  5
10F
330
2
100
AcDbSymbolTableRecord
100
AcDbLayerTableRecord
  2
214
 70
     0
 62
   214
  6
CONTINUOUS
  0
LAYER
  5
110
330
2
100
AcDbSymbolTableRecord
100
AcDbLayerTableRecord
  2
215
 70
     0
 62
   215
  6
CONTINUOUS
  0
LAYER
  5
111
330
2
100
AcDbSymbolTableRecord
100
AcDbLayerTableRecord
  2
216
 70
     0
 62
   216
  6
CONTINUOUS
  0
LAYER
  5
112
330
2
100
AcDbSymbolTableRecord
100
AcDbLayerTableRecord
  2
217
 70
     0
 62
   217
  6
CONTINUOUS
  0
LAYER
  5
113
330
2
100
AcDbSymbolTableRecord
100
AcDbLayerTableRecord
  2
218
 70
     0
 62
   218
  6
CONTINUOUS
  0
LAYER
  5
114
330
2
100
AcDbSymbolTableRecord
100
AcDbLayerTableRecord
  2
219
 70
     0
 62
   219
  6
CONTINUOUS
  0
LAYER
  5
115
330
2
100
AcDbSymbolTableRecord
100
AcDbLayerTableRecord
  2
220
 70
     0
 62
   220
  6
CONTINUOUS
  0
LAYER
  5
116
330
2
100
AcDbSymbolTableRecord
100
AcDbLayerTableRecord
  2
221
 70
     0
 62
   221
  6
CONTINUOUS
  0
LAYER
  5
117
330
2
100
AcDbSymbolTableRecord
100
AcDbLayerTableRecord
  2
222
 70
     0
 62
   222
  6
CONTINUOUS
  0
LAYER
  5
118
330
2
100
AcDbSymbolTableRecord
100
AcDbLayerTableRecord
  2
223
 70
     0
 62
   223
  6
CONTINUOUS
  0
LAYER
  5
119
330
2
100
AcDbSymbolTableRecord
100
AcDbLayerTableRecord
  2
224
 70
     0
 62
   224
  6
CONTINUOUS
  0
LAYER
  5
11A
330
2
100
AcDbSymbolTableRecord
100
AcDbLayerTableRecord
  2
225
 70
     0
 62
   225
  6
CONTINUOUS
  0
LAYER
  5
11B
330
2
100
AcDbSymbolTableRecord
100
AcDbLayerTableRecord
  2
226
 70
     0
 62
   226
  6
CONTINUOUS
  0
LAYER
  5
11C
330
2
100
AcDbSymbolTableRecord
100
AcDbLayerTableRecord
  2
227
 70
     0
 62
   227
  6
CONTINUOUS
  0
LAYER
  5
11D
330
2
100
AcDbSymbolTableRecord
100
AcDbLayerTableRecord
  2
228
 70
     0
 62
   228
  6
CONTINUOUS
  0
LAYER
  5
11E
330
2
100
AcDbSymbolTableRecord
100
AcDbLayerTableRecord
  2
229
 70
     0
 62
   229
  6
CONTINUOUS
  0
LAYER
  5
11F
330
2
100
AcDbSymbolTableRecord
100
AcDbLayerTableRecord
  2
230
 70
     0
 62
   230
  6
CONTINUOUS
  0
LAYER
  5
120
330
2
100
AcDbSymbolTableRecord
100
AcDbLayerTableRecord
  2
231
 70
     0
 62
   231
  6
CONTINUOUS
  0
LAYER
  5
121
330
2
100
AcDbSymbolTableRecord
100
AcDbLayerTableRecord
  2
232
 70
     0
 62
   232
  6
CONTINUOUS
  0
LAYER
  5
122
330
2
100
AcDbSymbolTableRecord
100
AcDbLayerTableRecord
  2
233
 70
     0
 62
   233
  6
CONTINUOUS
  0
LAYER
  5
123
330
2
100
AcDbSymbolTableRecord
100
AcDbLayerTableRecord
  2
234
 70
     0
 62
   234
  6
CONTINUOUS
  0
LAYER
  5
124
330
2
100
AcDbSymbolTableRecord
100
AcDbLayerTableRecord
  2
235
 70
     0
 62
   235
  6
CONTINUOUS
  0
LAYER
  5
125
330
2
100
AcDbSymbolTableRecord
100
AcDbLayerTableRecord
  2
236
 70
     0
 62
   236
  6
CONTINUOUS
  0
LAYER
  5
126
330
2
100
AcDbSymbolTableRecord
100
AcDbLayerTableRecord
  2
237
 70
     0
 62
   237
  6
CONTINUOUS
  0
LAYER
  5
127
330
2
100
AcDbSymbolTableRecord
100
AcDbLayerTableRecord
  2
238
 70
     0
 62
   238
  6
CONTINUOUS
  0
LAYER
  5
128
330
2
100
AcDbSymbolTableRecord
100
AcDbLayerTableRecord
  2
239
 70
     0
 62
   239
  6
CONTINUOUS
  0
LAYER
  5
129
330
2
100
AcDbSymbolTableRecord
100
AcDbLayerTableRecord
  2
240
 70
     0
 62
   240
  6
CONTINUOUS
  0
LAYER
  5
12A
330
2
100
AcDbSymbolTableRecord
100
AcDbLayerTableRecord
  2
241
 70
     0
 62
   241
  6
CONTINUOUS
  0
LAYER
  5
12B
330
2
100
AcDbSymbolTableRecord
100
AcDbLayerTableRecord
  2
242
 70
     0
 62
   242
  6
CONTINUOUS
  0
LAYER
  5
12C
330
2
100
AcDbSymbolTableRecord
100
AcDbLayerTableRecord
  2
243
 70
     0
 62
   243
  6
CONTINUOUS
  0
LAYER
  5
12D
330
2
100
AcDbSymbolTableRecord
100
AcDbLayerTableRecord
  2
244
 70
     0
 62
   244
  6
CONTINUOUS
  0
LAYER
  5
12E
330
2
100
AcDbSymbolTableRecord
100
AcDbLayerTableRecord
  2
245
 70
     0
 62
   245
  6
CONTINUOUS
  0
LAYER
  5
12F
330
2
100
AcDbSymbolTableRecord
100
AcDbLayerTableRecord
  2
246
 70
     0
 62
   246
  6
CONTINUOUS
  0
LAYER
  5
130
330
2
100
AcDbSymbolTableRecord
100
AcDbLayerTableRecord
  2
247
 70
     0
 62
   247
  6
CONTINUOUS
  0
LAYER
  5
131
330
2
100
AcDbSymbolTableRecord
100
AcDbLayerTableRecord
  2
248
 70
     0
 62
   248
  6
CONTINUOUS
  0
LAYER
  5
132
330
2
100
AcDbSymbolTableRecord
100
AcDbLayerTableRecord
  2
249
 70
     0
 62
   249
  6
CONTINUOUS
  0
LAYER
  5
133
330
2
100
AcDbSymbolTableRecord
100
AcDbLayerTableRecord
  2
250
 70
     0
 62
   250
  6
CONTINUOUS
  0
LAYER
  5
134
330
2
100
AcDbSymbolTableRecord
100
AcDbLayerTableRecord
  2
251
 70
     0
 62
   251
  6
CONTINUOUS
  0
LAYER
  5
135
330
2
100
AcDbSymbolTableRecord
100
AcDbLayerTableRecord
  2
252
 70
     0
 62
   252
  6
CONTINUOUS
  0
LAYER
  5
136
330
2
100
AcDbSymbolTableRecord
100
AcDbLayerTableRecord
  2
253
 70
     0
 62
   253
  6
CONTINUOUS
  0
LAYER
  5
137
330
2
100
AcDbSymbolTableRecord
100
AcDbLayerTableRecord
  2
254
 70
     0
 62
   254
  6
CONTINUOUS
  0
LAYER
  5
138
330
2
100
AcDbSymbolTableRecord
100
AcDbLayerTableRecord
  2
255
 70
     0
 62
   255
  6
CONTINUOUS
  0
ENDTAB
  0
TABLE
  2
STYLE
  5
3
330
0
100
AcDbSymbolTable
 70
     1
  0
STYLE
  5
11
330
3
100
AcDbSymbolTableRecord
100
AcDbTextStyleTableRecord
  2
STANDARD
 70
     0
 40
0.0
 41
1.0
 50
0.0
 71
     0
 42
0.2
  3
monotxt
  4

  0
ENDTAB
  0
TABLE
  2
VIEW
  5
6
330
0
100
AcDbSymbolTable
 70
     0
  0
ENDTAB
  0
TABLE
  2
UCS
  5
7
330
0
100
AcDbSymbolTable
 70
     0
  0
ENDTAB
  0
TABLE
  2
APPID
  5
9
330
0
100
AcDbSymbolTable
 70
     1
  0
APPID
  5
12
330
9
100
AcDbSymbolTableRecord
100
AcDbRegAppTableRecord
  2
ACAD
 70
     0
  0
ENDTAB
  0
TABLE
  2
DIMSTYLE
  5
A
330
0
100
AcDbSymbolTable
 70
     1
  0
DIMSTYLE
105
312A
330
A
100
AcDbSymbolTableRecord
100
AcDbDimStyleTableRecord
  2
STANDARD
 70
     0
  3

  4

  5

  6

  7

 40
1.0
 41
0.18
 42
0.0625
 43
0.38
 44
0.18
 45
0.0
 46
0.0
 47
0.0
 48
0.0
140
0.18
141
0.09
142
0.0
143
25.4
144
1.0
145
0.0
146
1.0
147
0.09
 71
     0
 72
     0
 73
     1
 74
     1
 75
     0
 76
     0
 77
     0
 78
     0
170
     0
171
     2
172
     0
173
     0
174
     0
175
     0
176
     0
177
     0
178
     0
270
     2
271
     4
272
     4
273
     2
274
     2
340
11
275
     0
280
     0
281
     0
282
     0
283
     1
284
     0
285
     0
286
     0
287
     3
288
     0
  0
ENDTAB
  0
TABLE
  2
BLOCK_RECORD
  5
1
330
0
100
AcDbSymbolTable
 70
     0
  0
BLOCK_RECORD
  5
1E
102
{ACAD_XDICTIONARY
360
46D0
102
}
330
1
100
AcDbSymbolTableRecord
100
AcDbBlockTableRecord
  2
*MODEL_SPACE
  0
BLOCK_RECORD
  5
1A
102
{ACAD_XDICTIONARY
360
46CE
102
}
330
1
100
AcDbSymbolTableRecord
100
AcDbBlockTableRecord
  2
*PAPER_SPACE
  0
ENDTAB
  0
ENDSEC
  0
SECTION
  2
BLOCKS
  0
BLOCK
  5
13B
330
1E
100
AcDbEntity
  8
0
100
AcDbBlockBegin
  2
*MODEL_SPACE
 70
     0
 10
0.0
 20
0.0
 30
0.0
  3
*MODEL_SPACE
  1

  0
ENDBLK
  5
13C
330
1E
100
AcDbEntity
  8
0
100
AcDbBlockEnd
  0
BLOCK
  5
139
330
1A
100
AcDbEntity
 67
     1
  8
0
100
AcDbBlockBegin
  2
*PAPER_SPACE
 70
     0
 10
0.0
 20
0.0
 30
0.0
  3
*PAPER_SPACE
  1

  0
ENDBLK
  5
13A
330
1A
100
AcDbEntity
 67
     1
  8
0
100
AcDbBlockEnd
  0
ENDSEC
  0
SECTION
  2
ENTITIES
  0
LINE
  5
29E8
330
1E
100
AcDbEntity
  8
7
100
AcDbLine
 10
14.75804576430038
 20
13.04068969270358
 30
0.0
 11
14.75804576430038
 21
13.06431173994767
 31
0.0
  0
LINE
  5
29E9
330
1E
100
AcDbEntity
  8
7
100
AcDbLine
 10
11.67011925511402
 20
13.06431173994767
 30
0.0
 11
11.67011925511402
 21
13.70866869532825
 31
0.0
  0
LINE
  5
29EA
330
1E
100
AcDbEntity
  8
7
100
AcDbLine
 10
11.61893815275182
 20
13.06431173994767
 30
0.0
 11
11.67011925511402
 21
13.06431173994767
 31
0.0
  0
LINE
  5
29EB
330
1E
100
AcDbEntity
  8
7
100
AcDbLine
 10
11.61893815275182
 20
13.04068969270358
 30
0.0
 11
11.61893815275182
 21
13.06431173994767
 31
0.0
  0
LINE
  5
29EC
330
1E
100
AcDbEntity
  8
7
100
AcDbLine
 10
11.47720586928725
 20
13.04068969270358
 30
0.0
 11
11.61893815275182
 21
13.04068969270358
 31
0.0
  0
LINE
  5
29ED
330
1E
100
AcDbEntity
  8
7
100
AcDbLine
 10
11.47720586928725
 20
13.06431173994767
 30
0.0
 11
11.47720586928725
 21
13.04068969270358
 31
0.0
  0
LINE
  5
29EE
330
1E
100
AcDbEntity
  8
7
100
AcDbLine
 10
11.42602476692505
 20
13.06431173994767
 30
0.0
 11
11.47720586928725
 21
13.06431173994767
 31
0.0
  0
LINE
  5
29EF
330
1E
100
AcDbEntity
  8
7
100
AcDbLine
 10
11.42602476692505
 20
13.70866869532825
 30
0.0
 11
11.42602476692505
 21
13.06431173994767
 31
0.0
  0
LINE
  5
29F0
330
1E
100
AcDbEntity
  8
7
100
AcDbLine
 10
11.47720586928725
 20
13.70866869532825
 30
0.0
 11
11.42602476692505
 21
13.70866869532825
 31
0.0
  0
LINE
  5
29F1
330
1E
100
AcDbEntity
  8
7
100
AcDbLine
 10
11.47720586928725
 20
13.73360307853035
 30
0.0
 11
11.47720586928725
 21
13.70866869532825
 31
0.0
  0
LINE
  5
29F2
330
1E
100
AcDbEntity
  8
7
100
AcDbLine
 10
11.61893815275182
 20
13.73360307853035
 30
0.0
 11
11.47720586928725
 21
13.73360307853035
 31
0.0
  0
LINE
  5
29F3
330
1E
100
AcDbEntity
  8
7
100
AcDbLine
 10
11.61893815275182
 20
13.70866869532825
 30
0.0
 11
11.61893815275182
 21
13.73360307853035
 31
0.0
  0
LINE
  5
29F4
330
1E
100
AcDbEntity
  8
7
100
AcDbLine
 10
11.67011925511402
 20
13.70866869532825
 30
0.0
 11
11.61893815275182
 21
13.70866869532825
 31
0.0
  0
LINE
  5
29F5
330
1E
100
AcDbEntity
  8
7
100
AcDbLine
 10
15.0638200425156
 20
12.22704139874032
 30
0.0
 11
15.0638200425156
 21
14.5472513724936
 31
0.0
  0
LINE
  5
29F6
330
1E
100
AcDbEntity
  8
7
100
AcDbLine
 10
11.3131638745366
 20
14.5472513724936
 30
0.0
 11
15.0638200425156
 21
14.5472513724936
 31
0.0
  0
LINE
  5
29F7
330
1E
100
AcDbEntity
  8
7
100
AcDbLine
 10
11.3131638745366
 20
12.22704139874032
 30
0.0
 11
11.3131638745366
 21
14.5472513724936
 31
0.0
  0
LINE
  5
29F8
330
1E
100
AcDbEntity
  8
7
100
AcDbLine
 10
15.0638200425156
 20
12.22704139874032
 30
0.0
 11
11.3131638745366
 21
12.22704139874032
 31
0.0
  0
LINE
  5
29F9
330
1E
100
AcDbEntity
  8
7
100
AcDbLine
 10
13.98376754907728
 20
12.76116213364846
 30
0.0
 11
13.98376754907728
 21
14.01313063758547
 31
0.0
  0
LINE
  5
2A14
330
1E
100
AcDbEntity
  8
7
100
AcDbLine
 10
13.89584103989093
 20
14.16536160871408
 30
0.0
 11
12.48114287716127
 21
14.16536160871408
 31
0.0
  0
LINE
  5
2A2F
330
1E
100
AcDbEntity
  8
7
100
AcDbLine
 10
13.82497489815865
 20
13.62467919401591
 30
0.0
 11
13.82497489815865
 21
13.59055845910778
 31
0.0
  0
LINE
  5
2A30
330
1E
100
AcDbEntity
  8
7
100
AcDbLine
 10
13.82759957007466
 20
13.62467919401591
 30
0.0
 11
13.82497489815865
 21
13.62467919401591
 31
0.0
  0
LINE
  5
2A31
330
1E
100
AcDbEntity
  8
7
100
AcDbLine
 10
13.85122161731875
 20
13.70998103128626
 30
0.0
 11
13.85122161731875
 21
13.63255320976394
 31
0.0
  0
LINE
  5
2A32
330
1E
100
AcDbEntity
  8
7
100
AcDbLine
 10
13.82497489815865
 20
13.70998103128626
 30
0.0
 11
13.85122161731875
 21
13.70998103128626
 31
0.0
  0
LINE
  5
2A33
330
1E
100
AcDbEntity
  8
7
100
AcDbLine
 10
13.82497489815865
 20
13.75328811790043
 30
0.0
 11
13.82497489815865
 21
13.70998103128626
 31
0.0
  0
LINE
  5
2A34
330
1E
100
AcDbEntity
  8
7
100
AcDbLine
 10
12.55200901889355
 20
13.75328811790043
 30
0.0
 11
13.82497489815865
 21
13.75328811790043
 31
0.0
  0
LINE
  5
2A35
330
1E
100
AcDbEntity
  8
7
100
AcDbLine
 10
12.55200901889355
 20
13.70998103128626
 30
0.0
 11
12.55200901889355
 21
13.75328811790043
 31
0.0
  0
LINE
  5
2A36
330
1E
100
AcDbEntity
  8
7
100
AcDbLine
 10
12.52576229973345
 20
13.70998103128626
 30
0.0
 11
12.55200901889355
 21
13.70998103128626
 31
0.0
  0
LINE
  5
2A37
330
1E
100
AcDbEntity
  8
7
100
AcDbLine
 10
12.52576229973345
 20
13.63255320976394
 30
0.0
 11
12.52576229973345
 21
13.70998103128626
 31
0.0
  0
LINE
  5
2A38
330
1E
100
AcDbEntity
  8
7
100
AcDbLine
 10
12.55200901889355
 20
13.62467919401591
 30
0.0
 11
12.54938434697754
 21
13.62467919401591
 31
0.0
  0
LINE
  5
2A39
330
1E
100
AcDbEntity
  8
7
100
AcDbLine
 10
12.55200901889355
 20
13.59055845910778
 30
0.0
 11
12.55200901889355
 21
13.62467919401591
 31
0.0
  0
LINE
  5
2A4B
330
1E
100
AcDbEntity
  8
7
100
AcDbLine
 10
13.82628723411665
 20
13.77953483706053
 30
0.0
 11
13.82759957007466
 21
13.79134586068258
 31
0.0
  0
LINE
  5
2A4C
330
1E
100
AcDbEntity
  8
7
100
AcDbLine
 10
13.82628723411665
 20
13.73622775044636
 30
0.0
 11
13.82628723411665
 21
13.77953483706053
 31
0.0
  0
LINE
  5
2A4D
330
1E
100
AcDbEntity
  8
7
100
AcDbLine
 10
13.82628723411665
 20
13.73622775044636
 30
0.0
 11
13.82759957007466
 21
13.74935111002641
 31
0.0
  0
LINE
  5
2A4E
330
1E
100
AcDbEntity
  8
7
100
AcDbLine
 10
13.82759957007466
 20
13.79134586068258
 30
0.0
 11
13.82759957007466
 21
13.74935111002641
 31
0.0
  0
LINE
  5
2A4F
330
1E
100
AcDbEntity
  8
7
100
AcDbLine
 10
13.85122161731875
 20
13.73622775044636
 30
0.0
 11
13.82628723411665
 21
13.73622775044636
 31
0.0
  0
LINE
  5
2A50
330
1E
100
AcDbEntity
  8
7
100
AcDbLine
 10
13.85122161731875
 20
13.73622775044636
 30
0.0
 11
13.85122161731875
 21
13.74935111002641
 31
0.0
  0
LINE
  5
2A51
330
1E
100
AcDbEntity
  8
7
100
AcDbLine
 10
13.82759957007466
 20
13.74935111002641
 30
0.0
 11
13.85122161731875
 21
13.74935111002641
 31
0.0
  0
LINE
  5
2A52
330
1E
100
AcDbEntity
  8
7
100
AcDbLine
 10
13.82628723411665
 20
13.6220545220999
 30
0.0
 11
13.82759957007466
 21
13.63255320976394
 31
0.0
  0
LINE
  5
2A53
330
1E
100
AcDbEntity
  8
7
100
AcDbLine
 10
13.82628723411665
 20
13.6220545220999
 30
0.0
 11
13.82628723411665
 21
13.59055845910778
 31
0.0
  0
LINE
  5
2A54
330
1E
100
AcDbEntity
  8
7
100
AcDbLine
 10
13.82759957007466
 20
13.63255320976394
 30
0.0
 11
13.82759957007466
 21
13.59055845910778
 31
0.0
  0
LINE
  5
2A55
330
1E
100
AcDbEntity
  8
7
100
AcDbLine
 10
13.85122161731875
 20
13.63255320976394
 30
0.0
 11
13.82759957007466
 21
13.63255320976394
 31
0.0
  0
LINE
  5
2A66
330
1E
100
AcDbEntity
  8
7
100
AcDbLine
 10
13.85122161731875
 20
13.74935111002641
 30
0.0
 11
13.85122161731875
 21
13.63255320976394
 31
0.0
  0
LINE
  5
2A67
330
1E
100
AcDbEntity
  8
7
100
AcDbLine
 10
13.40371505563896
 20
13.24935111002641
 30
0.0
 11
13.41815075117702
 21
13.24935111002641
 31
0.0
  0
LINE
  5
2A6E
330
1E
100
AcDbEntity
  8
7
100
AcDbLine
 10
12.95883316587518
 20
13.24935111002641
 30
0.0
 11
12.97326886141324
 21
13.24935111002641
 31
0.0
  0
LINE
  5
2A6F
330
1E
100
AcDbEntity
  8
7
100
AcDbLine
 10
12.76854445196442
 20
13.24935111002641
 30
0.0
 11
12.78298014750248
 21
13.24935111002641
 31
0.0
  0
LINE
  5
2A75
330
1E
100
AcDbEntity
  8
7
100
AcDbLine
 10
13.63074917637387
 20
12.68898365595817
 30
0.0
 11
13.75017174855235
 21
12.68898365595817
 31
0.0
  0
LINE
  5
2A76
330
1E
100
AcDbEntity
  8
7
100
AcDbLine
 10
13.75017174855235
 20
12.73229074257234
 30
0.0
 11
13.81841321836862
 21
12.73229074257234
 31
0.0
  0
LINE
  5
2A77
330
1E
100
AcDbEntity
  8
7
100
AcDbLine
 10
13.41815075117702
 20
13.24935111002641
 30
0.0
 11
13.41815075117702
 21
13.21654271107628
 31
0.0
  0
LINE
  5
2A78
330
1E
100
AcDbEntity
  8
7
100
AcDbLine
 10
12.55857069868358
 20
12.73229074257234
 30
0.0
 11
12.62549983254185
 21
12.73229074257234
 31
0.0
  0
LINE
  5
2A79
330
1E
100
AcDbEntity
  8
7
100
AcDbLine
 10
12.62549983254185
 20
12.68898365595817
 30
0.0
 11
12.74623474067833
 21
12.68898365595817
 31
0.0
  0
LINE
  5
2A7A
330
1E
100
AcDbEntity
  8
7
100
AcDbLine
 10
12.78298014750248
 20
13.24935111002641
 30
0.0
 11
12.78298014750248
 21
13.21654271107628
 31
0.0
  0
LINE
  5
2A80
330
1E
100
AcDbEntity
  8
7
100
AcDbLine
 10
13.59269143359172
 20
13.24935111002641
 30
0.0
 11
13.60843946508778
 21
13.24935111002641
 31
0.0
  0
LINE
  5
2A81
330
1E
100
AcDbEntity
  8
7
100
AcDbLine
 10
12.99557857269933
 20
12.68898365595817
 30
0.0
 11
13.11631348083581
 21
12.68898365595817
 31
0.0
  0
LINE
  5
2A82
330
1E
100
AcDbEntity
  8
7
100
AcDbLine
 10
13.11631348083581
 20
12.73229074257234
 30
0.0
 11
13.26067043621639
 21
12.73229074257234
 31
0.0
  0
LINE
  5
2A83
330
1E
100
AcDbEntity
  8
7
100
AcDbLine
 10
13.26067043621639
 20
12.68898365595817
 30
0.0
 11
13.38140534435287
 21
12.68898365595817
 31
0.0
  0
LINE
  5
2A84
330
1E
100
AcDbEntity
  8
7
100
AcDbLine
 10
14.7134263417282
 20
13.32677893154872
 30
0.0
 11
14.7134263417282
 21
13.44751383968521
 31
0.0
  0
LINE
  5
2A95
330
1E
100
AcDbEntity
  8
7
100
AcDbLine
 10
14.94439747033712
 20
13.44751383968521
 30
0.0
 11
14.94439747033712
 21
13.32677893154872
 31
0.0
  0
LINE
  5
2AB0
330
1E
100
AcDbEntity
  8
7
100
AcDbLine
 10
14.75935810025838
 20
13.47638523076132
 30
0.0
 11
14.75410875642636
 21
13.44751383968521
 31
0.0
  0
LINE
  5
2AB1
330
1E
100
AcDbEntity
  8
7
100
AcDbLine
 10
14.90502739159697
 20
13.44751383968521
 30
0.0
 11
14.90502739159697
 21
13.32677893154872
 31
0.0
  0
LINE
  5
2ABD
330
1E
100
AcDbEntity
  8
7
100
AcDbLine
 10
14.75279642046835
 20
13.32677893154872
 30
0.0
 11
14.75279642046835
 21
13.44751383968521
 31
0.0
  0
LINE
  5
2AC9
330
1E
100
AcDbEntity
  8
7
100
AcDbLine
 10
14.90371505563896
 20
13.32677893154872
 30
0.0
 11
14.90371505563896
 21
13.44751383968521
 31
0.0
  0
LINE
  5
2AD5
330
1E
100
AcDbEntity
  8
7
100
AcDbLine
 10
14.75410875642636
 20
13.44751383968521
 30
0.0
 11
14.75410875642636
 21
13.32677893154872
 31
0.0
  0
LINE
  5
2AD6
330
1E
100
AcDbEntity
  8
7
100
AcDbLine
 10
14.76067043621639
 20
13.06824874782169
 30
0.0
 11
14.70817699789618
 21
13.06824874782169
 31
0.0
  0
LINE
  5
2AD7
330
1E
100
AcDbEntity
  8
7
100
AcDbLine
 10
14.76067043621639
 20
13.04200202866158
 30
0.0
 11
14.76067043621639
 21
13.06824874782169
 31
0.0
  0
LINE
  5
2AD8
330
1E
100
AcDbEntity
  8
7
100
AcDbLine
 10
14.89584103989093
 20
13.04200202866158
 30
0.0
 11
14.76067043621639
 21
13.04200202866158
 31
0.0
  0
LINE
  5
2AD9
330
1E
100
AcDbEntity
  8
7
100
AcDbLine
 10
14.89584103989093
 20
13.06824874782169
 30
0.0
 11
14.89584103989093
 21
13.04200202866158
 31
0.0
  0
LINE
  5
2ADA
330
1E
100
AcDbEntity
  8
7
100
AcDbLine
 10
14.94964681416914
 20
13.06824874782169
 30
0.0
 11
14.89584103989093
 21
13.06824874782169
 31
0.0
  0
LINE
  5
2ADB
330
1E
100
AcDbEntity
  8
7
100
AcDbLine
 10
14.94964681416914
 20
13.70604402341224
 30
0.0
 11
14.94964681416914
 21
13.06824874782169
 31
0.0
  0
LINE
  5
2ADC
330
1E
100
AcDbEntity
  8
7
100
AcDbLine
 10
14.89584103989093
 20
13.70604402341224
 30
0.0
 11
14.94964681416914
 21
13.70604402341224
 31
0.0
  0
LINE
  5
2ADD
330
1E
100
AcDbEntity
  8
7
100
AcDbLine
 10
14.89584103989093
 20
13.73229074257234
 30
0.0
 11
14.89584103989093
 21
13.70604402341224
 31
0.0
  0
LINE
  5
2ADE
330
1E
100
AcDbEntity
  8
7
100
AcDbLine
 10
14.76067043621639
 20
13.73229074257234
 30
0.0
 11
14.89584103989093
 21
13.73229074257234
 31
0.0
  0
LINE
  5
2ADF
330
1E
100
AcDbEntity
  8
7
100
AcDbLine
 10
14.76067043621639
 20
13.70604402341224
 30
0.0
 11
14.76067043621639
 21
13.73229074257234
 31
0.0
  0
LINE
  5
2AE0
330
1E
100
AcDbEntity
  8
7
100
AcDbLine
 10
14.70817699789618
 20
13.70604402341224
 30
0.0
 11
14.76067043621639
 21
13.70604402341224
 31
0.0
  0
LINE
  5
2AE1
330
1E
100
AcDbEntity
  8
7
100
AcDbLine
 10
14.70817699789618
 20
13.06824874782169
 30
0.0
 11
14.70817699789618
 21
13.70604402341224
 31
0.0
  0
LINE
  5
2AE2
330
1E
100
AcDbEntity
  8
7
100
AcDbLine
 10
14.71211400577019
 20
13.32677893154872
 30
0.0
 11
14.71211400577019
 21
13.44751383968521
 31
0.0
  0
LINE
  5
2AF3
330
1E
100
AcDbEntity
  8
7
100
AcDbLine
 10
14.94570980629513
 20
13.44751383968521
 30
0.0
 11
14.94570980629513
 21
13.32677893154872
 31
0.0
  0
LINE
  5
2B04
330
1E
100
AcDbEntity
  8
7
100
AcDbLine
 10
14.70686466193817
 20
13.70735635937025
 30
0.0
 11
14.70686466193817
 21
13.70866869532825
 31
0.0
  0
LINE
  5
2B05
330
1E
100
AcDbEntity
  8
7
100
AcDbLine
 10
14.75935810025838
 20
13.70735635937025
 30
0.0
 11
14.70686466193817
 21
13.70735635937025
 31
0.0
  0
LINE
  5
2B06
330
1E
100
AcDbEntity
  8
7
100
AcDbLine
 10
14.75935810025838
 20
13.70735635937025
 30
0.0
 11
14.75804576430038
 21
13.70866869532825
 31
0.0
  0
LINE
  5
2B07
330
1E
100
AcDbEntity
  8
7
100
AcDbLine
 10
14.75935810025838
 20
13.73229074257234
 30
0.0
 11
14.75935810025838
 21
13.70735635937025
 31
0.0
  0
LINE
  5
2B08
330
1E
100
AcDbEntity
  8
7
100
AcDbLine
 10
14.75935810025838
 20
13.73229074257234
 30
0.0
 11
14.75804576430038
 21
13.73360307853035
 31
0.0
  0
LINE
  5
2B09
330
1E
100
AcDbEntity
  8
7
100
AcDbLine
 10
14.75935810025838
 20
13.06562407590568
 30
0.0
 11
14.75804576430038
 21
13.06431173994767
 31
0.0
  0
LINE
  5
2B0A
330
1E
100
AcDbEntity
  8
7
100
AcDbLine
 10
14.70686466193817
 20
13.06562407590568
 30
0.0
 11
14.75935810025838
 21
13.06562407590568
 31
0.0
  0
LINE
  5
2B0B
330
1E
100
AcDbEntity
  8
7
100
AcDbLine
 10
14.70686466193817
 20
13.06562407590568
 30
0.0
 11
14.70686466193817
 21
13.06431173994767
 31
0.0
  0
LINE
  5
2B0C
330
1E
100
AcDbEntity
  8
7
100
AcDbLine
 10
14.75935810025838
 20
13.04068969270358
 30
0.0
 11
14.75804576430038
 21
13.04068969270358
 31
0.0
  0
LINE
  5
2B0D
330
1E
100
AcDbEntity
  8
7
100
AcDbLine
 10
14.75935810025838
 20
13.06562407590568
 30
0.0
 11
14.75935810025838
 21
13.04068969270358
 31
0.0
  0
LINE
  5
2B0E
330
1E
100
AcDbEntity
  8
7
100
AcDbLine
 10
14.95095915012715
 20
13.06562407590568
 30
0.0
 11
14.95095915012715
 21
13.06431173994767
 31
0.0
  0
LINE
  5
2B0F
330
1E
100
AcDbEntity
  8
7
100
AcDbLine
 10
14.89846571180694
 20
13.06562407590568
 30
0.0
 11
14.95095915012715
 21
13.06562407590568
 31
0.0
  0
LINE
  5
2B10
330
1E
100
AcDbEntity
  8
7
100
AcDbLine
 10
14.89846571180694
 20
13.06562407590568
 30
0.0
 11
14.89977804776494
 21
13.06431173994767
 31
0.0
  0
LINE
  5
2B11
330
1E
100
AcDbEntity
  8
7
100
AcDbLine
 10
14.89846571180694
 20
13.04068969270358
 30
0.0
 11
14.89846571180694
 21
13.06562407590568
 31
0.0
  0
LINE
  5
2B12
330
1E
100
AcDbEntity
  8
7
100
AcDbLine
 10
14.89846571180694
 20
13.04068969270358
 30
0.0
 11
14.89977804776494
 21
13.04068969270358
 31
0.0
  0
LINE
  5
2B13
330
1E
100
AcDbEntity
  8
7
100
AcDbLine
 10
11.47720586928725
 20
13.73229074257234
 30
0.0
 11
11.47720586928725
 21
13.70735635937025
 31
0.0
  0
LINE
  5
2B14
330
1E
100
AcDbEntity
  8
7
100
AcDbLine
 10
11.47720586928725
 20
13.73229074257234
 30
0.0
 11
11.47720586928725
 21
13.73360307853035
 31
0.0
  0
LINE
  5
2B15
330
1E
100
AcDbEntity
  8
7
100
AcDbLine
 10
11.47720586928725
 20
13.70735635937025
 30
0.0
 11
11.47720586928725
 21
13.70866869532825
 31
0.0
  0
LINE
  5
2B1B
330
1E
100
AcDbEntity
  8
7
100
AcDbLine
 10
11.67011925511402
 20
13.70735635937025
 30
0.0
 11
11.61762581679381
 21
13.70735635937025
 31
0.0
  0
LINE
  5
2B1C
330
1E
100
AcDbEntity
  8
7
100
AcDbLine
 10
11.67011925511402
 20
13.70735635937025
 30
0.0
 11
11.67011925511402
 21
13.70866869532825
 31
0.0
  0
LINE
  5
2B1D
330
1E
100
AcDbEntity
  8
7
100
AcDbLine
 10
11.61762581679381
 20
13.70735635937025
 30
0.0
 11
11.61893815275182
 21
13.70866869532825
 31
0.0
  0
LINE
  5
2B71
330
1E
100
AcDbEntity
  8
7
100
AcDbLine
 10
15.40896439947098
 20
12.01181830162746
 30
0.0
 11
10.96801951758122
 21
12.01181830162746
 31
0.0
  0
LINE
  5
2B7E
330
1E
100
AcDbEntity
  8
7
100
AcDbLine
 10
15.43389878267308
 20
14.7467264381104
 30
0.0
 11
15.4378357905471
 21
14.73229074257234
 31
0.0
  0
LINE
  5
2B7F
330
1E
100
AcDbEntity
  8
7
100
AcDbLine
 10
15.4378357905471
 20
12.04200202866158
 30
0.0
 11
15.4378357905471
 21
14.73229074257234
 31
0.0
  0
LINE
  5
2BB6
330
1E
100
AcDbEntity
  8
7
100
AcDbLine
 10
11.67011925511402
 20
13.06562407590568
 30
0.0
 11
11.67011925511402
 21
13.06431173994767
 31
0.0
  0
LINE
  5
2BBC
330
1E
100
AcDbEntity
  8
7
100
AcDbLine
 10
11.66880691915602
 20
13.70604402341224
 30
0.0
 11
11.67011925511402
 21
13.70735635937025
 31
0.0
  0
LINE
  5
2BBD
330
1E
100
AcDbEntity
  8
7
100
AcDbLine
 10
11.66880691915602
 20
13.06824874782169
 30
0.0
 11
11.66880691915602
 21
13.70604402341224
 31
0.0
  0
LINE
  5
2BBE
330
1E
100
AcDbEntity
  8
7
100
AcDbLine
 10
11.66880691915602
 20
13.06824874782169
 30
0.0
 11
11.67011925511402
 21
13.06562407590568
 31
0.0
  0
LINE
  5
2BBF
330
1E
100
AcDbEntity
  8
7
100
AcDbLine
 10
11.47983054120326
 20
13.73229074257234
 30
0.0
 11
11.47720586928725
 21
13.73229074257234
 31
0.0
  0
LINE
  5
2BC0
330
1E
100
AcDbEntity
  8
7
100
AcDbLine
 10
11.61500114487781
 20
13.73229074257234
 30
0.0
 11
11.47983054120326
 21
13.73229074257234
 31
0.0
  0
LINE
  5
2BC1
330
1E
100
AcDbEntity
  8
7
100
AcDbLine
 10
11.61500114487781
 20
13.73229074257234
 30
0.0
 11
11.61762581679381
 21
13.73229074257234
 31
0.0
  0
LINE
  5
2BC2
330
1E
100
AcDbEntity
  8
7
100
AcDbLine
 10
11.42733710288305
 20
13.06824874782169
 30
0.0
 11
11.42602476692505
 21
13.06562407590568
 31
0.0
  0
LINE
  5
2BC3
330
1E
100
AcDbEntity
  8
7
100
AcDbLine
 10
11.42733710288305
 20
13.70604402341224
 30
0.0
 11
11.42733710288305
 21
13.06824874782169
 31
0.0
  0
LINE
  5
2BC4
330
1E
100
AcDbEntity
  8
7
100
AcDbLine
 10
11.42733710288305
 20
13.70604402341224
 30
0.0
 11
11.42602476692505
 21
13.70735635937025
 31
0.0
  0
LINE
  5
2BC5
330
1E
100
AcDbEntity
  8
7
100
AcDbLine
 10
11.42602476692505
 20
13.06562407590568
 30
0.0
 11
11.42602476692505
 21
13.06431173994767
 31
0.0
  0
LINE
  5
2BC6
330
1E
100
AcDbEntity
  8
7
100
AcDbLine
 10
11.47720586928725
 20
13.06562407590568
 30
0.0
 11
11.47720586928725
 21
13.06431173994767
 31
0.0
  0
LINE
  5
2BC7
330
1E
100
AcDbEntity
  8
7
100
AcDbLine
 10
11.47720586928725
 20
13.06562407590568
 30
0.0
 11
11.42602476692505
 21
13.06562407590568
 31
0.0
  0
LINE
  5
2BC8
330
1E
100
AcDbEntity
  8
7
100
AcDbLine
 10
11.47720586928725
 20
13.04068969270358
 30
0.0
 11
11.47720586928725
 21
13.06562407590568
 31
0.0
  0
LINE
  5
2BC9
330
1E
100
AcDbEntity
  8
7
100
AcDbLine
 10
11.61500114487781
 20
13.04200202866158
 30
0.0
 11
11.61762581679381
 21
13.04068969270358
 31
0.0
  0
LINE
  5
2BCA
330
1E
100
AcDbEntity
  8
7
100
AcDbLine
 10
11.47983054120326
 20
13.04200202866158
 30
0.0
 11
11.61500114487781
 21
13.04200202866158
 31
0.0
  0
LINE
  5
2BCB
330
1E
100
AcDbEntity
  8
7
100
AcDbLine
 10
11.47983054120326
 20
13.04200202866158
 30
0.0
 11
11.47720586928725
 21
13.04068969270358
 31
0.0
  0
LINE
  5
2BCC
330
1E
100
AcDbEntity
  8
7
100
AcDbLine
 10
11.61762581679381
 20
13.04068969270358
 30
0.0
 11
11.61893815275182
 21
13.04068969270358
 31
0.0
  0
LINE
  5
2BCD
330
1E
100
AcDbEntity
  8
7
100
AcDbLine
 10
11.61762581679381
 20
13.06562407590568
 30
0.0
 11
11.61762581679381
 21
13.04068969270358
 31
0.0
  0
LINE
  5
2BCE
330
1E
100
AcDbEntity
  8
7
100
AcDbLine
 10
11.664869911282
 20
13.32677893154872
 30
0.0
 11
11.664869911282
 21
13.44751383968521
 31
0.0
  0
LINE
  5
2BDC
330
1E
100
AcDbEntity
  8
7
100
AcDbLine
 10
11.43127411075707
 20
13.44751383968521
 30
0.0
 11
11.43127411075707
 21
13.32677893154872
 31
0.0
  0
LINE
  5
2BE9
330
1E
100
AcDbEntity
  8
7
100
AcDbLine
 10
11.4378357905471
 20
13.48294691055134
 30
0.0
 11
11.43258644671507
 21
13.44751383968521
 31
0.0
  0
LINE
  5
2BEA
330
1E
100
AcDbEntity
  8
7
100
AcDbLine
 10
11.61500114487781
 20
13.06824874782169
 30
0.0
 11
11.66880691915602
 21
13.06824874782169
 31
0.0
  0
LINE
  5
2BFA
330
1E
100
AcDbEntity
  8
7
100
AcDbLine
 10
11.61500114487781
 20
13.04200202866158
 30
0.0
 11
11.61500114487781
 21
13.06824874782169
 31
0.0
  0
LINE
  5
2C06
330
1E
100
AcDbEntity
  8
7
100
AcDbLine
 10
11.47326886141324
 20
13.44751383968521
 30
0.0
 11
11.47326886141324
 21
13.32677893154872
 31
0.0
  0
LINE
  5
2C12
330
1E
100
AcDbEntity
  8
7
100
AcDbLine
 10
11.62287516062584
 20
13.32677893154872
 30
0.0
 11
11.62287516062584
 21
13.44751383968521
 31
0.0
  0
LINE
  5
2C13
330
1E
100
AcDbEntity
  8
7
100
AcDbLine
 10
11.662245239366
 20
13.44751383968521
 30
0.0
 11
11.664869911282
 21
13.44751383968521
 31
0.0
  0
LINE
  5
2C14
330
1E
100
AcDbEntity
  8
7
100
AcDbLine
 10
11.662245239366
 20
13.32677893154872
 30
0.0
 11
11.662245239366
 21
13.44751383968521
 31
0.0
  0
LINE
  5
2C15
330
1E
100
AcDbEntity
  8
7
100
AcDbLine
 10
11.662245239366
 20
13.32677893154872
 30
0.0
 11
11.664869911282
 21
13.32677893154872
 31
0.0
  0
LINE
  5
2C16
330
1E
100
AcDbEntity
  8
7
100
AcDbLine
 10
11.43258644671507
 20
13.44751383968521
 30
0.0
 11
11.43127411075707
 21
13.44751383968521
 31
0.0
  0
LINE
  5
2C27
330
1E
100
AcDbEntity
  8
7
100
AcDbLine
 10
11.43258644671507
 20
13.32677893154872
 30
0.0
 11
11.43127411075707
 21
13.32677893154872
 31
0.0
  0
LINE
  5
2C28
330
1E
100
AcDbEntity
  8
7
100
AcDbLine
 10
11.43258644671507
 20
13.44751383968521
 30
0.0
 11
11.43258644671507
 21
13.32677893154872
 31
0.0
  0
LINE
  5
2C36
330
1E
100
AcDbEntity
  8
7
100
AcDbLine
 10
11.62287516062584
 20
13.44751383968521
 30
0.0
 11
11.61762581679381
 21
13.47638523076132
 31
0.0
  0
LINE
  5
2C41
330
1E
100
AcDbEntity
  8
7
100
AcDbLine
 10
11.62418749658384
 20
13.44751383968521
 30
0.0
 11
11.62418749658384
 21
13.32677893154872
 31
0.0
  0
LINE
  5
2C42
330
1E
100
AcDbEntity
  8
7
100
AcDbLine
 10
11.47326886141324
 20
13.32677893154872
 30
0.0
 11
11.47851820524526
 21
13.29790754047261
 31
0.0
  0
LINE
  5
2C4D
330
1E
100
AcDbEntity
  8
7
100
AcDbLine
 10
11.47195652545523
 20
13.32677893154872
 30
0.0
 11
11.47195652545523
 21
13.44751383968521
 31
0.0
  0
LINE
  5
2C4E
330
1E
100
AcDbEntity
  8
7
100
AcDbLine
 10
11.62287516062584
 20
13.44751383968521
 30
0.0
 11
11.62418749658384
 21
13.44751383968521
 31
0.0
  0
LINE
  5
2C4F
330
1E
100
AcDbEntity
  8
7
100
AcDbLine
 10
11.47326886141324
 20
13.44751383968521
 30
0.0
 11
11.47195652545523
 21
13.44751383968521
 31
0.0
  0
LINE
  5
2C50
330
1E
100
AcDbEntity
  8
7
100
AcDbLine
 10
11.47326886141324
 20
13.32677893154872
 30
0.0
 11
11.47195652545523
 21
13.32677893154872
 31
0.0
  0
LINE
  5
2C51
330
1E
100
AcDbEntity
  8
7
100
AcDbLine
 10
11.62287516062584
 20
13.32677893154872
 30
0.0
 11
11.62418749658384
 21
13.32677893154872
 31
0.0
  0
LINE
  5
2C52
330
1E
100
AcDbEntity
  8
7
100
AcDbLine
 10
14.70817699789618
 20
13.70604402341224
 30
0.0
 11
14.70686466193817
 21
13.70735635937025
 31
0.0
  0
LINE
  5
2C53
330
1E
100
AcDbEntity
  8
7
100
AcDbLine
 10
14.70817699789618
 20
13.06824874782169
 30
0.0
 11
14.70686466193817
 21
13.06562407590568
 31
0.0
  0
LINE
  5
2C59
330
1E
100
AcDbEntity
  8
7
100
AcDbLine
 10
14.76067043621639
 20
13.73229074257234
 30
0.0
 11
14.75935810025838
 21
13.73229074257234
 31
0.0
  0
LINE
  5
2C64
330
1E
100
AcDbEntity
  8
7
100
AcDbLine
 10
14.94964681416914
 20
13.06824874782169
 30
0.0
 11
14.95095915012715
 21
13.06562407590568
 31
0.0
  0
LINE
  5
2C65
330
1E
100
AcDbEntity
  8
7
100
AcDbLine
 10
14.94964681416914
 20
13.70604402341224
 30
0.0
 11
14.95095915012715
 21
13.70735635937025
 31
0.0
  0
LINE
  5
2C66
330
1E
100
AcDbEntity
  8
7
100
AcDbLine
 10
14.76067043621639
 20
13.04200202866158
 30
0.0
 11
14.75935810025838
 21
13.04068969270358
 31
0.0
  0
LINE
  5
2C67
330
1E
100
AcDbEntity
  8
7
100
AcDbLine
 10
14.89584103989093
 20
13.04200202866158
 30
0.0
 11
14.89846571180694
 21
13.04068969270358
 31
0.0
  0
LINE
  5
2C68
330
1E
100
AcDbEntity
  8
7
100
AcDbLine
 10
14.7134263417282
 20
13.44751383968521
 30
0.0
 11
14.71211400577019
 21
13.44751383968521
 31
0.0
  0
LINE
  5
2C69
330
1E
100
AcDbEntity
  8
7
100
AcDbLine
 10
14.7134263417282
 20
13.32677893154872
 30
0.0
 11
14.71211400577019
 21
13.32677893154872
 31
0.0
  0
LINE
  5
2C6A
330
1E
100
AcDbEntity
  8
7
100
AcDbLine
 10
14.94439747033712
 20
13.44751383968521
 30
0.0
 11
14.94570980629513
 21
13.44751383968521
 31
0.0
  0
LINE
  5
2C6B
330
1E
100
AcDbEntity
  8
7
100
AcDbLine
 10
14.94439747033712
 20
13.32677893154872
 30
0.0
 11
14.94570980629513
 21
13.32677893154872
 31
0.0
  0
LINE
  5
2C6C
330
1E
100
AcDbEntity
  8
7
100
AcDbLine
 10
14.90371505563896
 20
13.32677893154872
 30
0.0
 11
14.90502739159697
 21
13.32677893154872
 31
0.0
  0
LINE
  5
2C6D
330
1E
100
AcDbEntity
  8
7
100
AcDbLine
 10
14.90371505563896
 20
13.44751383968521
 30
0.0
 11
14.90502739159697
 21
13.44751383968521
 31
0.0
  0
LINE
  5
2C6E
330
1E
100
AcDbEntity
  8
7
100
AcDbLine
 10
14.75410875642636
 20
13.32677893154872
 30
0.0
 11
14.75279642046835
 21
13.32677893154872
 31
0.0
  0
LINE
  5
2C6F
330
1E
100
AcDbEntity
  8
7
100
AcDbLine
 10
14.75410875642636
 20
13.44751383968521
 30
0.0
 11
14.75279642046835
 21
13.44751383968521
 31
0.0
  0
LINE
  5
2C75
330
1E
100
AcDbEntity
  8
7
100
AcDbLine
 10
13.81841321836862
 20
13.21916738299229
 30
0.0
 11
13.81841321836862
 21
12.67848496829413
 31
0.0
  0
LINE
  5
2C76
330
1E
100
AcDbEntity
  8
7
100
AcDbLine
 10
13.75017174855235
 20
12.67848496829413
 30
0.0
 11
13.81841321836862
 21
12.67848496829413
 31
0.0
  0
LINE
  5
2C77
330
1E
100
AcDbEntity
  8
7
100
AcDbLine
 10
13.75017174855235
 20
12.63386554572195
 30
0.0
 11
13.75017174855235
 21
12.67848496829413
 31
0.0
  0
LINE
  5
2C78
330
1E
100
AcDbEntity
  8
7
100
AcDbLine
 10
13.26067043621639
 20
12.63386554572195
 30
0.0
 11
13.75017174855235
 21
12.63386554572195
 31
0.0
  0
LINE
  5
2C79
330
1E
100
AcDbEntity
  8
7
100
AcDbLine
 10
13.26067043621639
 20
12.67848496829413
 30
0.0
 11
13.26067043621639
 21
12.63386554572195
 31
0.0
  0
LINE
  5
2C7A
330
1E
100
AcDbEntity
  8
7
100
AcDbLine
 10
13.11631348083581
 20
12.67848496829413
 30
0.0
 11
13.26067043621639
 21
12.67848496829413
 31
0.0
  0
LINE
  5
2C7B
330
1E
100
AcDbEntity
  8
7
100
AcDbLine
 10
13.11631348083581
 20
12.63386554572195
 30
0.0
 11
13.11631348083581
 21
12.67848496829413
 31
0.0
  0
LINE
  5
2C7C
330
1E
100
AcDbEntity
  8
7
100
AcDbLine
 10
12.62549983254185
 20
12.63386554572195
 30
0.0
 11
13.11631348083581
 21
12.63386554572195
 31
0.0
  0
LINE
  5
2C7D
330
1E
100
AcDbEntity
  8
7
100
AcDbLine
 10
12.62549983254185
 20
12.67848496829413
 30
0.0
 11
12.62549983254185
 21
12.63386554572195
 31
0.0
  0
LINE
  5
2C7E
330
1E
100
AcDbEntity
  8
7
100
AcDbLine
 10
12.55857069868358
 20
12.67848496829413
 30
0.0
 11
12.62549983254185
 21
12.67848496829413
 31
0.0
  0
LINE
  5
2C7F
330
1E
100
AcDbEntity
  8
7
100
AcDbLine
 10
12.55857069868358
 20
13.21916738299229
 30
0.0
 11
12.55857069868358
 21
12.67848496829413
 31
0.0
  0
LINE
  5
2C85
330
1E
100
AcDbEntity
  8
7
100
AcDbLine
 10
12.97720586928726
 20
13.25197578194242
 30
0.0
 11
12.97589353332925
 21
13.21916738299229
 31
0.0
  0
LINE
  5
2C86
330
1E
100
AcDbEntity
  8
7
100
AcDbLine
 10
13.40109038372295
 20
13.21916738299229
 30
0.0
 11
13.39977804776494
 21
13.25197578194242
 31
0.0
  0
LINE
  5
2C8C
330
1E
100
AcDbEntity
  8
7
100
AcDbLine
 10
13.89584103989093
 20
12.60893116251985
 30
0.0
 11
13.87746833647885
 21
13.33596528325476
 31
0.0
  0
LINE
  5
2C8D
330
1E
100
AcDbEntity
  8
7
100
AcDbLine
 10
13.98376754907728
 20
14.01313063758547
 30
0.0
 11
13.96801951758122
 21
13.38714638561696
 31
0.0
  0
LINE
  5
2C8E
330
1E
100
AcDbEntity
  8
7
100
AcDbLine
 10
13.96801951758122
 20
13.38714638561696
 30
0.0
 11
13.98376754907728
 21
12.76116213364846
 31
0.0
  0
LINE
  5
2C94
330
1E
100
AcDbEntity
  8
7
100
AcDbLine
 10
13.75017174855235
 20
12.73229074257234
 30
0.0
 11
13.75017174855235
 21
12.67848496829413
 31
0.0
  0
LINE
  5
2C95
330
1E
100
AcDbEntity
  8
7
100
AcDbLine
 10
13.6136888089198
 20
12.93701515202116
 30
0.0
 11
13.63074917637387
 21
12.68898365595817
 31
0.0
  0
LINE
  5
2C96
330
1E
100
AcDbEntity
  8
7
100
AcDbLine
 10
13.6136888089198
 20
12.93701515202116
 30
0.0
 11
13.39846571180694
 21
12.93701515202116
 31
0.0
  0
LINE
  5
2C97
330
1E
100
AcDbEntity
  8
7
100
AcDbLine
 10
13.39846571180694
 20
12.93701515202116
 30
0.0
 11
13.38140534435287
 21
12.68898365595817
 31
0.0
  0
LINE
  5
2C98
330
1E
100
AcDbEntity
  8
7
100
AcDbLine
 10
13.26067043621639
 20
12.73229074257234
 30
0.0
 11
13.26067043621639
 21
12.67848496829413
 31
0.0
  0
LINE
  5
2C99
330
1E
100
AcDbEntity
  8
7
100
AcDbLine
 10
13.11631348083581
 20
12.73229074257234
 30
0.0
 11
13.11631348083581
 21
12.67848496829413
 31
0.0
  0
LINE
  5
2C9A
330
1E
100
AcDbEntity
  8
7
100
AcDbLine
 10
12.97851820524526
 20
12.93701515202116
 30
0.0
 11
12.99557857269933
 21
12.68898365595817
 31
0.0
  0
LINE
  5
2CA0
330
1E
100
AcDbEntity
  8
7
100
AcDbLine
 10
12.62549983254185
 20
12.73229074257234
 30
0.0
 11
12.62549983254185
 21
12.67848496829413
 31
0.0
  0
LINE
  5
2CB3
330
1E
100
AcDbEntity
  8
7
100
AcDbLine
 10
12.76067043621639
 20
12.99475793417339
 30
0.0
 11
12.76198277217439
 21
12.99213326225738
 31
0.0
  0
LINE
  5
2CB4
330
1E
100
AcDbEntity
  8
7
100
AcDbLine
 10
12.76067043621639
 20
12.99475793417339
 30
0.0
 11
12.76198277217439
 21
13.00131961396342
 31
0.0
  0
LINE
  5
2CB5
330
1E
100
AcDbEntity
  8
7
100
AcDbLine
 10
12.7632951081324
 20
13.0223169892915
 30
0.0
 11
12.76198277217439
 21
13.00131961396342
 31
0.0
  0
LINE
  5
2CBB
330
1E
100
AcDbEntity
  8
7
100
AcDbLine
 10
12.7632951081324
 20
12.9711358869293
 30
0.0
 11
12.7632951081324
 21
12.95670019139124
 31
0.0
  0
LINE
  5
2CC1
330
1E
100
AcDbEntity
  8
7
100
AcDbLine
 10
12.76198277217439
 20
12.99082092629938
 30
0.0
 11
12.76198277217439
 21
12.99213326225738
 31
0.0
  0
LINE
  5
2CC2
330
1E
100
AcDbEntity
  8
7
100
AcDbLine
 10
12.97851820524526
 20
13.0223169892915
 30
0.0
 11
12.7632951081324
 21
13.0223169892915
 31
0.0
  0
LINE
  5
2CC3
330
1E
100
AcDbEntity
  8
7
100
AcDbLine
 10
12.76198277217439
 20
13.00131961396342
 30
0.0
 11
12.97983054120327
 21
13.00131961396342
 31
0.0
  0
LINE
  5
2CC4
330
1E
100
AcDbEntity
  8
7
100
AcDbLine
 10
12.97983054120327
 20
12.99475793417339
 30
0.0
 11
12.76067043621639
 21
12.99475793417339
 31
0.0
  0
LINE
  5
2CC5
330
1E
100
AcDbEntity
  8
7
100
AcDbLine
 10
12.76198277217439
 20
12.99213326225738
 30
0.0
 11
12.97983054120327
 21
12.99213326225738
 31
0.0
  0
LINE
  5
2CC6
330
1E
100
AcDbEntity
  8
7
100
AcDbLine
 10
12.97983054120327
 20
12.99082092629938
 30
0.0
 11
12.76198277217439
 21
12.99082092629938
 31
0.0
  0
LINE
  5
2CC7
330
1E
100
AcDbEntity
  8
7
100
AcDbLine
 10
12.97851820524526
 20
12.9711358869293
 30
0.0
 11
12.7632951081324
 21
12.9711358869293
 31
0.0
  0
LINE
  5
2CC8
330
1E
100
AcDbEntity
  8
7
100
AcDbLine
 10
12.7632951081324
 20
12.95670019139124
 30
0.0
 11
12.97851820524526
 21
12.95670019139124
 31
0.0
  0
LINE
  5
2CD5
330
1E
100
AcDbEntity
  8
7
100
AcDbLine
 10
13.6136888089198
 20
12.9711358869293
 30
0.0
 11
13.6123764729618
 21
12.95670019139124
 31
0.0
  0
LINE
  5
2CDB
330
1E
100
AcDbEntity
  8
7
100
AcDbLine
 10
13.39584103989093
 20
12.99475793417339
 30
0.0
 11
13.39584103989093
 21
12.99213326225738
 31
0.0
  0
LINE
  5
2CDC
330
1E
100
AcDbEntity
  8
7
100
AcDbLine
 10
13.39584103989093
 20
12.99475793417339
 30
0.0
 11
13.39584103989093
 21
13.00131961396342
 31
0.0
  0
LINE
  5
2CDD
330
1E
100
AcDbEntity
  8
7
100
AcDbLine
 10
13.39846571180694
 20
13.0223169892915
 30
0.0
 11
13.39584103989093
 21
13.00131961396342
 31
0.0
  0
LINE
  5
2CE3
330
1E
100
AcDbEntity
  8
7
100
AcDbLine
 10
13.39846571180694
 20
12.9711358869293
 30
0.0
 11
13.39846571180694
 21
12.95670019139124
 31
0.0
  0
LINE
  5
2CEA
330
1E
100
AcDbEntity
  8
7
100
AcDbLine
 10
13.6136888089198
 20
13.0223169892915
 30
0.0
 11
13.39846571180694
 21
13.0223169892915
 31
0.0
  0
LINE
  5
2CEB
330
1E
100
AcDbEntity
  8
7
100
AcDbLine
 10
13.39584103989093
 20
13.00131961396342
 30
0.0
 11
13.6150011448778
 21
13.00131961396342
 31
0.0
  0
LINE
  5
2CEC
330
1E
100
AcDbEntity
  8
7
100
AcDbLine
 10
13.6150011448778
 20
12.99475793417339
 30
0.0
 11
13.39584103989093
 21
12.99475793417339
 31
0.0
  0
LINE
  5
2CED
330
1E
100
AcDbEntity
  8
7
100
AcDbLine
 10
13.39584103989093
 20
12.99213326225738
 30
0.0
 11
13.6150011448778
 21
12.99213326225738
 31
0.0
  0
LINE
  5
2CEE
330
1E
100
AcDbEntity
  8
7
100
AcDbLine
 10
13.6150011448778
 20
12.99082092629938
 30
0.0
 11
13.39584103989093
 21
12.99082092629938
 31
0.0
  0
LINE
  5
2CEF
330
1E
100
AcDbEntity
  8
7
100
AcDbLine
 10
13.6136888089198
 20
12.9711358869293
 30
0.0
 11
13.39846571180694
 21
12.9711358869293
 31
0.0
  0
LINE
  5
2CF0
330
1E
100
AcDbEntity
  8
7
100
AcDbLine
 10
13.39846571180694
 20
12.95670019139124
 30
0.0
 11
13.6123764729618
 21
12.95670019139124
 31
0.0
  0
LINE
  5
2CF1
330
1E
100
AcDbEntity
  8
7
100
AcDbLine
 10
12.95883316587518
 20
13.21654271107628
 30
0.0
 11
12.78298014750248
 21
13.21654271107628
 31
0.0
  0
LINE
  5
2CF2
330
1E
100
AcDbEntity
  8
7
100
AcDbLine
 10
12.95883316587518
 20
13.24935111002641
 30
0.0
 11
12.95883316587518
 21
13.21654271107628
 31
0.0
  0
LINE
  5
2CF3
330
1E
100
AcDbEntity
  8
7
100
AcDbLine
 10
12.95883316587518
 20
13.24935111002641
 30
0.0
 11
12.78298014750248
 21
13.24935111002641
 31
0.0
  0
LINE
  5
2CF4
330
1E
100
AcDbEntity
  8
7
100
AcDbLine
 10
13.59269143359172
 20
13.21654271107628
 30
0.0
 11
13.41815075117702
 21
13.21654271107628
 31
0.0
  0
LINE
  5
2CF5
330
1E
100
AcDbEntity
  8
7
100
AcDbLine
 10
13.59269143359172
 20
13.24935111002641
 30
0.0
 11
13.59269143359172
 21
13.21654271107628
 31
0.0
  0
LINE
  5
2CF6
330
1E
100
AcDbEntity
  8
7
100
AcDbLine
 10
13.59269143359172
 20
13.24935111002641
 30
0.0
 11
13.41815075117702
 21
13.24935111002641
 31
0.0
  0
LINE
  5
2CF7
330
1E
100
AcDbEntity
  8
7
100
AcDbLine
 10
12.97720586928726
 20
13.25197578194242
 30
0.0
 11
12.97326886141324
 21
13.24935111002641
 31
0.0
  0
LINE
  5
2CF8
330
1E
100
AcDbEntity
  8
7
100
AcDbLine
 10
12.7646074440904
 20
13.25197578194242
 30
0.0
 11
12.76854445196442
 21
13.24935111002641
 31
0.0
  0
LINE
  5
2CF9
330
1E
100
AcDbEntity
  8
7
100
AcDbLine
 10
13.61106413700379
 20
13.25197578194242
 30
0.0
 11
13.60843946508778
 21
13.24935111002641
 31
0.0
  0
LINE
  5
2CFA
330
1E
100
AcDbEntity
  8
7
100
AcDbLine
 10
13.39977804776494
 20
13.25197578194242
 30
0.0
 11
13.40371505563896
 21
13.24935111002641
 31
0.0
  0
LINE
  5
2CFB
330
1E
100
AcDbEntity
  8
7
100
AcDbLine
 10
12.54938434697754
 20
13.6220545220999
 30
0.0
 11
12.54938434697754
 21
13.59055845910778
 31
0.0
  0
LINE
  5
2CFC
330
1E
100
AcDbEntity
  8
7
100
AcDbLine
 10
12.54938434697754
 20
13.6220545220999
 30
0.0
 11
12.54807201101954
 21
13.63255320976394
 31
0.0
  0
LINE
  5
2D02
330
1E
100
AcDbEntity
  8
7
100
AcDbLine
 10
12.52444996377544
 20
13.73622775044636
 30
0.0
 11
12.54938434697754
 21
13.73622775044636
 31
0.0
  0
LINE
  5
2D03
330
1E
100
AcDbEntity
  8
7
100
AcDbLine
 10
12.54938434697754
 20
13.73622775044636
 30
0.0
 11
12.54807201101954
 21
13.74935111002641
 31
0.0
  0
LINE
  5
2D09
330
1E
100
AcDbEntity
  8
7
100
AcDbLine
 10
13.82497489815865
 20
13.75328811790043
 30
0.0
 11
13.82628723411665
 21
13.77953483706053
 31
0.0
  0
LINE
  5
2D0A
330
1E
100
AcDbEntity
  8
7
100
AcDbLine
 10
12.55200901889355
 20
13.75328811790043
 30
0.0
 11
12.54938434697754
 21
13.77953483706053
 31
0.0
  0
LINE
  5
2D0B
330
1E
100
AcDbEntity
  8
7
100
AcDbLine
 10
13.85122161731875
 20
13.70998103128626
 30
0.0
 11
13.85122161731875
 21
13.73622775044636
 31
0.0
  0
LINE
  5
2D7E
330
1E
100
AcDbEntity
  8
7
100
AcDbLine
 10
14.77379379579644
 20
12.35565032262484
 30
0.0
 11
14.77379379579644
 21
12.30709389217864
 31
0.0
  0
LINE
  5
2D7F
330
1E
100
AcDbEntity
  8
7
100
AcDbLine
 10
14.78166781154447
 20
12.35565032262484
 30
0.0
 11
14.77379379579644
 21
12.35565032262484
 31
0.0
  0
LINE
  5
2D85
330
1E
100
AcDbEntity
  8
7
100
AcDbLine
 10
14.78691715537649
 20
12.31103090005266
 30
0.0
 11
14.78691715537649
 21
12.35040097879282
 31
0.0
  0
LINE
  5
2D8B
330
1E
100
AcDbEntity
  8
7
100
AcDbLine
 10
14.78166781154447
 20
12.30709389217864
 30
0.0
 11
14.77379379579644
 21
12.30709389217864
 31
0.0
  0
LINE
  5
2D96
330
1E
100
AcDbEntity
  8
7
100
AcDbLine
 10
14.81185153857859
 20
12.30184454834662
 30
0.0
 11
14.81185153857859
 21
12.35827499454085
 31
0.0
  0
LINE
  5
2D9C
330
1E
100
AcDbEntity
  8
7
100
AcDbLine
 10
14.79610350708253
 20
12.37402302603691
 30
0.0
 11
14.74754707663634
 21
12.37402302603691
 31
0.0
  0
LINE
  5
2DA2
330
1E
100
AcDbEntity
  8
7
100
AcDbLine
 10
14.98376754907728
 20
12.35565032262484
 30
0.0
 11
14.98376754907728
 21
12.28609651685056
 31
0.0
  0
LINE
  5
2DA9
330
1E
100
AcDbEntity
  8
7
100
AcDbLine
 10
14.9391481265051
 20
12.35565032262484
 30
0.0
 11
14.9391481265051
 21
12.37402302603691
 31
0.0
  0
LINE
  5
2DAA
330
1E
100
AcDbEntity
  8
7
100
AcDbLine
 10
14.95620849395917
 20
12.35565032262484
 30
0.0
 11
14.9391481265051
 21
12.35565032262484
 31
0.0
  0
LINE
  5
2DAB
330
1E
100
AcDbEntity
  8
7
100
AcDbLine
 10
14.82497489815864
 20
12.37402302603691
 30
0.0
 11
14.82497489815864
 21
12.30184454834662
 31
0.0
  0
LINE
  5
2DB1
330
1E
100
AcDbEntity
  8
7
100
AcDbLine
 10
14.87221899264683
 20
12.28609651685056
 30
0.0
 11
14.84072292965471
 21
12.28609651685056
 31
0.0
  0
LINE
  5
2DC2
330
1E
100
AcDbEntity
  8
7
100
AcDbLine
 10
14.8643449768988
 20
12.30709389217864
 30
0.0
 11
14.85778329710877
 21
12.30709389217864
 31
0.0
  0
LINE
  5
2DD2
330
1E
100
AcDbEntity
  8
7
100
AcDbLine
 10
14.92471243096704
 20
12.37402302603691
 30
0.0
 11
14.92471243096704
 21
12.28609651685056
 31
0.0
  0
LINE
  5
2DD3
330
1E
100
AcDbEntity
  8
7
100
AcDbLine
 10
14.92471243096704
 20
12.37402302603691
 30
0.0
 11
14.90109038372295
 21
12.37402302603691
 31
0.0
  0
LINE
  5
2DD4
330
1E
100
AcDbEntity
  8
7
100
AcDbLine
 10
14.5651323784736
 20
12.33990229112877
 30
0.0
 11
14.55463369080956
 21
12.33990229112877
 31
0.0
  0
LINE
  5
2DD5
330
1E
100
AcDbEntity
  8
7
100
AcDbLine
 10
14.55463369080956
 20
12.38058470582694
 30
0.0
 11
14.55463369080956
 21
12.33990229112877
 31
0.0
  0
LINE
  5
2DD6
330
1E
100
AcDbEntity
  8
7
100
AcDbLine
 10
14.5651323784736
 20
12.38058470582694
 30
0.0
 11
14.55463369080956
 21
12.38058470582694
 31
0.0
  0
LINE
  5
2DDC
330
1E
100
AcDbEntity
  8
7
100
AcDbLine
 10
14.57038172230563
 20
12.37533536199492
 30
0.0
 11
14.57038172230563
 21
12.3464639709188
 31
0.0
  0
LINE
  5
2DDD
330
1E
100
AcDbEntity
  8
7
100
AcDbLine
 10
14.5651323784736
 20
12.34121462708678
 30
0.0
 11
14.56906938634762
 21
12.34252696304479
 31
0.0
  0
LINE
  5
2DDE
330
1E
100
AcDbEntity
  8
7
100
AcDbLine
 10
14.56906938634762
 20
12.34252696304479
 30
0.0
 11
14.57038172230563
 21
12.3464639709188
 31
0.0
  0
LINE
  5
2DDF
330
1E
100
AcDbEntity
  8
7
100
AcDbLine
 10
14.63074917637387
 20
12.34252696304479
 30
0.0
 11
14.64124786403791
 21
12.31759257984268
 31
0.0
  0
LINE
  5
2DE0
330
1E
100
AcDbEntity
  8
7
100
AcDbLine
 10
14.61893815275182
 20
12.31759257984268
 30
0.0
 11
14.63074917637387
 21
12.34252696304479
 31
0.0
  0
LINE
  5
2DE1
330
1E
100
AcDbEntity
  8
7
100
AcDbLine
 10
14.64124786403791
 20
12.31759257984268
 30
0.0
 11
14.61893815275182
 21
12.31759257984268
 31
0.0
  0
LINE
  5
2DE2
330
1E
100
AcDbEntity
  8
7
100
AcDbLine
 10
14.64649720786993
 20
12.29921987643061
 30
0.0
 11
14.6136888089198
 21
12.29921987643061
 31
0.0
  0
LINE
  5
2DE3
330
1E
100
AcDbEntity
  8
7
100
AcDbLine
 10
14.65305888765995
 20
12.28609651685056
 30
0.0
 11
14.64649720786993
 21
12.29921987643061
 31
0.0
  0
LINE
  5
2DE4
330
1E
100
AcDbEntity
  8
7
100
AcDbLine
 10
14.65305888765995
 20
12.28609651685056
 30
0.0
 11
14.69242896640011
 21
12.28609651685056
 31
0.0
  0
LINE
  5
2DE5
330
1E
100
AcDbEntity
  8
7
100
AcDbLine
 10
14.69242896640011
 20
12.32415425963271
 30
0.0
 11
14.69242896640011
 21
12.28609651685056
 31
0.0
  0
LINE
  5
2DE6
330
1E
100
AcDbEntity
  8
7
100
AcDbLine
 10
14.70817699789618
 20
12.28609651685056
 30
0.0
 11
14.69242896640011
 21
12.32415425963271
 31
0.0
  0
LINE
  5
2DF1
330
1E
100
AcDbEntity
  8
7
100
AcDbLine
 10
14.64256019999591
 20
12.37402302603691
 30
0.0
 11
14.66749458319801
 21
12.31759257984268
 31
0.0
  0
LINE
  5
2DF2
330
1E
100
AcDbEntity
  8
7
100
AcDbLine
 10
14.64256019999591
 20
12.37402302603691
 30
0.0
 11
14.61893815275182
 21
12.37402302603691
 31
0.0
  0
LINE
  5
2DF8
330
1E
100
AcDbEntity
  8
7
100
AcDbLine
 10
14.50345258844736
 20
12.40026974519702
 30
0.0
 11
14.58219274592767
 21
12.40026974519702
 31
0.0
  0
LINE
  5
2DF9
330
1E
100
AcDbEntity
  8
7
100
AcDbLine
 10
14.50345258844736
 20
12.40026974519702
 30
0.0
 11
14.50345258844736
 21
12.28609651685056
 31
0.0
  0
LINE
  5
2DFA
330
1E
100
AcDbEntity
  8
7
100
AcDbLine
 10
14.55463369080956
 20
12.28609651685056
 30
0.0
 11
14.50345258844736
 21
12.28609651685056
 31
0.0
  0
LINE
  5
2DFB
330
1E
100
AcDbEntity
  8
7
100
AcDbLine
 10
14.55463369080956
 20
12.3215295877167
 30
0.0
 11
14.55463369080956
 21
12.28609651685056
 31
0.0
  0
LINE
  5
2DFC
330
1E
100
AcDbEntity
  8
7
100
AcDbLine
 10
14.55463369080956
 20
12.3215295877167
 30
0.0
 11
14.58219274592767
 21
12.3215295877167
 31
0.0
  0
LINE
  5
2E02
330
1E
100
AcDbEntity
  8
7
100
AcDbLine
 10
14.58350508188568
 20
12.28609651685056
 30
0.0
 11
14.59925311338174
 21
12.32546659559072
 31
0.0
  0
LINE
  5
2E03
330
1E
100
AcDbEntity
  8
7
100
AcDbLine
 10
14.60843946508778
 20
12.28609651685056
 30
0.0
 11
14.58350508188568
 21
12.28609651685056
 31
0.0
  0
LINE
  5
2E04
330
1E
100
AcDbEntity
  8
7
100
AcDbLine
 10
14.60843946508778
 20
12.28609651685056
 30
0.0
 11
14.6136888089198
 21
12.29921987643061
 31
0.0
  0
LINE
  5
2E05
330
1E
100
AcDbEntity
  8
7
100
AcDbLine
 10
16.20948933385418
 20
13.43832748797917
 30
0.0
 11
16.59137909763371
 21
13.98294691055135
 31
0.0
  0
LINE
  5
2E06
330
1E
100
AcDbEntity
  8
7
100
AcDbLine
 10
16.80135285091455
 20
14.73885242236237
 30
0.0
 11
17.12681216849985
 21
14.76247446960647
 31
0.0
  0
LINE
  5
2E17
330
1E
100
AcDbEntity
  8
7
100
AcDbLine
 10
17.12681216849985
 20
12.01181830162746
 30
0.0
 11
16.80135285091455
 21
12.03412801291355
 31
0.0
  0
LINE
  5
2E1E
330
1E
100
AcDbEntity
  8
7
100
AcDbLine
 10
17.12681216849985
 20
12.04200202866158
 30
0.0
 11
17.12681216849985
 21
14.73229074257234
 31
0.0
  0
LINE
  5
2E3A
330
1E
100
AcDbEntity
  8
7
100
AcDbLine
 10
16.59137909763371
 20
12.79003352472457
 30
0.0
 11
16.20948933385418
 21
13.33596528325476
 31
0.0
  0
LINE
  5
31EC
330
1E
100
AcDbEntity
  8
7
100
AcDbLine
 10
16.20948933385418
 20
13.43832748797917
 30
0.0
 11
16.2147386776862
 21
13.43439048010515
 31
0.0
  0
LINE
  5
31ED
330
1E
100
AcDbEntity
  8
7
100
AcDbLine
 10
16.2147386776862
 20
13.43439048010515
 30
0.0
 11
16.23048670918227
 21
13.4225794564831
 31
0.0
  0
LINE
  5
31EE
330
1E
100
AcDbEntity
  8
7
100
AcDbLine
 10
16.23048670918227
 20
13.4225794564831
 30
0.0
 11
16.25279642046836
 21
13.40683142498704
 31
0.0
  0
LINE
  5
31EF
330
1E
100
AcDbEntity
  8
7
100
AcDbLine
 10
16.25279642046836
 20
13.40683142498704
 30
0.0
 11
16.28035547558647
 21
13.38714638561696
 31
0.0
  0
LINE
  5
31F0
330
1E
100
AcDbEntity
  8
7
100
AcDbLine
 10
16.23048670918227
 20
13.35040097879282
 30
0.0
 11
16.25279642046836
 21
13.36746134624688
 31
0.0
  0
LINE
  5
31F1
330
1E
100
AcDbEntity
  8
7
100
AcDbLine
 10
16.25279642046836
 20
13.36746134624688
 30
0.0
 11
16.28035547558647
 21
13.38714638561696
 31
0.0
  0
LINE
  5
31F2
330
1E
100
AcDbEntity
  8
7
100
AcDbLine
 10
16.20948933385418
 20
13.33596528325476
 30
0.0
 11
16.2147386776862
 21
13.33990229112878
 31
0.0
  0
LINE
  5
31F3
330
1E
100
AcDbEntity
  8
7
100
AcDbLine
 10
16.2147386776862
 20
13.33990229112878
 30
0.0
 11
16.23048670918227
 21
13.35040097879282
 31
0.0
  0
LINE
  5
31F4
330
1E
100
AcDbEntity
  8
7
100
AcDbLine
 10
16.20948933385418
 20
13.43832748797917
 30
0.0
 11
16.19505363831613
 21
13.40551908902904
 31
0.0
  0
LINE
  5
31F5
330
1E
100
AcDbEntity
  8
7
100
AcDbLine
 10
16.19505363831613
 20
13.40551908902904
 30
0.0
 11
16.19505363831613
 21
13.36877368220489
 31
0.0
  0
LINE
  5
31F6
330
1E
100
AcDbEntity
  8
7
100
AcDbLine
 10
16.19505363831613
 20
13.36877368220489
 30
0.0
 11
16.20948933385418
 21
13.33596528325476
 31
0.0
  0
LINE
  5
31F7
330
1E
100
AcDbEntity
  8
7
100
AcDbLine
 10
16.80004051495654
 20
14.73754008640436
 30
0.0
 11
16.78560481941849
 21
14.73229074257234
 31
0.0
  0
LINE
  5
31F8
330
1E
100
AcDbEntity
  8
7
100
AcDbLine
 10
16.78560481941849
 20
14.73229074257234
 30
0.0
 11
16.77510613175444
 21
14.71785504703429
 31
0.0
  0
LINE
  5
31F9
330
1E
100
AcDbEntity
  8
7
100
AcDbLine
 10
16.77510613175444
 20
14.71916738299229
 30
0.0
 11
16.78298014750248
 21
14.71654271107628
 31
0.0
  0
LINE
  5
31FA
330
1E
100
AcDbEntity
  8
7
100
AcDbLine
 10
16.78298014750248
 20
14.71654271107628
 30
0.0
 11
16.80135285091455
 21
14.70866869532825
 31
0.0
  0
LINE
  5
31FB
330
1E
100
AcDbEntity
  8
7
100
AcDbLine
 10
16.77510613175444
 20
12.05512538824164
 30
0.0
 11
16.78298014750248
 21
12.05775006015765
 31
0.0
  0
LINE
  5
31FC
330
1E
100
AcDbEntity
  8
7
100
AcDbLine
 10
16.78298014750248
 20
12.05775006015765
 30
0.0
 11
16.80135285091455
 21
12.06431173994767
 31
0.0
  0
LINE
  5
31FD
330
1E
100
AcDbEntity
  8
7
100
AcDbLine
 10
16.77510613175444
 20
12.05512538824164
 30
0.0
 11
16.78560481941849
 21
12.04068969270358
 31
0.0
  0
LINE
  5
31FE
330
1E
100
AcDbEntity
  8
7
100
AcDbLine
 10
16.78560481941849
 20
12.04068969270358
 30
0.0
 11
16.80004051495654
 21
12.03544034887156
 31
0.0
  0
LINE
  5
31FF
330
1E
100
AcDbEntity
  8
7
100
AcDbLine
 10
16.80135285091455
 20
12.06431173994767
 30
0.0
 11
16.80004051495654
 21
12.04331436461959
 31
0.0
  0
LINE
  5
3200
330
1E
100
AcDbEntity
  8
7
100
AcDbLine
 10
16.80004051495654
 20
12.04331436461959
 30
0.0
 11
16.80135285091455
 21
12.03412801291355
 31
0.0
  0
LINE
  5
3201
330
1E
100
AcDbEntity
  8
7
100
AcDbLine
 10
16.80135285091455
 20
14.73885242236237
 30
0.0
 11
16.80004051495654
 21
14.73097840661434
 31
0.0
  0
LINE
  5
3202
330
1E
100
AcDbEntity
  8
7
100
AcDbLine
 10
16.80004051495654
 20
14.73097840661434
 30
0.0
 11
16.80135285091455
 21
14.70866869532825
 31
0.0
  0
LINE
  5
3203
330
1E
100
AcDbEntity
  8
7
100
AcDbLine
 10
17.12681216849985
 20
12.85302565070883
 30
0.0
 11
17.24229773280432
 21
12.9462015037272
 31
0.0
  0
LINE
  5
3204
330
1E
100
AcDbEntity
  8
7
100
AcDbLine
 10
17.24229773280432
 20
12.9462015037272
 30
0.0
 11
17.26067043621639
 21
12.95407551947523
 31
0.0
  0
LINE
  5
3205
330
1E
100
AcDbEntity
  8
7
100
AcDbLine
 10
17.26067043621639
 20
12.95407551947523
 30
0.0
 11
17.34465993752872
 21
12.95801252734925
 31
0.0
  0
LINE
  5
3206
330
1E
100
AcDbEntity
  8
7
100
AcDbLine
 10
17.34465993752872
 20
12.95801252734925
 30
0.0
 11
17.35384628923476
 21
12.96194953522326
 31
0.0
  0
LINE
  5
3207
330
1E
100
AcDbEntity
  8
7
100
AcDbLine
 10
17.35384628923476
 20
12.96194953522326
 30
0.0
 11
17.35778329710877
 21
12.9724482228873
 31
0.0
  0
LINE
  5
3208
330
1E
100
AcDbEntity
  8
7
100
AcDbLine
 10
17.35778329710877
 20
12.9724482228873
 30
0.0
 11
17.35778329710877
 21
12.99475793417339
 31
0.0
  0
LINE
  5
3209
330
1E
100
AcDbEntity
  8
7
100
AcDbLine
 10
17.35778329710877
 20
12.99475793417339
 30
0.0
 11
17.35384628923476
 21
13.00525662183743
 31
0.0
  0
LINE
  5
320A
330
1E
100
AcDbEntity
  8
7
100
AcDbLine
 10
17.35384628923476
 20
13.00525662183743
 30
0.0
 11
17.34465993752872
 21
13.00919362971145
 31
0.0
  0
LINE
  5
320B
330
1E
100
AcDbEntity
  8
7
100
AcDbLine
 10
17.34465993752872
 20
13.00919362971145
 30
0.0
 11
17.12681216849985
 21
13.0210046533335
 31
0.0
  0
LINE
  5
320C
330
1E
100
AcDbEntity
  8
7
100
AcDbLine
 10
16.56775705038961
 20
13.7965952045146
 30
0.0
 11
16.28035547558647
 21
13.38714638561696
 31
0.0
  0
LINE
  5
320D
330
1E
100
AcDbEntity
  8
7
100
AcDbLine
 10
16.28035547558647
 20
13.38714638561696
 30
0.0
 11
16.56775705038961
 21
12.97638523076132
 31
0.0
  0
LINE
  5
320E
330
1E
100
AcDbEntity
  8
7
100
AcDbLine
 10
16.60843946508778
 20
12.8700860181629
 30
0.0
 11
16.64124786403791
 21
12.66536160871408
 31
0.0
  0
LINE
  5
320F
330
1E
100
AcDbEntity
  8
7
100
AcDbLine
 10
16.64124786403791
 20
12.66536160871408
 30
0.0
 11
16.68324261469408
 21
12.46194953522326
 31
0.0
  0
LINE
  5
3210
330
1E
100
AcDbEntity
  8
7
100
AcDbLine
 10
16.68324261469408
 20
12.46194953522326
 30
0.0
 11
16.73704838897229
 21
12.26247446960647
 31
0.0
  0
LINE
  5
3211
330
1E
100
AcDbEntity
  8
7
100
AcDbLine
 10
16.73704838897229
 20
12.26247446960647
 30
0.0
 11
16.80135285091455
 21
12.06431173994767
 31
0.0
  0
LINE
  5
3212
330
1E
100
AcDbEntity
  8
7
100
AcDbLine
 10
16.80135285091455
 20
12.06431173994767
 30
0.0
 11
17.12681216849985
 21
12.04200202866158
 31
0.0
  0
LINE
  5
3213
330
1E
100
AcDbEntity
  8
7
100
AcDbLine
 10
17.12681216849985
 20
14.73229074257234
 30
0.0
 11
16.80135285091455
 21
14.70866869532825
 31
0.0
  0
LINE
  5
3214
330
1E
100
AcDbEntity
  8
7
100
AcDbLine
 10
16.80135285091455
 20
14.70866869532825
 30
0.0
 11
16.73704838897229
 21
14.51181830162746
 31
0.0
  0
LINE
  5
3215
330
1E
100
AcDbEntity
  8
7
100
AcDbLine
 10
16.73704838897229
 20
14.51181830162746
 30
0.0
 11
16.68324261469408
 21
14.31234323601066
 31
0.0
  0
LINE
  5
3216
330
1E
100
AcDbEntity
  8
7
100
AcDbLine
 10
16.68324261469408
 20
14.31234323601066
 30
0.0
 11
16.64124786403791
 21
14.10893116251985
 31
0.0
  0
LINE
  5
3217
330
1E
100
AcDbEntity
  8
7
100
AcDbLine
 10
16.64124786403791
 20
14.10893116251985
 30
0.0
 11
16.60843946508778
 21
13.90420675307103
 31
0.0
  0
LINE
  5
3218
330
1E
100
AcDbEntity
  8
7
100
AcDbLine
 10
16.60843946508778
 20
13.90420675307103
 30
0.0
 11
16.58612975380169
 21
13.69817000766421
 31
0.0
  0
LINE
  5
3219
330
1E
100
AcDbEntity
  8
7
100
AcDbLine
 10
16.58612975380169
 20
13.69817000766421
 30
0.0
 11
16.57563106613765
 21
13.49082092629938
 31
0.0
  0
LINE
  5
321A
330
1E
100
AcDbEntity
  8
7
100
AcDbLine
 10
16.57563106613765
 20
13.49082092629938
 30
0.0
 11
16.57563106613765
 21
13.28347184493455
 31
0.0
  0
LINE
  5
321B
330
1E
100
AcDbEntity
  8
7
100
AcDbLine
 10
16.57563106613765
 20
13.28347184493455
 30
0.0
 11
16.58612975380169
 21
13.07612276356972
 31
0.0
  0
LINE
  5
321C
330
1E
100
AcDbEntity
  8
7
100
AcDbLine
 10
16.58612975380169
 20
13.07612276356972
 30
0.0
 11
16.60843946508778
 21
12.8700860181629
 31
0.0
  0
LINE
  5
321D
330
1E
100
AcDbEntity
  8
7
100
AcDbLine
 10
17.12681216849985
 20
12.04200202866158
 30
0.0
 11
17.12681216849985
 21
12.02756633312352
 31
0.0
  0
LINE
  5
321E
330
1E
100
AcDbEntity
  8
7
100
AcDbLine
 10
17.12681216849985
 20
12.02756633312352
 30
0.0
 11
17.12681216849985
 21
12.01575530950148
 31
0.0
  0
LINE
  5
321F
330
1E
100
AcDbEntity
  8
7
100
AcDbLine
 10
17.12681216849985
 20
12.01575530950148
 30
0.0
 11
17.12681216849985
 21
12.01181830162746
 31
0.0
  0
LINE
  5
3220
330
1E
100
AcDbEntity
  8
7
100
AcDbLine
 10
17.12681216849985
 20
14.76247446960647
 30
0.0
 11
17.12681216849985
 21
14.75853746173245
 31
0.0
  0
LINE
  5
3221
330
1E
100
AcDbEntity
  8
7
100
AcDbLine
 10
17.12681216849985
 20
14.75853746173245
 30
0.0
 11
17.12681216849985
 21
14.7467264381104
 31
0.0
  0
LINE
  5
3222
330
1E
100
AcDbEntity
  8
7
100
AcDbLine
 10
17.12681216849985
 20
14.7467264381104
 30
0.0
 11
17.12681216849985
 21
14.73229074257234
 31
0.0
  0
LINE
  5
3223
330
1E
100
AcDbEntity
  8
7
100
AcDbLine
 10
16.77510613175444
 20
12.05512538824164
 30
0.0
 11
16.71080166981219
 21
12.25328811790043
 31
0.0
  0
LINE
  5
3224
330
1E
100
AcDbEntity
  8
7
100
AcDbLine
 10
16.71080166981219
 20
12.25328811790043
 30
0.0
 11
16.65699589553397
 21
12.45538785543324
 31
0.0
  0
LINE
  5
3225
330
1E
100
AcDbEntity
  8
7
100
AcDbLine
 10
16.65699589553397
 20
12.45538785543324
 30
0.0
 11
16.6136888089198
 21
12.66011226488205
 31
0.0
  0
LINE
  5
3226
330
1E
100
AcDbEntity
  8
7
100
AcDbLine
 10
16.6136888089198
 20
12.66011226488205
 30
0.0
 11
16.58088040996967
 21
12.86614901028888
 31
0.0
  0
LINE
  5
3227
330
1E
100
AcDbEntity
  8
7
100
AcDbLine
 10
16.58088040996967
 20
12.86614901028888
 30
0.0
 11
16.55857069868358
 21
13.07349809165371
 31
0.0
  0
LINE
  5
3228
330
1E
100
AcDbEntity
  8
7
100
AcDbLine
 10
16.55857069868358
 20
13.07349809165371
 30
0.0
 11
16.54807201101953
 21
13.28215950897654
 31
0.0
  0
LINE
  5
3229
330
1E
100
AcDbEntity
  8
7
100
AcDbLine
 10
16.54807201101953
 20
13.28215950897654
 30
0.0
 11
16.54807201101953
 21
13.49082092629938
 31
0.0
  0
LINE
  5
322A
330
1E
100
AcDbEntity
  8
7
100
AcDbLine
 10
16.54807201101953
 20
13.49082092629938
 30
0.0
 11
16.55857069868358
 21
13.69948234362221
 31
0.0
  0
LINE
  5
322B
330
1E
100
AcDbEntity
  8
7
100
AcDbLine
 10
16.55857069868358
 20
13.69948234362221
 30
0.0
 11
16.58088040996967
 21
13.90814376094505
 31
0.0
  0
LINE
  5
322C
330
1E
100
AcDbEntity
  8
7
100
AcDbLine
 10
16.58088040996967
 20
13.90814376094505
 30
0.0
 11
16.6136888089198
 21
14.11418050635187
 31
0.0
  0
LINE
  5
322D
330
1E
100
AcDbEntity
  8
7
100
AcDbLine
 10
16.6136888089198
 20
14.11418050635187
 30
0.0
 11
16.65699589553397
 21
14.31890491580069
 31
0.0
  0
LINE
  5
322E
330
1E
100
AcDbEntity
  8
7
100
AcDbLine
 10
16.65699589553397
 20
14.31890491580069
 30
0.0
 11
16.71080166981219
 21
14.5210046533335
 31
0.0
  0
LINE
  5
322F
330
1E
100
AcDbEntity
  8
7
100
AcDbLine
 10
16.71080166981219
 20
14.5210046533335
 30
0.0
 11
16.77510613175444
 21
14.71916738299229
 31
0.0
  0
LINE
  5
3230
330
1E
100
AcDbEntity
  8
7
100
AcDbLine
 10
14.58219274592767
 20
12.32284192367471
 30
0.0
 11
14.59137909763371
 21
12.32415425963271
 31
0.0
  0
LINE
  5
3231
330
1E
100
AcDbEntity
  8
7
100
AcDbLine
 10
14.59137909763371
 20
12.32415425963271
 30
0.0
 11
14.59925311338174
 21
12.32677893154872
 31
0.0
  0
LINE
  5
3232
330
1E
100
AcDbEntity
  8
7
100
AcDbLine
 10
14.61762581679382
 20
12.37271069007891
 30
0.0
 11
14.60450245721376
 21
12.39239572944899
 31
0.0
  0
LINE
  5
3233
330
1E
100
AcDbEntity
  8
7
100
AcDbLine
 10
14.60450245721376
 20
12.39239572944899
 30
0.0
 11
14.58219274592767
 21
12.39895740923901
 31
0.0
  0
LINE
  5
3234
330
1E
100
AcDbEntity
  8
7
100
AcDbLine
 10
14.70817699789618
 20
12.28609651685056
 30
0.0
 11
14.73442371705628
 21
12.28609651685056
 31
0.0
  0
LINE
  5
3235
330
1E
100
AcDbEntity
  8
7
100
AcDbLine
 10
14.73442371705628
 20
12.28609651685056
 30
0.0
 11
14.73442371705628
 21
12.37402302603691
 31
0.0
  0
LINE
  5
3236
330
1E
100
AcDbEntity
  8
7
100
AcDbLine
 10
14.73442371705628
 20
12.37402302603691
 30
0.0
 11
14.71211400577019
 21
12.37402302603691
 31
0.0
  0
LINE
  5
3237
330
1E
100
AcDbEntity
  8
7
100
AcDbLine
 10
14.71211400577019
 20
12.37402302603691
 30
0.0
 11
14.71211400577019
 21
12.34121462708678
 31
0.0
  0
LINE
  5
3238
330
1E
100
AcDbEntity
  8
7
100
AcDbLine
 10
14.71211400577019
 20
12.34121462708678
 30
0.0
 11
14.69636597427413
 21
12.37402302603691
 31
0.0
  0
LINE
  5
3239
330
1E
100
AcDbEntity
  8
7
100
AcDbLine
 10
14.69636597427413
 20
12.37402302603691
 30
0.0
 11
14.66749458319801
 21
12.37402302603691
 31
0.0
  0
LINE
  5
323A
330
1E
100
AcDbEntity
  8
7
100
AcDbLine
 10
14.66749458319801
 20
12.37402302603691
 30
0.0
 11
14.66749458319801
 21
12.31759257984268
 31
0.0
  0
LINE
  5
323B
330
1E
100
AcDbEntity
  8
7
100
AcDbLine
 10
14.57038172230563
 20
12.37533536199492
 30
0.0
 11
14.56906938634762
 21
12.37927236986893
 31
0.0
  0
LINE
  5
323C
330
1E
100
AcDbEntity
  8
7
100
AcDbLine
 10
14.56906938634762
 20
12.37927236986893
 30
0.0
 11
14.5651323784736
 21
12.38058470582694
 31
0.0
  0
LINE
  5
323D
330
1E
100
AcDbEntity
  8
7
100
AcDbLine
 10
14.90109038372295
 20
12.37402302603691
 30
0.0
 11
14.90109038372295
 21
12.28609651685056
 31
0.0
  0
LINE
  5
323E
330
1E
100
AcDbEntity
  8
7
100
AcDbLine
 10
14.90109038372295
 20
12.28609651685056
 30
0.0
 11
14.92471243096704
 21
12.28609651685056
 31
0.0
  0
LINE
  5
323F
330
1E
100
AcDbEntity
  8
7
100
AcDbLine
 10
14.85384628923476
 20
12.31103090005266
 30
0.0
 11
14.85384628923476
 21
12.37402302603691
 31
0.0
  0
LINE
  5
3240
330
1E
100
AcDbEntity
  8
7
100
AcDbLine
 10
14.85384628923476
 20
12.37402302603691
 30
0.0
 11
14.82497489815864
 21
12.37402302603691
 31
0.0
  0
LINE
  5
3241
330
1E
100
AcDbEntity
  8
7
100
AcDbLine
 10
14.85384628923476
 20
12.31103090005266
 30
0.0
 11
14.85515862519276
 21
12.30840622813665
 31
0.0
  0
LINE
  5
3242
330
1E
100
AcDbEntity
  8
7
100
AcDbLine
 10
14.85515862519276
 20
12.30840622813665
 30
0.0
 11
14.85778329710877
 21
12.30709389217864
 31
0.0
  0
LINE
  5
3243
330
1E
100
AcDbEntity
  8
7
100
AcDbLine
 10
14.8643449768988
 20
12.30709389217864
 30
0.0
 11
14.86696964881481
 21
12.30840622813665
 31
0.0
  0
LINE
  5
3244
330
1E
100
AcDbEntity
  8
7
100
AcDbLine
 10
14.86696964881481
 20
12.30840622813665
 30
0.0
 11
14.86828198477282
 21
12.31103090005266
 31
0.0
  0
LINE
  5
3245
330
1E
100
AcDbEntity
  8
7
100
AcDbLine
 10
14.88665468818489
 20
12.30184454834662
 30
0.0
 11
14.88665468818489
 21
12.37402302603691
 31
0.0
  0
LINE
  5
3246
330
1E
100
AcDbEntity
  8
7
100
AcDbLine
 10
14.88665468818489
 20
12.37402302603691
 30
0.0
 11
14.86959432073082
 21
12.37402302603691
 31
0.0
  0
LINE
  5
3247
330
1E
100
AcDbEntity
  8
7
100
AcDbLine
 10
14.86959432073082
 20
12.37402302603691
 30
0.0
 11
14.86959432073082
 21
12.31103090005266
 31
0.0
  0
LINE
  5
3248
330
1E
100
AcDbEntity
  8
7
100
AcDbLine
 10
14.87221899264683
 20
12.28740885280857
 30
0.0
 11
14.88271768031087
 21
12.29134586068258
 31
0.0
  0
LINE
  5
3249
330
1E
100
AcDbEntity
  8
7
100
AcDbLine
 10
14.88271768031087
 20
12.29134586068258
 30
0.0
 11
14.88665468818489
 21
12.30184454834662
 31
0.0
  0
LINE
  5
324A
330
1E
100
AcDbEntity
  8
7
100
AcDbLine
 10
14.82628723411665
 20
12.30184454834662
 30
0.0
 11
14.83022424199067
 21
12.29134586068258
 31
0.0
  0
LINE
  5
324B
330
1E
100
AcDbEntity
  8
7
100
AcDbLine
 10
14.83022424199067
 20
12.29134586068258
 30
0.0
 11
14.84072292965471
 21
12.28740885280857
 31
0.0
  0
LINE
  5
324C
330
1E
100
AcDbEntity
  8
7
100
AcDbLine
 10
14.98376754907728
 20
12.35565032262484
 30
0.0
 11
15.00345258844736
 21
12.35565032262484
 31
0.0
  0
LINE
  5
324D
330
1E
100
AcDbEntity
  8
7
100
AcDbLine
 10
15.00345258844736
 20
12.35565032262484
 30
0.0
 11
15.00345258844736
 21
12.37402302603691
 31
0.0
  0
LINE
  5
324E
330
1E
100
AcDbEntity
  8
7
100
AcDbLine
 10
15.00345258844736
 20
12.37402302603691
 30
0.0
 11
14.9391481265051
 21
12.37402302603691
 31
0.0
  0
LINE
  5
324F
330
1E
100
AcDbEntity
  8
7
100
AcDbLine
 10
14.95620849395917
 20
12.35565032262484
 30
0.0
 11
14.95620849395917
 21
12.28609651685056
 31
0.0
  0
LINE
  5
3250
330
1E
100
AcDbEntity
  8
7
100
AcDbLine
 10
14.95620849395917
 20
12.28609651685056
 30
0.0
 11
14.98376754907728
 21
12.28609651685056
 31
0.0
  0
LINE
  5
3251
330
1E
100
AcDbEntity
  8
7
100
AcDbLine
 10
14.81053920262059
 20
12.35827499454085
 30
0.0
 11
14.80660219474657
 21
12.36877368220489
 31
0.0
  0
LINE
  5
3252
330
1E
100
AcDbEntity
  8
7
100
AcDbLine
 10
14.80660219474657
 20
12.36877368220489
 30
0.0
 11
14.79610350708253
 21
12.37271069007891
 31
0.0
  0
LINE
  5
3253
330
1E
100
AcDbEntity
  8
7
100
AcDbLine
 10
14.79610350708253
 20
12.28740885280857
 30
0.0
 11
14.80660219474657
 21
12.29134586068258
 31
0.0
  0
LINE
  5
3254
330
1E
100
AcDbEntity
  8
7
100
AcDbLine
 10
14.80660219474657
 20
12.29134586068258
 30
0.0
 11
14.81053920262059
 21
12.30184454834662
 31
0.0
  0
LINE
  5
3255
330
1E
100
AcDbEntity
  8
7
100
AcDbLine
 10
14.74754707663634
 20
12.37402302603691
 30
0.0
 11
14.74754707663634
 21
12.28609651685056
 31
0.0
  0
LINE
  5
3256
330
1E
100
AcDbEntity
  8
7
100
AcDbLine
 10
14.74754707663634
 20
12.28609651685056
 30
0.0
 11
14.79610350708253
 21
12.28609651685056
 31
0.0
  0
LINE
  5
3257
330
1E
100
AcDbEntity
  8
7
100
AcDbLine
 10
14.78166781154447
 20
12.30709389217864
 30
0.0
 11
14.78429248346048
 21
12.30840622813665
 31
0.0
  0
LINE
  5
3258
330
1E
100
AcDbEntity
  8
7
100
AcDbLine
 10
14.78429248346048
 20
12.30840622813665
 30
0.0
 11
14.78560481941848
 21
12.31103090005266
 31
0.0
  0
LINE
  5
3259
330
1E
100
AcDbEntity
  8
7
100
AcDbLine
 10
14.78560481941848
 20
12.35040097879282
 30
0.0
 11
14.78429248346048
 21
12.35302565070883
 31
0.0
  0
LINE
  5
325A
330
1E
100
AcDbEntity
  8
7
100
AcDbLine
 10
14.78429248346048
 20
12.35302565070883
 30
0.0
 11
14.78166781154447
 21
12.35433798666683
 31
0.0
  0
LINE
  5
325B
330
1E
100
AcDbEntity
  8
7
100
AcDbLine
 10
13.87746833647885
 20
13.43832748797917
 30
0.0
 11
13.91158907138699
 21
13.43439048010515
 31
0.0
  0
LINE
  5
325C
330
1E
100
AcDbEntity
  8
7
100
AcDbLine
 10
13.91158907138699
 20
13.43439048010515
 30
0.0
 11
13.94046046246311
 21
13.4225794564831
 31
0.0
  0
LINE
  5
325D
330
1E
100
AcDbEntity
  8
7
100
AcDbLine
 10
13.94046046246311
 20
13.4225794564831
 30
0.0
 11
13.96014550183318
 21
13.40683142498704
 31
0.0
  0
LINE
  5
325E
330
1E
100
AcDbEntity
  8
7
100
AcDbLine
 10
13.96014550183318
 20
13.40683142498704
 30
0.0
 11
13.96801951758122
 21
13.38714638561696
 31
0.0
  0
LINE
  5
325F
330
1E
100
AcDbEntity
  8
7
100
AcDbLine
 10
13.87746833647885
 20
13.33596528325476
 30
0.0
 11
13.91158907138699
 21
13.33990229112878
 31
0.0
  0
LINE
  5
3260
330
1E
100
AcDbEntity
  8
7
100
AcDbLine
 10
13.91158907138699
 20
13.33990229112878
 30
0.0
 11
13.94046046246311
 21
13.35040097879282
 31
0.0
  0
LINE
  5
3261
330
1E
100
AcDbEntity
  8
7
100
AcDbLine
 10
13.94046046246311
 20
13.35040097879282
 30
0.0
 11
13.96014550183318
 21
13.36746134624688
 31
0.0
  0
LINE
  5
3262
330
1E
100
AcDbEntity
  8
7
100
AcDbLine
 10
13.96014550183318
 20
13.36746134624688
 30
0.0
 11
13.96801951758122
 21
13.38714638561696
 31
0.0
  0
LINE
  5
3263
330
1E
100
AcDbEntity
  8
7
100
AcDbLine
 10
12.40896439947098
 20
13.38714638561696
 30
0.0
 11
12.41552607926101
 21
13.40683142498704
 31
0.0
  0
LINE
  5
3264
330
1E
100
AcDbEntity
  8
7
100
AcDbLine
 10
12.41552607926101
 20
13.40683142498704
 30
0.0
 11
12.43521111863109
 21
13.4225794564831
 31
0.0
  0
LINE
  5
3265
330
1E
100
AcDbEntity
  8
7
100
AcDbLine
 10
12.43521111863109
 20
13.4225794564831
 30
0.0
 11
12.4640825097072
 21
13.43439048010515
 31
0.0
  0
LINE
  5
3266
330
1E
100
AcDbEntity
  8
7
100
AcDbLine
 10
12.4640825097072
 20
13.43439048010515
 30
0.0
 11
12.49820324461534
 21
13.43832748797917
 31
0.0
  0
LINE
  5
3267
330
1E
100
AcDbEntity
  8
7
100
AcDbLine
 10
12.40896439947098
 20
13.38714638561696
 30
0.0
 11
12.41552607926101
 21
13.36746134624688
 31
0.0
  0
LINE
  5
3268
330
1E
100
AcDbEntity
  8
7
100
AcDbLine
 10
12.41552607926101
 20
13.36746134624688
 30
0.0
 11
12.43521111863109
 21
13.35040097879282
 31
0.0
  0
LINE
  5
3269
330
1E
100
AcDbEntity
  8
7
100
AcDbLine
 10
12.43521111863109
 20
13.35040097879282
 30
0.0
 11
12.4640825097072
 21
13.33990229112878
 31
0.0
  0
LINE
  5
326A
330
1E
100
AcDbEntity
  8
7
100
AcDbLine
 10
12.4640825097072
 20
13.33990229112878
 30
0.0
 11
12.49820324461534
 21
13.33596528325476
 31
0.0
  0
LINE
  5
326B
330
1E
100
AcDbEntity
  8
7
100
AcDbLine
 10
13.87746833647885
 20
13.33596528325476
 30
0.0
 11
13.87746833647885
 21
13.36877368220489
 31
0.0
  0
LINE
  5
326C
330
1E
100
AcDbEntity
  8
7
100
AcDbLine
 10
13.87746833647885
 20
13.36877368220489
 30
0.0
 11
13.87746833647885
 21
13.40551908902904
 31
0.0
  0
LINE
  5
326D
330
1E
100
AcDbEntity
  8
7
100
AcDbLine
 10
13.87746833647885
 20
13.40551908902904
 30
0.0
 11
13.87746833647885
 21
13.43832748797917
 31
0.0
  0
LINE
  5
326E
330
1E
100
AcDbEntity
  8
7
100
AcDbLine
 10
12.49820324461534
 20
13.43832748797917
 30
0.0
 11
12.49820324461534
 21
13.40551908902904
 31
0.0
  0
LINE
  5
326F
330
1E
100
AcDbEntity
  8
7
100
AcDbLine
 10
12.49820324461534
 20
13.40551908902904
 30
0.0
 11
12.49820324461534
 21
13.36877368220489
 31
0.0
  0
LINE
  5
3270
330
1E
100
AcDbEntity
  8
7
100
AcDbLine
 10
12.49820324461534
 20
13.36877368220489
 30
0.0
 11
12.49820324461534
 21
13.33596528325476
 31
0.0
  0
LINE
  5
3271
330
1E
100
AcDbEntity
  8
7
100
AcDbLine
 10
10.99032922886731
 20
14.73885242236237
 30
0.0
 11
10.99032922886731
 21
14.73360307853035
 31
0.0
  0
LINE
  5
3272
330
1E
100
AcDbEntity
  8
7
100
AcDbLine
 10
10.99032922886731
 20
14.73360307853035
 30
0.0
 11
10.99032922886731
 21
14.71916738299229
 31
0.0
  0
LINE
  5
3273
330
1E
100
AcDbEntity
  8
7
100
AcDbLine
 10
15.38534235222689
 20
14.71916738299229
 30
0.0
 11
15.38534235222689
 21
14.73360307853035
 31
0.0
  0
LINE
  5
3274
330
1E
100
AcDbEntity
  8
7
100
AcDbLine
 10
15.38534235222689
 20
14.73360307853035
 30
0.0
 11
15.38534235222689
 21
14.73885242236237
 31
0.0
  0
LINE
  5
3275
330
1E
100
AcDbEntity
  8
7
100
AcDbLine
 10
10.96145783779119
 20
14.70866869532825
 30
0.0
 11
10.97064418949723
 21
14.71654271107628
 31
0.0
  0
LINE
  5
3276
330
1E
100
AcDbEntity
  8
7
100
AcDbLine
 10
10.97064418949723
 20
14.71654271107628
 30
0.0
 11
10.99032922886731
 21
14.71916738299229
 31
0.0
  0
LINE
  5
3277
330
1E
100
AcDbEntity
  8
7
100
AcDbLine
 10
15.38534235222689
 20
14.71916738299229
 30
0.0
 11
15.40633972755497
 21
14.71654271107628
 31
0.0
  0
LINE
  5
3278
330
1E
100
AcDbEntity
  8
7
100
AcDbLine
 10
15.40633972755497
 20
14.71654271107628
 30
0.0
 11
15.41552607926101
 21
14.70866869532825
 31
0.0
  0
LINE
  5
3279
330
1E
100
AcDbEntity
  8
7
100
AcDbLine
 10
10.96145783779119
 20
12.06431173994767
 30
0.0
 11
10.97064418949723
 21
12.05775006015765
 31
0.0
  0
LINE
  5
327A
330
1E
100
AcDbEntity
  8
7
100
AcDbLine
 10
10.97064418949723
 20
12.05775006015765
 30
0.0
 11
10.99032922886731
 21
12.05512538824164
 31
0.0
  0
LINE
  5
327B
330
1E
100
AcDbEntity
  8
7
100
AcDbLine
 10
15.38534235222689
 20
12.05512538824164
 30
0.0
 11
15.40633972755497
 21
12.05775006015765
 31
0.0
  0
LINE
  5
327C
330
1E
100
AcDbEntity
  8
7
100
AcDbLine
 10
15.40633972755497
 20
12.05775006015765
 30
0.0
 11
15.41552607926101
 21
12.06431173994767
 31
0.0
  0
LINE
  5
327D
330
1E
100
AcDbEntity
  8
7
100
AcDbLine
 10
15.38534235222689
 20
12.05512538824164
 30
0.0
 11
15.38534235222689
 21
12.04068969270358
 31
0.0
  0
LINE
  5
327E
330
1E
100
AcDbEntity
  8
7
100
AcDbLine
 10
15.38534235222689
 20
12.04068969270358
 30
0.0
 11
15.38534235222689
 21
12.03412801291355
 31
0.0
  0
LINE
  5
327F
330
1E
100
AcDbEntity
  8
7
100
AcDbLine
 10
10.99032922886731
 20
12.03412801291355
 30
0.0
 11
10.99032922886731
 21
12.04068969270358
 31
0.0
  0
LINE
  5
3280
330
1E
100
AcDbEntity
  8
7
100
AcDbLine
 10
10.99032922886731
 20
12.04068969270358
 30
0.0
 11
10.99032922886731
 21
12.05512538824164
 31
0.0
  0
LINE
  5
3281
330
1E
100
AcDbEntity
  8
7
100
AcDbLine
 10
10.99032922886731
 20
12.03412801291355
 30
0.0
 11
10.96933185353922
 21
12.04331436461959
 31
0.0
  0
LINE
  5
3282
330
1E
100
AcDbEntity
  8
7
100
AcDbLine
 10
10.96933185353922
 20
12.04331436461959
 30
0.0
 11
10.96145783779119
 21
12.06431173994767
 31
0.0
  0
LINE
  5
3283
330
1E
100
AcDbEntity
  8
7
100
AcDbLine
 10
15.41552607926101
 20
12.06431173994767
 30
0.0
 11
15.40633972755497
 21
12.04331436461959
 31
0.0
  0
LINE
  5
3284
330
1E
100
AcDbEntity
  8
7
100
AcDbLine
 10
15.40633972755497
 20
12.04331436461959
 30
0.0
 11
15.38534235222689
 21
12.03412801291355
 31
0.0
  0
LINE
  5
3285
330
1E
100
AcDbEntity
  8
7
100
AcDbLine
 10
15.38534235222689
 20
14.73885242236237
 30
0.0
 11
15.40633972755497
 21
14.73097840661434
 31
0.0
  0
LINE
  5
3286
330
1E
100
AcDbEntity
  8
7
100
AcDbLine
 10
15.40633972755497
 20
14.73097840661434
 30
0.0
 11
15.41552607926101
 21
14.70866869532825
 31
0.0
  0
LINE
  5
3287
330
1E
100
AcDbEntity
  8
7
100
AcDbLine
 10
10.96145783779119
 20
14.70866869532825
 30
0.0
 11
10.96933185353922
 21
14.73097840661434
 31
0.0
  0
LINE
  5
3288
330
1E
100
AcDbEntity
  8
7
100
AcDbLine
 10
10.96933185353922
 20
14.73097840661434
 30
0.0
 11
10.99032922886731
 21
14.73885242236237
 31
0.0
  0
LINE
  5
3289
330
1E
100
AcDbEntity
  8
7
100
AcDbLine
 10
13.54019799527151
 20
13.64305189742799
 30
0.0
 11
13.52707463569145
 21
13.65748759296605
 31
0.0
  0
LINE
  5
328A
330
1E
100
AcDbEntity
  8
7
100
AcDbLine
 10
13.52707463569145
 20
13.65748759296605
 30
0.0
 11
13.50607726036337
 21
13.66404927275607
 31
0.0
  0
LINE
  5
328B
330
1E
100
AcDbEntity
  8
7
100
AcDbLine
 10
13.50607726036337
 20
13.66404927275607
 30
0.0
 11
13.48507988503528
 21
13.65748759296605
 31
0.0
  0
LINE
  5
328C
330
1E
100
AcDbEntity
  8
7
100
AcDbLine
 10
13.48507988503528
 20
13.65748759296605
 30
0.0
 11
13.47195652545523
 21
13.64305189742799
 31
0.0
  0
LINE
  5
328D
330
1E
100
AcDbEntity
  8
7
100
AcDbLine
 10
12.90502739159697
 20
13.64305189742799
 30
0.0
 11
12.89190403201691
 21
13.65748759296605
 31
0.0
  0
LINE
  5
328E
330
1E
100
AcDbEntity
  8
7
100
AcDbLine
 10
12.89190403201691
 20
13.65748759296605
 30
0.0
 11
12.87090665668883
 21
13.66404927275607
 31
0.0
  0
LINE
  5
328F
330
1E
100
AcDbEntity
  8
7
100
AcDbLine
 10
12.87090665668883
 20
13.66404927275607
 30
0.0
 11
12.84990928136075
 21
13.65748759296605
 31
0.0
  0
LINE
  5
3290
330
1E
100
AcDbEntity
  8
7
100
AcDbLine
 10
12.84990928136075
 20
13.65748759296605
 30
0.0
 11
12.83678592178069
 21
13.64305189742799
 31
0.0
  0
LINE
  5
3291
330
1E
100
AcDbEntity
  8
7
100
AcDbLine
 10
12.54938434697754
 20
13.73622775044636
 30
0.0
 11
12.54938434697754
 21
13.77953483706053
 31
0.0
  0
LINE
  5
3292
330
1E
100
AcDbEntity
  8
7
100
AcDbLine
 10
12.54938434697754
 20
13.77953483706053
 30
0.0
 11
12.54807201101954
 21
13.79134586068258
 31
0.0
  0
LINE
  5
3293
330
1E
100
AcDbEntity
  8
7
100
AcDbLine
 10
12.52576229973345
 20
13.70998103128626
 30
0.0
 11
12.52444996377544
 21
13.73622775044636
 31
0.0
  0
LINE
  5
3294
330
1E
100
AcDbEntity
  8
7
100
AcDbLine
 10
12.52444996377544
 20
13.73622775044636
 30
0.0
 11
12.52444996377544
 21
13.74935111002641
 31
0.0
  0
LINE
  5
3295
330
1E
100
AcDbEntity
  8
7
100
AcDbLine
 10
13.39846571180694
 20
12.9711358869293
 30
0.0
 11
13.39715337584893
 21
12.98294691055135
 31
0.0
  0
LINE
  5
3296
330
1E
100
AcDbEntity
  8
7
100
AcDbLine
 10
13.39715337584893
 20
12.98294691055135
 30
0.0
 11
13.39584103989093
 21
12.99082092629938
 31
0.0
  0
LINE
  5
3297
330
1E
100
AcDbEntity
  8
7
100
AcDbLine
 10
13.39584103989093
 20
12.99082092629938
 30
0.0
 11
13.39584103989093
 21
12.99213326225738
 31
0.0
  0
LINE
  5
3298
330
1E
100
AcDbEntity
  8
7
100
AcDbLine
 10
13.39846571180694
 20
12.93701515202116
 30
0.0
 11
13.39846571180694
 21
12.9462015037272
 31
0.0
  0
LINE
  5
3299
330
1E
100
AcDbEntity
  8
7
100
AcDbLine
 10
13.39846571180694
 20
12.9462015037272
 30
0.0
 11
13.39846571180694
 21
12.95670019139124
 31
0.0
  0
LINE
  5
329A
330
1E
100
AcDbEntity
  8
7
100
AcDbLine
 10
13.6123764729618
 20
12.95670019139124
 30
0.0
 11
13.6123764729618
 21
12.9462015037272
 31
0.0
  0
LINE
  5
329B
330
1E
100
AcDbEntity
  8
7
100
AcDbLine
 10
13.6123764729618
 20
12.9462015037272
 30
0.0
 11
13.6136888089198
 21
12.93701515202116
 31
0.0
  0
LINE
  5
329C
330
1E
100
AcDbEntity
  8
7
100
AcDbLine
 10
13.6136888089198
 20
12.9711358869293
 30
0.0
 11
13.6136888089198
 21
12.98294691055135
 31
0.0
  0
LINE
  5
329D
330
1E
100
AcDbEntity
  8
7
100
AcDbLine
 10
13.6136888089198
 20
12.98294691055135
 30
0.0
 11
13.6150011448778
 21
12.99082092629938
 31
0.0
  0
LINE
  5
329E
330
1E
100
AcDbEntity
  8
7
100
AcDbLine
 10
13.6136888089198
 20
13.0223169892915
 30
0.0
 11
13.6150011448778
 21
13.00131961396342
 31
0.0
  0
LINE
  5
329F
330
1E
100
AcDbEntity
  8
7
100
AcDbLine
 10
13.6150011448778
 20
13.00131961396342
 30
0.0
 11
13.6150011448778
 21
12.99475793417339
 31
0.0
  0
LINE
  5
32A0
330
1E
100
AcDbEntity
  8
7
100
AcDbLine
 10
13.6150011448778
 20
12.99475793417339
 30
0.0
 11
13.6150011448778
 21
12.99213326225738
 31
0.0
  0
LINE
  5
32A1
330
1E
100
AcDbEntity
  8
7
100
AcDbLine
 10
13.6150011448778
 20
12.99213326225738
 30
0.0
 11
13.6150011448778
 21
12.99082092629938
 31
0.0
  0
LINE
  5
32A2
330
1E
100
AcDbEntity
  8
7
100
AcDbLine
 10
12.7632951081324
 20
12.9711358869293
 30
0.0
 11
12.76198277217439
 21
12.98294691055135
 31
0.0
  0
LINE
  5
32A3
330
1E
100
AcDbEntity
  8
7
100
AcDbLine
 10
12.76198277217439
 20
12.98294691055135
 30
0.0
 11
12.76198277217439
 21
12.99082092629938
 31
0.0
  0
LINE
  5
32A4
330
1E
100
AcDbEntity
  8
7
100
AcDbLine
 10
12.7632951081324
 20
12.93701515202116
 30
0.0
 11
12.7632951081324
 21
12.9462015037272
 31
0.0
  0
LINE
  5
32A5
330
1E
100
AcDbEntity
  8
7
100
AcDbLine
 10
12.7632951081324
 20
12.9462015037272
 30
0.0
 11
12.7632951081324
 21
12.95670019139124
 31
0.0
  0
LINE
  5
32A6
330
1E
100
AcDbEntity
  8
7
100
AcDbLine
 10
12.97851820524526
 20
12.9711358869293
 30
0.0
 11
12.97851820524526
 21
12.95670019139124
 31
0.0
  0
LINE
  5
32A7
330
1E
100
AcDbEntity
  8
7
100
AcDbLine
 10
12.97851820524526
 20
12.95670019139124
 30
0.0
 11
12.97851820524526
 21
12.9462015037272
 31
0.0
  0
LINE
  5
32A8
330
1E
100
AcDbEntity
  8
7
100
AcDbLine
 10
12.97851820524526
 20
12.9462015037272
 30
0.0
 11
12.97851820524526
 21
12.93701515202116
 31
0.0
  0
LINE
  5
32A9
330
1E
100
AcDbEntity
  8
7
100
AcDbLine
 10
12.97851820524526
 20
12.9711358869293
 30
0.0
 11
12.97983054120327
 21
12.98294691055135
 31
0.0
  0
LINE
  5
32AA
330
1E
100
AcDbEntity
  8
7
100
AcDbLine
 10
12.97983054120327
 20
12.98294691055135
 30
0.0
 11
12.97983054120327
 21
12.99082092629938
 31
0.0
  0
LINE
  5
32AB
330
1E
100
AcDbEntity
  8
7
100
AcDbLine
 10
12.97851820524526
 20
13.0223169892915
 30
0.0
 11
12.97983054120327
 21
13.00131961396342
 31
0.0
  0
LINE
  5
32AC
330
1E
100
AcDbEntity
  8
7
100
AcDbLine
 10
12.97983054120327
 20
13.00131961396342
 30
0.0
 11
12.97983054120327
 21
12.99475793417339
 31
0.0
  0
LINE
  5
32AD
330
1E
100
AcDbEntity
  8
7
100
AcDbLine
 10
12.97983054120327
 20
12.99475793417339
 30
0.0
 11
12.97983054120327
 21
12.99213326225738
 31
0.0
  0
LINE
  5
32AE
330
1E
100
AcDbEntity
  8
7
100
AcDbLine
 10
12.97983054120327
 20
12.99213326225738
 30
0.0
 11
12.97983054120327
 21
12.99082092629938
 31
0.0
  0
LINE
  5
32AF
330
1E
100
AcDbEntity
  8
7
100
AcDbLine
 10
12.97851820524526
 20
12.93701515202116
 30
0.0
 11
12.7632951081324
 21
12.93701515202116
 31
0.0
  0
LINE
  5
32B0
330
1E
100
AcDbEntity
  8
7
100
AcDbLine
 10
12.7632951081324
 20
12.93701515202116
 30
0.0
 11
12.74623474067833
 21
12.68898365595817
 31
0.0
  0
LINE
  5
32B1
330
1E
100
AcDbEntity
  8
7
100
AcDbLine
 10
12.39321636797492
 20
12.76116213364846
 30
0.0
 11
12.40896439947098
 21
13.38714638561696
 31
0.0
  0
LINE
  5
32B2
330
1E
100
AcDbEntity
  8
7
100
AcDbLine
 10
12.40896439947098
 20
13.38714638561696
 30
0.0
 11
12.39321636797492
 21
14.01313063758547
 31
0.0
  0
LINE
  5
32B3
330
1E
100
AcDbEntity
  8
7
100
AcDbLine
 10
13.87746833647885
 20
13.33596528325476
 30
0.0
 11
12.49820324461534
 21
13.33596528325476
 31
0.0
  0
LINE
  5
32B4
330
1E
100
AcDbEntity
  8
7
100
AcDbLine
 10
12.49820324461534
 20
13.33596528325476
 30
0.0
 11
12.48114287716127
 21
12.60893116251985
 31
0.0
  0
LINE
  5
32B5
330
1E
100
AcDbEntity
  8
7
100
AcDbLine
 10
12.76591978004841
 20
13.21916738299229
 30
0.0
 11
12.7646074440904
 21
13.25197578194242
 31
0.0
  0
LINE
  5
32B6
330
1E
100
AcDbEntity
  8
7
100
AcDbLine
 10
12.7646074440904
 20
13.25197578194242
 30
0.0
 11
12.97720586928726
 21
13.25197578194242
 31
0.0
  0
LINE
  5
32B7
330
1E
100
AcDbEntity
  8
7
100
AcDbLine
 10
13.39977804776494
 20
13.25197578194242
 30
0.0
 11
13.61106413700379
 21
13.25197578194242
 31
0.0
  0
LINE
  5
32B8
330
1E
100
AcDbEntity
  8
7
100
AcDbLine
 10
13.61106413700379
 20
13.25197578194242
 30
0.0
 11
13.61106413700379
 21
13.21916738299229
 31
0.0
  0
LINE
  5
32B9
330
1E
100
AcDbEntity
  8
7
100
AcDbLine
 10
14.89846571180694
 20
13.70735635937025
 30
0.0
 11
14.95095915012715
 21
13.70735635937025
 31
0.0
  0
LINE
  5
32BA
330
1E
100
AcDbEntity
  8
7
100
AcDbLine
 10
14.95095915012715
 20
13.70735635937025
 30
0.0
 11
14.95095915012715
 21
13.70866869532825
 31
0.0
  0
LINE
  5
32BB
330
1E
100
AcDbEntity
  8
7
100
AcDbLine
 10
14.89846571180694
 20
13.73229074257234
 30
0.0
 11
14.89846571180694
 21
13.70735635937025
 31
0.0
  0
LINE
  5
32BC
330
1E
100
AcDbEntity
  8
7
100
AcDbLine
 10
14.89846571180694
 20
13.70735635937025
 30
0.0
 11
14.89977804776494
 21
13.70866869532825
 31
0.0
  0
LINE
  5
32BD
330
1E
100
AcDbEntity
  8
7
100
AcDbLine
 10
14.89584103989093
 20
13.73229074257234
 30
0.0
 11
14.89846571180694
 21
13.73229074257234
 31
0.0
  0
LINE
  5
32BE
330
1E
100
AcDbEntity
  8
7
100
AcDbLine
 10
14.89846571180694
 20
13.73229074257234
 30
0.0
 11
14.89977804776494
 21
13.73360307853035
 31
0.0
  0
LINE
  5
32BF
330
1E
100
AcDbEntity
  8
7
100
AcDbLine
 10
11.47851820524526
 20
13.29790754047261
 30
0.0
 11
11.49557857269933
 21
13.27428549322851
 31
0.0
  0
LINE
  5
32C0
330
1E
100
AcDbEntity
  8
7
100
AcDbLine
 10
11.49557857269933
 20
13.27428549322851
 30
0.0
 11
11.51920061994342
 21
13.25722512577444
 31
0.0
  0
LINE
  5
32C1
330
1E
100
AcDbEntity
  8
7
100
AcDbLine
 10
11.51920061994342
 20
13.25722512577444
 30
0.0
 11
11.54807201101954
 21
13.25197578194242
 31
0.0
  0
LINE
  5
32C2
330
1E
100
AcDbEntity
  8
7
100
AcDbLine
 10
11.54807201101954
 20
13.25197578194242
 30
0.0
 11
11.57694340209565
 21
13.25722512577444
 31
0.0
  0
LINE
  5
32C3
330
1E
100
AcDbEntity
  8
7
100
AcDbLine
 10
11.57694340209565
 20
13.25722512577444
 30
0.0
 11
11.60056544933975
 21
13.27428549322851
 31
0.0
  0
LINE
  5
32C4
330
1E
100
AcDbEntity
  8
7
100
AcDbLine
 10
11.60056544933975
 20
13.27428549322851
 30
0.0
 11
11.61762581679381
 21
13.29790754047261
 31
0.0
  0
LINE
  5
32C5
330
1E
100
AcDbEntity
  8
7
100
AcDbLine
 10
11.61762581679381
 20
13.29790754047261
 30
0.0
 11
11.62287516062584
 21
13.32677893154872
 31
0.0
  0
LINE
  5
32C6
330
1E
100
AcDbEntity
  8
7
100
AcDbLine
 10
11.61762581679381
 20
13.47638523076132
 30
0.0
 11
11.60056544933975
 21
13.50000727800542
 31
0.0
  0
LINE
  5
32C7
330
1E
100
AcDbEntity
  8
7
100
AcDbLine
 10
11.60056544933975
 20
13.50000727800542
 30
0.0
 11
11.57694340209565
 21
13.51706764545949
 31
0.0
  0
LINE
  5
32C8
330
1E
100
AcDbEntity
  8
7
100
AcDbLine
 10
11.57694340209565
 20
13.51706764545949
 30
0.0
 11
11.54807201101954
 21
13.5223169892915
 31
0.0
  0
LINE
  5
32C9
330
1E
100
AcDbEntity
  8
7
100
AcDbLine
 10
11.54807201101954
 20
13.5223169892915
 30
0.0
 11
11.51920061994342
 21
13.51706764545949
 31
0.0
  0
LINE
  5
32CA
330
1E
100
AcDbEntity
  8
7
100
AcDbLine
 10
11.51920061994342
 20
13.51706764545949
 30
0.0
 11
11.49557857269933
 21
13.50000727800542
 31
0.0
  0
LINE
  5
32CB
330
1E
100
AcDbEntity
  8
7
100
AcDbLine
 10
11.49557857269933
 20
13.50000727800542
 30
0.0
 11
11.47851820524526
 21
13.47638523076132
 31
0.0
  0
LINE
  5
32CC
330
1E
100
AcDbEntity
  8
7
100
AcDbLine
 10
11.47851820524526
 20
13.47638523076132
 30
0.0
 11
11.47326886141324
 21
13.44751383968521
 31
0.0
  0
LINE
  5
32CD
330
1E
100
AcDbEntity
  8
7
100
AcDbLine
 10
11.43389878267308
 20
13.32677893154872
 30
0.0
 11
11.4391481265051
 21
13.29134586068258
 31
0.0
  0
LINE
  5
32CE
330
1E
100
AcDbEntity
  8
7
100
AcDbLine
 10
11.4391481265051
 20
13.29134586068258
 30
0.0
 11
11.45620849395917
 21
13.25984979769045
 31
0.0
  0
LINE
  5
32CF
330
1E
100
AcDbEntity
  8
7
100
AcDbLine
 10
11.45620849395917
 20
13.25984979769045
 30
0.0
 11
11.48114287716127
 21
13.23491541448835
 31
0.0
  0
LINE
  5
32D0
330
1E
100
AcDbEntity
  8
7
100
AcDbLine
 10
11.48114287716127
 20
13.23491541448835
 30
0.0
 11
11.51263894015339
 21
13.21785504703429
 31
0.0
  0
LINE
  5
32D1
330
1E
100
AcDbEntity
  8
7
100
AcDbLine
 10
11.51263894015339
 20
13.21785504703429
 30
0.0
 11
11.54807201101954
 21
13.21260570320227
 31
0.0
  0
LINE
  5
32D2
330
1E
100
AcDbEntity
  8
7
100
AcDbLine
 10
11.54807201101954
 20
13.21260570320227
 30
0.0
 11
11.58350508188568
 21
13.21785504703429
 31
0.0
  0
LINE
  5
32D3
330
1E
100
AcDbEntity
  8
7
100
AcDbLine
 10
11.58350508188568
 20
13.21785504703429
 30
0.0
 11
11.61500114487781
 21
13.23491541448835
 31
0.0
  0
LINE
  5
32D4
330
1E
100
AcDbEntity
  8
7
100
AcDbLine
 10
11.61500114487781
 20
13.23491541448835
 30
0.0
 11
11.6399355280799
 21
13.25984979769045
 31
0.0
  0
LINE
  5
32D5
330
1E
100
AcDbEntity
  8
7
100
AcDbLine
 10
11.6399355280799
 20
13.25984979769045
 30
0.0
 11
11.65699589553397
 21
13.29134586068258
 31
0.0
  0
LINE
  5
32D6
330
1E
100
AcDbEntity
  8
7
100
AcDbLine
 10
11.65699589553397
 20
13.29134586068258
 30
0.0
 11
11.662245239366
 21
13.32677893154872
 31
0.0
  0
LINE
  5
32D7
330
1E
100
AcDbEntity
  8
7
100
AcDbLine
 10
11.61500114487781
 20
13.53937735674557
 30
0.0
 11
11.58350508188568
 21
13.55643772419964
 31
0.0
  0
LINE
  5
32D8
330
1E
100
AcDbEntity
  8
7
100
AcDbLine
 10
11.58350508188568
 20
13.55643772419964
 30
0.0
 11
11.54807201101954
 21
13.56168706803166
 31
0.0
  0
LINE
  5
32D9
330
1E
100
AcDbEntity
  8
7
100
AcDbLine
 10
11.54807201101954
 20
13.56168706803166
 30
0.0
 11
11.51263894015339
 21
13.55643772419964
 31
0.0
  0
LINE
  5
32DA
330
1E
100
AcDbEntity
  8
7
100
AcDbLine
 10
11.51263894015339
 20
13.55643772419964
 30
0.0
 11
11.48114287716127
 21
13.53937735674557
 31
0.0
  0
LINE
  5
32DB
330
1E
100
AcDbEntity
  8
7
100
AcDbLine
 10
11.48114287716127
 20
13.53937735674557
 30
0.0
 11
11.45620849395917
 21
13.51444297354348
 31
0.0
  0
LINE
  5
32DC
330
1E
100
AcDbEntity
  8
7
100
AcDbLine
 10
11.45620849395917
 20
13.51444297354348
 30
0.0
 11
11.4391481265051
 21
13.48294691055134
 31
0.0
  0
LINE
  5
32DD
330
1E
100
AcDbEntity
  8
7
100
AcDbLine
 10
11.4391481265051
 20
13.48294691055134
 30
0.0
 11
11.43389878267308
 21
13.44751383968521
 31
0.0
  0
LINE
  5
32DE
330
1E
100
AcDbEntity
  8
7
100
AcDbLine
 10
11.662245239366
 20
13.44751383968521
 30
0.0
 11
11.65699589553397
 21
13.48294691055134
 31
0.0
  0
LINE
  5
32DF
330
1E
100
AcDbEntity
  8
7
100
AcDbLine
 10
11.65699589553397
 20
13.48294691055134
 30
0.0
 11
11.6399355280799
 21
13.51444297354348
 31
0.0
  0
LINE
  5
32E0
330
1E
100
AcDbEntity
  8
7
100
AcDbLine
 10
11.6399355280799
 20
13.51444297354348
 30
0.0
 11
11.61500114487781
 21
13.53937735674557
 31
0.0
  0
LINE
  5
32E1
330
1E
100
AcDbEntity
  8
7
100
AcDbLine
 10
11.47326886141324
 20
13.32677893154872
 30
0.0
 11
11.47851820524526
 21
13.29790754047261
 31
0.0
  0
LINE
  5
32E2
330
1E
100
AcDbEntity
  8
7
100
AcDbLine
 10
11.47851820524526
 20
13.29790754047261
 30
0.0
 11
11.49557857269933
 21
13.27428549322851
 31
0.0
  0
LINE
  5
32E3
330
1E
100
AcDbEntity
  8
7
100
AcDbLine
 10
11.49557857269933
 20
13.27428549322851
 30
0.0
 11
11.51920061994342
 21
13.25722512577444
 31
0.0
  0
LINE
  5
32E4
330
1E
100
AcDbEntity
  8
7
100
AcDbLine
 10
11.51920061994342
 20
13.25722512577444
 30
0.0
 11
11.54807201101954
 21
13.25197578194242
 31
0.0
  0
LINE
  5
32E5
330
1E
100
AcDbEntity
  8
7
100
AcDbLine
 10
11.54807201101954
 20
13.25197578194242
 30
0.0
 11
11.57694340209565
 21
13.25722512577444
 31
0.0
  0
LINE
  5
32E6
330
1E
100
AcDbEntity
  8
7
100
AcDbLine
 10
11.57694340209565
 20
13.25722512577444
 30
0.0
 11
11.60056544933975
 21
13.27428549322851
 31
0.0
  0
LINE
  5
32E7
330
1E
100
AcDbEntity
  8
7
100
AcDbLine
 10
11.60056544933975
 20
13.27428549322851
 30
0.0
 11
11.61762581679381
 21
13.29790754047261
 31
0.0
  0
LINE
  5
32E8
330
1E
100
AcDbEntity
  8
7
100
AcDbLine
 10
11.61762581679381
 20
13.29790754047261
 30
0.0
 11
11.62287516062584
 21
13.32677893154872
 31
0.0
  0
LINE
  5
32E9
330
1E
100
AcDbEntity
  8
7
100
AcDbLine
 10
11.62287516062584
 20
13.44751383968521
 30
0.0
 11
11.61762581679381
 21
13.47638523076132
 31
0.0
  0
LINE
  5
32EA
330
1E
100
AcDbEntity
  8
7
100
AcDbLine
 10
11.61762581679381
 20
13.47638523076132
 30
0.0
 11
11.60056544933975
 21
13.50000727800542
 31
0.0
  0
LINE
  5
32EB
330
1E
100
AcDbEntity
  8
7
100
AcDbLine
 10
11.60056544933975
 20
13.50000727800542
 30
0.0
 11
11.57694340209565
 21
13.51706764545949
 31
0.0
  0
LINE
  5
32EC
330
1E
100
AcDbEntity
  8
7
100
AcDbLine
 10
11.57694340209565
 20
13.51706764545949
 30
0.0
 11
11.54807201101954
 21
13.5223169892915
 31
0.0
  0
LINE
  5
32ED
330
1E
100
AcDbEntity
  8
7
100
AcDbLine
 10
11.54807201101954
 20
13.5223169892915
 30
0.0
 11
11.51920061994342
 21
13.51706764545949
 31
0.0
  0
LINE
  5
32EE
330
1E
100
AcDbEntity
  8
7
100
AcDbLine
 10
11.51920061994342
 20
13.51706764545949
 30
0.0
 11
11.49557857269933
 21
13.50000727800542
 31
0.0
  0
LINE
  5
32EF
330
1E
100
AcDbEntity
  8
7
100
AcDbLine
 10
11.49557857269933
 20
13.50000727800542
 30
0.0
 11
11.47851820524526
 21
13.47638523076132
 31
0.0
  0
LINE
  5
32F0
330
1E
100
AcDbEntity
  8
7
100
AcDbLine
 10
11.47851820524526
 20
13.47638523076132
 30
0.0
 11
11.47326886141324
 21
13.44751383968521
 31
0.0
  0
LINE
  5
32F1
330
1E
100
AcDbEntity
  8
7
100
AcDbLine
 10
11.42733710288305
 20
13.06824874782169
 30
0.0
 11
11.47983054120326
 21
13.06824874782169
 31
0.0
  0
LINE
  5
32F2
330
1E
100
AcDbEntity
  8
7
100
AcDbLine
 10
11.47983054120326
 20
13.06824874782169
 30
0.0
 11
11.47983054120326
 21
13.04200202866158
 31
0.0
  0
LINE
  5
32F3
330
1E
100
AcDbEntity
  8
7
100
AcDbLine
 10
11.47983054120326
 20
13.73229074257234
 30
0.0
 11
11.47983054120326
 21
13.70604402341224
 31
0.0
  0
LINE
  5
32F4
330
1E
100
AcDbEntity
  8
7
100
AcDbLine
 10
11.47983054120326
 20
13.70604402341224
 30
0.0
 11
11.42733710288305
 21
13.70604402341224
 31
0.0
  0
LINE
  5
32F5
330
1E
100
AcDbEntity
  8
7
100
AcDbLine
 10
11.66880691915602
 20
13.70604402341224
 30
0.0
 11
11.61500114487781
 21
13.70604402341224
 31
0.0
  0
LINE
  5
32F6
330
1E
100
AcDbEntity
  8
7
100
AcDbLine
 10
11.61500114487781
 20
13.70604402341224
 30
0.0
 11
11.61500114487781
 21
13.73229074257234
 31
0.0
  0
LINE
  5
32F7
330
1E
100
AcDbEntity
  8
7
100
AcDbLine
 10
11.663557575324
 20
13.44751383968521
 30
0.0
 11
11.65830823149198
 21
13.48294691055134
 31
0.0
  0
LINE
  5
32F8
330
1E
100
AcDbEntity
  8
7
100
AcDbLine
 10
11.65830823149198
 20
13.48294691055134
 30
0.0
 11
11.64124786403791
 21
13.51575530950148
 31
0.0
  0
LINE
  5
32F9
330
1E
100
AcDbEntity
  8
7
100
AcDbLine
 10
11.64124786403791
 20
13.51575530950148
 30
0.0
 11
11.61631348083581
 21
13.54068969270358
 31
0.0
  0
LINE
  5
32FA
330
1E
100
AcDbEntity
  8
7
100
AcDbLine
 10
11.61631348083581
 20
13.54068969270358
 30
0.0
 11
11.58350508188568
 21
13.55775006015765
 31
0.0
  0
LINE
  5
32FB
330
1E
100
AcDbEntity
  8
7
100
AcDbLine
 10
11.58350508188568
 20
13.55775006015765
 30
0.0
 11
11.54807201101954
 21
13.56299940398967
 31
0.0
  0
LINE
  5
32FC
330
1E
100
AcDbEntity
  8
7
100
AcDbLine
 10
11.54807201101954
 20
13.56299940398967
 30
0.0
 11
11.51263894015339
 21
13.55775006015765
 31
0.0
  0
LINE
  5
32FD
330
1E
100
AcDbEntity
  8
7
100
AcDbLine
 10
11.51263894015339
 20
13.55775006015765
 30
0.0
 11
11.47983054120326
 21
13.54068969270358
 31
0.0
  0
LINE
  5
32FE
330
1E
100
AcDbEntity
  8
7
100
AcDbLine
 10
11.47983054120326
 20
13.54068969270358
 30
0.0
 11
11.45489615800116
 21
13.51575530950148
 31
0.0
  0
LINE
  5
32FF
330
1E
100
AcDbEntity
  8
7
100
AcDbLine
 10
11.45489615800116
 20
13.51575530950148
 30
0.0
 11
11.4378357905471
 21
13.48294691055134
 31
0.0
  0
LINE
  5
3300
330
1E
100
AcDbEntity
  8
7
100
AcDbLine
 10
11.43258644671507
 20
13.32677893154872
 30
0.0
 11
11.4378357905471
 21
13.29134586068258
 31
0.0
  0
LINE
  5
3301
330
1E
100
AcDbEntity
  8
7
100
AcDbLine
 10
11.4378357905471
 20
13.29134586068258
 30
0.0
 11
11.45489615800116
 21
13.25853746173245
 31
0.0
  0
LINE
  5
3302
330
1E
100
AcDbEntity
  8
7
100
AcDbLine
 10
11.45489615800116
 20
13.25853746173245
 30
0.0
 11
11.47983054120326
 21
13.23360307853035
 31
0.0
  0
LINE
  5
3303
330
1E
100
AcDbEntity
  8
7
100
AcDbLine
 10
11.47983054120326
 20
13.23360307853035
 30
0.0
 11
11.51263894015339
 21
13.21654271107628
 31
0.0
  0
LINE
  5
3304
330
1E
100
AcDbEntity
  8
7
100
AcDbLine
 10
11.51263894015339
 20
13.21654271107628
 30
0.0
 11
11.54807201101954
 21
13.21129336724426
 31
0.0
  0
LINE
  5
3305
330
1E
100
AcDbEntity
  8
7
100
AcDbLine
 10
11.54807201101954
 20
13.21129336724426
 30
0.0
 11
11.58350508188568
 21
13.21654271107628
 31
0.0
  0
LINE
  5
3306
330
1E
100
AcDbEntity
  8
7
100
AcDbLine
 10
11.58350508188568
 20
13.21654271107628
 30
0.0
 11
11.61631348083581
 21
13.23360307853035
 31
0.0
  0
LINE
  5
3307
330
1E
100
AcDbEntity
  8
7
100
AcDbLine
 10
11.61631348083581
 20
13.23360307853035
 30
0.0
 11
11.64124786403791
 21
13.25853746173245
 31
0.0
  0
LINE
  5
3308
330
1E
100
AcDbEntity
  8
7
100
AcDbLine
 10
11.64124786403791
 20
13.25853746173245
 30
0.0
 11
11.65830823149198
 21
13.29134586068258
 31
0.0
  0
LINE
  5
3309
330
1E
100
AcDbEntity
  8
7
100
AcDbLine
 10
11.65830823149198
 20
13.29134586068258
 30
0.0
 11
11.663557575324
 21
13.32677893154872
 31
0.0
  0
LINE
  5
330A
330
1E
100
AcDbEntity
  8
7
100
AcDbLine
 10
11.67011925511402
 20
13.06562407590568
 30
0.0
 11
11.61762581679381
 21
13.06562407590568
 31
0.0
  0
LINE
  5
330B
330
1E
100
AcDbEntity
  8
7
100
AcDbLine
 10
11.61762581679381
 20
13.06562407590568
 30
0.0
 11
11.61893815275182
 21
13.06431173994767
 31
0.0
  0
LINE
  5
330C
330
1E
100
AcDbEntity
  8
7
100
AcDbLine
 10
10.97589353332925
 20
13.69817000766421
 30
0.0
 11
10.97458119737124
 21
13.90420675307103
 31
0.0
  0
LINE
  5
330D
330
1E
100
AcDbEntity
  8
7
100
AcDbLine
 10
10.97458119737124
 20
13.90420675307103
 30
0.0
 11
10.97195652545523
 21
14.10893116251985
 31
0.0
  0
LINE
  5
330E
330
1E
100
AcDbEntity
  8
7
100
AcDbLine
 10
10.97195652545523
 20
14.10893116251985
 30
0.0
 11
10.96933185353922
 21
14.31234323601066
 31
0.0
  0
LINE
  5
330F
330
1E
100
AcDbEntity
  8
7
100
AcDbLine
 10
10.96933185353922
 20
14.31234323601066
 30
0.0
 11
10.96539484566521
 21
14.51181830162746
 31
0.0
  0
LINE
  5
3310
330
1E
100
AcDbEntity
  8
7
100
AcDbLine
 10
10.96539484566521
 20
14.51181830162746
 30
0.0
 11
10.96145783779119
 21
14.70866869532825
 31
0.0
  0
LINE
  5
3311
330
1E
100
AcDbEntity
  8
7
100
AcDbLine
 10
10.96145783779119
 20
14.70866869532825
 30
0.0
 11
10.9378357905471
 21
14.73229074257234
 31
0.0
  0
LINE
  5
3312
330
1E
100
AcDbEntity
  8
7
100
AcDbLine
 10
10.9378357905471
 20
12.04200202866158
 30
0.0
 11
10.96145783779119
 21
12.06431173994767
 31
0.0
  0
LINE
  5
3313
330
1E
100
AcDbEntity
  8
7
100
AcDbLine
 10
10.96145783779119
 20
12.06431173994767
 30
0.0
 11
10.96539484566521
 21
12.26247446960647
 31
0.0
  0
LINE
  5
3314
330
1E
100
AcDbEntity
  8
7
100
AcDbLine
 10
10.96539484566521
 20
12.26247446960647
 30
0.0
 11
10.96933185353922
 21
12.46194953522326
 31
0.0
  0
LINE
  5
3315
330
1E
100
AcDbEntity
  8
7
100
AcDbLine
 10
10.96933185353922
 20
12.46194953522326
 30
0.0
 11
10.97195652545523
 21
12.66536160871408
 31
0.0
  0
LINE
  5
3316
330
1E
100
AcDbEntity
  8
7
100
AcDbLine
 10
10.97195652545523
 20
12.66536160871408
 30
0.0
 11
10.97458119737124
 21
12.8700860181629
 31
0.0
  0
LINE
  5
3317
330
1E
100
AcDbEntity
  8
7
100
AcDbLine
 10
10.97458119737124
 20
12.8700860181629
 30
0.0
 11
10.97589353332925
 21
13.07612276356972
 31
0.0
  0
LINE
  5
3318
330
1E
100
AcDbEntity
  8
7
100
AcDbLine
 10
10.97589353332925
 20
13.07612276356972
 30
0.0
 11
10.97720586928725
 21
13.28347184493455
 31
0.0
  0
LINE
  5
3319
330
1E
100
AcDbEntity
  8
7
100
AcDbLine
 10
10.97720586928725
 20
13.28347184493455
 30
0.0
 11
10.97720586928725
 21
13.49082092629938
 31
0.0
  0
LINE
  5
331A
330
1E
100
AcDbEntity
  8
7
100
AcDbLine
 10
10.97720586928725
 20
13.49082092629938
 30
0.0
 11
10.97589353332925
 21
13.69817000766421
 31
0.0
  0
LINE
  5
331B
330
1E
100
AcDbEntity
  8
7
100
AcDbLine
 10
15.40371505563896
 20
12.66536160871408
 30
0.0
 11
15.40765206351298
 21
12.46194953522326
 31
0.0
  0
LINE
  5
331C
330
1E
100
AcDbEntity
  8
7
100
AcDbLine
 10
15.40765206351298
 20
12.46194953522326
 30
0.0
 11
15.41158907138699
 21
12.26247446960647
 31
0.0
  0
LINE
  5
331D
330
1E
100
AcDbEntity
  8
7
100
AcDbLine
 10
15.41158907138699
 20
12.26247446960647
 30
0.0
 11
15.41552607926101
 21
12.06431173994767
 31
0.0
  0
LINE
  5
331E
330
1E
100
AcDbEntity
  8
7
100
AcDbLine
 10
15.41552607926101
 20
12.06431173994767
 30
0.0
 11
15.4378357905471
 21
12.04200202866158
 31
0.0
  0
LINE
  5
331F
330
1E
100
AcDbEntity
  8
7
100
AcDbLine
 10
15.4378357905471
 20
14.73229074257234
 30
0.0
 11
15.41552607926101
 21
14.70866869532825
 31
0.0
  0
LINE
  5
3320
330
1E
100
AcDbEntity
  8
7
100
AcDbLine
 10
15.41552607926101
 20
14.70866869532825
 30
0.0
 11
15.41158907138699
 21
14.51181830162746
 31
0.0
  0
LINE
  5
3321
330
1E
100
AcDbEntity
  8
7
100
AcDbLine
 10
15.41158907138699
 20
14.51181830162746
 30
0.0
 11
15.40765206351298
 21
14.31234323601066
 31
0.0
  0
LINE
  5
3322
330
1E
100
AcDbEntity
  8
7
100
AcDbLine
 10
15.40765206351298
 20
14.31234323601066
 30
0.0
 11
15.40371505563896
 21
14.10893116251985
 31
0.0
  0
LINE
  5
3323
330
1E
100
AcDbEntity
  8
7
100
AcDbLine
 10
15.40371505563896
 20
14.10893116251985
 30
0.0
 11
15.40240271968095
 21
13.90420675307103
 31
0.0
  0
LINE
  5
3324
330
1E
100
AcDbEntity
  8
7
100
AcDbLine
 10
15.40240271968095
 20
13.90420675307103
 30
0.0
 11
15.40109038372295
 21
13.69817000766421
 31
0.0
  0
LINE
  5
3325
330
1E
100
AcDbEntity
  8
7
100
AcDbLine
 10
15.40109038372295
 20
13.69817000766421
 30
0.0
 11
15.39977804776494
 21
13.49082092629938
 31
0.0
  0
LINE
  5
3326
330
1E
100
AcDbEntity
  8
7
100
AcDbLine
 10
15.39977804776494
 20
13.49082092629938
 30
0.0
 11
15.39977804776494
 21
13.28347184493455
 31
0.0
  0
LINE
  5
3327
330
1E
100
AcDbEntity
  8
7
100
AcDbLine
 10
15.39977804776494
 20
13.28347184493455
 30
0.0
 11
15.40109038372295
 21
13.07612276356972
 31
0.0
  0
LINE
  5
3328
330
1E
100
AcDbEntity
  8
7
100
AcDbLine
 10
15.40109038372295
 20
13.07612276356972
 30
0.0
 11
15.40240271968095
 21
12.8700860181629
 31
0.0
  0
LINE
  5
3329
330
1E
100
AcDbEntity
  8
7
100
AcDbLine
 10
15.40240271968095
 20
12.8700860181629
 30
0.0
 11
15.40371505563896
 21
12.66536160871408
 31
0.0
  0
LINE
  5
332A
330
1E
100
AcDbEntity
  8
7
100
AcDbLine
 10
10.96801951758122
 20
12.01181830162746
 30
0.0
 11
10.95358382204316
 21
12.01575530950148
 31
0.0
  0
LINE
  5
332B
330
1E
100
AcDbEntity
  8
7
100
AcDbLine
 10
10.95358382204316
 20
12.01575530950148
 30
0.0
 11
10.94177279842111
 21
12.02756633312352
 31
0.0
  0
LINE
  5
332C
330
1E
100
AcDbEntity
  8
7
100
AcDbLine
 10
10.94177279842111
 20
12.02756633312352
 30
0.0
 11
10.9378357905471
 21
12.04200202866158
 31
0.0
  0
LINE
  5
332D
330
1E
100
AcDbEntity
  8
7
100
AcDbLine
 10
15.4378357905471
 20
12.04200202866158
 30
0.0
 11
15.43389878267308
 21
12.02756633312352
 31
0.0
  0
LINE
  5
332E
330
1E
100
AcDbEntity
  8
7
100
AcDbLine
 10
15.43389878267308
 20
12.02756633312352
 30
0.0
 11
15.42340009500904
 21
12.01575530950148
 31
0.0
  0
LINE
  5
332F
330
1E
100
AcDbEntity
  8
7
100
AcDbLine
 10
15.42340009500904
 20
12.01575530950148
 30
0.0
 11
15.40896439947098
 21
12.01181830162746
 31
0.0
  0
LINE
  5
3330
330
1E
100
AcDbEntity
  8
7
100
AcDbLine
 10
15.40896439947098
 20
14.76247446960647
 30
0.0
 11
15.42340009500904
 21
14.75853746173245
 31
0.0
  0
LINE
  5
3331
330
1E
100
AcDbEntity
  8
7
100
AcDbLine
 10
15.42340009500904
 20
14.75853746173245
 30
0.0
 11
15.43389878267308
 21
14.7467264381104
 31
0.0
  0
LINE
  5
3332
330
1E
100
AcDbEntity
  8
7
100
AcDbLine
 10
10.9378357905471
 20
12.04200202866158
 30
0.0
 11
10.9378357905471
 21
14.73229074257234
 31
0.0
  0
LINE
  5
3333
330
1E
100
AcDbEntity
  8
7
100
AcDbLine
 10
10.9378357905471
 20
14.73229074257234
 30
0.0
 11
10.94177279842111
 21
14.7467264381104
 31
0.0
  0
LINE
  5
3334
330
1E
100
AcDbEntity
  8
7
100
AcDbLine
 10
10.94177279842111
 20
14.7467264381104
 30
0.0
 11
10.95358382204316
 21
14.75853746173245
 31
0.0
  0
LINE
  5
3335
330
1E
100
AcDbEntity
  8
7
100
AcDbLine
 10
10.95358382204316
 20
14.75853746173245
 30
0.0
 11
10.96801951758122
 21
14.76247446960647
 31
0.0
  0
LINE
  5
3336
330
1E
100
AcDbEntity
  8
7
100
AcDbLine
 10
15.40896439947098
 20
12.01181830162746
 30
0.0
 11
15.38534235222689
 21
12.03412801291355
 31
0.0
  0
LINE
  5
3337
330
1E
100
AcDbEntity
  8
7
100
AcDbLine
 10
15.38534235222689
 20
12.03412801291355
 30
0.0
 11
10.99032922886731
 21
12.03412801291355
 31
0.0
  0
LINE
  5
3338
330
1E
100
AcDbEntity
  8
7
100
AcDbLine
 10
10.99032922886731
 20
12.03412801291355
 30
0.0
 11
10.96801951758122
 21
12.01181830162746
 31
0.0
  0
LINE
  5
3339
330
1E
100
AcDbEntity
  8
7
100
AcDbLine
 10
11.3131638745366
 20
12.22704139874032
 30
0.0
 11
11.30791453070458
 21
12.43307814414715
 31
0.0
  0
LINE
  5
333A
330
1E
100
AcDbEntity
  8
7
100
AcDbLine
 10
11.30791453070458
 20
12.43307814414715
 30
0.0
 11
11.30397752283056
 21
12.64173956146998
 31
0.0
  0
LINE
  5
333B
330
1E
100
AcDbEntity
  8
7
100
AcDbLine
 10
11.30397752283056
 20
12.64173956146998
 30
0.0
 11
11.30135285091455
 21
12.85302565070883
 31
0.0
  0
LINE
  5
333C
330
1E
100
AcDbEntity
  8
7
100
AcDbLine
 10
11.30135285091455
 20
12.85302565070883
 30
0.0
 11
11.29872817899854
 21
13.06562407590568
 31
0.0
  0
LINE
  5
333D
330
1E
100
AcDbEntity
  8
7
100
AcDbLine
 10
11.29872817899854
 20
13.06562407590568
 30
0.0
 11
11.29872817899854
 21
13.27953483706053
 31
0.0
  0
LINE
  5
333E
330
1E
100
AcDbEntity
  8
7
100
AcDbLine
 10
11.29872817899854
 20
13.27953483706053
 30
0.0
 11
11.29872817899854
 21
13.49344559821539
 31
0.0
  0
LINE
  5
333F
330
1E
100
AcDbEntity
  8
7
100
AcDbLine
 10
11.29872817899854
 20
13.49344559821539
 30
0.0
 11
11.29872817899854
 21
13.70735635937025
 31
0.0
  0
LINE
  5
3340
330
1E
100
AcDbEntity
  8
7
100
AcDbLine
 10
11.29872817899854
 20
13.70735635937025
 30
0.0
 11
11.30135285091455
 21
13.91995478456709
 31
0.0
  0
LINE
  5
3341
330
1E
100
AcDbEntity
  8
7
100
AcDbLine
 10
11.30135285091455
 20
13.91995478456709
 30
0.0
 11
11.30397752283056
 21
14.13124087380594
 31
0.0
  0
LINE
  5
3342
330
1E
100
AcDbEntity
  8
7
100
AcDbLine
 10
11.30397752283056
 20
14.13124087380594
 30
0.0
 11
11.30791453070458
 21
14.34121462708678
 31
0.0
  0
LINE
  5
3343
330
1E
100
AcDbEntity
  8
7
100
AcDbLine
 10
11.30791453070458
 20
14.34121462708678
 30
0.0
 11
11.3131638745366
 21
14.5472513724936
 31
0.0
  0
LINE
  5
3344
330
1E
100
AcDbEntity
  8
7
100
AcDbLine
 10
15.0638200425156
 20
14.5472513724936
 30
0.0
 11
15.06775705038961
 21
14.34121462708678
 31
0.0
  0
LINE
  5
3345
330
1E
100
AcDbEntity
  8
7
100
AcDbLine
 10
15.06775705038961
 20
14.34121462708678
 30
0.0
 11
15.07169405826363
 21
14.13124087380594
 31
0.0
  0
LINE
  5
3346
330
1E
100
AcDbEntity
  8
7
100
AcDbLine
 10
15.07169405826363
 20
14.13124087380594
 30
0.0
 11
15.07563106613765
 21
13.91995478456709
 31
0.0
  0
LINE
  5
3347
330
1E
100
AcDbEntity
  8
7
100
AcDbLine
 10
15.07563106613765
 20
13.91995478456709
 30
0.0
 11
15.07694340209565
 21
13.70735635937025
 31
0.0
  0
LINE
  5
3348
330
1E
100
AcDbEntity
  8
7
100
AcDbLine
 10
15.07694340209565
 20
13.70735635937025
 30
0.0
 11
15.07825573805366
 21
13.49344559821539
 31
0.0
  0
LINE
  5
3349
330
1E
100
AcDbEntity
  8
7
100
AcDbLine
 10
15.07825573805366
 20
13.49344559821539
 30
0.0
 11
15.07825573805366
 21
13.27953483706053
 31
0.0
  0
LINE
  5
334A
330
1E
100
AcDbEntity
  8
7
100
AcDbLine
 10
15.07825573805366
 20
13.27953483706053
 30
0.0
 11
15.07694340209565
 21
13.06562407590568
 31
0.0
  0
LINE
  5
334B
330
1E
100
AcDbEntity
  8
7
100
AcDbLine
 10
15.07694340209565
 20
13.06562407590568
 30
0.0
 11
15.07563106613765
 21
12.85302565070883
 31
0.0
  0
LINE
  5
334C
330
1E
100
AcDbEntity
  8
7
100
AcDbLine
 10
15.07563106613765
 20
12.85302565070883
 30
0.0
 11
15.07169405826363
 21
12.64173956146998
 31
0.0
  0
LINE
  5
334D
330
1E
100
AcDbEntity
  8
7
100
AcDbLine
 10
15.07169405826363
 20
12.64173956146998
 30
0.0
 11
15.06775705038961
 21
12.43307814414715
 31
0.0
  0
LINE
  5
334E
330
1E
100
AcDbEntity
  8
7
100
AcDbLine
 10
15.06775705038961
 20
12.43307814414715
 30
0.0
 11
15.0638200425156
 21
12.22704139874032
 31
0.0
  0
LINE
  5
334F
330
1E
100
AcDbEntity
  8
7
100
AcDbLine
 10
10.99951558057334
 20
14.31890491580069
 30
0.0
 11
11.00214025248935
 21
14.11418050635187
 31
0.0
  0
LINE
  5
3350
330
1E
100
AcDbEntity
  8
7
100
AcDbLine
 10
11.00214025248935
 20
14.11418050635187
 30
0.0
 11
11.00476492440536
 21
13.90814376094505
 31
0.0
  0
LINE
  5
3351
330
1E
100
AcDbEntity
  8
7
100
AcDbLine
 10
11.00476492440536
 20
13.90814376094505
 30
0.0
 11
11.00607726036337
 21
13.69948234362221
 31
0.0
  0
LINE
  5
3352
330
1E
100
AcDbEntity
  8
7
100
AcDbLine
 10
11.00607726036337
 20
13.69948234362221
 30
0.0
 11
11.00607726036337
 21
13.49082092629938
 31
0.0
  0
LINE
  5
3353
330
1E
100
AcDbEntity
  8
7
100
AcDbLine
 10
11.00607726036337
 20
13.49082092629938
 30
0.0
 11
11.00607726036337
 21
13.28215950897654
 31
0.0
  0
LINE
  5
3354
330
1E
100
AcDbEntity
  8
7
100
AcDbLine
 10
11.00607726036337
 20
13.28215950897654
 30
0.0
 11
11.00607726036337
 21
13.07349809165371
 31
0.0
  0
LINE
  5
3355
330
1E
100
AcDbEntity
  8
7
100
AcDbLine
 10
11.00607726036337
 20
13.07349809165371
 30
0.0
 11
11.00476492440536
 21
12.86614901028888
 31
0.0
  0
LINE
  5
3356
330
1E
100
AcDbEntity
  8
7
100
AcDbLine
 10
11.00476492440536
 20
12.86614901028888
 30
0.0
 11
11.00214025248935
 21
12.66011226488205
 31
0.0
  0
LINE
  5
3357
330
1E
100
AcDbEntity
  8
7
100
AcDbLine
 10
11.00214025248935
 20
12.66011226488205
 30
0.0
 11
10.99951558057334
 21
12.45538785543324
 31
0.0
  0
LINE
  5
3358
330
1E
100
AcDbEntity
  8
7
100
AcDbLine
 10
10.99951558057334
 20
12.45538785543324
 30
0.0
 11
10.99557857269933
 21
12.25328811790043
 31
0.0
  0
LINE
  5
3359
330
1E
100
AcDbEntity
  8
7
100
AcDbLine
 10
10.99557857269933
 20
12.25328811790043
 30
0.0
 11
10.99032922886731
 21
12.05512538824164
 31
0.0
  0
LINE
  5
335A
330
1E
100
AcDbEntity
  8
7
100
AcDbLine
 10
10.99032922886731
 20
12.05512538824164
 30
0.0
 11
15.38534235222689
 21
12.05512538824164
 31
0.0
  0
LINE
  5
335B
330
1E
100
AcDbEntity
  8
7
100
AcDbLine
 10
15.37746833647885
 20
12.45538785543324
 30
0.0
 11
15.37484366456284
 21
12.66011226488205
 31
0.0
  0
LINE
  5
335C
330
1E
100
AcDbEntity
  8
7
100
AcDbLine
 10
15.37484366456284
 20
12.66011226488205
 30
0.0
 11
15.37221899264683
 21
12.86614901028888
 31
0.0
  0
LINE
  5
335D
330
1E
100
AcDbEntity
  8
7
100
AcDbLine
 10
15.37221899264683
 20
12.86614901028888
 30
0.0
 11
15.37090665668883
 21
13.07349809165371
 31
0.0
  0
LINE
  5
335E
330
1E
100
AcDbEntity
  8
7
100
AcDbLine
 10
15.37090665668883
 20
13.07349809165371
 30
0.0
 11
15.36959432073082
 21
13.28215950897654
 31
0.0
  0
LINE
  5
335F
330
1E
100
AcDbEntity
  8
7
100
AcDbLine
 10
15.36959432073082
 20
13.28215950897654
 30
0.0
 11
15.36959432073082
 21
13.49082092629938
 31
0.0
  0
LINE
  5
3360
330
1E
100
AcDbEntity
  8
7
100
AcDbLine
 10
15.36959432073082
 20
13.49082092629938
 30
0.0
 11
15.37090665668883
 21
13.69948234362221
 31
0.0
  0
LINE
  5
3361
330
1E
100
AcDbEntity
  8
7
100
AcDbLine
 10
15.37090665668883
 20
13.69948234362221
 30
0.0
 11
15.37221899264683
 21
13.90814376094505
 31
0.0
  0
LINE
  5
3362
330
1E
100
AcDbEntity
  8
7
100
AcDbLine
 10
15.37221899264683
 20
13.90814376094505
 30
0.0
 11
15.37484366456284
 21
14.11418050635187
 31
0.0
  0
LINE
  5
3363
330
1E
100
AcDbEntity
  8
7
100
AcDbLine
 10
15.37484366456284
 20
14.11418050635187
 30
0.0
 11
15.37746833647885
 21
14.31890491580069
 31
0.0
  0
LINE
  5
3364
330
1E
100
AcDbEntity
  8
7
100
AcDbLine
 10
15.37746833647885
 20
14.31890491580069
 30
0.0
 11
15.38140534435287
 21
14.5210046533335
 31
0.0
  0
LINE
  5
3365
330
1E
100
AcDbEntity
  8
7
100
AcDbLine
 10
15.38140534435287
 20
14.5210046533335
 30
0.0
 11
15.38534235222689
 21
14.71916738299229
 31
0.0
  0
LINE
  5
3366
330
1E
100
AcDbEntity
  8
7
100
AcDbLine
 10
15.38534235222689
 20
14.71916738299229
 30
0.0
 11
10.99032922886731
 21
14.71916738299229
 31
0.0
  0
LINE
  5
3367
330
1E
100
AcDbEntity
  8
7
100
AcDbLine
 10
10.99032922886731
 20
14.71916738299229
 30
0.0
 11
10.99557857269933
 21
14.5210046533335
 31
0.0
  0
LINE
  5
3368
330
1E
100
AcDbEntity
  8
7
100
AcDbLine
 10
10.99557857269933
 20
14.5210046533335
 30
0.0
 11
10.99951558057334
 21
14.31890491580069
 31
0.0
  0
LINE
  5
3369
330
1E
100
AcDbEntity
  8
7
100
AcDbLine
 10
15.38534235222689
 20
12.05512538824164
 30
0.0
 11
15.38140534435287
 21
12.25328811790043
 31
0.0
  0
LINE
  5
336A
330
1E
100
AcDbEntity
  8
7
100
AcDbLine
 10
15.38140534435287
 20
12.25328811790043
 30
0.0
 11
15.37746833647885
 21
12.45538785543324
 31
0.0
  0
LINE
  5
336B
330
1E
100
AcDbEntity
  8
7
100
AcDbLine
 10
10.96801951758122
 20
14.76247446960647
 30
0.0
 11
10.99032922886731
 21
14.73885242236237
 31
0.0
  0
LINE
  5
336C
330
1E
100
AcDbEntity
  8
7
100
AcDbLine
 10
10.99032922886731
 20
14.73885242236237
 30
0.0
 11
15.38534235222689
 21
14.73885242236237
 31
0.0
  0
LINE
  5
336D
330
1E
100
AcDbEntity
  8
7
100
AcDbLine
 10
15.38534235222689
 20
14.73885242236237
 30
0.0
 11
15.40896439947098
 21
14.76247446960647
 31
0.0
  0
LINE
  5
336E
330
1E
100
AcDbEntity
  8
7
100
AcDbLine
 10
15.40896439947098
 20
14.76247446960647
 30
0.0
 11
10.96801951758122
 21
14.76247446960647
 31
0.0
  0
LINE
  5
336F
330
1E
100
AcDbEntity
  8
7
100
AcDbLine
 10
11.61762581679381
 20
13.70735635937025
 30
0.0
 11
11.61762581679381
 21
13.73229074257234
 31
0.0
  0
LINE
  5
3370
330
1E
100
AcDbEntity
  8
7
100
AcDbLine
 10
11.61762581679381
 20
13.73229074257234
 30
0.0
 11
11.61893815275182
 21
13.73360307853035
 31
0.0
  0
LINE
  5
3371
330
1E
100
AcDbEntity
  8
7
100
AcDbLine
 10
11.47720586928725
 20
13.70735635937025
 30
0.0
 11
11.42602476692505
 21
13.70735635937025
 31
0.0
  0
LINE
  5
3372
330
1E
100
AcDbEntity
  8
7
100
AcDbLine
 10
11.42602476692505
 20
13.70735635937025
 30
0.0
 11
11.42602476692505
 21
13.70866869532825
 31
0.0
  0
LINE
  5
3373
330
1E
100
AcDbEntity
  8
7
100
AcDbLine
 10
14.79347883516652
 20
13.21654271107628
 30
0.0
 11
14.82891190603266
 21
13.21129336724426
 31
0.0
  0
LINE
  5
3374
330
1E
100
AcDbEntity
  8
7
100
AcDbLine
 10
14.82891190603266
 20
13.21129336724426
 30
0.0
 11
14.8643449768988
 21
13.21654271107628
 31
0.0
  0
LINE
  5
3375
330
1E
100
AcDbEntity
  8
7
100
AcDbLine
 10
14.8643449768988
 20
13.21654271107628
 30
0.0
 11
14.89715337584893
 21
13.23360307853035
 31
0.0
  0
LINE
  5
3376
330
1E
100
AcDbEntity
  8
7
100
AcDbLine
 10
14.89715337584893
 20
13.23360307853035
 30
0.0
 11
14.92208775905103
 21
13.25853746173245
 31
0.0
  0
LINE
  5
3377
330
1E
100
AcDbEntity
  8
7
100
AcDbLine
 10
14.92208775905103
 20
13.25853746173245
 30
0.0
 11
14.9391481265051
 21
13.29134586068258
 31
0.0
  0
LINE
  5
3378
330
1E
100
AcDbEntity
  8
7
100
AcDbLine
 10
14.9391481265051
 20
13.29134586068258
 30
0.0
 11
14.94439747033712
 21
13.32677893154872
 31
0.0
  0
LINE
  5
3379
330
1E
100
AcDbEntity
  8
7
100
AcDbLine
 10
14.7134263417282
 20
13.32677893154872
 30
0.0
 11
14.71867568556022
 21
13.29134586068258
 31
0.0
  0
LINE
  5
337A
330
1E
100
AcDbEntity
  8
7
100
AcDbLine
 10
14.71867568556022
 20
13.29134586068258
 30
0.0
 11
14.73573605301429
 21
13.25853746173245
 31
0.0
  0
LINE
  5
337B
330
1E
100
AcDbEntity
  8
7
100
AcDbLine
 10
14.73573605301429
 20
13.25853746173245
 30
0.0
 11
14.76067043621639
 21
13.23360307853035
 31
0.0
  0
LINE
  5
337C
330
1E
100
AcDbEntity
  8
7
100
AcDbLine
 10
14.76067043621639
 20
13.23360307853035
 30
0.0
 11
14.79347883516652
 21
13.21654271107628
 31
0.0
  0
LINE
  5
337D
330
1E
100
AcDbEntity
  8
7
100
AcDbLine
 10
14.79347883516652
 20
13.55775006015765
 30
0.0
 11
14.76067043621639
 21
13.54068969270358
 31
0.0
  0
LINE
  5
337E
330
1E
100
AcDbEntity
  8
7
100
AcDbLine
 10
14.76067043621639
 20
13.54068969270358
 30
0.0
 11
14.73573605301429
 21
13.51575530950148
 31
0.0
  0
LINE
  5
337F
330
1E
100
AcDbEntity
  8
7
100
AcDbLine
 10
14.73573605301429
 20
13.51575530950148
 30
0.0
 11
14.71867568556022
 21
13.48294691055134
 31
0.0
  0
LINE
  5
3380
330
1E
100
AcDbEntity
  8
7
100
AcDbLine
 10
14.71867568556022
 20
13.48294691055134
 30
0.0
 11
14.7134263417282
 21
13.44751383968521
 31
0.0
  0
LINE
  5
3381
330
1E
100
AcDbEntity
  8
7
100
AcDbLine
 10
14.94439747033712
 20
13.44751383968521
 30
0.0
 11
14.9391481265051
 21
13.48294691055134
 31
0.0
  0
LINE
  5
3382
330
1E
100
AcDbEntity
  8
7
100
AcDbLine
 10
14.9391481265051
 20
13.48294691055134
 30
0.0
 11
14.92208775905103
 21
13.51575530950148
 31
0.0
  0
LINE
  5
3383
330
1E
100
AcDbEntity
  8
7
100
AcDbLine
 10
14.92208775905103
 20
13.51575530950148
 30
0.0
 11
14.89715337584893
 21
13.54068969270358
 31
0.0
  0
LINE
  5
3384
330
1E
100
AcDbEntity
  8
7
100
AcDbLine
 10
14.89715337584893
 20
13.54068969270358
 30
0.0
 11
14.8643449768988
 21
13.55775006015765
 31
0.0
  0
LINE
  5
3385
330
1E
100
AcDbEntity
  8
7
100
AcDbLine
 10
14.8643449768988
 20
13.55775006015765
 30
0.0
 11
14.82891190603266
 21
13.56299940398967
 31
0.0
  0
LINE
  5
3386
330
1E
100
AcDbEntity
  8
7
100
AcDbLine
 10
14.82891190603266
 20
13.56299940398967
 30
0.0
 11
14.79347883516652
 21
13.55775006015765
 31
0.0
  0
LINE
  5
3387
330
1E
100
AcDbEntity
  8
7
100
AcDbLine
 10
14.90371505563896
 20
13.44751383968521
 30
0.0
 11
14.89846571180694
 21
13.47638523076132
 31
0.0
  0
LINE
  5
3388
330
1E
100
AcDbEntity
  8
7
100
AcDbLine
 10
14.89846571180694
 20
13.47638523076132
 30
0.0
 11
14.88140534435287
 21
13.50000727800542
 31
0.0
  0
LINE
  5
3389
330
1E
100
AcDbEntity
  8
7
100
AcDbLine
 10
14.88140534435287
 20
13.50000727800542
 30
0.0
 11
14.85778329710877
 21
13.51706764545949
 31
0.0
  0
LINE
  5
338A
330
1E
100
AcDbEntity
  8
7
100
AcDbLine
 10
14.85778329710877
 20
13.51706764545949
 30
0.0
 11
14.82891190603266
 21
13.5223169892915
 31
0.0
  0
LINE
  5
338B
330
1E
100
AcDbEntity
  8
7
100
AcDbLine
 10
14.82891190603266
 20
13.5223169892915
 30
0.0
 11
14.80004051495654
 21
13.51706764545949
 31
0.0
  0
LINE
  5
338C
330
1E
100
AcDbEntity
  8
7
100
AcDbLine
 10
14.80004051495654
 20
13.51706764545949
 30
0.0
 11
14.77641846771245
 21
13.50000727800542
 31
0.0
  0
LINE
  5
338D
330
1E
100
AcDbEntity
  8
7
100
AcDbLine
 10
14.77641846771245
 20
13.50000727800542
 30
0.0
 11
14.75935810025838
 21
13.47638523076132
 31
0.0
  0
LINE
  5
338E
330
1E
100
AcDbEntity
  8
7
100
AcDbLine
 10
14.75935810025838
 20
13.47638523076132
 30
0.0
 11
14.75410875642636
 21
13.44751383968521
 31
0.0
  0
LINE
  5
338F
330
1E
100
AcDbEntity
  8
7
100
AcDbLine
 10
14.75410875642636
 20
13.32677893154872
 30
0.0
 11
14.75935810025838
 21
13.29790754047261
 31
0.0
  0
LINE
  5
3390
330
1E
100
AcDbEntity
  8
7
100
AcDbLine
 10
14.75935810025838
 20
13.29790754047261
 30
0.0
 11
14.77641846771245
 21
13.27428549322851
 31
0.0
  0
LINE
  5
3391
330
1E
100
AcDbEntity
  8
7
100
AcDbLine
 10
14.77641846771245
 20
13.27428549322851
 30
0.0
 11
14.80004051495654
 21
13.25722512577444
 31
0.0
  0
LINE
  5
3392
330
1E
100
AcDbEntity
  8
7
100
AcDbLine
 10
14.80004051495654
 20
13.25722512577444
 30
0.0
 11
14.82891190603266
 21
13.25197578194242
 31
0.0
  0
LINE
  5
3393
330
1E
100
AcDbEntity
  8
7
100
AcDbLine
 10
14.82891190603266
 20
13.25197578194242
 30
0.0
 11
14.85778329710877
 21
13.25722512577444
 31
0.0
  0
LINE
  5
3394
330
1E
100
AcDbEntity
  8
7
100
AcDbLine
 10
14.85778329710877
 20
13.25722512577444
 30
0.0
 11
14.88140534435287
 21
13.27428549322851
 31
0.0
  0
LINE
  5
3395
330
1E
100
AcDbEntity
  8
7
100
AcDbLine
 10
14.88140534435287
 20
13.27428549322851
 30
0.0
 11
14.89846571180694
 21
13.29790754047261
 31
0.0
  0
LINE
  5
3396
330
1E
100
AcDbEntity
  8
7
100
AcDbLine
 10
14.89846571180694
 20
13.29790754047261
 30
0.0
 11
14.90371505563896
 21
13.32677893154872
 31
0.0
  0
LINE
  5
3397
330
1E
100
AcDbEntity
  8
7
100
AcDbLine
 10
14.75410875642636
 20
13.32677893154872
 30
0.0
 11
14.75935810025838
 21
13.29790754047261
 31
0.0
  0
LINE
  5
3398
330
1E
100
AcDbEntity
  8
7
100
AcDbLine
 10
14.75935810025838
 20
13.29790754047261
 30
0.0
 11
14.77641846771245
 21
13.27428549322851
 31
0.0
  0
LINE
  5
3399
330
1E
100
AcDbEntity
  8
7
100
AcDbLine
 10
14.77641846771245
 20
13.27428549322851
 30
0.0
 11
14.80004051495654
 21
13.25722512577444
 31
0.0
  0
LINE
  5
339A
330
1E
100
AcDbEntity
  8
7
100
AcDbLine
 10
14.80004051495654
 20
13.25722512577444
 30
0.0
 11
14.82891190603266
 21
13.25197578194242
 31
0.0
  0
LINE
  5
339B
330
1E
100
AcDbEntity
  8
7
100
AcDbLine
 10
14.82891190603266
 20
13.25197578194242
 30
0.0
 11
14.85778329710877
 21
13.25722512577444
 31
0.0
  0
LINE
  5
339C
330
1E
100
AcDbEntity
  8
7
100
AcDbLine
 10
14.85778329710877
 20
13.25722512577444
 30
0.0
 11
14.88140534435287
 21
13.27428549322851
 31
0.0
  0
LINE
  5
339D
330
1E
100
AcDbEntity
  8
7
100
AcDbLine
 10
14.88140534435287
 20
13.27428549322851
 30
0.0
 11
14.89846571180694
 21
13.29790754047261
 31
0.0
  0
LINE
  5
339E
330
1E
100
AcDbEntity
  8
7
100
AcDbLine
 10
14.89846571180694
 20
13.29790754047261
 30
0.0
 11
14.90371505563896
 21
13.32677893154872
 31
0.0
  0
LINE
  5
339F
330
1E
100
AcDbEntity
  8
7
100
AcDbLine
 10
14.90371505563896
 20
13.44751383968521
 30
0.0
 11
14.89846571180694
 21
13.47638523076132
 31
0.0
  0
LINE
  5
33A0
330
1E
100
AcDbEntity
  8
7
100
AcDbLine
 10
14.89846571180694
 20
13.47638523076132
 30
0.0
 11
14.88140534435287
 21
13.50000727800542
 31
0.0
  0
LINE
  5
33A1
330
1E
100
AcDbEntity
  8
7
100
AcDbLine
 10
14.88140534435287
 20
13.50000727800542
 30
0.0
 11
14.85778329710877
 21
13.51706764545949
 31
0.0
  0
LINE
  5
33A2
330
1E
100
AcDbEntity
  8
7
100
AcDbLine
 10
14.85778329710877
 20
13.51706764545949
 30
0.0
 11
14.82891190603266
 21
13.5223169892915
 31
0.0
  0
LINE
  5
33A3
330
1E
100
AcDbEntity
  8
7
100
AcDbLine
 10
14.82891190603266
 20
13.5223169892915
 30
0.0
 11
14.80004051495654
 21
13.51706764545949
 31
0.0
  0
LINE
  5
33A4
330
1E
100
AcDbEntity
  8
7
100
AcDbLine
 10
14.80004051495654
 20
13.51706764545949
 30
0.0
 11
14.77641846771245
 21
13.50000727800542
 31
0.0
  0
LINE
  5
33A5
330
1E
100
AcDbEntity
  8
7
100
AcDbLine
 10
14.77641846771245
 20
13.50000727800542
 30
0.0
 11
14.75935810025838
 21
13.47638523076132
 31
0.0
  0
LINE
  5
33A6
330
1E
100
AcDbEntity
  8
7
100
AcDbLine
 10
14.79347883516652
 20
13.55643772419964
 30
0.0
 11
14.76198277217439
 21
13.53937735674557
 31
0.0
  0
LINE
  5
33A7
330
1E
100
AcDbEntity
  8
7
100
AcDbLine
 10
14.76198277217439
 20
13.53937735674557
 30
0.0
 11
14.73704838897229
 21
13.51444297354348
 31
0.0
  0
LINE
  5
33A8
330
1E
100
AcDbEntity
  8
7
100
AcDbLine
 10
14.73704838897229
 20
13.51444297354348
 30
0.0
 11
14.71998802151822
 21
13.48294691055134
 31
0.0
  0
LINE
  5
33A9
330
1E
100
AcDbEntity
  8
7
100
AcDbLine
 10
14.71998802151822
 20
13.48294691055134
 30
0.0
 11
14.7147386776862
 21
13.44751383968521
 31
0.0
  0
LINE
  5
33AA
330
1E
100
AcDbEntity
  8
7
100
AcDbLine
 10
14.94308513437911
 20
13.44751383968521
 30
0.0
 11
14.9378357905471
 21
13.48294691055134
 31
0.0
  0
LINE
  5
33AB
330
1E
100
AcDbEntity
  8
7
100
AcDbLine
 10
14.9378357905471
 20
13.48294691055134
 30
0.0
 11
14.92077542309303
 21
13.51444297354348
 31
0.0
  0
LINE
  5
33AC
330
1E
100
AcDbEntity
  8
7
100
AcDbLine
 10
14.92077542309303
 20
13.51444297354348
 30
0.0
 11
14.89584103989093
 21
13.53937735674557
 31
0.0
  0
LINE
  5
33AD
330
1E
100
AcDbEntity
  8
7
100
AcDbLine
 10
14.89584103989093
 20
13.53937735674557
 30
0.0
 11
14.8643449768988
 21
13.55643772419964
 31
0.0
  0
LINE
  5
33AE
330
1E
100
AcDbEntity
  8
7
100
AcDbLine
 10
14.8643449768988
 20
13.55643772419964
 30
0.0
 11
14.82891190603266
 21
13.56168706803166
 31
0.0
  0
LINE
  5
33AF
330
1E
100
AcDbEntity
  8
7
100
AcDbLine
 10
14.82891190603266
 20
13.56168706803166
 30
0.0
 11
14.79347883516652
 21
13.55643772419964
 31
0.0
  0
LINE
  5
33B0
330
1E
100
AcDbEntity
  8
7
100
AcDbLine
 10
14.92077542309303
 20
13.25984979769045
 30
0.0
 11
14.9378357905471
 21
13.29134586068258
 31
0.0
  0
LINE
  5
33B1
330
1E
100
AcDbEntity
  8
7
100
AcDbLine
 10
14.9378357905471
 20
13.29134586068258
 30
0.0
 11
14.94308513437911
 21
13.32677893154872
 31
0.0
  0
LINE
  5
33B2
330
1E
100
AcDbEntity
  8
7
100
AcDbLine
 10
14.7147386776862
 20
13.32677893154872
 30
0.0
 11
14.71998802151822
 21
13.29134586068258
 31
0.0
  0
LINE
  5
33B3
330
1E
100
AcDbEntity
  8
7
100
AcDbLine
 10
14.71998802151822
 20
13.29134586068258
 30
0.0
 11
14.73704838897229
 21
13.25984979769045
 31
0.0
  0
LINE
  5
33B4
330
1E
100
AcDbEntity
  8
7
100
AcDbLine
 10
14.73704838897229
 20
13.25984979769045
 30
0.0
 11
14.76198277217439
 21
13.23491541448835
 31
0.0
  0
LINE
  5
33B5
330
1E
100
AcDbEntity
  8
7
100
AcDbLine
 10
14.76198277217439
 20
13.23491541448835
 30
0.0
 11
14.79347883516652
 21
13.21785504703429
 31
0.0
  0
LINE
  5
33B6
330
1E
100
AcDbEntity
  8
7
100
AcDbLine
 10
14.79347883516652
 20
13.21785504703429
 30
0.0
 11
14.82891190603266
 21
13.21260570320227
 31
0.0
  0
LINE
  5
33B7
330
1E
100
AcDbEntity
  8
7
100
AcDbLine
 10
14.82891190603266
 20
13.21260570320227
 30
0.0
 11
14.8643449768988
 21
13.21785504703429
 31
0.0
  0
LINE
  5
33B8
330
1E
100
AcDbEntity
  8
7
100
AcDbLine
 10
14.8643449768988
 20
13.21785504703429
 30
0.0
 11
14.89584103989093
 21
13.23491541448835
 31
0.0
  0
LINE
  5
33B9
330
1E
100
AcDbEntity
  8
7
100
AcDbLine
 10
14.89584103989093
 20
13.23491541448835
 30
0.0
 11
14.92077542309303
 21
13.25984979769045
 31
0.0
  0
LINE
  5
33BA
330
1E
100
AcDbEntity
  8
7
100
AcDbLine
 10
13.81841321836862
 20
13.21916738299229
 30
0.0
 11
13.61106413700379
 21
13.21916738299229
 31
0.0
  0
LINE
  5
33BB
330
1E
100
AcDbEntity
  8
7
100
AcDbLine
 10
13.61106413700379
 20
13.21916738299229
 30
0.0
 11
13.60843946508778
 21
13.24935111002641
 31
0.0
  0
LINE
  5
33BC
330
1E
100
AcDbEntity
  8
7
100
AcDbLine
 10
12.76854445196442
 20
13.24935111002641
 30
0.0
 11
12.76591978004841
 21
13.21916738299229
 31
0.0
  0
LINE
  5
33BD
330
1E
100
AcDbEntity
  8
7
100
AcDbLine
 10
12.76591978004841
 20
13.21916738299229
 30
0.0
 11
12.55857069868358
 21
13.21916738299229
 31
0.0
  0
LINE
  5
33BE
330
1E
100
AcDbEntity
  8
7
100
AcDbLine
 10
13.40371505563896
 20
13.24935111002641
 30
0.0
 11
13.40109038372295
 21
13.21916738299229
 31
0.0
  0
LINE
  5
33BF
330
1E
100
AcDbEntity
  8
7
100
AcDbLine
 10
13.40109038372295
 20
13.21916738299229
 30
0.0
 11
12.97589353332925
 21
13.21916738299229
 31
0.0
  0
LINE
  5
33C0
330
1E
100
AcDbEntity
  8
7
100
AcDbLine
 10
12.97589353332925
 20
13.21916738299229
 30
0.0
 11
12.97326886141324
 21
13.24935111002641
 31
0.0
  0
LINE
  5
33C1
330
1E
100
AcDbEntity
  8
7
100
AcDbLine
 10
13.82759957007466
 20
13.59055845910778
 30
0.0
 11
12.54807201101954
 21
13.59055845910778
 31
0.0
  0
LINE
  5
33C2
330
1E
100
AcDbEntity
  8
7
100
AcDbLine
 10
12.54807201101954
 20
13.59055845910778
 30
0.0
 11
12.54807201101954
 21
13.63255320976394
 31
0.0
  0
LINE
  5
33C3
330
1E
100
AcDbEntity
  8
7
100
AcDbLine
 10
12.54807201101954
 20
13.63255320976394
 30
0.0
 11
12.52444996377544
 21
13.63255320976394
 31
0.0
  0
LINE
  5
33C4
330
1E
100
AcDbEntity
  8
7
100
AcDbLine
 10
12.52444996377544
 20
13.63255320976394
 30
0.0
 11
12.52444996377544
 21
13.74935111002641
 31
0.0
  0
LINE
  5
33C5
330
1E
100
AcDbEntity
  8
7
100
AcDbLine
 10
12.52444996377544
 20
13.74935111002641
 30
0.0
 11
12.54807201101954
 21
13.74935111002641
 31
0.0
  0
LINE
  5
33C6
330
1E
100
AcDbEntity
  8
7
100
AcDbLine
 10
12.54807201101954
 20
13.74935111002641
 30
0.0
 11
12.54807201101954
 21
13.79134586068258
 31
0.0
  0
LINE
  5
33C7
330
1E
100
AcDbEntity
  8
7
100
AcDbLine
 10
12.54807201101954
 20
13.79134586068258
 30
0.0
 11
13.82759957007466
 21
13.79134586068258
 31
0.0
  0
LINE
  5
33C8
330
1E
100
AcDbEntity
  8
7
100
AcDbLine
 10
12.48114287716127
 20
14.16536160871408
 30
0.0
 11
12.49820324461534
 21
13.43832748797917
 31
0.0
  0
LINE
  5
33C9
330
1E
100
AcDbEntity
  8
7
100
AcDbLine
 10
12.49820324461534
 20
13.43832748797917
 30
0.0
 11
13.87746833647885
 21
13.43832748797917
 31
0.0
  0
LINE
  5
33CA
330
1E
100
AcDbEntity
  8
7
100
AcDbLine
 10
13.87746833647885
 20
13.43832748797917
 30
0.0
 11
13.89584103989093
 21
14.16536160871408
 31
0.0
  0
LINE
  5
33CB
330
1E
100
AcDbEntity
  8
7
100
AcDbLine
 10
13.51132660419539
 20
13.62467919401591
 30
0.0
 11
13.49032922886731
 21
13.62730386593193
 31
0.0
  0
LINE
  5
33CC
330
1E
100
AcDbEntity
  8
7
100
AcDbLine
 10
13.49032922886731
 20
13.62730386593193
 30
0.0
 11
13.47458119737124
 21
13.63780255359597
 31
0.0
  0
LINE
  5
33CD
330
1E
100
AcDbEntity
  8
7
100
AcDbLine
 10
13.47458119737124
 20
13.63780255359597
 30
0.0
 11
13.46933185353922
 21
13.65355058509203
 31
0.0
  0
LINE
  5
33CE
330
1E
100
AcDbEntity
  8
7
100
AcDbLine
 10
13.46933185353922
 20
13.65355058509203
 30
0.0
 11
13.47458119737124
 21
13.6706109525461
 31
0.0
  0
LINE
  5
33CF
330
1E
100
AcDbEntity
  8
7
100
AcDbLine
 10
13.47458119737124
 20
13.6706109525461
 30
0.0
 11
13.49032922886731
 21
13.68110964021014
 31
0.0
  0
LINE
  5
33D0
330
1E
100
AcDbEntity
  8
7
100
AcDbLine
 10
13.49032922886731
 20
13.68110964021014
 30
0.0
 11
13.51132660419539
 21
13.68373431212615
 31
0.0
  0
LINE
  5
33D1
330
1E
100
AcDbEntity
  8
7
100
AcDbLine
 10
13.51132660419539
 20
13.68373431212615
 30
0.0
 11
13.52969930760747
 21
13.67717263233612
 31
0.0
  0
LINE
  5
33D2
330
1E
100
AcDbEntity
  8
7
100
AcDbLine
 10
13.52969930760747
 20
13.67717263233612
 30
0.0
 11
13.54151033122951
 21
13.66273693679807
 31
0.0
  0
LINE
  5
33D3
330
1E
100
AcDbEntity
  8
7
100
AcDbLine
 10
13.54151033122951
 20
13.66273693679807
 30
0.0
 11
13.54151033122951
 21
13.645676569344
 31
0.0
  0
LINE
  5
33D4
330
1E
100
AcDbEntity
  8
7
100
AcDbLine
 10
13.54151033122951
 20
13.645676569344
 30
0.0
 11
13.52969930760747
 21
13.63124087380594
 31
0.0
  0
LINE
  5
33D5
330
1E
100
AcDbEntity
  8
7
100
AcDbLine
 10
13.52969930760747
 20
13.63124087380594
 30
0.0
 11
13.51132660419539
 21
13.62467919401591
 31
0.0
  0
LINE
  5
33D6
330
1E
100
AcDbEntity
  8
7
100
AcDbLine
 10
12.89452870393292
 20
13.67717263233612
 30
0.0
 11
12.90633972755497
 21
13.66273693679807
 31
0.0
  0
LINE
  5
33D7
330
1E
100
AcDbEntity
  8
7
100
AcDbLine
 10
12.90633972755497
 20
13.66273693679807
 30
0.0
 11
12.90633972755497
 21
13.645676569344
 31
0.0
  0
LINE
  5
33D8
330
1E
100
AcDbEntity
  8
7
100
AcDbLine
 10
12.90633972755497
 20
13.645676569344
 30
0.0
 11
12.89452870393292
 21
13.63124087380594
 31
0.0
  0
LINE
  5
33D9
330
1E
100
AcDbEntity
  8
7
100
AcDbLine
 10
12.89452870393292
 20
13.63124087380594
 30
0.0
 11
12.87615600052085
 21
13.62467919401591
 31
0.0
  0
LINE
  5
33DA
330
1E
100
AcDbEntity
  8
7
100
AcDbLine
 10
12.87615600052085
 20
13.62467919401591
 30
0.0
 11
12.85515862519277
 21
13.62730386593193
 31
0.0
  0
LINE
  5
33DB
330
1E
100
AcDbEntity
  8
7
100
AcDbLine
 10
12.85515862519277
 20
13.62730386593193
 30
0.0
 11
12.8394105936967
 21
13.63780255359597
 31
0.0
  0
LINE
  5
33DC
330
1E
100
AcDbEntity
  8
7
100
AcDbLine
 10
12.8394105936967
 20
13.63780255359597
 30
0.0
 11
12.83416124986468
 21
13.65355058509203
 31
0.0
  0
LINE
  5
33DD
330
1E
100
AcDbEntity
  8
7
100
AcDbLine
 10
12.83416124986468
 20
13.65355058509203
 30
0.0
 11
12.8394105936967
 21
13.6706109525461
 31
0.0
  0
LINE
  5
33DE
330
1E
100
AcDbEntity
  8
7
100
AcDbLine
 10
12.8394105936967
 20
13.6706109525461
 30
0.0
 11
12.85515862519277
 21
13.68110964021014
 31
0.0
  0
LINE
  5
33DF
330
1E
100
AcDbEntity
  8
7
100
AcDbLine
 10
12.85515862519277
 20
13.68110964021014
 30
0.0
 11
12.87615600052085
 21
13.68373431212615
 31
0.0
  0
LINE
  5
33E0
330
1E
100
AcDbEntity
  8
7
100
AcDbLine
 10
12.87615600052085
 20
13.68373431212615
 30
0.0
 11
12.89452870393292
 21
13.67717263233612
 31
0.0
  0
LINE
  5
33E1
330
1E
100
AcDbEntity
  8
7
100
AcDbLine
 10
13.89584103989093
 20
14.16536160871408
 30
0.0
 11
13.91815075117702
 21
14.16011226488206
 31
0.0
  0
LINE
  5
33E2
330
1E
100
AcDbEntity
  8
7
100
AcDbLine
 10
13.91815075117702
 20
14.16011226488206
 30
0.0
 11
13.9391481265051
 21
14.14436423338599
 31
0.0
  0
LINE
  5
33E3
330
1E
100
AcDbEntity
  8
7
100
AcDbLine
 10
13.9391481265051
 20
14.14436423338599
 30
0.0
 11
13.95752082991718
 21
14.1207421861419
 31
0.0
  0
LINE
  5
33E4
330
1E
100
AcDbEntity
  8
7
100
AcDbLine
 10
13.95752082991718
 20
14.1207421861419
 30
0.0
 11
13.97195652545523
 21
14.08924612314977
 31
0.0
  0
LINE
  5
33E5
330
1E
100
AcDbEntity
  8
7
100
AcDbLine
 10
13.97195652545523
 20
14.08924612314977
 30
0.0
 11
13.97983054120326
 21
14.05250071632563
 31
0.0
  0
LINE
  5
33E6
330
1E
100
AcDbEntity
  8
7
100
AcDbLine
 10
13.97983054120326
 20
14.05250071632563
 30
0.0
 11
13.98376754907728
 21
14.01313063758547
 31
0.0
  0
LINE
  5
33E7
330
1E
100
AcDbEntity
  8
7
100
AcDbLine
 10
13.89584103989093
 20
12.60893116251985
 30
0.0
 11
12.48114287716127
 21
12.60893116251985
 31
0.0
  0
LINE
  5
33E8
330
1E
100
AcDbEntity
  8
7
100
AcDbLine
 10
12.48114287716127
 20
12.60893116251985
 30
0.0
 11
12.45752082991717
 21
12.61418050635187
 31
0.0
  0
LINE
  5
33E9
330
1E
100
AcDbEntity
  8
7
100
AcDbLine
 10
12.45752082991717
 20
12.61418050635187
 30
0.0
 11
12.43652345458909
 21
12.62861620188993
 31
0.0
  0
LINE
  5
33EA
330
1E
100
AcDbEntity
  8
7
100
AcDbLine
 10
12.43652345458909
 20
12.62861620188993
 30
0.0
 11
12.41815075117702
 21
12.65355058509203
 31
0.0
  0
LINE
  5
33EB
330
1E
100
AcDbEntity
  8
7
100
AcDbLine
 10
12.41815075117702
 20
12.65355058509203
 30
0.0
 11
12.40502739159697
 21
12.68504664808416
 31
0.0
  0
LINE
  5
33EC
330
1E
100
AcDbEntity
  8
7
100
AcDbLine
 10
12.40502739159697
 20
12.68504664808416
 30
0.0
 11
12.39584103989093
 21
12.7217920549083
 31
0.0
  0
LINE
  5
33ED
330
1E
100
AcDbEntity
  8
7
100
AcDbLine
 10
12.39584103989093
 20
12.7217920549083
 30
0.0
 11
12.39321636797492
 21
12.76116213364846
 31
0.0
  0
LINE
  5
33EE
330
1E
100
AcDbEntity
  8
7
100
AcDbLine
 10
12.39321636797492
 20
12.76116213364846
 30
0.0
 11
12.39321636797492
 21
14.01313063758547
 31
0.0
  0
LINE
  5
33EF
330
1E
100
AcDbEntity
  8
7
100
AcDbLine
 10
12.39321636797492
 20
14.01313063758547
 30
0.0
 11
12.39584103989093
 21
14.05250071632563
 31
0.0
  0
LINE
  5
33F0
330
1E
100
AcDbEntity
  8
7
100
AcDbLine
 10
12.39584103989093
 20
14.05250071632563
 30
0.0
 11
12.40502739159697
 21
14.08924612314977
 31
0.0
  0
LINE
  5
33F1
330
1E
100
AcDbEntity
  8
7
100
AcDbLine
 10
12.40502739159697
 20
14.08924612314977
 30
0.0
 11
12.41815075117702
 21
14.1207421861419
 31
0.0
  0
LINE
  5
33F2
330
1E
100
AcDbEntity
  8
7
100
AcDbLine
 10
12.41815075117702
 20
14.1207421861419
 30
0.0
 11
12.43652345458909
 21
14.14436423338599
 31
0.0
  0
LINE
  5
33F3
330
1E
100
AcDbEntity
  8
7
100
AcDbLine
 10
12.43652345458909
 20
14.14436423338599
 30
0.0
 11
12.45752082991717
 21
14.16011226488206
 31
0.0
  0
LINE
  5
33F4
330
1E
100
AcDbEntity
  8
7
100
AcDbLine
 10
12.45752082991717
 20
14.16011226488206
 30
0.0
 11
12.48114287716127
 21
14.16536160871408
 31
0.0
  0
LINE
  5
33F5
330
1E
100
AcDbEntity
  8
7
100
AcDbLine
 10
13.98376754907728
 20
12.76116213364846
 30
0.0
 11
13.97983054120326
 21
12.7217920549083
 31
0.0
  0
LINE
  5
33F6
330
1E
100
AcDbEntity
  8
7
100
AcDbLine
 10
13.97983054120326
 20
12.7217920549083
 30
0.0
 11
13.97195652545523
 21
12.68504664808416
 31
0.0
  0
LINE
  5
33F7
330
1E
100
AcDbEntity
  8
7
100
AcDbLine
 10
13.97195652545523
 20
12.68504664808416
 30
0.0
 11
13.95752082991718
 21
12.65355058509203
 31
0.0
  0
LINE
  5
33F8
330
1E
100
AcDbEntity
  8
7
100
AcDbLine
 10
13.95752082991718
 20
12.65355058509203
 30
0.0
 11
13.9391481265051
 21
12.62861620188993
 31
0.0
  0
LINE
  5
33F9
330
1E
100
AcDbEntity
  8
7
100
AcDbLine
 10
13.9391481265051
 20
12.62861620188993
 30
0.0
 11
13.91815075117702
 21
12.61418050635187
 31
0.0
  0
LINE
  5
33FA
330
1E
100
AcDbEntity
  8
7
100
AcDbLine
 10
13.91815075117702
 20
12.61418050635187
 30
0.0
 11
13.89584103989093
 21
12.60893116251985
 31
0.0
  0
LINE
  5
33FB
330
1E
100
AcDbEntity
  8
7
100
AcDbLine
 10
14.75804576430038
 20
13.06431173994767
 30
0.0
 11
14.70686466193817
 21
13.06431173994767
 31
0.0
  0
LINE
  5
33FC
330
1E
100
AcDbEntity
  8
7
100
AcDbLine
 10
14.70686466193817
 20
13.06431173994767
 30
0.0
 11
14.70686466193817
 21
13.70866869532825
 31
0.0
  0
LINE
  5
33FD
330
1E
100
AcDbEntity
  8
7
100
AcDbLine
 10
14.70686466193817
 20
13.70866869532825
 30
0.0
 11
14.75804576430038
 21
13.70866869532825
 31
0.0
  0
LINE
  5
33FE
330
1E
100
AcDbEntity
  8
7
100
AcDbLine
 10
14.75804576430038
 20
13.70866869532825
 30
0.0
 11
14.75804576430038
 21
13.73360307853035
 31
0.0
  0
LINE
  5
33FF
330
1E
100
AcDbEntity
  8
7
100
AcDbLine
 10
14.75804576430038
 20
13.73360307853035
 30
0.0
 11
14.89977804776494
 21
13.73360307853035
 31
0.0
  0
LINE
  5
3400
330
1E
100
AcDbEntity
  8
7
100
AcDbLine
 10
14.89977804776494
 20
13.73360307853035
 30
0.0
 11
14.89977804776494
 21
13.70866869532825
 31
0.0
  0
LINE
  5
3401
330
1E
100
AcDbEntity
  8
7
100
AcDbLine
 10
14.89977804776494
 20
13.70866869532825
 30
0.0
 11
14.95095915012715
 21
13.70866869532825
 31
0.0
  0
LINE
  5
3402
330
1E
100
AcDbEntity
  8
7
100
AcDbLine
 10
14.95095915012715
 20
13.70866869532825
 30
0.0
 11
14.95095915012715
 21
13.06431173994767
 31
0.0
  0
LINE
  5
3403
330
1E
100
AcDbEntity
  8
7
100
AcDbLine
 10
14.95095915012715
 20
13.06431173994767
 30
0.0
 11
14.89977804776494
 21
13.06431173994767
 31
0.0
  0
LINE
  5
3404
330
1E
100
AcDbEntity
  8
7
100
AcDbLine
 10
14.89977804776494
 20
13.06431173994767
 30
0.0
 11
14.89977804776494
 21
13.04068969270358
 31
0.0
  0
LINE
  5
3405
330
1E
100
AcDbEntity
  8
7
100
AcDbLine
 10
14.89977804776494
 20
13.04068969270358
 30
0.0
 11
14.75804576430038
 21
13.04068969270358
 31
0.0
  0
ENDSEC
  0
SECTION
  2
OBJECTS
  0
DICTIONARY
  5
C
330
0
100
AcDbDictionary
  3
ACAD_GROUP
350
D
  3
ACAD_MLINESTYLE
350
16
  3
ACAD_PLOTSETTINGS
350
18
  3
ACAD_LAYOUT
350
19
1001
ACAD
1000
TREAT_AS_HARD
1070
     0
  0
DICTIONARY
  5
46D0
330
1E
100
AcDbDictionary
  3
ACAD_LAYOUTSELFREF
350
46D1
  0
DICTIONARY
  5
46CE
330
1A
100
AcDbDictionary
  3
ACAD_LAYOUTSELFREF
350
46CF
  0
DICTIONARY
  5
D
102
{ACAD_REACTORS
330
C
102
}
330
C
100
AcDbDictionary
1001
ACAD
1000
TREAT_AS_HARD
1070
     0
  0
DICTIONARY
  5
16
102
{ACAD_REACTORS
330
C
102
}
330
C
100
AcDbDictionary
  3
STANDARD
350
17
1001
ACAD
1000
TREAT_AS_HARD
1070
     0
  0
DICTIONARY
  5
18
102
{ACAD_REACTORS
330
C
102
}
330
C
100
AcDbDictionary
1001
ACAD
1000
TREAT_AS_HARD
1070
     0
  0
DICTIONARY
  5
19
102
{ACAD_REACTORS
330
C
102
}
330
C
100
AcDbDictionary
1001
ACAD
1000
TREAT_AS_HARD
1070
     0
  0
XRECORD
  5
46D1
102
{ACAD_REACTORS
330
46D0
102
}
330
46D0
100
AcDbXrecord
340
1E
  0
XRECORD
  5
46CF
102
{ACAD_REACTORS
330
46CE
102
}
330
46CE
100
AcDbXrecord
340
1A
  0
MLINESTYLE
  5
17
102
{ACAD_REACTORS
330
16
102
}
330
16
100
AcDbMlineStyle
  2
STANDARD
 70
     0
  3

 62
   256
 51
90.0
 52
90.0
 71
     2
 49
0.5
 62
   256
  6
BYLAYER
 49
-0.5
 62
   256
  6
BYLAYER
  0
ENDSEC
  0
EOF
