  0
SECTION
  2
HEADER
  9
$ACADVER
  1
AC1014
  9
$ACADMAINTVER
 70
           0
  9
$DWGCODEPAGE
  3
ANSI_1252
  9
$INSBASE
 10
0.0
 20
0.0
 30
0.0
  9
$EXTMIN
 10
1.523101797327
 20
0.762523174286
 30
0.0
  9
$EXTMAX
 10
35.518077850342
 20
32.966571807861
 30
0.0
  9
$LIMMIN
 10
-0.5
 20
-0.5
  9
$LIMMAX
 10
5.0
 20
5.0
  9
$ORTHOMODE
 70
           0
  9
$REGENMODE
 70
           1
  9
$FILLMODE
 70
           1
  9
$QTEXTMODE
 70
           0
  9
$MIRRTEXT
 70
           1
  9
$DRAGMODE
 70
           2
  9
$LTSCALE
 40
1.0
  9
$OSMODE
 70
           0
  9
$ATTMODE
 70
           1
  9
$TEXTSIZE
 40
0.2
  9
$TRACEWID
 40
0.05
  9
$TEXTSTYLE
  7
STANDARD
  9
$CLAYER
  8
0
  9
$CELTYPE
  6
CONTINUOUS
  9
$CECOLOR
 62
         256
  9
$CELTSCALE
 40
1.0
  9
$DELOBJ
 70
           1
  9
$DISPSILH
 70
           0
  9
$DIMSCALE
 40
1.0
  9
$DIMASZ
 40
0.18
  9
$DIMEXO
 40
0.0625
  9
$DIMDLI
 40
0.38
  9
$DIMRND
 40
0.0
  9
$DIMDLE
 40
0.0
  9
$DIMEXE
 40
0.18
  9
$DIMTP
 40
0.0
  9
$DIMTM
 40
0.0
  9
$DIMTXT
 40
0.18
  9
$DIMCEN
 40
0.09
  9
$DIMTSZ
 40
0.0
  9
$DIMTOL
 70
           0
  9
$DIMLIM
 70
           0
  9
$DIMTIH
 70
           1
  9
$DIMTOH
 70
           1
  9
$DIMSE1
 70
           0
  9
$DIMSE2
 70
           0
  9
$DIMTAD
 70
           0
  9
$DIMZIN
 70
           0
  9
$DIMBLK
  1

  9
$DIMASO
 70
           1
  9
$DIMSHO
 70
           1
  9
$DIMPOST
  1

  9
$DIMAPOST
  1

  9
$DIMALT
 70
           0
  9
$DIMALTD
 70
           2
  9
$DIMALTF
 40
25.4
  9
$DIMLFAC
 40
1.0
  9
$DIMTOFL
 70
           0
  9
$DIMTVP
 40
0.0
  9
$DIMTIX
 70
           0
  9
$DIMSOXD
 70
           0
  9
$DIMSAH
 70
           0
  9
$DIMBLK1
  1

  9
$DIMBLK2
  1

  9
$DIMSTYLE
  2
STANDARD
  9
$DIMCLRD
 70
           0
  9
$DIMCLRE
 70
           0
  9
$DIMCLRT
 70
           0
  9
$DIMTFAC
 40
1.0
  9
$DIMGAP
 40
0.09
  9
$DIMJUST
 70
           0
  9
$DIMSD1
 70
           0
  9
$DIMSD2
 70
           0
  9
$DIMTOLJ
 70
           1
  9
$DIMTZIN
 70
           0
  9
$DIMALTZ
 70
           0
  9
$DIMALTTZ
 70
           0
  9
$DIMFIT
 70
           3
  9
$DIMUPT
 70
           0
  9
$DIMUNIT
 70
           2
  9
$DIMDEC
 70
           4
  9
$DIMTDEC
 70
           4
  9
$DIMALTU
 70
           2
  9
$DIMALTTD
 70
           2
  9
$DIMTXSTY
  7
STANDARD
  9
$DIMAUNIT
 70
           0
  9
$LUNITS
 70
           2
  9
$LUPREC
 70
           4
  9
$SKETCHINC
 40
0.1
  9
$FILLETRAD
 40
0.0
  9
$AUNITS
 70
           0
  9
$AUPREC
 70
           0
  9
$MENU
  1
acad
  9
$ELEVATION
 40
0.0
  9
$PELEVATION
 40
0.0
  9
$THICKNESS
 40
0.0
  9
$LIMCHECK
 70
           0
  9
$BLIPMODE
 70
           0
  9
$CHAMFERA
 40
0.0
  9
$CHAMFERB
 40
0.0
  9
$CHAMFERC
 40
0.0
  9
$CHAMFERD
 40
0.0
  9
$SKPOLY
 70
           0
  9
$TDCREATE
 40
2444240.000000000
  9
$TDUPDATE
 40
2455398.601586007
  9
$TDINDWG
 40
0.0009259144
  9
$TDUSRTIMER
 40
0.0009259144
  9
$USRTIMER
 70
           1
  9
$ANGBASE
 50
0.0
  9
$ANGDIR
 70
           0
  9
$PDMODE
 70
           0
  9
$PDSIZE
 40
0.0
  9
$PLINEWID
 40
0.0
  9
$COORDS
 70
           0
  9
$SPLFRAME
 70
           0
  9
$SPLINETYPE
 70
           6
  9
$SPLINESEGS
 70
           8
  9
$ATTDIA
 70
           0
  9
$ATTREQ
 70
           0
  9
$HANDLING
 70
           1
  9
$HANDSEED
  5
3FB
  9
$SURFTAB1
 70
           6
  9
$SURFTAB2
 70
           6
  9
$SURFTYPE
 70
           6
  9
$SURFU
 70
           6
  9
$SURFV
 70
           6
  9
$UCSNAME
  2

  9
$UCSORG
 10
0.0
 20
0.0
 30
0.0
  9
$UCSXDIR
 10
1.0
 20
0.0
 30
0.0
  9
$UCSYDIR
 10
0.0
 20
1.0
 30
0.0
  9
$PUCSNAME
  2

  9
$PUCSORG
 10
0.0
 20
0.0
 30
0.0
  9
$PUCSXDIR
 10
1.0
 20
0.0
 30
0.0
  9
$PUCSYDIR
 10
0.0
 20
1.0
 30
0.0
  9
$USERI1
 70
           0
  9
$USERI2
 70
           0
  9
$USERI3
 70
           0
  9
$USERI4
 70
           0
  9
$USERI5
 70
           0
  9
$USERR1
 40
0.0
  9
$USERR2
 40
0.0
  9
$USERR3
 40
0.0
  9
$USERR4
 40
0.0
  9
$USERR5
 40
0.0
  9
$WORLDVIEW
 70
           1
  9
$SHADEDGE
 70
           3
  9
$SHADEDIF
 70
          70
  9
$TILEMODE
 70
           1
  9
$MAXACTVP
 70
          64
  9
$PINSBASE
 10
0.0
 20
0.0
 30
0.0
  9
$PLIMCHECK
 70
           0
  9
$PEXTMIN
 10
1.523101797327
 20
0.762523174286
 30
0.0
  9
$PEXTMAX
 10
35.518077850342
 20
32.966571807861
 30
0.0
  9
$PLIMMIN
 10
-0.5
 20
-0.5
  9
$PLIMMAX
 10
5.0
 20
5.0
  9
$UNITMODE
 70
           0
  9
$VISRETAIN
 70
           0
  9
$PLINEGEN
 70
           1
  9
$PSLTSCALE
 70
           0
  9
$TREEDEPTH
 70
        3020
  9
$PICKSTYLE
 70
           1
  9
$CMLSTYLE
  2
Standard
  9
$CMLJUST
 70
           0
  9
$CMLSCALE
 40
1.0
  9
$PROXYGRAPHICS
 70
           0
  9
$MEASUREMENT
 70
           0
  0
ENDSEC
  0
SECTION
  2
CLASSES
  0
CLASS
  1
LWPOLYLINE
  2
AcDbPolyline
  3
"AutoCAD"
 90
        0
280
           0
281
           1
  0
CLASS
  1
IMAGE
  2
AcDbRasterImage
  3
ISM
 90
      127
280
           0
281
           1
  0
CLASS
  1
OLE2FRAME
  2
AcDbOle2Frame
  3
""
 90
        0
280
           0
281
           1
  0
CLASS
  1
HATCH
  2
AcDbHatch
  3
"ACAD_SEDONA"
 90
        0
280
           0
281
           1
  0
CLASS
  1
DICTIONARYVAR
  2
AcDbDictionaryVar
  3
"AutoCAD"
 90
        0
280
           0
281
           0
  0
CLASS
  1
RASTERVARIABLES
  2
AcDbRasterVariables
  3
ISM
 90
        0
280
           0
281
           0
  0
CLASS
  1
IMAGEDEF
  2
AcDbRasterImageDef
  3
ISM
 90
        0
280
           0
281
           0
  0
CLASS
  1
IMAGEDEF_REACTOR
  2
AcDbRasterImageDefReactor
  3
ISM
 90
        1
280
           0
281
           0
  0
CLASS
  1
IDBUFFER
  2
AcDbIdBuffer
  3
"Acad"
 90
        0
280
           0
281
           0
  0
CLASS
  1
SPATIAL_FILTER
  2
AcDbSpatialFilter
  3
"Acad"
 90
        0
280
           0
281
           0
  0
CLASS
  1
XRECORD
  2
AcDbXrecord
  3
"<Built In>"
 90
        0
280
           0
281
           0
  0
CLASS
  1
SORTENTSTABLE
  2
AcDbSortentsTable
  3
"AutoCAD"
 90
        0
280
           0
281
           0
  0
CLASS
  1
LAYER_INDEX
  2
AcDbLayerIndex
  3
"Acad"
 90
        0
280
           0
281
           0
  0
CLASS
  1
SPATIAL_INDEX
  2
AcDbSpatialIndex
  3
"Acad"
 90
        0
280
           0
281
           0
  0
CLASS
  1
OBJECT_PTR
  2
CAseDLPNTableRecord
  3
"ASE-LPNTableRecord"
 90
        1
280
           0
281
           0
  0
CLASS
  1
LAYOUT
  2
AcDbLayout
  3
"AutoCAD 2000"
 90
        1
280
           0
281
           0
  0
CLASS
  1
PLOTSETTINGS
  2
AcDbPlotSettings
  3
"AutoCAD 2000"
 90
        1
280
           0
281
           0
  0
CLASS
  1
ACDBDICTIONARYWDFLT
  2
AcDbDictionaryWithDefault
  3
"AutoCAD 2000"
 90
        1
280
           0
281
           0
  0
CLASS
  1
ACDBPLACEHOLDER
  2
AcDbPlaceHolder
  3
"AutoCAD 2000"
 90
        1
280
           0
281
           0
  0
CLASS
  1
VBA_PROJECT
  2
AcDbVbaProject
  3
"acadvba"
 90
        1
280
           0
281
           0
  0
CLASS
  1
WIPEOUT
  2
AcDbWipeout
  3
WipeOut|AutoCAD Express Tool|expresstools@autodesk.com
 90
      127
280
           0
281
           1
  0
CLASS
  1
WIPEOUTVARIABLES
  2
AcDbWipeoutVariables
  3
WipeOut|AutoCAD Express Tool|expresstools@autodesk.com
 90
        0
280
           0
281
           0
  0
CLASS
  1
RTEXT
  2
RText
  3
RText|AutoCAD Express Tool|expresstools@autodesk.com
 90
        0
280
           0
281
           1
  0
CLASS
  1
ARCALIGNEDTEXT
  2
AcDbArcAlignedText
  3
ATEXT|AutoCAD Express Tool|expresstools@autodesk.com
 90
        0
280
           0
281
           1
  0
CLASS
  1
DIMASSOC
  2
AcDbDimAssoc
  3
AcDbDimAssoc|Product Desc:     AcDim ARX App For Dimension|Company:          Autodesk, Inc.|WEB Address:      www.autodesk.com
 90
        1
280
           0
281
           0
  0
ENDSEC
  0
SECTION
  2
TABLES
  0
TABLE
  2
VPORT
  5
7
100
AcDbSymbolTable
 70
          16
  0
VPORT
  5
3E7
100
AcDbSymbolTableRecord
100
AcDbViewportTableRecord
  2
*ACTIVE
 70
           0
 10
0.0
 20
0.0
 11
1.0
 21
1.0
 12
18.520589823835
 22
16.864547491074
 13
0.0
 23
0.0
 14
1.0
 24
1.0
 15
0.0
 25
0.0
 16
0.0
 26
0.0
 36
1.0
 17
0.0
 27
0.0
 37
0.0
 40
32.848129606247
 41
0.688564
 42
50.0
 43
29.436064350793
 44
-29.436064350793
 50
0.0
 51
0.0
 71
          16
 72
         100
 73
           1
 74
           1
 75
           0
 76
           0
 77
           0
 78
           0
  0
VPORT
  5
3E8
100
AcDbSymbolTableRecord
100
AcDbViewportTableRecord
  2
L1
 70
           0
 10
0.0
 20
0.0
 11
1.0
 21
1.0
 12
0.0
 22
0.0
 13
0.0
 23
0.0
 14
1.0
 24
1.0
 15
0.0
 25
0.0
 16
0.718873092757
 26
-0.585048612676
 36
0.37541922875
 17
0.0
 27
0.0
 37
0.0
 40
59.525062908318
 41
0.688564
 42
50.0
 43
29.436064350793
 44
-29.436064350793
 50
0.0
 51
0.0
 71
          16
 72
         100
 73
           1
 74
           1
 75
           0
 76
           0
 77
           0
 78
           0
  0
VPORT
  5
3E9
100
AcDbSymbolTableRecord
100
AcDbViewportTableRecord
  2
L2
 70
           0
 10
0.0
 20
0.0
 11
0.5
 21
1.0
 12
0.0
 22
0.0
 13
0.0
 23
0.0
 14
1.0
 24
1.0
 15
0.0
 25
0.0
 16
0.0
 26
-1.0
 36
0.0
 17
0.0
 27
0.0
 37
0.0
 40
57.436223123498
 41
0.688564
 42
50.0
 43
29.586753308898
 44
-29.586753308898
 50
0.0
 51
0.0
 71
          16
 72
         100
 73
           1
 74
           1
 75
           0
 76
           0
 77
           0
 78
           0
  0
VPORT
  5
3EA
100
AcDbSymbolTableRecord
100
AcDbViewportTableRecord
  2
L2
 70
           0
 10
0.5
 20
0.0
 11
1.0
 21
1.0
 12
0.0
 22
0.0
 13
0.0
 23
0.0
 14
1.0
 24
1.0
 15
0.0
 25
0.0
 16
1.0
 26
0.0
 36
0.0
 17
0.0
 27
0.0
 37
0.0
 40
57.436223123498
 41
0.688564
 42
50.0
 43
29.072757718631
 44
-29.072757718631
 50
0.0
 51
0.0
 71
          16
 72
         100
 73
           1
 74
           1
 75
           0
 76
           0
 77
           0
 78
           0
  0
VPORT
  5
3EB
100
AcDbSymbolTableRecord
100
AcDbViewportTableRecord
  2
L3
 70
           0
 10
0.0
 20
0.5
 11
1.0
 21
1.0
 12
0.0
 22
0.0
 13
0.0
 23
0.0
 14
1.0
 24
1.0
 15
0.0
 25
0.0
 16
0.0
 26
0.0
 36
1.0
 17
0.0
 27
0.0
 37
0.0
 40
9.054349163386
 41
0.688564
 42
50.0
 43
28.718111561749
 44
-28.718111561749
 50
0.0
 51
0.0
 71
          16
 72
         100
 73
           1
 74
           1
 75
           0
 76
           0
 77
           0
 78
           0
  0
VPORT
  5
3EC
100
AcDbSymbolTableRecord
100
AcDbViewportTableRecord
  2
L3
 70
           0
 10
0.0
 20
0.0
 11
1.0
 21
0.5
 12
0.0
 22
0.0
 13
0.0
 23
0.0
 14
1.0
 24
1.0
 15
0.0
 25
0.0
 16
0.0
 26
-1.0
 36
0.0
 17
0.0
 27
0.0
 37
0.0
 40
57.436223123498
 41
0.688564
 42
50.0
 43
29.586753308898
 44
-29.586753308898
 50
0.0
 51
0.0
 71
          16
 72
         100
 73
           1
 74
           1
 75
           0
 76
           0
 77
           0
 78
           0
  0
VPORT
  5
3ED
100
AcDbSymbolTableRecord
100
AcDbViewportTableRecord
  2
L4
 70
           0
 10
0.0
 20
0.5
 11
0.5
 21
1.0
 12
0.0
 22
0.0
 13
0.0
 23
0.0
 14
1.0
 24
1.0
 15
0.0
 25
0.0
 16
0.0
 26
0.0
 36
1.0
 17
0.0
 27
0.0
 37
0.0
 40
9.054349163386
 41
0.688564
 42
50.0
 43
28.718111561749
 44
-28.718111561749
 50
0.0
 51
0.0
 71
          16
 72
         100
 73
           1
 74
           1
 75
           0
 76
           0
 77
           0
 78
           0
  0
VPORT
  5
3EE
100
AcDbSymbolTableRecord
100
AcDbViewportTableRecord
  2
L4
 70
           0
 10
0.0
 20
0.0
 11
0.5
 21
0.5
 12
0.0
 22
0.0
 13
0.0
 23
0.0
 14
1.0
 24
1.0
 15
0.0
 25
0.0
 16
0.0
 26
-1.0
 36
0.0
 17
0.0
 27
0.0
 37
0.0
 40
57.436223123498
 41
0.688564
 42
50.0
 43
29.586753308898
 44
-29.586753308898
 50
0.0
 51
0.0
 71
          16
 72
         100
 73
           1
 74
           1
 75
           0
 76
           0
 77
           0
 78
           0
  0
VPORT
  5
3EF
100
AcDbSymbolTableRecord
100
AcDbViewportTableRecord
  2
L4
 70
           0
 10
0.5
 20
0.0
 11
1.0
 21
0.5
 12
0.0
 22
0.0
 13
0.0
 23
0.0
 14
1.0
 24
1.0
 15
0.0
 25
0.0
 16
1.0
 26
0.0
 36
0.0
 17
0.0
 27
0.0
 37
0.0
 40
57.436223123498
 41
0.688564
 42
50.0
 43
29.072757718631
 44
-29.072757718631
 50
0.0
 51
0.0
 71
          16
 72
         100
 73
           1
 74
           1
 75
           0
 76
           0
 77
           0
 78
           0
  0
VPORT
  5
3F0
100
AcDbSymbolTableRecord
100
AcDbViewportTableRecord
  2
L4
 70
           0
 10
0.5
 20
0.5
 11
1.0
 21
1.0
 12
0.0
 22
0.0
 13
0.0
 23
0.0
 14
1.0
 24
1.0
 15
0.0
 25
0.0
 16
0.57735026919
 26
-0.57735026919
 36
0.57735026919
 17
0.0
 27
0.0
 37
0.0
 40
56.403584468245
 41
0.688564
 42
50.0
 43
29.379071880703
 44
-29.379071880703
 50
0.0
 51
0.0
 71
          16
 72
         100
 73
           1
 74
           1
 75
           0
 76
           0
 77
           0
 78
           0
  0
VPORT
  5
3F1
100
AcDbSymbolTableRecord
100
AcDbViewportTableRecord
  2
L6
 70
           0
 10
0.0
 20
0.5
 11
0.333333333333
 21
1.0
 12
0.0
 22
0.0
 13
0.0
 23
0.0
 14
1.0
 24
1.0
 15
0.0
 25
0.0
 16
0.718873092757
 26
-0.585048612676
 36
0.37541922875
 17
0.0
 27
0.0
 37
0.0
 40
59.525062908318
 41
0.688564
 42
50.0
 43
29.436064350793
 44
-29.436064350793
 50
0.0
 51
0.0
 71
          16
 72
         100
 73
           1
 74
           1
 75
           0
 76
           0
 77
           0
 78
           0
  0
VPORT
  5
3F2
100
AcDbSymbolTableRecord
100
AcDbViewportTableRecord
  2
L6
 70
           0
 10
0.0
 20
0.0
 11
0.333333333333
 21
0.5
 12
0.0
 22
0.0
 13
0.0
 23
0.0
 14
1.0
 24
1.0
 15
0.0
 25
0.0
 16
-1.0
 26
0.0
 36
0.0
 17
0.0
 27
0.0
 37
0.0
 40
57.436223123498
 41
0.688564
 42
50.0
 43
29.072757718631
 44
-29.072757718631
 50
0.0
 51
0.0
 71
          16
 72
         100
 73
           1
 74
           1
 75
           0
 76
           0
 77
           0
 78
           0
  0
VPORT
  5
3F3
100
AcDbSymbolTableRecord
100
AcDbViewportTableRecord
  2
L6
 70
           0
 10
0.333333333333
 20
0.5
 11
0.666666666667
 21
1.0
 12
0.0
 22
0.0
 13
0.0
 23
0.0
 14
1.0
 24
1.0
 15
0.0
 25
0.0
 16
0.0
 26
0.0
 36
1.0
 17
0.0
 27
0.0
 37
0.0
 40
9.054349163386
 41
0.688564
 42
50.0
 43
28.718111561749
 44
-28.718111561749
 50
0.0
 51
0.0
 71
          16
 72
         100
 73
           1
 74
           1
 75
           0
 76
           0
 77
           0
 78
           0
  0
VPORT
  5
3F4
100
AcDbSymbolTableRecord
100
AcDbViewportTableRecord
  2
L6
 70
           0
 10
0.333333333333
 20
0.0
 11
0.666666666667
 21
0.5
 12
0.0
 22
0.0
 13
0.0
 23
0.0
 14
1.0
 24
1.0
 15
0.0
 25
0.0
 16
0.0
 26
-1.0
 36
0.0
 17
0.0
 27
0.0
 37
0.0
 40
57.436223123498
 41
0.688564
 42
50.0
 43
29.586753308898
 44
-29.586753308898
 50
0.0
 51
0.0
 71
          16
 72
         100
 73
           1
 74
           1
 75
           0
 76
           0
 77
           0
 78
           0
  0
VPORT
  5
3F5
100
AcDbSymbolTableRecord
100
AcDbViewportTableRecord
  2
L6
 70
           0
 10
0.666666666667
 20
0.5
 11
1.0
 21
1.0
 12
0.0
 22
0.0
 13
0.0
 23
0.0
 14
1.0
 24
1.0
 15
0.0
 25
0.0
 16
0.57735026919
 26
-0.57735026919
 36
0.57735026919
 17
0.0
 27
0.0
 37
0.0
 40
56.403584468245
 41
0.688564
 42
50.0
 43
29.379071880703
 44
-29.379071880703
 50
0.0
 51
0.0
 71
          16
 72
         100
 73
           1
 74
           1
 75
           0
 76
           0
 77
           0
 78
           0
  0
VPORT
  5
3F6
100
AcDbSymbolTableRecord
100
AcDbViewportTableRecord
  2
L6
 70
           0
 10
0.666666666667
 20
0.0
 11
1.0
 21
0.5
 12
0.0
 22
0.0
 13
0.0
 23
0.0
 14
1.0
 24
1.0
 15
0.0
 25
0.0
 16
1.0
 26
0.0
 36
0.0
 17
0.0
 27
0.0
 37
0.0
 40
57.436223123498
 41
0.688564
 42
50.0
 43
29.072757718631
 44
-29.072757718631
 50
0.0
 51
0.0
 71
          16
 72
         100
 73
           1
 74
           1
 75
           0
 76
           0
 77
           0
 78
           0
  0
ENDTAB
  0
TABLE
  2
LTYPE
  5
4
100
AcDbSymbolTable
 70
           9
  0
LTYPE
  5
11
100
AcDbSymbolTableRecord
100
AcDbLinetypeTableRecord
  2
BYBLOCK
 70
          64
  3

 72
          65
 73
           0
 40
0.0
  0
LTYPE
  5
12
100
AcDbSymbolTableRecord
100
AcDbLinetypeTableRecord
  2
BYLAYER
 70
          64
  3

 72
          65
 73
           0
 40
0.0
  0
LTYPE
  5
13
100
AcDbSymbolTableRecord
100
AcDbLinetypeTableRecord
  2
CONTINUOUS
 70
          64
  3
Solid line
 72
          65
 73
           0
 40
0.0
  0
LTYPE
  5
24
100
AcDbSymbolTableRecord
100
AcDbLinetypeTableRecord
  2
DASHED
 70
          64
  3
__ __ __ __ __ __ __ __ __
 72
          65
 73
           2
 40
25.72
 49
12.86
 74
           0
 49
-12.86
 74
           0
  0
LTYPE
  5
25
100
AcDbSymbolTableRecord
100
AcDbLinetypeTableRecord
  2
HIDDEN
 70
          64
  3
_ _ _ _ _ _ _ _ _ _ _ _ _ _ _
 72
          65
 73
           2
 40
0.5
 49
0.25
 74
           0
 49
-0.25
 74
           0
  0
LTYPE
  5
26
100
AcDbSymbolTableRecord
100
AcDbLinetypeTableRecord
  2
PHANTOM
 70
          64
  3
____ _ _ ____ _ _ _____ _ _ ____
 72
          65
 73
           6
 40
50.5
 49
18.0
 74
           0
 49
-6.5
 74
           0
 49
6.5
 74
           0
 49
-6.5
 74
           0
 49
6.5
 74
           0
 49
-6.5
 74
           0
  0
LTYPE
  5
27
100
AcDbSymbolTableRecord
100
AcDbLinetypeTableRecord
  2
CENTER
 70
          64
  3
____ _ ____ _ ____ _ ____
 72
          65
 73
           4
 40
47.5
 49
22.0
 74
           0
 49
-8.5
 74
           0
 49
8.5
 74
           0
 49
-8.5
 74
           0
  0
LTYPE
  5
28
100
AcDbSymbolTableRecord
100
AcDbLinetypeTableRecord
  2
DOT
 70
          64
  3
.........................
 72
          65
 73
           2
 40
10.0
 49
0.0
 74
           0
 49
-10.0
 74
           0
  0
LTYPE
  5
29
100
AcDbSymbolTableRecord
100
AcDbLinetypeTableRecord
  2
DASHDOT
 70
          64
  3
_._._._._._._._._._._._._._._._.
 72
          65
 73
           4
 40
70.0
 49
31.0
 74
           0
 49
-13.0
 74
           0
 49
13.0
 74
           0
 49
-13.0
 74
           0
  0
ENDTAB
  0
TABLE
  2
LAYER
  5
2
100
AcDbSymbolTable
 70
           2
  0
LAYER
  5
14
100
AcDbSymbolTableRecord
100
AcDbLayerTableRecord
  2
0
 70
           0
 62
           7
  6
CONTINUOUS
  0
LAYER
  5
2B
100
AcDbSymbolTableRecord
100
AcDbLayerTableRecord
  2
TFR-TRI
 70
           0
 62
           7
  6
CONTINUOUS
  0
ENDTAB
  0
TABLE
  2
STYLE
  5
3
100
AcDbSymbolTable
 70
           1
  0
STYLE
  5
17
100
AcDbSymbolTableRecord
100
AcDbTextStyleTableRecord
  2
STANDARD
 70
           0
 40
0.0
 41
1.0
 50
0.0
 71
           0
 42
0.2
  3
TXT
  4

  0
ENDTAB
  0
TABLE
  2
VIEW
  5
5
100
AcDbSymbolTable
 70
           8
  0
VIEW
  5
3DF
100
AcDbSymbolTableRecord
100
AcDbViewTableRecord
  2
TOP
 70
           0
 40
9.054349163386
 10
0.0
 20
0.0
 41
14.233206200787
 11
0.0
 21
0.0
 31
1.0
 12
0.0
 22
0.0
 32
0.0
 42
50.0
 43
28.718111561749
 44
-28.718111561749
 50
0.0
 71
          16
  0
VIEW
  5
3E0
100
AcDbSymbolTableRecord
100
AcDbViewTableRecord
  2
FRONT
 70
           0
 40
57.436223123498
 10
0.0
 20
0.0
 41
14.233206200787
 11
0.0
 21
-1.0
 31
0.0
 12
0.0
 22
0.0
 32
0.0
 42
50.0
 43
29.586753308898
 44
-29.586753308898
 50
0.0
 71
          16
  0
VIEW
  5
3E1
100
AcDbSymbolTableRecord
100
AcDbViewTableRecord
  2
RIGHT
 70
           0
 40
57.436223123498
 10
0.0
 20
0.0
 41
9.054349163386
 11
1.0
 21
0.0
 31
0.0
 12
0.0
 22
0.0
 32
0.0
 42
50.0
 43
29.072757718631
 44
-29.072757718631
 50
0.0
 71
          16
  0
VIEW
  5
3E2
100
AcDbSymbolTableRecord
100
AcDbViewTableRecord
  2
BACK
 70
           0
 40
57.436223123498
 10
0.0
 20
0.0
 41
14.233206200787
 11
0.0
 21
1.0
 31
0.0
 12
0.0
 22
0.0
 32
0.0
 42
50.0
 43
29.586753308898
 44
-29.586753308898
 50
0.0
 71
          16
  0
VIEW
  5
3E3
100
AcDbSymbolTableRecord
100
AcDbViewTableRecord
  2
BOTTOM
 70
           0
 40
9.054349163386
 10
0.0
 20
0.0
 41
14.233206200787
 11
0.0
 21
0.0
 31
-1.0
 12
0.0
 22
0.0
 32
0.0
 42
50.0
 43
28.718111561749
 44
-28.718111561749
 50
180.0
 71
          16
  0
VIEW
  5
3E4
100
AcDbSymbolTableRecord
100
AcDbViewTableRecord
  2
LEFT
 70
           0
 40
57.436223123498
 10
0.0
 20
0.0
 41
9.054349163386
 11
-1.0
 21
0.0
 31
0.0
 12
0.0
 22
0.0
 32
0.0
 42
50.0
 43
29.072757718631
 44
-29.072757718631
 50
0.0
 71
          16
  0
VIEW
  5
3E5
100
AcDbSymbolTableRecord
100
AcDbViewTableRecord
  2
TFR-ISO
 70
           0
 40
56.403584468245
 10
0.0
 20
0.0
 41
16.466788315264
 11
0.57735026919
 21
-0.57735026919
 31
0.57735026919
 12
0.0
 22
0.0
 32
0.0
 42
50.0
 43
29.379071880703
 44
-29.379071880703
 50
0.0
 71
          16
  0
VIEW
  5
3E6
100
AcDbSymbolTableRecord
100
AcDbViewTableRecord
  2
TFR-TRI
 70
           0
 40
59.525062908318
 10
0.0
 20
0.0
 41
16.006865906753
 11
0.718873092757
 21
-0.585048612676
 31
0.37541922875
 12
0.0
 22
0.0
 32
0.0
 42
50.0
 43
29.436064350793
 44
-29.436064350793
 50
0.0
 71
          16
  0
ENDTAB
  0
TABLE
  2
UCS
  5
6
100
AcDbSymbolTable
 70
           0
  0
ENDTAB
  0
TABLE
  2
APPID
  5
8
100
AcDbSymbolTable
 70
           1
  0
APPID
  5
16
100
AcDbSymbolTableRecord
100
AcDbRegAppTableRecord
  2
ACAD
 70
           0
  0
ENDTAB
  0
TABLE
  2
DIMSTYLE
  5
9
100
AcDbSymbolTable
 70
           1
  0
DIMSTYLE
105
18
100
AcDbSymbolTableRecord
100
AcDbDimStyleTableRecord
  2
STANDARD
 70
           0
  3

  4

  5

  6

  7

 40
1.0
 41
0.18
 42
0.0625
 43
0.38
 44
0.18
 45
0.0
 46
0.0
 47
0.0
 48
0.0
 71
           0
 72
           0
 73
           1
 74
           1
 75
           0
 76
           0
 77
           0
 78
           0
140
0.18
141
0.09
142
0.0
143
25.4
144
1.0
145
0.0
146
1.0
147
0.09
170
           0
171
           2
172
           0
173
           0
174
           0
175
           0
176
           0
177
           0
178
           0
270
           2
271
           4
272
           4
273
           2
274
           2
275
           0
280
           0
281
           0
282
           0
283
           1
284
           0
285
           0
286
           0
287
           3
288
           0
340
17
  0
ENDTAB
  0
TABLE
  2
BLOCK_RECORD
  5
1
100
AcDbSymbolTable
 70
           0
  0
BLOCK_RECORD
  5
A
100
AcDbSymbolTableRecord
100
AcDbBlockTableRecord
  2
*MODEL_SPACE
  0
BLOCK_RECORD
  5
B
100
AcDbSymbolTableRecord
100
AcDbBlockTableRecord
  2
*PAPER_SPACE
  0
ENDTAB
  0
ENDSEC
  0
SECTION
  2
BLOCKS
  0
BLOCK
  5
D
100
AcDbEntity
  8
0
100
AcDbBlockBegin
  2
*MODEL_SPACE
 70
           0
 10
0.0
 20
0.0
 30
0.0
  3
*MODEL_SPACE
  1

  0
ENDBLK
  5
E
100
AcDbEntity
  8
0
100
AcDbBlockEnd
  0
BLOCK
  5
F
100
AcDbEntity
 67
           1
  8
0
100
AcDbBlockBegin
  2
*PAPER_SPACE
 70
           0
 10
0.0
 20
0.0
 30
0.0
  3
*PAPER_SPACE
  1

  0
ENDBLK
  5
10
100
AcDbEntity
 67
           1
  8
0
100
AcDbBlockEnd
  0
ENDSEC
  0
SECTION
  2
ENTITIES
  0
VIEWPORT
  5
3F7
100
AcDbEntity
 67
           1
  8
0
100
AcDbViewport
 10
7.8
 20
4.5
 30
0.0
 40
15.64
 41
9.0
 68
           1
 69
           1
1001
ACAD
1000
MVIEW
1002
{
1070
          16
1010
0.0
1020
0.0
1030
0.0
1010
0.0
1020
0.0
1030
1.0
1040
0.0
1040
12.0
1040
6.0
1040
4.5
1040
50.0
1040
0.0
1040
0.0
1070
           0
1070
         100
1070
           0
1070
           1
1070
           0
1070
           0
1070
           0
1070
           0
1040
0.0
1040
0.0
1040
0.0
1040
0.5
1040
0.5
1040
0.5
1040
0.5
1070
           0
1002
{
1002
}
1002
}
  0
LINE
  5
2A
100
AcDbEntity
  8
TFR-TRI
  6
CONTINUOUS
 62
           3
100
AcDbLine
 10
15.856078147888
 20
0.789523124695
 30
0.0
 11
15.875943183899
 21
0.789523124695
 31
0.0
  0
LINE
  5
2C
100
AcDbEntity
  8
TFR-TRI
  6
CONTINUOUS
 62
          93
100
AcDbLine
 10
35.268077850342
 20
15.660022735596
 30
0.0
 11
35.518077850342
 21
15.910022735596
 31
0.0
  0
LINE
  5
2D
100
AcDbEntity
  8
TFR-TRI
  6
CONTINUOUS
 62
           3
100
AcDbLine
 10
17.140787124634
 20
0.789523124695
 30
0.0
 11
17.22078704834
 21
0.762523174286
 31
0.0
  0
LINE
  5
2E
100
AcDbEntity
  8
TFR-TRI
  6
CONTINUOUS
 62
          93
100
AcDbLine
 10
15.332334518433
 20
25.462522506714
 30
0.0
 11
18.482334136963
 21
25.462522506714
 31
0.0
  0
LINE
  5
2F
100
AcDbEntity
  8
TFR-TRI
  6
CONTINUOUS
 62
          93
100
AcDbLine
 10
15.388902664185
 20
25.302522659302
 30
0.0
 11
15.386060714722
 21
25.317523956299
 31
0.0
  0
LINE
  5
30
100
AcDbEntity
  8
TFR-TRI
  6
CONTINUOUS
 62
          93
100
AcDbLine
 10
15.332334518433
 20
27.085510253906
 30
0.0
 11
15.332334518433
 21
27.089916229248
 31
0.0
  0
LINE
  5
31
100
AcDbEntity
  8
TFR-TRI
  6
CONTINUOUS
 62
           3
100
AcDbLine
 10
17.328287124634
 20
25.475522994995
 30
0.0
 11
17.298139572144
 21
25.475522994995
 31
0.0
  0
LINE
  5
32
100
AcDbEntity
  8
TFR-TRI
  6
CONTINUOUS
 62
           3
100
AcDbLine
 10
19.205600738525
 20
0.862525165081
 30
0.0
 11
19.205600738525
 21
0.872524261475
 31
0.0
  0
LINE
  5
33
100
AcDbEntity
  8
TFR-TRI
  6
CONTINUOUS
 62
          93
100
AcDbLine
 10
33.568077087402
 20
0.934711635113
 30
0.0
 11
33.568077087402
 21
0.909622490406
 31
0.0
  0
LINE
  5
34
100
AcDbEntity
  8
TFR-TRI
  6
CONTINUOUS
 62
          93
100
AcDbLine
 10
21.403100967407
 20
25.375333786011
 30
0.0
 11
21.403100967407
 21
25.388118743896
 31
0.0
  0
LINE
  5
35
100
AcDbEntity
  8
TFR-TRI
  6
CONTINUOUS
 62
          93
100
AcDbLine
 10
18.47188949585
 20
0.962523162365
 30
0.0
 11
18.47188949585
 21
25.302522659302
 31
0.0
  0
LINE
  5
36
100
AcDbEntity
  8
TFR-TRI
  6
CONTINUOUS
 62
          93
100
AcDbLine
 10
21.403100967407
 20
30.196573257446
 30
0.0
 11
21.403100967407
 21
30.200977325439
 31
0.0
  0
LINE
  5
37
100
AcDbEntity
  8
TFR-TRI
  6
CONTINUOUS
 62
           3
100
AcDbLine
 10
17.390787124634
 20
0.789523124695
 30
0.0
 11
17.390787124634
 21
0.802523136139
 31
0.0
  0
LINE
  5
38
100
AcDbEntity
  8
TFR-TRI
  6
CONTINUOUS
 62
           3
100
AcDbLine
 10
33.77233505249
 20
0.789523124695
 30
0.0
 11
33.784824371338
 21
0.789523124695
 31
0.0
  0
LINE
  5
39
100
AcDbEntity
  8
TFR-TRI
  6
CONTINUOUS
 62
          93
100
AcDbLine
 10
21.442335128784
 20
32.475509643555
 30
0.0
 11
21.442335128784
 21
30.325510025024
 31
0.0
  0
LINE
  5
3A
100
AcDbEntity
  8
TFR-TRI
  6
CONTINUOUS
 62
          93
100
AcDbLine
 10
21.493101119995
 20
30.286573410034
 30
0.0
 11
21.433101654053
 21
30.286573410034
 31
0.0
  0
LINE
  5
3B
100
AcDbEntity
  8
TFR-TRI
  6
CONTINUOUS
 62
          93
100
AcDbLine
 10
33.405578613281
 20
11.660022735596
 30
0.0
 11
35.268077850342
 21
11.660022735596
 31
0.0
  0
LINE
  5
3C
100
AcDbEntity
  8
TFR-TRI
  6
CONTINUOUS
 62
          93
100
AcDbLine
 10
21.403100967407
 20
25.39252281189
 30
0.0
 11
18.543102264404
 21
25.39252281189
 31
0.0
  0
LINE
  5
3D
100
AcDbEntity
  8
TFR-TRI
  6
CONTINUOUS
 62
          93
100
AcDbLine
 10
33.385578155518
 20
3.885023117065
 30
0.0
 11
33.385578155518
 21
5.660023212433
 31
0.0
  0
LINE
  5
3E
100
AcDbEntity
  8
TFR-TRI
  6
CONTINUOUS
 62
          93
100
AcDbLine
 10
1.583034515381
 20
25.372522354126
 30
0.0
 11
1.583034515381
 21
25.40033531189
 31
0.0
  0
LINE
  5
3F
100
AcDbEntity
  8
TFR-TRI
  6
CONTINUOUS
 62
          93
100
AcDbLine
 10
18.543102264404
 20
30.213760375977
 30
0.0
 11
18.543102264404
 21
30.233671188354
 31
0.0
  0
LINE
  5
40
100
AcDbEntity
  8
TFR-TRI
  6
CONTINUOUS
 62
           3
100
AcDbLine
 10
15.812689781189
 20
0.762523174286
 30
0.0
 11
15.892689704895
 21
0.789523124695
 31
0.0
  0
LINE
  5
41
100
AcDbEntity
  8
TFR-TRI
  6
CONTINUOUS
 62
           3
100
AcDbLine
 10
17.298139572144
 20
0.789523124695
 30
0.0
 11
17.328287124634
 21
0.789523124695
 31
0.0
  0
LINE
  5
42
100
AcDbEntity
  8
TFR-TRI
  6
CONTINUOUS
 62
          93
100
AcDbLine
 10
33.568077087402
 20
0.876928091049
 30
0.0
 11
33.568077087402
 21
0.872523128986
 31
0.0
  0
LINE
  5
43
100
AcDbEntity
  8
TFR-TRI
  6
CONTINUOUS
 62
          93
100
AcDbLine
 10
21.403100967407
 20
0.934711635113
 30
0.0
 11
21.403100967407
 21
0.909622490406
 31
0.0
  0
LINE
  5
44
100
AcDbEntity
  8
TFR-TRI
  6
CONTINUOUS
 62
          93
100
AcDbLine
 10
1.583034515381
 20
0.864711642265
 30
0.0
 11
1.583034515381
 21
0.839622497559
 31
0.0
  0
LINE
  5
45
100
AcDbEntity
  8
TFR-TRI
  6
CONTINUOUS
 62
           3
100
AcDbLine
 10
19.080600738525
 20
25.402521133423
 30
0.0
 11
19.080600738525
 21
25.39252281189
 31
0.0
  0
LINE
  5
46
100
AcDbEntity
  8
TFR-TRI
  6
CONTINUOUS
 62
           3
100
AcDbLine
 10
19.171157836914
 20
0.762523174286
 30
0.0
 11
19.153114318848
 21
0.762523174286
 31
0.0
  0
LINE
  5
47
100
AcDbEntity
  8
TFR-TRI
  6
CONTINUOUS
 62
          93
100
AcDbLine
 10
15.332334518433
 20
0.819711625576
 30
0.0
 11
15.332334518433
 21
0.806928038597
 31
0.0
  0
LINE
  5
48
100
AcDbEntity
  8
TFR-TRI
  6
CONTINUOUS
 62
           3
100
AcDbLine
 10
19.03484916687
 20
0.789523124695
 30
0.0
 11
19.054712295532
 21
0.789523124695
 31
0.0
  0
LINE
  5
49
100
AcDbEntity
  8
TFR-TRI
  6
CONTINUOUS
 62
          93
100
AcDbLine
 10
29.697015762329
 20
0.892523169518
 30
0.0
 11
29.697015762329
 21
0.962523162365
 31
0.0
  0
LINE
  5
4A
100
AcDbEntity
  8
TFR-TRI
  6
CONTINUOUS
 62
           3
100
AcDbLine
 10
33.955577850342
 20
25.475522994995
 30
0.0
 11
33.925430297852
 21
25.475522994995
 31
0.0
  0
LINE
  5
4B
100
AcDbEntity
  8
TFR-TRI
  6
CONTINUOUS
 62
          93
100
AcDbLine
 10
34.218078613281
 20
0.889711618423
 30
0.0
 11
34.218078613281
 21
0.876928091049
 31
0.0
  0
LINE
  5
4C
100
AcDbEntity
  8
TFR-TRI
  6
CONTINUOUS
 62
          30
100
AcDbLine
 10
15.332354545593
 20
0.892523169518
 30
0.0
 11
15.367697715759
 21
0.892523169518
 31
0.0
  0
LINE
  5
4D
100
AcDbEntity
  8
TFR-TRI
  6
CONTINUOUS
 62
          30
100
AcDbLine
 10
15.332354545593
 20
0.952523171902
 30
0.0
 11
15.387713432312
 21
0.952523171902
 31
0.0
  0
LINE
  5
4E
100
AcDbEntity
  8
TFR-TRI
  6
CONTINUOUS
 62
          93
100
AcDbLine
 10
18.493101119995
 20
0.962523162365
 30
0.0
 11
18.493101119995
 21
25.302522659302
 31
0.0
  0
LINE
  5
4F
100
AcDbEntity
  8
TFR-TRI
  6
CONTINUOUS
 62
          93
100
AcDbLine
 10
33.385578155518
 20
21.385023117065
 30
0.0
 11
33.385578155518
 21
23.160022735596
 31
0.0
  0
LINE
  5
50
100
AcDbEntity
  8
TFR-TRI
  6
CONTINUOUS
 62
           3
100
AcDbLine
 10
19.110748291016
 20
25.475522994995
 30
0.0
 11
19.080600738525
 21
25.475522994995
 31
0.0
  0
LINE
  5
51
100
AcDbEntity
  8
TFR-TRI
  6
CONTINUOUS
 62
          93
100
AcDbLine
 10
29.637016296387
 20
0.962523162365
 30
0.0
 11
29.643865585327
 21
0.962523162365
 31
0.0
  0
LINE
  5
52
100
AcDbEntity
  8
TFR-TRI
  6
CONTINUOUS
 62
          30
100
AcDbLine
 10
1.523101806641
 20
0.982523143291
 30
0.0
 11
1.523101806641
 21
25.282522201538
 31
0.0
  0
LINE
  5
53
100
AcDbEntity
  8
TFR-TRI
  6
CONTINUOUS
 62
          93
100
AcDbLine
 10
21.475914001465
 20
0.962523162365
 30
0.0
 11
21.488697052002
 21
0.962523162365
 31
0.0
  0
LINE
  5
54
100
AcDbEntity
  8
TFR-TRI
  6
CONTINUOUS
 62
           3
100
AcDbLine
 10
19.268100738525
 20
25.475522994995
 30
0.0
 11
19.263841629028
 21
25.475522994995
 31
0.0
  0
LINE
  5
55
100
AcDbEntity
  8
TFR-TRI
  6
CONTINUOUS
 62
           3
100
AcDbLine
 10
21.128101348877
 20
25.475522994995
 30
0.0
 11
21.12384223938
 21
25.475522994995
 31
0.0
  0
LINE
  5
56
100
AcDbEntity
  8
TFR-TRI
  6
CONTINUOUS
 62
           3
100
AcDbLine
 10
20.993087768555
 20
0.762523174286
 30
0.0
 11
20.975044250488
 21
0.762523174286
 31
0.0
  0
LINE
  5
57
100
AcDbEntity
  8
TFR-TRI
  6
CONTINUOUS
 62
          93
100
AcDbLine
 10
32.739292144775
 20
25.302522659302
 30
0.0
 11
29.69873046875
 21
25.302522659302
 31
0.0
  0
LINE
  5
58
100
AcDbEntity
  8
TFR-TRI
  6
CONTINUOUS
 62
          30
100
AcDbLine
 10
1.583214402199
 20
25.372522354126
 30
0.0
 11
1.523101806641
 21
25.372522354126
 31
0.0
  0
LINE
  5
59
100
AcDbEntity
  8
TFR-TRI
  6
CONTINUOUS
 62
           3
100
AcDbLine
 10
20.970748901367
 20
25.475522994995
 30
0.0
 11
20.940601348877
 21
25.475522994995
 31
0.0
  0
LINE
  5
5A
100
AcDbEntity
  8
TFR-TRI
  6
CONTINUOUS
 62
           3
100
AcDbLine
 10
20.940601348877
 20
0.789523124695
 30
0.0
 11
20.970748901367
 21
0.789523124695
 31
0.0
  0
LINE
  5
5B
100
AcDbEntity
  8
TFR-TRI
  6
CONTINUOUS
 62
          93
100
AcDbLine
 10
32.739292144775
 20
25.302522659302
 30
0.0
 11
32.745792388916
 21
25.302522659302
 31
0.0
  0
LINE
  5
5C
100
AcDbEntity
  8
TFR-TRI
  6
CONTINUOUS
 62
           3
100
AcDbLine
 10
21.12384223938
 20
25.475522994995
 30
0.0
 11
21.111354827881
 21
25.475522994995
 31
0.0
  0
LINE
  5
5D
100
AcDbEntity
  8
TFR-TRI
  6
CONTINUOUS
 62
          30
100
AcDbLine
 10
1.523101806641
 20
0.896928071976
 30
0.0
 11
1.523101806641
 21
0.892523169518
 31
0.0
  0
LINE
  5
5E
100
AcDbEntity
  8
TFR-TRI
  6
CONTINUOUS
 62
           3
100
AcDbLine
 10
17.237730026245
 20
25.502523422241
 30
0.0
 11
17.255773544312
 21
25.502523422241
 31
0.0
  0
LINE
  5
5F
100
AcDbEntity
  8
TFR-TRI
  6
CONTINUOUS
 62
          93
100
AcDbLine
 10
34.848075866699
 20
3.297523260117
 30
0.0
 11
34.848075866699
 21
4.300023078918
 31
0.0
  0
LINE
  5
60
100
AcDbEntity
  8
TFR-TRI
  6
CONTINUOUS
 62
           3
100
AcDbLine
 10
21.12384223938
 20
0.789523124695
 30
0.0
 11
21.128101348877
 21
0.789523124695
 31
0.0
  0
LINE
  5
61
100
AcDbEntity
  8
TFR-TRI
  6
CONTINUOUS
 62
          93
100
AcDbLine
 10
32.765266418457
 20
0.962523162365
 30
0.0
 11
32.785175323486
 21
0.962523162365
 31
0.0
  0
LINE
  5
62
100
AcDbEntity
  8
TFR-TRI
  6
CONTINUOUS
 62
          30
100
AcDbLine
 10
34.267013549805
 20
25.282522201538
 30
0.0
 11
34.267013549805
 21
25.262483596802
 31
0.0
  0
LINE
  5
63
100
AcDbEntity
  8
TFR-TRI
  6
CONTINUOUS
 62
           3
100
AcDbLine
 10
33.830577850342
 20
25.475522994995
 30
0.0
 11
33.8046875
 21
25.475522994995
 31
0.0
  0
LINE
  5
64
100
AcDbEntity
  8
TFR-TRI
  6
CONTINUOUS
 62
          93
100
AcDbLine
 10
7.898034572601
 20
29.615510940552
 30
0.0
 11
7.928034305573
 21
29.615510940552
 31
0.0
  0
LINE
  5
65
100
AcDbEntity
  8
TFR-TRI
  6
CONTINUOUS
 62
           3
100
AcDbLine
 10
20.940601348877
 20
25.402521133423
 30
0.0
 11
20.940601348877
 21
25.39252281189
 31
0.0
  0
LINE
  5
66
100
AcDbEntity
  8
TFR-TRI
  6
CONTINUOUS
 62
           3
100
AcDbLine
 10
32.03044128418
 20
25.475522994995
 30
0.0
 11
32.03044128418
 21
25.462522506714
 31
0.0
  0
LINE
  5
67
100
AcDbEntity
  8
TFR-TRI
  6
CONTINUOUS
 62
          93
100
AcDbLine
 10
34.848075866699
 20
6.545022964478
 30
0.0
 11
34.788078308105
 21
6.545022964478
 31
0.0
  0
LINE
  5
68
100
AcDbEntity
  8
TFR-TRI
  6
CONTINUOUS
 62
          93
100
AcDbLine
 10
32.810264587402
 20
25.302522659302
 30
0.0
 11
32.838077545166
 21
25.302522659302
 31
0.0
  0
LINE
  5
69
100
AcDbEntity
  8
TFR-TRI
  6
CONTINUOUS
 62
           3
100
AcDbLine
 10
33.23307800293
 20
0.762523174286
 30
0.0
 11
33.313076019287
 21
0.789523124695
 31
0.0
  0
LINE
  5
6A
100
AcDbEntity
  8
TFR-TRI
  6
CONTINUOUS
 62
          93
100
AcDbLine
 10
32.739292144775
 20
0.962523162365
 30
0.0
 11
32.742404937744
 21
0.934711635113
 31
0.0
  0
LINE
  5
6B
100
AcDbEntity
  8
TFR-TRI
  6
CONTINUOUS
 62
          93
100
AcDbLine
 10
21.442335128784
 20
25.402523040771
 30
0.0
 11
18.482334136963
 21
25.402523040771
 31
0.0
  0
LINE
  5
6C
100
AcDbEntity
  8
TFR-TRI
  6
CONTINUOUS
 62
          93
100
AcDbLine
 10
33.568077087402
 20
0.962523162365
 30
0.0
 11
34.218078613281
 21
0.962523162365
 31
0.0
  0
LINE
  5
6D
100
AcDbEntity
  8
TFR-TRI
  6
CONTINUOUS
 62
           3
100
AcDbLine
 10
33.155723571777
 20
25.475522994995
 30
0.0
 11
33.125576019287
 21
25.475522994995
 31
0.0
  0
LINE
  5
6E
100
AcDbEntity
  8
TFR-TRI
  6
CONTINUOUS
 62
           3
100
AcDbLine
 10
17.390787124634
 20
25.475522994995
 30
0.0
 11
17.386528015137
 21
25.475522994995
 31
0.0
  0
LINE
  5
6F
100
AcDbEntity
  8
TFR-TRI
  6
CONTINUOUS
 62
           3
100
AcDbLine
 10
15.892689704895
 20
25.475522994995
 30
0.0
 11
15.812689781189
 21
25.502523422241
 31
0.0
  0
LINE
  5
70
100
AcDbEntity
  8
TFR-TRI
  6
CONTINUOUS
 62
           3
100
AcDbLine
 10
21.035453796387
 20
25.475522994995
 30
0.0
 11
21.003101348877
 21
25.475522994995
 31
0.0
  0
LINE
  5
71
100
AcDbEntity
  8
TFR-TRI
  6
CONTINUOUS
 62
          93
100
AcDbLine
 10
7.928034305573
 20
4.787523269653
 30
0.0
 11
7.898034572601
 21
4.787523269653
 31
0.0
  0
LINE
  5
72
100
AcDbEntity
  8
TFR-TRI
  6
CONTINUOUS
 62
           3
100
AcDbLine
 10
20.993087768555
 20
25.502523422241
 30
0.0
 11
21.013114929199
 21
25.502523422241
 31
0.0
  0
LINE
  5
73
100
AcDbEntity
  8
TFR-TRI
  6
CONTINUOUS
 62
          93
100
AcDbLine
 10
15.395974159241
 20
27.11187171936
 30
0.0
 11
15.431329727173
 21
27.147226333618
 31
0.0
  0
LINE
  5
74
100
AcDbEntity
  8
TFR-TRI
  6
CONTINUOUS
 62
          93
100
AcDbLine
 10
33.400577545166
 20
25.332523345947
 30
0.0
 11
33.370429992676
 21
25.332523345947
 31
0.0
  0
LINE
  5
75
100
AcDbEntity
  8
TFR-TRI
  6
CONTINUOUS
 62
          93
100
AcDbLine
 10
33.338077545166
 20
0.872523128986
 30
0.0
 11
33.338077545166
 21
0.932523131371
 31
0.0
  0
LINE
  5
76
100
AcDbEntity
  8
TFR-TRI
  6
CONTINUOUS
 62
           3
100
AcDbLine
 10
20.962558746338
 20
25.502523422241
 30
0.0
 11
20.975044250488
 21
25.502523422241
 31
0.0
  0
LINE
  5
77
100
AcDbEntity
  8
TFR-TRI
  6
CONTINUOUS
 62
           3
100
AcDbLine
 10
30.612344741821
 20
25.502523422241
 30
0.0
 11
30.532344818115
 21
25.475522994995
 31
0.0
  0
LINE
  5
78
100
AcDbEntity
  8
TFR-TRI
  6
CONTINUOUS
 62
          93
100
AcDbLine
 10
33.405578613281
 20
9.285022735596
 30
0.0
 11
35.268077850342
 21
9.285022735596
 31
0.0
  0
LINE
  5
79
100
AcDbEntity
  8
TFR-TRI
  6
CONTINUOUS
 62
          93
100
AcDbLine
 10
15.332334518433
 20
25.302522659302
 30
0.0
 11
15.36677646637
 21
25.302522659302
 31
0.0
  0
LINE
  5
7A
100
AcDbEntity
  8
TFR-TRI
  6
CONTINUOUS
 62
          93
100
AcDbLine
 10
33.463077545166
 20
0.932523131371
 30
0.0
 11
33.463077545166
 21
0.872523128986
 31
0.0
  0
LINE
  5
7B
100
AcDbEntity
  8
TFR-TRI
  6
CONTINUOUS
 62
           3
100
AcDbLine
 10
33.893077850342
 20
25.502523422241
 30
0.0
 11
33.915576934814
 21
25.502523422241
 31
0.0
  0
LINE
  5
7C
100
AcDbEntity
  8
TFR-TRI
  6
CONTINUOUS
 62
           3
100
AcDbLine
 10
33.125576019287
 20
25.402521133423
 30
0.0
 11
33.125576019287
 21
25.39252281189
 31
0.0
  0
LINE
  5
7D
100
AcDbEntity
  8
TFR-TRI
  6
CONTINUOUS
 62
          93
100
AcDbLine
 10
34.218078613281
 20
25.355422973633
 30
0.0
 11
34.218078613281
 21
25.375333786011
 31
0.0
  0
LINE
  5
7E
100
AcDbEntity
  8
TFR-TRI
  6
CONTINUOUS
 62
          93
100
AcDbLine
 10
33.568077087402
 20
25.388118743896
 30
0.0
 11
33.568077087402
 21
25.39252281189
 31
0.0
  0
LINE
  5
7F
100
AcDbEntity
  8
TFR-TRI
  6
CONTINUOUS
 62
           3
100
AcDbLine
 10
30.624992370605
 20
25.475522994995
 30
0.0
 11
30.594844818115
 21
25.475522994995
 31
0.0
  0
LINE
  5
80
100
AcDbEntity
  8
TFR-TRI
  6
CONTINUOUS
 62
          93
100
AcDbLine
 10
33.568077087402
 20
0.872523128986
 30
0.0
 11
34.218078613281
 21
0.872523128986
 31
0.0
  0
LINE
  5
81
100
AcDbEntity
  8
TFR-TRI
  6
CONTINUOUS
 62
           3
100
AcDbLine
 10
15.722689628601
 20
25.502523422241
 30
0.0
 11
15.727146148682
 21
25.502523422241
 31
0.0
  0
LINE
  5
82
100
AcDbEntity
  8
TFR-TRI
  6
CONTINUOUS
 62
          93
100
AcDbLine
 10
21.442335128784
 20
0.802523136139
 30
0.0
 11
18.482334136963
 21
0.802523136139
 31
0.0
  0
LINE
  5
83
100
AcDbEntity
  8
TFR-TRI
  6
CONTINUOUS
 62
           3
100
AcDbLine
 10
30.685401916504
 20
0.762523174286
 30
0.0
 11
30.667358398438
 21
0.762523174286
 31
0.0
  0
LINE
  5
84
100
AcDbEntity
  8
TFR-TRI
  6
CONTINUOUS
 62
          93
100
AcDbLine
 10
1.898034572601
 20
29.615510940552
 30
0.0
 11
1.928034543991
 21
29.615510940552
 31
0.0
  0
LINE
  5
85
100
AcDbEntity
  8
TFR-TRI
  6
CONTINUOUS
 62
          93
100
AcDbLine
 10
33.568077087402
 20
0.962523162365
 30
0.0
 11
33.568077087402
 21
0.934711635113
 31
0.0
  0
LINE
  5
86
100
AcDbEntity
  8
TFR-TRI
  6
CONTINUOUS
 62
          93
100
AcDbLine
 10
32.838077545166
 20
0.872523128986
 30
0.0
 11
32.838077545166
 21
0.932523131371
 31
0.0
  0
LINE
  5
87
100
AcDbEntity
  8
TFR-TRI
  6
CONTINUOUS
 62
          30
100
AcDbLine
 10
33.463050842285
 20
0.892523169518
 30
0.0
 11
33.568061828613
 21
0.892523169518
 31
0.0
  0
LINE
  5
88
100
AcDbEntity
  8
TFR-TRI
  6
CONTINUOUS
 62
           3
100
AcDbLine
 10
30.719844818115
 20
0.789523124695
 30
0.0
 11
30.745733261108
 21
0.789523124695
 31
0.0
  0
LINE
  5
89
100
AcDbEntity
  8
TFR-TRI
  6
CONTINUOUS
 62
          30
100
AcDbLine
 10
34.264087677002
 20
25.312522888184
 30
0.0
 11
34.257015228271
 21
25.312522888184
 31
0.0
  0
LINE
  5
8A
100
AcDbEntity
  8
TFR-TRI
  6
CONTINUOUS
 62
           3
100
AcDbLine
 10
30.568956375122
 20
0.789523124695
 30
0.0
 11
30.594844818115
 21
0.789523124695
 31
0.0
  0
LINE
  5
8B
100
AcDbEntity
  8
TFR-TRI
  6
CONTINUOUS
 62
          30
100
AcDbLine
 10
4.563101768494
 20
31.715511322021
 30
0.0
 11
4.563101768494
 21
30.225511550903
 31
0.0
  0
LINE
  5
8C
100
AcDbEntity
  8
TFR-TRI
  6
CONTINUOUS
 62
           3
100
AcDbLine
 10
33.165576934814
 20
25.502523422241
 30
0.0
 11
33.188076019287
 21
25.502523422241
 31
0.0
  0
LINE
  5
8D
100
AcDbEntity
  8
TFR-TRI
  6
CONTINUOUS
 62
           3
100
AcDbLine
 10
32.145427703857
 20
0.762523174286
 30
0.0
 11
32.127384185791
 21
0.762523174286
 31
0.0
  0
LINE
  5
8E
100
AcDbEntity
  8
TFR-TRI
  6
CONTINUOUS
 62
           3
100
AcDbLine
 10
15.795746803284
 20
25.502523422241
 30
0.0
 11
15.808233261108
 21
25.502523422241
 31
0.0
  0
LINE
  5
8F
100
AcDbEntity
  8
TFR-TRI
  6
CONTINUOUS
 62
          93
100
AcDbLine
 10
34.848075866699
 20
2.175023078918
 30
0.0
 11
34.848075866699
 21
3.177523136139
 31
0.0
  0
LINE
  5
90
100
AcDbEntity
  8
TFR-TRI
  6
CONTINUOUS
 62
          30
100
AcDbLine
 10
34.267013549805
 20
25.308504104614
 30
0.0
 11
34.267013549805
 21
25.297523498535
 31
0.0
  0
LINE
  5
91
100
AcDbEntity
  8
TFR-TRI
  6
CONTINUOUS
 62
          93
100
AcDbLine
 10
21.493101119995
 20
32.716571807861
 30
0.0
 11
21.433101654053
 21
32.716571807861
 31
0.0
  0
LINE
  5
92
100
AcDbEntity
  8
TFR-TRI
  6
CONTINUOUS
 62
           3
100
AcDbLine
 10
15.800042152405
 20
25.475522994995
 30
0.0
 11
15.767689704895
 21
25.475522994995
 31
0.0
  0
LINE
  5
93
100
AcDbEntity
  8
TFR-TRI
  6
CONTINUOUS
 62
           3
100
AcDbLine
 10
19.231489181519
 20
0.789523124695
 30
0.0
 11
19.251354217529
 21
0.789523124695
 31
0.0
  0
LINE
  5
94
100
AcDbEntity
  8
TFR-TRI
  6
CONTINUOUS
 62
          93
100
AcDbLine
 10
18.543102264404
 20
30.196573257446
 30
0.0
 11
18.543102264404
 21
30.200977325439
 31
0.0
  0
LINE
  5
95
100
AcDbEntity
  8
TFR-TRI
  6
CONTINUOUS
 62
           3
100
AcDbLine
 10
17.140787124634
 20
0.802523136139
 30
0.0
 11
17.140787124634
 21
0.789523124695
 31
0.0
  0
LINE
  5
96
100
AcDbEntity
  8
TFR-TRI
  6
CONTINUOUS
 62
           3
100
AcDbLine
 10
32.17794418335
 20
25.502523422241
 30
0.0
 11
32.194412231445
 21
25.502523422241
 31
0.0
  0
LINE
  5
97
100
AcDbEntity
  8
TFR-TRI
  6
CONTINUOUS
 62
           3
100
AcDbLine
 10
32.12308883667
 20
0.789523124695
 30
0.0
 11
32.15544128418
 21
0.789523124695
 31
0.0
  0
LINE
  5
98
100
AcDbEntity
  8
TFR-TRI
  6
CONTINUOUS
 62
           3
100
AcDbLine
 10
15.812689781189
 20
0.762523174286
 30
0.0
 11
15.808233261108
 21
0.762523174286
 31
0.0
  0
LINE
  5
99
100
AcDbEntity
  8
TFR-TRI
  6
CONTINUOUS
 62
           3
100
AcDbLine
 10
19.183645248413
 20
0.762523174286
 30
0.0
 11
19.171157836914
 21
0.762523174286
 31
0.0
  0
LINE
  5
9A
100
AcDbEntity
  8
TFR-TRI
  6
CONTINUOUS
 62
          93
100
AcDbLine
 10
15.41917514801
 20
0.909622490406
 30
0.0
 11
15.405096054077
 21
0.889711618423
 31
0.0
  0
LINE
  5
9B
100
AcDbEntity
  8
TFR-TRI
  6
CONTINUOUS
 62
           3
100
AcDbLine
 10
32.263694763184
 20
25.475522994995
 30
0.0
 11
32.243831634521
 21
25.475522994995
 31
0.0
  0
LINE
  5
9C
100
AcDbEntity
  8
TFR-TRI
  6
CONTINUOUS
 62
          93
100
AcDbLine
 10
15.332334518433
 20
27.122610092163
 30
0.0
 11
15.332334518433
 21
27.147699356079
 31
0.0
  0
LINE
  5
9D
100
AcDbEntity
  8
TFR-TRI
  6
CONTINUOUS
 62
           3
100
AcDbLine
 10
33.147533416748
 20
0.762523174286
 30
0.0
 11
33.143077850342
 21
0.762523174286
 31
0.0
  0
LINE
  5
9E
100
AcDbEntity
  8
TFR-TRI
  6
CONTINUOUS
 62
           3
100
AcDbLine
 10
15.642689704895
 20
0.789523124695
 30
0.0
 11
15.646948814392
 21
0.789523124695
 31
0.0
  0
LINE
  5
9F
100
AcDbEntity
  8
TFR-TRI
  6
CONTINUOUS
 62
          93
100
AcDbLine
 10
29.637016296387
 20
0.962523162365
 30
0.0
 11
29.637016296387
 21
25.302522659302
 31
0.0
  0
LINE
  5
A0
100
AcDbEntity
  8
TFR-TRI
  6
CONTINUOUS
 62
          30
100
AcDbLine
 10
4.568231105804
 20
30.225511550903
 30
0.0
 11
4.563101768494
 21
30.225511550903
 31
0.0
  0
LINE
  5
A1
100
AcDbEntity
  8
TFR-TRI
  6
CONTINUOUS
 62
          93
100
AcDbLine
 10
21.493101119995
 20
31.666572570801
 30
0.0
 11
21.493101119995
 21
31.016572952271
 31
0.0
  0
LINE
  5
A2
100
AcDbEntity
  8
TFR-TRI
  6
CONTINUOUS
 62
          93
100
AcDbLine
 10
18.42791557312
 20
0.876928091049
 30
0.0
 11
18.408248901367
 21
0.872523128986
 31
0.0
  0
LINE
  5
A3
100
AcDbEntity
  8
TFR-TRI
  6
CONTINUOUS
 62
           3
100
AcDbLine
 10
32.067054748535
 20
25.475522994995
 30
0.0
 11
32.047187805176
 21
25.475522994995
 31
0.0
  0
LINE
  5
A4
100
AcDbEntity
  8
TFR-TRI
  6
CONTINUOUS
 62
          93
100
AcDbLine
 10
34.848075866699
 20
5.422523021698
 30
0.0
 11
34.788078308105
 21
5.422523021698
 31
0.0
  0
LINE
  5
A5
100
AcDbEntity
  8
TFR-TRI
  6
CONTINUOUS
 62
           3
100
AcDbLine
 10
33.063076019287
 20
0.789523124695
 30
0.0
 11
33.067337036133
 21
0.789523124695
 31
0.0
  0
LINE
  5
A6
100
AcDbEntity
  8
TFR-TRI
  6
CONTINUOUS
 62
           3
100
AcDbLine
 10
15.800042152405
 20
0.789523124695
 30
0.0
 11
15.830189704895
 21
0.789523124695
 31
0.0
  0
LINE
  5
A7
100
AcDbEntity
  8
TFR-TRI
  6
CONTINUOUS
 62
          93
100
AcDbLine
 10
18.543102264404
 20
0.876928091049
 30
0.0
 11
18.543102264404
 21
0.872523128986
 31
0.0
  0
LINE
  5
A8
100
AcDbEntity
  8
TFR-TRI
  6
CONTINUOUS
 62
           3
100
AcDbLine
 10
21.128101348877
 20
0.789523124695
 30
0.0
 11
21.128101348877
 21
0.802523136139
 31
0.0
  0
LINE
  5
A9
100
AcDbEntity
  8
TFR-TRI
  6
CONTINUOUS
 62
          93
100
AcDbLine
 10
15.431329727173
 20
25.302522659302
 30
0.0
 11
15.428215026855
 21
25.330335617065
 31
0.0
  0
LINE
  5
AA
100
AcDbEntity
  8
TFR-TRI
  6
CONTINUOUS
 62
           3
100
AcDbLine
 10
30.61837387085
 20
25.502523422241
 30
0.0
 11
30.634845733643
 21
25.502523422241
 31
0.0
  0
LINE
  5
AB
100
AcDbEntity
  8
TFR-TRI
  6
CONTINUOUS
 62
           3
100
AcDbLine
 10
33.227046966553
 20
25.502523422241
 30
0.0
 11
33.23307800293
 21
25.502523422241
 31
0.0
  0
LINE
  5
AC
100
AcDbEntity
  8
TFR-TRI
  6
CONTINUOUS
 62
           3
100
AcDbLine
 10
33.933620452881
 20
0.762523174286
 30
0.0
 11
33.92113494873
 21
0.762523174286
 31
0.0
  0
LINE
  5
AD
100
AcDbEntity
  8
TFR-TRI
  6
CONTINUOUS
 62
           3
100
AcDbLine
 10
33.276466369629
 20
25.475522994995
 30
0.0
 11
33.250576019287
 21
25.475522994995
 31
0.0
  0
LINE
  5
AE
100
AcDbEntity
  8
TFR-TRI
  6
CONTINUOUS
 62
           3
100
AcDbLine
 10
33.313076019287
 20
25.462522506714
 30
0.0
 11
33.313076019287
 21
25.475522994995
 31
0.0
  0
LINE
  5
AF
100
AcDbEntity
  8
TFR-TRI
  6
CONTINUOUS
 62
           3
100
AcDbLine
 10
15.875943183899
 20
0.789523124695
 30
0.0
 11
15.888430595398
 21
0.789523124695
 31
0.0
  0
LINE
  5
B0
100
AcDbEntity
  8
TFR-TRI
  6
CONTINUOUS
 62
          93
100
AcDbLine
 10
15.386060714722
 20
25.317523956299
 30
0.0
 11
15.378296852112
 21
25.328504562378
 31
0.0
  0
LINE
  5
B1
100
AcDbEntity
  8
TFR-TRI
  6
CONTINUOUS
 62
          30
100
AcDbLine
 10
1.583214402199
 20
27.265510559082
 30
0.0
 11
1.523101806641
 21
27.265510559082
 31
0.0
  0
LINE
  5
B2
100
AcDbEntity
  8
TFR-TRI
  6
CONTINUOUS
 62
           3
100
AcDbLine
 10
15.679301261902
 20
25.475522994995
 30
0.0
 11
15.659436225891
 21
25.475522994995
 31
0.0
  0
LINE
  5
B3
100
AcDbEntity
  8
TFR-TRI
  6
CONTINUOUS
 62
          93
100
AcDbLine
 10
21.403100967407
 20
25.388118743896
 30
0.0
 11
21.403100967407
 21
25.39252281189
 31
0.0
  0
LINE
  5
B4
100
AcDbEntity
  8
TFR-TRI
  6
CONTINUOUS
 62
          93
100
AcDbLine
 10
18.47188949585
 20
25.302522659302
 30
0.0
 11
15.431329727173
 21
25.302522659302
 31
0.0
  0
LINE
  5
B5
100
AcDbEntity
  8
TFR-TRI
  6
CONTINUOUS
 62
          93
100
AcDbLine
 10
21.403100967407
 20
30.200977325439
 30
0.0
 11
21.403100967407
 21
30.213760375977
 31
0.0
  0
LINE
  5
B6
100
AcDbEntity
  8
TFR-TRI
  6
CONTINUOUS
 62
           3
100
AcDbLine
 10
17.145046234131
 20
0.789523124695
 30
0.0
 11
17.15753364563
 21
0.789523124695
 31
0.0
  0
LINE
  5
B7
100
AcDbEntity
  8
TFR-TRI
  6
CONTINUOUS
 62
          93
100
AcDbLine
 10
18.543102264404
 20
0.962523162365
 30
0.0
 11
18.543102264404
 21
0.934711635113
 31
0.0
  0
LINE
  5
B8
100
AcDbEntity
  8
TFR-TRI
  6
CONTINUOUS
 62
          93
100
AcDbLine
 10
1.583034515381
 20
25.40033531189
 30
0.0
 11
1.583034515381
 21
25.425424575806
 31
0.0
  0
LINE
  5
B9
100
AcDbEntity
  8
TFR-TRI
  6
CONTINUOUS
 62
          93
100
AcDbLine
 10
18.543102264404
 20
30.233671188354
 30
0.0
 11
18.543102264404
 21
30.258760452271
 31
0.0
  0
LINE
  5
BA
100
AcDbEntity
  8
TFR-TRI
  6
CONTINUOUS
 62
           3
100
AcDbLine
 10
17.328287124634
 20
0.789523124695
 30
0.0
 11
17.354175567627
 21
0.789523124695
 31
0.0
  0
LINE
  5
BB
100
AcDbEntity
  8
TFR-TRI
  6
CONTINUOUS
 62
          93
100
AcDbLine
 10
29.663375854492
 20
0.962523162365
 30
0.0
 11
29.69873046875
 21
0.962523162365
 31
0.0
  0
LINE
  5
BC
100
AcDbEntity
  8
TFR-TRI
  6
CONTINUOUS
 62
          93
100
AcDbLine
 10
21.403100967407
 20
0.909622490406
 30
0.0
 11
21.403100967407
 21
0.889711618423
 31
0.0
  0
LINE
  5
BD
100
AcDbEntity
  8
TFR-TRI
  6
CONTINUOUS
 62
          93
100
AcDbLine
 10
1.583034515381
 20
0.839622497559
 30
0.0
 11
1.583034515381
 21
0.819711625576
 31
0.0
  0
LINE
  5
BE
100
AcDbEntity
  8
TFR-TRI
  6
CONTINUOUS
 62
           3
100
AcDbLine
 10
19.205600738525
 20
25.39252281189
 30
0.0
 11
19.205600738525
 21
25.402521133423
 31
0.0
  0
LINE
  5
BF
100
AcDbEntity
  8
TFR-TRI
  6
CONTINUOUS
 62
           3
100
AcDbLine
 10
19.153114318848
 20
0.762523174286
 30
0.0
 11
19.133087158203
 21
0.762523174286
 31
0.0
  0
LINE
  5
C0
100
AcDbEntity
  8
TFR-TRI
  6
CONTINUOUS
 62
          93
100
AcDbLine
 10
29.727014541626
 20
25.462522506714
 30
0.0
 11
32.877014160156
 21
25.462522506714
 31
0.0
  0
LINE
  5
C1
100
AcDbEntity
  8
TFR-TRI
  6
CONTINUOUS
 62
           3
100
AcDbLine
 10
15.727146148682
 20
25.502523422241
 30
0.0
 11
15.739632606506
 21
25.502523422241
 31
0.0
  0
LINE
  5
C2
100
AcDbEntity
  8
TFR-TRI
  6
CONTINUOUS
 62
          93
100
AcDbLine
 10
33.45881652832
 20
25.332523345947
 30
0.0
 11
33.44633102417
 21
25.332523345947
 31
0.0
  0
LINE
  5
C3
100
AcDbEntity
  8
TFR-TRI
  6
CONTINUOUS
 62
          93
100
AcDbLine
 10
15.332334518433
 20
0.806928038597
 30
0.0
 11
15.332334518433
 21
0.802523136139
 31
0.0
  0
LINE
  5
C4
100
AcDbEntity
  8
TFR-TRI
  6
CONTINUOUS
 62
           3
100
AcDbLine
 10
19.054712295532
 20
0.789523124695
 30
0.0
 11
19.080600738525
 21
0.789523124695
 31
0.0
  0
LINE
  5
C5
100
AcDbEntity
  8
TFR-TRI
  6
CONTINUOUS
 62
          93
100
AcDbLine
 10
29.637016296387
 20
0.892523169518
 30
0.0
 11
29.637016296387
 21
0.962523162365
 31
0.0
  0
LINE
  5
C6
100
AcDbEntity
  8
TFR-TRI
  6
CONTINUOUS
 62
          93
100
AcDbLine
 10
35.027015686035
 20
0.862523138523
 30
0.0
 11
32.877014160156
 21
0.862523138523
 31
0.0
  0
LINE
  5
C7
100
AcDbEntity
  8
TFR-TRI
  6
CONTINUOUS
 62
          30
100
AcDbLine
 10
1.523101806641
 20
0.892523169518
 30
0.0
 11
1.583214402199
 21
0.892523169518
 31
0.0
  0
LINE
  5
C8
100
AcDbEntity
  8
TFR-TRI
  6
CONTINUOUS
 62
          93
100
AcDbLine
 10
18.543102264404
 20
0.962523162365
 30
0.0
 11
21.403100967407
 21
0.962523162365
 31
0.0
  0
LINE
  5
C9
100
AcDbEntity
  8
TFR-TRI
  6
CONTINUOUS
 62
           3
100
AcDbLine
 10
19.251354217529
 20
0.789523124695
 30
0.0
 11
19.263841629028
 21
0.789523124695
 31
0.0
  0
LINE
  5
CA
100
AcDbEntity
  8
TFR-TRI
  6
CONTINUOUS
 62
          93
100
AcDbLine
 10
29.643865585327
 20
0.962523162365
 30
0.0
 11
29.663375854492
 21
0.962523162365
 31
0.0
  0
LINE
  5
CB
100
AcDbEntity
  8
TFR-TRI
  6
CONTINUOUS
 62
           3
100
AcDbLine
 10
32.15544128418
 20
25.475522994995
 30
0.0
 11
32.12308883667
 21
25.475522994995
 31
0.0
  0
LINE
  5
CC
100
AcDbEntity
  8
TFR-TRI
  6
CONTINUOUS
 62
           3
100
AcDbLine
 10
30.532344818115
 20
0.789523124695
 30
0.0
 11
30.612344741821
 21
0.762523174286
 31
0.0
  0
LINE
  5
CD
100
AcDbEntity
  8
TFR-TRI
  6
CONTINUOUS
 62
          30
100
AcDbLine
 10
34.267013549805
 20
0.982523143291
 30
0.0
 11
34.218055725098
 21
0.982523143291
 31
0.0
  0
LINE
  5
CE
100
AcDbEntity
  8
TFR-TRI
  6
CONTINUOUS
 62
          30
100
AcDbLine
 10
1.523101806641
 20
0.982523143291
 30
0.0
 11
1.583214402199
 21
0.982523143291
 31
0.0
  0
LINE
  5
CF
100
AcDbEntity
  8
TFR-TRI
  6
CONTINUOUS
 62
          93
100
AcDbLine
 10
21.488697052002
 20
0.962523162365
 30
0.0
 11
21.493101119995
 21
0.962523162365
 31
0.0
  0
LINE
  5
D0
100
AcDbEntity
  8
TFR-TRI
  6
CONTINUOUS
 62
           3
100
AcDbLine
 10
19.263841629028
 20
25.475522994995
 30
0.0
 11
19.251354217529
 21
25.475522994995
 31
0.0
  0
LINE
  5
D1
100
AcDbEntity
  8
TFR-TRI
  6
CONTINUOUS
 62
           3
100
AcDbLine
 10
20.975044250488
 20
0.762523174286
 30
0.0
 11
20.962558746338
 21
0.762523174286
 31
0.0
  0
LINE
  5
D2
100
AcDbEntity
  8
TFR-TRI
  6
CONTINUOUS
 62
           3
100
AcDbLine
 10
33.313076019287
 20
25.475522994995
 30
0.0
 11
33.23307800293
 21
25.502523422241
 31
0.0
  0
LINE
  5
D3
100
AcDbEntity
  8
TFR-TRI
  6
CONTINUOUS
 62
           3
100
AcDbLine
 10
21.003101348877
 20
25.475522994995
 30
0.0
 11
20.970748901367
 21
25.475522994995
 31
0.0
  0
LINE
  5
D4
100
AcDbEntity
  8
TFR-TRI
  6
CONTINUOUS
 62
          30
100
AcDbLine
 10
15.332354545593
 20
25.372522354126
 30
0.0
 11
15.367697715759
 21
25.372522354126
 31
0.0
  0
LINE
  5
D5
100
AcDbEntity
  8
TFR-TRI
  6
CONTINUOUS
 62
          93
100
AcDbLine
 10
15.388902664185
 20
0.962523162365
 30
0.0
 11
15.386060714722
 21
0.94752317667
 31
0.0
  0
LINE
  5
D6
100
AcDbEntity
  8
TFR-TRI
  6
CONTINUOUS
 62
           3
100
AcDbLine
 10
19.080600738525
 20
25.475522994995
 30
0.0
 11
19.054712295532
 21
25.475522994995
 31
0.0
  0
LINE
  5
D7
100
AcDbEntity
  8
TFR-TRI
  6
CONTINUOUS
 62
           3
100
AcDbLine
 10
20.940601348877
 20
25.475522994995
 30
0.0
 11
20.914712905884
 21
25.475522994995
 31
0.0
  0
LINE
  5
D8
100
AcDbEntity
  8
TFR-TRI
  6
CONTINUOUS
 62
           3
100
AcDbLine
 10
20.970748901367
 20
0.789523124695
 30
0.0
 11
21.003101348877
 21
0.789523124695
 31
0.0
  0
LINE
  5
D9
100
AcDbEntity
  8
TFR-TRI
  6
CONTINUOUS
 62
          93
100
AcDbLine
 10
32.745792388916
 20
25.302522659302
 30
0.0
 11
32.748077392578
 21
25.302522659302
 31
0.0
  0
LINE
  5
DA
100
AcDbEntity
  8
TFR-TRI
  6
CONTINUOUS
 62
           3
100
AcDbLine
 10
33.768077850342
 20
25.475522994995
 30
0.0
 11
33.768077850342
 21
25.462522506714
 31
0.0
  0
LINE
  5
DB
100
AcDbEntity
  8
TFR-TRI
  6
CONTINUOUS
 62
          93
100
AcDbLine
 10
34.848075866699
 20
4.420022964478
 30
0.0
 11
34.788078308105
 21
4.420022964478
 31
0.0
  0
LINE
  5
DC
100
AcDbEntity
  8
TFR-TRI
  6
CONTINUOUS
 62
          93
100
AcDbLine
 10
32.785175323486
 20
0.962523162365
 30
0.0
 11
32.810264587402
 21
0.962523162365
 31
0.0
  0
LINE
  5
DD
100
AcDbEntity
  8
TFR-TRI
  6
CONTINUOUS
 62
           3
100
AcDbLine
 10
32.28044128418
 20
25.462522506714
 30
0.0
 11
32.28044128418
 21
25.475522994995
 31
0.0
  0
LINE
  5
DE
100
AcDbEntity
  8
TFR-TRI
  6
CONTINUOUS
 62
          93
100
AcDbLine
 10
34.848075866699
 20
5.542523384094
 30
0.0
 11
34.848075866699
 21
6.545022964478
 31
0.0
  0
LINE
  5
DF
100
AcDbEntity
  8
TFR-TRI
  6
CONTINUOUS
 62
          93
100
AcDbLine
 10
35.318077087402
 20
3.411273241043
 30
0.0
 11
35.318077087402
 21
4.186273097992
 31
0.0
  0
LINE
  5
E0
100
AcDbEntity
  8
TFR-TRI
  6
CONTINUOUS
 62
           3
100
AcDbLine
 10
34.018077850342
 20
25.475522994995
 30
0.0
 11
34.013816833496
 21
25.475522994995
 31
0.0
  0
LINE
  5
E1
100
AcDbEntity
  8
TFR-TRI
  6
CONTINUOUS
 62
          93
100
AcDbLine
 10
18.445655822754
 20
30.214019775391
 30
0.0
 11
18.42791557312
 21
30.231760025024
 31
0.0
  0
LINE
  5
E2
100
AcDbEntity
  8
TFR-TRI
  6
CONTINUOUS
 62
           3
100
AcDbLine
 10
33.313076019287
 20
0.789523124695
 30
0.0
 11
33.313076019287
 21
0.802523136139
 31
0.0
  0
LINE
  5
E3
100
AcDbEntity
  8
TFR-TRI
  6
CONTINUOUS
 62
          93
100
AcDbLine
 10
32.742404937744
 20
0.934711635113
 30
0.0
 11
32.751445770264
 21
0.909622490406
 31
0.0
  0
LINE
  5
E4
100
AcDbEntity
  8
TFR-TRI
  6
CONTINUOUS
 62
          93
100
AcDbLine
 10
34.218078613281
 20
1.002523183823
 30
0.0
 11
34.218078613281
 21
0.962523162365
 31
0.0
  0
LINE
  5
E5
100
AcDbEntity
  8
TFR-TRI
  6
CONTINUOUS
 62
           3
100
AcDbLine
 10
17.386528015137
 20
25.475522994995
 30
0.0
 11
17.374040603638
 21
25.475522994995
 31
0.0
  0
LINE
  5
E6
100
AcDbEntity
  8
TFR-TRI
  6
CONTINUOUS
 62
          93
100
AcDbLine
 10
14.898034095764
 20
5.037523269653
 30
0.0
 11
14.92803478241
 21
5.037523269653
 31
0.0
  0
LINE
  5
E7
100
AcDbEntity
  8
TFR-TRI
  6
CONTINUOUS
 62
          93
100
AcDbLine
 10
33.405578613281
 20
6.910023212433
 30
0.0
 11
35.268077850342
 21
6.910023212433
 31
0.0
  0
LINE
  5
E8
100
AcDbEntity
  8
TFR-TRI
  6
CONTINUOUS
 62
          30
100
AcDbLine
 10
4.582999229431
 20
30.165510177612
 30
0.0
 11
1.533101797104
 21
30.165510177612
 31
0.0
  0
LINE
  5
E9
100
AcDbEntity
  8
TFR-TRI
  6
CONTINUOUS
 62
          93
100
AcDbLine
 10
33.44633102417
 20
25.39252281189
 30
0.0
 11
33.45881652832
 21
25.39252281189
 31
0.0
  0
LINE
  5
EA
100
AcDbEntity
  8
TFR-TRI
  6
CONTINUOUS
 62
          93
100
AcDbLine
 10
33.405578613281
 20
15.385023117065
 30
0.0
 11
35.268077850342
 21
15.385023117065
 31
0.0
  0
LINE
  5
EB
100
AcDbEntity
  8
TFR-TRI
  6
CONTINUOUS
 62
          93
100
AcDbLine
 10
33.405578613281
 20
20.135023117065
 30
0.0
 11
35.268077850342
 21
20.135023117065
 31
0.0
  0
LINE
  5
EC
100
AcDbEntity
  8
TFR-TRI
  6
CONTINUOUS
 62
           3
100
AcDbLine
 10
30.719844818115
 20
0.862525165081
 30
0.0
 11
30.719844818115
 21
0.872524261475
 31
0.0
  0
LINE
  5
ED
100
AcDbEntity
  8
TFR-TRI
  6
CONTINUOUS
 62
          93
100
AcDbLine
 10
34.848075866699
 20
4.300023078918
 30
0.0
 11
34.788078308105
 21
4.300023078918
 31
0.0
  0
LINE
  5
EE
100
AcDbEntity
  8
TFR-TRI
  6
CONTINUOUS
 62
          93
100
AcDbLine
 10
35.518077850342
 20
11.910022735596
 30
0.0
 11
35.518077850342
 21
15.135023117065
 31
0.0
  0
LINE
  5
EF
100
AcDbEntity
  8
TFR-TRI
  6
CONTINUOUS
 62
          93
100
AcDbLine
 10
33.370429992676
 20
25.332523345947
 30
0.0
 11
33.338077545166
 21
25.332523345947
 31
0.0
  0
LINE
  5
F0
100
AcDbEntity
  8
TFR-TRI
  6
CONTINUOUS
 62
           3
100
AcDbLine
 10
32.03044128418
 20
0.789523124695
 30
0.0
 11
32.110443115234
 21
0.762523174286
 31
0.0
  0
LINE
  5
F1
100
AcDbEntity
  8
TFR-TRI
  6
CONTINUOUS
 62
          93
100
AcDbLine
 10
18.47188949585
 20
30.187786102295
 30
0.0
 11
18.468774795532
 21
30.190900802612
 31
0.0
  0
LINE
  5
F2
100
AcDbEntity
  8
TFR-TRI
  6
CONTINUOUS
 62
          93
100
AcDbLine
 10
32.838077545166
 20
0.932523131371
 30
0.0
 11
33.338077545166
 21
0.932523131371
 31
0.0
  0
LINE
  5
F3
100
AcDbEntity
  8
TFR-TRI
  6
CONTINUOUS
 62
           3
100
AcDbLine
 10
15.739632606506
 20
0.762523174286
 30
0.0
 11
15.727146148682
 21
0.762523174286
 31
0.0
  0
LINE
  5
F4
100
AcDbEntity
  8
TFR-TRI
  6
CONTINUOUS
 62
          93
100
AcDbLine
 10
15.36677646637
 20
25.302522659302
 30
0.0
 11
15.395974159241
 21
25.302522659302
 31
0.0
  0
LINE
  5
F5
100
AcDbEntity
  8
TFR-TRI
  6
CONTINUOUS
 62
           3
100
AcDbLine
 10
30.594844818115
 20
0.872524261475
 30
0.0
 11
30.594844818115
 21
0.862525165081
 31
0.0
  0
LINE
  5
F6
100
AcDbEntity
  8
TFR-TRI
  6
CONTINUOUS
 62
           3
100
AcDbLine
 10
33.250576019287
 20
0.862525165081
 30
0.0
 11
33.250576019287
 21
0.872524261475
 31
0.0
  0
LINE
  5
F7
100
AcDbEntity
  8
TFR-TRI
  6
CONTINUOUS
 62
           3
100
AcDbLine
 10
33.125576019287
 20
0.962519645691
 30
0.0
 11
33.125576019287
 21
0.932522416115
 31
0.0
  0
LINE
  5
F8
100
AcDbEntity
  8
TFR-TRI
  6
CONTINUOUS
 62
           3
100
AcDbLine
 10
33.160018920898
 20
0.762523174286
 30
0.0
 11
33.147533416748
 21
0.762523174286
 31
0.0
  0
LINE
  5
F9
100
AcDbEntity
  8
TFR-TRI
  6
CONTINUOUS
 62
           3
100
AcDbLine
 10
33.768077850342
 20
0.789523124695
 30
0.0
 11
33.848075866699
 21
0.762523174286
 31
0.0
  0
LINE
  5
FA
100
AcDbEntity
  8
TFR-TRI
  6
CONTINUOUS
 62
           3
100
AcDbLine
 10
20.878101348877
 20
25.475522994995
 30
0.0
 11
20.878101348877
 21
25.462522506714
 31
0.0
  0
LINE
  5
FB
100
AcDbEntity
  8
TFR-TRI
  6
CONTINUOUS
 62
           3
100
AcDbLine
 10
33.860725402832
 20
25.475522994995
 30
0.0
 11
33.830577850342
 21
25.475522994995
 31
0.0
  0
LINE
  5
FC
100
AcDbEntity
  8
TFR-TRI
  6
CONTINUOUS
 62
           3
100
AcDbLine
 10
19.188100814819
 20
0.762523174286
 30
0.0
 11
19.183645248413
 21
0.762523174286
 31
0.0
  0
LINE
  5
FD
100
AcDbEntity
  8
TFR-TRI
  6
CONTINUOUS
 62
          93
100
AcDbLine
 10
34.218078613281
 20
25.375333786011
 30
0.0
 11
34.218078613281
 21
25.388118743896
 31
0.0
  0
LINE
  5
FE
100
AcDbEntity
  8
TFR-TRI
  6
CONTINUOUS
 62
           3
100
AcDbLine
 10
20.882360458374
 20
25.475522994995
 30
0.0
 11
20.878101348877
 21
25.475522994995
 31
0.0
  0
LINE
  5
FF
100
AcDbEntity
  8
TFR-TRI
  6
CONTINUOUS
 62
           3
100
AcDbLine
 10
21.013114929199
 20
25.502523422241
 30
0.0
 11
21.031158447266
 21
25.502523422241
 31
0.0
  0
LINE
  5
100
100
AcDbEntity
  8
TFR-TRI
  6
CONTINUOUS
 62
          93
100
AcDbLine
 10
33.370429992676
 20
0.932523131371
 30
0.0
 11
33.400577545166
 21
0.932523131371
 31
0.0
  0
LINE
  5
101
100
AcDbEntity
  8
TFR-TRI
  6
CONTINUOUS
 62
          93
100
AcDbLine
 10
1.583034515381
 20
27.085510253906
 30
0.0
 11
1.583034515381
 21
27.089916229248
 31
0.0
  0
LINE
  5
102
100
AcDbEntity
  8
TFR-TRI
  6
CONTINUOUS
 62
          93
100
AcDbLine
 10
34.218078613281
 20
25.39252281189
 30
0.0
 11
33.568077087402
 21
25.39252281189
 31
0.0
  0
LINE
  5
103
100
AcDbEntity
  8
TFR-TRI
  6
CONTINUOUS
 62
          93
100
AcDbLine
 10
29.697015762329
 20
25.302522659302
 30
0.0
 11
29.697015762329
 21
25.372522354126
 31
0.0
  0
LINE
  5
104
100
AcDbEntity
  8
TFR-TRI
  6
CONTINUOUS
 62
           3
100
AcDbLine
 10
30.594844818115
 20
25.475522994995
 30
0.0
 11
30.568956375122
 21
25.475522994995
 31
0.0
  0
LINE
  5
105
100
AcDbEntity
  8
TFR-TRI
  6
CONTINUOUS
 62
          30
100
AcDbLine
 10
4.568231105804
 20
31.715511322021
 30
0.0
 11
4.563101768494
 21
31.715511322021
 31
0.0
  0
LINE
  5
106
100
AcDbEntity
  8
TFR-TRI
  6
CONTINUOUS
 62
           3
100
AcDbLine
 10
32.243831634521
 20
0.789523124695
 30
0.0
 11
32.263694763184
 21
0.789523124695
 31
0.0
  0
LINE
  5
107
100
AcDbEntity
  8
TFR-TRI
  6
CONTINUOUS
 62
          30
100
AcDbLine
 10
33.250591278076
 20
0.952523171902
 30
0.0
 11
33.568061828613
 21
0.952523171902
 31
0.0
  0
LINE
  5
108
100
AcDbEntity
  8
TFR-TRI
  6
CONTINUOUS
 62
           3
100
AcDbLine
 10
30.667358398438
 20
0.762523174286
 30
0.0
 11
30.647331237793
 21
0.762523174286
 31
0.0
  0
LINE
  5
109
100
AcDbEntity
  8
TFR-TRI
  6
CONTINUOUS
 62
          93
100
AcDbLine
 10
18.42791557312
 20
30.231760025024
 30
0.0
 11
18.408248901367
 21
30.251424789429
 31
0.0
  0
LINE
  5
10A
100
AcDbEntity
  8
TFR-TRI
  6
CONTINUOUS
 62
           3
100
AcDbLine
 10
30.745733261108
 20
0.789523124695
 30
0.0
 11
30.765598297119
 21
0.789523124695
 31
0.0
  0
LINE
  5
10B
100
AcDbEntity
  8
TFR-TRI
  6
CONTINUOUS
 62
          30
100
AcDbLine
 10
34.257015228271
 20
25.372522354126
 30
0.0
 11
34.264087677002
 21
25.372522354126
 31
0.0
  0
LINE
  5
10C
100
AcDbEntity
  8
TFR-TRI
  6
CONTINUOUS
 62
           3
100
AcDbLine
 10
17.177398681641
 20
25.475522994995
 30
0.0
 11
17.15753364563
 21
25.475522994995
 31
0.0
  0
LINE
  5
10D
100
AcDbEntity
  8
TFR-TRI
  6
CONTINUOUS
 62
          93
100
AcDbLine
 10
33.405578613281
 20
18.035022735596
 30
0.0
 11
35.268077850342
 21
18.035022735596
 31
0.0
  0
LINE
  5
10E
100
AcDbEntity
  8
TFR-TRI
  6
CONTINUOUS
 62
           3
100
AcDbLine
 10
32.09294128418
 20
0.872524261475
 30
0.0
 11
32.09294128418
 21
0.862525165081
 31
0.0
  0
LINE
  5
10F
100
AcDbEntity
  8
TFR-TRI
  6
CONTINUOUS
 62
          30
100
AcDbLine
 10
32.809803009033
 20
25.312522888184
 30
0.0
 11
33.125591278076
 21
25.312522888184
 31
0.0
  0
LINE
  5
110
100
AcDbEntity
  8
TFR-TRI
  6
CONTINUOUS
 62
           3
100
AcDbLine
 10
30.594844818115
 20
0.789523124695
 30
0.0
 11
30.624992370605
 21
0.789523124695
 31
0.0
  0
LINE
  5
111
100
AcDbEntity
  8
TFR-TRI
  6
CONTINUOUS
 62
           3
100
AcDbLine
 10
30.616802215576
 20
0.762523174286
 30
0.0
 11
30.612344741821
 21
0.762523174286
 31
0.0
  0
LINE
  5
112
100
AcDbEntity
  8
TFR-TRI
  6
CONTINUOUS
 62
           3
100
AcDbLine
 10
33.313076019287
 20
25.475522994995
 30
0.0
 11
33.308818817139
 21
25.475522994995
 31
0.0
  0
LINE
  5
113
100
AcDbEntity
  8
TFR-TRI
  6
CONTINUOUS
 62
           3
100
AcDbLine
 10
32.127384185791
 20
0.762523174286
 30
0.0
 11
32.114898681641
 21
0.762523174286
 31
0.0
  0
LINE
  5
114
100
AcDbEntity
  8
TFR-TRI
  6
CONTINUOUS
 62
           3
100
AcDbLine
 10
15.808233261108
 20
25.502523422241
 30
0.0
 11
15.812689781189
 21
25.502523422241
 31
0.0
  0
LINE
  5
115
100
AcDbEntity
  8
TFR-TRI
  6
CONTINUOUS
 62
          93
100
AcDbLine
 10
9.363034248352
 20
31.715511322021
 30
0.0
 11
9.363034248352
 21
32.475509643555
 31
0.0
  0
LINE
  5
116
100
AcDbEntity
  8
TFR-TRI
  6
CONTINUOUS
 62
          30
100
AcDbLine
 10
34.267013549805
 20
25.297523498535
 30
0.0
 11
34.267013549805
 21
25.282522201538
 31
0.0
  0
LINE
  5
117
100
AcDbEntity
  8
TFR-TRI
  6
CONTINUOUS
 62
           3
100
AcDbLine
 10
32.276184082031
 20
0.789523124695
 30
0.0
 11
32.28044128418
 21
0.789523124695
 31
0.0
  0
LINE
  5
118
100
AcDbEntity
  8
TFR-TRI
  6
CONTINUOUS
 62
           3
100
AcDbLine
 10
15.767689704895
 20
25.475522994995
 30
0.0
 11
15.735337257385
 21
25.475522994995
 31
0.0
  0
LINE
  5
119
100
AcDbEntity
  8
TFR-TRI
  6
CONTINUOUS
 62
          93
100
AcDbLine
 10
34.218078613281
 20
25.388118743896
 30
0.0
 11
34.218078613281
 21
25.39252281189
 31
0.0
  0
LINE
  5
11A
100
AcDbEntity
  8
TFR-TRI
  6
CONTINUOUS
 62
           3
100
AcDbLine
 10
33.063076019287
 20
25.475522994995
 30
0.0
 11
33.063076019287
 21
25.462522506714
 31
0.0
  0
LINE
  5
11B
100
AcDbEntity
  8
TFR-TRI
  6
CONTINUOUS
 62
           3
100
AcDbLine
 10
32.194412231445
 20
25.502523422241
 30
0.0
 11
32.200443267822
 21
25.502523422241
 31
0.0
  0
LINE
  5
11C
100
AcDbEntity
  8
TFR-TRI
  6
CONTINUOUS
 62
          30
100
AcDbLine
 10
1.523101806641
 20
27.192699432373
 30
0.0
 11
1.523101806641
 21
27.212610244751
 31
0.0
  0
LINE
  5
11D
100
AcDbEntity
  8
TFR-TRI
  6
CONTINUOUS
 62
           3
100
AcDbLine
 10
15.808233261108
 20
0.762523174286
 30
0.0
 11
15.795746803284
 21
0.762523174286
 31
0.0
  0
LINE
  5
11E
100
AcDbEntity
  8
TFR-TRI
  6
CONTINUOUS
 62
          93
100
AcDbLine
 10
15.405096054077
 20
0.889711618423
 30
0.0
 11
15.387355804443
 21
0.876928091049
 31
0.0
  0
LINE
  5
11F
100
AcDbEntity
  8
TFR-TRI
  6
CONTINUOUS
 62
           3
100
AcDbLine
 10
32.243831634521
 20
25.475522994995
 30
0.0
 11
32.21794128418
 21
25.475522994995
 31
0.0
  0
LINE
  5
120
100
AcDbEntity
  8
TFR-TRI
  6
CONTINUOUS
 62
          93
100
AcDbLine
 10
29.710886001587
 20
25.355422973633
 30
0.0
 11
29.724964141846
 21
25.375333786011
 31
0.0
  0
LINE
  5
121
100
AcDbEntity
  8
TFR-TRI
  6
CONTINUOUS
 62
           3
100
AcDbLine
 10
33.188076019287
 20
0.789523124695
 30
0.0
 11
33.220428466797
 21
0.789523124695
 31
0.0
  0
LINE
  5
122
100
AcDbEntity
  8
TFR-TRI
  6
CONTINUOUS
 62
           3
100
AcDbLine
 10
33.079822540283
 20
25.475522994995
 30
0.0
 11
33.067337036133
 21
25.475522994995
 31
0.0
  0
LINE
  5
123
100
AcDbEntity
  8
TFR-TRI
  6
CONTINUOUS
 62
           3
100
AcDbLine
 10
15.646948814392
 20
0.789523124695
 30
0.0
 11
15.659436225891
 21
0.789523124695
 31
0.0
  0
LINE
  5
124
100
AcDbEntity
  8
TFR-TRI
  6
CONTINUOUS
 62
           3
100
AcDbLine
 10
17.390787124634
 20
25.475522994995
 30
0.0
 11
17.310787200928
 21
25.502523422241
 31
0.0
  0
LINE
  5
125
100
AcDbEntity
  8
TFR-TRI
  6
CONTINUOUS
 62
          93
100
AcDbLine
 10
21.433101654053
 20
32.716571807861
 30
0.0
 11
21.433101654053
 21
32.966571807861
 31
0.0
  0
LINE
  5
126
100
AcDbEntity
  8
TFR-TRI
  6
CONTINUOUS
 62
          93
100
AcDbLine
 10
15.367690086365
 20
0.872523128986
 30
0.0
 11
18.408248901367
 21
0.872523128986
 31
0.0
  0
LINE
  5
127
100
AcDbEntity
  8
TFR-TRI
  6
CONTINUOUS
 62
           3
100
AcDbLine
 10
32.047187805176
 20
25.475522994995
 30
0.0
 11
32.034702301025
 21
25.475522994995
 31
0.0
  0
LINE
  5
128
100
AcDbEntity
  8
TFR-TRI
  6
CONTINUOUS
 62
           3
100
AcDbLine
 10
33.067337036133
 20
0.789523124695
 30
0.0
 11
33.079822540283
 21
0.789523124695
 31
0.0
  0
LINE
  5
129
100
AcDbEntity
  8
TFR-TRI
  6
CONTINUOUS
 62
           3
100
AcDbLine
 10
15.830189704895
 20
0.789523124695
 30
0.0
 11
15.856078147888
 21
0.789523124695
 31
0.0
  0
LINE
  5
12A
100
AcDbEntity
  8
TFR-TRI
  6
CONTINUOUS
 62
           3
100
AcDbLine
 10
20.878101348877
 20
0.802523136139
 30
0.0
 11
20.878101348877
 21
0.789523124695
 31
0.0
  0
LINE
  5
12B
100
AcDbEntity
  8
TFR-TRI
  6
CONTINUOUS
 62
           3
100
AcDbLine
 10
32.110443115234
 20
25.502523422241
 30
0.0
 11
32.03044128418
 21
25.475522994995
 31
0.0
  0
LINE
  5
12C
100
AcDbEntity
  8
TFR-TRI
  6
CONTINUOUS
 62
          93
100
AcDbLine
 10
15.428215026855
 20
25.330335617065
 30
0.0
 11
15.41917514801
 21
25.355422973633
 31
0.0
  0
LINE
  5
12D
100
AcDbEntity
  8
TFR-TRI
  6
CONTINUOUS
 62
           3
100
AcDbLine
 10
30.634845733643
 20
25.502523422241
 30
0.0
 11
30.657344818115
 21
25.502523422241
 31
0.0
  0
LINE
  5
12E
100
AcDbEntity
  8
TFR-TRI
  6
CONTINUOUS
 62
           3
100
AcDbLine
 10
15.888430595398
 20
0.789523124695
 30
0.0
 11
15.892689704895
 21
0.789523124695
 31
0.0
  0
LINE
  5
12F
100
AcDbEntity
  8
TFR-TRI
  6
CONTINUOUS
 62
          93
100
AcDbLine
 10
15.378296852112
 20
25.328504562378
 30
0.0
 11
15.367690086365
 21
25.332523345947
 31
0.0
  0
LINE
  5
130
100
AcDbEntity
  8
TFR-TRI
  6
CONTINUOUS
 62
          93
100
AcDbLine
 10
15.431329727173
 20
27.147226333618
 30
0.0
 11
15.428215026855
 21
27.150341033936
 31
0.0
  0
LINE
  5
131
100
AcDbEntity
  8
TFR-TRI
  6
CONTINUOUS
 62
           3
100
AcDbLine
 10
33.865020751953
 20
0.762523174286
 30
0.0
 11
33.852535247803
 21
0.762523174286
 31
0.0
  0
LINE
  5
132
100
AcDbEntity
  8
TFR-TRI
  6
CONTINUOUS
 62
          93
100
AcDbLine
 10
18.543102264404
 20
25.302522659302
 30
0.0
 11
18.543102264404
 21
25.330335617065
 31
0.0
  0
LINE
  5
133
100
AcDbEntity
  8
TFR-TRI
  6
CONTINUOUS
 62
          93
100
AcDbLine
 10
15.395974159241
 20
27.11187171936
 30
0.0
 11
15.353548049927
 21
27.154296875
 31
0.0
  0
LINE
  5
134
100
AcDbEntity
  8
TFR-TRI
  6
CONTINUOUS
 62
          93
100
AcDbLine
 10
21.403100967407
 20
30.213760375977
 30
0.0
 11
21.403100967407
 21
30.233671188354
 31
0.0
  0
LINE
  5
135
100
AcDbEntity
  8
TFR-TRI
  6
CONTINUOUS
 62
           3
100
AcDbLine
 10
17.15753364563
 20
0.789523124695
 30
0.0
 11
17.177398681641
 21
0.789523124695
 31
0.0
  0
LINE
  5
136
100
AcDbEntity
  8
TFR-TRI
  6
CONTINUOUS
 62
           3
100
AcDbLine
 10
33.8046875
 20
0.789523124695
 30
0.0
 11
33.830577850342
 21
0.789523124695
 31
0.0
  0
LINE
  5
137
100
AcDbEntity
  8
TFR-TRI
  6
CONTINUOUS
 62
           3
100
AcDbLine
 10
17.233434677124
 20
25.475522994995
 30
0.0
 11
17.203287124634
 21
25.475522994995
 31
0.0
  0
LINE
  5
138
100
AcDbEntity
  8
TFR-TRI
  6
CONTINUOUS
 62
          93
100
AcDbLine
 10
18.543102264404
 20
0.934711635113
 30
0.0
 11
18.543102264404
 21
0.909622490406
 31
0.0
  0
LINE
  5
139
100
AcDbEntity
  8
TFR-TRI
  6
CONTINUOUS
 62
          93
100
AcDbLine
 10
1.583034515381
 20
25.425424575806
 30
0.0
 11
1.583034515381
 21
25.445335388184
 31
0.0
  0
LINE
  5
13A
100
AcDbEntity
  8
TFR-TRI
  6
CONTINUOUS
 62
          93
100
AcDbLine
 10
18.543102264404
 20
30.258760452271
 30
0.0
 11
18.543102264404
 21
30.286573410034
 31
0.0
  0
LINE
  5
13B
100
AcDbEntity
  8
TFR-TRI
  6
CONTINUOUS
 62
           3
100
AcDbLine
 10
15.705189704895
 20
0.872524261475
 30
0.0
 11
15.705189704895
 21
0.862525165081
 31
0.0
  0
LINE
  5
13C
100
AcDbEntity
  8
TFR-TRI
  6
CONTINUOUS
 62
           3
100
AcDbLine
 10
17.354175567627
 20
0.789523124695
 30
0.0
 11
17.374040603638
 21
0.789523124695
 31
0.0
  0
LINE
  5
13D
100
AcDbEntity
  8
TFR-TRI
  6
CONTINUOUS
 62
           3
100
AcDbLine
 10
19.022361755371
 20
0.789523124695
 30
0.0
 11
19.03484916687
 21
0.789523124695
 31
0.0
  0
LINE
  5
13E
100
AcDbEntity
  8
TFR-TRI
  6
CONTINUOUS
 62
          93
100
AcDbLine
 10
21.403100967407
 20
0.889711618423
 30
0.0
 11
21.403100967407
 21
0.876928091049
 31
0.0
  0
LINE
  5
13F
100
AcDbEntity
  8
TFR-TRI
  6
CONTINUOUS
 62
          93
100
AcDbLine
 10
1.583034515381
 20
0.819711625576
 30
0.0
 11
1.583034515381
 21
0.806928038597
 31
0.0
  0
LINE
  5
140
100
AcDbEntity
  8
TFR-TRI
  6
CONTINUOUS
 62
           3
100
AcDbLine
 10
19.133087158203
 20
0.762523174286
 30
0.0
 11
19.115043640137
 21
0.762523174286
 31
0.0
  0
LINE
  5
141
100
AcDbEntity
  8
TFR-TRI
  6
CONTINUOUS
 62
           3
100
AcDbLine
 10
32.28044128418
 20
25.475522994995
 30
0.0
 11
32.276184082031
 21
25.475522994995
 31
0.0
  0
LINE
  5
142
100
AcDbEntity
  8
TFR-TRI
  6
CONTINUOUS
 62
          93
100
AcDbLine
 10
34.848075866699
 20
3.177523136139
 30
0.0
 11
34.788078308105
 21
3.177523136139
 31
0.0
  0
LINE
  5
143
100
AcDbEntity
  8
TFR-TRI
  6
CONTINUOUS
 62
          93
100
AcDbLine
 10
18.482334136963
 20
0.862523138523
 30
0.0
 11
18.482334136963
 21
0.802523136139
 31
0.0
  0
LINE
  5
144
100
AcDbEntity
  8
TFR-TRI
  6
CONTINUOUS
 62
           3
100
AcDbLine
 10
19.080600738525
 20
0.789523124695
 30
0.0
 11
19.110748291016
 21
0.789523124695
 31
0.0
  0
LINE
  5
145
100
AcDbEntity
  8
TFR-TRI
  6
CONTINUOUS
 62
          93
100
AcDbLine
 10
29.637016296387
 20
0.892523169518
 30
0.0
 11
29.697015762329
 21
0.892523169518
 31
0.0
  0
LINE
  5
146
100
AcDbEntity
  8
TFR-TRI
  6
CONTINUOUS
 62
          93
100
AcDbLine
 10
21.403100967407
 20
0.962523162365
 30
0.0
 11
21.403100967407
 21
25.302522659302
 31
0.0
  0
LINE
  5
147
100
AcDbEntity
  8
TFR-TRI
  6
CONTINUOUS
 62
           3
100
AcDbLine
 10
20.975044250488
 20
25.502523422241
 30
0.0
 11
20.993087768555
 21
25.502523422241
 31
0.0
  0
LINE
  5
148
100
AcDbEntity
  8
TFR-TRI
  6
CONTINUOUS
 62
           3
100
AcDbLine
 10
19.263841629028
 20
0.789523124695
 30
0.0
 11
19.268100738525
 21
0.789523124695
 31
0.0
  0
LINE
  5
149
100
AcDbEntity
  8
TFR-TRI
  6
CONTINUOUS
 62
          93
100
AcDbLine
 10
29.637016296387
 20
25.302522659302
 30
0.0
 11
29.643865585327
 21
25.302522659302
 31
0.0
  0
LINE
  5
14A
100
AcDbEntity
  8
TFR-TRI
  6
CONTINUOUS
 62
          93
100
AcDbLine
 10
32.739292144775
 20
0.962523162365
 30
0.0
 11
32.745792388916
 21
0.962523162365
 31
0.0
  0
LINE
  5
14B
100
AcDbEntity
  8
TFR-TRI
  6
CONTINUOUS
 62
          93
100
AcDbLine
 10
15.332334518433
 20
25.402523040771
 30
0.0
 11
18.482334136963
 21
25.402523040771
 31
0.0
  0
LINE
  5
14C
100
AcDbEntity
  8
TFR-TRI
  6
CONTINUOUS
 62
          93
100
AcDbLine
 10
21.403100967407
 20
25.302522659302
 30
0.0
 11
21.430913925171
 21
25.302522659302
 31
0.0
  0
LINE
  5
14D
100
AcDbEntity
  8
TFR-TRI
  6
CONTINUOUS
 62
           3
100
AcDbLine
 10
20.962558746338
 20
0.762523174286
 30
0.0
 11
20.958101272583
 21
0.762523174286
 31
0.0
  0
LINE
  5
14E
100
AcDbEntity
  8
TFR-TRI
  6
CONTINUOUS
 62
          93
100
AcDbLine
 10
29.727014541626
 20
25.402523040771
 30
0.0
 11
29.727014541626
 21
25.462522506714
 31
0.0
  0
LINE
  5
14F
100
AcDbEntity
  8
TFR-TRI
  6
CONTINUOUS
 62
           3
100
AcDbLine
 10
33.210578918457
 20
25.502523422241
 30
0.0
 11
33.227046966553
 21
25.502523422241
 31
0.0
  0
LINE
  5
150
100
AcDbEntity
  8
TFR-TRI
  6
CONTINUOUS
 62
          30
100
AcDbLine
 10
15.332354545593
 20
25.312522888184
 30
0.0
 11
15.387713432312
 21
25.312522888184
 31
0.0
  0
LINE
  5
151
100
AcDbEntity
  8
TFR-TRI
  6
CONTINUOUS
 62
          93
100
AcDbLine
 10
15.386060714722
 20
0.94752317667
 30
0.0
 11
15.378296852112
 21
0.936542391777
 31
0.0
  0
LINE
  5
152
100
AcDbEntity
  8
TFR-TRI
  6
CONTINUOUS
 62
           3
100
AcDbLine
 10
20.914712905884
 20
25.475522994995
 30
0.0
 11
20.894847869873
 21
25.475522994995
 31
0.0
  0
LINE
  5
153
100
AcDbEntity
  8
TFR-TRI
  6
CONTINUOUS
 62
           3
100
AcDbLine
 10
21.003101348877
 20
0.789523124695
 30
0.0
 11
21.035453796387
 21
0.789523124695
 31
0.0
  0
LINE
  5
154
100
AcDbEntity
  8
TFR-TRI
  6
CONTINUOUS
 62
           3
100
AcDbLine
 10
20.958101272583
 20
25.502523422241
 30
0.0
 11
20.962558746338
 21
25.502523422241
 31
0.0
  0
LINE
  5
155
100
AcDbEntity
  8
TFR-TRI
  6
CONTINUOUS
 62
           3
100
AcDbLine
 10
34.018077850342
 20
25.462522506714
 30
0.0
 11
34.018077850342
 21
25.475522994995
 31
0.0
  0
LINE
  5
156
100
AcDbEntity
  8
TFR-TRI
  6
CONTINUOUS
 62
           3
100
AcDbLine
 10
19.153114318848
 20
25.502523422241
 30
0.0
 11
19.171157836914
 21
25.502523422241
 31
0.0
  0
LINE
  5
157
100
AcDbEntity
  8
TFR-TRI
  6
CONTINUOUS
 62
          93
100
AcDbLine
 10
18.493101119995
 20
25.302522659302
 30
0.0
 11
18.543102264404
 21
25.302522659302
 31
0.0
  0
LINE
  5
158
100
AcDbEntity
  8
TFR-TRI
  6
CONTINUOUS
 62
          93
100
AcDbLine
 10
15.428215026855
 20
0.934711635113
 30
0.0
 11
15.41917514801
 21
0.909622490406
 31
0.0
  0
LINE
  5
159
100
AcDbEntity
  8
TFR-TRI
  6
CONTINUOUS
 62
           3
100
AcDbLine
 10
17.275800704956
 20
25.502523422241
 30
0.0
 11
17.293844223022
 21
25.502523422241
 31
0.0
  0
LINE
  5
15A
100
AcDbEntity
  8
TFR-TRI
  6
CONTINUOUS
 62
           3
100
AcDbLine
 10
32.28044128418
 20
25.475522994995
 30
0.0
 11
32.200443267822
 21
25.502523422241
 31
0.0
  0
LINE
  5
15B
100
AcDbEntity
  8
TFR-TRI
  6
CONTINUOUS
 62
          93
100
AcDbLine
 10
35.518077850342
 20
20.660022735596
 30
0.0
 11
35.518077850342
 21
25.012523651123
 31
0.0
  0
LINE
  5
15C
100
AcDbEntity
  8
TFR-TRI
  6
CONTINUOUS
 62
           3
100
AcDbLine
 10
33.063076019287
 20
0.802523136139
 30
0.0
 11
33.063076019287
 21
0.789523124695
 31
0.0
  0
LINE
  5
15D
100
AcDbEntity
  8
TFR-TRI
  6
CONTINUOUS
 62
          93
100
AcDbLine
 10
32.751445770264
 20
0.909622490406
 30
0.0
 11
32.765522003174
 21
0.889711618423
 31
0.0
  0
LINE
  5
15E
100
AcDbEntity
  8
TFR-TRI
  6
CONTINUOUS
 62
          93
100
AcDbLine
 10
21.442335128784
 20
25.402523040771
 30
0.0
 11
21.442335128784
 21
25.462522506714
 31
0.0
  0
LINE
  5
15F
100
AcDbEntity
  8
TFR-TRI
  6
CONTINUOUS
 62
          93
100
AcDbLine
 10
34.218078613281
 20
1.002523183823
 30
0.0
 11
35.268077850342
 21
1.002523183823
 31
0.0
  0
LINE
  5
160
100
AcDbEntity
  8
TFR-TRI
  6
CONTINUOUS
 62
           3
100
AcDbLine
 10
17.298139572144
 20
25.475522994995
 30
0.0
 11
17.265787124634
 21
25.475522994995
 31
0.0
  0
LINE
  5
161
100
AcDbEntity
  8
TFR-TRI
  6
CONTINUOUS
 62
           3
100
AcDbLine
 10
17.374040603638
 20
25.475522994995
 30
0.0
 11
17.354175567627
 21
25.475522994995
 31
0.0
  0
LINE
  5
162
100
AcDbEntity
  8
TFR-TRI
  6
CONTINUOUS
 62
          93
100
AcDbLine
 10
1.928034543991
 20
4.787523269653
 30
0.0
 11
1.898034572601
 21
4.787523269653
 31
0.0
  0
LINE
  5
163
100
AcDbEntity
  8
TFR-TRI
  6
CONTINUOUS
 62
           3
100
AcDbLine
 10
30.745733261108
 20
25.475522994995
 30
0.0
 11
30.719844818115
 21
25.475522994995
 31
0.0
  0
LINE
  5
164
100
AcDbEntity
  8
TFR-TRI
  6
CONTINUOUS
 62
          93
100
AcDbLine
 10
35.518077850342
 20
9.535022735596
 30
0.0
 11
35.518077850342
 21
11.135023117065
 31
0.0
  0
LINE
  5
165
100
AcDbEntity
  8
TFR-TRI
  6
CONTINUOUS
 62
          93
100
AcDbLine
 10
1.928034543991
 20
21.227523803711
 30
0.0
 11
1.898034572601
 21
21.227523803711
 31
0.0
  0
LINE
  5
166
100
AcDbEntity
  8
TFR-TRI
  6
CONTINUOUS
 62
          93
100
AcDbLine
 10
33.45881652832
 20
25.39252281189
 30
0.0
 11
33.463077545166
 21
25.39252281189
 31
0.0
  0
LINE
  5
167
100
AcDbEntity
  8
TFR-TRI
  6
CONTINUOUS
 62
          93
100
AcDbLine
 10
21.493101119995
 20
31.666572570801
 30
0.0
 11
21.493101119995
 21
32.716571807861
 31
0.0
  0
LINE
  5
168
100
AcDbEntity
  8
TFR-TRI
  6
CONTINUOUS
 62
          93
100
AcDbLine
 10
33.463077545166
 20
25.39252281189
 30
0.0
 11
33.463077545166
 21
25.332523345947
 31
0.0
  0
LINE
  5
169
100
AcDbEntity
  8
TFR-TRI
  6
CONTINUOUS
 62
          30
100
AcDbLine
 10
1.523101806641
 20
0.90971159935
 30
0.0
 11
1.523101806641
 21
0.896928071976
 31
0.0
  0
LINE
  5
16A
100
AcDbEntity
  8
TFR-TRI
  6
CONTINUOUS
 62
           3
100
AcDbLine
 10
19.115043640137
 20
25.502523422241
 30
0.0
 11
19.133087158203
 21
25.502523422241
 31
0.0
  0
LINE
  5
16B
100
AcDbEntity
  8
TFR-TRI
  6
CONTINUOUS
 62
           3
100
AcDbLine
 10
15.679301261902
 20
0.789523124695
 30
0.0
 11
15.705189704895
 21
0.789523124695
 31
0.0
  0
LINE
  5
16C
100
AcDbEntity
  8
TFR-TRI
  6
CONTINUOUS
 62
          93
100
AcDbLine
 10
15.332334518433
 20
25.372522354126
 30
0.0
 11
1.583034515381
 21
25.372522354126
 31
0.0
  0
LINE
  5
16D
100
AcDbEntity
  8
TFR-TRI
  6
CONTINUOUS
 62
          93
100
AcDbLine
 10
33.463077545166
 20
0.872523128986
 30
0.0
 11
33.45881652832
 21
0.872523128986
 31
0.0
  0
LINE
  5
16E
100
AcDbEntity
  8
TFR-TRI
  6
CONTINUOUS
 62
          30
100
AcDbLine
 10
1.523101806641
 20
27.175510406494
 30
0.0
 11
1.523101806641
 21
27.179916381836
 31
0.0
  0
LINE
  5
16F
100
AcDbEntity
  8
TFR-TRI
  6
CONTINUOUS
 62
          93
100
AcDbLine
 10
34.848075866699
 20
2.175023078918
 30
0.0
 11
34.788078308105
 21
2.175023078918
 31
0.0
  0
LINE
  5
170
100
AcDbEntity
  8
TFR-TRI
  6
CONTINUOUS
 62
           3
100
AcDbLine
 10
30.782344818115
 20
25.475522994995
 30
0.0
 11
30.702344894409
 21
25.502523422241
 31
0.0
  0
LINE
  5
171
100
AcDbEntity
  8
TFR-TRI
  6
CONTINUOUS
 62
          93
100
AcDbLine
 10
32.742404937744
 20
25.330335617065
 30
0.0
 11
32.751445770264
 21
25.355422973633
 31
0.0
  0
LINE
  5
172
100
AcDbEntity
  8
TFR-TRI
  6
CONTINUOUS
 62
          93
100
AcDbLine
 10
35.518077850342
 20
19.885023117065
 30
0.0
 11
35.268077850342
 21
20.135023117065
 31
0.0
  0
LINE
  5
173
100
AcDbEntity
  8
TFR-TRI
  6
CONTINUOUS
 62
           3
100
AcDbLine
 10
33.938076019287
 20
0.762523174286
 30
0.0
 11
34.018077850342
 21
0.789523124695
 31
0.0
  0
LINE
  5
174
100
AcDbEntity
  8
TFR-TRI
  6
CONTINUOUS
 62
           3
100
AcDbLine
 10
33.955577850342
 20
0.862525165081
 30
0.0
 11
33.955577850342
 21
0.872524261475
 31
0.0
  0
LINE
  5
175
100
AcDbEntity
  8
TFR-TRI
  6
CONTINUOUS
 62
           3
100
AcDbLine
 10
33.932048797607
 20
25.502523422241
 30
0.0
 11
33.938076019287
 21
25.502523422241
 31
0.0
  0
LINE
  5
176
100
AcDbEntity
  8
TFR-TRI
  6
CONTINUOUS
 62
          93
100
AcDbLine
 10
15.367690086365
 20
0.932523131371
 30
0.0
 11
15.367690086365
 21
0.872523128986
 31
0.0
  0
LINE
  5
177
100
AcDbEntity
  8
TFR-TRI
  6
CONTINUOUS
 62
          93
100
AcDbLine
 10
35.518077850342
 20
17.510023117065
 30
0.0
 11
35.268077850342
 21
17.760023117065
 31
0.0
  0
LINE
  5
178
100
AcDbEntity
  8
TFR-TRI
  6
CONTINUOUS
 62
          93
100
AcDbLine
 10
29.69873046875
 20
0.962523162365
 30
0.0
 11
32.739292144775
 21
0.962523162365
 31
0.0
  0
LINE
  5
179
100
AcDbEntity
  8
TFR-TRI
  6
CONTINUOUS
 62
          93
100
AcDbLine
 10
21.442335128784
 20
0.862523138523
 30
0.0
 11
21.442335128784
 21
0.802523136139
 31
0.0
  0
LINE
  5
17A
100
AcDbEntity
  8
TFR-TRI
  6
CONTINUOUS
 62
           3
100
AcDbLine
 10
33.915576934814
 20
25.502523422241
 30
0.0
 11
33.932048797607
 21
25.502523422241
 31
0.0
  0
LINE
  5
17B
100
AcDbEntity
  8
TFR-TRI
  6
CONTINUOUS
 62
           3
100
AcDbLine
 10
30.568956375122
 20
25.475522994995
 30
0.0
 11
30.549091339111
 21
25.475522994995
 31
0.0
  0
LINE
  5
17C
100
AcDbEntity
  8
TFR-TRI
  6
CONTINUOUS
 62
          93
100
AcDbLine
 10
18.493101119995
 20
30.196573257446
 30
0.0
 11
18.493101119995
 21
30.256572723389
 31
0.0
  0
LINE
  5
17D
100
AcDbEntity
  8
TFR-TRI
  6
CONTINUOUS
 62
           3
100
AcDbLine
 10
17.203287124634
 20
0.872524261475
 30
0.0
 11
17.203287124634
 21
0.862525165081
 31
0.0
  0
LINE
  5
17E
100
AcDbEntity
  8
TFR-TRI
  6
CONTINUOUS
 62
          30
100
AcDbLine
 10
34.218074798584
 20
0.952523171902
 30
0.0
 11
34.257015228271
 21
0.952523171902
 31
0.0
  0
LINE
  5
17F
100
AcDbEntity
  8
TFR-TRI
  6
CONTINUOUS
 62
           3
100
AcDbLine
 10
30.647331237793
 20
0.762523174286
 30
0.0
 11
30.629287719727
 21
0.762523174286
 31
0.0
  0
LINE
  5
180
100
AcDbEntity
  8
TFR-TRI
  6
CONTINUOUS
 62
           3
100
AcDbLine
 10
20.958101272583
 20
25.502523422241
 30
0.0
 11
20.878101348877
 21
25.475522994995
 31
0.0
  0
LINE
  5
181
100
AcDbEntity
  8
TFR-TRI
  6
CONTINUOUS
 62
          93
100
AcDbLine
 10
21.433101654053
 20
30.286573410034
 30
0.0
 11
21.433101654053
 21
30.325513839722
 31
0.0
  0
LINE
  5
182
100
AcDbEntity
  8
TFR-TRI
  6
CONTINUOUS
 62
           3
100
AcDbLine
 10
15.642689704895
 20
25.475522994995
 30
0.0
 11
15.642689704895
 21
25.462522506714
 31
0.0
  0
LINE
  5
183
100
AcDbEntity
  8
TFR-TRI
  6
CONTINUOUS
 62
           3
100
AcDbLine
 10
33.854106903076
 20
25.502523422241
 30
0.0
 11
33.870578765869
 21
25.502523422241
 31
0.0
  0
LINE
  5
184
100
AcDbEntity
  8
TFR-TRI
  6
CONTINUOUS
 62
          30
100
AcDbLine
 10
33.463050842285
 20
25.372522354126
 30
0.0
 11
33.568061828613
 21
25.372522354126
 31
0.0
  0
LINE
  5
185
100
AcDbEntity
  8
TFR-TRI
  6
CONTINUOUS
 62
           3
100
AcDbLine
 10
30.765598297119
 20
0.789523124695
 30
0.0
 11
30.778085708618
 21
0.789523124695
 31
0.0
  0
LINE
  5
186
100
AcDbEntity
  8
TFR-TRI
  6
CONTINUOUS
 62
           3
100
AcDbLine
 10
32.09294128418
 20
25.475522994995
 30
0.0
 11
32.067054748535
 21
25.475522994995
 31
0.0
  0
LINE
  5
187
100
AcDbEntity
  8
TFR-TRI
  6
CONTINUOUS
 62
          93
100
AcDbLine
 10
35.268077850342
 20
18.035022735596
 30
0.0
 11
35.518077850342
 21
18.285022735596
 31
0.0
  0
LINE
  5
188
100
AcDbEntity
  8
TFR-TRI
  6
CONTINUOUS
 62
           3
100
AcDbLine
 10
33.188076019287
 20
25.502523422241
 30
0.0
 11
33.210578918457
 21
25.502523422241
 31
0.0
  0
LINE
  5
189
100
AcDbEntity
  8
TFR-TRI
  6
CONTINUOUS
 62
           3
100
AcDbLine
 10
30.624992370605
 20
0.789523124695
 30
0.0
 11
30.657344818115
 21
0.789523124695
 31
0.0
  0
LINE
  5
18A
100
AcDbEntity
  8
TFR-TRI
  6
CONTINUOUS
 62
          93
100
AcDbLine
 10
15.395974159241
 20
0.962523162365
 30
0.0
 11
15.431329727173
 21
0.962523162365
 31
0.0
  0
LINE
  5
18B
100
AcDbEntity
  8
TFR-TRI
  6
CONTINUOUS
 62
           3
100
AcDbLine
 10
19.098100662231
 20
25.502523422241
 30
0.0
 11
19.102558135986
 21
25.502523422241
 31
0.0
  0
LINE
  5
18C
100
AcDbEntity
  8
TFR-TRI
  6
CONTINUOUS
 62
           3
100
AcDbLine
 10
33.308818817139
 20
25.475522994995
 30
0.0
 11
33.296329498291
 21
25.475522994995
 31
0.0
  0
LINE
  5
18D
100
AcDbEntity
  8
TFR-TRI
  6
CONTINUOUS
 62
           3
100
AcDbLine
 10
32.114898681641
 20
0.762523174286
 30
0.0
 11
32.110443115234
 21
0.762523174286
 31
0.0
  0
LINE
  5
18E
100
AcDbEntity
  8
TFR-TRI
  6
CONTINUOUS
 62
           3
100
AcDbLine
 10
15.892689704895
 20
25.475522994995
 30
0.0
 11
15.888430595398
 21
25.475522994995
 31
0.0
  0
LINE
  5
18F
100
AcDbEntity
  8
TFR-TRI
  6
CONTINUOUS
 62
          93
100
AcDbLine
 10
15.332334518433
 20
25.462522506714
 30
0.0
 11
1.583034515381
 21
25.462522506714
 31
0.0
  0
LINE
  5
190
100
AcDbEntity
  8
TFR-TRI
  6
CONTINUOUS
 62
           3
100
AcDbLine
 10
30.719844818115
 20
25.39252281189
 30
0.0
 11
30.719844818115
 21
25.402521133423
 31
0.0
  0
LINE
  5
191
100
AcDbEntity
  8
TFR-TRI
  6
CONTINUOUS
 62
           3
100
AcDbLine
 10
33.125576019287
 20
25.475522994995
 30
0.0
 11
33.099689483643
 21
25.475522994995
 31
0.0
  0
LINE
  5
192
100
AcDbEntity
  8
TFR-TRI
  6
CONTINUOUS
 62
          93
100
AcDbLine
 10
1.583034515381
 20
0.892523169518
 30
0.0
 11
1.583034515381
 21
0.864711642265
 31
0.0
  0
LINE
  5
193
100
AcDbEntity
  8
TFR-TRI
  6
CONTINUOUS
 62
           3
100
AcDbLine
 10
15.735337257385
 20
25.475522994995
 30
0.0
 11
15.705189704895
 21
25.475522994995
 31
0.0
  0
LINE
  5
194
100
AcDbEntity
  8
TFR-TRI
  6
CONTINUOUS
 62
          93
100
AcDbLine
 10
35.518077850342
 20
15.135023117065
 30
0.0
 11
35.268077850342
 21
15.385023117065
 31
0.0
  0
LINE
  5
195
100
AcDbEntity
  8
TFR-TRI
  6
CONTINUOUS
 62
           3
100
AcDbLine
 10
32.110443115234
 20
25.502523422241
 30
0.0
 11
32.116470336914
 21
25.502523422241
 31
0.0
  0
LINE
  5
196
100
AcDbEntity
  8
TFR-TRI
  6
CONTINUOUS
 62
           3
100
AcDbLine
 10
32.28044128418
 20
0.789523124695
 30
0.0
 11
32.28044128418
 21
0.802523136139
 31
0.0
  0
LINE
  5
197
100
AcDbEntity
  8
TFR-TRI
  6
CONTINUOUS
 62
           3
100
AcDbLine
 10
33.228622436523
 20
0.762523174286
 30
0.0
 11
33.216133117676
 21
0.762523174286
 31
0.0
  0
LINE
  5
198
100
AcDbEntity
  8
TFR-TRI
  6
CONTINUOUS
 62
           3
100
AcDbLine
 10
15.795746803284
 20
0.762523174286
 30
0.0
 11
15.777703285217
 21
0.762523174286
 31
0.0
  0
LINE
  5
199
100
AcDbEntity
  8
TFR-TRI
  6
CONTINUOUS
 62
          93
100
AcDbLine
 10
18.543102264404
 20
30.286573410034
 30
0.0
 11
18.543102264404
 21
30.325517654419
 31
0.0
  0
LINE
  5
19A
100
AcDbEntity
  8
TFR-TRI
  6
CONTINUOUS
 62
          93
100
AcDbLine
 10
15.387355804443
 20
0.876928091049
 30
0.0
 11
15.367690086365
 21
0.872523128986
 31
0.0
  0
LINE
  5
19B
100
AcDbEntity
  8
TFR-TRI
  6
CONTINUOUS
 62
           3
100
AcDbLine
 10
32.21794128418
 20
25.475522994995
 30
0.0
 11
32.187793731689
 21
25.475522994995
 31
0.0
  0
LINE
  5
19C
100
AcDbEntity
  8
TFR-TRI
  6
CONTINUOUS
 62
           3
100
AcDbLine
 10
33.220428466797
 20
0.789523124695
 30
0.0
 11
33.250576019287
 21
0.789523124695
 31
0.0
  0
LINE
  5
19D
100
AcDbEntity
  8
TFR-TRI
  6
CONTINUOUS
 62
          93
100
AcDbLine
 10
35.027015686035
 20
25.402523040771
 30
0.0
 11
32.877014160156
 21
25.402523040771
 31
0.0
  0
LINE
  5
19E
100
AcDbEntity
  8
TFR-TRI
  6
CONTINUOUS
 62
           3
100
AcDbLine
 10
17.22078704834
 20
25.502523422241
 30
0.0
 11
17.140787124634
 21
25.475522994995
 31
0.0
  0
LINE
  5
19F
100
AcDbEntity
  8
TFR-TRI
  6
CONTINUOUS
 62
          93
100
AcDbLine
 10
32.765266418457
 20
25.302522659302
 30
0.0
 11
32.785175323486
 21
25.302522659302
 31
0.0
  0
LINE
  5
1A0
100
AcDbEntity
  8
TFR-TRI
  6
CONTINUOUS
 62
          93
100
AcDbLine
 10
18.47188949585
 20
25.302522659302
 30
0.0
 11
18.468774795532
 21
25.330335617065
 31
0.0
  0
LINE
  5
1A1
100
AcDbEntity
  8
TFR-TRI
  6
CONTINUOUS
 62
           3
100
AcDbLine
 10
32.034702301025
 20
25.475522994995
 30
0.0
 11
32.03044128418
 21
25.475522994995
 31
0.0
  0
LINE
  5
1A2
100
AcDbEntity
  8
TFR-TRI
  6
CONTINUOUS
 62
           3
100
AcDbLine
 10
33.079822540283
 20
0.789523124695
 30
0.0
 11
33.099689483643
 21
0.789523124695
 31
0.0
  0
LINE
  5
1A3
100
AcDbEntity
  8
TFR-TRI
  6
CONTINUOUS
 62
          93
100
AcDbLine
 10
18.47188949585
 20
30.187786102295
 30
0.0
 11
15.431329727173
 21
27.147226333618
 31
0.0
  0
LINE
  5
1A4
100
AcDbEntity
  8
TFR-TRI
  6
CONTINUOUS
 62
           3
100
AcDbLine
 10
20.878101348877
 20
0.789523124695
 30
0.0
 11
20.958101272583
 21
0.762523174286
 31
0.0
  0
LINE
  5
1A5
100
AcDbEntity
  8
TFR-TRI
  6
CONTINUOUS
 62
          93
100
AcDbLine
 10
15.41917514801
 20
25.355422973633
 30
0.0
 11
15.405096054077
 21
25.375333786011
 31
0.0
  0
LINE
  5
1A6
100
AcDbEntity
  8
TFR-TRI
  6
CONTINUOUS
 62
           3
100
AcDbLine
 10
30.782344818115
 20
25.475522994995
 30
0.0
 11
30.778085708618
 21
25.475522994995
 31
0.0
  0
LINE
  5
1A7
100
AcDbEntity
  8
TFR-TRI
  6
CONTINUOUS
 62
          30
100
AcDbLine
 10
1.523101806641
 20
25.282522201538
 30
0.0
 11
1.523101806641
 21
25.310335159302
 31
0.0
  0
LINE
  5
1A8
100
AcDbEntity
  8
TFR-TRI
  6
CONTINUOUS
 62
           3
100
AcDbLine
 10
33.903091430664
 20
0.762523174286
 30
0.0
 11
33.88306427002
 21
0.762523174286
 31
0.0
  0
LINE
  5
1A9
100
AcDbEntity
  8
TFR-TRI
  6
CONTINUOUS
 62
          93
100
AcDbLine
 10
1.583034515381
 20
27.089916229248
 30
0.0
 11
1.583034515381
 21
27.102699279785
 31
0.0
  0
LINE
  5
1AA
100
AcDbEntity
  8
TFR-TRI
  6
CONTINUOUS
 62
           3
100
AcDbLine
 10
17.310787200928
 20
0.762523174286
 30
0.0
 11
17.306329727173
 21
0.762523174286
 31
0.0
  0
LINE
  5
1AB
100
AcDbEntity
  8
TFR-TRI
  6
CONTINUOUS
 62
          30
100
AcDbLine
 10
34.257015228271
 20
0.952523171902
 30
0.0
 11
34.264087677002
 21
0.952523171902
 31
0.0
  0
LINE
  5
1AC
100
AcDbEntity
  8
TFR-TRI
  6
CONTINUOUS
 62
          93
100
AcDbLine
 10
18.408248901367
 20
25.39252281189
 30
0.0
 11
15.367690086365
 21
25.39252281189
 31
0.0
  0
LINE
  5
1AD
100
AcDbEntity
  8
TFR-TRI
  6
CONTINUOUS
 62
           3
100
AcDbLine
 10
33.981464385986
 20
0.789523124695
 30
0.0
 11
34.001331329346
 21
0.789523124695
 31
0.0
  0
LINE
  5
1AE
100
AcDbEntity
  8
TFR-TRI
  6
CONTINUOUS
 62
          93
100
AcDbLine
 10
7.898034572601
 20
21.477523803711
 30
0.0
 11
7.928034305573
 21
21.477523803711
 31
0.0
  0
LINE
  5
1AF
100
AcDbEntity
  8
TFR-TRI
  6
CONTINUOUS
 62
           3
100
AcDbLine
 10
33.925430297852
 20
0.789523124695
 30
0.0
 11
33.955577850342
 21
0.789523124695
 31
0.0
  0
LINE
  5
1B0
100
AcDbEntity
  8
TFR-TRI
  6
CONTINUOUS
 62
          93
100
AcDbLine
 10
18.543102264404
 20
25.330335617065
 30
0.0
 11
18.543102264404
 21
25.355422973633
 31
0.0
  0
LINE
  5
1B1
100
AcDbEntity
  8
TFR-TRI
  6
CONTINUOUS
 62
          93
100
AcDbLine
 10
15.332334518433
 20
25.40033531189
 30
0.0
 11
15.332334518433
 21
25.425424575806
 31
0.0
  0
LINE
  5
1B2
100
AcDbEntity
  8
TFR-TRI
  6
CONTINUOUS
 62
          93
100
AcDbLine
 10
21.403100967407
 20
30.233671188354
 30
0.0
 11
21.403100967407
 21
30.258760452271
 31
0.0
  0
LINE
  5
1B3
100
AcDbEntity
  8
TFR-TRI
  6
CONTINUOUS
 62
           3
100
AcDbLine
 10
17.177398681641
 20
0.789523124695
 30
0.0
 11
17.203287124634
 21
0.789523124695
 31
0.0
  0
LINE
  5
1B4
100
AcDbEntity
  8
TFR-TRI
  6
CONTINUOUS
 62
           3
100
AcDbLine
 10
33.830577850342
 20
0.789523124695
 30
0.0
 11
33.860725402832
 21
0.789523124695
 31
0.0
  0
LINE
  5
1B5
100
AcDbEntity
  8
TFR-TRI
  6
CONTINUOUS
 62
          93
100
AcDbLine
 10
1.583034515381
 20
25.445335388184
 30
0.0
 11
1.583034515381
 21
25.458118438721
 31
0.0
  0
LINE
  5
1B6
100
AcDbEntity
  8
TFR-TRI
  6
CONTINUOUS
 62
          93
100
AcDbLine
 10
21.403100967407
 20
30.286573410034
 30
0.0
 11
18.543102264404
 21
30.286573410034
 31
0.0
  0
LINE
  5
1B7
100
AcDbEntity
  8
TFR-TRI
  6
CONTINUOUS
 62
           3
100
AcDbLine
 10
19.018100738525
 20
25.475522994995
 30
0.0
 11
19.018100738525
 21
25.462522506714
 31
0.0
  0
LINE
  5
1B8
100
AcDbEntity
  8
TFR-TRI
  6
CONTINUOUS
 62
           3
100
AcDbLine
 10
17.374040603638
 20
0.789523124695
 30
0.0
 11
17.386528015137
 21
0.789523124695
 31
0.0
  0
LINE
  5
1B9
100
AcDbEntity
  8
TFR-TRI
  6
CONTINUOUS
 62
          93
100
AcDbLine
 10
29.727014541626
 20
0.802523136139
 30
0.0
 11
32.877014160156
 21
0.802523136139
 31
0.0
  0
LINE
  5
1BA
100
AcDbEntity
  8
TFR-TRI
  6
CONTINUOUS
 62
          93
100
AcDbLine
 10
34.218078613281
 20
0.909622490406
 30
0.0
 11
34.218078613281
 21
0.889711618423
 31
0.0
  0
LINE
  5
1BB
100
AcDbEntity
  8
TFR-TRI
  6
CONTINUOUS
 62
          93
100
AcDbLine
 10
1.583034515381
 20
0.806928038597
 30
0.0
 11
1.583034515381
 21
0.802523136139
 31
0.0
  0
LINE
  5
1BC
100
AcDbEntity
  8
TFR-TRI
  6
CONTINUOUS
 62
           3
100
AcDbLine
 10
19.115043640137
 20
0.762523174286
 30
0.0
 11
19.102558135986
 21
0.762523174286
 31
0.0
  0
LINE
  5
1BD
100
AcDbEntity
  8
TFR-TRI
  6
CONTINUOUS
 62
          93
100
AcDbLine
 10
21.442335128784
 20
0.862523138523
 30
0.0
 11
18.482334136963
 21
0.862523138523
 31
0.0
  0
LINE
  5
1BE
100
AcDbEntity
  8
TFR-TRI
  6
CONTINUOUS
 62
          93
100
AcDbLine
 10
34.848075866699
 20
1.052523136139
 30
0.0
 11
34.788078308105
 21
1.052523136139
 31
0.0
  0
LINE
  5
1BF
100
AcDbEntity
  8
TFR-TRI
  6
CONTINUOUS
 62
           3
100
AcDbLine
 10
33.178062438965
 20
0.762523174286
 30
0.0
 11
33.160018920898
 21
0.762523174286
 31
0.0
  0
LINE
  5
1C0
100
AcDbEntity
  8
TFR-TRI
  6
CONTINUOUS
 62
          93
100
AcDbLine
 10
18.47188949585
 20
25.302522659302
 30
0.0
 11
18.481620788574
 21
25.302522659302
 31
0.0
  0
LINE
  5
1C1
100
AcDbEntity
  8
TFR-TRI
  6
CONTINUOUS
 62
           3
100
AcDbLine
 10
19.268100738525
 20
0.789523124695
 30
0.0
 11
19.268100738525
 21
0.802523136139
 31
0.0
  0
LINE
  5
1C2
100
AcDbEntity
  8
TFR-TRI
  6
CONTINUOUS
 62
           3
100
AcDbLine
 10
19.110748291016
 20
0.789523124695
 30
0.0
 11
19.143100738525
 21
0.789523124695
 31
0.0
  0
LINE
  5
1C3
100
AcDbEntity
  8
TFR-TRI
  6
CONTINUOUS
 62
           3
100
AcDbLine
 10
30.532344818115
 20
25.475522994995
 30
0.0
 11
30.532344818115
 21
25.462522506714
 31
0.0
  0
LINE
  5
1C4
100
AcDbEntity
  8
TFR-TRI
  6
CONTINUOUS
 62
          93
100
AcDbLine
 10
32.802928924561
 20
25.385375976563
 30
0.0
 11
32.802928924561
 21
25.39252281189
 31
0.0
  0
LINE
  5
1C5
100
AcDbEntity
  8
TFR-TRI
  6
CONTINUOUS
 62
           3
100
AcDbLine
 10
19.098100662231
 20
25.502523422241
 30
0.0
 11
19.018100738525
 21
25.475522994995
 31
0.0
  0
LINE
  5
1C6
100
AcDbEntity
  8
TFR-TRI
  6
CONTINUOUS
 62
          93
100
AcDbLine
 10
21.403100967407
 20
25.302522659302
 30
0.0
 11
18.543102264404
 21
25.302522659302
 31
0.0
  0
LINE
  5
1C7
100
AcDbEntity
  8
TFR-TRI
  6
CONTINUOUS
 62
           3
100
AcDbLine
 10
21.048101425171
 20
0.762523174286
 30
0.0
 11
21.043645858765
 21
0.762523174286
 31
0.0
  0
LINE
  5
1C8
100
AcDbEntity
  8
TFR-TRI
  6
CONTINUOUS
 62
          93
100
AcDbLine
 10
29.643865585327
 20
25.302522659302
 30
0.0
 11
29.663375854492
 21
25.302522659302
 31
0.0
  0
LINE
  5
1C9
100
AcDbEntity
  8
TFR-TRI
  6
CONTINUOUS
 62
          30
100
AcDbLine
 10
1.523101806641
 20
25.310335159302
 30
0.0
 11
1.523101806641
 21
25.335424423218
 31
0.0
  0
LINE
  5
1CA
100
AcDbEntity
  8
TFR-TRI
  6
CONTINUOUS
 62
          93
100
AcDbLine
 10
21.430913925171
 20
25.302522659302
 30
0.0
 11
21.456003189087
 21
25.302522659302
 31
0.0
  0
LINE
  5
1CB
100
AcDbEntity
  8
TFR-TRI
  6
CONTINUOUS
 62
           3
100
AcDbLine
 10
21.09148979187
 20
25.475522994995
 30
0.0
 11
21.065601348877
 21
25.475522994995
 31
0.0
  0
LINE
  5
1CC
100
AcDbEntity
  8
TFR-TRI
  6
CONTINUOUS
 62
          93
100
AcDbLine
 10
1.583034515381
 20
27.147699356079
 30
0.0
 11
1.583034515381
 21
27.175510406494
 31
0.0
  0
LINE
  5
1CD
100
AcDbEntity
  8
TFR-TRI
  6
CONTINUOUS
 62
          30
100
AcDbLine
 10
34.264087677002
 20
0.892523169518
 30
0.0
 11
34.257015228271
 21
0.892523169518
 31
0.0
  0
LINE
  5
1CE
100
AcDbEntity
  8
TFR-TRI
  6
CONTINUOUS
 62
          30
100
AcDbLine
 10
1.523101806641
 20
0.982523143291
 30
0.0
 11
1.523101806641
 21
0.954711616039
 31
0.0
  0
LINE
  5
1CF
100
AcDbEntity
  8
TFR-TRI
  6
CONTINUOUS
 62
          93
100
AcDbLine
 10
15.378296852112
 20
0.936542391777
 30
0.0
 11
15.367690086365
 21
0.932523131371
 31
0.0
  0
LINE
  5
1D0
100
AcDbEntity
  8
TFR-TRI
  6
CONTINUOUS
 62
           3
100
AcDbLine
 10
19.03484916687
 20
25.475522994995
 30
0.0
 11
19.022361755371
 21
25.475522994995
 31
0.0
  0
LINE
  5
1D1
100
AcDbEntity
  8
TFR-TRI
  6
CONTINUOUS
 62
           3
100
AcDbLine
 10
20.894847869873
 20
25.475522994995
 30
0.0
 11
20.882360458374
 21
25.475522994995
 31
0.0
  0
LINE
  5
1D2
100
AcDbEntity
  8
TFR-TRI
  6
CONTINUOUS
 62
           3
100
AcDbLine
 10
21.035453796387
 20
0.789523124695
 30
0.0
 11
21.065601348877
 21
0.789523124695
 31
0.0
  0
LINE
  5
1D3
100
AcDbEntity
  8
TFR-TRI
  6
CONTINUOUS
 62
           3
100
AcDbLine
 10
21.065601348877
 20
25.39252281189
 30
0.0
 11
21.065601348877
 21
25.402521133423
 31
0.0
  0
LINE
  5
1D4
100
AcDbEntity
  8
TFR-TRI
  6
CONTINUOUS
 62
           3
100
AcDbLine
 10
30.612344741821
 20
25.502523422241
 30
0.0
 11
30.61837387085
 21
25.502523422241
 31
0.0
  0
LINE
  5
1D5
100
AcDbEntity
  8
TFR-TRI
  6
CONTINUOUS
 62
           3
100
AcDbLine
 10
34.018077850342
 20
25.475522994995
 30
0.0
 11
33.938076019287
 21
25.502523422241
 31
0.0
  0
LINE
  5
1D6
100
AcDbEntity
  8
TFR-TRI
  6
CONTINUOUS
 62
           3
100
AcDbLine
 10
19.171157836914
 20
25.502523422241
 30
0.0
 11
19.183645248413
 21
25.502523422241
 31
0.0
  0
LINE
  5
1D7
100
AcDbEntity
  8
TFR-TRI
  6
CONTINUOUS
 62
          93
100
AcDbLine
 10
29.701845169067
 20
0.934711635113
 30
0.0
 11
29.710886001587
 21
0.909622490406
 31
0.0
  0
LINE
  5
1D8
100
AcDbEntity
  8
TFR-TRI
  6
CONTINUOUS
 62
           3
100
AcDbLine
 10
33.77233505249
 20
25.475522994995
 30
0.0
 11
33.768077850342
 21
25.475522994995
 31
0.0
  0
LINE
  5
1D9
100
AcDbEntity
  8
TFR-TRI
  6
CONTINUOUS
 62
          93
100
AcDbLine
 10
35.518077850342
 20
25.012523651123
 30
0.0
 11
35.268077850342
 21
25.262523651123
 31
0.0
  0
LINE
  5
1DA
100
AcDbEntity
  8
TFR-TRI
  6
CONTINUOUS
 62
           3
100
AcDbLine
 10
21.065601348877
 20
25.475522994995
 30
0.0
 11
21.035453796387
 21
25.475522994995
 31
0.0
  0
LINE
  5
1DB
100
AcDbEntity
  8
TFR-TRI
  6
CONTINUOUS
 62
          93
100
AcDbLine
 10
21.493101119995
 20
32.966571807861
 30
0.0
 11
21.493101119995
 21
32.716571807861
 31
0.0
  0
LINE
  5
1DC
100
AcDbEntity
  8
TFR-TRI
  6
CONTINUOUS
 62
           3
100
AcDbLine
 10
17.354175567627
 20
25.475522994995
 30
0.0
 11
17.328287124634
 21
25.475522994995
 31
0.0
  0
LINE
  5
1DD
100
AcDbEntity
  8
TFR-TRI
  6
CONTINUOUS
 62
          93
100
AcDbLine
 10
35.518077850342
 20
7.160023212433
 30
0.0
 11
35.518077850342
 21
8.760023117065
 31
0.0
  0
LINE
  5
1DE
100
AcDbEntity
  8
TFR-TRI
  6
CONTINUOUS
 62
          93
100
AcDbLine
 10
35.518077850342
 20
11.135023117065
 30
0.0
 11
35.268077850342
 21
11.385023117065
 31
0.0
  0
LINE
  5
1DF
100
AcDbEntity
  8
TFR-TRI
  6
CONTINUOUS
 62
          93
100
AcDbLine
 10
14.92803478241
 20
4.787523269653
 30
0.0
 11
14.898034095764
 21
4.787523269653
 31
0.0
  0
LINE
  5
1E0
100
AcDbEntity
  8
TFR-TRI
  6
CONTINUOUS
 62
          93
100
AcDbLine
 10
1.583034515381
 20
0.802523136139
 30
0.0
 11
15.332334518433
 21
0.802523136139
 31
0.0
  0
LINE
  5
1E1
100
AcDbEntity
  8
TFR-TRI
  6
CONTINUOUS
 62
          93
100
AcDbLine
 10
35.093078613281
 20
3.411273241043
 30
0.0
 11
35.093078613281
 21
4.186273097992
 31
0.0
  0
LINE
  5
1E2
100
AcDbEntity
  8
TFR-TRI
  6
CONTINUOUS
 62
          93
100
AcDbLine
 10
34.788078308105
 20
2.175023078918
 30
0.0
 11
34.788078308105
 21
3.177523136139
 31
0.0
  0
LINE
  5
1E3
100
AcDbEntity
  8
TFR-TRI
  6
CONTINUOUS
 62
          93
100
AcDbLine
 10
1.898034572601
 20
5.037523269653
 30
0.0
 11
1.928034543991
 21
5.037523269653
 31
0.0
  0
LINE
  5
1E4
100
AcDbEntity
  8
TFR-TRI
  6
CONTINUOUS
 62
           3
100
AcDbLine
 10
30.782344818115
 20
25.462522506714
 30
0.0
 11
30.782344818115
 21
25.475522994995
 31
0.0
  0
LINE
  5
1E5
100
AcDbEntity
  8
TFR-TRI
  6
CONTINUOUS
 62
          93
100
AcDbLine
 10
35.518077850342
 20
15.910022735596
 30
0.0
 11
35.518077850342
 21
17.510023117065
 31
0.0
  0
LINE
  5
1E6
100
AcDbEntity
  8
TFR-TRI
  6
CONTINUOUS
 62
          93
100
AcDbLine
 10
1.583034515381
 20
0.892523169518
 30
0.0
 11
1.583034515381
 21
25.372522354126
 31
0.0
  0
LINE
  5
1E7
100
AcDbEntity
  8
TFR-TRI
  6
CONTINUOUS
 62
          93
100
AcDbLine
 10
33.45881652832
 20
0.872523128986
 30
0.0
 11
33.44633102417
 21
0.872523128986
 31
0.0
  0
LINE
  5
1E8
100
AcDbEntity
  8
TFR-TRI
  6
CONTINUOUS
 62
           3
100
AcDbLine
 10
30.594844818115
 20
25.402521133423
 30
0.0
 11
30.594844818115
 21
25.39252281189
 31
0.0
  0
LINE
  5
1E9
100
AcDbEntity
  8
TFR-TRI
  6
CONTINUOUS
 62
          93
100
AcDbLine
 10
18.493101119995
 20
30.196573257446
 30
0.0
 11
18.543102264404
 21
30.196573257446
 31
0.0
  0
LINE
  5
1EA
100
AcDbEntity
  8
TFR-TRI
  6
CONTINUOUS
 62
           3
100
AcDbLine
 10
34.018077850342
 20
0.789523124695
 30
0.0
 11
34.018077850342
 21
0.802523136139
 31
0.0
  0
LINE
  5
1EB
100
AcDbEntity
  8
TFR-TRI
  6
CONTINUOUS
 62
          93
100
AcDbLine
 10
18.543102264404
 20
0.909622490406
 30
0.0
 11
18.543102264404
 21
0.889711618423
 31
0.0
  0
LINE
  5
1EC
100
AcDbEntity
  8
TFR-TRI
  6
CONTINUOUS
 62
           3
100
AcDbLine
 10
33.848075866699
 20
25.502523422241
 30
0.0
 11
33.854106903076
 21
25.502523422241
 31
0.0
  0
LINE
  5
1ED
100
AcDbEntity
  8
TFR-TRI
  6
CONTINUOUS
 62
          93
100
AcDbLine
 10
34.218078613281
 20
0.876928091049
 30
0.0
 11
34.218078613281
 21
0.872523128986
 31
0.0
  0
LINE
  5
1EE
100
AcDbEntity
  8
TFR-TRI
  6
CONTINUOUS
 62
           3
100
AcDbLine
 10
33.250576019287
 20
25.39252281189
 30
0.0
 11
33.250576019287
 21
25.402521133423
 31
0.0
  0
LINE
  5
1EF
100
AcDbEntity
  8
TFR-TRI
  6
CONTINUOUS
 62
          93
100
AcDbLine
 10
32.838077545166
 20
0.962523162365
 30
0.0
 11
32.838077545166
 21
25.302522659302
 31
0.0
  0
LINE
  5
1F0
100
AcDbEntity
  8
TFR-TRI
  6
CONTINUOUS
 62
          30
100
AcDbLine
 10
34.218055725098
 20
25.282522201538
 30
0.0
 11
34.267013549805
 21
25.282522201538
 31
0.0
  0
LINE
  5
1F1
100
AcDbEntity
  8
TFR-TRI
  6
CONTINUOUS
 62
           3
100
AcDbLine
 10
30.549091339111
 20
25.475522994995
 30
0.0
 11
30.536603927612
 21
25.475522994995
 31
0.0
  0
LINE
  5
1F2
100
AcDbEntity
  8
TFR-TRI
  6
CONTINUOUS
 62
           3
100
AcDbLine
 10
30.629287719727
 20
0.762523174286
 30
0.0
 11
30.616802215576
 21
0.762523174286
 31
0.0
  0
LINE
  5
1F3
100
AcDbEntity
  8
TFR-TRI
  6
CONTINUOUS
 62
           3
100
AcDbLine
 10
33.893077850342
 20
25.475522994995
 30
0.0
 11
33.860725402832
 21
25.475522994995
 31
0.0
  0
LINE
  5
1F4
100
AcDbEntity
  8
TFR-TRI
  6
CONTINUOUS
 62
           3
100
AcDbLine
 10
21.031158447266
 20
25.502523422241
 30
0.0
 11
21.043645858765
 21
25.502523422241
 31
0.0
  0
LINE
  5
1F5
100
AcDbEntity
  8
TFR-TRI
  6
CONTINUOUS
 62
           3
100
AcDbLine
 10
30.778085708618
 20
0.789523124695
 30
0.0
 11
30.782344818115
 21
0.789523124695
 31
0.0
  0
LINE
  5
1F6
100
AcDbEntity
  8
TFR-TRI
  6
CONTINUOUS
 62
          93
100
AcDbLine
 10
21.486906051636
 20
31.016572952271
 30
0.0
 11
21.469169616699
 21
31.016572952271
 31
0.0
  0
LINE
  5
1F7
100
AcDbEntity
  8
TFR-TRI
  6
CONTINUOUS
 62
          93
100
AcDbLine
 10
35.518077850342
 20
18.285022735596
 30
0.0
 11
35.518077850342
 21
19.885023117065
 31
0.0
  0
LINE
  5
1F8
100
AcDbEntity
  8
TFR-TRI
  6
CONTINUOUS
 62
           3
100
AcDbLine
 10
32.200443267822
 20
0.762523174286
 30
0.0
 11
32.195987701416
 21
0.762523174286
 31
0.0
  0
LINE
  5
1F9
100
AcDbEntity
  8
TFR-TRI
  6
CONTINUOUS
 62
           3
100
AcDbLine
 10
15.830189704895
 20
25.475522994995
 30
0.0
 11
15.800042152405
 21
25.475522994995
 31
0.0
  0
LINE
  5
1FA
100
AcDbEntity
  8
TFR-TRI
  6
CONTINUOUS
 62
          30
100
AcDbLine
 10
34.267013549805
 20
0.967523157597
 30
0.0
 11
34.267013549805
 21
0.982523143291
 31
0.0
  0
LINE
  5
1FB
100
AcDbEntity
  8
TFR-TRI
  6
CONTINUOUS
 62
           3
100
AcDbLine
 10
32.15544128418
 20
0.789523124695
 30
0.0
 11
32.187793731689
 21
0.789523124695
 31
0.0
  0
LINE
  5
1FC
100
AcDbEntity
  8
TFR-TRI
  6
CONTINUOUS
 62
          93
100
AcDbLine
 10
29.663375854492
 20
0.962523162365
 30
0.0
 11
29.663375854492
 21
25.302522659302
 31
0.0
  0
LINE
  5
1FD
100
AcDbEntity
  8
TFR-TRI
  6
CONTINUOUS
 62
           3
100
AcDbLine
 10
15.888430595398
 20
25.475522994995
 30
0.0
 11
15.875943183899
 21
25.475522994995
 31
0.0
  0
LINE
  5
1FE
100
AcDbEntity
  8
TFR-TRI
  6
CONTINUOUS
 62
           3
100
AcDbLine
 10
19.080600738525
 20
0.872524261475
 30
0.0
 11
19.080600738525
 21
0.862525165081
 31
0.0
  0
LINE
  5
1FF
100
AcDbEntity
  8
TFR-TRI
  6
CONTINUOUS
 62
          30
100
AcDbLine
 10
34.257015228271
 20
25.312522888184
 30
0.0
 11
34.257015228271
 21
25.372522354126
 31
0.0
  0
LINE
  5
200
100
AcDbEntity
  8
TFR-TRI
  6
CONTINUOUS
 62
           3
100
AcDbLine
 10
33.099689483643
 20
25.475522994995
 30
0.0
 11
33.079822540283
 21
25.475522994995
 31
0.0
  0
LINE
  5
201
100
AcDbEntity
  8
TFR-TRI
  6
CONTINUOUS
 62
          93
100
AcDbLine
 10
35.268077850342
 20
9.285022735596
 30
0.0
 11
35.518077850342
 21
9.535022735596
 31
0.0
  0
LINE
  5
202
100
AcDbEntity
  8
TFR-TRI
  6
CONTINUOUS
 62
           3
100
AcDbLine
 10
32.034702301025
 20
0.789523124695
 30
0.0
 11
32.047187805176
 21
0.789523124695
 31
0.0
  0
LINE
  5
203
100
AcDbEntity
  8
TFR-TRI
  6
CONTINUOUS
 62
           3
100
AcDbLine
 10
15.705189704895
 20
25.475522994995
 30
0.0
 11
15.679301261902
 21
25.475522994995
 31
0.0
  0
LINE
  5
204
100
AcDbEntity
  8
TFR-TRI
  6
CONTINUOUS
 62
           3
100
AcDbLine
 10
32.116470336914
 20
25.502523422241
 30
0.0
 11
32.132942199707
 21
25.502523422241
 31
0.0
  0
LINE
  5
205
100
AcDbEntity
  8
TFR-TRI
  6
CONTINUOUS
 62
           3
100
AcDbLine
 10
33.216133117676
 20
0.762523174286
 30
0.0
 11
33.198089599609
 21
0.762523174286
 31
0.0
  0
LINE
  5
206
100
AcDbEntity
  8
TFR-TRI
  6
CONTINUOUS
 62
           3
100
AcDbLine
 10
15.777703285217
 20
0.762523174286
 30
0.0
 11
15.757676124573
 21
0.762523174286
 31
0.0
  0
LINE
  5
207
100
AcDbEntity
  8
TFR-TRI
  6
CONTINUOUS
 62
          93
100
AcDbLine
 10
18.47188949585
 20
0.962523162365
 30
0.0
 11
18.468774795532
 21
0.934711635113
 31
0.0
  0
LINE
  5
208
100
AcDbEntity
  8
TFR-TRI
  6
CONTINUOUS
 62
           3
100
AcDbLine
 10
32.187793731689
 20
25.475522994995
 30
0.0
 11
32.15544128418
 21
25.475522994995
 31
0.0
  0
LINE
  5
209
100
AcDbEntity
  8
TFR-TRI
  6
CONTINUOUS
 62
           3
100
AcDbLine
 10
33.250576019287
 20
0.789523124695
 30
0.0
 11
33.276466369629
 21
0.789523124695
 31
0.0
  0
LINE
  5
20A
100
AcDbEntity
  8
TFR-TRI
  6
CONTINUOUS
 62
           3
100
AcDbLine
 10
17.140787124634
 20
25.475522994995
 30
0.0
 11
17.140787124634
 21
25.462522506714
 31
0.0
  0
LINE
  5
20B
100
AcDbEntity
  8
TFR-TRI
  6
CONTINUOUS
 62
          93
100
AcDbLine
 10
18.493101119995
 20
30.256572723389
 30
0.0
 11
18.543102264404
 21
30.256572723389
 31
0.0
  0
LINE
  5
20C
100
AcDbEntity
  8
TFR-TRI
  6
CONTINUOUS
 62
           3
100
AcDbLine
 10
30.657344818115
 20
25.502523422241
 30
0.0
 11
30.679845809937
 21
25.502523422241
 31
0.0
  0
LINE
  5
20D
100
AcDbEntity
  8
TFR-TRI
  6
CONTINUOUS
 62
          93
100
AcDbLine
 10
32.783264160156
 20
0.876928091049
 30
0.0
 11
32.802928924561
 21
0.872523128986
 31
0.0
  0
LINE
  5
20E
100
AcDbEntity
  8
TFR-TRI
  6
CONTINUOUS
 62
           3
100
AcDbLine
 10
33.099689483643
 20
0.789523124695
 30
0.0
 11
33.125576019287
 21
0.789523124695
 31
0.0
  0
LINE
  5
20F
100
AcDbEntity
  8
TFR-TRI
  6
CONTINUOUS
 62
           3
100
AcDbLine
 10
21.128101348877
 20
25.462522506714
 30
0.0
 11
21.128101348877
 21
25.475522994995
 31
0.0
  0
LINE
  5
210
100
AcDbEntity
  8
TFR-TRI
  6
CONTINUOUS
 62
          93
100
AcDbLine
 10
7.928034305573
 20
29.365510940552
 30
0.0
 11
7.898034572601
 21
29.365510940552
 31
0.0
  0
LINE
  5
211
100
AcDbEntity
  8
TFR-TRI
  6
CONTINUOUS
 62
           3
100
AcDbLine
 10
33.125576019287
 20
0.872524261475
 30
0.0
 11
33.125576019287
 21
0.862525165081
 31
0.0
  0
LINE
  5
212
100
AcDbEntity
  8
TFR-TRI
  6
CONTINUOUS
 62
          93
100
AcDbLine
 10
33.385578155518
 20
12.635023117065
 30
0.0
 11
33.385578155518
 21
14.410022735596
 31
0.0
  0
LINE
  5
213
100
AcDbEntity
  8
TFR-TRI
  6
CONTINUOUS
 62
           3
100
AcDbLine
 10
21.048101425171
 20
0.762523174286
 30
0.0
 11
21.128101348877
 21
0.789523124695
 31
0.0
  0
LINE
  5
214
100
AcDbEntity
  8
TFR-TRI
  6
CONTINUOUS
 62
          93
100
AcDbLine
 10
21.403100967407
 20
0.876928091049
 30
0.0
 11
21.403100967407
 21
0.872523128986
 31
0.0
  0
LINE
  5
215
100
AcDbEntity
  8
TFR-TRI
  6
CONTINUOUS
 62
           3
100
AcDbLine
 10
19.188100814819
 20
0.762523174286
 30
0.0
 11
19.268100738525
 21
0.789523124695
 31
0.0
  0
LINE
  5
216
100
AcDbEntity
  8
TFR-TRI
  6
CONTINUOUS
 62
           3
100
AcDbLine
 10
33.92113494873
 20
0.762523174286
 30
0.0
 11
33.903091430664
 21
0.762523174286
 31
0.0
  0
LINE
  5
217
100
AcDbEntity
  8
TFR-TRI
  6
CONTINUOUS
 62
          93
100
AcDbLine
 10
15.405096054077
 20
25.375333786011
 30
0.0
 11
15.387355804443
 21
25.388118743896
 31
0.0
  0
LINE
  5
218
100
AcDbEntity
  8
TFR-TRI
  6
CONTINUOUS
 62
           3
100
AcDbLine
 10
30.778085708618
 20
25.475522994995
 30
0.0
 11
30.765598297119
 21
25.475522994995
 31
0.0
  0
LINE
  5
219
100
AcDbEntity
  8
TFR-TRI
  6
CONTINUOUS
 62
           3
100
AcDbLine
 10
33.88306427002
 20
0.762523174286
 30
0.0
 11
33.865020751953
 21
0.762523174286
 31
0.0
  0
LINE
  5
21A
100
AcDbEntity
  8
TFR-TRI
  6
CONTINUOUS
 62
           3
100
AcDbLine
 10
33.250576019287
 20
25.302526473999
 30
0.0
 11
33.250576019287
 21
25.332523345947
 31
0.0
  0
LINE
  5
21B
100
AcDbEntity
  8
TFR-TRI
  6
CONTINUOUS
 62
           3
100
AcDbLine
 10
17.306329727173
 20
0.762523174286
 30
0.0
 11
17.293844223022
 21
0.762523174286
 31
0.0
  0
LINE
  5
21C
100
AcDbEntity
  8
TFR-TRI
  6
CONTINUOUS
 62
           3
100
AcDbLine
 10
33.188076019287
 20
25.475522994995
 30
0.0
 11
33.155723571777
 21
25.475522994995
 31
0.0
  0
LINE
  5
21D
100
AcDbEntity
  8
TFR-TRI
  6
CONTINUOUS
 62
          93
100
AcDbLine
 10
21.403100967407
 20
25.302522659302
 30
0.0
 11
21.403100967407
 21
25.330335617065
 31
0.0
  0
LINE
  5
21E
100
AcDbEntity
  8
TFR-TRI
  6
CONTINUOUS
 62
          93
100
AcDbLine
 10
15.41917514801
 20
27.159379959106
 30
0.0
 11
15.405096054077
 21
27.173460006714
 31
0.0
  0
LINE
  5
21F
100
AcDbEntity
  8
TFR-TRI
  6
CONTINUOUS
 62
           3
100
AcDbLine
 10
17.255773544312
 20
0.762523174286
 30
0.0
 11
17.237730026245
 21
0.762523174286
 31
0.0
  0
LINE
  5
220
100
AcDbEntity
  8
TFR-TRI
  6
CONTINUOUS
 62
           3
100
AcDbLine
 10
34.001331329346
 20
0.789523124695
 30
0.0
 11
34.013816833496
 21
0.789523124695
 31
0.0
  0
LINE
  5
221
100
AcDbEntity
  8
TFR-TRI
  6
CONTINUOUS
 62
           3
100
AcDbLine
 10
17.145046234131
 20
25.475522994995
 30
0.0
 11
17.140787124634
 21
25.475522994995
 31
0.0
  0
LINE
  5
222
100
AcDbEntity
  8
TFR-TRI
  6
CONTINUOUS
 62
          93
100
AcDbLine
 10
15.332334518433
 20
25.425424575806
 30
0.0
 11
15.332334518433
 21
25.445335388184
 31
0.0
  0
LINE
  5
223
100
AcDbEntity
  8
TFR-TRI
  6
CONTINUOUS
 62
          93
100
AcDbLine
 10
21.403100967407
 20
30.258760452271
 30
0.0
 11
21.403100967407
 21
30.286573410034
 31
0.0
  0
LINE
  5
224
100
AcDbEntity
  8
TFR-TRI
  6
CONTINUOUS
 62
           3
100
AcDbLine
 10
17.203287124634
 20
0.789523124695
 30
0.0
 11
17.233434677124
 21
0.789523124695
 31
0.0
  0
LINE
  5
225
100
AcDbEntity
  8
TFR-TRI
  6
CONTINUOUS
 62
           3
100
AcDbLine
 10
33.860725402832
 20
0.789523124695
 30
0.0
 11
33.893077850342
 21
0.789523124695
 31
0.0
  0
LINE
  5
226
100
AcDbEntity
  8
TFR-TRI
  6
CONTINUOUS
 62
          93
100
AcDbLine
 10
18.468774795532
 20
25.330335617065
 30
0.0
 11
18.459733963013
 21
25.355422973633
 31
0.0
  0
LINE
  5
227
100
AcDbEntity
  8
TFR-TRI
  6
CONTINUOUS
 62
          93
100
AcDbLine
 10
15.395974159241
 20
25.302522659302
 30
0.0
 11
15.431329727173
 21
25.302522659302
 31
0.0
  0
LINE
  5
228
100
AcDbEntity
  8
TFR-TRI
  6
CONTINUOUS
 62
          93
100
AcDbLine
 10
21.469169616699
 20
31.666572570801
 30
0.0
 11
21.442335128784
 21
31.666572570801
 31
0.0
  0
LINE
  5
229
100
AcDbEntity
  8
TFR-TRI
  6
CONTINUOUS
 62
          93
100
AcDbLine
 10
18.543102264404
 20
0.889711618423
 30
0.0
 11
18.543102264404
 21
0.876928091049
 31
0.0
  0
LINE
  5
22A
100
AcDbEntity
  8
TFR-TRI
  6
CONTINUOUS
 62
          93
100
AcDbLine
 10
1.583034515381
 20
25.458118438721
 30
0.0
 11
1.583034515381
 21
25.462522506714
 31
0.0
  0
LINE
  5
22B
100
AcDbEntity
  8
TFR-TRI
  6
CONTINUOUS
 62
          93
100
AcDbLine
 10
21.403100967407
 20
30.286573410034
 30
0.0
 11
21.403100967407
 21
30.325517654419
 31
0.0
  0
LINE
  5
22C
100
AcDbEntity
  8
TFR-TRI
  6
CONTINUOUS
 62
           3
100
AcDbLine
 10
17.386528015137
 20
0.789523124695
 30
0.0
 11
17.390787124634
 21
0.789523124695
 31
0.0
  0
LINE
  5
22D
100
AcDbEntity
  8
TFR-TRI
  6
CONTINUOUS
 62
          93
100
AcDbLine
 10
29.727014541626
 20
0.862523138523
 30
0.0
 11
32.877014160156
 21
0.862523138523
 31
0.0
  0
LINE
  5
22E
100
AcDbEntity
  8
TFR-TRI
  6
CONTINUOUS
 62
          93
100
AcDbLine
 10
34.218078613281
 20
0.962523162365
 30
0.0
 11
34.218078613281
 21
0.934711635113
 31
0.0
  0
LINE
  5
22F
100
AcDbEntity
  8
TFR-TRI
  6
CONTINUOUS
 62
          93
100
AcDbLine
 10
33.568077087402
 20
25.355422973633
 30
0.0
 11
33.568077087402
 21
25.375333786011
 31
0.0
  0
LINE
  5
230
100
AcDbEntity
  8
TFR-TRI
  6
CONTINUOUS
 62
          93
100
AcDbLine
 10
18.543102264404
 20
0.872523128986
 30
0.0
 11
21.403100967407
 21
0.872523128986
 31
0.0
  0
LINE
  5
231
100
AcDbEntity
  8
TFR-TRI
  6
CONTINUOUS
 62
          93
100
AcDbLine
 10
15.332334518433
 20
0.892523169518
 30
0.0
 11
15.332334518433
 21
0.864711642265
 31
0.0
  0
LINE
  5
232
100
AcDbEntity
  8
TFR-TRI
  6
CONTINUOUS
 62
           3
100
AcDbLine
 10
19.102558135986
 20
0.762523174286
 30
0.0
 11
19.098100662231
 21
0.762523174286
 31
0.0
  0
LINE
  5
233
100
AcDbEntity
  8
TFR-TRI
  6
CONTINUOUS
 62
          30
100
AcDbLine
 10
34.267013549805
 20
25.372522354126
 30
0.0
 11
34.267013549805
 21
25.312522888184
 31
0.0
  0
LINE
  5
234
100
AcDbEntity
  8
TFR-TRI
  6
CONTINUOUS
 62
          93
100
AcDbLine
 10
1.583034515381
 20
0.892523169518
 30
0.0
 11
15.332334518433
 21
0.892523169518
 31
0.0
  0
LINE
  5
235
100
AcDbEntity
  8
TFR-TRI
  6
CONTINUOUS
 62
          93
100
AcDbLine
 10
18.481620788574
 20
25.302522659302
 30
0.0
 11
18.493101119995
 21
25.302522659302
 31
0.0
  0
LINE
  5
236
100
AcDbEntity
  8
TFR-TRI
  6
CONTINUOUS
 62
           3
100
AcDbLine
 10
19.018100738525
 20
0.802523136139
 30
0.0
 11
19.018100738525
 21
0.789523124695
 31
0.0
  0
LINE
  5
237
100
AcDbEntity
  8
TFR-TRI
  6
CONTINUOUS
 62
           3
100
AcDbLine
 10
19.143100738525
 20
0.789523124695
 30
0.0
 11
19.175453186035
 21
0.789523124695
 31
0.0
  0
LINE
  5
238
100
AcDbEntity
  8
TFR-TRI
  6
CONTINUOUS
 62
           3
100
AcDbLine
 10
19.205600738525
 20
25.475522994995
 30
0.0
 11
19.175453186035
 21
25.475522994995
 31
0.0
  0
LINE
  5
239
100
AcDbEntity
  8
TFR-TRI
  6
CONTINUOUS
 62
          93
100
AcDbLine
 10
35.027015686035
 20
0.802523136139
 30
0.0
 11
32.877014160156
 21
0.802523136139
 31
0.0
  0
LINE
  5
23A
100
AcDbEntity
  8
TFR-TRI
  6
CONTINUOUS
 62
          93
100
AcDbLine
 10
21.403100967407
 20
0.962523162365
 30
0.0
 11
21.430913925171
 21
0.962523162365
 31
0.0
  0
LINE
  5
23B
100
AcDbEntity
  8
TFR-TRI
  6
CONTINUOUS
 62
           3
100
AcDbLine
 10
21.043645858765
 20
0.762523174286
 30
0.0
 11
21.031158447266
 21
0.762523174286
 31
0.0
  0
LINE
  5
23C
100
AcDbEntity
  8
TFR-TRI
  6
CONTINUOUS
 62
          93
100
AcDbLine
 10
21.442335128784
 20
32.475509643555
 30
0.0
 11
9.363034248352
 21
32.475509643555
 31
0.0
  0
LINE
  5
23D
100
AcDbEntity
  8
TFR-TRI
  6
CONTINUOUS
 62
          93
100
AcDbLine
 10
33.568077087402
 20
0.909622490406
 30
0.0
 11
33.568077087402
 21
0.889711618423
 31
0.0
  0
LINE
  5
23E
100
AcDbEntity
  8
TFR-TRI
  6
CONTINUOUS
 62
          30
100
AcDbLine
 10
1.523101806641
 20
25.335424423218
 30
0.0
 11
1.523101806641
 21
25.355335235596
 31
0.0
  0
LINE
  5
23F
100
AcDbEntity
  8
TFR-TRI
  6
CONTINUOUS
 62
          93
100
AcDbLine
 10
15.332334518433
 20
27.085510253906
 30
0.0
 11
1.583034515381
 21
27.085510253906
 31
0.0
  0
LINE
  5
240
100
AcDbEntity
  8
TFR-TRI
  6
CONTINUOUS
 62
          93
100
AcDbLine
 10
21.456003189087
 20
25.302522659302
 30
0.0
 11
21.475914001465
 21
25.302522659302
 31
0.0
  0
LINE
  5
241
100
AcDbEntity
  8
TFR-TRI
  6
CONTINUOUS
 62
           3
100
AcDbLine
 10
20.882360458374
 20
0.789523124695
 30
0.0
 11
20.894847869873
 21
0.789523124695
 31
0.0
  0
LINE
  5
242
100
AcDbEntity
  8
TFR-TRI
  6
CONTINUOUS
 62
          93
100
AcDbLine
 10
34.218078613281
 20
25.330335617065
 30
0.0
 11
34.218078613281
 21
25.355422973633
 31
0.0
  0
LINE
  5
243
100
AcDbEntity
  8
TFR-TRI
  6
CONTINUOUS
 62
          93
100
AcDbLine
 10
7.898034572601
 20
5.037523269653
 30
0.0
 11
7.928034305573
 21
5.037523269653
 31
0.0
  0
LINE
  5
244
100
AcDbEntity
  8
TFR-TRI
  6
CONTINUOUS
 62
          30
100
AcDbLine
 10
1.523101806641
 20
0.954711616039
 30
0.0
 11
1.523101806641
 21
0.929622471333
 31
0.0
  0
LINE
  5
245
100
AcDbEntity
  8
TFR-TRI
  6
CONTINUOUS
 62
          30
100
AcDbLine
 10
33.610515594482
 20
23.163753509521
 30
0.0
 11
33.610515594482
 21
23.145023345947
 31
0.0
  0
LINE
  5
246
100
AcDbEntity
  8
TFR-TRI
  6
CONTINUOUS
 62
          93
100
AcDbLine
 10
34.848075866699
 20
3.297523260117
 30
0.0
 11
34.788078308105
 21
3.297523260117
 31
0.0
  0
LINE
  5
247
100
AcDbEntity
  8
TFR-TRI
  6
CONTINUOUS
 62
           3
100
AcDbLine
 10
21.065601348877
 20
0.789523124695
 30
0.0
 11
21.09148979187
 21
0.789523124695
 31
0.0
  0
LINE
  5
248
100
AcDbEntity
  8
TFR-TRI
  6
CONTINUOUS
 62
          93
100
AcDbLine
 10
18.543102264404
 20
25.355422973633
 30
0.0
 11
18.543102264404
 21
25.375333786011
 31
0.0
  0
LINE
  5
249
100
AcDbEntity
  8
TFR-TRI
  6
CONTINUOUS
 62
          93
100
AcDbLine
 10
32.75248336792
 20
25.302522659302
 30
0.0
 11
32.765266418457
 21
25.302522659302
 31
0.0
  0
LINE
  5
24A
100
AcDbEntity
  8
TFR-TRI
  6
CONTINUOUS
 62
          93
100
AcDbLine
 10
14.898034095764
 20
21.477523803711
 30
0.0
 11
14.92803478241
 21
21.477523803711
 31
0.0
  0
LINE
  5
24B
100
AcDbEntity
  8
TFR-TRI
  6
CONTINUOUS
 62
          93
100
AcDbLine
 10
34.848075866699
 20
4.420022964478
 30
0.0
 11
34.848075866699
 21
5.422523021698
 31
0.0
  0
LINE
  5
24C
100
AcDbEntity
  8
TFR-TRI
  6
CONTINUOUS
 62
           3
100
AcDbLine
 10
33.848075866699
 20
25.502523422241
 30
0.0
 11
33.768077850342
 21
25.475522994995
 31
0.0
  0
LINE
  5
24D
100
AcDbEntity
  8
TFR-TRI
  6
CONTINUOUS
 62
          93
100
AcDbLine
 10
32.838077545166
 20
25.332523345947
 30
0.0
 11
33.338077545166
 21
25.332523345947
 31
0.0
  0
LINE
  5
24E
100
AcDbEntity
  8
TFR-TRI
  6
CONTINUOUS
 62
           3
100
AcDbLine
 10
32.09294128418
 20
25.402521133423
 30
0.0
 11
32.09294128418
 21
25.39252281189
 31
0.0
  0
LINE
  5
24F
100
AcDbEntity
  8
TFR-TRI
  6
CONTINUOUS
 62
          93
100
AcDbLine
 10
33.45881652832
 20
0.932523131371
 30
0.0
 11
33.463077545166
 21
0.932523131371
 31
0.0
  0
LINE
  5
250
100
AcDbEntity
  8
TFR-TRI
  6
CONTINUOUS
 62
          93
100
AcDbLine
 10
29.710886001587
 20
0.909622490406
 30
0.0
 11
29.724964141846
 21
0.889711618423
 31
0.0
  0
LINE
  5
251
100
AcDbEntity
  8
TFR-TRI
  6
CONTINUOUS
 62
          93
100
AcDbLine
 10
34.218078613281
 20
25.262523651123
 30
0.0
 11
35.268077850342
 21
25.262523651123
 31
0.0
  0
LINE
  5
252
100
AcDbEntity
  8
TFR-TRI
  6
CONTINUOUS
 62
           3
100
AcDbLine
 10
33.250576019287
 20
0.932522416115
 30
0.0
 11
33.250576019287
 21
0.962519645691
 31
0.0
  0
LINE
  5
253
100
AcDbEntity
  8
TFR-TRI
  6
CONTINUOUS
 62
           3
100
AcDbLine
 10
21.111354827881
 20
25.475522994995
 30
0.0
 11
21.09148979187
 21
25.475522994995
 31
0.0
  0
LINE
  5
254
100
AcDbEntity
  8
TFR-TRI
  6
CONTINUOUS
 62
          93
100
AcDbLine
 10
35.518077850342
 20
1.252523183823
 30
0.0
 11
35.518077850342
 21
6.385023117065
 31
0.0
  0
LINE
  5
255
100
AcDbEntity
  8
TFR-TRI
  6
CONTINUOUS
 62
           3
100
AcDbLine
 10
33.870578765869
 20
25.502523422241
 30
0.0
 11
33.893077850342
 21
25.502523422241
 31
0.0
  0
LINE
  5
256
100
AcDbEntity
  8
TFR-TRI
  6
CONTINUOUS
 62
          93
100
AcDbLine
 10
32.838077545166
 20
25.39252281189
 30
0.0
 11
33.338077545166
 21
25.39252281189
 31
0.0
  0
LINE
  5
257
100
AcDbEntity
  8
TFR-TRI
  6
CONTINUOUS
 62
          93
100
AcDbLine
 10
18.493101119995
 20
0.962523162365
 30
0.0
 11
18.543102264404
 21
0.962523162365
 31
0.0
  0
LINE
  5
258
100
AcDbEntity
  8
TFR-TRI
  6
CONTINUOUS
 62
          93
100
AcDbLine
 10
33.610576629639
 20
12.635023117065
 30
0.0
 11
33.610576629639
 21
14.410022735596
 31
0.0
  0
LINE
  5
259
100
AcDbEntity
  8
TFR-TRI
  6
CONTINUOUS
 62
          93
100
AcDbLine
 10
33.405578613281
 20
11.385023117065
 30
0.0
 11
35.268077850342
 21
11.385023117065
 31
0.0
  0
LINE
  5
25A
100
AcDbEntity
  8
TFR-TRI
  6
CONTINUOUS
 62
          93
100
AcDbLine
 10
4.583034515381
 20
30.15550994873
 30
0.0
 11
4.583034515381
 21
31.715511322021
 31
0.0
  0
LINE
  5
25B
100
AcDbEntity
  8
TFR-TRI
  6
CONTINUOUS
 62
          93
100
AcDbLine
 10
15.332334518433
 20
27.175510406494
 30
0.0
 11
1.583034515381
 21
27.175510406494
 31
0.0
  0
LINE
  5
25C
100
AcDbEntity
  8
TFR-TRI
  6
CONTINUOUS
 62
          30
100
AcDbLine
 10
33.250591278076
 20
25.312522888184
 30
0.0
 11
33.568061828613
 21
25.312522888184
 31
0.0
  0
LINE
  5
25D
100
AcDbEntity
  8
TFR-TRI
  6
CONTINUOUS
 62
          93
100
AcDbLine
 10
21.433101654053
 20
32.475498199463
 30
0.0
 11
21.433101654053
 21
32.716571807861
 31
0.0
  0
LINE
  5
25E
100
AcDbEntity
  8
TFR-TRI
  6
CONTINUOUS
 62
          93
100
AcDbLine
 10
33.44633102417
 20
25.332523345947
 30
0.0
 11
33.426464080811
 21
25.332523345947
 31
0.0
  0
LINE
  5
25F
100
AcDbEntity
  8
TFR-TRI
  6
CONTINUOUS
 62
           3
100
AcDbLine
 10
19.268100738525
 20
25.475522994995
 30
0.0
 11
19.188100814819
 21
25.502523422241
 31
0.0
  0
LINE
  5
260
100
AcDbEntity
  8
TFR-TRI
  6
CONTINUOUS
 62
           3
100
AcDbLine
 10
19.251354217529
 20
25.475522994995
 30
0.0
 11
19.231489181519
 21
25.475522994995
 31
0.0
  0
LINE
  5
261
100
AcDbEntity
  8
TFR-TRI
  6
CONTINUOUS
 62
          93
100
AcDbLine
 10
29.663375854492
 20
25.302522659302
 30
0.0
 11
29.69873046875
 21
25.302522659302
 31
0.0
  0
LINE
  5
262
100
AcDbEntity
  8
TFR-TRI
  6
CONTINUOUS
 62
           3
100
AcDbLine
 10
30.532344818115
 20
0.802523136139
 30
0.0
 11
30.532344818115
 21
0.789523124695
 31
0.0
  0
LINE
  5
263
100
AcDbEntity
  8
TFR-TRI
  6
CONTINUOUS
 62
           3
100
AcDbLine
 10
19.054712295532
 20
25.475522994995
 30
0.0
 11
19.03484916687
 21
25.475522994995
 31
0.0
  0
LINE
  5
264
100
AcDbEntity
  8
TFR-TRI
  6
CONTINUOUS
 62
          93
100
AcDbLine
 10
33.426464080811
 20
0.932523131371
 30
0.0
 11
33.44633102417
 21
0.932523131371
 31
0.0
  0
LINE
  5
265
100
AcDbEntity
  8
TFR-TRI
  6
CONTINUOUS
 62
          93
100
AcDbLine
 10
35.518077850342
 20
8.760023117065
 30
0.0
 11
35.268077850342
 21
9.010023117065
 31
0.0
  0
LINE
  5
266
100
AcDbEntity
  8
TFR-TRI
  6
CONTINUOUS
 62
          93
100
AcDbLine
 10
33.568077087402
 20
0.889711618423
 30
0.0
 11
33.568077087402
 21
0.876928091049
 31
0.0
  0
LINE
  5
267
100
AcDbEntity
  8
TFR-TRI
  6
CONTINUOUS
 62
          93
100
AcDbLine
 10
33.426464080811
 20
25.39252281189
 30
0.0
 11
33.44633102417
 21
25.39252281189
 31
0.0
  0
LINE
  5
268
100
AcDbEntity
  8
TFR-TRI
  6
CONTINUOUS
 62
          93
100
AcDbLine
 10
32.810264587402
 20
0.962523162365
 30
0.0
 11
32.838077545166
 21
0.962523162365
 31
0.0
  0
LINE
  5
269
100
AcDbEntity
  8
TFR-TRI
  6
CONTINUOUS
 62
          93
100
AcDbLine
 10
15.332334518433
 20
27.147699356079
 30
0.0
 11
15.332334518433
 21
27.175510406494
 31
0.0
  0
LINE
  5
26A
100
AcDbEntity
  8
TFR-TRI
  6
CONTINUOUS
 62
          93
100
AcDbLine
 10
33.338077545166
 20
25.39252281189
 30
0.0
 11
33.370429992676
 21
25.39252281189
 31
0.0
  0
LINE
  5
26B
100
AcDbEntity
  8
TFR-TRI
  6
CONTINUOUS
 62
          93
100
AcDbLine
 10
32.838077545166
 20
25.332523345947
 30
0.0
 11
32.838077545166
 21
25.39252281189
 31
0.0
  0
LINE
  5
26C
100
AcDbEntity
  8
TFR-TRI
  6
CONTINUOUS
 62
           3
100
AcDbLine
 10
33.296329498291
 20
25.475522994995
 30
0.0
 11
33.276466369629
 21
25.475522994995
 31
0.0
  0
LINE
  5
26D
100
AcDbEntity
  8
TFR-TRI
  6
CONTINUOUS
 62
          93
100
AcDbLine
 10
33.568077087402
 20
25.330335617065
 30
0.0
 11
33.568077087402
 21
25.355422973633
 31
0.0
  0
LINE
  5
26E
100
AcDbEntity
  8
TFR-TRI
  6
CONTINUOUS
 62
           3
100
AcDbLine
 10
30.719844818115
 20
25.475522994995
 30
0.0
 11
30.689697265625
 21
25.475522994995
 31
0.0
  0
LINE
  5
26F
100
AcDbEntity
  8
TFR-TRI
  6
CONTINUOUS
 62
          93
100
AcDbLine
 10
1.898034572601
 20
21.477523803711
 30
0.0
 11
1.928034543991
 21
21.477523803711
 31
0.0
  0
LINE
  5
270
100
AcDbEntity
  8
TFR-TRI
  6
CONTINUOUS
 62
          93
100
AcDbLine
 10
29.69873046875
 20
0.962523162365
 30
0.0
 11
29.701845169067
 21
0.934711635113
 31
0.0
  0
LINE
  5
271
100
AcDbEntity
  8
TFR-TRI
  6
CONTINUOUS
 62
          93
100
AcDbLine
 10
33.44633102417
 20
0.932523131371
 30
0.0
 11
33.45881652832
 21
0.932523131371
 31
0.0
  0
LINE
  5
272
100
AcDbEntity
  8
TFR-TRI
  6
CONTINUOUS
 62
           3
100
AcDbLine
 10
34.013816833496
 20
25.475522994995
 30
0.0
 11
34.001331329346
 21
25.475522994995
 31
0.0
  0
LINE
  5
273
100
AcDbEntity
  8
TFR-TRI
  6
CONTINUOUS
 62
           3
100
AcDbLine
 10
30.536603927612
 20
25.475522994995
 30
0.0
 11
30.532344818115
 21
25.475522994995
 31
0.0
  0
LINE
  5
274
100
AcDbEntity
  8
TFR-TRI
  6
CONTINUOUS
 62
          93
100
AcDbLine
 10
15.332334518433
 20
27.089916229248
 30
0.0
 11
15.332334518433
 21
27.102699279785
 31
0.0
  0
LINE
  5
275
100
AcDbEntity
  8
TFR-TRI
  6
CONTINUOUS
 62
          93
100
AcDbLine
 10
21.493101119995
 20
30.286573410034
 30
0.0
 11
21.493101119995
 21
31.016572952271
 31
0.0
  0
LINE
  5
276
100
AcDbEntity
  8
TFR-TRI
  6
CONTINUOUS
 62
          93
100
AcDbLine
 10
21.433101654053
 20
32.966571807861
 30
0.0
 11
21.493101119995
 21
32.966571807861
 31
0.0
  0
LINE
  5
277
100
AcDbEntity
  8
TFR-TRI
  6
CONTINUOUS
 62
           3
100
AcDbLine
 10
30.532344818115
 20
0.789523124695
 30
0.0
 11
30.536603927612
 21
0.789523124695
 31
0.0
  0
LINE
  5
278
100
AcDbEntity
  8
TFR-TRI
  6
CONTINUOUS
 62
           3
100
AcDbLine
 10
33.296329498291
 20
0.789523124695
 30
0.0
 11
33.308818817139
 21
0.789523124695
 31
0.0
  0
LINE
  5
279
100
AcDbEntity
  8
TFR-TRI
  6
CONTINUOUS
 62
          93
100
AcDbLine
 10
21.442335128784
 20
30.325510025024
 30
0.0
 11
18.482334136963
 21
30.325510025024
 31
0.0
  0
LINE
  5
27A
100
AcDbEntity
  8
TFR-TRI
  6
CONTINUOUS
 62
          93
100
AcDbLine
 10
35.268077850342
 20
6.910023212433
 30
0.0
 11
35.518077850342
 21
7.160023212433
 31
0.0
  0
LINE
  5
27B
100
AcDbEntity
  8
TFR-TRI
  6
CONTINUOUS
 62
           3
100
AcDbLine
 10
15.739632606506
 20
25.502523422241
 30
0.0
 11
15.757676124573
 21
25.502523422241
 31
0.0
  0
LINE
  5
27C
100
AcDbEntity
  8
TFR-TRI
  6
CONTINUOUS
 62
          93
100
AcDbLine
 10
15.332334518433
 20
0.962523162365
 30
0.0
 11
15.332334518433
 21
25.302522659302
 31
0.0
  0
LINE
  5
27D
100
AcDbEntity
  8
TFR-TRI
  6
CONTINUOUS
 62
           3
100
AcDbLine
 10
32.187793731689
 20
0.789523124695
 30
0.0
 11
32.21794128418
 21
0.789523124695
 31
0.0
  0
LINE
  5
27E
100
AcDbEntity
  8
TFR-TRI
  6
CONTINUOUS
 62
          30
100
AcDbLine
 10
34.218074798584
 20
25.312522888184
 30
0.0
 11
34.257015228271
 21
25.312522888184
 31
0.0
  0
LINE
  5
27F
100
AcDbEntity
  8
TFR-TRI
  6
CONTINUOUS
 62
           3
100
AcDbLine
 10
15.875943183899
 20
25.475522994995
 30
0.0
 11
15.856078147888
 21
25.475522994995
 31
0.0
  0
LINE
  5
280
100
AcDbEntity
  8
TFR-TRI
  6
CONTINUOUS
 62
          93
100
AcDbLine
 10
33.370429992676
 20
25.39252281189
 30
0.0
 11
33.400577545166
 21
25.39252281189
 31
0.0
  0
LINE
  5
281
100
AcDbEntity
  8
TFR-TRI
  6
CONTINUOUS
 62
           3
100
AcDbLine
 10
32.047187805176
 20
0.789523124695
 30
0.0
 11
32.067054748535
 21
0.789523124695
 31
0.0
  0
LINE
  5
282
100
AcDbEntity
  8
TFR-TRI
  6
CONTINUOUS
 62
          93
100
AcDbLine
 10
29.69873046875
 20
25.302522659302
 30
0.0
 11
29.701845169067
 21
25.330335617065
 31
0.0
  0
LINE
  5
283
100
AcDbEntity
  8
TFR-TRI
  6
CONTINUOUS
 62
           3
100
AcDbLine
 10
32.132942199707
 20
25.502523422241
 30
0.0
 11
32.15544128418
 21
25.502523422241
 31
0.0
  0
LINE
  5
284
100
AcDbEntity
  8
TFR-TRI
  6
CONTINUOUS
 62
           3
100
AcDbLine
 10
15.722689628601
 20
25.502523422241
 30
0.0
 11
15.642689704895
 21
25.475522994995
 31
0.0
  0
LINE
  5
285
100
AcDbEntity
  8
TFR-TRI
  6
CONTINUOUS
 62
          93
100
AcDbLine
 10
1.583034515381
 20
27.175510406494
 30
0.0
 11
1.583034515381
 21
30.03050994873
 31
0.0
  0
LINE
  5
286
100
AcDbEntity
  8
TFR-TRI
  6
CONTINUOUS
 62
           3
100
AcDbLine
 10
33.198089599609
 20
0.762523174286
 30
0.0
 11
33.178062438965
 21
0.762523174286
 31
0.0
  0
LINE
  5
287
100
AcDbEntity
  8
TFR-TRI
  6
CONTINUOUS
 62
           3
100
AcDbLine
 10
15.757676124573
 20
0.762523174286
 30
0.0
 11
15.739632606506
 21
0.762523174286
 31
0.0
  0
LINE
  5
288
100
AcDbEntity
  8
TFR-TRI
  6
CONTINUOUS
 62
           3
100
AcDbLine
 10
33.125576019287
 20
25.332523345947
 30
0.0
 11
33.125576019287
 21
25.302526473999
 31
0.0
  0
LINE
  5
289
100
AcDbEntity
  8
TFR-TRI
  6
CONTINUOUS
 62
          30
100
AcDbLine
 10
4.583034515381
 20
31.715511322021
 30
0.0
 11
4.568231105804
 21
31.715511322021
 31
0.0
  0
LINE
  5
28A
100
AcDbEntity
  8
TFR-TRI
  6
CONTINUOUS
 62
          93
100
AcDbLine
 10
18.468774795532
 20
0.934711635113
 30
0.0
 11
18.459733963013
 21
0.909622490406
 31
0.0
  0
LINE
  5
28B
100
AcDbEntity
  8
TFR-TRI
  6
CONTINUOUS
 62
           3
100
AcDbLine
 10
33.276466369629
 20
0.789523124695
 30
0.0
 11
33.296329498291
 21
0.789523124695
 31
0.0
  0
LINE
  5
28C
100
AcDbEntity
  8
TFR-TRI
  6
CONTINUOUS
 62
           3
100
AcDbLine
 10
15.705189704895
 20
0.789523124695
 30
0.0
 11
15.735337257385
 21
0.789523124695
 31
0.0
  0
LINE
  5
28D
100
AcDbEntity
  8
TFR-TRI
  6
CONTINUOUS
 62
          93
100
AcDbLine
 10
32.802928924561
 20
25.39252281189
 30
0.0
 11
29.762371063232
 21
25.39252281189
 31
0.0
  0
LINE
  5
28E
100
AcDbEntity
  8
TFR-TRI
  6
CONTINUOUS
 62
           3
100
AcDbLine
 10
17.390787124634
 20
25.462522506714
 30
0.0
 11
17.390787124634
 21
25.475522994995
 31
0.0
  0
LINE
  5
28F
100
AcDbEntity
  8
TFR-TRI
  6
CONTINUOUS
 62
          30
100
AcDbLine
 10
1.523101806641
 20
27.212610244751
 30
0.0
 11
1.523101806641
 21
27.237699508667
 31
0.0
  0
LINE
  5
290
100
AcDbEntity
  8
TFR-TRI
  6
CONTINUOUS
 62
          93
100
AcDbLine
 10
18.459733963013
 20
25.355422973633
 30
0.0
 11
18.445655822754
 21
25.375333786011
 31
0.0
  0
LINE
  5
291
100
AcDbEntity
  8
TFR-TRI
  6
CONTINUOUS
 62
           3
100
AcDbLine
 10
30.679845809937
 20
25.502523422241
 30
0.0
 11
30.696315765381
 21
25.502523422241
 31
0.0
  0
LINE
  5
292
100
AcDbEntity
  8
TFR-TRI
  6
CONTINUOUS
 62
           3
100
AcDbLine
 10
33.125576019287
 20
0.789523124695
 30
0.0
 11
33.155723571777
 21
0.789523124695
 31
0.0
  0
LINE
  5
293
100
AcDbEntity
  8
TFR-TRI
  6
CONTINUOUS
 62
           3
100
AcDbLine
 10
21.065601348877
 20
0.862525165081
 30
0.0
 11
21.065601348877
 21
0.872524261475
 31
0.0
  0
LINE
  5
294
100
AcDbEntity
  8
TFR-TRI
  6
CONTINUOUS
 62
          93
100
AcDbLine
 10
15.387355804443
 20
25.388118743896
 30
0.0
 11
15.367690086365
 21
25.39252281189
 31
0.0
  0
LINE
  5
295
100
AcDbEntity
  8
TFR-TRI
  6
CONTINUOUS
 62
           3
100
AcDbLine
 10
32.200443267822
 20
0.762523174286
 30
0.0
 11
32.28044128418
 21
0.789523124695
 31
0.0
  0
LINE
  5
296
100
AcDbEntity
  8
TFR-TRI
  6
CONTINUOUS
 62
          93
100
AcDbLine
 10
18.468774795532
 20
30.190900802612
 30
0.0
 11
18.459733963013
 21
30.199939727783
 31
0.0
  0
LINE
  5
297
100
AcDbEntity
  8
TFR-TRI
  6
CONTINUOUS
 62
           3
100
AcDbLine
 10
33.925430297852
 20
25.475522994995
 30
0.0
 11
33.893077850342
 21
25.475522994995
 31
0.0
  0
LINE
  5
298
100
AcDbEntity
  8
TFR-TRI
  6
CONTINUOUS
 62
           3
100
AcDbLine
 10
17.293844223022
 20
0.762523174286
 30
0.0
 11
17.275800704956
 21
0.762523174286
 31
0.0
  0
LINE
  5
299
100
AcDbEntity
  8
TFR-TRI
  6
CONTINUOUS
 62
          93
100
AcDbLine
 10
15.332334518433
 20
27.175510406494
 30
0.0
 11
18.482334136963
 21
30.325510025024
 31
0.0
  0
LINE
  5
29A
100
AcDbEntity
  8
TFR-TRI
  6
CONTINUOUS
 62
          93
100
AcDbLine
 10
15.332334518433
 20
27.102699279785
 30
0.0
 11
15.332334518433
 21
27.122610092163
 31
0.0
  0
LINE
  5
29B
100
AcDbEntity
  8
TFR-TRI
  6
CONTINUOUS
 62
          93
100
AcDbLine
 10
21.403100967407
 20
25.330335617065
 30
0.0
 11
21.403100967407
 21
25.355422973633
 31
0.0
  0
LINE
  5
29C
100
AcDbEntity
  8
TFR-TRI
  6
CONTINUOUS
 62
          93
100
AcDbLine
 10
33.610576629639
 20
21.385023117065
 30
0.0
 11
33.610576629639
 21
23.160022735596
 31
0.0
  0
LINE
  5
29D
100
AcDbEntity
  8
TFR-TRI
  6
CONTINUOUS
 62
          93
100
AcDbLine
 10
15.395974159241
 20
0.962523162365
 30
0.0
 11
15.395974159241
 21
25.302522659302
 31
0.0
  0
LINE
  5
29E
100
AcDbEntity
  8
TFR-TRI
  6
CONTINUOUS
 62
          93
100
AcDbLine
 10
15.405096054077
 20
27.173460006714
 30
0.0
 11
15.387355804443
 21
27.191200256348
 31
0.0
  0
LINE
  5
29F
100
AcDbEntity
  8
TFR-TRI
  6
CONTINUOUS
 62
           3
100
AcDbLine
 10
17.237730026245
 20
0.762523174286
 30
0.0
 11
17.225242614746
 21
0.762523174286
 31
0.0
  0
LINE
  5
2A0
100
AcDbEntity
  8
TFR-TRI
  6
CONTINUOUS
 62
           3
100
AcDbLine
 10
34.013816833496
 20
0.789523124695
 30
0.0
 11
34.018077850342
 21
0.789523124695
 31
0.0
  0
LINE
  5
2A1
100
AcDbEntity
  8
TFR-TRI
  6
CONTINUOUS
 62
           3
100
AcDbLine
 10
32.263694763184
 20
0.789523124695
 30
0.0
 11
32.276184082031
 21
0.789523124695
 31
0.0
  0
LINE
  5
2A2
100
AcDbEntity
  8
TFR-TRI
  6
CONTINUOUS
 62
          93
100
AcDbLine
 10
32.877014160156
 20
25.402523040771
 30
0.0
 11
32.877014160156
 21
25.462522506714
 31
0.0
  0
LINE
  5
2A3
100
AcDbEntity
  8
TFR-TRI
  6
CONTINUOUS
 62
          30
100
AcDbLine
 10
33.385585784912
 20
22.782522201538
 30
0.0
 11
33.610553741455
 21
22.782522201538
 31
0.0
  0
LINE
  5
2A4
100
AcDbEntity
  8
TFR-TRI
  6
CONTINUOUS
 62
          93
100
AcDbLine
 10
18.543102264404
 20
25.375333786011
 30
0.0
 11
18.543102264404
 21
25.388118743896
 31
0.0
  0
LINE
  5
2A5
100
AcDbEntity
  8
TFR-TRI
  6
CONTINUOUS
 62
          93
100
AcDbLine
 10
15.332334518433
 20
25.445335388184
 30
0.0
 11
15.332334518433
 21
25.458118438721
 31
0.0
  0
LINE
  5
2A6
100
AcDbEntity
  8
TFR-TRI
  6
CONTINUOUS
 62
           3
100
AcDbLine
 10
17.233434677124
 20
0.789523124695
 30
0.0
 11
17.265787124634
 21
0.789523124695
 31
0.0
  0
LINE
  5
2A7
100
AcDbEntity
  8
TFR-TRI
  6
CONTINUOUS
 62
          93
100
AcDbLine
 10
32.838077545166
 20
25.302522659302
 30
0.0
 11
33.568077087402
 21
25.302522659302
 31
0.0
  0
LINE
  5
2A8
100
AcDbEntity
  8
TFR-TRI
  6
CONTINUOUS
 62
          30
100
AcDbLine
 10
34.264087677002
 20
25.372522354126
 30
0.0
 11
34.267013549805
 21
25.372522354126
 31
0.0
  0
LINE
  5
2A9
100
AcDbEntity
  8
TFR-TRI
  6
CONTINUOUS
 62
          93
100
AcDbLine
 10
18.482334136963
 20
25.402523040771
 30
0.0
 11
18.482334136963
 21
25.462522506714
 31
0.0
  0
LINE
  5
2AA
100
AcDbEntity
  8
TFR-TRI
  6
CONTINUOUS
 62
           3
100
AcDbLine
 10
30.782344818115
 20
0.789523124695
 30
0.0
 11
30.782344818115
 21
0.802523136139
 31
0.0
  0
LINE
  5
2AB
100
AcDbEntity
  8
TFR-TRI
  6
CONTINUOUS
 62
          93
100
AcDbLine
 10
15.332334518433
 20
0.864711642265
 30
0.0
 11
15.332334518433
 21
0.839622497559
 31
0.0
  0
LINE
  5
2AC
100
AcDbEntity
  8
TFR-TRI
  6
CONTINUOUS
 62
           3
100
AcDbLine
 10
15.892689704895
 20
25.462522506714
 30
0.0
 11
15.892689704895
 21
25.475522994995
 31
0.0
  0
LINE
  5
2AD
100
AcDbEntity
  8
TFR-TRI
  6
CONTINUOUS
 62
           3
100
AcDbLine
 10
19.018100738525
 20
0.789523124695
 30
0.0
 11
19.022361755371
 21
0.789523124695
 31
0.0
  0
LINE
  5
2AE
100
AcDbEntity
  8
TFR-TRI
  6
CONTINUOUS
 62
          93
100
AcDbLine
 10
35.027015686035
 20
25.402523040771
 30
0.0
 11
35.027015686035
 21
25.462522506714
 31
0.0
  0
LINE
  5
2AF
100
AcDbEntity
  8
TFR-TRI
  6
CONTINUOUS
 62
          93
100
AcDbLine
 10
21.493101119995
 20
31.666572570801
 30
0.0
 11
21.486906051636
 21
31.666572570801
 31
0.0
  0
LINE
  5
2B0
100
AcDbEntity
  8
TFR-TRI
  6
CONTINUOUS
 62
           3
100
AcDbLine
 10
33.893077850342
 20
0.789523124695
 30
0.0
 11
33.925430297852
 21
0.789523124695
 31
0.0
  0
LINE
  5
2B1
100
AcDbEntity
  8
TFR-TRI
  6
CONTINUOUS
 62
          93
100
AcDbLine
 10
18.47188949585
 20
0.962523162365
 30
0.0
 11
18.481620788574
 21
0.962523162365
 31
0.0
  0
LINE
  5
2B2
100
AcDbEntity
  8
TFR-TRI
  6
CONTINUOUS
 62
           3
100
AcDbLine
 10
19.175453186035
 20
0.789523124695
 30
0.0
 11
19.205600738525
 21
0.789523124695
 31
0.0
  0
LINE
  5
2B3
100
AcDbEntity
  8
TFR-TRI
  6
CONTINUOUS
 62
          93
100
AcDbLine
 10
29.697015762329
 20
25.372522354126
 30
0.0
 11
29.637016296387
 21
25.372522354126
 31
0.0
  0
LINE
  5
2B4
100
AcDbEntity
  8
TFR-TRI
  6
CONTINUOUS
 62
           3
100
AcDbLine
 10
33.8046875
 20
25.475522994995
 30
0.0
 11
33.784824371338
 21
25.475522994995
 31
0.0
  0
LINE
  5
2B5
100
AcDbEntity
  8
TFR-TRI
  6
CONTINUOUS
 62
           3
100
AcDbLine
 10
32.03044128418
 20
0.789523124695
 30
0.0
 11
32.034702301025
 21
0.789523124695
 31
0.0
  0
LINE
  5
2B6
100
AcDbEntity
  8
TFR-TRI
  6
CONTINUOUS
 62
          93
100
AcDbLine
 10
21.430913925171
 20
0.962523162365
 30
0.0
 11
21.456003189087
 21
0.962523162365
 31
0.0
  0
LINE
  5
2B7
100
AcDbEntity
  8
TFR-TRI
  6
CONTINUOUS
 62
           3
100
AcDbLine
 10
21.031158447266
 20
0.762523174286
 30
0.0
 11
21.013114929199
 21
0.762523174286
 31
0.0
  0
LINE
  5
2B8
100
AcDbEntity
  8
TFR-TRI
  6
CONTINUOUS
 62
          93
100
AcDbLine
 10
14.92803478241
 20
21.227523803711
 30
0.0
 11
14.898034095764
 21
21.227523803711
 31
0.0
  0
LINE
  5
2B9
100
AcDbEntity
  8
TFR-TRI
  6
CONTINUOUS
 62
          93
100
AcDbLine
 10
15.332334518433
 20
25.302522659302
 30
0.0
 11
15.332334518433
 21
25.372522354126
 31
0.0
  0
LINE
  5
2BA
100
AcDbEntity
  8
TFR-TRI
  6
CONTINUOUS
 62
          93
100
AcDbLine
 10
34.788078308105
 20
3.297523260117
 30
0.0
 11
34.788078308105
 21
4.300023078918
 31
0.0
  0
LINE
  5
2BB
100
AcDbEntity
  8
TFR-TRI
  6
CONTINUOUS
 62
          30
100
AcDbLine
 10
1.523101806641
 20
25.355335235596
 30
0.0
 11
1.523101806641
 21
25.368118286133
 31
0.0
  0
LINE
  5
2BC
100
AcDbEntity
  8
TFR-TRI
  6
CONTINUOUS
 62
          93
100
AcDbLine
 10
21.475914001465
 20
25.302522659302
 30
0.0
 11
21.488697052002
 21
25.302522659302
 31
0.0
  0
LINE
  5
2BD
100
AcDbEntity
  8
TFR-TRI
  6
CONTINUOUS
 62
           3
100
AcDbLine
 10
19.175453186035
 20
25.475522994995
 30
0.0
 11
19.143100738525
 21
25.475522994995
 31
0.0
  0
LINE
  5
2BE
100
AcDbEntity
  8
TFR-TRI
  6
CONTINUOUS
 62
          93
100
AcDbLine
 10
34.848075866699
 20
2.055023193359
 30
0.0
 11
34.788078308105
 21
2.055023193359
 31
0.0
  0
LINE
  5
2BF
100
AcDbEntity
  8
TFR-TRI
  6
CONTINUOUS
 62
          93
100
AcDbLine
 10
29.727014541626
 20
0.802523136139
 30
0.0
 11
29.727014541626
 21
0.862523138523
 31
0.0
  0
LINE
  5
2C0
100
AcDbEntity
  8
TFR-TRI
  6
CONTINUOUS
 62
           3
100
AcDbLine
 10
17.140787124634
 20
0.789523124695
 30
0.0
 11
17.145046234131
 21
0.789523124695
 31
0.0
  0
LINE
  5
2C1
100
AcDbEntity
  8
TFR-TRI
  6
CONTINUOUS
 62
          93
100
AcDbLine
 10
29.724964141846
 20
25.375333786011
 30
0.0
 11
29.742704391479
 21
25.388118743896
 31
0.0
  0
LINE
  5
2C2
100
AcDbEntity
  8
TFR-TRI
  6
CONTINUOUS
 62
           3
100
AcDbLine
 10
17.22078704834
 20
25.502523422241
 30
0.0
 11
17.225242614746
 21
25.502523422241
 31
0.0
  0
LINE
  5
2C3
100
AcDbEntity
  8
TFR-TRI
  6
CONTINUOUS
 62
           3
100
AcDbLine
 10
21.09148979187
 20
0.789523124695
 30
0.0
 11
21.111354827881
 21
0.789523124695
 31
0.0
  0
LINE
  5
2C4
100
AcDbEntity
  8
TFR-TRI
  6
CONTINUOUS
 62
          93
100
AcDbLine
 10
32.748077392578
 20
0.962523162365
 30
0.0
 11
32.75248336792
 21
0.962523162365
 31
0.0
  0
LINE
  5
2C5
100
AcDbEntity
  8
TFR-TRI
  6
CONTINUOUS
 62
           3
100
AcDbLine
 10
33.830577850342
 20
0.872524261475
 30
0.0
 11
33.830577850342
 21
0.862525165081
 31
0.0
  0
LINE
  5
2C6
100
AcDbEntity
  8
TFR-TRI
  6
CONTINUOUS
 62
           3
100
AcDbLine
 10
33.830577850342
 20
25.402521133423
 30
0.0
 11
33.830577850342
 21
25.39252281189
 31
0.0
  0
LINE
  5
2C7
100
AcDbEntity
  8
TFR-TRI
  6
CONTINUOUS
 62
           3
100
AcDbLine
 10
19.018100738525
 20
0.789523124695
 30
0.0
 11
19.098100662231
 21
0.762523174286
 31
0.0
  0
LINE
  5
2C8
100
AcDbEntity
  8
TFR-TRI
  6
CONTINUOUS
 62
          93
100
AcDbLine
 10
34.848075866699
 20
5.542523384094
 30
0.0
 11
34.788078308105
 21
5.542523384094
 31
0.0
  0
LINE
  5
2C9
100
AcDbEntity
  8
TFR-TRI
  6
CONTINUOUS
 62
          93
100
AcDbLine
 10
33.338077545166
 20
0.932523131371
 30
0.0
 11
33.370429992676
 21
0.932523131371
 31
0.0
  0
LINE
  5
2CA
100
AcDbEntity
  8
TFR-TRI
  6
CONTINUOUS
 62
           3
100
AcDbLine
 10
15.705189704895
 20
25.402521133423
 30
0.0
 11
15.705189704895
 21
25.39252281189
 31
0.0
  0
LINE
  5
2CB
100
AcDbEntity
  8
TFR-TRI
  6
CONTINUOUS
 62
           3
100
AcDbLine
 10
32.21794128418
 20
25.39252281189
 30
0.0
 11
32.21794128418
 21
25.402521133423
 31
0.0
  0
LINE
  5
2CC
100
AcDbEntity
  8
TFR-TRI
  6
CONTINUOUS
 62
          93
100
AcDbLine
 10
29.637016296387
 20
25.302522659302
 30
0.0
 11
29.637016296387
 21
25.372522354126
 31
0.0
  0
LINE
  5
2CD
100
AcDbEntity
  8
TFR-TRI
  6
CONTINUOUS
 62
          93
100
AcDbLine
 10
29.724964141846
 20
0.889711618423
 30
0.0
 11
29.742704391479
 21
0.876928091049
 31
0.0
  0
LINE
  5
2CE
100
AcDbEntity
  8
TFR-TRI
  6
CONTINUOUS
 62
           3
100
AcDbLine
 10
17.293844223022
 20
25.502523422241
 30
0.0
 11
17.306329727173
 21
25.502523422241
 31
0.0
  0
LINE
  5
2CF
100
AcDbEntity
  8
TFR-TRI
  6
CONTINUOUS
 62
          93
100
AcDbLine
 10
35.268077850342
 20
11.660022735596
 30
0.0
 11
35.518077850342
 21
11.910022735596
 31
0.0
  0
LINE
  5
2D0
100
AcDbEntity
  8
TFR-TRI
  6
CONTINUOUS
 62
          93
100
AcDbLine
 10
35.518077850342
 20
6.385023117065
 30
0.0
 11
35.268077850342
 21
6.635023117065
 31
0.0
  0
LINE
  5
2D1
100
AcDbEntity
  8
TFR-TRI
  6
CONTINUOUS
 62
          93
100
AcDbLine
 10
34.218078613281
 20
25.262523651123
 30
0.0
 11
34.218078613281
 21
25.302522659302
 31
0.0
  0
LINE
  5
2D2
100
AcDbEntity
  8
TFR-TRI
  6
CONTINUOUS
 62
          30
100
AcDbLine
 10
34.218074798584
 20
25.372522354126
 30
0.0
 11
34.257015228271
 21
25.372522354126
 31
0.0
  0
LINE
  5
2D3
100
AcDbEntity
  8
TFR-TRI
  6
CONTINUOUS
 62
          93
100
AcDbLine
 10
33.405578613281
 20
9.010023117065
 30
0.0
 11
35.268077850342
 21
9.010023117065
 31
0.0
  0
LINE
  5
2D4
100
AcDbEntity
  8
TFR-TRI
  6
CONTINUOUS
 62
           3
100
AcDbLine
 10
15.830189704895
 20
0.862525165081
 30
0.0
 11
15.830189704895
 21
0.872524261475
 31
0.0
  0
LINE
  5
2D5
100
AcDbEntity
  8
TFR-TRI
  6
CONTINUOUS
 62
           3
100
AcDbLine
 10
32.21794128418
 20
0.862525165081
 30
0.0
 11
32.21794128418
 21
0.872524261475
 31
0.0
  0
LINE
  5
2D6
100
AcDbEntity
  8
TFR-TRI
  6
CONTINUOUS
 62
           3
100
AcDbLine
 10
33.784824371338
 20
0.789523124695
 30
0.0
 11
33.8046875
 21
0.789523124695
 31
0.0
  0
LINE
  5
2D7
100
AcDbEntity
  8
TFR-TRI
  6
CONTINUOUS
 62
           3
100
AcDbLine
 10
19.231489181519
 20
25.475522994995
 30
0.0
 11
19.205600738525
 21
25.475522994995
 31
0.0
  0
LINE
  5
2D8
100
AcDbEntity
  8
TFR-TRI
  6
CONTINUOUS
 62
           3
100
AcDbLine
 10
21.128101348877
 20
25.475522994995
 30
0.0
 11
21.048101425171
 21
25.502523422241
 31
0.0
  0
LINE
  5
2D9
100
AcDbEntity
  8
TFR-TRI
  6
CONTINUOUS
 62
          93
100
AcDbLine
 10
15.428215026855
 20
27.150341033936
 30
0.0
 11
15.41917514801
 21
27.159379959106
 31
0.0
  0
LINE
  5
2DA
100
AcDbEntity
  8
TFR-TRI
  6
CONTINUOUS
 62
          93
100
AcDbLine
 10
15.332334518433
 20
0.962523162365
 30
0.0
 11
15.36677646637
 21
0.962523162365
 31
0.0
  0
LINE
  5
2DB
100
AcDbEntity
  8
TFR-TRI
  6
CONTINUOUS
 62
          93
100
AcDbLine
 10
33.426464080811
 20
0.872523128986
 30
0.0
 11
33.400577545166
 21
0.872523128986
 31
0.0
  0
LINE
  5
2DC
100
AcDbEntity
  8
TFR-TRI
  6
CONTINUOUS
 62
          30
100
AcDbLine
 10
32.809803009033
 20
0.952523171902
 30
0.0
 11
33.125591278076
 21
0.952523171902
 31
0.0
  0
LINE
  5
2DD
100
AcDbEntity
  8
TFR-TRI
  6
CONTINUOUS
 62
          93
100
AcDbLine
 10
32.745792388916
 20
0.962523162365
 30
0.0
 11
32.748077392578
 21
0.962523162365
 31
0.0
  0
LINE
  5
2DE
100
AcDbEntity
  8
TFR-TRI
  6
CONTINUOUS
 62
          93
100
AcDbLine
 10
15.353548049927
 20
27.154296875
 30
0.0
 11
15.388902664185
 21
27.189653396606
 31
0.0
  0
LINE
  5
2DF
100
AcDbEntity
  8
TFR-TRI
  6
CONTINUOUS
 62
          93
100
AcDbLine
 10
29.701845169067
 20
25.330335617065
 30
0.0
 11
29.710886001587
 21
25.355422973633
 31
0.0
  0
LINE
  5
2E0
100
AcDbEntity
  8
TFR-TRI
  6
CONTINUOUS
 62
          93
100
AcDbLine
 10
14.92803478241
 20
29.365510940552
 30
0.0
 11
14.898034095764
 21
29.365510940552
 31
0.0
  0
LINE
  5
2E1
100
AcDbEntity
  8
TFR-TRI
  6
CONTINUOUS
 62
          93
100
AcDbLine
 10
32.748077392578
 20
25.302522659302
 30
0.0
 11
32.75248336792
 21
25.302522659302
 31
0.0
  0
LINE
  5
2E2
100
AcDbEntity
  8
TFR-TRI
  6
CONTINUOUS
 62
          30
100
AcDbLine
 10
34.267013549805
 20
0.952523171902
 30
0.0
 11
34.267013549805
 21
0.892523169518
 31
0.0
  0
LINE
  5
2E3
100
AcDbEntity
  8
TFR-TRI
  6
CONTINUOUS
 62
          93
100
AcDbLine
 10
21.493101119995
 20
31.016572952271
 30
0.0
 11
21.486906051636
 21
31.016572952271
 31
0.0
  0
LINE
  5
2E4
100
AcDbEntity
  8
TFR-TRI
  6
CONTINUOUS
 62
          93
100
AcDbLine
 10
34.218078613281
 20
25.302522659302
 30
0.0
 11
34.218078613281
 21
25.330335617065
 31
0.0
  0
LINE
  5
2E5
100
AcDbEntity
  8
TFR-TRI
  6
CONTINUOUS
 62
          30
100
AcDbLine
 10
34.267013549805
 20
25.312522888184
 30
0.0
 11
34.267013549805
 21
25.308504104614
 31
0.0
  0
LINE
  5
2E6
100
AcDbEntity
  8
TFR-TRI
  6
CONTINUOUS
 62
           3
100
AcDbLine
 10
17.15753364563
 20
25.475522994995
 30
0.0
 11
17.145046234131
 21
25.475522994995
 31
0.0
  0
LINE
  5
2E7
100
AcDbEntity
  8
TFR-TRI
  6
CONTINUOUS
 62
          93
100
AcDbLine
 10
33.610576629639
 20
3.885023117065
 30
0.0
 11
33.610576629639
 21
5.660023212433
 31
0.0
  0
LINE
  5
2E8
100
AcDbEntity
  8
TFR-TRI
  6
CONTINUOUS
 62
          93
100
AcDbLine
 10
21.486906051636
 20
31.666572570801
 30
0.0
 11
21.469169616699
 21
31.666572570801
 31
0.0
  0
LINE
  5
2E9
100
AcDbEntity
  8
TFR-TRI
  6
CONTINUOUS
 62
           3
100
AcDbLine
 10
30.689697265625
 20
25.475522994995
 30
0.0
 11
30.657344818115
 21
25.475522994995
 31
0.0
  0
LINE
  5
2EA
100
AcDbEntity
  8
TFR-TRI
  6
CONTINUOUS
 62
          93
100
AcDbLine
 10
4.583034515381
 20
30.15550994873
 30
0.0
 11
1.708034515381
 21
30.15550994873
 31
0.0
  0
LINE
  5
2EB
100
AcDbEntity
  8
TFR-TRI
  6
CONTINUOUS
 62
           3
100
AcDbLine
 10
30.702344894409
 20
0.762523174286
 30
0.0
 11
30.697889328003
 21
0.762523174286
 31
0.0
  0
LINE
  5
2EC
100
AcDbEntity
  8
TFR-TRI
  6
CONTINUOUS
 62
          93
100
AcDbLine
 10
33.338077545166
 20
25.332523345947
 30
0.0
 11
33.338077545166
 21
25.39252281189
 31
0.0
  0
LINE
  5
2ED
100
AcDbEntity
  8
TFR-TRI
  6
CONTINUOUS
 62
          30
100
AcDbLine
 10
34.267013549805
 20
0.892523169518
 30
0.0
 11
34.264087677002
 21
0.892523169518
 31
0.0
  0
LINE
  5
2EE
100
AcDbEntity
  8
TFR-TRI
  6
CONTINUOUS
 62
           3
100
AcDbLine
 10
30.657344818115
 20
0.789523124695
 30
0.0
 11
30.689697265625
 21
0.789523124695
 31
0.0
  0
LINE
  5
2EF
100
AcDbEntity
  8
TFR-TRI
  6
CONTINUOUS
 62
           3
100
AcDbLine
 10
15.642689704895
 20
0.789523124695
 30
0.0
 11
15.722689628601
 21
0.762523174286
 31
0.0
  0
LINE
  5
2F0
100
AcDbEntity
  8
TFR-TRI
  6
CONTINUOUS
 62
          93
100
AcDbLine
 10
35.268077850342
 20
1.002523183823
 30
0.0
 11
35.518077850342
 21
1.252523183823
 31
0.0
  0
LINE
  5
2F1
100
AcDbEntity
  8
TFR-TRI
  6
CONTINUOUS
 62
           3
100
AcDbLine
 10
30.536603927612
 20
0.789523124695
 30
0.0
 11
30.549091339111
 21
0.789523124695
 31
0.0
  0
LINE
  5
2F2
100
AcDbEntity
  8
TFR-TRI
  6
CONTINUOUS
 62
          93
100
AcDbLine
 10
18.481620788574
 20
0.962523162365
 30
0.0
 11
18.493101119995
 21
0.962523162365
 31
0.0
  0
LINE
  5
2F3
100
AcDbEntity
  8
TFR-TRI
  6
CONTINUOUS
 62
           3
100
AcDbLine
 10
33.143077850342
 20
25.502523422241
 30
0.0
 11
33.149105072021
 21
25.502523422241
 31
0.0
  0
LINE
  5
2F4
100
AcDbEntity
  8
TFR-TRI
  6
CONTINUOUS
 62
          93
100
AcDbLine
 10
33.405578613281
 20
20.410022735596
 30
0.0
 11
35.268077850342
 21
20.410022735596
 31
0.0
  0
LINE
  5
2F5
100
AcDbEntity
  8
TFR-TRI
  6
CONTINUOUS
 62
           3
100
AcDbLine
 10
32.183498382568
 20
0.762523174286
 30
0.0
 11
32.165454864502
 21
0.762523174286
 31
0.0
  0
LINE
  5
2F6
100
AcDbEntity
  8
TFR-TRI
  6
CONTINUOUS
 62
           3
100
AcDbLine
 10
15.757676124573
 20
25.502523422241
 30
0.0
 11
15.777703285217
 21
25.502523422241
 31
0.0
  0
LINE
  5
2F7
100
AcDbEntity
  8
TFR-TRI
  6
CONTINUOUS
 62
           3
100
AcDbLine
 10
19.268100738525
 20
25.462522506714
 30
0.0
 11
19.268100738525
 21
25.475522994995
 31
0.0
  0
LINE
  5
2F8
100
AcDbEntity
  8
TFR-TRI
  6
CONTINUOUS
 62
           3
100
AcDbLine
 10
33.250576019287
 20
25.475522994995
 30
0.0
 11
33.220428466797
 21
25.475522994995
 31
0.0
  0
LINE
  5
2F9
100
AcDbEntity
  8
TFR-TRI
  6
CONTINUOUS
 62
           3
100
AcDbLine
 10
19.133087158203
 20
25.502523422241
 30
0.0
 11
19.153114318848
 21
25.502523422241
 31
0.0
  0
LINE
  5
2FA
100
AcDbEntity
  8
TFR-TRI
  6
CONTINUOUS
 62
           3
100
AcDbLine
 10
32.21794128418
 20
0.789523124695
 30
0.0
 11
32.243831634521
 21
0.789523124695
 31
0.0
  0
LINE
  5
2FB
100
AcDbEntity
  8
TFR-TRI
  6
CONTINUOUS
 62
           3
100
AcDbLine
 10
15.856078147888
 20
25.475522994995
 30
0.0
 11
15.830189704895
 21
25.475522994995
 31
0.0
  0
LINE
  5
2FC
100
AcDbEntity
  8
TFR-TRI
  6
CONTINUOUS
 62
          30
100
AcDbLine
 10
1.523101806641
 20
27.179916381836
 30
0.0
 11
1.523101806641
 21
27.192699432373
 31
0.0
  0
LINE
  5
2FD
100
AcDbEntity
  8
TFR-TRI
  6
CONTINUOUS
 62
           3
100
AcDbLine
 10
33.067337036133
 20
25.475522994995
 30
0.0
 11
33.063076019287
 21
25.475522994995
 31
0.0
  0
LINE
  5
2FE
100
AcDbEntity
  8
TFR-TRI
  6
CONTINUOUS
 62
          30
100
AcDbLine
 10
34.264087677002
 20
0.952523171902
 30
0.0
 11
34.267013549805
 21
0.952523171902
 31
0.0
  0
LINE
  5
2FF
100
AcDbEntity
  8
TFR-TRI
  6
CONTINUOUS
 62
           3
100
AcDbLine
 10
32.067054748535
 20
0.789523124695
 30
0.0
 11
32.09294128418
 21
0.789523124695
 31
0.0
  0
LINE
  5
300
100
AcDbEntity
  8
TFR-TRI
  6
CONTINUOUS
 62
           3
100
AcDbLine
 10
19.102558135986
 20
25.502523422241
 30
0.0
 11
19.115043640137
 21
25.502523422241
 31
0.0
  0
LINE
  5
301
100
AcDbEntity
  8
TFR-TRI
  6
CONTINUOUS
 62
           3
100
AcDbLine
 10
17.275800704956
 20
0.762523174286
 30
0.0
 11
17.255773544312
 21
0.762523174286
 31
0.0
  0
LINE
  5
302
100
AcDbEntity
  8
TFR-TRI
  6
CONTINUOUS
 62
           3
100
AcDbLine
 10
15.659436225891
 20
25.475522994995
 30
0.0
 11
15.646948814392
 21
25.475522994995
 31
0.0
  0
LINE
  5
303
100
AcDbEntity
  8
TFR-TRI
  6
CONTINUOUS
 62
          93
100
AcDbLine
 10
32.783264160156
 20
25.388118743896
 30
0.0
 11
32.802928924561
 21
25.39252281189
 31
0.0
  0
LINE
  5
304
100
AcDbEntity
  8
TFR-TRI
  6
CONTINUOUS
 62
           3
100
AcDbLine
 10
30.765598297119
 20
25.475522994995
 30
0.0
 11
30.745733261108
 21
25.475522994995
 31
0.0
  0
LINE
  5
305
100
AcDbEntity
  8
TFR-TRI
  6
CONTINUOUS
 62
          93
100
AcDbLine
 10
15.332334518433
 20
0.892523169518
 30
0.0
 11
15.332334518433
 21
0.962523162365
 31
0.0
  0
LINE
  5
306
100
AcDbEntity
  8
TFR-TRI
  6
CONTINUOUS
 62
          93
100
AcDbLine
 10
33.405578613281
 20
15.660022735596
 30
0.0
 11
35.268077850342
 21
15.660022735596
 31
0.0
  0
LINE
  5
307
100
AcDbEntity
  8
TFR-TRI
  6
CONTINUOUS
 62
          93
100
AcDbLine
 10
18.459733963013
 20
0.909622490406
 30
0.0
 11
18.445655822754
 21
0.889711618423
 31
0.0
  0
LINE
  5
308
100
AcDbEntity
  8
TFR-TRI
  6
CONTINUOUS
 62
           3
100
AcDbLine
 10
32.12308883667
 20
25.475522994995
 30
0.0
 11
32.09294128418
 21
25.475522994995
 31
0.0
  0
LINE
  5
309
100
AcDbEntity
  8
TFR-TRI
  6
CONTINUOUS
 62
          93
100
AcDbLine
 10
33.44633102417
 20
0.872523128986
 30
0.0
 11
33.426464080811
 21
0.872523128986
 31
0.0
  0
LINE
  5
30A
100
AcDbEntity
  8
TFR-TRI
  6
CONTINUOUS
 62
           3
100
AcDbLine
 10
15.735337257385
 20
0.789523124695
 30
0.0
 11
15.767689704895
 21
0.789523124695
 31
0.0
  0
LINE
  5
30B
100
AcDbEntity
  8
TFR-TRI
  6
CONTINUOUS
 62
           3
100
AcDbLine
 10
17.203287124634
 20
25.402521133423
 30
0.0
 11
17.203287124634
 21
25.39252281189
 31
0.0
  0
LINE
  5
30C
100
AcDbEntity
  8
TFR-TRI
  6
CONTINUOUS
 62
          30
100
AcDbLine
 10
1.523101806641
 20
27.237699508667
 30
0.0
 11
1.523101806641
 21
27.265510559082
 31
0.0
  0
LINE
  5
30D
100
AcDbEntity
  8
TFR-TRI
  6
CONTINUOUS
 62
           3
100
AcDbLine
 10
17.255773544312
 20
25.502523422241
 30
0.0
 11
17.275800704956
 21
25.502523422241
 31
0.0
  0
LINE
  5
30E
100
AcDbEntity
  8
TFR-TRI
  6
CONTINUOUS
 62
          93
100
AcDbLine
 10
15.431329727173
 20
0.962523162365
 30
0.0
 11
15.428215026855
 21
0.934711635113
 31
0.0
  0
LINE
  5
30F
100
AcDbEntity
  8
TFR-TRI
  6
CONTINUOUS
 62
          93
100
AcDbLine
 10
18.445655822754
 20
25.375333786011
 30
0.0
 11
18.42791557312
 21
25.388118743896
 31
0.0
  0
LINE
  5
310
100
AcDbEntity
  8
TFR-TRI
  6
CONTINUOUS
 62
           3
100
AcDbLine
 10
30.696315765381
 20
25.502523422241
 30
0.0
 11
30.702344894409
 21
25.502523422241
 31
0.0
  0
LINE
  5
311
100
AcDbEntity
  8
TFR-TRI
  6
CONTINUOUS
 62
           3
100
AcDbLine
 10
33.155723571777
 20
0.789523124695
 30
0.0
 11
33.188076019287
 21
0.789523124695
 31
0.0
  0
LINE
  5
312
100
AcDbEntity
  8
TFR-TRI
  6
CONTINUOUS
 62
           3
100
AcDbLine
 10
33.143077850342
 20
25.502523422241
 30
0.0
 11
33.063076019287
 21
25.475522994995
 31
0.0
  0
LINE
  5
313
100
AcDbEntity
  8
TFR-TRI
  6
CONTINUOUS
 62
          93
100
AcDbLine
 10
7.928034305573
 20
21.227523803711
 30
0.0
 11
7.898034572601
 21
21.227523803711
 31
0.0
  0
LINE
  5
314
100
AcDbEntity
  8
TFR-TRI
  6
CONTINUOUS
 62
           3
100
AcDbLine
 10
20.940601348877
 20
0.872524261475
 30
0.0
 11
20.940601348877
 21
0.862525165081
 31
0.0
  0
LINE
  5
315
100
AcDbEntity
  8
TFR-TRI
  6
CONTINUOUS
 62
          93
100
AcDbLine
 10
18.459733963013
 20
30.199939727783
 30
0.0
 11
18.445655822754
 21
30.214019775391
 31
0.0
  0
LINE
  5
316
100
AcDbEntity
  8
TFR-TRI
  6
CONTINUOUS
 62
           3
100
AcDbLine
 10
17.203287124634
 20
25.475522994995
 30
0.0
 11
17.177398681641
 21
25.475522994995
 31
0.0
  0
LINE
  5
317
100
AcDbEntity
  8
TFR-TRI
  6
CONTINUOUS
 62
           3
100
AcDbLine
 10
33.852535247803
 20
0.762523174286
 30
0.0
 11
33.848075866699
 21
0.762523174286
 31
0.0
  0
LINE
  5
318
100
AcDbEntity
  8
TFR-TRI
  6
CONTINUOUS
 62
          93
100
AcDbLine
 10
15.332334518433
 20
25.372522354126
 30
0.0
 11
15.332334518433
 21
25.40033531189
 31
0.0
  0
LINE
  5
319
100
AcDbEntity
  8
TFR-TRI
  6
CONTINUOUS
 62
          93
100
AcDbLine
 10
21.403100967407
 20
25.355422973633
 30
0.0
 11
21.403100967407
 21
25.375333786011
 31
0.0
  0
LINE
  5
31A
100
AcDbEntity
  8
TFR-TRI
  6
CONTINUOUS
 62
          93
100
AcDbLine
 10
34.848075866699
 20
1.052523136139
 30
0.0
 11
34.848075866699
 21
2.055023193359
 31
0.0
  0
LINE
  5
31B
100
AcDbEntity
  8
TFR-TRI
  6
CONTINUOUS
 62
          93
100
AcDbLine
 10
15.431329727173
 20
0.962523162365
 30
0.0
 11
18.47188949585
 21
0.962523162365
 31
0.0
  0
LINE
  5
31C
100
AcDbEntity
  8
TFR-TRI
  6
CONTINUOUS
 62
          93
100
AcDbLine
 10
15.387355804443
 20
27.191200256348
 30
0.0
 11
15.367690086365
 21
27.210866928101
 31
0.0
  0
LINE
  5
31D
100
AcDbEntity
  8
TFR-TRI
  6
CONTINUOUS
 62
           3
100
AcDbLine
 10
17.310787200928
 20
0.762523174286
 30
0.0
 11
17.390787124634
 21
0.789523124695
 31
0.0
  0
LINE
  5
31E
100
AcDbEntity
  8
TFR-TRI
  6
CONTINUOUS
 62
           3
100
AcDbLine
 10
17.225242614746
 20
0.762523174286
 30
0.0
 11
17.22078704834
 21
0.762523174286
 31
0.0
  0
LINE
  5
31F
100
AcDbEntity
  8
TFR-TRI
  6
CONTINUOUS
 62
           3
100
AcDbLine
 10
33.768077850342
 20
0.789523124695
 30
0.0
 11
33.77233505249
 21
0.789523124695
 31
0.0
  0
LINE
  5
320
100
AcDbEntity
  8
TFR-TRI
  6
CONTINUOUS
 62
           3
100
AcDbLine
 10
15.892689704895
 20
0.789523124695
 30
0.0
 11
15.892689704895
 21
0.802523136139
 31
0.0
  0
LINE
  5
321
100
AcDbEntity
  8
TFR-TRI
  6
CONTINUOUS
 62
          93
100
AcDbLine
 10
18.543102264404
 20
25.388118743896
 30
0.0
 11
18.543102264404
 21
25.39252281189
 31
0.0
  0
LINE
  5
322
100
AcDbEntity
  8
TFR-TRI
  6
CONTINUOUS
 62
          93
100
AcDbLine
 10
15.332334518433
 20
25.458118438721
 30
0.0
 11
15.332334518433
 21
25.462522506714
 31
0.0
  0
LINE
  5
323
100
AcDbEntity
  8
TFR-TRI
  6
CONTINUOUS
 62
          93
100
AcDbLine
 10
18.543102264404
 20
30.200977325439
 30
0.0
 11
18.543102264404
 21
30.213760375977
 31
0.0
  0
LINE
  5
324
100
AcDbEntity
  8
TFR-TRI
  6
CONTINUOUS
 62
           3
100
AcDbLine
 10
17.265787124634
 20
0.789523124695
 30
0.0
 11
17.298139572144
 21
0.789523124695
 31
0.0
  0
LINE
  5
325
100
AcDbEntity
  8
TFR-TRI
  6
CONTINUOUS
 62
          93
100
AcDbLine
 10
32.838077545166
 20
0.962523162365
 30
0.0
 11
33.568077087402
 21
0.962523162365
 31
0.0
  0
LINE
  5
326
100
AcDbEntity
  8
TFR-TRI
  6
CONTINUOUS
 62
          93
100
AcDbLine
 10
1.928034543991
 20
29.365510940552
 30
0.0
 11
1.898034572601
 21
29.365510940552
 31
0.0
  0
LINE
  5
327
100
AcDbEntity
  8
TFR-TRI
  6
CONTINUOUS
 62
           3
100
AcDbLine
 10
30.697889328003
 20
0.762523174286
 30
0.0
 11
30.685401916504
 21
0.762523174286
 31
0.0
  0
LINE
  5
328
100
AcDbEntity
  8
TFR-TRI
  6
CONTINUOUS
 62
          93
100
AcDbLine
 10
21.403100967407
 20
0.962523162365
 30
0.0
 11
21.403100967407
 21
0.934711635113
 31
0.0
  0
LINE
  5
329
100
AcDbEntity
  8
TFR-TRI
  6
CONTINUOUS
 62
          93
100
AcDbLine
 10
35.027015686035
 20
0.862523138523
 30
0.0
 11
35.027015686035
 21
0.802523136139
 31
0.0
  0
LINE
  5
32A
100
AcDbEntity
  8
TFR-TRI
  6
CONTINUOUS
 62
          93
100
AcDbLine
 10
15.332334518433
 20
0.839622497559
 30
0.0
 11
15.332334518433
 21
0.819711625576
 31
0.0
  0
LINE
  5
32B
100
AcDbEntity
  8
TFR-TRI
  6
CONTINUOUS
 62
          93
100
AcDbLine
 10
32.748077392578
 20
0.962523162365
 30
0.0
 11
32.748077392578
 21
25.302522659302
 31
0.0
  0
LINE
  5
32C
100
AcDbEntity
  8
TFR-TRI
  6
CONTINUOUS
 62
           3
100
AcDbLine
 10
15.659436225891
 20
0.789523124695
 30
0.0
 11
15.679301261902
 21
0.789523124695
 31
0.0
  0
LINE
  5
32D
100
AcDbEntity
  8
TFR-TRI
  6
CONTINUOUS
 62
          93
100
AcDbLine
 10
33.463077545166
 20
25.332523345947
 30
0.0
 11
33.45881652832
 21
25.332523345947
 31
0.0
  0
LINE
  5
32E
100
AcDbEntity
  8
TFR-TRI
  6
CONTINUOUS
 62
          93
100
AcDbLine
 10
9.363034248352
 20
31.715511322021
 30
0.0
 11
4.583034515381
 21
31.715511322021
 31
0.0
  0
LINE
  5
32F
100
AcDbEntity
  8
TFR-TRI
  6
CONTINUOUS
 62
          30
100
AcDbLine
 10
1.583214402199
 20
27.175510406494
 30
0.0
 11
1.523101806641
 21
27.175510406494
 31
0.0
  0
LINE
  5
330
100
AcDbEntity
  8
TFR-TRI
  6
CONTINUOUS
 62
           3
100
AcDbLine
 10
19.205600738525
 20
0.789523124695
 30
0.0
 11
19.231489181519
 21
0.789523124695
 31
0.0
  0
LINE
  5
331
100
AcDbEntity
  8
TFR-TRI
  6
CONTINUOUS
 62
           3
100
AcDbLine
 10
34.001331329346
 20
25.475522994995
 30
0.0
 11
33.981464385986
 21
25.475522994995
 31
0.0
  0
LINE
  5
332
100
AcDbEntity
  8
TFR-TRI
  6
CONTINUOUS
 62
          93
100
AcDbLine
 10
32.751445770264
 20
25.355422973633
 30
0.0
 11
32.765522003174
 21
25.375333786011
 31
0.0
  0
LINE
  5
333
100
AcDbEntity
  8
TFR-TRI
  6
CONTINUOUS
 62
          93
100
AcDbLine
 10
21.403100967407
 20
30.196573257446
 30
0.0
 11
18.543102264404
 21
30.196573257446
 31
0.0
  0
LINE
  5
334
100
AcDbEntity
  8
TFR-TRI
  6
CONTINUOUS
 62
          93
100
AcDbLine
 10
21.456003189087
 20
0.962523162365
 30
0.0
 11
21.475914001465
 21
0.962523162365
 31
0.0
  0
LINE
  5
335
100
AcDbEntity
  8
TFR-TRI
  6
CONTINUOUS
 62
           3
100
AcDbLine
 10
19.183645248413
 20
25.502523422241
 30
0.0
 11
19.188100814819
 21
25.502523422241
 31
0.0
  0
LINE
  5
336
100
AcDbEntity
  8
TFR-TRI
  6
CONTINUOUS
 62
           3
100
AcDbLine
 10
21.043645858765
 20
25.502523422241
 30
0.0
 11
21.048101425171
 21
25.502523422241
 31
0.0
  0
LINE
  5
337
100
AcDbEntity
  8
TFR-TRI
  6
CONTINUOUS
 62
          93
100
AcDbLine
 10
32.739292144775
 20
0.962523162365
 30
0.0
 11
32.739292144775
 21
25.302522659302
 31
0.0
  0
LINE
  5
338
100
AcDbEntity
  8
TFR-TRI
  6
CONTINUOUS
 62
           3
100
AcDbLine
 10
33.784824371338
 20
25.475522994995
 30
0.0
 11
33.77233505249
 21
25.475522994995
 31
0.0
  0
LINE
  5
339
100
AcDbEntity
  8
TFR-TRI
  6
CONTINUOUS
 62
          30
100
AcDbLine
 10
1.523101806641
 20
25.368118286133
 30
0.0
 11
1.523101806641
 21
25.372522354126
 31
0.0
  0
LINE
  5
33A
100
AcDbEntity
  8
TFR-TRI
  6
CONTINUOUS
 62
          93
100
AcDbLine
 10
21.488697052002
 20
25.302522659302
 30
0.0
 11
21.493101119995
 21
25.302522659302
 31
0.0
  0
LINE
  5
33B
100
AcDbEntity
  8
TFR-TRI
  6
CONTINUOUS
 62
           3
100
AcDbLine
 10
19.143100738525
 20
25.475522994995
 30
0.0
 11
19.110748291016
 21
25.475522994995
 31
0.0
  0
LINE
  5
33C
100
AcDbEntity
  8
TFR-TRI
  6
CONTINUOUS
 62
           3
100
AcDbLine
 10
20.914712905884
 20
0.789523124695
 30
0.0
 11
20.940601348877
 21
0.789523124695
 31
0.0
  0
LINE
  5
33D
100
AcDbEntity
  8
TFR-TRI
  6
CONTINUOUS
 62
           3
100
AcDbLine
 10
33.768077850342
 20
0.802523136139
 30
0.0
 11
33.768077850342
 21
0.789523124695
 31
0.0
  0
LINE
  5
33E
100
AcDbEntity
  8
TFR-TRI
  6
CONTINUOUS
 62
           3
100
AcDbLine
 10
17.225242614746
 20
25.502523422241
 30
0.0
 11
17.237730026245
 21
25.502523422241
 31
0.0
  0
LINE
  5
33F
100
AcDbEntity
  8
TFR-TRI
  6
CONTINUOUS
 62
          93
100
AcDbLine
 10
32.877014160156
 20
0.862523138523
 30
0.0
 11
32.877014160156
 21
0.802523136139
 31
0.0
  0
LINE
  5
340
100
AcDbEntity
  8
TFR-TRI
  6
CONTINUOUS
 62
          93
100
AcDbLine
 10
29.727014541626
 20
25.402523040771
 30
0.0
 11
32.877014160156
 21
25.402523040771
 31
0.0
  0
LINE
  5
341
100
AcDbEntity
  8
TFR-TRI
  6
CONTINUOUS
 62
           3
100
AcDbLine
 10
33.23307800293
 20
0.762523174286
 30
0.0
 11
33.228622436523
 21
0.762523174286
 31
0.0
  0
LINE
  5
342
100
AcDbEntity
  8
TFR-TRI
  6
CONTINUOUS
 62
           3
100
AcDbLine
 10
21.111354827881
 20
0.789523124695
 30
0.0
 11
21.12384223938
 21
0.789523124695
 31
0.0
  0
LINE
  5
343
100
AcDbEntity
  8
TFR-TRI
  6
CONTINUOUS
 62
          93
100
AcDbLine
 10
32.75248336792
 20
0.962523162365
 30
0.0
 11
32.765266418457
 21
0.962523162365
 31
0.0
  0
LINE
  5
344
100
AcDbEntity
  8
TFR-TRI
  6
CONTINUOUS
 62
           3
100
AcDbLine
 10
33.955577850342
 20
25.39252281189
 30
0.0
 11
33.955577850342
 21
25.402521133423
 31
0.0
  0
LINE
  5
345
100
AcDbEntity
  8
TFR-TRI
  6
CONTINUOUS
 62
          93
100
AcDbLine
 10
33.370429992676
 20
0.872523128986
 30
0.0
 11
33.338077545166
 21
0.872523128986
 31
0.0
  0
LINE
  5
346
100
AcDbEntity
  8
TFR-TRI
  6
CONTINUOUS
 62
          93
100
AcDbLine
 10
34.788078308105
 20
5.542523384094
 30
0.0
 11
34.788078308105
 21
6.545022964478
 31
0.0
  0
LINE
  5
347
100
AcDbEntity
  8
TFR-TRI
  6
CONTINUOUS
 62
          93
100
AcDbLine
 10
32.785175323486
 20
25.302522659302
 30
0.0
 11
32.810264587402
 21
25.302522659302
 31
0.0
  0
LINE
  5
348
100
AcDbEntity
  8
TFR-TRI
  6
CONTINUOUS
 62
          93
100
AcDbLine
 10
15.367690086365
 20
25.39252281189
 30
0.0
 11
15.367690086365
 21
25.332523345947
 31
0.0
  0
LINE
  5
349
100
AcDbEntity
  8
TFR-TRI
  6
CONTINUOUS
 62
           3
100
AcDbLine
 10
15.727146148682
 20
0.762523174286
 30
0.0
 11
15.722689628601
 21
0.762523174286
 31
0.0
  0
LINE
  5
34A
100
AcDbEntity
  8
TFR-TRI
  6
CONTINUOUS
 62
           3
100
AcDbLine
 10
33.063076019287
 20
0.789523124695
 30
0.0
 11
33.143077850342
 21
0.762523174286
 31
0.0
  0
LINE
  5
34B
100
AcDbEntity
  8
TFR-TRI
  6
CONTINUOUS
 62
          93
100
AcDbLine
 10
21.442335128784
 20
25.462522506714
 30
0.0
 11
18.482334136963
 21
25.462522506714
 31
0.0
  0
LINE
  5
34C
100
AcDbEntity
  8
TFR-TRI
  6
CONTINUOUS
 62
          30
100
AcDbLine
 10
1.523101806641
 20
0.929622471333
 30
0.0
 11
1.523101806641
 21
0.90971159935
 31
0.0
  0
LINE
  5
34D
100
AcDbEntity
  8
TFR-TRI
  6
CONTINUOUS
 62
           3
100
AcDbLine
 10
17.306329727173
 20
25.502523422241
 30
0.0
 11
17.310787200928
 21
25.502523422241
 31
0.0
  0
LINE
  5
34E
100
AcDbEntity
  8
TFR-TRI
  6
CONTINUOUS
 62
          93
100
AcDbLine
 10
33.405578613281
 20
6.635023117065
 30
0.0
 11
35.268077850342
 21
6.635023117065
 31
0.0
  0
LINE
  5
34F
100
AcDbEntity
  8
TFR-TRI
  6
CONTINUOUS
 62
           3
100
AcDbLine
 10
33.955577850342
 20
0.789523124695
 30
0.0
 11
33.981464385986
 21
0.789523124695
 31
0.0
  0
LINE
  5
350
100
AcDbEntity
  8
TFR-TRI
  6
CONTINUOUS
 62
          93
100
AcDbLine
 10
32.802928924561
 20
0.872523128986
 30
0.0
 11
32.802928924561
 21
0.879670619965
 31
0.0
  0
LINE
  5
351
100
AcDbEntity
  8
TFR-TRI
  6
CONTINUOUS
 62
          93
100
AcDbLine
 10
34.218078613281
 20
25.302522659302
 30
0.0
 11
33.568077087402
 21
25.302522659302
 31
0.0
  0
LINE
  5
352
100
AcDbEntity
  8
TFR-TRI
  6
CONTINUOUS
 62
          93
100
AcDbLine
 10
14.898034095764
 20
29.615510940552
 30
0.0
 11
14.92803478241
 21
29.615510940552
 31
0.0
  0
LINE
  5
353
100
AcDbEntity
  8
TFR-TRI
  6
CONTINUOUS
 62
          93
100
AcDbLine
 10
29.742704391479
 20
0.876928091049
 30
0.0
 11
29.762371063232
 21
0.872523128986
 31
0.0
  0
LINE
  5
354
100
AcDbEntity
  8
TFR-TRI
  6
CONTINUOUS
 62
          93
100
AcDbLine
 10
33.426464080811
 20
25.332523345947
 30
0.0
 11
33.400577545166
 21
25.332523345947
 31
0.0
  0
LINE
  5
355
100
AcDbEntity
  8
TFR-TRI
  6
CONTINUOUS
 62
          93
100
AcDbLine
 10
33.400577545166
 20
0.932523131371
 30
0.0
 11
33.426464080811
 21
0.932523131371
 31
0.0
  0
LINE
  5
356
100
AcDbEntity
  8
TFR-TRI
  6
CONTINUOUS
 62
          93
100
AcDbLine
 10
32.765522003174
 20
25.375333786011
 30
0.0
 11
32.783264160156
 21
25.388118743896
 31
0.0
  0
LINE
  5
357
100
AcDbEntity
  8
TFR-TRI
  6
CONTINUOUS
 62
          93
100
AcDbLine
 10
34.788078308105
 20
1.052523136139
 30
0.0
 11
34.788078308105
 21
2.055023193359
 31
0.0
  0
LINE
  5
358
100
AcDbEntity
  8
TFR-TRI
  6
CONTINUOUS
 62
          93
100
AcDbLine
 10
32.838077545166
 20
0.872523128986
 30
0.0
 11
33.338077545166
 21
0.872523128986
 31
0.0
  0
LINE
  5
359
100
AcDbEntity
  8
TFR-TRI
  6
CONTINUOUS
 62
          30
100
AcDbLine
 10
1.523101806641
 20
27.265510559082
 30
0.0
 11
1.523101806641
 21
30.15550994873
 31
0.0
  0
LINE
  5
35A
100
AcDbEntity
  8
TFR-TRI
  6
CONTINUOUS
 62
          93
100
AcDbLine
 10
15.332334518433
 20
0.802523136139
 30
0.0
 11
18.482334136963
 21
0.802523136139
 31
0.0
  0
LINE
  5
35B
100
AcDbEntity
  8
TFR-TRI
  6
CONTINUOUS
 62
           3
100
AcDbLine
 10
17.265787124634
 20
25.475522994995
 30
0.0
 11
17.233434677124
 21
25.475522994995
 31
0.0
  0
LINE
  5
35C
100
AcDbEntity
  8
TFR-TRI
  6
CONTINUOUS
 62
          93
100
AcDbLine
 10
1.583034515381
 20
27.102699279785
 30
0.0
 11
1.583034515381
 21
27.122610092163
 31
0.0
  0
LINE
  5
35D
100
AcDbEntity
  8
TFR-TRI
  6
CONTINUOUS
 62
          93
100
AcDbLine
 10
32.739292144775
 20
25.302522659302
 30
0.0
 11
32.742404937744
 21
25.330335617065
 31
0.0
  0
LINE
  5
35E
100
AcDbEntity
  8
TFR-TRI
  6
CONTINUOUS
 62
          93
100
AcDbLine
 10
15.36677646637
 20
0.962523162365
 30
0.0
 11
15.395974159241
 21
0.962523162365
 31
0.0
  0
LINE
  5
35F
100
AcDbEntity
  8
TFR-TRI
  6
CONTINUOUS
 62
           3
100
AcDbLine
 10
30.702344894409
 20
0.762523174286
 30
0.0
 11
30.782344818115
 21
0.789523124695
 31
0.0
  0
LINE
  5
360
100
AcDbEntity
  8
TFR-TRI
  6
CONTINUOUS
 62
          93
100
AcDbLine
 10
33.400577545166
 20
0.872523128986
 30
0.0
 11
33.370429992676
 21
0.872523128986
 31
0.0
  0
LINE
  5
361
100
AcDbEntity
  8
TFR-TRI
  6
CONTINUOUS
 62
          30
100
AcDbLine
 10
34.257015228271
 20
0.892523169518
 30
0.0
 11
34.257015228271
 21
0.952523171902
 31
0.0
  0
LINE
  5
362
100
AcDbEntity
  8
TFR-TRI
  6
CONTINUOUS
 62
           3
100
AcDbLine
 10
19.022361755371
 20
25.475522994995
 30
0.0
 11
19.018100738525
 21
25.475522994995
 31
0.0
  0
LINE
  5
363
100
AcDbEntity
  8
TFR-TRI
  6
CONTINUOUS
 62
          93
100
AcDbLine
 10
35.027015686035
 20
25.462522506714
 30
0.0
 11
32.877014160156
 21
25.462522506714
 31
0.0
  0
LINE
  5
364
100
AcDbEntity
  8
TFR-TRI
  6
CONTINUOUS
 62
          93
100
AcDbLine
 10
29.742704391479
 20
25.388118743896
 30
0.0
 11
29.762371063232
 21
25.39252281189
 31
0.0
  0
LINE
  5
365
100
AcDbEntity
  8
TFR-TRI
  6
CONTINUOUS
 62
          93
100
AcDbLine
 10
33.400577545166
 20
25.39252281189
 30
0.0
 11
33.426464080811
 21
25.39252281189
 31
0.0
  0
LINE
  5
366
100
AcDbEntity
  8
TFR-TRI
  6
CONTINUOUS
 62
           3
100
AcDbLine
 10
20.878101348877
 20
0.789523124695
 30
0.0
 11
20.882360458374
 21
0.789523124695
 31
0.0
  0
LINE
  5
367
100
AcDbEntity
  8
TFR-TRI
  6
CONTINUOUS
 62
           3
100
AcDbLine
 10
32.03044128418
 20
0.802523136139
 30
0.0
 11
32.03044128418
 21
0.789523124695
 31
0.0
  0
LINE
  5
368
100
AcDbEntity
  8
TFR-TRI
  6
CONTINUOUS
 62
          93
100
AcDbLine
 10
35.268077850342
 20
20.410022735596
 30
0.0
 11
35.518077850342
 21
20.660022735596
 31
0.0
  0
LINE
  5
369
100
AcDbEntity
  8
TFR-TRI
  6
CONTINUOUS
 62
          93
100
AcDbLine
 10
33.568077087402
 20
25.375333786011
 30
0.0
 11
33.568077087402
 21
25.388118743896
 31
0.0
  0
LINE
  5
36A
100
AcDbEntity
  8
TFR-TRI
  6
CONTINUOUS
 62
           3
100
AcDbLine
 10
30.657344818115
 20
25.475522994995
 30
0.0
 11
30.624992370605
 21
25.475522994995
 31
0.0
  0
LINE
  5
36B
100
AcDbEntity
  8
TFR-TRI
  6
CONTINUOUS
 62
          30
100
AcDbLine
 10
34.218074798584
 20
0.892523169518
 30
0.0
 11
34.257015228271
 21
0.892523169518
 31
0.0
  0
LINE
  5
36C
100
AcDbEntity
  8
TFR-TRI
  6
CONTINUOUS
 62
           3
100
AcDbLine
 10
20.894847869873
 20
0.789523124695
 30
0.0
 11
20.914712905884
 21
0.789523124695
 31
0.0
  0
LINE
  5
36D
100
AcDbEntity
  8
TFR-TRI
  6
CONTINUOUS
 62
           3
100
AcDbLine
 10
15.642689704895
 20
0.802523136139
 30
0.0
 11
15.642689704895
 21
0.789523124695
 31
0.0
  0
LINE
  5
36E
100
AcDbEntity
  8
TFR-TRI
  6
CONTINUOUS
 62
          93
100
AcDbLine
 10
1.583034515381
 20
27.122610092163
 30
0.0
 11
1.583034515381
 21
27.147699356079
 31
0.0
  0
LINE
  5
36F
100
AcDbEntity
  8
TFR-TRI
  6
CONTINUOUS
 62
           3
100
AcDbLine
 10
30.689697265625
 20
0.789523124695
 30
0.0
 11
30.719844818115
 21
0.789523124695
 31
0.0
  0
LINE
  5
370
100
AcDbEntity
  8
TFR-TRI
  6
CONTINUOUS
 62
          93
100
AcDbLine
 10
33.405578613281
 20
17.760023117065
 30
0.0
 11
35.268077850342
 21
17.760023117065
 31
0.0
  0
LINE
  5
371
100
AcDbEntity
  8
TFR-TRI
  6
CONTINUOUS
 62
          93
100
AcDbLine
 10
33.568077087402
 20
25.302522659302
 30
0.0
 11
33.568077087402
 21
25.330335617065
 31
0.0
  0
LINE
  5
372
100
AcDbEntity
  8
TFR-TRI
  6
CONTINUOUS
 62
          93
100
AcDbLine
 10
32.765522003174
 20
0.889711618423
 30
0.0
 11
32.783264160156
 21
0.876928091049
 31
0.0
  0
LINE
  5
373
100
AcDbEntity
  8
TFR-TRI
  6
CONTINUOUS
 62
          30
100
AcDbLine
 10
34.267013549805
 20
25.312522888184
 30
0.0
 11
34.264087677002
 21
25.312522888184
 31
0.0
  0
LINE
  5
374
100
AcDbEntity
  8
TFR-TRI
  6
CONTINUOUS
 62
           3
100
AcDbLine
 10
30.549091339111
 20
0.789523124695
 30
0.0
 11
30.568956375122
 21
0.789523124695
 31
0.0
  0
LINE
  5
375
100
AcDbEntity
  8
TFR-TRI
  6
CONTINUOUS
 62
          93
100
AcDbLine
 10
34.218078613281
 20
0.934711635113
 30
0.0
 11
34.218078613281
 21
0.909622490406
 31
0.0
  0
LINE
  5
376
100
AcDbEntity
  8
TFR-TRI
  6
CONTINUOUS
 62
           3
100
AcDbLine
 10
33.149105072021
 20
25.502523422241
 30
0.0
 11
33.165576934814
 21
25.502523422241
 31
0.0
  0
LINE
  5
377
100
AcDbEntity
  8
TFR-TRI
  6
CONTINUOUS
 62
          93
100
AcDbLine
 10
15.332334518433
 20
0.862523138523
 30
0.0
 11
18.482334136963
 21
0.862523138523
 31
0.0
  0
LINE
  5
378
100
AcDbEntity
  8
TFR-TRI
  6
CONTINUOUS
 62
           3
100
AcDbLine
 10
32.165454864502
 20
0.762523174286
 30
0.0
 11
32.145427703857
 21
0.762523174286
 31
0.0
  0
LINE
  5
379
100
AcDbEntity
  8
TFR-TRI
  6
CONTINUOUS
 62
           3
100
AcDbLine
 10
15.777703285217
 20
25.502523422241
 30
0.0
 11
15.795746803284
 21
25.502523422241
 31
0.0
  0
LINE
  5
37A
100
AcDbEntity
  8
TFR-TRI
  6
CONTINUOUS
 62
          93
100
AcDbLine
 10
29.762371063232
 20
0.872523128986
 30
0.0
 11
32.802928924561
 21
0.872523128986
 31
0.0
  0
LINE
  5
37B
100
AcDbEntity
  8
TFR-TRI
  6
CONTINUOUS
 62
           3
100
AcDbLine
 10
33.220428466797
 20
25.475522994995
 30
0.0
 11
33.188076019287
 21
25.475522994995
 31
0.0
  0
LINE
  5
37C
100
AcDbEntity
  8
TFR-TRI
  6
CONTINUOUS
 62
          93
100
AcDbLine
 10
21.469169616699
 20
31.016572952271
 30
0.0
 11
21.442335128784
 21
31.016572952271
 31
0.0
  0
LINE
  5
37D
100
AcDbEntity
  8
TFR-TRI
  6
CONTINUOUS
 62
           3
100
AcDbLine
 10
32.195987701416
 20
0.762523174286
 30
0.0
 11
32.183498382568
 21
0.762523174286
 31
0.0
  0
LINE
  5
37E
100
AcDbEntity
  8
TFR-TRI
  6
CONTINUOUS
 62
           3
100
AcDbLine
 10
32.15544128418
 20
25.502523422241
 30
0.0
 11
32.17794418335
 21
25.502523422241
 31
0.0
  0
LINE
  5
37F
100
AcDbEntity
  8
TFR-TRI
  6
CONTINUOUS
 62
          30
100
AcDbLine
 10
34.267013549805
 20
0.956542372704
 30
0.0
 11
34.267013549805
 21
0.967523157597
 31
0.0
  0
LINE
  5
380
100
AcDbEntity
  8
TFR-TRI
  6
CONTINUOUS
 62
           3
100
AcDbLine
 10
32.09294128418
 20
0.789523124695
 30
0.0
 11
32.12308883667
 21
0.789523124695
 31
0.0
  0
LINE
  5
381
100
AcDbEntity
  8
TFR-TRI
  6
CONTINUOUS
 62
           3
100
AcDbLine
 10
15.646948814392
 20
25.475522994995
 30
0.0
 11
15.642689704895
 21
25.475522994995
 31
0.0
  0
LINE
  5
382
100
AcDbEntity
  8
TFR-TRI
  6
CONTINUOUS
 62
           3
100
AcDbLine
 10
15.830189704895
 20
25.39252281189
 30
0.0
 11
15.830189704895
 21
25.402521133423
 31
0.0
  0
LINE
  5
383
100
AcDbEntity
  8
TFR-TRI
  6
CONTINUOUS
 62
           3
100
AcDbLine
 10
33.981464385986
 20
25.475522994995
 30
0.0
 11
33.955577850342
 21
25.475522994995
 31
0.0
  0
LINE
  5
384
100
AcDbEntity
  8
TFR-TRI
  6
CONTINUOUS
 62
           3
100
AcDbLine
 10
32.276184082031
 20
25.475522994995
 30
0.0
 11
32.263694763184
 21
25.475522994995
 31
0.0
  0
LINE
  5
385
100
AcDbEntity
  8
TFR-TRI
  6
CONTINUOUS
 62
           3
100
AcDbLine
 10
21.013114929199
 20
0.762523174286
 30
0.0
 11
20.993087768555
 21
0.762523174286
 31
0.0
  0
LINE
  5
386
100
AcDbEntity
  8
TFR-TRI
  6
CONTINUOUS
 62
          93
100
AcDbLine
 10
34.788078308105
 20
4.420022964478
 30
0.0
 11
34.788078308105
 21
5.422523021698
 31
0.0
  0
LINE
  5
387
100
AcDbEntity
  8
TFR-TRI
  6
CONTINUOUS
 62
          30
100
AcDbLine
 10
4.583034515381
 20
30.225511550903
 30
0.0
 11
4.568231105804
 21
30.225511550903
 31
0.0
  0
LINE
  5
388
100
AcDbEntity
  8
TFR-TRI
  6
CONTINUOUS
 62
           3
100
AcDbLine
 10
17.328287124634
 20
0.862525165081
 30
0.0
 11
17.328287124634
 21
0.872524261475
 31
0.0
  0
LINE
  5
389
100
AcDbEntity
  8
TFR-TRI
  6
CONTINUOUS
 62
          93
100
AcDbLine
 10
21.493101119995
 20
0.962523162365
 30
0.0
 11
21.493101119995
 21
25.302522659302
 31
0.0
  0
LINE
  5
38A
100
AcDbEntity
  8
TFR-TRI
  6
CONTINUOUS
 62
          93
100
AcDbLine
 10
18.445655822754
 20
0.889711618423
 30
0.0
 11
18.42791557312
 21
0.876928091049
 31
0.0
  0
LINE
  5
38B
100
AcDbEntity
  8
TFR-TRI
  6
CONTINUOUS
 62
          30
100
AcDbLine
 10
1.583214402199
 20
25.282522201538
 30
0.0
 11
1.523101806641
 21
25.282522201538
 31
0.0
  0
LINE
  5
38C
100
AcDbEntity
  8
TFR-TRI
  6
CONTINUOUS
 62
           3
100
AcDbLine
 10
33.308818817139
 20
0.789523124695
 30
0.0
 11
33.313076019287
 21
0.789523124695
 31
0.0
  0
LINE
  5
38D
100
AcDbEntity
  8
TFR-TRI
  6
CONTINUOUS
 62
           3
100
AcDbLine
 10
15.767689704895
 20
0.789523124695
 30
0.0
 11
15.800042152405
 21
0.789523124695
 31
0.0
  0
LINE
  5
38E
100
AcDbEntity
  8
TFR-TRI
  6
CONTINUOUS
 62
           3
100
AcDbLine
 10
17.328287124634
 20
25.39252281189
 30
0.0
 11
17.328287124634
 21
25.402521133423
 31
0.0
  0
LINE
  5
38F
100
AcDbEntity
  8
TFR-TRI
  6
CONTINUOUS
 62
          30
100
AcDbLine
 10
34.267013549805
 20
0.952523171902
 30
0.0
 11
34.267013549805
 21
0.956542372704
 31
0.0
  0
LINE
  5
390
100
AcDbEntity
  8
TFR-TRI
  6
CONTINUOUS
 62
          30
100
AcDbLine
 10
34.267013549805
 20
0.982523143291
 30
0.0
 11
34.267013549805
 21
1.002559900284
 31
0.0
  0
LINE
  5
391
100
AcDbEntity
  8
TFR-TRI
  6
CONTINUOUS
 62
          93
100
AcDbLine
 10
18.42791557312
 20
25.388118743896
 30
0.0
 11
18.408248901367
 21
25.39252281189
 31
0.0
  0
LINE
  5
392
100
AcDbEntity
  8
TFR-TRI
  6
CONTINUOUS
 62
           3
100
AcDbLine
 10
33.938076019287
 20
0.762523174286
 30
0.0
 11
33.933620452881
 21
0.762523174286
 31
0.0
  0
ARC
  5
393
100
AcDbEntity
  8
TFR-TRI
  6
CONTINUOUS
 62
          93
100
AcDbCircle
 10
35.205577850342
 20
3.411273241043
 30
0.0
 40
0.11249999702
100
AcDbArc
 50
180.0
 51
360.0
  0
ARC
  5
394
100
AcDbEntity
  8
TFR-TRI
  6
CONTINUOUS
 62
          93
100
AcDbCircle
 10
21.403100967407
 20
25.302522659302
 30
0.0
 40
0.090000003576
100
AcDbArc
 50
0.0
 51
90.0
  0
ARC
  5
395
100
AcDbEntity
  8
TFR-TRI
  6
CONTINUOUS
 62
          93
100
AcDbCircle
 10
32.838077545166
 20
0.962523162365
 30
0.0
 40
0.090000003576
100
AcDbArc
 50
180.0
 51
270.0
  0
ARC
  5
396
100
AcDbEntity
  8
TFR-TRI
  6
CONTINUOUS
 62
          93
100
AcDbCircle
 10
14.898034095764
 20
4.912523269653
 30
0.0
 40
0.125
100
AcDbArc
 50
90.0
 51
270.0
  0
ARC
  5
397
100
AcDbEntity
  8
TFR-TRI
  6
CONTINUOUS
 62
          93
100
AcDbCircle
 10
33.405578613281
 20
6.772522926331
 30
0.0
 40
0.13750000298
100
AcDbArc
 50
90.0
 51
270.0
  0
ARC
  5
398
100
AcDbEntity
  8
TFR-TRI
  6
CONTINUOUS
 62
          30
100
AcDbCircle
 10
1.533101797104
 20
30.15550994873
 30
0.0
 40
0.009999999776
100
AcDbArc
 50
90.0
 51
180.0
  0
ARC
  5
399
100
AcDbEntity
  8
TFR-TRI
  6
CONTINUOUS
 62
          93
100
AcDbCircle
 10
1.928034543991
 20
4.912523269653
 30
0.0
 40
0.125
100
AcDbArc
 50
270.0
 51
90.0
  0
ARC
  5
39A
100
AcDbEntity
  8
TFR-TRI
  6
CONTINUOUS
 62
          93
100
AcDbCircle
 10
33.498077392578
 20
12.635023117065
 30
0.0
 40
0.11249999702
100
AcDbArc
 50
180.0
 51
360.0
  0
ARC
  5
39B
100
AcDbEntity
  8
TFR-TRI
  6
CONTINUOUS
 62
          93
100
AcDbCircle
 10
33.405578613281
 20
17.897523880005
 30
0.0
 40
0.13750000298
100
AcDbArc
 50
90.0
 51
270.0
  0
ARC
  5
39C
100
AcDbEntity
  8
TFR-TRI
  6
CONTINUOUS
 62
          93
100
AcDbCircle
 10
32.838077545166
 20
25.302522659302
 30
0.0
 40
0.090000003576
100
AcDbArc
 50
90.0
 51
180.0
  0
CIRCLE
  5
39D
100
AcDbEntity
  8
TFR-TRI
  6
CONTINUOUS
 62
           3
100
AcDbCircle
 10
21.003101348877
 20
31.34157371521
 30
0.0
 40
0.125
  0
ARC
  5
39E
100
AcDbEntity
  8
TFR-TRI
  6
CONTINUOUS
 62
          93
100
AcDbCircle
 10
21.403100967407
 20
25.302522659302
 30
0.0
 40
0.029999999329
100
AcDbArc
 50
0.0
 51
90.0
  0
ARC
  5
39F
100
AcDbEntity
  8
TFR-TRI
  6
CONTINUOUS
 62
          93
100
AcDbCircle
 10
33.498077392578
 20
23.160022735596
 30
0.0
 40
0.11249999702
100
AcDbArc
 50
0.0
 51
180.0
  0
ARC
  5
3A0
100
AcDbEntity
  8
TFR-TRI
  6
CONTINUOUS
 62
          93
100
AcDbCircle
 10
29.727014541626
 20
25.372522354126
 30
0.0
 40
0.029999999329
100
AcDbArc
 50
90.0
 51
180.0
  0
ARC
  5
3A1
100
AcDbEntity
  8
TFR-TRI
  6
CONTINUOUS
 62
          93
100
AcDbCircle
 10
32.838077545166
 20
25.302522659302
 30
0.0
 40
0.029999999329
100
AcDbArc
 50
90.0
 51
180.0
  0
ARC
  5
3A2
100
AcDbEntity
  8
TFR-TRI
  6
CONTINUOUS
 62
          93
100
AcDbCircle
 10
14.898034095764
 20
29.490510940552
 30
0.0
 40
0.125
100
AcDbArc
 50
90.0
 51
270.0
  0
CIRCLE
  5
3A3
100
AcDbEntity
  8
TFR-TRI
  6
CONTINUOUS
 62
           3
100
AcDbCircle
 10
17.265787124634
 20
29.603937149048
 30
0.0
 40
0.045000001788
  0
ARC
  5
3A4
100
AcDbEntity
  8
TFR-TRI
  6
CONTINUOUS
 62
          93
100
AcDbCircle
 10
33.498077392578
 20
5.660023212433
 30
0.0
 40
0.11249999702
100
AcDbArc
 50
0.0
 51
180.0
  0
ARC
  5
3A5
100
AcDbEntity
  8
TFR-TRI
  6
CONTINUOUS
 62
          93
100
AcDbCircle
 10
21.403100967407
 20
0.962523162365
 30
0.0
 40
0.090000003576
100
AcDbArc
 50
270.0
 51
360.0
  0
CIRCLE
  5
3A6
100
AcDbEntity
  8
TFR-TRI
  6
CONTINUOUS
 62
           3
100
AcDbCircle
 10
15.767689704895
 20
28.105840682983
 30
0.0
 40
0.045000001788
  0
ARC
  5
3A7
100
AcDbEntity
  8
TFR-TRI
  6
CONTINUOUS
 62
          93
100
AcDbCircle
 10
33.498077392578
 20
3.885023117065
 30
0.0
 40
0.11249999702
100
AcDbArc
 50
180.0
 51
360.0
  0
ARC
  5
3A8
100
AcDbEntity
  8
TFR-TRI
  6
CONTINUOUS
 62
          93
100
AcDbCircle
 10
1.928034543991
 20
29.490510940552
 30
0.0
 40
0.125
100
AcDbArc
 50
270.0
 51
90.0
  0
ARC
  5
3A9
100
AcDbEntity
  8
TFR-TRI
  6
CONTINUOUS
 62
          30
100
AcDbCircle
 10
1.913101792336
 20
29.520511627197
 30
0.0
 40
0.125
100
AcDbArc
 50
180.0
 51
18.753749964817
  0
ARC
  5
3AA
100
AcDbEntity
  8
TFR-TRI
  6
CONTINUOUS
 62
          93
100
AcDbCircle
 10
33.405578613281
 20
20.272523880005
 30
0.0
 40
0.13750000298
100
AcDbArc
 50
90.0
 51
270.0
  0
CIRCLE
  5
3AB
100
AcDbEntity
  8
TFR-TRI
  6
CONTINUOUS
 62
           3
100
AcDbCircle
 10
14.913102149963
 20
21.352523803711
 30
0.0
 40
0.094999998808
  0
CIRCLE
  5
3AC
100
AcDbEntity
  8
TFR-TRI
  6
CONTINUOUS
 62
          30
100
AcDbCircle
 10
1.913101792336
 20
4.912523269653
 30
0.0
 40
0.125
  0
ARC
  5
3AD
100
AcDbEntity
  8
TFR-TRI
  6
CONTINUOUS
 62
          93
100
AcDbCircle
 10
1.708034515381
 20
30.03050994873
 30
0.0
 40
0.125
100
AcDbArc
 50
90.0
 51
180.0
  0
ARC
  5
3AE
100
AcDbEntity
  8
TFR-TRI
  6
CONTINUOUS
 62
          93
100
AcDbCircle
 10
35.205577850342
 20
4.186273097992
 30
0.0
 40
0.11249999702
100
AcDbArc
 50
0.0
 51
180.0
  0
ARC
  5
3AF
100
AcDbEntity
  8
TFR-TRI
  6
CONTINUOUS
 62
          93
100
AcDbCircle
 10
7.928034305573
 20
29.490510940552
 30
0.0
 40
0.125
100
AcDbArc
 50
270.0
 51
90.0
  0
ARC
  5
3B0
100
AcDbEntity
  8
TFR-TRI
  6
CONTINUOUS
 62
          93
100
AcDbCircle
 10
33.405578613281
 20
15.522522926331
 30
0.0
 40
0.13750000298
100
AcDbArc
 50
90.0
 51
270.0
  0
ARC
  5
3B1
100
AcDbEntity
  8
TFR-TRI
  6
CONTINUOUS
 62
          93
100
AcDbCircle
 10
7.898034572601
 20
29.490510940552
 30
0.0
 40
0.125
100
AcDbArc
 50
90.0
 51
270.0
  0
CIRCLE
  5
3B2
100
AcDbEntity
  8
TFR-TRI
  6
CONTINUOUS
 62
           3
100
AcDbCircle
 10
21.003101348877
 20
31.34157371521
 30
0.0
 40
0.045000001788
  0
ARC
  5
3B3
100
AcDbEntity
  8
TFR-TRI
  6
CONTINUOUS
 62
          93
100
AcDbCircle
 10
21.403100967407
 20
30.286573410034
 30
0.0
 40
0.090000003576
100
AcDbArc
 50
270.0
 51
360.0
  0
CIRCLE
  5
3B4
100
AcDbEntity
  8
TFR-TRI
  6
CONTINUOUS
 62
           3
100
AcDbCircle
 10
14.913102149963
 20
29.490510940552
 30
0.0
 40
0.094999998808
  0
ARC
  5
3B5
100
AcDbEntity
  8
TFR-TRI
  6
CONTINUOUS
 62
          93
100
AcDbCircle
 10
14.92803478241
 20
29.490510940552
 30
0.0
 40
0.125
100
AcDbArc
 50
270.0
 51
90.0
  0
CIRCLE
  5
3B6
100
AcDbEntity
  8
TFR-TRI
  6
CONTINUOUS
 62
           3
100
AcDbCircle
 10
19.143100738525
 20
30.636571884155
 30
0.0
 40
0.045000001788
  0
CIRCLE
  5
3B7
100
AcDbEntity
  8
TFR-TRI
  6
CONTINUOUS
 62
           3
100
AcDbCircle
 10
17.265787124634
 20
29.603937149048
 30
0.0
 40
0.125
  0
CIRCLE
  5
3B8
100
AcDbEntity
  8
TFR-TRI
  6
CONTINUOUS
 62
           3
100
AcDbCircle
 10
14.913102149963
 20
21.352523803711
 30
0.0
 40
0.124499998987
  0
CIRCLE
  5
3B9
100
AcDbEntity
  8
TFR-TRI
  6
CONTINUOUS
 62
          30
100
AcDbCircle
 10
1.913101792336
 20
21.352523803711
 30
0.0
 40
0.125
  0
ARC
  5
3BA
100
AcDbEntity
  8
TFR-TRI
  6
CONTINUOUS
 62
          93
100
AcDbCircle
 10
33.405578613281
 20
11.522522926331
 30
0.0
 40
0.13750000298
100
AcDbArc
 50
90.0
 51
270.0
  0
ARC
  5
3BB
100
AcDbEntity
  8
TFR-TRI
  6
CONTINUOUS
 62
          93
100
AcDbCircle
 10
29.727014541626
 20
25.372522354126
 30
0.0
 40
0.090000003576
100
AcDbArc
 50
90.0
 51
180.0
  0
ARC
  5
3BC
100
AcDbEntity
  8
TFR-TRI
  6
CONTINUOUS
 62
          93
100
AcDbCircle
 10
15.332334518433
 20
27.175510406494
 30
0.0
 40
0.029999999329
100
AcDbArc
 50
270.0
 51
315.0
  0
ARC
  5
3BD
100
AcDbEntity
  8
TFR-TRI
  6
CONTINUOUS
 62
          93
100
AcDbCircle
 10
21.403100967407
 20
30.286573410034
 30
0.0
 40
0.029999999329
100
AcDbArc
 50
270.0
 51
360.0
  0
ARC
  5
3BE
100
AcDbEntity
  8
TFR-TRI
  6
CONTINUOUS
 62
          93
100
AcDbCircle
 10
14.898034095764
 20
21.352523803711
 30
0.0
 40
0.125
100
AcDbArc
 50
90.0
 51
270.0
  0
CIRCLE
  5
3BF
100
AcDbEntity
  8
TFR-TRI
  6
CONTINUOUS
 62
           3
100
AcDbCircle
 10
15.767689704895
 20
28.105840682983
 30
0.0
 40
0.125
  0
CIRCLE
  5
3C0
100
AcDbEntity
  8
TFR-TRI
  6
CONTINUOUS
 62
          30
100
AcDbCircle
 10
14.913102149963
 20
29.490510940552
 30
0.0
 40
0.125
  0
ARC
  5
3C1
100
AcDbEntity
  8
TFR-TRI
  6
CONTINUOUS
 62
          93
100
AcDbCircle
 10
7.928034305573
 20
21.352523803711
 30
0.0
 40
0.125
100
AcDbArc
 50
270.0
 51
90.0
  0
ARC
  5
3C2
100
AcDbEntity
  8
TFR-TRI
  6
CONTINUOUS
 62
          93
100
AcDbCircle
 10
7.898034572601
 20
4.912523269653
 30
0.0
 40
0.125
100
AcDbArc
 50
90.0
 51
270.0
  0
CIRCLE
  5
3C3
100
AcDbEntity
  8
TFR-TRI
  6
CONTINUOUS
 62
          30
100
AcDbCircle
 10
14.913102149963
 20
4.912523269653
 30
0.0
 40
0.125
  0
ARC
  5
3C4
100
AcDbEntity
  8
TFR-TRI
  6
CONTINUOUS
 62
          93
100
AcDbCircle
 10
29.727014541626
 20
0.892523169518
 30
0.0
 40
0.090000003576
100
AcDbArc
 50
180.0
 51
270.0
  0
CIRCLE
  5
3C5
100
AcDbEntity
  8
TFR-TRI
  6
CONTINUOUS
 62
           3
100
AcDbCircle
 10
14.913102149963
 20
4.912523269653
 30
0.0
 40
0.094999998808
  0
CIRCLE
  5
3C6
100
AcDbEntity
  8
TFR-TRI
  6
CONTINUOUS
 62
           3
100
AcDbCircle
 10
21.003101348877
 20
30.636571884155
 30
0.0
 40
0.045000001788
  0
CIRCLE
  5
3C7
100
AcDbEntity
  8
TFR-TRI
  6
CONTINUOUS
 62
           3
100
AcDbCircle
 10
19.143100738525
 20
30.636571884155
 30
0.0
 40
0.125
  0
ARC
  5
3C8
100
AcDbEntity
  8
TFR-TRI
  6
CONTINUOUS
 62
          93
100
AcDbCircle
 10
14.92803478241
 20
4.912523269653
 30
0.0
 40
0.125
100
AcDbArc
 50
270.0
 51
90.0
  0
ARC
  5
3C9
100
AcDbEntity
  8
TFR-TRI
  6
CONTINUOUS
 62
          93
100
AcDbCircle
 10
18.493101119995
 20
30.166572570801
 30
0.0
 40
0.090000003576
100
AcDbArc
 50
90.0
 51
135.0
  0
ARC
  5
3CA
100
AcDbEntity
  8
TFR-TRI
  6
CONTINUOUS
 62
          93
100
AcDbCircle
 10
1.898034572601
 20
29.490510940552
 30
0.0
 40
0.125
100
AcDbArc
 50
90.0
 51
270.0
  0
ARC
  5
3CB
100
AcDbEntity
  8
TFR-TRI
  6
CONTINUOUS
 62
          93
100
AcDbCircle
 10
1.928034543991
 20
21.352523803711
 30
0.0
 40
0.125
100
AcDbArc
 50
270.0
 51
90.0
  0
CIRCLE
  5
3CC
100
AcDbEntity
  8
TFR-TRI
  6
CONTINUOUS
 62
           3
100
AcDbCircle
 10
14.913102149963
 20
4.912523269653
 30
0.0
 40
0.124499998987
  0
CIRCLE
  5
3CD
100
AcDbEntity
  8
TFR-TRI
  6
CONTINUOUS
 62
          30
100
AcDbCircle
 10
14.913102149963
 20
21.352523803711
 30
0.0
 40
0.125
  0
ARC
  5
3CE
100
AcDbEntity
  8
TFR-TRI
  6
CONTINUOUS
 62
          93
100
AcDbCircle
 10
33.498077392578
 20
14.410022735596
 30
0.0
 40
0.11249999702
100
AcDbArc
 50
0.0
 51
180.0
  0
ARC
  5
3CF
100
AcDbEntity
  8
TFR-TRI
  6
CONTINUOUS
 62
          93
100
AcDbCircle
 10
1.898034572601
 20
21.352523803711
 30
0.0
 40
0.125
100
AcDbArc
 50
90.0
 51
270.0
  0
ARC
  5
3D0
100
AcDbEntity
  8
TFR-TRI
  6
CONTINUOUS
 62
          93
100
AcDbCircle
 10
32.838077545166
 20
0.962523162365
 30
0.0
 40
0.029999999329
100
AcDbArc
 50
180.0
 51
270.0
  0
ARC
  5
3D1
100
AcDbEntity
  8
TFR-TRI
  6
CONTINUOUS
 62
          93
100
AcDbCircle
 10
21.403100967407
 20
0.962523162365
 30
0.0
 40
0.029999999329
100
AcDbArc
 50
270.0
 51
360.0
  0
ARC
  5
3D2
100
AcDbEntity
  8
TFR-TRI
  6
CONTINUOUS
 62
          93
100
AcDbCircle
 10
1.898034572601
 20
4.912523269653
 30
0.0
 40
0.125
100
AcDbArc
 50
90.0
 51
270.0
  0
ARC
  5
3D3
100
AcDbEntity
  8
TFR-TRI
  6
CONTINUOUS
 62
          93
100
AcDbCircle
 10
33.498077392578
 20
21.385023117065
 30
0.0
 40
0.11249999702
100
AcDbArc
 50
180.0
 51
360.0
  0
ARC
  5
3D4
100
AcDbEntity
  8
TFR-TRI
  6
CONTINUOUS
 62
          93
100
AcDbCircle
 10
29.727014541626
 20
0.892523169518
 30
0.0
 40
0.029999999329
100
AcDbArc
 50
180.0
 51
270.0
  0
ARC
  5
3D5
100
AcDbEntity
  8
TFR-TRI
  6
CONTINUOUS
 62
          30
100
AcDbCircle
 10
1.913101792336
 20
29.520511627197
 30
0.0
 40
0.125
100
AcDbArc
 50
161.049375667056
 51
180.0
  0
ARC
  5
3D6
100
AcDbEntity
  8
TFR-TRI
  6
CONTINUOUS
 62
          93
100
AcDbCircle
 10
7.928034305573
 20
4.912523269653
 30
0.0
 40
0.125
100
AcDbArc
 50
270.0
 51
90.0
  0
CIRCLE
  5
3D7
100
AcDbEntity
  8
TFR-TRI
  6
CONTINUOUS
 62
           3
100
AcDbCircle
 10
21.003101348877
 20
30.636571884155
 30
0.0
 40
0.125
  0
ARC
  5
3D8
100
AcDbEntity
  8
TFR-TRI
  6
CONTINUOUS
 62
          93
100
AcDbCircle
 10
15.332334518433
 20
27.175510406494
 30
0.0
 40
0.090000003576
100
AcDbArc
 50
270.0
 51
315.0
  0
CIRCLE
  5
3D9
100
AcDbEntity
  8
TFR-TRI
  6
CONTINUOUS
 62
           3
100
AcDbCircle
 10
14.913102149963
 20
29.490510940552
 30
0.0
 40
0.124499998987
  0
ARC
  5
3DA
100
AcDbEntity
  8
TFR-TRI
  6
CONTINUOUS
 62
          93
100
AcDbCircle
 10
14.92803478241
 20
21.352523803711
 30
0.0
 40
0.125
100
AcDbArc
 50
270.0
 51
90.0
  0
ARC
  5
3DB
100
AcDbEntity
  8
TFR-TRI
  6
CONTINUOUS
 62
          93
100
AcDbCircle
 10
33.405578613281
 20
9.147522926331
 30
0.0
 40
0.13750000298
100
AcDbArc
 50
90.0
 51
270.0
  0
ARC
  5
3DC
100
AcDbEntity
  8
TFR-TRI
  6
CONTINUOUS
 62
          93
100
AcDbCircle
 10
7.898034572601
 20
21.352523803711
 30
0.0
 40
0.125
100
AcDbArc
 50
90.0
 51
270.0
  0
ARC
  5
3DD
100
AcDbEntity
  8
TFR-TRI
  6
CONTINUOUS
 62
          30
100
AcDbCircle
 10
33.498016357422
 20
23.145023345947
 30
0.0
 40
0.11249999702
100
AcDbArc
 50
181.898437422198
 51
360.0
  0
ARC
  5
3DE
100
AcDbEntity
  8
TFR-TRI
  6
CONTINUOUS
 62
          93
100
AcDbCircle
 10
18.493101119995
 20
30.166572570801
 30
0.0
 40
0.029999999329
100
AcDbArc
 50
90.0
 51
135.0
  0
ENDSEC
  0
SECTION
  2
OBJECTS
  0
DICTIONARY
  5
19
100
AcDbDictionary
  3
ACAD_GROUP
350
1A
  3
ACAD_MLINESTYLE
350
1B
  3
ACDBVARIABLEDICTIONARY
350
3F9
  0
DICTIONARY
  5
1A
102
{ACAD_REACTORS
330
19
102
}
100
AcDbDictionary
  0
DICTIONARY
  5
1B
102
{ACAD_REACTORS
330
19
102
}
100
AcDbDictionary
  3
STANDARD
350
1C
  0
MLINESTYLE
  5
1C
102
{ACAD_REACTORS
330
1B
102
}
100
AcDbMlineStyle
  2
Standard
 70
           0
  3

 62
           0
 51
90.0
 52
90.0
 71
           2
 49
0.5
 62
         256
  6
ByLayer
 49
-0.5
 62
         256
  6
ByLayer
  0
DICTIONARY
  5
1E
102
{ACAD_REACTORS
330
19
102
}
100
AcDbDictionary
  3
MODEL
350
20
  3
LAYOUT1
350
21
  0
DICTIONARY
  5
22
102
{ACAD_REACTORS
330
19
102
}
100
AcDbDictionary
  0
DICTIONARY
  5
3F9
100
AcDbDictionary
  3
DIMADEC
350
3FA
  0
DICTIONARYVAR
  5
3FA
100
DictionaryVariables
280
           0
  1
0
  0
ENDSEC
  0
EOF
