  0
SECTION
  2
HEADER
  9
$ACADVER
  1
AC1015
  9
$ACADMAINTVER
 70
    20
  9
$DWGCODEPAGE
  3
ANSI_1252
  9
$INSBASE
 10
0.0
 20
0.0
 30
0.0
  9
$EXTMIN
 10
3.170134857296943
 20
2.829753719270229
 30
0.0
  9
$EXTMAX
 10
69.37740403413773
 20
30.19424802064896
 30
0.0
  9
$LIMMIN
 10
-0.5
 20
-0.5
  9
$LIMMAX
 10
5.0
 20
5.0
  9
$ORTHOMODE
 70
     0
  9
$REGENMODE
 70
     1
  9
$FILLMODE
 70
     1
  9
$QTEXTMODE
 70
     0
  9
$MIRRTEXT
 70
     1
  9
$LTSCALE
 40
1.0
  9
$ATTMODE
 70
     1
  9
$TEXTSIZE
 40
0.2
  9
$TRACEWID
 40
0.05
  9
$TEXTSTYLE
  7
Standard
  9
$CLAYER
  8
0
  9
$CELTYPE
  6
BYLAYER
  9
$CECOLOR
 62
   256
  9
$CELTSCALE
 40
1.0
  9
$DISPSILH
 70
     0
  9
$DIMSCALE
 40
1.0
  9
$DIMASZ
 40
0.18
  9
$DIMEXO
 40
0.0625
  9
$DIMDLI
 40
0.38
  9
$DIMRND
 40
0.0
  9
$DIMDLE
 40
0.0
  9
$DIMEXE
 40
0.18
  9
$DIMTP
 40
0.0
  9
$DIMTM
 40
0.0
  9
$DIMTXT
 40
0.18
  9
$DIMCEN
 40
0.09
  9
$DIMTSZ
 40
0.0
  9
$DIMTOL
 70
     0
  9
$DIMLIM
 70
     0
  9
$DIMTIH
 70
     1
  9
$DIMTOH
 70
     1
  9
$DIMSE1
 70
     0
  9
$DIMSE2
 70
     0
  9
$DIMTAD
 70
     0
  9
$DIMZIN
 70
     0
  9
$DIMBLK
  1

  9
$DIMASO
 70
     1
  9
$DIMSHO
 70
     1
  9
$DIMPOST
  1

  9
$DIMAPOST
  1

  9
$DIMALT
 70
     0
  9
$DIMALTD
 70
     2
  9
$DIMALTF
 40
25.4
  9
$DIMLFAC
 40
1.0
  9
$DIMTOFL
 70
     0
  9
$DIMTVP
 40
0.0
  9
$DIMTIX
 70
     0
  9
$DIMSOXD
 70
     0
  9
$DIMSAH
 70
     0
  9
$DIMBLK1
  1

  9
$DIMBLK2
  1

  9
$DIMSTYLE
  2
Standard
  9
$DIMCLRD
 70
     0
  9
$DIMCLRE
 70
     0
  9
$DIMCLRT
 70
     0
  9
$DIMTFAC
 40
1.0
  9
$DIMGAP
 40
0.09
  9
$DIMJUST
 70
     0
  9
$DIMSD1
 70
     0
  9
$DIMSD2
 70
     0
  9
$DIMTOLJ
 70
     1
  9
$DIMTZIN
 70
     0
  9
$DIMALTZ
 70
     0
  9
$DIMALTTZ
 70
     0
  9
$DIMUPT
 70
     0
  9
$DIMDEC
 70
     4
  9
$DIMTDEC
 70
     4
  9
$DIMALTU
 70
     2
  9
$DIMALTTD
 70
     2
  9
$DIMTXSTY
  7
Standard
  9
$DIMAUNIT
 70
     0
  9
$DIMADEC
 70
     0
  9
$DIMALTRND
 40
0.0
  9
$DIMAZIN
 70
     0
  9
$DIMDSEP
 70
    46
  9
$DIMATFIT
 70
     3
  9
$DIMFRAC
 70
     0
  9
$DIMLDRBLK
  1

  9
$DIMLUNIT
 70
     2
  9
$DIMLWD
 70
    -2
  9
$DIMLWE
 70
    -2
  9
$DIMTMOVE
 70
     0
  9
$LUNITS
 70
     2
  9
$LUPREC
 70
     4
  9
$SKETCHINC
 40
0.1
  9
$FILLETRAD
 40
0.5
  9
$AUNITS
 70
     0
  9
$AUPREC
 70
     0
  9
$MENU
  1
.
  9
$ELEVATION
 40
0.0
  9
$PELEVATION
 40
0.0
  9
$THICKNESS
 40
0.0
  9
$LIMCHECK
 70
     0
  9
$CHAMFERA
 40
0.5
  9
$CHAMFERB
 40
0.5
  9
$CHAMFERC
 40
1.0
  9
$CHAMFERD
 40
0.0
  9
$SKPOLY
 70
     0
  9
$TDCREATE
 40
2456668.449916945
  9
$TDUCREATE
 40
2456668.699916944
  9
$TDUPDATE
 40
2456668.450993761
  9
$TDUUPDATE
 40
2456668.700993762
  9
$TDINDWG
 40
0.0006258565
  9
$TDUSRTIMER
 40
0.0006258565
  9
$USRTIMER
 70
     1
  9
$ANGBASE
 50
0.0
  9
$ANGDIR
 70
     0
  9
$PDMODE
 70
     0
  9
$PDSIZE
 40
0.0
  9
$PLINEWID
 40
0.0
  9
$SPLFRAME
 70
     0
  9
$SPLINETYPE
 70
     6
  9
$SPLINESEGS
 70
     8
  9
$HANDSEED
  5
6C4
  9
$SURFTAB1
 70
     6
  9
$SURFTAB2
 70
     6
  9
$SURFTYPE
 70
     6
  9
$SURFU
 70
     6
  9
$SURFV
 70
     6
  9
$UCSBASE
  2

  9
$UCSNAME
  2

  9
$UCSORG
 10
0.0
 20
0.0
 30
0.0
  9
$UCSXDIR
 10
1.0
 20
0.0
 30
0.0
  9
$UCSYDIR
 10
0.0
 20
1.0
 30
0.0
  9
$UCSORTHOREF
  2

  9
$UCSORTHOVIEW
 70
     0
  9
$UCSORGTOP
 10
0.0
 20
0.0
 30
0.0
  9
$UCSORGBOTTOM
 10
0.0
 20
0.0
 30
0.0
  9
$UCSORGLEFT
 10
0.0
 20
0.0
 30
0.0
  9
$UCSORGRIGHT
 10
0.0
 20
0.0
 30
0.0
  9
$UCSORGFRONT
 10
0.0
 20
0.0
 30
0.0
  9
$UCSORGBACK
 10
0.0
 20
0.0
 30
0.0
  9
$PUCSBASE
  2

  9
$PUCSNAME
  2

  9
$PUCSORG
 10
0.0
 20
0.0
 30
0.0
  9
$PUCSXDIR
 10
1.0
 20
0.0
 30
0.0
  9
$PUCSYDIR
 10
0.0
 20
1.0
 30
0.0
  9
$PUCSORTHOREF
  2

  9
$PUCSORTHOVIEW
 70
     0
  9
$PUCSORGTOP
 10
0.0
 20
0.0
 30
0.0
  9
$PUCSORGBOTTOM
 10
0.0
 20
0.0
 30
0.0
  9
$PUCSORGLEFT
 10
0.0
 20
0.0
 30
0.0
  9
$PUCSORGRIGHT
 10
0.0
 20
0.0
 30
0.0
  9
$PUCSORGFRONT
 10
0.0
 20
0.0
 30
0.0
  9
$PUCSORGBACK
 10
0.0
 20
0.0
 30
0.0
  9
$USERI1
 70
     0
  9
$USERI2
 70
     0
  9
$USERI3
 70
     0
  9
$USERI4
 70
     0
  9
$USERI5
 70
     0
  9
$USERR1
 40
0.0
  9
$USERR2
 40
0.0
  9
$USERR3
 40
0.0
  9
$USERR4
 40
0.0
  9
$USERR5
 40
0.0
  9
$WORLDVIEW
 70
     1
  9
$SHADEDGE
 70
     3
  9
$SHADEDIF
 70
    70
  9
$TILEMODE
 70
     1
  9
$MAXACTVP
 70
    64
  9
$PINSBASE
 10
0.0
 20
0.0
 30
0.0
  9
$PLIMCHECK
 70
     0
  9
$PEXTMIN
 10
-0.5
 20
-0.5
 30
-0.5
  9
$PEXTMAX
 10
5.0
 20
5.0
 30
5.0
  9
$PLIMMIN
 10
-0.5
 20
-0.5
  9
$PLIMMAX
 10
5.0
 20
5.0
  9
$UNITMODE
 70
     0
  9
$VISRETAIN
 70
     1
  9
$PLINEGEN
 70
     0
  9
$PSLTSCALE
 70
     1
  9
$TREEDEPTH
 70
  3020
  9
$CMLSTYLE
  2
Standard
  9
$CMLJUST
 70
     0
  9
$CMLSCALE
 40
1.0
  9
$PROXYGRAPHICS
 70
     1
  9
$MEASUREMENT
 70
     0
  9
$CELWEIGHT
370
    -1
  9
$ENDCAPS
280
     0
  9
$JOINSTYLE
280
     0
  9
$LWDISPLAY
290
     0
  9
$INSUNITS
 70
     1
  9
$HYPERLINKBASE
  1

  9
$STYLESHEET
  1

  9
$XEDIT
290
     1
  9
$CEPSNTYPE
380
     0
  9
$PSTYLEMODE
290
     1
  9
$FINGERPRINTGUID
  2
{33E65EA0-D1AC-4D79-8B5A-1D1BDE07C568}
  9
$VERSIONGUID
  2
{6D252672-798D-4C49-9ED9-0CDA04D726F4}
  9
$EXTNAMES
290
     1
  9
$PSVPSCALE
 40
0.0
  9
$OLESTARTUP
290
     0
  0
ENDSEC
  0
SECTION
  2
CLASSES
  0
CLASS
  1
ACDBDICTIONARYWDFLT
  2
AcDbDictionaryWithDefault
  3
ObjectDBX Classes
 90
        0
280
     0
281
     0
  0
CLASS
  1
VISUALSTYLE
  2
AcDbVisualStyle
  3
ObjectDBX Classes
 90
     4095
280
     0
281
     0
  0
CLASS
  1
MATERIAL
  2
AcDbMaterial
  3
ObjectDBX Classes
 90
     1153
280
     0
281
     0
  0
CLASS
  1
TABLESTYLE
  2
AcDbTableStyle
  3
ObjectDBX Classes
 90
     4095
280
     0
281
     0
  0
CLASS
  1
SCALE
  2
AcDbScale
  3
ObjectDBX Classes
 90
     1153
280
     0
281
     0
  0
CLASS
  1
MLEADERSTYLE
  2
AcDbMLeaderStyle
  3
ACDB_MLEADERSTYLE_CLASS
 90
     4095
280
     0
281
     0
  0
CLASS
  1
SOLID_BACKGROUND
  2
AcDbSolidBackground
  3
SCENEOE
 90
     4095
280
     0
281
     0
  0
CLASS
  1
NPOCOLLECTION
  2
AcDbImpNonPersistentObjectsCollection
  3
ObjectDBX Classes
 90
     1153
280
     0
281
     0
  0
CLASS
  1
CELLSTYLEMAP
  2
AcDbCellStyleMap
  3
ObjectDBX Classes
 90
     1152
280
     0
281
     0
  0
CLASS
  1
DICTIONARYVAR
  2
AcDbDictionaryVar
  3
ObjectDBX Classes
 90
        0
280
     0
281
     0
  0
CLASS
  1
ACDBPLACEHOLDER
  2
AcDbPlaceHolder
  3
ObjectDBX Classes
 90
        0
280
     0
281
     0
  0
CLASS
  1
LAYOUT
  2
AcDbLayout
  3
ObjectDBX Classes
 90
        0
280
     0
281
     0
  0
ENDSEC
  0
SECTION
  2
TABLES
  0
TABLE
  2
VPORT
  5
8
330
0
100
AcDbSymbolTable
 70
    17
  0
VPORT
  5
29
330
8
100
AcDbSymbolTableRecord
100
AcDbViewportTableRecord
  2
DUMMY
 70
     0
 10
0.0
 20
0.0
 11
1.0
 21
1.0
 12
10.42990654205607
 22
4.5
 13
0.0
 23
0.0
 14
0.5
 24
0.5
 15
0.5
 25
0.5
 16
0.0
 26
0.0
 36
1.0
 17
0.0
 27
0.0
 37
0.0
 40
9.0
 41
1.972972972850328
 42
50.0
 43
0.0
 44
0.0
 50
0.0
 51
0.0
 71
     0
 72
   100
 73
     1
 74
     3
 75
     0
 76
     0
 77
     0
 78
     0
281
     0
 65
     1
110
0.0
120
0.0
130
0.0
111
1.0
121
0.0
131
0.0
112
0.0
122
1.0
132
0.0
 79
     0
146
0.0
  0
VPORT
  5
59B
330
8
100
AcDbSymbolTableRecord
100
AcDbViewportTableRecord
  2
*ACTIVE
 70
     0
 10
0.0
 20
0.0
 11
1.0
 21
1.0
 12
0.0
 22
0.0
 13
0.0
 23
0.0
 14
0.5
 24
0.5
 15
0.5
 25
0.5
 16
-0.0000000000000426
 26
0.0
 36
203.5211406310474
 17
36.27376902103424
 27
16.51200091838837
 37
0.0
 40
71.63950001053476
 41
2.125634517766497
 42
50.0
 43
57.97143795168154
 44
-57.97143795168154
 50
0.0
 51
0.0
 71
     0
 72
   100
 73
     1
 74
     3
 75
     0
 76
     0
 77
     0
 78
     0
281
     0
 65
     1
110
0.0
120
0.0
130
0.0
111
1.0
121
0.0
131
0.0
112
0.0
122
1.0
132
0.0
 79
     0
146
0.0
1001
ACAD_NAV_VCDISPLAY
1070
     3
  0
VPORT
  5
59C
330
8
100
AcDbSymbolTableRecord
100
AcDbViewportTableRecord
  2
L1
 70
     0
 10
0.0
 20
0.0
 11
1.0
 21
1.0
 12
19.72195223346352
 22
9.926784669980406
 13
0.0
 23
0.0
 14
0.5
 24
0.5
 15
0.5
 25
0.5
 16
0.7188730927569435
 26
-0.5850486126764432
 36
0.3754192287502549
 17
0.0
 27
0.0
 37
0.0
 40
66.26340723501293
 41
0.2679722866147828
 42
50.0
 43
57.97143795168154
 44
-57.97143795168154
 50
0.0
 51
0.0
 71
     0
 72
   100
 73
     1
 74
     3
 75
     0
 76
     0
 77
     0
 78
     0
281
     0
 65
     1
110
0.0
120
0.0
130
0.0
111
1.0
121
0.0
131
0.0
112
0.0
122
1.0
132
0.0
 79
     0
146
0.0
  0
VPORT
  5
59D
330
8
100
AcDbSymbolTableRecord
100
AcDbViewportTableRecord
  2
L2
 70
     0
 10
0.0
 20
0.0
 11
0.5
 21
1.0
 12
0.0
 22
0.0
 13
0.0
 23
0.0
 14
0.5
 24
0.5
 15
0.5
 25
0.5
 16
0.0
 26
-1.0
 36
0.0
 17
0.0
 27
0.0
 37
0.0
 40
63.83405916417192
 41
0.278170572076345
 42
50.0
 43
33.03753931372992
 44
-33.03753931372992
 50
0.0
 51
0.0
 71
     0
 72
   100
 73
     1
 74
     3
 75
     0
 76
     0
 77
     0
 78
     0
281
     0
 65
     1
110
0.0
120
0.0
130
0.0
111
1.0
121
0.0
131
0.0
112
0.0
122
1.0
132
0.0
 79
     0
146
0.0
  0
VPORT
  5
59E
330
8
100
AcDbSymbolTableRecord
100
AcDbViewportTableRecord
  2
L2
 70
     0
 10
0.5
 20
0.0
 11
1.0
 21
1.0
 12
0.0
 22
0.0
 13
0.0
 23
0.0
 14
0.5
 24
0.5
 15
0.5
 25
0.5
 16
1.0
 26
0.0
 36
0.0
 17
0.0
 27
0.0
 37
0.0
 40
63.83405916417192
 41
0.278170572076345
 42
50.0
 43
32.23197061103287
 44
-32.23197061103287
 50
0.0
 51
0.0
 71
     0
 72
   100
 73
     1
 74
     3
 75
     0
 76
     0
 77
     0
 78
     0
281
     0
 65
     1
110
0.0
120
0.0
130
0.0
111
1.0
121
0.0
131
0.0
112
0.0
122
1.0
132
0.0
 79
     0
146
0.0
  0
VPORT
  5
59F
330
8
100
AcDbSymbolTableRecord
100
AcDbViewportTableRecord
  2
L3
 70
     0
 10
0.0
 20
0.5
 11
1.0
 21
1.0
 12
0.0
 22
0.0
 13
0.0
 23
0.0
 14
0.5
 24
0.5
 15
0.5
 25
0.5
 16
0.0
 26
0.0
 36
1.0
 17
0.0
 27
0.0
 37
0.0
 40
8.989583333333333
 41
1.975259152424894
 42
50.0
 43
31.91702958208596
 44
-31.91702958208596
 50
0.0
 51
0.0
 71
     0
 72
   100
 73
     1
 74
     3
 75
     0
 76
     0
 77
     0
 78
     0
281
     0
 65
     1
110
0.0
120
0.0
130
0.0
111
1.0
121
0.0
131
0.0
112
0.0
122
1.0
132
0.0
 79
     0
146
0.0
  0
VPORT
  5
5A0
330
8
100
AcDbSymbolTableRecord
100
AcDbViewportTableRecord
  2
L3
 70
     0
 10
0.0
 20
0.0
 11
1.0
 21
0.5
 12
0.0
 22
0.0
 13
0.0
 23
0.0
 14
0.5
 24
0.5
 15
0.5
 25
0.5
 16
0.0
 26
-1.0
 36
0.0
 17
0.0
 27
0.0
 37
0.0
 40
63.83405916417192
 41
0.278170572076345
 42
50.0
 43
33.03753931372992
 44
-33.03753931372992
 50
0.0
 51
0.0
 71
     0
 72
   100
 73
     1
 74
     3
 75
     0
 76
     0
 77
     0
 78
     0
281
     0
 65
     1
110
0.0
120
0.0
130
0.0
111
1.0
121
0.0
131
0.0
112
0.0
122
1.0
132
0.0
 79
     0
146
0.0
  0
VPORT
  5
5A1
330
8
100
AcDbSymbolTableRecord
100
AcDbViewportTableRecord
  2
L4
 70
     0
 10
0.0
 20
0.5
 11
0.5
 21
1.0
 12
0.0
 22
0.0
 13
0.0
 23
0.0
 14
0.5
 24
0.5
 15
0.5
 25
0.5
 16
0.0
 26
0.0
 36
1.0
 17
0.0
 27
0.0
 37
0.0
 40
8.989583333333333
 41
1.975259152424894
 42
50.0
 43
31.91702958208596
 44
-31.91702958208596
 50
0.0
 51
0.0
 71
     0
 72
   100
 73
     1
 74
     3
 75
     0
 76
     0
 77
     0
 78
     0
281
     0
 65
     1
110
0.0
120
0.0
130
0.0
111
1.0
121
0.0
131
0.0
112
0.0
122
1.0
132
0.0
 79
     0
146
0.0
  0
VPORT
  5
5A2
330
8
100
AcDbSymbolTableRecord
100
AcDbViewportTableRecord
  2
L4
 70
     0
 10
0.0
 20
0.0
 11
0.5
 21
0.5
 12
0.0
 22
0.0
 13
0.0
 23
0.0
 14
0.5
 24
0.5
 15
0.5
 25
0.5
 16
0.0
 26
-1.0
 36
0.0
 17
0.0
 27
0.0
 37
0.0
 40
63.83405916417192
 41
0.278170572076345
 42
50.0
 43
33.03753931372992
 44
-33.03753931372992
 50
0.0
 51
0.0
 71
     0
 72
   100
 73
     1
 74
     3
 75
     0
 76
     0
 77
     0
 78
     0
281
     0
 65
     1
110
0.0
120
0.0
130
0.0
111
1.0
121
0.0
131
0.0
112
0.0
122
1.0
132
0.0
 79
     0
146
0.0
  0
VPORT
  5
5A3
330
8
100
AcDbSymbolTableRecord
100
AcDbViewportTableRecord
  2
L4
 70
     0
 10
0.5
 20
0.0
 11
1.0
 21
0.5
 12
0.0
 22
0.0
 13
0.0
 23
0.0
 14
0.5
 24
0.5
 15
0.5
 25
0.5
 16
1.0
 26
0.0
 36
0.0
 17
0.0
 27
0.0
 37
0.0
 40
63.83405916417192
 41
0.278170572076345
 42
50.0
 43
32.23197061103287
 44
-32.23197061103287
 50
0.0
 51
0.0
 71
     0
 72
   100
 73
     1
 74
     3
 75
     0
 76
     0
 77
     0
 78
     0
281
     0
 65
     1
110
0.0
120
0.0
130
0.0
111
1.0
121
0.0
131
0.0
112
0.0
122
1.0
132
0.0
 79
     0
146
0.0
  0
VPORT
  5
5A4
330
8
100
AcDbSymbolTableRecord
100
AcDbViewportTableRecord
  2
L4
 70
     0
 10
0.5
 20
0.5
 11
1.0
 21
1.0
 12
0.0
 22
0.0
 13
0.0
 23
0.0
 14
0.5
 24
0.5
 15
0.5
 25
0.5
 16
0.5773502691896259
 26
-0.5773502691896259
 36
0.5773502691896259
 17
0.0
 27
0.0
 37
0.0
 40
62.75600953813999
 41
0.282949105373905
 42
50.0
 43
32.7019581071019
 44
-32.7019581071019
 50
0.0
 51
0.0
 71
     0
 72
   100
 73
     1
 74
     3
 75
     0
 76
     0
 77
     0
 78
     0
281
     0
 65
     1
110
0.0
120
0.0
130
0.0
111
1.0
121
0.0
131
0.0
112
0.0
122
1.0
132
0.0
 79
     0
146
0.0
  0
VPORT
  5
5A5
330
8
100
AcDbSymbolTableRecord
100
AcDbViewportTableRecord
  2
L6
 70
     0
 10
0.0
 20
0.5
 11
0.3333333333333334
 21
1.0
 12
19.72195223346352
 22
9.926784669980406
 13
0.0
 23
0.0
 14
0.5
 24
0.5
 15
0.5
 25
0.5
 16
0.7188730927569435
 26
-0.5850486126764432
 36
0.3754192287502549
 17
0.0
 27
0.0
 37
0.0
 40
66.26340723501293
 41
0.2679722866147828
 42
50.0
 43
57.97143795168154
 44
-57.97143795168154
 50
0.0
 51
0.0
 71
     0
 72
   100
 73
     1
 74
     3
 75
     0
 76
     0
 77
     0
 78
     0
281
     0
 65
     1
110
0.0
120
0.0
130
0.0
111
1.0
121
0.0
131
0.0
112
0.0
122
1.0
132
0.0
 79
     0
146
0.0
  0
VPORT
  5
5A6
330
8
100
AcDbSymbolTableRecord
100
AcDbViewportTableRecord
  2
L6
 70
     0
 10
0.0
 20
0.0
 11
0.3333333333333334
 21
0.5
 12
0.0
 22
0.0
 13
0.0
 23
0.0
 14
0.5
 24
0.5
 15
0.5
 25
0.5
 16
-1.0
 26
0.0
 36
0.0
 17
0.0
 27
0.0
 37
0.0
 40
63.83405916417192
 41
0.278170572076345
 42
50.0
 43
32.23197061103287
 44
-32.23197061103287
 50
0.0
 51
0.0
 71
     0
 72
   100
 73
     1
 74
     3
 75
     0
 76
     0
 77
     0
 78
     0
281
     0
 65
     1
110
0.0
120
0.0
130
0.0
111
1.0
121
0.0
131
0.0
112
0.0
122
1.0
132
0.0
 79
     0
146
0.0
  0
VPORT
  5
5A7
330
8
100
AcDbSymbolTableRecord
100
AcDbViewportTableRecord
  2
L6
 70
     0
 10
0.3333333333333334
 20
0.5
 11
0.6666666666666666
 21
1.0
 12
0.0
 22
0.0
 13
0.0
 23
0.0
 14
0.5
 24
0.5
 15
0.5
 25
0.5
 16
0.0
 26
0.0
 36
1.0
 17
0.0
 27
0.0
 37
0.0
 40
8.989583333333333
 41
1.975259152424894
 42
50.0
 43
31.91702958208596
 44
-31.91702958208596
 50
0.0
 51
0.0
 71
     0
 72
   100
 73
     1
 74
     3
 75
     0
 76
     0
 77
     0
 78
     0
281
     0
 65
     1
110
0.0
120
0.0
130
0.0
111
1.0
121
0.0
131
0.0
112
0.0
122
1.0
132
0.0
 79
     0
146
0.0
  0
VPORT
  5
5A8
330
8
100
AcDbSymbolTableRecord
100
AcDbViewportTableRecord
  2
L6
 70
     0
 10
0.3333333333333334
 20
0.0
 11
0.6666666666666666
 21
0.5
 12
0.0
 22
0.0
 13
0.0
 23
0.0
 14
0.5
 24
0.5
 15
0.5
 25
0.5
 16
0.0
 26
-1.0
 36
0.0
 17
0.0
 27
0.0
 37
0.0
 40
63.83405916417192
 41
0.278170572076345
 42
50.0
 43
33.03753931372992
 44
-33.03753931372992
 50
0.0
 51
0.0
 71
     0
 72
   100
 73
     1
 74
     3
 75
     0
 76
     0
 77
     0
 78
     0
281
     0
 65
     1
110
0.0
120
0.0
130
0.0
111
1.0
121
0.0
131
0.0
112
0.0
122
1.0
132
0.0
 79
     0
146
0.0
  0
VPORT
  5
5A9
330
8
100
AcDbSymbolTableRecord
100
AcDbViewportTableRecord
  2
L6
 70
     0
 10
0.6666666666666666
 20
0.5
 11
1.0
 21
1.0
 12
0.0
 22
0.0
 13
0.0
 23
0.0
 14
0.5
 24
0.5
 15
0.5
 25
0.5
 16
0.5773502691896259
 26
-0.5773502691896259
 36
0.5773502691896259
 17
0.0
 27
0.0
 37
0.0
 40
62.75600953813999
 41
0.282949105373905
 42
50.0
 43
32.7019581071019
 44
-32.7019581071019
 50
0.0
 51
0.0
 71
     0
 72
   100
 73
     1
 74
     3
 75
     0
 76
     0
 77
     0
 78
     0
281
     0
 65
     1
110
0.0
120
0.0
130
0.0
111
1.0
121
0.0
131
0.0
112
0.0
122
1.0
132
0.0
 79
     0
146
0.0
  0
VPORT
  5
5AA
330
8
100
AcDbSymbolTableRecord
100
AcDbViewportTableRecord
  2
L6
 70
     0
 10
0.6666666666666666
 20
0.0
 11
1.0
 21
0.5
 12
0.0
 22
0.0
 13
0.0
 23
0.0
 14
0.5
 24
0.5
 15
0.5
 25
0.5
 16
1.0
 26
0.0
 36
0.0
 17
0.0
 27
0.0
 37
0.0
 40
63.83405916417192
 41
0.278170572076345
 42
50.0
 43
32.23197061103287
 44
-32.23197061103287
 50
0.0
 51
0.0
 71
     0
 72
   100
 73
     1
 74
     3
 75
     0
 76
     0
 77
     0
 78
     0
281
     0
 65
     1
110
0.0
120
0.0
130
0.0
111
1.0
121
0.0
131
0.0
112
0.0
122
1.0
132
0.0
 79
     0
146
0.0
  0
ENDTAB
  0
TABLE
  2
LTYPE
  5
5
330
0
100
AcDbSymbolTable
 70
     7
  0
LTYPE
  5
14
330
5
100
AcDbSymbolTableRecord
100
AcDbLinetypeTableRecord
  2
BYBLOCK
 70
     0
  3

 72
    65
 73
     0
 40
0.0
  0
LTYPE
  5
15
330
5
100
AcDbSymbolTableRecord
100
AcDbLinetypeTableRecord
  2
BYLAYER
 70
     0
  3

 72
    65
 73
     0
 40
0.0
  0
LTYPE
  5
16
330
5
100
AcDbSymbolTableRecord
100
AcDbLinetypeTableRecord
  2
CONTINUOUS
 70
     0
  3
Solid line
 72
    65
 73
     0
 40
0.0
  0
LTYPE
  5
3F
330
5
100
AcDbSymbolTableRecord
100
AcDbLinetypeTableRecord
  2
DASHED
 70
     0
  3
__ __ __ __ __ __ __ __ __
 72
    65
 73
     2
 40
25.72
 49
12.86
 74
     4
 75
     0
340
0
 46
0.0
 50
0.0
 44
0.0
 45
0.0
 49
-12.86
 74
     4
 75
     0
340
0
 46
0.0
 50
0.0
 44
0.0
 45
0.0
  0
LTYPE
  5
40
330
5
100
AcDbSymbolTableRecord
100
AcDbLinetypeTableRecord
  2
HIDDEN
 70
     0
  3
_ _ _ _ _ _ _ _ _ _ _ _ _ _ _
 72
    65
 73
     2
 40
0.5
 49
0.25
 74
     4
 75
     0
340
0
 46
0.0
 50
0.0
 44
0.0
 45
0.0
 49
-0.25
 74
     4
 75
     0
340
0
 46
0.0
 50
0.0
 44
0.0
 45
0.0
  0
LTYPE
  5
41
330
5
100
AcDbSymbolTableRecord
100
AcDbLinetypeTableRecord
  2
PHANTOM
 70
     0
  3
____ _ _ ____ _ _ _____ _ _ ____
 72
    65
 73
     6
 40
50.5
 49
18.0
 74
     4
 75
     0
340
0
 46
0.0
 50
0.0
 44
0.0
 45
0.0
 49
-6.5
 74
     4
 75
     0
340
0
 46
0.0
 50
0.0
 44
0.0
 45
0.0
 49
6.5
 74
     4
 75
     0
340
0
 46
0.0
 50
0.0
 44
0.0
 45
0.0
 49
-6.5
 74
     4
 75
     0
340
0
 46
0.0
 50
0.0
 44
0.0
 45
0.0
 49
6.5
 74
     4
 75
     0
340
0
 46
0.0
 50
0.0
 44
0.0
 45
0.0
 49
-6.5
 74
     4
 75
     0
340
0
 46
0.0
 50
0.0
 44
0.0
 45
0.0
  0
LTYPE
  5
42
330
5
100
AcDbSymbolTableRecord
100
AcDbLinetypeTableRecord
  2
CENTER
 70
     0
  3
____ _ ____ _ ____ _ ____
 72
    65
 73
     4
 40
47.4
 49
22.0
 74
     4
 75
     0
340
0
 46
0.0
 50
0.0
 44
0.0
 45
0.0
 49
-8.5
 74
     4
 75
     0
340
0
 46
0.0
 50
0.0
 44
0.0
 45
0.0
 49
8.5
 74
     4
 75
     0
340
0
 46
0.0
 50
0.0
 44
0.0
 45
0.0
 49
-8.5
 74
     4
 75
     0
340
0
 46
0.0
 50
0.0
 44
0.0
 45
0.0
  0
LTYPE
  5
43
330
5
100
AcDbSymbolTableRecord
100
AcDbLinetypeTableRecord
  2
DOT
 70
     0
  3
.........................
 72
    65
 73
     2
 40
10.0
 49
0.0
 74
     4
 75
     0
340
0
 46
0.0
 50
0.0
 44
0.0
 45
0.0
 49
-10.0
 74
     4
 75
     0
340
0
 46
0.0
 50
0.0
 44
0.0
 45
0.0
  0
LTYPE
  5
44
330
5
100
AcDbSymbolTableRecord
100
AcDbLinetypeTableRecord
  2
DASHDOT
 70
     0
  3
_._._._._._._._._._._._._._._._.
 72
    65
 73
     4
 40
70.0
 49
31.0
 74
     4
 75
     0
340
0
 46
0.0
 50
0.0
 44
0.0
 45
0.0
 49
-13.0
 74
     4
 75
     0
340
0
 46
0.0
 50
0.0
 44
0.0
 45
0.0
 49
13.0
 74
     4
 75
     0
340
0
 46
0.0
 50
0.0
 44
0.0
 45
0.0
 49
-13.0
 74
     4
 75
     0
340
0
 46
0.0
 50
0.0
 44
0.0
 45
0.0
  0
ENDTAB
  0
TABLE
  2
LAYER
  5
2
330
0
100
AcDbSymbolTable
 70
     2
  0
LAYER
  5
10
102
{ACAD_XDICTIONARY
360
60A
102
}
330
2
100
AcDbSymbolTableRecord
100
AcDbLayerTableRecord
  2
0
 70
     0
 62
     7
  6
CONTINUOUS
370
    -3
390
F
  0
LAYER
  5
46
102
{ACAD_XDICTIONARY
360
60C
102
}
330
2
100
AcDbSymbolTableRecord
100
AcDbLayerTableRecord
  2
TFR-TRI
 70
     0
 62
     7
  6
CONTINUOUS
370
    -3
390
F
  0
ENDTAB
  0
TABLE
  2
STYLE
  5
3
330
0
100
AcDbSymbolTable
 70
     1
  0
STYLE
  5
11
330
3
100
AcDbSymbolTableRecord
100
AcDbTextStyleTableRecord
  2
Standard
 70
     0
 40
0.0
 41
1.0
 50
0.0
 71
     0
 42
0.2
  3
txt
  4

  0
ENDTAB
  0
TABLE
  2
VIEW
  5
6
330
0
100
AcDbSymbolTable
 70
     8
  0
VIEW
  5
593
330
6
100
AcDbSymbolTableRecord
100
AcDbViewTableRecord
  2
TOP
 70
     0
 40
8.989583333333333
 10
0.0
 20
0.0
 41
17.0625
 11
0.0
 21
0.0
 31
1.0
 12
0.0
 22
0.0
 32
0.0
 42
50.0
 43
31.91702958208596
 44
-31.91702958208596
 50
0.0
 71
     0
281
     0
 72
     0
  0
VIEW
  5
594
330
6
100
AcDbSymbolTableRecord
100
AcDbViewTableRecord
  2
FRONT
 70
     0
 40
63.83405916417192
 10
0.0
 20
0.0
 41
17.0625
 11
0.0
 21
-1.0
 31
0.0
 12
0.0
 22
0.0
 32
0.0
 42
50.0
 43
33.03753931372992
 44
-33.03753931372992
 50
0.0
 71
     0
281
     0
 72
     0
  0
VIEW
  5
595
330
6
100
AcDbSymbolTableRecord
100
AcDbViewTableRecord
  2
RIGHT
 70
     0
 40
63.83405916417192
 10
0.0
 20
0.0
 41
8.989583333333333
 11
1.0
 21
0.0
 31
0.0
 12
0.0
 22
0.0
 32
0.0
 42
50.0
 43
32.23197061103287
 44
-32.23197061103287
 50
0.0
 71
     0
281
     0
 72
     0
  0
VIEW
  5
596
330
6
100
AcDbSymbolTableRecord
100
AcDbViewTableRecord
  2
BACK
 70
     0
 40
63.83405916417192
 10
0.0
 20
0.0
 41
17.0625
 11
0.0
 21
1.0
 31
0.0
 12
0.0
 22
0.0
 32
0.0
 42
50.0
 43
33.03753931372992
 44
-33.03753931372992
 50
0.0
 71
     0
281
     0
 72
     0
  0
VIEW
  5
597
330
6
100
AcDbSymbolTableRecord
100
AcDbViewTableRecord
  2
BOTTOM
 70
     0
 40
8.989583333333333
 10
0.0
 20
0.0
 41
17.0625
 11
0.0
 21
0.0
 31
-1.0
 12
0.0
 22
0.0
 32
0.0
 42
50.0
 43
31.91702958208596
 44
-31.91702958208596
 50
180.0
 71
     0
281
     0
 72
     0
  0
VIEW
  5
598
330
6
100
AcDbSymbolTableRecord
100
AcDbViewTableRecord
  2
LEFT
 70
     0
 40
63.83405916417192
 10
0.0
 20
0.0
 41
8.989583333333333
 11
-1.0
 21
0.0
 31
0.0
 12
0.0
 22
0.0
 32
0.0
 42
50.0
 43
32.23197061103287
 44
-32.23197061103287
 50
0.0
 71
     0
281
     0
 72
     0
  0
VIEW
  5
599
330
6
100
AcDbSymbolTableRecord
100
AcDbViewTableRecord
  2
TFR-ISO
 70
     0
 40
62.75600953813999
 10
0.0
 20
0.0
 41
18.42160478903704
 11
0.5773502691896259
 21
-0.5773502691896259
 31
0.5773502691896259
 12
0.0
 22
0.0
 32
0.0
 42
50.0
 43
32.7019581071019
 44
-32.7019581071019
 50
0.0
 71
     0
281
     0
 72
     0
  0
VIEW
  5
59A
330
6
100
AcDbSymbolTableRecord
100
AcDbViewTableRecord
  2
TFR-TRI
 70
     0
 40
66.26340723501293
 10
19.72195223346352
 20
9.926784669980406
 41
17.74253739943176
 11
0.0
 21
0.0
 31
1.0
 12
0.0
 22
0.0
 32
0.0
 42
50.0
 43
57.97143795168154
 44
-57.97143795168154
 50
0.0
 71
     0
281
     0
 72
     0
  0
ENDTAB
  0
TABLE
  2
UCS
  5
7
330
0
100
AcDbSymbolTable
 70
     0
  0
ENDTAB
  0
TABLE
  2
APPID
  5
9
330
0
100
AcDbSymbolTable
 70
     3
  0
APPID
  5
12
330
9
100
AcDbSymbolTableRecord
100
AcDbRegAppTableRecord
  2
ACAD
 70
     0
  0
APPID
  5
60E
330
9
100
AcDbSymbolTableRecord
100
AcDbRegAppTableRecord
  2
ACAD_NAV_VCDISPLAY
 70
     0
  0
APPID
  5
6C3
330
9
100
AcDbSymbolTableRecord
100
AcDbRegAppTableRecord
  2
ACAD_MLEADERVER
 70
     0
  0
ENDTAB
  0
TABLE
  2
DIMSTYLE
  5
A
330
0
100
AcDbSymbolTable
 70
     1
100
AcDbDimStyleTable
 71
     0
  0
DIMSTYLE
105
27
330
A
100
AcDbSymbolTableRecord
100
AcDbDimStyleTableRecord
  2
Standard
 70
     0
340
11
  0
ENDTAB
  0
TABLE
  2
BLOCK_RECORD
  5
1
330
0
100
AcDbSymbolTable
 70
     1
  0
BLOCK_RECORD
  5
1F
330
1
100
AcDbSymbolTableRecord
100
AcDbBlockTableRecord
  2
*Model_Space
340
22
  0
BLOCK_RECORD
  5
1B
330
1
100
AcDbSymbolTableRecord
100
AcDbBlockTableRecord
  2
*Paper_Space
340
1E
  0
BLOCK_RECORD
  5
23
330
1
100
AcDbSymbolTableRecord
100
AcDbBlockTableRecord
  2
*Paper_Space0
340
26
  0
ENDTAB
  0
ENDSEC
  0
SECTION
  2
BLOCKS
  0
BLOCK
  5
20
330
1F
100
AcDbEntity
  8
0
100
AcDbBlockBegin
  2
*Model_Space
 70
     0
 10
0.0
 20
0.0
 30
0.0
  3
*Model_Space
  1

  0
ENDBLK
  5
21
330
1F
100
AcDbEntity
  8
0
100
AcDbBlockEnd
  0
BLOCK
  5
1C
330
1B
100
AcDbEntity
 67
     1
  8
0
100
AcDbBlockBegin
  2
*Paper_Space
 70
     0
 10
0.0
 20
0.0
 30
0.0
  3
*Paper_Space
  1

  0
ENDBLK
  5
1D
330
1B
100
AcDbEntity
 67
     1
  8
0
100
AcDbBlockEnd
  0
BLOCK
  5
24
330
23
100
AcDbEntity
 67
     1
  8
0
100
AcDbBlockBegin
  2
*Paper_Space0
 70
     0
 10
0.0
 20
0.0
 30
0.0
  3
*Paper_Space0
  1

  0
ENDBLK
  5
25
330
23
100
AcDbEntity
 67
     1
  8
0
100
AcDbBlockEnd
  0
ENDSEC
  0
SECTION
  2
ENTITIES
  0
LINE
  5
45
330
1F
100
AcDbEntity
  8
TFR-TRI
  6
Continuous
 62
    18
100
AcDbLine
 10
51.53628969192505
 20
7.471485614776611
 30
0.0
 11
51.58353090286254
 21
7.254165172576904
 31
0.0
  0
LINE
  5
47
330
1F
100
AcDbEntity
  8
TFR-TRI
  6
Continuous
 62
    18
100
AcDbLine
 10
52.25857591629028
 20
4.148962974548339
 30
0.0
 11
52.49829530715942
 21
3.046248912811279
 31
0.0
  0
LINE
  5
48
330
1F
100
AcDbEntity
  8
TFR-TRI
  6
Continuous
 62
    18
100
AcDbLine
 10
55.77644777297973
 20
2.943926811218261
 30
0.0
 11
52.62525224685669
 21
2.943926811218261
 31
0.0
  0
LINE
  5
49
330
1F
100
AcDbEntity
  8
TFR-TRI
  6
Continuous
 62
    18
100
AcDbLine
 10
55.90636873245239
 20
3.341572761535644
 30
0.0
 11
55.90636873245239
 21
3.073848247528076
 31
0.0
  0
LINE
  5
4A
330
1F
100
AcDbEntity
  8
TFR-TRI
  6
Continuous
 62
    18
100
AcDbLine
 10
51.58353090286254
 20
14.02738904953003
 30
0.0
 11
51.53628969192505
 21
13.81006956100464
 31
0.0
  0
LINE
  5
4B
330
1F
100
AcDbEntity
  8
TFR-TRI
  6
Continuous
 62
    18
100
AcDbLine
 10
51.53628969192505
 20
7.471485614776611
 30
0.0
 11
51.84730958938598
 21
7.471485614776611
 31
0.0
  0
LINE
  5
4C
330
1F
100
AcDbEntity
  8
TFR-TRI
  6
Continuous
 62
    18
100
AcDbLine
 10
51.53628969192505
 20
7.471485614776611
 30
0.0
 11
51.48904085159301
 21
7.471485614776611
 31
0.0
  0
LINE
  5
4D
330
1F
100
AcDbEntity
  8
TFR-TRI
  6
Continuous
 62
    18
100
AcDbLine
 10
51.48904085159301
 20
7.471485614776611
 30
0.0
 11
51.45445680618286
 21
7.471485614776611
 31
0.0
  0
LINE
  5
4E
330
1F
100
AcDbEntity
  8
TFR-TRI
  6
Continuous
 62
    18
100
AcDbLine
 10
51.45445680618286
 20
7.471485614776611
 30
0.0
 11
51.44179582595825
 21
7.471485614776611
 31
0.0
  0
LINE
  5
4F
330
1F
100
AcDbEntity
  8
TFR-TRI
  6
Continuous
 62
    18
100
AcDbLine
 10
51.84730958938598
 20
13.81006956100464
 30
0.0
 11
51.53628969192505
 21
13.81006956100464
 31
0.0
  0
LINE
  5
50
330
1F
100
AcDbEntity
  8
TFR-TRI
  6
Continuous
 62
    18
100
AcDbLine
 10
51.44179582595825
 20
13.81006956100464
 30
0.0
 11
51.45445680618286
 21
13.81006956100464
 31
0.0
  0
LINE
  5
51
330
1F
100
AcDbEntity
  8
TFR-TRI
  6
Continuous
 62
    18
100
AcDbLine
 10
51.45445680618286
 20
13.81006956100464
 30
0.0
 11
51.48904085159301
 21
13.81006956100464
 31
0.0
  0
LINE
  5
52
330
1F
100
AcDbEntity
  8
TFR-TRI
  6
Continuous
 62
    18
100
AcDbLine
 10
51.48904085159301
 20
13.81006956100464
 30
0.0
 11
51.53628969192505
 21
13.81006956100464
 31
0.0
  0
LINE
  5
53
330
1F
100
AcDbEntity
  8
TFR-TRI
  6
Continuous
 62
    18
100
AcDbLine
 10
51.44179582595825
 20
7.471485614776611
 30
0.0
 11
51.44179582595825
 21
13.81006956100464
 31
0.0
  0
LINE
  5
54
330
1F
100
AcDbEntity
  8
TFR-TRI
  6
Continuous
 62
    18
100
AcDbLine
 10
51.97723054885864
 20
7.601407527923583
 30
0.0
 11
51.97723054885864
 21
13.68014669418335
 31
0.0
  0
LINE
  5
55
330
1F
100
AcDbEntity
  8
TFR-TRI
  6
Continuous
 62
    18
100
AcDbLine
 10
8.374863147735595
 20
13.8100733757019
 30
0.0
 11
8.327620029449462
 21
14.02739286422729
 31
0.0
  0
LINE
  5
56
330
1F
100
AcDbEntity
  8
TFR-TRI
  6
Continuous
 62
    18
100
AcDbLine
 10
4.00478458404541
 20
3.073852062225341
 30
0.0
 11
4.00478458404541
 21
3.34157657623291
 31
0.0
  0
LINE
  5
57
330
1F
100
AcDbEntity
  8
TFR-TRI
  6
Continuous
 62
    18
100
AcDbLine
 10
7.285899639129638
 20
2.943930625915527
 30
0.0
 11
4.134706020355224
 21
2.943930625915527
 31
0.0
  0
LINE
  5
58
330
1F
100
AcDbEntity
  8
TFR-TRI
  6
Continuous
 62
    18
100
AcDbLine
 10
7.412855625152587
 20
3.046253204345703
 30
0.0
 11
7.652575969696044
 21
4.148966789245605
 31
0.0
  0
LINE
  5
59
330
1F
100
AcDbEntity
  8
TFR-TRI
  6
Continuous
 62
    18
100
AcDbLine
 10
8.327620029449462
 20
7.254168987274169
 30
0.0
 11
8.374863147735595
 21
7.471490383148193
 31
0.0
  0
LINE
  5
5A
330
1F
100
AcDbEntity
  8
TFR-TRI
  6
Continuous
 62
    18
100
AcDbLine
 10
8.374863147735595
 20
13.8100733757019
 30
0.0
 11
8.063843250274658
 21
13.8100733757019
 31
0.0
  0
LINE
  5
5B
330
1F
100
AcDbEntity
  8
TFR-TRI
  6
Continuous
 62
    18
100
AcDbLine
 10
8.374863147735595
 20
13.8100733757019
 30
0.0
 11
8.422109127044677
 21
13.8100733757019
 31
0.0
  0
LINE
  5
5C
330
1F
100
AcDbEntity
  8
TFR-TRI
  6
Continuous
 62
    18
100
AcDbLine
 10
8.422109127044677
 20
13.8100733757019
 30
0.0
 11
8.456696033477783
 21
13.8100733757019
 31
0.0
  0
LINE
  5
5D
330
1F
100
AcDbEntity
  8
TFR-TRI
  6
Continuous
 62
    18
100
AcDbLine
 10
8.456696033477783
 20
13.8100733757019
 30
0.0
 11
8.469355106353759
 21
13.8100733757019
 31
0.0
  0
LINE
  5
5E
330
1F
100
AcDbEntity
  8
TFR-TRI
  6
Continuous
 62
    18
100
AcDbLine
 10
8.063843250274658
 20
7.471490383148193
 30
0.0
 11
8.374863147735595
 21
7.471490383148193
 31
0.0
  0
LINE
  5
5F
330
1F
100
AcDbEntity
  8
TFR-TRI
  6
Continuous
 62
    18
100
AcDbLine
 10
8.469355106353759
 20
7.471490383148193
 30
0.0
 11
8.456696033477783
 21
7.471490383148193
 31
0.0
  0
LINE
  5
60
330
1F
100
AcDbEntity
  8
TFR-TRI
  6
Continuous
 62
    18
100
AcDbLine
 10
8.456696033477783
 20
7.471490383148193
 30
0.0
 11
8.422109127044677
 21
7.471490383148193
 31
0.0
  0
LINE
  5
61
330
1F
100
AcDbEntity
  8
TFR-TRI
  6
Continuous
 62
    18
100
AcDbLine
 10
8.422109127044677
 20
7.471490383148193
 30
0.0
 11
8.374863147735595
 21
7.471490383148193
 31
0.0
  0
LINE
  5
62
330
1F
100
AcDbEntity
  8
TFR-TRI
  6
Continuous
 62
    18
100
AcDbLine
 10
8.469355106353759
 20
13.8100733757019
 30
0.0
 11
8.469355106353759
 21
7.471490383148193
 31
0.0
  0
LINE
  5
63
330
1F
100
AcDbEntity
  8
TFR-TRI
  6
Continuous
 62
    18
100
AcDbLine
 10
7.933922290802001
 20
13.68015050888061
 30
0.0
 11
7.933922290802001
 21
7.601411342620849
 31
0.0
  0
LINE
  5
64
330
1F
100
AcDbEntity
  8
TFR-TRI
  6
Continuous
 62
    18
100
AcDbLine
 10
54.58353090286255
 20
4.227391719818115
 30
0.0
 11
54.54600191116333
 21
4.235368728637695
 31
0.0
  0
LINE
  5
65
330
1F
100
AcDbEntity
  8
TFR-TRI
  6
Continuous
 62
    18
100
AcDbLine
 10
54.49376344680786
 20
4.288755893707275
 30
0.0
 11
54.48992586135864
 21
4.295401573181152
 31
0.0
  0
LINE
  5
66
330
1F
100
AcDbEntity
  8
TFR-TRI
  6
Continuous
 62
    18
100
AcDbLine
 10
54.48992586135864
 20
4.295401573181152
 30
0.0
 11
54.48564577102661
 21
4.336104869842529
 31
0.0
  0
LINE
  5
67
330
1F
100
AcDbEntity
  8
TFR-TRI
  6
Continuous
 62
    18
100
AcDbLine
 10
54.48564577102661
 20
4.336104869842529
 30
0.0
 11
54.49434328079224
 21
4.362865447998046
 31
0.0
  0
LINE
  5
68
330
1F
100
AcDbEntity
  8
TFR-TRI
  6
Continuous
 62
    18
100
AcDbLine
 10
54.54671144485473
 20
4.414808273315429
 30
0.0
 11
54.56306886672973
 21
4.422091007232666
 31
0.0
  0
LINE
  5
69
330
1F
100
AcDbEntity
  8
TFR-TRI
  6
Continuous
 62
    18
100
AcDbLine
 10
54.56306886672973
 20
4.422091007232666
 30
0.0
 11
54.60399675369263
 21
4.422091007232666
 31
0.0
  0
LINE
  5
6A
330
1F
100
AcDbEntity
  8
TFR-TRI
  6
Continuous
 62
    18
100
AcDbLine
 10
54.60399675369263
 20
4.422091007232666
 30
0.0
 11
54.62035417556762
 21
4.414808273315429
 31
0.0
  0
LINE
  5
6B
330
1F
100
AcDbEntity
  8
TFR-TRI
  6
Continuous
 62
    18
100
AcDbLine
 10
54.67272233963012
 20
4.362865447998046
 30
0.0
 11
54.68141984939575
 21
4.336104869842529
 31
0.0
  0
LINE
  5
6C
330
1F
100
AcDbEntity
  8
TFR-TRI
  6
Continuous
 62
    18
100
AcDbLine
 10
54.68141984939575
 20
4.336104869842529
 30
0.0
 11
54.67713975906372
 21
4.295401573181152
 31
0.0
  0
LINE
  5
6D
330
1F
100
AcDbEntity
  8
TFR-TRI
  6
Continuous
 62
    18
100
AcDbLine
 10
54.67713975906372
 20
4.295401573181152
 30
0.0
 11
54.6733021736145
 21
4.288755893707275
 31
0.0
  0
LINE
  5
6E
330
1F
100
AcDbEntity
  8
TFR-TRI
  6
Continuous
 62
    18
100
AcDbLine
 10
54.62106370925903
 20
4.235368728637695
 30
0.0
 11
54.58353090286255
 21
4.227391719818115
 31
0.0
  0
LINE
  5
6F
330
1F
100
AcDbEntity
  8
TFR-TRI
  6
Continuous
 62
    18
100
AcDbLine
 10
52.81581544876098
 20
7.101407527923583
 30
0.0
 11
52.77828645706176
 21
7.109385013580322
 31
0.0
  0
LINE
  5
70
330
1F
100
AcDbEntity
  8
TFR-TRI
  6
Continuous
 62
    18
100
AcDbLine
 10
52.72604417800903
 20
7.162771701812744
 30
0.0
 11
52.72220659255982
 21
7.169416904449462
 31
0.0
  0
LINE
  5
71
330
1F
100
AcDbEntity
  8
TFR-TRI
  6
Continuous
 62
    18
100
AcDbLine
 10
52.72220659255982
 20
7.169416904449462
 30
0.0
 11
52.71793031692505
 21
7.210120677947998
 31
0.0
  0
LINE
  5
72
330
1F
100
AcDbEntity
  8
TFR-TRI
  6
Continuous
 62
    18
100
AcDbLine
 10
52.71793031692505
 20
7.210120677947998
 30
0.0
 11
52.7266240119934
 21
7.236880779266357
 31
0.0
  0
LINE
  5
73
330
1F
100
AcDbEntity
  8
TFR-TRI
  6
Continuous
 62
    18
100
AcDbLine
 10
52.77899599075317
 20
7.28882360458374
 30
0.0
 11
52.79535341262818
 21
7.296106815338134
 31
0.0
  0
LINE
  5
74
330
1F
100
AcDbEntity
  8
TFR-TRI
  6
Continuous
 62
    18
100
AcDbLine
 10
52.79535341262818
 20
7.296106815338134
 30
0.0
 11
52.83628129959106
 21
7.296106815338134
 31
0.0
  0
LINE
  5
75
330
1F
100
AcDbEntity
  8
TFR-TRI
  6
Continuous
 62
    18
100
AcDbLine
 10
52.83628129959106
 20
7.296106815338134
 30
0.0
 11
52.85263872146606
 21
7.28882360458374
 31
0.0
  0
LINE
  5
76
330
1F
100
AcDbEntity
  8
TFR-TRI
  6
Continuous
 62
    18
100
AcDbLine
 10
52.90500688552857
 20
7.236880779266357
 30
0.0
 11
52.91370058059692
 21
7.210120677947998
 31
0.0
  0
LINE
  5
77
330
1F
100
AcDbEntity
  8
TFR-TRI
  6
Continuous
 62
    18
100
AcDbLine
 10
52.91370058059692
 20
7.210120677947998
 30
0.0
 11
52.90942430496215
 21
7.169416904449462
 31
0.0
  0
LINE
  5
78
330
1F
100
AcDbEntity
  8
TFR-TRI
  6
Continuous
 62
    18
100
AcDbLine
 10
52.90942430496215
 20
7.169416904449462
 30
0.0
 11
52.90558671951294
 21
7.162771701812744
 31
0.0
  0
LINE
  5
79
330
1F
100
AcDbEntity
  8
TFR-TRI
  6
Continuous
 62
    18
100
AcDbLine
 10
52.85334825515747
 20
7.109385013580322
 30
0.0
 11
52.81581544876098
 21
7.101407527923583
 31
0.0
  0
LINE
  5
7A
330
1F
100
AcDbEntity
  8
TFR-TRI
  6
Continuous
 62
    18
100
AcDbLine
 10
52.81581544876098
 20
13.28251028060913
 30
0.0
 11
52.77828645706176
 21
13.29048681259155
 31
0.0
  0
LINE
  5
7B
330
1F
100
AcDbEntity
  8
TFR-TRI
  6
Continuous
 62
    18
100
AcDbLine
 10
52.72604417800903
 20
13.34387350082397
 30
0.0
 11
52.72220659255982
 21
13.35052061080932
 31
0.0
  0
LINE
  5
7C
330
1F
100
AcDbEntity
  8
TFR-TRI
  6
Continuous
 62
    18
100
AcDbLine
 10
52.72220659255982
 20
13.35052061080932
 30
0.0
 11
52.71793031692505
 21
13.39122343063354
 31
0.0
  0
LINE
  5
7D
330
1F
100
AcDbEntity
  8
TFR-TRI
  6
Continuous
 62
    18
100
AcDbLine
 10
52.71793031692505
 20
13.39122343063354
 30
0.0
 11
52.7266240119934
 21
13.4179835319519
 31
0.0
  0
LINE
  5
7E
330
1F
100
AcDbEntity
  8
TFR-TRI
  6
Continuous
 62
    18
100
AcDbLine
 10
52.77899599075317
 20
13.46992635726929
 30
0.0
 11
52.79535341262818
 21
13.47720861434936
 31
0.0
  0
LINE
  5
7F
330
1F
100
AcDbEntity
  8
TFR-TRI
  6
Continuous
 62
    18
100
AcDbLine
 10
52.79535341262818
 20
13.47720861434936
 30
0.0
 11
52.83628129959106
 21
13.47720861434936
 31
0.0
  0
LINE
  5
80
330
1F
100
AcDbEntity
  8
TFR-TRI
  6
Continuous
 62
    18
100
AcDbLine
 10
52.83628129959106
 20
13.47720861434936
 30
0.0
 11
52.85263872146606
 21
13.46992635726929
 31
0.0
  0
LINE
  5
81
330
1F
100
AcDbEntity
  8
TFR-TRI
  6
Continuous
 62
    18
100
AcDbLine
 10
52.90500688552857
 20
13.4179835319519
 30
0.0
 11
52.91370058059692
 21
13.39122343063354
 31
0.0
  0
LINE
  5
82
330
1F
100
AcDbEntity
  8
TFR-TRI
  6
Continuous
 62
    18
100
AcDbLine
 10
52.91370058059692
 20
13.39122343063354
 30
0.0
 11
52.90942430496215
 21
13.35052061080932
 31
0.0
  0
LINE
  5
83
330
1F
100
AcDbEntity
  8
TFR-TRI
  6
Continuous
 62
    18
100
AcDbLine
 10
52.90942430496215
 20
13.35052061080932
 30
0.0
 11
52.90558671951294
 21
13.34387350082397
 31
0.0
  0
LINE
  5
84
330
1F
100
AcDbEntity
  8
TFR-TRI
  6
Continuous
 62
    18
100
AcDbLine
 10
52.85334825515747
 20
13.29048681259155
 30
0.0
 11
52.81581544876098
 21
13.28251028060913
 31
0.0
  0
LINE
  5
85
330
1F
100
AcDbEntity
  8
TFR-TRI
  6
Continuous
 62
    18
100
AcDbLine
 10
52.81581544876098
 20
10.13290357589721
 30
0.0
 11
52.77828645706176
 21
10.14088106155395
 31
0.0
  0
LINE
  5
86
330
1F
100
AcDbEntity
  8
TFR-TRI
  6
Continuous
 62
    18
100
AcDbLine
 10
52.72604417800903
 20
10.19426774978637
 30
0.0
 11
52.72220659255982
 21
10.20091390609741
 31
0.0
  0
LINE
  5
87
330
1F
100
AcDbEntity
  8
TFR-TRI
  6
Continuous
 62
    18
100
AcDbLine
 10
52.72220659255982
 20
10.20091390609741
 30
0.0
 11
52.71793031692505
 21
10.24161672592163
 31
0.0
  0
LINE
  5
88
330
1F
100
AcDbEntity
  8
TFR-TRI
  6
Continuous
 62
    18
100
AcDbLine
 10
52.71793031692505
 20
10.24161672592163
 30
0.0
 11
52.7266240119934
 21
10.26837682723999
 31
0.0
  0
LINE
  5
89
330
1F
100
AcDbEntity
  8
TFR-TRI
  6
Continuous
 62
    18
100
AcDbLine
 10
52.77899599075317
 20
10.32031965255737
 30
0.0
 11
52.79535341262818
 21
10.32760286331177
 31
0.0
  0
LINE
  5
8A
330
1F
100
AcDbEntity
  8
TFR-TRI
  6
Continuous
 62
    18
100
AcDbLine
 10
52.79535341262818
 20
10.32760286331177
 30
0.0
 11
52.83628129959106
 21
10.32760286331177
 31
0.0
  0
LINE
  5
8B
330
1F
100
AcDbEntity
  8
TFR-TRI
  6
Continuous
 62
    18
100
AcDbLine
 10
52.83628129959106
 20
10.32760286331177
 30
0.0
 11
52.85263872146606
 21
10.32031965255737
 31
0.0
  0
LINE
  5
8C
330
1F
100
AcDbEntity
  8
TFR-TRI
  6
Continuous
 62
    18
100
AcDbLine
 10
52.90500688552857
 20
10.26837682723999
 30
0.0
 11
52.91370058059692
 21
10.24161672592163
 31
0.0
  0
LINE
  5
8D
330
1F
100
AcDbEntity
  8
TFR-TRI
  6
Continuous
 62
    18
100
AcDbLine
 10
52.91370058059692
 20
10.24161672592163
 30
0.0
 11
52.90942430496215
 21
10.20091390609741
 31
0.0
  0
LINE
  5
8E
330
1F
100
AcDbEntity
  8
TFR-TRI
  6
Continuous
 62
    18
100
AcDbLine
 10
52.90942430496215
 20
10.20091390609741
 30
0.0
 11
52.90558671951294
 21
10.19426774978637
 31
0.0
  0
LINE
  5
8F
330
1F
100
AcDbEntity
  8
TFR-TRI
  6
Continuous
 62
    18
100
AcDbLine
 10
52.85334825515747
 20
10.14088106155395
 30
0.0
 11
52.81581544876098
 21
10.13290357589721
 31
0.0
  0
LINE
  5
90
330
1F
100
AcDbEntity
  8
TFR-TRI
  6
Continuous
 62
    18
100
AcDbLine
 10
52.81581544876098
 20
14.73920202255249
 30
0.0
 11
52.77828645706176
 21
14.74718046188354
 31
0.0
  0
LINE
  5
91
330
1F
100
AcDbEntity
  8
TFR-TRI
  6
Continuous
 62
    18
100
AcDbLine
 10
52.72604417800903
 20
14.80056715011597
 30
0.0
 11
52.72220659255982
 21
14.80721235275268
 31
0.0
  0
LINE
  5
92
330
1F
100
AcDbEntity
  8
TFR-TRI
  6
Continuous
 62
    18
100
AcDbLine
 10
52.72220659255982
 20
14.80721235275268
 30
0.0
 11
52.71793031692505
 21
14.8479151725769
 31
0.0
  0
LINE
  5
93
330
1F
100
AcDbEntity
  8
TFR-TRI
  6
Continuous
 62
    18
100
AcDbLine
 10
52.71793031692505
 20
14.8479151725769
 30
0.0
 11
52.7266240119934
 21
14.8746771812439
 31
0.0
  0
LINE
  5
94
330
1F
100
AcDbEntity
  8
TFR-TRI
  6
Continuous
 62
    18
100
AcDbLine
 10
52.77899599075317
 20
14.92662000656128
 30
0.0
 11
52.79535341262818
 21
14.93390226364136
 31
0.0
  0
LINE
  5
95
330
1F
100
AcDbEntity
  8
TFR-TRI
  6
Continuous
 62
    18
100
AcDbLine
 10
52.79535341262818
 20
14.93390226364136
 30
0.0
 11
52.83628129959106
 21
14.93390226364136
 31
0.0
  0
LINE
  5
96
330
1F
100
AcDbEntity
  8
TFR-TRI
  6
Continuous
 62
    18
100
AcDbLine
 10
52.83628129959106
 20
14.93390226364136
 30
0.0
 11
52.85263872146606
 21
14.92662000656128
 31
0.0
  0
LINE
  5
97
330
1F
100
AcDbEntity
  8
TFR-TRI
  6
Continuous
 62
    18
100
AcDbLine
 10
52.90500688552857
 20
14.8746771812439
 30
0.0
 11
52.91370058059692
 21
14.8479151725769
 31
0.0
  0
LINE
  5
98
330
1F
100
AcDbEntity
  8
TFR-TRI
  6
Continuous
 62
    18
100
AcDbLine
 10
52.91370058059692
 20
14.8479151725769
 30
0.0
 11
52.90942430496215
 21
14.80721235275268
 31
0.0
  0
LINE
  5
99
330
1F
100
AcDbEntity
  8
TFR-TRI
  6
Continuous
 62
    18
100
AcDbLine
 10
52.90942430496215
 20
14.80721235275268
 30
0.0
 11
52.90558671951294
 21
14.80056715011597
 31
0.0
  0
LINE
  5
9A
330
1F
100
AcDbEntity
  8
TFR-TRI
  6
Continuous
 62
    18
100
AcDbLine
 10
52.85334825515747
 20
14.74718046188354
 30
0.0
 11
52.81581544876098
 21
14.73920202255249
 31
0.0
  0
LINE
  5
9B
330
1F
100
AcDbEntity
  8
TFR-TRI
  6
Continuous
 62
    18
100
AcDbLine
 10
52.81581544876098
 20
11.70770597457885
 30
0.0
 11
52.77828645706176
 21
11.71568346023559
 31
0.0
  0
LINE
  5
9C
330
1F
100
AcDbEntity
  8
TFR-TRI
  6
Continuous
 62
    18
100
AcDbLine
 10
52.72604417800903
 20
11.76907110214233
 30
0.0
 11
52.72220659255982
 21
11.77571630477905
 31
0.0
  0
LINE
  5
9D
330
1F
100
AcDbEntity
  8
TFR-TRI
  6
Continuous
 62
    18
100
AcDbLine
 10
52.72220659255982
 20
11.77571630477905
 30
0.0
 11
52.71793031692505
 21
11.81642007827758
 31
0.0
  0
LINE
  5
9E
330
1F
100
AcDbEntity
  8
TFR-TRI
  6
Continuous
 62
    18
100
AcDbLine
 10
52.71793031692505
 20
11.81642007827758
 30
0.0
 11
52.7266240119934
 21
11.84318017959594
 31
0.0
  0
LINE
  5
9F
330
1F
100
AcDbEntity
  8
TFR-TRI
  6
Continuous
 62
    18
100
AcDbLine
 10
52.77899599075317
 20
11.89512300491333
 30
0.0
 11
52.79535341262818
 21
11.90240621566772
 31
0.0
  0
LINE
  5
A0
330
1F
100
AcDbEntity
  8
TFR-TRI
  6
Continuous
 62
    18
100
AcDbLine
 10
52.79535341262818
 20
11.90240621566772
 30
0.0
 11
52.83628129959106
 21
11.90240621566772
 31
0.0
  0
LINE
  5
A1
330
1F
100
AcDbEntity
  8
TFR-TRI
  6
Continuous
 62
    18
100
AcDbLine
 10
52.83628129959106
 20
11.90240621566772
 30
0.0
 11
52.85263872146606
 21
11.89512300491333
 31
0.0
  0
LINE
  5
A2
330
1F
100
AcDbEntity
  8
TFR-TRI
  6
Continuous
 62
    18
100
AcDbLine
 10
52.90500688552857
 20
11.84318017959594
 30
0.0
 11
52.91370058059692
 21
11.81642007827758
 31
0.0
  0
LINE
  5
A3
330
1F
100
AcDbEntity
  8
TFR-TRI
  6
Continuous
 62
    18
100
AcDbLine
 10
52.91370058059692
 20
11.81642007827758
 30
0.0
 11
52.90942430496215
 21
11.77571630477905
 31
0.0
  0
LINE
  5
A4
330
1F
100
AcDbEntity
  8
TFR-TRI
  6
Continuous
 62
    18
100
AcDbLine
 10
52.90942430496215
 20
11.77571630477905
 30
0.0
 11
52.90558671951294
 21
11.76907110214233
 31
0.0
  0
LINE
  5
A5
330
1F
100
AcDbEntity
  8
TFR-TRI
  6
Continuous
 62
    18
100
AcDbLine
 10
52.85334825515747
 20
11.71568346023559
 30
0.0
 11
52.81581544876098
 21
11.70770597457885
 31
0.0
  0
LINE
  5
A6
330
1F
100
AcDbEntity
  8
TFR-TRI
  6
Continuous
 62
    18
100
AcDbLine
 10
52.81581544876098
 20
8.558100223541259
 30
0.0
 11
52.77828645706176
 21
8.566077709197998
 31
0.0
  0
LINE
  5
A7
330
1F
100
AcDbEntity
  8
TFR-TRI
  6
Continuous
 62
    18
100
AcDbLine
 10
52.72604417800903
 20
8.619464397430419
 30
0.0
 11
52.72220659255982
 21
8.626110553741455
 31
0.0
  0
LINE
  5
A8
330
1F
100
AcDbEntity
  8
TFR-TRI
  6
Continuous
 62
    18
100
AcDbLine
 10
52.72220659255982
 20
8.626110553741455
 30
0.0
 11
52.71793031692505
 21
8.666813373565673
 31
0.0
  0
LINE
  5
A9
330
1F
100
AcDbEntity
  8
TFR-TRI
  6
Continuous
 62
    18
100
AcDbLine
 10
52.71793031692505
 20
8.666813373565673
 30
0.0
 11
52.7266240119934
 21
8.693574428558349
 31
0.0
  0
LINE
  5
AA
330
1F
100
AcDbEntity
  8
TFR-TRI
  6
Continuous
 62
    18
100
AcDbLine
 10
52.77899599075317
 20
8.745516300201416
 30
0.0
 11
52.79535341262818
 21
8.75279951095581
 31
0.0
  0
LINE
  5
AB
330
1F
100
AcDbEntity
  8
TFR-TRI
  6
Continuous
 62
    18
100
AcDbLine
 10
52.79535341262818
 20
8.75279951095581
 30
0.0
 11
52.83628129959106
 21
8.75279951095581
 31
0.0
  0
LINE
  5
AC
330
1F
100
AcDbEntity
  8
TFR-TRI
  6
Continuous
 62
    18
100
AcDbLine
 10
52.83628129959106
 20
8.75279951095581
 30
0.0
 11
52.85263872146606
 21
8.745516300201416
 31
0.0
  0
LINE
  5
AD
330
1F
100
AcDbEntity
  8
TFR-TRI
  6
Continuous
 62
    18
100
AcDbLine
 10
52.90500688552857
 20
8.693574428558349
 30
0.0
 11
52.91370058059692
 21
8.666813373565673
 31
0.0
  0
LINE
  5
AE
330
1F
100
AcDbEntity
  8
TFR-TRI
  6
Continuous
 62
    18
100
AcDbLine
 10
52.91370058059692
 20
8.666813373565673
 30
0.0
 11
52.90942430496215
 21
8.626110553741455
 31
0.0
  0
LINE
  5
AF
330
1F
100
AcDbEntity
  8
TFR-TRI
  6
Continuous
 62
    18
100
AcDbLine
 10
52.90942430496215
 20
8.626110553741455
 30
0.0
 11
52.90558671951294
 21
8.619464397430419
 31
0.0
  0
LINE
  5
B0
330
1F
100
AcDbEntity
  8
TFR-TRI
  6
Continuous
 62
    18
100
AcDbLine
 10
52.85334825515747
 20
8.566077709197998
 30
0.0
 11
52.81581544876098
 21
8.558100223541259
 31
0.0
  0
LINE
  5
B1
330
1F
100
AcDbEntity
  8
TFR-TRI
  6
Continuous
 62
    18
100
AcDbLine
 10
54.58353090286255
 20
10.92030477523803
 30
0.0
 11
54.54600191116333
 21
10.92828226089477
 31
0.0
  0
LINE
  5
B2
330
1F
100
AcDbEntity
  8
TFR-TRI
  6
Continuous
 62
    18
100
AcDbLine
 10
54.49376344680786
 20
10.98166894912719
 30
0.0
 11
54.48992586135864
 21
10.98831510543823
 31
0.0
  0
LINE
  5
B3
330
1F
100
AcDbEntity
  8
TFR-TRI
  6
Continuous
 62
    18
100
AcDbLine
 10
54.48992586135864
 20
10.98831510543823
 30
0.0
 11
54.48564577102661
 21
11.02901792526245
 31
0.0
  0
LINE
  5
B4
330
1F
100
AcDbEntity
  8
TFR-TRI
  6
Continuous
 62
    18
100
AcDbLine
 10
54.48564577102661
 20
11.02901792526245
 30
0.0
 11
54.49434328079224
 21
11.05577898025512
 31
0.0
  0
LINE
  5
B5
330
1F
100
AcDbEntity
  8
TFR-TRI
  6
Continuous
 62
    18
100
AcDbLine
 10
54.54671144485473
 20
11.10772180557251
 30
0.0
 11
54.56306886672973
 21
11.11500406265259
 31
0.0
  0
LINE
  5
B6
330
1F
100
AcDbEntity
  8
TFR-TRI
  6
Continuous
 62
    18
100
AcDbLine
 10
54.56306886672973
 20
11.11500406265259
 30
0.0
 11
54.60399675369263
 21
11.11500406265259
 31
0.0
  0
LINE
  5
B7
330
1F
100
AcDbEntity
  8
TFR-TRI
  6
Continuous
 62
    18
100
AcDbLine
 10
54.60399675369263
 20
11.11500406265259
 30
0.0
 11
54.62035417556762
 21
11.10772180557251
 31
0.0
  0
LINE
  5
B8
330
1F
100
AcDbEntity
  8
TFR-TRI
  6
Continuous
 62
    18
100
AcDbLine
 10
54.67272233963012
 20
11.05577898025512
 30
0.0
 11
54.68141984939575
 21
11.02901792526245
 31
0.0
  0
LINE
  5
B9
330
1F
100
AcDbEntity
  8
TFR-TRI
  6
Continuous
 62
    18
100
AcDbLine
 10
54.68141984939575
 20
11.02901792526245
 30
0.0
 11
54.67713975906372
 21
10.98831510543823
 31
0.0
  0
LINE
  5
BA
330
1F
100
AcDbEntity
  8
TFR-TRI
  6
Continuous
 62
    18
100
AcDbLine
 10
54.67713975906372
 20
10.98831510543823
 30
0.0
 11
54.6733021736145
 21
10.98166894912719
 31
0.0
  0
LINE
  5
BB
330
1F
100
AcDbEntity
  8
TFR-TRI
  6
Continuous
 62
    18
100
AcDbLine
 10
54.62106370925903
 20
10.92828226089477
 30
0.0
 11
54.58353090286255
 21
10.92030477523803
 31
0.0
  0
LINE
  5
BC
330
1F
100
AcDbEntity
  8
TFR-TRI
  6
Continuous
 62
    18
100
AcDbLine
 10
54.58353090286255
 20
7.967548847198486
 30
0.0
 11
54.54600191116333
 21
7.975526332855224
 31
0.0
  0
LINE
  5
BD
330
1F
100
AcDbEntity
  8
TFR-TRI
  6
Continuous
 62
    18
100
AcDbLine
 10
54.49376344680786
 20
8.028913021087646
 30
0.0
 11
54.48992586135864
 21
8.035559177398681
 31
0.0
  0
LINE
  5
BE
330
1F
100
AcDbEntity
  8
TFR-TRI
  6
Continuous
 62
    18
100
AcDbLine
 10
54.48992586135864
 20
8.035559177398681
 30
0.0
 11
54.48564577102661
 21
8.0762619972229
 31
0.0
  0
LINE
  5
BF
330
1F
100
AcDbEntity
  8
TFR-TRI
  6
Continuous
 62
    18
100
AcDbLine
 10
54.48564577102661
 20
8.0762619972229
 30
0.0
 11
54.49434328079224
 21
8.103023052215576
 31
0.0
  0
LINE
  5
C0
330
1F
100
AcDbEntity
  8
TFR-TRI
  6
Continuous
 62
    18
100
AcDbLine
 10
54.54671144485473
 20
8.154965877532958
 30
0.0
 11
54.56306886672973
 21
8.162248134613037
 31
0.0
  0
LINE
  5
C1
330
1F
100
AcDbEntity
  8
TFR-TRI
  6
Continuous
 62
    18
100
AcDbLine
 10
54.56306886672973
 20
8.162248134613037
 30
0.0
 11
54.60399675369263
 21
8.162248134613037
 31
0.0
  0
LINE
  5
C2
330
1F
100
AcDbEntity
  8
TFR-TRI
  6
Continuous
 62
    18
100
AcDbLine
 10
54.60399675369263
 20
8.162248134613037
 30
0.0
 11
54.62035417556762
 21
8.154965877532958
 31
0.0
  0
LINE
  5
C3
330
1F
100
AcDbEntity
  8
TFR-TRI
  6
Continuous
 62
    18
100
AcDbLine
 10
54.67272233963012
 20
8.103023052215576
 30
0.0
 11
54.68141984939575
 21
8.0762619972229
 31
0.0
  0
LINE
  5
C4
330
1F
100
AcDbEntity
  8
TFR-TRI
  6
Continuous
 62
    18
100
AcDbLine
 10
54.68141984939575
 20
8.0762619972229
 30
0.0
 11
54.67713975906372
 21
8.035559177398681
 31
0.0
  0
LINE
  5
C5
330
1F
100
AcDbEntity
  8
TFR-TRI
  6
Continuous
 62
    18
100
AcDbLine
 10
54.67713975906372
 20
8.035559177398681
 30
0.0
 11
54.6733021736145
 21
8.028913021087646
 31
0.0
  0
LINE
  5
C6
330
1F
100
AcDbEntity
  8
TFR-TRI
  6
Continuous
 62
    18
100
AcDbLine
 10
54.62106370925903
 20
7.975526332855224
 30
0.0
 11
54.58353090286255
 21
7.967548847198486
 31
0.0
  0
LINE
  5
C7
330
1F
100
AcDbEntity
  8
TFR-TRI
  6
Continuous
 62
    18
100
AcDbLine
 10
54.58353090286255
 20
5.802195072174072
 30
0.0
 11
54.54600191116333
 21
5.81017255783081
 31
0.0
  0
LINE
  5
C8
330
1F
100
AcDbEntity
  8
TFR-TRI
  6
Continuous
 62
    18
100
AcDbLine
 10
54.49376344680786
 20
5.863559246063232
 30
0.0
 11
54.48992586135864
 21
5.870204448699951
 31
0.0
  0
LINE
  5
C9
330
1F
100
AcDbEntity
  8
TFR-TRI
  6
Continuous
 62
    18
100
AcDbLine
 10
54.48992586135864
 20
5.870204448699951
 30
0.0
 11
54.48564577102661
 21
5.910908222198486
 31
0.0
  0
LINE
  5
CA
330
1F
100
AcDbEntity
  8
TFR-TRI
  6
Continuous
 62
    18
100
AcDbLine
 10
54.48564577102661
 20
5.910908222198486
 30
0.0
 11
54.49434328079224
 21
5.937668323516845
 31
0.0
  0
LINE
  5
CB
330
1F
100
AcDbEntity
  8
TFR-TRI
  6
Continuous
 62
    18
100
AcDbLine
 10
54.54671144485473
 20
5.989611148834228
 30
0.0
 11
54.56306886672973
 21
5.996894359588623
 31
0.0
  0
LINE
  5
CC
330
1F
100
AcDbEntity
  8
TFR-TRI
  6
Continuous
 62
    18
100
AcDbLine
 10
54.56306886672973
 20
5.996894359588623
 30
0.0
 11
54.60399675369263
 21
5.996894359588623
 31
0.0
  0
LINE
  5
CD
330
1F
100
AcDbEntity
  8
TFR-TRI
  6
Continuous
 62
    18
100
AcDbLine
 10
54.60399675369263
 20
5.996894359588623
 30
0.0
 11
54.62035417556762
 21
5.989611148834228
 31
0.0
  0
LINE
  5
CE
330
1F
100
AcDbEntity
  8
TFR-TRI
  6
Continuous
 62
    18
100
AcDbLine
 10
54.67272233963012
 20
5.937668323516845
 30
0.0
 11
54.68141984939575
 21
5.910908222198486
 31
0.0
  0
LINE
  5
CF
330
1F
100
AcDbEntity
  8
TFR-TRI
  6
Continuous
 62
    18
100
AcDbLine
 10
54.68141984939575
 20
5.910908222198486
 30
0.0
 11
54.67713975906372
 21
5.870204448699951
 31
0.0
  0
LINE
  5
D0
330
1F
100
AcDbEntity
  8
TFR-TRI
  6
Continuous
 62
    18
100
AcDbLine
 10
54.67713975906372
 20
5.870204448699951
 30
0.0
 11
54.6733021736145
 21
5.863559246063232
 31
0.0
  0
LINE
  5
D1
330
1F
100
AcDbEntity
  8
TFR-TRI
  6
Continuous
 62
    18
100
AcDbLine
 10
54.62106370925903
 20
5.81017255783081
 30
0.0
 11
54.58353090286255
 21
5.802195072174072
 31
0.0
  0
LINE
  5
D2
330
1F
100
AcDbEntity
  8
TFR-TRI
  6
Continuous
 62
    18
100
AcDbLine
 10
56.64652299880981
 20
18.69589567184448
 30
0.0
 11
52.74256944656372
 21
18.69589567184448
 31
0.0
  0
LINE
  5
D3
330
1F
100
AcDbEntity
  8
TFR-TRI
  6
Continuous
 62
    18
100
AcDbLine
 10
56.64652299880981
 20
18.69589567184448
 30
0.0
 11
56.69377183914185
 21
18.69589567184448
 31
0.0
  0
LINE
  5
D4
330
1F
100
AcDbEntity
  8
TFR-TRI
  6
Continuous
 62
    18
100
AcDbLine
 10
56.69377183914185
 20
18.69589567184448
 30
0.0
 11
56.728355884552
 21
18.69589567184448
 31
0.0
  0
LINE
  5
D5
330
1F
100
AcDbEntity
  8
TFR-TRI
  6
Continuous
 62
    18
100
AcDbLine
 10
56.728355884552
 20
18.69589567184448
 30
0.0
 11
56.74101686477661
 21
18.69589567184448
 31
0.0
  0
LINE
  5
D6
330
1F
100
AcDbEntity
  8
TFR-TRI
  6
Continuous
 62
    18
100
AcDbLine
 10
52.74256944656372
 20
3.341564655303955
 30
0.0
 11
56.64652299880981
 21
3.341564655303955
 31
0.0
  0
LINE
  5
D7
330
1F
100
AcDbEntity
  8
TFR-TRI
  6
Continuous
 62
    18
100
AcDbLine
 10
56.74101686477661
 20
3.341564655303955
 30
0.0
 11
56.728355884552
 21
3.341564655303955
 31
0.0
  0
LINE
  5
D8
330
1F
100
AcDbEntity
  8
TFR-TRI
  6
Continuous
 62
    18
100
AcDbLine
 10
56.728355884552
 20
3.341564655303955
 30
0.0
 11
56.69377183914185
 21
3.341564655303955
 31
0.0
  0
LINE
  5
D9
330
1F
100
AcDbEntity
  8
TFR-TRI
  6
Continuous
 62
    18
100
AcDbLine
 10
56.69377183914185
 20
3.341564655303955
 30
0.0
 11
56.64652299880981
 21
3.341564655303955
 31
0.0
  0
LINE
  5
DA
330
1F
100
AcDbEntity
  8
TFR-TRI
  6
Continuous
 62
    18
100
AcDbLine
 10
52.62636232376099
 20
18.62407636642456
 30
0.0
 11
51.67802095413208
 21
16.72739171981811
 31
0.0
  0
LINE
  5
DB
330
1F
100
AcDbEntity
  8
TFR-TRI
  6
Continuous
 62
    18
100
AcDbLine
 10
51.67802095413208
 20
5.310068607330322
 30
0.0
 11
52.62636232376099
 21
3.413383483886718
 31
0.0
  0
LINE
  5
DC
330
1F
100
AcDbEntity
  8
TFR-TRI
  6
Continuous
 62
    18
100
AcDbLine
 10
56.74101686477661
 20
18.69589567184448
 30
0.0
 11
56.74101686477661
 21
3.341564655303955
 31
0.0
  0
LINE
  5
DD
330
1F
100
AcDbEntity
  8
TFR-TRI
  6
Continuous
 62
    18
100
AcDbLine
 10
51.64651918411255
 20
5.310068607330322
 30
0.0
 11
51.58352708816528
 21
5.310068607330322
 31
0.0
  0
LINE
  5
DE
330
1F
100
AcDbEntity
  8
TFR-TRI
  6
Continuous
 62
    18
100
AcDbLine
 10
51.64651918411255
 20
5.310068607330322
 30
0.0
 11
51.65574693679809
 21
5.310068607330322
 31
0.0
  0
LINE
  5
DF
330
1F
100
AcDbEntity
  8
TFR-TRI
  6
Continuous
 62
    18
100
AcDbLine
 10
51.65574693679809
 20
5.310068607330322
 30
0.0
 11
51.67802095413208
 21
5.310068607330322
 31
0.0
  0
LINE
  5
E0
330
1F
100
AcDbEntity
  8
TFR-TRI
  6
Continuous
 62
    18
100
AcDbLine
 10
51.58352708816528
 20
16.72739171981811
 30
0.0
 11
51.64651918411255
 21
16.72739171981811
 31
0.0
  0
LINE
  5
E1
330
1F
100
AcDbEntity
  8
TFR-TRI
  6
Continuous
 62
    18
100
AcDbLine
 10
51.67802095413208
 20
16.72739171981811
 30
0.0
 11
51.65574693679809
 21
16.72739171981811
 31
0.0
  0
LINE
  5
E2
330
1F
100
AcDbEntity
  8
TFR-TRI
  6
Continuous
 62
    18
100
AcDbLine
 10
51.65574693679809
 20
16.72739171981811
 30
0.0
 11
51.64651918411255
 21
16.72739171981811
 31
0.0
  0
LINE
  5
E3
330
1F
100
AcDbEntity
  8
TFR-TRI
  6
Continuous
 62
    18
100
AcDbLine
 10
51.58352708816528
 20
5.310068607330322
 30
0.0
 11
51.58352708816528
 21
5.319958209991455
 31
0.0
  0
LINE
  5
E4
330
1F
100
AcDbEntity
  8
TFR-TRI
  6
Continuous
 62
    18
100
AcDbLine
 10
51.58352708816528
 20
5.319958209991455
 30
0.0
 11
51.58352708816528
 21
5.348122119903564
 31
0.0
  0
LINE
  5
E5
330
1F
100
AcDbEntity
  8
TFR-TRI
  6
Continuous
 62
    18
100
AcDbLine
 10
51.58352708816528
 20
5.348122119903564
 30
0.0
 11
51.58352708816528
 21
5.390271663665771
 31
0.0
  0
LINE
  5
E6
330
1F
100
AcDbEntity
  8
TFR-TRI
  6
Continuous
 62
    18
100
AcDbLine
 10
51.58352708816528
 20
5.390271663665771
 30
0.0
 11
51.58352708816528
 21
5.439989566802978
 31
0.0
  0
LINE
  5
E7
330
1F
100
AcDbEntity
  8
TFR-TRI
  6
Continuous
 62
    18
100
AcDbLine
 10
51.58352708816528
 20
5.439989566802978
 30
0.0
 11
51.58352708816528
 21
7.471522808074951
 31
0.0
  0
LINE
  5
E8
330
1F
100
AcDbEntity
  8
TFR-TRI
  6
Continuous
 62
    18
100
AcDbLine
 10
51.58352708816528
 20
13.81001806259155
 30
0.0
 11
51.58352708816528
 21
16.59747076034546
 31
0.0
  0
LINE
  5
E9
330
1F
100
AcDbEntity
  8
TFR-TRI
  6
Continuous
 62
    18
100
AcDbLine
 10
51.58352708816528
 20
16.59747076034546
 30
0.0
 11
51.58352708816528
 21
16.64718961715698
 31
0.0
  0
LINE
  5
EA
330
1F
100
AcDbEntity
  8
TFR-TRI
  6
Continuous
 62
    18
100
AcDbLine
 10
51.58352708816528
 20
16.64718961715698
 30
0.0
 11
51.58352708816528
 21
16.68933820724487
 31
0.0
  0
LINE
  5
EB
330
1F
100
AcDbEntity
  8
TFR-TRI
  6
Continuous
 62
    18
100
AcDbLine
 10
51.58352708816528
 20
16.68933820724487
 30
0.0
 11
51.58352708816528
 21
16.71750211715698
 31
0.0
  0
LINE
  5
EC
330
1F
100
AcDbEntity
  8
TFR-TRI
  6
Continuous
 62
    18
100
AcDbLine
 10
51.58352708816528
 20
16.71750211715698
 30
0.0
 11
51.58352708816528
 21
16.72739171981811
 31
0.0
  0
LINE
  5
ED
330
1F
100
AcDbEntity
  8
TFR-TRI
  6
Continuous
 62
    18
100
AcDbLine
 10
51.64651918411255
 20
5.439989566802978
 30
0.0
 11
51.64651918411255
 21
7.471522808074951
 31
0.0
  0
LINE
  5
EE
330
1F
100
AcDbEntity
  8
TFR-TRI
  6
Continuous
 62
    18
100
AcDbLine
 10
51.64651918411255
 20
13.81001806259155
 30
0.0
 11
51.64651918411255
 21
16.59747076034546
 31
0.0
  0
LINE
  5
EF
330
1F
100
AcDbEntity
  8
TFR-TRI
  6
Continuous
 62
    18
100
AcDbLine
 10
51.64651918411255
 20
5.439989566802978
 30
0.0
 11
51.64651918411255
 21
5.390271663665771
 31
0.0
  0
LINE
  5
F0
330
1F
100
AcDbEntity
  8
TFR-TRI
  6
Continuous
 62
    18
100
AcDbLine
 10
51.64651918411255
 20
5.390271663665771
 30
0.0
 11
51.64651918411255
 21
5.348122119903564
 31
0.0
  0
LINE
  5
F1
330
1F
100
AcDbEntity
  8
TFR-TRI
  6
Continuous
 62
    18
100
AcDbLine
 10
51.64651918411255
 20
5.348122119903564
 30
0.0
 11
51.64651918411255
 21
5.319958209991455
 31
0.0
  0
LINE
  5
F2
330
1F
100
AcDbEntity
  8
TFR-TRI
  6
Continuous
 62
    18
100
AcDbLine
 10
51.64651918411255
 20
5.319958209991455
 30
0.0
 11
51.64651918411255
 21
5.310068607330322
 31
0.0
  0
LINE
  5
F3
330
1F
100
AcDbEntity
  8
TFR-TRI
  6
Continuous
 62
    18
100
AcDbLine
 10
51.64651918411255
 20
16.72739171981811
 30
0.0
 11
51.64651918411255
 21
16.71750211715698
 31
0.0
  0
LINE
  5
F4
330
1F
100
AcDbEntity
  8
TFR-TRI
  6
Continuous
 62
    18
100
AcDbLine
 10
51.64651918411255
 20
16.71750211715698
 30
0.0
 11
51.64651918411255
 21
16.68933820724487
 31
0.0
  0
LINE
  5
F5
330
1F
100
AcDbEntity
  8
TFR-TRI
  6
Continuous
 62
    18
100
AcDbLine
 10
51.64651918411255
 20
16.68933820724487
 30
0.0
 11
51.64651918411255
 21
16.64718961715698
 31
0.0
  0
LINE
  5
F6
330
1F
100
AcDbEntity
  8
TFR-TRI
  6
Continuous
 62
    18
100
AcDbLine
 10
51.64651918411255
 20
16.64718961715698
 30
0.0
 11
51.64651918411255
 21
16.59747076034546
 31
0.0
  0
LINE
  5
F7
330
1F
100
AcDbEntity
  8
TFR-TRI
  6
Continuous
 62
    18
100
AcDbLine
 10
5.327619075775146
 20
7.967552661895751
 30
0.0
 11
5.290088176727294
 21
7.97553014755249
 31
0.0
  0
LINE
  5
F8
330
1F
100
AcDbEntity
  8
TFR-TRI
  6
Continuous
 62
    18
100
AcDbLine
 10
5.237847805023193
 20
8.028916835784912
 30
0.0
 11
5.234011173248291
 21
8.035562992095947
 31
0.0
  0
LINE
  5
F9
330
1F
100
AcDbEntity
  8
TFR-TRI
  6
Continuous
 62
    18
100
AcDbLine
 10
5.234011173248291
 20
8.035562992095947
 30
0.0
 11
5.229732990264892
 21
8.076266765594482
 31
0.0
  0
LINE
  5
FA
330
1F
100
AcDbEntity
  8
TFR-TRI
  6
Continuous
 62
    18
100
AcDbLine
 10
5.229732990264892
 20
8.076266765594482
 30
0.0
 11
5.238428592681884
 21
8.103026866912841
 31
0.0
  0
LINE
  5
FB
330
1F
100
AcDbEntity
  8
TFR-TRI
  6
Continuous
 62
    18
100
AcDbLine
 10
5.290797710418701
 20
8.154969692230224
 30
0.0
 11
5.307155132293701
 21
8.162252902984619
 31
0.0
  0
LINE
  5
FC
330
1F
100
AcDbEntity
  8
TFR-TRI
  6
Continuous
 62
    18
100
AcDbLine
 10
5.307155132293701
 20
8.162252902984619
 30
0.0
 11
5.348083019256591
 21
8.162252902984619
 31
0.0
  0
LINE
  5
FD
330
1F
100
AcDbEntity
  8
TFR-TRI
  6
Continuous
 62
    18
100
AcDbLine
 10
5.348083019256591
 20
8.162252902984619
 30
0.0
 11
5.364440441131591
 21
8.154969692230224
 31
0.0
  0
LINE
  5
FE
330
1F
100
AcDbEntity
  8
TFR-TRI
  6
Continuous
 62
    18
100
AcDbLine
 10
5.416810512542724
 20
8.103026866912841
 30
0.0
 11
5.4255051612854
 21
8.076266765594482
 31
0.0
  0
LINE
  5
FF
330
1F
100
AcDbEntity
  8
TFR-TRI
  6
Continuous
 62
    18
100
AcDbLine
 10
5.4255051612854
 20
8.076266765594482
 30
0.0
 11
5.421226978302001
 21
8.035562992095947
 31
0.0
  0
LINE
  5
100
330
1F
100
AcDbEntity
  8
TFR-TRI
  6
Continuous
 62
    18
100
AcDbLine
 10
5.421226978302001
 20
8.035562992095947
 30
0.0
 11
5.417390346527099
 21
8.028916835784912
 31
0.0
  0
LINE
  5
101
330
1F
100
AcDbEntity
  8
TFR-TRI
  6
Continuous
 62
    18
100
AcDbLine
 10
5.365149974822998
 20
7.97553014755249
 30
0.0
 11
5.327619075775146
 21
7.967552661895751
 31
0.0
  0
LINE
  5
102
330
1F
100
AcDbEntity
  8
TFR-TRI
  6
Continuous
 62
    18
100
AcDbLine
 10
7.095335483551025
 20
14.73920583724975
 30
0.0
 11
7.057804584503173
 21
14.74718427658081
 31
0.0
  0
LINE
  5
103
330
1F
100
AcDbEntity
  8
TFR-TRI
  6
Continuous
 62
    18
100
AcDbLine
 10
7.005565166473388
 20
14.80057096481323
 30
0.0
 11
7.001727581024169
 21
14.80721616744995
 31
0.0
  0
LINE
  5
104
330
1F
100
AcDbEntity
  8
TFR-TRI
  6
Continuous
 62
    18
100
AcDbLine
 10
7.001727581024169
 20
14.80721616744995
 30
0.0
 11
6.997449398040771
 21
14.84791898727417
 31
0.0
  0
LINE
  5
105
330
1F
100
AcDbEntity
  8
TFR-TRI
  6
Continuous
 62
    18
100
AcDbLine
 10
6.997449398040771
 20
14.84791898727417
 30
0.0
 11
7.006145000457763
 21
14.87468099594116
 31
0.0
  0
LINE
  5
106
330
1F
100
AcDbEntity
  8
TFR-TRI
  6
Continuous
 62
    18
100
AcDbLine
 10
7.05851411819458
 20
14.92662382125854
 30
0.0
 11
7.07487154006958
 21
14.93390607833862
 31
0.0
  0
LINE
  5
107
330
1F
100
AcDbEntity
  8
TFR-TRI
  6
Continuous
 62
    18
100
AcDbLine
 10
7.07487154006958
 20
14.93390607833862
 30
0.0
 11
7.11579942703247
 21
14.93390607833862
 31
0.0
  0
LINE
  5
108
330
1F
100
AcDbEntity
  8
TFR-TRI
  6
Continuous
 62
    18
100
AcDbLine
 10
7.11579942703247
 20
14.93390607833862
 30
0.0
 11
7.13215684890747
 21
14.92662382125854
 31
0.0
  0
LINE
  5
109
330
1F
100
AcDbEntity
  8
TFR-TRI
  6
Continuous
 62
    18
100
AcDbLine
 10
7.184526920318603
 20
14.87468099594116
 30
0.0
 11
7.193221569061279
 21
14.84791898727417
 31
0.0
  0
LINE
  5
10A
330
1F
100
AcDbEntity
  8
TFR-TRI
  6
Continuous
 62
    18
100
AcDbLine
 10
7.193221569061279
 20
14.84791898727417
 30
0.0
 11
7.18894338607788
 21
14.80721616744995
 31
0.0
  0
LINE
  5
10B
330
1F
100
AcDbEntity
  8
TFR-TRI
  6
Continuous
 62
    18
100
AcDbLine
 10
7.18894338607788
 20
14.80721616744995
 30
0.0
 11
7.185106754302978
 21
14.80057096481323
 31
0.0
  0
LINE
  5
10C
330
1F
100
AcDbEntity
  8
TFR-TRI
  6
Continuous
 62
    18
100
AcDbLine
 10
7.132866382598876
 20
14.74718427658081
 30
0.0
 11
7.095335483551025
 21
14.73920583724975
 31
0.0
  0
LINE
  5
10D
330
1F
100
AcDbEntity
  8
TFR-TRI
  6
Continuous
 62
    18
100
AcDbLine
 10
7.095335483551025
 20
8.558104038238525
 30
0.0
 11
7.057804584503173
 21
8.566081523895263
 31
0.0
  0
LINE
  5
10E
330
1F
100
AcDbEntity
  8
TFR-TRI
  6
Continuous
 62
    18
100
AcDbLine
 10
7.005565166473388
 20
8.619468212127685
 30
0.0
 11
7.001727581024169
 21
8.62611436843872
 31
0.0
  0
LINE
  5
10F
330
1F
100
AcDbEntity
  8
TFR-TRI
  6
Continuous
 62
    18
100
AcDbLine
 10
7.001727581024169
 20
8.62611436843872
 30
0.0
 11
6.997449398040771
 21
8.666817188262939
 31
0.0
  0
LINE
  5
110
330
1F
100
AcDbEntity
  8
TFR-TRI
  6
Continuous
 62
    18
100
AcDbLine
 10
6.997449398040771
 20
8.666817188262939
 30
0.0
 11
7.006145000457763
 21
8.693578243255615
 31
0.0
  0
LINE
  5
111
330
1F
100
AcDbEntity
  8
TFR-TRI
  6
Continuous
 62
    18
100
AcDbLine
 10
7.05851411819458
 20
8.745521068572998
 30
0.0
 11
7.07487154006958
 21
8.752803325653076
 31
0.0
  0
LINE
  5
112
330
1F
100
AcDbEntity
  8
TFR-TRI
  6
Continuous
 62
    18
100
AcDbLine
 10
7.07487154006958
 20
8.752803325653076
 30
0.0
 11
7.11579942703247
 21
8.752803325653076
 31
0.0
  0
LINE
  5
113
330
1F
100
AcDbEntity
  8
TFR-TRI
  6
Continuous
 62
    18
100
AcDbLine
 10
7.11579942703247
 20
8.752803325653076
 30
0.0
 11
7.13215684890747
 21
8.745521068572998
 31
0.0
  0
LINE
  5
114
330
1F
100
AcDbEntity
  8
TFR-TRI
  6
Continuous
 62
    18
100
AcDbLine
 10
7.184526920318603
 20
8.693578243255615
 30
0.0
 11
7.193221569061279
 21
8.666817188262939
 31
0.0
  0
LINE
  5
115
330
1F
100
AcDbEntity
  8
TFR-TRI
  6
Continuous
 62
    18
100
AcDbLine
 10
7.193221569061279
 20
8.666817188262939
 30
0.0
 11
7.18894338607788
 21
8.62611436843872
 31
0.0
  0
LINE
  5
116
330
1F
100
AcDbEntity
  8
TFR-TRI
  6
Continuous
 62
    18
100
AcDbLine
 10
7.18894338607788
 20
8.62611436843872
 30
0.0
 11
7.185106754302978
 21
8.619468212127685
 31
0.0
  0
LINE
  5
117
330
1F
100
AcDbEntity
  8
TFR-TRI
  6
Continuous
 62
    18
100
AcDbLine
 10
7.132866382598876
 20
8.566081523895263
 30
0.0
 11
7.095335483551025
 21
8.558104038238525
 31
0.0
  0
LINE
  5
118
330
1F
100
AcDbEntity
  8
TFR-TRI
  6
Continuous
 62
    18
100
AcDbLine
 10
7.095335483551025
 20
11.70771074295044
 30
0.0
 11
7.057804584503173
 21
11.71568822860717
 31
0.0
  0
LINE
  5
119
330
1F
100
AcDbEntity
  8
TFR-TRI
  6
Continuous
 62
    18
100
AcDbLine
 10
7.005565166473388
 20
11.7690749168396
 30
0.0
 11
7.001727581024169
 21
11.77572011947632
 31
0.0
  0
LINE
  5
11A
330
1F
100
AcDbEntity
  8
TFR-TRI
  6
Continuous
 62
    18
100
AcDbLine
 10
7.001727581024169
 20
11.77572011947632
 30
0.0
 11
6.997449398040771
 21
11.81642389297485
 31
0.0
  0
LINE
  5
11B
330
1F
100
AcDbEntity
  8
TFR-TRI
  6
Continuous
 62
    18
100
AcDbLine
 10
6.997449398040771
 20
11.81642389297485
 30
0.0
 11
7.006145000457763
 21
11.84318399429321
 31
0.0
  0
LINE
  5
11C
330
1F
100
AcDbEntity
  8
TFR-TRI
  6
Continuous
 62
    18
100
AcDbLine
 10
7.05851411819458
 20
11.89512681961059
 30
0.0
 11
7.07487154006958
 21
11.90241003036499
 31
0.0
  0
LINE
  5
11D
330
1F
100
AcDbEntity
  8
TFR-TRI
  6
Continuous
 62
    18
100
AcDbLine
 10
7.07487154006958
 20
11.90241003036499
 30
0.0
 11
7.11579942703247
 21
11.90241003036499
 31
0.0
  0
LINE
  5
11E
330
1F
100
AcDbEntity
  8
TFR-TRI
  6
Continuous
 62
    18
100
AcDbLine
 10
7.11579942703247
 20
11.90241003036499
 30
0.0
 11
7.13215684890747
 21
11.89512681961059
 31
0.0
  0
LINE
  5
11F
330
1F
100
AcDbEntity
  8
TFR-TRI
  6
Continuous
 62
    18
100
AcDbLine
 10
7.184526920318603
 20
11.84318399429321
 30
0.0
 11
7.193221569061279
 21
11.81642389297485
 31
0.0
  0
LINE
  5
120
330
1F
100
AcDbEntity
  8
TFR-TRI
  6
Continuous
 62
    18
100
AcDbLine
 10
7.193221569061279
 20
11.81642389297485
 30
0.0
 11
7.18894338607788
 21
11.77572011947632
 31
0.0
  0
LINE
  5
121
330
1F
100
AcDbEntity
  8
TFR-TRI
  6
Continuous
 62
    18
100
AcDbLine
 10
7.18894338607788
 20
11.77572011947632
 30
0.0
 11
7.185106754302978
 21
11.7690749168396
 31
0.0
  0
LINE
  5
122
330
1F
100
AcDbEntity
  8
TFR-TRI
  6
Continuous
 62
    18
100
AcDbLine
 10
7.132866382598876
 20
11.71568822860717
 30
0.0
 11
7.095335483551025
 21
11.70771074295044
 31
0.0
  0
LINE
  5
123
330
1F
100
AcDbEntity
  8
TFR-TRI
  6
Continuous
 62
    18
100
AcDbLine
 10
5.327619075775146
 20
5.802198886871337
 30
0.0
 11
5.290088176727294
 21
5.810176372528076
 31
0.0
  0
LINE
  5
124
330
1F
100
AcDbEntity
  8
TFR-TRI
  6
Continuous
 62
    18
100
AcDbLine
 10
5.237847805023193
 20
5.863563060760498
 30
0.0
 11
5.234011173248291
 21
5.870208263397216
 31
0.0
  0
LINE
  5
125
330
1F
100
AcDbEntity
  8
TFR-TRI
  6
Continuous
 62
    18
100
AcDbLine
 10
5.234011173248291
 20
5.870208263397216
 30
0.0
 11
5.229732990264892
 21
5.910912036895751
 31
0.0
  0
LINE
  5
126
330
1F
100
AcDbEntity
  8
TFR-TRI
  6
Continuous
 62
    18
100
AcDbLine
 10
5.229732990264892
 20
5.910912036895751
 30
0.0
 11
5.238428592681884
 21
5.937672138214111
 31
0.0
  0
LINE
  5
127
330
1F
100
AcDbEntity
  8
TFR-TRI
  6
Continuous
 62
    18
100
AcDbLine
 10
5.290797710418701
 20
5.989614963531494
 30
0.0
 11
5.307155132293701
 21
5.996898174285888
 31
0.0
  0
LINE
  5
128
330
1F
100
AcDbEntity
  8
TFR-TRI
  6
Continuous
 62
    18
100
AcDbLine
 10
5.307155132293701
 20
5.996898174285888
 30
0.0
 11
5.348083019256591
 21
5.996898174285888
 31
0.0
  0
LINE
  5
129
330
1F
100
AcDbEntity
  8
TFR-TRI
  6
Continuous
 62
    18
100
AcDbLine
 10
5.348083019256591
 20
5.996898174285888
 30
0.0
 11
5.364440441131591
 21
5.989614963531494
 31
0.0
  0
LINE
  5
12A
330
1F
100
AcDbEntity
  8
TFR-TRI
  6
Continuous
 62
    18
100
AcDbLine
 10
5.416810512542724
 20
5.937672138214111
 30
0.0
 11
5.4255051612854
 21
5.910912036895751
 31
0.0
  0
LINE
  5
12B
330
1F
100
AcDbEntity
  8
TFR-TRI
  6
Continuous
 62
    18
100
AcDbLine
 10
5.4255051612854
 20
5.910912036895751
 30
0.0
 11
5.421226978302001
 21
5.870208263397216
 31
0.0
  0
LINE
  5
12C
330
1F
100
AcDbEntity
  8
TFR-TRI
  6
Continuous
 62
    18
100
AcDbLine
 10
5.421226978302001
 20
5.870208263397216
 30
0.0
 11
5.417390346527099
 21
5.863563060760498
 31
0.0
  0
LINE
  5
12D
330
1F
100
AcDbEntity
  8
TFR-TRI
  6
Continuous
 62
    18
100
AcDbLine
 10
5.365149974822998
 20
5.810176372528076
 30
0.0
 11
5.327619075775146
 21
5.802198886871337
 31
0.0
  0
LINE
  5
12E
330
1F
100
AcDbEntity
  8
TFR-TRI
  6
Continuous
 62
    18
100
AcDbLine
 10
7.095335483551025
 20
7.101411342620849
 30
0.0
 11
7.057804584503173
 21
7.109388828277587
 31
0.0
  0
LINE
  5
12F
330
1F
100
AcDbEntity
  8
TFR-TRI
  6
Continuous
 62
    18
100
AcDbLine
 10
7.005565166473388
 20
7.162775516510009
 30
0.0
 11
7.001727581024169
 21
7.169421672821044
 31
0.0
  0
LINE
  5
130
330
1F
100
AcDbEntity
  8
TFR-TRI
  6
Continuous
 62
    18
100
AcDbLine
 10
7.001727581024169
 20
7.169421672821044
 30
0.0
 11
6.997449398040771
 21
7.210124492645263
 31
0.0
  0
LINE
  5
131
330
1F
100
AcDbEntity
  8
TFR-TRI
  6
Continuous
 62
    18
100
AcDbLine
 10
6.997449398040771
 20
7.210124492645263
 30
0.0
 11
7.006145000457763
 21
7.236885547637939
 31
0.0
  0
LINE
  5
132
330
1F
100
AcDbEntity
  8
TFR-TRI
  6
Continuous
 62
    18
100
AcDbLine
 10
7.05851411819458
 20
7.288827419281005
 30
0.0
 11
7.07487154006958
 21
7.2961106300354
 31
0.0
  0
LINE
  5
133
330
1F
100
AcDbEntity
  8
TFR-TRI
  6
Continuous
 62
    18
100
AcDbLine
 10
7.07487154006958
 20
7.2961106300354
 30
0.0
 11
7.11579942703247
 21
7.2961106300354
 31
0.0
  0
LINE
  5
134
330
1F
100
AcDbEntity
  8
TFR-TRI
  6
Continuous
 62
    18
100
AcDbLine
 10
7.11579942703247
 20
7.2961106300354
 30
0.0
 11
7.13215684890747
 21
7.288827419281005
 31
0.0
  0
LINE
  5
135
330
1F
100
AcDbEntity
  8
TFR-TRI
  6
Continuous
 62
    18
100
AcDbLine
 10
7.184526920318603
 20
7.236885547637939
 30
0.0
 11
7.193221569061279
 21
7.210124492645263
 31
0.0
  0
LINE
  5
136
330
1F
100
AcDbEntity
  8
TFR-TRI
  6
Continuous
 62
    18
100
AcDbLine
 10
7.193221569061279
 20
7.210124492645263
 30
0.0
 11
7.18894338607788
 21
7.169421672821044
 31
0.0
  0
LINE
  5
137
330
1F
100
AcDbEntity
  8
TFR-TRI
  6
Continuous
 62
    18
100
AcDbLine
 10
7.18894338607788
 20
7.169421672821044
 30
0.0
 11
7.185106754302978
 21
7.162775516510009
 31
0.0
  0
LINE
  5
138
330
1F
100
AcDbEntity
  8
TFR-TRI
  6
Continuous
 62
    18
100
AcDbLine
 10
7.132866382598876
 20
7.109388828277587
 30
0.0
 11
7.095335483551025
 21
7.101411342620849
 31
0.0
  0
LINE
  5
139
330
1F
100
AcDbEntity
  8
TFR-TRI
  6
Continuous
 62
    18
100
AcDbLine
 10
5.327619075775146
 20
4.22739553451538
 30
0.0
 11
5.290088176727294
 21
4.235373020172119
 31
0.0
  0
LINE
  5
13A
330
1F
100
AcDbEntity
  8
TFR-TRI
  6
Continuous
 62
    18
100
AcDbLine
 10
5.237847805023193
 20
4.288759708404541
 30
0.0
 11
5.234011173248291
 21
4.295405387878417
 31
0.0
  0
LINE
  5
13B
330
1F
100
AcDbEntity
  8
TFR-TRI
  6
Continuous
 62
    18
100
AcDbLine
 10
5.234011173248291
 20
4.295405387878417
 30
0.0
 11
5.229732990264892
 21
4.336108684539794
 31
0.0
  0
LINE
  5
13C
330
1F
100
AcDbEntity
  8
TFR-TRI
  6
Continuous
 62
    18
100
AcDbLine
 10
5.229732990264892
 20
4.336108684539794
 30
0.0
 11
5.238428592681884
 21
4.362869262695312
 31
0.0
  0
LINE
  5
13D
330
1F
100
AcDbEntity
  8
TFR-TRI
  6
Continuous
 62
    18
100
AcDbLine
 10
5.290797710418701
 20
4.414812088012695
 30
0.0
 11
5.307155132293701
 21
4.422094821929931
 31
0.0
  0
LINE
  5
13E
330
1F
100
AcDbEntity
  8
TFR-TRI
  6
Continuous
 62
    18
100
AcDbLine
 10
5.307155132293701
 20
4.422094821929931
 30
0.0
 11
5.348083019256591
 21
4.422094821929931
 31
0.0
  0
LINE
  5
13F
330
1F
100
AcDbEntity
  8
TFR-TRI
  6
Continuous
 62
    18
100
AcDbLine
 10
5.348083019256591
 20
4.422094821929931
 30
0.0
 11
5.364440441131591
 21
4.414812088012695
 31
0.0
  0
LINE
  5
140
330
1F
100
AcDbEntity
  8
TFR-TRI
  6
Continuous
 62
    18
100
AcDbLine
 10
5.416810512542724
 20
4.362869262695312
 30
0.0
 11
5.4255051612854
 21
4.336108684539794
 31
0.0
  0
LINE
  5
141
330
1F
100
AcDbEntity
  8
TFR-TRI
  6
Continuous
 62
    18
100
AcDbLine
 10
5.4255051612854
 20
4.336108684539794
 30
0.0
 11
5.421226978302001
 21
4.295405387878417
 31
0.0
  0
LINE
  5
142
330
1F
100
AcDbEntity
  8
TFR-TRI
  6
Continuous
 62
    18
100
AcDbLine
 10
5.421226978302001
 20
4.295405387878417
 30
0.0
 11
5.417390346527099
 21
4.288759708404541
 31
0.0
  0
LINE
  5
143
330
1F
100
AcDbEntity
  8
TFR-TRI
  6
Continuous
 62
    18
100
AcDbLine
 10
5.365149974822998
 20
4.235373020172119
 30
0.0
 11
5.327619075775146
 21
4.22739553451538
 31
0.0
  0
LINE
  5
144
330
1F
100
AcDbEntity
  8
TFR-TRI
  6
Continuous
 62
    18
100
AcDbLine
 10
7.095335483551025
 20
10.13290739059448
 30
0.0
 11
7.057804584503173
 21
10.14088487625122
 31
0.0
  0
LINE
  5
145
330
1F
100
AcDbEntity
  8
TFR-TRI
  6
Continuous
 62
    18
100
AcDbLine
 10
7.005565166473388
 20
10.19427156448364
 30
0.0
 11
7.001727581024169
 21
10.20091772079467
 31
0.0
  0
LINE
  5
146
330
1F
100
AcDbEntity
  8
TFR-TRI
  6
Continuous
 62
    18
100
AcDbLine
 10
7.001727581024169
 20
10.20091772079467
 30
0.0
 11
6.997449398040771
 21
10.24162054061889
 31
0.0
  0
LINE
  5
147
330
1F
100
AcDbEntity
  8
TFR-TRI
  6
Continuous
 62
    18
100
AcDbLine
 10
6.997449398040771
 20
10.24162054061889
 30
0.0
 11
7.006145000457763
 21
10.26838159561157
 31
0.0
  0
LINE
  5
148
330
1F
100
AcDbEntity
  8
TFR-TRI
  6
Continuous
 62
    18
100
AcDbLine
 10
7.05851411819458
 20
10.32032346725464
 30
0.0
 11
7.07487154006958
 21
10.32760667800903
 31
0.0
  0
LINE
  5
149
330
1F
100
AcDbEntity
  8
TFR-TRI
  6
Continuous
 62
    18
100
AcDbLine
 10
7.07487154006958
 20
10.32760667800903
 30
0.0
 11
7.11579942703247
 21
10.32760667800903
 31
0.0
  0
LINE
  5
14A
330
1F
100
AcDbEntity
  8
TFR-TRI
  6
Continuous
 62
    18
100
AcDbLine
 10
7.11579942703247
 20
10.32760667800903
 30
0.0
 11
7.13215684890747
 21
10.32032346725464
 31
0.0
  0
LINE
  5
14B
330
1F
100
AcDbEntity
  8
TFR-TRI
  6
Continuous
 62
    18
100
AcDbLine
 10
7.184526920318603
 20
10.26838159561157
 30
0.0
 11
7.193221569061279
 21
10.24162054061889
 31
0.0
  0
LINE
  5
14C
330
1F
100
AcDbEntity
  8
TFR-TRI
  6
Continuous
 62
    18
100
AcDbLine
 10
7.193221569061279
 20
10.24162054061889
 30
0.0
 11
7.18894338607788
 21
10.20091772079467
 31
0.0
  0
LINE
  5
14D
330
1F
100
AcDbEntity
  8
TFR-TRI
  6
Continuous
 62
    18
100
AcDbLine
 10
7.18894338607788
 20
10.20091772079467
 30
0.0
 11
7.185106754302978
 21
10.19427156448364
 31
0.0
  0
LINE
  5
14E
330
1F
100
AcDbEntity
  8
TFR-TRI
  6
Continuous
 62
    18
100
AcDbLine
 10
7.132866382598876
 20
10.14088487625122
 30
0.0
 11
7.095335483551025
 21
10.13290739059448
 31
0.0
  0
LINE
  5
14F
330
1F
100
AcDbEntity
  8
TFR-TRI
  6
Continuous
 62
    18
100
AcDbLine
 10
7.095335483551025
 20
13.28251409530639
 30
0.0
 11
7.057804584503173
 21
13.29049062728882
 31
0.0
  0
LINE
  5
150
330
1F
100
AcDbEntity
  8
TFR-TRI
  6
Continuous
 62
    18
100
AcDbLine
 10
7.005565166473388
 20
13.34387731552124
 30
0.0
 11
7.001727581024169
 21
13.35052442550659
 31
0.0
  0
LINE
  5
151
330
1F
100
AcDbEntity
  8
TFR-TRI
  6
Continuous
 62
    18
100
AcDbLine
 10
7.001727581024169
 20
13.35052442550659
 30
0.0
 11
6.997449398040771
 21
13.39122724533081
 31
0.0
  0
LINE
  5
152
330
1F
100
AcDbEntity
  8
TFR-TRI
  6
Continuous
 62
    18
100
AcDbLine
 10
6.997449398040771
 20
13.39122724533081
 30
0.0
 11
7.006145000457763
 21
13.41798734664917
 31
0.0
  0
LINE
  5
153
330
1F
100
AcDbEntity
  8
TFR-TRI
  6
Continuous
 62
    18
100
AcDbLine
 10
7.05851411819458
 20
13.46993017196655
 30
0.0
 11
7.07487154006958
 21
13.47721242904663
 31
0.0
  0
LINE
  5
154
330
1F
100
AcDbEntity
  8
TFR-TRI
  6
Continuous
 62
    18
100
AcDbLine
 10
7.07487154006958
 20
13.47721242904663
 30
0.0
 11
7.11579942703247
 21
13.47721242904663
 31
0.0
  0
LINE
  5
155
330
1F
100
AcDbEntity
  8
TFR-TRI
  6
Continuous
 62
    18
100
AcDbLine
 10
7.11579942703247
 20
13.47721242904663
 30
0.0
 11
7.13215684890747
 21
13.46993017196655
 31
0.0
  0
LINE
  5
156
330
1F
100
AcDbEntity
  8
TFR-TRI
  6
Continuous
 62
    18
100
AcDbLine
 10
7.184526920318603
 20
13.41798734664917
 30
0.0
 11
7.193221569061279
 21
13.39122724533081
 31
0.0
  0
LINE
  5
157
330
1F
100
AcDbEntity
  8
TFR-TRI
  6
Continuous
 62
    18
100
AcDbLine
 10
7.193221569061279
 20
13.39122724533081
 30
0.0
 11
7.18894338607788
 21
13.35052442550659
 31
0.0
  0
LINE
  5
158
330
1F
100
AcDbEntity
  8
TFR-TRI
  6
Continuous
 62
    18
100
AcDbLine
 10
7.18894338607788
 20
13.35052442550659
 30
0.0
 11
7.185106754302978
 21
13.34387731552124
 31
0.0
  0
LINE
  5
159
330
1F
100
AcDbEntity
  8
TFR-TRI
  6
Continuous
 62
    18
100
AcDbLine
 10
7.132866382598876
 20
13.29049062728882
 30
0.0
 11
7.095335483551025
 21
13.28251409530639
 31
0.0
  0
LINE
  5
15A
330
1F
100
AcDbEntity
  8
TFR-TRI
  6
Continuous
 62
    18
100
AcDbLine
 10
5.327619075775146
 20
10.9203085899353
 30
0.0
 11
5.290088176727294
 21
10.92828607559204
 31
0.0
  0
LINE
  5
15B
330
1F
100
AcDbEntity
  8
TFR-TRI
  6
Continuous
 62
    18
100
AcDbLine
 10
5.237847805023193
 20
10.98167276382446
 30
0.0
 11
5.234011173248291
 21
10.9883189201355
 31
0.0
  0
LINE
  5
15C
330
1F
100
AcDbEntity
  8
TFR-TRI
  6
Continuous
 62
    18
100
AcDbLine
 10
5.234011173248291
 20
10.9883189201355
 30
0.0
 11
5.229732990264892
 21
11.02902269363403
 31
0.0
  0
LINE
  5
15D
330
1F
100
AcDbEntity
  8
TFR-TRI
  6
Continuous
 62
    18
100
AcDbLine
 10
5.229732990264892
 20
11.02902269363403
 30
0.0
 11
5.238428592681884
 21
11.05578279495239
 31
0.0
  0
LINE
  5
15E
330
1F
100
AcDbEntity
  8
TFR-TRI
  6
Continuous
 62
    18
100
AcDbLine
 10
5.290797710418701
 20
11.10772562026977
 30
0.0
 11
5.307155132293701
 21
11.11500883102417
 31
0.0
  0
LINE
  5
15F
330
1F
100
AcDbEntity
  8
TFR-TRI
  6
Continuous
 62
    18
100
AcDbLine
 10
5.307155132293701
 20
11.11500883102417
 30
0.0
 11
5.348083019256591
 21
11.11500883102417
 31
0.0
  0
LINE
  5
160
330
1F
100
AcDbEntity
  8
TFR-TRI
  6
Continuous
 62
    18
100
AcDbLine
 10
5.348083019256591
 20
11.11500883102417
 30
0.0
 11
5.364440441131591
 21
11.10772562026977
 31
0.0
  0
LINE
  5
161
330
1F
100
AcDbEntity
  8
TFR-TRI
  6
Continuous
 62
    18
100
AcDbLine
 10
5.416810512542724
 20
11.05578279495239
 30
0.0
 11
5.4255051612854
 21
11.02902269363403
 31
0.0
  0
LINE
  5
162
330
1F
100
AcDbEntity
  8
TFR-TRI
  6
Continuous
 62
    18
100
AcDbLine
 10
5.4255051612854
 20
11.02902269363403
 30
0.0
 11
5.421226978302001
 21
10.9883189201355
 31
0.0
  0
LINE
  5
163
330
1F
100
AcDbEntity
  8
TFR-TRI
  6
Continuous
 62
    18
100
AcDbLine
 10
5.421226978302001
 20
10.9883189201355
 30
0.0
 11
5.417390346527099
 21
10.98167276382446
 31
0.0
  0
LINE
  5
164
330
1F
100
AcDbEntity
  8
TFR-TRI
  6
Continuous
 62
    18
100
AcDbLine
 10
5.365149974822998
 20
10.92828607559204
 30
0.0
 11
5.327619075775146
 21
10.9203085899353
 31
0.0
  0
LINE
  5
165
330
1F
100
AcDbEntity
  8
TFR-TRI
  6
Continuous
 62
    18
100
AcDbLine
 10
3.26462697982788
 20
3.34156847000122
 30
0.0
 11
7.168583393096923
 21
3.34156847000122
 31
0.0
  0
LINE
  5
166
330
1F
100
AcDbEntity
  8
TFR-TRI
  6
Continuous
 62
    18
100
AcDbLine
 10
3.26462697982788
 20
3.34156847000122
 30
0.0
 11
3.217381000518798
 21
3.34156847000122
 31
0.0
  0
LINE
  5
167
330
1F
100
AcDbEntity
  8
TFR-TRI
  6
Continuous
 62
    18
100
AcDbLine
 10
3.217381000518798
 20
3.34156847000122
 30
0.0
 11
3.182794570922851
 21
3.34156847000122
 31
0.0
  0
LINE
  5
168
330
1F
100
AcDbEntity
  8
TFR-TRI
  6
Continuous
 62
    18
100
AcDbLine
 10
3.182794570922851
 20
3.34156847000122
 30
0.0
 11
3.170135021209716
 21
3.34156847000122
 31
0.0
  0
LINE
  5
169
330
1F
100
AcDbEntity
  8
TFR-TRI
  6
Continuous
 62
    18
100
AcDbLine
 10
7.168583393096923
 20
18.69589948654175
 30
0.0
 11
3.26462697982788
 21
18.69589948654175
 31
0.0
  0
LINE
  5
16A
330
1F
100
AcDbEntity
  8
TFR-TRI
  6
Continuous
 62
    18
100
AcDbLine
 10
3.170135021209716
 20
18.69589948654175
 30
0.0
 11
3.182794570922851
 21
18.69589948654175
 31
0.0
  0
LINE
  5
16B
330
1F
100
AcDbEntity
  8
TFR-TRI
  6
Continuous
 62
    18
100
AcDbLine
 10
3.182794570922851
 20
18.69589948654175
 30
0.0
 11
3.217381000518798
 21
18.69589948654175
 31
0.0
  0
LINE
  5
16C
330
1F
100
AcDbEntity
  8
TFR-TRI
  6
Continuous
 62
    18
100
AcDbLine
 10
3.217381000518798
 20
18.69589948654175
 30
0.0
 11
3.26462697982788
 21
18.69589948654175
 31
0.0
  0
LINE
  5
16D
330
1F
100
AcDbEntity
  8
TFR-TRI
  6
Continuous
 62
    18
100
AcDbLine
 10
7.284788608551025
 20
3.413387298583984
 30
0.0
 11
8.233130931854248
 21
5.310072422027587
 31
0.0
  0
LINE
  5
16E
330
1F
100
AcDbEntity
  8
TFR-TRI
  6
Continuous
 62
    18
100
AcDbLine
 10
8.233130931854248
 20
16.72739553451538
 30
0.0
 11
7.284788608551025
 21
18.62408018112182
 31
0.0
  0
LINE
  5
16F
330
1F
100
AcDbEntity
  8
TFR-TRI
  6
Continuous
 62
    18
100
AcDbLine
 10
3.170135021209716
 20
3.34156847000122
 30
0.0
 11
3.170135021209716
 21
18.69589948654175
 31
0.0
  0
LINE
  5
170
330
1F
100
AcDbEntity
  8
TFR-TRI
  6
Continuous
 62
    18
100
AcDbLine
 10
8.264630794525146
 20
16.72739553451538
 30
0.0
 11
8.327622890472412
 21
16.72739553451538
 31
0.0
  0
LINE
  5
171
330
1F
100
AcDbEntity
  8
TFR-TRI
  6
Continuous
 62
    18
100
AcDbLine
 10
8.264630794525146
 20
16.72739553451538
 30
0.0
 11
8.255404949188232
 21
16.72739553451538
 31
0.0
  0
LINE
  5
172
330
1F
100
AcDbEntity
  8
TFR-TRI
  6
Continuous
 62
    18
100
AcDbLine
 10
8.255404949188232
 20
16.72739553451538
 30
0.0
 11
8.233130931854248
 21
16.72739553451538
 31
0.0
  0
LINE
  5
173
330
1F
100
AcDbEntity
  8
TFR-TRI
  6
Continuous
 62
    18
100
AcDbLine
 10
8.327622890472412
 20
5.310072422027587
 30
0.0
 11
8.264630794525146
 21
5.310072422027587
 31
0.0
  0
LINE
  5
174
330
1F
100
AcDbEntity
  8
TFR-TRI
  6
Continuous
 62
    18
100
AcDbLine
 10
8.233130931854248
 20
5.310072422027587
 30
0.0
 11
8.255404949188232
 21
5.310072422027587
 31
0.0
  0
LINE
  5
175
330
1F
100
AcDbEntity
  8
TFR-TRI
  6
Continuous
 62
    18
100
AcDbLine
 10
8.255404949188232
 20
5.310072422027587
 30
0.0
 11
8.264630794525146
 21
5.310072422027587
 31
0.0
  0
LINE
  5
176
330
1F
100
AcDbEntity
  8
TFR-TRI
  6
Continuous
 62
    18
100
AcDbLine
 10
8.327622890472412
 20
16.72739553451538
 30
0.0
 11
8.327622890472412
 21
16.71750593185425
 31
0.0
  0
LINE
  5
177
330
1F
100
AcDbEntity
  8
TFR-TRI
  6
Continuous
 62
    18
100
AcDbLine
 10
8.327622890472412
 20
16.71750593185425
 30
0.0
 11
8.327622890472412
 21
16.68934202194214
 31
0.0
  0
LINE
  5
178
330
1F
100
AcDbEntity
  8
TFR-TRI
  6
Continuous
 62
    18
100
AcDbLine
 10
8.327622890472412
 20
16.68934202194214
 30
0.0
 11
8.327622890472412
 21
16.64719343185424
 31
0.0
  0
LINE
  5
179
330
1F
100
AcDbEntity
  8
TFR-TRI
  6
Continuous
 62
    18
100
AcDbLine
 10
8.327622890472412
 20
16.64719343185424
 30
0.0
 11
8.327622890472412
 21
16.59747457504272
 31
0.0
  0
LINE
  5
17A
330
1F
100
AcDbEntity
  8
TFR-TRI
  6
Continuous
 62
    18
100
AcDbLine
 10
8.327622890472412
 20
16.59747457504272
 30
0.0
 11
8.327622890472412
 21
13.81002187728882
 31
0.0
  0
LINE
  5
17B
330
1F
100
AcDbEntity
  8
TFR-TRI
  6
Continuous
 62
    18
100
AcDbLine
 10
8.327622890472412
 20
7.471526622772216
 30
0.0
 11
8.327622890472412
 21
5.439993381500244
 31
0.0
  0
LINE
  5
17C
330
1F
100
AcDbEntity
  8
TFR-TRI
  6
Continuous
 62
    18
100
AcDbLine
 10
8.327622890472412
 20
5.439993381500244
 30
0.0
 11
8.327622890472412
 21
5.390275478363037
 31
0.0
  0
LINE
  5
17D
330
1F
100
AcDbEntity
  8
TFR-TRI
  6
Continuous
 62
    18
100
AcDbLine
 10
8.327622890472412
 20
5.390275478363037
 30
0.0
 11
8.327622890472412
 21
5.34812593460083
 31
0.0
  0
LINE
  5
17E
330
1F
100
AcDbEntity
  8
TFR-TRI
  6
Continuous
 62
    18
100
AcDbLine
 10
8.327622890472412
 20
5.34812593460083
 30
0.0
 11
8.327622890472412
 21
5.31996202468872
 31
0.0
  0
LINE
  5
17F
330
1F
100
AcDbEntity
  8
TFR-TRI
  6
Continuous
 62
    18
100
AcDbLine
 10
8.327622890472412
 20
5.31996202468872
 30
0.0
 11
8.327622890472412
 21
5.310072422027587
 31
0.0
  0
LINE
  5
180
330
1F
100
AcDbEntity
  8
TFR-TRI
  6
Continuous
 62
    18
100
AcDbLine
 10
8.264630794525146
 20
16.59747457504272
 30
0.0
 11
8.264630794525146
 21
13.81002187728882
 31
0.0
  0
LINE
  5
181
330
1F
100
AcDbEntity
  8
TFR-TRI
  6
Continuous
 62
    18
100
AcDbLine
 10
8.264630794525146
 20
7.471526622772216
 30
0.0
 11
8.264630794525146
 21
5.439993381500244
 31
0.0
  0
LINE
  5
182
330
1F
100
AcDbEntity
  8
TFR-TRI
  6
Continuous
 62
    18
100
AcDbLine
 10
8.264630794525146
 20
16.59747457504272
 30
0.0
 11
8.264630794525146
 21
16.64719343185424
 31
0.0
  0
LINE
  5
183
330
1F
100
AcDbEntity
  8
TFR-TRI
  6
Continuous
 62
    18
100
AcDbLine
 10
8.264630794525146
 20
16.64719343185424
 30
0.0
 11
8.264630794525146
 21
16.68934202194214
 31
0.0
  0
LINE
  5
184
330
1F
100
AcDbEntity
  8
TFR-TRI
  6
Continuous
 62
    18
100
AcDbLine
 10
8.264630794525146
 20
16.68934202194214
 30
0.0
 11
8.264630794525146
 21
16.71750593185425
 31
0.0
  0
LINE
  5
185
330
1F
100
AcDbEntity
  8
TFR-TRI
  6
Continuous
 62
    18
100
AcDbLine
 10
8.264630794525146
 20
16.71750593185425
 30
0.0
 11
8.264630794525146
 21
16.72739553451538
 31
0.0
  0
LINE
  5
186
330
1F
100
AcDbEntity
  8
TFR-TRI
  6
Continuous
 62
    18
100
AcDbLine
 10
8.264630794525146
 20
5.310072422027587
 30
0.0
 11
8.264630794525146
 21
5.31996202468872
 31
0.0
  0
LINE
  5
187
330
1F
100
AcDbEntity
  8
TFR-TRI
  6
Continuous
 62
    18
100
AcDbLine
 10
8.264630794525146
 20
5.31996202468872
 30
0.0
 11
8.264630794525146
 21
5.34812593460083
 31
0.0
  0
LINE
  5
188
330
1F
100
AcDbEntity
  8
TFR-TRI
  6
Continuous
 62
    18
100
AcDbLine
 10
8.264630794525146
 20
5.34812593460083
 30
0.0
 11
8.264630794525146
 21
5.390275478363037
 31
0.0
  0
LINE
  5
189
330
1F
100
AcDbEntity
  8
TFR-TRI
  6
Continuous
 62
    18
100
AcDbLine
 10
8.264630794525146
 20
5.390275478363037
 30
0.0
 11
8.264630794525146
 21
5.439993381500244
 31
0.0
  0
LINE
  5
18A
330
1F
100
AcDbEntity
  8
TFR-TRI
  6
Continuous
 62
    18
100
AcDbLine
 10
4.961477756500244
 20
2.829753875732421
 30
0.0
 11
4.036280632019042
 21
2.829753875732421
 31
0.0
  0
LINE
  5
18B
330
1F
100
AcDbEntity
  8
TFR-TRI
  6
Continuous
 62
    18
100
AcDbLine
 10
4.036280632019042
 20
2.829753875732421
 30
0.0
 11
4.036280632019042
 21
2.840303421020507
 31
0.0
  0
LINE
  5
18C
330
1F
100
AcDbEntity
  8
TFR-TRI
  6
Continuous
 62
    18
100
AcDbLine
 10
4.036280632019042
 20
2.840303421020507
 30
0.0
 11
4.036280632019042
 21
2.869125843048095
 31
0.0
  0
LINE
  5
18D
330
1F
100
AcDbEntity
  8
TFR-TRI
  6
Continuous
 62
    18
100
AcDbLine
 10
4.036280632019042
 20
2.869125843048095
 30
0.0
 11
4.036280632019042
 21
2.908497810363769
 31
0.0
  0
LINE
  5
18E
330
1F
100
AcDbEntity
  8
TFR-TRI
  6
Continuous
 62
    18
100
AcDbLine
 10
20.24494218826294
 20
9.325820446014404
 30
0.0
 11
8.469603061676025
 21
9.325820446014404
 31
0.0
  0
LINE
  5
18F
330
1F
100
AcDbEntity
  8
TFR-TRI
  6
Continuous
 62
    18
100
AcDbLine
 10
4.961477756500244
 20
2.908497810363769
 30
0.0
 11
4.961477756500244
 21
2.943931579589843
 31
0.0
  0
LINE
  5
190
330
1F
100
AcDbEntity
  8
TFR-TRI
  6
Continuous
 62
    18
100
AcDbLine
 10
18.14448595046997
 20
4.79825735092163
 30
0.0
 11
7.977241039276123
 21
4.79825735092163
 31
0.0
  0
LINE
  5
191
330
1F
100
AcDbEntity
  8
TFR-TRI
  6
Continuous
 62
    18
100
AcDbLine
 10
4.961477756500244
 20
2.908497810363769
 30
0.0
 11
4.961477756500244
 21
2.869125843048095
 31
0.0
  0
LINE
  5
192
330
1F
100
AcDbEntity
  8
TFR-TRI
  6
Continuous
 62
    18
100
AcDbLine
 10
4.961477756500244
 20
2.869125843048095
 30
0.0
 11
4.961477756500244
 21
2.840303421020507
 31
0.0
  0
LINE
  5
193
330
1F
100
AcDbEntity
  8
TFR-TRI
  6
Continuous
 62
    18
100
AcDbLine
 10
4.961477756500244
 20
2.840303421020507
 30
0.0
 11
4.961477756500244
 21
2.829753875732421
 31
0.0
  0
LINE
  5
194
330
1F
100
AcDbEntity
  8
TFR-TRI
  6
Continuous
 62
    18
100
AcDbLine
 10
4.036280632019042
 20
2.908497810363769
 30
0.0
 11
3.996908664703369
 21
2.908497810363769
 31
0.0
  0
LINE
  5
195
330
1F
100
AcDbEntity
  8
TFR-TRI
  6
Continuous
 62
    18
100
AcDbLine
 10
3.996908664703369
 20
2.908497810363769
 30
0.0
 11
3.968086242675781
 21
2.908497810363769
 31
0.0
  0
LINE
  5
196
330
1F
100
AcDbEntity
  8
TFR-TRI
  6
Continuous
 62
    18
100
AcDbLine
 10
3.968086242675781
 20
2.908497810363769
 30
0.0
 11
3.957536697387695
 21
2.908497810363769
 31
0.0
  0
LINE
  5
197
330
1F
100
AcDbEntity
  8
TFR-TRI
  6
Continuous
 62
    18
100
AcDbLine
 10
3.957536697387695
 20
2.908497810363769
 30
0.0
 11
3.957536697387695
 21
3.341667175292968
 31
0.0
  0
LINE
  5
198
330
1F
100
AcDbEntity
  8
TFR-TRI
  6
Continuous
 62
    18
100
AcDbLine
 10
55.8748631477356
 20
2.829753875732421
 30
0.0
 11
54.94966554641724
 21
2.829753875732421
 31
0.0
  0
LINE
  5
199
330
1F
100
AcDbEntity
  8
TFR-TRI
  6
Continuous
 62
    18
100
AcDbLine
 10
55.95360612869263
 20
3.341567039489746
 30
0.0
 11
55.95360612869263
 21
2.908497810363769
 31
0.0
  0
LINE
  5
19A
330
1F
100
AcDbEntity
  8
TFR-TRI
  6
Continuous
 62
    18
100
AcDbLine
 10
51.44179582595825
 20
9.325820446014404
 30
0.0
 11
39.66620302200317
 21
9.325820446014404
 31
0.0
  0
LINE
  5
19B
330
1F
100
AcDbEntity
  8
TFR-TRI
  6
Continuous
 62
    18
100
AcDbLine
 10
55.8748631477356
 20
2.908497810363769
 30
0.0
 11
55.8748631477356
 21
2.869125843048095
 31
0.0
  0
LINE
  5
19C
330
1F
100
AcDbEntity
  8
TFR-TRI
  6
Continuous
 62
    18
100
AcDbLine
 10
55.8748631477356
 20
2.869125843048095
 30
0.0
 11
55.8748631477356
 21
2.840303421020507
 31
0.0
  0
LINE
  5
19D
330
1F
100
AcDbEntity
  8
TFR-TRI
  6
Continuous
 62
    18
100
AcDbLine
 10
55.8748631477356
 20
2.840303421020507
 30
0.0
 11
55.8748631477356
 21
2.829753875732421
 31
0.0
  0
LINE
  5
19E
330
1F
100
AcDbEntity
  8
TFR-TRI
  6
Continuous
 62
    18
100
AcDbLine
 10
54.94966554641724
 20
2.908497810363769
 30
0.0
 11
54.94966554641724
 21
2.943931579589843
 31
0.0
  0
LINE
  5
19F
330
1F
100
AcDbEntity
  8
TFR-TRI
  6
Continuous
 62
    18
100
AcDbLine
 10
54.94966554641724
 20
2.829753875732421
 30
0.0
 11
54.94966554641724
 21
2.840303421020507
 31
0.0
  0
LINE
  5
1A0
330
1F
100
AcDbEntity
  8
TFR-TRI
  6
Continuous
 62
    18
100
AcDbLine
 10
54.94966554641724
 20
2.840303421020507
 30
0.0
 11
54.94966554641724
 21
2.869125843048095
 31
0.0
  0
LINE
  5
1A1
330
1F
100
AcDbEntity
  8
TFR-TRI
  6
Continuous
 62
    18
100
AcDbLine
 10
54.94966554641724
 20
2.869125843048095
 30
0.0
 11
54.94966554641724
 21
2.908497810363769
 31
0.0
  0
LINE
  5
1A2
330
1F
100
AcDbEntity
  8
TFR-TRI
  6
Continuous
 62
    18
100
AcDbLine
 10
55.95360612869263
 20
2.908497810363769
 30
0.0
 11
55.94305849075317
 21
2.908497810363769
 31
0.0
  0
LINE
  5
1A3
330
1F
100
AcDbEntity
  8
TFR-TRI
  6
Continuous
 62
    18
100
AcDbLine
 10
55.94305849075317
 20
2.908497810363769
 30
0.0
 11
55.91423463821411
 21
2.908497810363769
 31
0.0
  0
LINE
  5
1A4
330
1F
100
AcDbEntity
  8
TFR-TRI
  6
Continuous
 62
    18
100
AcDbLine
 10
55.91423463821411
 20
2.908497810363769
 30
0.0
 11
55.8748631477356
 21
2.908497810363769
 31
0.0
  0
LINE
  5
1A5
330
1F
100
AcDbEntity
  8
TFR-TRI
  6
Continuous
 62
    18
100
AcDbLine
 10
51.93390321731567
 20
4.79825735092163
 30
0.0
 11
41.76665544509887
 21
4.79825735092163
 31
0.0
  0
LINE
  5
1A6
330
1F
100
AcDbEntity
  8
TFR-TRI
  6
Continuous
 62
    18
100
AcDbLine
 10
8.327710628509521
 20
14.23920202255249
 30
0.0
 11
18.27423143386841
 21
14.23920202255249
 31
0.0
  0
LINE
  5
1A7
330
1F
100
AcDbEntity
  8
TFR-TRI
  6
Continuous
 62
    18
100
AcDbLine
 10
4.630772590637207
 20
18.69590139389038
 30
0.0
 11
4.630772590637207
 21
18.73185873031616
 31
0.0
  0
LINE
  5
1A8
330
1F
100
AcDbEntity
  8
TFR-TRI
  6
Continuous
 62
    18
100
AcDbLine
 10
4.630772590637207
 20
18.73185873031616
 30
0.0
 11
4.630772590637207
 21
18.75749349594116
 31
0.0
  0
LINE
  5
1A9
330
1F
100
AcDbEntity
  8
TFR-TRI
  6
Continuous
 62
    18
100
AcDbLine
 10
4.630772590637207
 20
18.75749349594116
 30
0.0
 11
4.630772590637207
 21
18.76676511764526
 31
0.0
  0
LINE
  5
1AA
330
1F
100
AcDbEntity
  8
TFR-TRI
  6
Continuous
 62
    18
100
AcDbLine
 10
4.630772590637207
 20
18.76676511764526
 30
0.0
 11
18.14450693130493
 21
18.76676511764526
 31
0.0
  0
LINE
  5
1AB
330
1F
100
AcDbEntity
  8
TFR-TRI
  6
Continuous
 62
    18
100
AcDbLine
 10
39.85911989212036
 20
14.23919820785522
 30
0.0
 11
51.58343935012817
 21
14.23919820785522
 31
0.0
  0
LINE
  5
1AC
330
1F
100
AcDbEntity
  8
TFR-TRI
  6
Continuous
 62
    18
100
AcDbLine
 10
55.2803807258606
 20
18.766761302948
 30
0.0
 11
55.2803807258606
 21
18.7574896812439
 31
0.0
  0
LINE
  5
1AD
330
1F
100
AcDbEntity
  8
TFR-TRI
  6
Continuous
 62
    18
100
AcDbLine
 10
55.2803807258606
 20
18.7574896812439
 30
0.0
 11
55.2803807258606
 21
18.7318549156189
 31
0.0
  0
LINE
  5
1AE
330
1F
100
AcDbEntity
  8
TFR-TRI
  6
Continuous
 62
    18
100
AcDbLine
 10
55.2803807258606
 20
18.7318549156189
 30
0.0
 11
55.2803807258606
 21
18.69589757919311
 31
0.0
  0
LINE
  5
1AF
330
1F
100
AcDbEntity
  8
TFR-TRI
  6
Continuous
 62
    18
100
AcDbLine
 10
41.76664400100707
 20
18.766761302948
 30
0.0
 11
55.2803807258606
 21
18.766761302948
 31
0.0
  0
LINE
  5
1B0
330
1F
100
AcDbEntity
  8
TFR-TRI
  6
Continuous
 62
    18
100
AcDbLine
 10
18.27447366714477
 20
14.23920202255249
 30
0.0
 11
41.63667726516723
 21
14.23920202255249
 31
0.0
  0
LINE
  5
1B1
330
1F
100
AcDbEntity
  8
TFR-TRI
  6
Continuous
 62
    18
100
AcDbLine
 10
41.76659822463989
 20
18.83369398117065
 30
0.0
 11
41.76659822463989
 21
18.82314443588257
 31
0.0
  0
LINE
  5
1B2
330
1F
100
AcDbEntity
  8
TFR-TRI
  6
Continuous
 62
    18
100
AcDbLine
 10
41.76659822463989
 20
18.82314443588257
 30
0.0
 11
41.76659822463989
 21
18.79432249069214
 31
0.0
  0
LINE
  5
1B3
330
1F
100
AcDbEntity
  8
TFR-TRI
  6
Continuous
 62
    18
100
AcDbLine
 10
41.76659822463989
 20
18.79432249069214
 30
0.0
 11
41.76659822463989
 21
18.75495100021362
 31
0.0
  0
LINE
  5
1B4
330
1F
100
AcDbEntity
  8
TFR-TRI
  6
Continuous
 62
    18
100
AcDbLine
 10
41.76659822463989
 20
14.36912298202514
 30
0.0
 11
41.76659822463989
 21
18.75495100021362
 31
0.0
  0
LINE
  5
1B5
330
1F
100
AcDbEntity
  8
TFR-TRI
  6
Continuous
 62
    18
100
AcDbLine
 10
18.14455270767212
 20
18.75495100021362
 30
0.0
 11
18.14455270767212
 21
14.36912298202514
 31
0.0
  0
LINE
  5
1B6
330
1F
100
AcDbEntity
  8
TFR-TRI
  6
Continuous
 62
    18
100
AcDbLine
 10
18.14455270767212
 20
18.75495100021362
 30
0.0
 11
18.14455270767212
 21
18.79432249069214
 31
0.0
  0
LINE
  5
1B7
330
1F
100
AcDbEntity
  8
TFR-TRI
  6
Continuous
 62
    18
100
AcDbLine
 10
18.14455270767212
 20
18.79432249069214
 30
0.0
 11
18.14455270767212
 21
18.82314443588257
 31
0.0
  0
LINE
  5
1B8
330
1F
100
AcDbEntity
  8
TFR-TRI
  6
Continuous
 62
    18
100
AcDbLine
 10
18.14455270767212
 20
18.82314443588257
 30
0.0
 11
18.14455270767212
 21
18.83369398117065
 31
0.0
  0
LINE
  5
1B9
330
1F
100
AcDbEntity
  8
TFR-TRI
  6
Continuous
 62
    18
100
AcDbLine
 10
18.14455270767212
 20
18.83369398117065
 30
0.0
 11
41.76659822463989
 21
18.83369398117065
 31
0.0
  0
LINE
  5
1BA
330
1F
100
AcDbEntity
  8
TFR-TRI
  6
Continuous
 62
    18
100
AcDbLine
 10
41.63667345046997
 20
9.325816631317138
 30
0.0
 11
18.27446985244751
 21
9.325816631317138
 31
0.0
  0
LINE
  5
1BB
330
1F
100
AcDbEntity
  8
TFR-TRI
  6
Continuous
 62
    18
100
AcDbLine
 10
18.14454889297485
 20
4.731324672698974
 30
0.0
 11
18.14454889297485
 21
4.74187421798706
 31
0.0
  0
LINE
  5
1BC
330
1F
100
AcDbEntity
  8
TFR-TRI
  6
Continuous
 62
    18
100
AcDbLine
 10
18.14454889297485
 20
4.74187421798706
 30
0.0
 11
18.14454889297485
 21
4.77069616317749
 31
0.0
  0
LINE
  5
1BD
330
1F
100
AcDbEntity
  8
TFR-TRI
  6
Continuous
 62
    18
100
AcDbLine
 10
18.14454889297485
 20
4.77069616317749
 30
0.0
 11
18.14454889297485
 21
4.810068607330322
 31
0.0
  0
LINE
  5
1BE
330
1F
100
AcDbEntity
  8
TFR-TRI
  6
Continuous
 62
    18
100
AcDbLine
 10
18.14454889297485
 20
9.195895671844482
 30
0.0
 11
18.14454889297485
 21
4.810068607330322
 31
0.0
  0
LINE
  5
1BF
330
1F
100
AcDbEntity
  8
TFR-TRI
  6
Continuous
 62
    18
100
AcDbLine
 10
41.76659440994263
 20
4.810068607330322
 30
0.0
 11
41.76659440994263
 21
9.195895671844482
 31
0.0
  0
LINE
  5
1C0
330
1F
100
AcDbEntity
  8
TFR-TRI
  6
Continuous
 62
    18
100
AcDbLine
 10
41.76659440994263
 20
4.810068607330322
 30
0.0
 11
41.76659440994263
 21
4.77069616317749
 31
0.0
  0
LINE
  5
1C1
330
1F
100
AcDbEntity
  8
TFR-TRI
  6
Continuous
 62
    18
100
AcDbLine
 10
41.76659440994263
 20
4.77069616317749
 30
0.0
 11
41.76659440994263
 21
4.74187421798706
 31
0.0
  0
LINE
  5
1C2
330
1F
100
AcDbEntity
  8
TFR-TRI
  6
Continuous
 62
    18
100
AcDbLine
 10
41.76659440994263
 20
4.74187421798706
 30
0.0
 11
41.76659440994263
 21
4.731324672698974
 31
0.0
  0
LINE
  5
1C3
330
1F
100
AcDbEntity
  8
TFR-TRI
  6
Continuous
 62
    18
100
AcDbLine
 10
41.76659440994263
 20
4.731324672698974
 30
0.0
 11
18.14454889297485
 21
4.731324672698974
 31
0.0
  0
LINE
  5
1C4
330
1F
100
AcDbEntity
  8
TFR-TRI
  6
Continuous
 62
    18
100
AcDbLine
 10
54.48510789871216
 20
28.3064513206482
 30
0.0
 11
54.51463365554809
 21
28.27692365646362
 31
0.0
  0
LINE
  5
1C5
330
1F
100
AcDbEntity
  8
TFR-TRI
  6
Continuous
 62
    18
100
AcDbLine
 10
54.65243196487427
 20
28.27692365646362
 30
0.0
 11
54.68195772171021
 21
28.3064513206482
 31
0.0
  0
LINE
  5
1C6
330
1F
100
AcDbEntity
  8
TFR-TRI
  6
Continuous
 62
    18
100
AcDbLine
 10
54.68195772171021
 20
28.3064513206482
 30
0.0
 11
54.68195772171021
 21
28.51707601547241
 31
0.0
  0
LINE
  5
1C7
330
1F
100
AcDbEntity
  8
TFR-TRI
  6
Continuous
 62
    18
100
AcDbLine
 10
54.48510789871216
 20
28.51707601547241
 30
0.0
 11
54.48510789871216
 21
28.3064513206482
 31
0.0
  0
LINE
  5
1C8
330
1F
100
AcDbEntity
  8
TFR-TRI
  6
Continuous
 62
    18
100
AcDbLine
 10
54.51463365554809
 20
28.22278928756714
 30
0.0
 11
54.51955461502075
 21
28.21786832809448
 31
0.0
  0
LINE
  5
1C9
330
1F
100
AcDbEntity
  8
TFR-TRI
  6
Continuous
 62
    18
100
AcDbLine
 10
54.64750719070434
 20
28.21786832809448
 30
0.0
 11
54.65243196487427
 21
28.22278928756714
 31
0.0
  0
LINE
  5
1CA
330
1F
100
AcDbEntity
  8
TFR-TRI
  6
Continuous
 62
    18
100
AcDbLine
 10
54.65243196487427
 20
28.22278928756714
 30
0.0
 11
54.65243196487427
 21
28.27692365646362
 31
0.0
  0
LINE
  5
1CB
330
1F
100
AcDbEntity
  8
TFR-TRI
  6
Continuous
 62
    18
100
AcDbLine
 10
54.51463365554809
 20
28.27692365646362
 30
0.0
 11
54.51463365554809
 21
28.22278928756714
 31
0.0
  0
LINE
  5
1CC
330
1F
100
AcDbEntity
  8
TFR-TRI
  6
Continuous
 62
    18
100
AcDbLine
 10
5.459509372711181
 20
28.51708173751831
 30
0.0
 11
5.459509372711181
 21
28.58007383346558
 31
0.0
  0
LINE
  5
1CD
330
1F
100
AcDbEntity
  8
TFR-TRI
  6
Continuous
 62
    18
100
AcDbLine
 10
5.195729732513427
 20
28.58007383346558
 30
0.0
 11
5.195729732513427
 21
28.51708173751831
 31
0.0
  0
LINE
  5
1CE
330
1F
100
AcDbEntity
  8
TFR-TRI
  6
Continuous
 62
    18
100
AcDbLine
 10
7.22722578048706
 20
28.51708173751831
 30
0.0
 11
7.22722578048706
 21
28.58007383346558
 31
0.0
  0
LINE
  5
1CF
330
1F
100
AcDbEntity
  8
TFR-TRI
  6
Continuous
 62
    18
100
AcDbLine
 10
6.963446140289306
 20
28.58007383346558
 30
0.0
 11
6.963446140289306
 21
28.51708173751831
 31
0.0
  0
LINE
  5
1D0
330
1F
100
AcDbEntity
  8
TFR-TRI
  6
Continuous
 62
    18
100
AcDbLine
 10
5.426043987274169
 20
28.3064513206482
 30
0.0
 11
5.426043987274169
 21
28.51707601547241
 31
0.0
  0
LINE
  5
1D1
330
1F
100
AcDbEntity
  8
TFR-TRI
  6
Continuous
 62
    18
100
AcDbLine
 10
5.229194164276123
 20
28.51707601547241
 30
0.0
 11
5.229194164276123
 21
28.3064513206482
 31
0.0
  0
LINE
  5
1D2
330
1F
100
AcDbEntity
  8
TFR-TRI
  6
Continuous
 62
    18
100
AcDbLine
 10
5.229194164276123
 20
28.3064513206482
 30
0.0
 11
5.258721828460693
 21
28.27692365646362
 31
0.0
  0
LINE
  5
1D3
330
1F
100
AcDbEntity
  8
TFR-TRI
  6
Continuous
 62
    18
100
AcDbLine
 10
5.396517276763916
 20
28.27692365646362
 30
0.0
 11
5.426043987274169
 21
28.3064513206482
 31
0.0
  0
LINE
  5
1D4
330
1F
100
AcDbEntity
  8
TFR-TRI
  6
Continuous
 62
    18
100
AcDbLine
 10
5.396517276763916
 20
28.22278928756714
 30
0.0
 11
5.396517276763916
 21
28.27692365646362
 31
0.0
  0
LINE
  5
1D5
330
1F
100
AcDbEntity
  8
TFR-TRI
  6
Continuous
 62
    18
100
AcDbLine
 10
5.258721828460693
 20
28.27692365646362
 30
0.0
 11
5.258721828460693
 21
28.22278928756714
 31
0.0
  0
LINE
  5
1D6
330
1F
100
AcDbEntity
  8
TFR-TRI
  6
Continuous
 62
    18
100
AcDbLine
 10
5.258721828460693
 20
28.22278928756714
 30
0.0
 11
5.263642787933349
 21
28.21786832809448
 31
0.0
  0
LINE
  5
1D7
330
1F
100
AcDbEntity
  8
TFR-TRI
  6
Continuous
 62
    18
100
AcDbLine
 10
5.391595363616943
 20
28.21786832809448
 30
0.0
 11
5.396517276763916
 21
28.22278928756714
 31
0.0
  0
LINE
  5
1D8
330
1F
100
AcDbEntity
  8
TFR-TRI
  6
Continuous
 62
    18
100
AcDbLine
 10
54.71542406082154
 20
28.51708173751831
 30
0.0
 11
54.71542406082154
 21
28.58007383346558
 31
0.0
  0
LINE
  5
1D9
330
1F
100
AcDbEntity
  8
TFR-TRI
  6
Continuous
 62
    18
100
AcDbLine
 10
54.45164155960083
 20
28.58007383346558
 30
0.0
 11
54.45164155960083
 21
28.51708173751831
 31
0.0
  0
LINE
  5
1DA
330
1F
100
AcDbEntity
  8
TFR-TRI
  6
Continuous
 62
    18
100
AcDbLine
 10
52.9477047920227
 20
28.51708173751831
 30
0.0
 11
52.9477047920227
 21
28.58007383346558
 31
0.0
  0
LINE
  5
1DB
330
1F
100
AcDbEntity
  8
TFR-TRI
  6
Continuous
 62
    18
100
AcDbLine
 10
52.68392610549927
 20
28.58007383346558
 30
0.0
 11
52.68392610549927
 21
28.51708173751831
 31
0.0
  0
LINE
  5
1DC
330
1F
100
AcDbEntity
  8
TFR-TRI
  6
Continuous
 62
    18
100
AcDbLine
 10
55.45361375808716
 20
28.7070574760437
 30
0.0
 11
55.45361375808716
 21
28.70605802536011
 31
0.0
  0
LINE
  5
1DD
330
1F
100
AcDbEntity
  8
TFR-TRI
  6
Continuous
 62
    18
100
AcDbLine
 10
55.2803692817688
 20
28.7070574760437
 30
0.0
 11
55.42261552810669
 21
28.7070574760437
 31
0.0
  0
LINE
  5
1DE
330
1F
100
AcDbEntity
  8
TFR-TRI
  6
Continuous
 62
    18
100
AcDbLine
 10
55.42261552810669
 20
28.7070574760437
 30
0.0
 11
55.44453477859497
 21
28.7070574760437
 31
0.0
  0
LINE
  5
1DF
330
1F
100
AcDbEntity
  8
TFR-TRI
  6
Continuous
 62
    18
100
AcDbLine
 10
55.44453477859497
 20
28.7070574760437
 30
0.0
 11
55.45361375808716
 21
28.7070574760437
 31
0.0
  0
LINE
  5
1E0
330
1F
100
AcDbEntity
  8
TFR-TRI
  6
Continuous
 62
    18
100
AcDbLine
 10
5.229194164276123
 20
28.3064513206482
 30
0.0
 11
5.238940715789794
 21
28.3064513206482
 31
0.0
  0
LINE
  5
1E1
330
1F
100
AcDbEntity
  8
TFR-TRI
  6
Continuous
 62
    18
100
AcDbLine
 10
5.238940715789794
 20
28.3064513206482
 30
0.0
 11
5.266252040863037
 21
28.3064513206482
 31
0.0
  0
LINE
  5
1E2
330
1F
100
AcDbEntity
  8
TFR-TRI
  6
Continuous
 62
    18
100
AcDbLine
 10
5.266252040863037
 20
28.3064513206482
 30
0.0
 11
5.305717945098876
 21
28.3064513206482
 31
0.0
  0
LINE
  5
1E3
330
1F
100
AcDbEntity
  8
TFR-TRI
  6
Continuous
 62
    18
100
AcDbLine
 10
5.305717945098876
 20
28.3064513206482
 30
0.0
 11
5.349521160125732
 21
28.3064513206482
 31
0.0
  0
LINE
  5
1E4
330
1F
100
AcDbEntity
  8
TFR-TRI
  6
Continuous
 62
    18
100
AcDbLine
 10
5.349521160125732
 20
28.3064513206482
 30
0.0
 11
5.388986110687255
 21
28.3064513206482
 31
0.0
  0
LINE
  5
1E5
330
1F
100
AcDbEntity
  8
TFR-TRI
  6
Continuous
 62
    18
100
AcDbLine
 10
5.388986110687255
 20
28.3064513206482
 30
0.0
 11
5.416297435760498
 21
28.3064513206482
 31
0.0
  0
LINE
  5
1E6
330
1F
100
AcDbEntity
  8
TFR-TRI
  6
Continuous
 62
    18
100
AcDbLine
 10
5.416297435760498
 20
28.3064513206482
 30
0.0
 11
5.426043987274169
 21
28.3064513206482
 31
0.0
  0
LINE
  5
1E7
330
1F
100
AcDbEntity
  8
TFR-TRI
  6
Continuous
 62
    18
100
AcDbLine
 10
5.327619075775146
 20
28.21786832809448
 30
0.0
 11
5.295630931854248
 21
28.21786832809448
 31
0.0
  0
LINE
  5
1E8
330
1F
100
AcDbEntity
  8
TFR-TRI
  6
Continuous
 62
    18
100
AcDbLine
 10
5.295630931854248
 20
28.21786832809448
 30
0.0
 11
5.272214412689208
 21
28.21786832809448
 31
0.0
  0
LINE
  5
1E9
330
1F
100
AcDbEntity
  8
TFR-TRI
  6
Continuous
 62
    18
100
AcDbLine
 10
5.272214412689208
 20
28.21786832809448
 30
0.0
 11
5.263642787933349
 21
28.21786832809448
 31
0.0
  0
LINE
  5
1EA
330
1F
100
AcDbEntity
  8
TFR-TRI
  6
Continuous
 62
    18
100
AcDbLine
 10
5.391595363616943
 20
28.21786832809448
 30
0.0
 11
5.3830246925354
 21
28.21786832809448
 31
0.0
  0
LINE
  5
1EB
330
1F
100
AcDbEntity
  8
TFR-TRI
  6
Continuous
 62
    18
100
AcDbLine
 10
5.3830246925354
 20
28.21786832809448
 30
0.0
 11
5.359607219696044
 21
28.21786832809448
 31
0.0
  0
LINE
  5
1EC
330
1F
100
AcDbEntity
  8
TFR-TRI
  6
Continuous
 62
    18
100
AcDbLine
 10
5.359607219696044
 20
28.21786832809448
 30
0.0
 11
5.327619075775146
 21
28.21786832809448
 31
0.0
  0
LINE
  5
1ED
330
1F
100
AcDbEntity
  8
TFR-TRI
  6
Continuous
 62
    18
100
AcDbLine
 10
5.258721828460693
 20
28.22278928756714
 30
0.0
 11
5.267952442169189
 21
28.22278928756714
 31
0.0
  0
LINE
  5
1EE
330
1F
100
AcDbEntity
  8
TFR-TRI
  6
Continuous
 62
    18
100
AcDbLine
 10
5.267952442169189
 20
28.22278928756714
 30
0.0
 11
5.293170452117919
 21
28.22278928756714
 31
0.0
  0
LINE
  5
1EF
330
1F
100
AcDbEntity
  8
TFR-TRI
  6
Continuous
 62
    18
100
AcDbLine
 10
5.293170452117919
 20
28.22278928756714
 30
0.0
 11
5.327619075775146
 21
28.22278928756714
 31
0.0
  0
LINE
  5
1F0
330
1F
100
AcDbEntity
  8
TFR-TRI
  6
Continuous
 62
    18
100
AcDbLine
 10
5.327619075775146
 20
28.22278928756714
 30
0.0
 11
5.362067699432373
 21
28.22278928756714
 31
0.0
  0
LINE
  5
1F1
330
1F
100
AcDbEntity
  8
TFR-TRI
  6
Continuous
 62
    18
100
AcDbLine
 10
5.362067699432373
 20
28.22278928756714
 30
0.0
 11
5.387286663055419
 21
28.22278928756714
 31
0.0
  0
LINE
  5
1F2
330
1F
100
AcDbEntity
  8
TFR-TRI
  6
Continuous
 62
    18
100
AcDbLine
 10
5.387286663055419
 20
28.22278928756714
 30
0.0
 11
5.396517276763916
 21
28.22278928756714
 31
0.0
  0
LINE
  5
1F3
330
1F
100
AcDbEntity
  8
TFR-TRI
  6
Continuous
 62
    18
100
AcDbLine
 10
5.327619075775146
 20
28.27692365646362
 30
0.0
 11
5.293170452117919
 21
28.27692365646362
 31
0.0
  0
LINE
  5
1F4
330
1F
100
AcDbEntity
  8
TFR-TRI
  6
Continuous
 62
    18
100
AcDbLine
 10
5.293170452117919
 20
28.27692365646362
 30
0.0
 11
5.267952442169189
 21
28.27692365646362
 31
0.0
  0
LINE
  5
1F5
330
1F
100
AcDbEntity
  8
TFR-TRI
  6
Continuous
 62
    18
100
AcDbLine
 10
5.267952442169189
 20
28.27692365646362
 30
0.0
 11
5.258721828460693
 21
28.27692365646362
 31
0.0
  0
LINE
  5
1F6
330
1F
100
AcDbEntity
  8
TFR-TRI
  6
Continuous
 62
    18
100
AcDbLine
 10
5.396517276763916
 20
28.27692365646362
 30
0.0
 11
5.387286663055419
 21
28.27692365646362
 31
0.0
  0
LINE
  5
1F7
330
1F
100
AcDbEntity
  8
TFR-TRI
  6
Continuous
 62
    18
100
AcDbLine
 10
5.387286663055419
 20
28.27692365646362
 30
0.0
 11
5.362067699432373
 21
28.27692365646362
 31
0.0
  0
LINE
  5
1F8
330
1F
100
AcDbEntity
  8
TFR-TRI
  6
Continuous
 62
    18
100
AcDbLine
 10
5.362067699432373
 20
28.27692365646362
 30
0.0
 11
5.327619075775146
 21
28.27692365646362
 31
0.0
  0
LINE
  5
1F9
330
1F
100
AcDbEntity
  8
TFR-TRI
  6
Continuous
 62
    18
100
AcDbLine
 10
54.48510789871216
 20
28.3064513206482
 30
0.0
 11
54.49485445022583
 21
28.3064513206482
 31
0.0
  0
LINE
  5
1FA
330
1F
100
AcDbEntity
  8
TFR-TRI
  6
Continuous
 62
    18
100
AcDbLine
 10
54.49485445022583
 20
28.3064513206482
 30
0.0
 11
54.52216386795043
 21
28.3064513206482
 31
0.0
  0
LINE
  5
1FB
330
1F
100
AcDbEntity
  8
TFR-TRI
  6
Continuous
 62
    18
100
AcDbLine
 10
54.52216386795043
 20
28.3064513206482
 30
0.0
 11
54.56163072586059
 21
28.3064513206482
 31
0.0
  0
LINE
  5
1FC
330
1F
100
AcDbEntity
  8
TFR-TRI
  6
Continuous
 62
    18
100
AcDbLine
 10
54.56163072586059
 20
28.3064513206482
 30
0.0
 11
54.60543489456177
 21
28.3064513206482
 31
0.0
  0
LINE
  5
1FD
330
1F
100
AcDbEntity
  8
TFR-TRI
  6
Continuous
 62
    18
100
AcDbLine
 10
54.60543489456177
 20
28.3064513206482
 30
0.0
 11
54.64489793777466
 21
28.3064513206482
 31
0.0
  0
LINE
  5
1FE
330
1F
100
AcDbEntity
  8
TFR-TRI
  6
Continuous
 62
    18
100
AcDbLine
 10
54.64489793777466
 20
28.3064513206482
 30
0.0
 11
54.67221117019653
 21
28.3064513206482
 31
0.0
  0
LINE
  5
1FF
330
1F
100
AcDbEntity
  8
TFR-TRI
  6
Continuous
 62
    18
100
AcDbLine
 10
54.67221117019653
 20
28.3064513206482
 30
0.0
 11
54.68195772171021
 21
28.3064513206482
 31
0.0
  0
LINE
  5
200
330
1F
100
AcDbEntity
  8
TFR-TRI
  6
Continuous
 62
    18
100
AcDbLine
 10
54.58353090286255
 20
28.21786832809448
 30
0.0
 11
54.55154466629029
 21
28.21786832809448
 31
0.0
  0
LINE
  5
201
330
1F
100
AcDbEntity
  8
TFR-TRI
  6
Continuous
 62
    18
100
AcDbLine
 10
54.55154466629029
 20
28.21786832809448
 30
0.0
 11
54.52812623977661
 21
28.21786832809448
 31
0.0
  0
LINE
  5
202
330
1F
100
AcDbEntity
  8
TFR-TRI
  6
Continuous
 62
    18
100
AcDbLine
 10
54.52812623977661
 20
28.21786832809448
 30
0.0
 11
54.51955461502075
 21
28.21786832809448
 31
0.0
  0
LINE
  5
203
330
1F
100
AcDbEntity
  8
TFR-TRI
  6
Continuous
 62
    18
100
AcDbLine
 10
54.64750719070434
 20
28.21786832809448
 30
0.0
 11
54.63893938064575
 21
28.21786832809448
 31
0.0
  0
LINE
  5
204
330
1F
100
AcDbEntity
  8
TFR-TRI
  6
Continuous
 62
    18
100
AcDbLine
 10
54.63893938064575
 20
28.21786832809448
 30
0.0
 11
54.61552095413208
 21
28.21786832809448
 31
0.0
  0
LINE
  5
205
330
1F
100
AcDbEntity
  8
TFR-TRI
  6
Continuous
 62
    18
100
AcDbLine
 10
54.61552095413208
 20
28.21786832809448
 30
0.0
 11
54.58353090286255
 21
28.21786832809448
 31
0.0
  0
LINE
  5
206
330
1F
100
AcDbEntity
  8
TFR-TRI
  6
Continuous
 62
    18
100
AcDbLine
 10
54.51463365554809
 20
28.22278928756714
 30
0.0
 11
54.52386522293091
 21
28.22278928756714
 31
0.0
  0
LINE
  5
207
330
1F
100
AcDbEntity
  8
TFR-TRI
  6
Continuous
 62
    18
100
AcDbLine
 10
54.52386522293091
 20
28.22278928756714
 30
0.0
 11
54.54908418655396
 21
28.22278928756714
 31
0.0
  0
LINE
  5
208
330
1F
100
AcDbEntity
  8
TFR-TRI
  6
Continuous
 62
    18
100
AcDbLine
 10
54.54908418655396
 20
28.22278928756714
 30
0.0
 11
54.58353090286255
 21
28.22278928756714
 31
0.0
  0
LINE
  5
209
330
1F
100
AcDbEntity
  8
TFR-TRI
  6
Continuous
 62
    18
100
AcDbLine
 10
54.58353090286255
 20
28.22278928756714
 30
0.0
 11
54.6179814338684
 21
28.22278928756714
 31
0.0
  0
LINE
  5
20A
330
1F
100
AcDbEntity
  8
TFR-TRI
  6
Continuous
 62
    18
100
AcDbLine
 10
54.6179814338684
 20
28.22278928756714
 30
0.0
 11
54.64320039749146
 21
28.22278928756714
 31
0.0
  0
LINE
  5
20B
330
1F
100
AcDbEntity
  8
TFR-TRI
  6
Continuous
 62
    18
100
AcDbLine
 10
54.64320039749146
 20
28.22278928756714
 30
0.0
 11
54.65243196487427
 21
28.22278928756714
 31
0.0
  0
LINE
  5
20C
330
1F
100
AcDbEntity
  8
TFR-TRI
  6
Continuous
 62
    18
100
AcDbLine
 10
54.58353090286255
 20
28.27692365646362
 30
0.0
 11
54.54908418655396
 21
28.27692365646362
 31
0.0
  0
LINE
  5
20D
330
1F
100
AcDbEntity
  8
TFR-TRI
  6
Continuous
 62
    18
100
AcDbLine
 10
54.54908418655396
 20
28.27692365646362
 30
0.0
 11
54.52386522293091
 21
28.27692365646362
 31
0.0
  0
LINE
  5
20E
330
1F
100
AcDbEntity
  8
TFR-TRI
  6
Continuous
 62
    18
100
AcDbLine
 10
54.52386522293091
 20
28.27692365646362
 30
0.0
 11
54.51463365554809
 21
28.27692365646362
 31
0.0
  0
LINE
  5
20F
330
1F
100
AcDbEntity
  8
TFR-TRI
  6
Continuous
 62
    18
100
AcDbLine
 10
54.65243196487427
 20
28.27692365646362
 30
0.0
 11
54.64320039749146
 21
28.27692365646362
 31
0.0
  0
LINE
  5
210
330
1F
100
AcDbEntity
  8
TFR-TRI
  6
Continuous
 62
    18
100
AcDbLine
 10
54.64320039749146
 20
28.27692365646362
 30
0.0
 11
54.6179814338684
 21
28.27692365646362
 31
0.0
  0
LINE
  5
211
330
1F
100
AcDbEntity
  8
TFR-TRI
  6
Continuous
 62
    18
100
AcDbLine
 10
54.6179814338684
 20
28.27692365646362
 30
0.0
 11
54.58353090286255
 21
28.27692365646362
 31
0.0
  0
LINE
  5
212
330
1F
100
AcDbEntity
  8
TFR-TRI
  6
Continuous
 62
    18
100
AcDbLine
 10
55.28033113479614
 20
28.70605802536011
 30
0.0
 11
55.77644777297973
 21
28.70605802536011
 31
0.0
  0
LINE
  5
213
330
1F
100
AcDbEntity
  8
TFR-TRI
  6
Continuous
 62
    18
100
AcDbLine
 10
55.77644777297973
 20
28.70605802536011
 30
0.0
 11
55.82616472244263
 21
28.70605802536011
 31
0.0
  0
LINE
  5
214
330
1F
100
AcDbEntity
  8
TFR-TRI
  6
Continuous
 62
    18
100
AcDbLine
 10
55.82616472244263
 20
28.70605802536011
 30
0.0
 11
55.86831331253051
 21
28.70605802536011
 31
0.0
  0
LINE
  5
215
330
1F
100
AcDbEntity
  8
TFR-TRI
  6
Continuous
 62
    18
100
AcDbLine
 10
55.86831331253051
 20
28.70605802536011
 30
0.0
 11
55.89647722244262
 21
28.70605802536011
 31
0.0
  0
LINE
  5
216
330
1F
100
AcDbEntity
  8
TFR-TRI
  6
Continuous
 62
    18
100
AcDbLine
 10
55.89647722244262
 20
28.70605802536011
 30
0.0
 11
55.90636873245239
 21
28.70605802536011
 31
0.0
  0
LINE
  5
217
330
1F
100
AcDbEntity
  8
TFR-TRI
  6
Continuous
 62
    18
100
AcDbLine
 10
55.92211580276489
 20
28.70605802536011
 30
0.0
 11
55.90636873245239
 21
28.70605802536011
 31
0.0
  0
LINE
  5
218
330
1F
100
AcDbEntity
  8
TFR-TRI
  6
Continuous
 62
    18
100
AcDbLine
 10
56.01660585403442
 20
30.19424772262573
 30
0.0
 11
56.01660585403442
 21
30.18435621261597
 31
0.0
  0
LINE
  5
219
330
1F
100
AcDbEntity
  8
TFR-TRI
  6
Continuous
 62
    18
100
AcDbLine
 10
56.01660585403442
 20
30.18435621261597
 30
0.0
 11
56.01660585403442
 21
30.15619230270386
 31
0.0
  0
LINE
  5
21A
330
1F
100
AcDbEntity
  8
TFR-TRI
  6
Continuous
 62
    18
100
AcDbLine
 10
56.01660585403442
 20
30.15619230270386
 30
0.0
 11
56.01660585403442
 21
30.11404371261597
 31
0.0
  0
LINE
  5
21B
330
1F
100
AcDbEntity
  8
TFR-TRI
  6
Continuous
 62
    18
100
AcDbLine
 10
56.01660585403442
 20
30.11404371261597
 30
0.0
 11
56.01660585403442
 21
30.06432676315308
 31
0.0
  0
LINE
  5
21C
330
1F
100
AcDbEntity
  8
TFR-TRI
  6
Continuous
 62
    18
100
AcDbLine
 10
56.01660585403442
 20
30.06432676315308
 30
0.0
 11
56.01660585403442
 21
28.73755979537964
 31
0.0
  0
LINE
  5
21D
330
1F
100
AcDbEntity
  8
TFR-TRI
  6
Continuous
 62
    18
100
AcDbLine
 10
55.95361375808716
 20
30.06432676315308
 30
0.0
 11
55.95361375808716
 21
28.73755979537964
 31
0.0
  0
LINE
  5
21E
330
1F
100
AcDbEntity
  8
TFR-TRI
  6
Continuous
 62
    18
100
AcDbLine
 10
55.95361375808716
 20
30.06432676315308
 30
0.0
 11
55.95361375808716
 21
30.11404371261597
 31
0.0
  0
LINE
  5
21F
330
1F
100
AcDbEntity
  8
TFR-TRI
  6
Continuous
 62
    18
100
AcDbLine
 10
55.95361375808716
 20
30.11404371261597
 30
0.0
 11
55.95361375808716
 21
30.15619230270386
 31
0.0
  0
LINE
  5
220
330
1F
100
AcDbEntity
  8
TFR-TRI
  6
Continuous
 62
    18
100
AcDbLine
 10
55.95361375808716
 20
30.15619230270386
 30
0.0
 11
55.95361375808716
 21
30.18435621261597
 31
0.0
  0
LINE
  5
221
330
1F
100
AcDbEntity
  8
TFR-TRI
  6
Continuous
 62
    18
100
AcDbLine
 10
55.95361375808716
 20
30.18435621261597
 30
0.0
 11
55.95361375808716
 21
30.19424772262573
 31
0.0
  0
LINE
  5
222
330
1F
100
AcDbEntity
  8
TFR-TRI
  6
Continuous
 62
    18
100
AcDbLine
 10
55.90636873245239
 20
28.70605802536011
 30
0.0
 11
55.90636873245239
 21
28.69031095504761
 31
0.0
  0
LINE
  5
223
330
1F
100
AcDbEntity
  8
TFR-TRI
  6
Continuous
 62
    18
100
AcDbLine
 10
55.95361375808716
 20
30.19424772262573
 30
0.0
 11
56.01660585403442
 21
30.19424772262573
 31
0.0
  0
LINE
  5
224
330
1F
100
AcDbEntity
  8
TFR-TRI
  6
Continuous
 62
    18
100
AcDbLine
 10
51.84730958938598
 20
27.98164510726929
 30
0.0
 11
51.53628969192505
 21
27.98164510726929
 31
0.0
  0
LINE
  5
225
330
1F
100
AcDbEntity
  8
TFR-TRI
  6
Continuous
 62
    18
100
AcDbLine
 10
51.84730958938598
 20
28.04463720321655
 30
0.0
 11
51.53628969192505
 21
28.04463720321655
 31
0.0
  0
LINE
  5
226
330
1F
100
AcDbEntity
  8
TFR-TRI
  6
Continuous
 62
    18
100
AcDbLine
 10
51.50478792190551
 20
28.07613706588745
 30
0.0
 11
51.50478792190551
 21
28.61156606674195
 31
0.0
  0
LINE
  5
227
330
1F
100
AcDbEntity
  8
TFR-TRI
  6
Continuous
 62
    18
100
AcDbLine
 10
51.44179582595825
 20
28.07613706588745
 30
0.0
 11
51.44179582595825
 21
28.61156606674195
 31
0.0
  0
LINE
  5
228
330
1F
100
AcDbEntity
  8
TFR-TRI
  6
Continuous
 62
    18
100
AcDbLine
 10
51.97723054885864
 20
27.98164510726929
 30
0.0
 11
51.96733903884887
 21
27.98164510726929
 31
0.0
  0
LINE
  5
229
330
1F
100
AcDbEntity
  8
TFR-TRI
  6
Continuous
 62
    18
100
AcDbLine
 10
51.96733903884887
 20
27.98164510726929
 30
0.0
 11
51.93917512893676
 21
27.98164510726929
 31
0.0
  0
LINE
  5
22A
330
1F
100
AcDbEntity
  8
TFR-TRI
  6
Continuous
 62
    18
100
AcDbLine
 10
51.93917512893676
 20
27.98164510726929
 30
0.0
 11
51.89702653884888
 21
27.98164510726929
 31
0.0
  0
LINE
  5
22B
330
1F
100
AcDbEntity
  8
TFR-TRI
  6
Continuous
 62
    18
100
AcDbLine
 10
51.89702653884888
 20
27.98164510726929
 30
0.0
 11
51.84730958938598
 21
27.98164510726929
 31
0.0
  0
LINE
  5
22C
330
1F
100
AcDbEntity
  8
TFR-TRI
  6
Continuous
 62
    18
100
AcDbLine
 10
51.84730958938598
 20
28.04463720321655
 30
0.0
 11
51.89702653884888
 21
28.04463720321655
 31
0.0
  0
LINE
  5
22D
330
1F
100
AcDbEntity
  8
TFR-TRI
  6
Continuous
 62
    18
100
AcDbLine
 10
51.89702653884888
 20
28.04463720321655
 30
0.0
 11
51.93917512893676
 21
28.04463720321655
 31
0.0
  0
LINE
  5
22E
330
1F
100
AcDbEntity
  8
TFR-TRI
  6
Continuous
 62
    18
100
AcDbLine
 10
51.93917512893676
 20
28.04463720321655
 30
0.0
 11
51.96733903884887
 21
28.04463720321655
 31
0.0
  0
LINE
  5
22F
330
1F
100
AcDbEntity
  8
TFR-TRI
  6
Continuous
 62
    18
100
AcDbLine
 10
51.96733903884887
 20
28.04463720321655
 30
0.0
 11
51.97723054885864
 21
28.04463720321655
 31
0.0
  0
LINE
  5
230
330
1F
100
AcDbEntity
  8
TFR-TRI
  6
Continuous
 62
    18
100
AcDbLine
 10
51.97723054885864
 20
28.04463720321655
 30
0.0
 11
51.97723054885864
 21
27.98164510726929
 31
0.0
  0
LINE
  5
231
330
1F
100
AcDbEntity
  8
TFR-TRI
  6
Continuous
 62
    18
100
AcDbLine
 10
4.134706020355224
 20
28.70605802536011
 30
0.0
 11
4.630821704864501
 21
28.70605802536011
 31
0.0
  0
LINE
  5
232
330
1F
100
AcDbEntity
  8
TFR-TRI
  6
Continuous
 62
    18
100
AcDbLine
 10
3.989036560058593
 20
28.70605802536011
 30
0.0
 11
4.00478458404541
 21
28.70605802536011
 31
0.0
  0
LINE
  5
233
330
1F
100
AcDbEntity
  8
TFR-TRI
  6
Continuous
 62
    18
100
AcDbLine
 10
4.00478458404541
 20
28.70605802536011
 30
0.0
 11
4.014674186706542
 21
28.70605802536011
 31
0.0
  0
LINE
  5
234
330
1F
100
AcDbEntity
  8
TFR-TRI
  6
Continuous
 62
    18
100
AcDbLine
 10
4.014674186706542
 20
28.70605802536011
 30
0.0
 11
4.042837619781494
 21
28.70605802536011
 31
0.0
  0
LINE
  5
235
330
1F
100
AcDbEntity
  8
TFR-TRI
  6
Continuous
 62
    18
100
AcDbLine
 10
4.042837619781494
 20
28.70605802536011
 30
0.0
 11
4.084987163543701
 21
28.70605802536011
 31
0.0
  0
LINE
  5
236
330
1F
100
AcDbEntity
  8
TFR-TRI
  6
Continuous
 62
    18
100
AcDbLine
 10
4.084987163543701
 20
28.70605802536011
 30
0.0
 11
4.134706020355224
 21
28.70605802536011
 31
0.0
  0
LINE
  5
237
330
1F
100
AcDbEntity
  8
TFR-TRI
  6
Continuous
 62
    18
100
AcDbLine
 10
3.894544601440429
 20
28.73755979537964
 30
0.0
 11
3.894544601440429
 21
30.06432676315308
 31
0.0
  0
LINE
  5
238
330
1F
100
AcDbEntity
  8
TFR-TRI
  6
Continuous
 62
    18
100
AcDbLine
 10
3.894544601440429
 20
30.06432676315308
 30
0.0
 11
3.894544601440429
 21
30.11404371261597
 31
0.0
  0
LINE
  5
239
330
1F
100
AcDbEntity
  8
TFR-TRI
  6
Continuous
 62
    18
100
AcDbLine
 10
3.894544601440429
 20
30.11404371261597
 30
0.0
 11
3.894544601440429
 21
30.15619230270386
 31
0.0
  0
LINE
  5
23A
330
1F
100
AcDbEntity
  8
TFR-TRI
  6
Continuous
 62
    18
100
AcDbLine
 10
3.894544601440429
 20
30.15619230270386
 30
0.0
 11
3.894544601440429
 21
30.18435621261597
 31
0.0
  0
LINE
  5
23B
330
1F
100
AcDbEntity
  8
TFR-TRI
  6
Continuous
 62
    18
100
AcDbLine
 10
3.894544601440429
 20
30.18435621261597
 30
0.0
 11
3.894544601440429
 21
30.19424772262573
 31
0.0
  0
LINE
  5
23C
330
1F
100
AcDbEntity
  8
TFR-TRI
  6
Continuous
 62
    18
100
AcDbLine
 10
3.957536697387695
 20
30.19424772262573
 30
0.0
 11
3.957536697387695
 21
30.18435621261597
 31
0.0
  0
LINE
  5
23D
330
1F
100
AcDbEntity
  8
TFR-TRI
  6
Continuous
 62
    18
100
AcDbLine
 10
3.957536697387695
 20
30.18435621261597
 30
0.0
 11
3.957536697387695
 21
30.15619230270386
 31
0.0
  0
LINE
  5
23E
330
1F
100
AcDbEntity
  8
TFR-TRI
  6
Continuous
 62
    18
100
AcDbLine
 10
3.957536697387695
 20
30.15619230270386
 30
0.0
 11
3.957536697387695
 21
30.11404371261597
 31
0.0
  0
LINE
  5
23F
330
1F
100
AcDbEntity
  8
TFR-TRI
  6
Continuous
 62
    18
100
AcDbLine
 10
3.957536697387695
 20
30.11404371261597
 30
0.0
 11
3.957536697387695
 21
30.06432676315308
 31
0.0
  0
LINE
  5
240
330
1F
100
AcDbEntity
  8
TFR-TRI
  6
Continuous
 62
    18
100
AcDbLine
 10
3.957536697387695
 20
28.73755979537964
 30
0.0
 11
3.957536697387695
 21
30.06432676315308
 31
0.0
  0
LINE
  5
241
330
1F
100
AcDbEntity
  8
TFR-TRI
  6
Continuous
 62
    18
100
AcDbLine
 10
4.00478458404541
 20
28.69031095504761
 30
0.0
 11
4.00478458404541
 21
28.70605802536011
 31
0.0
  0
LINE
  5
242
330
1F
100
AcDbEntity
  8
TFR-TRI
  6
Continuous
 62
    18
100
AcDbLine
 10
3.894544601440429
 20
30.19424772262573
 30
0.0
 11
3.957536697387695
 21
30.19424772262573
 31
0.0
  0
LINE
  5
243
330
1F
100
AcDbEntity
  8
TFR-TRI
  6
Continuous
 62
    18
100
AcDbLine
 10
8.374863147735595
 20
28.04463720321655
 30
0.0
 11
8.063843250274658
 21
28.04463720321655
 31
0.0
  0
LINE
  5
244
330
1F
100
AcDbEntity
  8
TFR-TRI
  6
Continuous
 62
    18
100
AcDbLine
 10
8.374863147735595
 20
27.98164510726929
 30
0.0
 11
8.063843250274658
 21
27.98164510726929
 31
0.0
  0
LINE
  5
245
330
1F
100
AcDbEntity
  8
TFR-TRI
  6
Continuous
 62
    18
100
AcDbLine
 10
8.469355106353759
 20
28.61156606674195
 30
0.0
 11
8.469355106353759
 21
28.07613706588745
 31
0.0
  0
LINE
  5
246
330
1F
100
AcDbEntity
  8
TFR-TRI
  6
Continuous
 62
    18
100
AcDbLine
 10
8.406363010406494
 20
28.61156606674195
 30
0.0
 11
8.406363010406494
 21
28.07613706588745
 31
0.0
  0
LINE
  5
247
330
1F
100
AcDbEntity
  8
TFR-TRI
  6
Continuous
 62
    18
100
AcDbLine
 10
8.063843250274658
 20
27.98164510726929
 30
0.0
 11
8.014124393463134
 21
27.98164510726929
 31
0.0
  0
LINE
  5
248
330
1F
100
AcDbEntity
  8
TFR-TRI
  6
Continuous
 62
    18
100
AcDbLine
 10
8.014124393463134
 20
27.98164510726929
 30
0.0
 11
7.971975803375244
 21
27.98164510726929
 31
0.0
  0
LINE
  5
249
330
1F
100
AcDbEntity
  8
TFR-TRI
  6
Continuous
 62
    18
100
AcDbLine
 10
7.971975803375244
 20
27.98164510726929
 30
0.0
 11
7.943811893463134
 21
27.98164510726929
 31
0.0
  0
LINE
  5
24A
330
1F
100
AcDbEntity
  8
TFR-TRI
  6
Continuous
 62
    18
100
AcDbLine
 10
7.943811893463134
 20
27.98164510726929
 30
0.0
 11
7.933922290802001
 21
27.98164510726929
 31
0.0
  0
LINE
  5
24B
330
1F
100
AcDbEntity
  8
TFR-TRI
  6
Continuous
 62
    18
100
AcDbLine
 10
7.933922290802001
 20
28.04463720321655
 30
0.0
 11
7.943811893463134
 21
28.04463720321655
 31
0.0
  0
LINE
  5
24C
330
1F
100
AcDbEntity
  8
TFR-TRI
  6
Continuous
 62
    18
100
AcDbLine
 10
7.943811893463134
 20
28.04463720321655
 30
0.0
 11
7.971975803375244
 21
28.04463720321655
 31
0.0
  0
LINE
  5
24D
330
1F
100
AcDbEntity
  8
TFR-TRI
  6
Continuous
 62
    18
100
AcDbLine
 10
7.971975803375244
 20
28.04463720321655
 30
0.0
 11
8.014124393463134
 21
28.04463720321655
 31
0.0
  0
LINE
  5
24E
330
1F
100
AcDbEntity
  8
TFR-TRI
  6
Continuous
 62
    18
100
AcDbLine
 10
8.014124393463134
 20
28.04463720321655
 30
0.0
 11
8.063843250274658
 21
28.04463720321655
 31
0.0
  0
LINE
  5
24F
330
1F
100
AcDbEntity
  8
TFR-TRI
  6
Continuous
 62
    18
100
AcDbLine
 10
7.933922290802001
 20
27.98164510726929
 30
0.0
 11
7.933922290802001
 21
28.04463720321655
 31
0.0
  0
LINE
  5
250
330
1F
100
AcDbEntity
  8
TFR-TRI
  6
Continuous
 62
    18
100
AcDbLine
 10
56.64652299880981
 20
28.64306592941284
 30
0.0
 11
52.74256944656372
 21
28.64306592941284
 31
0.0
  0
LINE
  5
251
330
1F
100
AcDbEntity
  8
TFR-TRI
  6
Continuous
 62
    18
100
AcDbLine
 10
56.64652299880981
 20
28.58007383346558
 30
0.0
 11
52.74256944656372
 21
28.58007383346558
 31
0.0
  0
LINE
  5
252
330
1F
100
AcDbEntity
  8
TFR-TRI
  6
Continuous
 62
    18
100
AcDbLine
 10
56.74101686477661
 20
28.94621610641479
 30
0.0
 11
56.74101686477661
 21
28.67456388473511
 31
0.0
  0
LINE
  5
253
330
1F
100
AcDbEntity
  8
TFR-TRI
  6
Continuous
 62
    18
100
AcDbLine
 10
56.67802476882934
 20
28.94621610641479
 30
0.0
 11
56.67802476882934
 21
28.67456388473511
 31
0.0
  0
LINE
  5
254
330
1F
100
AcDbEntity
  8
TFR-TRI
  6
Continuous
 62
    18
100
AcDbLine
 10
52.74256944656372
 20
28.58007383346558
 30
0.0
 11
52.69570207595825
 21
28.58007383346558
 31
0.0
  0
LINE
  5
255
330
1F
100
AcDbEntity
  8
TFR-TRI
  6
Continuous
 62
    18
100
AcDbLine
 10
52.69570207595825
 20
28.58007383346558
 30
0.0
 11
52.65514802932739
 21
28.58007383346558
 31
0.0
  0
LINE
  5
256
330
1F
100
AcDbEntity
  8
TFR-TRI
  6
Continuous
 62
    18
100
AcDbLine
 10
52.65514802932739
 20
28.58007383346558
 30
0.0
 11
52.62636232376099
 21
28.58007383346558
 31
0.0
  0
LINE
  5
257
330
1F
100
AcDbEntity
  8
TFR-TRI
  6
Continuous
 62
    18
100
AcDbLine
 10
52.62636232376099
 20
28.58007383346558
 30
0.0
 11
51.67802095413208
 21
28.58007383346558
 31
0.0
  0
LINE
  5
258
330
1F
100
AcDbEntity
  8
TFR-TRI
  6
Continuous
 62
    18
100
AcDbLine
 10
52.62636232376099
 20
28.64306592941284
 30
0.0
 11
52.65514802932739
 21
28.64306592941284
 31
0.0
  0
LINE
  5
259
330
1F
100
AcDbEntity
  8
TFR-TRI
  6
Continuous
 62
    18
100
AcDbLine
 10
52.65514802932739
 20
28.64306592941284
 30
0.0
 11
52.69570207595825
 21
28.64306592941284
 31
0.0
  0
LINE
  5
25A
330
1F
100
AcDbEntity
  8
TFR-TRI
  6
Continuous
 62
    18
100
AcDbLine
 10
52.69570207595825
 20
28.64306592941284
 30
0.0
 11
52.74256944656372
 21
28.64306592941284
 31
0.0
  0
LINE
  5
25B
330
1F
100
AcDbEntity
  8
TFR-TRI
  6
Continuous
 62
    18
100
AcDbLine
 10
56.74101686477661
 20
29.07613706588745
 30
0.0
 11
56.74101686477661
 21
29.06624555587768
 31
0.0
  0
LINE
  5
25C
330
1F
100
AcDbEntity
  8
TFR-TRI
  6
Continuous
 62
    18
100
AcDbLine
 10
56.74101686477661
 20
29.06624555587768
 30
0.0
 11
56.74101686477661
 21
29.03808546066284
 31
0.0
  0
LINE
  5
25D
330
1F
100
AcDbEntity
  8
TFR-TRI
  6
Continuous
 62
    18
100
AcDbLine
 10
56.74101686477661
 20
29.03808546066284
 30
0.0
 11
56.74101686477661
 21
28.99593305587769
 31
0.0
  0
LINE
  5
25E
330
1F
100
AcDbEntity
  8
TFR-TRI
  6
Continuous
 62
    18
100
AcDbLine
 10
56.74101686477661
 20
28.99593305587769
 30
0.0
 11
56.74101686477661
 21
28.94621610641479
 31
0.0
  0
LINE
  5
25F
330
1F
100
AcDbEntity
  8
TFR-TRI
  6
Continuous
 62
    18
100
AcDbLine
 10
56.67802476882934
 20
28.94621610641479
 30
0.0
 11
56.67802476882934
 21
28.99593305587769
 31
0.0
  0
LINE
  5
260
330
1F
100
AcDbEntity
  8
TFR-TRI
  6
Continuous
 62
    18
100
AcDbLine
 10
56.67802476882934
 20
28.99593305587769
 30
0.0
 11
56.67802476882934
 21
29.03808546066284
 31
0.0
  0
LINE
  5
261
330
1F
100
AcDbEntity
  8
TFR-TRI
  6
Continuous
 62
    18
100
AcDbLine
 10
56.67802476882934
 20
29.03808546066284
 30
0.0
 11
56.67802476882934
 21
29.06624555587768
 31
0.0
  0
LINE
  5
262
330
1F
100
AcDbEntity
  8
TFR-TRI
  6
Continuous
 62
    18
100
AcDbLine
 10
56.67802476882934
 20
29.06624555587768
 30
0.0
 11
56.67802476882934
 21
29.07613706588745
 31
0.0
  0
LINE
  5
263
330
1F
100
AcDbEntity
  8
TFR-TRI
  6
Continuous
 62
    18
100
AcDbLine
 10
56.67802476882934
 20
29.07613706588745
 30
0.0
 11
56.74101686477661
 21
29.07613706588745
 31
0.0
  0
LINE
  5
264
330
1F
100
AcDbEntity
  8
TFR-TRI
  6
Continuous
 62
    18
100
AcDbLine
 10
54.58353090286255
 20
28.51708173751831
 30
0.0
 11
54.53305864334106
 21
28.51708173751831
 31
0.0
  0
LINE
  5
265
330
1F
100
AcDbEntity
  8
TFR-TRI
  6
Continuous
 62
    18
100
AcDbLine
 10
54.53305864334106
 20
28.51708173751831
 30
0.0
 11
54.49027299880981
 21
28.51708173751831
 31
0.0
  0
LINE
  5
266
330
1F
100
AcDbEntity
  8
TFR-TRI
  6
Continuous
 62
    18
100
AcDbLine
 10
54.49027299880981
 20
28.51708173751831
 30
0.0
 11
54.46168184280395
 21
28.51708173751831
 31
0.0
  0
LINE
  5
267
330
1F
100
AcDbEntity
  8
TFR-TRI
  6
Continuous
 62
    18
100
AcDbLine
 10
54.46168184280395
 20
28.51708173751831
 30
0.0
 11
54.45164155960083
 21
28.51708173751831
 31
0.0
  0
LINE
  5
268
330
1F
100
AcDbEntity
  8
TFR-TRI
  6
Continuous
 62
    18
100
AcDbLine
 10
54.71542406082154
 20
28.51708173751831
 30
0.0
 11
54.7053837776184
 21
28.51708173751831
 31
0.0
  0
LINE
  5
269
330
1F
100
AcDbEntity
  8
TFR-TRI
  6
Continuous
 62
    18
100
AcDbLine
 10
54.7053837776184
 20
28.51708173751831
 30
0.0
 11
54.67679262161254
 21
28.51708173751831
 31
0.0
  0
LINE
  5
26A
330
1F
100
AcDbEntity
  8
TFR-TRI
  6
Continuous
 62
    18
100
AcDbLine
 10
54.67679262161254
 20
28.51708173751831
 30
0.0
 11
54.63400316238403
 21
28.51708173751831
 31
0.0
  0
LINE
  5
26B
330
1F
100
AcDbEntity
  8
TFR-TRI
  6
Continuous
 62
    18
100
AcDbLine
 10
54.63400316238403
 20
28.51708173751831
 30
0.0
 11
54.58353090286255
 21
28.51708173751831
 31
0.0
  0
LINE
  5
26C
330
1F
100
AcDbEntity
  8
TFR-TRI
  6
Continuous
 62
    18
100
AcDbLine
 10
52.81581544876098
 20
28.51708173751831
 30
0.0
 11
52.7653431892395
 21
28.51708173751831
 31
0.0
  0
LINE
  5
26D
330
1F
100
AcDbEntity
  8
TFR-TRI
  6
Continuous
 62
    18
100
AcDbLine
 10
52.7653431892395
 20
28.51708173751831
 30
0.0
 11
52.72255754470825
 21
28.51708173751831
 31
0.0
  0
LINE
  5
26E
330
1F
100
AcDbEntity
  8
TFR-TRI
  6
Continuous
 62
    18
100
AcDbLine
 10
52.72255754470825
 20
28.51708173751831
 30
0.0
 11
52.69396638870239
 21
28.51708173751831
 31
0.0
  0
LINE
  5
26F
330
1F
100
AcDbEntity
  8
TFR-TRI
  6
Continuous
 62
    18
100
AcDbLine
 10
52.69396638870239
 20
28.51708173751831
 30
0.0
 11
52.68392610549927
 21
28.51708173751831
 31
0.0
  0
LINE
  5
270
330
1F
100
AcDbEntity
  8
TFR-TRI
  6
Continuous
 62
    18
100
AcDbLine
 10
52.9477047920227
 20
28.51708173751831
 30
0.0
 11
52.93766450881958
 21
28.51708173751831
 31
0.0
  0
LINE
  5
271
330
1F
100
AcDbEntity
  8
TFR-TRI
  6
Continuous
 62
    18
100
AcDbLine
 10
52.93766450881958
 20
28.51708173751831
 30
0.0
 11
52.90907716751099
 21
28.51708173751831
 31
0.0
  0
LINE
  5
272
330
1F
100
AcDbEntity
  8
TFR-TRI
  6
Continuous
 62
    18
100
AcDbLine
 10
52.90907716751099
 20
28.51708173751831
 30
0.0
 11
52.86628770828247
 21
28.51708173751831
 31
0.0
  0
LINE
  5
273
330
1F
100
AcDbEntity
  8
TFR-TRI
  6
Continuous
 62
    18
100
AcDbLine
 10
52.86628770828247
 20
28.51708173751831
 30
0.0
 11
52.81581544876098
 21
28.51708173751831
 31
0.0
  0
LINE
  5
274
330
1F
100
AcDbEntity
  8
TFR-TRI
  6
Continuous
 62
    18
100
AcDbLine
 10
51.67802095413208
 20
28.58007383346558
 30
0.0
 11
51.67802095413208
 21
28.64306592941284
 31
0.0
  0
LINE
  5
275
330
1F
100
AcDbEntity
  8
TFR-TRI
  6
Continuous
 62
    18
100
AcDbLine
 10
51.58352708816528
 20
28.27692365646362
 30
0.0
 11
51.58352708816528
 21
28.54857397079468
 31
0.0
  0
LINE
  5
276
330
1F
100
AcDbEntity
  8
TFR-TRI
  6
Continuous
 62
    18
100
AcDbLine
 10
51.64651918411255
 20
28.27692365646362
 30
0.0
 11
51.64651918411255
 21
28.54857397079468
 31
0.0
  0
LINE
  5
277
330
1F
100
AcDbEntity
  8
TFR-TRI
  6
Continuous
 62
    18
100
AcDbLine
 10
51.58352708816528
 20
28.14700269699097
 30
0.0
 11
51.58352708816528
 21
28.1568922996521
 31
0.0
  0
LINE
  5
278
330
1F
100
AcDbEntity
  8
TFR-TRI
  6
Continuous
 62
    18
100
AcDbLine
 10
51.58352708816528
 20
28.1568922996521
 30
0.0
 11
51.58352708816528
 21
28.18505620956421
 31
0.0
  0
LINE
  5
279
330
1F
100
AcDbEntity
  8
TFR-TRI
  6
Continuous
 62
    18
100
AcDbLine
 10
51.58352708816528
 20
28.18505620956421
 30
0.0
 11
51.58352708816528
 21
28.2272047996521
 31
0.0
  0
LINE
  5
27A
330
1F
100
AcDbEntity
  8
TFR-TRI
  6
Continuous
 62
    18
100
AcDbLine
 10
51.58352708816528
 20
28.2272047996521
 30
0.0
 11
51.58352708816528
 21
28.27692365646362
 31
0.0
  0
LINE
  5
27B
330
1F
100
AcDbEntity
  8
TFR-TRI
  6
Continuous
 62
    18
100
AcDbLine
 10
51.64651918411255
 20
28.27692365646362
 30
0.0
 11
51.64651918411255
 21
28.2272047996521
 31
0.0
  0
LINE
  5
27C
330
1F
100
AcDbEntity
  8
TFR-TRI
  6
Continuous
 62
    18
100
AcDbLine
 10
51.64651918411255
 20
28.2272047996521
 30
0.0
 11
51.64651918411255
 21
28.18505620956421
 31
0.0
  0
LINE
  5
27D
330
1F
100
AcDbEntity
  8
TFR-TRI
  6
Continuous
 62
    18
100
AcDbLine
 10
51.64651918411255
 20
28.18505620956421
 30
0.0
 11
51.64651918411255
 21
28.1568922996521
 31
0.0
  0
LINE
  5
27E
330
1F
100
AcDbEntity
  8
TFR-TRI
  6
Continuous
 62
    18
100
AcDbLine
 10
51.64651918411255
 20
28.1568922996521
 30
0.0
 11
51.64651918411255
 21
28.14700269699097
 31
0.0
  0
LINE
  5
27F
330
1F
100
AcDbEntity
  8
TFR-TRI
  6
Continuous
 62
    18
100
AcDbLine
 10
51.64651918411255
 20
28.14700269699097
 30
0.0
 11
51.58352708816528
 21
28.14700269699097
 31
0.0
  0
LINE
  5
280
330
1F
100
AcDbEntity
  8
TFR-TRI
  6
Continuous
 62
    18
100
AcDbLine
 10
7.168583393096923
 20
28.58007383346558
 30
0.0
 11
3.26462697982788
 21
28.58007383346558
 31
0.0
  0
LINE
  5
281
330
1F
100
AcDbEntity
  8
TFR-TRI
  6
Continuous
 62
    18
100
AcDbLine
 10
7.168583393096923
 20
28.64306592941284
 30
0.0
 11
3.26462697982788
 21
28.64306592941284
 31
0.0
  0
LINE
  5
282
330
1F
100
AcDbEntity
  8
TFR-TRI
  6
Continuous
 62
    18
100
AcDbLine
 10
3.233127117156982
 20
28.67456388473511
 30
0.0
 11
3.233127117156982
 21
28.94621610641479
 31
0.0
  0
LINE
  5
283
330
1F
100
AcDbEntity
  8
TFR-TRI
  6
Continuous
 62
    18
100
AcDbLine
 10
3.170135021209716
 20
28.67456388473511
 30
0.0
 11
3.170135021209716
 21
28.94621610641479
 31
0.0
  0
LINE
  5
284
330
1F
100
AcDbEntity
  8
TFR-TRI
  6
Continuous
 62
    18
100
AcDbLine
 10
8.233130931854248
 20
28.58007383346558
 30
0.0
 11
7.284788608551025
 21
28.58007383346558
 31
0.0
  0
LINE
  5
285
330
1F
100
AcDbEntity
  8
TFR-TRI
  6
Continuous
 62
    18
100
AcDbLine
 10
7.284788608551025
 20
28.58007383346558
 30
0.0
 11
7.256004810333251
 21
28.58007383346558
 31
0.0
  0
LINE
  5
286
330
1F
100
AcDbEntity
  8
TFR-TRI
  6
Continuous
 62
    18
100
AcDbLine
 10
7.256004810333251
 20
28.58007383346558
 30
0.0
 11
7.215449810028076
 21
28.58007383346558
 31
0.0
  0
LINE
  5
287
330
1F
100
AcDbEntity
  8
TFR-TRI
  6
Continuous
 62
    18
100
AcDbLine
 10
7.215449810028076
 20
28.58007383346558
 30
0.0
 11
7.168583393096923
 21
28.58007383346558
 31
0.0
  0
LINE
  5
288
330
1F
100
AcDbEntity
  8
TFR-TRI
  6
Continuous
 62
    18
100
AcDbLine
 10
7.168583393096923
 20
28.64306592941284
 30
0.0
 11
7.215449810028076
 21
28.64306592941284
 31
0.0
  0
LINE
  5
289
330
1F
100
AcDbEntity
  8
TFR-TRI
  6
Continuous
 62
    18
100
AcDbLine
 10
7.215449810028076
 20
28.64306592941284
 30
0.0
 11
7.256004810333251
 21
28.64306592941284
 31
0.0
  0
LINE
  5
28A
330
1F
100
AcDbEntity
  8
TFR-TRI
  6
Continuous
 62
    18
100
AcDbLine
 10
7.256004810333251
 20
28.64306592941284
 30
0.0
 11
7.284788608551025
 21
28.64306592941284
 31
0.0
  0
LINE
  5
28B
330
1F
100
AcDbEntity
  8
TFR-TRI
  6
Continuous
 62
    18
100
AcDbLine
 10
3.170135021209716
 20
28.94621610641479
 30
0.0
 11
3.170135021209716
 21
28.99593305587769
 31
0.0
  0
LINE
  5
28C
330
1F
100
AcDbEntity
  8
TFR-TRI
  6
Continuous
 62
    18
100
AcDbLine
 10
3.170135021209716
 20
28.99593305587769
 30
0.0
 11
3.170135021209716
 21
29.03808546066284
 31
0.0
  0
LINE
  5
28D
330
1F
100
AcDbEntity
  8
TFR-TRI
  6
Continuous
 62
    18
100
AcDbLine
 10
3.170135021209716
 20
29.03808546066284
 30
0.0
 11
3.170135021209716
 21
29.06624555587768
 31
0.0
  0
LINE
  5
28E
330
1F
100
AcDbEntity
  8
TFR-TRI
  6
Continuous
 62
    18
100
AcDbLine
 10
3.170135021209716
 20
29.06624555587768
 30
0.0
 11
3.170135021209716
 21
29.07613706588745
 31
0.0
  0
LINE
  5
28F
330
1F
100
AcDbEntity
  8
TFR-TRI
  6
Continuous
 62
    18
100
AcDbLine
 10
3.233127117156982
 20
29.07613706588745
 30
0.0
 11
3.233127117156982
 21
29.06624555587768
 31
0.0
  0
LINE
  5
290
330
1F
100
AcDbEntity
  8
TFR-TRI
  6
Continuous
 62
    18
100
AcDbLine
 10
3.233127117156982
 20
29.06624555587768
 30
0.0
 11
3.233127117156982
 21
29.03808546066284
 31
0.0
  0
LINE
  5
291
330
1F
100
AcDbEntity
  8
TFR-TRI
  6
Continuous
 62
    18
100
AcDbLine
 10
3.233127117156982
 20
29.03808546066284
 30
0.0
 11
3.233127117156982
 21
28.99593305587769
 31
0.0
  0
LINE
  5
292
330
1F
100
AcDbEntity
  8
TFR-TRI
  6
Continuous
 62
    18
100
AcDbLine
 10
3.233127117156982
 20
28.99593305587769
 30
0.0
 11
3.233127117156982
 21
28.94621610641479
 31
0.0
  0
LINE
  5
293
330
1F
100
AcDbEntity
  8
TFR-TRI
  6
Continuous
 62
    18
100
AcDbLine
 10
3.170135021209716
 20
29.07613706588745
 30
0.0
 11
3.233127117156982
 21
29.07613706588745
 31
0.0
  0
LINE
  5
294
330
1F
100
AcDbEntity
  8
TFR-TRI
  6
Continuous
 62
    18
100
AcDbLine
 10
5.327619075775146
 20
28.51708173751831
 30
0.0
 11
5.277146816253662
 21
28.51708173751831
 31
0.0
  0
LINE
  5
295
330
1F
100
AcDbEntity
  8
TFR-TRI
  6
Continuous
 62
    18
100
AcDbLine
 10
5.277146816253662
 20
28.51708173751831
 30
0.0
 11
5.234359264373779
 21
28.51708173751831
 31
0.0
  0
LINE
  5
296
330
1F
100
AcDbEntity
  8
TFR-TRI
  6
Continuous
 62
    18
100
AcDbLine
 10
5.234359264373779
 20
28.51708173751831
 30
0.0
 11
5.205769062042236
 21
28.51708173751831
 31
0.0
  0
LINE
  5
297
330
1F
100
AcDbEntity
  8
TFR-TRI
  6
Continuous
 62
    18
100
AcDbLine
 10
5.205769062042236
 20
28.51708173751831
 30
0.0
 11
5.195729732513427
 21
28.51708173751831
 31
0.0
  0
LINE
  5
298
330
1F
100
AcDbEntity
  8
TFR-TRI
  6
Continuous
 62
    18
100
AcDbLine
 10
5.459509372711181
 20
28.51708173751831
 30
0.0
 11
5.449469089508056
 21
28.51708173751831
 31
0.0
  0
LINE
  5
299
330
1F
100
AcDbEntity
  8
TFR-TRI
  6
Continuous
 62
    18
100
AcDbLine
 10
5.449469089508056
 20
28.51708173751831
 30
0.0
 11
5.420878887176513
 21
28.51708173751831
 31
0.0
  0
LINE
  5
29A
330
1F
100
AcDbEntity
  8
TFR-TRI
  6
Continuous
 62
    18
100
AcDbLine
 10
5.420878887176513
 20
28.51708173751831
 30
0.0
 11
5.37809133529663
 21
28.51708173751831
 31
0.0
  0
LINE
  5
29B
330
1F
100
AcDbEntity
  8
TFR-TRI
  6
Continuous
 62
    18
100
AcDbLine
 10
5.37809133529663
 20
28.51708173751831
 30
0.0
 11
5.327619075775146
 21
28.51708173751831
 31
0.0
  0
LINE
  5
29C
330
1F
100
AcDbEntity
  8
TFR-TRI
  6
Continuous
 62
    18
100
AcDbLine
 10
7.095335483551025
 20
28.51708173751831
 30
0.0
 11
7.044863224029541
 21
28.51708173751831
 31
0.0
  0
LINE
  5
29D
330
1F
100
AcDbEntity
  8
TFR-TRI
  6
Continuous
 62
    18
100
AcDbLine
 10
7.044863224029541
 20
28.51708173751831
 30
0.0
 11
7.002075672149658
 21
28.51708173751831
 31
0.0
  0
LINE
  5
29E
330
1F
100
AcDbEntity
  8
TFR-TRI
  6
Continuous
 62
    18
100
AcDbLine
 10
7.002075672149658
 20
28.51708173751831
 30
0.0
 11
6.973485469818115
 21
28.51708173751831
 31
0.0
  0
LINE
  5
29F
330
1F
100
AcDbEntity
  8
TFR-TRI
  6
Continuous
 62
    18
100
AcDbLine
 10
6.973485469818115
 20
28.51708173751831
 30
0.0
 11
6.963446140289306
 21
28.51708173751831
 31
0.0
  0
LINE
  5
2A0
330
1F
100
AcDbEntity
  8
TFR-TRI
  6
Continuous
 62
    18
100
AcDbLine
 10
7.22722578048706
 20
28.51708173751831
 30
0.0
 11
7.217185497283935
 21
28.51708173751831
 31
0.0
  0
LINE
  5
2A1
330
1F
100
AcDbEntity
  8
TFR-TRI
  6
Continuous
 62
    18
100
AcDbLine
 10
7.217185497283935
 20
28.51708173751831
 30
0.0
 11
7.188596248626708
 21
28.51708173751831
 31
0.0
  0
LINE
  5
2A2
330
1F
100
AcDbEntity
  8
TFR-TRI
  6
Continuous
 62
    18
100
AcDbLine
 10
7.188596248626708
 20
28.51708173751831
 30
0.0
 11
7.145807743072509
 21
28.51708173751831
 31
0.0
  0
LINE
  5
2A3
330
1F
100
AcDbEntity
  8
TFR-TRI
  6
Continuous
 62
    18
100
AcDbLine
 10
7.145807743072509
 20
28.51708173751831
 30
0.0
 11
7.095335483551025
 21
28.51708173751831
 31
0.0
  0
LINE
  5
2A4
330
1F
100
AcDbEntity
  8
TFR-TRI
  6
Continuous
 62
    18
100
AcDbLine
 10
8.233130931854248
 20
28.64306592941284
 30
0.0
 11
8.233130931854248
 21
28.58007383346558
 31
0.0
  0
LINE
  5
2A5
330
1F
100
AcDbEntity
  8
TFR-TRI
  6
Continuous
 62
    18
100
AcDbLine
 10
8.264630794525146
 20
28.54857397079468
 30
0.0
 11
8.264630794525146
 21
28.27692365646362
 31
0.0
  0
LINE
  5
2A6
330
1F
100
AcDbEntity
  8
TFR-TRI
  6
Continuous
 62
    18
100
AcDbLine
 10
8.327622890472412
 20
28.54857397079468
 30
0.0
 11
8.327622890472412
 21
28.27692365646362
 31
0.0
  0
LINE
  5
2A7
330
1F
100
AcDbEntity
  8
TFR-TRI
  6
Continuous
 62
    18
100
AcDbLine
 10
8.327622890472412
 20
28.27692365646362
 30
0.0
 11
8.327622890472412
 21
28.2272047996521
 31
0.0
  0
LINE
  5
2A8
330
1F
100
AcDbEntity
  8
TFR-TRI
  6
Continuous
 62
    18
100
AcDbLine
 10
8.327622890472412
 20
28.2272047996521
 30
0.0
 11
8.327622890472412
 21
28.18505620956421
 31
0.0
  0
LINE
  5
2A9
330
1F
100
AcDbEntity
  8
TFR-TRI
  6
Continuous
 62
    18
100
AcDbLine
 10
8.327622890472412
 20
28.18505620956421
 30
0.0
 11
8.327622890472412
 21
28.1568922996521
 31
0.0
  0
LINE
  5
2AA
330
1F
100
AcDbEntity
  8
TFR-TRI
  6
Continuous
 62
    18
100
AcDbLine
 10
8.327622890472412
 20
28.1568922996521
 30
0.0
 11
8.327622890472412
 21
28.14700269699097
 31
0.0
  0
LINE
  5
2AB
330
1F
100
AcDbEntity
  8
TFR-TRI
  6
Continuous
 62
    18
100
AcDbLine
 10
8.264630794525146
 20
28.14700269699097
 30
0.0
 11
8.264630794525146
 21
28.1568922996521
 31
0.0
  0
LINE
  5
2AC
330
1F
100
AcDbEntity
  8
TFR-TRI
  6
Continuous
 62
    18
100
AcDbLine
 10
8.264630794525146
 20
28.1568922996521
 30
0.0
 11
8.264630794525146
 21
28.18505620956421
 31
0.0
  0
LINE
  5
2AD
330
1F
100
AcDbEntity
  8
TFR-TRI
  6
Continuous
 62
    18
100
AcDbLine
 10
8.264630794525146
 20
28.18505620956421
 30
0.0
 11
8.264630794525146
 21
28.2272047996521
 31
0.0
  0
LINE
  5
2AE
330
1F
100
AcDbEntity
  8
TFR-TRI
  6
Continuous
 62
    18
100
AcDbLine
 10
8.264630794525146
 20
28.2272047996521
 30
0.0
 11
8.264630794525146
 21
28.27692365646362
 31
0.0
  0
LINE
  5
2AF
330
1F
100
AcDbEntity
  8
TFR-TRI
  6
Continuous
 62
    18
100
AcDbLine
 10
8.327622890472412
 20
28.14700269699097
 30
0.0
 11
8.264630794525146
 21
28.14700269699097
 31
0.0
  0
LINE
  5
2B0
330
1F
100
AcDbEntity
  8
TFR-TRI
  6
Continuous
 62
    18
100
AcDbLine
 10
4.961477756500244
 20
30.06432676315308
 30
0.0
 11
4.961477756500244
 21
29.67455244064331
 31
0.0
  0
LINE
  5
2B1
330
1F
100
AcDbEntity
  8
TFR-TRI
  6
Continuous
 62
    18
100
AcDbLine
 10
4.166202068328857
 20
30.19424772262573
 30
0.0
 11
4.831555843353271
 21
30.19424772262573
 31
0.0
  0
LINE
  5
2B2
330
1F
100
AcDbEntity
  8
TFR-TRI
  6
Continuous
 62
    18
100
AcDbLine
 10
4.036280632019042
 20
28.78480100631714
 30
0.0
 11
4.036280632019042
 21
30.06432676315308
 31
0.0
  0
LINE
  5
2B3
330
1F
100
AcDbEntity
  8
TFR-TRI
  6
Continuous
 62
    18
100
AcDbLine
 10
4.536280632019042
 20
29.64306592941284
 30
0.0
 11
4.536280632019042
 21
29.7414927482605
 31
0.0
  0
LINE
  5
2B4
330
1F
100
AcDbEntity
  8
TFR-TRI
  6
Continuous
 62
    18
100
AcDbLine
 10
4.28431224822998
 20
29.7414927482605
 30
0.0
 11
4.28431224822998
 21
29.64306592941284
 31
0.0
  0
LINE
  5
2B5
330
1F
100
AcDbEntity
  8
TFR-TRI
  6
Continuous
 62
    18
100
AcDbLine
 10
4.036280632019042
 20
28.78480100631714
 30
0.0
 11
4.036280632019042
 21
28.76252698898316
 31
0.0
  0
LINE
  5
2B6
330
1F
100
AcDbEntity
  8
TFR-TRI
  6
Continuous
 62
    18
100
AcDbLine
 10
4.036280632019042
 20
28.76252698898316
 30
0.0
 11
4.036280632019042
 21
28.75330305099487
 31
0.0
  0
LINE
  5
2B7
330
1F
100
AcDbEntity
  8
TFR-TRI
  6
Continuous
 62
    18
100
AcDbLine
 10
4.630935668945312
 20
28.75330305099487
 30
0.0
 11
4.036280632019042
 21
28.75330305099487
 31
0.0
  0
LINE
  5
2B8
330
1F
100
AcDbEntity
  8
TFR-TRI
  6
Continuous
 62
    18
100
AcDbLine
 10
4.004780769348144
 20
30.06432676315308
 30
0.0
 11
4.004780769348144
 21
28.78480100631714
 31
0.0
  0
LINE
  5
2B9
330
1F
100
AcDbEntity
  8
TFR-TRI
  6
Continuous
 62
    18
100
AcDbLine
 10
7.709509372711181
 20
29.73755216598511
 30
0.0
 11
20.24494218826294
 21
29.73755216598511
 31
0.0
  0
LINE
  5
2BA
330
1F
100
AcDbEntity
  8
TFR-TRI
  6
Continuous
 62
    18
100
AcDbLine
 10
4.004780769348144
 20
30.19424772262573
 30
0.0
 11
4.004780769348144
 21
30.18435621261597
 31
0.0
  0
LINE
  5
2BB
330
1F
100
AcDbEntity
  8
TFR-TRI
  6
Continuous
 62
    18
100
AcDbLine
 10
4.004780769348144
 20
30.18435621261597
 30
0.0
 11
4.004780769348144
 21
30.15619230270386
 31
0.0
  0
LINE
  5
2BC
330
1F
100
AcDbEntity
  8
TFR-TRI
  6
Continuous
 62
    18
100
AcDbLine
 10
4.004780769348144
 20
30.15619230270386
 30
0.0
 11
4.004780769348144
 21
30.11404371261597
 31
0.0
  0
LINE
  5
2BD
330
1F
100
AcDbEntity
  8
TFR-TRI
  6
Continuous
 62
    18
100
AcDbLine
 10
4.004780769348144
 20
30.11404371261597
 30
0.0
 11
4.004780769348144
 21
30.06432676315308
 31
0.0
  0
LINE
  5
2BE
330
1F
100
AcDbEntity
  8
TFR-TRI
  6
Continuous
 62
    18
100
AcDbLine
 10
3.957536697387695
 20
30.19424772262573
 30
0.0
 11
4.004780769348144
 21
30.19424772262573
 31
0.0
  0
LINE
  5
2BF
330
1F
100
AcDbEntity
  8
TFR-TRI
  6
Continuous
 62
    18
100
AcDbLine
 10
55.90636491775512
 20
30.06432676315308
 30
0.0
 11
55.90636491775512
 21
28.78480100631714
 31
0.0
  0
LINE
  5
2C0
330
1F
100
AcDbEntity
  8
TFR-TRI
  6
Continuous
 62
    18
100
AcDbLine
 10
55.90636491775512
 20
30.06432676315308
 30
0.0
 11
55.90636491775512
 21
30.11404371261597
 31
0.0
  0
LINE
  5
2C1
330
1F
100
AcDbEntity
  8
TFR-TRI
  6
Continuous
 62
    18
100
AcDbLine
 10
55.90636491775512
 20
30.11404371261597
 30
0.0
 11
55.90636491775512
 21
30.15619230270386
 31
0.0
  0
LINE
  5
2C2
330
1F
100
AcDbEntity
  8
TFR-TRI
  6
Continuous
 62
    18
100
AcDbLine
 10
55.90636491775512
 20
30.15619230270386
 30
0.0
 11
55.90636491775512
 21
30.18435621261597
 31
0.0
  0
LINE
  5
2C3
330
1F
100
AcDbEntity
  8
TFR-TRI
  6
Continuous
 62
    18
100
AcDbLine
 10
55.90636491775512
 20
30.18435621261597
 30
0.0
 11
55.90636491775512
 21
30.19424772262573
 31
0.0
  0
LINE
  5
2C4
330
1F
100
AcDbEntity
  8
TFR-TRI
  6
Continuous
 62
    18
100
AcDbLine
 10
55.07958650588989
 20
30.19424772262573
 30
0.0
 11
55.74494218826294
 21
30.19424772262573
 31
0.0
  0
LINE
  5
2C5
330
1F
100
AcDbEntity
  8
TFR-TRI
  6
Continuous
 62
    18
100
AcDbLine
 10
54.94966554641724
 20
29.67455244064331
 30
0.0
 11
54.94966554641724
 21
30.06432676315308
 31
0.0
  0
LINE
  5
2C6
330
1F
100
AcDbEntity
  8
TFR-TRI
  6
Continuous
 62
    18
100
AcDbLine
 10
55.8748631477356
 20
30.06432676315308
 30
0.0
 11
55.8748631477356
 21
28.78480100631714
 31
0.0
  0
LINE
  5
2C7
330
1F
100
AcDbEntity
  8
TFR-TRI
  6
Continuous
 62
    18
100
AcDbLine
 10
55.62683153152466
 20
29.64306592941284
 30
0.0
 11
55.62683153152466
 21
29.7414927482605
 31
0.0
  0
LINE
  5
2C8
330
1F
100
AcDbEntity
  8
TFR-TRI
  6
Continuous
 62
    18
100
AcDbLine
 10
55.37486314773559
 20
29.7414927482605
 30
0.0
 11
55.37486314773559
 21
29.64306592941284
 31
0.0
  0
LINE
  5
2C9
330
1F
100
AcDbEntity
  8
TFR-TRI
  6
Continuous
 62
    18
100
AcDbLine
 10
55.95360612869263
 20
30.19424772262573
 30
0.0
 11
55.95360612869263
 21
30.18435621261597
 31
0.0
  0
LINE
  5
2CA
330
1F
100
AcDbEntity
  8
TFR-TRI
  6
Continuous
 62
    18
100
AcDbLine
 10
55.95360612869263
 20
30.18435621261597
 30
0.0
 11
55.95360612869263
 21
30.15619230270386
 31
0.0
  0
LINE
  5
2CB
330
1F
100
AcDbEntity
  8
TFR-TRI
  6
Continuous
 62
    18
100
AcDbLine
 10
55.95360612869263
 20
30.15619230270386
 30
0.0
 11
55.95360612869263
 21
30.11404371261597
 31
0.0
  0
LINE
  5
2CC
330
1F
100
AcDbEntity
  8
TFR-TRI
  6
Continuous
 62
    18
100
AcDbLine
 10
55.95360612869263
 20
30.11404371261597
 30
0.0
 11
55.95360612869263
 21
30.06432676315308
 31
0.0
  0
LINE
  5
2CD
330
1F
100
AcDbEntity
  8
TFR-TRI
  6
Continuous
 62
    18
100
AcDbLine
 10
55.95360612869263
 20
30.06432676315308
 30
0.0
 11
55.95360612869263
 21
28.78480100631714
 31
0.0
  0
LINE
  5
2CE
330
1F
100
AcDbEntity
  8
TFR-TRI
  6
Continuous
 62
    18
100
AcDbLine
 10
55.8748631477356
 20
28.75330305099487
 30
0.0
 11
55.28020906448364
 21
28.75330305099487
 31
0.0
  0
LINE
  5
2CF
330
1F
100
AcDbEntity
  8
TFR-TRI
  6
Continuous
 62
    18
100
AcDbLine
 10
55.8748631477356
 20
28.75330305099487
 30
0.0
 11
55.8748631477356
 21
28.76252698898316
 31
0.0
  0
LINE
  5
2D0
330
1F
100
AcDbEntity
  8
TFR-TRI
  6
Continuous
 62
    18
100
AcDbLine
 10
55.8748631477356
 20
28.76252698898316
 30
0.0
 11
55.8748631477356
 21
28.78480100631714
 31
0.0
  0
LINE
  5
2D1
330
1F
100
AcDbEntity
  8
TFR-TRI
  6
Continuous
 62
    18
100
AcDbLine
 10
55.90636491775512
 20
30.19424772262573
 30
0.0
 11
55.95360612869263
 21
30.19424772262573
 31
0.0
  0
LINE
  5
2D2
330
1F
100
AcDbEntity
  8
TFR-TRI
  6
Continuous
 62
    18
100
AcDbLine
 10
39.66620302200317
 20
29.73755216598511
 30
0.0
 11
52.2016339302063
 21
29.73755216598511
 31
0.0
  0
LINE
  5
2D3
330
1F
100
AcDbEntity
  8
TFR-TRI
  6
Continuous
 62
    18
100
AcDbLine
 10
3.76462697982788
 20
28.72180891036988
 30
0.0
 11
3.76462697982788
 21
30.01708173751831
 31
0.0
  0
LINE
  5
2D4
330
1F
100
AcDbEntity
  8
TFR-TRI
  6
Continuous
 62
    18
100
AcDbLine
 10
3.76462697982788
 20
30.01708173751831
 30
0.0
 11
3.76462697982788
 21
30.0667986869812
 31
0.0
  0
LINE
  5
2D5
330
1F
100
AcDbEntity
  8
TFR-TRI
  6
Continuous
 62
    18
100
AcDbLine
 10
3.76462697982788
 20
30.0667986869812
 30
0.0
 11
3.76462697982788
 21
30.10895109176636
 31
0.0
  0
LINE
  5
2D6
330
1F
100
AcDbEntity
  8
TFR-TRI
  6
Continuous
 62
    18
100
AcDbLine
 10
3.76462697982788
 20
30.10895109176636
 30
0.0
 11
3.76462697982788
 21
30.13711500167847
 31
0.0
  0
LINE
  5
2D7
330
1F
100
AcDbEntity
  8
TFR-TRI
  6
Continuous
 62
    18
100
AcDbLine
 10
3.76462697982788
 20
30.13711500167847
 30
0.0
 11
3.76462697982788
 21
30.14700269699097
 31
0.0
  0
LINE
  5
2D8
330
1F
100
AcDbEntity
  8
TFR-TRI
  6
Continuous
 62
    18
100
AcDbLine
 10
3.81187105178833
 20
30.14700269699097
 30
0.0
 11
3.81187105178833
 21
30.13711500167847
 31
0.0
  0
LINE
  5
2D9
330
1F
100
AcDbEntity
  8
TFR-TRI
  6
Continuous
 62
    18
100
AcDbLine
 10
3.81187105178833
 20
30.13711500167847
 30
0.0
 11
3.81187105178833
 21
30.10895109176636
 31
0.0
  0
LINE
  5
2DA
330
1F
100
AcDbEntity
  8
TFR-TRI
  6
Continuous
 62
    18
100
AcDbLine
 10
3.81187105178833
 20
30.10895109176636
 30
0.0
 11
3.81187105178833
 21
30.0667986869812
 31
0.0
  0
LINE
  5
2DB
330
1F
100
AcDbEntity
  8
TFR-TRI
  6
Continuous
 62
    18
100
AcDbLine
 10
3.81187105178833
 20
30.0667986869812
 30
0.0
 11
3.81187105178833
 21
30.01708173751831
 31
0.0
  0
LINE
  5
2DC
330
1F
100
AcDbEntity
  8
TFR-TRI
  6
Continuous
 62
    18
100
AcDbLine
 10
3.81187105178833
 20
28.72180891036988
 30
0.0
 11
3.81187105178833
 21
30.01708173751831
 31
0.0
  0
LINE
  5
2DD
330
1F
100
AcDbEntity
  8
TFR-TRI
  6
Continuous
 62
    18
100
AcDbLine
 10
4.473292350769042
 20
28.64306592941284
 30
0.0
 11
4.473292350769042
 21
28.69031095504761
 31
0.0
  0
LINE
  5
2DE
330
1F
100
AcDbEntity
  8
TFR-TRI
  6
Continuous
 62
    18
100
AcDbLine
 10
4.473292350769042
 20
28.69031095504761
 30
0.0
 11
3.843370914459228
 21
28.69031095504761
 31
0.0
  0
LINE
  5
2DF
330
1F
100
AcDbEntity
  8
TFR-TRI
  6
Continuous
 62
    18
100
AcDbLine
 10
18.14450693130493
 20
28.64306592941284
 30
0.0
 11
7.168774127960205
 21
28.64306592941284
 31
0.0
  0
LINE
  5
2E0
330
1F
100
AcDbEntity
  8
TFR-TRI
  6
Continuous
 62
    18
100
AcDbLine
 10
4.473292350769042
 20
28.69031095504761
 30
0.0
 11
4.630772590637207
 21
28.69031095504761
 31
0.0
  0
LINE
  5
2E1
330
1F
100
AcDbEntity
  8
TFR-TRI
  6
Continuous
 62
    18
100
AcDbLine
 10
3.76462697982788
 20
30.14700269699097
 30
0.0
 11
3.81187105178833
 21
30.14700269699097
 31
0.0
  0
LINE
  5
2E2
330
1F
100
AcDbEntity
  8
TFR-TRI
  6
Continuous
 62
    18
100
AcDbLine
 10
4.630772590637207
 20
28.64306592941284
 30
0.0
 11
4.630772590637207
 21
28.65361547470093
 31
0.0
  0
LINE
  5
2E3
330
1F
100
AcDbEntity
  8
TFR-TRI
  6
Continuous
 62
    18
100
AcDbLine
 10
4.630772590637207
 20
28.65361547470093
 30
0.0
 11
4.630772590637207
 21
28.68243741989136
 31
0.0
  0
LINE
  5
2E4
330
1F
100
AcDbEntity
  8
TFR-TRI
  6
Continuous
 62
    18
100
AcDbLine
 10
4.630772590637207
 20
28.68243741989136
 30
0.0
 11
4.630772590637207
 21
28.72180891036988
 31
0.0
  0
LINE
  5
2E5
330
1F
100
AcDbEntity
  8
TFR-TRI
  6
Continuous
 62
    18
100
AcDbLine
 10
4.630772590637207
 20
29.54463911056519
 30
0.0
 11
4.630772590637207
 21
28.72180891036988
 31
0.0
  0
LINE
  5
2E6
330
1F
100
AcDbEntity
  8
TFR-TRI
  6
Continuous
 62
    18
100
AcDbLine
 10
18.27441453933715
 20
29.67456007003784
 30
0.0
 11
4.760694026947021
 21
29.67456007003784
 31
0.0
  0
LINE
  5
2E7
330
1F
100
AcDbEntity
  8
TFR-TRI
  6
Continuous
 62
    18
100
AcDbLine
 10
56.14652299880981
 20
30.14700269699097
 30
0.0
 11
56.14652299880981
 21
30.13711500167847
 31
0.0
  0
LINE
  5
2E8
330
1F
100
AcDbEntity
  8
TFR-TRI
  6
Continuous
 62
    18
100
AcDbLine
 10
56.14652299880981
 20
30.13711500167847
 30
0.0
 11
56.14652299880981
 21
30.10895109176636
 31
0.0
  0
LINE
  5
2E9
330
1F
100
AcDbEntity
  8
TFR-TRI
  6
Continuous
 62
    18
100
AcDbLine
 10
56.14652299880981
 20
30.10895109176636
 30
0.0
 11
56.14652299880981
 21
30.0667986869812
 31
0.0
  0
LINE
  5
2EA
330
1F
100
AcDbEntity
  8
TFR-TRI
  6
Continuous
 62
    18
100
AcDbLine
 10
56.14652299880981
 20
30.0667986869812
 30
0.0
 11
56.14652299880981
 21
30.01708173751831
 31
0.0
  0
LINE
  5
2EB
330
1F
100
AcDbEntity
  8
TFR-TRI
  6
Continuous
 62
    18
100
AcDbLine
 10
56.14652299880981
 20
28.72180891036988
 30
0.0
 11
56.14652299880981
 21
30.01708173751831
 31
0.0
  0
LINE
  5
2EC
330
1F
100
AcDbEntity
  8
TFR-TRI
  6
Continuous
 62
    18
100
AcDbLine
 10
56.09928178787232
 20
28.72180891036988
 30
0.0
 11
56.09928178787232
 21
30.01708173751831
 31
0.0
  0
LINE
  5
2ED
330
1F
100
AcDbEntity
  8
TFR-TRI
  6
Continuous
 62
    18
100
AcDbLine
 10
56.09928178787232
 20
30.01708173751831
 30
0.0
 11
56.09928178787232
 21
30.0667986869812
 31
0.0
  0
LINE
  5
2EE
330
1F
100
AcDbEntity
  8
TFR-TRI
  6
Continuous
 62
    18
100
AcDbLine
 10
56.09928178787232
 20
30.0667986869812
 30
0.0
 11
56.09928178787232
 21
30.10895109176636
 31
0.0
  0
LINE
  5
2EF
330
1F
100
AcDbEntity
  8
TFR-TRI
  6
Continuous
 62
    18
100
AcDbLine
 10
56.09928178787232
 20
30.10895109176636
 30
0.0
 11
56.09928178787232
 21
30.13711500167847
 31
0.0
  0
LINE
  5
2F0
330
1F
100
AcDbEntity
  8
TFR-TRI
  6
Continuous
 62
    18
100
AcDbLine
 10
56.09928178787232
 20
30.13711500167847
 30
0.0
 11
56.09928178787232
 21
30.14700269699097
 31
0.0
  0
LINE
  5
2F1
330
1F
100
AcDbEntity
  8
TFR-TRI
  6
Continuous
 62
    18
100
AcDbLine
 10
56.06778001785278
 20
28.69031095504761
 30
0.0
 11
55.43785905838013
 21
28.69031095504761
 31
0.0
  0
LINE
  5
2F2
330
1F
100
AcDbEntity
  8
TFR-TRI
  6
Continuous
 62
    18
100
AcDbLine
 10
55.43785905838013
 20
28.69031095504761
 30
0.0
 11
55.43785905838013
 21
28.64306592941284
 31
0.0
  0
LINE
  5
2F3
330
1F
100
AcDbEntity
  8
TFR-TRI
  6
Continuous
 62
    18
100
AcDbLine
 10
52.74237871170043
 20
28.64306592941284
 30
0.0
 11
41.76664400100707
 21
28.64306592941284
 31
0.0
  0
LINE
  5
2F4
330
1F
100
AcDbEntity
  8
TFR-TRI
  6
Continuous
 62
    18
100
AcDbLine
 10
55.2803807258606
 20
28.69031095504761
 30
0.0
 11
55.43785905838013
 21
28.69031095504761
 31
0.0
  0
LINE
  5
2F5
330
1F
100
AcDbEntity
  8
TFR-TRI
  6
Continuous
 62
    18
100
AcDbLine
 10
56.09928178787232
 20
30.14700269699097
 30
0.0
 11
56.14652299880981
 21
30.14700269699097
 31
0.0
  0
LINE
  5
2F6
330
1F
100
AcDbEntity
  8
TFR-TRI
  6
Continuous
 62
    18
100
AcDbLine
 10
55.2803807258606
 20
28.72180891036988
 30
0.0
 11
55.2803807258606
 21
28.68243741989136
 31
0.0
  0
LINE
  5
2F7
330
1F
100
AcDbEntity
  8
TFR-TRI
  6
Continuous
 62
    18
100
AcDbLine
 10
55.2803807258606
 20
28.68243741989136
 30
0.0
 11
55.2803807258606
 21
28.65361547470093
 31
0.0
  0
LINE
  5
2F8
330
1F
100
AcDbEntity
  8
TFR-TRI
  6
Continuous
 62
    18
100
AcDbLine
 10
55.2803807258606
 20
28.65361547470093
 30
0.0
 11
55.2803807258606
 21
28.64306592941284
 31
0.0
  0
LINE
  5
2F9
330
1F
100
AcDbEntity
  8
TFR-TRI
  6
Continuous
 62
    18
100
AcDbLine
 10
55.2803807258606
 20
28.72180891036988
 30
0.0
 11
55.2803807258606
 21
29.54463911056519
 31
0.0
  0
LINE
  5
2FA
330
1F
100
AcDbEntity
  8
TFR-TRI
  6
Continuous
 62
    18
100
AcDbLine
 10
55.15045595169067
 20
29.67456007003784
 30
0.0
 11
41.63673830032348
 21
29.67456007003784
 31
0.0
  0
LINE
  5
2FB
330
1F
100
AcDbEntity
  8
TFR-TRI
  6
Continuous
 62
    18
100
AcDbLine
 10
41.76659822463989
 20
28.67456388473511
 30
0.0
 11
41.76659822463989
 21
29.54463911056519
 31
0.0
  0
LINE
  5
2FC
330
1F
100
AcDbEntity
  8
TFR-TRI
  6
Continuous
 62
    18
100
AcDbLine
 10
41.76659822463989
 20
28.67456388473511
 30
0.0
 11
41.76659822463989
 21
28.63519430160522
 31
0.0
  0
LINE
  5
2FD
330
1F
100
AcDbEntity
  8
TFR-TRI
  6
Continuous
 62
    18
100
AcDbLine
 10
41.76659822463989
 20
28.63519430160522
 30
0.0
 11
41.76659822463989
 21
28.60637044906616
 31
0.0
  0
LINE
  5
2FE
330
1F
100
AcDbEntity
  8
TFR-TRI
  6
Continuous
 62
    18
100
AcDbLine
 10
41.76659822463989
 20
28.60637044906616
 30
0.0
 11
41.76659822463989
 21
28.59582090377808
 31
0.0
  0
LINE
  5
2FF
330
1F
100
AcDbEntity
  8
TFR-TRI
  6
Continuous
 62
    18
100
AcDbLine
 10
18.14455270767212
 20
28.59582090377808
 30
0.0
 11
18.14455270767212
 21
28.60637044906616
 31
0.0
  0
LINE
  5
300
330
1F
100
AcDbEntity
  8
TFR-TRI
  6
Continuous
 62
    18
100
AcDbLine
 10
18.14455270767212
 20
28.60637044906616
 30
0.0
 11
18.14455270767212
 21
28.63519430160522
 31
0.0
  0
LINE
  5
301
330
1F
100
AcDbEntity
  8
TFR-TRI
  6
Continuous
 62
    18
100
AcDbLine
 10
18.14455270767212
 20
28.63519430160522
 30
0.0
 11
18.14455270767212
 21
28.67456388473511
 31
0.0
  0
LINE
  5
302
330
1F
100
AcDbEntity
  8
TFR-TRI
  6
Continuous
 62
    18
100
AcDbLine
 10
18.14455270767212
 20
29.54463911056519
 30
0.0
 11
18.14455270767212
 21
28.67456388473511
 31
0.0
  0
LINE
  5
303
330
1F
100
AcDbEntity
  8
TFR-TRI
  6
Continuous
 62
    18
100
AcDbLine
 10
41.76659822463989
 20
28.59582090377808
 30
0.0
 11
18.14455270767212
 21
28.59582090377808
 31
0.0
  0
LINE
  5
304
330
1F
100
AcDbEntity
  8
TFR-TRI
  6
Continuous
 62
    18
100
AcDbLine
 10
41.63667726516723
 20
29.67456007003784
 30
0.0
 11
18.27447366714477
 21
29.67456007003784
 31
0.0
  0
LINE
  5
305
330
1F
100
AcDbEntity
  8
TFR-TRI
  6
Continuous
 62
    18
100
AcDbLine
 10
20.3069806098938
 20
29.72180509567261
 30
0.0
 11
39.60416078567505
 21
29.72180509567261
 31
0.0
  0
LINE
  5
306
330
1F
100
AcDbEntity
  8
TFR-TRI
  6
Continuous
 62
    18
100
AcDbLine
 10
67.48960924148559
 20
17.81006956100464
 30
0.0
 11
67.46008348464965
 21
17.78054189682007
 31
0.0
  0
LINE
  5
307
330
1F
100
AcDbEntity
  8
TFR-TRI
  6
Continuous
 62
    18
100
AcDbLine
 10
67.46008348464965
 20
17.64274549484253
 30
0.0
 11
67.48960924148559
 21
17.61321783065796
 31
0.0
  0
LINE
  5
308
330
1F
100
AcDbEntity
  8
TFR-TRI
  6
Continuous
 62
    18
100
AcDbLine
 10
67.48960924148559
 20
17.61321783065796
 30
0.0
 11
67.70023393630982
 21
17.61321783065796
 31
0.0
  0
LINE
  5
309
330
1F
100
AcDbEntity
  8
TFR-TRI
  6
Continuous
 62
    18
100
AcDbLine
 10
67.70023393630982
 20
17.81006956100464
 30
0.0
 11
67.48960924148559
 21
17.81006956100464
 31
0.0
  0
LINE
  5
30A
330
1F
100
AcDbEntity
  8
TFR-TRI
  6
Continuous
 62
    18
100
AcDbLine
 10
67.40594530105591
 20
17.64274549484253
 30
0.0
 11
67.46008348464965
 21
17.64274549484253
 31
0.0
  0
LINE
  5
30B
330
1F
100
AcDbEntity
  8
TFR-TRI
  6
Continuous
 62
    18
100
AcDbLine
 10
67.46008348464965
 20
17.78054189682007
 30
0.0
 11
67.40594530105591
 21
17.78054189682007
 31
0.0
  0
LINE
  5
30C
330
1F
100
AcDbEntity
  8
TFR-TRI
  6
Continuous
 62
    18
100
AcDbLine
 10
67.40594530105591
 20
17.78054189682007
 30
0.0
 11
67.40102434158325
 21
17.77561902999878
 31
0.0
  0
LINE
  5
30D
330
1F
100
AcDbEntity
  8
TFR-TRI
  6
Continuous
 62
    18
100
AcDbLine
 10
67.40102434158325
 20
17.64766645431518
 30
0.0
 11
67.40594530105591
 21
17.64274549484253
 31
0.0
  0
LINE
  5
30E
330
1F
100
AcDbEntity
  8
TFR-TRI
  6
Continuous
 62
    18
100
AcDbLine
 10
67.76322984695434
 20
4.457710266113281
 30
0.0
 11
67.70024156570435
 21
4.457710266113281
 31
0.0
  0
LINE
  5
30F
330
1F
100
AcDbEntity
  8
TFR-TRI
  6
Continuous
 62
    18
100
AcDbLine
 10
67.76322984695434
 20
17.8435378074646
 30
0.0
 11
67.70024156570435
 21
17.8435378074646
 31
0.0
  0
LINE
  5
310
330
1F
100
AcDbEntity
  8
TFR-TRI
  6
Continuous
 62
    18
100
AcDbLine
 10
68.41677141189575
 20
15.49872922897339
 30
0.0
 11
68.39677476882934
 21
15.51872968673706
 31
0.0
  0
LINE
  5
311
330
1F
100
AcDbEntity
  8
TFR-TRI
  6
Continuous
 62
    18
100
AcDbLine
 10
68.39677476882934
 20
15.51872968673706
 30
0.0
 11
68.32621812820434
 21
15.51872968673706
 31
0.0
  0
LINE
  5
312
330
1F
100
AcDbEntity
  8
TFR-TRI
  6
Continuous
 62
    18
100
AcDbLine
 10
67.50535631179809
 20
14.06991147994995
 30
0.0
 11
67.47583055496216
 21
14.04038381576538
 31
0.0
  0
LINE
  5
313
330
1F
100
AcDbEntity
  8
TFR-TRI
  6
Continuous
 62
    18
100
AcDbLine
 10
67.47583055496216
 20
13.90258741378784
 30
0.0
 11
67.50535631179809
 21
13.8730616569519
 31
0.0
  0
LINE
  5
314
330
1F
100
AcDbEntity
  8
TFR-TRI
  6
Continuous
 62
    18
100
AcDbLine
 10
67.50535631179809
 20
13.8730616569519
 30
0.0
 11
67.70023393630982
 21
13.8730616569519
 31
0.0
  0
LINE
  5
315
330
1F
100
AcDbEntity
  8
TFR-TRI
  6
Continuous
 62
    18
100
AcDbLine
 10
67.70023393630982
 20
14.06991147994995
 30
0.0
 11
67.50535631179809
 21
14.06991147994995
 31
0.0
  0
LINE
  5
316
330
1F
100
AcDbEntity
  8
TFR-TRI
  6
Continuous
 62
    18
100
AcDbLine
 10
67.42169237136841
 20
13.90258741378784
 30
0.0
 11
67.47583055496216
 21
13.90258741378784
 31
0.0
  0
LINE
  5
317
330
1F
100
AcDbEntity
  8
TFR-TRI
  6
Continuous
 62
    18
100
AcDbLine
 10
67.47583055496216
 20
14.04038381576538
 30
0.0
 11
67.42169237136841
 21
14.04038381576538
 31
0.0
  0
LINE
  5
318
330
1F
100
AcDbEntity
  8
TFR-TRI
  6
Continuous
 62
    18
100
AcDbLine
 10
67.42169237136841
 20
14.04038381576538
 30
0.0
 11
67.41677141189575
 21
14.03546285629272
 31
0.0
  0
LINE
  5
319
330
1F
100
AcDbEntity
  8
TFR-TRI
  6
Continuous
 62
    18
100
AcDbLine
 10
67.41677141189575
 20
13.90751028060913
 30
0.0
 11
67.42169237136841
 21
13.90258741378784
 31
0.0
  0
LINE
  5
31A
330
1F
100
AcDbEntity
  8
TFR-TRI
  6
Continuous
 62
    18
100
AcDbLine
 10
68.39677476882934
 20
15.51873350143432
 30
0.0
 11
68.32621812820434
 21
15.51873350143432
 31
0.0
  0
LINE
  5
31B
330
1F
100
AcDbEntity
  8
TFR-TRI
  6
Continuous
 62
    18
100
AcDbLine
 10
68.41677141189575
 20
15.49873495101929
 30
0.0
 11
68.39677476882934
 21
15.51873350143432
 31
0.0
  0
LINE
  5
31C
330
1F
100
AcDbEntity
  8
TFR-TRI
  6
Continuous
 62
    18
100
AcDbLine
 10
68.39677476882934
 20
17.97148656845093
 30
0.0
 11
68.41677141189575
 21
17.99148511886597
 31
0.0
  0
LINE
  5
31D
330
1F
100
AcDbEntity
  8
TFR-TRI
  6
Continuous
 62
    18
100
AcDbLine
 10
68.36695146560669
 20
17.97148656845093
 30
0.0
 11
68.39677476882934
 21
17.97148656845093
 31
0.0
  0
LINE
  5
31E
330
1F
100
AcDbEntity
  8
TFR-TRI
  6
Continuous
 62
    18
100
AcDbLine
 10
67.48960924148559
 20
16.03841543197632
 30
0.0
 11
67.70023393630982
 21
16.03841543197632
 31
0.0
  0
LINE
  5
31F
330
1F
100
AcDbEntity
  8
TFR-TRI
  6
Continuous
 62
    18
100
AcDbLine
 10
67.70023393630982
 20
16.23526525497436
 30
0.0
 11
67.48960924148559
 21
16.23526525497436
 31
0.0
  0
LINE
  5
320
330
1F
100
AcDbEntity
  8
TFR-TRI
  6
Continuous
 62
    18
100
AcDbLine
 10
67.48960924148559
 20
16.23526525497436
 30
0.0
 11
67.46008348464965
 21
16.20573759078979
 31
0.0
  0
LINE
  5
321
330
1F
100
AcDbEntity
  8
TFR-TRI
  6
Continuous
 62
    18
100
AcDbLine
 10
67.46008348464965
 20
16.06794309616089
 30
0.0
 11
67.48960924148559
 21
16.03841543197632
 31
0.0
  0
LINE
  5
322
330
1F
100
AcDbEntity
  8
TFR-TRI
  6
Continuous
 62
    18
100
AcDbLine
 10
67.40594530105591
 20
16.20573759078979
 30
0.0
 11
67.40102434158325
 21
16.20081663131714
 31
0.0
  0
LINE
  5
323
330
1F
100
AcDbEntity
  8
TFR-TRI
  6
Continuous
 62
    18
100
AcDbLine
 10
67.40102434158325
 20
16.07286405563354
 30
0.0
 11
67.40594530105591
 21
16.06794309616089
 31
0.0
  0
LINE
  5
324
330
1F
100
AcDbEntity
  8
TFR-TRI
  6
Continuous
 62
    18
100
AcDbLine
 10
67.40594530105591
 20
16.06794309616089
 30
0.0
 11
67.46008348464965
 21
16.06794309616089
 31
0.0
  0
LINE
  5
325
330
1F
100
AcDbEntity
  8
TFR-TRI
  6
Continuous
 62
    18
100
AcDbLine
 10
67.46008348464965
 20
16.20573759078979
 30
0.0
 11
67.40594530105591
 21
16.20573759078979
 31
0.0
  0
LINE
  5
326
330
1F
100
AcDbEntity
  8
TFR-TRI
  6
Continuous
 62
    18
100
AcDbLine
 10
67.70023393630982
 20
17.8100733757019
 30
0.0
 11
67.48960924148559
 21
17.8100733757019
 31
0.0
  0
LINE
  5
327
330
1F
100
AcDbEntity
  8
TFR-TRI
  6
Continuous
 62
    18
100
AcDbLine
 10
67.48960924148559
 20
17.8100733757019
 30
0.0
 11
67.46008348464965
 21
17.78054571151733
 31
0.0
  0
LINE
  5
328
330
1F
100
AcDbEntity
  8
TFR-TRI
  6
Continuous
 62
    18
100
AcDbLine
 10
67.40594530105591
 20
17.78054571151733
 30
0.0
 11
67.40102434158325
 21
17.77562284469604
 31
0.0
  0
LINE
  5
329
330
1F
100
AcDbEntity
  8
TFR-TRI
  6
Continuous
 62
    18
100
AcDbLine
 10
67.46008348464965
 20
17.78054571151733
 30
0.0
 11
67.40594530105591
 21
17.78054571151733
 31
0.0
  0
LINE
  5
32A
330
1F
100
AcDbEntity
  8
TFR-TRI
  6
Continuous
 62
    18
100
AcDbLine
 10
67.70024156570435
 20
7.934084415435791
 30
0.0
 11
67.76322984695434
 21
7.934084415435791
 31
0.0
  0
LINE
  5
32B
330
1F
100
AcDbEntity
  8
TFR-TRI
  6
Continuous
 62
    18
100
AcDbLine
 10
67.76322984695434
 20
8.197864055633544
 30
0.0
 11
67.70024156570435
 21
8.197864055633544
 31
0.0
  0
LINE
  5
32C
330
1F
100
AcDbEntity
  8
TFR-TRI
  6
Continuous
 62
    18
100
AcDbLine
 10
67.70024156570435
 20
16.00495100021362
 30
0.0
 11
67.76322984695434
 21
16.00495100021362
 31
0.0
  0
LINE
  5
32D
330
1F
100
AcDbEntity
  8
TFR-TRI
  6
Continuous
 62
    18
100
AcDbLine
 10
67.76322984695434
 20
16.26872968673706
 30
0.0
 11
67.70024156570435
 21
16.26872968673706
 31
0.0
  0
LINE
  5
32E
330
1F
100
AcDbEntity
  8
TFR-TRI
  6
Continuous
 62
    18
100
AcDbLine
 10
67.70024156570435
 20
13.83959531784057
 30
0.0
 11
67.76322984695434
 21
13.83959531784057
 31
0.0
  0
LINE
  5
32F
330
1F
100
AcDbEntity
  8
TFR-TRI
  6
Continuous
 62
    18
100
AcDbLine
 10
67.76322984695434
 20
14.10337591171265
 30
0.0
 11
67.70024156570435
 21
14.10337591171265
 31
0.0
  0
LINE
  5
330
330
1F
100
AcDbEntity
  8
TFR-TRI
  6
Continuous
 62
    18
100
AcDbLine
 10
67.70024156570435
 20
5.76872968673706
 30
0.0
 11
67.76322984695434
 21
5.76872968673706
 31
0.0
  0
LINE
  5
331
330
1F
100
AcDbEntity
  8
TFR-TRI
  6
Continuous
 62
    18
100
AcDbLine
 10
67.76322984695434
 20
6.032509326934814
 30
0.0
 11
67.70024156570435
 21
6.032509326934814
 31
0.0
  0
LINE
  5
332
330
1F
100
AcDbEntity
  8
TFR-TRI
  6
Continuous
 62
    18
100
AcDbLine
 10
67.70024156570435
 20
4.193926811218261
 30
0.0
 11
67.76322984695434
 21
4.193926811218261
 31
0.0
  0
LINE
  5
333
330
1F
100
AcDbEntity
  8
TFR-TRI
  6
Continuous
 62
    18
100
AcDbLine
 10
67.76322984695434
 20
4.457706451416015
 30
0.0
 11
67.70024156570435
 21
4.457706451416015
 31
0.0
  0
LINE
  5
334
330
1F
100
AcDbEntity
  8
TFR-TRI
  6
Continuous
 62
    18
100
AcDbLine
 10
67.70024156570435
 20
10.88684034347534
 30
0.0
 11
67.76322984695434
 21
10.88684034347534
 31
0.0
  0
LINE
  5
335
330
1F
100
AcDbEntity
  8
TFR-TRI
  6
Continuous
 62
    18
100
AcDbLine
 10
67.76322984695434
 20
11.15061998367309
 30
0.0
 11
67.70024156570435
 21
11.15061998367309
 31
0.0
  0
LINE
  5
336
330
1F
100
AcDbEntity
  8
TFR-TRI
  6
Continuous
 62
    18
100
AcDbLine
 10
67.70024156570435
 20
17.57975339889526
 30
0.0
 11
67.76322984695434
 21
17.57975339889526
 31
0.0
  0
LINE
  5
337
330
1F
100
AcDbEntity
  8
TFR-TRI
  6
Continuous
 62
    18
100
AcDbLine
 10
67.76322984695434
 20
17.84353399276733
 30
0.0
 11
67.70024156570435
 21
17.84353399276733
 31
0.0
  0
LINE
  5
338
330
1F
100
AcDbEntity
  8
TFR-TRI
  6
Continuous
 62
    18
100
AcDbLine
 10
67.70024156570435
 20
7.067943096160888
 30
0.0
 11
67.76322984695434
 21
7.067943096160888
 31
0.0
  0
LINE
  5
339
330
1F
100
AcDbEntity
  8
TFR-TRI
  6
Continuous
 62
    18
100
AcDbLine
 10
67.76322984695434
 20
7.331721782684326
 30
0.0
 11
67.70024156570435
 21
7.331721782684326
 31
0.0
  0
LINE
  5
33A
330
1F
100
AcDbEntity
  8
TFR-TRI
  6
Continuous
 62
    18
100
AcDbLine
 10
67.70024156570435
 20
13.24904584884643
 30
0.0
 11
67.76322984695434
 21
13.24904584884643
 31
0.0
  0
LINE
  5
33B
330
1F
100
AcDbEntity
  8
TFR-TRI
  6
Continuous
 62
    18
100
AcDbLine
 10
67.76322984695434
 20
13.51282453536987
 30
0.0
 11
67.70024156570435
 21
13.51282453536987
 31
0.0
  0
LINE
  5
33C
330
1F
100
AcDbEntity
  8
TFR-TRI
  6
Continuous
 62
    18
100
AcDbLine
 10
67.70024156570435
 20
14.70573759078979
 30
0.0
 11
67.76322984695434
 21
14.70573759078979
 31
0.0
  0
LINE
  5
33D
330
1F
100
AcDbEntity
  8
TFR-TRI
  6
Continuous
 62
    18
100
AcDbLine
 10
67.76322984695434
 20
14.96951818466186
 30
0.0
 11
67.70024156570435
 21
14.96951818466186
 31
0.0
  0
LINE
  5
33E
330
1F
100
AcDbEntity
  8
TFR-TRI
  6
Continuous
 62
    18
100
AcDbLine
 10
67.70024156570435
 20
8.524635791778564
 30
0.0
 11
67.76322984695434
 21
8.524635791778564
 31
0.0
  0
LINE
  5
33F
330
1F
100
AcDbEntity
  8
TFR-TRI
  6
Continuous
 62
    18
100
AcDbLine
 10
67.76322984695434
 20
8.788415431976318
 30
0.0
 11
67.70024156570435
 21
8.788415431976318
 31
0.0
  0
LINE
  5
340
330
1F
100
AcDbEntity
  8
TFR-TRI
  6
Continuous
 62
    18
100
AcDbLine
 10
67.70024156570435
 20
10.09943914413452
 30
0.0
 11
67.76322984695434
 21
10.09943914413452
 31
0.0
  0
LINE
  5
341
330
1F
100
AcDbEntity
  8
TFR-TRI
  6
Continuous
 62
    18
100
AcDbLine
 10
67.76322984695434
 20
10.36321783065796
 30
0.0
 11
67.70024156570435
 21
10.36321783065796
 31
0.0
  0
LINE
  5
342
330
1F
100
AcDbEntity
  8
TFR-TRI
  6
Continuous
 62
    18
100
AcDbLine
 10
67.70024156570435
 20
11.67424154281616
 30
0.0
 11
67.76322984695434
 21
11.67424154281616
 31
0.0
  0
LINE
  5
343
330
1F
100
AcDbEntity
  8
TFR-TRI
  6
Continuous
 62
    18
100
AcDbLine
 10
67.76322984695434
 20
11.93802118301391
 30
0.0
 11
67.70024156570435
 21
11.93802118301391
 31
0.0
  0
LINE
  5
344
330
1F
100
AcDbEntity
  8
TFR-TRI
  6
Continuous
 62
    18
100
AcDbLine
 10
68.323082447052
 20
15.46118688583374
 30
0.0
 11
68.32621812820434
 21
15.4990553855896
 31
0.0
  0
LINE
  5
345
330
1F
100
AcDbEntity
  8
TFR-TRI
  6
Continuous
 62
    18
100
AcDbLine
 10
68.32621812820434
 20
15.4990553855896
 30
0.0
 11
68.32621812820434
 21
15.47703695297241
 31
0.0
  0
LINE
  5
346
330
1F
100
AcDbEntity
  8
TFR-TRI
  6
Continuous
 62
    18
100
AcDbLine
 10
68.32621812820434
 20
15.47703695297241
 30
0.0
 11
68.32621812820434
 21
15.45365858078003
 31
0.0
  0
LINE
  5
347
330
1F
100
AcDbEntity
  8
TFR-TRI
  6
Continuous
 62
    18
100
AcDbLine
 10
68.32621812820434
 20
15.56017065048218
 30
0.0
 11
68.32621812820434
 21
15.53419828414917
 31
0.0
  0
LINE
  5
348
330
1F
100
AcDbEntity
  8
TFR-TRI
  6
Continuous
 62
    18
100
AcDbLine
 10
68.32621812820434
 20
15.53419828414917
 30
0.0
 11
68.32621812820434
 21
15.4990553855896
 31
0.0
  0
LINE
  5
349
330
1F
100
AcDbEntity
  8
TFR-TRI
  6
Continuous
 62
    18
100
AcDbLine
 10
67.50535631179809
 20
14.06991147994995
 30
0.0
 11
67.50535631179809
 21
14.06016492843628
 31
0.0
  0
LINE
  5
34A
330
1F
100
AcDbEntity
  8
TFR-TRI
  6
Continuous
 62
    18
100
AcDbLine
 10
67.50535631179809
 20
14.06016492843628
 30
0.0
 11
67.50535631179809
 21
14.03285360336304
 31
0.0
  0
LINE
  5
34B
330
1F
100
AcDbEntity
  8
TFR-TRI
  6
Continuous
 62
    18
100
AcDbLine
 10
67.50535631179809
 20
14.03285360336304
 30
0.0
 11
67.50535631179809
 21
13.99338674545288
 31
0.0
  0
LINE
  5
34C
330
1F
100
AcDbEntity
  8
TFR-TRI
  6
Continuous
 62
    18
100
AcDbLine
 10
67.50535631179809
 20
13.99338674545288
 30
0.0
 11
67.50535631179809
 21
13.94958448410034
 31
0.0
  0
LINE
  5
34D
330
1F
100
AcDbEntity
  8
TFR-TRI
  6
Continuous
 62
    18
100
AcDbLine
 10
67.50535631179809
 20
13.94958448410034
 30
0.0
 11
67.50535631179809
 21
13.91011953353882
 31
0.0
  0
LINE
  5
34E
330
1F
100
AcDbEntity
  8
TFR-TRI
  6
Continuous
 62
    18
100
AcDbLine
 10
67.50535631179809
 20
13.91011953353882
 30
0.0
 11
67.50535631179809
 21
13.88280820846558
 31
0.0
  0
LINE
  5
34F
330
1F
100
AcDbEntity
  8
TFR-TRI
  6
Continuous
 62
    18
100
AcDbLine
 10
67.50535631179809
 20
13.88280820846558
 30
0.0
 11
67.50535631179809
 21
13.8730616569519
 31
0.0
  0
LINE
  5
350
330
1F
100
AcDbEntity
  8
TFR-TRI
  6
Continuous
 62
    18
100
AcDbLine
 10
67.41677141189575
 20
13.90751028060913
 30
0.0
 11
67.41677141189575
 21
13.91607999801635
 31
0.0
  0
LINE
  5
351
330
1F
100
AcDbEntity
  8
TFR-TRI
  6
Continuous
 62
    18
100
AcDbLine
 10
67.41677141189575
 20
13.91607999801635
 30
0.0
 11
67.41677141189575
 21
13.93949842453003
 31
0.0
  0
LINE
  5
352
330
1F
100
AcDbEntity
  8
TFR-TRI
  6
Continuous
 62
    18
100
AcDbLine
 10
67.41677141189575
 20
13.93949842453003
 30
0.0
 11
67.41677141189575
 21
13.97148656845093
 31
0.0
  0
LINE
  5
353
330
1F
100
AcDbEntity
  8
TFR-TRI
  6
Continuous
 62
    18
100
AcDbLine
 10
67.41677141189575
 20
13.97148656845093
 30
0.0
 11
67.41677141189575
 21
14.00347471237182
 31
0.0
  0
LINE
  5
354
330
1F
100
AcDbEntity
  8
TFR-TRI
  6
Continuous
 62
    18
100
AcDbLine
 10
67.41677141189575
 20
14.00347471237182
 30
0.0
 11
67.41677141189575
 21
14.02689123153686
 31
0.0
  0
LINE
  5
355
330
1F
100
AcDbEntity
  8
TFR-TRI
  6
Continuous
 62
    18
100
AcDbLine
 10
67.41677141189575
 20
14.02689123153686
 30
0.0
 11
67.41677141189575
 21
14.03546285629272
 31
0.0
  0
LINE
  5
356
330
1F
100
AcDbEntity
  8
TFR-TRI
  6
Continuous
 62
    18
100
AcDbLine
 10
67.42169237136841
 20
14.04038381576538
 30
0.0
 11
67.42169237136841
 21
14.03115224838257
 31
0.0
  0
LINE
  5
357
330
1F
100
AcDbEntity
  8
TFR-TRI
  6
Continuous
 62
    18
100
AcDbLine
 10
67.42169237136841
 20
14.03115224838257
 30
0.0
 11
67.42169237136841
 21
14.00593519210815
 31
0.0
  0
LINE
  5
358
330
1F
100
AcDbEntity
  8
TFR-TRI
  6
Continuous
 62
    18
100
AcDbLine
 10
67.42169237136841
 20
14.00593519210815
 30
0.0
 11
67.42169237136841
 21
13.97148656845093
 31
0.0
  0
LINE
  5
359
330
1F
100
AcDbEntity
  8
TFR-TRI
  6
Continuous
 62
    18
100
AcDbLine
 10
67.42169237136841
 20
13.97148656845093
 30
0.0
 11
67.42169237136841
 21
13.9370379447937
 31
0.0
  0
LINE
  5
35A
330
1F
100
AcDbEntity
  8
TFR-TRI
  6
Continuous
 62
    18
100
AcDbLine
 10
67.42169237136841
 20
13.9370379447937
 30
0.0
 11
67.42169237136841
 21
13.91181898117065
 31
0.0
  0
LINE
  5
35B
330
1F
100
AcDbEntity
  8
TFR-TRI
  6
Continuous
 62
    18
100
AcDbLine
 10
67.42169237136841
 20
13.91181898117065
 30
0.0
 11
67.42169237136841
 21
13.90258741378784
 31
0.0
  0
LINE
  5
35C
330
1F
100
AcDbEntity
  8
TFR-TRI
  6
Continuous
 62
    18
100
AcDbLine
 10
67.47583055496216
 20
13.90258741378784
 30
0.0
 11
67.47583055496216
 21
13.91181898117065
 31
0.0
  0
LINE
  5
35D
330
1F
100
AcDbEntity
  8
TFR-TRI
  6
Continuous
 62
    18
100
AcDbLine
 10
67.47583055496216
 20
13.91181898117065
 30
0.0
 11
67.47583055496216
 21
13.9370379447937
 31
0.0
  0
LINE
  5
35E
330
1F
100
AcDbEntity
  8
TFR-TRI
  6
Continuous
 62
    18
100
AcDbLine
 10
67.47583055496216
 20
13.9370379447937
 30
0.0
 11
67.47583055496216
 21
13.97148656845093
 31
0.0
  0
LINE
  5
35F
330
1F
100
AcDbEntity
  8
TFR-TRI
  6
Continuous
 62
    18
100
AcDbLine
 10
67.47583055496216
 20
13.97148656845093
 30
0.0
 11
67.47583055496216
 21
14.00593519210815
 31
0.0
  0
LINE
  5
360
330
1F
100
AcDbEntity
  8
TFR-TRI
  6
Continuous
 62
    18
100
AcDbLine
 10
67.47583055496216
 20
14.00593519210815
 30
0.0
 11
67.47583055496216
 21
14.03115224838257
 31
0.0
  0
LINE
  5
361
330
1F
100
AcDbEntity
  8
TFR-TRI
  6
Continuous
 62
    18
100
AcDbLine
 10
67.47583055496216
 20
14.03115224838257
 30
0.0
 11
67.47583055496216
 21
14.04038381576538
 31
0.0
  0
LINE
  5
362
330
1F
100
AcDbEntity
  8
TFR-TRI
  6
Continuous
 62
    18
100
AcDbLine
 10
67.48960924148559
 20
17.81006956100464
 30
0.0
 11
67.48960924148559
 21
17.80032110214233
 31
0.0
  0
LINE
  5
363
330
1F
100
AcDbEntity
  8
TFR-TRI
  6
Continuous
 62
    18
100
AcDbLine
 10
67.48960924148559
 20
17.80032110214233
 30
0.0
 11
67.48960924148559
 21
17.77300977706909
 31
0.0
  0
LINE
  5
364
330
1F
100
AcDbEntity
  8
TFR-TRI
  6
Continuous
 62
    18
100
AcDbLine
 10
67.48960924148559
 20
17.77300977706909
 30
0.0
 11
67.48960924148559
 21
17.73354482650757
 31
0.0
  0
LINE
  5
365
330
1F
100
AcDbEntity
  8
TFR-TRI
  6
Continuous
 62
    18
100
AcDbLine
 10
67.48960924148559
 20
17.73354482650757
 30
0.0
 11
67.48960924148559
 21
17.68974256515503
 31
0.0
  0
LINE
  5
366
330
1F
100
AcDbEntity
  8
TFR-TRI
  6
Continuous
 62
    18
100
AcDbLine
 10
67.48960924148559
 20
17.68974256515503
 30
0.0
 11
67.48960924148559
 21
17.65027570724487
 31
0.0
  0
LINE
  5
367
330
1F
100
AcDbEntity
  8
TFR-TRI
  6
Continuous
 62
    18
100
AcDbLine
 10
67.48960924148559
 20
17.65027570724487
 30
0.0
 11
67.48960924148559
 21
17.62296628952026
 31
0.0
  0
LINE
  5
368
330
1F
100
AcDbEntity
  8
TFR-TRI
  6
Continuous
 62
    18
100
AcDbLine
 10
67.48960924148559
 20
17.62296628952026
 30
0.0
 11
67.48960924148559
 21
17.61321783065796
 31
0.0
  0
LINE
  5
369
330
1F
100
AcDbEntity
  8
TFR-TRI
  6
Continuous
 62
    18
100
AcDbLine
 10
67.40102434158325
 20
17.64766645431518
 30
0.0
 11
67.40102434158325
 21
17.65623807907104
 31
0.0
  0
LINE
  5
36A
330
1F
100
AcDbEntity
  8
TFR-TRI
  6
Continuous
 62
    18
100
AcDbLine
 10
67.40102434158325
 20
17.65623807907104
 30
0.0
 11
67.40102434158325
 21
17.67965459823608
 31
0.0
  0
LINE
  5
36B
330
1F
100
AcDbEntity
  8
TFR-TRI
  6
Continuous
 62
    18
100
AcDbLine
 10
67.40102434158325
 20
17.67965459823608
 30
0.0
 11
67.40102434158325
 21
17.71164274215698
 31
0.0
  0
LINE
  5
36C
330
1F
100
AcDbEntity
  8
TFR-TRI
  6
Continuous
 62
    18
100
AcDbLine
 10
67.40102434158325
 20
17.71164274215698
 30
0.0
 11
67.40102434158325
 21
17.74363088607788
 31
0.0
  0
LINE
  5
36D
330
1F
100
AcDbEntity
  8
TFR-TRI
  6
Continuous
 62
    18
100
AcDbLine
 10
67.40102434158325
 20
17.74363088607788
 30
0.0
 11
67.40102434158325
 21
17.76704931259155
 31
0.0
  0
LINE
  5
36E
330
1F
100
AcDbEntity
  8
TFR-TRI
  6
Continuous
 62
    18
100
AcDbLine
 10
67.40102434158325
 20
17.76704931259155
 30
0.0
 11
67.40102434158325
 21
17.77561902999878
 31
0.0
  0
LINE
  5
36F
330
1F
100
AcDbEntity
  8
TFR-TRI
  6
Continuous
 62
    18
100
AcDbLine
 10
67.40594530105591
 20
17.78054189682007
 30
0.0
 11
67.40594530105591
 21
17.77131032943725
 31
0.0
  0
LINE
  5
370
330
1F
100
AcDbEntity
  8
TFR-TRI
  6
Continuous
 62
    18
100
AcDbLine
 10
67.40594530105591
 20
17.77131032943725
 30
0.0
 11
67.40594530105591
 21
17.74609136581421
 31
0.0
  0
LINE
  5
371
330
1F
100
AcDbEntity
  8
TFR-TRI
  6
Continuous
 62
    18
100
AcDbLine
 10
67.40594530105591
 20
17.74609136581421
 30
0.0
 11
67.40594530105591
 21
17.71164274215698
 31
0.0
  0
LINE
  5
372
330
1F
100
AcDbEntity
  8
TFR-TRI
  6
Continuous
 62
    18
100
AcDbLine
 10
67.40594530105591
 20
17.71164274215698
 30
0.0
 11
67.40594530105591
 21
17.67719411849975
 31
0.0
  0
LINE
  5
373
330
1F
100
AcDbEntity
  8
TFR-TRI
  6
Continuous
 62
    18
100
AcDbLine
 10
67.40594530105591
 20
17.67719411849975
 30
0.0
 11
67.40594530105591
 21
17.65197706222534
 31
0.0
  0
LINE
  5
374
330
1F
100
AcDbEntity
  8
TFR-TRI
  6
Continuous
 62
    18
100
AcDbLine
 10
67.40594530105591
 20
17.65197706222534
 30
0.0
 11
67.40594530105591
 21
17.64274549484253
 31
0.0
  0
LINE
  5
375
330
1F
100
AcDbEntity
  8
TFR-TRI
  6
Continuous
 62
    18
100
AcDbLine
 10
67.46008348464965
 20
17.64274549484253
 30
0.0
 11
67.46008348464965
 21
17.65197706222534
 31
0.0
  0
LINE
  5
376
330
1F
100
AcDbEntity
  8
TFR-TRI
  6
Continuous
 62
    18
100
AcDbLine
 10
67.46008348464965
 20
17.65197706222534
 30
0.0
 11
67.46008348464965
 21
17.67719411849975
 31
0.0
  0
LINE
  5
377
330
1F
100
AcDbEntity
  8
TFR-TRI
  6
Continuous
 62
    18
100
AcDbLine
 10
67.46008348464965
 20
17.67719411849975
 30
0.0
 11
67.46008348464965
 21
17.71164274215698
 31
0.0
  0
LINE
  5
378
330
1F
100
AcDbEntity
  8
TFR-TRI
  6
Continuous
 62
    18
100
AcDbLine
 10
67.46008348464965
 20
17.71164274215698
 30
0.0
 11
67.46008348464965
 21
17.74609136581421
 31
0.0
  0
LINE
  5
379
330
1F
100
AcDbEntity
  8
TFR-TRI
  6
Continuous
 62
    18
100
AcDbLine
 10
67.46008348464965
 20
17.74609136581421
 30
0.0
 11
67.46008348464965
 21
17.77131032943725
 31
0.0
  0
LINE
  5
37A
330
1F
100
AcDbEntity
  8
TFR-TRI
  6
Continuous
 62
    18
100
AcDbLine
 10
67.46008348464965
 20
17.77131032943725
 30
0.0
 11
67.46008348464965
 21
17.78054189682007
 31
0.0
  0
LINE
  5
37B
330
1F
100
AcDbEntity
  8
TFR-TRI
  6
Continuous
 62
    18
100
AcDbLine
 10
67.48960924148559
 20
16.23526525497436
 30
0.0
 11
67.48960924148559
 21
16.22551870346069
 31
0.0
  0
LINE
  5
37C
330
1F
100
AcDbEntity
  8
TFR-TRI
  6
Continuous
 62
    18
100
AcDbLine
 10
67.48960924148559
 20
16.22551870346069
 30
0.0
 11
67.48960924148559
 21
16.19820737838745
 31
0.0
  0
LINE
  5
37D
330
1F
100
AcDbEntity
  8
TFR-TRI
  6
Continuous
 62
    18
100
AcDbLine
 10
67.48960924148559
 20
16.19820737838745
 30
0.0
 11
67.48960924148559
 21
16.15874242782593
 31
0.0
  0
LINE
  5
37E
330
1F
100
AcDbEntity
  8
TFR-TRI
  6
Continuous
 62
    18
100
AcDbLine
 10
67.48960924148559
 20
16.15874242782593
 30
0.0
 11
67.48960924148559
 21
16.11493825912475
 31
0.0
  0
LINE
  5
37F
330
1F
100
AcDbEntity
  8
TFR-TRI
  6
Continuous
 62
    18
100
AcDbLine
 10
67.48960924148559
 20
16.11493825912475
 30
0.0
 11
67.48960924148559
 21
16.07547330856323
 31
0.0
  0
LINE
  5
380
330
1F
100
AcDbEntity
  8
TFR-TRI
  6
Continuous
 62
    18
100
AcDbLine
 10
67.48960924148559
 20
16.07547330856323
 30
0.0
 11
67.48960924148559
 21
16.04816198348999
 31
0.0
  0
LINE
  5
381
330
1F
100
AcDbEntity
  8
TFR-TRI
  6
Continuous
 62
    18
100
AcDbLine
 10
67.48960924148559
 20
16.04816198348999
 30
0.0
 11
67.48960924148559
 21
16.03841543197632
 31
0.0
  0
LINE
  5
382
330
1F
100
AcDbEntity
  8
TFR-TRI
  6
Continuous
 62
    18
100
AcDbLine
 10
67.40102434158325
 20
16.07286405563354
 30
0.0
 11
67.40102434158325
 21
16.0814356803894
 31
0.0
  0
LINE
  5
383
330
1F
100
AcDbEntity
  8
TFR-TRI
  6
Continuous
 62
    18
100
AcDbLine
 10
67.40102434158325
 20
16.0814356803894
 30
0.0
 11
67.40102434158325
 21
16.10485219955444
 31
0.0
  0
LINE
  5
384
330
1F
100
AcDbEntity
  8
TFR-TRI
  6
Continuous
 62
    18
100
AcDbLine
 10
67.40102434158325
 20
16.10485219955444
 30
0.0
 11
67.40102434158325
 21
16.13684034347534
 31
0.0
  0
LINE
  5
385
330
1F
100
AcDbEntity
  8
TFR-TRI
  6
Continuous
 62
    18
100
AcDbLine
 10
67.40102434158325
 20
16.13684034347534
 30
0.0
 11
67.40102434158325
 21
16.16882848739624
 31
0.0
  0
LINE
  5
386
330
1F
100
AcDbEntity
  8
TFR-TRI
  6
Continuous
 62
    18
100
AcDbLine
 10
67.40102434158325
 20
16.16882848739624
 30
0.0
 11
67.40102434158325
 21
16.19224500656128
 31
0.0
  0
LINE
  5
387
330
1F
100
AcDbEntity
  8
TFR-TRI
  6
Continuous
 62
    18
100
AcDbLine
 10
67.40102434158325
 20
16.19224500656128
 30
0.0
 11
67.40102434158325
 21
16.20081663131714
 31
0.0
  0
LINE
  5
388
330
1F
100
AcDbEntity
  8
TFR-TRI
  6
Continuous
 62
    18
100
AcDbLine
 10
67.40594530105591
 20
16.20573759078979
 30
0.0
 11
67.40594530105591
 21
16.19650793075561
 31
0.0
  0
LINE
  5
389
330
1F
100
AcDbEntity
  8
TFR-TRI
  6
Continuous
 62
    18
100
AcDbLine
 10
67.40594530105591
 20
16.19650793075561
 30
0.0
 11
67.40594530105591
 21
16.17128896713257
 31
0.0
  0
LINE
  5
38A
330
1F
100
AcDbEntity
  8
TFR-TRI
  6
Continuous
 62
    18
100
AcDbLine
 10
67.40594530105591
 20
16.17128896713257
 30
0.0
 11
67.40594530105591
 21
16.13684034347534
 31
0.0
  0
LINE
  5
38B
330
1F
100
AcDbEntity
  8
TFR-TRI
  6
Continuous
 62
    18
100
AcDbLine
 10
67.40594530105591
 20
16.13684034347534
 30
0.0
 11
67.40594530105591
 21
16.10239171981811
 31
0.0
  0
LINE
  5
38C
330
1F
100
AcDbEntity
  8
TFR-TRI
  6
Continuous
 62
    18
100
AcDbLine
 10
67.40594530105591
 20
16.10239171981811
 30
0.0
 11
67.40594530105591
 21
16.07717275619507
 31
0.0
  0
LINE
  5
38D
330
1F
100
AcDbEntity
  8
TFR-TRI
  6
Continuous
 62
    18
100
AcDbLine
 10
67.40594530105591
 20
16.07717275619507
 30
0.0
 11
67.40594530105591
 21
16.06794309616089
 31
0.0
  0
LINE
  5
38E
330
1F
100
AcDbEntity
  8
TFR-TRI
  6
Continuous
 62
    18
100
AcDbLine
 10
67.46008348464965
 20
16.06794309616089
 30
0.0
 11
67.46008348464965
 21
16.07717275619507
 31
0.0
  0
LINE
  5
38F
330
1F
100
AcDbEntity
  8
TFR-TRI
  6
Continuous
 62
    18
100
AcDbLine
 10
67.46008348464965
 20
16.07717275619507
 30
0.0
 11
67.46008348464965
 21
16.10239171981811
 31
0.0
  0
LINE
  5
390
330
1F
100
AcDbEntity
  8
TFR-TRI
  6
Continuous
 62
    18
100
AcDbLine
 10
67.46008348464965
 20
16.10239171981811
 30
0.0
 11
67.46008348464965
 21
16.13684034347534
 31
0.0
  0
LINE
  5
391
330
1F
100
AcDbEntity
  8
TFR-TRI
  6
Continuous
 62
    18
100
AcDbLine
 10
67.46008348464965
 20
16.13684034347534
 30
0.0
 11
67.46008348464965
 21
16.17128896713257
 31
0.0
  0
LINE
  5
392
330
1F
100
AcDbEntity
  8
TFR-TRI
  6
Continuous
 62
    18
100
AcDbLine
 10
67.46008348464965
 20
16.17128896713257
 30
0.0
 11
67.46008348464965
 21
16.19650793075561
 31
0.0
  0
LINE
  5
393
330
1F
100
AcDbEntity
  8
TFR-TRI
  6
Continuous
 62
    18
100
AcDbLine
 10
67.46008348464965
 20
16.19650793075561
 30
0.0
 11
67.46008348464965
 21
16.20573759078979
 31
0.0
  0
LINE
  5
394
330
1F
100
AcDbEntity
  8
TFR-TRI
  6
Continuous
 62
    18
100
AcDbLine
 10
67.88921403884888
 20
3.341572761535644
 30
0.0
 11
67.88921403884888
 21
3.073848247528076
 31
0.0
  0
LINE
  5
395
330
1F
100
AcDbEntity
  8
TFR-TRI
  6
Continuous
 62
    18
100
AcDbLine
 10
67.88921403884888
 20
3.073848247528076
 30
0.0
 11
67.88921403884888
 21
3.024129390716552
 31
0.0
  0
LINE
  5
396
330
1F
100
AcDbEntity
  8
TFR-TRI
  6
Continuous
 62
    18
100
AcDbLine
 10
67.88921403884888
 20
3.024129390716552
 30
0.0
 11
67.88921403884888
 21
2.981979846954345
 31
0.0
  0
LINE
  5
397
330
1F
100
AcDbEntity
  8
TFR-TRI
  6
Continuous
 62
    18
100
AcDbLine
 10
67.88921403884888
 20
2.981979846954345
 30
0.0
 11
67.88921403884888
 21
2.953816413879394
 31
0.0
  0
LINE
  5
398
330
1F
100
AcDbEntity
  8
TFR-TRI
  6
Continuous
 62
    18
100
AcDbLine
 10
67.88921403884888
 20
2.953816413879394
 30
0.0
 11
67.88921403884888
 21
2.943926811218261
 31
0.0
  0
LINE
  5
399
330
1F
100
AcDbEntity
  8
TFR-TRI
  6
Continuous
 62
    18
100
AcDbLine
 10
67.82622575759887
 20
2.943926811218261
 30
0.0
 11
67.82622575759887
 21
2.953816413879394
 31
0.0
  0
LINE
  5
39A
330
1F
100
AcDbEntity
  8
TFR-TRI
  6
Continuous
 62
    18
100
AcDbLine
 10
67.82622575759887
 20
2.953816413879394
 30
0.0
 11
67.82622575759887
 21
2.981979846954345
 31
0.0
  0
LINE
  5
39B
330
1F
100
AcDbEntity
  8
TFR-TRI
  6
Continuous
 62
    18
100
AcDbLine
 10
67.82622575759887
 20
2.981979846954345
 30
0.0
 11
67.82622575759887
 21
3.024129390716552
 31
0.0
  0
LINE
  5
39C
330
1F
100
AcDbEntity
  8
TFR-TRI
  6
Continuous
 62
    18
100
AcDbLine
 10
67.82622575759887
 20
3.024129390716552
 30
0.0
 11
67.82622575759887
 21
3.073848247528076
 31
0.0
  0
LINE
  5
39D
330
1F
100
AcDbEntity
  8
TFR-TRI
  6
Continuous
 62
    18
100
AcDbLine
 10
67.82622575759887
 20
3.341572761535644
 30
0.0
 11
67.82622575759887
 21
3.073848247528076
 31
0.0
  0
LINE
  5
39E
330
1F
100
AcDbEntity
  8
TFR-TRI
  6
Continuous
 62
    18
100
AcDbLine
 10
69.06243944168091
 20
7.34550142288208
 30
0.0
 11
68.56638383865356
 21
7.34550142288208
 31
0.0
  0
LINE
  5
39F
330
1F
100
AcDbEntity
  8
TFR-TRI
  6
Continuous
 62
    18
100
AcDbLine
 10
68.56638383865356
 20
7.093533039093017
 30
0.0
 11
69.06243944168091
 21
7.093533039093017
 31
0.0
  0
LINE
  5
3A0
330
1F
100
AcDbEntity
  8
TFR-TRI
  6
Continuous
 62
    18
100
AcDbLine
 10
68.56638383865356
 20
14.18802213668823
 30
0.0
 11
69.06243944168091
 21
14.18802213668823
 31
0.0
  0
LINE
  5
3A1
330
1F
100
AcDbEntity
  8
TFR-TRI
  6
Continuous
 62
    18
100
AcDbLine
 10
69.06243944168091
 20
13.93605375289917
 30
0.0
 11
68.56638383865356
 21
13.93605375289917
 31
0.0
  0
LINE
  5
3A2
330
1F
100
AcDbEntity
  8
TFR-TRI
  6
Continuous
 62
    18
100
AcDbLine
 10
69.3774037361145
 20
7.014792919158935
 30
0.0
 11
69.3774037361145
 21
14.266761302948
 31
0.0
  0
LINE
  5
3A3
330
1F
100
AcDbEntity
  8
TFR-TRI
  6
Continuous
 62
    18
100
AcDbLine
 10
69.24748277664185
 20
14.39668226242065
 30
0.0
 11
68.25930833816528
 21
14.39668226242065
 31
0.0
  0
LINE
  5
3A4
330
1F
100
AcDbEntity
  8
TFR-TRI
  6
Continuous
 62
    18
100
AcDbLine
 10
68.25930833816528
 20
6.884871959686279
 30
0.0
 11
69.24748277664185
 21
6.884871959686279
 31
0.0
  0
LINE
  5
3A5
330
1F
100
AcDbEntity
  8
TFR-TRI
  6
Continuous
 62
    18
100
AcDbLine
 10
68.49551439285278
 20
13.10140752792358
 30
0.0
 11
68.99157762527465
 21
13.10140752792358
 31
0.0
  0
LINE
  5
3A6
330
1F
100
AcDbEntity
  8
TFR-TRI
  6
Continuous
 62
    18
100
AcDbLine
 10
68.99157762527465
 20
12.51085615158081
 30
0.0
 11
68.49551439285278
 21
12.51085615158081
 31
0.0
  0
LINE
  5
3A7
330
1F
100
AcDbEntity
  8
TFR-TRI
  6
Continuous
 62
    18
100
AcDbLine
 10
68.49551439285278
 20
8.770699024200439
 30
0.0
 11
68.99157762527465
 21
8.770699024200439
 31
0.0
  0
LINE
  5
3A8
330
1F
100
AcDbEntity
  8
TFR-TRI
  6
Continuous
 62
    18
100
AcDbLine
 10
68.99157762527465
 20
8.180147647857666
 30
0.0
 11
68.49551439285278
 21
8.180147647857666
 31
0.0
  0
LINE
  5
3A9
330
1F
100
AcDbEntity
  8
TFR-TRI
  6
Continuous
 62
    18
100
AcDbLine
 10
67.88921403884888
 20
2.943926811218261
 30
0.0
 11
67.82622575759887
 21
2.943926811218261
 31
0.0
  0
LINE
  5
3AA
330
1F
100
AcDbEntity
  8
TFR-TRI
  6
Continuous
 62
    18
100
AcDbLine
 10
67.22779130935669
 20
7.471485614776611
 30
0.0
 11
67.16480302810669
 21
7.471485614776611
 31
0.0
  0
LINE
  5
3AB
330
1F
100
AcDbEntity
  8
TFR-TRI
  6
Continuous
 62
    18
100
AcDbLine
 10
67.330162525177
 20
7.471485614776611
 30
0.0
 11
67.25929307937622
 21
7.471485614776611
 31
0.0
  0
LINE
  5
3AC
330
1F
100
AcDbEntity
  8
TFR-TRI
  6
Continuous
 62
    18
100
AcDbLine
 10
67.22779130935669
 20
7.471485614776611
 30
0.0
 11
67.2370228767395
 21
7.471485614776611
 31
0.0
  0
LINE
  5
3AD
330
1F
100
AcDbEntity
  8
TFR-TRI
  6
Continuous
 62
    18
100
AcDbLine
 10
67.2370228767395
 20
7.471485614776611
 30
0.0
 11
67.25929307937622
 21
7.471485614776611
 31
0.0
  0
LINE
  5
3AE
330
1F
100
AcDbEntity
  8
TFR-TRI
  6
Continuous
 62
    18
100
AcDbLine
 10
67.16480302810669
 20
13.81006956100464
 30
0.0
 11
67.22779130935669
 21
13.81006956100464
 31
0.0
  0
LINE
  5
3AF
330
1F
100
AcDbEntity
  8
TFR-TRI
  6
Continuous
 62
    18
100
AcDbLine
 10
67.25929307937622
 20
13.81006956100464
 30
0.0
 11
67.2370228767395
 21
13.81006956100464
 31
0.0
  0
LINE
  5
3B0
330
1F
100
AcDbEntity
  8
TFR-TRI
  6
Continuous
 62
    18
100
AcDbLine
 10
67.2370228767395
 20
13.81006956100464
 30
0.0
 11
67.22779130935669
 21
13.81006956100464
 31
0.0
  0
LINE
  5
3B1
330
1F
100
AcDbEntity
  8
TFR-TRI
  6
Continuous
 62
    18
100
AcDbLine
 10
67.25929307937622
 20
13.81006956100464
 30
0.0
 11
67.330162525177
 21
13.81006956100464
 31
0.0
  0
LINE
  5
3B2
330
1F
100
AcDbEntity
  8
TFR-TRI
  6
Continuous
 62
    18
100
AcDbLine
 10
67.16480302810669
 20
7.471485614776611
 30
0.0
 11
67.16480302810669
 21
7.481375217437744
 31
0.0
  0
LINE
  5
3B3
330
1F
100
AcDbEntity
  8
TFR-TRI
  6
Continuous
 62
    18
100
AcDbLine
 10
67.16480302810669
 20
7.481375217437744
 30
0.0
 11
67.16480302810669
 21
7.509539127349853
 31
0.0
  0
LINE
  5
3B4
330
1F
100
AcDbEntity
  8
TFR-TRI
  6
Continuous
 62
    18
100
AcDbLine
 10
67.16480302810669
 20
7.509539127349853
 30
0.0
 11
67.16480302810669
 21
7.55168867111206
 31
0.0
  0
LINE
  5
3B5
330
1F
100
AcDbEntity
  8
TFR-TRI
  6
Continuous
 62
    18
100
AcDbLine
 10
67.16480302810669
 20
7.55168867111206
 30
0.0
 11
67.16480302810669
 21
7.601407527923583
 31
0.0
  0
LINE
  5
3B6
330
1F
100
AcDbEntity
  8
TFR-TRI
  6
Continuous
 62
    18
100
AcDbLine
 10
67.16480302810669
 20
7.601407527923583
 30
0.0
 11
67.16480302810669
 21
13.68014669418335
 31
0.0
  0
LINE
  5
3B7
330
1F
100
AcDbEntity
  8
TFR-TRI
  6
Continuous
 62
    18
100
AcDbLine
 10
67.16480302810669
 20
13.68014669418335
 30
0.0
 11
67.16480302810669
 21
13.72986555099487
 31
0.0
  0
LINE
  5
3B8
330
1F
100
AcDbEntity
  8
TFR-TRI
  6
Continuous
 62
    18
100
AcDbLine
 10
67.16480302810669
 20
13.72986555099487
 30
0.0
 11
67.16480302810669
 21
13.77201604843139
 31
0.0
  0
LINE
  5
3B9
330
1F
100
AcDbEntity
  8
TFR-TRI
  6
Continuous
 62
    18
100
AcDbLine
 10
67.16480302810669
 20
13.77201604843139
 30
0.0
 11
67.16480302810669
 21
13.80017805099487
 31
0.0
  0
LINE
  5
3BA
330
1F
100
AcDbEntity
  8
TFR-TRI
  6
Continuous
 62
    18
100
AcDbLine
 10
67.16480302810669
 20
13.80017805099487
 30
0.0
 11
67.16480302810669
 21
13.81006956100464
 31
0.0
  0
LINE
  5
3BB
330
1F
100
AcDbEntity
  8
TFR-TRI
  6
Continuous
 62
    18
100
AcDbLine
 10
67.22779130935669
 20
7.601407527923583
 30
0.0
 11
67.22779130935669
 21
13.68014669418335
 31
0.0
  0
LINE
  5
3BC
330
1F
100
AcDbEntity
  8
TFR-TRI
  6
Continuous
 62
    18
100
AcDbLine
 10
67.22779130935669
 20
7.601407527923583
 30
0.0
 11
67.22779130935669
 21
7.55168867111206
 31
0.0
  0
LINE
  5
3BD
330
1F
100
AcDbEntity
  8
TFR-TRI
  6
Continuous
 62
    18
100
AcDbLine
 10
67.22779130935669
 20
7.55168867111206
 30
0.0
 11
67.22779130935669
 21
7.509539127349853
 31
0.0
  0
LINE
  5
3BE
330
1F
100
AcDbEntity
  8
TFR-TRI
  6
Continuous
 62
    18
100
AcDbLine
 10
67.22779130935669
 20
7.509539127349853
 30
0.0
 11
67.22779130935669
 21
7.481375217437744
 31
0.0
  0
LINE
  5
3BF
330
1F
100
AcDbEntity
  8
TFR-TRI
  6
Continuous
 62
    18
100
AcDbLine
 10
67.22779130935669
 20
7.481375217437744
 30
0.0
 11
67.22779130935669
 21
7.471485614776611
 31
0.0
  0
LINE
  5
3C0
330
1F
100
AcDbEntity
  8
TFR-TRI
  6
Continuous
 62
    18
100
AcDbLine
 10
67.22779130935669
 20
13.81006956100464
 30
0.0
 11
67.22779130935669
 21
13.80017805099487
 31
0.0
  0
LINE
  5
3C1
330
1F
100
AcDbEntity
  8
TFR-TRI
  6
Continuous
 62
    18
100
AcDbLine
 10
67.22779130935669
 20
13.80017805099487
 30
0.0
 11
67.22779130935669
 21
13.77201604843139
 31
0.0
  0
LINE
  5
3C2
330
1F
100
AcDbEntity
  8
TFR-TRI
  6
Continuous
 62
    18
100
AcDbLine
 10
67.22779130935669
 20
13.77201604843139
 30
0.0
 11
67.22779130935669
 21
13.72986555099487
 31
0.0
  0
LINE
  5
3C3
330
1F
100
AcDbEntity
  8
TFR-TRI
  6
Continuous
 62
    18
100
AcDbLine
 10
67.22779130935669
 20
13.72986555099487
 30
0.0
 11
67.22779130935669
 21
13.68014669418335
 31
0.0
  0
LINE
  5
3C4
330
1F
100
AcDbEntity
  8
TFR-TRI
  6
Continuous
 62
    18
100
AcDbLine
 10
69.06243944168091
 20
13.93605756759643
 30
0.0
 11
68.56638383865356
 21
13.93605756759643
 31
0.0
  0
LINE
  5
3C5
330
1F
100
AcDbEntity
  8
TFR-TRI
  6
Continuous
 62
    18
100
AcDbLine
 10
68.25930833816528
 20
14.39668607711792
 30
0.0
 11
69.24748277664185
 21
14.39668607711792
 31
0.0
  0
LINE
  5
3C6
330
1F
100
AcDbEntity
  8
TFR-TRI
  6
Continuous
 62
    18
100
AcDbLine
 10
68.49551439285278
 20
12.51085996627807
 30
0.0
 11
68.99157762527465
 21
12.51085996627807
 31
0.0
  0
LINE
  5
3C7
330
1F
100
AcDbEntity
  8
TFR-TRI
  6
Continuous
 62
    18
100
AcDbLine
 10
67.16480302810669
 20
13.8100733757019
 30
0.0
 11
67.17746019363403
 21
13.8100733757019
 31
0.0
  0
LINE
  5
3C8
330
1F
100
AcDbEntity
  8
TFR-TRI
  6
Continuous
 62
    18
100
AcDbLine
 10
67.17746019363403
 20
13.8100733757019
 30
0.0
 11
67.21204423904419
 21
13.8100733757019
 31
0.0
  0
LINE
  5
3C9
330
1F
100
AcDbEntity
  8
TFR-TRI
  6
Continuous
 62
    18
100
AcDbLine
 10
67.21204423904419
 20
13.8100733757019
 30
0.0
 11
67.25929307937622
 21
13.8100733757019
 31
0.0
  0
LINE
  5
3CA
330
1F
100
AcDbEntity
  8
TFR-TRI
  6
Continuous
 62
    18
100
AcDbLine
 10
67.330162525177
 20
13.8100733757019
 30
0.0
 11
67.25929307937622
 21
13.8100733757019
 31
0.0
  0
LINE
  5
3CB
330
1F
100
AcDbEntity
  8
TFR-TRI
  6
Continuous
 62
    18
100
AcDbLine
 10
67.76322984695434
 20
18.69589567184448
 30
0.0
 11
67.77588701248169
 21
18.69589567184448
 31
0.0
  0
LINE
  5
3CC
330
1F
100
AcDbEntity
  8
TFR-TRI
  6
Continuous
 62
    18
100
AcDbLine
 10
67.77588701248169
 20
18.69589567184448
 30
0.0
 11
67.81047868728638
 21
18.69589567184448
 31
0.0
  0
LINE
  5
3CD
330
1F
100
AcDbEntity
  8
TFR-TRI
  6
Continuous
 62
    18
100
AcDbLine
 10
67.81047868728638
 20
18.69589567184448
 30
0.0
 11
67.85771989822388
 21
18.69589567184448
 31
0.0
  0
LINE
  5
3CE
330
1F
100
AcDbEntity
  8
TFR-TRI
  6
Continuous
 62
    18
100
AcDbLine
 10
68.12937211990356
 20
18.69589567184448
 30
0.0
 11
67.85771989822388
 21
18.69589567184448
 31
0.0
  0
LINE
  5
3CF
330
1F
100
AcDbEntity
  8
TFR-TRI
  6
Continuous
 62
    18
100
AcDbLine
 10
67.85771989822388
 20
3.341564655303955
 30
0.0
 11
68.12937211990356
 21
3.341564655303955
 31
0.0
  0
LINE
  5
3D0
330
1F
100
AcDbEntity
  8
TFR-TRI
  6
Continuous
 62
    18
100
AcDbLine
 10
67.85771989822388
 20
3.341564655303955
 30
0.0
 11
67.81047868728638
 21
3.341564655303955
 31
0.0
  0
LINE
  5
3D1
330
1F
100
AcDbEntity
  8
TFR-TRI
  6
Continuous
 62
    18
100
AcDbLine
 10
67.81047868728638
 20
3.341564655303955
 30
0.0
 11
67.77588701248169
 21
3.341564655303955
 31
0.0
  0
LINE
  5
3D2
330
1F
100
AcDbEntity
  8
TFR-TRI
  6
Continuous
 62
    18
100
AcDbLine
 10
67.77588701248169
 20
3.341564655303955
 30
0.0
 11
67.76322984695434
 21
3.341564655303955
 31
0.0
  0
LINE
  5
3D3
330
1F
100
AcDbEntity
  8
TFR-TRI
  6
Continuous
 62
    18
100
AcDbLine
 10
67.76322984695434
 20
3.341564655303955
 30
0.0
 11
67.76322984695434
 21
18.69589567184448
 31
0.0
  0
LINE
  5
3D4
330
1F
100
AcDbEntity
  8
TFR-TRI
  6
Continuous
 62
    18
100
AcDbLine
 10
68.25929307937622
 20
3.471486091613769
 30
0.0
 11
68.25929307937622
 21
18.56597471237182
 31
0.0
  0
LINE
  5
3D5
330
1F
100
AcDbEntity
  8
TFR-TRI
  6
Continuous
 62
    18
100
AcDbLine
 10
67.70024156570435
 20
17.57975339889526
 30
0.0
 11
67.70024156570435
 21
17.58770704269409
 31
0.0
  0
LINE
  5
3D6
330
1F
100
AcDbEntity
  8
TFR-TRI
  6
Continuous
 62
    18
100
AcDbLine
 10
67.70024156570435
 20
17.58770704269409
 30
0.0
 11
67.70024156570435
 21
17.6106104850769
 31
0.0
  0
LINE
  5
3D7
330
1F
100
AcDbEntity
  8
TFR-TRI
  6
Continuous
 62
    18
100
AcDbLine
 10
67.70024156570435
 20
17.6106104850769
 30
0.0
 11
67.70024156570435
 21
17.64569807052612
 31
0.0
  0
LINE
  5
3D8
330
1F
100
AcDbEntity
  8
TFR-TRI
  6
Continuous
 62
    18
100
AcDbLine
 10
67.70024156570435
 20
17.64569807052612
 30
0.0
 11
67.70024156570435
 21
17.6887412071228
 31
0.0
  0
LINE
  5
3D9
330
1F
100
AcDbEntity
  8
TFR-TRI
  6
Continuous
 62
    18
100
AcDbLine
 10
67.70024156570435
 20
17.6887412071228
 30
0.0
 11
67.70024156570435
 21
17.73454618453979
 31
0.0
  0
LINE
  5
3DA
330
1F
100
AcDbEntity
  8
TFR-TRI
  6
Continuous
 62
    18
100
AcDbLine
 10
67.70024156570435
 20
17.73454618453979
 30
0.0
 11
67.70024156570435
 21
17.77758741378784
 31
0.0
  0
LINE
  5
3DB
330
1F
100
AcDbEntity
  8
TFR-TRI
  6
Continuous
 62
    18
100
AcDbLine
 10
67.70024156570435
 20
17.77758741378784
 30
0.0
 11
67.70024156570435
 21
17.81267690658569
 31
0.0
  0
LINE
  5
3DC
330
1F
100
AcDbEntity
  8
TFR-TRI
  6
Continuous
 62
    18
100
AcDbLine
 10
67.70024156570435
 20
17.81267690658569
 30
0.0
 11
67.70024156570435
 21
17.83557844161987
 31
0.0
  0
LINE
  5
3DD
330
1F
100
AcDbEntity
  8
TFR-TRI
  6
Continuous
 62
    18
100
AcDbLine
 10
67.70024156570435
 20
17.83557844161987
 30
0.0
 11
67.70024156570435
 21
17.84353399276733
 31
0.0
  0
LINE
  5
3DE
330
1F
100
AcDbEntity
  8
TFR-TRI
  6
Continuous
 62
    18
100
AcDbLine
 10
67.70024156570435
 20
16.00495100021362
 30
0.0
 11
67.70024156570435
 21
16.01290464401245
 31
0.0
  0
LINE
  5
3DF
330
1F
100
AcDbEntity
  8
TFR-TRI
  6
Continuous
 62
    18
100
AcDbLine
 10
67.70024156570435
 20
16.01290464401245
 30
0.0
 11
67.70024156570435
 21
16.03580617904663
 31
0.0
  0
LINE
  5
3E0
330
1F
100
AcDbEntity
  8
TFR-TRI
  6
Continuous
 62
    18
100
AcDbLine
 10
67.70024156570435
 20
16.03580617904663
 30
0.0
 11
67.70024156570435
 21
16.07089567184448
 31
0.0
  0
LINE
  5
3E1
330
1F
100
AcDbEntity
  8
TFR-TRI
  6
Continuous
 62
    18
100
AcDbLine
 10
67.70024156570435
 20
16.07089567184448
 30
0.0
 11
67.70024156570435
 21
16.11393880844116
 31
0.0
  0
LINE
  5
3E2
330
1F
100
AcDbEntity
  8
TFR-TRI
  6
Continuous
 62
    18
100
AcDbLine
 10
67.70024156570435
 20
16.11393880844116
 30
0.0
 11
67.70024156570435
 21
16.15974187850952
 31
0.0
  0
LINE
  5
3E3
330
1F
100
AcDbEntity
  8
TFR-TRI
  6
Continuous
 62
    18
100
AcDbLine
 10
67.70024156570435
 20
16.15974187850952
 30
0.0
 11
67.70024156570435
 21
16.2027850151062
 31
0.0
  0
LINE
  5
3E4
330
1F
100
AcDbEntity
  8
TFR-TRI
  6
Continuous
 62
    18
100
AcDbLine
 10
67.70024156570435
 20
16.2027850151062
 30
0.0
 11
67.70024156570435
 21
16.23787450790405
 31
0.0
  0
LINE
  5
3E5
330
1F
100
AcDbEntity
  8
TFR-TRI
  6
Continuous
 62
    18
100
AcDbLine
 10
67.70024156570435
 20
16.23787450790405
 30
0.0
 11
67.70024156570435
 21
16.26077604293823
 31
0.0
  0
LINE
  5
3E6
330
1F
100
AcDbEntity
  8
TFR-TRI
  6
Continuous
 62
    18
100
AcDbLine
 10
67.70024156570435
 20
16.26077604293823
 30
0.0
 11
67.70024156570435
 21
16.26872968673706
 31
0.0
  0
LINE
  5
3E7
330
1F
100
AcDbEntity
  8
TFR-TRI
  6
Continuous
 62
    18
100
AcDbLine
 10
67.70024156570435
 20
13.24904584884643
 30
0.0
 11
67.70024156570435
 21
13.25699949264526
 31
0.0
  0
LINE
  5
3E8
330
1F
100
AcDbEntity
  8
TFR-TRI
  6
Continuous
 62
    18
100
AcDbLine
 10
67.70024156570435
 20
13.25699949264526
 30
0.0
 11
67.70024156570435
 21
13.27990102767944
 31
0.0
  0
LINE
  5
3E9
330
1F
100
AcDbEntity
  8
TFR-TRI
  6
Continuous
 62
    18
100
AcDbLine
 10
67.70024156570435
 20
13.27990102767944
 30
0.0
 11
67.70024156570435
 21
13.31499052047729
 31
0.0
  0
LINE
  5
3EA
330
1F
100
AcDbEntity
  8
TFR-TRI
  6
Continuous
 62
    18
100
AcDbLine
 10
67.70024156570435
 20
13.31499052047729
 30
0.0
 11
67.70024156570435
 21
13.35803174972534
 31
0.0
  0
LINE
  5
3EB
330
1F
100
AcDbEntity
  8
TFR-TRI
  6
Continuous
 62
    18
100
AcDbLine
 10
67.70024156570435
 20
13.35803174972534
 30
0.0
 11
67.70024156570435
 21
13.40383672714233
 31
0.0
  0
LINE
  5
3EC
330
1F
100
AcDbEntity
  8
TFR-TRI
  6
Continuous
 62
    18
100
AcDbLine
 10
67.70024156570435
 20
13.40383672714233
 30
0.0
 11
67.70024156570435
 21
13.44687986373901
 31
0.0
  0
LINE
  5
3ED
330
1F
100
AcDbEntity
  8
TFR-TRI
  6
Continuous
 62
    18
100
AcDbLine
 10
67.70024156570435
 20
13.44687986373901
 30
0.0
 11
67.70024156570435
 21
13.48196744918823
 31
0.0
  0
LINE
  5
3EE
330
1F
100
AcDbEntity
  8
TFR-TRI
  6
Continuous
 62
    18
100
AcDbLine
 10
67.70024156570435
 20
13.48196744918823
 30
0.0
 11
67.70024156570435
 21
13.50487089157104
 31
0.0
  0
LINE
  5
3EF
330
1F
100
AcDbEntity
  8
TFR-TRI
  6
Continuous
 62
    18
100
AcDbLine
 10
67.70024156570435
 20
13.50487089157104
 30
0.0
 11
67.70024156570435
 21
13.51282453536987
 31
0.0
  0
LINE
  5
3F0
330
1F
100
AcDbEntity
  8
TFR-TRI
  6
Continuous
 62
    18
100
AcDbLine
 10
67.70024156570435
 20
11.67424154281616
 30
0.0
 11
67.70024156570435
 21
11.6821961402893
 31
0.0
  0
LINE
  5
3F1
330
1F
100
AcDbEntity
  8
TFR-TRI
  6
Continuous
 62
    18
100
AcDbLine
 10
67.70024156570435
 20
11.6821961402893
 30
0.0
 11
67.70024156570435
 21
11.7050986289978
 31
0.0
  0
LINE
  5
3F2
330
1F
100
AcDbEntity
  8
TFR-TRI
  6
Continuous
 62
    18
100
AcDbLine
 10
67.70024156570435
 20
11.7050986289978
 30
0.0
 11
67.70024156570435
 21
11.74018716812134
 31
0.0
  0
LINE
  5
3F3
330
1F
100
AcDbEntity
  8
TFR-TRI
  6
Continuous
 62
    18
100
AcDbLine
 10
67.70024156570435
 20
11.74018716812134
 30
0.0
 11
67.70024156570435
 21
11.7832293510437
 31
0.0
  0
LINE
  5
3F4
330
1F
100
AcDbEntity
  8
TFR-TRI
  6
Continuous
 62
    18
100
AcDbLine
 10
67.70024156570435
 20
11.7832293510437
 30
0.0
 11
67.70024156570435
 21
11.82903432846069
 31
0.0
  0
LINE
  5
3F5
330
1F
100
AcDbEntity
  8
TFR-TRI
  6
Continuous
 62
    18
100
AcDbLine
 10
67.70024156570435
 20
11.82903432846069
 30
0.0
 11
67.70024156570435
 21
11.87207651138305
 31
0.0
  0
LINE
  5
3F6
330
1F
100
AcDbEntity
  8
TFR-TRI
  6
Continuous
 62
    18
100
AcDbLine
 10
67.70024156570435
 20
11.87207651138305
 30
0.0
 11
67.70024156570435
 21
11.90716505050659
 31
0.0
  0
LINE
  5
3F7
330
1F
100
AcDbEntity
  8
TFR-TRI
  6
Continuous
 62
    18
100
AcDbLine
 10
67.70024156570435
 20
11.90716505050659
 30
0.0
 11
67.70024156570435
 21
11.93006753921509
 31
0.0
  0
LINE
  5
3F8
330
1F
100
AcDbEntity
  8
TFR-TRI
  6
Continuous
 62
    18
100
AcDbLine
 10
67.70024156570435
 20
11.93006753921509
 30
0.0
 11
67.70024156570435
 21
11.93802118301391
 31
0.0
  0
LINE
  5
3F9
330
1F
100
AcDbEntity
  8
TFR-TRI
  6
Continuous
 62
    18
100
AcDbLine
 10
67.70024156570435
 20
10.09943914413452
 30
0.0
 11
67.70024156570435
 21
10.10739278793335
 31
0.0
  0
LINE
  5
3FA
330
1F
100
AcDbEntity
  8
TFR-TRI
  6
Continuous
 62
    18
100
AcDbLine
 10
67.70024156570435
 20
10.10739278793335
 30
0.0
 11
67.70024156570435
 21
10.13029527664184
 31
0.0
  0
LINE
  5
3FB
330
1F
100
AcDbEntity
  8
TFR-TRI
  6
Continuous
 62
    18
100
AcDbLine
 10
67.70024156570435
 20
10.13029527664184
 30
0.0
 11
67.70024156570435
 21
10.16538381576538
 31
0.0
  0
LINE
  5
3FC
330
1F
100
AcDbEntity
  8
TFR-TRI
  6
Continuous
 62
    18
100
AcDbLine
 10
67.70024156570435
 20
10.16538381576538
 30
0.0
 11
67.70024156570435
 21
10.20842599868774
 31
0.0
  0
LINE
  5
3FD
330
1F
100
AcDbEntity
  8
TFR-TRI
  6
Continuous
 62
    18
100
AcDbLine
 10
67.70024156570435
 20
10.20842599868774
 30
0.0
 11
67.70024156570435
 21
10.25423097610473
 31
0.0
  0
LINE
  5
3FE
330
1F
100
AcDbEntity
  8
TFR-TRI
  6
Continuous
 62
    18
100
AcDbLine
 10
67.70024156570435
 20
10.25423097610473
 30
0.0
 11
67.70024156570435
 21
10.2972731590271
 31
0.0
  0
LINE
  5
3FF
330
1F
100
AcDbEntity
  8
TFR-TRI
  6
Continuous
 62
    18
100
AcDbLine
 10
67.70024156570435
 20
10.2972731590271
 30
0.0
 11
67.70024156570435
 21
10.33236169815063
 31
0.0
  0
LINE
  5
400
330
1F
100
AcDbEntity
  8
TFR-TRI
  6
Continuous
 62
    18
100
AcDbLine
 10
67.70024156570435
 20
10.33236169815063
 30
0.0
 11
67.70024156570435
 21
10.35526418685913
 31
0.0
  0
LINE
  5
401
330
1F
100
AcDbEntity
  8
TFR-TRI
  6
Continuous
 62
    18
100
AcDbLine
 10
67.70024156570435
 20
10.35526418685913
 30
0.0
 11
67.70024156570435
 21
10.36321783065796
 31
0.0
  0
LINE
  5
402
330
1F
100
AcDbEntity
  8
TFR-TRI
  6
Continuous
 62
    18
100
AcDbLine
 10
67.70024156570435
 20
8.524635791778564
 30
0.0
 11
67.70024156570435
 21
8.532589435577392
 31
0.0
  0
LINE
  5
403
330
1F
100
AcDbEntity
  8
TFR-TRI
  6
Continuous
 62
    18
100
AcDbLine
 10
67.70024156570435
 20
8.532589435577392
 30
0.0
 11
67.70024156570435
 21
8.555491924285888
 31
0.0
  0
LINE
  5
404
330
1F
100
AcDbEntity
  8
TFR-TRI
  6
Continuous
 62
    18
100
AcDbLine
 10
67.70024156570435
 20
8.555491924285888
 30
0.0
 11
67.70024156570435
 21
8.590580463409423
 31
0.0
  0
LINE
  5
405
330
1F
100
AcDbEntity
  8
TFR-TRI
  6
Continuous
 62
    18
100
AcDbLine
 10
67.70024156570435
 20
8.590580463409423
 30
0.0
 11
67.70024156570435
 21
8.633622646331787
 31
0.0
  0
LINE
  5
406
330
1F
100
AcDbEntity
  8
TFR-TRI
  6
Continuous
 62
    18
100
AcDbLine
 10
67.70024156570435
 20
8.633622646331787
 30
0.0
 11
67.70024156570435
 21
8.679427623748779
 31
0.0
  0
LINE
  5
407
330
1F
100
AcDbEntity
  8
TFR-TRI
  6
Continuous
 62
    18
100
AcDbLine
 10
67.70024156570435
 20
8.679427623748779
 30
0.0
 11
67.70024156570435
 21
8.722469806671142
 31
0.0
  0
LINE
  5
408
330
1F
100
AcDbEntity
  8
TFR-TRI
  6
Continuous
 62
    18
100
AcDbLine
 10
67.70024156570435
 20
8.722469806671142
 30
0.0
 11
67.70024156570435
 21
8.757558345794677
 31
0.0
  0
LINE
  5
409
330
1F
100
AcDbEntity
  8
TFR-TRI
  6
Continuous
 62
    18
100
AcDbLine
 10
67.70024156570435
 20
8.757558345794677
 30
0.0
 11
67.70024156570435
 21
8.780460834503173
 31
0.0
  0
LINE
  5
40A
330
1F
100
AcDbEntity
  8
TFR-TRI
  6
Continuous
 62
    18
100
AcDbLine
 10
67.70024156570435
 20
8.780460834503173
 30
0.0
 11
67.70024156570435
 21
8.788415431976318
 31
0.0
  0
LINE
  5
40B
330
1F
100
AcDbEntity
  8
TFR-TRI
  6
Continuous
 62
    18
100
AcDbLine
 10
67.70024156570435
 20
5.76872968673706
 30
0.0
 11
67.70024156570435
 21
5.776684284210205
 31
0.0
  0
LINE
  5
40C
330
1F
100
AcDbEntity
  8
TFR-TRI
  6
Continuous
 62
    18
100
AcDbLine
 10
67.70024156570435
 20
5.776684284210205
 30
0.0
 11
67.70024156570435
 21
5.799586772918701
 31
0.0
  0
LINE
  5
40D
330
1F
100
AcDbEntity
  8
TFR-TRI
  6
Continuous
 62
    18
100
AcDbLine
 10
67.70024156570435
 20
5.799586772918701
 30
0.0
 11
67.70024156570435
 21
5.834675312042236
 31
0.0
  0
LINE
  5
40E
330
1F
100
AcDbEntity
  8
TFR-TRI
  6
Continuous
 62
    18
100
AcDbLine
 10
67.70024156570435
 20
5.834675312042236
 30
0.0
 11
67.70024156570435
 21
5.877717494964599
 31
0.0
  0
LINE
  5
40F
330
1F
100
AcDbEntity
  8
TFR-TRI
  6
Continuous
 62
    18
100
AcDbLine
 10
67.70024156570435
 20
5.877717494964599
 30
0.0
 11
67.70024156570435
 21
5.923522472381591
 31
0.0
  0
LINE
  5
410
330
1F
100
AcDbEntity
  8
TFR-TRI
  6
Continuous
 62
    18
100
AcDbLine
 10
67.70024156570435
 20
5.923522472381591
 30
0.0
 11
67.70024156570435
 21
5.966564655303955
 31
0.0
  0
LINE
  5
411
330
1F
100
AcDbEntity
  8
TFR-TRI
  6
Continuous
 62
    18
100
AcDbLine
 10
67.70024156570435
 20
5.966564655303955
 30
0.0
 11
67.70024156570435
 21
6.00165319442749
 31
0.0
  0
LINE
  5
412
330
1F
100
AcDbEntity
  8
TFR-TRI
  6
Continuous
 62
    18
100
AcDbLine
 10
67.70024156570435
 20
6.00165319442749
 30
0.0
 11
67.70024156570435
 21
6.024555683135986
 31
0.0
  0
LINE
  5
413
330
1F
100
AcDbEntity
  8
TFR-TRI
  6
Continuous
 62
    18
100
AcDbLine
 10
67.70024156570435
 20
6.024555683135986
 30
0.0
 11
67.70024156570435
 21
6.032509326934814
 31
0.0
  0
LINE
  5
414
330
1F
100
AcDbEntity
  8
TFR-TRI
  6
Continuous
 62
    18
100
AcDbLine
 10
67.70024156570435
 20
4.193926811218261
 30
0.0
 11
67.70024156570435
 21
4.201880931854248
 31
0.0
  0
LINE
  5
415
330
1F
100
AcDbEntity
  8
TFR-TRI
  6
Continuous
 62
    18
100
AcDbLine
 10
67.70024156570435
 20
4.201880931854248
 30
0.0
 11
67.70024156570435
 21
4.224783420562744
 31
0.0
  0
LINE
  5
416
330
1F
100
AcDbEntity
  8
TFR-TRI
  6
Continuous
 62
    18
100
AcDbLine
 10
67.70024156570435
 20
4.224783420562744
 30
0.0
 11
67.70024156570435
 21
4.259871959686279
 31
0.0
  0
LINE
  5
417
330
1F
100
AcDbEntity
  8
TFR-TRI
  6
Continuous
 62
    18
100
AcDbLine
 10
67.70024156570435
 20
4.259871959686279
 30
0.0
 11
67.70024156570435
 21
4.302914142608642
 31
0.0
  0
LINE
  5
418
330
1F
100
AcDbEntity
  8
TFR-TRI
  6
Continuous
 62
    18
100
AcDbLine
 10
67.70024156570435
 20
4.302914142608642
 30
0.0
 11
67.70024156570435
 21
4.348719120025634
 31
0.0
  0
LINE
  5
419
330
1F
100
AcDbEntity
  8
TFR-TRI
  6
Continuous
 62
    18
100
AcDbLine
 10
67.70024156570435
 20
4.348719120025634
 30
0.0
 11
67.70024156570435
 21
4.391761779785156
 31
0.0
  0
LINE
  5
41A
330
1F
100
AcDbEntity
  8
TFR-TRI
  6
Continuous
 62
    18
100
AcDbLine
 10
67.70024156570435
 20
4.391761779785156
 30
0.0
 11
67.70024156570435
 21
4.426850318908691
 31
0.0
  0
LINE
  5
41B
330
1F
100
AcDbEntity
  8
TFR-TRI
  6
Continuous
 62
    18
100
AcDbLine
 10
67.70024156570435
 20
4.426850318908691
 30
0.0
 11
67.70024156570435
 21
4.449752330780029
 31
0.0
  0
LINE
  5
41C
330
1F
100
AcDbEntity
  8
TFR-TRI
  6
Continuous
 62
    18
100
AcDbLine
 10
67.70024156570435
 20
4.449752330780029
 30
0.0
 11
67.70024156570435
 21
4.457706451416015
 31
0.0
  0
LINE
  5
41D
330
1F
100
AcDbEntity
  8
TFR-TRI
  6
Continuous
 62
    18
100
AcDbLine
 10
67.70024156570435
 20
14.70573759078979
 30
0.0
 11
67.70024156570435
 21
14.71369123458862
 31
0.0
  0
LINE
  5
41E
330
1F
100
AcDbEntity
  8
TFR-TRI
  6
Continuous
 62
    18
100
AcDbLine
 10
67.70024156570435
 20
14.71369123458862
 30
0.0
 11
67.70024156570435
 21
14.73659467697143
 31
0.0
  0
LINE
  5
41F
330
1F
100
AcDbEntity
  8
TFR-TRI
  6
Continuous
 62
    18
100
AcDbLine
 10
67.70024156570435
 20
14.73659467697143
 30
0.0
 11
67.70024156570435
 21
14.77168226242065
 31
0.0
  0
LINE
  5
420
330
1F
100
AcDbEntity
  8
TFR-TRI
  6
Continuous
 62
    18
100
AcDbLine
 10
67.70024156570435
 20
14.77168226242065
 30
0.0
 11
67.70024156570435
 21
14.81472539901733
 31
0.0
  0
LINE
  5
421
330
1F
100
AcDbEntity
  8
TFR-TRI
  6
Continuous
 62
    18
100
AcDbLine
 10
67.70024156570435
 20
14.81472539901733
 30
0.0
 11
67.70024156570435
 21
14.86053037643432
 31
0.0
  0
LINE
  5
422
330
1F
100
AcDbEntity
  8
TFR-TRI
  6
Continuous
 62
    18
100
AcDbLine
 10
67.70024156570435
 20
14.86053037643432
 30
0.0
 11
67.70024156570435
 21
14.903573513031
 31
0.0
  0
LINE
  5
423
330
1F
100
AcDbEntity
  8
TFR-TRI
  6
Continuous
 62
    18
100
AcDbLine
 10
67.70024156570435
 20
14.903573513031
 30
0.0
 11
67.70024156570435
 21
14.93866109848022
 31
0.0
  0
LINE
  5
424
330
1F
100
AcDbEntity
  8
TFR-TRI
  6
Continuous
 62
    18
100
AcDbLine
 10
67.70024156570435
 20
14.93866109848022
 30
0.0
 11
67.70024156570435
 21
14.9615626335144
 31
0.0
  0
LINE
  5
425
330
1F
100
AcDbEntity
  8
TFR-TRI
  6
Continuous
 62
    18
100
AcDbLine
 10
67.70024156570435
 20
14.9615626335144
 30
0.0
 11
67.70024156570435
 21
14.96951818466186
 31
0.0
  0
LINE
  5
426
330
1F
100
AcDbEntity
  8
TFR-TRI
  6
Continuous
 62
    18
100
AcDbLine
 10
67.70024156570435
 20
7.067943096160888
 30
0.0
 11
67.70024156570435
 21
7.075896739959716
 31
0.0
  0
LINE
  5
427
330
1F
100
AcDbEntity
  8
TFR-TRI
  6
Continuous
 62
    18
100
AcDbLine
 10
67.70024156570435
 20
7.075896739959716
 30
0.0
 11
67.70024156570435
 21
7.098799228668212
 31
0.0
  0
LINE
  5
428
330
1F
100
AcDbEntity
  8
TFR-TRI
  6
Continuous
 62
    18
100
AcDbLine
 10
67.70024156570435
 20
7.098799228668212
 30
0.0
 11
67.70024156570435
 21
7.133887767791748
 31
0.0
  0
LINE
  5
429
330
1F
100
AcDbEntity
  8
TFR-TRI
  6
Continuous
 62
    18
100
AcDbLine
 10
67.70024156570435
 20
7.133887767791748
 30
0.0
 11
67.70024156570435
 21
7.176929950714111
 31
0.0
  0
LINE
  5
42A
330
1F
100
AcDbEntity
  8
TFR-TRI
  6
Continuous
 62
    18
100
AcDbLine
 10
67.70024156570435
 20
7.176929950714111
 30
0.0
 11
67.70024156570435
 21
7.222734928131103
 31
0.0
  0
LINE
  5
42B
330
1F
100
AcDbEntity
  8
TFR-TRI
  6
Continuous
 62
    18
100
AcDbLine
 10
67.70024156570435
 20
7.222734928131103
 30
0.0
 11
67.70024156570435
 21
7.265777111053466
 31
0.0
  0
LINE
  5
42C
330
1F
100
AcDbEntity
  8
TFR-TRI
  6
Continuous
 62
    18
100
AcDbLine
 10
67.70024156570435
 20
7.265777111053466
 30
0.0
 11
67.70024156570435
 21
7.300865650177001
 31
0.0
  0
LINE
  5
42D
330
1F
100
AcDbEntity
  8
TFR-TRI
  6
Continuous
 62
    18
100
AcDbLine
 10
67.70024156570435
 20
7.300865650177001
 30
0.0
 11
67.70024156570435
 21
7.323768138885498
 31
0.0
  0
LINE
  5
42E
330
1F
100
AcDbEntity
  8
TFR-TRI
  6
Continuous
 62
    18
100
AcDbLine
 10
67.70024156570435
 20
7.323768138885498
 30
0.0
 11
67.70024156570435
 21
7.331721782684326
 31
0.0
  0
LINE
  5
42F
330
1F
100
AcDbEntity
  8
TFR-TRI
  6
Continuous
 62
    18
100
AcDbLine
 10
67.70024156570435
 20
13.83959531784057
 30
0.0
 11
67.70024156570435
 21
13.84755086898804
 31
0.0
  0
LINE
  5
430
330
1F
100
AcDbEntity
  8
TFR-TRI
  6
Continuous
 62
    18
100
AcDbLine
 10
67.70024156570435
 20
13.84755086898804
 30
0.0
 11
67.70024156570435
 21
13.87045240402221
 31
0.0
  0
LINE
  5
431
330
1F
100
AcDbEntity
  8
TFR-TRI
  6
Continuous
 62
    18
100
AcDbLine
 10
67.70024156570435
 20
13.87045240402221
 30
0.0
 11
67.70024156570435
 21
13.90554189682007
 31
0.0
  0
LINE
  5
432
330
1F
100
AcDbEntity
  8
TFR-TRI
  6
Continuous
 62
    18
100
AcDbLine
 10
67.70024156570435
 20
13.90554189682007
 30
0.0
 11
67.70024156570435
 21
13.94858312606811
 31
0.0
  0
LINE
  5
433
330
1F
100
AcDbEntity
  8
TFR-TRI
  6
Continuous
 62
    18
100
AcDbLine
 10
67.70024156570435
 20
13.94858312606811
 30
0.0
 11
67.70024156570435
 21
13.99438810348511
 31
0.0
  0
LINE
  5
434
330
1F
100
AcDbEntity
  8
TFR-TRI
  6
Continuous
 62
    18
100
AcDbLine
 10
67.70024156570435
 20
13.99438810348511
 30
0.0
 11
67.70024156570435
 21
14.03743124008179
 31
0.0
  0
LINE
  5
435
330
1F
100
AcDbEntity
  8
TFR-TRI
  6
Continuous
 62
    18
100
AcDbLine
 10
67.70024156570435
 20
14.03743124008179
 30
0.0
 11
67.70024156570435
 21
14.072518825531
 31
0.0
  0
LINE
  5
436
330
1F
100
AcDbEntity
  8
TFR-TRI
  6
Continuous
 62
    18
100
AcDbLine
 10
67.70024156570435
 20
14.072518825531
 30
0.0
 11
67.70024156570435
 21
14.09542226791382
 31
0.0
  0
LINE
  5
437
330
1F
100
AcDbEntity
  8
TFR-TRI
  6
Continuous
 62
    18
100
AcDbLine
 10
67.70024156570435
 20
14.09542226791382
 30
0.0
 11
67.70024156570435
 21
14.10337591171265
 31
0.0
  0
LINE
  5
438
330
1F
100
AcDbEntity
  8
TFR-TRI
  6
Continuous
 62
    18
100
AcDbLine
 10
67.70024156570435
 20
7.934084415435791
 30
0.0
 11
67.70024156570435
 21
7.942038059234619
 31
0.0
  0
LINE
  5
439
330
1F
100
AcDbEntity
  8
TFR-TRI
  6
Continuous
 62
    18
100
AcDbLine
 10
67.70024156570435
 20
7.942038059234619
 30
0.0
 11
67.70024156570435
 21
7.964940547943115
 31
0.0
  0
LINE
  5
43A
330
1F
100
AcDbEntity
  8
TFR-TRI
  6
Continuous
 62
    18
100
AcDbLine
 10
67.70024156570435
 20
7.964940547943115
 30
0.0
 11
67.70024156570435
 21
8.00002908706665
 31
0.0
  0
LINE
  5
43B
330
1F
100
AcDbEntity
  8
TFR-TRI
  6
Continuous
 62
    18
100
AcDbLine
 10
67.70024156570435
 20
8.00002908706665
 30
0.0
 11
67.70024156570435
 21
8.043071269989013
 31
0.0
  0
LINE
  5
43C
330
1F
100
AcDbEntity
  8
TFR-TRI
  6
Continuous
 62
    18
100
AcDbLine
 10
67.70024156570435
 20
8.043071269989013
 30
0.0
 11
67.70024156570435
 21
8.088876247406005
 31
0.0
  0
LINE
  5
43D
330
1F
100
AcDbEntity
  8
TFR-TRI
  6
Continuous
 62
    18
100
AcDbLine
 10
67.70024156570435
 20
8.088876247406005
 30
0.0
 11
67.70024156570435
 21
8.131919384002685
 31
0.0
  0
LINE
  5
43E
330
1F
100
AcDbEntity
  8
TFR-TRI
  6
Continuous
 62
    18
100
AcDbLine
 10
67.70024156570435
 20
8.131919384002685
 30
0.0
 11
67.70024156570435
 21
8.16700792312622
 31
0.0
  0
LINE
  5
43F
330
1F
100
AcDbEntity
  8
TFR-TRI
  6
Continuous
 62
    18
100
AcDbLine
 10
67.70024156570435
 20
8.16700792312622
 30
0.0
 11
67.70024156570435
 21
8.189910411834716
 31
0.0
  0
LINE
  5
440
330
1F
100
AcDbEntity
  8
TFR-TRI
  6
Continuous
 62
    18
100
AcDbLine
 10
67.70024156570435
 20
8.189910411834716
 30
0.0
 11
67.70024156570435
 21
8.197864055633544
 31
0.0
  0
LINE
  5
441
330
1F
100
AcDbEntity
  8
TFR-TRI
  6
Continuous
 62
    18
100
AcDbLine
 10
67.70024156570435
 20
10.88684034347534
 30
0.0
 11
67.70024156570435
 21
10.89479398727417
 31
0.0
  0
LINE
  5
442
330
1F
100
AcDbEntity
  8
TFR-TRI
  6
Continuous
 62
    18
100
AcDbLine
 10
67.70024156570435
 20
10.89479398727417
 30
0.0
 11
67.70024156570435
 21
10.91769647598266
 31
0.0
  0
LINE
  5
443
330
1F
100
AcDbEntity
  8
TFR-TRI
  6
Continuous
 62
    18
100
AcDbLine
 10
67.70024156570435
 20
10.91769647598266
 30
0.0
 11
67.70024156570435
 21
10.9527850151062
 31
0.0
  0
LINE
  5
444
330
1F
100
AcDbEntity
  8
TFR-TRI
  6
Continuous
 62
    18
100
AcDbLine
 10
67.70024156570435
 20
10.9527850151062
 30
0.0
 11
67.70024156570435
 21
10.99582719802856
 31
0.0
  0
LINE
  5
445
330
1F
100
AcDbEntity
  8
TFR-TRI
  6
Continuous
 62
    18
100
AcDbLine
 10
67.70024156570435
 20
10.99582719802856
 30
0.0
 11
67.70024156570435
 21
11.04163217544555
 31
0.0
  0
LINE
  5
446
330
1F
100
AcDbEntity
  8
TFR-TRI
  6
Continuous
 62
    18
100
AcDbLine
 10
67.70024156570435
 20
11.04163217544555
 30
0.0
 11
67.70024156570435
 21
11.08467531204223
 31
0.0
  0
LINE
  5
447
330
1F
100
AcDbEntity
  8
TFR-TRI
  6
Continuous
 62
    18
100
AcDbLine
 10
67.70024156570435
 20
11.08467531204223
 30
0.0
 11
67.70024156570435
 21
11.11976385116577
 31
0.0
  0
LINE
  5
448
330
1F
100
AcDbEntity
  8
TFR-TRI
  6
Continuous
 62
    18
100
AcDbLine
 10
67.70024156570435
 20
11.11976385116577
 30
0.0
 11
67.70024156570435
 21
11.14266633987426
 31
0.0
  0
LINE
  5
449
330
1F
100
AcDbEntity
  8
TFR-TRI
  6
Continuous
 62
    18
100
AcDbLine
 10
67.70024156570435
 20
11.14266633987426
 30
0.0
 11
67.70024156570435
 21
11.15061998367309
 31
0.0
  0
LINE
  5
44A
330
1F
100
AcDbEntity
  8
TFR-TRI
  6
Continuous
 62
    18
100
AcDbLine
 10
67.73172807693481
 20
5.310068607330322
 30
0.0
 11
67.46008348464965
 21
5.310068607330322
 31
0.0
  0
LINE
  5
44B
330
1F
100
AcDbEntity
  8
TFR-TRI
  6
Continuous
 62
    18
100
AcDbLine
 10
67.73172807693481
 20
5.310068607330322
 30
0.0
 11
67.75400590896606
 21
5.310068607330322
 31
0.0
  0
LINE
  5
44C
330
1F
100
AcDbEntity
  8
TFR-TRI
  6
Continuous
 62
    18
100
AcDbLine
 10
67.75400590896606
 20
5.310068607330322
 30
0.0
 11
67.76322984695434
 21
5.310068607330322
 31
0.0
  0
LINE
  5
44D
330
1F
100
AcDbEntity
  8
TFR-TRI
  6
Continuous
 62
    18
100
AcDbLine
 10
67.46008348464965
 20
16.72739171981811
 30
0.0
 11
67.73172807693481
 21
16.72739171981811
 31
0.0
  0
LINE
  5
44E
330
1F
100
AcDbEntity
  8
TFR-TRI
  6
Continuous
 62
    18
100
AcDbLine
 10
67.76322984695434
 20
16.72739171981811
 30
0.0
 11
67.75400590896606
 21
16.72739171981811
 31
0.0
  0
LINE
  5
44F
330
1F
100
AcDbEntity
  8
TFR-TRI
  6
Continuous
 62
    18
100
AcDbLine
 10
67.75400590896606
 20
16.72739171981811
 30
0.0
 11
67.73172807693481
 21
16.72739171981811
 31
0.0
  0
LINE
  5
450
330
1F
100
AcDbEntity
  8
TFR-TRI
  6
Continuous
 62
    18
100
AcDbLine
 10
67.330162525177
 20
5.439989566802978
 30
0.0
 11
67.330162525177
 21
16.59747076034546
 31
0.0
  0
LINE
  5
451
330
1F
100
AcDbEntity
  8
TFR-TRI
  6
Continuous
 62
    18
100
AcDbLine
 10
67.76322984695434
 20
18.69589948654175
 30
0.0
 11
67.77897691726685
 21
18.69589948654175
 31
0.0
  0
LINE
  5
452
330
1F
100
AcDbEntity
  8
TFR-TRI
  6
Continuous
 62
    18
100
AcDbLine
 10
67.82661485671997
 20
18.69589948654175
 30
0.0
 11
67.82632493972778
 21
18.69589948654175
 31
0.0
  0
LINE
  5
453
330
1F
100
AcDbEntity
  8
TFR-TRI
  6
Continuous
 62
    18
100
AcDbLine
 10
67.82632493972778
 20
18.69589948654175
 30
0.0
 11
67.82622575759887
 21
18.69589948654175
 31
0.0
  0
LINE
  5
454
330
1F
100
AcDbEntity
  8
TFR-TRI
  6
Continuous
 62
    18
100
AcDbLine
 10
67.8744740486145
 20
18.69589948654175
 30
0.0
 11
68.12937211990356
 21
18.69589948654175
 31
0.0
  0
LINE
  5
455
330
1F
100
AcDbEntity
  8
TFR-TRI
  6
Continuous
 62
    18
100
AcDbLine
 10
67.73172807693481
 20
16.72739553451538
 30
0.0
 11
67.46008348464965
 21
16.72739553451538
 31
0.0
  0
LINE
  5
456
330
1F
100
AcDbEntity
  8
TFR-TRI
  6
Continuous
 62
    18
100
AcDbLine
 10
67.73172807693481
 20
16.72739553451538
 30
0.0
 11
67.74771165847778
 21
16.72739553451538
 31
0.0
  0
LINE
  5
457
330
1F
100
AcDbEntity
  8
TFR-TRI
  6
Continuous
 62
    18
100
AcDbLine
 10
67.74771165847778
 20
16.72739553451538
 30
0.0
 11
67.76322984695434
 21
16.72739553451538
 31
0.0
  0
LINE
  5
458
330
1F
100
AcDbEntity
  8
TFR-TRI
  6
Continuous
 62
    18
100
AcDbLine
 10
69.3774037361145
 20
2.829753875732421
 30
0.0
 11
69.367516040802
 21
2.829753875732421
 31
0.0
  0
LINE
  5
459
330
1F
100
AcDbEntity
  8
TFR-TRI
  6
Continuous
 62
    18
100
AcDbLine
 10
69.367516040802
 20
2.829753875732421
 30
0.0
 11
69.33934831619263
 21
2.829753875732421
 31
0.0
  0
LINE
  5
45A
330
1F
100
AcDbEntity
  8
TFR-TRI
  6
Continuous
 62
    18
100
AcDbLine
 10
69.33934831619263
 20
2.829753875732421
 30
0.0
 11
69.297203540802
 21
2.829753875732421
 31
0.0
  0
LINE
  5
45B
330
1F
100
AcDbEntity
  8
TFR-TRI
  6
Continuous
 62
    18
100
AcDbLine
 10
69.297203540802
 20
2.829753875732421
 30
0.0
 11
69.24748277664185
 21
2.829753875732421
 31
0.0
  0
LINE
  5
45C
330
1F
100
AcDbEntity
  8
TFR-TRI
  6
Continuous
 62
    18
100
AcDbLine
 10
69.24748277664185
 20
2.829753875732421
 30
0.0
 11
67.96795701980591
 21
2.829753875732421
 31
0.0
  0
LINE
  5
45D
330
1F
100
AcDbEntity
  8
TFR-TRI
  6
Continuous
 62
    18
100
AcDbLine
 10
69.24748277664185
 20
2.876997947692871
 30
0.0
 11
67.96795701980591
 21
2.876997947692871
 31
0.0
  0
LINE
  5
45E
330
1F
100
AcDbEntity
  8
TFR-TRI
  6
Continuous
 62
    18
100
AcDbLine
 10
69.24748277664185
 20
2.876997947692871
 30
0.0
 11
69.297203540802
 21
2.876997947692871
 31
0.0
  0
LINE
  5
45F
330
1F
100
AcDbEntity
  8
TFR-TRI
  6
Continuous
 62
    18
100
AcDbLine
 10
69.297203540802
 20
2.876997947692871
 30
0.0
 11
69.33934831619263
 21
2.876997947692871
 31
0.0
  0
LINE
  5
460
330
1F
100
AcDbEntity
  8
TFR-TRI
  6
Continuous
 62
    18
100
AcDbLine
 10
69.33934831619263
 20
2.876997947692871
 30
0.0
 11
69.367516040802
 21
2.876997947692871
 31
0.0
  0
LINE
  5
461
330
1F
100
AcDbEntity
  8
TFR-TRI
  6
Continuous
 62
    18
100
AcDbLine
 10
69.367516040802
 20
2.876997947692871
 30
0.0
 11
69.3774037361145
 21
2.876997947692871
 31
0.0
  0
LINE
  5
462
330
1F
100
AcDbEntity
  8
TFR-TRI
  6
Continuous
 62
    18
100
AcDbLine
 10
68.76716661453247
 20
7.093536853790283
 30
0.0
 11
69.06243944168091
 21
7.093536853790283
 31
0.0
  0
LINE
  5
463
330
1F
100
AcDbEntity
  8
TFR-TRI
  6
Continuous
 62
    18
100
AcDbLine
 10
67.96795701980591
 20
2.908497810363769
 30
0.0
 11
69.24748277664185
 21
2.908497810363769
 31
0.0
  0
LINE
  5
464
330
1F
100
AcDbEntity
  8
TFR-TRI
  6
Continuous
 62
    18
100
AcDbLine
 10
69.3774037361145
 20
3.038419246673583
 30
0.0
 11
69.3774037361145
 21
7.014708042144775
 31
0.0
  0
LINE
  5
465
330
1F
100
AcDbEntity
  8
TFR-TRI
  6
Continuous
 62
    18
100
AcDbLine
 10
67.88921403884888
 20
2.908497810363769
 30
0.0
 11
67.88921403884888
 21
3.073944568634033
 31
0.0
  0
LINE
  5
466
330
1F
100
AcDbEntity
  8
TFR-TRI
  6
Continuous
 62
    18
100
AcDbLine
 10
69.3774037361145
 20
2.876997947692871
 30
0.0
 11
69.3774037361145
 21
2.829753875732421
 31
0.0
  0
LINE
  5
467
330
1F
100
AcDbEntity
  8
TFR-TRI
  6
Continuous
 62
    18
100
AcDbLine
 10
67.96795701980591
 20
2.908497810363769
 30
0.0
 11
67.92858934402466
 21
2.908497810363769
 31
0.0
  0
LINE
  5
468
330
1F
100
AcDbEntity
  8
TFR-TRI
  6
Continuous
 62
    18
100
AcDbLine
 10
67.92858934402466
 20
2.908497810363769
 30
0.0
 11
67.89976549148559
 21
2.908497810363769
 31
0.0
  0
LINE
  5
469
330
1F
100
AcDbEntity
  8
TFR-TRI
  6
Continuous
 62
    18
100
AcDbLine
 10
67.89976549148559
 20
2.908497810363769
 30
0.0
 11
67.88921403884888
 21
2.908497810363769
 31
0.0
  0
LINE
  5
46A
330
1F
100
AcDbEntity
  8
TFR-TRI
  6
Continuous
 62
    18
100
AcDbLine
 10
68.44039964675904
 20
17.74313879013061
 30
0.0
 11
68.93645524978637
 21
17.74313879013061
 31
0.0
  0
LINE
  5
46B
330
1F
100
AcDbEntity
  8
TFR-TRI
  6
Continuous
 62
    18
100
AcDbLine
 10
68.25930070877075
 20
18.53054189682007
 30
0.0
 11
69.20024156570434
 21
18.53054189682007
 31
0.0
  0
LINE
  5
46C
330
1F
100
AcDbEntity
  8
TFR-TRI
  6
Continuous
 62
    18
100
AcDbLine
 10
68.44039964675904
 20
15.38093519210815
 30
0.0
 11
68.93645524978637
 21
15.38093519210815
 31
0.0
  0
LINE
  5
46D
330
1F
100
AcDbEntity
  8
TFR-TRI
  6
Continuous
 62
    18
100
AcDbLine
 10
67.90496873855591
 20
18.76676511764526
 30
0.0
 11
68.72779893875122
 21
18.76676511764526
 31
0.0
  0
LINE
  5
46E
330
1F
100
AcDbEntity
  8
TFR-TRI
  6
Continuous
 62
    18
100
AcDbLine
 10
68.72779893875122
 20
18.76676511764526
 30
0.0
 11
68.77751970291138
 21
18.76676511764526
 31
0.0
  0
LINE
  5
46F
330
1F
100
AcDbEntity
  8
TFR-TRI
  6
Continuous
 62
    18
100
AcDbLine
 10
68.77751970291138
 20
18.76676511764526
 30
0.0
 11
68.819664478302
 21
18.76676511764526
 31
0.0
  0
LINE
  5
470
330
1F
100
AcDbEntity
  8
TFR-TRI
  6
Continuous
 62
    18
100
AcDbLine
 10
68.819664478302
 20
18.76676511764526
 30
0.0
 11
68.84783220291137
 21
18.76676511764526
 31
0.0
  0
LINE
  5
471
330
1F
100
AcDbEntity
  8
TFR-TRI
  6
Continuous
 62
    18
100
AcDbLine
 10
68.84783220291137
 20
18.76676511764526
 30
0.0
 11
68.85771989822387
 21
18.76676511764526
 31
0.0
  0
LINE
  5
472
330
1F
100
AcDbEntity
  8
TFR-TRI
  6
Continuous
 62
    18
100
AcDbLine
 10
68.41677141189575
 20
17.99286985397339
 30
0.0
 11
68.41677141189575
 21
17.99183225631714
 31
0.0
  0
LINE
  5
473
330
1F
100
AcDbEntity
  8
TFR-TRI
  6
Continuous
 62
    18
100
AcDbLine
 10
68.41677141189575
 20
17.99183225631714
 30
0.0
 11
68.41677141189575
 21
17.99148511886597
 31
0.0
  0
LINE
  5
474
330
1F
100
AcDbEntity
  8
TFR-TRI
  6
Continuous
 62
    18
100
AcDbLine
 10
68.39677476882934
 20
17.97148656845093
 30
0.0
 11
68.39677476882934
 21
17.97552442550659
 31
0.0
  0
LINE
  5
475
330
1F
100
AcDbEntity
  8
TFR-TRI
  6
Continuous
 62
    18
100
AcDbLine
 10
68.39677476882934
 20
17.97552442550659
 30
0.0
 11
68.39677476882934
 21
17.98730802536011
 31
0.0
  0
LINE
  5
476
330
1F
100
AcDbEntity
  8
TFR-TRI
  6
Continuous
 62
    18
100
AcDbLine
 10
68.41677141189575
 20
15.49872922897339
 30
0.0
 11
68.41677141189575
 21
15.48851728439331
 31
0.0
  0
LINE
  5
477
330
1F
100
AcDbEntity
  8
TFR-TRI
  6
Continuous
 62
    18
100
AcDbLine
 10
68.41677141189575
 20
15.48851728439331
 30
0.0
 11
68.41677141189575
 21
15.46054029464722
 31
0.0
  0
LINE
  5
478
330
1F
100
AcDbEntity
  8
TFR-TRI
  6
Continuous
 62
    18
100
AcDbLine
 10
68.41677141189575
 20
15.46054029464722
 30
0.0
 11
68.41677141189575
 21
15.42208433151245
 31
0.0
  0
LINE
  5
479
330
1F
100
AcDbEntity
  8
TFR-TRI
  6
Continuous
 62
    18
100
AcDbLine
 10
68.41677141189575
 20
15.42208433151245
 30
0.0
 11
68.41677141189575
 21
15.38316679000854
 31
0.0
  0
LINE
  5
47A
330
1F
100
AcDbEntity
  8
TFR-TRI
  6
Continuous
 62
    18
100
AcDbLine
 10
68.39677476882934
 20
15.38871526718139
 30
0.0
 11
68.39677476882934
 21
15.43478536605835
 31
0.0
  0
LINE
  5
47B
330
1F
100
AcDbEntity
  8
TFR-TRI
  6
Continuous
 62
    18
100
AcDbLine
 10
68.39677476882934
 20
15.43478536605835
 30
0.0
 11
68.39677476882934
 21
15.47765684127807
 31
0.0
  0
LINE
  5
47C
330
1F
100
AcDbEntity
  8
TFR-TRI
  6
Continuous
 62
    18
100
AcDbLine
 10
68.39677476882934
 20
15.47765684127807
 30
0.0
 11
68.39677476882934
 21
15.50786161422729
 31
0.0
  0
LINE
  5
47D
330
1F
100
AcDbEntity
  8
TFR-TRI
  6
Continuous
 62
    18
100
AcDbLine
 10
68.39677476882934
 20
15.50786161422729
 30
0.0
 11
68.39677476882934
 21
15.51872968673706
 31
0.0
  0
LINE
  5
47E
330
1F
100
AcDbEntity
  8
TFR-TRI
  6
Continuous
 62
    18
100
AcDbLine
 10
69.20024156570434
 20
14.96360731124878
 30
0.0
 11
68.25930070877075
 21
14.96360731124878
 31
0.0
  0
LINE
  5
47F
330
1F
100
AcDbEntity
  8
TFR-TRI
  6
Continuous
 62
    18
100
AcDbLine
 10
69.330162525177
 20
18.40061521530151
 30
0.0
 11
69.330162525177
 21
15.09353017807007
 31
0.0
  0
LINE
  5
480
330
1F
100
AcDbEntity
  8
TFR-TRI
  6
Continuous
 62
    18
100
AcDbLine
 10
68.25930070877075
 20
18.5305380821228
 30
0.0
 11
69.20024156570434
 21
18.5305380821228
 31
0.0
  0
LINE
  5
481
330
1F
100
AcDbEntity
  8
TFR-TRI
  6
Continuous
 62
    18
100
AcDbLine
 10
68.93645524978637
 20
17.99510335922241
 30
0.0
 11
68.44039964675904
 21
17.99510335922241
 31
0.0
  0
LINE
  5
482
330
1F
100
AcDbEntity
  8
TFR-TRI
  6
Continuous
 62
    18
100
AcDbLine
 10
68.44039964675904
 20
17.74313497543335
 30
0.0
 11
68.93645524978637
 21
17.74313497543335
 31
0.0
  0
LINE
  5
483
330
1F
100
AcDbEntity
  8
TFR-TRI
  6
Continuous
 62
    18
100
AcDbLine
 10
68.44039964675904
 20
15.63289976119995
 30
0.0
 11
68.93645524978637
 21
15.63289976119995
 31
0.0
  0
LINE
  5
484
330
1F
100
AcDbEntity
  8
TFR-TRI
  6
Continuous
 62
    18
100
AcDbLine
 10
68.93645524978637
 20
15.38093137741089
 30
0.0
 11
68.44039964675904
 21
15.38093137741089
 31
0.0
  0
LINE
  5
485
330
1F
100
AcDbEntity
  8
TFR-TRI
  6
Continuous
 62
    18
100
AcDbLine
 10
67.90496873855591
 20
18.71951818466186
 30
0.0
 11
68.72779893875122
 21
18.71951818466186
 31
0.0
  0
LINE
  5
486
330
1F
100
AcDbEntity
  8
TFR-TRI
  6
Continuous
 62
    18
100
AcDbLine
 10
67.90496873855591
 20
18.766761302948
 30
0.0
 11
68.72779893875122
 21
18.766761302948
 31
0.0
  0
LINE
  5
487
330
1F
100
AcDbEntity
  8
TFR-TRI
  6
Continuous
 62
    18
100
AcDbLine
 10
68.72779893875122
 20
18.766761302948
 30
0.0
 11
68.77751970291138
 21
18.766761302948
 31
0.0
  0
LINE
  5
488
330
1F
100
AcDbEntity
  8
TFR-TRI
  6
Continuous
 62
    18
100
AcDbLine
 10
68.77751970291138
 20
18.766761302948
 30
0.0
 11
68.819664478302
 21
18.766761302948
 31
0.0
  0
LINE
  5
489
330
1F
100
AcDbEntity
  8
TFR-TRI
  6
Continuous
 62
    18
100
AcDbLine
 10
68.819664478302
 20
18.766761302948
 30
0.0
 11
68.84783220291137
 21
18.766761302948
 31
0.0
  0
LINE
  5
48A
330
1F
100
AcDbEntity
  8
TFR-TRI
  6
Continuous
 62
    18
100
AcDbLine
 10
68.84783220291137
 20
18.766761302948
 30
0.0
 11
68.85771989822387
 21
18.766761302948
 31
0.0
  0
LINE
  5
48B
330
1F
100
AcDbEntity
  8
TFR-TRI
  6
Continuous
 62
    18
100
AcDbLine
 10
68.85771989822387
 20
18.71951818466186
 30
0.0
 11
68.84783220291137
 21
18.71951818466186
 31
0.0
  0
LINE
  5
48C
330
1F
100
AcDbEntity
  8
TFR-TRI
  6
Continuous
 62
    18
100
AcDbLine
 10
68.84783220291137
 20
18.71951818466186
 30
0.0
 11
68.819664478302
 21
18.71951818466186
 31
0.0
  0
LINE
  5
48D
330
1F
100
AcDbEntity
  8
TFR-TRI
  6
Continuous
 62
    18
100
AcDbLine
 10
68.819664478302
 20
18.71951818466186
 30
0.0
 11
68.77751970291138
 21
18.71951818466186
 31
0.0
  0
LINE
  5
48E
330
1F
100
AcDbEntity
  8
TFR-TRI
  6
Continuous
 62
    18
100
AcDbLine
 10
68.77751970291138
 20
18.71951818466186
 30
0.0
 11
68.72779893875122
 21
18.71951818466186
 31
0.0
  0
LINE
  5
48F
330
1F
100
AcDbEntity
  8
TFR-TRI
  6
Continuous
 62
    18
100
AcDbLine
 10
68.85771989822387
 20
18.766761302948
 30
0.0
 11
68.85771989822387
 21
18.71951818466186
 31
0.0
  0
LINE
  5
490
330
1F
100
AcDbEntity
  8
TFR-TRI
  6
Continuous
 62
    18
100
AcDbLine
 10
68.25040483474731
 20
18.61322164535522
 30
0.0
 11
68.57819414138794
 21
18.61322164535522
 31
0.0
  0
LINE
  5
491
330
1F
100
AcDbEntity
  8
TFR-TRI
  6
Continuous
 62
    18
100
AcDbLine
 10
68.21854448318481
 20
18.66046667098999
 30
0.0
 11
68.57819414138794
 21
18.66046667098999
 31
0.0
  0
LINE
  5
492
330
1F
100
AcDbEntity
  8
TFR-TRI
  6
Continuous
 62
    18
100
AcDbLine
 10
68.57819414138794
 20
18.66046667098999
 30
0.0
 11
68.62790727615356
 21
18.66046667098999
 31
0.0
  0
LINE
  5
493
330
1F
100
AcDbEntity
  8
TFR-TRI
  6
Continuous
 62
    18
100
AcDbLine
 10
68.62790727615356
 20
18.66046667098999
 30
0.0
 11
68.67005968093872
 21
18.66046667098999
 31
0.0
  0
LINE
  5
494
330
1F
100
AcDbEntity
  8
TFR-TRI
  6
Continuous
 62
    18
100
AcDbLine
 10
68.67005968093872
 20
18.66046667098999
 30
0.0
 11
68.69821977615356
 21
18.66046667098999
 31
0.0
  0
LINE
  5
495
330
1F
100
AcDbEntity
  8
TFR-TRI
  6
Continuous
 62
    18
100
AcDbLine
 10
68.69821977615356
 20
18.66046667098999
 30
0.0
 11
68.7081151008606
 21
18.66046667098999
 31
0.0
  0
LINE
  5
496
330
1F
100
AcDbEntity
  8
TFR-TRI
  6
Continuous
 62
    18
100
AcDbLine
 10
68.7081151008606
 20
18.61322164535522
 30
0.0
 11
68.69821977615356
 21
18.61322164535522
 31
0.0
  0
LINE
  5
497
330
1F
100
AcDbEntity
  8
TFR-TRI
  6
Continuous
 62
    18
100
AcDbLine
 10
68.69821977615356
 20
18.61322164535522
 30
0.0
 11
68.67005968093872
 21
18.61322164535522
 31
0.0
  0
LINE
  5
498
330
1F
100
AcDbEntity
  8
TFR-TRI
  6
Continuous
 62
    18
100
AcDbLine
 10
68.67005968093872
 20
18.61322164535522
 30
0.0
 11
68.62790727615356
 21
18.61322164535522
 31
0.0
  0
LINE
  5
499
330
1F
100
AcDbEntity
  8
TFR-TRI
  6
Continuous
 62
    18
100
AcDbLine
 10
68.62790727615356
 20
18.61322164535522
 30
0.0
 11
68.57819414138794
 21
18.61322164535522
 31
0.0
  0
LINE
  5
49A
330
1F
100
AcDbEntity
  8
TFR-TRI
  6
Continuous
 62
    18
100
AcDbLine
 10
68.7081151008606
 20
18.66046667098999
 30
0.0
 11
68.7081151008606
 21
18.61322164535522
 31
0.0
  0
LINE
  5
49B
330
1F
100
AcDbEntity
  8
TFR-TRI
  6
Continuous
 62
    18
100
AcDbLine
 10
67.85771989822388
 20
18.78645086288452
 30
0.0
 11
68.72779893875122
 21
18.78645086288452
 31
0.0
  0
LINE
  5
49C
330
1F
100
AcDbEntity
  8
TFR-TRI
  6
Continuous
 62
    18
100
AcDbLine
 10
67.85771989822388
 20
18.83369398117065
 30
0.0
 11
68.72779893875122
 21
18.83369398117065
 31
0.0
  0
LINE
  5
49D
330
1F
100
AcDbEntity
  8
TFR-TRI
  6
Continuous
 62
    18
100
AcDbLine
 10
67.77897691726685
 20
18.69587850570679
 30
0.0
 11
67.77897691726685
 21
18.75495100021362
 31
0.0
  0
LINE
  5
49E
330
1F
100
AcDbEntity
  8
TFR-TRI
  6
Continuous
 62
    18
100
AcDbLine
 10
67.82622575759887
 20
18.69587850570679
 30
0.0
 11
67.82622575759887
 21
18.75495100021362
 31
0.0
  0
LINE
  5
49F
330
1F
100
AcDbEntity
  8
TFR-TRI
  6
Continuous
 62
    18
100
AcDbLine
 10
68.72779893875122
 20
18.83369398117065
 30
0.0
 11
68.77751970291138
 21
18.83369398117065
 31
0.0
  0
LINE
  5
4A0
330
1F
100
AcDbEntity
  8
TFR-TRI
  6
Continuous
 62
    18
100
AcDbLine
 10
68.77751970291138
 20
18.83369398117065
 30
0.0
 11
68.819664478302
 21
18.83369398117065
 31
0.0
  0
LINE
  5
4A1
330
1F
100
AcDbEntity
  8
TFR-TRI
  6
Continuous
 62
    18
100
AcDbLine
 10
68.819664478302
 20
18.83369398117065
 30
0.0
 11
68.84783220291137
 21
18.83369398117065
 31
0.0
  0
LINE
  5
4A2
330
1F
100
AcDbEntity
  8
TFR-TRI
  6
Continuous
 62
    18
100
AcDbLine
 10
68.84783220291137
 20
18.83369398117065
 30
0.0
 11
68.85771989822387
 21
18.83369398117065
 31
0.0
  0
LINE
  5
4A3
330
1F
100
AcDbEntity
  8
TFR-TRI
  6
Continuous
 62
    18
100
AcDbLine
 10
68.85771989822387
 20
18.78645086288452
 30
0.0
 11
68.84783220291137
 21
18.78645086288452
 31
0.0
  0
LINE
  5
4A4
330
1F
100
AcDbEntity
  8
TFR-TRI
  6
Continuous
 62
    18
100
AcDbLine
 10
68.84783220291137
 20
18.78645086288452
 30
0.0
 11
68.819664478302
 21
18.78645086288452
 31
0.0
  0
LINE
  5
4A5
330
1F
100
AcDbEntity
  8
TFR-TRI
  6
Continuous
 62
    18
100
AcDbLine
 10
68.819664478302
 20
18.78645086288452
 30
0.0
 11
68.77751970291138
 21
18.78645086288452
 31
0.0
  0
LINE
  5
4A6
330
1F
100
AcDbEntity
  8
TFR-TRI
  6
Continuous
 62
    18
100
AcDbLine
 10
68.77751970291138
 20
18.78645086288452
 30
0.0
 11
68.72779893875122
 21
18.78645086288452
 31
0.0
  0
LINE
  5
4A7
330
1F
100
AcDbEntity
  8
TFR-TRI
  6
Continuous
 62
    18
100
AcDbLine
 10
68.85771989822387
 20
18.83369398117065
 30
0.0
 11
68.85771989822387
 21
18.78645086288452
 31
0.0
  0
CIRCLE
  5
4A8
330
1F
100
AcDbEntity
  8
TFR-TRI
  6
Continuous
 62
    18
100
AcDbCircle
 10
5.327619075775146
 20
13.97149038314819
 30
0.0
 40
0.0984251946210861
  0
CIRCLE
  5
4A9
330
1F
100
AcDbEntity
  8
TFR-TRI
  6
Continuous
 62
    18
100
AcDbCircle
 10
5.327619075775146
 20
13.97149038314819
 30
0.0
 40
0.0639763772487641
  0
CIRCLE
  5
4AA
330
1F
100
AcDbEntity
  8
TFR-TRI
  6
Continuous
 62
    18
100
AcDbCircle
 10
5.327619075775146
 20
13.97149038314819
 30
0.0
 40
0.0688976347446442
  0
CIRCLE
  5
4AB
330
1F
100
AcDbEntity
  8
TFR-TRI
  6
Continuous
 62
    18
100
AcDbCircle
 10
54.58353090286255
 20
13.97148656845093
 30
0.0
 40
0.0984251946210861
  0
CIRCLE
  5
4AC
330
1F
100
AcDbEntity
  8
TFR-TRI
  6
Continuous
 62
    18
100
AcDbCircle
 10
54.58353090286255
 20
13.97148656845093
 30
0.0
 40
0.0639763772487641
  0
CIRCLE
  5
4AD
330
1F
100
AcDbEntity
  8
TFR-TRI
  6
Continuous
 62
    18
100
AcDbCircle
 10
54.58353090286255
 20
13.97148656845093
 30
0.0
 40
0.0688976347446442
  0
CIRCLE
  5
4AE
330
1F
100
AcDbEntity
  8
TFR-TRI
  6
Continuous
 62
    18
100
AcDbCircle
 10
5.327619075775146
 20
16.1368441581726
 30
0.0
 40
0.0984251946210861
  0
CIRCLE
  5
4AF
330
1F
100
AcDbEntity
  8
TFR-TRI
  6
Continuous
 62
    18
100
AcDbCircle
 10
5.327619075775146
 20
16.1368441581726
 30
0.0
 40
0.0639763772487641
  0
CIRCLE
  5
4B0
330
1F
100
AcDbEntity
  8
TFR-TRI
  6
Continuous
 62
    18
100
AcDbCircle
 10
5.327619075775146
 20
16.1368441581726
 30
0.0
 40
0.0688976347446442
  0
CIRCLE
  5
4B1
330
1F
100
AcDbEntity
  8
TFR-TRI
  6
Continuous
 62
    18
100
AcDbCircle
 10
5.327619075775146
 20
17.71164655685424
 30
0.0
 40
0.0984251946210861
  0
CIRCLE
  5
4B2
330
1F
100
AcDbEntity
  8
TFR-TRI
  6
Continuous
 62
    18
100
AcDbCircle
 10
5.327619075775146
 20
17.71164655685424
 30
0.0
 40
0.0639763772487641
  0
CIRCLE
  5
4B3
330
1F
100
AcDbEntity
  8
TFR-TRI
  6
Continuous
 62
    18
100
AcDbCircle
 10
5.327619075775146
 20
17.71164655685424
 30
0.0
 40
0.0688976347446442
  0
CIRCLE
  5
4B4
330
1F
100
AcDbEntity
  8
TFR-TRI
  6
Continuous
 62
    18
100
AcDbCircle
 10
54.58353090286255
 20
17.71164274215698
 30
0.0
 40
0.0984251946210861
  0
CIRCLE
  5
4B5
330
1F
100
AcDbEntity
  8
TFR-TRI
  6
Continuous
 62
    18
100
AcDbCircle
 10
54.58353090286255
 20
17.71164274215698
 30
0.0
 40
0.0639763772487641
  0
CIRCLE
  5
4B6
330
1F
100
AcDbEntity
  8
TFR-TRI
  6
Continuous
 62
    18
100
AcDbCircle
 10
54.58353090286255
 20
17.71164274215698
 30
0.0
 40
0.0688976347446442
  0
CIRCLE
  5
4B7
330
1F
100
AcDbEntity
  8
TFR-TRI
  6
Continuous
 62
    18
100
AcDbCircle
 10
54.58353090286255
 20
16.13684034347534
 30
0.0
 40
0.0984251946210861
  0
CIRCLE
  5
4B8
330
1F
100
AcDbEntity
  8
TFR-TRI
  6
Continuous
 62
    18
100
AcDbCircle
 10
54.58353090286255
 20
16.13684034347534
 30
0.0
 40
0.0639763772487641
  0
CIRCLE
  5
4B9
330
1F
100
AcDbEntity
  8
TFR-TRI
  6
Continuous
 62
    18
100
AcDbCircle
 10
54.58353090286255
 20
16.13684034347534
 30
0.0
 40
0.0688976347446442
  0
ARC
  5
4BA
330
1F
100
AcDbEntity
  8
TFR-TRI
  6
Continuous
 62
    18
100
AcDbCircle
 10
52.62525224685669
 20
3.073848247528076
 30
0.0
 40
0.1299212574958801
100
AcDbArc
 50
192.2647731695024
 51
270.0
  0
ARC
  5
4BB
330
1F
100
AcDbEntity
  8
TFR-TRI
  6
Continuous
 62
    18
100
AcDbCircle
 10
55.77644777297973
 20
3.073848247528076
 30
0.0
 40
0.1299212574958801
100
AcDbArc
 50
270.0
 51
0.0
  0
CIRCLE
  5
4BC
330
1F
100
AcDbEntity
  8
TFR-TRI
  6
Continuous
 62
    18
100
AcDbCircle
 10
52.63864946365356
 20
3.101407051086425
 30
0.0
 40
0.078740157186985
  0
CIRCLE
  5
4BD
330
1F
100
AcDbEntity
  8
TFR-TRI
  6
Continuous
 62
    18
100
AcDbCircle
 10
55.74888658523559
 20
3.101407051086425
 30
0.0
 40
0.078740157186985
  0
ARC
  5
4BE
330
1F
100
AcDbEntity
  8
TFR-TRI
  6
Continuous
 62
    18
100
AcDbCircle
 10
51.84730958938598
 20
7.601407527923583
 30
0.0
 40
0.1299212574958801
100
AcDbArc
 50
270.0
 51
0.0
  0
ARC
  5
4BF
330
1F
100
AcDbEntity
  8
TFR-TRI
  6
Continuous
 62
    18
100
AcDbCircle
 10
51.84730958938598
 20
13.68014669418335
 30
0.0
 40
0.1299212574958801
100
AcDbArc
 50
0.0
 51
90.0
  0
ARC
  5
4C0
330
1F
100
AcDbEntity
  8
TFR-TRI
  6
Continuous
 62
    18
100
AcDbCircle
 10
4.134706020355224
 20
3.073852062225341
 30
0.0
 40
0.1299212574958801
100
AcDbArc
 50
180.0
 51
270.0
  0
ARC
  5
4C1
330
1F
100
AcDbEntity
  8
TFR-TRI
  6
Continuous
 62
    18
100
AcDbCircle
 10
7.285899639129638
 20
3.073852062225341
 30
0.0
 40
0.1299212574958801
100
AcDbArc
 50
270.0
 51
347.7352268304976
  0
CIRCLE
  5
4C2
330
1F
100
AcDbEntity
  8
TFR-TRI
  6
Continuous
 62
    18
100
AcDbCircle
 10
7.272501468658447
 20
3.101411342620849
 30
0.0
 40
0.078740157186985
  0
CIRCLE
  5
4C3
330
1F
100
AcDbEntity
  8
TFR-TRI
  6
Continuous
 62
    18
100
AcDbCircle
 10
4.162264823913574
 20
3.101411342620849
 30
0.0
 40
0.078740157186985
  0
ARC
  5
4C4
330
1F
100
AcDbEntity
  8
TFR-TRI
  6
Continuous
 62
    18
100
AcDbCircle
 10
8.063843250274658
 20
13.68015050888061
 30
0.0
 40
0.1299212574958801
100
AcDbArc
 50
90.0
 51
180.0
  0
ARC
  5
4C5
330
1F
100
AcDbEntity
  8
TFR-TRI
  6
Continuous
 62
    18
100
AcDbCircle
 10
8.063843250274658
 20
7.601411342620849
 30
0.0
 40
0.1299212574958801
100
AcDbArc
 50
180.0
 51
270.0
  0
CIRCLE
  5
4C6
330
1F
100
AcDbEntity
  8
TFR-TRI
  6
Continuous
 62
    18
100
AcDbCircle
 10
52.81975221633911
 20
3.499044895172119
 30
0.0
 40
0.078740157186985
  0
CIRCLE
  5
4C7
330
1F
100
AcDbEntity
  8
TFR-TRI
  6
Continuous
 62
    18
100
AcDbCircle
 10
52.81975221633911
 20
18.53841543197632
 30
0.0
 40
0.078740157186985
  0
CIRCLE
  5
4C8
330
1F
100
AcDbEntity
  8
TFR-TRI
  6
Continuous
 62
    18
100
AcDbCircle
 10
56.4811749458313
 20
3.499044895172119
 30
0.0
 40
0.078740157186985
  0
CIRCLE
  5
4C9
330
1F
100
AcDbEntity
  8
TFR-TRI
  6
Continuous
 62
    18
100
AcDbCircle
 10
56.4811749458313
 20
18.53841543197632
 30
0.0
 40
0.078740157186985
  0
ARC
  5
4CA
330
1F
100
AcDbEntity
  8
TFR-TRI
  6
Continuous
 62
    18
100
AcDbCircle
 10
52.74256944656372
 20
18.56597471237182
 30
0.0
 40
0.1299212574958801
100
AcDbArc
 50
90.0
 51
153.434948822922
  0
ARC
  5
4CB
330
1F
100
AcDbEntity
  8
TFR-TRI
  6
Continuous
 62
    18
100
AcDbCircle
 10
52.74256944656372
 20
3.471486091613769
 30
0.0
 40
0.1299212574958801
100
AcDbArc
 50
206.565051177078
 51
270.0
  0
CIRCLE
  5
4CC
330
1F
100
AcDbEntity
  8
TFR-TRI
  6
Continuous
 62
    18
100
AcDbCircle
 10
54.58353090286255
 20
17.71164274215698
 30
0.0
 40
0.1318897604942322
  0
CIRCLE
  5
4CD
330
1F
100
AcDbEntity
  8
TFR-TRI
  6
Continuous
 62
    18
100
AcDbCircle
 10
54.58353090286255
 20
16.13684034347534
 30
0.0
 40
0.1318897604942322
  0
CIRCLE
  5
4CE
330
1F
100
AcDbEntity
  8
TFR-TRI
  6
Continuous
 62
    18
100
AcDbCircle
 10
52.81581544876098
 20
13.38093519210815
 30
0.0
 40
0.0826791301369667
  0
CIRCLE
  5
4CF
330
1F
100
AcDbEntity
  8
TFR-TRI
  6
Continuous
 62
    18
100
AcDbCircle
 10
52.81581544876098
 20
13.38093519210815
 30
0.0
 40
0.1318897604942322
  0
CIRCLE
  5
4D0
330
1F
100
AcDbEntity
  8
TFR-TRI
  6
Continuous
 62
    18
100
AcDbCircle
 10
52.81581544876098
 20
11.8061318397522
 30
0.0
 40
0.0826791301369667
  0
CIRCLE
  5
4D1
330
1F
100
AcDbEntity
  8
TFR-TRI
  6
Continuous
 62
    18
100
AcDbCircle
 10
52.81581544876098
 20
11.8061318397522
 30
0.0
 40
0.1318897604942322
  0
CIRCLE
  5
4D2
330
1F
100
AcDbEntity
  8
TFR-TRI
  6
Continuous
 62
    18
100
AcDbCircle
 10
52.81581544876098
 20
10.23132848739624
 30
0.0
 40
0.0826791301369667
  0
CIRCLE
  5
4D3
330
1F
100
AcDbEntity
  8
TFR-TRI
  6
Continuous
 62
    18
100
AcDbCircle
 10
52.81581544876098
 20
10.23132848739624
 30
0.0
 40
0.1318897604942322
  0
CIRCLE
  5
4D4
330
1F
100
AcDbEntity
  8
TFR-TRI
  6
Continuous
 62
    18
100
AcDbCircle
 10
52.81581544876098
 20
8.656525135040283
 30
0.0
 40
0.0826791301369667
  0
CIRCLE
  5
4D5
330
1F
100
AcDbEntity
  8
TFR-TRI
  6
Continuous
 62
    18
100
AcDbCircle
 10
52.81581544876098
 20
8.656525135040283
 30
0.0
 40
0.1318897604942322
  0
CIRCLE
  5
4D6
330
1F
100
AcDbEntity
  8
TFR-TRI
  6
Continuous
 62
    18
100
AcDbCircle
 10
54.58353090286255
 20
5.900619983673095
 30
0.0
 40
0.0826791301369667
  0
CIRCLE
  5
4D7
330
1F
100
AcDbEntity
  8
TFR-TRI
  6
Continuous
 62
    18
100
AcDbCircle
 10
54.58353090286255
 20
5.900619983673095
 30
0.0
 40
0.1318897604942322
  0
CIRCLE
  5
4D8
330
1F
100
AcDbEntity
  8
TFR-TRI
  6
Continuous
 62
    18
100
AcDbCircle
 10
54.58353090286255
 20
4.325816631317138
 30
0.0
 40
0.0826791301369667
  0
CIRCLE
  5
4D9
330
1F
100
AcDbEntity
  8
TFR-TRI
  6
Continuous
 62
    18
100
AcDbCircle
 10
54.58353090286255
 20
4.325816631317138
 30
0.0
 40
0.1318897604942322
  0
CIRCLE
  5
4DA
330
1F
100
AcDbEntity
  8
TFR-TRI
  6
Continuous
 62
    18
100
AcDbCircle
 10
52.81581544876098
 20
14.83762693405151
 30
0.0
 40
0.0826791301369667
  0
CIRCLE
  5
4DB
330
1F
100
AcDbEntity
  8
TFR-TRI
  6
Continuous
 62
    18
100
AcDbCircle
 10
52.81581544876098
 20
14.83762693405151
 30
0.0
 40
0.1318897604942322
  0
CIRCLE
  5
4DC
330
1F
100
AcDbEntity
  8
TFR-TRI
  6
Continuous
 62
    18
100
AcDbCircle
 10
52.81581544876098
 20
7.199832439422607
 30
0.0
 40
0.0826791301369667
  0
CIRCLE
  5
4DD
330
1F
100
AcDbEntity
  8
TFR-TRI
  6
Continuous
 62
    18
100
AcDbCircle
 10
52.81581544876098
 20
7.199832439422607
 30
0.0
 40
0.1318897604942322
  0
CIRCLE
  5
4DE
330
1F
100
AcDbEntity
  8
TFR-TRI
  6
Continuous
 62
    18
100
AcDbCircle
 10
52.81581544876098
 20
7.199832439422607
 30
0.0
 40
0.0826771631836891
  0
CIRCLE
  5
4DF
330
1F
100
AcDbEntity
  8
TFR-TRI
  6
Continuous
 62
    18
100
AcDbCircle
 10
54.58353090286255
 20
13.97148656845093
 30
0.0
 40
0.1318897604942322
  0
CIRCLE
  5
4E0
330
1F
100
AcDbEntity
  8
TFR-TRI
  6
Continuous
 62
    18
100
AcDbCircle
 10
54.58353090286255
 20
8.065973758697509
 30
0.0
 40
0.0826791301369667
  0
CIRCLE
  5
4E1
330
1F
100
AcDbEntity
  8
TFR-TRI
  6
Continuous
 62
    18
100
AcDbCircle
 10
54.58353090286255
 20
8.065973758697509
 30
0.0
 40
0.1318897604942322
  0
CIRCLE
  5
4E2
330
1F
100
AcDbEntity
  8
TFR-TRI
  6
Continuous
 62
    18
100
AcDbCircle
 10
54.58353090286255
 20
11.01872968673706
 30
0.0
 40
0.0826791301369667
  0
CIRCLE
  5
4E3
330
1F
100
AcDbEntity
  8
TFR-TRI
  6
Continuous
 62
    18
100
AcDbCircle
 10
54.58353090286255
 20
11.01872968673706
 30
0.0
 40
0.1318897604942322
  0
CIRCLE
  5
4E4
330
1F
100
AcDbEntity
  8
TFR-TRI
  6
Continuous
 62
    18
100
AcDbCircle
 10
7.0913987159729
 20
18.53841924667358
 30
0.0
 40
0.078740157186985
  0
CIRCLE
  5
4E5
330
1F
100
AcDbEntity
  8
TFR-TRI
  6
Continuous
 62
    18
100
AcDbCircle
 10
7.0913987159729
 20
3.499049186706542
 30
0.0
 40
0.078740157186985
  0
CIRCLE
  5
4E6
330
1F
100
AcDbEntity
  8
TFR-TRI
  6
Continuous
 62
    18
100
AcDbCircle
 10
3.429977416992187
 20
18.53841924667358
 30
0.0
 40
0.078740157186985
  0
CIRCLE
  5
4E7
330
1F
100
AcDbEntity
  8
TFR-TRI
  6
Continuous
 62
    18
100
AcDbCircle
 10
3.429977416992187
 20
3.499049186706542
 30
0.0
 40
0.078740157186985
  0
ARC
  5
4E8
330
1F
100
AcDbEntity
  8
TFR-TRI
  6
Continuous
 62
    18
100
AcDbCircle
 10
7.168583393096923
 20
3.471489906311035
 30
0.0
 40
0.1299212574958801
100
AcDbArc
 50
270.0
 51
333.434948822922
  0
ARC
  5
4E9
330
1F
100
AcDbEntity
  8
TFR-TRI
  6
Continuous
 62
    18
100
AcDbCircle
 10
7.168583393096923
 20
18.56597852706909
 30
0.0
 40
0.1299212574958801
100
AcDbArc
 50
26.56505117707799
 51
90.0
  0
CIRCLE
  5
4EA
330
1F
100
AcDbEntity
  8
TFR-TRI
  6
Continuous
 62
    18
100
AcDbCircle
 10
5.327619075775146
 20
4.325820446014404
 30
0.0
 40
0.0826791301369667
  0
CIRCLE
  5
4EB
330
1F
100
AcDbEntity
  8
TFR-TRI
  6
Continuous
 62
    18
100
AcDbCircle
 10
5.327619075775146
 20
4.325820446014404
 30
0.0
 40
0.1318897604942322
  0
CIRCLE
  5
4EC
330
1F
100
AcDbEntity
  8
TFR-TRI
  6
Continuous
 62
    18
100
AcDbCircle
 10
5.327619075775146
 20
5.900623798370361
 30
0.0
 40
0.0826791301369667
  0
CIRCLE
  5
4ED
330
1F
100
AcDbEntity
  8
TFR-TRI
  6
Continuous
 62
    18
100
AcDbCircle
 10
5.327619075775146
 20
5.900623798370361
 30
0.0
 40
0.1318897604942322
  0
CIRCLE
  5
4EE
330
1F
100
AcDbEntity
  8
TFR-TRI
  6
Continuous
 62
    18
100
AcDbCircle
 10
7.095335483551025
 20
8.656528949737548
 30
0.0
 40
0.0826791301369667
  0
CIRCLE
  5
4EF
330
1F
100
AcDbEntity
  8
TFR-TRI
  6
Continuous
 62
    18
100
AcDbCircle
 10
7.095335483551025
 20
8.656528949737548
 30
0.0
 40
0.1318897604942322
  0
CIRCLE
  5
4F0
330
1F
100
AcDbEntity
  8
TFR-TRI
  6
Continuous
 62
    18
100
AcDbCircle
 10
7.095335483551025
 20
10.2313323020935
 30
0.0
 40
0.0826791301369667
  0
CIRCLE
  5
4F1
330
1F
100
AcDbEntity
  8
TFR-TRI
  6
Continuous
 62
    18
100
AcDbCircle
 10
7.095335483551025
 20
10.2313323020935
 30
0.0
 40
0.1318897604942322
  0
CIRCLE
  5
4F2
330
1F
100
AcDbEntity
  8
TFR-TRI
  6
Continuous
 62
    18
100
AcDbCircle
 10
7.095335483551025
 20
11.80613565444946
 30
0.0
 40
0.0826791301369667
  0
CIRCLE
  5
4F3
330
1F
100
AcDbEntity
  8
TFR-TRI
  6
Continuous
 62
    18
100
AcDbCircle
 10
7.095335483551025
 20
11.80613565444946
 30
0.0
 40
0.1318897604942322
  0
CIRCLE
  5
4F4
330
1F
100
AcDbEntity
  8
TFR-TRI
  6
Continuous
 62
    18
100
AcDbCircle
 10
7.095335483551025
 20
13.38093900680542
 30
0.0
 40
0.0826791301369667
  0
CIRCLE
  5
4F5
330
1F
100
AcDbEntity
  8
TFR-TRI
  6
Continuous
 62
    18
100
AcDbCircle
 10
7.095335483551025
 20
13.38093900680542
 30
0.0
 40
0.1318897604942322
  0
CIRCLE
  5
4F6
330
1F
100
AcDbEntity
  8
TFR-TRI
  6
Continuous
 62
    18
100
AcDbCircle
 10
5.327619075775146
 20
16.1368441581726
 30
0.0
 40
0.1318897604942322
  0
CIRCLE
  5
4F7
330
1F
100
AcDbEntity
  8
TFR-TRI
  6
Continuous
 62
    18
100
AcDbCircle
 10
5.327619075775146
 20
17.71164655685424
 30
0.0
 40
0.1318897604942322
  0
CIRCLE
  5
4F8
330
1F
100
AcDbEntity
  8
TFR-TRI
  6
Continuous
 62
    18
100
AcDbCircle
 10
7.095335483551025
 20
7.199836254119873
 30
0.0
 40
0.0826791301369667
  0
CIRCLE
  5
4F9
330
1F
100
AcDbEntity
  8
TFR-TRI
  6
Continuous
 62
    18
100
AcDbCircle
 10
7.095335483551025
 20
7.199836254119873
 30
0.0
 40
0.1318897604942322
  0
CIRCLE
  5
4FA
330
1F
100
AcDbEntity
  8
TFR-TRI
  6
Continuous
 62
    18
100
AcDbCircle
 10
7.095335483551025
 20
14.83763074874878
 30
0.0
 40
0.0826791301369667
  0
CIRCLE
  5
4FB
330
1F
100
AcDbEntity
  8
TFR-TRI
  6
Continuous
 62
    18
100
AcDbCircle
 10
7.095335483551025
 20
14.83763074874878
 30
0.0
 40
0.1318897604942322
  0
CIRCLE
  5
4FC
330
1F
100
AcDbEntity
  8
TFR-TRI
  6
Continuous
 62
    18
100
AcDbCircle
 10
7.095335483551025
 20
14.83763074874878
 30
0.0
 40
0.0826771631836891
  0
CIRCLE
  5
4FD
330
1F
100
AcDbEntity
  8
TFR-TRI
  6
Continuous
 62
    18
100
AcDbCircle
 10
5.327619075775146
 20
8.065978527069091
 30
0.0
 40
0.0826791301369667
  0
CIRCLE
  5
4FE
330
1F
100
AcDbEntity
  8
TFR-TRI
  6
Continuous
 62
    18
100
AcDbCircle
 10
5.327619075775146
 20
8.065978527069091
 30
0.0
 40
0.1318897604942322
  0
CIRCLE
  5
4FF
330
1F
100
AcDbEntity
  8
TFR-TRI
  6
Continuous
 62
    18
100
AcDbCircle
 10
5.327619075775146
 20
13.97149038314819
 30
0.0
 40
0.1318897604942322
  0
CIRCLE
  5
500
330
1F
100
AcDbEntity
  8
TFR-TRI
  6
Continuous
 62
    18
100
AcDbCircle
 10
5.327619075775146
 20
11.01873445510864
 30
0.0
 40
0.0826791301369667
  0
CIRCLE
  5
501
330
1F
100
AcDbEntity
  8
TFR-TRI
  6
Continuous
 62
    18
100
AcDbCircle
 10
5.327619075775146
 20
11.01873445510864
 30
0.0
 40
0.1318897604942322
  0
CIRCLE
  5
502
330
1F
100
AcDbEntity
  8
TFR-TRI
  6
Continuous
 62
    18
100
AcDbCircle
 10
16.51659631729126
 20
8.144713878631591
 30
0.0
 40
0.1279527544975281
  0
CIRCLE
  5
503
330
1F
100
AcDbEntity
  8
TFR-TRI
  6
Continuous
 62
    18
100
AcDbCircle
 10
15.05990266799926
 20
5.495108127593994
 30
0.0
 40
0.1279527544975281
  0
CIRCLE
  5
504
330
1F
100
AcDbEntity
  8
TFR-TRI
  6
Continuous
 62
    18
100
AcDbCircle
 10
15.05990266799926
 20
6.991171360015869
 30
0.0
 40
0.1279527544975281
  0
CIRCLE
  5
505
330
1F
100
AcDbEntity
  8
TFR-TRI
  6
Continuous
 62
    18
100
AcDbCircle
 10
8.642579555511474
 20
8.144713878631591
 30
0.0
 40
0.1279527544975281
  0
ARC
  5
506
330
1F
100
AcDbEntity
  8
TFR-TRI
  6
Continuous
 62
    18
100
AcDbCircle
 10
4.201631069183349
 20
3.073848247528076
 30
0.0
 40
0.078740157186985
100
AcDbArc
 50
90.0
 51
217.2375002857819
  0
ARC
  5
507
330
1F
100
AcDbEntity
  8
TFR-TRI
  6
Continuous
 62
    18
100
AcDbCircle
 10
4.201631069183349
 20
3.073848247528076
 30
0.0
 40
0.078740157186985
100
AcDbArc
 50
72.76499982843311
 51
90.0
  0
CIRCLE
  5
508
330
1F
100
AcDbEntity
  8
TFR-TRI
  6
Continuous
 62
    18
100
AcDbCircle
 10
8.642579555511474
 20
8.144713878631591
 30
0.0
 40
0.0984251946210861
  0
CIRCLE
  5
509
330
1F
100
AcDbEntity
  8
TFR-TRI
  6
Continuous
 62
    18
100
AcDbCircle
 10
15.05990266799926
 20
5.495108127593994
 30
0.0
 40
0.0984251946210861
  0
CIRCLE
  5
50A
330
1F
100
AcDbEntity
  8
TFR-TRI
  6
Continuous
 62
    18
100
AcDbCircle
 10
15.05990266799926
 20
6.991171360015869
 30
0.0
 40
0.0984251946210861
  0
CIRCLE
  5
50B
330
1F
100
AcDbEntity
  8
TFR-TRI
  6
Continuous
 62
    18
100
AcDbCircle
 10
16.51659631729126
 20
8.144713878631591
 30
0.0
 40
0.0984251946210861
  0
CIRCLE
  5
50C
330
1F
100
AcDbEntity
  8
TFR-TRI
  6
Continuous
 62
    18
100
AcDbCircle
 10
51.26856279373169
 20
8.144713878631591
 30
0.0
 40
0.1279527544975281
  0
CIRCLE
  5
50D
330
1F
100
AcDbEntity
  8
TFR-TRI
  6
Continuous
 62
    18
100
AcDbCircle
 10
44.85124254226684
 20
5.495108127593994
 30
0.0
 40
0.1279527544975281
  0
CIRCLE
  5
50E
330
1F
100
AcDbEntity
  8
TFR-TRI
  6
Continuous
 62
    18
100
AcDbCircle
 10
43.39454698562621
 20
8.144713878631591
 30
0.0
 40
0.1279527544975281
  0
CIRCLE
  5
50F
330
1F
100
AcDbEntity
  8
TFR-TRI
  6
Continuous
 62
    18
100
AcDbCircle
 10
44.85124254226684
 20
6.991171360015869
 30
0.0
 40
0.1279527544975281
  0
CIRCLE
  5
510
330
1F
100
AcDbEntity
  8
TFR-TRI
  6
Continuous
 62
    18
100
AcDbCircle
 10
43.39454698562621
 20
8.144713878631591
 30
0.0
 40
0.0984251946210861
  0
CIRCLE
  5
511
330
1F
100
AcDbEntity
  8
TFR-TRI
  6
Continuous
 62
    18
100
AcDbCircle
 10
44.85124254226684
 20
5.495108127593994
 30
0.0
 40
0.0984251946210861
  0
CIRCLE
  5
512
330
1F
100
AcDbEntity
  8
TFR-TRI
  6
Continuous
 62
    18
100
AcDbCircle
 10
44.85124254226684
 20
6.991171360015869
 30
0.0
 40
0.0984251946210861
  0
CIRCLE
  5
513
330
1F
100
AcDbEntity
  8
TFR-TRI
  6
Continuous
 62
    18
100
AcDbCircle
 10
51.26856279373169
 20
8.144713878631591
 30
0.0
 40
0.0984251946210861
  0
ARC
  5
514
330
1F
100
AcDbEntity
  8
TFR-TRI
  6
Continuous
 62
    18
100
AcDbCircle
 10
55.70951128005981
 20
3.073848247528076
 30
0.0
 40
0.078740157186985
100
AcDbArc
 50
90.0
 51
107.2237494295085
  0
ARC
  5
515
330
1F
100
AcDbEntity
  8
TFR-TRI
  6
Continuous
 62
    18
100
AcDbCircle
 10
55.70951128005981
 20
3.073848247528076
 30
0.0
 40
0.078740157186985
100
AcDbArc
 50
322.7568742835899
 51
90.0
  0
CIRCLE
  5
516
330
1F
100
AcDbEntity
  8
TFR-TRI
  6
Continuous
 62
    18
100
AcDbCircle
 10
14.86699342727661
 20
16.57384824752807
 30
0.0
 40
0.1279527544975281
  0
CIRCLE
  5
517
330
1F
100
AcDbEntity
  8
TFR-TRI
  6
Continuous
 62
    18
100
AcDbCircle
 10
14.86699342727661
 20
18.06991147994995
 30
0.0
 40
0.1279527544975281
  0
CIRCLE
  5
518
330
1F
100
AcDbEntity
  8
TFR-TRI
  6
Continuous
 62
    18
100
AcDbCircle
 10
16.50085115432739
 20
15.4203085899353
 30
0.0
 40
0.1279527544975281
  0
CIRCLE
  5
519
330
1F
100
AcDbEntity
  8
TFR-TRI
  6
Continuous
 62
    18
100
AcDbCircle
 10
8.626835346221923
 20
15.4203085899353
 30
0.0
 40
0.1279527544975281
  0
CIRCLE
  5
51A
330
1F
100
AcDbEntity
  8
TFR-TRI
  6
Continuous
 62
    18
100
AcDbCircle
 10
16.50085115432739
 20
15.4203085899353
 30
0.0
 40
0.0984251946210861
  0
CIRCLE
  5
51B
330
1F
100
AcDbEntity
  8
TFR-TRI
  6
Continuous
 62
    18
100
AcDbCircle
 10
8.626835346221923
 20
15.4203085899353
 30
0.0
 40
0.0984251946210861
  0
CIRCLE
  5
51C
330
1F
100
AcDbEntity
  8
TFR-TRI
  6
Continuous
 62
    18
100
AcDbCircle
 10
14.86699342727661
 20
18.06991147994995
 30
0.0
 40
0.0984251946210861
  0
CIRCLE
  5
51D
330
1F
100
AcDbEntity
  8
TFR-TRI
  6
Continuous
 62
    18
100
AcDbCircle
 10
14.86699342727661
 20
16.57384824752807
 30
0.0
 40
0.0984251946210861
  0
CIRCLE
  5
51E
330
1F
100
AcDbEntity
  8
TFR-TRI
  6
Continuous
 62
    18
100
AcDbCircle
 10
45.04415941238403
 20
16.57384824752807
 30
0.0
 40
0.1279527544975281
  0
CIRCLE
  5
51F
330
1F
100
AcDbEntity
  8
TFR-TRI
  6
Continuous
 62
    18
100
AcDbCircle
 10
45.04415941238403
 20
18.06991147994995
 30
0.0
 40
0.1279527544975281
  0
CIRCLE
  5
520
330
1F
100
AcDbEntity
  8
TFR-TRI
  6
Continuous
 62
    18
100
AcDbCircle
 10
51.28431749343872
 20
15.42030477523804
 30
0.0
 40
0.1279527544975281
  0
CIRCLE
  5
521
330
1F
100
AcDbEntity
  8
TFR-TRI
  6
Continuous
 62
    18
100
AcDbCircle
 10
43.41030168533325
 20
15.42030477523804
 30
0.0
 40
0.1279527544975281
  0
CIRCLE
  5
522
330
1F
100
AcDbEntity
  8
TFR-TRI
  6
Continuous
 62
    18
100
AcDbCircle
 10
51.28431749343872
 20
15.42030477523804
 30
0.0
 40
0.0984251946210861
  0
CIRCLE
  5
523
330
1F
100
AcDbEntity
  8
TFR-TRI
  6
Continuous
 62
    18
100
AcDbCircle
 10
43.41030168533325
 20
15.42030477523804
 30
0.0
 40
0.0984251946210861
  0
CIRCLE
  5
524
330
1F
100
AcDbEntity
  8
TFR-TRI
  6
Continuous
 62
    18
100
AcDbCircle
 10
45.04415941238403
 20
18.06991147994995
 30
0.0
 40
0.0984251946210861
  0
CIRCLE
  5
525
330
1F
100
AcDbEntity
  8
TFR-TRI
  6
Continuous
 62
    18
100
AcDbCircle
 10
45.04415941238403
 20
16.57384824752807
 30
0.0
 40
0.0984251946210861
  0
CIRCLE
  5
526
330
1F
100
AcDbEntity
  8
TFR-TRI
  6
Continuous
 62
    18
100
AcDbCircle
 10
30.74297761917114
 20
15.42030477523804
 30
0.0
 40
0.1279527544975281
  0
CIRCLE
  5
527
330
1F
100
AcDbEntity
  8
TFR-TRI
  6
Continuous
 62
    18
100
AcDbCircle
 10
29.95557451248169
 20
18.06991147994995
 30
0.0
 40
0.1279527544975281
  0
CIRCLE
  5
528
330
1F
100
AcDbEntity
  8
TFR-TRI
  6
Continuous
 62
    18
100
AcDbCircle
 10
29.1681752204895
 20
15.42030477523804
 30
0.0
 40
0.1279527544975281
  0
CIRCLE
  5
529
330
1F
100
AcDbEntity
  8
TFR-TRI
  6
Continuous
 62
    18
100
AcDbCircle
 10
29.95557451248169
 20
16.57384824752807
 30
0.0
 40
0.1279527544975281
  0
CIRCLE
  5
52A
330
1F
100
AcDbEntity
  8
TFR-TRI
  6
Continuous
 62
    18
100
AcDbCircle
 10
41.60911989212036
 20
18.58960103988647
 30
0.0
 40
0.078740157186985
  0
CIRCLE
  5
52B
330
1F
100
AcDbEntity
  8
TFR-TRI
  6
Continuous
 62
    18
100
AcDbCircle
 10
41.60911989212036
 20
14.39668226242065
 30
0.0
 40
0.078740157186985
  0
CIRCLE
  5
52C
330
1F
100
AcDbEntity
  8
TFR-TRI
  6
Continuous
 62
    18
100
AcDbCircle
 10
18.30203294754028
 20
18.58960103988647
 30
0.0
 40
0.078740157186985
  0
CIRCLE
  5
52D
330
1F
100
AcDbEntity
  8
TFR-TRI
  6
Continuous
 62
    18
100
AcDbCircle
 10
18.30203294754028
 20
14.39668226242065
 30
0.0
 40
0.078740157186985
  0
CIRCLE
  5
52E
330
1F
100
AcDbEntity
  8
TFR-TRI
  6
Continuous
 62
    18
100
AcDbCircle
 10
30.74297761917114
 20
15.42030477523804
 30
0.0
 40
0.0984251946210861
  0
CIRCLE
  5
52F
330
1F
100
AcDbEntity
  8
TFR-TRI
  6
Continuous
 62
    18
100
AcDbCircle
 10
29.95557451248169
 20
18.06991147994995
 30
0.0
 40
0.0984251946210861
  0
CIRCLE
  5
530
330
1F
100
AcDbEntity
  8
TFR-TRI
  6
Continuous
 62
    18
100
AcDbCircle
 10
29.95557451248169
 20
16.57384824752807
 30
0.0
 40
0.0984251946210861
  0
CIRCLE
  5
531
330
1F
100
AcDbEntity
  8
TFR-TRI
  6
Continuous
 62
    18
100
AcDbCircle
 10
29.1681752204895
 20
15.42030477523804
 30
0.0
 40
0.0984251946210861
  0
ARC
  5
532
330
1F
100
AcDbEntity
  8
TFR-TRI
  6
Continuous
 62
    18
100
AcDbCircle
 10
18.27447366714477
 20
14.36912298202514
 30
0.0
 40
0.1299212574958801
100
AcDbArc
 50
180.0
 51
270.0
  0
ARC
  5
533
330
1F
100
AcDbEntity
  8
TFR-TRI
  6
Continuous
 62
    18
100
AcDbCircle
 10
41.63667726516723
 20
14.36912298202514
 30
0.0
 40
0.1299212574958801
100
AcDbArc
 50
270.0
 51
0.0
  0
CIRCLE
  5
534
330
1F
100
AcDbEntity
  8
TFR-TRI
  6
Continuous
 62
    18
100
AcDbCircle
 10
29.16817140579224
 20
8.144713878631591
 30
0.0
 40
0.1279527544975281
  0
CIRCLE
  5
535
330
1F
100
AcDbEntity
  8
TFR-TRI
  6
Continuous
 62
    18
100
AcDbCircle
 10
29.95557069778442
 20
5.495108127593994
 30
0.0
 40
0.1279527544975281
  0
CIRCLE
  5
536
330
1F
100
AcDbEntity
  8
TFR-TRI
  6
Continuous
 62
    18
100
AcDbCircle
 10
30.74297380447388
 20
8.144713878631591
 30
0.0
 40
0.1279527544975281
  0
CIRCLE
  5
537
330
1F
100
AcDbEntity
  8
TFR-TRI
  6
Continuous
 62
    18
100
AcDbCircle
 10
29.95557069778442
 20
6.991171360015869
 30
0.0
 40
0.1279527544975281
  0
CIRCLE
  5
538
330
1F
100
AcDbEntity
  8
TFR-TRI
  6
Continuous
 62
    18
100
AcDbCircle
 10
18.30202913284302
 20
4.97541856765747
 30
0.0
 40
0.078740157186985
  0
CIRCLE
  5
539
330
1F
100
AcDbEntity
  8
TFR-TRI
  6
Continuous
 62
    18
100
AcDbCircle
 10
18.30202913284302
 20
9.168336391448974
 30
0.0
 40
0.078740157186985
  0
CIRCLE
  5
53A
330
1F
100
AcDbEntity
  8
TFR-TRI
  6
Continuous
 62
    18
100
AcDbCircle
 10
41.60911607742309
 20
4.97541856765747
 30
0.0
 40
0.078740157186985
  0
CIRCLE
  5
53B
330
1F
100
AcDbEntity
  8
TFR-TRI
  6
Continuous
 62
    18
100
AcDbCircle
 10
41.60911607742309
 20
9.168336391448974
 30
0.0
 40
0.078740157186985
  0
CIRCLE
  5
53C
330
1F
100
AcDbEntity
  8
TFR-TRI
  6
Continuous
 62
    18
100
AcDbCircle
 10
29.16817140579224
 20
8.144713878631591
 30
0.0
 40
0.0984251946210861
  0
CIRCLE
  5
53D
330
1F
100
AcDbEntity
  8
TFR-TRI
  6
Continuous
 62
    18
100
AcDbCircle
 10
29.95557069778442
 20
5.495108127593994
 30
0.0
 40
0.0984251946210861
  0
CIRCLE
  5
53E
330
1F
100
AcDbEntity
  8
TFR-TRI
  6
Continuous
 62
    18
100
AcDbCircle
 10
29.95557069778442
 20
6.991171360015869
 30
0.0
 40
0.0984251946210861
  0
CIRCLE
  5
53F
330
1F
100
AcDbEntity
  8
TFR-TRI
  6
Continuous
 62
    18
100
AcDbCircle
 10
30.74297380447388
 20
8.144713878631591
 30
0.0
 40
0.0984251946210861
  0
ARC
  5
540
330
1F
100
AcDbEntity
  8
TFR-TRI
  6
Continuous
 62
    18
100
AcDbCircle
 10
41.63667345046997
 20
9.195895671844482
 30
0.0
 40
0.1299212574958801
100
AcDbArc
 50
0.0
 51
90.0
  0
ARC
  5
541
330
1F
100
AcDbEntity
  8
TFR-TRI
  6
Continuous
 62
    18
100
AcDbCircle
 10
18.27446985244751
 20
9.195895671844482
 30
0.0
 40
0.1299212574958801
100
AcDbArc
 50
90.0
 51
180.0
  0
ARC
  5
542
330
1F
100
AcDbEntity
  8
TFR-TRI
  6
Continuous
 62
    18
100
AcDbCircle
 10
55.92211580276489
 20
28.73755979537964
 30
0.0
 40
0.0315000005066395
100
AcDbArc
 50
270.0
 51
0.0
  0
ARC
  5
543
330
1F
100
AcDbEntity
  8
TFR-TRI
  6
Continuous
 62
    18
100
AcDbCircle
 10
55.92211580276489
 20
28.73755979537964
 30
0.0
 40
0.0944921225309372
100
AcDbArc
 50
329.9976568312913
 51
0.0
  0
ARC
  5
544
330
1F
100
AcDbEntity
  8
TFR-TRI
  6
Continuous
 62
    18
100
AcDbCircle
 10
51.53628969192505
 20
28.07613706588745
 30
0.0
 40
0.0315000005066395
100
AcDbArc
 50
180.0
 51
270.0
  0
ARC
  5
545
330
1F
100
AcDbEntity
  8
TFR-TRI
  6
Continuous
 62
    18
100
AcDbCircle
 10
51.53628969192505
 20
28.61156606674195
 30
0.0
 40
0.0315000005066395
100
AcDbArc
 50
90.0
 51
180.0
  0
ARC
  5
546
330
1F
100
AcDbEntity
  8
TFR-TRI
  6
Continuous
 62
    18
100
AcDbCircle
 10
51.53628969192505
 20
28.61156606674195
 30
0.0
 40
0.0944921225309372
100
AcDbArc
 50
160.5262493797147
 51
180.0
  0
ARC
  5
547
330
1F
100
AcDbEntity
  8
TFR-TRI
  6
Continuous
 62
    18
100
AcDbCircle
 10
51.53628969192505
 20
28.07613706588745
 30
0.0
 40
0.0944921225309372
100
AcDbArc
 50
180.0
 51
270.0
  0
ARC
  5
548
330
1F
100
AcDbEntity
  8
TFR-TRI
  6
Continuous
 62
    18
100
AcDbCircle
 10
3.989036560058593
 20
28.73755979537964
 30
0.0
 40
0.0944921225309372
100
AcDbArc
 50
180.0
 51
210.0023431687087
  0
ARC
  5
549
330
1F
100
AcDbEntity
  8
TFR-TRI
  6
Continuous
 62
    18
100
AcDbCircle
 10
3.989036560058593
 20
28.73755979537964
 30
0.0
 40
0.0315000005066395
100
AcDbArc
 50
180.0
 51
270.0
  0
ARC
  5
54A
330
1F
100
AcDbEntity
  8
TFR-TRI
  6
Continuous
 62
    18
100
AcDbCircle
 10
8.374863147735595
 20
28.07613706588745
 30
0.0
 40
0.0944921225309372
100
AcDbArc
 50
270.0
 51
0.0
  0
ARC
  5
54B
330
1F
100
AcDbEntity
  8
TFR-TRI
  6
Continuous
 62
    18
100
AcDbCircle
 10
8.374863147735595
 20
28.61156606674195
 30
0.0
 40
0.0944921225309372
100
AcDbArc
 50
0.0
 51
19.47375062028526
  0
ARC
  5
54C
330
1F
100
AcDbEntity
  8
TFR-TRI
  6
Continuous
 62
    18
100
AcDbCircle
 10
8.374863147735595
 20
28.61156606674195
 30
0.0
 40
0.0315000005066395
100
AcDbArc
 50
0.0
 51
90.0
  0
ARC
  5
54D
330
1F
100
AcDbEntity
  8
TFR-TRI
  6
Continuous
 62
    18
100
AcDbCircle
 10
8.374863147735595
 20
28.07613706588745
 30
0.0
 40
0.0315000005066395
100
AcDbArc
 50
270.0
 51
0.0
  0
ARC
  5
54E
330
1F
100
AcDbEntity
  8
TFR-TRI
  6
Continuous
 62
    18
100
AcDbCircle
 10
56.64652299880981
 20
28.67456388473511
 30
0.0
 40
0.0944921225309372
100
AcDbArc
 50
270.0
 51
0.0
  0
ARC
  5
54F
330
1F
100
AcDbEntity
  8
TFR-TRI
  6
Continuous
 62
    18
100
AcDbCircle
 10
56.64652299880981
 20
28.67456388473511
 30
0.0
 40
0.0315000005066395
100
AcDbArc
 50
270.0
 51
0.0
  0
ARC
  5
550
330
1F
100
AcDbEntity
  8
TFR-TRI
  6
Continuous
 62
    18
100
AcDbCircle
 10
51.67802095413208
 20
28.54857397079468
 30
0.0
 40
0.0315000005066395
100
AcDbArc
 50
90.0
 51
180.0
  0
ARC
  5
551
330
1F
100
AcDbEntity
  8
TFR-TRI
  6
Continuous
 62
    18
100
AcDbCircle
 10
51.67802095413208
 20
28.54857397079468
 30
0.0
 40
0.0944921225309372
100
AcDbArc
 50
90.0
 51
180.0
  0
ARC
  5
552
330
1F
100
AcDbEntity
  8
TFR-TRI
  6
Continuous
 62
    18
100
AcDbCircle
 10
3.26462697982788
 20
28.67456388473511
 30
0.0
 40
0.0315000005066395
100
AcDbArc
 50
180.0
 51
270.0
  0
ARC
  5
553
330
1F
100
AcDbEntity
  8
TFR-TRI
  6
Continuous
 62
    18
100
AcDbCircle
 10
3.26462697982788
 20
28.67456388473511
 30
0.0
 40
0.0944921225309372
100
AcDbArc
 50
180.0
 51
270.0
  0
ARC
  5
554
330
1F
100
AcDbEntity
  8
TFR-TRI
  6
Continuous
 62
    18
100
AcDbCircle
 10
8.233130931854248
 20
28.54857397079468
 30
0.0
 40
0.0944921225309372
100
AcDbArc
 50
0.0
 51
90.0
  0
ARC
  5
555
330
1F
100
AcDbEntity
  8
TFR-TRI
  6
Continuous
 62
    18
100
AcDbCircle
 10
8.233130931854248
 20
28.54857397079468
 30
0.0
 40
0.0315000005066395
100
AcDbArc
 50
0.0
 51
90.0
  0
ARC
  5
556
330
1F
100
AcDbEntity
  8
TFR-TRI
  6
Continuous
 62
    18
100
AcDbCircle
 10
4.831555843353271
 20
30.06432676315308
 30
0.0
 40
0.1299212574958801
100
AcDbArc
 50
0.0
 51
90.0
  0
ARC
  5
557
330
1F
100
AcDbEntity
  8
TFR-TRI
  6
Continuous
 62
    18
100
AcDbCircle
 10
4.166202068328857
 20
30.06432676315308
 30
0.0
 40
0.1299212574958801
100
AcDbArc
 50
90.0
 51
180.0
  0
ARC
  5
558
330
1F
100
AcDbEntity
  8
TFR-TRI
  6
Continuous
 62
    18
100
AcDbCircle
 10
4.410296440124511
 20
29.7414927482605
 30
0.0
 40
0.125984251499176
100
AcDbArc
 50
0.0
 51
180.0
  0
ARC
  5
559
330
1F
100
AcDbEntity
  8
TFR-TRI
  6
Continuous
 62
    18
100
AcDbCircle
 10
4.410296440124511
 20
29.64306592941284
 30
0.0
 40
0.125984251499176
100
AcDbArc
 50
180.0
 51
0.0
  0
ARC
  5
55A
330
1F
100
AcDbEntity
  8
TFR-TRI
  6
Continuous
 62
    18
100
AcDbCircle
 10
4.036280632019042
 20
28.78480100631714
 30
0.0
 40
0.0315000005066395
100
AcDbArc
 50
180.0
 51
270.0
  0
ARC
  5
55B
330
1F
100
AcDbEntity
  8
TFR-TRI
  6
Continuous
 62
    18
100
AcDbCircle
 10
4.036280632019042
 20
28.78480100631714
 30
0.0
 40
0.0787440910935402
100
AcDbArc
 50
180.0
 51
270.0
  0
ARC
  5
55C
330
1F
100
AcDbEntity
  8
TFR-TRI
  6
Continuous
 62
    18
100
AcDbCircle
 10
20.24494218826294
 20
29.60763120651245
 30
0.0
 40
0.1299212574958801
100
AcDbArc
 50
31.0078114427905
 51
90.0
  0
ARC
  5
55D
330
1F
100
AcDbEntity
  8
TFR-TRI
  6
Continuous
 62
    18
100
AcDbCircle
 10
7.709509372711181
 20
29.60763120651245
 30
0.0
 40
0.1299212574958801
100
AcDbArc
 50
90.0
 51
148.9921885572094
  0
ARC
  5
55E
330
1F
100
AcDbEntity
  8
TFR-TRI
  6
Continuous
 62
    18
100
AcDbCircle
 10
55.07958650588989
 20
30.06432676315308
 30
0.0
 40
0.1299212574958801
100
AcDbArc
 50
90.0
 51
180.0
  0
ARC
  5
55F
330
1F
100
AcDbEntity
  8
TFR-TRI
  6
Continuous
 62
    18
100
AcDbCircle
 10
55.74494218826294
 20
30.06432676315308
 30
0.0
 40
0.1299212574958801
100
AcDbArc
 50
0.0
 51
90.0
  0
ARC
  5
560
330
1F
100
AcDbEntity
  8
TFR-TRI
  6
Continuous
 62
    18
100
AcDbCircle
 10
55.50084733963013
 20
29.7414927482605
 30
0.0
 40
0.125984251499176
100
AcDbArc
 50
0.0
 51
180.0
  0
ARC
  5
561
330
1F
100
AcDbEntity
  8
TFR-TRI
  6
Continuous
 62
    18
100
AcDbCircle
 10
55.50084733963013
 20
29.64306592941284
 30
0.0
 40
0.125984251499176
100
AcDbArc
 50
180.0
 51
0.0
  0
ARC
  5
562
330
1F
100
AcDbEntity
  8
TFR-TRI
  6
Continuous
 62
    18
100
AcDbCircle
 10
55.8748631477356
 20
28.78480100631714
 30
0.0
 40
0.0787440910935402
100
AcDbArc
 50
270.0
 51
0.0
  0
ARC
  5
563
330
1F
100
AcDbEntity
  8
TFR-TRI
  6
Continuous
 62
    18
100
AcDbCircle
 10
55.8748631477356
 20
28.78480100631714
 30
0.0
 40
0.0315000005066395
100
AcDbArc
 50
270.0
 51
0.0
  0
ARC
  5
564
330
1F
100
AcDbEntity
  8
TFR-TRI
  6
Continuous
 62
    18
100
AcDbCircle
 10
39.66620302200317
 20
29.60763120651245
 30
0.0
 40
0.1299212574958801
100
AcDbArc
 50
90.0
 51
148.9921885572094
  0
ARC
  5
565
330
1F
100
AcDbEntity
  8
TFR-TRI
  6
Continuous
 62
    18
100
AcDbCircle
 10
52.2016339302063
 20
29.60763120651245
 30
0.0
 40
0.1299212574958801
100
AcDbArc
 50
31.0078114427905
 51
90.0
  0
ARC
  5
566
330
1F
100
AcDbEntity
  8
TFR-TRI
  6
Continuous
 62
    18
100
AcDbCircle
 10
3.843370914459228
 20
28.72180891036988
 30
0.0
 40
0.0315000005066395
100
AcDbArc
 50
180.0
 51
270.0
  0
ARC
  5
567
330
1F
100
AcDbEntity
  8
TFR-TRI
  6
Continuous
 62
    18
100
AcDbCircle
 10
3.843370914459228
 20
28.72180891036988
 30
0.0
 40
0.0787440910935402
100
AcDbArc
 50
180.0
 51
270.0
  0
ARC
  5
568
330
1F
100
AcDbEntity
  8
TFR-TRI
  6
Continuous
 62
    18
100
AcDbCircle
 10
4.760694026947021
 20
29.54463911056519
 30
0.0
 40
0.1299212574958801
100
AcDbArc
 50
90.0
 51
180.0
  0
ARC
  5
569
330
1F
100
AcDbEntity
  8
TFR-TRI
  6
Continuous
 62
    18
100
AcDbCircle
 10
56.06778001785278
 20
28.72180891036988
 30
0.0
 40
0.0787440910935402
100
AcDbArc
 50
270.0
 51
0.0
  0
ARC
  5
56A
330
1F
100
AcDbEntity
  8
TFR-TRI
  6
Continuous
 62
    18
100
AcDbCircle
 10
56.06778001785278
 20
28.72180891036988
 30
0.0
 40
0.0315000005066395
100
AcDbArc
 50
270.0
 51
0.0
  0
ARC
  5
56B
330
1F
100
AcDbEntity
  8
TFR-TRI
  6
Continuous
 62
    18
100
AcDbCircle
 10
55.15045595169067
 20
29.54463911056519
 30
0.0
 40
0.1299212574958801
100
AcDbArc
 50
0.0
 51
90.0
  0
ARC
  5
56C
330
1F
100
AcDbEntity
  8
TFR-TRI
  6
Continuous
 62
    18
100
AcDbCircle
 10
18.27447366714477
 20
29.54463911056519
 30
0.0
 40
0.1299212574958801
100
AcDbArc
 50
90.0
 51
180.0
  0
ARC
  5
56D
330
1F
100
AcDbEntity
  8
TFR-TRI
  6
Continuous
 62
    18
100
AcDbCircle
 10
41.63667726516723
 20
29.54463911056519
 30
0.0
 40
0.1299212574958801
100
AcDbArc
 50
0.0
 51
90.0
  0
ARC
  5
56E
330
1F
100
AcDbEntity
  8
TFR-TRI
  6
Continuous
 62
    18
100
AcDbCircle
 10
68.56638383865356
 20
7.219517230987548
 30
0.0
 40
0.125984251499176
100
AcDbArc
 50
90.0
 51
270.0
  0
ARC
  5
56F
330
1F
100
AcDbEntity
  8
TFR-TRI
  6
Continuous
 62
    18
100
AcDbCircle
 10
69.06243944168091
 20
7.219517230987548
 30
0.0
 40
0.125984251499176
100
AcDbArc
 50
270.0
 51
90.0
  0
ARC
  5
570
330
1F
100
AcDbEntity
  8
TFR-TRI
  6
Continuous
 62
    18
100
AcDbCircle
 10
69.06243944168091
 20
14.0620379447937
 30
0.0
 40
0.125984251499176
100
AcDbArc
 50
270.0
 51
90.0
  0
ARC
  5
571
330
1F
100
AcDbEntity
  8
TFR-TRI
  6
Continuous
 62
    18
100
AcDbCircle
 10
68.56638383865356
 20
14.0620379447937
 30
0.0
 40
0.125984251499176
100
AcDbArc
 50
90.0
 51
270.0
  0
ARC
  5
572
330
1F
100
AcDbEntity
  8
TFR-TRI
  6
Continuous
 62
    18
100
AcDbCircle
 10
69.24748277664185
 20
14.266761302948
 30
0.0
 40
0.1299212574958801
100
AcDbArc
 50
0.0
 51
90.0
  0
ARC
  5
573
330
1F
100
AcDbEntity
  8
TFR-TRI
  6
Continuous
 62
    18
100
AcDbCircle
 10
69.24748277664185
 20
7.014792919158935
 30
0.0
 40
0.1299212574958801
100
AcDbArc
 50
270.0
 51
0.0
  0
ARC
  5
574
330
1F
100
AcDbEntity
  8
TFR-TRI
  6
Continuous
 62
    18
100
AcDbCircle
 10
68.99157762527465
 20
12.80613088607788
 30
0.0
 40
0.2952755987644195
100
AcDbArc
 50
270.0
 51
90.0
  0
ARC
  5
575
330
1F
100
AcDbEntity
  8
TFR-TRI
  6
Continuous
 62
    18
100
AcDbCircle
 10
68.49551439285278
 20
12.80613088607788
 30
0.0
 40
0.2952755987644195
100
AcDbArc
 50
216.8690631743272
 51
270.0
  0
ARC
  5
576
330
1F
100
AcDbEntity
  8
TFR-TRI
  6
Continuous
 62
    18
100
AcDbCircle
 10
68.49551439285278
 20
12.80613088607788
 30
0.0
 40
0.2952755987644195
100
AcDbArc
 50
90.0
 51
143.1309368256728
  0
ARC
  5
577
330
1F
100
AcDbEntity
  8
TFR-TRI
  6
Continuous
 62
    18
100
AcDbCircle
 10
68.99157762527465
 20
8.475423336029052
 30
0.0
 40
0.2952755987644195
100
AcDbArc
 50
270.0
 51
90.0
  0
ARC
  5
578
330
1F
100
AcDbEntity
  8
TFR-TRI
  6
Continuous
 62
    18
100
AcDbCircle
 10
68.49551439285278
 20
8.475423336029052
 30
0.0
 40
0.2952755987644195
100
AcDbArc
 50
216.8690631743272
 51
270.0
  0
ARC
  5
579
330
1F
100
AcDbEntity
  8
TFR-TRI
  6
Continuous
 62
    18
100
AcDbCircle
 10
68.49551439285278
 20
8.475423336029052
 30
0.0
 40
0.2952755987644195
100
AcDbArc
 50
90.0
 51
143.1309368256728
  0
ARC
  5
57A
330
1F
100
AcDbEntity
  8
TFR-TRI
  6
Continuous
 62
    18
100
AcDbCircle
 10
68.99157762527465
 20
12.80613470077514
 30
0.0
 40
0.2952755987644195
100
AcDbArc
 50
270.0
 51
0.2868749900110447
  0
ARC
  5
57B
330
1F
100
AcDbEntity
  8
TFR-TRI
  6
Continuous
 62
    18
100
AcDbCircle
 10
68.12937211990356
 20
18.56597471237182
 30
0.0
 40
0.1299212574958801
100
AcDbArc
 50
0.0
 51
90.0
  0
ARC
  5
57C
330
1F
100
AcDbEntity
  8
TFR-TRI
  6
Continuous
 62
    18
100
AcDbCircle
 10
68.12937211990356
 20
3.471486091613769
 30
0.0
 40
0.1299212574958801
100
AcDbArc
 50
270.0
 51
0.0
  0
ARC
  5
57D
330
1F
100
AcDbEntity
  8
TFR-TRI
  6
Continuous
 62
    18
100
AcDbCircle
 10
67.46008348464965
 20
5.439989566802978
 30
0.0
 40
0.1299212574958801
100
AcDbArc
 50
180.0
 51
270.0
  0
ARC
  5
57E
330
1F
100
AcDbEntity
  8
TFR-TRI
  6
Continuous
 62
    18
100
AcDbCircle
 10
67.46008348464965
 20
16.59747076034546
 30
0.0
 40
0.1299212574958801
100
AcDbArc
 50
90.0
 51
180.0
  0
ARC
  5
57F
330
1F
100
AcDbEntity
  8
TFR-TRI
  6
Continuous
 62
    18
100
AcDbCircle
 10
68.12937211990356
 20
18.56597852706909
 30
0.0
 40
0.1299212574958801
100
AcDbArc
 50
0.0
 51
21.32437532722748
  0
ARC
  5
580
330
1F
100
AcDbEntity
  8
TFR-TRI
  6
Continuous
 62
    18
100
AcDbCircle
 10
68.12937211990356
 20
18.56597852706909
 30
0.0
 40
0.1299212574958801
100
AcDbArc
 50
46.65796889822375
 51
90.0
  0
ARC
  5
581
330
1F
100
AcDbEntity
  8
TFR-TRI
  6
Continuous
 62
    18
100
AcDbCircle
 10
67.46008348464965
 20
16.59747457504272
 30
0.0
 40
0.1299212574958801
100
AcDbArc
 50
90.0
 51
180.0
  0
ARC
  5
582
330
1F
100
AcDbEntity
  8
TFR-TRI
  6
Continuous
 62
    18
100
AcDbCircle
 10
68.76716661453247
 20
7.219521045684814
 30
0.0
 40
0.125984251499176
100
AcDbArc
 50
90.0
 51
270.0
  0
ARC
  5
583
330
1F
100
AcDbEntity
  8
TFR-TRI
  6
Continuous
 62
    18
100
AcDbCircle
 10
69.06243944168091
 20
7.219521045684814
 30
0.0
 40
0.125984251499176
100
AcDbArc
 50
270.0
 51
0.0
  0
ARC
  5
584
330
1F
100
AcDbEntity
  8
TFR-TRI
  6
Continuous
 62
    18
100
AcDbCircle
 10
69.24748277664185
 20
3.038419246673583
 30
0.0
 40
0.1299212574958801
100
AcDbArc
 50
270.0
 51
0.0
  0
ARC
  5
585
330
1F
100
AcDbEntity
  8
TFR-TRI
  6
Continuous
 62
    18
100
AcDbCircle
 10
67.96795701980591
 20
2.908497810363769
 30
0.0
 40
0.0315000005066395
100
AcDbArc
 50
180.0
 51
270.0
  0
ARC
  5
586
330
1F
100
AcDbEntity
  8
TFR-TRI
  6
Continuous
 62
    18
100
AcDbCircle
 10
67.96795701980591
 20
2.908497810363769
 30
0.0
 40
0.0787440910935402
100
AcDbArc
 50
180.0
 51
270.0
  0
ARC
  5
587
330
1F
100
AcDbEntity
  8
TFR-TRI
  6
Continuous
 62
    18
100
AcDbCircle
 10
68.93645524978637
 20
15.50691938400268
 30
0.0
 40
0.125984251499176
100
AcDbArc
 50
270.0
 51
0.0112499998180266
  0
ARC
  5
588
330
1F
100
AcDbEntity
  8
TFR-TRI
  6
Continuous
 62
    18
100
AcDbCircle
 10
67.90496873855591
 20
18.68802213668823
 30
0.0
 40
0.0787440910935402
100
AcDbArc
 50
90.0
 51
174.2610934605222
  0
ARC
  5
589
330
1F
100
AcDbEntity
  8
TFR-TRI
  6
Continuous
 62
    18
100
AcDbCircle
 10
69.20024156570434
 20
15.09353017807007
 30
0.0
 40
0.1299212574958801
100
AcDbArc
 50
270.0
 51
0.0
  0
ARC
  5
58A
330
1F
100
AcDbEntity
  8
TFR-TRI
  6
Continuous
 62
    18
100
AcDbCircle
 10
69.20024156570434
 20
18.40061521530151
 30
0.0
 40
0.1299212574958801
100
AcDbArc
 50
0.0
 51
90.0
  0
ARC
  5
58B
330
1F
100
AcDbEntity
  8
TFR-TRI
  6
Continuous
 62
    18
100
AcDbCircle
 10
68.93645524978637
 20
17.86911916732788
 30
0.0
 40
0.125984251499176
100
AcDbArc
 50
270.0
 51
90.0
  0
ARC
  5
58C
330
1F
100
AcDbEntity
  8
TFR-TRI
  6
Continuous
 62
    18
100
AcDbCircle
 10
68.44039964675904
 20
17.86911916732788
 30
0.0
 40
0.125984251499176
100
AcDbArc
 50
90.0
 51
270.0
  0
ARC
  5
58D
330
1F
100
AcDbEntity
  8
TFR-TRI
  6
Continuous
 62
    18
100
AcDbCircle
 10
68.44039964675904
 20
15.50691556930542
 30
0.0
 40
0.125984251499176
100
AcDbArc
 50
90.0
 51
270.0
  0
ARC
  5
58E
330
1F
100
AcDbEntity
  8
TFR-TRI
  6
Continuous
 62
    18
100
AcDbCircle
 10
68.93645524978637
 20
15.50691556930542
 30
0.0
 40
0.125984251499176
100
AcDbArc
 50
270.0
 51
90.0
  0
ARC
  5
58F
330
1F
100
AcDbEntity
  8
TFR-TRI
  6
Continuous
 62
    18
100
AcDbCircle
 10
67.90496873855591
 20
18.68801832199096
 30
0.0
 40
0.0787440910935402
100
AcDbArc
 50
90.0
 51
174.2568748569794
  0
ARC
  5
590
330
1F
100
AcDbEntity
  8
TFR-TRI
  6
Continuous
 62
    18
100
AcDbCircle
 10
67.90496873855591
 20
18.68801832199096
 30
0.0
 40
0.0315000005066395
100
AcDbArc
 50
90.0
 51
165.5156258786633
  0
ARC
  5
591
330
1F
100
AcDbEntity
  8
TFR-TRI
  6
Continuous
 62
    18
100
AcDbCircle
 10
67.85771989822388
 20
18.75495100021362
 30
0.0
 40
0.0787440910935402
100
AcDbArc
 50
90.0
 51
180.0
  0
ARC
  5
592
330
1F
100
AcDbEntity
  8
TFR-TRI
  6
Continuous
 62
    18
100
AcDbCircle
 10
67.85771989822388
 20
18.75495100021362
 30
0.0
 40
0.0315000005066395
100
AcDbArc
 50
90.0
 51
180.0
  0
ENDSEC
  0
SECTION
  2
OBJECTS
  0
DICTIONARY
  5
C
330
0
100
AcDbDictionary
281
     1
  3
ACAD_BACKGROUND
350
607
  3
ACAD_CIP_PREVIOUS_PRODUCT_INFO
350
606
  3
ACAD_COLOR
350
5EE
  3
ACAD_GROUP
350
D
  3
ACAD_LAYOUT
350
1A
  3
ACAD_MATERIAL
350
3B
  3
ACAD_MLEADERSTYLE
350
5E2
  3
ACAD_MLINESTYLE
350
17
  3
ACAD_PLOTSETTINGS
350
19
  3
ACAD_PLOTSTYLENAME
350
E
  3
ACAD_SCALELIST
350
5F0
  3
ACAD_TABLESTYLE
350
5E1
  3
ACAD_VISUALSTYLE
350
2A
  3
ACDB_RECOMPOSE_DATA
350
680
  3
AcDbVariableDictionary
350
673
  3
DWGPROPS
350
681
  0
DICTIONARY
  5
60A
330
10
100
AcDbDictionary
280
     1
281
     1
  3
ADSK_XREC_LAYER_RECONCILED
360
60B
  0
DICTIONARY
  5
60C
330
46
100
AcDbDictionary
280
     1
281
     1
  3
ADSK_XREC_LAYER_RECONCILED
360
60D
  0
DICTIONARY
  5
607
102
{ACAD_REACTORS
330
C
102
}
330
C
100
AcDbDictionary
281
     1
  0
XRECORD
  5
606
102
{ACAD_REACTORS
330
C
102
}
330
C
100
AcDbXrecord
280
     1
300
ACD
300
2012
300
85730ACD_2012_0F
  0
DICTIONARY
  5
5EE
102
{ACAD_REACTORS
330
C
102
}
330
C
100
AcDbDictionary
281
     1
  0
DICTIONARY
  5
D
102
{ACAD_REACTORS
330
C
102
}
330
C
100
AcDbDictionary
281
     1
  0
DICTIONARY
  5
1A
102
{ACAD_REACTORS
330
C
102
}
330
C
100
AcDbDictionary
281
     1
  3
Layout1
350
1E
  3
Layout2
350
26
  3
Model
350
22
  0
DICTIONARY
  5
3B
102
{ACAD_REACTORS
330
C
102
}
330
C
100
AcDbDictionary
281
     1
  3
BYBLOCK
350
3D
  3
BYLAYER
350
3C
  3
Global
350
3E
  0
DICTIONARY
  5
5E2
102
{ACAD_REACTORS
330
C
102
}
330
C
100
AcDbDictionary
281
     1
  3
Standard
350
602
  0
DICTIONARY
  5
17
102
{ACAD_REACTORS
330
C
102
}
330
C
100
AcDbDictionary
281
     1
  3
Standard
350
18
  0
DICTIONARY
  5
19
102
{ACAD_REACTORS
330
C
102
}
330
C
100
AcDbDictionary
281
     1
  0
ACDBDICTIONARYWDFLT
  5
E
102
{ACAD_REACTORS
330
C
102
}
330
C
100
AcDbDictionary
281
     1
  3
Normal
350
F
100
AcDbDictionaryWithDefault
340
F
  0
DICTIONARY
  5
5F0
102
{ACAD_REACTORS
330
C
102
}
330
C
100
AcDbDictionary
281
     1
  3
A0
350
5F1
  3
A1
350
5F2
  3
A2
350
5F3
  3
A3
350
5F4
  3
A4
350
5F5
  3
A5
350
5F6
  3
A6
350
5F7
  3
A7
350
5F8
  3
A8
350
5F9
  3
A9
350
5FA
  3
B0
350
5FB
  3
B1
350
5FC
  3
B2
350
5FD
  3
B3
350
5FE
  3
B4
350
5FF
  3
B5
350
600
  3
B6
350
601
  0
DICTIONARY
  5
5E1
102
{ACAD_REACTORS
330
C
102
}
330
C
100
AcDbDictionary
281
     1
  3
Standard
350
5EF
  0
DICTIONARY
  5
2A
102
{ACAD_REACTORS
330
C
102
}
330
C
100
AcDbDictionary
281
     1
  3
2dWireframe
350
2F
  3
3D Hidden
350
31
  3
3dWireframe
350
30
  3
Basic
350
32
  3
Brighten
350
36
  3
ColorChange
350
3A
  3
Conceptual
350
34
  3
Dim
350
35
  3
EdgeColorOff
350
5ED
  3
Facepattern
350
39
  3
Flat
350
2B
  3
FlatWithEdges
350
2C
  3
Gouraud
350
2D
  3
GouraudWithEdges
350
2E
  3
Hidden
350
5E5
  3
JitterOff
350
5EB
  3
Linepattern
350
38
  3
OverhangOff
350
5EC
  3
Realistic
350
33
  3
Shaded
350
5EA
  3
Shaded with edges
350
5E9
  3
Shades of Gray
350
5E6
  3
Sketchy
350
5E7
  3
Thicken
350
37
  3
Wireframe
350
5E4
  3
X-Ray
350
5E8
  0
XRECORD
  5
680
102
{ACAD_REACTORS
330
C
102
}
330
C
100
AcDbXrecord
280
     1
 90
        1
330
5EF
  0
DICTIONARY
  5
673
102
{ACAD_REACTORS
330
C
102
}
330
C
100
AcDbDictionary
281
     1
  3
CANNOSCALE
350
676
  3
CMLEADERSTYLE
350
675
  3
CTABLESTYLE
350
674
  3
DIMASSOC
350
67B
  3
HIDETEXT
350
679
  3
INDEXCTL
350
678
  3
SORTENTS
350
677
  3
XCLIPFRAME
350
67A
  0
XRECORD
  5
681
102
{ACAD_REACTORS
330
C
102
}
330
C
100
AcDbXrecord
280
     1
  1
DWGPROPS COOKIE
  2

  3

  4

  6

  7

  8
erk
  9

300
=
301
=
302
=
303
=
304
=
305
=
306
=
307
=
308
=
309
=
 40
0.0006257523148148
 41
2456668.449916945
 42
2456668.450993761
  1

 90
        0
  0
XRECORD
  5
60B
102
{ACAD_REACTORS
330
60A
102
}
330
60A
100
AcDbXrecord
280
     1
290
     1
  0
XRECORD
  5
60D
102
{ACAD_REACTORS
330
60C
102
}
330
60C
100
AcDbXrecord
280
     1
290
     1
  0
LAYOUT
  5
1E
102
{ACAD_XDICTIONARY
360
682
102
}
102
{ACAD_REACTORS
330
1A
102
}
330
1A
100
AcDbPlotSettings
  1

  2
none_device
  4

  6

 40
0.0
 41
0.0
 42
0.0
 43
0.0
 44
0.0
 45
0.0
 46
0.0
 47
0.0
 48
0.0
 49
0.0
140
0.0
141
0.0
142
1.0
143
1.0
 70
   688
 72
     0
 73
     0
 74
     5
  7

 75
    16
147
1.0
148
0.0
149
0.0
100
AcDbLayout
  1
Layout1
 70
     1
 71
     1
 10
-0.5
 20
-0.5
 11
5.0
 21
5.0
 12
0.0
 22
0.0
 32
0.0
 14
-0.5
 24
-0.5
 34
-0.5
 15
5.0
 25
5.0
 35
5.0
146
0.0
 13
0.0
 23
0.0
 33
0.0
 16
1.0
 26
0.0
 36
0.0
 17
0.0
 27
1.0
 37
0.0
 76
     0
330
1B
  0
LAYOUT
  5
26
102
{ACAD_XDICTIONARY
360
686
102
}
102
{ACAD_REACTORS
330
1A
102
}
330
1A
100
AcDbPlotSettings
  1

  2
none_device
  4

  6

 40
0.0
 41
0.0
 42
0.0
 43
0.0
 44
0.0
 45
0.0
 46
0.0
 47
0.0
 48
0.0
 49
0.0
140
0.0
141
0.0
142
1.0
143
1.0
 70
   688
 72
     0
 73
     0
 74
     5
  7

 75
    16
147
1.0
148
0.0
149
0.0
100
AcDbLayout
  1
Layout2
 70
     1
 71
     2
 10
0.0
 20
0.0
 11
0.0
 21
0.0
 12
0.0
 22
0.0
 32
0.0
 14
0.0
 24
0.0
 34
0.0
 15
0.0
 25
0.0
 35
0.0
146
0.0
 13
0.0
 23
0.0
 33
0.0
 16
1.0
 26
0.0
 36
0.0
 17
0.0
 27
1.0
 37
0.0
 76
     0
330
23
  0
LAYOUT
  5
22
102
{ACAD_XDICTIONARY
360
684
102
}
102
{ACAD_REACTORS
330
1A
102
}
330
1A
100
AcDbPlotSettings
  1

  2
none_device
  4

  6

 40
0.0
 41
0.0
 42
0.0
 43
0.0
 44
0.0
 45
0.0
 46
0.0
 47
0.0
 48
0.0
 49
0.0
140
0.0
141
0.0
142
1.0
143
1.0
 70
  1712
 72
     0
 73
     0
 74
     0
  7

 75
     0
147
1.0
148
0.0
149
0.0
100
AcDbLayout
  1
Model
 70
     1
 71
     0
 10
-0.5
 20
-0.5
 11
5.0
 21
5.0
 12
0.0
 22
0.0
 32
0.0
 14
-0.5
 24
-0.5
 34
-0.5
 15
5.0
 25
5.0
 35
5.0
146
0.0
 13
0.0
 23
0.0
 33
0.0
 16
1.0
 26
0.0
 36
0.0
 17
0.0
 27
1.0
 37
0.0
 76
     0
330
1F
331
59B
  0
MATERIAL
  5
3D
102
{ACAD_XDICTIONARY
360
6AA
102
}
102
{ACAD_REACTORS
330
3B
102
}
330
3B
100
AcDbMaterial
  1
BYBLOCK
 73
     1
 78
     1
172
     1
176
     1
270
     1
274
     1
  0
MATERIAL
  5
3C
102
{ACAD_XDICTIONARY
360
6A8
102
}
102
{ACAD_REACTORS
330
3B
102
}
330
3B
100
AcDbMaterial
  1
BYLAYER
 73
     1
 78
     1
172
     1
176
     1
270
     1
274
     1
  0
MATERIAL
  5
3E
102
{ACAD_XDICTIONARY
360
6AC
102
}
102
{ACAD_REACTORS
330
3B
102
}
330
3B
100
AcDbMaterial
  1
Global
 73
     1
 78
     1
172
     1
176
     1
270
     1
274
     1
  0
MLEADERSTYLE
  5
602
102
{ACAD_XDICTIONARY
360
67E
102
}
102
{ACAD_REACTORS
330
5E2
102
}
330
5E2
100
AcDbMLeaderStyle
170
     2
171
     1
172
     0
 90
        2
 40
0.0
 41
0.0
173
     1
 91
-1056964608
340
14
 92
       -2
290
     1
 42
0.09
291
     1
 43
0.36
  3
Standard
 44
0.18
300

342
11
174
     1
178
     6
175
     1
176
     0
 93
-1056964608
 45
0.18
292
     0
297
     0
 46
0.18
 94
-1056964608
 47
1.0
 49
1.0
140
1.0
293
     1
141
0.0
294
     1
177
     0
142
1.0
295
     0
296
     0
143
0.125
1001
ACAD_MLEADERVER
1070
     2
  0
MLINESTYLE
  5
18
102
{ACAD_REACTORS
330
17
102
}
330
17
100
AcDbMlineStyle
  2
STANDARD
 70
     0
  3

 62
   256
 51
90.0
 52
90.0
 71
     2
 49
0.5
 62
   256
  6
BYLAYER
 49
-0.5
 62
   256
  6
BYLAYER
  0
ACDBPLACEHOLDER
  5
F
102
{ACAD_REACTORS
330
E
102
}
330
E
  0
SCALE
  5
5F1
102
{ACAD_REACTORS
330
5F0
102
}
330
5F0
100
AcDbScale
 70
     0
300
1:1
140
1.0
141
1.0
290
     1
  0
SCALE
  5
5F2
102
{ACAD_REACTORS
330
5F0
102
}
330
5F0
100
AcDbScale
 70
     0
300
1/128" = 1'-0"
140
0.0078125
141
12.0
290
     0
  0
SCALE
  5
5F3
102
{ACAD_REACTORS
330
5F0
102
}
330
5F0
100
AcDbScale
 70
     0
300
1/64" = 1'-0"
140
0.015625
141
12.0
290
     0
  0
SCALE
  5
5F4
102
{ACAD_REACTORS
330
5F0
102
}
330
5F0
100
AcDbScale
 70
     0
300
1/32" = 1'-0"
140
0.03125
141
12.0
290
     0
  0
SCALE
  5
5F5
102
{ACAD_REACTORS
330
5F0
102
}
330
5F0
100
AcDbScale
 70
     0
300
1/16" = 1'-0"
140
0.0625
141
12.0
290
     0
  0
SCALE
  5
5F6
102
{ACAD_REACTORS
330
5F0
102
}
330
5F0
100
AcDbScale
 70
     0
300
3/32" = 1'-0"
140
0.09375
141
12.0
290
     0
  0
SCALE
  5
5F7
102
{ACAD_REACTORS
330
5F0
102
}
330
5F0
100
AcDbScale
 70
     0
300
1/8" = 1'-0"
140
0.125
141
12.0
290
     0
  0
SCALE
  5
5F8
102
{ACAD_REACTORS
330
5F0
102
}
330
5F0
100
AcDbScale
 70
     0
300
3/16" = 1'-0"
140
0.1875
141
12.0
290
     0
  0
SCALE
  5
5F9
102
{ACAD_REACTORS
330
5F0
102
}
330
5F0
100
AcDbScale
 70
     0
300
1/4" = 1'-0"
140
0.25
141
12.0
290
     0
  0
SCALE
  5
5FA
102
{ACAD_REACTORS
330
5F0
102
}
330
5F0
100
AcDbScale
 70
     0
300
3/8" = 1'-0"
140
0.375
141
12.0
290
     0
  0
SCALE
  5
5FB
102
{ACAD_REACTORS
330
5F0
102
}
330
5F0
100
AcDbScale
 70
     0
300
1/2" = 1'-0"
140
0.5
141
12.0
290
     0
  0
SCALE
  5
5FC
102
{ACAD_REACTORS
330
5F0
102
}
330
5F0
100
AcDbScale
 70
     0
300
3/4" = 1'-0"
140
0.75
141
12.0
290
     0
  0
SCALE
  5
5FD
102
{ACAD_REACTORS
330
5F0
102
}
330
5F0
100
AcDbScale
 70
     0
300
1" = 1'-0"
140
1.0
141
12.0
290
     0
  0
SCALE
  5
5FE
102
{ACAD_REACTORS
330
5F0
102
}
330
5F0
100
AcDbScale
 70
     0
300
1-1/2" = 1'-0"
140
1.5
141
12.0
290
     0
  0
SCALE
  5
5FF
102
{ACAD_REACTORS
330
5F0
102
}
330
5F0
100
AcDbScale
 70
     0
300
3" = 1'-0"
140
3.0
141
12.0
290
     0
  0
SCALE
  5
600
102
{ACAD_REACTORS
330
5F0
102
}
330
5F0
100
AcDbScale
 70
     0
300
6" = 1'-0"
140
6.0
141
12.0
290
     0
  0
SCALE
  5
601
102
{ACAD_REACTORS
330
5F0
102
}
330
5F0
100
AcDbScale
 70
     0
300
1'-0" = 1'-0"
140
12.0
141
12.0
290
     0
  0
TABLESTYLE
  5
5EF
102
{ACAD_XDICTIONARY
360
67C
102
}
102
{ACAD_REACTORS
330
5E1
102
}
330
5E1
100
AcDbTableStyle
  3
Standard
 70
     0
 71
     0
 40
0.06
 41
0.06
280
     0
281
     0
  7
Standard
140
0.18
170
     2
 62
     0
 63
     7
283
     0
274
    -2
284
     1
 64
     0
275
    -2
285
     1
 65
     0
276
    -2
286
     1
 66
     0
277
    -2
287
     1
 67
     0
278
    -2
288
     1
 68
     0
279
    -2
289
     1
 69
     0
  7
Standard
140
0.25
170
     5
 62
     0
 63
     7
283
     0
274
    -2
284
     1
 64
     0
275
    -2
285
     1
 65
     0
276
    -2
286
     1
 66
     0
277
    -2
287
     1
 67
     0
278
    -2
288
     1
 68
     0
279
    -2
289
     1
 69
     0
  7
Standard
140
0.18
170
     5
 62
     0
 63
     7
283
     0
274
    -2
284
     1
 64
     0
275
    -2
285
     1
 65
     0
276
    -2
286
     1
 66
     0
277
    -2
287
     1
 67
     0
278
    -2
288
     1
 68
     0
279
    -2
289
     1
 69
     0
  0
VISUALSTYLE
  5
2F
102
{ACAD_XDICTIONARY
360
690
102
}
102
{ACAD_REACTORS
330
2A
102
}
330
2A
100
AcDbVisualStyle
  2
2dWireframe
 70
     4
 71
     0
 72
     2
 73
     0
 90
        0
 40
-0.6
 41
-30.0
 62
     5
 63
     7
 74
     1
 91
        4
 64
     7
 65
   257
 75
     1
175
     1
 42
1.0
 92
        0
 66
   257
 43
1.0
 76
     1
 77
     6
 78
     2
 67
     7
 79
     5
170
     0
171
     0
290
     0
174
     0
 93
        1
 44
0.0
173
     0
291
     0
 45
0.0
1001
ACAD
1000
AcDbSavedByObjectVersion
1070
     0
  0
VISUALSTYLE
  5
31
102
{ACAD_XDICTIONARY
360
694
102
}
102
{ACAD_REACTORS
330
2A
102
}
330
2A
100
AcDbVisualStyle
  2
3D Hidden
 70
     6
 71
     1
 72
     2
 73
     2
 90
        0
 40
-0.6
 41
-30.0
 62
     5
 63
     7
 74
     2
 91
        2
 64
     7
 65
   257
 75
     2
175
     1
 42
40.0
 92
        0
 66
   257
 43
1.0
 76
     1
 77
     6
 78
     2
 67
     7
 79
     3
170
     0
171
     0
290
     0
174
     0
 93
        1
 44
0.0
173
     0
291
     0
 45
0.0
1001
ACAD
1000
AcDbSavedByObjectVersion
1070
     0
  0
VISUALSTYLE
  5
30
102
{ACAD_XDICTIONARY
360
692
102
}
102
{ACAD_REACTORS
330
2A
102
}
330
2A
100
AcDbVisualStyle
  2
3dWireframe
 70
     5
 71
     0
 72
     2
 73
     0
 90
        0
 40
-0.6
 41
-30.0
 62
     5
 63
     7
 74
     1
 91
        4
 64
     7
 65
   257
 75
     1
175
     1
 42
1.0
 92
        0
 66
   257
 43
1.0
 76
     1
 77
     6
 78
     2
 67
     7
 79
     5
170
     0
171
     0
290
     0
174
     0
 93
        1
 44
0.0
173
     0
291
     0
 45
0.0
1001
ACAD
1000
AcDbSavedByObjectVersion
1070
     0
  0
VISUALSTYLE
  5
32
102
{ACAD_XDICTIONARY
360
696
102
}
102
{ACAD_REACTORS
330
2A
102
}
330
2A
100
AcDbVisualStyle
  2
Basic
 70
     7
 71
     1
 72
     0
 73
     1
 90
        0
 40
-0.6
 41
-30.0
 62
     5
 63
     7
 74
     0
 91
        4
 64
     7
 65
   257
 75
     1
175
     1
 42
1.0
 92
        8
 66
     7
 43
1.0
 76
     1
 77
     6
 78
     2
 67
     7
 79
     5
170
     0
171
     0
290
     0
174
     0
 93
        1
 44
0.0
173
     0
291
     1
 45
0.0
1001
ACAD
1000
AcDbSavedByObjectVersion
1070
     0
  0
VISUALSTYLE
  5
36
102
{ACAD_XDICTIONARY
360
69E
102
}
102
{ACAD_REACTORS
330
2A
102
}
330
2A
100
AcDbVisualStyle
  2
Brighten
 70
    12
 71
     2
 72
     2
 73
     0
 90
        0
 40
-0.6
 41
-30.0
 62
     5
 63
     7
 74
     1
 91
        4
 64
     7
 65
   257
 75
     1
175
     1
 42
1.0
 92
        8
 66
     7
 43
1.0
 76
     1
 77
     6
 78
     2
 67
     7
 79
     5
170
     0
171
     0
290
     0
174
     0
 93
        1
 44
50.0
173
     0
291
     1
 45
0.0
1001
ACAD
1000
AcDbSavedByObjectVersion
1070
     0
  0
VISUALSTYLE
  5
3A
102
{ACAD_XDICTIONARY
360
6A6
102
}
102
{ACAD_REACTORS
330
2A
102
}
330
2A
100
AcDbVisualStyle
  2
ColorChange
 70
    16
 71
     2
 72
     2
 73
     3
 90
        0
 40
-0.6
 41
-30.0
 62
     5
 63
     8
 74
     1
 91
        4
 64
     7
 65
   257
 75
     1
175
     1
 42
1.0
 92
        8
 66
     8
 43
1.0
 76
     1
 77
     6
 78
     2
 67
     7
 79
     5
170
     0
171
     0
290
     0
174
     0
 93
        1
 44
0.0
173
     0
291
     1
 45
0.0
1001
ACAD
1000
AcDbSavedByObjectVersion
1070
     0
  0
VISUALSTYLE
  5
34
102
{ACAD_XDICTIONARY
360
69A
102
}
102
{ACAD_REACTORS
330
2A
102
}
330
2A
100
AcDbVisualStyle
  2
Conceptual
 70
     9
 71
     3
 72
     2
 73
     0
 90
        0
 40
-0.6
 41
-30.0
 62
     5
 63
     7
 74
     2
 91
        2
 64
     7
 65
   257
 75
     1
175
     1
 42
40.0
 92
        8
 66
     7
 43
1.0
 76
     1
 77
     6
 78
     2
 67
     7
 79
     3
170
     0
171
     0
290
     0
174
     0
 93
        1
 44
0.0
173
     0
291
     0
 45
0.0
1001
ACAD
1000
AcDbSavedByObjectVersion
1070
     0
  0
VISUALSTYLE
  5
35
102
{ACAD_XDICTIONARY
360
69C
102
}
102
{ACAD_REACTORS
330
2A
102
}
330
2A
100
AcDbVisualStyle
  2
Dim
 70
    11
 71
     2
 72
     2
 73
     0
 90
        0
 40
-0.6
 41
-30.0
 62
     5
 63
     7
 74
     1
 91
        4
 64
     7
 65
   257
 75
     1
175
     1
 42
1.0
 92
        8
 66
     7
 43
1.0
 76
     1
 77
     6
 78
     2
 67
     7
 79
     5
170
     0
171
     0
290
     0
174
     0
 93
        1
 44
-50.0
173
     0
291
     1
 45
0.0
1001
ACAD
1000
AcDbSavedByObjectVersion
1070
     0
  0
VISUALSTYLE
  5
5ED
102
{ACAD_XDICTIONARY
360
6C0
102
}
102
{ACAD_REACTORS
330
2A
102
}
330
2A
100
AcDbVisualStyle
  2
EdgeColorOff
 70
    22
 71
     2
 72
     2
 73
     0
 90
        0
 40
-0.6
 41
-30.0
 62
     5
 63
     7
 74
     1
 91
        4
 64
     7
 65
   257
 75
     1
175
     1
 42
1.0
 92
        8
 66
     7
 43
1.0
 76
     1
 77
     6
 78
     2
 67
     7
 79
     5
170
     0
171
     0
290
     0
174
     0
 93
        1
 44
0.0
173
     0
291
     1
 45
0.0
1001
ACAD
1000
AcDbSavedByObjectVersion
1070
     0
  0
VISUALSTYLE
  5
39
102
{ACAD_XDICTIONARY
360
6A4
102
}
102
{ACAD_REACTORS
330
2A
102
}
330
2A
100
AcDbVisualStyle
  2
Facepattern
 70
    15
 71
     2
 72
     2
 73
     0
 90
        0
 40
-0.6
 41
-30.0
 62
     5
 63
     7
 74
     1
 91
        4
 64
     7
 65
   257
 75
     1
175
     1
 42
1.0
 92
        8
 66
     7
 43
1.0
 76
     1
 77
     6
 78
     2
 67
     7
 79
     5
170
     0
171
     0
290
     0
174
     0
 93
        1
 44
0.0
173
     0
291
     1
 45
0.0
1001
ACAD
1000
AcDbSavedByObjectVersion
1070
     0
  0
VISUALSTYLE
  5
2B
102
{ACAD_XDICTIONARY
360
688
102
}
102
{ACAD_REACTORS
330
2A
102
}
330
2A
100
AcDbVisualStyle
  2
Flat
 70
     0
 71
     2
 72
     1
 73
     1
 90
        2
 40
-0.6
 41
30.0
 62
     5
 63
     7
 74
     0
 91
        4
 64
     7
 65
   257
 75
     1
175
     1
 42
1.0
 92
        8
 66
     7
 43
1.0
 76
     1
 77
     6
 78
     2
 67
     7
 79
     5
170
     0
171
     0
290
     0
174
     0
 93
       13
 44
0.0
173
     0
291
     1
 45
0.0
1001
ACAD
1000
AcDbSavedByObjectVersion
1070
     0
  0
VISUALSTYLE
  5
2C
102
{ACAD_XDICTIONARY
360
68A
102
}
102
{ACAD_REACTORS
330
2A
102
}
330
2A
100
AcDbVisualStyle
  2
FlatWithEdges
 70
     1
 71
     2
 72
     1
 73
     1
 90
        2
 40
-0.6
 41
30.0
 62
     5
 63
     7
 74
     1
 91
        4
 64
     7
 65
   257
 75
     1
175
     1
 42
1.0
 92
        0
 66
   257
 43
1.0
 76
     1
 77
     6
 78
     2
 67
     7
 79
     5
170
     0
171
     0
290
     0
174
     0
 93
       13
 44
0.0
173
     0
291
     1
 45
0.0
1001
ACAD
1000
AcDbSavedByObjectVersion
1070
     0
  0
VISUALSTYLE
  5
2D
102
{ACAD_XDICTIONARY
360
68C
102
}
102
{ACAD_REACTORS
330
2A
102
}
330
2A
100
AcDbVisualStyle
  2
Gouraud
 70
     2
 71
     2
 72
     2
 73
     1
 90
        2
 40
-0.6
 41
30.0
 62
     5
 63
     7
 74
     0
 91
        4
 64
     7
 65
   257
 75
     1
175
     1
 42
1.0
 92
        0
 66
     7
 43
1.0
 76
     1
 77
     6
 78
     2
 67
     7
 79
     5
170
     0
171
     0
290
     0
174
     0
 93
       13
 44
0.0
173
     0
291
     1
 45
0.0
1001
ACAD
1000
AcDbSavedByObjectVersion
1070
     0
  0
VISUALSTYLE
  5
2E
102
{ACAD_XDICTIONARY
360
68E
102
}
102
{ACAD_REACTORS
330
2A
102
}
330
2A
100
AcDbVisualStyle
  2
GouraudWithEdges
 70
     3
 71
     2
 72
     2
 73
     1
 90
        2
 40
-0.6
 41
30.0
 62
     5
 63
     7
 74
     1
 91
        4
 64
     7
 65
   257
 75
     1
175
     1
 42
1.0
 92
        0
 66
   257
 43
1.0
 76
     1
 77
     6
 78
     2
 67
     7
 79
     5
170
     0
171
     0
290
     0
174
     0
 93
       13
 44
0.0
173
     0
291
     1
 45
0.0
1001
ACAD
1000
AcDbSavedByObjectVersion
1070
     0
  0
VISUALSTYLE
  5
5E5
102
{ACAD_XDICTIONARY
360
6B0
102
}
102
{ACAD_REACTORS
330
2A
102
}
330
2A
100
AcDbVisualStyle
  2
Hidden
 70
     6
 71
     1
 72
     2
 73
     2
 90
        0
 40
-0.6
 41
-30.0
 62
     5
 63
     7
 74
     2
 91
        2
 64
     7
 65
   257
 75
     2
175
     1
 42
40.0
 92
        0
 66
   257
 43
1.0
 76
     1
 77
     6
 78
     2
 67
     7
 79
     3
170
     0
171
     0
290
     0
174
     0
 93
        1
 44
0.0
173
     0
291
     0
 45
0.0
1001
ACAD
1000
AcDbSavedByObjectVersion
1070
     0
  0
VISUALSTYLE
  5
5EB
102
{ACAD_XDICTIONARY
360
6BC
102
}
102
{ACAD_REACTORS
330
2A
102
}
330
2A
100
AcDbVisualStyle
  2
JitterOff
 70
    20
 71
     2
 72
     2
 73
     0
 90
        0
 40
-0.6
 41
-30.0
 62
     5
 63
     7
 74
     1
 91
        4
 64
     7
 65
   257
 75
     1
175
     1
 42
1.0
 92
       10
 66
     7
 43
1.0
 76
     1
 77
     6
 78
     2
 67
     7
 79
     5
170
     0
171
     0
290
     0
174
     0
 93
        1
 44
0.0
173
     0
291
     1
 45
0.0
1001
ACAD
1000
AcDbSavedByObjectVersion
1070
     0
  0
VISUALSTYLE
  5
38
102
{ACAD_XDICTIONARY
360
6A2
102
}
102
{ACAD_REACTORS
330
2A
102
}
330
2A
100
AcDbVisualStyle
  2
Linepattern
 70
    14
 71
     2
 72
     2
 73
     0
 90
        0
 40
-0.6
 41
-30.0
 62
     5
 63
     7
 74
     1
 91
        4
 64
     7
 65
   257
 75
     7
175
     7
 42
1.0
 92
        8
 66
     7
 43
1.0
 76
     1
 77
     6
 78
     2
 67
     7
 79
     5
170
     0
171
     0
290
     0
174
     0
 93
        1
 44
0.0
173
     0
291
     1
 45
0.0
1001
ACAD
1000
AcDbSavedByObjectVersion
1070
     0
  0
VISUALSTYLE
  5
5EC
102
{ACAD_XDICTIONARY
360
6BE
102
}
102
{ACAD_REACTORS
330
2A
102
}
330
2A
100
AcDbVisualStyle
  2
OverhangOff
 70
    21
 71
     2
 72
     2
 73
     0
 90
        0
 40
-0.6
 41
-30.0
 62
     5
 63
     7
 74
     1
 91
        4
 64
     7
 65
   257
 75
     1
175
     1
 42
1.0
 92
        9
 66
     7
 43
1.0
 76
     1
 77
     6
 78
     2
 67
     7
 79
     5
170
     0
171
     0
290
     0
174
     0
 93
        1
 44
0.0
173
     0
291
     1
 45
0.0
1001
ACAD
1000
AcDbSavedByObjectVersion
1070
     0
  0
VISUALSTYLE
  5
33
102
{ACAD_XDICTIONARY
360
698
102
}
102
{ACAD_REACTORS
330
2A
102
}
330
2A
100
AcDbVisualStyle
  2
Realistic
 70
     8
 71
     2
 72
     2
 73
     0
 90
        0
 40
-0.6
 41
-30.0
 62
     5
 63
     7
 74
     1
 91
        0
 64
     7
 65
   257
 75
     1
175
     1
 42
1.0
 92
        8
 66
     8
 43
1.0
 76
     1
 77
     6
 78
     2
 67
     7
 79
     5
170
     0
171
     0
290
     0
174
     0
 93
       13
 44
0.0
173
     0
291
     0
 45
0.0
1001
ACAD
1000
AcDbSavedByObjectVersion
1070
     0
  0
VISUALSTYLE
  5
5EA
102
{ACAD_XDICTIONARY
360
6BA
102
}
102
{ACAD_REACTORS
330
2A
102
}
330
2A
100
AcDbVisualStyle
  2
Shaded
 70
    27
 71
     2
 72
     2
 73
     1
 90
        2
 40
-0.6
 41
30.0
 62
     5
 63
     7
 74
     0
 91
        4
 64
     7
 65
   257
 75
     1
175
     1
 42
1.0
 92
        8
 66
   257
 43
1.0
 76
     1
 77
     6
 78
     2
 67
     8
 79
     3
170
     0
171
     0
290
     0
174
     0
 93
        5
 44
0.0
173
     0
291
     0
 45
0.0
1001
ACAD
1000
AcDbSavedByObjectVersion
1070
     0
  0
VISUALSTYLE
  5
5E9
102
{ACAD_XDICTIONARY
360
6B8
102
}
102
{ACAD_REACTORS
330
2A
102
}
330
2A
100
AcDbVisualStyle
  2
Shaded with edges
 70
    26
 71
     2
 72
     2
 73
     1
 90
        2
 40
-0.6
 41
30.0
 62
     5
 63
     7
 74
     1
 91
       10
 64
     7
 65
   257
 75
     2
175
     1
 42
1.0
 92
        8
 66
   257
 43
1.0
 76
     1
 77
     6
 78
     2
 67
     7
 79
     3
170
     0
171
     0
290
     0
174
     0
 93
        5
 44
0.0
173
     0
291
     0
 45
0.0
1001
ACAD
1000
AcDbSavedByObjectVersion
1070
     0
  0
VISUALSTYLE
  5
5E6
102
{ACAD_XDICTIONARY
360
6B2
102
}
102
{ACAD_REACTORS
330
2A
102
}
330
2A
100
AcDbVisualStyle
  2
Shades of Gray
 70
    23
 71
     2
 72
     2
 73
     3
 90
        0
 40
-0.6
 41
-30.0
 62
     5
 63
     7
 74
     2
 91
        2
 64
     7
 65
     7
 75
     1
175
     1
 42
40.0
 92
        8
 66
     7
 43
1.0
 76
     1
 77
     6
 78
     2
 67
     7
 79
     3
170
     0
171
     0
290
     0
174
     0
 93
        1
 44
0.0
173
     0
291
     0
 45
0.0
1001
ACAD
1000
AcDbSavedByObjectVersion
1070
     0
  0
VISUALSTYLE
  5
5E7
102
{ACAD_XDICTIONARY
360
6B4
102
}
102
{ACAD_REACTORS
330
2A
102
}
330
2A
100
AcDbVisualStyle
  2
Sketchy
 70
    24
 71
     1
 72
     2
 73
     2
 90
        0
 40
-0.6
 41
-30.0
 62
     5
 63
     7
 74
     2
 91
        2
 64
     7
 65
     7
 75
     1
175
     1
 42
40.0
 92
       11
 66
     7
 43
1.0
 76
     1
 77
     6
 78
     2
 67
     7
 79
     6
170
     0
171
     0
290
     0
174
     0
 93
        1
 44
0.0
173
     0
291
     0
 45
0.0
1001
ACAD
1000
AcDbSavedByObjectVersion
1070
     0
  0
VISUALSTYLE
  5
37
102
{ACAD_XDICTIONARY
360
6A0
102
}
102
{ACAD_REACTORS
330
2A
102
}
330
2A
100
AcDbVisualStyle
  2
Thicken
 70
    13
 71
     2
 72
     2
 73
     0
 90
        0
 40
-0.6
 41
-30.0
 62
     5
 63
     7
 74
     1
 91
        4
 64
     7
 65
   257
 75
     1
175
     1
 42
1.0
 92
       12
 66
     7
 43
1.0
 76
     1
 77
     6
 78
     2
 67
     7
 79
     5
170
     0
171
     0
290
     0
174
     0
 93
        1
 44
0.0
173
     0
291
     1
 45
0.0
1001
ACAD
1000
AcDbSavedByObjectVersion
1070
     0
  0
VISUALSTYLE
  5
5E4
102
{ACAD_XDICTIONARY
360
6AE
102
}
102
{ACAD_REACTORS
330
2A
102
}
330
2A
100
AcDbVisualStyle
  2
Wireframe
 70
     5
 71
     0
 72
     2
 73
     0
 90
        0
 40
-0.6
 41
-30.0
 62
     5
 63
     7
 74
     1
 91
        4
 64
     7
 65
   257
 75
     1
175
     1
 42
1.0
 92
        0
 66
   257
 43
1.0
 76
     1
 77
     6
 78
     2
 67
     7
 79
     3
170
     0
171
     0
290
     0
174
     0
 93
        1
 44
0.0
173
     0
291
     0
 45
0.0
1001
ACAD
1000
AcDbSavedByObjectVersion
1070
     0
  0
VISUALSTYLE
  5
5E8
102
{ACAD_XDICTIONARY
360
6B6
102
}
102
{ACAD_REACTORS
330
2A
102
}
330
2A
100
AcDbVisualStyle
  2
X-Ray
 70
    25
 71
     2
 72
     2
 73
     1
 90
        1
 40
0.5
 41
-30.0
 62
     5
 63
     7
 74
     1
 91
        0
 64
     7
 65
   257
 75
     1
175
     1
 42
1.0
 92
        8
 66
     7
 43
1.0
 76
     1
 77
     6
 78
     2
 67
     7
 79
     3
170
     0
171
     0
290
     0
174
     0
 93
       13
 44
0.0
173
     0
291
     0
 45
0.0
1001
ACAD
1000
AcDbSavedByObjectVersion
1070
     0
  0
DICTIONARYVAR
  5
676
102
{ACAD_REACTORS
330
673
102
}
330
673
100
DictionaryVariables
280
     0
  1
1:1
  0
DICTIONARYVAR
  5
675
102
{ACAD_REACTORS
330
673
102
}
330
673
100
DictionaryVariables
280
     0
  1
STANDARD
  0
DICTIONARYVAR
  5
674
102
{ACAD_REACTORS
330
673
102
}
330
673
100
DictionaryVariables
280
     0
  1
STANDARD
  0
DICTIONARYVAR
  5
67B
102
{ACAD_REACTORS
330
673
102
}
330
673
100
DictionaryVariables
280
     0
  1
2
  0
DICTIONARYVAR
  5
679
102
{ACAD_REACTORS
330
673
102
}
330
673
100
DictionaryVariables
280
     0
  1
1
  0
DICTIONARYVAR
  5
678
102
{ACAD_REACTORS
330
673
102
}
330
673
100
DictionaryVariables
280
     0
  1
0
  0
DICTIONARYVAR
  5
677
102
{ACAD_REACTORS
330
673
102
}
330
673
100
DictionaryVariables
280
     0
  1
127
  0
DICTIONARYVAR
  5
67A
102
{ACAD_REACTORS
330
673
102
}
330
673
100
DictionaryVariables
280
     0
  1
0
  0
DICTIONARY
  5
682
330
1E
100
AcDbDictionary
280
     1
281
     1
  3
ACAD_XREC_ROUNDTRIP
360
683
  0
DICTIONARY
  5
686
330
26
100
AcDbDictionary
280
     1
281
     1
  3
ACAD_XREC_ROUNDTRIP
360
687
  0
DICTIONARY
  5
684
330
22
100
AcDbDictionary
280
     1
281
     1
  3
ACAD_XREC_ROUNDTRIP
360
685
  0
DICTIONARY
  5
6AA
330
3D
100
AcDbDictionary
280
     1
281
     1
  3
ACAD_XREC_ROUNDTRIP
360
6AB
  0
DICTIONARY
  5
6A8
330
3C
100
AcDbDictionary
280
     1
281
     1
  3
ACAD_XREC_ROUNDTRIP
360
6A9
  0
DICTIONARY
  5
6AC
330
3E
100
AcDbDictionary
280
     1
281
     1
  3
ACAD_XREC_ROUNDTRIP
360
6AD
  0
DICTIONARY
  5
67E
330
602
100
AcDbDictionary
280
     1
281
     1
  3
ACAD_XREC_ROUNDTRIP
360
67F
  0
DICTIONARY
  5
67C
330
5EF
100
AcDbDictionary
280
     1
281
     1
  3
ACAD_ROUNDTRIP_2008_TABLESTYLE_CELLSTYLEMAP
360
67D
  3
ACAD_XREC_ROUNDTRIP
360
6C2
  0
DICTIONARY
  5
690
330
2F
100
AcDbDictionary
280
     1
281
     1
  3
ACAD_XREC_ROUNDTRIP
360
691
  0
DICTIONARY
  5
694
330
31
100
AcDbDictionary
280
     1
281
     1
  3
ACAD_XREC_ROUNDTRIP
360
695
  0
DICTIONARY
  5
692
330
30
100
AcDbDictionary
280
     1
281
     1
  3
ACAD_XREC_ROUNDTRIP
360
693
  0
DICTIONARY
  5
696
330
32
100
AcDbDictionary
280
     1
281
     1
  3
ACAD_XREC_ROUNDTRIP
360
697
  0
DICTIONARY
  5
69E
330
36
100
AcDbDictionary
280
     1
281
     1
  3
ACAD_XREC_ROUNDTRIP
360
69F
  0
DICTIONARY
  5
6A6
330
3A
100
AcDbDictionary
280
     1
281
     1
  3
ACAD_XREC_ROUNDTRIP
360
6A7
  0
DICTIONARY
  5
69A
330
34
100
AcDbDictionary
280
     1
281
     1
  3
ACAD_XREC_ROUNDTRIP
360
69B
  0
DICTIONARY
  5
69C
330
35
100
AcDbDictionary
280
     1
281
     1
  3
ACAD_XREC_ROUNDTRIP
360
69D
  0
DICTIONARY
  5
6C0
330
5ED
100
AcDbDictionary
280
     1
281
     1
  3
ACAD_XREC_ROUNDTRIP
360
6C1
  0
DICTIONARY
  5
6A4
330
39
100
AcDbDictionary
280
     1
281
     1
  3
ACAD_XREC_ROUNDTRIP
360
6A5
  0
DICTIONARY
  5
688
330
2B
100
AcDbDictionary
280
     1
281
     1
  3
ACAD_XREC_ROUNDTRIP
360
689
  0
DICTIONARY
  5
68A
330
2C
100
AcDbDictionary
280
     1
281
     1
  3
ACAD_XREC_ROUNDTRIP
360
68B
  0
DICTIONARY
  5
68C
330
2D
100
AcDbDictionary
280
     1
281
     1
  3
ACAD_XREC_ROUNDTRIP
360
68D
  0
DICTIONARY
  5
68E
330
2E
100
AcDbDictionary
280
     1
281
     1
  3
ACAD_XREC_ROUNDTRIP
360
68F
  0
DICTIONARY
  5
6B0
330
5E5
100
AcDbDictionary
280
     1
281
     1
  3
ACAD_XREC_ROUNDTRIP
360
6B1
  0
DICTIONARY
  5
6BC
330
5EB
100
AcDbDictionary
280
     1
281
     1
  3
ACAD_XREC_ROUNDTRIP
360
6BD
  0
DICTIONARY
  5
6A2
330
38
100
AcDbDictionary
280
     1
281
     1
  3
ACAD_XREC_ROUNDTRIP
360
6A3
  0
DICTIONARY
  5
6BE
330
5EC
100
AcDbDictionary
280
     1
281
     1
  3
ACAD_XREC_ROUNDTRIP
360
6BF
  0
DICTIONARY
  5
698
330
33
100
AcDbDictionary
280
     1
281
     1
  3
ACAD_XREC_ROUNDTRIP
360
699
  0
DICTIONARY
  5
6BA
330
5EA
100
AcDbDictionary
280
     1
281
     1
  3
ACAD_XREC_ROUNDTRIP
360
6BB
  0
DICTIONARY
  5
6B8
330
5E9
100
AcDbDictionary
280
     1
281
     1
  3
ACAD_XREC_ROUNDTRIP
360
6B9
  0
DICTIONARY
  5
6B2
330
5E6
100
AcDbDictionary
280
     1
281
     1
  3
ACAD_XREC_ROUNDTRIP
360
6B3
  0
DICTIONARY
  5
6B4
330
5E7
100
AcDbDictionary
280
     1
281
     1
  3
ACAD_XREC_ROUNDTRIP
360
6B5
  0
DICTIONARY
  5
6A0
330
37
100
AcDbDictionary
280
     1
281
     1
  3
ACAD_XREC_ROUNDTRIP
360
6A1
  0
DICTIONARY
  5
6AE
330
5E4
100
AcDbDictionary
280
     1
281
     1
  3
ACAD_XREC_ROUNDTRIP
360
6AF
  0
DICTIONARY
  5
6B6
330
5E8
100
AcDbDictionary
280
     1
281
     1
  3
ACAD_XREC_ROUNDTRIP
360
6B7
  0
XRECORD
  5
683
102
{ACAD_REACTORS
330
682
102
}
330
682
100
AcDbXrecord
280
     1
102
SHADEPLOT
 70
     0
102
SHADEPLOTRESLEVEL
 70
     2
102
SHADEPLOTCUSTOMDPI
 70
   300
  0
XRECORD
  5
687
102
{ACAD_REACTORS
330
686
102
}
330
686
100
AcDbXrecord
280
     1
102
SHADEPLOT
 70
     0
102
SHADEPLOTRESLEVEL
 70
     2
102
SHADEPLOTCUSTOMDPI
 70
   300
  0
XRECORD
  5
685
102
{ACAD_REACTORS
330
684
102
}
330
684
100
AcDbXrecord
280
     1
102
SHADEPLOT
 70
     0
102
SHADEPLOTRESLEVEL
 70
     2
102
SHADEPLOTCUSTOMDPI
 70
   300
  0
XRECORD
  5
6AB
102
{ACAD_REACTORS
330
6AA
102
}
330
6AA
100
AcDbXrecord
280
     1
102
MATERIAL
148
0.0
149
0.0
149
0.0
 93
        0
 94
      127
282
     0
 72
     1
 77
     1
171
     1
175
     1
179
     1
273
     0
  0
XRECORD
  5
6A9
102
{ACAD_REACTORS
330
6A8
102
}
330
6A8
100
AcDbXrecord
280
     1
102
MATERIAL
148
0.0
149
0.0
149
0.0
 93
        0
 94
      127
282
     0
 72
     1
 77
     1
171
     1
175
     1
179
     1
273
     0
  0
XRECORD
  5
6AD
102
{ACAD_REACTORS
330
6AC
102
}
330
6AC
100
AcDbXrecord
280
     1
102
MATERIAL
148
0.0
149
0.0
149
0.0
 93
        0
 94
      127
282
     0
 72
     1
 77
     1
171
     1
175
     1
179
     1
273
     0
  0
XRECORD
  5
67F
102
{ACAD_REACTORS
330
67E
102
}
330
67E
100
AcDbXrecord
280
     1
102
ACAD_ROUNDTRIP_2012_MLEADER_STYLE
298
     1
  0
CELLSTYLEMAP
  5
67D
102
{ACAD_REACTORS
330
67C
102
}
330
67C
100
AcDbCellStyleMap
 90
        3
300
CELLSTYLE
  1
TABLEFORMAT_BEGIN
 90
        5
170
     1
 91
        0
 92
    32768
 62
   257
 93
        1
300
CONTENTFORMAT
  1
CONTENTFORMAT_BEGIN
 90
        0
 91
        0
 92
      512
 93
        0
300

 40
0.0
140
1.0
 94
        5
 62
     0
340
11
144
0.25
309
CONTENTFORMAT_END
171
     0
 94
        0
309
TABLEFORMAT_END
  1
CELLSTYLE_BEGIN
 90
        1
 91
        1
300
_TITLE
309
CELLSTYLE_END
300
CELLSTYLE
  1
TABLEFORMAT_BEGIN
 90
        5
170
     1
 91
        0
 92
        0
 62
   257
 93
        1
300
CONTENTFORMAT
  1
CONTENTFORMAT_BEGIN
 90
        0
 91
        0
 92
      512
 93
        0
300

 40
0.0
140
1.0
 94
        5
 62
     0
340
11
144
0.18
309
CONTENTFORMAT_END
171
     0
 94
        0
309
TABLEFORMAT_END
  1
CELLSTYLE_BEGIN
 90
        2
 91
        1
300
_HEADER
309
CELLSTYLE_END
300
CELLSTYLE
  1
TABLEFORMAT_BEGIN
 90
        5
170
     1
 91
        0
 92
        0
 62
   257
 93
        1
300
CONTENTFORMAT
  1
CONTENTFORMAT_BEGIN
 90
        0
 91
        0
 92
      512
 93
        0
300

 40
0.0
140
1.0
 94
        2
 62
     0
340
11
144
0.18
309
CONTENTFORMAT_END
171
     0
 94
        0
309
TABLEFORMAT_END
  1
CELLSTYLE_BEGIN
 90
        3
 91
        2
300
_DATA
309
CELLSTYLE_END
  0
XRECORD
  5
6C2
102
{ACAD_REACTORS
330
67C
102
}
330
67C
100
AcDbXrecord
280
     1
102
ACAD_ROUNDTRIP_PRE2007_TABLESTYLE
 90
      512
 91
        0
  1

 92
      512
 93
        0
  2

 94
      512
 95
        0
  3

  0
XRECORD
  5
691
102
{ACAD_REACTORS
330
690
102
}
330
690
100
AcDbXrecord
280
     1
102
RTVSPropertyOp0
 70
     1
102
RTVSPropertyOp1
 70
     1
102
RTVSPropertyOp2
 70
     1
102
RTVSPropertyOp3
 70
     1
102
RTVSPropertyOp4
 70
     1
102
RTVSPropertyOp5
 70
     1
102
RTVSPropertyOp6
 70
     1
102
RTVSPropertyOp7
 70
     1
102
RTVSPropertyOp8
 70
     1
102
RTVSPropertyOp9
 70
     1
102
RTVSPropertyOp10
 70
     1
102
RTVSPropertyOp11
 70
     1
102
RTVSPropertyOp12
 70
     1
102
RTVSPropertyOp13
 70
     1
102
RTVSPropertyOp14
 70
     1
102
RTVSPropertyOp15
 70
     1
102
RTVSPropertyOp16
 70
     1
102
RTVSPropertyOp17
 70
     1
102
RTVSPropertyOp18
 70
     1
102
RTVSPropertyOp19
 70
     1
102
RTVSPropertyOp20
 70
     1
102
RTVSPropertyOp21
 70
     1
102
RTVSPropertyOp22
 70
     1
102
RTVSPropertyOp23
 70
     1
102
RTVSPropertyOp24
 70
     1
102
RTVSPropertyOp25
 70
     1
102
RTVSPropertyOp26
 70
     1
102
RTVSPropertyOp27
 70
     1
102
RTVSPropertyOp28
 70
     1
102
RTVSPropertyOp29
 70
     1
102
RTVSPropertyOp30
 70
     1
102
RTVSPropertyOp31
 70
     1
102
RTVSPropertyOp32
 70
     1
  0
XRECORD
  5
695
102
{ACAD_REACTORS
330
694
102
}
330
694
100
AcDbXrecord
280
     1
102
RTVSPropertyOp0
 70
     1
102
RTVSPropertyOp1
 70
     1
102
RTVSPropertyOp2
 70
     1
102
RTVSPropertyOp3
 70
     1
102
RTVSPropertyOp4
 70
     1
102
RTVSPropertyOp5
 70
     1
102
RTVSPropertyOp6
 70
     1
102
RTVSPropertyOp7
 70
     1
102
RTVSPropertyOp8
 70
     1
102
RTVSPropertyOp9
 70
     1
102
RTVSPropertyOp10
 70
     1
102
RTVSPropertyOp11
 70
     1
102
RTVSPropertyOp12
 70
     1
102
RTVSPropertyOp13
 70
     1
102
RTVSPropertyOp14
 70
     1
102
RTVSPropertyOp15
 70
     1
102
RTVSPropertyOp16
 70
     1
102
RTVSPropertyOp17
 70
     1
102
RTVSPropertyOp18
 70
     1
102
RTVSPropertyOp19
 70
     1
102
RTVSPropertyOp20
 70
     1
102
RTVSPropertyOp21
 70
     1
102
RTVSPropertyOp22
 70
     1
102
RTVSPropertyOp23
 70
     1
102
RTVSPropertyOp24
 70
     1
102
RTVSPropertyOp25
 70
     1
102
RTVSPropertyOp26
 70
     1
102
RTVSPropertyOp27
 70
     1
102
RTVSPropertyOp28
 70
     1
102
RTVSPropertyOp29
 70
     1
102
RTVSPropertyOp30
 70
     1
102
RTVSPropertyOp31
 70
     1
102
RTVSPropertyOp32
 70
     1
  0
XRECORD
  5
693
102
{ACAD_REACTORS
330
692
102
}
330
692
100
AcDbXrecord
280
     1
102
RTVSPropertyOp0
 70
     1
102
RTVSPropertyOp1
 70
     1
102
RTVSPropertyOp2
 70
     1
102
RTVSPropertyOp3
 70
     1
102
RTVSPropertyOp4
 70
     1
102
RTVSPropertyOp5
 70
     1
102
RTVSPropertyOp6
 70
     1
102
RTVSPropertyOp7
 70
     1
102
RTVSPropertyOp8
 70
     1
102
RTVSPropertyOp9
 70
     1
102
RTVSPropertyOp10
 70
     1
102
RTVSPropertyOp11
 70
     1
102
RTVSPropertyOp12
 70
     1
102
RTVSPropertyOp13
 70
     1
102
RTVSPropertyOp14
 70
     1
102
RTVSPropertyOp15
 70
     1
102
RTVSPropertyOp16
 70
     1
102
RTVSPropertyOp17
 70
     1
102
RTVSPropertyOp18
 70
     1
102
RTVSPropertyOp19
 70
     1
102
RTVSPropertyOp20
 70
     1
102
RTVSPropertyOp21
 70
     1
102
RTVSPropertyOp22
 70
     1
102
RTVSPropertyOp23
 70
     1
102
RTVSPropertyOp24
 70
     1
102
RTVSPropertyOp25
 70
     1
102
RTVSPropertyOp26
 70
     1
102
RTVSPropertyOp27
 70
     1
102
RTVSPropertyOp28
 70
     1
102
RTVSPropertyOp29
 70
     1
102
RTVSPropertyOp30
 70
     1
102
RTVSPropertyOp31
 70
     1
102
RTVSPropertyOp32
 70
     1
  0
XRECORD
  5
697
102
{ACAD_REACTORS
330
696
102
}
330
696
100
AcDbXrecord
280
     1
102
RTVSPropertyOp0
 70
     1
102
RTVSPropertyOp1
 70
     1
102
RTVSPropertyOp2
 70
     1
102
RTVSPropertyOp3
 70
     1
102
RTVSPropertyOp4
 70
     1
102
RTVSPropertyOp5
 70
     1
102
RTVSPropertyOp6
 70
     1
102
RTVSPropertyOp7
 70
     1
102
RTVSPropertyOp8
 70
     1
102
RTVSPropertyOp9
 70
     1
102
RTVSPropertyOp10
 70
     1
102
RTVSPropertyOp11
 70
     1
102
RTVSPropertyOp12
 70
     1
102
RTVSPropertyOp13
 70
     1
102
RTVSPropertyOp14
 70
     1
102
RTVSPropertyOp15
 70
     1
102
RTVSPropertyOp16
 70
     1
102
RTVSPropertyOp17
 70
     1
102
RTVSPropertyOp18
 70
     1
102
RTVSPropertyOp19
 70
     1
102
RTVSPropertyOp20
 70
     1
102
RTVSPropertyOp21
 70
     1
102
RTVSPropertyOp22
 70
     1
102
RTVSPropertyOp23
 70
     1
102
RTVSPropertyOp24
 70
     1
102
RTVSPropertyOp25
 70
     1
102
RTVSPropertyOp26
 70
     1
102
RTVSPropertyOp27
 70
     1
102
RTVSPropertyOp28
 70
     1
102
RTVSPropertyOp29
 70
     1
102
RTVSPropertyOp30
 70
     1
102
RTVSPropertyOp31
 70
     1
102
RTVSPropertyOp32
 70
     1
  0
XRECORD
  5
69F
102
{ACAD_REACTORS
330
69E
102
}
330
69E
100
AcDbXrecord
280
     1
102
RTVSPropertyOp0
 70
     1
102
RTVSPropertyOp1
 70
     1
102
RTVSPropertyOp2
 70
     1
102
RTVSPropertyOp3
 70
     1
102
RTVSPropertyOp4
 70
     1
102
RTVSPropertyOp5
 70
     1
102
RTVSPropertyOp6
 70
     1
102
RTVSPropertyOp7
 70
     1
102
RTVSPropertyOp8
 70
     1
102
RTVSPropertyOp9
 70
     1
102
RTVSPropertyOp10
 70
     1
102
RTVSPropertyOp11
 70
     1
102
RTVSPropertyOp12
 70
     1
102
RTVSPropertyOp13
 70
     1
102
RTVSPropertyOp14
 70
     1
102
RTVSPropertyOp15
 70
     1
102
RTVSPropertyOp16
 70
     1
102
RTVSPropertyOp17
 70
     1
102
RTVSPropertyOp18
 70
     1
102
RTVSPropertyOp19
 70
     1
102
RTVSPropertyOp20
 70
     1
102
RTVSPropertyOp21
 70
     1
102
RTVSPropertyOp22
 70
     1
102
RTVSPropertyOp23
 70
     1
102
RTVSPropertyOp24
 70
     1
102
RTVSPropertyOp25
 70
     1
102
RTVSPropertyOp26
 70
     1
102
RTVSPropertyOp27
 70
     1
102
RTVSPropertyOp28
 70
     1
102
RTVSPropertyOp29
 70
     1
102
RTVSPropertyOp30
 70
     1
102
RTVSPropertyOp31
 70
     1
102
RTVSPropertyOp32
 70
     1
  0
XRECORD
  5
6A7
102
{ACAD_REACTORS
330
6A6
102
}
330
6A6
100
AcDbXrecord
280
     1
102
RTVSPropertyOp0
 70
     1
102
RTVSPropertyOp1
 70
     1
102
RTVSPropertyOp2
 70
     1
102
RTVSPropertyOp3
 70
     1
102
RTVSPropertyOp4
 70
     1
102
RTVSPropertyOp5
 70
     1
102
RTVSPropertyOp6
 70
     1
102
RTVSPropertyOp7
 70
     1
102
RTVSPropertyOp8
 70
     1
102
RTVSPropertyOp9
 70
     1
102
RTVSPropertyOp10
 70
     1
102
RTVSPropertyOp11
 70
     1
102
RTVSPropertyOp12
 70
     1
102
RTVSPropertyOp13
 70
     1
102
RTVSPropertyOp14
 70
     1
102
RTVSPropertyOp15
 70
     1
102
RTVSPropertyOp16
 70
     1
102
RTVSPropertyOp17
 70
     1
102
RTVSPropertyOp18
 70
     1
102
RTVSPropertyOp19
 70
     1
102
RTVSPropertyOp20
 70
     1
102
RTVSPropertyOp21
 70
     1
102
RTVSPropertyOp22
 70
     1
102
RTVSPropertyOp23
 70
     1
102
RTVSPropertyOp24
 70
     1
102
RTVSPropertyOp25
 70
     1
102
RTVSPropertyOp26
 70
     1
102
RTVSPropertyOp27
 70
     1
102
RTVSPropertyOp28
 70
     1
102
RTVSPropertyOp29
 70
     1
102
RTVSPropertyOp30
 70
     1
102
RTVSPropertyOp31
 70
     1
102
RTVSPropertyOp32
 70
     1
  0
XRECORD
  5
69B
102
{ACAD_REACTORS
330
69A
102
}
330
69A
100
AcDbXrecord
280
     1
102
RTVSPropertyOp0
 70
     1
102
RTVSPropertyOp1
 70
     1
102
RTVSPropertyOp2
 70
     1
102
RTVSPropertyOp3
 70
     1
102
RTVSPropertyOp4
 70
     1
102
RTVSPropertyOp5
 70
     1
102
RTVSPropertyOp6
 70
     1
102
RTVSPropertyOp7
 70
     1
102
RTVSPropertyOp8
 70
     1
102
RTVSPropertyOp9
 70
     1
102
RTVSPropertyOp10
 70
     1
102
RTVSPropertyOp11
 70
     1
102
RTVSPropertyOp12
 70
     1
102
RTVSPropertyOp13
 70
     1
102
RTVSPropertyOp14
 70
     1
102
RTVSPropertyOp15
 70
     1
102
RTVSPropertyOp16
 70
     1
102
RTVSPropertyOp17
 70
     1
102
RTVSPropertyOp18
 70
     1
102
RTVSPropertyOp19
 70
     1
102
RTVSPropertyOp20
 70
     1
102
RTVSPropertyOp21
 70
     1
102
RTVSPropertyOp22
 70
     1
102
RTVSPropertyOp23
 70
     1
102
RTVSPropertyOp24
 70
     1
102
RTVSPropertyOp25
 70
     1
102
RTVSPropertyOp26
 70
     1
102
RTVSPropertyOp27
 70
     1
102
RTVSPropertyOp28
 70
     1
102
RTVSPropertyOp29
 70
     1
102
RTVSPropertyOp30
 70
     1
102
RTVSPropertyOp31
 70
     1
102
RTVSPropertyOp32
 70
     1
  0
XRECORD
  5
69D
102
{ACAD_REACTORS
330
69C
102
}
330
69C
100
AcDbXrecord
280
     1
102
RTVSPropertyOp0
 70
     1
102
RTVSPropertyOp1
 70
     1
102
RTVSPropertyOp2
 70
     1
102
RTVSPropertyOp3
 70
     1
102
RTVSPropertyOp4
 70
     1
102
RTVSPropertyOp5
 70
     1
102
RTVSPropertyOp6
 70
     1
102
RTVSPropertyOp7
 70
     1
102
RTVSPropertyOp8
 70
     1
102
RTVSPropertyOp9
 70
     1
102
RTVSPropertyOp10
 70
     1
102
RTVSPropertyOp11
 70
     1
102
RTVSPropertyOp12
 70
     1
102
RTVSPropertyOp13
 70
     1
102
RTVSPropertyOp14
 70
     1
102
RTVSPropertyOp15
 70
     1
102
RTVSPropertyOp16
 70
     1
102
RTVSPropertyOp17
 70
     1
102
RTVSPropertyOp18
 70
     1
102
RTVSPropertyOp19
 70
     1
102
RTVSPropertyOp20
 70
     1
102
RTVSPropertyOp21
 70
     1
102
RTVSPropertyOp22
 70
     1
102
RTVSPropertyOp23
 70
     1
102
RTVSPropertyOp24
 70
     1
102
RTVSPropertyOp25
 70
     1
102
RTVSPropertyOp26
 70
     1
102
RTVSPropertyOp27
 70
     1
102
RTVSPropertyOp28
 70
     1
102
RTVSPropertyOp29
 70
     1
102
RTVSPropertyOp30
 70
     1
102
RTVSPropertyOp31
 70
     1
102
RTVSPropertyOp32
 70
     1
  0
XRECORD
  5
6C1
102
{ACAD_REACTORS
330
6C0
102
}
330
6C0
100
AcDbXrecord
280
     1
102
RTVSPropertyOp0
 70
     0
102
RTVSPropertyOp1
 70
     0
102
RTVSPropertyOp2
 70
     0
102
RTVSPropertyOp3
 70
     0
102
RTVSPropertyOp4
 70
     0
102
RTVSPropertyOp5
 70
     0
102
RTVSPropertyOp6
 70
     0
102
RTVSPropertyOp7
 70
     0
102
RTVSPropertyOp8
 70
     0
102
RTVSPropertyOp9
 70
     0
102
RTVSPropertyOp10
 70
     0
102
RTVSPropertyOp11
 70
     0
102
RTVSPropertyOp12
 70
     0
102
RTVSPropertyOp13
 70
     0
102
RTVSPropertyOp14
 70
     2
102
RTVSPropertyOp15
 70
     0
102
RTVSPropertyOp16
 70
     0
102
RTVSPropertyOp17
 70
     0
102
RTVSPropertyOp18
 70
     0
102
RTVSPropertyOp19
 70
     0
102
RTVSPropertyOp20
 70
     0
102
RTVSPropertyOp21
 70
     0
102
RTVSPropertyOp22
 70
     0
102
RTVSPropertyOp23
 70
     0
102
RTVSPropertyOp24
 70
     0
102
RTVSPropertyOp25
 70
     0
102
RTVSPropertyOp26
 70
     0
102
RTVSPropertyOp27
 70
     0
102
RTVSPropertyOp28
 70
     0
102
RTVSPropertyOp29
 70
     0
102
RTVSPropertyOp30
 70
     0
102
RTVSPropertyOp31
 70
     0
102
RTVSPropertyOp32
 70
     0
  0
XRECORD
  5
6A5
102
{ACAD_REACTORS
330
6A4
102
}
330
6A4
100
AcDbXrecord
280
     1
102
RTVSPropertyOp0
 70
     1
102
RTVSPropertyOp1
 70
     1
102
RTVSPropertyOp2
 70
     1
102
RTVSPropertyOp3
 70
     1
102
RTVSPropertyOp4
 70
     1
102
RTVSPropertyOp5
 70
     1
102
RTVSPropertyOp6
 70
     1
102
RTVSPropertyOp7
 70
     1
102
RTVSPropertyOp8
 70
     1
102
RTVSPropertyOp9
 70
     1
102
RTVSPropertyOp10
 70
     1
102
RTVSPropertyOp11
 70
     1
102
RTVSPropertyOp12
 70
     1
102
RTVSPropertyOp13
 70
     1
102
RTVSPropertyOp14
 70
     1
102
RTVSPropertyOp15
 70
     1
102
RTVSPropertyOp16
 70
     1
102
RTVSPropertyOp17
 70
     1
102
RTVSPropertyOp18
 70
     1
102
RTVSPropertyOp19
 70
     1
102
RTVSPropertyOp20
 70
     1
102
RTVSPropertyOp21
 70
     1
102
RTVSPropertyOp22
 70
     1
102
RTVSPropertyOp23
 70
     1
102
RTVSPropertyOp24
 70
     1
102
RTVSPropertyOp25
 70
     1
102
RTVSPropertyOp26
 70
     1
102
RTVSPropertyOp27
 70
     1
102
RTVSPropertyOp28
 70
     1
102
RTVSPropertyOp29
 70
     1
102
RTVSPropertyOp30
 70
     1
102
RTVSPropertyOp31
 70
     1
102
RTVSPropertyOp32
 70
     1
  0
XRECORD
  5
689
102
{ACAD_REACTORS
330
688
102
}
330
688
100
AcDbXrecord
280
     1
102
RTVSPropertyOp0
 70
     1
102
RTVSPropertyOp1
 70
     1
102
RTVSPropertyOp2
 70
     1
102
RTVSPropertyOp3
 70
     1
102
RTVSPropertyOp4
 70
     1
102
RTVSPropertyOp5
 70
     1
102
RTVSPropertyOp6
 70
     1
102
RTVSPropertyOp7
 70
     1
102
RTVSPropertyOp8
 70
     1
102
RTVSPropertyOp9
 70
     1
102
RTVSPropertyOp10
 70
     1
102
RTVSPropertyOp11
 70
     1
102
RTVSPropertyOp12
 70
     1
102
RTVSPropertyOp13
 70
     1
102
RTVSPropertyOp14
 70
     1
102
RTVSPropertyOp15
 70
     1
102
RTVSPropertyOp16
 70
     1
102
RTVSPropertyOp17
 70
     1
102
RTVSPropertyOp18
 70
     1
102
RTVSPropertyOp19
 70
     1
102
RTVSPropertyOp20
 70
     1
102
RTVSPropertyOp21
 70
     1
102
RTVSPropertyOp22
 70
     1
102
RTVSPropertyOp23
 70
     1
102
RTVSPropertyOp24
 70
     1
102
RTVSPropertyOp25
 70
     1
102
RTVSPropertyOp26
 70
     1
102
RTVSPropertyOp27
 70
     1
102
RTVSPropertyOp28
 70
     1
102
RTVSPropertyOp29
 70
     1
102
RTVSPropertyOp30
 70
     1
102
RTVSPropertyOp31
 70
     1
102
RTVSPropertyOp32
 70
     1
  0
XRECORD
  5
68B
102
{ACAD_REACTORS
330
68A
102
}
330
68A
100
AcDbXrecord
280
     1
102
RTVSPropertyOp0
 70
     1
102
RTVSPropertyOp1
 70
     1
102
RTVSPropertyOp2
 70
     1
102
RTVSPropertyOp3
 70
     1
102
RTVSPropertyOp4
 70
     1
102
RTVSPropertyOp5
 70
     1
102
RTVSPropertyOp6
 70
     1
102
RTVSPropertyOp7
 70
     1
102
RTVSPropertyOp8
 70
     1
102
RTVSPropertyOp9
 70
     1
102
RTVSPropertyOp10
 70
     1
102
RTVSPropertyOp11
 70
     1
102
RTVSPropertyOp12
 70
     1
102
RTVSPropertyOp13
 70
     1
102
RTVSPropertyOp14
 70
     1
102
RTVSPropertyOp15
 70
     1
102
RTVSPropertyOp16
 70
     1
102
RTVSPropertyOp17
 70
     1
102
RTVSPropertyOp18
 70
     1
102
RTVSPropertyOp19
 70
     1
102
RTVSPropertyOp20
 70
     1
102
RTVSPropertyOp21
 70
     1
102
RTVSPropertyOp22
 70
     1
102
RTVSPropertyOp23
 70
     1
102
RTVSPropertyOp24
 70
     1
102
RTVSPropertyOp25
 70
     1
102
RTVSPropertyOp26
 70
     1
102
RTVSPropertyOp27
 70
     1
102
RTVSPropertyOp28
 70
     1
102
RTVSPropertyOp29
 70
     1
102
RTVSPropertyOp30
 70
     1
102
RTVSPropertyOp31
 70
     1
102
RTVSPropertyOp32
 70
     1
  0
XRECORD
  5
68D
102
{ACAD_REACTORS
330
68C
102
}
330
68C
100
AcDbXrecord
280
     1
102
RTVSPropertyOp0
 70
     1
102
RTVSPropertyOp1
 70
     1
102
RTVSPropertyOp2
 70
     1
102
RTVSPropertyOp3
 70
     1
102
RTVSPropertyOp4
 70
     1
102
RTVSPropertyOp5
 70
     1
102
RTVSPropertyOp6
 70
     1
102
RTVSPropertyOp7
 70
     1
102
RTVSPropertyOp8
 70
     1
102
RTVSPropertyOp9
 70
     1
102
RTVSPropertyOp10
 70
     1
102
RTVSPropertyOp11
 70
     1
102
RTVSPropertyOp12
 70
     1
102
RTVSPropertyOp13
 70
     1
102
RTVSPropertyOp14
 70
     1
102
RTVSPropertyOp15
 70
     1
102
RTVSPropertyOp16
 70
     1
102
RTVSPropertyOp17
 70
     1
102
RTVSPropertyOp18
 70
     1
102
RTVSPropertyOp19
 70
     1
102
RTVSPropertyOp20
 70
     1
102
RTVSPropertyOp21
 70
     1
102
RTVSPropertyOp22
 70
     1
102
RTVSPropertyOp23
 70
     1
102
RTVSPropertyOp24
 70
     1
102
RTVSPropertyOp25
 70
     1
102
RTVSPropertyOp26
 70
     1
102
RTVSPropertyOp27
 70
     1
102
RTVSPropertyOp28
 70
     1
102
RTVSPropertyOp29
 70
     1
102
RTVSPropertyOp30
 70
     1
102
RTVSPropertyOp31
 70
     1
102
RTVSPropertyOp32
 70
     1
  0
XRECORD
  5
68F
102
{ACAD_REACTORS
330
68E
102
}
330
68E
100
AcDbXrecord
280
     1
102
RTVSPropertyOp0
 70
     1
102
RTVSPropertyOp1
 70
     1
102
RTVSPropertyOp2
 70
     1
102
RTVSPropertyOp3
 70
     1
102
RTVSPropertyOp4
 70
     1
102
RTVSPropertyOp5
 70
     1
102
RTVSPropertyOp6
 70
     1
102
RTVSPropertyOp7
 70
     1
102
RTVSPropertyOp8
 70
     1
102
RTVSPropertyOp9
 70
     1
102
RTVSPropertyOp10
 70
     1
102
RTVSPropertyOp11
 70
     1
102
RTVSPropertyOp12
 70
     1
102
RTVSPropertyOp13
 70
     1
102
RTVSPropertyOp14
 70
     1
102
RTVSPropertyOp15
 70
     1
102
RTVSPropertyOp16
 70
     1
102
RTVSPropertyOp17
 70
     1
102
RTVSPropertyOp18
 70
     1
102
RTVSPropertyOp19
 70
     1
102
RTVSPropertyOp20
 70
     1
102
RTVSPropertyOp21
 70
     1
102
RTVSPropertyOp22
 70
     1
102
RTVSPropertyOp23
 70
     1
102
RTVSPropertyOp24
 70
     1
102
RTVSPropertyOp25
 70
     1
102
RTVSPropertyOp26
 70
     1
102
RTVSPropertyOp27
 70
     1
102
RTVSPropertyOp28
 70
     1
102
RTVSPropertyOp29
 70
     1
102
RTVSPropertyOp30
 70
     1
102
RTVSPropertyOp31
 70
     1
102
RTVSPropertyOp32
 70
     1
  0
XRECORD
  5
6B1
102
{ACAD_REACTORS
330
6B0
102
}
330
6B0
100
AcDbXrecord
280
     1
102
RTVSPropertyOp0
 70
     1
102
RTVSPropertyOp1
 70
     1
102
RTVSPropertyOp2
 70
     1
102
RTVSPropertyOp3
 70
     1
102
RTVSPropertyOp4
 70
     1
102
RTVSPropertyOp5
 70
     1
102
RTVSPropertyOp6
 70
     1
102
RTVSPropertyOp7
 70
     1
102
RTVSPropertyOp8
 70
     1
102
RTVSPropertyOp9
 70
     1
102
RTVSPropertyOp10
 70
     1
102
RTVSPropertyOp11
 70
     1
102
RTVSPropertyOp12
 70
     1
102
RTVSPropertyOp13
 70
     1
102
RTVSPropertyOp14
 70
     1
102
RTVSPropertyOp15
 70
     1
102
RTVSPropertyOp16
 70
     1
102
RTVSPropertyOp17
 70
     1
102
RTVSPropertyOp18
 70
     1
102
RTVSPropertyOp19
 70
     1
102
RTVSPropertyOp20
 70
     1
102
RTVSPropertyOp21
 70
     1
102
RTVSPropertyOp22
 70
     1
102
RTVSPropertyOp23
 70
     1
102
RTVSPropertyOp24
 70
     1
102
RTVSPropertyOp25
 70
     1
102
RTVSPropertyOp26
 70
     1
102
RTVSPropertyOp27
 70
     1
102
RTVSPropertyOp28
 70
     1
102
RTVSPropertyOp29
 70
     1
102
RTVSPropertyOp30
 70
     1
102
RTVSPropertyOp31
 70
     1
102
RTVSPropertyOp32
 70
     1
  0
XRECORD
  5
6BD
102
{ACAD_REACTORS
330
6BC
102
}
330
6BC
100
AcDbXrecord
280
     1
102
RTVSPropertyOp0
 70
     0
102
RTVSPropertyOp1
 70
     0
102
RTVSPropertyOp2
 70
     0
102
RTVSPropertyOp3
 70
     0
102
RTVSPropertyOp4
 70
     0
102
RTVSPropertyOp5
 70
     0
102
RTVSPropertyOp6
 70
     0
102
RTVSPropertyOp7
 70
     0
102
RTVSPropertyOp8
 70
     0
102
RTVSPropertyOp9
 70
     0
102
RTVSPropertyOp10
 70
     0
102
RTVSPropertyOp11
 70
     0
102
RTVSPropertyOp12
 70
     0
102
RTVSPropertyOp13
 70
     0
102
RTVSPropertyOp14
 70
     2
102
RTVSPropertyOp15
 70
     0
102
RTVSPropertyOp16
 70
     0
102
RTVSPropertyOp17
 70
     0
102
RTVSPropertyOp18
 70
     0
102
RTVSPropertyOp19
 70
     0
102
RTVSPropertyOp20
 70
     0
102
RTVSPropertyOp21
 70
     0
102
RTVSPropertyOp22
 70
     0
102
RTVSPropertyOp23
 70
     0
102
RTVSPropertyOp24
 70
     0
102
RTVSPropertyOp25
 70
     0
102
RTVSPropertyOp26
 70
     0
102
RTVSPropertyOp27
 70
     0
102
RTVSPropertyOp28
 70
     0
102
RTVSPropertyOp29
 70
     0
102
RTVSPropertyOp30
 70
     0
102
RTVSPropertyOp31
 70
     0
102
RTVSPropertyOp32
 70
     0
  0
XRECORD
  5
6A3
102
{ACAD_REACTORS
330
6A2
102
}
330
6A2
100
AcDbXrecord
280
     1
102
RTVSPropertyOp0
 70
     1
102
RTVSPropertyOp1
 70
     1
102
RTVSPropertyOp2
 70
     1
102
RTVSPropertyOp3
 70
     1
102
RTVSPropertyOp4
 70
     1
102
RTVSPropertyOp5
 70
     1
102
RTVSPropertyOp6
 70
     1
102
RTVSPropertyOp7
 70
     1
102
RTVSPropertyOp8
 70
     1
102
RTVSPropertyOp9
 70
     1
102
RTVSPropertyOp10
 70
     1
102
RTVSPropertyOp11
 70
     1
102
RTVSPropertyOp12
 70
     1
102
RTVSPropertyOp13
 70
     1
102
RTVSPropertyOp14
 70
     1
102
RTVSPropertyOp15
 70
     1
102
RTVSPropertyOp16
 70
     1
102
RTVSPropertyOp17
 70
     1
102
RTVSPropertyOp18
 70
     1
102
RTVSPropertyOp19
 70
     1
102
RTVSPropertyOp20
 70
     1
102
RTVSPropertyOp21
 70
     1
102
RTVSPropertyOp22
 70
     1
102
RTVSPropertyOp23
 70
     1
102
RTVSPropertyOp24
 70
     1
102
RTVSPropertyOp25
 70
     1
102
RTVSPropertyOp26
 70
     1
102
RTVSPropertyOp27
 70
     1
102
RTVSPropertyOp28
 70
     1
102
RTVSPropertyOp29
 70
     1
102
RTVSPropertyOp30
 70
     1
102
RTVSPropertyOp31
 70
     1
102
RTVSPropertyOp32
 70
     1
  0
XRECORD
  5
6BF
102
{ACAD_REACTORS
330
6BE
102
}
330
6BE
100
AcDbXrecord
280
     1
102
RTVSPropertyOp0
 70
     0
102
RTVSPropertyOp1
 70
     0
102
RTVSPropertyOp2
 70
     0
102
RTVSPropertyOp3
 70
     0
102
RTVSPropertyOp4
 70
     0
102
RTVSPropertyOp5
 70
     0
102
RTVSPropertyOp6
 70
     0
102
RTVSPropertyOp7
 70
     0
102
RTVSPropertyOp8
 70
     0
102
RTVSPropertyOp9
 70
     0
102
RTVSPropertyOp10
 70
     0
102
RTVSPropertyOp11
 70
     0
102
RTVSPropertyOp12
 70
     0
102
RTVSPropertyOp13
 70
     0
102
RTVSPropertyOp14
 70
     2
102
RTVSPropertyOp15
 70
     0
102
RTVSPropertyOp16
 70
     0
102
RTVSPropertyOp17
 70
     0
102
RTVSPropertyOp18
 70
     0
102
RTVSPropertyOp19
 70
     0
102
RTVSPropertyOp20
 70
     0
102
RTVSPropertyOp21
 70
     0
102
RTVSPropertyOp22
 70
     0
102
RTVSPropertyOp23
 70
     0
102
RTVSPropertyOp24
 70
     0
102
RTVSPropertyOp25
 70
     0
102
RTVSPropertyOp26
 70
     0
102
RTVSPropertyOp27
 70
     0
102
RTVSPropertyOp28
 70
     0
102
RTVSPropertyOp29
 70
     0
102
RTVSPropertyOp30
 70
     0
102
RTVSPropertyOp31
 70
     0
102
RTVSPropertyOp32
 70
     0
  0
XRECORD
  5
699
102
{ACAD_REACTORS
330
698
102
}
330
698
100
AcDbXrecord
280
     1
102
RTVSPropertyOp0
 70
     1
102
RTVSPropertyOp1
 70
     1
102
RTVSPropertyOp2
 70
     1
102
RTVSPropertyOp3
 70
     1
102
RTVSPropertyOp4
 70
     1
102
RTVSPropertyOp5
 70
     1
102
RTVSPropertyOp6
 70
     1
102
RTVSPropertyOp7
 70
     1
102
RTVSPropertyOp8
 70
     1
102
RTVSPropertyOp9
 70
     1
102
RTVSPropertyOp10
 70
     1
102
RTVSPropertyOp11
 70
     1
102
RTVSPropertyOp12
 70
     1
102
RTVSPropertyOp13
 70
     1
102
RTVSPropertyOp14
 70
     1
102
RTVSPropertyOp15
 70
     1
102
RTVSPropertyOp16
 70
     1
102
RTVSPropertyOp17
 70
     1
102
RTVSPropertyOp18
 70
     1
102
RTVSPropertyOp19
 70
     1
102
RTVSPropertyOp20
 70
     1
102
RTVSPropertyOp21
 70
     1
102
RTVSPropertyOp22
 70
     1
102
RTVSPropertyOp23
 70
     1
102
RTVSPropertyOp24
 70
     1
102
RTVSPropertyOp25
 70
     1
102
RTVSPropertyOp26
 70
     1
102
RTVSPropertyOp27
 70
     1
102
RTVSPropertyOp28
 70
     1
102
RTVSPropertyOp29
 70
     1
102
RTVSPropertyOp30
 70
     1
102
RTVSPropertyOp31
 70
     1
102
RTVSPropertyOp32
 70
     1
  0
XRECORD
  5
6BB
102
{ACAD_REACTORS
330
6BA
102
}
330
6BA
100
AcDbXrecord
280
     1
102
RTVSPropertyOp0
 70
     1
102
RTVSPropertyOp1
 70
     1
102
RTVSPropertyOp2
 70
     1
102
RTVSPropertyOp3
 70
     1
102
RTVSPropertyOp4
 70
     1
102
RTVSPropertyOp5
 70
     1
102
RTVSPropertyOp6
 70
     1
102
RTVSPropertyOp7
 70
     1
102
RTVSPropertyOp8
 70
     1
102
RTVSPropertyOp9
 70
     1
102
RTVSPropertyOp10
 70
     1
102
RTVSPropertyOp11
 70
     1
102
RTVSPropertyOp12
 70
     1
102
RTVSPropertyOp13
 70
     1
102
RTVSPropertyOp14
 70
     1
102
RTVSPropertyOp15
 70
     1
102
RTVSPropertyOp16
 70
     1
102
RTVSPropertyOp17
 70
     1
102
RTVSPropertyOp18
 70
     1
102
RTVSPropertyOp19
 70
     1
102
RTVSPropertyOp20
 70
     1
102
RTVSPropertyOp21
 70
     1
102
RTVSPropertyOp22
 70
     1
102
RTVSPropertyOp23
 70
     1
102
RTVSPropertyOp24
 70
     1
102
RTVSPropertyOp25
 70
     1
102
RTVSPropertyOp26
 70
     1
102
RTVSPropertyOp27
 70
     1
102
RTVSPropertyOp28
 70
     1
102
RTVSPropertyOp29
 70
     1
102
RTVSPropertyOp30
 70
     1
102
RTVSPropertyOp31
 70
     1
102
RTVSPropertyOp32
 70
     1
  0
XRECORD
  5
6B9
102
{ACAD_REACTORS
330
6B8
102
}
330
6B8
100
AcDbXrecord
280
     1
102
RTVSPropertyOp0
 70
     1
102
RTVSPropertyOp1
 70
     1
102
RTVSPropertyOp2
 70
     1
102
RTVSPropertyOp3
 70
     1
102
RTVSPropertyOp4
 70
     1
102
RTVSPropertyOp5
 70
     1
102
RTVSPropertyOp6
 70
     1
102
RTVSPropertyOp7
 70
     1
102
RTVSPropertyOp8
 70
     1
102
RTVSPropertyOp9
 70
     1
102
RTVSPropertyOp10
 70
     1
102
RTVSPropertyOp11
 70
     1
102
RTVSPropertyOp12
 70
     1
102
RTVSPropertyOp13
 70
     1
102
RTVSPropertyOp14
 70
     1
102
RTVSPropertyOp15
 70
     1
102
RTVSPropertyOp16
 70
     1
102
RTVSPropertyOp17
 70
     1
102
RTVSPropertyOp18
 70
     1
102
RTVSPropertyOp19
 70
     1
102
RTVSPropertyOp20
 70
     1
102
RTVSPropertyOp21
 70
     1
102
RTVSPropertyOp22
 70
     1
102
RTVSPropertyOp23
 70
     1
102
RTVSPropertyOp24
 70
     1
102
RTVSPropertyOp25
 70
     1
102
RTVSPropertyOp26
 70
     1
102
RTVSPropertyOp27
 70
     1
102
RTVSPropertyOp28
 70
     1
102
RTVSPropertyOp29
 70
     1
102
RTVSPropertyOp30
 70
     1
102
RTVSPropertyOp31
 70
     1
102
RTVSPropertyOp32
 70
     1
  0
XRECORD
  5
6B3
102
{ACAD_REACTORS
330
6B2
102
}
330
6B2
100
AcDbXrecord
280
     1
102
RTVSPropertyOp0
 70
     1
102
RTVSPropertyOp1
 70
     1
102
RTVSPropertyOp2
 70
     1
102
RTVSPropertyOp3
 70
     1
102
RTVSPropertyOp4
 70
     1
102
RTVSPropertyOp5
 70
     1
102
RTVSPropertyOp6
 70
     1
102
RTVSPropertyOp7
 70
     1
102
RTVSPropertyOp8
 70
     1
102
RTVSPropertyOp9
 70
     1
102
RTVSPropertyOp10
 70
     1
102
RTVSPropertyOp11
 70
     1
102
RTVSPropertyOp12
 70
     1
102
RTVSPropertyOp13
 70
     1
102
RTVSPropertyOp14
 70
     1
102
RTVSPropertyOp15
 70
     1
102
RTVSPropertyOp16
 70
     1
102
RTVSPropertyOp17
 70
     1
102
RTVSPropertyOp18
 70
     1
102
RTVSPropertyOp19
 70
     1
102
RTVSPropertyOp20
 70
     1
102
RTVSPropertyOp21
 70
     1
102
RTVSPropertyOp22
 70
     1
102
RTVSPropertyOp23
 70
     1
102
RTVSPropertyOp24
 70
     1
102
RTVSPropertyOp25
 70
     1
102
RTVSPropertyOp26
 70
     1
102
RTVSPropertyOp27
 70
     1
102
RTVSPropertyOp28
 70
     1
102
RTVSPropertyOp29
 70
     1
102
RTVSPropertyOp30
 70
     1
102
RTVSPropertyOp31
 70
     1
102
RTVSPropertyOp32
 70
     1
  0
XRECORD
  5
6B5
102
{ACAD_REACTORS
330
6B4
102
}
330
6B4
100
AcDbXrecord
280
     1
102
RTVSPropertyOp0
 70
     1
102
RTVSPropertyOp1
 70
     1
102
RTVSPropertyOp2
 70
     1
102
RTVSPropertyOp3
 70
     1
102
RTVSPropertyOp4
 70
     1
102
RTVSPropertyOp5
 70
     1
102
RTVSPropertyOp6
 70
     1
102
RTVSPropertyOp7
 70
     1
102
RTVSPropertyOp8
 70
     1
102
RTVSPropertyOp9
 70
     1
102
RTVSPropertyOp10
 70
     1
102
RTVSPropertyOp11
 70
     1
102
RTVSPropertyOp12
 70
     1
102
RTVSPropertyOp13
 70
     1
102
RTVSPropertyOp14
 70
     1
102
RTVSPropertyOp15
 70
     1
102
RTVSPropertyOp16
 70
     1
102
RTVSPropertyOp17
 70
     1
102
RTVSPropertyOp18
 70
     1
102
RTVSPropertyOp19
 70
     1
102
RTVSPropertyOp20
 70
     1
102
RTVSPropertyOp21
 70
     1
102
RTVSPropertyOp22
 70
     1
102
RTVSPropertyOp23
 70
     1
102
RTVSPropertyOp24
 70
     1
102
RTVSPropertyOp25
 70
     1
102
RTVSPropertyOp26
 70
     1
102
RTVSPropertyOp27
 70
     1
102
RTVSPropertyOp28
 70
     1
102
RTVSPropertyOp29
 70
     1
102
RTVSPropertyOp30
 70
     1
102
RTVSPropertyOp31
 70
     1
102
RTVSPropertyOp32
 70
     1
  0
XRECORD
  5
6A1
102
{ACAD_REACTORS
330
6A0
102
}
330
6A0
100
AcDbXrecord
280
     1
102
RTVSPropertyOp0
 70
     1
102
RTVSPropertyOp1
 70
     1
102
RTVSPropertyOp2
 70
     1
102
RTVSPropertyOp3
 70
     1
102
RTVSPropertyOp4
 70
     1
102
RTVSPropertyOp5
 70
     1
102
RTVSPropertyOp6
 70
     1
102
RTVSPropertyOp7
 70
     1
102
RTVSPropertyOp8
 70
     1
102
RTVSPropertyOp9
 70
     1
102
RTVSPropertyOp10
 70
     1
102
RTVSPropertyOp11
 70
     1
102
RTVSPropertyOp12
 70
     1
102
RTVSPropertyOp13
 70
     1
102
RTVSPropertyOp14
 70
     1
102
RTVSPropertyOp15
 70
     1
102
RTVSPropertyOp16
 70
     1
102
RTVSPropertyOp17
 70
     1
102
RTVSPropertyOp18
 70
     1
102
RTVSPropertyOp19
 70
     1
102
RTVSPropertyOp20
 70
     1
102
RTVSPropertyOp21
 70
     1
102
RTVSPropertyOp22
 70
     1
102
RTVSPropertyOp23
 70
     1
102
RTVSPropertyOp24
 70
     1
102
RTVSPropertyOp25
 70
     1
102
RTVSPropertyOp26
 70
     1
102
RTVSPropertyOp27
 70
     1
102
RTVSPropertyOp28
 70
     1
102
RTVSPropertyOp29
 70
     1
102
RTVSPropertyOp30
 70
     1
102
RTVSPropertyOp31
 70
     1
102
RTVSPropertyOp32
 70
     1
  0
XRECORD
  5
6AF
102
{ACAD_REACTORS
330
6AE
102
}
330
6AE
100
AcDbXrecord
280
     1
102
RTVSPropertyOp0
 70
     1
102
RTVSPropertyOp1
 70
     1
102
RTVSPropertyOp2
 70
     1
102
RTVSPropertyOp3
 70
     1
102
RTVSPropertyOp4
 70
     1
102
RTVSPropertyOp5
 70
     1
102
RTVSPropertyOp6
 70
     1
102
RTVSPropertyOp7
 70
     1
102
RTVSPropertyOp8
 70
     1
102
RTVSPropertyOp9
 70
     1
102
RTVSPropertyOp10
 70
     1
102
RTVSPropertyOp11
 70
     1
102
RTVSPropertyOp12
 70
     1
102
RTVSPropertyOp13
 70
     1
102
RTVSPropertyOp14
 70
     1
102
RTVSPropertyOp15
 70
     1
102
RTVSPropertyOp16
 70
     1
102
RTVSPropertyOp17
 70
     1
102
RTVSPropertyOp18
 70
     1
102
RTVSPropertyOp19
 70
     1
102
RTVSPropertyOp20
 70
     1
102
RTVSPropertyOp21
 70
     1
102
RTVSPropertyOp22
 70
     1
102
RTVSPropertyOp23
 70
     1
102
RTVSPropertyOp24
 70
     1
102
RTVSPropertyOp25
 70
     1
102
RTVSPropertyOp26
 70
     1
102
RTVSPropertyOp27
 70
     1
102
RTVSPropertyOp28
 70
     1
102
RTVSPropertyOp29
 70
     1
102
RTVSPropertyOp30
 70
     1
102
RTVSPropertyOp31
 70
     1
102
RTVSPropertyOp32
 70
     1
  0
XRECORD
  5
6B7
102
{ACAD_REACTORS
330
6B6
102
}
330
6B6
100
AcDbXrecord
280
     1
102
RTVSPropertyOp0
 70
     1
102
RTVSPropertyOp1
 70
     1
102
RTVSPropertyOp2
 70
     1
102
RTVSPropertyOp3
 70
     1
102
RTVSPropertyOp4
 70
     1
102
RTVSPropertyOp5
 70
     1
102
RTVSPropertyOp6
 70
     1
102
RTVSPropertyOp7
 70
     1
102
RTVSPropertyOp8
 70
     1
102
RTVSPropertyOp9
 70
     1
102
RTVSPropertyOp10
 70
     1
102
RTVSPropertyOp11
 70
     1
102
RTVSPropertyOp12
 70
     1
102
RTVSPropertyOp13
 70
     1
102
RTVSPropertyOp14
 70
     1
102
RTVSPropertyOp15
 70
     1
102
RTVSPropertyOp16
 70
     1
102
RTVSPropertyOp17
 70
     1
102
RTVSPropertyOp18
 70
     1
102
RTVSPropertyOp19
 70
     1
102
RTVSPropertyOp20
 70
     1
102
RTVSPropertyOp21
 70
     1
102
RTVSPropertyOp22
 70
     1
102
RTVSPropertyOp23
 70
     1
102
RTVSPropertyOp24
 70
     1
102
RTVSPropertyOp25
 70
     1
102
RTVSPropertyOp26
 70
     1
102
RTVSPropertyOp27
 70
     1
102
RTVSPropertyOp28
 70
     1
102
RTVSPropertyOp29
 70
     1
102
RTVSPropertyOp30
 70
     1
102
RTVSPropertyOp31
 70
     1
102
RTVSPropertyOp32
 70
     1
  0
ENDSEC
  0
EOF
