  0
SECTION
  2
HEADER
  9
$ACADVER
  1
AC1015
  9
$ACADMAINTVER
 70
    20
  9
$DWGCODEPAGE
  3
ANSI_1252
  9
$INSBASE
 10
0.0
 20
0.0
 30
0.0
  9
$EXTMIN
 10
-0.5
 20
-0.5
 30
-0.5
  9
$EXTMAX
 10
5.0
 20
5.0
 30
5.0
  9
$LIMMIN
 10
-0.5
 20
-0.5
  9
$LIMMAX
 10
5.0
 20
5.0
  9
$ORTHOMODE
 70
     0
  9
$REGENMODE
 70
     1
  9
$FILLMODE
 70
     1
  9
$QTEXTMODE
 70
     0
  9
$MIRRTEXT
 70
     1
  9
$LTSCALE
 40
1.0
  9
$ATTMODE
 70
     1
  9
$TEXTSIZE
 40
0.2
  9
$TRACEWID
 40
0.05
  9
$TEXTSTYLE
  7
Standard
  9
$CLAYER
  8
0
  9
$CELTYPE
  6
BYLAYER
  9
$CECOLOR
 62
   256
  9
$CELTSCALE
 40
1.0
  9
$DISPSILH
 70
     0
  9
$DIMSCALE
 40
1.0
  9
$DIMASZ
 40
0.18
  9
$DIMEXO
 40
0.0625
  9
$DIMDLI
 40
0.38
  9
$DIMRND
 40
0.0
  9
$DIMDLE
 40
0.0
  9
$DIMEXE
 40
0.18
  9
$DIMTP
 40
0.0
  9
$DIMTM
 40
0.0
  9
$DIMTXT
 40
0.18
  9
$DIMCEN
 40
0.09
  9
$DIMTSZ
 40
0.0
  9
$DIMTOL
 70
     0
  9
$DIMLIM
 70
     0
  9
$DIMTIH
 70
     1
  9
$DIMTOH
 70
     1
  9
$DIMSE1
 70
     0
  9
$DIMSE2
 70
     0
  9
$DIMTAD
 70
     0
  9
$DIMZIN
 70
     0
  9
$DIMBLK
  1

  9
$DIMASO
 70
     1
  9
$DIMSHO
 70
     1
  9
$DIMPOST
  1

  9
$DIMAPOST
  1

  9
$DIMALT
 70
     0
  9
$DIMALTD
 70
     2
  9
$DIMALTF
 40
25.4
  9
$DIMLFAC
 40
1.0
  9
$DIMTOFL
 70
     0
  9
$DIMTVP
 40
0.0
  9
$DIMTIX
 70
     0
  9
$DIMSOXD
 70
     0
  9
$DIMSAH
 70
     0
  9
$DIMBLK1
  1

  9
$DIMBLK2
  1

  9
$DIMSTYLE
  2
Standard
  9
$DIMCLRD
 70
     0
  9
$DIMCLRE
 70
     0
  9
$DIMCLRT
 70
     0
  9
$DIMTFAC
 40
1.0
  9
$DIMGAP
 40
0.09
  9
$DIMJUST
 70
     0
  9
$DIMSD1
 70
     0
  9
$DIMSD2
 70
     0
  9
$DIMTOLJ
 70
     1
  9
$DIMTZIN
 70
     0
  9
$DIMALTZ
 70
     0
  9
$DIMALTTZ
 70
     0
  9
$DIMUPT
 70
     0
  9
$DIMDEC
 70
     4
  9
$DIMTDEC
 70
     4
  9
$DIMALTU
 70
     2
  9
$DIMALTTD
 70
     2
  9
$DIMTXSTY
  7
Standard
  9
$DIMAUNIT
 70
     0
  9
$DIMADEC
 70
     0
  9
$DIMALTRND
 40
0.0
  9
$DIMAZIN
 70
     0
  9
$DIMDSEP
 70
    46
  9
$DIMATFIT
 70
     3
  9
$DIMFRAC
 70
     0
  9
$DIMLDRBLK
  1

  9
$DIMLUNIT
 70
     2
  9
$DIMLWD
 70
    -2
  9
$DIMLWE
 70
    -2
  9
$DIMTMOVE
 70
     0
  9
$LUNITS
 70
     2
  9
$LUPREC
 70
     4
  9
$SKETCHINC
 40
0.1
  9
$FILLETRAD
 40
0.5
  9
$AUNITS
 70
     0
  9
$AUPREC
 70
     0
  9
$MENU
  1
.
  9
$ELEVATION
 40
0.0
  9
$PELEVATION
 40
0.0
  9
$THICKNESS
 40
0.0
  9
$LIMCHECK
 70
     0
  9
$CHAMFERA
 40
0.5
  9
$CHAMFERB
 40
0.5
  9
$CHAMFERC
 40
1.0
  9
$CHAMFERD
 40
0.0
  9
$SKPOLY
 70
     0
  9
$TDCREATE
 40
2456714.621657269
  9
$TDUCREATE
 40
2456714.871657268
  9
$TDUPDATE
 40
2456714.626839225
  9
$TDUUPDATE
 40
2456714.876839225
  9
$TDINDWG
 40
0.0009598148
  9
$TDUSRTIMER
 40
0.0009585532
  9
$USRTIMER
 70
     1
  9
$ANGBASE
 50
0.0
  9
$ANGDIR
 70
     0
  9
$PDMODE
 70
     0
  9
$PDSIZE
 40
0.0
  9
$PLINEWID
 40
0.0
  9
$SPLFRAME
 70
     0
  9
$SPLINETYPE
 70
     6
  9
$SPLINESEGS
 70
     8
  9
$HANDSEED
  5
349
  9
$SURFTAB1
 70
     6
  9
$SURFTAB2
 70
     6
  9
$SURFTYPE
 70
     6
  9
$SURFU
 70
     6
  9
$SURFV
 70
     6
  9
$UCSBASE
  2

  9
$UCSNAME
  2

  9
$UCSORG
 10
0.0
 20
0.0
 30
0.0
  9
$UCSXDIR
 10
1.0
 20
0.0
 30
0.0
  9
$UCSYDIR
 10
0.0
 20
1.0
 30
0.0
  9
$UCSORTHOREF
  2

  9
$UCSORTHOVIEW
 70
     0
  9
$UCSORGTOP
 10
0.0
 20
0.0
 30
0.0
  9
$UCSORGBOTTOM
 10
0.0
 20
0.0
 30
0.0
  9
$UCSORGLEFT
 10
0.0
 20
0.0
 30
0.0
  9
$UCSORGRIGHT
 10
0.0
 20
0.0
 30
0.0
  9
$UCSORGFRONT
 10
0.0
 20
0.0
 30
0.0
  9
$UCSORGBACK
 10
0.0
 20
0.0
 30
0.0
  9
$PUCSBASE
  2

  9
$PUCSNAME
  2

  9
$PUCSORG
 10
0.0
 20
0.0
 30
0.0
  9
$PUCSXDIR
 10
1.0
 20
0.0
 30
0.0
  9
$PUCSYDIR
 10
0.0
 20
1.0
 30
0.0
  9
$PUCSORTHOREF
  2

  9
$PUCSORTHOVIEW
 70
     0
  9
$PUCSORGTOP
 10
0.0
 20
0.0
 30
0.0
  9
$PUCSORGBOTTOM
 10
0.0
 20
0.0
 30
0.0
  9
$PUCSORGLEFT
 10
0.0
 20
0.0
 30
0.0
  9
$PUCSORGRIGHT
 10
0.0
 20
0.0
 30
0.0
  9
$PUCSORGFRONT
 10
0.0
 20
0.0
 30
0.0
  9
$PUCSORGBACK
 10
0.0
 20
0.0
 30
0.0
  9
$USERI1
 70
     0
  9
$USERI2
 70
     0
  9
$USERI3
 70
     0
  9
$USERI4
 70
     0
  9
$USERI5
 70
     0
  9
$USERR1
 40
0.0
  9
$USERR2
 40
0.0
  9
$USERR3
 40
0.0
  9
$USERR4
 40
0.0
  9
$USERR5
 40
0.0
  9
$WORLDVIEW
 70
     1
  9
$SHADEDGE
 70
     3
  9
$SHADEDIF
 70
    70
  9
$TILEMODE
 70
     0
  9
$MAXACTVP
 70
    64
  9
$PINSBASE
 10
0.0
 20
0.0
 30
0.0
  9
$PLIMCHECK
 70
     0
  9
$PEXTMIN
 10
1.518424999999999
 20
3.425905
 30
0.0
  9
$PEXTMAX
 10
3.683767
 20
7.342914999999999
 30
0.0
  9
$PLIMMIN
 10
0.0
 20
0.0
  9
$PLIMMAX
 10
11.0
 20
8.5
  9
$UNITMODE
 70
     0
  9
$VISRETAIN
 70
     1
  9
$PLINEGEN
 70
     0
  9
$PSLTSCALE
 70
     1
  9
$TREEDEPTH
 70
  3020
  9
$CMLSTYLE
  2
Standard
  9
$CMLJUST
 70
     0
  9
$CMLSCALE
 40
1.0
  9
$PROXYGRAPHICS
 70
     1
  9
$MEASUREMENT
 70
     0
  9
$CELWEIGHT
370
    -1
  9
$ENDCAPS
280
     0
  9
$JOINSTYLE
280
     0
  9
$LWDISPLAY
290
     0
  9
$INSUNITS
 70
     1
  9
$HYPERLINKBASE
  1

  9
$STYLESHEET
  1

  9
$XEDIT
290
     1
  9
$CEPSNTYPE
380
     0
  9
$PSTYLEMODE
290
     1
  9
$FINGERPRINTGUID
  2
{D9AA1B1A-041E-4335-9E93-2E0FD16CDAB3}
  9
$VERSIONGUID
  2
{FAEB1C32-E019-11D5-929B-00C0DF256EC4}
  9
$EXTNAMES
290
     1
  9
$PSVPSCALE
 40
0.0
  9
$OLESTARTUP
290
     0
  0
ENDSEC
  0
SECTION
  2
CLASSES
  0
CLASS
  1
ACDBDICTIONARYWDFLT
  2
AcDbDictionaryWithDefault
  3
ObjectDBX Classes
 90
        0
280
     0
281
     0
  0
CLASS
  1
VISUALSTYLE
  2
AcDbVisualStyle
  3
ObjectDBX Classes
 90
     4095
280
     0
281
     0
  0
CLASS
  1
MATERIAL
  2
AcDbMaterial
  3
ObjectDBX Classes
 90
     1153
280
     0
281
     0
  0
CLASS
  1
DICTIONARYVAR
  2
AcDbDictionaryVar
  3
ObjectDBX Classes
 90
        0
280
     0
281
     0
  0
CLASS
  1
ACDBPLACEHOLDER
  2
AcDbPlaceHolder
  3
ObjectDBX Classes
 90
        0
280
     0
281
     0
  0
CLASS
  1
LAYOUT
  2
AcDbLayout
  3
ObjectDBX Classes
 90
        0
280
     0
281
     0
  0
CLASS
  1
TABLESTYLE
  2
AcDbTableStyle
  3
ObjectDBX Classes
 90
     4095
280
     0
281
     0
  0
CLASS
  1
SCALE
  2
AcDbScale
  3
ObjectDBX Classes
 90
     1153
280
     0
281
     0
  0
CLASS
  1
MLEADERSTYLE
  2
AcDbMLeaderStyle
  3
ACDB_MLEADERSTYLE_CLASS
 90
     4095
280
     0
281
     0
  0
CLASS
  1
CELLSTYLEMAP
  2
AcDbCellStyleMap
  3
ObjectDBX Classes
 90
     1152
280
     0
281
     0
  0
ENDSEC
  0
SECTION
  2
TABLES
  0
TABLE
  2
VPORT
  5
8
330
0
100
AcDbSymbolTable
 70
    17
  0
VPORT
  5
29
330
8
100
AcDbSymbolTableRecord
100
AcDbViewportTableRecord
  2
DUMMY
 70
     0
 10
0.0
 20
0.0
 11
1.0
 21
1.0
 12
10.429907
 22
4.5
 13
0.0
 23
0.0
 14
0.5
 24
0.5
 15
0.5
 25
0.5
 16
0.0
 26
0.0
 36
1.0
 17
0.0
 27
0.0
 37
0.0
 40
9.0
 41
1.972972999999999
 42
50.0
 43
0.0
 44
0.0
 50
0.0
 51
0.0
 71
     0
 72
   100
 73
     1
 74
     3
 75
     0
 76
     0
 77
     0
 78
     0
281
     0
 65
     1
110
0.0
120
0.0
130
0.0
111
1.0
121
0.0
131
0.0
112
0.0
122
1.0
132
0.0
 79
     0
146
0.0
  0
VPORT
  5
29D
330
8
100
AcDbSymbolTableRecord
100
AcDbViewportTableRecord
  2
*ACTIVE
 70
     0
 10
0.0
 20
0.0
 11
1.0
 21
1.0
 12
-6.834471999999999
 22
-6.834471999999999
 13
0.0
 23
0.0
 14
0.5
 24
0.5
 15
0.5
 25
0.5
 16
0.7188730927569435
 26
-0.5850486126764432
 36
0.3754192287502549
 17
0.0
 27
0.0
 37
0.0
 40
61.350868
 41
0.28943
 42
50.0
 43
482.07238
 44
-482.07238
 50
0.0
 51
0.0
 71
     0
 72
   100
 73
     1
 74
     3
 75
     0
 76
     0
 77
     0
 78
     0
281
     0
 65
     1
110
0.0
120
0.0
130
0.0
111
1.0
121
0.0
131
0.0
112
0.0
122
1.0
132
0.0
 79
     0
146
0.0
  0
VPORT
  5
29E
330
8
100
AcDbSymbolTableRecord
100
AcDbViewportTableRecord
  2
L1
 70
     0
 10
0.0
 20
0.0
 11
1.0
 21
1.0
 12
-6.834471999999999
 22
-6.834471999999999
 13
0.0
 23
0.0
 14
0.5
 24
0.5
 15
0.5
 25
0.5
 16
0.7188730927569435
 26
-0.5850486126764432
 36
0.3754192287502549
 17
0.0
 27
0.0
 37
0.0
 40
61.350868
 41
0.28943
 42
50.0
 43
482.07238
 44
-482.07238
 50
0.0
 51
0.0
 71
     0
 72
   100
 73
     1
 74
     3
 75
     0
 76
     0
 77
     0
 78
     0
281
     0
 65
     1
110
0.0
120
0.0
130
0.0
111
1.0
121
0.0
131
0.0
112
0.0
122
1.0
132
0.0
 79
     0
146
0.0
  0
VPORT
  5
29F
330
8
100
AcDbSymbolTableRecord
100
AcDbViewportTableRecord
  2
L2
 70
     0
 10
0.0
 20
0.0
 11
0.5
 21
1.0
 12
0.0
 22
0.0
 13
0.0
 23
0.0
 14
0.5
 24
0.5
 15
0.5
 25
0.5
 16
0.0
 26
-1.0
 36
0.0
 17
0.0
 27
0.0
 37
0.0
 40
59.28775
 41
0.299501
 42
50.0
 43
30.446227
 44
-30.446227
 50
0.0
 51
0.0
 71
     0
 72
   100
 73
     1
 74
     3
 75
     0
 76
     0
 77
     0
 78
     0
281
     0
 65
     1
110
0.0
120
0.0
130
0.0
111
1.0
121
0.0
131
0.0
112
0.0
122
1.0
132
0.0
 79
     0
146
0.0
  0
VPORT
  5
2A0
330
8
100
AcDbSymbolTableRecord
100
AcDbViewportTableRecord
  2
L2
 70
     0
 10
0.5
 20
0.0
 11
1.0
 21
1.0
 12
0.0
 22
0.0
 13
0.0
 23
0.0
 14
0.5
 24
0.5
 15
0.5
 25
0.5
 16
1.0
 26
0.0
 36
0.0
 17
0.0
 27
0.0
 37
0.0
 40
59.28775
 41
0.299501
 42
50.0
 43
30.05782
 44
-30.05782
 50
0.0
 51
0.0
 71
     0
 72
   100
 73
     1
 74
     3
 75
     0
 76
     0
 77
     0
 78
     0
281
     0
 65
     1
110
0.0
120
0.0
130
0.0
111
1.0
121
0.0
131
0.0
112
0.0
122
1.0
132
0.0
 79
     0
146
0.0
  0
VPORT
  5
2A1
330
8
100
AcDbSymbolTableRecord
100
AcDbViewportTableRecord
  2
L3
 70
     0
 10
0.0
 20
0.5
 11
1.0
 21
1.0
 12
0.0
 22
0.0
 13
0.0
 23
0.0
 14
0.5
 24
0.5
 15
0.5
 25
0.5
 16
0.0
 26
0.0
 36
1.0
 17
0.0
 27
0.0
 37
0.0
 40
9.942482999999999
 41
1.785947999999999
 42
50.0
 43
29.643875
 44
-29.643875
 50
0.0
 51
0.0
 71
     0
 72
   100
 73
     1
 74
     3
 75
     0
 76
     0
 77
     0
 78
     0
281
     0
 65
     1
110
0.0
120
0.0
130
0.0
111
1.0
121
0.0
131
0.0
112
0.0
122
1.0
132
0.0
 79
     0
146
0.0
  0
VPORT
  5
2A2
330
8
100
AcDbSymbolTableRecord
100
AcDbViewportTableRecord
  2
L3
 70
     0
 10
0.0
 20
0.0
 11
1.0
 21
0.5
 12
0.0
 22
0.0
 13
0.0
 23
0.0
 14
0.5
 24
0.5
 15
0.5
 25
0.5
 16
0.0
 26
-1.0
 36
0.0
 17
0.0
 27
0.0
 37
0.0
 40
59.28775
 41
0.299501
 42
50.0
 43
30.446227
 44
-30.446227
 50
0.0
 51
0.0
 71
     0
 72
   100
 73
     1
 74
     3
 75
     0
 76
     0
 77
     0
 78
     0
281
     0
 65
     1
110
0.0
120
0.0
130
0.0
111
1.0
121
0.0
131
0.0
112
0.0
122
1.0
132
0.0
 79
     0
146
0.0
  0
VPORT
  5
2A3
330
8
100
AcDbSymbolTableRecord
100
AcDbViewportTableRecord
  2
L4
 70
     0
 10
0.0
 20
0.5
 11
0.5
 21
1.0
 12
0.0
 22
0.0
 13
0.0
 23
0.0
 14
0.5
 24
0.5
 15
0.5
 25
0.5
 16
0.0
 26
0.0
 36
1.0
 17
0.0
 27
0.0
 37
0.0
 40
9.942482999999999
 41
1.785947999999999
 42
50.0
 43
29.643875
 44
-29.643875
 50
0.0
 51
0.0
 71
     0
 72
   100
 73
     1
 74
     3
 75
     0
 76
     0
 77
     0
 78
     0
281
     0
 65
     1
110
0.0
120
0.0
130
0.0
111
1.0
121
0.0
131
0.0
112
0.0
122
1.0
132
0.0
 79
     0
146
0.0
  0
VPORT
  5
2A4
330
8
100
AcDbSymbolTableRecord
100
AcDbViewportTableRecord
  2
L4
 70
     0
 10
0.0
 20
0.0
 11
0.5
 21
0.5
 12
0.0
 22
0.0
 13
0.0
 23
0.0
 14
0.5
 24
0.5
 15
0.5
 25
0.5
 16
0.0
 26
-1.0
 36
0.0
 17
0.0
 27
0.0
 37
0.0
 40
59.28775
 41
0.299501
 42
50.0
 43
30.446227
 44
-30.446227
 50
0.0
 51
0.0
 71
     0
 72
   100
 73
     1
 74
     3
 75
     0
 76
     0
 77
     0
 78
     0
281
     0
 65
     1
110
0.0
120
0.0
130
0.0
111
1.0
121
0.0
131
0.0
112
0.0
122
1.0
132
0.0
 79
     0
146
0.0
  0
VPORT
  5
2A5
330
8
100
AcDbSymbolTableRecord
100
AcDbViewportTableRecord
  2
L4
 70
     0
 10
0.5
 20
0.0
 11
1.0
 21
0.5
 12
0.0
 22
0.0
 13
0.0
 23
0.0
 14
0.5
 24
0.5
 15
0.5
 25
0.5
 16
1.0
 26
0.0
 36
0.0
 17
0.0
 27
0.0
 37
0.0
 40
59.28775
 41
0.299501
 42
50.0
 43
30.05782
 44
-30.05782
 50
0.0
 51
0.0
 71
     0
 72
   100
 73
     1
 74
     3
 75
     0
 76
     0
 77
     0
 78
     0
281
     0
 65
     1
110
0.0
120
0.0
130
0.0
111
1.0
121
0.0
131
0.0
112
0.0
122
1.0
132
0.0
 79
     0
146
0.0
  0
VPORT
  5
2A6
330
8
100
AcDbSymbolTableRecord
100
AcDbViewportTableRecord
  2
L4
 70
     0
 10
0.5
 20
0.5
 11
1.0
 21
1.0
 12
0.0
 22
0.0
 13
0.0
 23
0.0
 14
0.5
 24
0.5
 15
0.5
 25
0.5
 16
0.5773502691896259
 26
-0.5773502691896259
 36
0.5773502691896259
 17
0.0
 27
0.0
 37
0.0
 40
58.136664
 41
0.305431
 42
50.0
 43
30.264658
 44
-30.264658
 50
0.0
 51
0.0
 71
     0
 72
   100
 73
     1
 74
     3
 75
     0
 76
     0
 77
     0
 78
     0
281
     0
 65
     1
110
0.0
120
0.0
130
0.0
111
1.0
121
0.0
131
0.0
112
0.0
122
1.0
132
0.0
 79
     0
146
0.0
  0
VPORT
  5
2A7
330
8
100
AcDbSymbolTableRecord
100
AcDbViewportTableRecord
  2
L6
 70
     0
 10
0.0
 20
0.5
 11
0.333333
 21
1.0
 12
-6.834471999999999
 22
-6.834471999999999
 13
0.0
 23
0.0
 14
0.5
 24
0.5
 15
0.5
 25
0.5
 16
0.7188730927569435
 26
-0.5850486126764432
 36
0.3754192287502549
 17
0.0
 27
0.0
 37
0.0
 40
61.350868
 41
0.28943
 42
50.0
 43
482.07238
 44
-482.07238
 50
0.0
 51
0.0
 71
     0
 72
   100
 73
     1
 74
     3
 75
     0
 76
     0
 77
     0
 78
     0
281
     0
 65
     1
110
0.0
120
0.0
130
0.0
111
1.0
121
0.0
131
0.0
112
0.0
122
1.0
132
0.0
 79
     0
146
0.0
  0
VPORT
  5
2A8
330
8
100
AcDbSymbolTableRecord
100
AcDbViewportTableRecord
  2
L6
 70
     0
 10
0.0
 20
0.0
 11
0.333333
 21
0.5
 12
0.0
 22
0.0
 13
0.0
 23
0.0
 14
0.5
 24
0.5
 15
0.5
 25
0.5
 16
-1.0
 26
0.0
 36
0.0
 17
0.0
 27
0.0
 37
0.0
 40
59.28775
 41
0.299501
 42
50.0
 43
30.05782
 44
-30.05782
 50
0.0
 51
0.0
 71
     0
 72
   100
 73
     1
 74
     3
 75
     0
 76
     0
 77
     0
 78
     0
281
     0
 65
     1
110
0.0
120
0.0
130
0.0
111
1.0
121
0.0
131
0.0
112
0.0
122
1.0
132
0.0
 79
     0
146
0.0
  0
VPORT
  5
2A9
330
8
100
AcDbSymbolTableRecord
100
AcDbViewportTableRecord
  2
L6
 70
     0
 10
0.333333
 20
0.5
 11
0.666667
 21
1.0
 12
0.0
 22
0.0
 13
0.0
 23
0.0
 14
0.5
 24
0.5
 15
0.5
 25
0.5
 16
0.0
 26
0.0
 36
1.0
 17
0.0
 27
0.0
 37
0.0
 40
9.942482999999999
 41
1.785947999999999
 42
50.0
 43
29.643875
 44
-29.643875
 50
0.0
 51
0.0
 71
     0
 72
   100
 73
     1
 74
     3
 75
     0
 76
     0
 77
     0
 78
     0
281
     0
 65
     1
110
0.0
120
0.0
130
0.0
111
1.0
121
0.0
131
0.0
112
0.0
122
1.0
132
0.0
 79
     0
146
0.0
  0
VPORT
  5
2AA
330
8
100
AcDbSymbolTableRecord
100
AcDbViewportTableRecord
  2
L6
 70
     0
 10
0.333333
 20
0.0
 11
0.666667
 21
0.5
 12
0.0
 22
0.0
 13
0.0
 23
0.0
 14
0.5
 24
0.5
 15
0.5
 25
0.5
 16
0.0
 26
-1.0
 36
0.0
 17
0.0
 27
0.0
 37
0.0
 40
59.28775
 41
0.299501
 42
50.0
 43
30.446227
 44
-30.446227
 50
0.0
 51
0.0
 71
     0
 72
   100
 73
     1
 74
     3
 75
     0
 76
     0
 77
     0
 78
     0
281
     0
 65
     1
110
0.0
120
0.0
130
0.0
111
1.0
121
0.0
131
0.0
112
0.0
122
1.0
132
0.0
 79
     0
146
0.0
  0
VPORT
  5
2AB
330
8
100
AcDbSymbolTableRecord
100
AcDbViewportTableRecord
  2
L6
 70
     0
 10
0.666667
 20
0.5
 11
1.0
 21
1.0
 12
0.0
 22
0.0
 13
0.0
 23
0.0
 14
0.5
 24
0.5
 15
0.5
 25
0.5
 16
0.5773502691896259
 26
-0.5773502691896259
 36
0.5773502691896259
 17
0.0
 27
0.0
 37
0.0
 40
58.136664
 41
0.305431
 42
50.0
 43
30.264658
 44
-30.264658
 50
0.0
 51
0.0
 71
     0
 72
   100
 73
     1
 74
     3
 75
     0
 76
     0
 77
     0
 78
     0
281
     0
 65
     1
110
0.0
120
0.0
130
0.0
111
1.0
121
0.0
131
0.0
112
0.0
122
1.0
132
0.0
 79
     0
146
0.0
  0
VPORT
  5
2AC
330
8
100
AcDbSymbolTableRecord
100
AcDbViewportTableRecord
  2
L6
 70
     0
 10
0.666667
 20
0.0
 11
1.0
 21
0.5
 12
0.0
 22
0.0
 13
0.0
 23
0.0
 14
0.5
 24
0.5
 15
0.5
 25
0.5
 16
1.0
 26
0.0
 36
0.0
 17
0.0
 27
0.0
 37
0.0
 40
59.28775
 41
0.299501
 42
50.0
 43
30.05782
 44
-30.05782
 50
0.0
 51
0.0
 71
     0
 72
   100
 73
     1
 74
     3
 75
     0
 76
     0
 77
     0
 78
     0
281
     0
 65
     1
110
0.0
120
0.0
130
0.0
111
1.0
121
0.0
131
0.0
112
0.0
122
1.0
132
0.0
 79
     0
146
0.0
  0
ENDTAB
  0
TABLE
  2
LTYPE
  5
5
330
0
100
AcDbSymbolTable
 70
     7
  0
LTYPE
  5
14
330
5
100
AcDbSymbolTableRecord
100
AcDbLinetypeTableRecord
  2
BYBLOCK
 70
     0
  3

 72
    65
 73
     0
 40
0.0
  0
LTYPE
  5
15
330
5
100
AcDbSymbolTableRecord
100
AcDbLinetypeTableRecord
  2
BYLAYER
 70
     0
  3

 72
    65
 73
     0
 40
0.0
  0
LTYPE
  5
16
330
5
100
AcDbSymbolTableRecord
100
AcDbLinetypeTableRecord
  2
CONTINUOUS
 70
     0
  3
Solid line
 72
    65
 73
     0
 40
0.0
  0
LTYPE
  5
40
330
5
100
AcDbSymbolTableRecord
100
AcDbLinetypeTableRecord
  2
DASHED
 70
     0
  3
__ __ __ __ __ __ __ __ __
 72
    65
 73
     2
 40
25.72
 49
12.86
 74
     4
 75
     0
340
0
 46
0.0
 50
0.0
 44
0.0
 45
0.0
 49
-12.86
 74
     4
 75
     0
340
0
 46
0.0
 50
0.0
 44
0.0
 45
0.0
  0
LTYPE
  5
41
330
5
100
AcDbSymbolTableRecord
100
AcDbLinetypeTableRecord
  2
HIDDEN
 70
     0
  3
_ _ _ _ _ _ _ _ _ _ _ _ _ _ _
 72
    65
 73
     2
 40
0.5
 49
0.25
 74
     4
 75
     0
340
0
 46
0.0
 50
0.0
 44
0.0
 45
0.0
 49
-0.25
 74
     4
 75
     0
340
0
 46
0.0
 50
0.0
 44
0.0
 45
0.0
  0
LTYPE
  5
42
330
5
100
AcDbSymbolTableRecord
100
AcDbLinetypeTableRecord
  2
PHANTOM
 70
     0
  3
____ _ _ ____ _ _ _____ _ _ ____
 72
    65
 73
     6
 40
50.5
 49
18.0
 74
     4
 75
     0
340
0
 46
0.0
 50
0.0
 44
0.0
 45
0.0
 49
-6.5
 74
     4
 75
     0
340
0
 46
0.0
 50
0.0
 44
0.0
 45
0.0
 49
6.5
 74
     4
 75
     0
340
0
 46
0.0
 50
0.0
 44
0.0
 45
0.0
 49
-6.5
 74
     4
 75
     0
340
0
 46
0.0
 50
0.0
 44
0.0
 45
0.0
 49
6.5
 74
     4
 75
     0
340
0
 46
0.0
 50
0.0
 44
0.0
 45
0.0
 49
-6.5
 74
     4
 75
     0
340
0
 46
0.0
 50
0.0
 44
0.0
 45
0.0
  0
LTYPE
  5
43
330
5
100
AcDbSymbolTableRecord
100
AcDbLinetypeTableRecord
  2
CENTER
 70
     0
  3
____ _ ____ _ ____ _ ____
 72
    65
 73
     4
 40
47.4
 49
22.0
 74
     4
 75
     0
340
0
 46
0.0
 50
0.0
 44
0.0
 45
0.0
 49
-8.5
 74
     4
 75
     0
340
0
 46
0.0
 50
0.0
 44
0.0
 45
0.0
 49
8.5
 74
     4
 75
     0
340
0
 46
0.0
 50
0.0
 44
0.0
 45
0.0
 49
-8.5
 74
     4
 75
     0
340
0
 46
0.0
 50
0.0
 44
0.0
 45
0.0
  0
LTYPE
  5
44
330
5
100
AcDbSymbolTableRecord
100
AcDbLinetypeTableRecord
  2
DOT
 70
     0
  3
.........................
 72
    65
 73
     2
 40
10.0
 49
0.0
 74
     4
 75
     0
340
0
 46
0.0
 50
0.0
 44
0.0
 45
0.0
 49
-10.0
 74
     4
 75
     0
340
0
 46
0.0
 50
0.0
 44
0.0
 45
0.0
  0
LTYPE
  5
45
330
5
100
AcDbSymbolTableRecord
100
AcDbLinetypeTableRecord
  2
DASHDOT
 70
     0
  3
_._._._._._._._._._._._._._._._.
 72
    65
 73
     4
 40
70.0
 49
31.0
 74
     4
 75
     0
340
0
 46
0.0
 50
0.0
 44
0.0
 45
0.0
 49
-13.0
 74
     4
 75
     0
340
0
 46
0.0
 50
0.0
 44
0.0
 45
0.0
 49
13.0
 74
     4
 75
     0
340
0
 46
0.0
 50
0.0
 44
0.0
 45
0.0
 49
-13.0
 74
     4
 75
     0
340
0
 46
0.0
 50
0.0
 44
0.0
 45
0.0
  0
ENDTAB
  0
TABLE
  2
LAYER
  5
2
330
0
100
AcDbSymbolTable
 70
     2
  0
LAYER
  5
10
102
{ACAD_XDICTIONARY
360
2FF
102
}
330
2
100
AcDbSymbolTableRecord
100
AcDbLayerTableRecord
  2
0
 70
     0
 62
     7
  6
CONTINUOUS
370
    -3
390
F
  0
LAYER
  5
53
102
{ACAD_XDICTIONARY
360
301
102
}
330
2
100
AcDbSymbolTableRecord
100
AcDbLayerTableRecord
  2
1
 70
     0
 62
     7
  6
CONTINUOUS
370
    -3
390
F
  0
ENDTAB
  0
TABLE
  2
STYLE
  5
3
330
0
100
AcDbSymbolTable
 70
     1
  0
STYLE
  5
11
330
3
100
AcDbSymbolTableRecord
100
AcDbTextStyleTableRecord
  2
Standard
 70
     0
 40
0.0
 41
1.0
 50
0.0
 71
     0
 42
0.2
  3
txt
  4

  0
ENDTAB
  0
TABLE
  2
VIEW
  5
6
330
0
100
AcDbSymbolTable
 70
     8
  0
VIEW
  5
46
330
6
100
AcDbSymbolTableRecord
100
AcDbViewTableRecord
  2
TOP
 70
     0
 40
9.942482999999999
 10
0.0
 20
0.0
 41
13.88718
 11
0.0
 21
0.0
 31
1.0
 12
0.0
 22
0.0
 32
0.0
 42
50.0
 43
29.643875
 44
-29.643875
 50
0.0
 71
     0
281
     0
 72
     0
  0
VIEW
  5
47
330
6
100
AcDbSymbolTableRecord
100
AcDbViewTableRecord
  2
FRONT
 70
     0
 40
59.28775
 10
0.0
 20
0.0
 41
13.88718
 11
0.0
 21
-1.0
 31
0.0
 12
0.0
 22
0.0
 32
0.0
 42
50.0
 43
30.446227
 44
-30.446227
 50
0.0
 71
     0
281
     0
 72
     0
  0
VIEW
  5
48
330
6
100
AcDbSymbolTableRecord
100
AcDbViewTableRecord
  2
RIGHT
 70
     0
 40
59.28775
 10
0.0
 20
0.0
 41
9.942482999999999
 11
1.0
 21
0.0
 31
0.0
 12
0.0
 22
0.0
 32
0.0
 42
50.0
 43
30.05782
 44
-30.05782
 50
0.0
 71
     0
281
     0
 72
     0
  0
VIEW
  5
49
330
6
100
AcDbSymbolTableRecord
100
AcDbViewTableRecord
  2
BACK
 70
     0
 40
59.28775
 10
0.0
 20
0.0
 41
13.88718
 11
0.0
 21
1.0
 31
0.0
 12
0.0
 22
0.0
 32
0.0
 42
50.0
 43
30.446227
 44
-30.446227
 50
0.0
 71
     0
281
     0
 72
     0
  0
VIEW
  5
4A
330
6
100
AcDbSymbolTableRecord
100
AcDbViewTableRecord
  2
BOTTOM
 70
     0
 40
9.942482999999999
 10
0.0
 20
0.0
 41
13.88718
 11
0.0
 21
0.0
 31
-1.0
 12
0.0
 22
0.0
 32
0.0
 42
50.0
 43
29.643875
 44
-29.643875
 50
180.0
 71
     0
281
     0
 72
     0
  0
VIEW
  5
4B
330
6
100
AcDbSymbolTableRecord
100
AcDbViewTableRecord
  2
LEFT
 70
     0
 40
59.28775
 10
0.0
 20
0.0
 41
9.942482999999999
 11
-1.0
 21
0.0
 31
0.0
 12
0.0
 22
0.0
 32
0.0
 42
50.0
 43
30.05782
 44
-30.05782
 50
0.0
 71
     0
281
     0
 72
     0
  0
VIEW
  5
4C
330
6
100
AcDbSymbolTableRecord
100
AcDbViewTableRecord
  2
TFR-ISO
 70
     0
 40
58.136664
 10
0.0
 20
0.0
 41
16.850116
 11
0.5773502691896259
 21
-0.5773502691896259
 31
0.5773502691896259
 12
0.0
 22
0.0
 32
0.0
 42
50.0
 43
30.264658
 44
-30.264658
 50
0.0
 71
     0
281
     0
 72
     0
  0
VIEW
  5
4D
330
6
100
AcDbSymbolTableRecord
100
AcDbViewTableRecord
  2
TFR-TRI
 70
     0
 40
61.350868
 10
0.0
 20
0.0
 41
16.477288
 11
0.7188730927569435
 21
-0.5850486126764432
 31
0.3754192287502549
 12
0.0
 22
0.0
 32
0.0
 42
50.0
 43
31.762517
 44
-31.762517
 50
0.0
 71
     0
281
     0
 72
     0
  0
ENDTAB
  0
TABLE
  2
UCS
  5
7
330
0
100
AcDbSymbolTable
 70
     0
  0
ENDTAB
  0
TABLE
  2
APPID
  5
9
330
0
100
AcDbSymbolTable
 70
     2
  0
APPID
  5
12
330
9
100
AcDbSymbolTableRecord
100
AcDbRegAppTableRecord
  2
ACAD
 70
     0
  0
APPID
  5
348
330
9
100
AcDbSymbolTableRecord
100
AcDbRegAppTableRecord
  2
ACAD_MLEADERVER
 70
     0
  0
ENDTAB
  0
TABLE
  2
DIMSTYLE
  5
A
330
0
100
AcDbSymbolTable
 70
     1
100
AcDbDimStyleTable
 71
     0
  0
DIMSTYLE
105
27
330
A
100
AcDbSymbolTableRecord
100
AcDbDimStyleTableRecord
  2
Standard
 70
     0
340
11
  0
ENDTAB
  0
TABLE
  2
BLOCK_RECORD
  5
1
330
0
100
AcDbSymbolTable
 70
     0
  0
BLOCK_RECORD
  5
1F
330
1
100
AcDbSymbolTableRecord
100
AcDbBlockTableRecord
  2
*Model_Space
340
22
  0
BLOCK_RECORD
  5
4E
330
1
100
AcDbSymbolTableRecord
100
AcDbBlockTableRecord
  2
*PAPER_SPACE
340
29C
  0
ENDTAB
  0
ENDSEC
  0
SECTION
  2
BLOCKS
  0
BLOCK
  5
20
330
1F
100
AcDbEntity
  8
0
100
AcDbBlockBegin
  2
*Model_Space
 70
     0
 10
0.0
 20
0.0
 30
0.0
  3
*Model_Space
  1

  0
ENDBLK
  5
21
330
1F
100
AcDbEntity
  8
0
100
AcDbBlockEnd
  0
BLOCK
  5
4F
330
4E
100
AcDbEntity
 67
     1
  8
0
100
AcDbBlockBegin
  2
*PAPER_SPACE
 70
     0
 10
0.0
 20
0.0
 30
0.0
  3
*PAPER_SPACE
  1

  0
ENDBLK
  5
50
330
4E
100
AcDbEntity
 67
     1
  8
0
100
AcDbBlockEnd
  0
ENDSEC
  0
SECTION
  2
ENTITIES
  0
VIEWPORT
  5
51
102
{ACAD_XDICTIONARY
360
32F
102
}
330
4E
100
AcDbEntity
 67
     1
  8
0
100
AcDbViewport
 10
7.654569892473118
 20
4.25
 30
0.0
 40
15.31166959404893
 41
7.367883995703545
 68
     1
 69
     1
 12
7.654569892473118
 22
4.25
 13
0.0
 23
0.0
 14
1.0
 24
1.0
 15
1.0
 25
1.0
 16
0.0
 26
0.0
 36
1.0
 17
0.0
 27
0.0
 37
0.0
 42
43.28072699999999
 43
0.0
 44
0.0
 45
7.367883995703545
 50
0.0
 51
0.0
 72
   100
 90
   557152
  1

281
     0
 71
     1
 74
     0
110
0.0
120
0.0
130
0.0
111
1.0
121
0.0
131
0.0
112
0.0
122
1.0
132
0.0
 79
     0
146
0.0
  0
LINE
  5
52
330
4E
100
AcDbEntity
 67
     1
  8
1
  6
Continuous
 62
    18
100
AcDbLine
 10
2.601096
 20
6.905414999999999
 30
0.0
 11
2.601096
 21
7.030414999999999
 31
0.0
  0
LINE
  5
54
330
4E
100
AcDbEntity
 67
     1
  8
1
  6
Continuous
 62
    18
100
AcDbLine
 10
2.601096
 20
6.842914999999999
 30
0.0
 11
2.601096
 21
6.592914999999999
 31
0.0
  0
LINE
  5
55
330
4E
100
AcDbEntity
 67
     1
  8
1
  6
Continuous
 62
    18
100
AcDbLine
 10
2.601096
 20
7.092914999999999
 30
0.0
 11
2.601096
 21
7.342914999999999
 31
0.0
  0
LINE
  5
56
330
4E
100
AcDbEntity
 67
     1
  8
1
  6
Continuous
 62
    18
100
AcDbLine
 10
2.476096
 20
6.967914999999999
 30
0.0
 11
2.226096
 21
6.967914999999999
 31
0.0
  0
LINE
  5
57
330
4E
100
AcDbEntity
 67
     1
  8
1
  6
Continuous
 62
    18
100
AcDbLine
 10
2.538596
 20
6.967914999999999
 30
0.0
 11
2.663596
 21
6.967914999999999
 31
0.0
  0
LINE
  5
58
330
4E
100
AcDbEntity
 67
     1
  8
1
  6
Continuous
 62
    18
100
AcDbLine
 10
2.726096
 20
6.967914999999999
 30
0.0
 11
2.976096
 21
6.967914999999999
 31
0.0
  0
LINE
  5
59
330
4E
100
AcDbEntity
 67
     1
  8
1
  6
Continuous
 62
    18
100
AcDbLine
 10
1.882909999999999
 20
5.770948999999999
 30
0.0
 11
1.882118
 21
5.770948999999999
 31
0.0
  0
LINE
  5
5A
330
4E
100
AcDbEntity
 67
     1
  8
1
  6
Continuous
 62
    18
100
AcDbLine
 10
3.320073999999999
 20
5.770948999999999
 30
0.0
 11
3.319281999999999
 21
5.770948999999999
 31
0.0
  0
LINE
  5
5B
330
4E
100
AcDbEntity
 67
     1
  8
1
  6
Continuous
 62
    18
100
AcDbLine
 10
1.813194
 20
5.347355
 30
0.0
 11
1.813194
 21
5.444355999999999
 31
0.0
  0
LINE
  5
5C
330
4E
100
AcDbEntity
 67
     1
  8
1
  6
Continuous
 62
    18
100
AcDbLine
 10
1.821193
 20
5.339355999999999
 30
0.0
 11
1.815535999999999
 21
5.341699
 31
0.0
  0
LINE
  5
5D
330
4E
100
AcDbEntity
 67
     1
  8
1
  6
Continuous
 62
    18
100
AcDbLine
 10
1.815535999999999
 20
5.341699
 30
0.0
 11
1.813194
 21
5.347355
 31
0.0
  0
LINE
  5
5E
330
4E
100
AcDbEntity
 67
     1
  8
1
  6
Continuous
 62
    18
100
AcDbLine
 10
1.940172
 20
5.339355999999999
 30
0.0
 11
1.821193
 21
5.339355999999999
 31
0.0
  0
LINE
  5
5F
330
4E
100
AcDbEntity
 67
     1
  8
1
  6
Continuous
 62
    18
100
AcDbLine
 10
3.26202
 20
5.339355999999999
 30
0.0
 11
3.380998999999999
 21
5.339355999999999
 31
0.0
  0
LINE
  5
60
330
4E
100
AcDbEntity
 67
     1
  8
1
  6
Continuous
 62
    18
100
AcDbLine
 10
3.380998999999999
 20
5.339355999999999
 30
0.0
 11
3.386655999999999
 21
5.341699
 31
0.0
  0
LINE
  5
61
330
4E
100
AcDbEntity
 67
     1
  8
1
  6
Continuous
 62
    18
100
AcDbLine
 10
3.386655999999999
 20
5.341699
 30
0.0
 11
3.388998
 21
5.347355
 31
0.0
  0
LINE
  5
62
330
4E
100
AcDbEntity
 67
     1
  8
1
  6
Continuous
 62
    18
100
AcDbLine
 10
3.388998
 20
5.347355
 30
0.0
 11
3.388998
 21
5.444355999999999
 31
0.0
  0
LINE
  5
63
330
4E
100
AcDbEntity
 67
     1
  8
1
  6
Continuous
 62
    18
100
AcDbLine
 10
1.943004999999999
 20
6.680942999999999
 30
0.0
 11
1.948602999999999
 21
6.682807
 31
0.0
  0
LINE
  5
64
330
4E
100
AcDbEntity
 67
     1
  8
1
  6
Continuous
 62
    18
100
AcDbLine
 10
1.948602999999999
 20
6.682807
 30
0.0
 11
1.954808
 21
6.683042999999999
 31
0.0
  0
LINE
  5
65
330
4E
100
AcDbEntity
 67
     1
  8
1
  6
Continuous
 62
    18
100
AcDbLine
 10
1.954808
 20
6.683042999999999
 30
0.0
 11
1.968574999999999
 21
6.683138
 31
0.0
  0
LINE
  5
66
330
4E
100
AcDbEntity
 67
     1
  8
1
  6
Continuous
 62
    18
100
AcDbLine
 10
1.968574999999999
 20
6.683138
 30
0.0
 11
3.233616999999999
 21
6.683138
 31
0.0
  0
LINE
  5
67
330
4E
100
AcDbEntity
 67
     1
  8
1
  6
Continuous
 62
    18
100
AcDbLine
 10
3.233616999999999
 20
6.683138
 30
0.0
 11
3.247383999999999
 21
6.683042999999999
 31
0.0
  0
LINE
  5
68
330
4E
100
AcDbEntity
 67
     1
  8
1
  6
Continuous
 62
    18
100
AcDbLine
 10
3.247383999999999
 20
6.683042999999999
 30
0.0
 11
3.253588999999999
 21
6.682807
 31
0.0
  0
LINE
  5
69
330
4E
100
AcDbEntity
 67
     1
  8
1
  6
Continuous
 62
    18
100
AcDbLine
 10
3.253588999999999
 20
6.682807
 30
0.0
 11
3.259186999999999
 21
6.680942999999999
 31
0.0
  0
LINE
  5
6A
330
4E
100
AcDbEntity
 67
     1
  8
1
  6
Continuous
 62
    18
100
AcDbLine
 10
3.259186999999999
 20
6.680942999999999
 30
0.0
 11
3.324279
 21
6.680942999999999
 31
0.0
  0
LINE
  5
6B
330
4E
100
AcDbEntity
 67
     1
  8
1
  6
Continuous
 62
    18
100
AcDbLine
 10
3.324279
 20
6.680942999999999
 30
0.0
 11
3.327345999999999
 21
6.68401
 31
0.0
  0
LINE
  5
6C
330
4E
100
AcDbEntity
 67
     1
  8
1
  6
Continuous
 62
    18
100
AcDbLine
 10
3.379347
 20
6.68401
 30
0.0
 11
3.327345999999999
 21
6.68401
 31
0.0
  0
LINE
  5
6D
330
4E
100
AcDbEntity
 67
     1
  8
1
  6
Continuous
 62
    18
100
AcDbLine
 10
3.382623
 20
6.687285
 30
0.0
 11
3.379347
 21
6.68401
 31
0.0
  0
LINE
  5
6E
330
4E
100
AcDbEntity
 67
     1
  8
1
  6
Continuous
 62
    18
100
AcDbLine
 10
1.819568999999999
 20
6.687285
 30
0.0
 11
3.382623
 21
6.687285
 31
0.0
  0
LINE
  5
6F
330
4E
100
AcDbEntity
 67
     1
  8
1
  6
Continuous
 62
    18
100
AcDbLine
 10
1.819568999999999
 20
6.687285
 30
0.0
 11
1.822845
 21
6.68401
 31
0.0
  0
LINE
  5
70
330
4E
100
AcDbEntity
 67
     1
  8
1
  6
Continuous
 62
    18
100
AcDbLine
 10
1.822845
 20
6.68401
 30
0.0
 11
1.874845999999999
 21
6.68401
 31
0.0
  0
LINE
  5
71
330
4E
100
AcDbEntity
 67
     1
  8
1
  6
Continuous
 62
    18
100
AcDbLine
 10
1.877913
 20
6.680942999999999
 30
0.0
 11
1.874845999999999
 21
6.68401
 31
0.0
  0
LINE
  5
72
330
4E
100
AcDbEntity
 67
     1
  8
1
  6
Continuous
 62
    18
100
AcDbLine
 10
1.877913
 20
6.680942999999999
 30
0.0
 11
1.943004999999999
 21
6.680942999999999
 31
0.0
  0
LINE
  5
73
330
4E
100
AcDbEntity
 67
     1
  8
1
  6
Continuous
 62
    18
100
AcDbLine
 10
3.324279
 20
5.789895999999999
 30
0.0
 11
3.324279
 21
5.834160999999999
 31
0.0
  0
LINE
  5
74
330
4E
100
AcDbEntity
 67
     1
  8
1
  6
Continuous
 62
    18
100
AcDbLine
 10
3.368880999999999
 20
5.834160999999999
 30
0.0
 11
3.324279
 21
5.834160999999999
 31
0.0
  0
LINE
  5
75
330
4E
100
AcDbEntity
 67
     1
  8
1
  6
Continuous
 62
    18
100
AcDbLine
 10
3.368880999999999
 20
6.190858
 30
0.0
 11
3.368880999999999
 21
5.834160999999999
 31
0.0
  0
LINE
  5
76
330
4E
100
AcDbEntity
 67
     1
  8
1
  6
Continuous
 62
    18
100
AcDbLine
 10
3.368880999999999
 20
6.190858
 30
0.0
 11
3.324279
 21
6.190858
 31
0.0
  0
LINE
  5
77
330
4E
100
AcDbEntity
 67
     1
  8
1
  6
Continuous
 62
    18
100
AcDbLine
 10
3.324279
 20
6.190858
 30
0.0
 11
3.324279
 21
6.680942999999999
 31
0.0
  0
LINE
  5
78
330
4E
100
AcDbEntity
 67
     1
  8
1
  6
Continuous
 62
    18
100
AcDbLine
 10
1.877913
 20
6.190858
 30
0.0
 11
1.877913
 21
6.680942999999999
 31
0.0
  0
LINE
  5
79
330
4E
100
AcDbEntity
 67
     1
  8
1
  6
Continuous
 62
    18
100
AcDbLine
 10
1.833311
 20
6.190858
 30
0.0
 11
1.877913
 21
6.190858
 31
0.0
  0
LINE
  5
7A
330
4E
100
AcDbEntity
 67
     1
  8
1
  6
Continuous
 62
    18
100
AcDbLine
 10
1.833311
 20
6.190858
 30
0.0
 11
1.833311
 21
5.834160999999999
 31
0.0
  0
LINE
  5
7B
330
4E
100
AcDbEntity
 67
     1
  8
1
  6
Continuous
 62
    18
100
AcDbLine
 10
1.833311
 20
5.834160999999999
 30
0.0
 11
1.877913
 21
5.834160999999999
 31
0.0
  0
LINE
  5
7C
330
4E
100
AcDbEntity
 67
     1
  8
1
  6
Continuous
 62
    18
100
AcDbLine
 10
1.877913
 20
5.789895999999999
 30
0.0
 11
1.877913
 21
5.834160999999999
 31
0.0
  0
LINE
  5
7D
330
4E
100
AcDbEntity
 67
     1
  8
1
  6
Continuous
 62
    18
100
AcDbLine
 10
1.891536999999999
 20
7.148786999999999
 30
0.0
 11
3.310655
 21
7.148786999999999
 31
0.0
  0
LINE
  5
7E
330
4E
100
AcDbEntity
 67
     1
  8
1
  6
Continuous
 62
    18
100
AcDbLine
 10
3.310655
 20
7.148786999999999
 30
0.0
 11
3.318038999999999
 21
7.14573
 31
0.0
  0
LINE
  5
7F
330
4E
100
AcDbEntity
 67
     1
  8
1
  6
Continuous
 62
    18
100
AcDbLine
 10
3.318038999999999
 20
7.14573
 30
0.0
 11
3.321095999999999
 21
7.138347
 31
0.0
  0
LINE
  5
80
330
4E
100
AcDbEntity
 67
     1
  8
1
  6
Continuous
 62
    18
100
AcDbLine
 10
3.321095999999999
 20
6.797483
 30
0.0
 11
3.321095999999999
 21
7.138347
 31
0.0
  0
LINE
  5
81
330
4E
100
AcDbEntity
 67
     1
  8
1
  6
Continuous
 62
    18
100
AcDbLine
 10
3.321095999999999
 20
6.797483
 30
0.0
 11
3.318038999999999
 21
6.790099
 31
0.0
  0
LINE
  5
82
330
4E
100
AcDbEntity
 67
     1
  8
1
  6
Continuous
 62
    18
100
AcDbLine
 10
3.318038999999999
 20
6.790099
 30
0.0
 11
3.310655
 21
6.787041999999999
 31
0.0
  0
LINE
  5
83
330
4E
100
AcDbEntity
 67
     1
  8
1
  6
Continuous
 62
    18
100
AcDbLine
 10
3.310655
 20
6.787041999999999
 30
0.0
 11
1.891536999999999
 21
6.787041999999999
 31
0.0
  0
LINE
  5
84
330
4E
100
AcDbEntity
 67
     1
  8
1
  6
Continuous
 62
    18
100
AcDbLine
 10
1.881095999999999
 20
6.797483
 30
0.0
 11
1.884152999999999
 21
6.790099
 31
0.0
  0
LINE
  5
85
330
4E
100
AcDbEntity
 67
     1
  8
1
  6
Continuous
 62
    18
100
AcDbLine
 10
1.884152999999999
 20
6.790099
 30
0.0
 11
1.891536999999999
 21
6.787041999999999
 31
0.0
  0
LINE
  5
86
330
4E
100
AcDbEntity
 67
     1
  8
1
  6
Continuous
 62
    18
100
AcDbLine
 10
1.881095999999999
 20
6.797483
 30
0.0
 11
1.881095999999999
 21
7.138347
 31
0.0
  0
LINE
  5
87
330
4E
100
AcDbEntity
 67
     1
  8
1
  6
Continuous
 62
    18
100
AcDbLine
 10
1.891536999999999
 20
7.148786999999999
 30
0.0
 11
1.884152999999999
 21
7.14573
 31
0.0
  0
LINE
  5
88
330
4E
100
AcDbEntity
 67
     1
  8
1
  6
Continuous
 62
    18
100
AcDbLine
 10
1.884152999999999
 20
7.14573
 30
0.0
 11
1.881095999999999
 21
7.138347
 31
0.0
  0
LINE
  5
89
330
4E
100
AcDbEntity
 67
     1
  8
1
  6
Continuous
 62
    18
100
AcDbLine
 10
1.620600999999999
 20
5.149962
 30
0.0
 11
3.581591
 21
5.149962
 31
0.0
  0
LINE
  5
8A
330
4E
100
AcDbEntity
 67
     1
  8
1
  6
Continuous
 62
    18
100
AcDbLine
 10
3.651548999999999
 20
5.21992
 30
0.0
 11
3.648126
 21
5.198296
 31
0.0
  0
LINE
  5
8B
330
4E
100
AcDbEntity
 67
     1
  8
1
  6
Continuous
 62
    18
100
AcDbLine
 10
3.648126
 20
5.198296
 30
0.0
 11
3.638191999999999
 21
5.178792999999999
 31
0.0
  0
LINE
  5
8C
330
4E
100
AcDbEntity
 67
     1
  8
1
  6
Continuous
 62
    18
100
AcDbLine
 10
3.638191999999999
 20
5.178792999999999
 30
0.0
 11
3.622716999999999
 21
5.163319
 31
0.0
  0
LINE
  5
8D
330
4E
100
AcDbEntity
 67
     1
  8
1
  6
Continuous
 62
    18
100
AcDbLine
 10
3.622716999999999
 20
5.163319
 30
0.0
 11
3.603215
 21
5.153385
 31
0.0
  0
LINE
  5
8E
330
4E
100
AcDbEntity
 67
     1
  8
1
  6
Continuous
 62
    18
100
AcDbLine
 10
3.603215
 20
5.153385
 30
0.0
 11
3.581591
 21
5.149962
 31
0.0
  0
LINE
  5
8F
330
4E
100
AcDbEntity
 67
     1
  8
1
  6
Continuous
 62
    18
100
AcDbLine
 10
3.651548999999999
 20
7.18091
 30
0.0
 11
3.651548999999999
 21
5.21992
 31
0.0
  0
LINE
  5
90
330
4E
100
AcDbEntity
 67
     1
  8
1
  6
Continuous
 62
    18
100
AcDbLine
 10
3.581591
 20
7.250866999999999
 30
0.0
 11
3.603215
 21
7.247444999999999
 31
0.0
  0
LINE
  5
91
330
4E
100
AcDbEntity
 67
     1
  8
1
  6
Continuous
 62
    18
100
AcDbLine
 10
3.603215
 20
7.247444999999999
 30
0.0
 11
3.622716999999999
 21
7.23751
 31
0.0
  0
LINE
  5
92
330
4E
100
AcDbEntity
 67
     1
  8
1
  6
Continuous
 62
    18
100
AcDbLine
 10
3.622716999999999
 20
7.23751
 30
0.0
 11
3.638191999999999
 21
7.222036
 31
0.0
  0
LINE
  5
93
330
4E
100
AcDbEntity
 67
     1
  8
1
  6
Continuous
 62
    18
100
AcDbLine
 10
3.638191999999999
 20
7.222036
 30
0.0
 11
3.648126
 21
7.202533999999999
 31
0.0
  0
LINE
  5
94
330
4E
100
AcDbEntity
 67
     1
  8
1
  6
Continuous
 62
    18
100
AcDbLine
 10
3.648126
 20
7.202533999999999
 30
0.0
 11
3.651548999999999
 21
7.18091
 31
0.0
  0
LINE
  5
95
330
4E
100
AcDbEntity
 67
     1
  8
1
  6
Continuous
 62
    18
100
AcDbLine
 10
3.581591
 20
7.250866999999999
 30
0.0
 11
1.620600999999999
 21
7.250866999999999
 31
0.0
  0
LINE
  5
96
330
4E
100
AcDbEntity
 67
     1
  8
1
  6
Continuous
 62
    18
100
AcDbLine
 10
1.620600999999999
 20
7.250866999999999
 30
0.0
 11
1.598977
 21
7.247444999999999
 31
0.0
  0
LINE
  5
97
330
4E
100
AcDbEntity
 67
     1
  8
1
  6
Continuous
 62
    18
100
AcDbLine
 10
1.598977
 20
7.247444999999999
 30
0.0
 11
1.579474999999999
 21
7.23751
 31
0.0
  0
LINE
  5
98
330
4E
100
AcDbEntity
 67
     1
  8
1
  6
Continuous
 62
    18
100
AcDbLine
 10
1.579474999999999
 20
7.23751
 30
0.0
 11
1.564
 21
7.222036
 31
0.0
  0
LINE
  5
99
330
4E
100
AcDbEntity
 67
     1
  8
1
  6
Continuous
 62
    18
100
AcDbLine
 10
1.564
 20
7.222036
 30
0.0
 11
1.554065999999999
 21
7.202533999999999
 31
0.0
  0
LINE
  5
9A
330
4E
100
AcDbEntity
 67
     1
  8
1
  6
Continuous
 62
    18
100
AcDbLine
 10
1.554065999999999
 20
7.202533999999999
 30
0.0
 11
1.550642999999999
 21
7.18091
 31
0.0
  0
LINE
  5
9B
330
4E
100
AcDbEntity
 67
     1
  8
1
  6
Continuous
 62
    18
100
AcDbLine
 10
1.550642999999999
 20
7.18091
 30
0.0
 11
1.550642999999999
 21
5.21992
 31
0.0
  0
LINE
  5
9C
330
4E
100
AcDbEntity
 67
     1
  8
1
  6
Continuous
 62
    18
100
AcDbLine
 10
1.550642999999999
 20
5.21992
 30
0.0
 11
1.554065999999999
 21
5.198296
 31
0.0
  0
LINE
  5
9D
330
4E
100
AcDbEntity
 67
     1
  8
1
  6
Continuous
 62
    18
100
AcDbLine
 10
1.554065999999999
 20
5.198296
 30
0.0
 11
1.564
 21
5.178792999999999
 31
0.0
  0
LINE
  5
9E
330
4E
100
AcDbEntity
 67
     1
  8
1
  6
Continuous
 62
    18
100
AcDbLine
 10
1.564
 20
5.178792999999999
 30
0.0
 11
1.579474999999999
 21
5.163319
 31
0.0
  0
LINE
  5
9F
330
4E
100
AcDbEntity
 67
     1
  8
1
  6
Continuous
 62
    18
100
AcDbLine
 10
1.579474999999999
 20
5.163319
 30
0.0
 11
1.598977
 21
5.153385
 31
0.0
  0
LINE
  5
A0
330
4E
100
AcDbEntity
 67
     1
  8
1
  6
Continuous
 62
    18
100
AcDbLine
 10
1.598977
 20
5.153385
 30
0.0
 11
1.620600999999999
 21
5.149962
 31
0.0
  0
LINE
  5
A1
330
4E
100
AcDbEntity
 67
     1
  8
1
  6
Continuous
 62
    18
100
AcDbLine
 10
3.390622
 20
5.917009999999999
 30
0.0
 11
3.392964
 21
5.922666999999999
 31
0.0
  0
LINE
  5
A2
330
4E
100
AcDbEntity
 67
     1
  8
1
  6
Continuous
 62
    18
100
AcDbLine
 10
3.392964
 20
5.922666999999999
 30
0.0
 11
3.398619999999999
 21
5.925008999999999
 31
0.0
  0
LINE
  5
A3
330
4E
100
AcDbEntity
 67
     1
  8
1
  6
Continuous
 62
    18
100
AcDbLine
 10
3.390622
 20
5.345731999999999
 30
0.0
 11
3.390622
 21
5.917009999999999
 31
0.0
  0
LINE
  5
A4
330
4E
100
AcDbEntity
 67
     1
  8
1
  6
Continuous
 62
    18
100
AcDbLine
 10
3.382623
 20
5.337733
 30
0.0
 11
3.388279
 21
5.340074999999999
 31
0.0
  0
LINE
  5
A5
330
4E
100
AcDbEntity
 67
     1
  8
1
  6
Continuous
 62
    18
100
AcDbLine
 10
3.388279
 20
5.340074999999999
 30
0.0
 11
3.390622
 21
5.345731999999999
 31
0.0
  0
LINE
  5
A6
330
4E
100
AcDbEntity
 67
     1
  8
1
  6
Continuous
 62
    18
100
AcDbLine
 10
1.819568999999999
 20
5.337733
 30
0.0
 11
3.382623
 21
5.337733
 31
0.0
  0
LINE
  5
A7
330
4E
100
AcDbEntity
 67
     1
  8
1
  6
Continuous
 62
    18
100
AcDbLine
 10
1.819568999999999
 20
5.337733
 30
0.0
 11
1.813913
 21
5.340074999999999
 31
0.0
  0
LINE
  5
A8
330
4E
100
AcDbEntity
 67
     1
  8
1
  6
Continuous
 62
    18
100
AcDbLine
 10
1.813913
 20
5.340074999999999
 30
0.0
 11
1.81157
 21
5.345731999999999
 31
0.0
  0
LINE
  5
A9
330
4E
100
AcDbEntity
 67
     1
  8
1
  6
Continuous
 62
    18
100
AcDbLine
 10
1.81157
 20
5.345731999999999
 30
0.0
 11
1.81157
 21
5.917009999999999
 31
0.0
  0
LINE
  5
AA
330
4E
100
AcDbEntity
 67
     1
  8
1
  6
Continuous
 62
    18
100
AcDbLine
 10
1.81157
 20
5.917009999999999
 30
0.0
 11
1.809227999999999
 21
5.922666999999999
 31
0.0
  0
LINE
  5
AB
330
4E
100
AcDbEntity
 67
     1
  8
1
  6
Continuous
 62
    18
100
AcDbLine
 10
1.809227999999999
 20
5.922666999999999
 30
0.0
 11
1.803572
 21
5.925008999999999
 31
0.0
  0
LINE
  5
AC
330
4E
100
AcDbEntity
 67
     1
  8
1
  6
Continuous
 62
    18
100
AcDbLine
 10
1.803572
 20
5.925008999999999
 30
0.0
 11
1.759568999999999
 21
5.925008999999999
 31
0.0
  0
LINE
  5
AD
330
4E
100
AcDbEntity
 67
     1
  8
1
  6
Continuous
 62
    18
100
AcDbLine
 10
1.759568999999999
 20
5.925008999999999
 30
0.0
 11
1.753913
 21
5.927351999999999
 31
0.0
  0
LINE
  5
AE
330
4E
100
AcDbEntity
 67
     1
  8
1
  6
Continuous
 62
    18
100
AcDbLine
 10
1.753913
 20
5.927351999999999
 30
0.0
 11
1.75157
 21
5.933008
 31
0.0
  0
LINE
  5
AF
330
4E
100
AcDbEntity
 67
     1
  8
1
  6
Continuous
 62
    18
100
AcDbLine
 10
1.75157
 20
6.09201
 30
0.0
 11
1.75157
 21
5.933008
 31
0.0
  0
LINE
  5
B0
330
4E
100
AcDbEntity
 67
     1
  8
1
  6
Continuous
 62
    18
100
AcDbLine
 10
1.75157
 20
6.09201
 30
0.0
 11
1.753913
 21
6.097666999999999
 31
0.0
  0
LINE
  5
B1
330
4E
100
AcDbEntity
 67
     1
  8
1
  6
Continuous
 62
    18
100
AcDbLine
 10
1.753913
 20
6.097666999999999
 30
0.0
 11
1.759568999999999
 21
6.100009
 31
0.0
  0
LINE
  5
B2
330
4E
100
AcDbEntity
 67
     1
  8
1
  6
Continuous
 62
    18
100
AcDbLine
 10
1.803572
 20
6.100009
 30
0.0
 11
1.759568999999999
 21
6.100009
 31
0.0
  0
LINE
  5
B3
330
4E
100
AcDbEntity
 67
     1
  8
1
  6
Continuous
 62
    18
100
AcDbLine
 10
1.803572
 20
6.100009
 30
0.0
 11
1.809227999999999
 21
6.102351999999999
 31
0.0
  0
LINE
  5
B4
330
4E
100
AcDbEntity
 67
     1
  8
1
  6
Continuous
 62
    18
100
AcDbLine
 10
1.809227999999999
 20
6.102351999999999
 30
0.0
 11
1.81157
 21
6.108007999999999
 31
0.0
  0
LINE
  5
B5
330
4E
100
AcDbEntity
 67
     1
  8
1
  6
Continuous
 62
    18
100
AcDbLine
 10
1.81157
 20
6.108007999999999
 30
0.0
 11
1.81157
 21
6.679286
 31
0.0
  0
LINE
  5
B6
330
4E
100
AcDbEntity
 67
     1
  8
1
  6
Continuous
 62
    18
100
AcDbLine
 10
1.81157
 20
6.679286
 30
0.0
 11
1.813913
 21
6.684942999999999
 31
0.0
  0
LINE
  5
B7
330
4E
100
AcDbEntity
 67
     1
  8
1
  6
Continuous
 62
    18
100
AcDbLine
 10
1.813913
 20
6.684942999999999
 30
0.0
 11
1.819568999999999
 21
6.687285
 31
0.0
  0
LINE
  5
B8
330
4E
100
AcDbEntity
 67
     1
  8
1
  6
Continuous
 62
    18
100
AcDbLine
 10
3.390622
 20
6.679286
 30
0.0
 11
3.388279
 21
6.684942999999999
 31
0.0
  0
LINE
  5
B9
330
4E
100
AcDbEntity
 67
     1
  8
1
  6
Continuous
 62
    18
100
AcDbLine
 10
3.388279
 20
6.684942999999999
 30
0.0
 11
3.382623
 21
6.687285
 31
0.0
  0
LINE
  5
BA
330
4E
100
AcDbEntity
 67
     1
  8
1
  6
Continuous
 62
    18
100
AcDbLine
 10
3.390622
 20
6.108007999999999
 30
0.0
 11
3.390622
 21
6.679286
 31
0.0
  0
LINE
  5
BB
330
4E
100
AcDbEntity
 67
     1
  8
1
  6
Continuous
 62
    18
100
AcDbLine
 10
3.398619999999999
 20
6.100009
 30
0.0
 11
3.392964
 21
6.102351999999999
 31
0.0
  0
LINE
  5
BC
330
4E
100
AcDbEntity
 67
     1
  8
1
  6
Continuous
 62
    18
100
AcDbLine
 10
3.392964
 20
6.102351999999999
 30
0.0
 11
3.390622
 21
6.108007999999999
 31
0.0
  0
LINE
  5
BD
330
4E
100
AcDbEntity
 67
     1
  8
1
  6
Continuous
 62
    18
100
AcDbLine
 10
3.398619999999999
 20
6.100009
 30
0.0
 11
3.442623
 21
6.100009
 31
0.0
  0
LINE
  5
BE
330
4E
100
AcDbEntity
 67
     1
  8
1
  6
Continuous
 62
    18
100
AcDbLine
 10
3.450622
 20
6.09201
 30
0.0
 11
3.448278999999999
 21
6.097666999999999
 31
0.0
  0
LINE
  5
BF
330
4E
100
AcDbEntity
 67
     1
  8
1
  6
Continuous
 62
    18
100
AcDbLine
 10
3.448278999999999
 20
6.097666999999999
 30
0.0
 11
3.442623
 21
6.100009
 31
0.0
  0
LINE
  5
C0
330
4E
100
AcDbEntity
 67
     1
  8
1
  6
Continuous
 62
    18
100
AcDbLine
 10
3.450622
 20
6.09201
 30
0.0
 11
3.450622
 21
5.933008
 31
0.0
  0
LINE
  5
C1
330
4E
100
AcDbEntity
 67
     1
  8
1
  6
Continuous
 62
    18
100
AcDbLine
 10
3.442623
 20
5.925008999999999
 30
0.0
 11
3.448278999999999
 21
5.927351999999999
 31
0.0
  0
LINE
  5
C2
330
4E
100
AcDbEntity
 67
     1
  8
1
  6
Continuous
 62
    18
100
AcDbLine
 10
3.448278999999999
 20
5.927351999999999
 30
0.0
 11
3.450622
 21
5.933008
 31
0.0
  0
LINE
  5
C3
330
4E
100
AcDbEntity
 67
     1
  8
1
  6
Continuous
 62
    18
100
AcDbLine
 10
3.398619999999999
 20
5.925008999999999
 30
0.0
 11
3.442623
 21
5.925008999999999
 31
0.0
  0
LINE
  5
C4
330
4E
100
AcDbEntity
 67
     1
  8
1
  6
Continuous
 62
    18
100
AcDbLine
 10
3.383923999999999
 20
5.493106
 30
0.0
 11
3.384362999999999
 21
5.531334999999999
 31
0.0
  0
LINE
  5
C5
330
4E
100
AcDbEntity
 67
     1
  8
1
  6
Continuous
 62
    18
100
AcDbLine
 10
3.383923999999999
 20
5.493106
 30
0.0
 11
3.383787
 21
5.488616999999999
 31
0.0
  0
LINE
  5
C6
330
4E
100
AcDbEntity
 67
     1
  8
1
  6
Continuous
 62
    18
100
AcDbLine
 10
3.383105
 20
5.486568
 30
0.0
 11
3.383787
 21
5.488616999999999
 31
0.0
  0
LINE
  5
C7
330
4E
100
AcDbEntity
 67
     1
  8
1
  6
Continuous
 62
    18
100
AcDbLine
 10
3.379093
 20
5.485066999999999
 30
0.0
 11
3.379592999999999
 21
5.486568
 31
0.0
  0
LINE
  5
C8
330
4E
100
AcDbEntity
 67
     1
  8
1
  6
Continuous
 62
    18
100
AcDbLine
 10
3.387083999999999
 20
5.559897
 30
0.0
 11
3.387141999999999
 21
5.560465999999999
 31
0.0
  0
LINE
  5
C9
330
4E
100
AcDbEntity
 67
     1
  8
1
  6
Continuous
 62
    18
100
AcDbLine
 10
3.387083999999999
 20
5.559897
 30
0.0
 11
3.385045999999999
 21
5.553780999999999
 31
0.0
  0
LINE
  5
CA
330
4E
100
AcDbEntity
 67
     1
  8
1
  6
Continuous
 62
    18
100
AcDbLine
 10
3.385045999999999
 20
5.553780999999999
 30
0.0
 11
3.384658
 21
5.547226
 31
0.0
  0
LINE
  5
CB
330
4E
100
AcDbEntity
 67
     1
  8
1
  6
Continuous
 62
    18
100
AcDbLine
 10
3.384658
 20
5.547226
 30
0.0
 11
3.384362999999999
 21
5.531334999999999
 31
0.0
  0
LINE
  5
CC
330
4E
100
AcDbEntity
 67
     1
  8
1
  6
Continuous
 62
    18
100
AcDbLine
 10
3.323119
 20
5.486568
 30
0.0
 11
3.323801999999999
 21
5.488616999999999
 31
0.0
  0
LINE
  5
CD
330
4E
100
AcDbEntity
 67
     1
  8
1
  6
Continuous
 62
    18
100
AcDbLine
 10
3.323801999999999
 20
5.488616999999999
 30
0.0
 11
3.323937999999999
 21
5.493106
 31
0.0
  0
LINE
  5
CE
330
4E
100
AcDbEntity
 67
     1
  8
1
  6
Continuous
 62
    18
100
AcDbLine
 10
3.324376999999999
 20
5.531334999999999
 30
0.0
 11
3.323937999999999
 21
5.493106
 31
0.0
  0
LINE
  5
CF
330
4E
100
AcDbEntity
 67
     1
  8
1
  6
Continuous
 62
    18
100
AcDbLine
 10
3.324376999999999
 20
5.531334999999999
 30
0.0
 11
3.324672
 21
5.547226
 31
0.0
  0
LINE
  5
D0
330
4E
100
AcDbEntity
 67
     1
  8
1
  6
Continuous
 62
    18
100
AcDbLine
 10
3.324672
 20
5.547226
 30
0.0
 11
3.325061
 21
5.553780999999999
 31
0.0
  0
LINE
  5
D1
330
4E
100
AcDbEntity
 67
     1
  8
1
  6
Continuous
 62
    18
100
AcDbLine
 10
3.325061
 20
5.553780999999999
 30
0.0
 11
3.327098
 21
5.559897
 31
0.0
  0
LINE
  5
D2
330
4E
100
AcDbEntity
 67
     1
  8
1
  6
Continuous
 62
    18
100
AcDbLine
 10
3.327098
 20
5.559897
 30
0.0
 11
3.327273999999999
 21
5.564550999999999
 31
0.0
  0
LINE
  5
D3
330
4E
100
AcDbEntity
 67
     1
  8
1
  6
Continuous
 62
    18
100
AcDbLine
 10
3.327273999999999
 20
5.564550999999999
 30
0.0
 11
3.327345999999999
 21
5.574876999999999
 31
0.0
  0
LINE
  5
D4
330
4E
100
AcDbEntity
 67
     1
  8
1
  6
Continuous
 62
    18
100
AcDbLine
 10
3.327345999999999
 20
5.818789999999999
 30
0.0
 11
3.327345999999999
 21
5.574876999999999
 31
0.0
  0
LINE
  5
D5
330
4E
100
AcDbEntity
 67
     1
  8
1
  6
Continuous
 62
    18
100
AcDbLine
 10
3.327345999999999
 20
5.818789999999999
 30
0.0
 11
3.324279
 21
5.834160999999999
 31
0.0
  0
LINE
  5
D6
330
4E
100
AcDbEntity
 67
     1
  8
1
  6
Continuous
 62
    18
100
AcDbLine
 10
3.324279
 20
5.789895999999999
 30
0.0
 11
3.324203999999999
 21
5.779382
 31
0.0
  0
LINE
  5
D7
330
4E
100
AcDbEntity
 67
     1
  8
1
  6
Continuous
 62
    18
100
AcDbLine
 10
3.324203999999999
 20
5.779382
 30
0.0
 11
3.324022
 21
5.774898
 31
0.0
  0
LINE
  5
D8
330
4E
100
AcDbEntity
 67
     1
  8
1
  6
Continuous
 62
    18
100
AcDbLine
 10
3.319348
 20
5.770223999999999
 30
0.0
 11
3.324022
 21
5.774898
 31
0.0
  0
LINE
  5
D9
330
4E
100
AcDbEntity
 67
     1
  8
1
  6
Continuous
 62
    18
100
AcDbLine
 10
3.319348
 20
5.770223999999999
 30
0.0
 11
3.319185
 21
5.769237999999999
 31
0.0
  0
LINE
  5
DA
330
4E
100
AcDbEntity
 67
     1
  8
1
  6
Continuous
 62
    18
100
AcDbLine
 10
3.319185
 20
5.769237999999999
 30
0.0
 11
3.319108
 21
5.76095
 31
0.0
  0
LINE
  5
DB
330
4E
100
AcDbEntity
 67
     1
  8
1
  6
Continuous
 62
    18
100
AcDbLine
 10
3.319108
 20
5.76095
 30
0.0
 11
3.319108
 21
5.485066999999999
 31
0.0
  0
LINE
  5
DC
330
4E
100
AcDbEntity
 67
     1
  8
1
  6
Continuous
 62
    18
100
AcDbLine
 10
3.319108
 20
5.485066999999999
 30
0.0
 11
3.320108999999999
 21
5.488074
 31
0.0
  0
LINE
  5
DD
330
4E
100
AcDbEntity
 67
     1
  8
1
  6
Continuous
 62
    18
100
AcDbLine
 10
3.320108999999999
 20
5.488074
 30
0.0
 11
3.320246
 21
5.492562999999999
 31
0.0
  0
LINE
  5
DE
330
4E
100
AcDbEntity
 67
     1
  8
1
  6
Continuous
 62
    18
100
AcDbLine
 10
3.320684999999999
 20
5.530791999999999
 30
0.0
 11
3.320246
 21
5.492562999999999
 31
0.0
  0
LINE
  5
DF
330
4E
100
AcDbEntity
 67
     1
  8
1
  6
Continuous
 62
    18
100
AcDbLine
 10
3.320684999999999
 20
5.530791999999999
 30
0.0
 11
3.32098
 21
5.546682999999999
 31
0.0
  0
LINE
  5
E0
330
4E
100
AcDbEntity
 67
     1
  8
1
  6
Continuous
 62
    18
100
AcDbLine
 10
3.32098
 20
5.546682999999999
 30
0.0
 11
3.321368
 21
5.553237
 31
0.0
  0
LINE
  5
E1
330
4E
100
AcDbEntity
 67
     1
  8
1
  6
Continuous
 62
    18
100
AcDbLine
 10
3.321368
 20
5.553237
 30
0.0
 11
3.322791999999999
 21
5.557510999999999
 31
0.0
  0
LINE
  5
E2
330
4E
100
AcDbEntity
 67
     1
  8
1
  6
Continuous
 62
    18
100
AcDbLine
 10
3.322791999999999
 20
5.557510999999999
 30
0.0
 11
3.322980999999999
 21
5.553678999999999
 31
0.0
  0
LINE
  5
E3
330
4E
100
AcDbEntity
 67
     1
  8
1
  6
Continuous
 62
    18
100
AcDbLine
 10
3.322980999999999
 20
5.553678999999999
 30
0.0
 11
3.323066999999999
 21
5.543317
 31
0.0
  0
LINE
  5
E4
330
4E
100
AcDbEntity
 67
     1
  8
1
  6
Continuous
 62
    18
100
AcDbLine
 10
3.323066999999999
 20
5.543317
 30
0.0
 11
3.323119
 21
5.486568
 31
0.0
  0
LINE
  5
E5
330
4E
100
AcDbEntity
 67
     1
  8
1
  6
Continuous
 62
    18
100
AcDbLine
 10
3.327345999999999
 20
5.574876999999999
 30
0.0
 11
3.387345999999999
 21
5.574876999999999
 31
0.0
  0
LINE
  5
E6
330
4E
100
AcDbEntity
 67
     1
  8
1
  6
Continuous
 62
    18
100
AcDbLine
 10
3.387345999999999
 20
5.818789999999999
 30
0.0
 11
3.387345999999999
 21
5.574876999999999
 31
0.0
  0
LINE
  5
E7
330
4E
100
AcDbEntity
 67
     1
  8
1
  6
Continuous
 62
    18
100
AcDbLine
 10
3.327345999999999
 20
5.818789999999999
 30
0.0
 11
3.387345999999999
 21
5.818789999999999
 31
0.0
  0
LINE
  5
E8
330
4E
100
AcDbEntity
 67
     1
  8
1
  6
Continuous
 62
    18
100
AcDbLine
 10
3.388998
 20
5.444355999999999
 30
0.0
 11
3.385867999999999
 21
5.453755999999999
 31
0.0
  0
LINE
  5
E9
330
4E
100
AcDbEntity
 67
     1
  8
1
  6
Continuous
 62
    18
100
AcDbLine
 10
3.387345999999999
 20
5.574876999999999
 30
0.0
 11
3.387293
 21
5.565862
 31
0.0
  0
LINE
  5
EA
330
4E
100
AcDbEntity
 67
     1
  8
1
  6
Continuous
 62
    18
100
AcDbLine
 10
3.387293
 20
5.565862
 30
0.0
 11
3.387156999999999
 21
5.560465999999999
 31
0.0
  0
LINE
  5
EB
330
4E
100
AcDbEntity
 67
     1
  8
1
  6
Continuous
 62
    18
100
AcDbLine
 10
3.385867999999999
 20
5.556245999999999
 30
0.0
 11
3.385867999999999
 21
5.453755999999999
 31
0.0
  0
LINE
  5
EC
330
4E
100
AcDbEntity
 67
     1
  8
1
  6
Continuous
 62
    18
100
AcDbLine
 10
3.390622
 20
5.345731999999999
 30
0.0
 11
3.388998
 21
5.347355
 31
0.0
  0
LINE
  5
ED
330
4E
100
AcDbEntity
 67
     1
  8
1
  6
Continuous
 62
    18
100
AcDbLine
 10
3.387345999999999
 20
5.920285999999999
 30
0.0
 11
3.390622
 21
5.917009999999999
 31
0.0
  0
LINE
  5
EE
330
4E
100
AcDbEntity
 67
     1
  8
1
  6
Continuous
 62
    18
100
AcDbLine
 10
3.387345999999999
 20
5.920285999999999
 30
0.0
 11
3.387345999999999
 21
5.818789999999999
 31
0.0
  0
LINE
  5
EF
330
4E
100
AcDbEntity
 67
     1
  8
1
  6
Continuous
 62
    18
100
AcDbLine
 10
3.683767
 20
7.183146
 30
0.0
 11
3.683767
 21
5.217683
 31
0.0
  0
LINE
  5
F0
330
4E
100
AcDbEntity
 67
     1
  8
1
  6
Continuous
 62
    18
100
AcDbLine
 10
3.581591
 20
7.250866999999999
 30
0.0
 11
3.581591
 21
7.271707000000001
 31
0.0
  0
LINE
  5
F1
330
4E
100
AcDbEntity
 67
     1
  8
1
  6
Continuous
 62
    18
100
AcDbLine
 10
3.581591
 20
7.271707000000001
 30
0.0
 11
3.581591
 21
7.280849
 31
0.0
  0
LINE
  5
F2
330
4E
100
AcDbEntity
 67
     1
  8
1
  6
Continuous
 62
    18
100
AcDbLine
 10
3.651548999999999
 20
7.18091
 30
0.0
 11
3.672387999999999
 21
7.18091
 31
0.0
  0
LINE
  5
F3
330
4E
100
AcDbEntity
 67
     1
  8
1
  6
Continuous
 62
    18
100
AcDbLine
 10
3.672387999999999
 20
7.18091
 30
0.0
 11
3.68153
 21
7.18091
 31
0.0
  0
LINE
  5
F4
330
4E
100
AcDbEntity
 67
     1
  8
1
  6
Continuous
 62
    18
100
AcDbLine
 10
3.68153
 20
7.18091
 30
0.0
 11
3.678117999999999
 21
7.206775999999999
 31
0.0
  0
LINE
  5
F5
330
4E
100
AcDbEntity
 67
     1
  8
1
  6
Continuous
 62
    18
100
AcDbLine
 10
3.678117999999999
 20
7.206775999999999
 30
0.0
 11
3.668131999999999
 21
7.230875
 31
0.0
  0
LINE
  5
F6
330
4E
100
AcDbEntity
 67
     1
  8
1
  6
Continuous
 62
    18
100
AcDbLine
 10
3.668131999999999
 20
7.230875
 30
0.0
 11
3.652251
 21
7.25157
 31
0.0
  0
LINE
  5
F7
330
4E
100
AcDbEntity
 67
     1
  8
1
  6
Continuous
 62
    18
100
AcDbLine
 10
3.652251
 20
7.25157
 30
0.0
 11
3.631556999999999
 21
7.26745
 31
0.0
  0
LINE
  5
F8
330
4E
100
AcDbEntity
 67
     1
  8
1
  6
Continuous
 62
    18
100
AcDbLine
 10
3.631556999999999
 20
7.26745
 30
0.0
 11
3.607457
 21
7.277436999999999
 31
0.0
  0
LINE
  5
F9
330
4E
100
AcDbEntity
 67
     1
  8
1
  6
Continuous
 62
    18
100
AcDbLine
 10
3.607457
 20
7.277436999999999
 30
0.0
 11
3.581591
 21
7.280849
 31
0.0
  0
LINE
  5
FA
330
4E
100
AcDbEntity
 67
     1
  8
1
  6
Continuous
 62
    18
100
AcDbLine
 10
3.68153
 20
5.21992
 30
0.0
 11
3.68153
 21
7.18091
 31
0.0
  0
LINE
  5
FB
330
4E
100
AcDbEntity
 67
     1
  8
1
  6
Continuous
 62
    18
100
AcDbLine
 10
3.651548999999999
 20
5.21992
 30
0.0
 11
3.672387999999999
 21
5.21992
 31
0.0
  0
LINE
  5
FC
330
4E
100
AcDbEntity
 67
     1
  8
1
  6
Continuous
 62
    18
100
AcDbLine
 10
3.672387999999999
 20
5.21992
 30
0.0
 11
3.68153
 21
5.21992
 31
0.0
  0
LINE
  5
FD
330
4E
100
AcDbEntity
 67
     1
  8
1
  6
Continuous
 62
    18
100
AcDbLine
 10
3.683767
 20
5.217683
 30
0.0
 11
3.68153
 21
5.21992
 31
0.0
  0
LINE
  5
FE
330
4E
100
AcDbEntity
 67
     1
  8
1
  6
Continuous
 62
    18
100
AcDbLine
 10
3.68153
 20
7.18091
 30
0.0
 11
3.683767
 21
7.183146
 31
0.0
  0
LINE
  5
FF
330
4E
100
AcDbEntity
 67
     1
  8
1
  6
Continuous
 62
    18
100
AcDbLine
 10
3.676206999999999
 20
7.221292
 30
0.0
 11
3.681775
 21
7.203011999999999
 31
0.0
  0
LINE
  5
100
330
4E
100
AcDbEntity
 67
     1
  8
1
  6
Continuous
 62
    18
100
AcDbLine
 10
3.681775
 20
7.203011999999999
 30
0.0
 11
3.683767
 21
7.183146
 31
0.0
  0
LINE
  5
101
330
4E
100
AcDbEntity
 67
     1
  8
1
  6
Continuous
 62
    18
100
AcDbLine
 10
3.654503
 20
7.253821
 30
0.0
 11
3.676206999999999
 21
7.221292
 31
0.0
  0
LINE
  5
102
330
4E
100
AcDbEntity
 67
     1
  8
1
  6
Continuous
 62
    18
100
AcDbLine
 10
3.621973999999999
 20
7.275525
 30
0.0
 11
3.639419
 21
7.266208999999999
 31
0.0
  0
LINE
  5
103
330
4E
100
AcDbEntity
 67
     1
  8
1
  6
Continuous
 62
    18
100
AcDbLine
 10
3.639419
 20
7.266208999999999
 30
0.0
 11
3.654503
 21
7.253821
 31
0.0
  0
LINE
  5
104
330
4E
100
AcDbEntity
 67
     1
  8
1
  6
Continuous
 62
    18
100
AcDbLine
 10
3.583828
 20
7.283085
 30
0.0
 11
3.603692999999999
 21
7.281092999999999
 31
0.0
  0
LINE
  5
105
330
4E
100
AcDbEntity
 67
     1
  8
1
  6
Continuous
 62
    18
100
AcDbLine
 10
3.603692999999999
 20
7.281092999999999
 30
0.0
 11
3.621973999999999
 21
7.275525
 31
0.0
  0
LINE
  5
106
330
4E
100
AcDbEntity
 67
     1
  8
1
  6
Continuous
 62
    18
100
AcDbLine
 10
3.583828
 20
7.283085
 30
0.0
 11
3.581591
 21
7.280849
 31
0.0
  0
LINE
  5
107
330
4E
100
AcDbEntity
 67
     1
  8
1
  6
Continuous
 62
    18
100
AcDbLine
 10
3.447346
 20
6.088734999999999
 30
0.0
 11
3.450622
 21
6.09201
 31
0.0
  0
LINE
  5
108
330
4E
100
AcDbEntity
 67
     1
  8
1
  6
Continuous
 62
    18
100
AcDbLine
 10
3.447346
 20
6.088734999999999
 30
0.0
 11
3.447346
 21
5.936283999999999
 31
0.0
  0
LINE
  5
109
330
4E
100
AcDbEntity
 67
     1
  8
1
  6
Continuous
 62
    18
100
AcDbLine
 10
3.450622
 20
5.933008
 30
0.0
 11
3.447346
 21
5.936283999999999
 31
0.0
  0
LINE
  5
10A
330
4E
100
AcDbEntity
 67
     1
  8
1
  6
Continuous
 62
    18
100
AcDbLine
 10
3.581591
 20
5.119979999999999
 30
0.0
 11
3.581591
 21
5.129121999999999
 31
0.0
  0
LINE
  5
10B
330
4E
100
AcDbEntity
 67
     1
  8
1
  6
Continuous
 62
    18
100
AcDbLine
 10
3.581591
 20
5.129121999999999
 30
0.0
 11
3.581591
 21
5.149962
 31
0.0
  0
LINE
  5
10C
330
4E
100
AcDbEntity
 67
     1
  8
1
  6
Continuous
 62
    18
100
AcDbLine
 10
3.581591
 20
5.119979999999999
 30
0.0
 11
3.607457
 21
5.123393
 31
0.0
  0
LINE
  5
10D
330
4E
100
AcDbEntity
 67
     1
  8
1
  6
Continuous
 62
    18
100
AcDbLine
 10
3.607457
 20
5.123393
 30
0.0
 11
3.631556999999999
 21
5.133378999999999
 31
0.0
  0
LINE
  5
10E
330
4E
100
AcDbEntity
 67
     1
  8
1
  6
Continuous
 62
    18
100
AcDbLine
 10
3.631556999999999
 20
5.133378999999999
 30
0.0
 11
3.652251
 21
5.149259999999999
 31
0.0
  0
LINE
  5
10F
330
4E
100
AcDbEntity
 67
     1
  8
1
  6
Continuous
 62
    18
100
AcDbLine
 10
3.652251
 20
5.149259999999999
 30
0.0
 11
3.668131999999999
 21
5.169953999999999
 31
0.0
  0
LINE
  5
110
330
4E
100
AcDbEntity
 67
     1
  8
1
  6
Continuous
 62
    18
100
AcDbLine
 10
3.668131999999999
 20
5.169953999999999
 30
0.0
 11
3.678117999999999
 21
5.194054
 31
0.0
  0
LINE
  5
111
330
4E
100
AcDbEntity
 67
     1
  8
1
  6
Continuous
 62
    18
100
AcDbLine
 10
3.678117999999999
 20
5.194054
 30
0.0
 11
3.68153
 21
5.21992
 31
0.0
  0
LINE
  5
112
330
4E
100
AcDbEntity
 67
     1
  8
1
  6
Continuous
 62
    18
100
AcDbLine
 10
3.447346
 20
5.936283999999999
 30
0.0
 11
3.445002999999999
 21
5.930626999999999
 31
0.0
  0
LINE
  5
113
330
4E
100
AcDbEntity
 67
     1
  8
1
  6
Continuous
 62
    18
100
AcDbLine
 10
3.445002999999999
 20
5.930626999999999
 30
0.0
 11
3.439347
 21
5.928284999999999
 31
0.0
  0
LINE
  5
114
330
4E
100
AcDbEntity
 67
     1
  8
1
  6
Continuous
 62
    18
100
AcDbLine
 10
3.439347
 20
5.928284999999999
 30
0.0
 11
3.442623
 21
5.925008999999999
 31
0.0
  0
LINE
  5
115
330
4E
100
AcDbEntity
 67
     1
  8
1
  6
Continuous
 62
    18
100
AcDbLine
 10
3.442623
 20
6.100009
 30
0.0
 11
3.439347
 21
6.096733999999999
 31
0.0
  0
LINE
  5
116
330
4E
100
AcDbEntity
 67
     1
  8
1
  6
Continuous
 62
    18
100
AcDbLine
 10
3.439347
 20
6.096733999999999
 30
0.0
 11
3.445002999999999
 21
6.094391
 31
0.0
  0
LINE
  5
117
330
4E
100
AcDbEntity
 67
     1
  8
1
  6
Continuous
 62
    18
100
AcDbLine
 10
3.445002999999999
 20
6.094391
 30
0.0
 11
3.447346
 21
6.088734999999999
 31
0.0
  0
LINE
  5
118
330
4E
100
AcDbEntity
 67
     1
  8
1
  6
Continuous
 62
    18
100
AcDbLine
 10
3.581591
 20
5.119979999999999
 30
0.0
 11
3.583828
 21
5.117744
 31
0.0
  0
LINE
  5
119
330
4E
100
AcDbEntity
 67
     1
  8
1
  6
Continuous
 62
    18
100
AcDbLine
 10
3.621973999999999
 20
5.125303999999999
 30
0.0
 11
3.603692999999999
 21
5.119735999999999
 31
0.0
  0
LINE
  5
11A
330
4E
100
AcDbEntity
 67
     1
  8
1
  6
Continuous
 62
    18
100
AcDbLine
 10
3.603692999999999
 20
5.119735999999999
 30
0.0
 11
3.583828
 21
5.117744
 31
0.0
  0
LINE
  5
11B
330
4E
100
AcDbEntity
 67
     1
  8
1
  6
Continuous
 62
    18
100
AcDbLine
 10
3.654503
 20
5.147008
 30
0.0
 11
3.621973999999999
 21
5.125303999999999
 31
0.0
  0
LINE
  5
11C
330
4E
100
AcDbEntity
 67
     1
  8
1
  6
Continuous
 62
    18
100
AcDbLine
 10
3.676206999999999
 20
5.179536999999999
 30
0.0
 11
3.666889999999999
 21
5.162091999999999
 31
0.0
  0
LINE
  5
11D
330
4E
100
AcDbEntity
 67
     1
  8
1
  6
Continuous
 62
    18
100
AcDbLine
 10
3.666889999999999
 20
5.162091999999999
 30
0.0
 11
3.654503
 21
5.147008
 31
0.0
  0
LINE
  5
11E
330
4E
100
AcDbEntity
 67
     1
  8
1
  6
Continuous
 62
    18
100
AcDbLine
 10
3.683767
 20
5.217683
 30
0.0
 11
3.681775
 21
5.197817999999999
 31
0.0
  0
LINE
  5
11F
330
4E
100
AcDbEntity
 67
     1
  8
1
  6
Continuous
 62
    18
100
AcDbLine
 10
3.681775
 20
5.197817999999999
 30
0.0
 11
3.676206999999999
 21
5.179536999999999
 31
0.0
  0
LINE
  5
120
330
4E
100
AcDbEntity
 67
     1
  8
1
  6
Continuous
 62
    18
100
AcDbLine
 10
1.814846
 20
6.676010999999999
 30
0.0
 11
1.81157
 21
6.679286
 31
0.0
  0
LINE
  5
121
330
4E
100
AcDbEntity
 67
     1
  8
1
  6
Continuous
 62
    18
100
AcDbLine
 10
1.822845
 20
6.68401
 30
0.0
 11
1.817188999999999
 21
6.681667
 31
0.0
  0
LINE
  5
122
330
4E
100
AcDbEntity
 67
     1
  8
1
  6
Continuous
 62
    18
100
AcDbLine
 10
1.817188999999999
 20
6.681667
 30
0.0
 11
1.814846
 21
6.676010999999999
 31
0.0
  0
LINE
  5
123
330
4E
100
AcDbEntity
 67
     1
  8
1
  6
Continuous
 62
    18
100
AcDbLine
 10
3.379347
 20
6.68401
 30
0.0
 11
3.385002999999999
 21
6.681667
 31
0.0
  0
LINE
  5
124
330
4E
100
AcDbEntity
 67
     1
  8
1
  6
Continuous
 62
    18
100
AcDbLine
 10
3.385002999999999
 20
6.681667
 30
0.0
 11
3.387345999999999
 21
6.676010999999999
 31
0.0
  0
LINE
  5
125
330
4E
100
AcDbEntity
 67
     1
  8
1
  6
Continuous
 62
    18
100
AcDbLine
 10
3.387345999999999
 20
6.676010999999999
 30
0.0
 11
3.390622
 21
6.679286
 31
0.0
  0
LINE
  5
126
330
4E
100
AcDbEntity
 67
     1
  8
1
  6
Continuous
 62
    18
100
AcDbLine
 10
1.892409999999999
 20
6.787914999999999
 30
0.0
 11
1.885025999999999
 21
6.790972
 31
0.0
  0
LINE
  5
127
330
4E
100
AcDbEntity
 67
     1
  8
1
  6
Continuous
 62
    18
100
AcDbLine
 10
1.885025999999999
 20
6.790972
 30
0.0
 11
1.881968999999999
 21
6.798356
 31
0.0
  0
LINE
  5
128
330
4E
100
AcDbEntity
 67
     1
  8
1
  6
Continuous
 62
    18
100
AcDbLine
 10
1.881968999999999
 20
6.798356
 30
0.0
 11
1.881095999999999
 21
6.797483
 31
0.0
  0
LINE
  5
129
330
4E
100
AcDbEntity
 67
     1
  8
1
  6
Continuous
 62
    18
100
AcDbLine
 10
1.891536999999999
 20
6.787041999999999
 30
0.0
 11
1.892409999999999
 21
6.787914999999999
 31
0.0
  0
LINE
  5
12A
330
4E
100
AcDbEntity
 67
     1
  8
1
  6
Continuous
 62
    18
100
AcDbLine
 10
1.881968999999999
 20
7.137474
 30
0.0
 11
1.885025999999999
 21
7.144857
 31
0.0
  0
LINE
  5
12B
330
4E
100
AcDbEntity
 67
     1
  8
1
  6
Continuous
 62
    18
100
AcDbLine
 10
1.885025999999999
 20
7.144857
 30
0.0
 11
1.892409999999999
 21
7.147914999999999
 31
0.0
  0
LINE
  5
12C
330
4E
100
AcDbEntity
 67
     1
  8
1
  6
Continuous
 62
    18
100
AcDbLine
 10
1.892409999999999
 20
7.147914999999999
 30
0.0
 11
1.891536999999999
 21
7.148786999999999
 31
0.0
  0
LINE
  5
12D
330
4E
100
AcDbEntity
 67
     1
  8
1
  6
Continuous
 62
    18
100
AcDbLine
 10
1.881095999999999
 20
7.138347
 30
0.0
 11
1.881968999999999
 21
7.137474
 31
0.0
  0
LINE
  5
12E
330
4E
100
AcDbEntity
 67
     1
  8
1
  6
Continuous
 62
    18
100
AcDbLine
 10
1.518424999999999
 20
7.183146
 30
0.0
 11
1.518424999999999
 21
5.217683
 31
0.0
  0
LINE
  5
12F
330
4E
100
AcDbEntity
 67
     1
  8
1
  6
Continuous
 62
    18
100
AcDbLine
 10
1.620600999999999
 20
7.250866999999999
 30
0.0
 11
1.620600999999999
 21
7.271707000000001
 31
0.0
  0
LINE
  5
130
330
4E
100
AcDbEntity
 67
     1
  8
1
  6
Continuous
 62
    18
100
AcDbLine
 10
1.620600999999999
 20
7.271707000000001
 30
0.0
 11
1.620600999999999
 21
7.280849
 31
0.0
  0
LINE
  5
131
330
4E
100
AcDbEntity
 67
     1
  8
1
  6
Continuous
 62
    18
100
AcDbLine
 10
1.520662
 20
7.18091
 30
0.0
 11
1.524073999999999
 21
7.206775999999999
 31
0.0
  0
LINE
  5
132
330
4E
100
AcDbEntity
 67
     1
  8
1
  6
Continuous
 62
    18
100
AcDbLine
 10
1.524073999999999
 20
7.206775999999999
 30
0.0
 11
1.53406
 21
7.230875
 31
0.0
  0
LINE
  5
133
330
4E
100
AcDbEntity
 67
     1
  8
1
  6
Continuous
 62
    18
100
AcDbLine
 10
1.53406
 20
7.230875
 30
0.0
 11
1.549941
 21
7.25157
 31
0.0
  0
LINE
  5
134
330
4E
100
AcDbEntity
 67
     1
  8
1
  6
Continuous
 62
    18
100
AcDbLine
 10
1.549941
 20
7.25157
 30
0.0
 11
1.570635
 21
7.26745
 31
0.0
  0
LINE
  5
135
330
4E
100
AcDbEntity
 67
     1
  8
1
  6
Continuous
 62
    18
100
AcDbLine
 10
1.570635
 20
7.26745
 30
0.0
 11
1.594735
 21
7.277436999999999
 31
0.0
  0
LINE
  5
136
330
4E
100
AcDbEntity
 67
     1
  8
1
  6
Continuous
 62
    18
100
AcDbLine
 10
1.594735
 20
7.277436999999999
 30
0.0
 11
1.620600999999999
 21
7.280849
 31
0.0
  0
LINE
  5
137
330
4E
100
AcDbEntity
 67
     1
  8
1
  6
Continuous
 62
    18
100
AcDbLine
 10
1.550642999999999
 20
7.18091
 30
0.0
 11
1.529804
 21
7.18091
 31
0.0
  0
LINE
  5
138
330
4E
100
AcDbEntity
 67
     1
  8
1
  6
Continuous
 62
    18
100
AcDbLine
 10
1.529804
 20
7.18091
 30
0.0
 11
1.520662
 21
7.18091
 31
0.0
  0
LINE
  5
139
330
4E
100
AcDbEntity
 67
     1
  8
1
  6
Continuous
 62
    18
100
AcDbLine
 10
1.520662
 20
7.18091
 30
0.0
 11
1.518424999999999
 21
7.183146
 31
0.0
  0
LINE
  5
13A
330
4E
100
AcDbEntity
 67
     1
  8
1
  6
Continuous
 62
    18
100
AcDbLine
 10
1.618363999999999
 20
7.283085
 30
0.0
 11
1.620600999999999
 21
7.280849
 31
0.0
  0
LINE
  5
13B
330
4E
100
AcDbEntity
 67
     1
  8
1
  6
Continuous
 62
    18
100
AcDbLine
 10
1.580218
 20
7.275525
 30
0.0
 11
1.598498999999999
 21
7.281092999999999
 31
0.0
  0
LINE
  5
13C
330
4E
100
AcDbEntity
 67
     1
  8
1
  6
Continuous
 62
    18
100
AcDbLine
 10
1.598498999999999
 20
7.281092999999999
 30
0.0
 11
1.618363999999999
 21
7.283085
 31
0.0
  0
LINE
  5
13D
330
4E
100
AcDbEntity
 67
     1
  8
1
  6
Continuous
 62
    18
100
AcDbLine
 10
1.547688999999999
 20
7.253821
 30
0.0
 11
1.580218
 21
7.275525
 31
0.0
  0
LINE
  5
13E
330
4E
100
AcDbEntity
 67
     1
  8
1
  6
Continuous
 62
    18
100
AcDbLine
 10
1.525985
 20
7.221292
 30
0.0
 11
1.535301999999999
 21
7.238738
 31
0.0
  0
LINE
  5
13F
330
4E
100
AcDbEntity
 67
     1
  8
1
  6
Continuous
 62
    18
100
AcDbLine
 10
1.535301999999999
 20
7.238738
 30
0.0
 11
1.547688999999999
 21
7.253821
 31
0.0
  0
LINE
  5
140
330
4E
100
AcDbEntity
 67
     1
  8
1
  6
Continuous
 62
    18
100
AcDbLine
 10
1.518424999999999
 20
7.183146
 30
0.0
 11
1.520416999999999
 21
7.203011999999999
 31
0.0
  0
LINE
  5
141
330
4E
100
AcDbEntity
 67
     1
  8
1
  6
Continuous
 62
    18
100
AcDbLine
 10
1.520416999999999
 20
7.203011999999999
 30
0.0
 11
1.525985
 21
7.221292
 31
0.0
  0
LINE
  5
142
330
4E
100
AcDbEntity
 67
     1
  8
1
  6
Continuous
 62
    18
100
AcDbLine
 10
1.881968999999999
 20
6.798356
 30
0.0
 11
1.881968999999999
 21
7.137474
 31
0.0
  0
LINE
  5
143
330
4E
100
AcDbEntity
 67
     1
  8
1
  6
Continuous
 62
    18
100
AcDbLine
 10
1.936172999999999
 20
7.146588
 30
0.0
 11
1.936172999999999
 21
6.789241999999999
 31
0.0
  0
LINE
  5
144
330
4E
100
AcDbEntity
 67
     1
  8
1
  6
Continuous
 62
    18
100
AcDbLine
 10
1.932847999999999
 20
7.147914999999999
 30
0.0
 11
1.936172999999999
 21
7.146588
 31
0.0
  0
LINE
  5
145
330
4E
100
AcDbEntity
 67
     1
  8
1
  6
Continuous
 62
    18
100
AcDbLine
 10
1.936172999999999
 20
6.789241999999999
 30
0.0
 11
1.932847999999999
 21
6.787914999999999
 31
0.0
  0
LINE
  5
146
330
4E
100
AcDbEntity
 67
     1
  8
1
  6
Continuous
 62
    18
100
AcDbLine
 10
1.892409999999999
 20
7.147914999999999
 30
0.0
 11
1.932847999999999
 21
7.147914999999999
 31
0.0
  0
LINE
  5
147
330
4E
100
AcDbEntity
 67
     1
  8
1
  6
Continuous
 62
    18
100
AcDbLine
 10
1.932847999999999
 20
6.787914999999999
 30
0.0
 11
1.892409999999999
 21
6.787914999999999
 31
0.0
  0
LINE
  5
148
330
4E
100
AcDbEntity
 67
     1
  8
1
  6
Continuous
 62
    18
100
AcDbLine
 10
3.309781999999999
 20
6.787914999999999
 30
0.0
 11
3.317166
 21
6.790972
 31
0.0
  0
LINE
  5
149
330
4E
100
AcDbEntity
 67
     1
  8
1
  6
Continuous
 62
    18
100
AcDbLine
 10
3.317166
 20
6.790972
 30
0.0
 11
3.320223
 21
6.798356
 31
0.0
  0
LINE
  5
14A
330
4E
100
AcDbEntity
 67
     1
  8
1
  6
Continuous
 62
    18
100
AcDbLine
 10
3.310655
 20
6.787041999999999
 30
0.0
 11
3.309781999999999
 21
6.787914999999999
 31
0.0
  0
LINE
  5
14B
330
4E
100
AcDbEntity
 67
     1
  8
1
  6
Continuous
 62
    18
100
AcDbLine
 10
3.320223
 20
6.798356
 30
0.0
 11
3.321095999999999
 21
6.797483
 31
0.0
  0
LINE
  5
14C
330
4E
100
AcDbEntity
 67
     1
  8
1
  6
Continuous
 62
    18
100
AcDbLine
 10
3.320223
 20
7.137474
 30
0.0
 11
3.317166
 21
7.144857
 31
0.0
  0
LINE
  5
14D
330
4E
100
AcDbEntity
 67
     1
  8
1
  6
Continuous
 62
    18
100
AcDbLine
 10
3.317166
 20
7.144857
 30
0.0
 11
3.309781999999999
 21
7.147914999999999
 31
0.0
  0
LINE
  5
14E
330
4E
100
AcDbEntity
 67
     1
  8
1
  6
Continuous
 62
    18
100
AcDbLine
 10
3.321095999999999
 20
7.138347
 30
0.0
 11
3.320223
 21
7.137474
 31
0.0
  0
LINE
  5
14F
330
4E
100
AcDbEntity
 67
     1
  8
1
  6
Continuous
 62
    18
100
AcDbLine
 10
3.309781999999999
 20
7.147914999999999
 30
0.0
 11
3.310655
 21
7.148786999999999
 31
0.0
  0
LINE
  5
150
330
4E
100
AcDbEntity
 67
     1
  8
1
  6
Continuous
 62
    18
100
AcDbLine
 10
1.620600999999999
 20
7.280849
 30
0.0
 11
3.581591
 21
7.280849
 31
0.0
  0
LINE
  5
151
330
4E
100
AcDbEntity
 67
     1
  8
1
  6
Continuous
 62
    18
100
AcDbLine
 10
3.583828
 20
7.283085
 30
0.0
 11
1.618363999999999
 21
7.283085
 31
0.0
  0
LINE
  5
152
330
4E
100
AcDbEntity
 67
     1
  8
1
  6
Continuous
 62
    18
100
AcDbLine
 10
1.936172999999999
 20
6.789241999999999
 30
0.0
 11
3.266019
 21
6.789241999999999
 31
0.0
  0
LINE
  5
153
330
4E
100
AcDbEntity
 67
     1
  8
1
  6
Continuous
 62
    18
100
AcDbLine
 10
3.266019
 20
7.146588
 30
0.0
 11
3.266019
 21
6.789241999999999
 31
0.0
  0
LINE
  5
154
330
4E
100
AcDbEntity
 67
     1
  8
1
  6
Continuous
 62
    18
100
AcDbLine
 10
3.266019
 20
7.146588
 30
0.0
 11
1.936172999999999
 21
7.146588
 31
0.0
  0
LINE
  5
155
330
4E
100
AcDbEntity
 67
     1
  8
1
  6
Continuous
 62
    18
100
AcDbLine
 10
3.269343999999999
 20
6.787914999999999
 30
0.0
 11
3.309781999999999
 21
6.787914999999999
 31
0.0
  0
LINE
  5
156
330
4E
100
AcDbEntity
 67
     1
  8
1
  6
Continuous
 62
    18
100
AcDbLine
 10
3.266019
 20
6.789241999999999
 30
0.0
 11
3.269343999999999
 21
6.787914999999999
 31
0.0
  0
LINE
  5
157
330
4E
100
AcDbEntity
 67
     1
  8
1
  6
Continuous
 62
    18
100
AcDbLine
 10
3.320223
 20
6.798356
 30
0.0
 11
3.320223
 21
7.137474
 31
0.0
  0
LINE
  5
158
330
4E
100
AcDbEntity
 67
     1
  8
1
  6
Continuous
 62
    18
100
AcDbLine
 10
3.309781999999999
 20
7.147914999999999
 30
0.0
 11
3.269343999999999
 21
7.147914999999999
 31
0.0
  0
LINE
  5
159
330
4E
100
AcDbEntity
 67
     1
  8
1
  6
Continuous
 62
    18
100
AcDbLine
 10
3.269343999999999
 20
7.147914999999999
 30
0.0
 11
3.266019
 21
7.146588
 31
0.0
  0
LINE
  5
15A
330
4E
100
AcDbEntity
 67
     1
  8
1
  6
Continuous
 62
    18
100
AcDbLine
 10
3.387345999999999
 20
6.676010999999999
 30
0.0
 11
3.387345999999999
 21
6.206228
 31
0.0
  0
LINE
  5
15B
330
4E
100
AcDbEntity
 67
     1
  8
1
  6
Continuous
 62
    18
100
AcDbLine
 10
3.327345999999999
 20
6.68401
 30
0.0
 11
3.327345999999999
 21
6.206228
 31
0.0
  0
LINE
  5
15C
330
4E
100
AcDbEntity
 67
     1
  8
1
  6
Continuous
 62
    18
100
AcDbLine
 10
3.327345999999999
 20
6.206228
 30
0.0
 11
3.387345999999999
 21
6.206228
 31
0.0
  0
LINE
  5
15D
330
4E
100
AcDbEntity
 67
     1
  8
1
  6
Continuous
 62
    18
100
AcDbLine
 10
3.324279
 20
6.190858
 30
0.0
 11
3.327345999999999
 21
6.206228
 31
0.0
  0
LINE
  5
15E
330
4E
100
AcDbEntity
 67
     1
  8
1
  6
Continuous
 62
    18
100
AcDbLine
 10
1.874845999999999
 20
6.68401
 30
0.0
 11
1.874845999999999
 21
6.206228
 31
0.0
  0
LINE
  5
15F
330
4E
100
AcDbEntity
 67
     1
  8
1
  6
Continuous
 62
    18
100
AcDbLine
 10
1.877913
 20
6.190858
 30
0.0
 11
1.874845999999999
 21
6.206228
 31
0.0
  0
LINE
  5
160
330
4E
100
AcDbEntity
 67
     1
  8
1
  6
Continuous
 62
    18
100
AcDbLine
 10
1.814846
 20
6.676010999999999
 30
0.0
 11
1.814846
 21
6.206228
 31
0.0
  0
LINE
  5
161
330
4E
100
AcDbEntity
 67
     1
  8
1
  6
Continuous
 62
    18
100
AcDbLine
 10
1.874845999999999
 20
6.206228
 30
0.0
 11
1.814846
 21
6.206228
 31
0.0
  0
LINE
  5
162
330
4E
100
AcDbEntity
 67
     1
  8
1
  6
Continuous
 62
    18
100
AcDbLine
 10
1.81157
 20
6.108007999999999
 30
0.0
 11
1.814846
 21
6.104733
 31
0.0
  0
LINE
  5
163
330
4E
100
AcDbEntity
 67
     1
  8
1
  6
Continuous
 62
    18
100
AcDbLine
 10
1.814846
 20
6.206228
 30
0.0
 11
1.814846
 21
6.104733
 31
0.0
  0
LINE
  5
164
330
4E
100
AcDbEntity
 67
     1
  8
1
  6
Continuous
 62
    18
100
AcDbLine
 10
3.387345999999999
 20
6.206228
 30
0.0
 11
3.387345999999999
 21
6.104733
 31
0.0
  0
LINE
  5
165
330
4E
100
AcDbEntity
 67
     1
  8
1
  6
Continuous
 62
    18
100
AcDbLine
 10
3.390622
 20
6.108007999999999
 30
0.0
 11
3.387345999999999
 21
6.104733
 31
0.0
  0
LINE
  5
166
330
4E
100
AcDbEntity
 67
     1
  8
1
  6
Continuous
 62
    18
100
AcDbLine
 10
1.520662
 20
5.21992
 30
0.0
 11
1.520662
 21
7.18091
 31
0.0
  0
LINE
  5
167
330
4E
100
AcDbEntity
 67
     1
  8
1
  6
Continuous
 62
    18
100
AcDbLine
 10
1.518424999999999
 20
5.217683
 30
0.0
 11
1.520662
 21
5.21992
 31
0.0
  0
LINE
  5
168
330
4E
100
AcDbEntity
 67
     1
  8
1
  6
Continuous
 62
    18
100
AcDbLine
 10
1.550642999999999
 20
5.21992
 30
0.0
 11
1.529804
 21
5.21992
 31
0.0
  0
LINE
  5
169
330
4E
100
AcDbEntity
 67
     1
  8
1
  6
Continuous
 62
    18
100
AcDbLine
 10
1.529804
 20
5.21992
 30
0.0
 11
1.520662
 21
5.21992
 31
0.0
  0
LINE
  5
16A
330
4E
100
AcDbEntity
 67
     1
  8
1
  6
Continuous
 62
    18
100
AcDbLine
 10
3.322819999999999
 20
5.557510999999999
 30
0.0
 11
3.322791999999999
 21
5.557510999999999
 31
0.0
  0
LINE
  5
16B
330
4E
100
AcDbEntity
 67
     1
  8
1
  6
Continuous
 62
    18
100
AcDbLine
 10
3.321368
 20
5.553237
 30
0.0
 11
3.322988999999999
 21
5.553237
 31
0.0
  0
LINE
  5
16C
330
4E
100
AcDbEntity
 67
     1
  8
1
  6
Continuous
 62
    18
100
AcDbLine
 10
3.323078999999999
 20
5.530791999999999
 30
0.0
 11
3.320684999999999
 21
5.530791999999999
 31
0.0
  0
LINE
  5
16D
330
4E
100
AcDbEntity
 67
     1
  8
1
  6
Continuous
 62
    18
100
AcDbLine
 10
3.320246
 20
5.492562999999999
 30
0.0
 11
3.323113999999999
 21
5.492562999999999
 31
0.0
  0
LINE
  5
16E
330
4E
100
AcDbEntity
 67
     1
  8
1
  6
Continuous
 62
    18
100
AcDbLine
 10
3.323118
 20
5.488074
 30
0.0
 11
3.320108999999999
 21
5.488074
 31
0.0
  0
LINE
  5
16F
330
4E
100
AcDbEntity
 67
     1
  8
1
  6
Continuous
 62
    18
100
AcDbLine
 10
3.319108
 20
5.485066999999999
 30
0.0
 11
3.379093
 21
5.485066999999999
 31
0.0
  0
LINE
  5
170
330
4E
100
AcDbEntity
 67
     1
  8
1
  6
Continuous
 62
    18
100
AcDbLine
 10
1.880822999999999
 20
5.553237
 30
0.0
 11
1.8794
 21
5.557510999999999
 31
0.0
  0
LINE
  5
171
330
4E
100
AcDbEntity
 67
     1
  8
1
  6
Continuous
 62
    18
100
AcDbLine
 10
1.8794
 20
5.557510999999999
 30
0.0
 11
1.879372
 21
5.557510999999999
 31
0.0
  0
LINE
  5
172
330
4E
100
AcDbEntity
 67
     1
  8
1
  6
Continuous
 62
    18
100
AcDbLine
 10
1.879203
 20
5.553237
 30
0.0
 11
1.880822999999999
 21
5.553237
 31
0.0
  0
LINE
  5
173
330
4E
100
AcDbEntity
 67
     1
  8
1
  6
Continuous
 62
    18
100
AcDbLine
 10
1.881507
 20
5.530791999999999
 30
0.0
 11
1.881945999999999
 21
5.492562999999999
 31
0.0
  0
LINE
  5
174
330
4E
100
AcDbEntity
 67
     1
  8
1
  6
Continuous
 62
    18
100
AcDbLine
 10
1.881507
 20
5.530791999999999
 30
0.0
 11
1.879113
 21
5.530791999999999
 31
0.0
  0
LINE
  5
175
330
4E
100
AcDbEntity
 67
     1
  8
1
  6
Continuous
 62
    18
100
AcDbLine
 10
1.879077999999999
 20
5.492562999999999
 30
0.0
 11
1.881945999999999
 21
5.492562999999999
 31
0.0
  0
LINE
  5
176
330
4E
100
AcDbEntity
 67
     1
  8
1
  6
Continuous
 62
    18
100
AcDbLine
 10
1.883084
 20
5.485066999999999
 30
0.0
 11
1.882083
 21
5.488074
 31
0.0
  0
LINE
  5
177
330
4E
100
AcDbEntity
 67
     1
  8
1
  6
Continuous
 62
    18
100
AcDbLine
 10
1.882083
 20
5.488074
 30
0.0
 11
1.879074
 21
5.488074
 31
0.0
  0
LINE
  5
178
330
4E
100
AcDbEntity
 67
     1
  8
1
  6
Continuous
 62
    18
100
AcDbLine
 10
1.823097999999999
 20
5.485066999999999
 30
0.0
 11
1.822599
 21
5.486568
 31
0.0
  0
LINE
  5
179
330
4E
100
AcDbEntity
 67
     1
  8
1
  6
Continuous
 62
    18
100
AcDbLine
 10
1.883084
 20
5.485066999999999
 30
0.0
 11
1.823097999999999
 21
5.485066999999999
 31
0.0
  0
LINE
  5
17A
330
4E
100
AcDbEntity
 67
     1
  8
1
  6
Continuous
 62
    18
100
AcDbLine
 10
1.883084
 20
5.76095
 30
0.0
 11
1.883084
 21
5.485066999999999
 31
0.0
  0
LINE
  5
17B
330
4E
100
AcDbEntity
 67
     1
  8
1
  6
Continuous
 62
    18
100
AcDbLine
 10
1.882844
 20
5.770223999999999
 30
0.0
 11
1.87817
 21
5.774898
 31
0.0
  0
LINE
  5
17C
330
4E
100
AcDbEntity
 67
     1
  8
1
  6
Continuous
 62
    18
100
AcDbLine
 10
1.874845999999999
 20
5.818789999999999
 30
0.0
 11
1.877913
 21
5.834160999999999
 31
0.0
  0
LINE
  5
17D
330
4E
100
AcDbEntity
 67
     1
  8
1
  6
Continuous
 62
    18
100
AcDbLine
 10
1.814846
 20
5.818789999999999
 30
0.0
 11
1.833311
 21
5.834160999999999
 31
0.0
  0
LINE
  5
17E
330
4E
100
AcDbEntity
 67
     1
  8
1
  6
Continuous
 62
    18
100
AcDbLine
 10
1.874845999999999
 20
5.818789999999999
 30
0.0
 11
1.814846
 21
5.818789999999999
 31
0.0
  0
LINE
  5
17F
330
4E
100
AcDbEntity
 67
     1
  8
1
  6
Continuous
 62
    18
100
AcDbLine
 10
1.814846
 20
6.206228
 30
0.0
 11
1.833311
 21
6.190858
 31
0.0
  0
LINE
  5
180
330
4E
100
AcDbEntity
 67
     1
  8
1
  6
Continuous
 62
    18
100
AcDbLine
 10
3.387345999999999
 20
6.206228
 30
0.0
 11
3.368880999999999
 21
6.190858
 31
0.0
  0
LINE
  5
181
330
4E
100
AcDbEntity
 67
     1
  8
1
  6
Continuous
 62
    18
100
AcDbLine
 10
3.387345999999999
 20
5.818789999999999
 30
0.0
 11
3.368880999999999
 21
5.834160999999999
 31
0.0
  0
LINE
  5
182
330
4E
100
AcDbEntity
 67
     1
  8
1
  6
Continuous
 62
    18
100
AcDbLine
 10
1.806847
 20
6.096733999999999
 30
0.0
 11
1.762844999999999
 21
6.096733999999999
 31
0.0
  0
LINE
  5
183
330
4E
100
AcDbEntity
 67
     1
  8
1
  6
Continuous
 62
    18
100
AcDbLine
 10
1.762844999999999
 20
6.096733999999999
 30
0.0
 11
1.757188999999999
 21
6.094391
 31
0.0
  0
LINE
  5
184
330
4E
100
AcDbEntity
 67
     1
  8
1
  6
Continuous
 62
    18
100
AcDbLine
 10
1.757188999999999
 20
6.094391
 30
0.0
 11
1.754845999999999
 21
6.088734999999999
 31
0.0
  0
LINE
  5
185
330
4E
100
AcDbEntity
 67
     1
  8
1
  6
Continuous
 62
    18
100
AcDbLine
 10
1.754845999999999
 20
6.088734999999999
 30
0.0
 11
1.754845999999999
 21
5.936283999999999
 31
0.0
  0
LINE
  5
186
330
4E
100
AcDbEntity
 67
     1
  8
1
  6
Continuous
 62
    18
100
AcDbLine
 10
1.754845999999999
 20
5.936283999999999
 30
0.0
 11
1.757188999999999
 21
5.930626999999999
 31
0.0
  0
LINE
  5
187
330
4E
100
AcDbEntity
 67
     1
  8
1
  6
Continuous
 62
    18
100
AcDbLine
 10
1.757188999999999
 20
5.930626999999999
 30
0.0
 11
1.762844999999999
 21
5.928284999999999
 31
0.0
  0
LINE
  5
188
330
4E
100
AcDbEntity
 67
     1
  8
1
  6
Continuous
 62
    18
100
AcDbLine
 10
1.806847
 20
5.928284999999999
 30
0.0
 11
1.762844999999999
 21
5.928284999999999
 31
0.0
  0
LINE
  5
189
330
4E
100
AcDbEntity
 67
     1
  8
1
  6
Continuous
 62
    18
100
AcDbLine
 10
1.806847
 20
5.928284999999999
 30
0.0
 11
1.812502999999999
 21
5.925942
 31
0.0
  0
LINE
  5
18A
330
4E
100
AcDbEntity
 67
     1
  8
1
  6
Continuous
 62
    18
100
AcDbLine
 10
1.812502999999999
 20
5.925942
 30
0.0
 11
1.814846
 21
5.920285999999999
 31
0.0
  0
LINE
  5
18B
330
4E
100
AcDbEntity
 67
     1
  8
1
  6
Continuous
 62
    18
100
AcDbLine
 10
1.814846
 20
5.920285999999999
 30
0.0
 11
1.814846
 21
6.104733
 31
0.0
  0
LINE
  5
18C
330
4E
100
AcDbEntity
 67
     1
  8
1
  6
Continuous
 62
    18
100
AcDbLine
 10
1.814846
 20
6.104733
 30
0.0
 11
1.812502999999999
 21
6.099076
 31
0.0
  0
LINE
  5
18D
330
4E
100
AcDbEntity
 67
     1
  8
1
  6
Continuous
 62
    18
100
AcDbLine
 10
1.812502999999999
 20
6.099076
 30
0.0
 11
1.806847
 21
6.096733999999999
 31
0.0
  0
LINE
  5
18E
330
4E
100
AcDbEntity
 67
     1
  8
1
  6
Continuous
 62
    18
100
AcDbLine
 10
3.395344999999999
 20
5.928284999999999
 30
0.0
 11
3.439347
 21
5.928284999999999
 31
0.0
  0
LINE
  5
18F
330
4E
100
AcDbEntity
 67
     1
  8
1
  6
Continuous
 62
    18
100
AcDbLine
 10
3.395344999999999
 20
6.096733999999999
 30
0.0
 11
3.439347
 21
6.096733999999999
 31
0.0
  0
LINE
  5
190
330
4E
100
AcDbEntity
 67
     1
  8
1
  6
Continuous
 62
    18
100
AcDbLine
 10
3.387345999999999
 20
6.104733
 30
0.0
 11
3.389687999999999
 21
6.099076
 31
0.0
  0
LINE
  5
191
330
4E
100
AcDbEntity
 67
     1
  8
1
  6
Continuous
 62
    18
100
AcDbLine
 10
3.389687999999999
 20
6.099076
 30
0.0
 11
3.395344999999999
 21
6.096733999999999
 31
0.0
  0
LINE
  5
192
330
4E
100
AcDbEntity
 67
     1
  8
1
  6
Continuous
 62
    18
100
AcDbLine
 10
3.387345999999999
 20
5.920285999999999
 30
0.0
 11
3.387345999999999
 21
6.104733
 31
0.0
  0
LINE
  5
193
330
4E
100
AcDbEntity
 67
     1
  8
1
  6
Continuous
 62
    18
100
AcDbLine
 10
3.395344999999999
 20
5.928284999999999
 30
0.0
 11
3.389687999999999
 21
5.925942
 31
0.0
  0
LINE
  5
194
330
4E
100
AcDbEntity
 67
     1
  8
1
  6
Continuous
 62
    18
100
AcDbLine
 10
3.389687999999999
 20
5.925942
 30
0.0
 11
3.387345999999999
 21
5.920285999999999
 31
0.0
  0
LINE
  5
195
330
4E
100
AcDbEntity
 67
     1
  8
1
  6
Continuous
 62
    18
100
AcDbLine
 10
1.946033
 20
5.342285999999999
 30
0.0
 11
3.256158999999999
 21
5.342285999999999
 31
0.0
  0
LINE
  5
196
330
4E
100
AcDbEntity
 67
     1
  8
1
  6
Continuous
 62
    18
100
AcDbLine
 10
1.814846
 20
5.920285999999999
 30
0.0
 11
1.814846
 21
5.818789999999999
 31
0.0
  0
LINE
  5
197
330
4E
100
AcDbEntity
 67
     1
  8
1
  6
Continuous
 62
    18
100
AcDbLine
 10
1.814846
 20
5.818789999999999
 30
0.0
 11
1.814846
 21
5.574876999999999
 31
0.0
  0
LINE
  5
198
330
4E
100
AcDbEntity
 67
     1
  8
1
  6
Continuous
 62
    18
100
AcDbLine
 10
1.814846
 20
5.574876999999999
 30
0.0
 11
1.874845999999999
 21
5.574876999999999
 31
0.0
  0
LINE
  5
199
330
4E
100
AcDbEntity
 67
     1
  8
1
  6
Continuous
 62
    18
100
AcDbLine
 10
1.874845999999999
 20
5.818789999999999
 30
0.0
 11
1.874845999999999
 21
5.574876999999999
 31
0.0
  0
LINE
  5
19A
330
4E
100
AcDbEntity
 67
     1
  8
1
  6
Continuous
 62
    18
100
AcDbLine
 10
1.877815
 20
5.531334999999999
 30
0.0
 11
1.878254
 21
5.493106
 31
0.0
  0
LINE
  5
19B
330
4E
100
AcDbEntity
 67
     1
  8
1
  6
Continuous
 62
    18
100
AcDbLine
 10
1.878254
 20
5.493106
 30
0.0
 11
1.878390999999999
 21
5.488616999999999
 31
0.0
  0
LINE
  5
19C
330
4E
100
AcDbEntity
 67
     1
  8
1
  6
Continuous
 62
    18
100
AcDbLine
 10
1.879072999999999
 20
5.486568
 30
0.0
 11
1.878390999999999
 21
5.488616999999999
 31
0.0
  0
LINE
  5
19D
330
4E
100
AcDbEntity
 67
     1
  8
1
  6
Continuous
 62
    18
100
AcDbLine
 10
1.879124999999999
 20
5.543317
 30
0.0
 11
1.879072999999999
 21
5.486568
 31
0.0
  0
LINE
  5
19E
330
4E
100
AcDbEntity
 67
     1
  8
1
  6
Continuous
 62
    18
100
AcDbLine
 10
1.879124999999999
 20
5.543317
 30
0.0
 11
1.879210999999999
 21
5.553678999999999
 31
0.0
  0
LINE
  5
19F
330
4E
100
AcDbEntity
 67
     1
  8
1
  6
Continuous
 62
    18
100
AcDbLine
 10
1.879210999999999
 20
5.553678999999999
 30
0.0
 11
1.8794
 21
5.557510999999999
 31
0.0
  0
LINE
  5
1A0
330
4E
100
AcDbEntity
 67
     1
  8
1
  6
Continuous
 62
    18
100
AcDbLine
 10
1.880822999999999
 20
5.553237
 30
0.0
 11
1.881211999999999
 21
5.546682999999999
 31
0.0
  0
LINE
  5
1A1
330
4E
100
AcDbEntity
 67
     1
  8
1
  6
Continuous
 62
    18
100
AcDbLine
 10
1.881211999999999
 20
5.546682999999999
 30
0.0
 11
1.881507
 21
5.530791999999999
 31
0.0
  0
LINE
  5
1A2
330
4E
100
AcDbEntity
 67
     1
  8
1
  6
Continuous
 62
    18
100
AcDbLine
 10
1.881945999999999
 20
5.492562999999999
 30
0.0
 11
1.882083
 21
5.488074
 31
0.0
  0
LINE
  5
1A3
330
4E
100
AcDbEntity
 67
     1
  8
1
  6
Continuous
 62
    18
100
AcDbLine
 10
1.883084
 20
5.76095
 30
0.0
 11
1.883006999999999
 21
5.769237999999999
 31
0.0
  0
LINE
  5
1A4
330
4E
100
AcDbEntity
 67
     1
  8
1
  6
Continuous
 62
    18
100
AcDbLine
 10
1.883006999999999
 20
5.769237999999999
 30
0.0
 11
1.882844
 21
5.770223999999999
 31
0.0
  0
LINE
  5
1A5
330
4E
100
AcDbEntity
 67
     1
  8
1
  6
Continuous
 62
    18
100
AcDbLine
 10
1.87817
 20
5.774898
 30
0.0
 11
1.877988
 21
5.779382
 31
0.0
  0
LINE
  5
1A6
330
4E
100
AcDbEntity
 67
     1
  8
1
  6
Continuous
 62
    18
100
AcDbLine
 10
1.877988
 20
5.779382
 30
0.0
 11
1.877913
 21
5.789895999999999
 31
0.0
  0
LINE
  5
1A7
330
4E
100
AcDbEntity
 67
     1
  8
1
  6
Continuous
 62
    18
100
AcDbLine
 10
1.874845999999999
 20
5.574876999999999
 30
0.0
 11
1.874918
 21
5.564550999999999
 31
0.0
  0
LINE
  5
1A8
330
4E
100
AcDbEntity
 67
     1
  8
1
  6
Continuous
 62
    18
100
AcDbLine
 10
1.874918
 20
5.564550999999999
 30
0.0
 11
1.875093999999999
 21
5.559897
 31
0.0
  0
LINE
  5
1A9
330
4E
100
AcDbEntity
 67
     1
  8
1
  6
Continuous
 62
    18
100
AcDbLine
 10
1.877131
 20
5.553780999999999
 30
0.0
 11
1.875093999999999
 21
5.559897
 31
0.0
  0
LINE
  5
1AA
330
4E
100
AcDbEntity
 67
     1
  8
1
  6
Continuous
 62
    18
100
AcDbLine
 10
1.877131
 20
5.553780999999999
 30
0.0
 11
1.87752
 21
5.547226
 31
0.0
  0
LINE
  5
1AB
330
4E
100
AcDbEntity
 67
     1
  8
1
  6
Continuous
 62
    18
100
AcDbLine
 10
1.87752
 20
5.547226
 30
0.0
 11
1.877815
 21
5.531334999999999
 31
0.0
  0
LINE
  5
1AC
330
4E
100
AcDbEntity
 67
     1
  8
1
  6
Continuous
 62
    18
100
AcDbLine
 10
1.816324
 20
5.453755999999999
 30
0.0
 11
1.816324
 21
5.556245999999999
 31
0.0
  0
LINE
  5
1AD
330
4E
100
AcDbEntity
 67
     1
  8
1
  6
Continuous
 62
    18
100
AcDbLine
 10
1.819086999999999
 20
5.486568
 30
0.0
 11
1.818404999999999
 21
5.488616999999999
 31
0.0
  0
LINE
  5
1AE
330
4E
100
AcDbEntity
 67
     1
  8
1
  6
Continuous
 62
    18
100
AcDbLine
 10
1.818404999999999
 20
5.488616999999999
 30
0.0
 11
1.818267999999999
 21
5.493106
 31
0.0
  0
LINE
  5
1AF
330
4E
100
AcDbEntity
 67
     1
  8
1
  6
Continuous
 62
    18
100
AcDbLine
 10
1.818267999999999
 20
5.493106
 30
0.0
 11
1.817829
 21
5.531334999999999
 31
0.0
  0
LINE
  5
1B0
330
4E
100
AcDbEntity
 67
     1
  8
1
  6
Continuous
 62
    18
100
AcDbLine
 10
1.817829
 20
5.531334999999999
 30
0.0
 11
1.817534
 21
5.547226
 31
0.0
  0
LINE
  5
1B1
330
4E
100
AcDbEntity
 67
     1
  8
1
  6
Continuous
 62
    18
100
AcDbLine
 10
1.817534
 20
5.547226
 30
0.0
 11
1.817145999999999
 21
5.553780999999999
 31
0.0
  0
LINE
  5
1B2
330
4E
100
AcDbEntity
 67
     1
  8
1
  6
Continuous
 62
    18
100
AcDbLine
 10
1.815108
 20
5.559897
 30
0.0
 11
1.817145999999999
 21
5.553780999999999
 31
0.0
  0
LINE
  5
1B3
330
4E
100
AcDbEntity
 67
     1
  8
1
  6
Continuous
 62
    18
100
AcDbLine
 10
1.815108
 20
5.559897
 30
0.0
 11
1.815049
 21
5.560465999999999
 31
0.0
  0
LINE
  5
1B4
330
4E
100
AcDbEntity
 67
     1
  8
1
  6
Continuous
 62
    18
100
AcDbLine
 10
3.581591
 20
5.119979999999999
 30
0.0
 11
1.620600999999999
 21
5.119979999999999
 31
0.0
  0
LINE
  5
1B5
330
4E
100
AcDbEntity
 67
     1
  8
1
  6
Continuous
 62
    18
100
AcDbLine
 10
1.620600999999999
 20
5.119979999999999
 30
0.0
 11
1.620600999999999
 21
5.129121999999999
 31
0.0
  0
LINE
  5
1B6
330
4E
100
AcDbEntity
 67
     1
  8
1
  6
Continuous
 62
    18
100
AcDbLine
 10
1.620600999999999
 20
5.129121999999999
 30
0.0
 11
1.620600999999999
 21
5.149962
 31
0.0
  0
LINE
  5
1B7
330
4E
100
AcDbEntity
 67
     1
  8
1
  6
Continuous
 62
    18
100
AcDbLine
 10
1.620600999999999
 20
5.119979999999999
 30
0.0
 11
1.594735
 21
5.123393
 31
0.0
  0
LINE
  5
1B8
330
4E
100
AcDbEntity
 67
     1
  8
1
  6
Continuous
 62
    18
100
AcDbLine
 10
1.594735
 20
5.123393
 30
0.0
 11
1.570635
 21
5.133378999999999
 31
0.0
  0
LINE
  5
1B9
330
4E
100
AcDbEntity
 67
     1
  8
1
  6
Continuous
 62
    18
100
AcDbLine
 10
1.570635
 20
5.133378999999999
 30
0.0
 11
1.549941
 21
5.149259999999999
 31
0.0
  0
LINE
  5
1BA
330
4E
100
AcDbEntity
 67
     1
  8
1
  6
Continuous
 62
    18
100
AcDbLine
 10
1.549941
 20
5.149259999999999
 30
0.0
 11
1.53406
 21
5.169953999999999
 31
0.0
  0
LINE
  5
1BB
330
4E
100
AcDbEntity
 67
     1
  8
1
  6
Continuous
 62
    18
100
AcDbLine
 10
1.53406
 20
5.169953999999999
 30
0.0
 11
1.524073999999999
 21
5.194054
 31
0.0
  0
LINE
  5
1BC
330
4E
100
AcDbEntity
 67
     1
  8
1
  6
Continuous
 62
    18
100
AcDbLine
 10
1.524073999999999
 20
5.194054
 30
0.0
 11
1.520662
 21
5.21992
 31
0.0
  0
LINE
  5
1BD
330
4E
100
AcDbEntity
 67
     1
  8
1
  6
Continuous
 62
    18
100
AcDbLine
 10
1.806847
 20
6.096733999999999
 30
0.0
 11
1.803572
 21
6.100009
 31
0.0
  0
LINE
  5
1BE
330
4E
100
AcDbEntity
 67
     1
  8
1
  6
Continuous
 62
    18
100
AcDbLine
 10
1.759568999999999
 20
6.100009
 30
0.0
 11
1.762844999999999
 21
6.096733999999999
 31
0.0
  0
LINE
  5
1BF
330
4E
100
AcDbEntity
 67
     1
  8
1
  6
Continuous
 62
    18
100
AcDbLine
 10
1.754845999999999
 20
6.088734999999999
 30
0.0
 11
1.75157
 21
6.09201
 31
0.0
  0
LINE
  5
1C0
330
4E
100
AcDbEntity
 67
     1
  8
1
  6
Continuous
 62
    18
100
AcDbLine
 10
1.75157
 20
5.933008
 30
0.0
 11
1.754845999999999
 21
5.936283999999999
 31
0.0
  0
LINE
  5
1C1
330
4E
100
AcDbEntity
 67
     1
  8
1
  6
Continuous
 62
    18
100
AcDbLine
 10
1.762844999999999
 20
5.928284999999999
 30
0.0
 11
1.759568999999999
 21
5.925008999999999
 31
0.0
  0
LINE
  5
1C2
330
4E
100
AcDbEntity
 67
     1
  8
1
  6
Continuous
 62
    18
100
AcDbLine
 10
1.803572
 20
5.925008999999999
 30
0.0
 11
1.806847
 21
5.928284999999999
 31
0.0
  0
LINE
  5
1C3
330
4E
100
AcDbEntity
 67
     1
  8
1
  6
Continuous
 62
    18
100
AcDbLine
 10
1.814846
 20
5.920285999999999
 30
0.0
 11
1.81157
 21
5.917009999999999
 31
0.0
  0
LINE
  5
1C4
330
4E
100
AcDbEntity
 67
     1
  8
1
  6
Continuous
 62
    18
100
AcDbLine
 10
3.398619999999999
 20
5.925008999999999
 30
0.0
 11
3.395344999999999
 21
5.928284999999999
 31
0.0
  0
LINE
  5
1C5
330
4E
100
AcDbEntity
 67
     1
  8
1
  6
Continuous
 62
    18
100
AcDbLine
 10
3.395344999999999
 20
6.096733999999999
 30
0.0
 11
3.398619999999999
 21
6.100009
 31
0.0
  0
LINE
  5
1C6
330
4E
100
AcDbEntity
 67
     1
  8
1
  6
Continuous
 62
    18
100
AcDbLine
 10
3.380998999999999
 20
5.339355999999999
 30
0.0
 11
3.382623
 21
5.337733
 31
0.0
  0
LINE
  5
1C7
330
4E
100
AcDbEntity
 67
     1
  8
1
  6
Continuous
 62
    18
100
AcDbLine
 10
3.256158999999999
 20
5.342285999999999
 30
0.0
 11
3.26202
 21
5.339355999999999
 31
0.0
  0
LINE
  5
1C8
330
4E
100
AcDbEntity
 67
     1
  8
1
  6
Continuous
 62
    18
100
AcDbLine
 10
1.946033
 20
5.342285999999999
 30
0.0
 11
1.940172
 21
5.339355999999999
 31
0.0
  0
LINE
  5
1C9
330
4E
100
AcDbEntity
 67
     1
  8
1
  6
Continuous
 62
    18
100
AcDbLine
 10
1.821193
 20
5.339355999999999
 30
0.0
 11
1.819568999999999
 21
5.337733
 31
0.0
  0
LINE
  5
1CA
330
4E
100
AcDbEntity
 67
     1
  8
1
  6
Continuous
 62
    18
100
AcDbLine
 10
1.81157
 20
5.345731999999999
 30
0.0
 11
1.813194
 21
5.347355
 31
0.0
  0
LINE
  5
1CB
330
4E
100
AcDbEntity
 67
     1
  8
1
  6
Continuous
 62
    18
100
AcDbLine
 10
1.815034999999999
 20
5.560465999999999
 30
0.0
 11
1.814897999999999
 21
5.565862
 31
0.0
  0
LINE
  5
1CC
330
4E
100
AcDbEntity
 67
     1
  8
1
  6
Continuous
 62
    18
100
AcDbLine
 10
1.814897999999999
 20
5.565862
 30
0.0
 11
1.814846
 21
5.574876999999999
 31
0.0
  0
LINE
  5
1CD
330
4E
100
AcDbEntity
 67
     1
  8
1
  6
Continuous
 62
    18
100
AcDbLine
 10
1.816324
 20
5.453755999999999
 30
0.0
 11
1.813194
 21
5.444355999999999
 31
0.0
  0
LINE
  5
1CE
330
4E
100
AcDbEntity
 67
     1
  8
1
  6
Continuous
 62
    18
100
AcDbLine
 10
1.620600999999999
 20
5.119979999999999
 30
0.0
 11
1.618363999999999
 21
5.117744
 31
0.0
  0
LINE
  5
1CF
330
4E
100
AcDbEntity
 67
     1
  8
1
  6
Continuous
 62
    18
100
AcDbLine
 10
1.525985
 20
5.179536999999999
 30
0.0
 11
1.520416999999999
 21
5.197817999999999
 31
0.0
  0
LINE
  5
1D0
330
4E
100
AcDbEntity
 67
     1
  8
1
  6
Continuous
 62
    18
100
AcDbLine
 10
1.520416999999999
 20
5.197817999999999
 30
0.0
 11
1.518424999999999
 21
5.217683
 31
0.0
  0
LINE
  5
1D1
330
4E
100
AcDbEntity
 67
     1
  8
1
  6
Continuous
 62
    18
100
AcDbLine
 10
1.547688999999999
 20
5.147008
 30
0.0
 11
1.525985
 21
5.179536999999999
 31
0.0
  0
LINE
  5
1D2
330
4E
100
AcDbEntity
 67
     1
  8
1
  6
Continuous
 62
    18
100
AcDbLine
 10
1.580218
 20
5.125303999999999
 30
0.0
 11
1.562772999999999
 21
5.134621
 31
0.0
  0
LINE
  5
1D3
330
4E
100
AcDbEntity
 67
     1
  8
1
  6
Continuous
 62
    18
100
AcDbLine
 10
1.562772999999999
 20
5.134621
 30
0.0
 11
1.547688999999999
 21
5.147008
 31
0.0
  0
LINE
  5
1D4
330
4E
100
AcDbEntity
 67
     1
  8
1
  6
Continuous
 62
    18
100
AcDbLine
 10
1.618363999999999
 20
5.117744
 30
0.0
 11
1.598498999999999
 21
5.119735999999999
 31
0.0
  0
LINE
  5
1D5
330
4E
100
AcDbEntity
 67
     1
  8
1
  6
Continuous
 62
    18
100
AcDbLine
 10
1.598498999999999
 20
5.119735999999999
 30
0.0
 11
1.580218
 21
5.125303999999999
 31
0.0
  0
LINE
  5
1D6
330
4E
100
AcDbEntity
 67
     1
  8
1
  6
Continuous
 62
    18
100
AcDbLine
 10
3.583828
 20
5.117744
 30
0.0
 11
1.618363999999999
 21
5.117744
 31
0.0
  0
LINE
  5
1D7
330
4E
100
AcDbEntity
 67
     1
  8
1
  6
Continuous
 62
    18
100
AcDbLine
 10
3.387083999999999
 20
5.559897
 30
0.0
 11
3.327098
 21
5.559897
 31
0.0
  0
LINE
  5
1D8
330
4E
100
AcDbEntity
 67
     1
  8
1
  6
Continuous
 62
    18
100
AcDbLine
 10
1.875093999999999
 20
5.559897
 30
0.0
 11
1.815108
 21
5.559897
 31
0.0
  0
LINE
  5
1D9
330
4E
100
AcDbEntity
 67
     1
  8
1
  6
Continuous
 62
    18
100
AcDbLine
 10
3.323937999999999
 20
5.493106
 30
0.0
 11
3.383923999999999
 21
5.493106
 31
0.0
  0
LINE
  5
1DA
330
4E
100
AcDbEntity
 67
     1
  8
1
  6
Continuous
 62
    18
100
AcDbLine
 10
3.384362999999999
 20
5.531334999999999
 30
0.0
 11
3.324376999999999
 21
5.531334999999999
 31
0.0
  0
LINE
  5
1DB
330
4E
100
AcDbEntity
 67
     1
  8
1
  6
Continuous
 62
    18
100
AcDbLine
 10
3.383787
 20
5.488616999999999
 30
0.0
 11
3.323801999999999
 21
5.488616999999999
 31
0.0
  0
LINE
  5
1DC
330
4E
100
AcDbEntity
 67
     1
  8
1
  6
Continuous
 62
    18
100
AcDbLine
 10
3.323119
 20
5.486568
 30
0.0
 11
3.383105
 21
5.486568
 31
0.0
  0
LINE
  5
1DD
330
4E
100
AcDbEntity
 67
     1
  8
1
  6
Continuous
 62
    18
100
AcDbLine
 10
3.325061
 20
5.553780999999999
 30
0.0
 11
3.385045999999999
 21
5.553780999999999
 31
0.0
  0
LINE
  5
1DE
330
4E
100
AcDbEntity
 67
     1
  8
1
  6
Continuous
 62
    18
100
AcDbLine
 10
1.818267999999999
 20
5.493106
 30
0.0
 11
1.878254
 21
5.493106
 31
0.0
  0
LINE
  5
1DF
330
4E
100
AcDbEntity
 67
     1
  8
1
  6
Continuous
 62
    18
100
AcDbLine
 10
1.877815
 20
5.531334999999999
 30
0.0
 11
1.817829
 21
5.531334999999999
 31
0.0
  0
LINE
  5
1E0
330
4E
100
AcDbEntity
 67
     1
  8
1
  6
Continuous
 62
    18
100
AcDbLine
 10
1.878390999999999
 20
5.488616999999999
 30
0.0
 11
1.818404999999999
 21
5.488616999999999
 31
0.0
  0
LINE
  5
1E1
330
4E
100
AcDbEntity
 67
     1
  8
1
  6
Continuous
 62
    18
100
AcDbLine
 10
1.879072999999999
 20
5.486568
 30
0.0
 11
1.819086999999999
 21
5.486568
 31
0.0
  0
LINE
  5
1E2
330
4E
100
AcDbEntity
 67
     1
  8
1
  6
Continuous
 62
    18
100
AcDbLine
 10
1.817145999999999
 20
5.553780999999999
 30
0.0
 11
1.877131
 21
5.553780999999999
 31
0.0
  0
LINE
  5
1E3
330
4E
100
AcDbEntity
 67
     1
  8
1
  6
Continuous
 62
    18
100
AcDbLine
 10
3.410420999999999
 20
3.813171
 30
0.0
 11
3.398047
 21
3.809894
 31
0.0
  0
LINE
  5
1E4
330
4E
100
AcDbEntity
 67
     1
  8
1
  6
Continuous
 62
    18
100
AcDbLine
 10
3.398047
 20
3.809894
 30
0.0
 11
3.388916999999999
 21
3.800921999999999
 31
0.0
  0
LINE
  5
1E5
330
4E
100
AcDbEntity
 67
     1
  8
1
  6
Continuous
 62
    18
100
AcDbLine
 10
3.388916999999999
 20
3.800921999999999
 30
0.0
 11
3.385423999999999
 21
3.788606999999999
 31
0.0
  0
LINE
  5
1E6
330
4E
100
AcDbEntity
 67
     1
  8
1
  6
Continuous
 62
    18
100
AcDbLine
 10
1.816766999999999
 20
3.788606999999999
 30
0.0
 11
1.813274999999999
 21
3.800921999999999
 31
0.0
  0
LINE
  5
1E7
330
4E
100
AcDbEntity
 67
     1
  8
1
  6
Continuous
 62
    18
100
AcDbLine
 10
1.813274999999999
 20
3.800921999999999
 30
0.0
 11
1.804145
 21
3.809894
 31
0.0
  0
LINE
  5
1E8
330
4E
100
AcDbEntity
 67
     1
  8
1
  6
Continuous
 62
    18
100
AcDbLine
 10
1.804145
 20
3.809894
 30
0.0
 11
1.791770999999999
 21
3.813171
 31
0.0
  0
LINE
  5
1E9
330
4E
100
AcDbEntity
 67
     1
  8
1
  6
Continuous
 62
    18
100
AcDbLine
 10
1.943004999999999
 20
3.722183
 30
0.0
 11
1.948376999999999
 21
3.824691999999999
 31
0.0
  0
LINE
  5
1EA
330
4E
100
AcDbEntity
 67
     1
  8
1
  6
Continuous
 62
    18
100
AcDbLine
 10
3.253815
 20
3.824691999999999
 30
0.0
 11
3.259186999999999
 21
3.722183
 31
0.0
  0
LINE
  5
1EB
330
4E
100
AcDbEntity
 67
     1
  8
1
  6
Continuous
 62
    18
100
AcDbLine
 10
3.259186999999999
 20
3.722183
 30
0.0
 11
3.324279
 21
3.722183
 31
0.0
  0
LINE
  5
1EC
330
4E
100
AcDbEntity
 67
     1
  8
1
  6
Continuous
 62
    18
100
AcDbLine
 10
1.877913
 20
3.722183
 30
0.0
 11
1.943004999999999
 21
3.722183
 31
0.0
  0
LINE
  5
1ED
330
4E
100
AcDbEntity
 67
     1
  8
1
  6
Continuous
 62
    18
100
AcDbLine
 10
3.384265
 20
3.722183
 30
0.0
 11
3.444256999999999
 21
3.722183
 31
0.0
  0
LINE
  5
1EE
330
4E
100
AcDbEntity
 67
     1
  8
1
  6
Continuous
 62
    18
100
AcDbLine
 10
1.817927
 20
3.722183
 30
0.0
 11
1.757936
 21
3.722183
 31
0.0
  0
LINE
  5
1EF
330
4E
100
AcDbEntity
 67
     1
  8
1
  6
Continuous
 62
    18
100
AcDbLine
 10
1.620600999999999
 20
4.085528
 30
0.0
 11
3.581591
 21
4.085528
 31
0.0
  0
LINE
  5
1F0
330
4E
100
AcDbEntity
 67
     1
  8
1
  6
Continuous
 62
    18
100
AcDbLine
 10
3.651548999999999
 20
4.085528
 30
0.0
 11
3.648126
 21
4.085528
 31
0.0
  0
LINE
  5
1F1
330
4E
100
AcDbEntity
 67
     1
  8
1
  6
Continuous
 62
    18
100
AcDbLine
 10
3.648126
 20
4.085528
 30
0.0
 11
3.638191999999999
 21
4.085528
 31
0.0
  0
LINE
  5
1F2
330
4E
100
AcDbEntity
 67
     1
  8
1
  6
Continuous
 62
    18
100
AcDbLine
 10
3.638191999999999
 20
4.085528
 30
0.0
 11
3.622716999999999
 21
4.085528
 31
0.0
  0
LINE
  5
1F3
330
4E
100
AcDbEntity
 67
     1
  8
1
  6
Continuous
 62
    18
100
AcDbLine
 10
3.622716999999999
 20
4.085528
 30
0.0
 11
3.603215
 21
4.085528
 31
0.0
  0
LINE
  5
1F4
330
4E
100
AcDbEntity
 67
     1
  8
1
  6
Continuous
 62
    18
100
AcDbLine
 10
3.603215
 20
4.085528
 30
0.0
 11
3.581591
 21
4.085528
 31
0.0
  0
LINE
  5
1F5
330
4E
100
AcDbEntity
 67
     1
  8
1
  6
Continuous
 62
    18
100
AcDbLine
 10
1.550642999999999
 20
4.085528
 30
0.0
 11
1.554065999999999
 21
4.085528
 31
0.0
  0
LINE
  5
1F6
330
4E
100
AcDbEntity
 67
     1
  8
1
  6
Continuous
 62
    18
100
AcDbLine
 10
1.554065999999999
 20
4.085528
 30
0.0
 11
1.564
 21
4.085528
 31
0.0
  0
LINE
  5
1F7
330
4E
100
AcDbEntity
 67
     1
  8
1
  6
Continuous
 62
    18
100
AcDbLine
 10
1.564
 20
4.085528
 30
0.0
 11
1.579474999999999
 21
4.085528
 31
0.0
  0
LINE
  5
1F8
330
4E
100
AcDbEntity
 67
     1
  8
1
  6
Continuous
 62
    18
100
AcDbLine
 10
1.579474999999999
 20
4.085528
 30
0.0
 11
1.598977
 21
4.085528
 31
0.0
  0
LINE
  5
1F9
330
4E
100
AcDbEntity
 67
     1
  8
1
  6
Continuous
 62
    18
100
AcDbLine
 10
1.598977
 20
4.085528
 30
0.0
 11
1.620600999999999
 21
4.085528
 31
0.0
  0
LINE
  5
1FA
330
4E
100
AcDbEntity
 67
     1
  8
1
  6
Continuous
 62
    18
100
AcDbLine
 10
3.383923999999999
 20
3.702631999999999
 30
0.0
 11
3.384362999999999
 21
3.727789
 31
0.0
  0
LINE
  5
1FB
330
4E
100
AcDbEntity
 67
     1
  8
1
  6
Continuous
 62
    18
100
AcDbLine
 10
3.383923999999999
 20
3.702631999999999
 30
0.0
 11
3.383787
 21
3.694801999999999
 31
0.0
  0
LINE
  5
1FC
330
4E
100
AcDbEntity
 67
     1
  8
1
  6
Continuous
 62
    18
100
AcDbLine
 10
3.383105
 20
3.655705
 30
0.0
 11
3.383787
 21
3.694801999999999
 31
0.0
  0
LINE
  5
1FD
330
4E
100
AcDbEntity
 67
     1
  8
1
  6
Continuous
 62
    18
100
AcDbLine
 10
3.383105
 20
3.655705
 30
0.0
 11
3.383052999999999
 21
3.652730999999999
 31
0.0
  0
LINE
  5
1FE
330
4E
100
AcDbEntity
 67
     1
  8
1
  6
Continuous
 62
    18
100
AcDbLine
 10
3.383052999999999
 20
3.652730999999999
 30
0.0
 11
3.382966999999999
 21
3.647788999999999
 31
0.0
  0
LINE
  5
1FF
330
4E
100
AcDbEntity
 67
     1
  8
1
  6
Continuous
 62
    18
100
AcDbLine
 10
3.382966999999999
 20
3.647788999999999
 30
0.0
 11
3.382776999999999
 21
3.636966999999999
 31
0.0
  0
LINE
  5
200
330
4E
100
AcDbEntity
 67
     1
  8
1
  6
Continuous
 62
    18
100
AcDbLine
 10
3.382776999999999
 20
3.636966999999999
 30
0.0
 11
3.381353999999999
 21
3.555417999999999
 31
0.0
  0
LINE
  5
201
330
4E
100
AcDbEntity
 67
     1
  8
1
  6
Continuous
 62
    18
100
AcDbLine
 10
3.381353999999999
 20
3.555417999999999
 30
0.0
 11
3.380966
 21
3.533166
 31
0.0
  0
LINE
  5
202
330
4E
100
AcDbEntity
 67
     1
  8
1
  6
Continuous
 62
    18
100
AcDbLine
 10
3.380966
 20
3.533166
 30
0.0
 11
3.380670999999999
 21
3.516267
 31
0.0
  0
LINE
  5
203
330
4E
100
AcDbEntity
 67
     1
  8
1
  6
Continuous
 62
    18
100
AcDbLine
 10
3.380231999999999
 20
3.491109999999999
 30
0.0
 11
3.380670999999999
 21
3.516267
 31
0.0
  0
LINE
  5
204
330
4E
100
AcDbEntity
 67
     1
  8
1
  6
Continuous
 62
    18
100
AcDbLine
 10
3.380231999999999
 20
3.491109999999999
 30
0.0
 11
3.380094999999999
 21
3.48328
 31
0.0
  0
LINE
  5
205
330
4E
100
AcDbEntity
 67
     1
  8
1
  6
Continuous
 62
    18
100
AcDbLine
 10
3.379093
 20
3.425905
 30
0.0
 11
3.380094999999999
 21
3.48328
 31
0.0
  0
LINE
  5
206
330
4E
100
AcDbEntity
 67
     1
  8
1
  6
Continuous
 62
    18
100
AcDbLine
 10
3.387045999999999
 20
3.881526999999999
 30
0.0
 11
3.385045999999999
 21
3.766939999999999
 31
0.0
  0
LINE
  5
207
330
4E
100
AcDbEntity
 67
     1
  8
1
  6
Continuous
 62
    18
100
AcDbLine
 10
3.385045999999999
 20
3.766939999999999
 30
0.0
 11
3.384658
 21
3.744689
 31
0.0
  0
LINE
  5
208
330
4E
100
AcDbEntity
 67
     1
  8
1
  6
Continuous
 62
    18
100
AcDbLine
 10
3.384658
 20
3.744689
 30
0.0
 11
3.384362999999999
 21
3.727789
 31
0.0
  0
LINE
  5
209
330
4E
100
AcDbEntity
 67
     1
  8
1
  6
Continuous
 62
    18
100
AcDbLine
 10
3.323119
 20
3.655705
 30
0.0
 11
3.323801999999999
 21
3.694801999999999
 31
0.0
  0
LINE
  5
20A
330
4E
100
AcDbEntity
 67
     1
  8
1
  6
Continuous
 62
    18
100
AcDbLine
 10
3.323801999999999
 20
3.694801999999999
 30
0.0
 11
3.323937999999999
 21
3.702631999999999
 31
0.0
  0
LINE
  5
20B
330
4E
100
AcDbEntity
 67
     1
  8
1
  6
Continuous
 62
    18
100
AcDbLine
 10
3.324376999999999
 20
3.727789
 30
0.0
 11
3.323937999999999
 21
3.702631999999999
 31
0.0
  0
LINE
  5
20C
330
4E
100
AcDbEntity
 67
     1
  8
1
  6
Continuous
 62
    18
100
AcDbLine
 10
3.324376999999999
 20
3.727789
 30
0.0
 11
3.324672
 21
3.744689
 31
0.0
  0
LINE
  5
20D
330
4E
100
AcDbEntity
 67
     1
  8
1
  6
Continuous
 62
    18
100
AcDbLine
 10
3.324672
 20
3.744689
 30
0.0
 11
3.325061
 21
3.766939999999999
 31
0.0
  0
LINE
  5
20E
330
4E
100
AcDbEntity
 67
     1
  8
1
  6
Continuous
 62
    18
100
AcDbLine
 10
3.325061
 20
3.766939999999999
 30
0.0
 11
3.327061
 21
3.881526999999999
 31
0.0
  0
LINE
  5
20F
330
4E
100
AcDbEntity
 67
     1
  8
1
  6
Continuous
 62
    18
100
AcDbLine
 10
3.319108
 20
3.425905
 30
0.0
 11
3.320108999999999
 21
3.48328
 31
0.0
  0
LINE
  5
210
330
4E
100
AcDbEntity
 67
     1
  8
1
  6
Continuous
 62
    18
100
AcDbLine
 10
3.320108999999999
 20
3.48328
 30
0.0
 11
3.320246
 21
3.491109999999999
 31
0.0
  0
LINE
  5
211
330
4E
100
AcDbEntity
 67
     1
  8
1
  6
Continuous
 62
    18
100
AcDbLine
 10
3.320684999999999
 20
3.516267
 30
0.0
 11
3.320246
 21
3.491109999999999
 31
0.0
  0
LINE
  5
212
330
4E
100
AcDbEntity
 67
     1
  8
1
  6
Continuous
 62
    18
100
AcDbLine
 10
3.320684999999999
 20
3.516267
 30
0.0
 11
3.32098
 21
3.533166
 31
0.0
  0
LINE
  5
213
330
4E
100
AcDbEntity
 67
     1
  8
1
  6
Continuous
 62
    18
100
AcDbLine
 10
3.32098
 20
3.533166
 30
0.0
 11
3.321368
 21
3.555417999999999
 31
0.0
  0
LINE
  5
214
330
4E
100
AcDbEntity
 67
     1
  8
1
  6
Continuous
 62
    18
100
AcDbLine
 10
3.321368
 20
3.555417999999999
 30
0.0
 11
3.322791999999999
 21
3.636966999999999
 31
0.0
  0
LINE
  5
215
330
4E
100
AcDbEntity
 67
     1
  8
1
  6
Continuous
 62
    18
100
AcDbLine
 10
3.322791999999999
 20
3.636966999999999
 30
0.0
 11
3.322980999999999
 21
3.647788999999999
 31
0.0
  0
LINE
  5
216
330
4E
100
AcDbEntity
 67
     1
  8
1
  6
Continuous
 62
    18
100
AcDbLine
 10
3.322980999999999
 20
3.647788999999999
 30
0.0
 11
3.323066999999999
 21
3.652730999999999
 31
0.0
  0
LINE
  5
217
330
4E
100
AcDbEntity
 67
     1
  8
1
  6
Continuous
 62
    18
100
AcDbLine
 10
3.323066999999999
 20
3.652730999999999
 30
0.0
 11
3.323119
 21
3.655705
 31
0.0
  0
LINE
  5
218
330
4E
100
AcDbEntity
 67
     1
  8
1
  6
Continuous
 62
    18
100
AcDbLine
 10
3.387061
 20
3.881527999999999
 30
0.0
 11
3.385867999999999
 21
3.813171
 31
0.0
  0
LINE
  5
219
330
4E
100
AcDbEntity
 67
     1
  8
1
  6
Continuous
 62
    18
100
AcDbLine
 10
3.445867999999999
 20
3.813171
 30
0.0
 11
3.385867999999999
 21
3.813171
 31
0.0
  0
LINE
  5
21A
330
4E
100
AcDbEntity
 67
     1
  8
1
  6
Continuous
 62
    18
100
AcDbLine
 10
3.445867999999999
 20
3.813171
 30
0.0
 11
3.447061
 21
3.881527999999999
 31
0.0
  0
LINE
  5
21B
330
4E
100
AcDbEntity
 67
     1
  8
1
  6
Continuous
 62
    18
100
AcDbLine
 10
3.445643
 20
3.801637999999999
 30
0.0
 11
3.444256999999999
 21
3.722183
 31
0.0
  0
LINE
  5
21C
330
4E
100
AcDbEntity
 67
     1
  8
1
  6
Continuous
 62
    18
100
AcDbLine
 10
3.445643
 20
3.801637999999999
 30
0.0
 11
3.467049999999999
 21
3.881527999999999
 31
0.0
  0
LINE
  5
21D
330
4E
100
AcDbEntity
 67
     1
  8
1
  6
Continuous
 62
    18
100
AcDbLine
 10
3.67795
 20
3.881527999999999
 30
0.0
 11
3.683767
 21
3.992528
 31
0.0
  0
LINE
  5
21E
330
4E
100
AcDbEntity
 67
     1
  8
1
  6
Continuous
 62
    18
100
AcDbLine
 10
3.683767
 20
3.992528
 30
0.0
 11
3.68153
 21
4.056574999999999
 31
0.0
  0
LINE
  5
21F
330
4E
100
AcDbEntity
 67
     1
  8
1
  6
Continuous
 62
    18
100
AcDbLine
 10
3.581591
 20
4.056574999999999
 30
0.0
 11
3.581591
 21
4.077107999999999
 31
0.0
  0
LINE
  5
220
330
4E
100
AcDbEntity
 67
     1
  8
1
  6
Continuous
 62
    18
100
AcDbLine
 10
3.581591
 20
4.077107999999999
 30
0.0
 11
3.581591
 21
4.085528
 31
0.0
  0
LINE
  5
221
330
4E
100
AcDbEntity
 67
     1
  8
1
  6
Continuous
 62
    18
100
AcDbLine
 10
3.581591
 20
4.056574999999999
 30
0.0
 11
3.607457
 21
4.056809999999999
 31
0.0
  0
LINE
  5
222
330
4E
100
AcDbEntity
 67
     1
  8
1
  6
Continuous
 62
    18
100
AcDbLine
 10
3.607457
 20
4.056809999999999
 30
0.0
 11
3.631556999999999
 21
4.056957999999999
 31
0.0
  0
LINE
  5
223
330
4E
100
AcDbEntity
 67
     1
  8
1
  6
Continuous
 62
    18
100
AcDbLine
 10
3.631556999999999
 20
4.056957999999999
 30
0.0
 11
3.652251
 21
4.057008
 31
0.0
  0
LINE
  5
224
330
4E
100
AcDbEntity
 67
     1
  8
1
  6
Continuous
 62
    18
100
AcDbLine
 10
3.652251
 20
4.057008
 30
0.0
 11
3.668131999999999
 21
4.056957999999999
 31
0.0
  0
LINE
  5
225
330
4E
100
AcDbEntity
 67
     1
  8
1
  6
Continuous
 62
    18
100
AcDbLine
 10
3.668131999999999
 20
4.056957999999999
 30
0.0
 11
3.678117999999999
 21
4.056809999999999
 31
0.0
  0
LINE
  5
226
330
4E
100
AcDbEntity
 67
     1
  8
1
  6
Continuous
 62
    18
100
AcDbLine
 10
3.678117999999999
 20
4.056809999999999
 30
0.0
 11
3.68153
 21
4.056574999999999
 31
0.0
  0
LINE
  5
227
330
4E
100
AcDbEntity
 67
     1
  8
1
  6
Continuous
 62
    18
100
AcDbLine
 10
3.581591
 20
4.056574999999999
 30
0.0
 11
3.583828
 21
3.992528
 31
0.0
  0
LINE
  5
228
330
4E
100
AcDbEntity
 67
     1
  8
1
  6
Continuous
 62
    18
100
AcDbLine
 10
3.621973999999999
 20
3.992528
 30
0.0
 11
3.603692999999999
 21
3.992529
 31
0.0
  0
LINE
  5
229
330
4E
100
AcDbEntity
 67
     1
  8
1
  6
Continuous
 62
    18
100
AcDbLine
 10
3.603692999999999
 20
3.992529
 30
0.0
 11
3.583828
 21
3.992528
 31
0.0
  0
LINE
  5
22A
330
4E
100
AcDbEntity
 67
     1
  8
1
  6
Continuous
 62
    18
100
AcDbLine
 10
3.654503
 20
3.992528
 30
0.0
 11
3.621973999999999
 21
3.992528
 31
0.0
  0
LINE
  5
22B
330
4E
100
AcDbEntity
 67
     1
  8
1
  6
Continuous
 62
    18
100
AcDbLine
 10
3.676206999999999
 20
3.992528
 30
0.0
 11
3.666889999999999
 21
3.992529
 31
0.0
  0
LINE
  5
22C
330
4E
100
AcDbEntity
 67
     1
  8
1
  6
Continuous
 62
    18
100
AcDbLine
 10
3.666889999999999
 20
3.992529
 30
0.0
 11
3.654503
 21
3.992528
 31
0.0
  0
LINE
  5
22D
330
4E
100
AcDbEntity
 67
     1
  8
1
  6
Continuous
 62
    18
100
AcDbLine
 10
3.683767
 20
3.992528
 30
0.0
 11
3.681775
 21
3.992529
 31
0.0
  0
LINE
  5
22E
330
4E
100
AcDbEntity
 67
     1
  8
1
  6
Continuous
 62
    18
100
AcDbLine
 10
3.681775
 20
3.992529
 30
0.0
 11
3.676206999999999
 21
3.992528
 31
0.0
  0
LINE
  5
22F
330
4E
100
AcDbEntity
 67
     1
  8
1
  6
Continuous
 62
    18
100
AcDbLine
 10
3.67795
 20
3.881527999999999
 30
0.0
 11
3.672571
 21
3.881527999999999
 31
0.0
  0
LINE
  5
230
330
4E
100
AcDbEntity
 67
     1
  8
1
  6
Continuous
 62
    18
100
AcDbLine
 10
3.672571
 20
3.881527999999999
 30
0.0
 11
3.657876
 21
3.881527999999999
 31
0.0
  0
LINE
  5
231
330
4E
100
AcDbEntity
 67
     1
  8
1
  6
Continuous
 62
    18
100
AcDbLine
 10
3.657876
 20
3.881527999999999
 30
0.0
 11
3.634516999999999
 21
3.881527999999999
 31
0.0
  0
LINE
  5
232
330
4E
100
AcDbEntity
 67
     1
  8
1
  6
Continuous
 62
    18
100
AcDbLine
 10
3.634516999999999
 20
3.881527999999999
 30
0.0
 11
3.605466999999999
 21
3.881527999999999
 31
0.0
  0
LINE
  5
233
330
4E
100
AcDbEntity
 67
     1
  8
1
  6
Continuous
 62
    18
100
AcDbLine
 10
3.605466999999999
 20
3.881527999999999
 30
0.0
 11
3.583828
 21
3.881527999999999
 31
0.0
  0
LINE
  5
234
330
4E
100
AcDbEntity
 67
     1
  8
1
  6
Continuous
 62
    18
100
AcDbLine
 10
3.583828
 20
3.881527999999999
 30
0.0
 11
1.618363999999999
 21
3.881527999999999
 31
0.0
  0
LINE
  5
235
330
4E
100
AcDbEntity
 67
     1
  8
1
  6
Continuous
 62
    18
100
AcDbLine
 10
1.618363999999999
 20
3.881527999999999
 30
0.0
 11
1.618165999999999
 21
3.881527999999999
 31
0.0
  0
LINE
  5
236
330
4E
100
AcDbEntity
 67
     1
  8
1
  6
Continuous
 62
    18
100
AcDbLine
 10
1.618165999999999
 20
3.881527999999999
 30
0.0
 11
1.586993999999999
 21
3.881527999999999
 31
0.0
  0
LINE
  5
237
330
4E
100
AcDbEntity
 67
     1
  8
1
  6
Continuous
 62
    18
100
AcDbLine
 10
1.586993999999999
 20
3.881527999999999
 30
0.0
 11
1.560255999999999
 21
3.881527999999999
 31
0.0
  0
LINE
  5
238
330
4E
100
AcDbEntity
 67
     1
  8
1
  6
Continuous
 62
    18
100
AcDbLine
 10
1.560255999999999
 20
3.881527999999999
 30
0.0
 11
1.539055999999999
 21
3.881527999999999
 31
0.0
  0
LINE
  5
239
330
4E
100
AcDbEntity
 67
     1
  8
1
  6
Continuous
 62
    18
100
AcDbLine
 10
1.539055999999999
 20
3.881527999999999
 30
0.0
 11
1.526768
 21
3.881527999999999
 31
0.0
  0
LINE
  5
23A
330
4E
100
AcDbEntity
 67
     1
  8
1
  6
Continuous
 62
    18
100
AcDbLine
 10
1.526768
 20
3.881527999999999
 30
0.0
 11
1.524242
 21
3.881527999999999
 31
0.0
  0
LINE
  5
23B
330
4E
100
AcDbEntity
 67
     1
  8
1
  6
Continuous
 62
    18
100
AcDbLine
 10
1.518424999999999
 20
3.992528
 30
0.0
 11
1.524242
 21
3.881527999999999
 31
0.0
  0
LINE
  5
23C
330
4E
100
AcDbEntity
 67
     1
  8
1
  6
Continuous
 62
    18
100
AcDbLine
 10
1.518424999999999
 20
3.992528
 30
0.0
 11
1.520662
 21
4.056574999999999
 31
0.0
  0
LINE
  5
23D
330
4E
100
AcDbEntity
 67
     1
  8
1
  6
Continuous
 62
    18
100
AcDbLine
 10
3.382776999999999
 20
3.636966999999999
 30
0.0
 11
3.322791999999999
 21
3.636966999999999
 31
0.0
  0
LINE
  5
23E
330
4E
100
AcDbEntity
 67
     1
  8
1
  6
Continuous
 62
    18
100
AcDbLine
 10
3.321368
 20
3.555417999999999
 30
0.0
 11
3.381353999999999
 21
3.555417999999999
 31
0.0
  0
LINE
  5
23F
330
4E
100
AcDbEntity
 67
     1
  8
1
  6
Continuous
 62
    18
100
AcDbLine
 10
3.380670999999999
 20
3.516267
 30
0.0
 11
3.320684999999999
 21
3.516267
 31
0.0
  0
LINE
  5
240
330
4E
100
AcDbEntity
 67
     1
  8
1
  6
Continuous
 62
    18
100
AcDbLine
 10
3.320246
 20
3.491109999999999
 30
0.0
 11
3.380231999999999
 21
3.491109999999999
 31
0.0
  0
LINE
  5
241
330
4E
100
AcDbEntity
 67
     1
  8
1
  6
Continuous
 62
    18
100
AcDbLine
 10
3.380094999999999
 20
3.48328
 30
0.0
 11
3.320108999999999
 21
3.48328
 31
0.0
  0
LINE
  5
242
330
4E
100
AcDbEntity
 67
     1
  8
1
  6
Continuous
 62
    18
100
AcDbLine
 10
3.319108
 20
3.425905
 30
0.0
 11
3.379093
 21
3.425905
 31
0.0
  0
LINE
  5
243
330
4E
100
AcDbEntity
 67
     1
  8
1
  6
Continuous
 62
    18
100
AcDbLine
 10
1.880822999999999
 20
3.555417999999999
 30
0.0
 11
1.8794
 21
3.636966999999999
 31
0.0
  0
LINE
  5
244
330
4E
100
AcDbEntity
 67
     1
  8
1
  6
Continuous
 62
    18
100
AcDbLine
 10
1.8794
 20
3.636966999999999
 30
0.0
 11
1.819413999999999
 21
3.636966999999999
 31
0.0
  0
LINE
  5
245
330
4E
100
AcDbEntity
 67
     1
  8
1
  6
Continuous
 62
    18
100
AcDbLine
 10
1.819413999999999
 20
3.636966999999999
 30
0.0
 11
1.820838
 21
3.555417999999999
 31
0.0
  0
LINE
  5
246
330
4E
100
AcDbEntity
 67
     1
  8
1
  6
Continuous
 62
    18
100
AcDbLine
 10
1.820838
 20
3.555417999999999
 30
0.0
 11
1.880822999999999
 21
3.555417999999999
 31
0.0
  0
LINE
  5
247
330
4E
100
AcDbEntity
 67
     1
  8
1
  6
Continuous
 62
    18
100
AcDbLine
 10
1.881507
 20
3.516267
 30
0.0
 11
1.881945999999999
 21
3.491109999999999
 31
0.0
  0
LINE
  5
248
330
4E
100
AcDbEntity
 67
     1
  8
1
  6
Continuous
 62
    18
100
AcDbLine
 10
1.881507
 20
3.516267
 30
0.0
 11
1.821520999999999
 21
3.516267
 31
0.0
  0
LINE
  5
249
330
4E
100
AcDbEntity
 67
     1
  8
1
  6
Continuous
 62
    18
100
AcDbLine
 10
1.821959999999999
 20
3.491109999999999
 30
0.0
 11
1.821520999999999
 21
3.516267
 31
0.0
  0
LINE
  5
24A
330
4E
100
AcDbEntity
 67
     1
  8
1
  6
Continuous
 62
    18
100
AcDbLine
 10
1.821959999999999
 20
3.491109999999999
 30
0.0
 11
1.881945999999999
 21
3.491109999999999
 31
0.0
  0
LINE
  5
24B
330
4E
100
AcDbEntity
 67
     1
  8
1
  6
Continuous
 62
    18
100
AcDbLine
 10
1.883084
 20
3.425905
 30
0.0
 11
1.882083
 21
3.48328
 31
0.0
  0
LINE
  5
24C
330
4E
100
AcDbEntity
 67
     1
  8
1
  6
Continuous
 62
    18
100
AcDbLine
 10
1.882083
 20
3.48328
 30
0.0
 11
1.822097
 21
3.48328
 31
0.0
  0
LINE
  5
24D
330
4E
100
AcDbEntity
 67
     1
  8
1
  6
Continuous
 62
    18
100
AcDbLine
 10
1.823097999999999
 20
3.425905
 30
0.0
 11
1.822097
 21
3.48328
 31
0.0
  0
LINE
  5
24E
330
4E
100
AcDbEntity
 67
     1
  8
1
  6
Continuous
 62
    18
100
AcDbLine
 10
1.883084
 20
3.425905
 30
0.0
 11
1.823097999999999
 21
3.425905
 31
0.0
  0
LINE
  5
24F
330
4E
100
AcDbEntity
 67
     1
  8
1
  6
Continuous
 62
    18
100
AcDbLine
 10
3.256158999999999
 20
3.824694
 30
0.0
 11
3.253817999999999
 21
3.824694
 31
0.0
  0
LINE
  5
250
330
4E
100
AcDbEntity
 67
     1
  8
1
  6
Continuous
 62
    18
100
AcDbLine
 10
3.253817999999999
 20
3.824694
 30
0.0
 11
3.248164
 21
3.824694
 31
0.0
  0
LINE
  5
251
330
4E
100
AcDbEntity
 67
     1
  8
1
  6
Continuous
 62
    18
100
AcDbLine
 10
1.954027999999999
 20
3.824694
 30
0.0
 11
3.248164
 21
3.824694
 31
0.0
  0
LINE
  5
252
330
4E
100
AcDbEntity
 67
     1
  8
1
  6
Continuous
 62
    18
100
AcDbLine
 10
1.954027999999999
 20
3.824694
 30
0.0
 11
1.948374
 21
3.824694
 31
0.0
  0
LINE
  5
253
330
4E
100
AcDbEntity
 67
     1
  8
1
  6
Continuous
 62
    18
100
AcDbLine
 10
1.948374
 20
3.824694
 30
0.0
 11
1.946033
 21
3.824694
 31
0.0
  0
LINE
  5
254
330
4E
100
AcDbEntity
 67
     1
  8
1
  6
Continuous
 62
    18
100
AcDbLine
 10
1.877815
 20
3.727789
 30
0.0
 11
1.878254
 21
3.702631999999999
 31
0.0
  0
LINE
  5
255
330
4E
100
AcDbEntity
 67
     1
  8
1
  6
Continuous
 62
    18
100
AcDbLine
 10
1.878254
 20
3.702631999999999
 30
0.0
 11
1.878390999999999
 21
3.694801999999999
 31
0.0
  0
LINE
  5
256
330
4E
100
AcDbEntity
 67
     1
  8
1
  6
Continuous
 62
    18
100
AcDbLine
 10
1.879072999999999
 20
3.655705
 30
0.0
 11
1.878390999999999
 21
3.694801999999999
 31
0.0
  0
LINE
  5
257
330
4E
100
AcDbEntity
 67
     1
  8
1
  6
Continuous
 62
    18
100
AcDbLine
 10
1.879124999999999
 20
3.652730999999999
 30
0.0
 11
1.879072999999999
 21
3.655705
 31
0.0
  0
LINE
  5
258
330
4E
100
AcDbEntity
 67
     1
  8
1
  6
Continuous
 62
    18
100
AcDbLine
 10
1.879124999999999
 20
3.652730999999999
 30
0.0
 11
1.879210999999999
 21
3.647788999999999
 31
0.0
  0
LINE
  5
259
330
4E
100
AcDbEntity
 67
     1
  8
1
  6
Continuous
 62
    18
100
AcDbLine
 10
1.879210999999999
 20
3.647788999999999
 30
0.0
 11
1.8794
 21
3.636966999999999
 31
0.0
  0
LINE
  5
25A
330
4E
100
AcDbEntity
 67
     1
  8
1
  6
Continuous
 62
    18
100
AcDbLine
 10
1.880822999999999
 20
3.555417999999999
 30
0.0
 11
1.881211999999999
 21
3.533166
 31
0.0
  0
LINE
  5
25B
330
4E
100
AcDbEntity
 67
     1
  8
1
  6
Continuous
 62
    18
100
AcDbLine
 10
1.881211999999999
 20
3.533166
 30
0.0
 11
1.881507
 21
3.516267
 31
0.0
  0
LINE
  5
25C
330
4E
100
AcDbEntity
 67
     1
  8
1
  6
Continuous
 62
    18
100
AcDbLine
 10
1.881945999999999
 20
3.491109999999999
 30
0.0
 11
1.882083
 21
3.48328
 31
0.0
  0
LINE
  5
25D
330
4E
100
AcDbEntity
 67
     1
  8
1
  6
Continuous
 62
    18
100
AcDbLine
 10
1.877131
 20
3.766939999999999
 30
0.0
 11
1.875131
 21
3.881526999999999
 31
0.0
  0
LINE
  5
25E
330
4E
100
AcDbEntity
 67
     1
  8
1
  6
Continuous
 62
    18
100
AcDbLine
 10
1.877131
 20
3.766939999999999
 30
0.0
 11
1.87752
 21
3.744689
 31
0.0
  0
LINE
  5
25F
330
4E
100
AcDbEntity
 67
     1
  8
1
  6
Continuous
 62
    18
100
AcDbLine
 10
1.87752
 20
3.744689
 30
0.0
 11
1.877815
 21
3.727789
 31
0.0
  0
LINE
  5
260
330
4E
100
AcDbEntity
 67
     1
  8
1
  6
Continuous
 62
    18
100
AcDbLine
 10
1.756324
 20
3.813171
 30
0.0
 11
1.816324
 21
3.813171
 31
0.0
  0
LINE
  5
261
330
4E
100
AcDbEntity
 67
     1
  8
1
  6
Continuous
 62
    18
100
AcDbLine
 10
1.819086999999999
 20
3.655705
 30
0.0
 11
1.818404999999999
 21
3.694801999999999
 31
0.0
  0
LINE
  5
262
330
4E
100
AcDbEntity
 67
     1
  8
1
  6
Continuous
 62
    18
100
AcDbLine
 10
1.818404999999999
 20
3.694801999999999
 30
0.0
 11
1.818267999999999
 21
3.702631999999999
 31
0.0
  0
LINE
  5
263
330
4E
100
AcDbEntity
 67
     1
  8
1
  6
Continuous
 62
    18
100
AcDbLine
 10
1.818267999999999
 20
3.702631999999999
 30
0.0
 11
1.817829
 21
3.727789
 31
0.0
  0
LINE
  5
264
330
4E
100
AcDbEntity
 67
     1
  8
1
  6
Continuous
 62
    18
100
AcDbLine
 10
1.817829
 20
3.727789
 30
0.0
 11
1.817534
 21
3.744689
 31
0.0
  0
LINE
  5
265
330
4E
100
AcDbEntity
 67
     1
  8
1
  6
Continuous
 62
    18
100
AcDbLine
 10
1.817534
 20
3.744689
 30
0.0
 11
1.817145999999999
 21
3.766939999999999
 31
0.0
  0
LINE
  5
266
330
4E
100
AcDbEntity
 67
     1
  8
1
  6
Continuous
 62
    18
100
AcDbLine
 10
1.815146
 20
3.881526999999999
 30
0.0
 11
1.817145999999999
 21
3.766939999999999
 31
0.0
  0
LINE
  5
267
330
4E
100
AcDbEntity
 67
     1
  8
1
  6
Continuous
 62
    18
100
AcDbLine
 10
1.822097
 20
3.48328
 30
0.0
 11
1.821959999999999
 21
3.491109999999999
 31
0.0
  0
LINE
  5
268
330
4E
100
AcDbEntity
 67
     1
  8
1
  6
Continuous
 62
    18
100
AcDbLine
 10
1.821520999999999
 20
3.516267
 30
0.0
 11
1.821225999999999
 21
3.533166
 31
0.0
  0
LINE
  5
269
330
4E
100
AcDbEntity
 67
     1
  8
1
  6
Continuous
 62
    18
100
AcDbLine
 10
1.821225999999999
 20
3.533166
 30
0.0
 11
1.820838
 21
3.555417999999999
 31
0.0
  0
LINE
  5
26A
330
4E
100
AcDbEntity
 67
     1
  8
1
  6
Continuous
 62
    18
100
AcDbLine
 10
1.819413999999999
 20
3.636966999999999
 30
0.0
 11
1.819225
 21
3.647788999999999
 31
0.0
  0
LINE
  5
26B
330
4E
100
AcDbEntity
 67
     1
  8
1
  6
Continuous
 62
    18
100
AcDbLine
 10
1.819225
 20
3.647788999999999
 30
0.0
 11
1.819138999999999
 21
3.652730999999999
 31
0.0
  0
LINE
  5
26C
330
4E
100
AcDbEntity
 67
     1
  8
1
  6
Continuous
 62
    18
100
AcDbLine
 10
1.819086999999999
 20
3.655705
 30
0.0
 11
1.819138999999999
 21
3.652730999999999
 31
0.0
  0
LINE
  5
26D
330
4E
100
AcDbEntity
 67
     1
  8
1
  6
Continuous
 62
    18
100
AcDbLine
 10
1.756549
 20
3.801637999999999
 30
0.0
 11
1.757936
 21
3.722183
 31
0.0
  0
LINE
  5
26E
330
4E
100
AcDbEntity
 67
     1
  8
1
  6
Continuous
 62
    18
100
AcDbLine
 10
3.581591
 20
4.056574999999999
 30
0.0
 11
1.620600999999999
 21
4.056574999999999
 31
0.0
  0
LINE
  5
26F
330
4E
100
AcDbEntity
 67
     1
  8
1
  6
Continuous
 62
    18
100
AcDbLine
 10
1.620600999999999
 20
4.056574999999999
 30
0.0
 11
1.620600999999999
 21
4.077107999999999
 31
0.0
  0
LINE
  5
270
330
4E
100
AcDbEntity
 67
     1
  8
1
  6
Continuous
 62
    18
100
AcDbLine
 10
1.620600999999999
 20
4.077107999999999
 30
0.0
 11
1.620600999999999
 21
4.085528
 31
0.0
  0
LINE
  5
271
330
4E
100
AcDbEntity
 67
     1
  8
1
  6
Continuous
 62
    18
100
AcDbLine
 10
1.620600999999999
 20
4.056574999999999
 30
0.0
 11
1.594735
 21
4.056809999999999
 31
0.0
  0
LINE
  5
272
330
4E
100
AcDbEntity
 67
     1
  8
1
  6
Continuous
 62
    18
100
AcDbLine
 10
1.594735
 20
4.056809999999999
 30
0.0
 11
1.570635
 21
4.056957999999999
 31
0.0
  0
LINE
  5
273
330
4E
100
AcDbEntity
 67
     1
  8
1
  6
Continuous
 62
    18
100
AcDbLine
 10
1.570635
 20
4.056957999999999
 30
0.0
 11
1.549941
 21
4.057008
 31
0.0
  0
LINE
  5
274
330
4E
100
AcDbEntity
 67
     1
  8
1
  6
Continuous
 62
    18
100
AcDbLine
 10
1.549941
 20
4.057008
 30
0.0
 11
1.53406
 21
4.056957999999999
 31
0.0
  0
LINE
  5
275
330
4E
100
AcDbEntity
 67
     1
  8
1
  6
Continuous
 62
    18
100
AcDbLine
 10
1.53406
 20
4.056957999999999
 30
0.0
 11
1.524073999999999
 21
4.056809999999999
 31
0.0
  0
LINE
  5
276
330
4E
100
AcDbEntity
 67
     1
  8
1
  6
Continuous
 62
    18
100
AcDbLine
 10
1.524073999999999
 20
4.056809999999999
 30
0.0
 11
1.520662
 21
4.056574999999999
 31
0.0
  0
LINE
  5
277
330
4E
100
AcDbEntity
 67
     1
  8
1
  6
Continuous
 62
    18
100
AcDbLine
 10
3.258143999999999
 20
3.881529
 30
0.0
 11
3.256158999999999
 21
3.824694
 31
0.0
  0
LINE
  5
278
330
4E
100
AcDbEntity
 67
     1
  8
1
  6
Continuous
 62
    18
100
AcDbLine
 10
3.248164
 20
3.824694
 30
0.0
 11
3.250148999999999
 21
3.881529
 31
0.0
  0
LINE
  5
279
330
4E
100
AcDbEntity
 67
     1
  8
1
  6
Continuous
 62
    18
100
AcDbLine
 10
1.952042999999999
 20
3.881529
 30
0.0
 11
1.954027999999999
 21
3.824694
 31
0.0
  0
LINE
  5
27A
330
4E
100
AcDbEntity
 67
     1
  8
1
  6
Continuous
 62
    18
100
AcDbLine
 10
1.946033
 20
3.824694
 30
0.0
 11
1.944048
 21
3.881529
 31
0.0
  0
LINE
  5
27B
330
4E
100
AcDbEntity
 67
     1
  8
1
  6
Continuous
 62
    18
100
AcDbLine
 10
1.816324
 20
3.813171
 30
0.0
 11
1.815131
 21
3.881527999999999
 31
0.0
  0
LINE
  5
27C
330
4E
100
AcDbEntity
 67
     1
  8
1
  6
Continuous
 62
    18
100
AcDbLine
 10
1.756324
 20
3.813171
 30
0.0
 11
1.755131
 21
3.881527999999999
 31
0.0
  0
LINE
  5
27D
330
4E
100
AcDbEntity
 67
     1
  8
1
  6
Continuous
 62
    18
100
AcDbLine
 10
1.756549
 20
3.801637999999999
 30
0.0
 11
1.735141999999999
 21
3.881527999999999
 31
0.0
  0
LINE
  5
27E
330
4E
100
AcDbEntity
 67
     1
  8
1
  6
Continuous
 62
    18
100
AcDbLine
 10
1.620600999999999
 20
4.056574999999999
 30
0.0
 11
1.618363999999999
 21
3.992528
 31
0.0
  0
LINE
  5
27F
330
4E
100
AcDbEntity
 67
     1
  8
1
  6
Continuous
 62
    18
100
AcDbLine
 10
1.525985
 20
3.992528
 30
0.0
 11
1.520416999999999
 21
3.992529
 31
0.0
  0
LINE
  5
280
330
4E
100
AcDbEntity
 67
     1
  8
1
  6
Continuous
 62
    18
100
AcDbLine
 10
1.520416999999999
 20
3.992529
 30
0.0
 11
1.518424999999999
 21
3.992528
 31
0.0
  0
LINE
  5
281
330
4E
100
AcDbEntity
 67
     1
  8
1
  6
Continuous
 62
    18
100
AcDbLine
 10
1.547688999999999
 20
3.992528
 30
0.0
 11
1.525985
 21
3.992528
 31
0.0
  0
LINE
  5
282
330
4E
100
AcDbEntity
 67
     1
  8
1
  6
Continuous
 62
    18
100
AcDbLine
 10
1.580218
 20
3.992528
 30
0.0
 11
1.562772999999999
 21
3.992529
 31
0.0
  0
LINE
  5
283
330
4E
100
AcDbEntity
 67
     1
  8
1
  6
Continuous
 62
    18
100
AcDbLine
 10
1.562772999999999
 20
3.992529
 30
0.0
 11
1.547688999999999
 21
3.992528
 31
0.0
  0
LINE
  5
284
330
4E
100
AcDbEntity
 67
     1
  8
1
  6
Continuous
 62
    18
100
AcDbLine
 10
1.618363999999999
 20
3.992528
 30
0.0
 11
1.598498999999999
 21
3.992529
 31
0.0
  0
LINE
  5
285
330
4E
100
AcDbEntity
 67
     1
  8
1
  6
Continuous
 62
    18
100
AcDbLine
 10
1.598498999999999
 20
3.992529
 30
0.0
 11
1.580218
 21
3.992528
 31
0.0
  0
LINE
  5
286
330
4E
100
AcDbEntity
 67
     1
  8
1
  6
Continuous
 62
    18
100
AcDbLine
 10
3.583828
 20
3.992528
 30
0.0
 11
1.618363999999999
 21
3.992528
 31
0.0
  0
LINE
  5
287
330
4E
100
AcDbEntity
 67
     1
  8
1
  6
Continuous
 62
    18
100
AcDbLine
 10
3.583828
 20
3.992528
 30
0.0
 11
3.583828
 21
3.881527999999999
 31
0.0
  0
LINE
  5
288
330
4E
100
AcDbEntity
 67
     1
  8
1
  6
Continuous
 62
    18
100
AcDbLine
 10
1.618363999999999
 20
3.881527999999999
 30
0.0
 11
1.618363999999999
 21
3.992528
 31
0.0
  0
LINE
  5
289
330
4E
100
AcDbEntity
 67
     1
  8
1
  6
Continuous
 62
    18
100
AcDbLine
 10
3.323937999999999
 20
3.702631999999999
 30
0.0
 11
3.383923999999999
 21
3.702631999999999
 31
0.0
  0
LINE
  5
28A
330
4E
100
AcDbEntity
 67
     1
  8
1
  6
Continuous
 62
    18
100
AcDbLine
 10
3.384362999999999
 20
3.727789
 30
0.0
 11
3.324376999999999
 21
3.727789
 31
0.0
  0
LINE
  5
28B
330
4E
100
AcDbEntity
 67
     1
  8
1
  6
Continuous
 62
    18
100
AcDbLine
 10
3.383787
 20
3.694801999999999
 30
0.0
 11
3.323801999999999
 21
3.694801999999999
 31
0.0
  0
LINE
  5
28C
330
4E
100
AcDbEntity
 67
     1
  8
1
  6
Continuous
 62
    18
100
AcDbLine
 10
3.323119
 20
3.655705
 30
0.0
 11
3.383105
 21
3.655705
 31
0.0
  0
LINE
  5
28D
330
4E
100
AcDbEntity
 67
     1
  8
1
  6
Continuous
 62
    18
100
AcDbLine
 10
3.323066999999999
 20
3.652730999999999
 30
0.0
 11
3.383052999999999
 21
3.652730999999999
 31
0.0
  0
LINE
  5
28E
330
4E
100
AcDbEntity
 67
     1
  8
1
  6
Continuous
 62
    18
100
AcDbLine
 10
3.325061
 20
3.766939999999999
 30
0.0
 11
3.385045999999999
 21
3.766939999999999
 31
0.0
  0
LINE
  5
28F
330
4E
100
AcDbEntity
 67
     1
  8
1
  6
Continuous
 62
    18
100
AcDbLine
 10
1.818267999999999
 20
3.702631999999999
 30
0.0
 11
1.878254
 21
3.702631999999999
 31
0.0
  0
LINE
  5
290
330
4E
100
AcDbEntity
 67
     1
  8
1
  6
Continuous
 62
    18
100
AcDbLine
 10
1.877815
 20
3.727789
 30
0.0
 11
1.817829
 21
3.727789
 31
0.0
  0
LINE
  5
291
330
4E
100
AcDbEntity
 67
     1
  8
1
  6
Continuous
 62
    18
100
AcDbLine
 10
1.878390999999999
 20
3.694801999999999
 30
0.0
 11
1.818404999999999
 21
3.694801999999999
 31
0.0
  0
LINE
  5
292
330
4E
100
AcDbEntity
 67
     1
  8
1
  6
Continuous
 62
    18
100
AcDbLine
 10
1.879072999999999
 20
3.655705
 30
0.0
 11
1.819086999999999
 21
3.655705
 31
0.0
  0
LINE
  5
293
330
4E
100
AcDbEntity
 67
     1
  8
1
  6
Continuous
 62
    18
100
AcDbLine
 10
1.819138999999999
 20
3.652730999999999
 30
0.0
 11
1.879124999999999
 21
3.652730999999999
 31
0.0
  0
LINE
  5
294
330
4E
100
AcDbEntity
 67
     1
  8
1
  6
Continuous
 62
    18
100
AcDbLine
 10
1.817145999999999
 20
3.766939999999999
 30
0.0
 11
1.877131
 21
3.766939999999999
 31
0.0
  0
CIRCLE
  5
295
330
4E
100
AcDbEntity
 67
     1
  8
1
  6
Continuous
 62
    18
100
AcDbCircle
 10
2.601096
 20
6.967914999999999
 30
0.0
 40
0.113940566778183
  0
CIRCLE
  5
296
330
4E
100
AcDbEntity
 67
     1
  8
1
  6
Continuous
 62
    18
100
AcDbCircle
 10
2.601096
 20
6.967914999999999
 30
0.0
 40
0.0808855518698692
  0
CIRCLE
  5
297
330
4E
100
AcDbEntity
 67
     1
  8
1
  6
Continuous
 62
    18
100
AcDbCircle
 10
2.601096
 20
6.967914999999999
 30
0.0
 40
0.0790296345949173
  0
CIRCLE
  5
298
330
4E
100
AcDbEntity
 67
     1
  8
1
  6
Continuous
 62
    18
100
AcDbCircle
 10
2.601096
 20
6.967914999999999
 30
0.0
 40
0.1189398020505905
  0
CIRCLE
  5
299
330
4E
100
AcDbEntity
 67
     1
  8
1
  6
Continuous
 62
    18
100
AcDbCircle
 10
2.601096
 20
6.967914999999999
 30
0.0
 40
0.1219369918107986
  0
ARC
  5
29A
330
4E
100
AcDbEntity
 67
     1
  8
1
  6
Continuous
 62
    18
100
AcDbCircle
 10
3.651548999999999
 20
4.055527999999999
 30
0.0
 40
0.0299999993294477
100
AcDbArc
 50
2.0
 51
90.0
  0
ARC
  5
29B
330
4E
100
AcDbEntity
 67
     1
  8
1
  6
Continuous
 62
    18
100
AcDbCircle
 10
1.550642999999999
 20
4.055527999999999
 30
0.0
 40
0.0299999993294477
100
AcDbArc
 50
90.0
 51
178.0
  0
ENDSEC
  0
SECTION
  2
OBJECTS
  0
DICTIONARY
  5
C
330
0
100
AcDbDictionary
281
     1
  3
ACAD_CIP_PREVIOUS_PRODUCT_INFO
350
2FE
  3
ACAD_COLOR
350
2E6
  3
ACAD_GROUP
350
D
  3
ACAD_LAYOUT
350
1A
  3
ACAD_MATERIAL
350
3B
  3
ACAD_MLEADERSTYLE
350
2AF
  3
ACAD_MLINESTYLE
350
17
  3
ACAD_PLOTSETTINGS
350
19
  3
ACAD_PLOTSTYLENAME
350
E
  3
ACAD_SCALELIST
350
2E9
  3
ACAD_TABLESTYLE
350
2E7
  3
ACAD_VISUALSTYLE
350
2A
  3
ACDB_RECOMPOSE_DATA
350
30B
  3
AcDbVariableDictionary
350
2AD
  3
DWGPROPS
350
30C
  0
DICTIONARY
  5
2FF
330
10
100
AcDbDictionary
280
     1
281
     1
  3
ADSK_XREC_LAYER_RECONCILED
360
300
  0
DICTIONARY
  5
301
330
53
100
AcDbDictionary
280
     1
281
     1
  3
ADSK_XREC_LAYER_RECONCILED
360
302
  0
DICTIONARY
  5
32F
330
51
100
AcDbDictionary
280
     1
281
     1
  3
ACAD_XREC_ROUNDTRIP
360
330
  0
XRECORD
  5
2FE
102
{ACAD_REACTORS
330
C
102
}
330
C
100
AcDbXrecord
280
     1
300
ACD
300
2012
300

  0
DICTIONARY
  5
2E6
102
{ACAD_REACTORS
330
C
102
}
330
C
100
AcDbDictionary
281
     1
  0
DICTIONARY
  5
D
102
{ACAD_REACTORS
330
C
102
}
330
C
100
AcDbDictionary
281
     1
  0
DICTIONARY
  5
1A
102
{ACAD_REACTORS
330
C
102
}
330
C
100
AcDbDictionary
281
     1
  3
Model
350
22
  3
SH1
350
29C
  0
DICTIONARY
  5
3B
102
{ACAD_REACTORS
330
C
102
}
330
C
100
AcDbDictionary
281
     1
  3
BYBLOCK
350
3D
  3
BYLAYER
350
3C
  3
Global
350
3E
  0
DICTIONARY
  5
2AF
102
{ACAD_REACTORS
330
C
102
}
330
C
100
AcDbDictionary
281
     1
  3
Standard
350
2FB
  0
DICTIONARY
  5
17
102
{ACAD_REACTORS
330
C
102
}
330
C
100
AcDbDictionary
281
     1
  3
Standard
350
18
  0
DICTIONARY
  5
19
102
{ACAD_REACTORS
330
C
102
}
330
C
100
AcDbDictionary
281
     1
  0
ACDBDICTIONARYWDFLT
  5
E
102
{ACAD_REACTORS
330
C
102
}
330
C
100
AcDbDictionary
281
     1
  3
Normal
350
F
100
AcDbDictionaryWithDefault
340
F
  0
DICTIONARY
  5
2E9
102
{ACAD_REACTORS
330
C
102
}
330
C
100
AcDbDictionary
281
     1
  3
A0
350
2EA
  3
A1
350
2EB
  3
A2
350
2EC
  3
A3
350
2ED
  3
A4
350
2EE
  3
A5
350
2EF
  3
A6
350
2F0
  3
A7
350
2F1
  3
A8
350
2F2
  3
A9
350
2F3
  3
B0
350
2F4
  3
B1
350
2F5
  3
B2
350
2F6
  3
B3
350
2F7
  3
B4
350
2F8
  3
B5
350
2F9
  3
B6
350
2FA
  0
DICTIONARY
  5
2E7
102
{ACAD_REACTORS
330
C
102
}
330
C
100
AcDbDictionary
281
     1
  3
Standard
350
2E8
  0
DICTIONARY
  5
2A
102
{ACAD_REACTORS
330
C
102
}
330
C
100
AcDbDictionary
281
     1
  3
2dWireframe
350
2F
  3
3D Hidden
350
31
  3
3dWireframe
350
30
  3
Basic
350
32
  3
Brighten
350
36
  3
ColorChange
350
3A
  3
Conceptual
350
34
  3
Dim
350
35
  3
EdgeColorOff
350
2E5
  3
Facepattern
350
39
  3
Flat
350
2B
  3
FlatWithEdges
350
2C
  3
Gouraud
350
2D
  3
GouraudWithEdges
350
2E
  3
Hidden
350
2DD
  3
JitterOff
350
2E3
  3
Linepattern
350
38
  3
OverhangOff
350
2E4
  3
Realistic
350
33
  3
Shaded
350
2E2
  3
Shaded with edges
350
2E1
  3
Shades of Gray
350
2DE
  3
Sketchy
350
2DF
  3
Thicken
350
37
  3
Wireframe
350
2DC
  3
X-Ray
350
2E0
  0
XRECORD
  5
30B
102
{ACAD_REACTORS
330
C
102
}
330
C
100
AcDbXrecord
280
     1
 90
        1
330
2E8
  0
DICTIONARY
  5
2AD
102
{ACAD_REACTORS
330
C
102
}
330
C
100
AcDbDictionary
281
     1
  3
CANNOSCALE
350
305
  3
CMLEADERSTYLE
350
304
  3
CTABLESTYLE
350
303
  3
DIMASSOC
350
2B0
  3
HIDETEXT
350
2B1
  3
INDEXCTL
350
307
  3
SORTENTS
350
306
  3
XCLIPFRAME
350
308
  0
XRECORD
  5
30C
102
{ACAD_REACTORS
330
C
102
}
330
C
100
AcDbXrecord
280
     1
  1
DWGPROPS COOKIE
  2

  3

  4

  6

  7

  8
bjn
  9

300
=
301
=
302
=
303
=
304
=
305
=
306
=
307
=
308
=
309
=
 40
0.0009595601851852
 41
2456714.621657269
 42
2456714.626839225
  1

 90
        0
  0
XRECORD
  5
300
102
{ACAD_REACTORS
330
2FF
102
}
330
2FF
100
AcDbXrecord
280
     1
290
     1
  0
XRECORD
  5
302
102
{ACAD_REACTORS
330
301
102
}
330
301
100
AcDbXrecord
280
     1
290
     1
  0
XRECORD
  5
330
102
{ACAD_REACTORS
330
32F
102
}
330
32F
100
AcDbXrecord
280
     1
102
SHADEPLOT
 70
     0
  0
LAYOUT
  5
22
102
{ACAD_XDICTIONARY
360
30D
102
}
102
{ACAD_REACTORS
330
1A
102
}
330
1A
100
AcDbPlotSettings
  1

  2
none_device
  4

  6

 40
0.0
 41
0.0
 42
0.0
 43
0.0
 44
0.0
 45
0.0
 46
0.0
 47
0.0
 48
0.0
 49
0.0
140
0.0
141
0.0
142
1.0
143
1.0
 70
  1712
 72
     0
 73
     0
 74
     0
  7

 75
     0
147
1.0
148
0.0
149
0.0
100
AcDbLayout
  1
Model
 70
     1
 71
     0
 10
-0.5
 20
-0.5
 11
5.0
 21
5.0
 12
0.0
 22
0.0
 32
0.0
 14
-0.5
 24
-0.5
 34
-0.5
 15
5.0
 25
5.0
 35
5.0
146
0.0
 13
0.0
 23
0.0
 33
0.0
 16
1.0
 26
0.0
 36
0.0
 17
0.0
 27
1.0
 37
0.0
 76
     0
330
1F
331
29
  0
LAYOUT
  5
29C
102
{ACAD_XDICTIONARY
360
331
102
}
102
{ACAD_REACTORS
330
1A
102
}
330
1A
100
AcDbPlotSettings
  1

  2
none_device
  4
ISO_B4_(354.00_x_250.00_MM)
  6

 40
7.5
 41
20.0
 42
7.5
 43
20.0
 44
354.0
 45
250.0
 46
35.33333300000001
 47
0.0
 48
0.0
 49
0.0
140
13.0
141
10.5
142
1.0
143
1.088570999999999
 70
   692
 72
     0
 73
     0
 74
     1
  7

 75
     0
147
0.918635
148
12.7
149
12.7
100
AcDbLayout
  1
SH1
 70
     1
 71
     1
 10
0.0
 20
0.0
 11
11.0
 21
8.5
 12
0.0
 22
0.0
 32
0.0
 14
1.518424999999999
 24
3.425905
 34
0.0
 15
3.683767
 25
7.342914999999999
 35
0.0
146
0.0
 13
0.0
 23
0.0
 33
0.0
 16
1.0
 26
0.0
 36
0.0
 17
0.0
 27
1.0
 37
0.0
 76
     0
330
4E
331
51
  0
MATERIAL
  5
3D
102
{ACAD_XDICTIONARY
360
2D4
102
}
102
{ACAD_REACTORS
330
3B
102
}
330
3B
100
AcDbMaterial
  1
BYBLOCK
  0
MATERIAL
  5
3C
102
{ACAD_XDICTIONARY
360
2D2
102
}
102
{ACAD_REACTORS
330
3B
102
}
330
3B
100
AcDbMaterial
  1
BYLAYER
  0
MATERIAL
  5
3E
102
{ACAD_XDICTIONARY
360
2D6
102
}
102
{ACAD_REACTORS
330
3B
102
}
330
3B
100
AcDbMaterial
  1
Global
  0
MLEADERSTYLE
  5
2FB
102
{ACAD_REACTORS
330
2AF
102
}
330
2AF
100
AcDbMLeaderStyle
170
     2
171
     1
172
     0
 90
        2
 40
0.0
 41
0.0
173
     1
 91
-1056964608
340
14
 92
       -2
290
     1
 42
0.09
291
     1
 43
0.36
  3
Standard
 44
0.18
300

342
11
174
     1
178
     6
175
     1
176
     0
 93
-1056964608
 45
0.18
292
     0
297
     0
 46
0.18
 94
-1056964608
 47
1.0
 49
1.0
140
1.0
293
     1
141
0.0
294
     1
177
     0
142
1.0
295
     0
296
     0
143
0.125
1001
ACAD_MLEADERVER
1070
     2
  0
MLINESTYLE
  5
18
102
{ACAD_REACTORS
330
17
102
}
330
17
100
AcDbMlineStyle
  2
STANDARD
 70
     0
  3

 62
   256
 51
90.0
 52
90.0
 71
     2
 49
0.5
 62
   256
  6
BYLAYER
 49
-0.5
 62
   256
  6
BYLAYER
  0
ACDBPLACEHOLDER
  5
F
102
{ACAD_REACTORS
330
E
102
}
330
E
  0
SCALE
  5
2EA
102
{ACAD_REACTORS
330
2E9
102
}
330
2E9
100
AcDbScale
 70
     0
300
1:1
140
1.0
141
1.0
290
     1
  0
SCALE
  5
2EB
102
{ACAD_REACTORS
330
2E9
102
}
330
2E9
100
AcDbScale
 70
     0
300
1/128" = 1'-0"
140
0.0078125
141
12.0
290
     0
  0
SCALE
  5
2EC
102
{ACAD_REACTORS
330
2E9
102
}
330
2E9
100
AcDbScale
 70
     0
300
1/64" = 1'-0"
140
0.015625
141
12.0
290
     0
  0
SCALE
  5
2ED
102
{ACAD_REACTORS
330
2E9
102
}
330
2E9
100
AcDbScale
 70
     0
300
1/32" = 1'-0"
140
0.03125
141
12.0
290
     0
  0
SCALE
  5
2EE
102
{ACAD_REACTORS
330
2E9
102
}
330
2E9
100
AcDbScale
 70
     0
300
1/16" = 1'-0"
140
0.0625
141
12.0
290
     0
  0
SCALE
  5
2EF
102
{ACAD_REACTORS
330
2E9
102
}
330
2E9
100
AcDbScale
 70
     0
300
3/32" = 1'-0"
140
0.09375
141
12.0
290
     0
  0
SCALE
  5
2F0
102
{ACAD_REACTORS
330
2E9
102
}
330
2E9
100
AcDbScale
 70
     0
300
1/8" = 1'-0"
140
0.125
141
12.0
290
     0
  0
SCALE
  5
2F1
102
{ACAD_REACTORS
330
2E9
102
}
330
2E9
100
AcDbScale
 70
     0
300
3/16" = 1'-0"
140
0.1875
141
12.0
290
     0
  0
SCALE
  5
2F2
102
{ACAD_REACTORS
330
2E9
102
}
330
2E9
100
AcDbScale
 70
     0
300
1/4" = 1'-0"
140
0.25
141
12.0
290
     0
  0
SCALE
  5
2F3
102
{ACAD_REACTORS
330
2E9
102
}
330
2E9
100
AcDbScale
 70
     0
300
3/8" = 1'-0"
140
0.375
141
12.0
290
     0
  0
SCALE
  5
2F4
102
{ACAD_REACTORS
330
2E9
102
}
330
2E9
100
AcDbScale
 70
     0
300
1/2" = 1'-0"
140
0.5
141
12.0
290
     0
  0
SCALE
  5
2F5
102
{ACAD_REACTORS
330
2E9
102
}
330
2E9
100
AcDbScale
 70
     0
300
3/4" = 1'-0"
140
0.75
141
12.0
290
     0
  0
SCALE
  5
2F6
102
{ACAD_REACTORS
330
2E9
102
}
330
2E9
100
AcDbScale
 70
     0
300
1" = 1'-0"
140
1.0
141
12.0
290
     0
  0
SCALE
  5
2F7
102
{ACAD_REACTORS
330
2E9
102
}
330
2E9
100
AcDbScale
 70
     0
300
1-1/2" = 1'-0"
140
1.5
141
12.0
290
     0
  0
SCALE
  5
2F8
102
{ACAD_REACTORS
330
2E9
102
}
330
2E9
100
AcDbScale
 70
     0
300
3" = 1'-0"
140
3.0
141
12.0
290
     0
  0
SCALE
  5
2F9
102
{ACAD_REACTORS
330
2E9
102
}
330
2E9
100
AcDbScale
 70
     0
300
6" = 1'-0"
140
6.0
141
12.0
290
     0
  0
SCALE
  5
2FA
102
{ACAD_REACTORS
330
2E9
102
}
330
2E9
100
AcDbScale
 70
     0
300
1'-0" = 1'-0"
140
12.0
141
12.0
290
     0
  0
TABLESTYLE
  5
2E8
102
{ACAD_XDICTIONARY
360
309
102
}
102
{ACAD_REACTORS
330
2E7
102
}
330
2E7
100
AcDbTableStyle
  3
Standard
 70
     0
 71
     0
 40
0.06
 41
0.06
280
     0
281
     0
  7
Standard
140
0.18
170
     2
 62
     0
 63
     7
283
     0
274
    -2
284
     1
 64
     0
275
    -2
285
     1
 65
     0
276
    -2
286
     1
 66
     0
277
    -2
287
     1
 67
     0
278
    -2
288
     1
 68
     0
279
    -2
289
     1
 69
     0
  7
Standard
140
0.25
170
     5
 62
     0
 63
     7
283
     0
274
    -2
284
     1
 64
     0
275
    -2
285
     1
 65
     0
276
    -2
286
     1
 66
     0
277
    -2
287
     1
 67
     0
278
    -2
288
     1
 68
     0
279
    -2
289
     1
 69
     0
  7
Standard
140
0.18
170
     5
 62
     0
 63
     7
283
     0
274
    -2
284
     1
 64
     0
275
    -2
285
     1
 65
     0
276
    -2
286
     1
 66
     0
277
    -2
287
     1
 67
     0
278
    -2
288
     1
 68
     0
279
    -2
289
     1
 69
     0
  0
VISUALSTYLE
  5
2F
102
{ACAD_XDICTIONARY
360
317
102
}
102
{ACAD_REACTORS
330
2A
102
}
330
2A
100
AcDbVisualStyle
  2

 70
     4
 71
     0
 72
     2
 73
     0
 90
        0
 40
-0.6
 41
-30.0
 62
     5
 63
     7
 74
     1
 91
        4
 64
     7
 65
   257
 75
     1
175
     1
 42
1.0
 92
        0
 66
   257
 43
1.0
 76
     1
 77
     6
 78
     2
 67
     7
 79
     5
170
     0
171
     0
290
     0
174
     0
 93
        1
 44
0.0
173
     0
291
     0
 45
0.0
1001
ACAD
1000
AcDbSavedByObjectVersion
1070
     0
  0
VISUALSTYLE
  5
31
102
{ACAD_XDICTIONARY
360
31B
102
}
102
{ACAD_REACTORS
330
2A
102
}
330
2A
100
AcDbVisualStyle
  2

 70
     6
 71
     1
 72
     2
 73
     2
 90
        0
 40
-0.6
 41
-30.0
 62
     5
 63
     7
 74
     2
 91
        2
 64
     7
 65
   257
 75
     2
175
     1
 42
40.0
 92
        0
 66
   257
 43
1.0
 76
     1
 77
     6
 78
     2
 67
     7
 79
     3
170
     0
171
     0
290
     0
174
     0
 93
        1
 44
0.0
173
     0
291
     0
 45
0.0
1001
ACAD
1000
AcDbSavedByObjectVersion
1070
     0
  0
VISUALSTYLE
  5
30
102
{ACAD_XDICTIONARY
360
319
102
}
102
{ACAD_REACTORS
330
2A
102
}
330
2A
100
AcDbVisualStyle
  2

 70
     5
 71
     0
 72
     2
 73
     0
 90
        0
 40
-0.6
 41
-30.0
 62
     5
 63
     7
 74
     1
 91
        4
 64
     7
 65
   257
 75
     1
175
     1
 42
1.0
 92
        0
 66
   257
 43
1.0
 76
     1
 77
     6
 78
     2
 67
     7
 79
     5
170
     0
171
     0
290
     0
174
     0
 93
        1
 44
0.0
173
     0
291
     0
 45
0.0
1001
ACAD
1000
AcDbSavedByObjectVersion
1070
     0
  0
VISUALSTYLE
  5
32
102
{ACAD_XDICTIONARY
360
31D
102
}
102
{ACAD_REACTORS
330
2A
102
}
330
2A
100
AcDbVisualStyle
  2

 70
     7
 71
     1
 72
     0
 73
     1
 90
        0
 40
-0.6
 41
-30.0
 62
     5
 63
     7
 74
     0
 91
        4
 64
     7
 65
   257
 75
     1
175
     1
 42
1.0
 92
        8
 66
     7
 43
1.0
 76
     1
 77
     6
 78
     2
 67
     7
 79
     5
170
     0
171
     0
290
     0
174
     0
 93
        1
 44
0.0
173
     0
291
     1
 45
0.0
1001
ACAD
1000
AcDbSavedByObjectVersion
1070
     0
  0
VISUALSTYLE
  5
36
102
{ACAD_XDICTIONARY
360
325
102
}
102
{ACAD_REACTORS
330
2A
102
}
330
2A
100
AcDbVisualStyle
  2

 70
    12
 71
     2
 72
     2
 73
     0
 90
        0
 40
-0.6
 41
-30.0
 62
     5
 63
     7
 74
     1
 91
        4
 64
     7
 65
   257
 75
     1
175
     1
 42
1.0
 92
        8
 66
     7
 43
1.0
 76
     1
 77
     6
 78
     2
 67
     7
 79
     5
170
     0
171
     0
290
     0
174
     0
 93
        1
 44
50.0
173
     0
291
     1
 45
0.0
1001
ACAD
1000
AcDbSavedByObjectVersion
1070
     0
  0
VISUALSTYLE
  5
3A
102
{ACAD_XDICTIONARY
360
32D
102
}
102
{ACAD_REACTORS
330
2A
102
}
330
2A
100
AcDbVisualStyle
  2

 70
    16
 71
     2
 72
     2
 73
     3
 90
        0
 40
-0.6
 41
-30.0
 62
     5
 63
     8
 74
     1
 91
        4
 64
     7
 65
   257
 75
     1
175
     1
 42
1.0
 92
        8
 66
     8
 43
1.0
 76
     1
 77
     6
 78
     2
 67
     7
 79
     5
170
     0
171
     0
290
     0
174
     0
 93
        1
 44
0.0
173
     0
291
     1
 45
0.0
1001
ACAD
1000
AcDbSavedByObjectVersion
1070
     0
  0
VISUALSTYLE
  5
34
102
{ACAD_XDICTIONARY
360
321
102
}
102
{ACAD_REACTORS
330
2A
102
}
330
2A
100
AcDbVisualStyle
  2

 70
     9
 71
     3
 72
     2
 73
     0
 90
        0
 40
-0.6
 41
-30.0
 62
     5
 63
     7
 74
     2
 91
        2
 64
     7
 65
   257
 75
     1
175
     1
 42
40.0
 92
        8
 66
     7
 43
1.0
 76
     1
 77
     6
 78
     2
 67
     7
 79
     3
170
     0
171
     0
290
     0
174
     0
 93
        1
 44
0.0
173
     0
291
     0
 45
0.0
1001
ACAD
1000
AcDbSavedByObjectVersion
1070
     0
  0
VISUALSTYLE
  5
35
102
{ACAD_XDICTIONARY
360
323
102
}
102
{ACAD_REACTORS
330
2A
102
}
330
2A
100
AcDbVisualStyle
  2

 70
    11
 71
     2
 72
     2
 73
     0
 90
        0
 40
-0.6
 41
-30.0
 62
     5
 63
     7
 74
     1
 91
        4
 64
     7
 65
   257
 75
     1
175
     1
 42
1.0
 92
        8
 66
     7
 43
1.0
 76
     1
 77
     6
 78
     2
 67
     7
 79
     5
170
     0
171
     0
290
     0
174
     0
 93
        1
 44
-50.0
173
     0
291
     1
 45
0.0
1001
ACAD
1000
AcDbSavedByObjectVersion
1070
     0
  0
VISUALSTYLE
  5
2E5
102
{ACAD_XDICTIONARY
360
345
102
}
102
{ACAD_REACTORS
330
2A
102
}
330
2A
100
AcDbVisualStyle
  2
EdgeColorOff
 70
    22
 71
     2
 72
     2
 73
     0
 90
        0
 40
-0.6
 41
-30.0
 62
     5
 63
     7
 74
     1
 91
        4
 64
     7
 65
   257
 75
     1
175
     1
 42
1.0
 92
        8
 66
     7
 43
1.0
 76
     1
 77
     6
 78
     2
 67
     7
 79
     5
170
     0
171
     0
290
     0
174
     0
 93
        1
 44
0.0
173
     0
291
     1
 45
0.0
1001
ACAD
1000
AcDbSavedByObjectVersion
1070
     0
  0
VISUALSTYLE
  5
39
102
{ACAD_XDICTIONARY
360
32B
102
}
102
{ACAD_REACTORS
330
2A
102
}
330
2A
100
AcDbVisualStyle
  2

 70
    15
 71
     2
 72
     2
 73
     0
 90
        0
 40
-0.6
 41
-30.0
 62
     5
 63
     7
 74
     1
 91
        4
 64
     7
 65
   257
 75
     1
175
     1
 42
1.0
 92
        8
 66
     7
 43
1.0
 76
     1
 77
     6
 78
     2
 67
     7
 79
     5
170
     0
171
     0
290
     0
174
     0
 93
        1
 44
0.0
173
     0
291
     1
 45
0.0
1001
ACAD
1000
AcDbSavedByObjectVersion
1070
     0
  0
VISUALSTYLE
  5
2B
102
{ACAD_XDICTIONARY
360
30F
102
}
102
{ACAD_REACTORS
330
2A
102
}
330
2A
100
AcDbVisualStyle
  2

 70
     0
 71
     2
 72
     1
 73
     1
 90
        2
 40
-0.6
 41
30.0
 62
     5
 63
     7
 74
     0
 91
        4
 64
     7
 65
   257
 75
     1
175
     1
 42
1.0
 92
        8
 66
     7
 43
1.0
 76
     1
 77
     6
 78
     2
 67
     7
 79
     5
170
     0
171
     0
290
     0
174
     0
 93
       13
 44
0.0
173
     0
291
     1
 45
0.0
1001
ACAD
1000
AcDbSavedByObjectVersion
1070
     0
  0
VISUALSTYLE
  5
2C
102
{ACAD_XDICTIONARY
360
311
102
}
102
{ACAD_REACTORS
330
2A
102
}
330
2A
100
AcDbVisualStyle
  2

 70
     1
 71
     2
 72
     1
 73
     1
 90
        2
 40
-0.6
 41
30.0
 62
     5
 63
     7
 74
     1
 91
        4
 64
     7
 65
   257
 75
     1
175
     1
 42
1.0
 92
        0
 66
   257
 43
1.0
 76
     1
 77
     6
 78
     2
 67
     7
 79
     5
170
     0
171
     0
290
     0
174
     0
 93
       13
 44
0.0
173
     0
291
     1
 45
0.0
1001
ACAD
1000
AcDbSavedByObjectVersion
1070
     0
  0
VISUALSTYLE
  5
2D
102
{ACAD_XDICTIONARY
360
313
102
}
102
{ACAD_REACTORS
330
2A
102
}
330
2A
100
AcDbVisualStyle
  2

 70
     2
 71
     2
 72
     2
 73
     1
 90
        2
 40
-0.6
 41
30.0
 62
     5
 63
     7
 74
     0
 91
        4
 64
     7
 65
   257
 75
     1
175
     1
 42
1.0
 92
        0
 66
     7
 43
1.0
 76
     1
 77
     6
 78
     2
 67
     7
 79
     5
170
     0
171
     0
290
     0
174
     0
 93
       13
 44
0.0
173
     0
291
     1
 45
0.0
1001
ACAD
1000
AcDbSavedByObjectVersion
1070
     0
  0
VISUALSTYLE
  5
2E
102
{ACAD_XDICTIONARY
360
315
102
}
102
{ACAD_REACTORS
330
2A
102
}
330
2A
100
AcDbVisualStyle
  2

 70
     3
 71
     2
 72
     2
 73
     1
 90
        2
 40
-0.6
 41
30.0
 62
     5
 63
     7
 74
     1
 91
        4
 64
     7
 65
   257
 75
     1
175
     1
 42
1.0
 92
        0
 66
   257
 43
1.0
 76
     1
 77
     6
 78
     2
 67
     7
 79
     5
170
     0
171
     0
290
     0
174
     0
 93
       13
 44
0.0
173
     0
291
     1
 45
0.0
1001
ACAD
1000
AcDbSavedByObjectVersion
1070
     0
  0
VISUALSTYLE
  5
2DD
102
{ACAD_XDICTIONARY
360
335
102
}
102
{ACAD_REACTORS
330
2A
102
}
330
2A
100
AcDbVisualStyle
  2
Hidden
 70
     6
 71
     1
 72
     2
 73
     2
 90
        0
 40
-0.6
 41
-30.0
 62
     5
 63
     7
 74
     2
 91
        2
 64
     7
 65
   257
 75
     2
175
     1
 42
40.0
 92
        0
 66
   257
 43
1.0
 76
     1
 77
     6
 78
     2
 67
     7
 79
     3
170
     0
171
     0
290
     0
174
     0
 93
        1
 44
0.0
173
     0
291
     0
 45
0.0
1001
ACAD
1000
AcDbSavedByObjectVersion
1070
     0
  0
VISUALSTYLE
  5
2E3
102
{ACAD_XDICTIONARY
360
341
102
}
102
{ACAD_REACTORS
330
2A
102
}
330
2A
100
AcDbVisualStyle
  2
JitterOff
 70
    20
 71
     2
 72
     2
 73
     0
 90
        0
 40
-0.6
 41
-30.0
 62
     5
 63
     7
 74
     1
 91
        4
 64
     7
 65
   257
 75
     1
175
     1
 42
1.0
 92
       10
 66
     7
 43
1.0
 76
     1
 77
     6
 78
     2
 67
     7
 79
     5
170
     0
171
     0
290
     0
174
     0
 93
        1
 44
0.0
173
     0
291
     1
 45
0.0
1001
ACAD
1000
AcDbSavedByObjectVersion
1070
     0
  0
VISUALSTYLE
  5
38
102
{ACAD_XDICTIONARY
360
329
102
}
102
{ACAD_REACTORS
330
2A
102
}
330
2A
100
AcDbVisualStyle
  2

 70
    14
 71
     2
 72
     2
 73
     0
 90
        0
 40
-0.6
 41
-30.0
 62
     5
 63
     7
 74
     1
 91
        4
 64
     7
 65
   257
 75
     7
175
     7
 42
1.0
 92
        8
 66
     7
 43
1.0
 76
     1
 77
     6
 78
     2
 67
     7
 79
     5
170
     0
171
     0
290
     0
174
     0
 93
        1
 44
0.0
173
     0
291
     1
 45
0.0
1001
ACAD
1000
AcDbSavedByObjectVersion
1070
     0
  0
VISUALSTYLE
  5
2E4
102
{ACAD_XDICTIONARY
360
343
102
}
102
{ACAD_REACTORS
330
2A
102
}
330
2A
100
AcDbVisualStyle
  2
OverhangOff
 70
    21
 71
     2
 72
     2
 73
     0
 90
        0
 40
-0.6
 41
-30.0
 62
     5
 63
     7
 74
     1
 91
        4
 64
     7
 65
   257
 75
     1
175
     1
 42
1.0
 92
        9
 66
     7
 43
1.0
 76
     1
 77
     6
 78
     2
 67
     7
 79
     5
170
     0
171
     0
290
     0
174
     0
 93
        1
 44
0.0
173
     0
291
     1
 45
0.0
1001
ACAD
1000
AcDbSavedByObjectVersion
1070
     0
  0
VISUALSTYLE
  5
33
102
{ACAD_XDICTIONARY
360
31F
102
}
102
{ACAD_REACTORS
330
2A
102
}
330
2A
100
AcDbVisualStyle
  2

 70
     8
 71
     2
 72
     2
 73
     0
 90
        0
 40
-0.6
 41
-30.0
 62
     5
 63
     7
 74
     1
 91
        0
 64
     7
 65
   257
 75
     1
175
     1
 42
1.0
 92
        8
 66
     8
 43
1.0
 76
     1
 77
     6
 78
     2
 67
     7
 79
     5
170
     0
171
     0
290
     0
174
     0
 93
       13
 44
0.0
173
     0
291
     0
 45
0.0
1001
ACAD
1000
AcDbSavedByObjectVersion
1070
     0
  0
VISUALSTYLE
  5
2E2
102
{ACAD_XDICTIONARY
360
33F
102
}
102
{ACAD_REACTORS
330
2A
102
}
330
2A
100
AcDbVisualStyle
  2
Shaded
 70
    27
 71
     2
 72
     2
 73
     1
 90
        2
 40
-0.6
 41
30.0
 62
     5
 63
     7
 74
     0
 91
        4
 64
     7
 65
   257
 75
     1
175
     1
 42
1.0
 92
        8
 66
   257
 43
1.0
 76
     1
 77
     6
 78
     2
 67
     8
 79
     3
170
     0
171
     0
290
     0
174
     0
 93
        5
 44
0.0
173
     0
291
     0
 45
0.0
1001
ACAD
1000
AcDbSavedByObjectVersion
1070
     0
  0
VISUALSTYLE
  5
2E1
102
{ACAD_XDICTIONARY
360
33D
102
}
102
{ACAD_REACTORS
330
2A
102
}
330
2A
100
AcDbVisualStyle
  2
Shaded with edges
 70
    26
 71
     2
 72
     2
 73
     1
 90
        2
 40
-0.6
 41
30.0
 62
     5
 63
     7
 74
     1
 91
       10
 64
     7
 65
   257
 75
     2
175
     1
 42
1.0
 92
        8
 66
   257
 43
1.0
 76
     1
 77
     6
 78
     2
 67
     7
 79
     3
170
     0
171
     0
290
     0
174
     0
 93
        5
 44
0.0
173
     0
291
     0
 45
0.0
1001
ACAD
1000
AcDbSavedByObjectVersion
1070
     0
  0
VISUALSTYLE
  5
2DE
102
{ACAD_XDICTIONARY
360
337
102
}
102
{ACAD_REACTORS
330
2A
102
}
330
2A
100
AcDbVisualStyle
  2
Shades of Gray
 70
    23
 71
     2
 72
     2
 73
     3
 90
        0
 40
-0.6
 41
-30.0
 62
     5
 63
     7
 74
     2
 91
        2
 64
     7
 65
     7
 75
     1
175
     1
 42
40.0
 92
        8
 66
     7
 43
1.0
 76
     1
 77
     6
 78
     2
 67
     7
 79
     3
170
     0
171
     0
290
     0
174
     0
 93
        1
 44
0.0
173
     0
291
     0
 45
0.0
1001
ACAD
1000
AcDbSavedByObjectVersion
1070
     0
  0
VISUALSTYLE
  5
2DF
102
{ACAD_XDICTIONARY
360
339
102
}
102
{ACAD_REACTORS
330
2A
102
}
330
2A
100
AcDbVisualStyle
  2
Sketchy
 70
    24
 71
     1
 72
     2
 73
     2
 90
        0
 40
-0.6
 41
-30.0
 62
     5
 63
     7
 74
     2
 91
        2
 64
     7
 65
     7
 75
     1
175
     1
 42
40.0
 92
       11
 66
     7
 43
1.0
 76
     1
 77
     6
 78
     2
 67
     7
 79
     6
170
     0
171
     0
290
     0
174
     0
 93
        1
 44
0.0
173
     0
291
     0
 45
0.0
1001
ACAD
1000
AcDbSavedByObjectVersion
1070
     0
  0
VISUALSTYLE
  5
37
102
{ACAD_XDICTIONARY
360
327
102
}
102
{ACAD_REACTORS
330
2A
102
}
330
2A
100
AcDbVisualStyle
  2

 70
    13
 71
     2
 72
     2
 73
     0
 90
        0
 40
-0.6
 41
-30.0
 62
     5
 63
     7
 74
     1
 91
        4
 64
     7
 65
   257
 75
     1
175
     1
 42
1.0
 92
       12
 66
     7
 43
1.0
 76
     1
 77
     6
 78
     2
 67
     7
 79
     5
170
     0
171
     0
290
     0
174
     0
 93
        1
 44
0.0
173
     0
291
     1
 45
0.0
1001
ACAD
1000
AcDbSavedByObjectVersion
1070
     0
  0
VISUALSTYLE
  5
2DC
102
{ACAD_XDICTIONARY
360
333
102
}
102
{ACAD_REACTORS
330
2A
102
}
330
2A
100
AcDbVisualStyle
  2
Wireframe
 70
     5
 71
     0
 72
     2
 73
     0
 90
        0
 40
-0.6
 41
-30.0
 62
     5
 63
     7
 74
     1
 91
        4
 64
     7
 65
   257
 75
     1
175
     1
 42
1.0
 92
        0
 66
   257
 43
1.0
 76
     1
 77
     6
 78
     2
 67
     7
 79
     3
170
     0
171
     0
290
     0
174
     0
 93
        1
 44
0.0
173
     0
291
     0
 45
0.0
1001
ACAD
1000
AcDbSavedByObjectVersion
1070
     0
  0
VISUALSTYLE
  5
2E0
102
{ACAD_XDICTIONARY
360
33B
102
}
102
{ACAD_REACTORS
330
2A
102
}
330
2A
100
AcDbVisualStyle
  2
X-Ray
 70
    25
 71
     2
 72
     2
 73
     1
 90
        1
 40
0.5
 41
-30.0
 62
     5
 63
     7
 74
     1
 91
        0
 64
     7
 65
   257
 75
     1
175
     1
 42
1.0
 92
        8
 66
     7
 43
1.0
 76
     1
 77
     6
 78
     2
 67
     7
 79
     3
170
     0
171
     0
290
     0
174
     0
 93
       13
 44
0.0
173
     0
291
     0
 45
0.0
1001
ACAD
1000
AcDbSavedByObjectVersion
1070
     0
  0
DICTIONARYVAR
  5
305
102
{ACAD_REACTORS
330
2AD
102
}
330
2AD
100
DictionaryVariables
280
     0
  1
1:1
  0
DICTIONARYVAR
  5
304
102
{ACAD_REACTORS
330
2AD
102
}
330
2AD
100
DictionaryVariables
280
     0
  1
STANDARD
  0
DICTIONARYVAR
  5
303
102
{ACAD_REACTORS
330
2AD
102
}
330
2AD
100
DictionaryVariables
280
     0
  1
STANDARD
  0
DICTIONARYVAR
  5
2B0
102
{ACAD_REACTORS
330
2AD
102
}
330
2AD
100
DictionaryVariables
280
     0
  1
2
  0
DICTIONARYVAR
  5
2B1
102
{ACAD_REACTORS
330
2AD
102
}
330
2AD
100
DictionaryVariables
280
     0
  1
1
  0
DICTIONARYVAR
  5
307
102
{ACAD_REACTORS
330
2AD
102
}
330
2AD
100
DictionaryVariables
280
     0
  1
0
  0
DICTIONARYVAR
  5
306
102
{ACAD_REACTORS
330
2AD
102
}
330
2AD
100
DictionaryVariables
280
     0
  1
127
  0
DICTIONARYVAR
  5
308
102
{ACAD_REACTORS
330
2AD
102
}
330
2AD
100
DictionaryVariables
280
     0
  1
2
  0
DICTIONARY
  5
30D
330
22
100
AcDbDictionary
280
     1
281
     1
  3
ACAD_XREC_ROUNDTRIP
360
30E
  0
DICTIONARY
  5
331
330
29C
100
AcDbDictionary
280
     1
281
     1
  3
ACAD_XREC_ROUNDTRIP
360
332
  0
DICTIONARY
  5
2D4
330
3D
100
AcDbDictionary
280
     1
281
     1
  3
ACAD_XREC_ROUNDTRIP
360
2D5
  0
DICTIONARY
  5
2D2
330
3C
100
AcDbDictionary
280
     1
281
     1
  3
ACAD_XREC_ROUNDTRIP
360
2D3
  0
DICTIONARY
  5
2D6
330
3E
100
AcDbDictionary
280
     1
281
     1
  3
ACAD_XREC_ROUNDTRIP
360
2D7
  0
DICTIONARY
  5
309
330
2E8
100
AcDbDictionary
280
     1
281
     1
  3
ACAD_ROUNDTRIP_2008_TABLESTYLE_CELLSTYLEMAP
360
30A
  3
ACAD_XREC_ROUNDTRIP
360
347
  0
DICTIONARY
  5
317
330
2F
100
AcDbDictionary
280
     1
281
     1
  3
ACAD_XREC_ROUNDTRIP
360
318
  0
DICTIONARY
  5
31B
330
31
100
AcDbDictionary
280
     1
281
     1
  3
ACAD_XREC_ROUNDTRIP
360
31C
  0
DICTIONARY
  5
319
330
30
100
AcDbDictionary
280
     1
281
     1
  3
ACAD_XREC_ROUNDTRIP
360
31A
  0
DICTIONARY
  5
31D
330
32
100
AcDbDictionary
280
     1
281
     1
  3
ACAD_XREC_ROUNDTRIP
360
31E
  0
DICTIONARY
  5
325
330
36
100
AcDbDictionary
280
     1
281
     1
  3
ACAD_XREC_ROUNDTRIP
360
326
  0
DICTIONARY
  5
32D
330
3A
100
AcDbDictionary
280
     1
281
     1
  3
ACAD_XREC_ROUNDTRIP
360
32E
  0
DICTIONARY
  5
321
330
34
100
AcDbDictionary
280
     1
281
     1
  3
ACAD_XREC_ROUNDTRIP
360
322
  0
DICTIONARY
  5
323
330
35
100
AcDbDictionary
280
     1
281
     1
  3
ACAD_XREC_ROUNDTRIP
360
324
  0
DICTIONARY
  5
345
330
2E5
100
AcDbDictionary
280
     1
281
     1
  3
ACAD_XREC_ROUNDTRIP
360
346
  0
DICTIONARY
  5
32B
330
39
100
AcDbDictionary
280
     1
281
     1
  3
ACAD_XREC_ROUNDTRIP
360
32C
  0
DICTIONARY
  5
30F
330
2B
100
AcDbDictionary
280
     1
281
     1
  3
ACAD_XREC_ROUNDTRIP
360
310
  0
DICTIONARY
  5
311
330
2C
100
AcDbDictionary
280
     1
281
     1
  3
ACAD_XREC_ROUNDTRIP
360
312
  0
DICTIONARY
  5
313
330
2D
100
AcDbDictionary
280
     1
281
     1
  3
ACAD_XREC_ROUNDTRIP
360
314
  0
DICTIONARY
  5
315
330
2E
100
AcDbDictionary
280
     1
281
     1
  3
ACAD_XREC_ROUNDTRIP
360
316
  0
DICTIONARY
  5
335
330
2DD
100
AcDbDictionary
280
     1
281
     1
  3
ACAD_XREC_ROUNDTRIP
360
336
  0
DICTIONARY
  5
341
330
2E3
100
AcDbDictionary
280
     1
281
     1
  3
ACAD_XREC_ROUNDTRIP
360
342
  0
DICTIONARY
  5
329
330
38
100
AcDbDictionary
280
     1
281
     1
  3
ACAD_XREC_ROUNDTRIP
360
32A
  0
DICTIONARY
  5
343
330
2E4
100
AcDbDictionary
280
     1
281
     1
  3
ACAD_XREC_ROUNDTRIP
360
344
  0
DICTIONARY
  5
31F
330
33
100
AcDbDictionary
280
     1
281
     1
  3
ACAD_XREC_ROUNDTRIP
360
320
  0
DICTIONARY
  5
33F
330
2E2
100
AcDbDictionary
280
     1
281
     1
  3
ACAD_XREC_ROUNDTRIP
360
340
  0
DICTIONARY
  5
33D
330
2E1
100
AcDbDictionary
280
     1
281
     1
  3
ACAD_XREC_ROUNDTRIP
360
33E
  0
DICTIONARY
  5
337
330
2DE
100
AcDbDictionary
280
     1
281
     1
  3
ACAD_XREC_ROUNDTRIP
360
338
  0
DICTIONARY
  5
339
330
2DF
100
AcDbDictionary
280
     1
281
     1
  3
ACAD_XREC_ROUNDTRIP
360
33A
  0
DICTIONARY
  5
327
330
37
100
AcDbDictionary
280
     1
281
     1
  3
ACAD_XREC_ROUNDTRIP
360
328
  0
DICTIONARY
  5
333
330
2DC
100
AcDbDictionary
280
     1
281
     1
  3
ACAD_XREC_ROUNDTRIP
360
334
  0
DICTIONARY
  5
33B
330
2E0
100
AcDbDictionary
280
     1
281
     1
  3
ACAD_XREC_ROUNDTRIP
360
33C
  0
XRECORD
  5
30E
102
{ACAD_REACTORS
330
30D
102
}
330
30D
100
AcDbXrecord
280
     1
102
SHADEPLOT
 70
     0
102
SHADEPLOTRESLEVEL
 70
     2
102
SHADEPLOTCUSTOMDPI
 70
   300
  0
XRECORD
  5
332
102
{ACAD_REACTORS
330
331
102
}
330
331
100
AcDbXrecord
280
     1
102
SHADEPLOT
 70
     0
102
SHADEPLOTRESLEVEL
 70
     2
102
SHADEPLOTCUSTOMDPI
 70
   300
  0
XRECORD
  5
2D5
102
{ACAD_REACTORS
330
2D4
102
}
330
2D4
100
AcDbXrecord
280
     1
102
MATERIAL
148
0.0
149
0.0
149
0.0
 93
        0
 94
      127
282
     0
 72
     1
 77
     1
171
     1
175
     1
179
     1
273
     0
  0
XRECORD
  5
2D3
102
{ACAD_REACTORS
330
2D2
102
}
330
2D2
100
AcDbXrecord
280
     1
102
MATERIAL
148
0.0
149
0.0
149
0.0
 93
        0
 94
      127
282
     0
 72
     1
 77
     1
171
     1
175
     1
179
     1
273
     0
  0
XRECORD
  5
2D7
102
{ACAD_REACTORS
330
2D6
102
}
330
2D6
100
AcDbXrecord
280
     1
102
MATERIAL
148
0.0
149
0.0
149
0.0
 93
        0
 94
      127
282
     0
 72
     1
 77
     1
171
     1
175
     1
179
     1
273
     0
  0
CELLSTYLEMAP
  5
30A
102
{ACAD_REACTORS
330
309
102
}
330
309
100
AcDbCellStyleMap
 90
        3
300
CELLSTYLE
  1
TABLEFORMAT_BEGIN
 90
        5
170
     1
 91
        0
 92
    32768
 62
   257
 93
        1
300
CONTENTFORMAT
  1
CONTENTFORMAT_BEGIN
 90
        0
 91
        0
 92
      512
 93
        0
300

 40
0.0
140
1.0
 94
        5
 62
     0
340
11
144
0.25
309
CONTENTFORMAT_END
171
     0
 94
        0
309
TABLEFORMAT_END
  1
CELLSTYLE_BEGIN
 90
        1
 91
        1
300
_TITLE
309
CELLSTYLE_END
300
CELLSTYLE
  1
TABLEFORMAT_BEGIN
 90
        5
170
     1
 91
        0
 92
        0
 62
   257
 93
        1
300
CONTENTFORMAT
  1
CONTENTFORMAT_BEGIN
 90
        0
 91
        0
 92
      512
 93
        0
300

 40
0.0
140
1.0
 94
        5
 62
     0
340
11
144
0.18
309
CONTENTFORMAT_END
171
     0
 94
        0
309
TABLEFORMAT_END
  1
CELLSTYLE_BEGIN
 90
        2
 91
        1
300
_HEADER
309
CELLSTYLE_END
300
CELLSTYLE
  1
TABLEFORMAT_BEGIN
 90
        5
170
     1
 91
        0
 92
        0
 62
   257
 93
        1
300
CONTENTFORMAT
  1
CONTENTFORMAT_BEGIN
 90
        0
 91
        0
 92
      512
 93
        0
300

 40
0.0
140
1.0
 94
        2
 62
     0
340
11
144
0.18
309
CONTENTFORMAT_END
171
     0
 94
        0
309
TABLEFORMAT_END
  1
CELLSTYLE_BEGIN
 90
        3
 91
        2
300
_DATA
309
CELLSTYLE_END
  0
XRECORD
  5
347
102
{ACAD_REACTORS
330
309
102
}
330
309
100
AcDbXrecord
280
     1
102
ACAD_ROUNDTRIP_PRE2007_TABLESTYLE
 90
      512
 91
        0
  1

 92
      512
 93
        0
  2

 94
      512
 95
        0
  3

  0
XRECORD
  5
318
102
{ACAD_REACTORS
330
317
102
}
330
317
100
AcDbXrecord
280
     1
102
RTVSPropertyOp0
 70
     1
102
RTVSPropertyOp1
 70
     1
102
RTVSPropertyOp2
 70
     1
102
RTVSPropertyOp3
 70
     1
102
RTVSPropertyOp4
 70
     1
102
RTVSPropertyOp5
 70
     1
102
RTVSPropertyOp6
 70
     1
102
RTVSPropertyOp7
 70
     1
102
RTVSPropertyOp8
 70
     1
102
RTVSPropertyOp9
 70
     1
102
RTVSPropertyOp10
 70
     1
102
RTVSPropertyOp11
 70
     1
102
RTVSPropertyOp12
 70
     1
102
RTVSPropertyOp13
 70
     1
102
RTVSPropertyOp14
 70
     1
102
RTVSPropertyOp15
 70
     1
102
RTVSPropertyOp16
 70
     1
102
RTVSPropertyOp17
 70
     1
102
RTVSPropertyOp18
 70
     1
102
RTVSPropertyOp19
 70
     1
102
RTVSPropertyOp20
 70
     1
102
RTVSPropertyOp21
 70
     1
102
RTVSPropertyOp22
 70
     1
102
RTVSPropertyOp23
 70
     1
102
RTVSPropertyOp24
 70
     1
102
RTVSPropertyOp25
 70
     1
102
RTVSPropertyOp26
 70
     1
102
RTVSPropertyOp27
 70
     1
102
RTVSPropertyOp28
 70
     1
102
RTVSPropertyOp29
 70
     1
102
RTVSPropertyOp30
 70
     1
102
RTVSPropertyOp31
 70
     1
102
RTVSPropertyOp32
 70
     1
  0
XRECORD
  5
31C
102
{ACAD_REACTORS
330
31B
102
}
330
31B
100
AcDbXrecord
280
     1
102
RTVSPropertyOp0
 70
     1
102
RTVSPropertyOp1
 70
     1
102
RTVSPropertyOp2
 70
     1
102
RTVSPropertyOp3
 70
     1
102
RTVSPropertyOp4
 70
     1
102
RTVSPropertyOp5
 70
     1
102
RTVSPropertyOp6
 70
     1
102
RTVSPropertyOp7
 70
     1
102
RTVSPropertyOp8
 70
     1
102
RTVSPropertyOp9
 70
     1
102
RTVSPropertyOp10
 70
     1
102
RTVSPropertyOp11
 70
     1
102
RTVSPropertyOp12
 70
     1
102
RTVSPropertyOp13
 70
     1
102
RTVSPropertyOp14
 70
     1
102
RTVSPropertyOp15
 70
     1
102
RTVSPropertyOp16
 70
     1
102
RTVSPropertyOp17
 70
     1
102
RTVSPropertyOp18
 70
     1
102
RTVSPropertyOp19
 70
     1
102
RTVSPropertyOp20
 70
     1
102
RTVSPropertyOp21
 70
     1
102
RTVSPropertyOp22
 70
     1
102
RTVSPropertyOp23
 70
     1
102
RTVSPropertyOp24
 70
     1
102
RTVSPropertyOp25
 70
     1
102
RTVSPropertyOp26
 70
     1
102
RTVSPropertyOp27
 70
     1
102
RTVSPropertyOp28
 70
     1
102
RTVSPropertyOp29
 70
     1
102
RTVSPropertyOp30
 70
     1
102
RTVSPropertyOp31
 70
     1
102
RTVSPropertyOp32
 70
     1
  0
XRECORD
  5
31A
102
{ACAD_REACTORS
330
319
102
}
330
319
100
AcDbXrecord
280
     1
102
RTVSPropertyOp0
 70
     1
102
RTVSPropertyOp1
 70
     1
102
RTVSPropertyOp2
 70
     1
102
RTVSPropertyOp3
 70
     1
102
RTVSPropertyOp4
 70
     1
102
RTVSPropertyOp5
 70
     1
102
RTVSPropertyOp6
 70
     1
102
RTVSPropertyOp7
 70
     1
102
RTVSPropertyOp8
 70
     1
102
RTVSPropertyOp9
 70
     1
102
RTVSPropertyOp10
 70
     1
102
RTVSPropertyOp11
 70
     1
102
RTVSPropertyOp12
 70
     1
102
RTVSPropertyOp13
 70
     1
102
RTVSPropertyOp14
 70
     1
102
RTVSPropertyOp15
 70
     1
102
RTVSPropertyOp16
 70
     1
102
RTVSPropertyOp17
 70
     1
102
RTVSPropertyOp18
 70
     1
102
RTVSPropertyOp19
 70
     1
102
RTVSPropertyOp20
 70
     1
102
RTVSPropertyOp21
 70
     1
102
RTVSPropertyOp22
 70
     1
102
RTVSPropertyOp23
 70
     1
102
RTVSPropertyOp24
 70
     1
102
RTVSPropertyOp25
 70
     1
102
RTVSPropertyOp26
 70
     1
102
RTVSPropertyOp27
 70
     1
102
RTVSPropertyOp28
 70
     1
102
RTVSPropertyOp29
 70
     1
102
RTVSPropertyOp30
 70
     1
102
RTVSPropertyOp31
 70
     1
102
RTVSPropertyOp32
 70
     1
  0
XRECORD
  5
31E
102
{ACAD_REACTORS
330
31D
102
}
330
31D
100
AcDbXrecord
280
     1
102
RTVSPropertyOp0
 70
     1
102
RTVSPropertyOp1
 70
     1
102
RTVSPropertyOp2
 70
     1
102
RTVSPropertyOp3
 70
     1
102
RTVSPropertyOp4
 70
     1
102
RTVSPropertyOp5
 70
     1
102
RTVSPropertyOp6
 70
     1
102
RTVSPropertyOp7
 70
     1
102
RTVSPropertyOp8
 70
     1
102
RTVSPropertyOp9
 70
     1
102
RTVSPropertyOp10
 70
     1
102
RTVSPropertyOp11
 70
     1
102
RTVSPropertyOp12
 70
     1
102
RTVSPropertyOp13
 70
     1
102
RTVSPropertyOp14
 70
     1
102
RTVSPropertyOp15
 70
     1
102
RTVSPropertyOp16
 70
     1
102
RTVSPropertyOp17
 70
     1
102
RTVSPropertyOp18
 70
     1
102
RTVSPropertyOp19
 70
     1
102
RTVSPropertyOp20
 70
     1
102
RTVSPropertyOp21
 70
     1
102
RTVSPropertyOp22
 70
     1
102
RTVSPropertyOp23
 70
     1
102
RTVSPropertyOp24
 70
     1
102
RTVSPropertyOp25
 70
     1
102
RTVSPropertyOp26
 70
     1
102
RTVSPropertyOp27
 70
     1
102
RTVSPropertyOp28
 70
     1
102
RTVSPropertyOp29
 70
     1
102
RTVSPropertyOp30
 70
     1
102
RTVSPropertyOp31
 70
     1
102
RTVSPropertyOp32
 70
     1
  0
XRECORD
  5
326
102
{ACAD_REACTORS
330
325
102
}
330
325
100
AcDbXrecord
280
     1
102
RTVSPropertyOp0
 70
     1
102
RTVSPropertyOp1
 70
     1
102
RTVSPropertyOp2
 70
     1
102
RTVSPropertyOp3
 70
     1
102
RTVSPropertyOp4
 70
     1
102
RTVSPropertyOp5
 70
     1
102
RTVSPropertyOp6
 70
     1
102
RTVSPropertyOp7
 70
     1
102
RTVSPropertyOp8
 70
     1
102
RTVSPropertyOp9
 70
     1
102
RTVSPropertyOp10
 70
     1
102
RTVSPropertyOp11
 70
     1
102
RTVSPropertyOp12
 70
     1
102
RTVSPropertyOp13
 70
     1
102
RTVSPropertyOp14
 70
     1
102
RTVSPropertyOp15
 70
     1
102
RTVSPropertyOp16
 70
     1
102
RTVSPropertyOp17
 70
     1
102
RTVSPropertyOp18
 70
     1
102
RTVSPropertyOp19
 70
     1
102
RTVSPropertyOp20
 70
     1
102
RTVSPropertyOp21
 70
     1
102
RTVSPropertyOp22
 70
     1
102
RTVSPropertyOp23
 70
     1
102
RTVSPropertyOp24
 70
     1
102
RTVSPropertyOp25
 70
     1
102
RTVSPropertyOp26
 70
     1
102
RTVSPropertyOp27
 70
     1
102
RTVSPropertyOp28
 70
     1
102
RTVSPropertyOp29
 70
     1
102
RTVSPropertyOp30
 70
     1
102
RTVSPropertyOp31
 70
     1
102
RTVSPropertyOp32
 70
     1
  0
XRECORD
  5
32E
102
{ACAD_REACTORS
330
32D
102
}
330
32D
100
AcDbXrecord
280
     1
102
RTVSPropertyOp0
 70
     1
102
RTVSPropertyOp1
 70
     1
102
RTVSPropertyOp2
 70
     1
102
RTVSPropertyOp3
 70
     1
102
RTVSPropertyOp4
 70
     1
102
RTVSPropertyOp5
 70
     1
102
RTVSPropertyOp6
 70
     1
102
RTVSPropertyOp7
 70
     1
102
RTVSPropertyOp8
 70
     1
102
RTVSPropertyOp9
 70
     1
102
RTVSPropertyOp10
 70
     1
102
RTVSPropertyOp11
 70
     1
102
RTVSPropertyOp12
 70
     1
102
RTVSPropertyOp13
 70
     1
102
RTVSPropertyOp14
 70
     1
102
RTVSPropertyOp15
 70
     1
102
RTVSPropertyOp16
 70
     1
102
RTVSPropertyOp17
 70
     1
102
RTVSPropertyOp18
 70
     1
102
RTVSPropertyOp19
 70
     1
102
RTVSPropertyOp20
 70
     1
102
RTVSPropertyOp21
 70
     1
102
RTVSPropertyOp22
 70
     1
102
RTVSPropertyOp23
 70
     1
102
RTVSPropertyOp24
 70
     1
102
RTVSPropertyOp25
 70
     1
102
RTVSPropertyOp26
 70
     1
102
RTVSPropertyOp27
 70
     1
102
RTVSPropertyOp28
 70
     1
102
RTVSPropertyOp29
 70
     1
102
RTVSPropertyOp30
 70
     1
102
RTVSPropertyOp31
 70
     1
102
RTVSPropertyOp32
 70
     1
  0
XRECORD
  5
322
102
{ACAD_REACTORS
330
321
102
}
330
321
100
AcDbXrecord
280
     1
102
RTVSPropertyOp0
 70
     1
102
RTVSPropertyOp1
 70
     1
102
RTVSPropertyOp2
 70
     1
102
RTVSPropertyOp3
 70
     1
102
RTVSPropertyOp4
 70
     1
102
RTVSPropertyOp5
 70
     1
102
RTVSPropertyOp6
 70
     1
102
RTVSPropertyOp7
 70
     1
102
RTVSPropertyOp8
 70
     1
102
RTVSPropertyOp9
 70
     1
102
RTVSPropertyOp10
 70
     1
102
RTVSPropertyOp11
 70
     1
102
RTVSPropertyOp12
 70
     1
102
RTVSPropertyOp13
 70
     1
102
RTVSPropertyOp14
 70
     1
102
RTVSPropertyOp15
 70
     1
102
RTVSPropertyOp16
 70
     1
102
RTVSPropertyOp17
 70
     1
102
RTVSPropertyOp18
 70
     1
102
RTVSPropertyOp19
 70
     1
102
RTVSPropertyOp20
 70
     1
102
RTVSPropertyOp21
 70
     1
102
RTVSPropertyOp22
 70
     1
102
RTVSPropertyOp23
 70
     1
102
RTVSPropertyOp24
 70
     1
102
RTVSPropertyOp25
 70
     1
102
RTVSPropertyOp26
 70
     1
102
RTVSPropertyOp27
 70
     1
102
RTVSPropertyOp28
 70
     1
102
RTVSPropertyOp29
 70
     1
102
RTVSPropertyOp30
 70
     1
102
RTVSPropertyOp31
 70
     1
102
RTVSPropertyOp32
 70
     1
  0
XRECORD
  5
324
102
{ACAD_REACTORS
330
323
102
}
330
323
100
AcDbXrecord
280
     1
102
RTVSPropertyOp0
 70
     1
102
RTVSPropertyOp1
 70
     1
102
RTVSPropertyOp2
 70
     1
102
RTVSPropertyOp3
 70
     1
102
RTVSPropertyOp4
 70
     1
102
RTVSPropertyOp5
 70
     1
102
RTVSPropertyOp6
 70
     1
102
RTVSPropertyOp7
 70
     1
102
RTVSPropertyOp8
 70
     1
102
RTVSPropertyOp9
 70
     1
102
RTVSPropertyOp10
 70
     1
102
RTVSPropertyOp11
 70
     1
102
RTVSPropertyOp12
 70
     1
102
RTVSPropertyOp13
 70
     1
102
RTVSPropertyOp14
 70
     1
102
RTVSPropertyOp15
 70
     1
102
RTVSPropertyOp16
 70
     1
102
RTVSPropertyOp17
 70
     1
102
RTVSPropertyOp18
 70
     1
102
RTVSPropertyOp19
 70
     1
102
RTVSPropertyOp20
 70
     1
102
RTVSPropertyOp21
 70
     1
102
RTVSPropertyOp22
 70
     1
102
RTVSPropertyOp23
 70
     1
102
RTVSPropertyOp24
 70
     1
102
RTVSPropertyOp25
 70
     1
102
RTVSPropertyOp26
 70
     1
102
RTVSPropertyOp27
 70
     1
102
RTVSPropertyOp28
 70
     1
102
RTVSPropertyOp29
 70
     1
102
RTVSPropertyOp30
 70
     1
102
RTVSPropertyOp31
 70
     1
102
RTVSPropertyOp32
 70
     1
  0
XRECORD
  5
346
102
{ACAD_REACTORS
330
345
102
}
330
345
100
AcDbXrecord
280
     1
102
RTVSPropertyOp0
 70
     0
102
RTVSPropertyOp1
 70
     0
102
RTVSPropertyOp2
 70
     0
102
RTVSPropertyOp3
 70
     0
102
RTVSPropertyOp4
 70
     0
102
RTVSPropertyOp5
 70
     0
102
RTVSPropertyOp6
 70
     0
102
RTVSPropertyOp7
 70
     0
102
RTVSPropertyOp8
 70
     0
102
RTVSPropertyOp9
 70
     0
102
RTVSPropertyOp10
 70
     0
102
RTVSPropertyOp11
 70
     0
102
RTVSPropertyOp12
 70
     0
102
RTVSPropertyOp13
 70
     0
102
RTVSPropertyOp14
 70
     2
102
RTVSPropertyOp15
 70
     0
102
RTVSPropertyOp16
 70
     0
102
RTVSPropertyOp17
 70
     0
102
RTVSPropertyOp18
 70
     0
102
RTVSPropertyOp19
 70
     0
102
RTVSPropertyOp20
 70
     0
102
RTVSPropertyOp21
 70
     0
102
RTVSPropertyOp22
 70
     0
102
RTVSPropertyOp23
 70
     0
102
RTVSPropertyOp24
 70
     0
102
RTVSPropertyOp25
 70
     0
102
RTVSPropertyOp26
 70
     0
102
RTVSPropertyOp27
 70
     0
102
RTVSPropertyOp28
 70
     0
102
RTVSPropertyOp29
 70
     0
102
RTVSPropertyOp30
 70
     0
102
RTVSPropertyOp31
 70
     0
102
RTVSPropertyOp32
 70
     0
  0
XRECORD
  5
32C
102
{ACAD_REACTORS
330
32B
102
}
330
32B
100
AcDbXrecord
280
     1
102
RTVSPropertyOp0
 70
     1
102
RTVSPropertyOp1
 70
     1
102
RTVSPropertyOp2
 70
     1
102
RTVSPropertyOp3
 70
     1
102
RTVSPropertyOp4
 70
     1
102
RTVSPropertyOp5
 70
     1
102
RTVSPropertyOp6
 70
     1
102
RTVSPropertyOp7
 70
     1
102
RTVSPropertyOp8
 70
     1
102
RTVSPropertyOp9
 70
     1
102
RTVSPropertyOp10
 70
     1
102
RTVSPropertyOp11
 70
     1
102
RTVSPropertyOp12
 70
     1
102
RTVSPropertyOp13
 70
     1
102
RTVSPropertyOp14
 70
     1
102
RTVSPropertyOp15
 70
     1
102
RTVSPropertyOp16
 70
     1
102
RTVSPropertyOp17
 70
     1
102
RTVSPropertyOp18
 70
     1
102
RTVSPropertyOp19
 70
     1
102
RTVSPropertyOp20
 70
     1
102
RTVSPropertyOp21
 70
     1
102
RTVSPropertyOp22
 70
     1
102
RTVSPropertyOp23
 70
     1
102
RTVSPropertyOp24
 70
     1
102
RTVSPropertyOp25
 70
     1
102
RTVSPropertyOp26
 70
     1
102
RTVSPropertyOp27
 70
     1
102
RTVSPropertyOp28
 70
     1
102
RTVSPropertyOp29
 70
     1
102
RTVSPropertyOp30
 70
     1
102
RTVSPropertyOp31
 70
     1
102
RTVSPropertyOp32
 70
     1
  0
XRECORD
  5
310
102
{ACAD_REACTORS
330
30F
102
}
330
30F
100
AcDbXrecord
280
     1
102
RTVSPropertyOp0
 70
     1
102
RTVSPropertyOp1
 70
     1
102
RTVSPropertyOp2
 70
     1
102
RTVSPropertyOp3
 70
     1
102
RTVSPropertyOp4
 70
     1
102
RTVSPropertyOp5
 70
     1
102
RTVSPropertyOp6
 70
     1
102
RTVSPropertyOp7
 70
     1
102
RTVSPropertyOp8
 70
     1
102
RTVSPropertyOp9
 70
     1
102
RTVSPropertyOp10
 70
     1
102
RTVSPropertyOp11
 70
     1
102
RTVSPropertyOp12
 70
     1
102
RTVSPropertyOp13
 70
     1
102
RTVSPropertyOp14
 70
     1
102
RTVSPropertyOp15
 70
     1
102
RTVSPropertyOp16
 70
     1
102
RTVSPropertyOp17
 70
     1
102
RTVSPropertyOp18
 70
     1
102
RTVSPropertyOp19
 70
     1
102
RTVSPropertyOp20
 70
     1
102
RTVSPropertyOp21
 70
     1
102
RTVSPropertyOp22
 70
     1
102
RTVSPropertyOp23
 70
     1
102
RTVSPropertyOp24
 70
     1
102
RTVSPropertyOp25
 70
     1
102
RTVSPropertyOp26
 70
     1
102
RTVSPropertyOp27
 70
     1
102
RTVSPropertyOp28
 70
     1
102
RTVSPropertyOp29
 70
     1
102
RTVSPropertyOp30
 70
     1
102
RTVSPropertyOp31
 70
     1
102
RTVSPropertyOp32
 70
     1
  0
XRECORD
  5
312
102
{ACAD_REACTORS
330
311
102
}
330
311
100
AcDbXrecord
280
     1
102
RTVSPropertyOp0
 70
     1
102
RTVSPropertyOp1
 70
     1
102
RTVSPropertyOp2
 70
     1
102
RTVSPropertyOp3
 70
     1
102
RTVSPropertyOp4
 70
     1
102
RTVSPropertyOp5
 70
     1
102
RTVSPropertyOp6
 70
     1
102
RTVSPropertyOp7
 70
     1
102
RTVSPropertyOp8
 70
     1
102
RTVSPropertyOp9
 70
     1
102
RTVSPropertyOp10
 70
     1
102
RTVSPropertyOp11
 70
     1
102
RTVSPropertyOp12
 70
     1
102
RTVSPropertyOp13
 70
     1
102
RTVSPropertyOp14
 70
     1
102
RTVSPropertyOp15
 70
     1
102
RTVSPropertyOp16
 70
     1
102
RTVSPropertyOp17
 70
     1
102
RTVSPropertyOp18
 70
     1
102
RTVSPropertyOp19
 70
     1
102
RTVSPropertyOp20
 70
     1
102
RTVSPropertyOp21
 70
     1
102
RTVSPropertyOp22
 70
     1
102
RTVSPropertyOp23
 70
     1
102
RTVSPropertyOp24
 70
     1
102
RTVSPropertyOp25
 70
     1
102
RTVSPropertyOp26
 70
     1
102
RTVSPropertyOp27
 70
     1
102
RTVSPropertyOp28
 70
     1
102
RTVSPropertyOp29
 70
     1
102
RTVSPropertyOp30
 70
     1
102
RTVSPropertyOp31
 70
     1
102
RTVSPropertyOp32
 70
     1
  0
XRECORD
  5
314
102
{ACAD_REACTORS
330
313
102
}
330
313
100
AcDbXrecord
280
     1
102
RTVSPropertyOp0
 70
     1
102
RTVSPropertyOp1
 70
     1
102
RTVSPropertyOp2
 70
     1
102
RTVSPropertyOp3
 70
     1
102
RTVSPropertyOp4
 70
     1
102
RTVSPropertyOp5
 70
     1
102
RTVSPropertyOp6
 70
     1
102
RTVSPropertyOp7
 70
     1
102
RTVSPropertyOp8
 70
     1
102
RTVSPropertyOp9
 70
     1
102
RTVSPropertyOp10
 70
     1
102
RTVSPropertyOp11
 70
     1
102
RTVSPropertyOp12
 70
     1
102
RTVSPropertyOp13
 70
     1
102
RTVSPropertyOp14
 70
     1
102
RTVSPropertyOp15
 70
     1
102
RTVSPropertyOp16
 70
     1
102
RTVSPropertyOp17
 70
     1
102
RTVSPropertyOp18
 70
     1
102
RTVSPropertyOp19
 70
     1
102
RTVSPropertyOp20
 70
     1
102
RTVSPropertyOp21
 70
     1
102
RTVSPropertyOp22
 70
     1
102
RTVSPropertyOp23
 70
     1
102
RTVSPropertyOp24
 70
     1
102
RTVSPropertyOp25
 70
     1
102
RTVSPropertyOp26
 70
     1
102
RTVSPropertyOp27
 70
     1
102
RTVSPropertyOp28
 70
     1
102
RTVSPropertyOp29
 70
     1
102
RTVSPropertyOp30
 70
     1
102
RTVSPropertyOp31
 70
     1
102
RTVSPropertyOp32
 70
     1
  0
XRECORD
  5
316
102
{ACAD_REACTORS
330
315
102
}
330
315
100
AcDbXrecord
280
     1
102
RTVSPropertyOp0
 70
     1
102
RTVSPropertyOp1
 70
     1
102
RTVSPropertyOp2
 70
     1
102
RTVSPropertyOp3
 70
     1
102
RTVSPropertyOp4
 70
     1
102
RTVSPropertyOp5
 70
     1
102
RTVSPropertyOp6
 70
     1
102
RTVSPropertyOp7
 70
     1
102
RTVSPropertyOp8
 70
     1
102
RTVSPropertyOp9
 70
     1
102
RTVSPropertyOp10
 70
     1
102
RTVSPropertyOp11
 70
     1
102
RTVSPropertyOp12
 70
     1
102
RTVSPropertyOp13
 70
     1
102
RTVSPropertyOp14
 70
     1
102
RTVSPropertyOp15
 70
     1
102
RTVSPropertyOp16
 70
     1
102
RTVSPropertyOp17
 70
     1
102
RTVSPropertyOp18
 70
     1
102
RTVSPropertyOp19
 70
     1
102
RTVSPropertyOp20
 70
     1
102
RTVSPropertyOp21
 70
     1
102
RTVSPropertyOp22
 70
     1
102
RTVSPropertyOp23
 70
     1
102
RTVSPropertyOp24
 70
     1
102
RTVSPropertyOp25
 70
     1
102
RTVSPropertyOp26
 70
     1
102
RTVSPropertyOp27
 70
     1
102
RTVSPropertyOp28
 70
     1
102
RTVSPropertyOp29
 70
     1
102
RTVSPropertyOp30
 70
     1
102
RTVSPropertyOp31
 70
     1
102
RTVSPropertyOp32
 70
     1
  0
XRECORD
  5
336
102
{ACAD_REACTORS
330
335
102
}
330
335
100
AcDbXrecord
280
     1
102
RTVSPropertyOp0
 70
     1
102
RTVSPropertyOp1
 70
     1
102
RTVSPropertyOp2
 70
     1
102
RTVSPropertyOp3
 70
     1
102
RTVSPropertyOp4
 70
     1
102
RTVSPropertyOp5
 70
     1
102
RTVSPropertyOp6
 70
     1
102
RTVSPropertyOp7
 70
     1
102
RTVSPropertyOp8
 70
     1
102
RTVSPropertyOp9
 70
     1
102
RTVSPropertyOp10
 70
     1
102
RTVSPropertyOp11
 70
     1
102
RTVSPropertyOp12
 70
     1
102
RTVSPropertyOp13
 70
     1
102
RTVSPropertyOp14
 70
     1
102
RTVSPropertyOp15
 70
     1
102
RTVSPropertyOp16
 70
     1
102
RTVSPropertyOp17
 70
     1
102
RTVSPropertyOp18
 70
     1
102
RTVSPropertyOp19
 70
     1
102
RTVSPropertyOp20
 70
     1
102
RTVSPropertyOp21
 70
     1
102
RTVSPropertyOp22
 70
     1
102
RTVSPropertyOp23
 70
     1
102
RTVSPropertyOp24
 70
     1
102
RTVSPropertyOp25
 70
     1
102
RTVSPropertyOp26
 70
     1
102
RTVSPropertyOp27
 70
     1
102
RTVSPropertyOp28
 70
     1
102
RTVSPropertyOp29
 70
     1
102
RTVSPropertyOp30
 70
     1
102
RTVSPropertyOp31
 70
     1
102
RTVSPropertyOp32
 70
     1
  0
XRECORD
  5
342
102
{ACAD_REACTORS
330
341
102
}
330
341
100
AcDbXrecord
280
     1
102
RTVSPropertyOp0
 70
     0
102
RTVSPropertyOp1
 70
     0
102
RTVSPropertyOp2
 70
     0
102
RTVSPropertyOp3
 70
     0
102
RTVSPropertyOp4
 70
     0
102
RTVSPropertyOp5
 70
     0
102
RTVSPropertyOp6
 70
     0
102
RTVSPropertyOp7
 70
     0
102
RTVSPropertyOp8
 70
     0
102
RTVSPropertyOp9
 70
     0
102
RTVSPropertyOp10
 70
     0
102
RTVSPropertyOp11
 70
     0
102
RTVSPropertyOp12
 70
     0
102
RTVSPropertyOp13
 70
     0
102
RTVSPropertyOp14
 70
     2
102
RTVSPropertyOp15
 70
     0
102
RTVSPropertyOp16
 70
     0
102
RTVSPropertyOp17
 70
     0
102
RTVSPropertyOp18
 70
     0
102
RTVSPropertyOp19
 70
     0
102
RTVSPropertyOp20
 70
     0
102
RTVSPropertyOp21
 70
     0
102
RTVSPropertyOp22
 70
     0
102
RTVSPropertyOp23
 70
     0
102
RTVSPropertyOp24
 70
     0
102
RTVSPropertyOp25
 70
     0
102
RTVSPropertyOp26
 70
     0
102
RTVSPropertyOp27
 70
     0
102
RTVSPropertyOp28
 70
     0
102
RTVSPropertyOp29
 70
     0
102
RTVSPropertyOp30
 70
     0
102
RTVSPropertyOp31
 70
     0
102
RTVSPropertyOp32
 70
     0
  0
XRECORD
  5
32A
102
{ACAD_REACTORS
330
329
102
}
330
329
100
AcDbXrecord
280
     1
102
RTVSPropertyOp0
 70
     1
102
RTVSPropertyOp1
 70
     1
102
RTVSPropertyOp2
 70
     1
102
RTVSPropertyOp3
 70
     1
102
RTVSPropertyOp4
 70
     1
102
RTVSPropertyOp5
 70
     1
102
RTVSPropertyOp6
 70
     1
102
RTVSPropertyOp7
 70
     1
102
RTVSPropertyOp8
 70
     1
102
RTVSPropertyOp9
 70
     1
102
RTVSPropertyOp10
 70
     1
102
RTVSPropertyOp11
 70
     1
102
RTVSPropertyOp12
 70
     1
102
RTVSPropertyOp13
 70
     1
102
RTVSPropertyOp14
 70
     1
102
RTVSPropertyOp15
 70
     1
102
RTVSPropertyOp16
 70
     1
102
RTVSPropertyOp17
 70
     1
102
RTVSPropertyOp18
 70
     1
102
RTVSPropertyOp19
 70
     1
102
RTVSPropertyOp20
 70
     1
102
RTVSPropertyOp21
 70
     1
102
RTVSPropertyOp22
 70
     1
102
RTVSPropertyOp23
 70
     1
102
RTVSPropertyOp24
 70
     1
102
RTVSPropertyOp25
 70
     1
102
RTVSPropertyOp26
 70
     1
102
RTVSPropertyOp27
 70
     1
102
RTVSPropertyOp28
 70
     1
102
RTVSPropertyOp29
 70
     1
102
RTVSPropertyOp30
 70
     1
102
RTVSPropertyOp31
 70
     1
102
RTVSPropertyOp32
 70
     1
  0
XRECORD
  5
344
102
{ACAD_REACTORS
330
343
102
}
330
343
100
AcDbXrecord
280
     1
102
RTVSPropertyOp0
 70
     0
102
RTVSPropertyOp1
 70
     0
102
RTVSPropertyOp2
 70
     0
102
RTVSPropertyOp3
 70
     0
102
RTVSPropertyOp4
 70
     0
102
RTVSPropertyOp5
 70
     0
102
RTVSPropertyOp6
 70
     0
102
RTVSPropertyOp7
 70
     0
102
RTVSPropertyOp8
 70
     0
102
RTVSPropertyOp9
 70
     0
102
RTVSPropertyOp10
 70
     0
102
RTVSPropertyOp11
 70
     0
102
RTVSPropertyOp12
 70
     0
102
RTVSPropertyOp13
 70
     0
102
RTVSPropertyOp14
 70
     2
102
RTVSPropertyOp15
 70
     0
102
RTVSPropertyOp16
 70
     0
102
RTVSPropertyOp17
 70
     0
102
RTVSPropertyOp18
 70
     0
102
RTVSPropertyOp19
 70
     0
102
RTVSPropertyOp20
 70
     0
102
RTVSPropertyOp21
 70
     0
102
RTVSPropertyOp22
 70
     0
102
RTVSPropertyOp23
 70
     0
102
RTVSPropertyOp24
 70
     0
102
RTVSPropertyOp25
 70
     0
102
RTVSPropertyOp26
 70
     0
102
RTVSPropertyOp27
 70
     0
102
RTVSPropertyOp28
 70
     0
102
RTVSPropertyOp29
 70
     0
102
RTVSPropertyOp30
 70
     0
102
RTVSPropertyOp31
 70
     0
102
RTVSPropertyOp32
 70
     0
  0
XRECORD
  5
320
102
{ACAD_REACTORS
330
31F
102
}
330
31F
100
AcDbXrecord
280
     1
102
RTVSPropertyOp0
 70
     1
102
RTVSPropertyOp1
 70
     1
102
RTVSPropertyOp2
 70
     1
102
RTVSPropertyOp3
 70
     1
102
RTVSPropertyOp4
 70
     1
102
RTVSPropertyOp5
 70
     1
102
RTVSPropertyOp6
 70
     1
102
RTVSPropertyOp7
 70
     1
102
RTVSPropertyOp8
 70
     1
102
RTVSPropertyOp9
 70
     1
102
RTVSPropertyOp10
 70
     1
102
RTVSPropertyOp11
 70
     1
102
RTVSPropertyOp12
 70
     1
102
RTVSPropertyOp13
 70
     1
102
RTVSPropertyOp14
 70
     1
102
RTVSPropertyOp15
 70
     1
102
RTVSPropertyOp16
 70
     1
102
RTVSPropertyOp17
 70
     1
102
RTVSPropertyOp18
 70
     1
102
RTVSPropertyOp19
 70
     1
102
RTVSPropertyOp20
 70
     1
102
RTVSPropertyOp21
 70
     1
102
RTVSPropertyOp22
 70
     1
102
RTVSPropertyOp23
 70
     1
102
RTVSPropertyOp24
 70
     1
102
RTVSPropertyOp25
 70
     1
102
RTVSPropertyOp26
 70
     1
102
RTVSPropertyOp27
 70
     1
102
RTVSPropertyOp28
 70
     1
102
RTVSPropertyOp29
 70
     1
102
RTVSPropertyOp30
 70
     1
102
RTVSPropertyOp31
 70
     1
102
RTVSPropertyOp32
 70
     1
  0
XRECORD
  5
340
102
{ACAD_REACTORS
330
33F
102
}
330
33F
100
AcDbXrecord
280
     1
102
RTVSPropertyOp0
 70
     1
102
RTVSPropertyOp1
 70
     1
102
RTVSPropertyOp2
 70
     1
102
RTVSPropertyOp3
 70
     1
102
RTVSPropertyOp4
 70
     1
102
RTVSPropertyOp5
 70
     1
102
RTVSPropertyOp6
 70
     1
102
RTVSPropertyOp7
 70
     1
102
RTVSPropertyOp8
 70
     1
102
RTVSPropertyOp9
 70
     1
102
RTVSPropertyOp10
 70
     1
102
RTVSPropertyOp11
 70
     1
102
RTVSPropertyOp12
 70
     1
102
RTVSPropertyOp13
 70
     1
102
RTVSPropertyOp14
 70
     1
102
RTVSPropertyOp15
 70
     1
102
RTVSPropertyOp16
 70
     1
102
RTVSPropertyOp17
 70
     1
102
RTVSPropertyOp18
 70
     1
102
RTVSPropertyOp19
 70
     1
102
RTVSPropertyOp20
 70
     1
102
RTVSPropertyOp21
 70
     1
102
RTVSPropertyOp22
 70
     1
102
RTVSPropertyOp23
 70
     1
102
RTVSPropertyOp24
 70
     1
102
RTVSPropertyOp25
 70
     1
102
RTVSPropertyOp26
 70
     1
102
RTVSPropertyOp27
 70
     1
102
RTVSPropertyOp28
 70
     1
102
RTVSPropertyOp29
 70
     1
102
RTVSPropertyOp30
 70
     1
102
RTVSPropertyOp31
 70
     1
102
RTVSPropertyOp32
 70
     1
  0
XRECORD
  5
33E
102
{ACAD_REACTORS
330
33D
102
}
330
33D
100
AcDbXrecord
280
     1
102
RTVSPropertyOp0
 70
     1
102
RTVSPropertyOp1
 70
     1
102
RTVSPropertyOp2
 70
     1
102
RTVSPropertyOp3
 70
     1
102
RTVSPropertyOp4
 70
     1
102
RTVSPropertyOp5
 70
     1
102
RTVSPropertyOp6
 70
     1
102
RTVSPropertyOp7
 70
     1
102
RTVSPropertyOp8
 70
     1
102
RTVSPropertyOp9
 70
     1
102
RTVSPropertyOp10
 70
     1
102
RTVSPropertyOp11
 70
     1
102
RTVSPropertyOp12
 70
     1
102
RTVSPropertyOp13
 70
     1
102
RTVSPropertyOp14
 70
     1
102
RTVSPropertyOp15
 70
     1
102
RTVSPropertyOp16
 70
     1
102
RTVSPropertyOp17
 70
     1
102
RTVSPropertyOp18
 70
     1
102
RTVSPropertyOp19
 70
     1
102
RTVSPropertyOp20
 70
     1
102
RTVSPropertyOp21
 70
     1
102
RTVSPropertyOp22
 70
     1
102
RTVSPropertyOp23
 70
     1
102
RTVSPropertyOp24
 70
     1
102
RTVSPropertyOp25
 70
     1
102
RTVSPropertyOp26
 70
     1
102
RTVSPropertyOp27
 70
     1
102
RTVSPropertyOp28
 70
     1
102
RTVSPropertyOp29
 70
     1
102
RTVSPropertyOp30
 70
     1
102
RTVSPropertyOp31
 70
     1
102
RTVSPropertyOp32
 70
     1
  0
XRECORD
  5
338
102
{ACAD_REACTORS
330
337
102
}
330
337
100
AcDbXrecord
280
     1
102
RTVSPropertyOp0
 70
     1
102
RTVSPropertyOp1
 70
     1
102
RTVSPropertyOp2
 70
     1
102
RTVSPropertyOp3
 70
     1
102
RTVSPropertyOp4
 70
     1
102
RTVSPropertyOp5
 70
     1
102
RTVSPropertyOp6
 70
     1
102
RTVSPropertyOp7
 70
     1
102
RTVSPropertyOp8
 70
     1
102
RTVSPropertyOp9
 70
     1
102
RTVSPropertyOp10
 70
     1
102
RTVSPropertyOp11
 70
     1
102
RTVSPropertyOp12
 70
     1
102
RTVSPropertyOp13
 70
     1
102
RTVSPropertyOp14
 70
     1
102
RTVSPropertyOp15
 70
     1
102
RTVSPropertyOp16
 70
     1
102
RTVSPropertyOp17
 70
     1
102
RTVSPropertyOp18
 70
     1
102
RTVSPropertyOp19
 70
     1
102
RTVSPropertyOp20
 70
     1
102
RTVSPropertyOp21
 70
     1
102
RTVSPropertyOp22
 70
     1
102
RTVSPropertyOp23
 70
     1
102
RTVSPropertyOp24
 70
     1
102
RTVSPropertyOp25
 70
     1
102
RTVSPropertyOp26
 70
     1
102
RTVSPropertyOp27
 70
     1
102
RTVSPropertyOp28
 70
     1
102
RTVSPropertyOp29
 70
     1
102
RTVSPropertyOp30
 70
     1
102
RTVSPropertyOp31
 70
     1
102
RTVSPropertyOp32
 70
     1
  0
XRECORD
  5
33A
102
{ACAD_REACTORS
330
339
102
}
330
339
100
AcDbXrecord
280
     1
102
RTVSPropertyOp0
 70
     1
102
RTVSPropertyOp1
 70
     1
102
RTVSPropertyOp2
 70
     1
102
RTVSPropertyOp3
 70
     1
102
RTVSPropertyOp4
 70
     1
102
RTVSPropertyOp5
 70
     1
102
RTVSPropertyOp6
 70
     1
102
RTVSPropertyOp7
 70
     1
102
RTVSPropertyOp8
 70
     1
102
RTVSPropertyOp9
 70
     1
102
RTVSPropertyOp10
 70
     1
102
RTVSPropertyOp11
 70
     1
102
RTVSPropertyOp12
 70
     1
102
RTVSPropertyOp13
 70
     1
102
RTVSPropertyOp14
 70
     1
102
RTVSPropertyOp15
 70
     1
102
RTVSPropertyOp16
 70
     1
102
RTVSPropertyOp17
 70
     1
102
RTVSPropertyOp18
 70
     1
102
RTVSPropertyOp19
 70
     1
102
RTVSPropertyOp20
 70
     1
102
RTVSPropertyOp21
 70
     1
102
RTVSPropertyOp22
 70
     1
102
RTVSPropertyOp23
 70
     1
102
RTVSPropertyOp24
 70
     1
102
RTVSPropertyOp25
 70
     1
102
RTVSPropertyOp26
 70
     1
102
RTVSPropertyOp27
 70
     1
102
RTVSPropertyOp28
 70
     1
102
RTVSPropertyOp29
 70
     1
102
RTVSPropertyOp30
 70
     1
102
RTVSPropertyOp31
 70
     1
102
RTVSPropertyOp32
 70
     1
  0
XRECORD
  5
328
102
{ACAD_REACTORS
330
327
102
}
330
327
100
AcDbXrecord
280
     1
102
RTVSPropertyOp0
 70
     1
102
RTVSPropertyOp1
 70
     1
102
RTVSPropertyOp2
 70
     1
102
RTVSPropertyOp3
 70
     1
102
RTVSPropertyOp4
 70
     1
102
RTVSPropertyOp5
 70
     1
102
RTVSPropertyOp6
 70
     1
102
RTVSPropertyOp7
 70
     1
102
RTVSPropertyOp8
 70
     1
102
RTVSPropertyOp9
 70
     1
102
RTVSPropertyOp10
 70
     1
102
RTVSPropertyOp11
 70
     1
102
RTVSPropertyOp12
 70
     1
102
RTVSPropertyOp13
 70
     1
102
RTVSPropertyOp14
 70
     1
102
RTVSPropertyOp15
 70
     1
102
RTVSPropertyOp16
 70
     1
102
RTVSPropertyOp17
 70
     1
102
RTVSPropertyOp18
 70
     1
102
RTVSPropertyOp19
 70
     1
102
RTVSPropertyOp20
 70
     1
102
RTVSPropertyOp21
 70
     1
102
RTVSPropertyOp22
 70
     1
102
RTVSPropertyOp23
 70
     1
102
RTVSPropertyOp24
 70
     1
102
RTVSPropertyOp25
 70
     1
102
RTVSPropertyOp26
 70
     1
102
RTVSPropertyOp27
 70
     1
102
RTVSPropertyOp28
 70
     1
102
RTVSPropertyOp29
 70
     1
102
RTVSPropertyOp30
 70
     1
102
RTVSPropertyOp31
 70
     1
102
RTVSPropertyOp32
 70
     1
  0
XRECORD
  5
334
102
{ACAD_REACTORS
330
333
102
}
330
333
100
AcDbXrecord
280
     1
102
RTVSPropertyOp0
 70
     1
102
RTVSPropertyOp1
 70
     1
102
RTVSPropertyOp2
 70
     1
102
RTVSPropertyOp3
 70
     1
102
RTVSPropertyOp4
 70
     1
102
RTVSPropertyOp5
 70
     1
102
RTVSPropertyOp6
 70
     1
102
RTVSPropertyOp7
 70
     1
102
RTVSPropertyOp8
 70
     1
102
RTVSPropertyOp9
 70
     1
102
RTVSPropertyOp10
 70
     1
102
RTVSPropertyOp11
 70
     1
102
RTVSPropertyOp12
 70
     1
102
RTVSPropertyOp13
 70
     1
102
RTVSPropertyOp14
 70
     1
102
RTVSPropertyOp15
 70
     1
102
RTVSPropertyOp16
 70
     1
102
RTVSPropertyOp17
 70
     1
102
RTVSPropertyOp18
 70
     1
102
RTVSPropertyOp19
 70
     1
102
RTVSPropertyOp20
 70
     1
102
RTVSPropertyOp21
 70
     1
102
RTVSPropertyOp22
 70
     1
102
RTVSPropertyOp23
 70
     1
102
RTVSPropertyOp24
 70
     1
102
RTVSPropertyOp25
 70
     1
102
RTVSPropertyOp26
 70
     1
102
RTVSPropertyOp27
 70
     1
102
RTVSPropertyOp28
 70
     1
102
RTVSPropertyOp29
 70
     1
102
RTVSPropertyOp30
 70
     1
102
RTVSPropertyOp31
 70
     1
102
RTVSPropertyOp32
 70
     1
  0
XRECORD
  5
33C
102
{ACAD_REACTORS
330
33B
102
}
330
33B
100
AcDbXrecord
280
     1
102
RTVSPropertyOp0
 70
     1
102
RTVSPropertyOp1
 70
     1
102
RTVSPropertyOp2
 70
     1
102
RTVSPropertyOp3
 70
     1
102
RTVSPropertyOp4
 70
     1
102
RTVSPropertyOp5
 70
     1
102
RTVSPropertyOp6
 70
     1
102
RTVSPropertyOp7
 70
     1
102
RTVSPropertyOp8
 70
     1
102
RTVSPropertyOp9
 70
     1
102
RTVSPropertyOp10
 70
     1
102
RTVSPropertyOp11
 70
     1
102
RTVSPropertyOp12
 70
     1
102
RTVSPropertyOp13
 70
     1
102
RTVSPropertyOp14
 70
     1
102
RTVSPropertyOp15
 70
     1
102
RTVSPropertyOp16
 70
     1
102
RTVSPropertyOp17
 70
     1
102
RTVSPropertyOp18
 70
     1
102
RTVSPropertyOp19
 70
     1
102
RTVSPropertyOp20
 70
     1
102
RTVSPropertyOp21
 70
     1
102
RTVSPropertyOp22
 70
     1
102
RTVSPropertyOp23
 70
     1
102
RTVSPropertyOp24
 70
     1
102
RTVSPropertyOp25
 70
     1
102
RTVSPropertyOp26
 70
     1
102
RTVSPropertyOp27
 70
     1
102
RTVSPropertyOp28
 70
     1
102
RTVSPropertyOp29
 70
     1
102
RTVSPropertyOp30
 70
     1
102
RTVSPropertyOp31
 70
     1
102
RTVSPropertyOp32
 70
     1
  0
ENDSEC
  0
EOF
