  0
SECTION
  2
HEADER
  9
$ACADVER
  1
AC1015
  9
$ACADMAINTVER
 70
    20
  9
$DWGCODEPAGE
  3
ANSI_1252
  9
$INSBASE
 10
0.0
 20
0.0
 30
0.0
  9
$EXTMIN
 10
125.401492529445
 20
110.6095815718046
 30
-0.0015258207003583
  9
$EXTMAX
 10
205.0996809515428
 20
214.0331801194576
 30
0.0000000349246037
  9
$LIMMIN
 10
-0.5
 20
-0.5
  9
$LIMMAX
 10
5.0
 20
5.0
  9
$ORTHOMODE
 70
     0
  9
$REGENMODE
 70
     1
  9
$FILLMODE
 70
     1
  9
$QTEXTMODE
 70
     0
  9
$MIRRTEXT
 70
     1
  9
$LTSCALE
 40
1.0
  9
$ATTMODE
 70
     1
  9
$TEXTSIZE
 40
0.2
  9
$TRACEWID
 40
0.05
  9
$TEXTSTYLE
  7
Standard
  9
$CLAYER
  8
0
  9
$CELTYPE
  6
ByLayer
  9
$CECOLOR
 62
   256
  9
$CELTSCALE
 40
1.0
  9
$DISPSILH
 70
     0
  9
$DIMSCALE
 40
1.0
  9
$DIMASZ
 40
0.18
  9
$DIMEXO
 40
0.0625
  9
$DIMDLI
 40
0.38
  9
$DIMRND
 40
0.0
  9
$DIMDLE
 40
0.0
  9
$DIMEXE
 40
0.18
  9
$DIMTP
 40
0.0
  9
$DIMTM
 40
0.0
  9
$DIMTXT
 40
0.18
  9
$DIMCEN
 40
0.09
  9
$DIMTSZ
 40
0.0
  9
$DIMTOL
 70
     0
  9
$DIMLIM
 70
     0
  9
$DIMTIH
 70
     1
  9
$DIMTOH
 70
     1
  9
$DIMSE1
 70
     0
  9
$DIMSE2
 70
     0
  9
$DIMTAD
 70
     0
  9
$DIMZIN
 70
     0
  9
$DIMBLK
  1

  9
$DIMASO
 70
     1
  9
$DIMSHO
 70
     1
  9
$DIMPOST
  1

  9
$DIMAPOST
  1

  9
$DIMALT
 70
     0
  9
$DIMALTD
 70
     2
  9
$DIMALTF
 40
25.4
  9
$DIMLFAC
 40
1.0
  9
$DIMTOFL
 70
     0
  9
$DIMTVP
 40
0.0
  9
$DIMTIX
 70
     0
  9
$DIMSOXD
 70
     0
  9
$DIMSAH
 70
     0
  9
$DIMBLK1
  1

  9
$DIMBLK2
  1

  9
$DIMSTYLE
  2
Standard
  9
$DIMCLRD
 70
     0
  9
$DIMCLRE
 70
     0
  9
$DIMCLRT
 70
     0
  9
$DIMTFAC
 40
1.0
  9
$DIMGAP
 40
0.09
  9
$DIMJUST
 70
     0
  9
$DIMSD1
 70
     0
  9
$DIMSD2
 70
     0
  9
$DIMTOLJ
 70
     1
  9
$DIMTZIN
 70
     0
  9
$DIMALTZ
 70
     0
  9
$DIMALTTZ
 70
     0
  9
$DIMUPT
 70
     0
  9
$DIMDEC
 70
     4
  9
$DIMTDEC
 70
     4
  9
$DIMALTU
 70
     2
  9
$DIMALTTD
 70
     2
  9
$DIMTXSTY
  7
Standard
  9
$DIMAUNIT
 70
     0
  9
$DIMADEC
 70
     0
  9
$DIMALTRND
 40
0.0
  9
$DIMAZIN
 70
     0
  9
$DIMDSEP
 70
    46
  9
$DIMATFIT
 70
     3
  9
$DIMFRAC
 70
     0
  9
$DIMLDRBLK
  1

  9
$DIMLUNIT
 70
     2
  9
$DIMLWD
 70
    -2
  9
$DIMLWE
 70
    -2
  9
$DIMTMOVE
 70
     0
  9
$LUNITS
 70
     2
  9
$LUPREC
 70
     4
  9
$SKETCHINC
 40
0.1
  9
$FILLETRAD
 40
0.5
  9
$AUNITS
 70
     0
  9
$AUPREC
 70
     0
  9
$MENU
  1
.
  9
$ELEVATION
 40
0.0
  9
$PELEVATION
 40
0.0
  9
$THICKNESS
 40
0.0
  9
$LIMCHECK
 70
     0
  9
$CHAMFERA
 40
0.0
  9
$CHAMFERB
 40
0.0
  9
$CHAMFERC
 40
0.0
  9
$CHAMFERD
 40
0.0
  9
$SKPOLY
 70
     0
  9
$TDCREATE
 40
2458339.582032454
  9
$TDUCREATE
 40
2458339.790365787
  9
$TDUPDATE
 40
2458339.587277257
  9
$TDUUPDATE
 40
2458339.795610590
  9
$TDINDWG
 40
0.0026248380
  9
$TDUSRTIMER
 40
0.0026248380
  9
$USRTIMER
 70
     1
  9
$ANGBASE
 50
0.0
  9
$ANGDIR
 70
     0
  9
$PDMODE
 70
     0
  9
$PDSIZE
 40
0.0
  9
$PLINEWID
 40
0.0
  9
$SPLFRAME
 70
     0
  9
$SPLINETYPE
 70
     6
  9
$SPLINESEGS
 70
     8
  9
$HANDSEED
  5
467
  9
$SURFTAB1
 70
     6
  9
$SURFTAB2
 70
     6
  9
$SURFTYPE
 70
     6
  9
$SURFU
 70
     6
  9
$SURFV
 70
     6
  9
$UCSBASE
  2

  9
$UCSNAME
  2

  9
$UCSORG
 10
0.0
 20
0.0
 30
0.0
  9
$UCSXDIR
 10
1.0
 20
0.0
 30
0.0
  9
$UCSYDIR
 10
0.0
 20
1.0
 30
0.0
  9
$UCSORTHOREF
  2

  9
$UCSORTHOVIEW
 70
     0
  9
$UCSORGTOP
 10
0.0
 20
0.0
 30
0.0
  9
$UCSORGBOTTOM
 10
0.0
 20
0.0
 30
0.0
  9
$UCSORGLEFT
 10
0.0
 20
0.0
 30
0.0
  9
$UCSORGRIGHT
 10
0.0
 20
0.0
 30
0.0
  9
$UCSORGFRONT
 10
0.0
 20
0.0
 30
0.0
  9
$UCSORGBACK
 10
0.0
 20
0.0
 30
0.0
  9
$PUCSBASE
  2

  9
$PUCSNAME
  2

  9
$PUCSORG
 10
0.0
 20
0.0
 30
0.0
  9
$PUCSXDIR
 10
1.0
 20
0.0
 30
0.0
  9
$PUCSYDIR
 10
0.0
 20
1.0
 30
0.0
  9
$PUCSORTHOREF
  2

  9
$PUCSORTHOVIEW
 70
     0
  9
$PUCSORGTOP
 10
0.0
 20
0.0
 30
0.0
  9
$PUCSORGBOTTOM
 10
0.0
 20
0.0
 30
0.0
  9
$PUCSORGLEFT
 10
0.0
 20
0.0
 30
0.0
  9
$PUCSORGRIGHT
 10
0.0
 20
0.0
 30
0.0
  9
$PUCSORGFRONT
 10
0.0
 20
0.0
 30
0.0
  9
$PUCSORGBACK
 10
0.0
 20
0.0
 30
0.0
  9
$USERI1
 70
     0
  9
$USERI2
 70
     0
  9
$USERI3
 70
     0
  9
$USERI4
 70
     0
  9
$USERI5
 70
     0
  9
$USERR1
 40
0.0
  9
$USERR2
 40
0.0
  9
$USERR3
 40
0.0
  9
$USERR4
 40
0.0
  9
$USERR5
 40
0.0
  9
$WORLDVIEW
 70
     1
  9
$SHADEDGE
 70
     3
  9
$SHADEDIF
 70
    70
  9
$TILEMODE
 70
     1
  9
$MAXACTVP
 70
    64
  9
$PINSBASE
 10
0.0
 20
0.0
 30
0.0
  9
$PLIMCHECK
 70
     0
  9
$PEXTMIN
 10
-0.5
 20
-0.5
 30
-0.5
  9
$PEXTMAX
 10
5.0
 20
5.0
 30
5.0
  9
$PLIMMIN
 10
-0.5
 20
-0.5
  9
$PLIMMAX
 10
5.0
 20
5.0
  9
$UNITMODE
 70
     0
  9
$VISRETAIN
 70
     1
  9
$PLINEGEN
 70
     0
  9
$PSLTSCALE
 70
     1
  9
$TREEDEPTH
 70
  3020
  9
$CMLSTYLE
  2
Standard
  9
$CMLJUST
 70
     0
  9
$CMLSCALE
 40
1.0
  9
$PROXYGRAPHICS
 70
     1
  9
$MEASUREMENT
 70
     0
  9
$CELWEIGHT
370
    18
  9
$ENDCAPS
280
     0
  9
$JOINSTYLE
280
     0
  9
$LWDISPLAY
290
     0
  9
$INSUNITS
 70
     1
  9
$HYPERLINKBASE
  1

  9
$STYLESHEET
  1

  9
$XEDIT
290
     1
  9
$CEPSNTYPE
380
     0
  9
$PSTYLEMODE
290
     1
  9
$FINGERPRINTGUID
  2
{C7CD64F8-7D8C-45D0-A281-31ED4289DB88}
  9
$VERSIONGUID
  2
{D5CAA68D-275B-40EC-9530-0A6A82845CCC}
  9
$EXTNAMES
290
     1
  9
$PSVPSCALE
 40
0.0
  9
$OLESTARTUP
290
     0
  0
ENDSEC
  0
SECTION
  2
CLASSES
  0
CLASS
  1
ACDBDICTIONARYWDFLT
  2
AcDbDictionaryWithDefault
  3
ObjectDBX Classes
 90
        0
280
     0
281
     0
  0
CLASS
  1
VISUALSTYLE
  2
AcDbVisualStyle
  3
ObjectDBX Classes
 90
     4095
280
     0
281
     0
  0
CLASS
  1
MATERIAL
  2
AcDbMaterial
  3
ObjectDBX Classes
 90
     1153
280
     0
281
     0
  0
CLASS
  1
SCALE
  2
AcDbScale
  3
ObjectDBX Classes
 90
     1153
280
     0
281
     0
  0
CLASS
  1
TABLESTYLE
  2
AcDbTableStyle
  3
ObjectDBX Classes
 90
     4095
280
     0
281
     0
  0
CLASS
  1
MLEADERSTYLE
  2
AcDbMLeaderStyle
  3
ACDB_MLEADERSTYLE_CLASS
 90
     4095
280
     0
281
     0
  0
CLASS
  1
SUN
  2
AcDbSun
  3
SCENEOE
 90
     1153
280
     0
281
     0
  0
CLASS
  1
DICTIONARYVAR
  2
AcDbDictionaryVar
  3
ObjectDBX Classes
 90
        0
280
     0
281
     0
  0
CLASS
  1
CELLSTYLEMAP
  2
AcDbCellStyleMap
  3
ObjectDBX Classes
 90
     1152
280
     0
281
     0
  0
CLASS
  1
ACDBSECTIONVIEWSTYLE
  2
AcDbSectionViewStyle
  3
ObjectDBX Classes
 90
     1025
280
     0
281
     0
  0
CLASS
  1
ACDBDETAILVIEWSTYLE
  2
AcDbDetailViewStyle
  3
ObjectDBX Classes
 90
     1025
280
     0
281
     0
  0
CLASS
  1
DIMASSOC
  2
AcDbDimAssoc
  3
"AcDbDimAssoc|Product Desc:     AcDim ARX App For Dimension|Company:          Autodesk, Inc.|WEB Address:      www.autodesk.com"
 90
        0
280
     0
281
     0
  0
CLASS
  1
ACDBPLACEHOLDER
  2
AcDbPlaceHolder
  3
ObjectDBX Classes
 90
        0
280
     0
281
     0
  0
CLASS
  1
LAYOUT
  2
AcDbLayout
  3
ObjectDBX Classes
 90
        0
280
     0
281
     0
  0
ENDSEC
  0
SECTION
  2
TABLES
  0
TABLE
  2
VPORT
  5
8
102
{ACAD_XDICTIONARY
360
350
102
}
330
0
100
AcDbSymbolTable
 70
    16
  0
VPORT
  5
29
330
8
100
AcDbSymbolTableRecord
100
AcDbViewportTableRecord
  2
*Active
 70
     0
 10
0.0
 20
0.0
 11
1.0
 21
1.0
 12
102.2998404757714
 22
106.7665900597288
 13
0.0
 23
0.0
 14
0.5
 24
0.5
 15
0.5
 25
0.5
 16
0.0
 26
0.0
 36
1.0
 17
0.0
 27
0.0
 37
0.0
 40
216.4601248510695
 41
2.079460269865067
 42
50.0
 43
26.41018930519607
 44
-26.41018930519607
 50
0.0
 51
0.0
 71
     0
 72
   100
 73
     1
 74
     3
 75
     0
 76
     0
 77
     0
 78
     0
281
     0
 65
     1
110
0.0
120
0.0
130
0.0
111
1.0
121
0.0
131
0.0
112
0.0
122
1.0
132
0.0
 79
     0
146
0.0
1001
ACAD_NAV_VCDISPLAY
1070
     3
  0
VPORT
  5
331
330
8
100
AcDbSymbolTableRecord
100
AcDbViewportTableRecord
  2
L1
 70
     0
 10
0.0
 20
0.0
 11
1.0
 21
1.0
 12
20.65607640519738
 22
20.29059619444934
 13
0.0
 23
0.0
 14
0.5
 24
0.5
 15
0.5
 25
0.5
 16
0.0
 26
0.0
 36
1.0
 17
0.0
 27
0.0
 37
0.0
 40
7.754444512795275
 41
2.289881206365368
 42
50.0
 43
26.41018930519607
 44
-26.41018930519607
 50
0.0
 51
0.0
 71
     0
 72
   100
 73
     1
 74
     3
 75
     0
 76
     0
 77
     0
 78
     0
281
     0
 65
     1
110
0.0
120
0.0
130
0.0
111
1.0
121
0.0
131
0.0
112
0.0
122
1.0
132
0.0
 79
     0
146
0.0
  0
VPORT
  5
332
330
8
100
AcDbSymbolTableRecord
100
AcDbViewportTableRecord
  2
L2
 70
     0
 10
0.0
 20
0.0
 11
0.5
 21
1.0
 12
0.0
 22
0.0
 13
0.0
 23
0.0
 14
0.5
 24
0.5
 15
0.5
 25
0.5
 16
0.0
 26
-1.0
 36
0.0
 17
0.0
 27
0.0
 37
0.0
 40
47.41469684970237
 41
0.3744990042209753
 42
50.0
 43
24.38075823657721
 44
-24.38075823657721
 50
0.0
 51
0.0
 71
     0
 72
   100
 73
     1
 74
     3
 75
     0
 76
     0
 77
     0
 78
     0
281
     0
 65
     1
110
0.0
120
0.0
130
0.0
111
1.0
121
0.0
131
0.0
112
0.0
122
1.0
132
0.0
 79
     0
146
0.0
  0
VPORT
  5
333
330
8
100
AcDbSymbolTableRecord
100
AcDbViewportTableRecord
  2
L2
 70
     0
 10
0.5
 20
0.0
 11
1.0
 21
1.0
 12
0.0
 22
0.0
 13
0.0
 23
0.0
 14
0.5
 24
0.5
 15
0.5
 25
0.5
 16
1.0
 26
0.0
 36
0.0
 17
0.0
 27
0.0
 37
0.0
 40
47.41469684970237
 41
0.3744990042209753
 42
50.0
 43
24.02230675357384
 44
-24.02230675357384
 50
0.0
 51
0.0
 71
     0
 72
   100
 73
     1
 74
     3
 75
     0
 76
     0
 77
     0
 78
     0
281
     0
 65
     1
110
0.0
120
0.0
130
0.0
111
1.0
121
0.0
131
0.0
112
0.0
122
1.0
132
0.0
 79
     0
146
0.0
  0
VPORT
  5
334
330
8
100
AcDbSymbolTableRecord
100
AcDbViewportTableRecord
  2
L3
 70
     0
 10
0.0
 20
0.5
 11
1.0
 21
1.0
 12
20.65607640519738
 22
20.29059619444934
 13
0.0
 23
0.0
 14
0.5
 24
0.5
 15
0.5
 25
0.5
 16
0.0
 26
0.0
 36
1.0
 17
0.0
 27
0.0
 37
0.0
 40
7.754444512795275
 41
2.289881206365368
 42
50.0
 43
26.41018930519607
 44
-26.41018930519607
 50
0.0
 51
0.0
 71
     0
 72
   100
 73
     1
 74
     3
 75
     0
 76
     0
 77
     0
 78
     0
281
     0
 65
     1
110
0.0
120
0.0
130
0.0
111
1.0
121
0.0
131
0.0
112
0.0
122
1.0
132
0.0
 79
     0
146
0.0
  0
VPORT
  5
335
330
8
100
AcDbSymbolTableRecord
100
AcDbViewportTableRecord
  2
L3
 70
     0
 10
0.0
 20
0.0
 11
1.0
 21
0.5
 12
0.0
 22
0.0
 13
0.0
 23
0.0
 14
0.5
 24
0.5
 15
0.5
 25
0.5
 16
0.0
 26
-1.0
 36
0.0
 17
0.0
 27
0.0
 37
0.0
 40
47.41469684970237
 41
0.3744990042209753
 42
50.0
 43
24.38075823657721
 44
-24.38075823657721
 50
0.0
 51
0.0
 71
     0
 72
   100
 73
     1
 74
     3
 75
     0
 76
     0
 77
     0
 78
     0
281
     0
 65
     1
110
0.0
120
0.0
130
0.0
111
1.0
121
0.0
131
0.0
112
0.0
122
1.0
132
0.0
 79
     0
146
0.0
  0
VPORT
  5
336
330
8
100
AcDbSymbolTableRecord
100
AcDbViewportTableRecord
  2
L4
 70
     0
 10
0.0
 20
0.5
 11
0.5
 21
1.0
 12
20.65607640519738
 22
20.29059619444934
 13
0.0
 23
0.0
 14
0.5
 24
0.5
 15
0.5
 25
0.5
 16
0.0
 26
0.0
 36
1.0
 17
0.0
 27
0.0
 37
0.0
 40
7.754444512795275
 41
2.289881206365368
 42
50.0
 43
26.41018930519607
 44
-26.41018930519607
 50
0.0
 51
0.0
 71
     0
 72
   100
 73
     1
 74
     3
 75
     0
 76
     0
 77
     0
 78
     0
281
     0
 65
     1
110
0.0
120
0.0
130
0.0
111
1.0
121
0.0
131
0.0
112
0.0
122
1.0
132
0.0
 79
     0
146
0.0
  0
VPORT
  5
337
330
8
100
AcDbSymbolTableRecord
100
AcDbViewportTableRecord
  2
L4
 70
     0
 10
0.0
 20
0.0
 11
0.5
 21
0.5
 12
0.0
 22
0.0
 13
0.0
 23
0.0
 14
0.5
 24
0.5
 15
0.5
 25
0.5
 16
0.0
 26
-1.0
 36
0.0
 17
0.0
 27
0.0
 37
0.0
 40
47.41469684970237
 41
0.3744990042209753
 42
50.0
 43
24.38075823657721
 44
-24.38075823657721
 50
0.0
 51
0.0
 71
     0
 72
   100
 73
     1
 74
     3
 75
     0
 76
     0
 77
     0
 78
     0
281
     0
 65
     1
110
0.0
120
0.0
130
0.0
111
1.0
121
0.0
131
0.0
112
0.0
122
1.0
132
0.0
 79
     0
146
0.0
  0
VPORT
  5
338
330
8
100
AcDbSymbolTableRecord
100
AcDbViewportTableRecord
  2
L4
 70
     0
 10
0.5
 20
0.0
 11
1.0
 21
0.5
 12
0.0
 22
0.0
 13
0.0
 23
0.0
 14
0.5
 24
0.5
 15
0.5
 25
0.5
 16
1.0
 26
0.0
 36
0.0
 17
0.0
 27
0.0
 37
0.0
 40
47.41469684970237
 41
0.3744990042209753
 42
50.0
 43
24.02230675357384
 44
-24.02230675357384
 50
0.0
 51
0.0
 71
     0
 72
   100
 73
     1
 74
     3
 75
     0
 76
     0
 77
     0
 78
     0
281
     0
 65
     1
110
0.0
120
0.0
130
0.0
111
1.0
121
0.0
131
0.0
112
0.0
122
1.0
132
0.0
 79
     0
146
0.0
  0
VPORT
  5
339
330
8
100
AcDbSymbolTableRecord
100
AcDbViewportTableRecord
  2
L4
 70
     0
 10
0.5
 20
0.5
 11
1.0
 21
1.0
 12
0.0
 22
0.0
 13
0.0
 23
0.0
 14
0.5
 24
0.5
 15
0.5
 25
0.5
 16
0.5773502691896259
 26
-0.5773502691896259
 36
0.5773502691896259
 17
0.0
 27
0.0
 37
0.0
 40
46.52603736697462
 41
0.3816520331528849
 42
50.0
 43
24.22683867650387
 44
-24.22683867650387
 50
0.0
 51
0.0
 71
     0
 72
   100
 73
     1
 74
     3
 75
     0
 76
     0
 77
     0
 78
     0
281
     0
 65
     1
110
0.0
120
0.0
130
0.0
111
1.0
121
0.0
131
0.0
112
0.0
122
1.0
132
0.0
 79
     0
146
0.0
  0
VPORT
  5
33A
330
8
100
AcDbSymbolTableRecord
100
AcDbViewportTableRecord
  2
L6
 70
     0
 10
0.0
 20
0.5
 11
0.3333333333333334
 21
1.0
 12
0.0
 22
0.0
 13
0.0
 23
0.0
 14
0.5
 24
0.5
 15
0.5
 25
0.5
 16
0.7188730927569435
 26
-0.5850486126764432
 36
0.3754192287502549
 17
0.0
 27
0.0
 37
0.0
 40
49.09808486001391
 41
0.3616588469037065
 42
50.0
 43
25.42056385205042
 44
-25.42056385205042
 50
0.0
 51
0.0
 71
     0
 72
   100
 73
     1
 74
     3
 75
     0
 76
     0
 77
     0
 78
     0
281
     0
 65
     1
110
0.0
120
0.0
130
0.0
111
1.0
121
0.0
131
0.0
112
0.0
122
1.0
132
0.0
 79
     0
146
0.0
  0
VPORT
  5
33B
330
8
100
AcDbSymbolTableRecord
100
AcDbViewportTableRecord
  2
L6
 70
     0
 10
0.0
 20
0.0
 11
0.3333333333333334
 21
0.5
 12
0.0
 22
0.0
 13
0.0
 23
0.0
 14
0.5
 24
0.5
 15
0.5
 25
0.5
 16
-1.0
 26
0.0
 36
0.0
 17
0.0
 27
0.0
 37
0.0
 40
47.41469684970237
 41
0.3744990042209753
 42
50.0
 43
24.02230675357384
 44
-24.02230675357384
 50
0.0
 51
0.0
 71
     0
 72
   100
 73
     1
 74
     3
 75
     0
 76
     0
 77
     0
 78
     0
281
     0
 65
     1
110
0.0
120
0.0
130
0.0
111
1.0
121
0.0
131
0.0
112
0.0
122
1.0
132
0.0
 79
     0
146
0.0
  0
VPORT
  5
33C
330
8
100
AcDbSymbolTableRecord
100
AcDbViewportTableRecord
  2
L6
 70
     0
 10
0.3333333333333334
 20
0.5
 11
0.6666666666666666
 21
1.0
 12
20.65607640519738
 22
20.29059619444934
 13
0.0
 23
0.0
 14
0.5
 24
0.5
 15
0.5
 25
0.5
 16
0.0
 26
0.0
 36
1.0
 17
0.0
 27
0.0
 37
0.0
 40
7.754444512795275
 41
2.289881206365368
 42
50.0
 43
26.41018930519607
 44
-26.41018930519607
 50
0.0
 51
0.0
 71
     0
 72
   100
 73
     1
 74
     3
 75
     0
 76
     0
 77
     0
 78
     0
281
     0
 65
     1
110
0.0
120
0.0
130
0.0
111
1.0
121
0.0
131
0.0
112
0.0
122
1.0
132
0.0
 79
     0
146
0.0
  0
VPORT
  5
33D
330
8
100
AcDbSymbolTableRecord
100
AcDbViewportTableRecord
  2
L6
 70
     0
 10
0.3333333333333334
 20
0.0
 11
0.6666666666666666
 21
0.5
 12
0.0
 22
0.0
 13
0.0
 23
0.0
 14
0.5
 24
0.5
 15
0.5
 25
0.5
 16
0.0
 26
-1.0
 36
0.0
 17
0.0
 27
0.0
 37
0.0
 40
47.41469684970237
 41
0.3744990042209753
 42
50.0
 43
24.38075823657721
 44
-24.38075823657721
 50
0.0
 51
0.0
 71
     0
 72
   100
 73
     1
 74
     3
 75
     0
 76
     0
 77
     0
 78
     0
281
     0
 65
     1
110
0.0
120
0.0
130
0.0
111
1.0
121
0.0
131
0.0
112
0.0
122
1.0
132
0.0
 79
     0
146
0.0
  0
VPORT
  5
33E
330
8
100
AcDbSymbolTableRecord
100
AcDbViewportTableRecord
  2
L6
 70
     0
 10
0.6666666666666666
 20
0.5
 11
1.0
 21
1.0
 12
0.0
 22
0.0
 13
0.0
 23
0.0
 14
0.5
 24
0.5
 15
0.5
 25
0.5
 16
0.5773502691896259
 26
-0.5773502691896259
 36
0.5773502691896259
 17
0.0
 27
0.0
 37
0.0
 40
46.52603736697462
 41
0.3816520331528849
 42
50.0
 43
24.22683867650387
 44
-24.22683867650387
 50
0.0
 51
0.0
 71
     0
 72
   100
 73
     1
 74
     3
 75
     0
 76
     0
 77
     0
 78
     0
281
     0
 65
     1
110
0.0
120
0.0
130
0.0
111
1.0
121
0.0
131
0.0
112
0.0
122
1.0
132
0.0
 79
     0
146
0.0
  0
VPORT
  5
33F
330
8
100
AcDbSymbolTableRecord
100
AcDbViewportTableRecord
  2
L6
 70
     0
 10
0.6666666666666666
 20
0.0
 11
1.0
 21
0.5
 12
0.0
 22
0.0
 13
0.0
 23
0.0
 14
0.5
 24
0.5
 15
0.5
 25
0.5
 16
1.0
 26
0.0
 36
0.0
 17
0.0
 27
0.0
 37
0.0
 40
47.41469684970237
 41
0.3744990042209753
 42
50.0
 43
24.02230675357384
 44
-24.02230675357384
 50
0.0
 51
0.0
 71
     0
 72
   100
 73
     1
 74
     3
 75
     0
 76
     0
 77
     0
 78
     0
281
     0
 65
     1
110
0.0
120
0.0
130
0.0
111
1.0
121
0.0
131
0.0
112
0.0
122
1.0
132
0.0
 79
     0
146
0.0
  0
ENDTAB
  0
TABLE
  2
LTYPE
  5
5
330
0
100
AcDbSymbolTable
 70
     6
  0
LTYPE
  5
14
330
5
100
AcDbSymbolTableRecord
100
AcDbLinetypeTableRecord
  2
ByBlock
 70
     0
  3

 72
    65
 73
     0
 40
0.0
  0
LTYPE
  5
15
330
5
100
AcDbSymbolTableRecord
100
AcDbLinetypeTableRecord
  2
ByLayer
 70
     0
  3

 72
    65
 73
     0
 40
0.0
  0
LTYPE
  5
16
330
5
100
AcDbSymbolTableRecord
100
AcDbLinetypeTableRecord
  2
Continuous
 70
     0
  3
Solid line
 72
    65
 73
     0
 40
0.0
  0
LTYPE
  5
6E
330
5
100
AcDbSymbolTableRecord
100
AcDbLinetypeTableRecord
  2
CENTER
 70
     0
  3
____ _ ____ _ ____ _ ____
 72
    65
 73
     4
 40
47.4
 49
22.0
 74
     4
 75
     0
340
0
 46
0.0
 50
0.0
 44
0.0
 45
0.0
 49
-8.5
 74
     4
 75
     0
340
0
 46
0.0
 50
0.0
 44
0.0
 45
0.0
 49
8.5
 74
     4
 75
     0
340
0
 46
0.0
 50
0.0
 44
0.0
 45
0.0
 49
-8.5
 74
     4
 75
     0
340
0
 46
0.0
 50
0.0
 44
0.0
 45
0.0
  0
LTYPE
  5
6F
330
5
100
AcDbSymbolTableRecord
100
AcDbLinetypeTableRecord
  2
DASHDOT
 70
     0
  3
_._._._._._._._._._._._._._._._.
 72
    65
 73
     4
 40
70.0
 49
31.0
 74
     4
 75
     0
340
0
 46
0.0
 50
0.0
 44
0.0
 45
0.0
 49
-13.0
 74
     4
 75
     0
340
0
 46
0.0
 50
0.0
 44
0.0
 45
0.0
 49
13.0
 74
     4
 75
     0
340
0
 46
0.0
 50
0.0
 44
0.0
 45
0.0
 49
-13.0
 74
     4
 75
     0
340
0
 46
0.0
 50
0.0
 44
0.0
 45
0.0
  0
LTYPE
  5
70
330
5
100
AcDbSymbolTableRecord
100
AcDbLinetypeTableRecord
  2
DASHED
 70
     0
  3
__ __ __ __ __ __ __ __ __
 72
    65
 73
     2
 40
25.72
 49
12.86
 74
     4
 75
     0
340
0
 46
0.0
 50
0.0
 44
0.0
 45
0.0
 49
-12.86
 74
     4
 75
     0
340
0
 46
0.0
 50
0.0
 44
0.0
 45
0.0
  0
LTYPE
  5
71
330
5
100
AcDbSymbolTableRecord
100
AcDbLinetypeTableRecord
  2
DOT
 70
     0
  3
.........................
 72
    65
 73
     2
 40
10.0
 49
0.0
 74
     4
 75
     0
340
0
 46
0.0
 50
0.0
 44
0.0
 45
0.0
 49
-10.0
 74
     4
 75
     0
340
0
 46
0.0
 50
0.0
 44
0.0
 45
0.0
  0
LTYPE
  5
72
330
5
100
AcDbSymbolTableRecord
100
AcDbLinetypeTableRecord
  2
PHANTOM
 70
     0
  3
____ _ _ ____ _ _ _____ _ _ ____
 72
    65
 73
     6
 40
50.5
 49
18.0
 74
     4
 75
     0
340
0
 46
0.0
 50
0.0
 44
0.0
 45
0.0
 49
-6.5
 74
     4
 75
     0
340
0
 46
0.0
 50
0.0
 44
0.0
 45
0.0
 49
6.5
 74
     4
 75
     0
340
0
 46
0.0
 50
0.0
 44
0.0
 45
0.0
 49
-6.5
 74
     4
 75
     0
340
0
 46
0.0
 50
0.0
 44
0.0
 45
0.0
 49
6.5
 74
     4
 75
     0
340
0
 46
0.0
 50
0.0
 44
0.0
 45
0.0
 49
-6.5
 74
     4
 75
     0
340
0
 46
0.0
 50
0.0
 44
0.0
 45
0.0
  0
ENDTAB
  0
TABLE
  2
LAYER
  5
2
330
0
100
AcDbSymbolTable
 70
     3
  0
LAYER
  5
10
102
{ACAD_XDICTIONARY
360
3BA
102
}
330
2
100
AcDbSymbolTableRecord
100
AcDbLayerTableRecord
  2
0
 70
     0
 62
     7
  6
Continuous
370
    -3
390
F
  0
LAYER
  5
74
102
{ACAD_XDICTIONARY
360
3BC
102
}
330
2
100
AcDbSymbolTableRecord
100
AcDbLayerTableRecord
  2
1
 70
     0
 62
     7
  6
Continuous
370
    -3
390
F
  0
LAYER
  5
3A0
330
2
100
AcDbSymbolTableRecord
100
AcDbLayerTableRecord
  2
Defpoints
 70
     0
 62
     7
  6
Continuous
290
     0
370
    -3
390
F
  0
ENDTAB
  0
TABLE
  2
STYLE
  5
3
330
0
100
AcDbSymbolTable
 70
     1
  0
STYLE
  5
11
330
3
100
AcDbSymbolTableRecord
100
AcDbTextStyleTableRecord
  2
Standard
 70
     0
 40
0.0
 41
1.0
 50
0.0
 71
     0
 42
0.2
  3
txt
  4

  0
ENDTAB
  0
TABLE
  2
VIEW
  5
6
330
0
100
AcDbSymbolTable
 70
     8
  0
VIEW
  5
329
330
6
100
AcDbSymbolTableRecord
100
AcDbViewTableRecord
  2
Top
 70
     0
 40
7.754444512795275
 10
20.65607640519738
 20
20.29059619444934
 41
11.38121309055118
 11
0.0
 21
0.0
 31
1.0
 12
0.0
 22
0.0
 32
0.0
 42
50.0
 43
26.41018930519607
 44
-26.41018930519607
 50
0.0
 71
     0
281
     0
 72
     0
  0
VIEW
  5
32A
330
6
100
AcDbSymbolTableRecord
100
AcDbViewTableRecord
  2
Front
 70
     0
 40
47.41469684970237
 10
0.0
 20
0.0
 41
11.38121309055118
 11
0.0
 21
-1.0
 31
0.0
 12
0.0
 22
0.0
 32
0.0
 42
50.0
 43
24.38075823657721
 44
-24.38075823657721
 50
0.0
 71
     0
281
     0
 72
     0
  0
VIEW
  5
32B
330
6
100
AcDbSymbolTableRecord
100
AcDbViewTableRecord
  2
Right
 70
     0
 40
47.41469684970237
 10
0.0
 20
0.0
 41
7.754444512795275
 11
1.0
 21
0.0
 31
0.0
 12
0.0
 22
0.0
 32
0.0
 42
50.0
 43
24.02230675357384
 44
-24.02230675357384
 50
0.0
 71
     0
281
     0
 72
     0
  0
VIEW
  5
32C
330
6
100
AcDbSymbolTableRecord
100
AcDbViewTableRecord
  2
Back
 70
     0
 40
47.41469684970237
 10
0.0
 20
0.0
 41
11.38121309055118
 11
0.0
 21
1.0
 31
0.0
 12
0.0
 22
0.0
 32
0.0
 42
50.0
 43
24.38075823657721
 44
-24.38075823657721
 50
0.0
 71
     0
281
     0
 72
     0
  0
VIEW
  5
32D
330
6
100
AcDbSymbolTableRecord
100
AcDbViewTableRecord
  2
Bottom
 70
     0
 40
7.754444512795275
 10
0.0
 20
0.0
 41
11.38121309055118
 11
0.0
 21
0.0
 31
-1.0
 12
0.0
 22
0.0
 32
0.0
 42
50.0
 43
23.70734842485119
 44
-23.70734842485119
 50
180.0
 71
     0
281
     0
 72
     0
  0
VIEW
  5
32E
330
6
100
AcDbSymbolTableRecord
100
AcDbViewTableRecord
  2
Left
 70
     0
 40
47.41469684970237
 10
0.0
 20
0.0
 41
7.754444512795275
 11
-1.0
 21
0.0
 31
0.0
 12
0.0
 22
0.0
 32
0.0
 42
50.0
 43
24.02230675357384
 44
-24.02230675357384
 50
0.0
 71
     0
281
     0
 72
     0
  0
VIEW
  5
32F
330
6
100
AcDbSymbolTableRecord
100
AcDbViewTableRecord
  2
Isometric
 70
     0
 40
46.52603736697462
 10
0.0
 20
0.0
 41
13.5309532537902
 11
0.5773502691896259
 21
-0.5773502691896259
 31
0.5773502691896259
 12
0.0
 22
0.0
 32
0.0
 42
50.0
 43
24.22683867650387
 44
-24.22683867650387
 50
0.0
 71
     0
281
     0
 72
     0
  0
VIEW
  5
330
330
6
100
AcDbSymbolTableRecord
100
AcDbViewTableRecord
  2
Trimetric
 70
     0
 40
49.09808486001391
 10
0.0
 20
0.0
 41
13.19842147014417
 11
0.7188730927569435
 21
-0.5850486126764432
 31
0.3754192287502549
 12
0.0
 22
0.0
 32
0.0
 42
50.0
 43
25.42056385205042
 44
-25.42056385205042
 50
0.0
 71
     0
281
     0
 72
     0
  0
ENDTAB
  0
TABLE
  2
UCS
  5
7
330
0
100
AcDbSymbolTable
 70
     0
  0
ENDTAB
  0
TABLE
  2
APPID
  5
9
330
0
100
AcDbSymbolTable
 70
     3
  0
APPID
  5
12
330
9
100
AcDbSymbolTableRecord
100
AcDbRegAppTableRecord
  2
ACAD
 70
     0
  0
APPID
  5
38F
330
9
100
AcDbSymbolTableRecord
100
AcDbRegAppTableRecord
  2
ACAD_MLEADERVER
 70
     0
  0
APPID
  5
3BE
330
9
100
AcDbSymbolTableRecord
100
AcDbRegAppTableRecord
  2
ACAD_NAV_VCDISPLAY
 70
     0
  0
ENDTAB
  0
TABLE
  2
DIMSTYLE
  5
A
330
0
100
AcDbSymbolTable
 70
     1
100
AcDbDimStyleTable
 71
     1
340
27
  0
DIMSTYLE
105
27
330
A
100
AcDbSymbolTableRecord
100
AcDbDimStyleTableRecord
  2
Standard
 70
     0
340
11
  0
ENDTAB
  0
TABLE
  2
BLOCK_RECORD
  5
1
330
0
100
AcDbSymbolTable
 70
     2
  0
BLOCK_RECORD
  5
1F
330
1
100
AcDbSymbolTableRecord
100
AcDbBlockTableRecord
  2
*Model_Space
340
22
  0
BLOCK_RECORD
  5
1B
330
1
100
AcDbSymbolTableRecord
100
AcDbBlockTableRecord
  2
*Paper_Space
340
1E
  0
BLOCK_RECORD
  5
23
330
1
100
AcDbSymbolTableRecord
100
AcDbBlockTableRecord
  2
*Paper_Space0
340
26
  0
BLOCK_RECORD
  5
3A1
330
1
100
AcDbSymbolTableRecord
100
AcDbBlockTableRecord
  2
*D1
340
0
  0
ENDTAB
  0
ENDSEC
  0
SECTION
  2
BLOCKS
  0
BLOCK
  5
20
330
1F
100
AcDbEntity
  8
0
100
AcDbBlockBegin
  2
*Model_Space
 70
     0
 10
0.0
 20
0.0
 30
0.0
  3
*Model_Space
  1

  0
ENDBLK
  5
21
330
1F
100
AcDbEntity
  8
0
100
AcDbBlockEnd
  0
BLOCK
  5
1C
330
1B
100
AcDbEntity
 67
     1
  8
0
100
AcDbBlockBegin
  2
*Paper_Space
 70
     0
 10
0.0
 20
0.0
 30
0.0
  3
*Paper_Space
  1

  0
ENDBLK
  5
1D
330
1B
100
AcDbEntity
 67
     1
  8
0
100
AcDbBlockEnd
  0
BLOCK
  5
24
330
23
100
AcDbEntity
 67
     1
  8
0
100
AcDbBlockBegin
  2
*Paper_Space0
 70
     0
 10
0.0
 20
0.0
 30
0.0
  3
*Paper_Space0
  1

  0
ENDBLK
  5
25
330
23
100
AcDbEntity
 67
     1
  8
0
100
AcDbBlockEnd
  0
BLOCK
  5
3A2
330
3A1
100
AcDbEntity
  8
0
370
    18
100
AcDbBlockBegin
  2
*D1
 70
     1
 10
0.0
 20
0.0
 30
0.0
  3
*D1
  1

  0
LINE
  5
3AF
330
3A1
100
AcDbEntity
  8
0
 62
     0
370
    -2
100
AcDbLine
 10
202.6293334960937
 20
188.0756683349609
 30
0.0
 11
192.1055734336641
 21
188.0756683349609
 31
0.0
  0
LINE
  5
3B0
330
3A1
100
AcDbEntity
  8
0
 62
     0
370
    -2
100
AcDbLine
 10
203.0348510742188
 20
110.7423254261238
 30
0.0
 11
192.1055734336641
 21
110.7423254261238
 31
0.0
  0
LINE
  5
3B1
330
3A1
100
AcDbEntity
  8
0
 62
     0
370
    -2
100
AcDbLine
 10
192.2855734336641
 20
187.8956683349609
 30
0.0
 11
192.2855734336641
 21
149.5889968805423
 31
0.0
  0
LINE
  5
3B2
330
3A1
100
AcDbEntity
  8
0
 62
     0
370
    -2
100
AcDbLine
 10
192.2855734336641
 20
110.9223254261238
 30
0.0
 11
192.2855734336641
 21
149.2289968805423
 31
0.0
  0
SOLID
  5
3B3
330
3A1
100
AcDbEntity
  8
0
 62
     0
370
    18
100
AcDbTrace
 10
192.2555734336641
 20
187.8956683349609
 30
0.0
 11
192.3155734336641
 21
187.8956683349609
 31
0.0
 12
192.2855734336641
 22
188.0756683349609
 32
0.0
 13
192.2855734336641
 23
188.0756683349609
 33
0.0
  0
SOLID
  5
3B4
330
3A1
100
AcDbEntity
  8
0
 62
     0
370
    18
100
AcDbTrace
 10
192.2555734336641
 20
110.9223254261238
 30
0.0
 11
192.3155734336641
 21
110.9223254261238
 31
0.0
 12
192.2855734336641
 22
110.7423254261238
 32
0.0
 13
192.2855734336641
 23
110.7423254261238
 33
0.0
  0
MTEXT
  5
3B5
330
3A1
100
AcDbEntity
  8
0
 62
     0
370
    18
100
AcDbMText
 10
192.2855734336641
 20
149.4089968805424
 30
0.0
 40
0.18
 41
0.0
 71
     5
 72
     1
  1
\A1;77.3333
 73
     1
 44
1.0
1001
ACAD
1000
MTEXTBEGIN
1070
    73
1070
     1
1070
    44
1040
1.0
1070
    74
1070
     0
1000
MTEXTEND
  0
POINT
  5
3B6
330
3A1
100
AcDbEntity
  8
Defpoints
 62
     0
370
    18
100
AcDbPoint
 10
202.6918334960937
 20
188.0756683349609
 30
0.0
  0
POINT
  5
3B7
330
3A1
100
AcDbEntity
  8
Defpoints
 62
     0
370
    18
100
AcDbPoint
 10
203.0973510742188
 20
110.7423254261238
 30
0.0
  0
POINT
  5
3B8
330
3A1
100
AcDbEntity
  8
Defpoints
 62
     0
370
    18
100
AcDbPoint
 10
192.2855734336641
 20
110.7423254261238
 30
0.0
  0
ENDBLK
  5
3A3
330
3A1
100
AcDbEntity
  8
0
370
    18
100
AcDbBlockEnd
  0
ENDSEC
  0
SECTION
  2
ENTITIES
  0
LINE
  5
73
330
1F
100
AcDbEntity
  8
1
  6
Continuous
 62
    31
370
    18
100
AcDbLine
 10
161.1046142578125
 20
110.7410202026367
 30
0.0
 11
161.1046142578125
 21
124.8886642456054
 31
0.0
  0
LINE
  5
75
330
1F
100
AcDbEntity
  8
1
  6
Continuous
 62
    31
370
    18
100
AcDbLine
 10
161.15185546875
 20
110.7410202026367
 30
0.0
 11
161.15185546875
 21
124.8886642456054
 31
0.0
  0
LINE
  5
76
330
1F
100
AcDbEntity
  8
1
  6
Continuous
 62
    31
370
    18
100
AcDbLine
 10
161.1046142578125
 20
125.0067596435547
 30
0.0
 11
161.15185546875
 21
125.0067596435547
 31
0.0
  0
LINE
  5
77
330
1F
100
AcDbEntity
  8
1
  6
Continuous
 62
    31
370
    18
100
AcDbLine
 10
161.15185546875
 20
110.6229095458984
 30
0.0
 11
161.1046142578125
 21
110.6229095458984
 31
0.0
  0
LINE
  5
78
330
1F
100
AcDbEntity
  8
1
  6
Continuous
 62
    31
370
    18
100
AcDbLine
 10
161.6903839111328
 20
123.9800415039062
 30
0.0
 11
162.4400939941406
 21
123.2303390502929
 31
0.0
  0
LINE
  5
79
330
1F
100
AcDbEntity
  8
1
  6
Continuous
 62
    31
370
    18
100
AcDbLine
 10
162.4746856689453
 20
112.4828567504883
 30
0.0
 11
162.4746856689453
 21
123.1468276977539
 31
0.0
  0
LINE
  5
7A
330
1F
100
AcDbEntity
  8
1
  6
Continuous
 62
    31
370
    18
100
AcDbLine
 10
161.6903839111328
 20
111.6496276855468
 30
0.0
 11
162.4400939941406
 21
112.3993377685547
 31
0.0
  0
LINE
  5
7B
330
1F
100
AcDbEntity
  8
1
  6
Continuous
 62
    31
370
    18
100
AcDbLine
 10
161.6557922363281
 20
110.7410202026367
 30
0.0
 11
161.6557922363281
 21
111.5661087036132
 31
0.0
  0
LINE
  5
7C
330
1F
100
AcDbEntity
  8
1
  6
Continuous
 62
    31
370
    18
100
AcDbLine
 10
161.6557922363281
 20
124.8886642456054
 30
0.0
 11
161.6557922363281
 21
124.0635604858398
 31
0.0
  0
LINE
  5
7D
330
1F
100
AcDbEntity
  8
1
  6
Continuous
 62
    31
370
    18
100
AcDbLine
 10
161.1912231445312
 20
110.6229095458984
 30
0.0
 11
161.5376892089843
 21
110.6229095458984
 31
0.0
  0
LINE
  5
7E
330
1F
100
AcDbEntity
  8
1
  6
Continuous
 62
    31
370
    18
100
AcDbLine
 10
161.5376892089843
 20
125.0067596435547
 30
0.0
 11
161.1912231445312
 21
125.0067596435547
 31
0.0
  0
LINE
  5
7F
330
1F
100
AcDbEntity
  8
1
  6
Continuous
 62
    30
370
    18
100
AcDbLine
 10
155.3565826416015
 20
137.6450805664062
 30
0.0
 11
154.4116973876953
 21
137.6450805664062
 31
0.0
  0
LINE
  5
80
330
1F
100
AcDbEntity
  8
1
  6
Continuous
 62
    30
370
    18
100
AcDbLine
 10
154.2935791015625
 20
137.763198852539
 30
0.0
 11
154.2935791015625
 21
145.6643371582031
 31
0.0
  0
LINE
  5
81
330
1F
100
AcDbEntity
  8
1
  6
Continuous
 62
    30
370
    18
100
AcDbLine
 10
155.3565826416015
 20
145.7824554443359
 30
0.0
 11
154.4116973876953
 21
145.7824554443359
 31
0.0
  0
LINE
  5
82
330
1F
100
AcDbEntity
  8
1
  6
Continuous
 62
    30
370
    18
100
AcDbLine
 10
155.4746856689453
 20
145.6643371582031
 30
0.0
 11
155.4746856689453
 21
141.8534393310547
 31
0.0
  0
LINE
  5
83
330
1F
100
AcDbEntity
  8
1
  6
Continuous
 62
    30
370
    18
100
AcDbLine
 10
155.4156341552734
 20
141.7511596679687
 30
0.0
 11
155.0809936523437
 21
141.5579528808593
 31
0.0
  0
LINE
  5
84
330
1F
100
AcDbEntity
  8
1
  6
Continuous
 62
    30
370
    18
100
AcDbLine
 10
155.0809936523437
 20
141.5579528808593
 30
0.0
 11
155.0809936523437
 21
139.235107421875
 31
0.0
  0
LINE
  5
85
330
1F
100
AcDbEntity
  8
1
  6
Continuous
 62
    30
370
    18
100
AcDbLine
 10
155.0809936523437
 20
139.235107421875
 30
0.0
 11
155.4156341552734
 21
139.0419006347656
 31
0.0
  0
LINE
  5
86
330
1F
100
AcDbEntity
  8
1
  6
Continuous
 62
    30
370
    18
100
AcDbLine
 10
155.4746856689453
 20
138.9396209716797
 30
0.0
 11
155.4746856689453
 21
137.763198852539
 31
0.0
  0
LINE
  5
87
330
1F
100
AcDbEntity
  8
1
  6
Continuous
 62
    31
370
    18
100
AcDbLine
 10
126.7739105224609
 20
142.9798278808593
 30
0.0
 11
126.7266540527343
 21
142.9798278808593
 31
0.0
  0
LINE
  5
88
330
1F
100
AcDbEntity
  8
1
  6
Continuous
 62
    31
370
    18
100
AcDbLine
 10
126.7739105224609
 20
157.2455749511719
 30
0.0
 11
126.7739105224609
 21
143.0979461669922
 31
0.0
  0
LINE
  5
89
330
1F
100
AcDbEntity
  8
1
  6
Continuous
 62
    31
370
    18
100
AcDbLine
 10
126.7266540527343
 20
157.2455749511719
 30
0.0
 11
126.7266540527343
 21
143.0979461669922
 31
0.0
  0
LINE
  5
8A
330
1F
100
AcDbEntity
  8
1
  6
Continuous
 62
    31
370
    18
100
AcDbLine
 10
126.7266540527343
 20
157.3636932373046
 30
0.0
 11
126.7739105224609
 21
157.3636932373046
 31
0.0
  0
LINE
  5
8B
330
1F
100
AcDbEntity
  8
1
  6
Continuous
 62
    31
370
    18
100
AcDbLine
 10
126.1881256103515
 20
144.0065460205078
 30
0.0
 11
125.4384155273437
 21
144.7562561035156
 31
0.0
  0
LINE
  5
8C
330
1F
100
AcDbEntity
  8
1
  6
Continuous
 62
    31
370
    18
100
AcDbLine
 10
125.4038162231445
 20
155.5037384033203
 30
0.0
 11
125.4038162231445
 21
144.8397827148437
 31
0.0
  0
LINE
  5
8D
330
1F
100
AcDbEntity
  8
1
  6
Continuous
 62
    31
370
    18
100
AcDbLine
 10
126.1881256103515
 20
156.3369750976562
 30
0.0
 11
125.4384155273437
 21
155.5872497558594
 31
0.0
  0
LINE
  5
8E
330
1F
100
AcDbEntity
  8
1
  6
Continuous
 62
    31
370
    18
100
AcDbLine
 10
126.2227249145507
 20
157.2455749511719
 30
0.0
 11
126.2227249145507
 21
156.4204864501953
 31
0.0
  0
LINE
  5
8F
330
1F
100
AcDbEntity
  8
1
  6
Continuous
 62
    31
370
    18
100
AcDbLine
 10
126.2227249145507
 20
143.0979461669922
 30
0.0
 11
126.2227249145507
 21
143.9230346679687
 31
0.0
  0
LINE
  5
90
330
1F
100
AcDbEntity
  8
1
  6
Continuous
 62
    31
370
    18
100
AcDbLine
 10
126.6872940063476
 20
157.3636932373046
 30
0.0
 11
126.340835571289
 21
157.3636932373046
 31
0.0
  0
LINE
  5
91
330
1F
100
AcDbEntity
  8
1
  6
Continuous
 62
    31
370
    18
100
AcDbLine
 10
126.340835571289
 20
142.9798278808593
 30
0.0
 11
126.6872940063476
 21
142.9798278808593
 31
0.0
  0
LINE
  5
92
330
1F
100
AcDbEntity
  8
1
  6
Continuous
 62
    21
370
    18
100
AcDbLine
 10
154.057373046875
 20
188.0756683349609
 30
0.0
 11
154.1046142578125
 21
188.0756683349609
 31
0.0
  0
LINE
  5
93
330
1F
100
AcDbEntity
  8
1
  6
Continuous
 62
    21
370
    18
100
AcDbLine
 10
154.1046142578125
 20
153.5087432861328
 30
0.0
 11
154.057373046875
 21
153.5087432861328
 31
0.0
  0
LINE
  5
94
330
1F
100
AcDbEntity
  8
1
  6
Continuous
 62
    21
370
    18
100
AcDbLine
 10
154.057373046875
 20
153.6268463134765
 30
0.0
 11
154.057373046875
 21
187.9575500488281
 31
0.0
  0
LINE
  5
95
330
1F
100
AcDbEntity
  8
1
  6
Continuous
 62
    21
370
    18
100
AcDbLine
 10
154.1046142578125
 20
153.6268463134765
 30
0.0
 11
154.1046142578125
 21
187.9575500488281
 31
0.0
  0
LINE
  5
96
330
1F
100
AcDbEntity
  8
1
  6
Continuous
 62
    21
370
    18
100
AcDbLine
 10
155.3880767822265
 20
187.642593383789
 30
0.0
 11
155.0652313232422
 21
187.642593383789
 31
0.0
  0
LINE
  5
97
330
1F
100
AcDbEntity
  8
1
  6
Continuous
 62
    21
370
    18
100
AcDbLine
 10
154.8841400146484
 20
154.5717163085937
 30
0.0
 11
155.3880767822265
 21
155.0756683349609
 31
0.0
  0
LINE
  5
98
330
1F
100
AcDbEntity
  8
1
  6
Continuous
 62
    21
370
    18
100
AcDbLine
 10
154.7266540527344
 20
154.5717163085937
 30
0.0
 11
154.8841400146484
 21
154.5717163085937
 31
0.0
  0
LINE
  5
99
330
1F
100
AcDbEntity
  8
1
  6
Continuous
 62
    21
370
    18
100
AcDbLine
 10
154.6085510253906
 20
153.6268463134765
 30
0.0
 11
154.6085510253906
 21
154.453628540039
 31
0.0
  0
LINE
  5
9A
330
1F
100
AcDbEntity
  8
1
  6
Continuous
 62
    21
370
    18
100
AcDbLine
 10
154.9471282958984
 20
187.7607116699218
 30
0.0
 11
154.9471282958984
 21
187.9575500488281
 31
0.0
  0
LINE
  5
9B
330
1F
100
AcDbEntity
  8
1
  6
Continuous
 62
    21
370
    18
100
AcDbLine
 10
154.1439819335937
 20
188.0756683349609
 30
0.0
 11
154.8290252685547
 21
188.0756683349609
 31
0.0
  0
LINE
  5
9C
330
1F
100
AcDbEntity
  8
1
  6
Continuous
 62
    21
370
    18
100
AcDbLine
 10
154.4904327392578
 20
153.5087432861328
 30
0.0
 11
154.1439819335937
 21
153.5087432861328
 31
0.0
  0
LINE
  5
9D
330
1F
100
AcDbEntity
  8
1
  6
Continuous
 62
    21
370
    18
100
AcDbLine
 10
155.4746856689453
 20
177.9913330078125
 30
0.0
 11
155.4746856689453
 21
155.1188354492187
 31
0.0
  0
LINE
  5
9E
330
1F
100
AcDbEntity
  8
1
  6
Continuous
 62
    21
370
    18
100
AcDbLine
 10
155.4746856689453
 20
187.642593383789
 30
0.0
 11
155.4746856689453
 21
185.8926696777343
 31
0.0
  0
LINE
  5
9F
330
1F
100
AcDbEntity
  8
1
  6
Continuous
 62
   211
370
    18
100
AcDbLine
 10
133.7739105224609
 20
188.0756683349609
 30
0.0
 11
133.8211517333984
 21
188.0756683349609
 31
0.0
  0
LINE
  5
A0
330
1F
100
AcDbEntity
  8
1
  6
Continuous
 62
   211
370
    18
100
AcDbLine
 10
133.8211517333984
 20
153.6268463134765
 30
0.0
 11
133.8211517333984
 21
187.9575500488281
 31
0.0
  0
LINE
  5
A1
330
1F
100
AcDbEntity
  8
1
  6
Continuous
 62
   211
370
    18
100
AcDbLine
 10
133.7739105224609
 20
153.6268463134765
 30
0.0
 11
133.7739105224609
 21
187.9575500488281
 31
0.0
  0
LINE
  5
A2
330
1F
100
AcDbEntity
  8
1
  6
Continuous
 62
   211
370
    18
100
AcDbLine
 10
133.8211517333984
 20
153.5087432861328
 30
0.0
 11
133.7739105224609
 21
153.5087432861328
 31
0.0
  0
LINE
  5
A3
330
1F
100
AcDbEntity
  8
1
  6
Continuous
 62
   211
370
    18
100
AcDbLine
 10
132.403823852539
 20
155.1188354492187
 30
0.0
 11
132.403823852539
 21
177.9913330078125
 31
0.0
  0
LINE
  5
A4
330
1F
100
AcDbEntity
  8
1
  6
Continuous
 62
   211
370
    18
100
AcDbLine
 10
133.15185546875
 20
154.5717163085937
 30
0.0
 11
132.994384765625
 21
154.5717163085937
 31
0.0
  0
LINE
  5
A5
330
1F
100
AcDbEntity
  8
1
  6
Continuous
 62
   211
370
    18
100
AcDbLine
 10
132.4904327392578
 20
187.642593383789
 30
0.0
 11
132.8132781982422
 21
187.642593383789
 31
0.0
  0
LINE
  5
A6
330
1F
100
AcDbEntity
  8
1
  6
Continuous
 62
   211
370
    18
100
AcDbLine
 10
132.9313812255859
 20
187.7607116699218
 30
0.0
 11
132.9313812255859
 21
187.9575500488281
 31
0.0
  0
LINE
  5
A7
330
1F
100
AcDbEntity
  8
1
  6
Continuous
 62
   211
370
    18
100
AcDbLine
 10
133.2699584960937
 20
153.6268463134765
 30
0.0
 11
133.2699584960937
 21
154.453628540039
 31
0.0
  0
LINE
  5
A8
330
1F
100
AcDbEntity
  8
1
  6
Continuous
 62
   211
370
    18
100
AcDbLine
 10
132.4904327392578
 20
155.0756683349609
 30
0.0
 11
132.994384765625
 21
154.5717163085937
 31
0.0
  0
LINE
  5
A9
330
1F
100
AcDbEntity
  8
1
  6
Continuous
 62
   211
370
    18
100
AcDbLine
 10
133.3880767822265
 20
153.5087432861328
 30
0.0
 11
133.7345275878906
 21
153.5087432861328
 31
0.0
  0
LINE
  5
AA
330
1F
100
AcDbEntity
  8
1
  6
Continuous
 62
   211
370
    18
100
AcDbLine
 10
133.7345275878906
 20
188.0756683349609
 30
0.0
 11
133.0494995117187
 21
188.0756683349609
 31
0.0
  0
LINE
  5
AB
330
1F
100
AcDbEntity
  8
1
  6
Continuous
 62
   211
370
    18
100
AcDbLine
 10
132.403823852539
 20
185.8926696777343
 30
0.0
 11
132.403823852539
 21
187.642593383789
 31
0.0
  0
LINE
  5
AC
330
1F
100
AcDbEntity
  8
1
  6
Continuous
 62
    31
370
    18
100
AcDbLine
 10
126.7739105224609
 20
110.6229095458984
 30
0.0
 11
126.7266540527343
 21
110.6229095458984
 31
0.0
  0
LINE
  5
AD
330
1F
100
AcDbEntity
  8
1
  6
Continuous
 62
    31
370
    18
100
AcDbLine
 10
126.7739105224609
 20
124.8886642456054
 30
0.0
 11
126.7739105224609
 21
110.7410202026367
 31
0.0
  0
LINE
  5
AE
330
1F
100
AcDbEntity
  8
1
  6
Continuous
 62
    31
370
    18
100
AcDbLine
 10
126.7266540527343
 20
124.8886642456054
 30
0.0
 11
126.7266540527343
 21
110.7410202026367
 31
0.0
  0
LINE
  5
AF
330
1F
100
AcDbEntity
  8
1
  6
Continuous
 62
    31
370
    18
100
AcDbLine
 10
126.7266540527343
 20
125.0067596435547
 30
0.0
 11
126.7739105224609
 21
125.0067596435547
 31
0.0
  0
LINE
  5
B0
330
1F
100
AcDbEntity
  8
1
  6
Continuous
 62
    31
370
    18
100
AcDbLine
 10
126.1881256103515
 20
111.6496276855468
 30
0.0
 11
125.4384155273437
 21
112.3993377685547
 31
0.0
  0
LINE
  5
B1
330
1F
100
AcDbEntity
  8
1
  6
Continuous
 62
    31
370
    18
100
AcDbLine
 10
125.4038162231445
 20
123.1468276977539
 30
0.0
 11
125.4038162231445
 21
112.4828567504883
 31
0.0
  0
LINE
  5
B2
330
1F
100
AcDbEntity
  8
1
  6
Continuous
 62
    31
370
    18
100
AcDbLine
 10
126.1881256103515
 20
123.9800415039062
 30
0.0
 11
125.4384155273437
 21
123.2303390502929
 31
0.0
  0
LINE
  5
B3
330
1F
100
AcDbEntity
  8
1
  6
Continuous
 62
    31
370
    18
100
AcDbLine
 10
126.2227249145507
 20
124.8886642456054
 30
0.0
 11
126.2227249145507
 21
124.0635604858398
 31
0.0
  0
LINE
  5
B4
330
1F
100
AcDbEntity
  8
1
  6
Continuous
 62
    31
370
    18
100
AcDbLine
 10
126.2227249145507
 20
110.7410202026367
 30
0.0
 11
126.2227249145507
 21
111.5661087036132
 31
0.0
  0
LINE
  5
B5
330
1F
100
AcDbEntity
  8
1
  6
Continuous
 62
    31
370
    18
100
AcDbLine
 10
126.6872940063476
 20
125.0067596435547
 30
0.0
 11
126.340835571289
 21
125.0067596435547
 31
0.0
  0
LINE
  5
B6
330
1F
100
AcDbEntity
  8
1
  6
Continuous
 62
    31
370
    18
100
AcDbLine
 10
126.340835571289
 20
110.6229095458984
 30
0.0
 11
126.6872940063476
 21
110.6229095458984
 31
0.0
  0
LINE
  5
B7
330
1F
100
AcDbEntity
  8
1
  6
Continuous
 62
   211
370
    18
100
AcDbLine
 10
133.7739105224609
 20
147.8473205566406
 30
0.0
 11
133.8211517333984
 21
147.8473205566406
 31
0.0
  0
LINE
  5
B8
330
1F
100
AcDbEntity
  8
1
  6
Continuous
 62
   211
370
    18
100
AcDbLine
 10
133.8211517333984
 20
113.2803955078125
 30
0.0
 11
133.7739105224609
 21
113.2803955078125
 31
0.0
  0
LINE
  5
B9
330
1F
100
AcDbEntity
  8
1
  6
Continuous
 62
   211
370
    18
100
AcDbLine
 10
133.8211517333984
 20
113.3984909057617
 30
0.0
 11
133.8211517333984
 21
147.7292022705078
 31
0.0
  0
LINE
  5
BA
330
1F
100
AcDbEntity
  8
1
  6
Continuous
 62
   211
370
    18
100
AcDbLine
 10
133.7739105224609
 20
113.3984909057617
 30
0.0
 11
133.7739105224609
 21
147.7292022705078
 31
0.0
  0
LINE
  5
BB
330
1F
100
AcDbEntity
  8
1
  6
Continuous
 62
   211
370
    18
100
AcDbLine
 10
132.403823852539
 20
114.8904876708984
 30
0.0
 11
132.403823852539
 21
137.7629852294922
 31
0.0
  0
LINE
  5
BC
330
1F
100
AcDbEntity
  8
1
  6
Continuous
 62
   211
370
    18
100
AcDbLine
 10
132.403823852539
 20
145.664321899414
 30
0.0
 11
132.403823852539
 21
147.4142456054687
 31
0.0
  0
LINE
  5
BD
330
1F
100
AcDbEntity
  8
1
  6
Continuous
 62
   211
370
    18
100
AcDbLine
 10
133.15185546875
 20
114.3433761596679
 30
0.0
 11
132.994384765625
 21
114.3433761596679
 31
0.0
  0
LINE
  5
BE
330
1F
100
AcDbEntity
  8
1
  6
Continuous
 62
   211
370
    18
100
AcDbLine
 10
132.4904327392578
 20
147.4142456054687
 30
0.0
 11
132.8132781982422
 21
147.4142456054687
 31
0.0
  0
LINE
  5
BF
330
1F
100
AcDbEntity
  8
1
  6
Continuous
 62
   211
370
    18
100
AcDbLine
 10
132.9313812255859
 20
147.5323638916015
 30
0.0
 11
132.9313812255859
 21
147.7292022705078
 31
0.0
  0
LINE
  5
C0
330
1F
100
AcDbEntity
  8
1
  6
Continuous
 62
   211
370
    18
100
AcDbLine
 10
133.2699584960937
 20
113.3984909057617
 30
0.0
 11
133.2699584960937
 21
114.2252731323242
 31
0.0
  0
LINE
  5
C1
330
1F
100
AcDbEntity
  8
1
  6
Continuous
 62
   211
370
    18
100
AcDbLine
 10
132.4904327392578
 20
114.8473205566406
 30
0.0
 11
132.994384765625
 21
114.3433761596679
 31
0.0
  0
LINE
  5
C2
330
1F
100
AcDbEntity
  8
1
  6
Continuous
 62
   211
370
    18
100
AcDbLine
 10
133.3880767822265
 20
113.2803955078125
 30
0.0
 11
133.7345275878906
 21
113.2803955078125
 31
0.0
  0
LINE
  5
C3
330
1F
100
AcDbEntity
  8
1
  6
Continuous
 62
   211
370
    18
100
AcDbLine
 10
133.7345275878906
 20
147.8473205566406
 30
0.0
 11
133.0494995117187
 21
147.8473205566406
 31
0.0
  0
LINE
  5
C4
330
1F
100
AcDbEntity
  8
1
  6
Continuous
 62
    21
370
    18
100
AcDbLine
 10
154.057373046875
 20
147.8473205566406
 30
0.0
 11
154.1046142578125
 21
147.8473205566406
 31
0.0
  0
LINE
  5
C5
330
1F
100
AcDbEntity
  8
1
  6
Continuous
 62
    21
370
    18
100
AcDbLine
 10
154.057373046875
 20
113.3984909057617
 30
0.0
 11
154.057373046875
 21
147.7292022705078
 31
0.0
  0
LINE
  5
C6
330
1F
100
AcDbEntity
  8
1
  6
Continuous
 62
    21
370
    18
100
AcDbLine
 10
154.1046142578125
 20
113.3984909057617
 30
0.0
 11
154.1046142578125
 21
147.7292022705078
 31
0.0
  0
LINE
  5
C7
330
1F
100
AcDbEntity
  8
1
  6
Continuous
 62
    21
370
    18
100
AcDbLine
 10
154.1046142578125
 20
113.2803955078125
 30
0.0
 11
154.057373046875
 21
113.2803955078125
 31
0.0
  0
LINE
  5
C8
330
1F
100
AcDbEntity
  8
1
  6
Continuous
 62
    21
370
    18
100
AcDbLine
 10
155.4746856689453
 20
137.7629852294922
 30
0.0
 11
155.4746856689453
 21
114.8904876708984
 31
0.0
  0
LINE
  5
C9
330
1F
100
AcDbEntity
  8
1
  6
Continuous
 62
    21
370
    18
100
AcDbLine
 10
155.3880767822265
 20
147.4142456054687
 30
0.0
 11
155.0652313232422
 21
147.4142456054687
 31
0.0
  0
LINE
  5
CA
330
1F
100
AcDbEntity
  8
1
  6
Continuous
 62
    21
370
    18
100
AcDbLine
 10
154.8841400146484
 20
114.3433761596679
 30
0.0
 11
155.3880767822265
 21
114.8473205566406
 31
0.0
  0
LINE
  5
CB
330
1F
100
AcDbEntity
  8
1
  6
Continuous
 62
    21
370
    18
100
AcDbLine
 10
154.7266540527344
 20
114.3433761596679
 30
0.0
 11
154.8841400146484
 21
114.3433761596679
 31
0.0
  0
LINE
  5
CC
330
1F
100
AcDbEntity
  8
1
  6
Continuous
 62
    21
370
    18
100
AcDbLine
 10
154.6085510253906
 20
113.3984909057617
 30
0.0
 11
154.6085510253906
 21
114.2252731323242
 31
0.0
  0
LINE
  5
CD
330
1F
100
AcDbEntity
  8
1
  6
Continuous
 62
    21
370
    18
100
AcDbLine
 10
154.9471282958984
 20
147.5323638916015
 30
0.0
 11
154.9471282958984
 21
147.7292022705078
 31
0.0
  0
LINE
  5
CE
330
1F
100
AcDbEntity
  8
1
  6
Continuous
 62
    21
370
    18
100
AcDbLine
 10
154.1439819335937
 20
147.8473205566406
 30
0.0
 11
154.8290252685547
 21
147.8473205566406
 31
0.0
  0
LINE
  5
CF
330
1F
100
AcDbEntity
  8
1
  6
Continuous
 62
    21
370
    18
100
AcDbLine
 10
154.4904327392578
 20
113.2803955078125
 30
0.0
 11
154.1439819335937
 21
113.2803955078125
 31
0.0
  0
LINE
  5
D0
330
1F
100
AcDbEntity
  8
1
  6
Continuous
 62
    21
370
    18
100
AcDbLine
 10
155.4746856689453
 20
147.4142456054687
 30
0.0
 11
155.4746856689453
 21
145.664321899414
 31
0.0
  0
LINE
  5
D1
330
1F
100
AcDbEntity
  8
1
  6
Continuous
 62
    30
370
    18
100
AcDbLine
 10
132.7975311279297
 20
181.7863006591797
 30
0.0
 11
132.7975311279297
 21
179.4634552001953
 31
0.0
  0
LINE
  5
D2
330
1F
100
AcDbEntity
  8
1
  6
Continuous
 62
    30
370
    18
100
AcDbLine
 10
132.4628753662109
 20
181.979507446289
 30
0.0
 11
132.7975311279297
 21
181.7863006591797
 31
0.0
  0
LINE
  5
D3
330
1F
100
AcDbEntity
  8
1
  6
Continuous
 62
    30
370
    18
100
AcDbLine
 10
133.5849304199218
 20
177.9915466308594
 30
0.0
 11
133.5849304199218
 21
185.8926849365234
 31
0.0
  0
LINE
  5
D4
330
1F
100
AcDbEntity
  8
1
  6
Continuous
 62
    30
370
    18
100
AcDbLine
 10
132.5219268798828
 20
177.8734283447265
 30
0.0
 11
133.466812133789
 21
177.8734283447265
 31
0.0
  0
LINE
  5
D5
330
1F
100
AcDbEntity
  8
1
  6
Continuous
 62
    30
370
    18
100
AcDbLine
 10
132.7975311279297
 20
179.4634552001953
 30
0.0
 11
132.4628753662109
 21
179.2702484130859
 31
0.0
  0
LINE
  5
D6
330
1F
100
AcDbEntity
  8
1
  6
Continuous
 62
    30
370
    18
100
AcDbLine
 10
132.403823852539
 20
185.8926849365234
 30
0.0
 11
132.403823852539
 21
182.081787109375
 31
0.0
  0
LINE
  5
D7
330
1F
100
AcDbEntity
  8
1
  6
Continuous
 62
    30
370
    18
100
AcDbLine
 10
132.403823852539
 20
179.16796875
 30
0.0
 11
132.403823852539
 21
177.9915466308594
 31
0.0
  0
LINE
  5
D8
330
1F
100
AcDbEntity
  8
1
  6
Continuous
 62
    30
370
    18
100
AcDbLine
 10
132.5219268798828
 20
186.0108032226562
 30
0.0
 11
133.466812133789
 21
186.0108032226562
 31
0.0
  0
LINE
  5
D9
330
1F
100
AcDbEntity
  8
1
  6
Continuous
 62
    30
370
    18
100
AcDbLine
 10
155.3565826416015
 20
177.8734283447265
 30
0.0
 11
154.4116973876953
 21
177.8734283447265
 31
0.0
  0
LINE
  5
DA
330
1F
100
AcDbEntity
  8
1
  6
Continuous
 62
    30
370
    18
100
AcDbLine
 10
154.2935791015625
 20
177.9915466308594
 30
0.0
 11
154.2935791015625
 21
185.8926849365234
 31
0.0
  0
LINE
  5
DB
330
1F
100
AcDbEntity
  8
1
  6
Continuous
 62
    30
370
    18
100
AcDbLine
 10
155.3565826416015
 20
186.0108032226562
 30
0.0
 11
154.4116973876953
 21
186.0108032226562
 31
0.0
  0
LINE
  5
DC
330
1F
100
AcDbEntity
  8
1
  6
Continuous
 62
    30
370
    18
100
AcDbLine
 10
155.4746856689453
 20
185.8926849365234
 30
0.0
 11
155.4746856689453
 21
182.081787109375
 31
0.0
  0
LINE
  5
DD
330
1F
100
AcDbEntity
  8
1
  6
Continuous
 62
    30
370
    18
100
AcDbLine
 10
155.4156341552734
 20
181.979507446289
 30
0.0
 11
155.0809936523437
 21
181.7863006591797
 31
0.0
  0
LINE
  5
DE
330
1F
100
AcDbEntity
  8
1
  6
Continuous
 62
    30
370
    18
100
AcDbLine
 10
155.0809936523437
 20
181.7863006591797
 30
0.0
 11
155.0809936523437
 21
179.4634552001953
 31
0.0
  0
LINE
  5
DF
330
1F
100
AcDbEntity
  8
1
  6
Continuous
 62
    30
370
    18
100
AcDbLine
 10
155.0809936523437
 20
179.4634552001953
 30
0.0
 11
155.4156341552734
 21
179.2702484130859
 31
0.0
  0
LINE
  5
E0
330
1F
100
AcDbEntity
  8
1
  6
Continuous
 62
    30
370
    18
100
AcDbLine
 10
155.4746856689453
 20
179.16796875
 30
0.0
 11
155.4746856689453
 21
177.9915466308594
 31
0.0
  0
LINE
  5
E1
330
1F
100
AcDbEntity
  8
1
  6
Continuous
 62
    30
370
    18
100
AcDbLine
 10
132.7975311279297
 20
141.5579528808593
 30
0.0
 11
132.7975311279297
 21
139.235107421875
 31
0.0
  0
LINE
  5
E2
330
1F
100
AcDbEntity
  8
1
  6
Continuous
 62
    30
370
    18
100
AcDbLine
 10
132.4628753662109
 20
141.7511596679687
 30
0.0
 11
132.7975311279297
 21
141.5579528808593
 31
0.0
  0
LINE
  5
E3
330
1F
100
AcDbEntity
  8
1
  6
Continuous
 62
    30
370
    18
100
AcDbLine
 10
133.5849304199218
 20
137.763198852539
 30
0.0
 11
133.5849304199218
 21
145.6643371582031
 31
0.0
  0
LINE
  5
E4
330
1F
100
AcDbEntity
  8
1
  6
Continuous
 62
    30
370
    18
100
AcDbLine
 10
132.5219268798828
 20
137.6450805664062
 30
0.0
 11
133.466812133789
 21
137.6450805664062
 31
0.0
  0
LINE
  5
E5
330
1F
100
AcDbEntity
  8
1
  6
Continuous
 62
    30
370
    18
100
AcDbLine
 10
132.7975311279297
 20
139.235107421875
 30
0.0
 11
132.4628753662109
 21
139.0419006347656
 31
0.0
  0
LINE
  5
E6
330
1F
100
AcDbEntity
  8
1
  6
Continuous
 62
    30
370
    18
100
AcDbLine
 10
132.403823852539
 20
145.6643371582031
 30
0.0
 11
132.403823852539
 21
141.8534393310547
 31
0.0
  0
LINE
  5
E7
330
1F
100
AcDbEntity
  8
1
  6
Continuous
 62
    30
370
    18
100
AcDbLine
 10
132.403823852539
 20
138.9396209716797
 30
0.0
 11
132.403823852539
 21
137.763198852539
 31
0.0
  0
LINE
  5
E8
330
1F
100
AcDbEntity
  8
1
  6
Continuous
 62
    30
370
    18
100
AcDbLine
 10
132.5219268798828
 20
145.7824554443359
 30
0.0
 11
133.466812133789
 21
145.7824554443359
 31
0.0
  0
LINE
  5
E9
330
1F
100
AcDbEntity
  8
1
  6
Continuous
 62
    31
370
    18
100
AcDbLine
 10
161.1046142578125
 20
143.0979461669922
 30
0.0
 11
161.1046142578125
 21
157.2455749511719
 31
0.0
  0
LINE
  5
EA
330
1F
100
AcDbEntity
  8
1
  6
Continuous
 62
    31
370
    18
100
AcDbLine
 10
161.15185546875
 20
143.0979461669922
 30
0.0
 11
161.15185546875
 21
157.2455749511719
 31
0.0
  0
LINE
  5
EB
330
1F
100
AcDbEntity
  8
1
  6
Continuous
 62
    31
370
    18
100
AcDbLine
 10
161.1046142578125
 20
157.3636932373046
 30
0.0
 11
161.15185546875
 21
157.3636932373046
 31
0.0
  0
LINE
  5
EC
330
1F
100
AcDbEntity
  8
1
  6
Continuous
 62
    31
370
    18
100
AcDbLine
 10
161.15185546875
 20
142.9798278808593
 30
0.0
 11
161.1046142578125
 21
142.9798278808593
 31
0.0
  0
LINE
  5
ED
330
1F
100
AcDbEntity
  8
1
  6
Continuous
 62
    31
370
    18
100
AcDbLine
 10
161.6903839111328
 20
156.3369750976562
 30
0.0
 11
162.4400939941406
 21
155.5872497558594
 31
0.0
  0
LINE
  5
EE
330
1F
100
AcDbEntity
  8
1
  6
Continuous
 62
    31
370
    18
100
AcDbLine
 10
162.4746856689453
 20
144.8397827148437
 30
0.0
 11
162.4746856689453
 21
155.5037384033203
 31
0.0
  0
LINE
  5
EF
330
1F
100
AcDbEntity
  8
1
  6
Continuous
 62
    31
370
    18
100
AcDbLine
 10
161.6903839111328
 20
144.0065460205078
 30
0.0
 11
162.4400939941406
 21
144.7562561035156
 31
0.0
  0
LINE
  5
F0
330
1F
100
AcDbEntity
  8
1
  6
Continuous
 62
    31
370
    18
100
AcDbLine
 10
161.6557922363281
 20
143.0979461669922
 30
0.0
 11
161.6557922363281
 21
143.9230346679687
 31
0.0
  0
LINE
  5
F1
330
1F
100
AcDbEntity
  8
1
  6
Continuous
 62
    31
370
    18
100
AcDbLine
 10
161.6557922363281
 20
157.2455749511719
 30
0.0
 11
161.6557922363281
 21
156.4204864501953
 31
0.0
  0
LINE
  5
F2
330
1F
100
AcDbEntity
  8
1
  6
Continuous
 62
    31
370
    18
100
AcDbLine
 10
161.1912231445312
 20
142.9798278808593
 30
0.0
 11
161.5376892089843
 21
142.9798278808593
 31
0.0
  0
LINE
  5
F3
330
1F
100
AcDbEntity
  8
1
  6
Continuous
 62
    31
370
    18
100
AcDbLine
 10
161.5376892089843
 20
157.3636932373046
 30
0.0
 11
161.1912231445312
 21
157.3636932373046
 31
0.0
  0
LINE
  5
F4
330
1F
100
AcDbEntity
  8
1
  6
Continuous
 62
    31
370
    18
100
AcDbLine
 10
204.1209716796875
 20
112.4828567504883
 30
0.0
 11
204.1209716796875
 21
123.1468276977539
 31
0.0
  0
LINE
  5
F5
330
1F
100
AcDbEntity
  8
1
  6
Continuous
 62
    31
370
    18
100
AcDbLine
 10
204.168212890625
 20
112.4828567504883
 30
0.0
 11
204.168212890625
 21
123.1468276977539
 31
0.0
  0
LINE
  5
F6
330
1F
100
AcDbEntity
  8
1
  6
Continuous
 62
    31
370
    18
100
AcDbLine
 10
204.1209716796875
 20
111.6496276855468
 30
0.0
 11
204.1209716796875
 21
112.3993377685547
 31
0.0
  0
LINE
  5
F7
330
1F
100
AcDbEntity
  8
1
  6
Continuous
 62
    31
370
    18
100
AcDbLine
 10
204.168212890625
 20
111.6496276855468
 30
0.0
 11
204.168212890625
 21
112.3993377685547
 31
0.0
  0
LINE
  5
F8
330
1F
100
AcDbEntity
  8
1
  6
Continuous
 62
    31
370
    18
100
AcDbLine
 10
204.1209716796875
 20
123.9800415039062
 30
0.0
 11
204.1209716796875
 21
123.2303390502929
 31
0.0
  0
LINE
  5
F9
330
1F
100
AcDbEntity
  8
1
  6
Continuous
 62
    31
370
    18
100
AcDbLine
 10
204.168212890625
 20
123.9800415039062
 30
0.0
 11
204.168212890625
 21
123.2303390502929
 31
0.0
  0
LINE
  5
FA
330
1F
100
AcDbEntity
  8
1
  6
Continuous
 62
    31
370
    18
100
AcDbLine
 10
204.168212890625
 20
110.6229095458984
 30
0.0
 11
204.1209716796875
 21
110.6229095458984
 31
0.0
  0
LINE
  5
FB
330
1F
100
AcDbEntity
  8
1
  6
Continuous
 62
    31
370
    18
100
AcDbLine
 10
204.1209716796875
 20
110.7410202026367
 30
0.0
 11
204.1209716796875
 21
111.5661087036132
 31
0.0
  0
LINE
  5
FC
330
1F
100
AcDbEntity
  8
1
  6
Continuous
 62
    31
370
    18
100
AcDbLine
 10
204.168212890625
 20
110.7410202026367
 30
0.0
 11
204.168212890625
 21
111.5661087036132
 31
0.0
  0
LINE
  5
FD
330
1F
100
AcDbEntity
  8
1
  6
Continuous
 62
    31
370
    18
100
AcDbLine
 10
204.1209716796875
 20
125.0067596435547
 30
0.0
 11
204.168212890625
 21
125.0067596435547
 31
0.0
  0
LINE
  5
FE
330
1F
100
AcDbEntity
  8
1
  6
Continuous
 62
    31
370
    18
100
AcDbLine
 10
204.1209716796875
 20
124.8886642456054
 30
0.0
 11
204.1209716796875
 21
124.0635604858398
 31
0.0
  0
LINE
  5
FF
330
1F
100
AcDbEntity
  8
1
  6
Continuous
 62
    31
370
    18
100
AcDbLine
 10
204.168212890625
 20
124.8886642456054
 30
0.0
 11
204.168212890625
 21
124.0635604858398
 31
0.0
  0
LINE
  5
100
330
1F
100
AcDbEntity
  8
1
  6
Continuous
 62
    31
370
    18
100
AcDbLine
 10
203.0973510742188
 20
110.7410202026367
 30
0.0
 11
203.0973510742188
 21
124.8886642456054
 31
0.0
  0
LINE
  5
101
330
1F
100
AcDbEntity
  8
1
  6
Continuous
 62
    31
370
    18
100
AcDbLine
 10
204.0815887451172
 20
110.6229095458984
 30
0.0
 11
203.2154541015625
 21
110.6229095458984
 31
0.0
  0
LINE
  5
102
330
1F
100
AcDbEntity
  8
1
  6
Continuous
 62
    31
370
    18
100
AcDbLine
 10
203.2154541015625
 20
125.0067596435547
 30
0.0
 11
204.0815887451172
 21
125.0067596435547
 31
0.0
  0
LINE
  5
103
330
1F
100
AcDbEntity
  8
1
  6
Continuous
 62
    30
370
    18
100
AcDbLine
 10
204.168212890625
 20
137.6450805664062
 30
0.0
 11
204.1209716796875
 21
137.6450805664062
 31
0.0
  0
LINE
  5
104
330
1F
100
AcDbEntity
  8
1
  6
Continuous
 62
    30
370
    18
100
AcDbLine
 10
204.1480255126953
 20
145.7824554443359
 30
0.0
 11
204.168212890625
 21
145.7824554443359
 31
0.0
  0
LINE
  5
105
330
1F
100
AcDbEntity
  8
1
  6
Continuous
 62
    30
370
    18
100
AcDbLine
 10
204.1209716796875
 20
138.9396209716797
 30
0.0
 11
204.1209716796875
 21
137.763198852539
 31
0.0
  0
LINE
  5
106
330
1F
100
AcDbEntity
  8
1
  6
Continuous
 62
    30
370
    18
100
AcDbLine
 10
204.168212890625
 20
138.9396209716797
 30
0.0
 11
204.168212890625
 21
137.763198852539
 31
0.0
  0
LINE
  5
107
330
1F
100
AcDbEntity
  8
1
  6
Continuous
 62
    30
370
    18
100
AcDbLine
 10
204.168212890625
 20
145.6643371582031
 30
0.0
 11
204.168212890625
 21
141.8534393310547
 31
0.0
  0
LINE
  5
108
330
1F
100
AcDbEntity
  8
1
  6
Continuous
 62
    30
370
    18
100
AcDbLine
 10
204.1209716796875
 20
142.9798583984375
 30
0.0
 11
204.1209716796875
 21
141.8534393310547
 31
0.0
  0
LINE
  5
109
330
1F
100
AcDbEntity
  8
1
  6
Continuous
 62
    30
370
    18
100
AcDbLine
 10
204.1209716796875
 20
139.235107421875
 30
0.0
 11
204.168212890625
 21
139.235107421875
 31
0.0
  0
LINE
  5
10A
330
1F
100
AcDbEntity
  8
1
  6
Continuous
 62
    30
370
    18
100
AcDbLine
 10
204.1209716796875
 20
139.235107421875
 30
0.0
 11
204.1209716796875
 21
139.0419006347656
 31
0.0
  0
LINE
  5
10B
330
1F
100
AcDbEntity
  8
1
  6
Continuous
 62
    30
370
    18
100
AcDbLine
 10
204.168212890625
 20
139.235107421875
 30
0.0
 11
204.168212890625
 21
139.0419006347656
 31
0.0
  0
LINE
  5
10C
330
1F
100
AcDbEntity
  8
1
  6
Continuous
 62
    30
370
    18
100
AcDbLine
 10
204.1209716796875
 20
141.5579528808593
 30
0.0
 11
204.168212890625
 21
141.5579528808593
 31
0.0
  0
LINE
  5
10D
330
1F
100
AcDbEntity
  8
1
  6
Continuous
 62
    30
370
    18
100
AcDbLine
 10
204.1209716796875
 20
141.7511596679687
 30
0.0
 11
204.1209716796875
 21
141.5579528808593
 31
0.0
  0
LINE
  5
10E
330
1F
100
AcDbEntity
  8
1
  6
Continuous
 62
    30
370
    18
100
AcDbLine
 10
204.168212890625
 20
141.7511596679687
 30
0.0
 11
204.168212890625
 21
141.5579528808593
 31
0.0
  0
LINE
  5
10F
330
1F
100
AcDbEntity
  8
1
  6
Continuous
 62
    30
370
    18
100
AcDbLine
 10
204.1209716796875
 20
141.5579528808593
 30
0.0
 11
204.1209716796875
 21
139.235107421875
 31
0.0
  0
LINE
  5
110
330
1F
100
AcDbEntity
  8
1
  6
Continuous
 62
    30
370
    18
100
AcDbLine
 10
204.168212890625
 20
141.5579528808593
 30
0.0
 11
204.168212890625
 21
139.235107421875
 31
0.0
  0
LINE
  5
111
330
1F
100
AcDbEntity
  8
1
  6
Continuous
 62
    21
370
    18
100
AcDbLine
 10
204.168212890625
 20
155.0756683349609
 30
0.0
 11
204.168212890625
 21
177.8773345947265
 31
0.0
  0
LINE
  5
112
330
1F
100
AcDbEntity
  8
1
  6
Continuous
 62
    21
370
    18
100
AcDbLine
 10
204.168212890625
 20
186.0064392089844
 30
0.0
 11
204.168212890625
 21
187.642593383789
 31
0.0
  0
LINE
  5
113
330
1F
100
AcDbEntity
  8
1
  6
Continuous
 62
    21
370
    18
100
AcDbLine
 10
205.0933990478516
 20
155.2369384765625
 30
0.0
 11
205.0933990478516
 21
178.8173217773437
 31
0.0
  0
LINE
  5
114
330
1F
100
AcDbEntity
  8
1
  6
Continuous
 62
    21
370
    18
100
AcDbLine
 10
204.2548217773437
 20
155.1188354492187
 30
0.0
 11
204.9752960205078
 21
155.1188354492187
 31
0.0
  0
LINE
  5
115
330
1F
100
AcDbEntity
  8
1
  6
Continuous
 62
    21
370
    18
100
AcDbLine
 10
204.9752960205078
 20
178.9354400634765
 30
0.0
 11
204.2548217773437
 21
178.9354400634765
 31
0.0
  0
LINE
  5
116
330
1F
100
AcDbEntity
  8
1
  6
Continuous
 62
    21
370
    18
100
AcDbLine
 10
205.0933990478516
 20
182.4324188232422
 30
0.0
 11
205.0933990478516
 21
187.5244903564453
 31
0.0
  0
LINE
  5
117
330
1F
100
AcDbEntity
  8
1
  6
Continuous
 62
    21
370
    18
100
AcDbLine
 10
204.9752960205078
 20
187.642593383789
 30
0.0
 11
204.2548217773437
 21
187.642593383789
 31
0.0
  0
LINE
  5
118
330
1F
100
AcDbEntity
  8
1
  6
Continuous
 62
    21
370
    18
100
AcDbLine
 10
204.2548217773437
 20
182.3143310546875
 30
0.0
 11
204.9752960205078
 21
182.3143310546875
 31
0.0
  0
LINE
  5
119
330
1F
100
AcDbEntity
  8
1
  6
Continuous
 62
    21
370
    18
100
AcDbLine
 10
204.2154541015625
 20
155.0756683349609
 30
0.0
 11
204.168212890625
 21
155.0756683349609
 31
0.0
  0
LINE
  5
11A
330
1F
100
AcDbEntity
  8
1
  6
Continuous
 62
    21
370
    18
100
AcDbLine
 10
204.2154541015625
 20
178.9603576660156
 30
0.0
 11
204.168212890625
 21
178.9603576660156
 31
0.0
  0
LINE
  5
11B
330
1F
100
AcDbEntity
  8
1
  6
Continuous
 62
    21
370
    18
100
AcDbLine
 10
204.2154541015625
 20
182.2893981933594
 30
0.0
 11
204.168212890625
 21
182.2893981933594
 31
0.0
  0
LINE
  5
11C
330
1F
100
AcDbEntity
  8
1
  6
Continuous
 62
    21
370
    18
100
AcDbLine
 10
204.2154541015625
 20
179.0196228027344
 30
0.0
 11
204.168212890625
 21
179.0196228027344
 31
0.0
  0
LINE
  5
11D
330
1F
100
AcDbEntity
  8
1
  6
Continuous
 62
    21
370
    18
100
AcDbLine
 10
204.2154541015625
 20
178.9603576660156
 30
0.0
 11
204.2154541015625
 21
179.0196228027344
 31
0.0
  0
LINE
  5
11E
330
1F
100
AcDbEntity
  8
1
  6
Continuous
 62
    21
370
    18
100
AcDbLine
 10
204.2154541015625
 20
154.5717163085937
 30
0.0
 11
204.168212890625
 21
154.5717163085937
 31
0.0
  0
LINE
  5
11F
330
1F
100
AcDbEntity
  8
1
  6
Continuous
 62
    21
370
    18
100
AcDbLine
 10
204.168212890625
 20
154.5717163085937
 30
0.0
 11
204.168212890625
 21
155.0756683349609
 31
0.0
  0
LINE
  5
120
330
1F
100
AcDbEntity
  8
1
  6
Continuous
 62
    21
370
    18
100
AcDbLine
 10
204.2154541015625
 20
155.0756683349609
 30
0.0
 11
204.2154541015625
 21
154.5717163085937
 31
0.0
  0
LINE
  5
121
330
1F
100
AcDbEntity
  8
1
  6
Continuous
 62
    21
370
    18
100
AcDbLine
 10
204.2154541015625
 20
182.2301330566406
 30
0.0
 11
204.168212890625
 21
182.2301330566406
 31
0.0
  0
LINE
  5
122
330
1F
100
AcDbEntity
  8
1
  6
Continuous
 62
    21
370
    18
100
AcDbLine
 10
204.2154541015625
 20
182.2301330566406
 30
0.0
 11
204.2154541015625
 21
182.2893981933594
 31
0.0
  0
LINE
  5
123
330
1F
100
AcDbEntity
  8
1
  6
Continuous
 62
    21
370
    18
100
AcDbLine
 10
204.2548217773437
 20
179.1377410888672
 30
0.0
 11
204.9752960205078
 21
179.1377410888672
 31
0.0
  0
LINE
  5
124
330
1F
100
AcDbEntity
  8
1
  6
Continuous
 62
    21
370
    18
100
AcDbLine
 10
205.0933990478516
 20
179.2558441162109
 30
0.0
 11
205.0933990478516
 21
181.993911743164
 31
0.0
  0
LINE
  5
125
330
1F
100
AcDbEntity
  8
1
  6
Continuous
 62
    21
370
    18
100
AcDbLine
 10
204.9752960205078
 20
182.1120300292968
 30
0.0
 11
204.2548217773437
 21
182.1120300292968
 31
0.0
  0
LINE
  5
126
330
1F
100
AcDbEntity
  8
1
  6
Continuous
 62
    21
370
    18
100
AcDbLine
 10
204.168212890625
 20
187.7607116699218
 30
0.0
 11
204.168212890625
 21
187.9575500488281
 31
0.0
  0
LINE
  5
127
330
1F
100
AcDbEntity
  8
1
  6
Continuous
 62
    21
370
    18
100
AcDbLine
 10
204.2154541015625
 20
187.7607116699218
 30
0.0
 11
204.2154541015625
 21
187.9575500488281
 31
0.0
  0
LINE
  5
128
330
1F
100
AcDbEntity
  8
1
  6
Continuous
 62
    21
370
    18
100
AcDbLine
 10
204.168212890625
 20
188.0756683349609
 30
0.0
 11
204.2154541015625
 21
188.0756683349609
 31
0.0
  0
LINE
  5
129
330
1F
100
AcDbEntity
  8
1
  6
Continuous
 62
    21
370
    18
100
AcDbLine
 10
204.2154541015625
 20
153.5087432861328
 30
0.0
 11
204.168212890625
 21
153.5087432861328
 31
0.0
  0
LINE
  5
12A
330
1F
100
AcDbEntity
  8
1
  6
Continuous
 62
    21
370
    18
100
AcDbLine
 10
204.168212890625
 20
153.6268463134765
 30
0.0
 11
204.168212890625
 21
154.453628540039
 31
0.0
  0
LINE
  5
12B
330
1F
100
AcDbEntity
  8
1
  6
Continuous
 62
    21
370
    18
100
AcDbLine
 10
204.2154541015625
 20
153.6268463134765
 30
0.0
 11
204.2154541015625
 21
154.453628540039
 31
0.0
  0
LINE
  5
12C
330
1F
100
AcDbEntity
  8
1
  6
Continuous
 62
    21
370
    18
100
AcDbLine
 10
202.5737152099609
 20
153.6268463134765
 30
0.0
 11
202.5737152099609
 21
187.9575500488281
 31
0.0
  0
LINE
  5
12D
330
1F
100
AcDbEntity
  8
1
  6
Continuous
 62
    21
370
    18
100
AcDbLine
 10
203.0771789550781
 20
153.5087432861328
 30
0.0
 11
202.6918334960937
 21
153.5087432861328
 31
0.0
  0
LINE
  5
12E
330
1F
100
AcDbEntity
  8
1
  6
Continuous
 62
    21
370
    18
100
AcDbLine
 10
202.6918334960937
 20
188.0756683349609
 30
0.0
 11
204.1288299560547
 21
188.0756683349609
 31
0.0
  0
LINE
  5
12F
330
1F
100
AcDbEntity
  8
1
  6
Continuous
 62
   211
370
    18
100
AcDbLine
 10
204.2154541015625
 20
178.9354095458984
 30
0.0
 11
204.2154541015625
 21
178.9602508544922
 31
0.0
  0
LINE
  5
130
330
1F
100
AcDbEntity
  8
1
  6
Continuous
 62
   211
370
    18
100
AcDbLine
 10
204.2154541015625
 20
182.2889556884765
 30
0.0
 11
204.2154541015625
 21
182.3137969970703
 31
0.0
  0
LINE
  5
131
330
1F
100
AcDbEntity
  8
1
  6
Continuous
 62
   211
370
    18
100
AcDbLine
 10
204.2154541015625
 20
138.7070617675781
 30
0.0
 11
204.2154541015625
 21
138.7319030761718
 31
0.0
  0
LINE
  5
132
330
1F
100
AcDbEntity
  8
1
  6
Continuous
 62
   211
370
    18
100
AcDbLine
 10
204.2154541015625
 20
142.0606079101562
 30
0.0
 11
204.2154541015625
 21
142.08544921875
 31
0.0
  0
LINE
  5
133
330
1F
100
AcDbEntity
  8
1
  6
Continuous
 62
    21
370
    18
100
AcDbLine
 10
204.168212890625
 20
125.0068893432617
 30
0.0
 11
204.168212890625
 21
137.6489868164062
 31
0.0
  0
LINE
  5
134
330
1F
100
AcDbEntity
  8
1
  6
Continuous
 62
    21
370
    18
100
AcDbLine
 10
204.168212890625
 20
145.778091430664
 30
0.0
 11
204.168212890625
 21
147.4142456054687
 31
0.0
  0
LINE
  5
135
330
1F
100
AcDbEntity
  8
1
  6
Continuous
 62
    21
370
    18
100
AcDbLine
 10
205.0933990478516
 20
115.0085983276367
 30
0.0
 11
205.0933990478516
 21
138.5889739990234
 31
0.0
  0
LINE
  5
136
330
1F
100
AcDbEntity
  8
1
  6
Continuous
 62
    21
370
    18
100
AcDbLine
 10
204.2548217773437
 20
114.8904876708984
 30
0.0
 11
204.9752960205078
 21
114.8904876708984
 31
0.0
  0
LINE
  5
137
330
1F
100
AcDbEntity
  8
1
  6
Continuous
 62
    21
370
    18
100
AcDbLine
 10
204.9752960205078
 20
138.7070922851562
 30
0.0
 11
204.2548217773437
 21
138.7070922851562
 31
0.0
  0
LINE
  5
138
330
1F
100
AcDbEntity
  8
1
  6
Continuous
 62
    21
370
    18
100
AcDbLine
 10
205.0933990478516
 20
142.2040863037109
 30
0.0
 11
205.0933990478516
 21
147.296142578125
 31
0.0
  0
LINE
  5
139
330
1F
100
AcDbEntity
  8
1
  6
Continuous
 62
    21
370
    18
100
AcDbLine
 10
204.9752960205078
 20
147.4142456054687
 30
0.0
 11
204.2548217773437
 21
147.4142456054687
 31
0.0
  0
LINE
  5
13A
330
1F
100
AcDbEntity
  8
1
  6
Continuous
 62
    21
370
    18
100
AcDbLine
 10
204.2548217773437
 20
142.0859832763672
 30
0.0
 11
204.9752960205078
 21
142.0859832763672
 31
0.0
  0
LINE
  5
13B
330
1F
100
AcDbEntity
  8
1
  6
Continuous
 62
    21
370
    18
100
AcDbLine
 10
204.2154541015625
 20
114.8473205566406
 30
0.0
 11
204.168212890625
 21
114.8473205566406
 31
0.0
  0
LINE
  5
13C
330
1F
100
AcDbEntity
  8
1
  6
Continuous
 62
    21
370
    18
100
AcDbLine
 10
204.2154541015625
 20
138.7320098876953
 30
0.0
 11
204.168212890625
 21
138.7320098876953
 31
0.0
  0
LINE
  5
13D
330
1F
100
AcDbEntity
  8
1
  6
Continuous
 62
    21
370
    18
100
AcDbLine
 10
204.2154541015625
 20
142.0610656738281
 30
0.0
 11
204.168212890625
 21
142.0610656738281
 31
0.0
  0
LINE
  5
13E
330
1F
100
AcDbEntity
  8
1
  6
Continuous
 62
    21
370
    18
100
AcDbLine
 10
204.2154541015625
 20
114.3433761596679
 30
0.0
 11
204.168212890625
 21
114.3433761596679
 31
0.0
  0
LINE
  5
13F
330
1F
100
AcDbEntity
  8
1
  6
Continuous
 62
    21
370
    18
100
AcDbLine
 10
204.2154541015625
 20
114.8473205566406
 30
0.0
 11
204.2154541015625
 21
114.3433761596679
 31
0.0
  0
LINE
  5
140
330
1F
100
AcDbEntity
  8
1
  6
Continuous
 62
    21
370
    18
100
AcDbLine
 10
204.2154541015625
 20
138.791275024414
 30
0.0
 11
204.168212890625
 21
138.791275024414
 31
0.0
  0
LINE
  5
141
330
1F
100
AcDbEntity
  8
1
  6
Continuous
 62
    21
370
    18
100
AcDbLine
 10
204.2154541015625
 20
138.7320098876953
 30
0.0
 11
204.2154541015625
 21
138.791275024414
 31
0.0
  0
LINE
  5
142
330
1F
100
AcDbEntity
  8
1
  6
Continuous
 62
    21
370
    18
100
AcDbLine
 10
204.2154541015625
 20
142.0017852783203
 30
0.0
 11
204.168212890625
 21
142.0017852783203
 31
0.0
  0
LINE
  5
143
330
1F
100
AcDbEntity
  8
1
  6
Continuous
 62
    21
370
    18
100
AcDbLine
 10
204.2154541015625
 20
142.0017852783203
 30
0.0
 11
204.2154541015625
 21
142.0610656738281
 31
0.0
  0
LINE
  5
144
330
1F
100
AcDbEntity
  8
1
  6
Continuous
 62
    21
370
    18
100
AcDbLine
 10
204.2548217773437
 20
138.9093933105469
 30
0.0
 11
204.9752960205078
 21
138.9093933105469
 31
0.0
  0
LINE
  5
145
330
1F
100
AcDbEntity
  8
1
  6
Continuous
 62
    21
370
    18
100
AcDbLine
 10
205.0933990478516
 20
139.0274963378906
 30
0.0
 11
205.0933990478516
 21
141.7655639648437
 31
0.0
  0
LINE
  5
146
330
1F
100
AcDbEntity
  8
1
  6
Continuous
 62
    21
370
    18
100
AcDbLine
 10
204.9752960205078
 20
141.8836822509765
 30
0.0
 11
204.2548217773437
 21
141.8836822509765
 31
0.0
  0
LINE
  5
147
330
1F
100
AcDbEntity
  8
1
  6
Continuous
 62
    21
370
    18
100
AcDbLine
 10
204.168212890625
 20
147.8473205566406
 30
0.0
 11
204.2154541015625
 21
147.8473205566406
 31
0.0
  0
LINE
  5
148
330
1F
100
AcDbEntity
  8
1
  6
Continuous
 62
    21
370
    18
100
AcDbLine
 10
204.168212890625
 20
147.5323638916015
 30
0.0
 11
204.168212890625
 21
147.7292022705078
 31
0.0
  0
LINE
  5
149
330
1F
100
AcDbEntity
  8
1
  6
Continuous
 62
    21
370
    18
100
AcDbLine
 10
204.2154541015625
 20
147.5323638916015
 30
0.0
 11
204.2154541015625
 21
147.7292022705078
 31
0.0
  0
LINE
  5
14A
330
1F
100
AcDbEntity
  8
1
  6
Continuous
 62
    21
370
    18
100
AcDbLine
 10
204.2154541015625
 20
113.2803955078125
 30
0.0
 11
204.168212890625
 21
113.2803955078125
 31
0.0
  0
LINE
  5
14B
330
1F
100
AcDbEntity
  8
1
  6
Continuous
 62
    21
370
    18
100
AcDbLine
 10
204.2154541015625
 20
113.3984909057617
 30
0.0
 11
204.2154541015625
 21
114.2252731323242
 31
0.0
  0
LINE
  5
14C
330
1F
100
AcDbEntity
  8
1
  6
Continuous
 62
    21
370
    18
100
AcDbLine
 10
202.5737152099609
 20
113.3984909057617
 30
0.0
 11
202.5737152099609
 21
147.7292022705078
 31
0.0
  0
LINE
  5
14D
330
1F
100
AcDbEntity
  8
1
  6
Continuous
 62
    21
370
    18
100
AcDbLine
 10
203.0973663330078
 20
113.2803955078125
 30
0.0
 11
202.6918334960937
 21
113.2803955078125
 31
0.0
  0
LINE
  5
14E
330
1F
100
AcDbEntity
  8
1
  6
Continuous
 62
    21
370
    18
100
AcDbLine
 10
202.6918334960937
 20
147.8473205566406
 30
0.0
 11
203.0771789550781
 21
147.8473205566406
 31
0.0
  0
LINE
  5
14F
330
1F
100
AcDbEntity
  8
1
  6
Continuous
 62
    30
370
    18
100
AcDbLine
 10
204.1209716796875
 20
186.0108032226562
 30
0.0
 11
204.168212890625
 21
186.0108032226562
 31
0.0
  0
LINE
  5
150
330
1F
100
AcDbEntity
  8
1
  6
Continuous
 62
    30
370
    18
100
AcDbLine
 10
204.168212890625
 20
185.8926849365234
 30
0.0
 11
204.168212890625
 21
182.081787109375
 31
0.0
  0
LINE
  5
151
330
1F
100
AcDbEntity
  8
1
  6
Continuous
 62
    30
370
    18
100
AcDbLine
 10
204.1209716796875
 20
185.8926849365234
 30
0.0
 11
204.1209716796875
 21
182.081787109375
 31
0.0
  0
LINE
  5
152
330
1F
100
AcDbEntity
  8
1
  6
Continuous
 62
    30
370
    18
100
AcDbLine
 10
204.168212890625
 20
177.8734283447265
 30
0.0
 11
204.1209716796875
 21
177.8734283447265
 31
0.0
  0
LINE
  5
153
330
1F
100
AcDbEntity
  8
1
  6
Continuous
 62
    30
370
    18
100
AcDbLine
 10
204.1209716796875
 20
179.16796875
 30
0.0
 11
204.1209716796875
 21
177.9915466308594
 31
0.0
  0
LINE
  5
154
330
1F
100
AcDbEntity
  8
1
  6
Continuous
 62
    30
370
    18
100
AcDbLine
 10
204.168212890625
 20
179.16796875
 30
0.0
 11
204.168212890625
 21
177.9915466308594
 31
0.0
  0
LINE
  5
155
330
1F
100
AcDbEntity
  8
1
  6
Continuous
 62
    30
370
    18
100
AcDbLine
 10
204.1209716796875
 20
179.4634552001953
 30
0.0
 11
204.168212890625
 21
179.4634552001953
 31
0.0
  0
LINE
  5
156
330
1F
100
AcDbEntity
  8
1
  6
Continuous
 62
    30
370
    18
100
AcDbLine
 10
204.1209716796875
 20
179.4634552001953
 30
0.0
 11
204.1209716796875
 21
179.2702484130859
 31
0.0
  0
LINE
  5
157
330
1F
100
AcDbEntity
  8
1
  6
Continuous
 62
    30
370
    18
100
AcDbLine
 10
204.168212890625
 20
179.4634552001953
 30
0.0
 11
204.168212890625
 21
179.2702484130859
 31
0.0
  0
LINE
  5
158
330
1F
100
AcDbEntity
  8
1
  6
Continuous
 62
    30
370
    18
100
AcDbLine
 10
204.1209716796875
 20
181.7863006591797
 30
0.0
 11
204.168212890625
 21
181.7863006591797
 31
0.0
  0
LINE
  5
159
330
1F
100
AcDbEntity
  8
1
  6
Continuous
 62
    30
370
    18
100
AcDbLine
 10
204.1209716796875
 20
181.979507446289
 30
0.0
 11
204.1209716796875
 21
181.7863006591797
 31
0.0
  0
LINE
  5
15A
330
1F
100
AcDbEntity
  8
1
  6
Continuous
 62
    30
370
    18
100
AcDbLine
 10
204.168212890625
 20
181.979507446289
 30
0.0
 11
204.168212890625
 21
181.7863006591797
 31
0.0
  0
LINE
  5
15B
330
1F
100
AcDbEntity
  8
1
  6
Continuous
 62
    30
370
    18
100
AcDbLine
 10
204.1209716796875
 20
181.7863006591797
 30
0.0
 11
204.1209716796875
 21
179.4634552001953
 31
0.0
  0
LINE
  5
15C
330
1F
100
AcDbEntity
  8
1
  6
Continuous
 62
    30
370
    18
100
AcDbLine
 10
204.168212890625
 20
181.7863006591797
 30
0.0
 11
204.168212890625
 21
179.4634552001953
 31
0.0
  0
LINE
  5
15D
330
1F
100
AcDbEntity
  8
1
  6
Continuous
 62
    31
370
    18
100
AcDbLine
 10
204.1007843017578
 20
144.8397827148437
 30
0.0
 11
204.1007843017578
 21
155.5037384033203
 31
0.0
  0
LINE
  5
15E
330
1F
100
AcDbEntity
  8
1
  6
Continuous
 62
    31
370
    18
100
AcDbLine
 10
204.1480255126953
 20
144.8397827148437
 30
0.0
 11
204.1480255126953
 21
155.5037384033203
 31
0.0
  0
LINE
  5
15F
330
1F
100
AcDbEntity
  8
1
  6
Continuous
 62
    31
370
    18
100
AcDbLine
 10
204.1007843017578
 20
156.3369750976562
 30
0.0
 11
204.1007843017578
 21
155.5872497558594
 31
0.0
  0
LINE
  5
160
330
1F
100
AcDbEntity
  8
1
  6
Continuous
 62
    31
370
    18
100
AcDbLine
 10
204.1480255126953
 20
156.3369750976562
 30
0.0
 11
204.1480255126953
 21
155.5872497558594
 31
0.0
  0
LINE
  5
161
330
1F
100
AcDbEntity
  8
1
  6
Continuous
 62
    31
370
    18
100
AcDbLine
 10
204.1007843017578
 20
144.0065460205078
 30
0.0
 11
204.1007843017578
 21
144.7562561035156
 31
0.0
  0
LINE
  5
162
330
1F
100
AcDbEntity
  8
1
  6
Continuous
 62
    31
370
    18
100
AcDbLine
 10
204.1480255126953
 20
144.0065460205078
 30
0.0
 11
204.1480255126953
 21
144.7562561035156
 31
0.0
  0
LINE
  5
163
330
1F
100
AcDbEntity
  8
1
  6
Continuous
 62
    31
370
    18
100
AcDbLine
 10
204.1007843017578
 20
157.3636932373046
 30
0.0
 11
204.1480255126953
 21
157.3636932373046
 31
0.0
  0
LINE
  5
164
330
1F
100
AcDbEntity
  8
1
  6
Continuous
 62
    31
370
    18
100
AcDbLine
 10
204.1480255126953
 20
142.9798278808593
 30
0.0
 11
204.1007843017578
 21
142.9798278808593
 31
0.0
  0
LINE
  5
165
330
1F
100
AcDbEntity
  8
1
  6
Continuous
 62
    31
370
    18
100
AcDbLine
 10
204.1007843017578
 20
143.0979461669922
 30
0.0
 11
204.1007843017578
 21
143.9230346679687
 31
0.0
  0
LINE
  5
166
330
1F
100
AcDbEntity
  8
1
  6
Continuous
 62
    31
370
    18
100
AcDbLine
 10
204.1480255126953
 20
143.0979461669922
 30
0.0
 11
204.1480255126953
 21
143.9230346679687
 31
0.0
  0
LINE
  5
167
330
1F
100
AcDbEntity
  8
1
  6
Continuous
 62
    31
370
    18
100
AcDbLine
 10
204.1007843017578
 20
157.2455749511719
 30
0.0
 11
204.1007843017578
 21
156.4204864501953
 31
0.0
  0
LINE
  5
168
330
1F
100
AcDbEntity
  8
1
  6
Continuous
 62
    31
370
    18
100
AcDbLine
 10
204.1480255126953
 20
157.2455749511719
 30
0.0
 11
204.1480255126953
 21
156.4204864501953
 31
0.0
  0
LINE
  5
169
330
1F
100
AcDbEntity
  8
1
  6
Continuous
 62
    31
370
    18
100
AcDbLine
 10
203.0771484375
 20
143.0979461669922
 30
0.0
 11
203.0771484375
 21
157.2455749511719
 31
0.0
  0
LINE
  5
16A
330
1F
100
AcDbEntity
  8
1
  6
Continuous
 62
    31
370
    18
100
AcDbLine
 10
204.0614166259766
 20
142.9798278808593
 30
0.0
 11
203.1952667236328
 21
142.9798278808593
 31
0.0
  0
LINE
  5
16B
330
1F
100
AcDbEntity
  8
1
  6
Continuous
 62
    31
370
    18
100
AcDbLine
 10
203.1952667236328
 20
157.3636932373046
 30
0.0
 11
204.0614166259766
 21
157.3636932373046
 31
0.0
  0
LINE
  5
16C
330
1F
100
AcDbEntity
  8
1
  6
Continuous
 62
    31
370
    18
100
AcDbLine
 10
161.5376892089843
 20
213.1014404296875
 30
0.0
 11
161.1912231445312
 21
213.1014404296875
 31
0.0
  0
LINE
  5
16D
330
1F
100
AcDbEntity
  8
1
  6
Continuous
 62
    31
370
    18
100
AcDbLine
 10
161.6557922363281
 20
213.1014404296875
 30
0.0
 11
161.6557922363281
 21
213.0812377929688
 31
0.0
  0
LINE
  5
16E
330
1F
100
AcDbEntity
  8
1
  6
Continuous
 62
    31
370
    18
100
AcDbLine
 10
161.6903839111328
 20
213.1014404296875
 30
0.0
 11
162.4400939941406
 21
213.1014404296875
 31
0.0
  0
LINE
  5
16F
330
1F
100
AcDbEntity
  8
1
  6
Continuous
 62
    31
370
    18
100
AcDbLine
 10
162.4746856689453
 20
213.1014404296875
 30
0.0
 11
162.4746856689453
 21
213.0812377929688
 31
0.0
  0
LINE
  5
170
330
1F
100
AcDbEntity
  8
1
  6
Continuous
 62
    31
370
    18
100
AcDbLine
 10
126.7739105224609
 20
212.0103759765625
 30
0.0
 11
126.7266540527343
 21
212.0103759765625
 31
0.0
  0
LINE
  5
171
330
1F
100
AcDbEntity
  8
1
  6
Continuous
 62
    31
370
    18
100
AcDbLine
 10
126.2227249145507
 20
213.0339965820312
 30
0.0
 11
126.2227249145507
 21
213.0812377929688
 31
0.0
  0
LINE
  5
172
330
1F
100
AcDbEntity
  8
1
  6
Continuous
 62
    31
370
    18
100
AcDbLine
 10
126.7266540527343
 20
212.9946441650391
 30
0.0
 11
126.7266540527343
 21
212.1284942626953
 31
0.0
  0
LINE
  5
173
330
1F
100
AcDbEntity
  8
1
  6
Continuous
 62
    31
370
    18
100
AcDbLine
 10
126.7739105224609
 20
212.9946441650391
 30
0.0
 11
126.7739105224609
 21
212.1284942626953
 31
0.0
  0
LINE
  5
174
330
1F
100
AcDbEntity
  8
1
  6
Continuous
 62
    31
370
    18
100
AcDbLine
 10
126.6872940063476
 20
213.0812377929688
 30
0.0
 11
126.340835571289
 21
213.0812377929688
 31
0.0
  0
LINE
  5
175
330
1F
100
AcDbEntity
  8
1
  6
Continuous
 62
    31
370
    18
100
AcDbLine
 10
126.6872940063476
 20
213.0339965820312
 30
0.0
 11
126.340835571289
 21
213.0339965820312
 31
0.0
  0
LINE
  5
176
330
1F
100
AcDbEntity
  8
1
  6
Continuous
 62
    31
370
    18
100
AcDbLine
 10
126.1881256103515
 20
213.0812377929688
 30
0.0
 11
125.4384155273437
 21
213.0812377929688
 31
0.0
  0
LINE
  5
177
330
1F
100
AcDbEntity
  8
1
  6
Continuous
 62
    31
370
    18
100
AcDbLine
 10
126.1881256103515
 20
213.0339965820312
 30
0.0
 11
125.4384155273437
 21
213.0339965820312
 31
0.0
  0
LINE
  5
178
330
1F
100
AcDbEntity
  8
1
  6
Continuous
 62
    31
370
    18
100
AcDbLine
 10
125.4038162231445
 20
213.0339965820312
 30
0.0
 11
125.4038162231445
 21
213.0812377929688
 31
0.0
  0
LINE
  5
179
330
1F
100
AcDbEntity
  8
1
  6
Continuous
 62
    21
370
    18
100
AcDbLine
 10
154.1046142578125
 20
211.5069427490234
 30
0.0
 11
154.057373046875
 21
211.5069427490234
 31
0.0
  0
LINE
  5
17A
330
1F
100
AcDbEntity
  8
1
  6
Continuous
 62
    21
370
    18
100
AcDbLine
 10
154.9471282958984
 20
213.148681640625
 30
0.0
 11
154.9471282958984
 21
213.1014404296875
 31
0.0
  0
LINE
  5
17B
330
1F
100
AcDbEntity
  8
1
  6
Continuous
 62
    21
370
    18
100
AcDbLine
 10
154.1046142578125
 20
211.6250610351563
 30
0.0
 11
154.1046142578125
 21
213.0620574951172
 31
0.0
  0
LINE
  5
17C
330
1F
100
AcDbEntity
  8
1
  6
Continuous
 62
    21
370
    18
100
AcDbLine
 10
154.1439819335937
 20
213.1014404296875
 30
0.0
 11
154.8290252685547
 21
213.1014404296875
 31
0.0
  0
LINE
  5
17D
330
1F
100
AcDbEntity
  8
1
  6
Continuous
 62
    21
370
    18
100
AcDbLine
 10
154.057373046875
 20
213.0620574951172
 30
0.0
 11
154.057373046875
 21
211.6250610351563
 31
0.0
  0
LINE
  5
17E
330
1F
100
AcDbEntity
  8
1
  6
Continuous
 62
    21
370
    18
100
AcDbLine
 10
154.8290252685547
 20
213.148681640625
 30
0.0
 11
154.1439819335937
 21
213.148681640625
 31
0.0
  0
LINE
  5
17F
330
1F
100
AcDbEntity
  8
1
  6
Continuous
 62
    21
370
    18
100
AcDbLine
 10
155.4274444580078
 20
214.026626586914
 30
0.0
 11
155.4746856689453
 21
214.026626586914
 31
0.0
  0
LINE
  5
180
330
1F
100
AcDbEntity
  8
1
  6
Continuous
 62
    21
370
    18
100
AcDbLine
 10
155.4274444580078
 20
213.9085235595703
 30
0.0
 11
155.4274444580078
 21
213.1880493164063
 31
0.0
  0
LINE
  5
181
330
1F
100
AcDbEntity
  8
1
  6
Continuous
 62
    21
370
    18
100
AcDbLine
 10
155.4746856689453
 20
213.9085235595703
 30
0.0
 11
155.4746856689453
 21
213.1880493164063
 31
0.0
  0
LINE
  5
182
330
1F
100
AcDbEntity
  8
1
  6
Continuous
 62
    21
370
    18
100
AcDbLine
 10
155.3880767822265
 20
213.1014404296875
 30
0.0
 11
155.0652313232422
 21
213.1014404296875
 31
0.0
  0
LINE
  5
183
330
1F
100
AcDbEntity
  8
1
  6
Continuous
 62
    21
370
    18
100
AcDbLine
 10
155.3880767822265
 20
213.148681640625
 30
0.0
 11
155.0652313232422
 21
213.148681640625
 31
0.0
  0
LINE
  5
184
330
1F
100
AcDbEntity
  8
1
  6
Continuous
 62
    21
370
    18
100
AcDbLine
 10
155.0337371826172
 20
213.9085235595703
 30
0.0
 11
155.0337371826172
 21
213.1880493164063
 31
0.0
  0
LINE
  5
185
330
1F
100
AcDbEntity
  8
1
  6
Continuous
 62
    21
370
    18
100
AcDbLine
 10
155.0809936523437
 20
213.9085235595703
 30
0.0
 11
155.0809936523437
 21
213.1880493164063
 31
0.0
  0
LINE
  5
186
330
1F
100
AcDbEntity
  8
1
  6
Continuous
 62
    21
370
    18
100
AcDbLine
 10
155.0337371826172
 20
214.026626586914
 30
0.0
 11
155.0809936523437
 21
214.026626586914
 31
0.0
  0
LINE
  5
187
330
1F
100
AcDbEntity
  8
1
  6
Continuous
 62
   211
370
    18
100
AcDbLine
 10
133.8211517333984
 20
211.5069427490234
 30
0.0
 11
133.7739105224609
 21
211.5069427490234
 31
0.0
  0
LINE
  5
188
330
1F
100
AcDbEntity
  8
1
  6
Continuous
 62
   211
370
    18
100
AcDbLine
 10
132.9313812255859
 20
213.1014404296875
 30
0.0
 11
132.9313812255859
 21
213.148681640625
 31
0.0
  0
LINE
  5
189
330
1F
100
AcDbEntity
  8
1
  6
Continuous
 62
   211
370
    18
100
AcDbLine
 10
133.7739105224609
 20
211.6250610351563
 30
0.0
 11
133.7739105224609
 21
213.0620574951172
 31
0.0
  0
LINE
  5
18A
330
1F
100
AcDbEntity
  8
1
  6
Continuous
 62
   211
370
    18
100
AcDbLine
 10
133.7345275878906
 20
213.1014404296875
 30
0.0
 11
133.0494995117187
 21
213.1014404296875
 31
0.0
  0
LINE
  5
18B
330
1F
100
AcDbEntity
  8
1
  6
Continuous
 62
   211
370
    18
100
AcDbLine
 10
133.8211517333984
 20
211.6250610351563
 30
0.0
 11
133.8211517333984
 21
213.0620574951172
 31
0.0
  0
LINE
  5
18C
330
1F
100
AcDbEntity
  8
1
  6
Continuous
 62
   211
370
    18
100
AcDbLine
 10
133.7345275878906
 20
213.148681640625
 30
0.0
 11
133.0494995117187
 21
213.148681640625
 31
0.0
  0
LINE
  5
18D
330
1F
100
AcDbEntity
  8
1
  6
Continuous
 62
   211
370
    18
100
AcDbLine
 10
132.403823852539
 20
214.026626586914
 30
0.0
 11
132.4510650634765
 21
214.026626586914
 31
0.0
  0
LINE
  5
18E
330
1F
100
AcDbEntity
  8
1
  6
Continuous
 62
   211
370
    18
100
AcDbLine
 10
132.403823852539
 20
213.1880493164063
 30
0.0
 11
132.403823852539
 21
213.9085235595703
 31
0.0
  0
LINE
  5
18F
330
1F
100
AcDbEntity
  8
1
  6
Continuous
 62
   211
370
    18
100
AcDbLine
 10
132.4510650634765
 20
213.1880493164063
 30
0.0
 11
132.4510650634765
 21
213.9085235595703
 31
0.0
  0
LINE
  5
190
330
1F
100
AcDbEntity
  8
1
  6
Continuous
 62
   211
370
    18
100
AcDbLine
 10
132.4904327392578
 20
213.1014404296875
 30
0.0
 11
132.8132781982422
 21
213.1014404296875
 31
0.0
  0
LINE
  5
191
330
1F
100
AcDbEntity
  8
1
  6
Continuous
 62
   211
370
    18
100
AcDbLine
 10
132.4904327392578
 20
213.148681640625
 30
0.0
 11
132.8132781982422
 21
213.148681640625
 31
0.0
  0
LINE
  5
192
330
1F
100
AcDbEntity
  8
1
  6
Continuous
 62
   211
370
    18
100
AcDbLine
 10
132.7975311279297
 20
213.1880493164063
 30
0.0
 11
132.7975311279297
 21
213.9085235595703
 31
0.0
  0
LINE
  5
193
330
1F
100
AcDbEntity
  8
1
  6
Continuous
 62
   211
370
    18
100
AcDbLine
 10
132.8447723388672
 20
213.1880493164063
 30
0.0
 11
132.8447723388672
 21
213.9085235595703
 31
0.0
  0
LINE
  5
194
330
1F
100
AcDbEntity
  8
1
  6
Continuous
 62
   211
370
    18
100
AcDbLine
 10
132.7975311279297
 20
214.026626586914
 30
0.0
 11
132.8447723388672
 21
214.026626586914
 31
0.0
  0
LINE
  5
195
330
1F
100
AcDbEntity
  8
1
  6
Continuous
 62
    31
370
    18
100
AcDbLine
 10
126.6872940063476
 20
213.1014404296875
 30
0.0
 11
126.340835571289
 21
213.1014404296875
 31
0.0
  0
LINE
  5
196
330
1F
100
AcDbEntity
  8
1
  6
Continuous
 62
    31
370
    18
100
AcDbLine
 10
126.2227249145507
 20
213.0812377929688
 30
0.0
 11
126.2227249145507
 21
213.1014404296875
 31
0.0
  0
LINE
  5
197
330
1F
100
AcDbEntity
  8
1
  6
Continuous
 62
    31
370
    18
100
AcDbLine
 10
126.1881256103515
 20
213.1014404296875
 30
0.0
 11
125.4384155273437
 21
213.1014404296875
 31
0.0
  0
LINE
  5
198
330
1F
100
AcDbEntity
  8
1
  6
Continuous
 62
    31
370
    18
100
AcDbLine
 10
125.4038162231445
 20
213.0812377929688
 30
0.0
 11
125.4038162231445
 21
213.1014404296875
 31
0.0
  0
LINE
  5
199
330
1F
100
AcDbEntity
  8
1
  6
Continuous
 62
    30
370
    18
100
AcDbLine
 10
133.5849304199218
 20
213.1014404296875
 30
0.0
 11
133.5849304199218
 21
213.0541839599609
 31
0.0
  0
LINE
  5
19A
330
1F
100
AcDbEntity
  8
1
  6
Continuous
 62
    30
370
    18
100
AcDbLine
 10
132.403823852539
 20
213.0541839599609
 30
0.0
 11
132.403823852539
 21
213.1014404296875
 31
0.0
  0
LINE
  5
19B
330
1F
100
AcDbEntity
  8
1
  6
Continuous
 62
    30
370
    18
100
AcDbLine
 10
132.5219268798828
 20
213.0541839599609
 30
0.0
 11
133.466812133789
 21
213.0541839599609
 31
0.0
  0
LINE
  5
19C
330
1F
100
AcDbEntity
  8
1
  6
Continuous
 62
    30
370
    18
100
AcDbLine
 10
154.2935791015625
 20
213.0541839599609
 30
0.0
 11
154.2935791015625
 21
213.1014404296875
 31
0.0
  0
LINE
  5
19D
330
1F
100
AcDbEntity
  8
1
  6
Continuous
 62
    30
370
    18
100
AcDbLine
 10
155.4746856689453
 20
213.1014404296875
 30
0.0
 11
155.4746856689453
 21
213.0541839599609
 31
0.0
  0
LINE
  5
19E
330
1F
100
AcDbEntity
  8
1
  6
Continuous
 62
    30
370
    18
100
AcDbLine
 10
155.3565826416015
 20
213.0541839599609
 30
0.0
 11
154.4116973876953
 21
213.0541839599609
 31
0.0
  0
LINE
  5
19F
330
1F
100
AcDbEntity
  8
1
  6
Continuous
 62
    31
370
    18
100
AcDbLine
 10
161.6557922363281
 20
213.0812377929688
 30
0.0
 11
161.6557922363281
 21
213.0339965820312
 31
0.0
  0
LINE
  5
1A0
330
1F
100
AcDbEntity
  8
1
  6
Continuous
 62
    31
370
    18
100
AcDbLine
 10
161.15185546875
 20
212.0103759765625
 30
0.0
 11
161.1046142578125
 21
212.0103759765625
 31
0.0
  0
LINE
  5
1A1
330
1F
100
AcDbEntity
  8
1
  6
Continuous
 62
    31
370
    18
100
AcDbLine
 10
161.5376892089843
 20
213.0339965820312
 30
0.0
 11
161.1912231445312
 21
213.0339965820312
 31
0.0
  0
LINE
  5
1A2
330
1F
100
AcDbEntity
  8
1
  6
Continuous
 62
    31
370
    18
100
AcDbLine
 10
161.5376892089843
 20
213.0812377929688
 30
0.0
 11
161.1912231445312
 21
213.0812377929688
 31
0.0
  0
LINE
  5
1A3
330
1F
100
AcDbEntity
  8
1
  6
Continuous
 62
    31
370
    18
100
AcDbLine
 10
161.1046142578125
 20
212.1284942626953
 30
0.0
 11
161.1046142578125
 21
212.9946441650391
 31
0.0
  0
LINE
  5
1A4
330
1F
100
AcDbEntity
  8
1
  6
Continuous
 62
    31
370
    18
100
AcDbLine
 10
161.15185546875
 20
212.1284942626953
 30
0.0
 11
161.15185546875
 21
212.9946441650391
 31
0.0
  0
LINE
  5
1A5
330
1F
100
AcDbEntity
  8
1
  6
Continuous
 62
    31
370
    18
100
AcDbLine
 10
161.6903839111328
 20
213.0339965820312
 30
0.0
 11
162.4400939941406
 21
213.0339965820312
 31
0.0
  0
LINE
  5
1A6
330
1F
100
AcDbEntity
  8
1
  6
Continuous
 62
    31
370
    18
100
AcDbLine
 10
161.6903839111328
 20
213.0812377929688
 30
0.0
 11
162.4400939941406
 21
213.0812377929688
 31
0.0
  0
LINE
  5
1A7
330
1F
100
AcDbEntity
  8
1
  6
Continuous
 62
    31
370
    18
100
AcDbLine
 10
162.4746856689453
 20
213.0812377929688
 30
0.0
 11
162.4746856689453
 21
213.0339965820312
 31
0.0
  0
CIRCLE
  5
1A8
330
1F
100
AcDbEntity
  8
1
  6
Continuous
 62
    31
370
    18
100
AcDbCircle
 10
161.7660369873047
 20
118.2085342407226
 30
0.0
 40
0.1181102395057678
  0
CIRCLE
  5
1A9
330
1F
100
AcDbEntity
  8
1
  6
Continuous
 62
    31
370
    18
100
AcDbCircle
 10
161.7660369873047
 20
117.4211349487304
 30
0.0
 40
0.1181102395057678
  0
CIRCLE
  5
1AA
330
1F
100
AcDbEntity
  8
1
  6
Continuous
 62
    31
370
    18
100
AcDbCircle
 10
161.7660369873047
 20
115.5835342407226
 30
0.0
 40
0.1181102395057678
  0
CIRCLE
  5
1AB
330
1F
100
AcDbEntity
  8
1
  6
Continuous
 62
    31
370
    18
100
AcDbCircle
 10
161.7660369873047
 20
114.7961349487304
 30
0.0
 40
0.1181102395057678
  0
ARC
  5
1AC
330
1F
100
AcDbEntity
  8
1
  6
Continuous
 62
    31
370
    18
100
AcDbCircle
 10
161.7739105224609
 20
124.0635604858398
 30
0.0
 40
0.1181102395057678
100
AcDbArc
 50
180.0
 51
225.0
  0
ARC
  5
1AD
330
1F
100
AcDbEntity
  8
1
  6
Continuous
 62
    31
370
    18
100
AcDbCircle
 10
162.3565826416015
 20
123.1468276977539
 30
0.0
 40
0.1181102395057678
100
AcDbArc
 50
0.0
 51
45.0
  0
ARC
  5
1AE
330
1F
100
AcDbEntity
  8
1
  6
Continuous
 62
    31
370
    18
100
AcDbCircle
 10
162.3565826416015
 20
112.4828567504883
 30
0.0
 40
0.1181102395057678
100
AcDbArc
 50
315.0
 51
0.0
  0
ARC
  5
1AF
330
1F
100
AcDbEntity
  8
1
  6
Continuous
 62
    31
370
    18
100
AcDbCircle
 10
161.7739105224609
 20
111.5661087036132
 30
0.0
 40
0.1181102395057678
100
AcDbArc
 50
135.0
 51
180.0
  0
ARC
  5
1B0
330
1F
100
AcDbEntity
  8
1
  6
Continuous
 62
    31
370
    18
100
AcDbCircle
 10
161.5376892089843
 20
110.7410202026367
 30
0.0
 40
0.1181102395057678
100
AcDbArc
 50
270.0
 51
0.0
  0
CIRCLE
  5
1B1
330
1F
100
AcDbEntity
  8
1
  6
Continuous
 62
    31
370
    18
100
AcDbCircle
 10
161.7660369873047
 20
120.0461349487304
 30
0.0
 40
0.1181102395057678
  0
CIRCLE
  5
1B2
330
1F
100
AcDbEntity
  8
1
  6
Continuous
 62
    31
370
    18
100
AcDbCircle
 10
161.7660369873047
 20
120.8335342407226
 30
0.0
 40
0.1181102395057678
  0
ARC
  5
1B3
330
1F
100
AcDbEntity
  8
1
  6
Continuous
 62
    31
370
    18
100
AcDbCircle
 10
161.5376892089843
 20
124.8886642456054
 30
0.0
 40
0.1181102395057678
100
AcDbArc
 50
0.0
 51
90.0
  0
CIRCLE
  5
1B4
330
1F
100
AcDbEntity
  8
1
  6
Continuous
 62
    30
370
    18
100
AcDbCircle
 10
154.8841400146484
 20
145.2903137207031
 30
0.0
 40
0.1181102395057678
  0
CIRCLE
  5
1B5
330
1F
100
AcDbEntity
  8
1
  6
Continuous
 62
    30
370
    18
100
AcDbCircle
 10
154.8841400146484
 20
138.13720703125
 30
0.0
 40
0.1181102395057678
  0
ARC
  5
1B6
330
1F
100
AcDbEntity
  8
1
  6
Continuous
 62
    30
370
    18
100
AcDbCircle
 10
155.3565826416015
 20
137.763198852539
 30
0.0
 40
0.1181102395057678
100
AcDbArc
 50
270.0
 51
0.0
  0
ARC
  5
1B7
330
1F
100
AcDbEntity
  8
1
  6
Continuous
 62
    30
370
    18
100
AcDbCircle
 10
154.4116973876953
 20
137.763198852539
 30
0.0
 40
0.1181102395057678
100
AcDbArc
 50
180.0
 51
270.0
  0
ARC
  5
1B8
330
1F
100
AcDbEntity
  8
1
  6
Continuous
 62
    30
370
    18
100
AcDbCircle
 10
154.4116973876953
 20
145.6643371582031
 30
0.0
 40
0.1181102395057678
100
AcDbArc
 50
90.0
 51
180.0
  0
ARC
  5
1B9
330
1F
100
AcDbEntity
  8
1
  6
Continuous
 62
    30
370
    18
100
AcDbCircle
 10
155.3565826416015
 20
145.6643371582031
 30
0.0
 40
0.1181102395057678
100
AcDbArc
 50
0.0
 51
90.0
  0
ARC
  5
1BA
330
1F
100
AcDbEntity
  8
1
  6
Continuous
 62
    30
370
    18
100
AcDbCircle
 10
155.3565826416015
 20
138.9396209716797
 30
0.0
 40
0.1181102395057678
100
AcDbArc
 50
0.0
 51
60.00000004085404
  0
ARC
  5
1BB
330
1F
100
AcDbEntity
  8
1
  6
Continuous
 62
    30
370
    18
100
AcDbCircle
 10
155.3565826416015
 20
141.8534393310547
 30
0.0
 40
0.1181102395057678
100
AcDbArc
 50
299.999999959146
 51
0.0
  0
CIRCLE
  5
1BC
330
1F
100
AcDbEntity
  8
1
  6
Continuous
 62
    31
370
    18
100
AcDbCircle
 10
126.1124877929687
 20
149.7780609130859
 30
0.0
 40
0.1181102395057678
  0
CIRCLE
  5
1BD
330
1F
100
AcDbEntity
  8
1
  6
Continuous
 62
    31
370
    18
100
AcDbCircle
 10
126.1124877929687
 20
150.5654602050781
 30
0.0
 40
0.1181102395057678
  0
CIRCLE
  5
1BE
330
1F
100
AcDbEntity
  8
1
  6
Continuous
 62
    31
370
    18
100
AcDbCircle
 10
126.1124877929687
 20
152.4030609130859
 30
0.0
 40
0.1181102395057678
  0
CIRCLE
  5
1BF
330
1F
100
AcDbEntity
  8
1
  6
Continuous
 62
    31
370
    18
100
AcDbCircle
 10
126.1124877929687
 20
153.1904602050781
 30
0.0
 40
0.1181102395057678
  0
ARC
  5
1C0
330
1F
100
AcDbEntity
  8
1
  6
Continuous
 62
    31
370
    18
100
AcDbCircle
 10
126.1046142578125
 20
143.9230346679687
 30
0.0
 40
0.1181102395057678
100
AcDbArc
 50
0.0
 51
45.0
  0
ARC
  5
1C1
330
1F
100
AcDbEntity
  8
1
  6
Continuous
 62
    31
370
    18
100
AcDbCircle
 10
125.5219268798828
 20
144.8397827148437
 30
0.0
 40
0.1181102395057678
100
AcDbArc
 50
180.0
 51
225.0
  0
ARC
  5
1C2
330
1F
100
AcDbEntity
  8
1
  6
Continuous
 62
    31
370
    18
100
AcDbCircle
 10
125.5219268798828
 20
155.5037384033203
 30
0.0
 40
0.1181102395057678
100
AcDbArc
 50
135.0
 51
180.0
  0
ARC
  5
1C3
330
1F
100
AcDbEntity
  8
1
  6
Continuous
 62
    31
370
    18
100
AcDbCircle
 10
126.1046142578125
 20
156.4204864501953
 30
0.0
 40
0.1181102395057678
100
AcDbArc
 50
315.0
 51
0.0
  0
ARC
  5
1C4
330
1F
100
AcDbEntity
  8
1
  6
Continuous
 62
    31
370
    18
100
AcDbCircle
 10
126.340835571289
 20
157.2455749511719
 30
0.0
 40
0.1181102395057678
100
AcDbArc
 50
90.0
 51
180.0
  0
CIRCLE
  5
1C5
330
1F
100
AcDbEntity
  8
1
  6
Continuous
 62
    31
370
    18
100
AcDbCircle
 10
126.1124877929687
 20
147.9404602050781
 30
0.0
 40
0.1181102395057678
  0
CIRCLE
  5
1C6
330
1F
100
AcDbEntity
  8
1
  6
Continuous
 62
    31
370
    18
100
AcDbCircle
 10
126.1124877929687
 20
147.1530609130859
 30
0.0
 40
0.1181102395057678
  0
ARC
  5
1C7
330
1F
100
AcDbEntity
  8
1
  6
Continuous
 62
    31
370
    18
100
AcDbCircle
 10
126.340835571289
 20
143.0979461669922
 30
0.0
 40
0.1181102395057678
100
AcDbArc
 50
180.0
 51
270.0
  0
ARC
  5
1C8
330
1F
100
AcDbEntity
  8
1
  6
Continuous
 62
    21
370
    18
100
AcDbCircle
 10
155.0652313232422
 20
187.7607116699218
 30
0.0
 40
0.1181102395057678
100
AcDbArc
 50
180.0
 51
270.0
  0
ARC
  5
1C9
330
1F
100
AcDbEntity
  8
1
  6
Continuous
 62
    21
370
    18
100
AcDbCircle
 10
154.7266540527344
 20
154.453628540039
 30
0.0
 40
0.1181102395057678
100
AcDbArc
 50
90.0
 51
180.0
  0
ARC
  5
1CA
330
1F
100
AcDbEntity
  8
1
  6
Continuous
 62
    21
370
    18
100
AcDbCircle
 10
154.4904327392578
 20
153.6268463134765
 30
0.0
 40
0.1181102395057678
100
AcDbArc
 50
270.0
 51
0.0
  0
ARC
  5
1CB
330
1F
100
AcDbEntity
  8
1
  6
Continuous
 62
    21
370
    18
100
AcDbCircle
 10
154.8290252685547
 20
187.9575500488281
 30
0.0
 40
0.1181102395057678
100
AcDbArc
 50
0.0
 51
90.0
  0
CIRCLE
  5
1CC
330
1F
100
AcDbEntity
  8
1
  6
Continuous
 62
    21
370
    18
100
AcDbCircle
 10
154.7660369873047
 20
155.0244903564453
 30
0.0
 40
0.0885826796293259
  0
CIRCLE
  5
1CD
330
1F
100
AcDbEntity
  8
1
  6
Continuous
 62
    21
370
    18
100
AcDbCircle
 10
154.7660369873047
 20
155.8118896484375
 30
0.0
 40
0.0885826796293259
  0
CIRCLE
  5
1CE
330
1F
100
AcDbEntity
  8
1
  6
Continuous
 62
    21
370
    18
100
AcDbCircle
 10
154.8841400146484
 20
185.5186614990234
 30
0.0
 40
0.0885826796293259
  0
CIRCLE
  5
1CF
330
1F
100
AcDbEntity
  8
1
  6
Continuous
 62
    21
370
    18
100
AcDbCircle
 10
154.8841400146484
 20
178.3655548095703
 30
0.0
 40
0.0885826796293259
  0
ARC
  5
1D0
330
1F
100
AcDbEntity
  8
1
  6
Continuous
 62
   211
370
    18
100
AcDbCircle
 10
133.15185546875
 20
154.453628540039
 30
0.0
 40
0.1181102395057678
100
AcDbArc
 50
0.0
 51
90.0
  0
ARC
  5
1D1
330
1F
100
AcDbEntity
  8
1
  6
Continuous
 62
   211
370
    18
100
AcDbCircle
 10
132.8132781982422
 20
187.7607116699218
 30
0.0
 40
0.1181102395057678
100
AcDbArc
 50
270.0
 51
0.0
  0
ARC
  5
1D2
330
1F
100
AcDbEntity
  8
1
  6
Continuous
 62
   211
370
    18
100
AcDbCircle
 10
133.0494995117187
 20
187.9575500488281
 30
0.0
 40
0.1181102395057678
100
AcDbArc
 50
90.0
 51
180.0
  0
ARC
  5
1D3
330
1F
100
AcDbEntity
  8
1
  6
Continuous
 62
   211
370
    18
100
AcDbCircle
 10
133.3880767822265
 20
153.6268463134765
 30
0.0
 40
0.1181102395057678
100
AcDbArc
 50
180.0
 51
270.0
  0
CIRCLE
  5
1D4
330
1F
100
AcDbEntity
  8
1
  6
Continuous
 62
   211
370
    18
100
AcDbCircle
 10
133.1124877929687
 20
155.0244903564453
 30
0.0
 40
0.0885826796293259
  0
CIRCLE
  5
1D5
330
1F
100
AcDbEntity
  8
1
  6
Continuous
 62
   211
370
    18
100
AcDbCircle
 10
133.1124877929687
 20
155.8118896484375
 30
0.0
 40
0.0885826796293259
  0
CIRCLE
  5
1D6
330
1F
100
AcDbEntity
  8
1
  6
Continuous
 62
   211
370
    18
100
AcDbCircle
 10
132.994384765625
 20
185.5186614990234
 30
0.0
 40
0.0885826796293259
  0
CIRCLE
  5
1D7
330
1F
100
AcDbEntity
  8
1
  6
Continuous
 62
   211
370
    18
100
AcDbCircle
 10
132.994384765625
 20
178.3655548095703
 30
0.0
 40
0.0885826796293259
  0
CIRCLE
  5
1D8
330
1F
100
AcDbEntity
  8
1
  6
Continuous
 62
    31
370
    18
100
AcDbCircle
 10
126.1124877929687
 20
117.4211349487304
 30
0.0
 40
0.1181102395057678
  0
CIRCLE
  5
1D9
330
1F
100
AcDbEntity
  8
1
  6
Continuous
 62
    31
370
    18
100
AcDbCircle
 10
126.1124877929687
 20
118.2085342407226
 30
0.0
 40
0.1181102395057678
  0
CIRCLE
  5
1DA
330
1F
100
AcDbEntity
  8
1
  6
Continuous
 62
    31
370
    18
100
AcDbCircle
 10
126.1124877929687
 20
120.0461349487304
 30
0.0
 40
0.1181102395057678
  0
CIRCLE
  5
1DB
330
1F
100
AcDbEntity
  8
1
  6
Continuous
 62
    31
370
    18
100
AcDbCircle
 10
126.1124877929687
 20
120.8335342407226
 30
0.0
 40
0.1181102395057678
  0
ARC
  5
1DC
330
1F
100
AcDbEntity
  8
1
  6
Continuous
 62
    31
370
    18
100
AcDbCircle
 10
126.1046142578125
 20
111.5661087036132
 30
0.0
 40
0.1181102395057678
100
AcDbArc
 50
0.0
 51
45.0
  0
ARC
  5
1DD
330
1F
100
AcDbEntity
  8
1
  6
Continuous
 62
    31
370
    18
100
AcDbCircle
 10
125.5219268798828
 20
112.4828567504883
 30
0.0
 40
0.1181102395057678
100
AcDbArc
 50
180.0
 51
225.0
  0
ARC
  5
1DE
330
1F
100
AcDbEntity
  8
1
  6
Continuous
 62
    31
370
    18
100
AcDbCircle
 10
125.5219268798828
 20
123.1468276977539
 30
0.0
 40
0.1181102395057678
100
AcDbArc
 50
135.0
 51
180.0
  0
ARC
  5
1DF
330
1F
100
AcDbEntity
  8
1
  6
Continuous
 62
    31
370
    18
100
AcDbCircle
 10
126.1046142578125
 20
124.0635604858398
 30
0.0
 40
0.1181102395057678
100
AcDbArc
 50
315.0
 51
0.0
  0
ARC
  5
1E0
330
1F
100
AcDbEntity
  8
1
  6
Continuous
 62
    31
370
    18
100
AcDbCircle
 10
126.340835571289
 20
124.8886642456054
 30
0.0
 40
0.1181102395057678
100
AcDbArc
 50
90.0
 51
180.0
  0
CIRCLE
  5
1E1
330
1F
100
AcDbEntity
  8
1
  6
Continuous
 62
    31
370
    18
100
AcDbCircle
 10
126.1124877929687
 20
115.5835342407226
 30
0.0
 40
0.1181102395057678
  0
CIRCLE
  5
1E2
330
1F
100
AcDbEntity
  8
1
  6
Continuous
 62
    31
370
    18
100
AcDbCircle
 10
126.1124877929687
 20
114.7961349487304
 30
0.0
 40
0.1181102395057678
  0
ARC
  5
1E3
330
1F
100
AcDbEntity
  8
1
  6
Continuous
 62
    31
370
    18
100
AcDbCircle
 10
126.340835571289
 20
110.7410202026367
 30
0.0
 40
0.1181102395057678
100
AcDbArc
 50
180.0
 51
270.0
  0
ARC
  5
1E4
330
1F
100
AcDbEntity
  8
1
  6
Continuous
 62
   211
370
    18
100
AcDbCircle
 10
133.15185546875
 20
114.2252731323242
 30
0.0
 40
0.1181102395057678
100
AcDbArc
 50
0.0
 51
90.0
  0
ARC
  5
1E5
330
1F
100
AcDbEntity
  8
1
  6
Continuous
 62
   211
370
    18
100
AcDbCircle
 10
132.8132781982422
 20
147.5323638916015
 30
0.0
 40
0.1181102395057678
100
AcDbArc
 50
270.0
 51
0.0
  0
ARC
  5
1E6
330
1F
100
AcDbEntity
  8
1
  6
Continuous
 62
   211
370
    18
100
AcDbCircle
 10
133.0494995117187
 20
147.7292022705078
 30
0.0
 40
0.1181102395057678
100
AcDbArc
 50
90.0
 51
180.0
  0
ARC
  5
1E7
330
1F
100
AcDbEntity
  8
1
  6
Continuous
 62
   211
370
    18
100
AcDbCircle
 10
133.3880767822265
 20
113.3984909057617
 30
0.0
 40
0.1181102395057678
100
AcDbArc
 50
180.0
 51
270.0
  0
CIRCLE
  5
1E8
330
1F
100
AcDbEntity
  8
1
  6
Continuous
 62
   211
370
    18
100
AcDbCircle
 10
133.1124877929687
 20
114.7961349487304
 30
0.0
 40
0.0885826796293259
  0
CIRCLE
  5
1E9
330
1F
100
AcDbEntity
  8
1
  6
Continuous
 62
   211
370
    18
100
AcDbCircle
 10
133.1124877929687
 20
115.5835342407226
 30
0.0
 40
0.0885826796293259
  0
CIRCLE
  5
1EA
330
1F
100
AcDbEntity
  8
1
  6
Continuous
 62
   211
370
    18
100
AcDbCircle
 10
132.994384765625
 20
145.2903137207031
 30
0.0
 40
0.0885826796293259
  0
CIRCLE
  5
1EB
330
1F
100
AcDbEntity
  8
1
  6
Continuous
 62
   211
370
    18
100
AcDbCircle
 10
132.994384765625
 20
138.13720703125
 30
0.0
 40
0.0885826796293259
  0
ARC
  5
1EC
330
1F
100
AcDbEntity
  8
1
  6
Continuous
 62
    21
370
    18
100
AcDbCircle
 10
155.0652313232422
 20
147.5323638916015
 30
0.0
 40
0.1181102395057678
100
AcDbArc
 50
180.0
 51
270.0
  0
ARC
  5
1ED
330
1F
100
AcDbEntity
  8
1
  6
Continuous
 62
    21
370
    18
100
AcDbCircle
 10
154.7266540527344
 20
114.2252731323242
 30
0.0
 40
0.1181102395057678
100
AcDbArc
 50
90.0
 51
180.0
  0
ARC
  5
1EE
330
1F
100
AcDbEntity
  8
1
  6
Continuous
 62
    21
370
    18
100
AcDbCircle
 10
154.4904327392578
 20
113.3984909057617
 30
0.0
 40
0.1181102395057678
100
AcDbArc
 50
270.0
 51
0.0
  0
ARC
  5
1EF
330
1F
100
AcDbEntity
  8
1
  6
Continuous
 62
    21
370
    18
100
AcDbCircle
 10
154.8290252685547
 20
147.7292022705078
 30
0.0
 40
0.1181102395057678
100
AcDbArc
 50
0.0
 51
90.0
  0
CIRCLE
  5
1F0
330
1F
100
AcDbEntity
  8
1
  6
Continuous
 62
    21
370
    18
100
AcDbCircle
 10
154.7660369873047
 20
114.7961349487304
 30
0.0
 40
0.0885826796293259
  0
CIRCLE
  5
1F1
330
1F
100
AcDbEntity
  8
1
  6
Continuous
 62
    21
370
    18
100
AcDbCircle
 10
154.7660369873047
 20
115.5835342407226
 30
0.0
 40
0.0885826796293259
  0
CIRCLE
  5
1F2
330
1F
100
AcDbEntity
  8
1
  6
Continuous
 62
    21
370
    18
100
AcDbCircle
 10
154.8841400146484
 20
145.2903137207031
 30
0.0
 40
0.0885826796293259
  0
CIRCLE
  5
1F3
330
1F
100
AcDbEntity
  8
1
  6
Continuous
 62
    21
370
    18
100
AcDbCircle
 10
154.8841400146484
 20
138.13720703125
 30
0.0
 40
0.0885826796293259
  0
ARC
  5
1F4
330
1F
100
AcDbEntity
  8
1
  6
Continuous
 62
    30
370
    18
100
AcDbCircle
 10
133.466812133789
 20
185.8926849365234
 30
0.0
 40
0.1181102395057678
100
AcDbArc
 50
0.0
 51
90.0
  0
ARC
  5
1F5
330
1F
100
AcDbEntity
  8
1
  6
Continuous
 62
    30
370
    18
100
AcDbCircle
 10
132.5219268798828
 20
177.9915466308594
 30
0.0
 40
0.1181102395057678
100
AcDbArc
 50
180.0
 51
270.0
  0
ARC
  5
1F6
330
1F
100
AcDbEntity
  8
1
  6
Continuous
 62
    30
370
    18
100
AcDbCircle
 10
132.5219268798828
 20
179.16796875
 30
0.0
 40
0.1181102395057678
100
AcDbArc
 50
119.9999999591459
 51
180.0
  0
CIRCLE
  5
1F7
330
1F
100
AcDbEntity
  8
1
  6
Continuous
 62
    30
370
    18
100
AcDbCircle
 10
132.994384765625
 20
178.3655548095703
 30
0.0
 40
0.1181102395057678
  0
ARC
  5
1F8
330
1F
100
AcDbEntity
  8
1
  6
Continuous
 62
    30
370
    18
100
AcDbCircle
 10
132.5219268798828
 20
182.081787109375
 30
0.0
 40
0.1181102395057678
100
AcDbArc
 50
180.0
 51
240.000000040854
  0
CIRCLE
  5
1F9
330
1F
100
AcDbEntity
  8
1
  6
Continuous
 62
    30
370
    18
100
AcDbCircle
 10
132.994384765625
 20
185.5186614990234
 30
0.0
 40
0.1181102395057678
  0
ARC
  5
1FA
330
1F
100
AcDbEntity
  8
1
  6
Continuous
 62
    30
370
    18
100
AcDbCircle
 10
132.5219268798828
 20
185.8926849365234
 30
0.0
 40
0.1181102395057678
100
AcDbArc
 50
90.0
 51
180.0
  0
ARC
  5
1FB
330
1F
100
AcDbEntity
  8
1
  6
Continuous
 62
    30
370
    18
100
AcDbCircle
 10
133.466812133789
 20
177.9915466308594
 30
0.0
 40
0.1181102395057678
100
AcDbArc
 50
270.0
 51
0.0
  0
CIRCLE
  5
1FC
330
1F
100
AcDbEntity
  8
1
  6
Continuous
 62
    30
370
    18
100
AcDbCircle
 10
154.8841400146484
 20
185.5186614990234
 30
0.0
 40
0.1181102395057678
  0
CIRCLE
  5
1FD
330
1F
100
AcDbEntity
  8
1
  6
Continuous
 62
    30
370
    18
100
AcDbCircle
 10
154.8841400146484
 20
178.3655548095703
 30
0.0
 40
0.1181102395057678
  0
ARC
  5
1FE
330
1F
100
AcDbEntity
  8
1
  6
Continuous
 62
    30
370
    18
100
AcDbCircle
 10
155.3565826416015
 20
177.9915466308594
 30
0.0
 40
0.1181102395057678
100
AcDbArc
 50
270.0
 51
0.0
  0
ARC
  5
1FF
330
1F
100
AcDbEntity
  8
1
  6
Continuous
 62
    30
370
    18
100
AcDbCircle
 10
154.4116973876953
 20
177.9915466308594
 30
0.0
 40
0.1181102395057678
100
AcDbArc
 50
180.0
 51
270.0
  0
ARC
  5
200
330
1F
100
AcDbEntity
  8
1
  6
Continuous
 62
    30
370
    18
100
AcDbCircle
 10
154.4116973876953
 20
185.8926849365234
 30
0.0
 40
0.1181102395057678
100
AcDbArc
 50
90.0
 51
180.0
  0
ARC
  5
201
330
1F
100
AcDbEntity
  8
1
  6
Continuous
 62
    30
370
    18
100
AcDbCircle
 10
155.3565826416015
 20
185.8926849365234
 30
0.0
 40
0.1181102395057678
100
AcDbArc
 50
0.0
 51
90.0
  0
ARC
  5
202
330
1F
100
AcDbEntity
  8
1
  6
Continuous
 62
    30
370
    18
100
AcDbCircle
 10
155.3565826416015
 20
179.16796875
 30
0.0
 40
0.1181102395057678
100
AcDbArc
 50
0.0
 51
60.00000004085404
  0
ARC
  5
203
330
1F
100
AcDbEntity
  8
1
  6
Continuous
 62
    30
370
    18
100
AcDbCircle
 10
155.3565826416015
 20
182.081787109375
 30
0.0
 40
0.1181102395057678
100
AcDbArc
 50
299.999999959146
 51
0.0
  0
ARC
  5
204
330
1F
100
AcDbEntity
  8
1
  6
Continuous
 62
    30
370
    18
100
AcDbCircle
 10
133.466812133789
 20
145.6643371582031
 30
0.0
 40
0.1181102395057678
100
AcDbArc
 50
0.0
 51
90.0
  0
ARC
  5
205
330
1F
100
AcDbEntity
  8
1
  6
Continuous
 62
    30
370
    18
100
AcDbCircle
 10
132.5219268798828
 20
137.763198852539
 30
0.0
 40
0.1181102395057678
100
AcDbArc
 50
180.0
 51
270.0
  0
ARC
  5
206
330
1F
100
AcDbEntity
  8
1
  6
Continuous
 62
    30
370
    18
100
AcDbCircle
 10
132.5219268798828
 20
138.9396209716797
 30
0.0
 40
0.1181102395057678
100
AcDbArc
 50
119.9999999591459
 51
180.0
  0
CIRCLE
  5
207
330
1F
100
AcDbEntity
  8
1
  6
Continuous
 62
    30
370
    18
100
AcDbCircle
 10
132.994384765625
 20
138.13720703125
 30
0.0
 40
0.1181102395057678
  0
ARC
  5
208
330
1F
100
AcDbEntity
  8
1
  6
Continuous
 62
    30
370
    18
100
AcDbCircle
 10
132.5219268798828
 20
141.8534393310547
 30
0.0
 40
0.1181102395057678
100
AcDbArc
 50
180.0
 51
240.000000040854
  0
CIRCLE
  5
209
330
1F
100
AcDbEntity
  8
1
  6
Continuous
 62
    30
370
    18
100
AcDbCircle
 10
132.994384765625
 20
145.2903137207031
 30
0.0
 40
0.1181102395057678
  0
ARC
  5
20A
330
1F
100
AcDbEntity
  8
1
  6
Continuous
 62
    30
370
    18
100
AcDbCircle
 10
132.5219268798828
 20
145.6643371582031
 30
0.0
 40
0.1181102395057678
100
AcDbArc
 50
90.0
 51
180.0
  0
ARC
  5
20B
330
1F
100
AcDbEntity
  8
1
  6
Continuous
 62
    30
370
    18
100
AcDbCircle
 10
133.466812133789
 20
137.763198852539
 30
0.0
 40
0.1181102395057678
100
AcDbArc
 50
270.0
 51
0.0
  0
CIRCLE
  5
20C
330
1F
100
AcDbEntity
  8
1
  6
Continuous
 62
    31
370
    18
100
AcDbCircle
 10
161.7660369873047
 20
150.5654602050781
 30
0.0
 40
0.1181102395057678
  0
CIRCLE
  5
20D
330
1F
100
AcDbEntity
  8
1
  6
Continuous
 62
    31
370
    18
100
AcDbCircle
 10
161.7660369873047
 20
149.7780609130859
 30
0.0
 40
0.1181102395057678
  0
CIRCLE
  5
20E
330
1F
100
AcDbEntity
  8
1
  6
Continuous
 62
    31
370
    18
100
AcDbCircle
 10
161.7660369873047
 20
147.9404602050781
 30
0.0
 40
0.1181102395057678
  0
CIRCLE
  5
20F
330
1F
100
AcDbEntity
  8
1
  6
Continuous
 62
    31
370
    18
100
AcDbCircle
 10
161.7660369873047
 20
147.1530609130859
 30
0.0
 40
0.1181102395057678
  0
ARC
  5
210
330
1F
100
AcDbEntity
  8
1
  6
Continuous
 62
    31
370
    18
100
AcDbCircle
 10
161.7739105224609
 20
156.4204864501953
 30
0.0
 40
0.1181102395057678
100
AcDbArc
 50
180.0
 51
225.0
  0
ARC
  5
211
330
1F
100
AcDbEntity
  8
1
  6
Continuous
 62
    31
370
    18
100
AcDbCircle
 10
162.3565826416015
 20
155.5037384033203
 30
0.0
 40
0.1181102395057678
100
AcDbArc
 50
0.0
 51
45.0
  0
ARC
  5
212
330
1F
100
AcDbEntity
  8
1
  6
Continuous
 62
    31
370
    18
100
AcDbCircle
 10
162.3565826416015
 20
144.8397827148437
 30
0.0
 40
0.1181102395057678
100
AcDbArc
 50
315.0
 51
0.0
  0
ARC
  5
213
330
1F
100
AcDbEntity
  8
1
  6
Continuous
 62
    31
370
    18
100
AcDbCircle
 10
161.7739105224609
 20
143.9230346679687
 30
0.0
 40
0.1181102395057678
100
AcDbArc
 50
135.0
 51
180.0
  0
ARC
  5
214
330
1F
100
AcDbEntity
  8
1
  6
Continuous
 62
    31
370
    18
100
AcDbCircle
 10
161.5376892089843
 20
143.0979461669922
 30
0.0
 40
0.1181102395057678
100
AcDbArc
 50
270.0
 51
0.0
  0
CIRCLE
  5
215
330
1F
100
AcDbEntity
  8
1
  6
Continuous
 62
    31
370
    18
100
AcDbCircle
 10
161.7660369873047
 20
152.4030609130859
 30
0.0
 40
0.1181102395057678
  0
CIRCLE
  5
216
330
1F
100
AcDbEntity
  8
1
  6
Continuous
 62
    31
370
    18
100
AcDbCircle
 10
161.7660369873047
 20
153.1904602050781
 30
0.0
 40
0.1181102395057678
  0
ARC
  5
217
330
1F
100
AcDbEntity
  8
1
  6
Continuous
 62
    31
370
    18
100
AcDbCircle
 10
161.5376892089843
 20
157.2455749511719
 30
0.0
 40
0.1181102395057678
100
AcDbArc
 50
0.0
 51
90.0
  0
ARC
  5
218
330
1F
100
AcDbEntity
  8
1
  6
Continuous
 62
    31
370
    18
100
AcDbCircle
 10
203.2154541015625
 20
110.7410202026367
 30
0.0
 40
0.1181102395057678
100
AcDbArc
 50
180.0
 51
270.0
  0
ARC
  5
219
330
1F
100
AcDbEntity
  8
1
  6
Continuous
 62
    31
370
    18
100
AcDbCircle
 10
203.2154541015625
 20
124.8886642456054
 30
0.0
 40
0.1181102395057678
100
AcDbArc
 50
90.0
 51
180.0
  0
CIRCLE
  5
21A
330
1F
100
AcDbEntity
  8
1
  6
Continuous
 62
    31
370
    18
100
AcDbCircle
 10
203.6485137939453
 20
110.859130859375
 30
0.0
 40
0.0984252020716667
  0
CIRCLE
  5
21B
330
1F
100
AcDbEntity
  8
1
  6
Continuous
 62
    31
370
    18
100
AcDbCircle
 10
203.6485137939453
 20
124.7705535888672
 30
0.0
 40
0.0984252020716667
  0
ARC
  5
21C
330
1F
100
AcDbEntity
  8
1
  6
Continuous
 62
    21
370
    18
100
AcDbCircle
 10
204.9752960205078
 20
155.2369384765625
 30
0.0
 40
0.1181102395057678
100
AcDbArc
 50
270.0
 51
0.0
  0
ARC
  5
21D
330
1F
100
AcDbEntity
  8
1
  6
Continuous
 62
    21
370
    18
100
AcDbCircle
 10
204.9752960205078
 20
178.8173217773437
 30
0.0
 40
0.1181102395057678
100
AcDbArc
 50
0.0
 51
90.0
  0
ARC
  5
21E
330
1F
100
AcDbEntity
  8
1
  6
Continuous
 62
    21
370
    18
100
AcDbCircle
 10
204.9752960205078
 20
187.5244903564453
 30
0.0
 40
0.1181102395057678
100
AcDbArc
 50
0.0
 51
90.0
  0
ARC
  5
21F
330
1F
100
AcDbEntity
  8
1
  6
Continuous
 62
    21
370
    18
100
AcDbCircle
 10
204.9752960205078
 20
182.4324188232422
 30
0.0
 40
0.1181102395057678
100
AcDbArc
 50
270.0
 51
0.0
  0
ARC
  5
220
330
1F
100
AcDbEntity
  8
1
  6
Continuous
 62
    21
370
    18
100
AcDbCircle
 10
204.9752960205078
 20
179.2558441162109
 30
0.0
 40
0.1181102395057678
100
AcDbArc
 50
270.0
 51
0.0
  0
ARC
  5
221
330
1F
100
AcDbEntity
  8
1
  6
Continuous
 62
    21
370
    18
100
AcDbCircle
 10
204.9752960205078
 20
181.993911743164
 30
0.0
 40
0.1181102395057678
100
AcDbArc
 50
0.0
 51
90.0
  0
CIRCLE
  5
222
330
1F
100
AcDbEntity
  8
1
  6
Continuous
 62
    21
370
    18
100
AcDbCircle
 10
202.7567901611328
 20
154.6662139892578
 30
0.0
 40
0.0885826796293259
  0
CIRCLE
  5
223
330
1F
100
AcDbEntity
  8
1
  6
Continuous
 62
    21
370
    18
100
AcDbCircle
 10
202.7567901611328
 20
163.3945617675781
 30
0.0
 40
0.0885826796293259
  0
CIRCLE
  5
224
330
1F
100
AcDbEntity
  8
1
  6
Continuous
 62
    21
370
    18
100
AcDbCircle
 10
202.7567901611328
 20
184.3945617675781
 30
0.0
 40
0.0885826796293259
  0
CIRCLE
  5
225
330
1F
100
AcDbEntity
  8
1
  6
Continuous
 62
    21
370
    18
100
AcDbCircle
 10
202.7567901611328
 20
165.1662139892578
 30
0.0
 40
0.0885826796293259
  0
CIRCLE
  5
226
330
1F
100
AcDbEntity
  8
1
  6
Continuous
 62
    21
370
    18
100
AcDbCircle
 10
202.7567901611328
 20
166.0323638916015
 30
0.0
 40
0.0885826796293259
  0
CIRCLE
  5
227
330
1F
100
AcDbEntity
  8
1
  6
Continuous
 62
    21
370
    18
100
AcDbCircle
 10
202.7567901611328
 20
170.4162139892578
 30
0.0
 40
0.0885826796293259
  0
CIRCLE
  5
228
330
1F
100
AcDbEntity
  8
1
  6
Continuous
 62
    21
370
    18
100
AcDbCircle
 10
202.7567901611328
 20
175.6662139892578
 30
0.0
 40
0.0885826796293259
  0
CIRCLE
  5
229
330
1F
100
AcDbEntity
  8
1
  6
Continuous
 62
    21
370
    18
100
AcDbCircle
 10
202.7567901611328
 20
155.5323638916015
 30
0.0
 40
0.0885826796293259
  0
CIRCLE
  5
22A
330
1F
100
AcDbEntity
  8
1
  6
Continuous
 62
    21
370
    18
100
AcDbCircle
 10
202.7567901611328
 20
159.9162139892578
 30
0.0
 40
0.0885826796293259
  0
CIRCLE
  5
22B
330
1F
100
AcDbEntity
  8
1
  6
Continuous
 62
    21
370
    18
100
AcDbCircle
 10
202.7567901611328
 20
160.7823638916015
 30
0.0
 40
0.0885826796293259
  0
CIRCLE
  5
22C
330
1F
100
AcDbEntity
  8
1
  6
Continuous
 62
    21
370
    18
100
AcDbCircle
 10
202.7567901611328
 20
187.0323638916015
 30
0.0
 40
0.0885826796293259
  0
CIRCLE
  5
22D
330
1F
100
AcDbEntity
  8
1
  6
Continuous
 62
    21
370
    18
100
AcDbCircle
 10
202.7567901611328
 20
173.8945617675781
 30
0.0
 40
0.0885826796293259
  0
CIRCLE
  5
22E
330
1F
100
AcDbEntity
  8
1
  6
Continuous
 62
    21
370
    18
100
AcDbCircle
 10
202.7567901611328
 20
158.1445617675781
 30
0.0
 40
0.0885826796293259
  0
CIRCLE
  5
22F
330
1F
100
AcDbEntity
  8
1
  6
Continuous
 62
    21
370
    18
100
AcDbCircle
 10
202.7567901611328
 20
180.9162139892578
 30
0.0
 40
0.0885826796293259
  0
ARC
  5
230
330
1F
100
AcDbEntity
  8
1
  6
Continuous
 62
    21
370
    18
100
AcDbCircle
 10
202.6918334960937
 20
153.6268463134765
 30
0.0
 40
0.1181102395057678
100
AcDbArc
 50
180.0
 51
270.0
  0
CIRCLE
  5
231
330
1F
100
AcDbEntity
  8
1
  6
Continuous
 62
    21
370
    18
100
AcDbCircle
 10
202.7567901611328
 20
171.2823638916015
 30
0.0
 40
0.0885826796293259
  0
ARC
  5
232
330
1F
100
AcDbEntity
  8
1
  6
Continuous
 62
    21
370
    18
100
AcDbCircle
 10
202.6918334960937
 20
187.9575500488281
 30
0.0
 40
0.1181102395057678
100
AcDbArc
 50
90.0
 51
180.0
  0
CIRCLE
  5
233
330
1F
100
AcDbEntity
  8
1
  6
Continuous
 62
    21
370
    18
100
AcDbCircle
 10
202.7567901611328
 20
176.5323638916015
 30
0.0
 40
0.0885826796293259
  0
CIRCLE
  5
234
330
1F
100
AcDbEntity
  8
1
  6
Continuous
 62
    21
370
    18
100
AcDbCircle
 10
202.7567901611328
 20
186.1662139892578
 30
0.0
 40
0.0885826796293259
  0
CIRCLE
  5
235
330
1F
100
AcDbEntity
  8
1
  6
Continuous
 62
    21
370
    18
100
AcDbCircle
 10
202.7567901611328
 20
181.7823638916015
 30
0.0
 40
0.0885826796293259
  0
ARC
  5
236
330
1F
100
AcDbEntity
  8
1
  6
Continuous
 62
    21
370
    18
100
AcDbCircle
 10
204.9752960205078
 20
115.0085983276367
 30
0.0
 40
0.1181102395057678
100
AcDbArc
 50
270.0
 51
0.0
  0
ARC
  5
237
330
1F
100
AcDbEntity
  8
1
  6
Continuous
 62
    21
370
    18
100
AcDbCircle
 10
204.9752960205078
 20
138.5889739990234
 30
0.0
 40
0.1181102395057678
100
AcDbArc
 50
0.0
 51
90.0
  0
ARC
  5
238
330
1F
100
AcDbEntity
  8
1
  6
Continuous
 62
    21
370
    18
100
AcDbCircle
 10
204.9752960205078
 20
147.296142578125
 30
0.0
 40
0.1181102395057678
100
AcDbArc
 50
0.0
 51
90.0
  0
ARC
  5
239
330
1F
100
AcDbEntity
  8
1
  6
Continuous
 62
    21
370
    18
100
AcDbCircle
 10
204.9752960205078
 20
142.2040863037109
 30
0.0
 40
0.1181102395057678
100
AcDbArc
 50
270.0
 51
0.0
  0
ARC
  5
23A
330
1F
100
AcDbEntity
  8
1
  6
Continuous
 62
    21
370
    18
100
AcDbCircle
 10
204.9752960205078
 20
139.0274963378906
 30
0.0
 40
0.1181102395057678
100
AcDbArc
 50
270.0
 51
0.0
  0
ARC
  5
23B
330
1F
100
AcDbEntity
  8
1
  6
Continuous
 62
    21
370
    18
100
AcDbCircle
 10
204.9752960205078
 20
141.7655639648437
 30
0.0
 40
0.1181102395057678
100
AcDbArc
 50
0.0
 51
90.0
  0
CIRCLE
  5
23C
330
1F
100
AcDbEntity
  8
1
  6
Continuous
 62
    21
370
    18
100
AcDbCircle
 10
202.7567901611328
 20
114.4378662109375
 30
0.0
 40
0.0885826796293259
  0
CIRCLE
  5
23D
330
1F
100
AcDbEntity
  8
1
  6
Continuous
 62
    21
370
    18
100
AcDbCircle
 10
202.7567901611328
 20
123.1662139892578
 30
0.0
 40
0.0885826796293259
  0
CIRCLE
  5
23E
330
1F
100
AcDbEntity
  8
1
  6
Continuous
 62
    21
370
    18
100
AcDbCircle
 10
202.7567901611328
 20
144.1662139892578
 30
0.0
 40
0.0885826796293259
  0
CIRCLE
  5
23F
330
1F
100
AcDbEntity
  8
1
  6
Continuous
 62
    21
370
    18
100
AcDbCircle
 10
202.7567901611328
 20
124.9378662109375
 30
0.0
 40
0.0885826796293259
  0
CIRCLE
  5
240
330
1F
100
AcDbEntity
  8
1
  6
Continuous
 62
    21
370
    18
100
AcDbCircle
 10
202.7567901611328
 20
125.8040161132812
 30
0.0
 40
0.0885826796293259
  0
CIRCLE
  5
241
330
1F
100
AcDbEntity
  8
1
  6
Continuous
 62
    21
370
    18
100
AcDbCircle
 10
202.7567901611328
 20
130.1878662109375
 30
0.0
 40
0.0885826796293259
  0
CIRCLE
  5
242
330
1F
100
AcDbEntity
  8
1
  6
Continuous
 62
    21
370
    18
100
AcDbCircle
 10
202.7567901611328
 20
135.4378662109375
 30
0.0
 40
0.0885826796293259
  0
CIRCLE
  5
243
330
1F
100
AcDbEntity
  8
1
  6
Continuous
 62
    21
370
    18
100
AcDbCircle
 10
202.7567901611328
 20
115.3040161132812
 30
0.0
 40
0.0885826796293259
  0
CIRCLE
  5
244
330
1F
100
AcDbEntity
  8
1
  6
Continuous
 62
    21
370
    18
100
AcDbCircle
 10
202.7567901611328
 20
119.6878662109375
 30
0.0
 40
0.0885826796293259
  0
CIRCLE
  5
245
330
1F
100
AcDbEntity
  8
1
  6
Continuous
 62
    21
370
    18
100
AcDbCircle
 10
202.7567901611328
 20
120.5540161132812
 30
0.0
 40
0.0885826796293259
  0
CIRCLE
  5
246
330
1F
100
AcDbEntity
  8
1
  6
Continuous
 62
    21
370
    18
100
AcDbCircle
 10
202.7567901611328
 20
146.8040161132812
 30
0.0
 40
0.0885826796293259
  0
CIRCLE
  5
247
330
1F
100
AcDbEntity
  8
1
  6
Continuous
 62
    21
370
    18
100
AcDbCircle
 10
202.7567901611328
 20
133.6662139892578
 30
0.0
 40
0.0885826796293259
  0
CIRCLE
  5
248
330
1F
100
AcDbEntity
  8
1
  6
Continuous
 62
    21
370
    18
100
AcDbCircle
 10
202.7567901611328
 20
117.9162139892578
 30
0.0
 40
0.0885826796293259
  0
CIRCLE
  5
249
330
1F
100
AcDbEntity
  8
1
  6
Continuous
 62
    21
370
    18
100
AcDbCircle
 10
202.7567901611328
 20
140.6878662109375
 30
0.0
 40
0.0885826796293259
  0
ARC
  5
24A
330
1F
100
AcDbEntity
  8
1
  6
Continuous
 62
    21
370
    18
100
AcDbCircle
 10
202.6918334960937
 20
113.3984909057617
 30
0.0
 40
0.1181102395057678
100
AcDbArc
 50
180.0
 51
270.0
  0
CIRCLE
  5
24B
330
1F
100
AcDbEntity
  8
1
  6
Continuous
 62
    21
370
    18
100
AcDbCircle
 10
202.7567901611328
 20
131.0540161132812
 30
0.0
 40
0.0885826796293259
  0
ARC
  5
24C
330
1F
100
AcDbEntity
  8
1
  6
Continuous
 62
    21
370
    18
100
AcDbCircle
 10
202.6918334960937
 20
147.7292022705078
 30
0.0
 40
0.1181102395057678
100
AcDbArc
 50
90.0
 51
180.0
  0
CIRCLE
  5
24D
330
1F
100
AcDbEntity
  8
1
  6
Continuous
 62
    21
370
    18
100
AcDbCircle
 10
202.7567901611328
 20
136.3040161132812
 30
0.0
 40
0.0885826796293259
  0
CIRCLE
  5
24E
330
1F
100
AcDbEntity
  8
1
  6
Continuous
 62
    21
370
    18
100
AcDbCircle
 10
202.7567901611328
 20
145.9378662109375
 30
0.0
 40
0.0885826796293259
  0
CIRCLE
  5
24F
330
1F
100
AcDbEntity
  8
1
  6
Continuous
 62
    21
370
    18
100
AcDbCircle
 10
202.7567901611328
 20
141.5540161132812
 30
0.0
 40
0.0885826796293259
  0
ARC
  5
250
330
1F
100
AcDbEntity
  8
1
  6
Continuous
 62
    31
370
    18
100
AcDbCircle
 10
203.1952667236328
 20
143.0979461669922
 30
0.0
 40
0.1181102395057678
100
AcDbArc
 50
180.0
 51
270.0
  0
ARC
  5
251
330
1F
100
AcDbEntity
  8
1
  6
Continuous
 62
    31
370
    18
100
AcDbCircle
 10
203.1952667236328
 20
157.2455749511719
 30
0.0
 40
0.1181102395057678
100
AcDbArc
 50
90.0
 51
180.0
  0
CIRCLE
  5
252
330
1F
100
AcDbEntity
  8
1
  6
Continuous
 62
    31
370
    18
100
AcDbCircle
 10
203.6283416748047
 20
143.2160491943359
 30
0.0
 40
0.0984252020716667
  0
CIRCLE
  5
253
330
1F
100
AcDbEntity
  8
1
  6
Continuous
 62
    31
370
    18
100
AcDbCircle
 10
203.6283416748047
 20
157.1274719238281
 30
0.0
 40
0.0984252020716667
  0
ARC
  5
254
330
1F
100
AcDbEntity
  8
1
  6
Continuous
 62
    31
370
    18
100
AcDbCircle
 10
161.1912231445312
 20
213.0148162841797
 30
0.0
 40
0.0866141691803932
100
AcDbArc
 50
90.0
 51
180.0
  0
ARC
  5
255
330
1F
100
AcDbEntity
  8
1
  6
Continuous
 62
    31
370
    18
100
AcDbCircle
 10
126.6872940063476
 20
212.9946441650391
 30
0.0
 40
0.0866141691803932
100
AcDbArc
 50
0.0
 51
90.0
  0
ARC
  5
256
330
1F
100
AcDbEntity
  8
1
  6
Continuous
 62
    31
370
    18
100
AcDbCircle
 10
126.6872940063476
 20
212.9946441650391
 30
0.0
 40
0.0393700785934925
100
AcDbArc
 50
0.0
 51
90.0
  0
ARC
  5
257
330
1F
100
AcDbEntity
  8
1
  6
Continuous
 62
    21
370
    18
100
AcDbCircle
 10
154.1439819335937
 20
213.0620574951172
 30
0.0
 40
0.0866141691803932
100
AcDbArc
 50
90.0
 51
180.0
  0
ARC
  5
258
330
1F
100
AcDbEntity
  8
1
  6
Continuous
 62
    21
370
    18
100
AcDbCircle
 10
154.1439819335937
 20
213.0620574951172
 30
0.0
 40
0.0393700785934925
100
AcDbArc
 50
90.0
 51
180.0
  0
ARC
  5
259
330
1F
100
AcDbEntity
  8
1
  6
Continuous
 62
    21
370
    18
100
AcDbCircle
 10
155.3880767822265
 20
213.1880493164063
 30
0.0
 40
0.0866141691803932
100
AcDbArc
 50
270.0
 51
0.0
  0
ARC
  5
25A
330
1F
100
AcDbEntity
  8
1
  6
Continuous
 62
    21
370
    18
100
AcDbCircle
 10
155.3880767822265
 20
213.1880493164063
 30
0.0
 40
0.0393700785934925
100
AcDbArc
 50
270.0
 51
0.0
  0
ARC
  5
25B
330
1F
100
AcDbEntity
  8
1
  6
Continuous
 62
    21
370
    18
100
AcDbCircle
 10
154.994384765625
 20
213.1880493164063
 30
0.0
 40
0.0866141691803932
100
AcDbArc
 50
332.963437124775
 51
0.0
  0
ARC
  5
25C
330
1F
100
AcDbEntity
  8
1
  6
Continuous
 62
    21
370
    18
100
AcDbCircle
 10
154.994384765625
 20
213.1880493164063
 30
0.0
 40
0.0393700785934925
100
AcDbArc
 50
270.0
 51
0.0
  0
ARC
  5
25D
330
1F
100
AcDbEntity
  8
1
  6
Continuous
 62
   211
370
    18
100
AcDbCircle
 10
133.7345275878906
 20
213.0620574951172
 30
0.0
 40
0.0393700785934925
100
AcDbArc
 50
0.0
 51
90.0
  0
ARC
  5
25E
330
1F
100
AcDbEntity
  8
1
  6
Continuous
 62
   211
370
    18
100
AcDbCircle
 10
133.7345275878906
 20
213.0620574951172
 30
0.0
 40
0.0866141691803932
100
AcDbArc
 50
0.0
 51
90.0
  0
ARC
  5
25F
330
1F
100
AcDbEntity
  8
1
  6
Continuous
 62
   211
370
    18
100
AcDbCircle
 10
132.4904327392578
 20
213.1880493164063
 30
0.0
 40
0.0393700785934925
100
AcDbArc
 50
180.0
 51
270.0
  0
ARC
  5
260
330
1F
100
AcDbEntity
  8
1
  6
Continuous
 62
   211
370
    18
100
AcDbCircle
 10
132.4904327392578
 20
213.1880493164063
 30
0.0
 40
0.0866141691803932
100
AcDbArc
 50
180.0
 51
270.0
  0
ARC
  5
261
330
1F
100
AcDbEntity
  8
1
  6
Continuous
 62
   211
370
    18
100
AcDbCircle
 10
132.8841400146484
 20
213.1880493164063
 30
0.0
 40
0.0393700785934925
100
AcDbArc
 50
180.0
 51
270.0
  0
ARC
  5
262
330
1F
100
AcDbEntity
  8
1
  6
Continuous
 62
   211
370
    18
100
AcDbCircle
 10
132.8841400146484
 20
213.1880493164063
 30
0.0
 40
0.0866141691803932
100
AcDbArc
 50
180.0
 51
207.0365628752249
  0
ARC
  5
263
330
1F
100
AcDbEntity
  8
1
  6
Continuous
 62
    31
370
    18
100
AcDbCircle
 10
126.6872940063476
 20
213.0148162841797
 30
0.0
 40
0.0866141691803932
100
AcDbArc
 50
0.0
 51
90.0
  0
ARC
  5
264
330
1F
100
AcDbEntity
  8
1
  6
Continuous
 62
    31
370
    18
100
AcDbCircle
 10
161.1912231445312
 20
212.9946441650391
 30
0.0
 40
0.0393700785934925
100
AcDbArc
 50
90.0
 51
180.0
  0
ARC
  5
265
330
1F
100
AcDbEntity
  8
1
  6
Continuous
 62
    31
370
    18
100
AcDbCircle
 10
161.1912231445312
 20
212.9946441650391
 30
0.0
 40
0.0866141691803932
100
AcDbArc
 50
90.0
 51
180.0
  0
SPLINE
  5
266
330
1F
100
AcDbEntity
  8
1
  6
Continuous
 62
    31
370
    18
100
AcDbSpline
210
0.0
220
0.0
230
1.0
 70
    24
 71
     1
 72
     4
 73
     2
 74
     0
 42
0.000000001
 43
0.0000000001
 40
0.0
 40
0.0
 40
1.0
 40
1.0
 10
161.1046132760493
 20
124.8886618782689
 30
0.0
 10
161.1046132760493
 20
125.006760839462
 30
0.0
  0
SPLINE
  5
267
330
1F
100
AcDbEntity
  8
1
  6
Continuous
 62
    31
370
    18
100
AcDbSpline
210
0.0
220
0.0
230
1.0
 70
    24
 71
     1
 72
     4
 73
     2
 74
     0
 42
0.000000001
 43
0.0000000001
 40
0.0
 40
0.0
 40
1.0
 40
1.0
 10
161.1518528605265
 20
125.006760839462
 30
0.0
 10
161.1518528605265
 20
124.8886618782689
 30
0.0
  0
SPLINE
  5
268
330
1F
100
AcDbEntity
  8
1
  6
Continuous
 62
    31
370
    18
100
AcDbSpline
210
0.0
220
0.0
230
1.0
 70
    24
 71
     1
 72
     4
 73
     2
 74
     0
 42
0.000000001
 43
0.0000000001
 40
0.0
 40
0.0
 40
1.0
 40
1.0
 10
161.1046132760493
 20
110.6229063244991
 30
0.0
 10
161.1046132760493
 20
110.7410183065258
 30
0.0
  0
SPLINE
  5
269
330
1F
100
AcDbEntity
  8
1
  6
Continuous
 62
    31
370
    18
100
AcDbSpline
210
0.0
220
0.0
230
1.0
 70
    24
 71
     1
 72
     4
 73
     2
 74
     0
 42
0.000000001
 43
0.0000000001
 40
0.0
 40
0.0
 40
1.0
 40
1.0
 10
161.1518528605265
 20
110.7410183065258
 30
0.0
 10
161.1518528605265
 20
110.6229063244991
 30
0.0
  0
SPLINE
  5
26A
330
1F
100
AcDbEntity
  8
1
  6
Continuous
 62
    31
370
    18
100
AcDbSpline
210
0.0
220
0.0
230
1.0
 70
    24
 71
     1
 72
     4
 73
     2
 74
     0
 42
0.000000001
 43
0.0000000001
 40
0.0
 40
0.0
 40
1.0
 40
1.0
 10
161.19122786148
 20
110.6229063244991
 30
0.0
 10
161.1518528605265
 20
110.6229063244991
 30
0.0
  0
SPLINE
  5
26B
330
1F
100
AcDbEntity
  8
1
  6
Continuous
 62
    31
370
    18
100
AcDbSpline
210
0.0
220
0.0
230
1.0
 70
    24
 71
     1
 72
     4
 73
     2
 74
     0
 42
0.000000001
 43
0.0000000001
 40
0.0
 40
0.0
 40
1.0
 40
1.0
 10
161.1518528605265
 20
125.006760839462
 30
0.0
 10
161.19122786148
 20
125.006760839462
 30
0.0
  0
SPLINE
  5
26C
330
1F
100
AcDbEntity
  8
1
  6
Continuous
 62
    31
370
    18
100
AcDbSpline
210
0.0
220
0.0
230
1.0
 70
    24
 71
     1
 72
     4
 73
     2
 74
     0
 42
0.000000001
 43
0.0000000001
 40
0.0
 40
0.0
 40
1.0
 40
1.0
 10
126.7739093197524
 20
143.0979461733623
 30
0.0
 10
126.7739093197524
 20
142.9798341913356
 30
0.0
  0
SPLINE
  5
26D
330
1F
100
AcDbEntity
  8
1
  6
Continuous
 62
    31
370
    18
100
AcDbSpline
210
0.0
220
0.0
230
1.0
 70
    24
 71
     1
 72
     4
 73
     2
 74
     0
 42
0.000000001
 43
0.0000000001
 40
0.0
 40
0.0
 40
1.0
 40
1.0
 10
126.7266567144415
 20
142.9798341913356
 30
0.0
 10
126.7266567144415
 20
143.0979461733623
 30
0.0
  0
SPLINE
  5
26E
330
1F
100
AcDbEntity
  8
1
  6
Continuous
 62
    31
370
    18
100
AcDbSpline
210
0.0
220
0.0
230
1.0
 70
    24
 71
     1
 72
     4
 73
     2
 74
     0
 42
0.000000001
 43
0.0000000001
 40
0.0
 40
0.0
 40
1.0
 40
1.0
 10
126.7739093197524
 20
157.3636887062985
 30
0.0
 10
126.7739093197524
 20
157.2455767242718
 30
0.0
  0
SPLINE
  5
26F
330
1F
100
AcDbEntity
  8
1
  6
Continuous
 62
    31
370
    18
100
AcDbSpline
210
0.0
220
0.0
230
1.0
 70
    24
 71
     1
 72
     4
 73
     2
 74
     0
 42
0.000000001
 43
0.0000000001
 40
0.0
 40
0.0
 40
1.0
 40
1.0
 10
126.7266567144415
 20
157.2455767242718
 30
0.0
 10
126.7266567144415
 20
157.3636887062985
 30
0.0
  0
SPLINE
  5
270
330
1F
100
AcDbEntity
  8
1
  6
Continuous
 62
    31
370
    18
100
AcDbSpline
210
0.0
220
0.0
230
1.0
 70
    24
 71
     1
 72
     4
 73
     2
 74
     0
 42
0.000000001
 43
0.0000000001
 40
0.0
 40
0.0
 40
1.0
 40
1.0
 10
126.6872947343217
 20
157.3636887062985
 30
0.0
 10
126.7266567144415
 20
157.3636887062985
 30
0.0
  0
SPLINE
  5
271
330
1F
100
AcDbEntity
  8
1
  6
Continuous
 62
    31
370
    18
100
AcDbSpline
210
0.0
220
0.0
230
1.0
 70
    24
 71
     1
 72
     4
 73
     2
 74
     0
 42
0.000000001
 43
0.0000000001
 40
0.0
 40
0.0
 40
1.0
 40
1.0
 10
126.7266567144415
 20
142.9798341913356
 30
0.0
 10
126.6872947343217
 20
142.9798341913356
 30
0.0
  0
SPLINE
  5
272
330
1F
100
AcDbEntity
  8
1
  6
Continuous
 62
    21
370
    18
100
AcDbSpline
210
0.0
220
0.0
230
1.0
 70
    24
 71
     1
 72
     4
 73
     2
 74
     0
 42
0.000000001
 43
0.0000000001
 40
0.0
 40
0.0
 40
1.0
 40
1.0
 10
154.1046131065486
 20
188.0756686166369
 30
0.0
 10
154.1046131065486
 20
187.9575566346102
 30
0.0
  0
SPLINE
  5
273
330
1F
100
AcDbEntity
  8
1
  6
Continuous
 62
    21
370
    18
100
AcDbSpline
210
0.0
220
0.0
230
1.0
 70
    24
 71
     1
 72
     4
 73
     2
 74
     0
 42
0.000000001
 43
0.0000000001
 40
0.0
 40
0.0
 40
1.0
 40
1.0
 10
154.0573735220714
 20
187.9575566346102
 30
0.0
 10
154.0573735220714
 20
188.0756686166369
 30
0.0
  0
SPLINE
  5
274
330
1F
100
AcDbEntity
  8
1
  6
Continuous
 62
    21
370
    18
100
AcDbSpline
210
0.0
220
0.0
230
1.0
 70
    24
 71
     1
 72
     4
 73
     2
 74
     0
 42
0.000000001
 43
0.0000000001
 40
0.0
 40
0.0
 40
1.0
 40
1.0
 10
154.0573735220714
 20
153.5087406962866
 30
0.0
 10
154.0573735220714
 20
153.6268396574796
 30
0.0
  0
SPLINE
  5
275
330
1F
100
AcDbEntity
  8
1
  6
Continuous
 62
    21
370
    18
100
AcDbSpline
210
0.0
220
0.0
230
1.0
 70
    24
 71
     1
 72
     4
 73
     2
 74
     0
 42
0.000000001
 43
0.0000000001
 40
0.0
 40
0.0
 40
1.0
 40
1.0
 10
154.1046131065486
 20
153.6268396574796
 30
0.0
 10
154.1046131065486
 20
153.5087406962866
 30
0.0
  0
SPLINE
  5
276
330
1F
100
AcDbEntity
  8
1
  6
Continuous
 62
    21
370
    18
100
AcDbSpline
210
0.0
220
0.0
230
1.0
 70
    24
 71
     1
 72
     4
 73
     2
 74
     0
 42
0.000000001
 43
0.0000000001
 40
0.0
 40
0.0
 40
1.0
 40
1.0
 10
154.1046131065486
 20
188.0756686166369
 30
0.0
 10
154.1439881075021
 20
188.0756686166369
 30
0.0
  0
SPLINE
  5
277
330
1F
100
AcDbEntity
  8
1
  6
Continuous
 62
    21
370
    18
100
AcDbSpline
210
0.0
220
0.0
230
1.0
 70
    24
 71
     1
 72
     4
 73
     2
 74
     0
 42
0.000000001
 43
0.0000000001
 40
0.0
 40
0.0
 40
1.0
 40
1.0
 10
154.1439881075021
 20
153.5087406962866
 30
0.0
 10
154.1046131065486
 20
153.5087406962866
 30
0.0
  0
SPLINE
  5
278
330
1F
100
AcDbEntity
  8
1
  6
Continuous
 62
    21
370
    18
100
AcDbSpline
210
0.0
220
0.0
230
1.0
 70
    24
 71
     1
 72
     4
 73
     2
 74
     0
 42
0.000000001
 43
0.0000000001
 40
0.0
 40
0.0
 40
1.0
 40
1.0
 10
155.4493266807767
 20
155.1188318811073
 30
0.0
 10
155.4746912647242
 20
155.1188318811073
 30
0.0
  0
SPLINE
  5
279
330
1F
100
AcDbEntity
  8
1
  6
Continuous
 62
    21
370
    18
100
AcDbSpline
210
0.0
220
0.0
230
1.0
 70
     8
 71
     1
 72
     7
 73
     5
 74
     0
 42
0.000000001
 43
0.0000000001
 40
0.0
 40
0.0
 40
0.2266931706517103
 40
0.4726487861352062
 40
0.7326398345831872
 40
1.0
 40
1.0
 10
155.4493266807767
 20
155.1188318811073
 30
0.0
 10
155.4361886596252
 20
155.1080376100126
 30
0.0
 10
155.421227721763
 20
155.0972433389179
 30
0.0
 10
155.4049777213695
 20
155.0864620886568
 30
0.0
 10
155.3880766792936
 20
155.0756678175621
 30
0.0
  0
SPLINE
  5
27A
330
1F
100
AcDbEntity
  8
1
  6
Continuous
 62
    21
370
    18
100
AcDbSpline
210
0.0
220
0.0
230
1.0
 70
    24
 71
     1
 72
     4
 73
     2
 74
     0
 42
0.000000001
 43
0.0000000001
 40
0.0
 40
0.0
 40
1.0
 40
1.0
 10
155.3880766792936
 20
187.6425956894836
 30
0.0
 10
155.4746912647242
 20
187.6425956894836
 30
0.0
  0
SPLINE
  5
27B
330
1F
100
AcDbEntity
  8
1
  6
Continuous
 62
   211
370
    18
100
AcDbSpline
210
0.0
220
0.0
230
1.0
 70
    24
 71
     1
 72
     4
 73
     2
 74
     0
 42
0.000000001
 43
0.0000000001
 40
0.0
 40
0.0
 40
1.0
 40
1.0
 10
133.8211490737303
 20
188.0756686166369
 30
0.0
 10
133.8211490737303
 20
187.9575566346102
 30
0.0
  0
SPLINE
  5
27C
330
1F
100
AcDbEntity
  8
1
  6
Continuous
 62
   211
370
    18
100
AcDbSpline
210
0.0
220
0.0
230
1.0
 70
    24
 71
     1
 72
     4
 73
     2
 74
     0
 42
0.000000001
 43
0.0000000001
 40
0.0
 40
0.0
 40
1.0
 40
1.0
 10
133.7739094892531
 20
187.9575566346102
 30
0.0
 10
133.7739094892531
 20
188.0756686166369
 30
0.0
  0
SPLINE
  5
27D
330
1F
100
AcDbEntity
  8
1
  6
Continuous
 62
   211
370
    18
100
AcDbSpline
210
0.0
220
0.0
230
1.0
 70
    24
 71
     1
 72
     4
 73
     2
 74
     0
 42
0.000000001
 43
0.0000000001
 40
0.0
 40
0.0
 40
1.0
 40
1.0
 10
133.8211490737303
 20
153.6268396574796
 30
0.0
 10
133.8211490737303
 20
153.5087406962866
 30
0.0
  0
SPLINE
  5
27E
330
1F
100
AcDbEntity
  8
1
  6
Continuous
 62
   211
370
    18
100
AcDbSpline
210
0.0
220
0.0
230
1.0
 70
    24
 71
     1
 72
     4
 73
     2
 74
     0
 42
0.000000001
 43
0.0000000001
 40
0.0
 40
0.0
 40
1.0
 40
1.0
 10
133.7739094892531
 20
153.5087406962866
 30
0.0
 10
133.7739094892531
 20
153.6268396574796
 30
0.0
  0
SPLINE
  5
27F
330
1F
100
AcDbEntity
  8
1
  6
Continuous
 62
   211
370
    18
100
AcDbSpline
210
0.0
220
0.0
230
1.0
 70
    24
 71
     1
 72
     4
 73
     2
 74
     0
 42
0.000000001
 43
0.0000000001
 40
0.0
 40
0.0
 40
1.0
 40
1.0
 10
133.7345344882997
 20
153.5087406962866
 30
0.0
 10
133.7739094892531
 20
153.5087406962866
 30
0.0
  0
SPLINE
  5
280
330
1F
100
AcDbEntity
  8
1
  6
Continuous
 62
   211
370
    18
100
AcDbSpline
210
0.0
220
0.0
230
1.0
 70
    24
 71
     1
 72
     4
 73
     2
 74
     0
 42
0.000000001
 43
0.0000000001
 40
0.0
 40
0.0
 40
1.0
 40
1.0
 10
133.7739094892531
 20
188.0756686166369
 30
0.0
 10
133.7345344882997
 20
188.0756686166369
 30
0.0
  0
SPLINE
  5
281
330
1F
100
AcDbEntity
  8
1
  6
Continuous
 62
   211
370
    18
100
AcDbSpline
210
0.0
220
0.0
230
1.0
 70
     8
 71
     1
 72
     7
 73
     5
 74
     0
 42
0.000000001
 43
0.0000000001
 40
0.0
 40
0.0
 40
0.2265906978137921
 40
0.4727214690218531
 40
0.7327488143725003
 40
1.0
 40
1.0
 10
132.429195915025
 20
155.1188318811073
 30
0.0
 10
132.4423209153428
 20
155.1080376100126
 30
0.0
 10
132.4572948740388
 20
155.0972433389179
 30
0.0
 10
132.4735448744322
 20
155.0864620886568
 30
0.0
 10
132.4904328956745
 20
155.0756678175621
 30
0.0
  0
SPLINE
  5
282
330
1F
100
AcDbEntity
  8
1
  6
Continuous
 62
   211
370
    18
100
AcDbSpline
210
0.0
220
0.0
230
1.0
 70
    24
 71
     1
 72
     4
 73
     2
 74
     0
 42
0.000000001
 43
0.0000000001
 40
0.0
 40
0.0
 40
1.0
 40
1.0
 10
132.4038183102439
 20
155.1188318811073
 30
0.0
 10
132.429195915025
 20
155.1188318811073
 30
0.0
  0
SPLINE
  5
283
330
1F
100
AcDbEntity
  8
1
  6
Continuous
 62
   211
370
    18
100
AcDbSpline
210
0.0
220
0.0
230
1.0
 70
    24
 71
     1
 72
     4
 73
     2
 74
     0
 42
0.000000001
 43
0.0000000001
 40
0.0
 40
0.0
 40
1.0
 40
1.0
 10
132.4904328956745
 20
187.6425956894836
 30
0.0
 10
132.4038183102439
 20
187.6425956894836
 30
0.0
  0
SPLINE
  5
284
330
1F
100
AcDbEntity
  8
1
  6
Continuous
 62
    31
370
    18
100
AcDbSpline
210
0.0
220
0.0
230
1.0
 70
    24
 71
     1
 72
     4
 73
     2
 74
     0
 42
0.000000001
 43
0.0000000001
 40
0.0
 40
0.0
 40
1.0
 40
1.0
 10
126.7739093197524
 20
110.7410183065258
 30
0.0
 10
126.7739093197524
 20
110.6229063244991
 30
0.0
  0
SPLINE
  5
285
330
1F
100
AcDbEntity
  8
1
  6
Continuous
 62
    31
370
    18
100
AcDbSpline
210
0.0
220
0.0
230
1.0
 70
    24
 71
     1
 72
     4
 73
     2
 74
     0
 42
0.000000001
 43
0.0000000001
 40
0.0
 40
0.0
 40
1.0
 40
1.0
 10
126.7266567144415
 20
110.6229063244991
 30
0.0
 10
126.7266567144415
 20
110.7410183065258
 30
0.0
  0
SPLINE
  5
286
330
1F
100
AcDbEntity
  8
1
  6
Continuous
 62
    31
370
    18
100
AcDbSpline
210
0.0
220
0.0
230
1.0
 70
    24
 71
     1
 72
     4
 73
     2
 74
     0
 42
0.000000001
 43
0.0000000001
 40
0.0
 40
0.0
 40
1.0
 40
1.0
 10
126.7739093197524
 20
125.006760839462
 30
0.0
 10
126.7739093197524
 20
124.8886618782689
 30
0.0
  0
SPLINE
  5
287
330
1F
100
AcDbEntity
  8
1
  6
Continuous
 62
    31
370
    18
100
AcDbSpline
210
0.0
220
0.0
230
1.0
 70
    24
 71
     1
 72
     4
 73
     2
 74
     0
 42
0.000000001
 43
0.0000000001
 40
0.0
 40
0.0
 40
1.0
 40
1.0
 10
126.7266567144415
 20
124.8886618782689
 30
0.0
 10
126.7266567144415
 20
125.006760839462
 30
0.0
  0
SPLINE
  5
288
330
1F
100
AcDbEntity
  8
1
  6
Continuous
 62
    31
370
    18
100
AcDbSpline
210
0.0
220
0.0
230
1.0
 70
    24
 71
     1
 72
     4
 73
     2
 74
     0
 42
0.000000001
 43
0.0000000001
 40
0.0
 40
0.0
 40
1.0
 40
1.0
 10
126.6872947343217
 20
125.006760839462
 30
0.0
 10
126.7266567144415
 20
125.006760839462
 30
0.0
  0
SPLINE
  5
289
330
1F
100
AcDbEntity
  8
1
  6
Continuous
 62
    31
370
    18
100
AcDbSpline
210
0.0
220
0.0
230
1.0
 70
    24
 71
     1
 72
     4
 73
     2
 74
     0
 42
0.000000001
 43
0.0000000001
 40
0.0
 40
0.0
 40
1.0
 40
1.0
 10
126.7266567144415
 20
110.6229063244991
 30
0.0
 10
126.6872947343217
 20
110.6229063244991
 30
0.0
  0
SPLINE
  5
28A
330
1F
100
AcDbEntity
  8
1
  6
Continuous
 62
   211
370
    18
100
AcDbSpline
210
0.0
220
0.0
230
1.0
 70
    24
 71
     1
 72
     4
 73
     2
 74
     0
 42
0.000000001
 43
0.0000000001
 40
0.0
 40
0.0
 40
1.0
 40
1.0
 10
133.8211490737303
 20
147.8473212883655
 30
0.0
 10
133.8211490737303
 20
147.7292093063388
 30
0.0
  0
SPLINE
  5
28B
330
1F
100
AcDbEntity
  8
1
  6
Continuous
 62
   211
370
    18
100
AcDbSpline
210
0.0
220
0.0
230
1.0
 70
    24
 71
     1
 72
     4
 73
     2
 74
     0
 42
0.000000001
 43
0.0000000001
 40
0.0
 40
0.0
 40
1.0
 40
1.0
 10
133.7739094892531
 20
147.7292093063388
 30
0.0
 10
133.7739094892531
 20
147.8473212883655
 30
0.0
  0
SPLINE
  5
28C
330
1F
100
AcDbEntity
  8
1
  6
Continuous
 62
   211
370
    18
100
AcDbSpline
210
0.0
220
0.0
230
1.0
 70
    24
 71
     1
 72
     4
 73
     2
 74
     0
 42
0.000000001
 43
0.0000000001
 40
0.0
 40
0.0
 40
1.0
 40
1.0
 10
133.8211490737303
 20
113.3984923292082
 30
0.0
 10
133.8211490737303
 20
113.2803933680152
 30
0.0
  0
SPLINE
  5
28D
330
1F
100
AcDbEntity
  8
1
  6
Continuous
 62
   211
370
    18
100
AcDbSpline
210
0.0
220
0.0
230
1.0
 70
    24
 71
     1
 72
     4
 73
     2
 74
     0
 42
0.000000001
 43
0.0000000001
 40
0.0
 40
0.0
 40
1.0
 40
1.0
 10
133.7739094892531
 20
113.2803933680152
 30
0.0
 10
133.7739094892531
 20
113.3984923292082
 30
0.0
  0
SPLINE
  5
28E
330
1F
100
AcDbEntity
  8
1
  6
Continuous
 62
   211
370
    18
100
AcDbSpline
210
0.0
220
0.0
230
1.0
 70
    24
 71
     1
 72
     4
 73
     2
 74
     0
 42
0.000000001
 43
0.0000000001
 40
0.0
 40
0.0
 40
1.0
 40
1.0
 10
133.7345344882997
 20
113.2803933680152
 30
0.0
 10
133.7739094892531
 20
113.2803933680152
 30
0.0
  0
SPLINE
  5
28F
330
1F
100
AcDbEntity
  8
1
  6
Continuous
 62
   211
370
    18
100
AcDbSpline
210
0.0
220
0.0
230
1.0
 70
    24
 71
     1
 72
     4
 73
     2
 74
     0
 42
0.000000001
 43
0.0000000001
 40
0.0
 40
0.0
 40
1.0
 40
1.0
 10
133.7739094892531
 20
147.8473212883655
 30
0.0
 10
133.7345344882997
 20
147.8473212883655
 30
0.0
  0
SPLINE
  5
290
330
1F
100
AcDbEntity
  8
1
  6
Continuous
 62
   211
370
    18
100
AcDbSpline
210
0.0
220
0.0
230
1.0
 70
     8
 71
     1
 72
     7
 73
     5
 74
     0
 42
0.000000001
 43
0.0000000001
 40
0.0
 40
0.0
 40
0.2265906978137921
 40
0.4727214690218531
 40
0.7327488143725003
 40
1.0
 40
1.0
 10
132.429195915025
 20
114.8904845528359
 30
0.0
 10
132.4423209153428
 20
114.8796902817412
 30
0.0
 10
132.4572948740388
 20
114.8688960106465
 30
0.0
 10
132.4735448744322
 20
114.8581147603854
 30
0.0
 10
132.4904328956745
 20
114.8473204892907
 30
0.0
  0
SPLINE
  5
291
330
1F
100
AcDbEntity
  8
1
  6
Continuous
 62
   211
370
    18
100
AcDbSpline
210
0.0
220
0.0
230
1.0
 70
    24
 71
     1
 72
     4
 73
     2
 74
     0
 42
0.000000001
 43
0.0000000001
 40
0.0
 40
0.0
 40
1.0
 40
1.0
 10
132.4038183102439
 20
114.8904845528359
 30
0.0
 10
132.429195915025
 20
114.8904845528359
 30
0.0
  0
SPLINE
  5
292
330
1F
100
AcDbEntity
  8
1
  6
Continuous
 62
   211
370
    18
100
AcDbSpline
210
0.0
220
0.0
230
1.0
 70
    24
 71
     1
 72
     4
 73
     2
 74
     0
 42
0.000000001
 43
0.0000000001
 40
0.0
 40
0.0
 40
1.0
 40
1.0
 10
132.4904328956745
 20
147.4142483612122
 30
0.0
 10
132.4038183102439
 20
147.4142483612122
 30
0.0
  0
SPLINE
  5
293
330
1F
100
AcDbEntity
  8
1
  6
Continuous
 62
    21
370
    18
100
AcDbSpline
210
0.0
220
0.0
230
1.0
 70
    24
 71
     1
 72
     4
 73
     2
 74
     0
 42
0.000000001
 43
0.0000000001
 40
0.0
 40
0.0
 40
1.0
 40
1.0
 10
154.1046131065486
 20
147.8473212883655
 30
0.0
 10
154.1046131065486
 20
147.7292093063388
 30
0.0
  0
SPLINE
  5
294
330
1F
100
AcDbEntity
  8
1
  6
Continuous
 62
    21
370
    18
100
AcDbSpline
210
0.0
220
0.0
230
1.0
 70
    24
 71
     1
 72
     4
 73
     2
 74
     0
 42
0.000000001
 43
0.0000000001
 40
0.0
 40
0.0
 40
1.0
 40
1.0
 10
154.0573735220714
 20
147.7292093063388
 30
0.0
 10
154.0573735220714
 20
147.8473212883655
 30
0.0
  0
SPLINE
  5
295
330
1F
100
AcDbEntity
  8
1
  6
Continuous
 62
    21
370
    18
100
AcDbSpline
210
0.0
220
0.0
230
1.0
 70
    24
 71
     1
 72
     4
 73
     2
 74
     0
 42
0.000000001
 43
0.0000000001
 40
0.0
 40
0.0
 40
1.0
 40
1.0
 10
154.0573735220714
 20
113.2803933680152
 30
0.0
 10
154.0573735220714
 20
113.3984923292082
 30
0.0
  0
SPLINE
  5
296
330
1F
100
AcDbEntity
  8
1
  6
Continuous
 62
    21
370
    18
100
AcDbSpline
210
0.0
220
0.0
230
1.0
 70
    24
 71
     1
 72
     4
 73
     2
 74
     0
 42
0.000000001
 43
0.0000000001
 40
0.0
 40
0.0
 40
1.0
 40
1.0
 10
154.1046131065486
 20
113.3984923292082
 30
0.0
 10
154.1046131065486
 20
113.2803933680152
 30
0.0
  0
SPLINE
  5
297
330
1F
100
AcDbEntity
  8
1
  6
Continuous
 62
    21
370
    18
100
AcDbSpline
210
0.0
220
0.0
230
1.0
 70
    24
 71
     1
 72
     4
 73
     2
 74
     0
 42
0.000000001
 43
0.0000000001
 40
0.0
 40
0.0
 40
1.0
 40
1.0
 10
154.1046131065486
 20
147.8473212883655
 30
0.0
 10
154.1439881075021
 20
147.8473212883655
 30
0.0
  0
SPLINE
  5
298
330
1F
100
AcDbEntity
  8
1
  6
Continuous
 62
    21
370
    18
100
AcDbSpline
210
0.0
220
0.0
230
1.0
 70
    24
 71
     1
 72
     4
 73
     2
 74
     0
 42
0.000000001
 43
0.0000000001
 40
0.0
 40
0.0
 40
1.0
 40
1.0
 10
154.1439881075021
 20
113.2803933680152
 30
0.0
 10
154.1046131065486
 20
113.2803933680152
 30
0.0
  0
SPLINE
  5
299
330
1F
100
AcDbEntity
  8
1
  6
Continuous
 62
    21
370
    18
100
AcDbSpline
210
0.0
220
0.0
230
1.0
 70
    24
 71
     1
 72
     4
 73
     2
 74
     0
 42
0.000000001
 43
0.0000000001
 40
0.0
 40
0.0
 40
1.0
 40
1.0
 10
155.4493266807767
 20
114.8904845528359
 30
0.0
 10
155.4746912647242
 20
114.8904845528359
 30
0.0
  0
SPLINE
  5
29A
330
1F
100
AcDbEntity
  8
1
  6
Continuous
 62
    21
370
    18
100
AcDbSpline
210
0.0
220
0.0
230
1.0
 70
     8
 71
     1
 72
     7
 73
     5
 74
     0
 42
0.000000001
 43
0.0000000001
 40
0.0
 40
0.0
 40
0.2266931706517103
 40
0.4726487861352062
 40
0.7326398345831872
 40
1.0
 40
1.0
 10
155.4493266807767
 20
114.8904845528359
 30
0.0
 10
155.4361886596252
 20
114.8796902817412
 30
0.0
 10
155.421227721763
 20
114.8688960106465
 30
0.0
 10
155.4049777213695
 20
114.8581147603854
 30
0.0
 10
155.3880766792936
 20
114.8473204892907
 30
0.0
  0
SPLINE
  5
29B
330
1F
100
AcDbEntity
  8
1
  6
Continuous
 62
    21
370
    18
100
AcDbSpline
210
0.0
220
0.0
230
1.0
 70
    24
 71
     1
 72
     4
 73
     2
 74
     0
 42
0.000000001
 43
0.0000000001
 40
0.0
 40
0.0
 40
1.0
 40
1.0
 10
155.3880766792936
 20
147.4142483612122
 30
0.0
 10
155.4746912647242
 20
147.4142483612122
 30
0.0
  0
SPLINE
  5
29C
330
1F
100
AcDbEntity
  8
1
  6
Continuous
 62
    31
370
    18
100
AcDbSpline
210
0.0
220
0.0
230
1.0
 70
    24
 71
     1
 72
     4
 73
     2
 74
     0
 42
0.000000001
 43
0.0000000001
 40
0.0
 40
0.0
 40
1.0
 40
1.0
 10
161.1046132760493
 20
157.2455767242718
 30
0.0
 10
161.1046132760493
 20
157.3636887062985
 30
0.0
  0
SPLINE
  5
29D
330
1F
100
AcDbEntity
  8
1
  6
Continuous
 62
    31
370
    18
100
AcDbSpline
210
0.0
220
0.0
230
1.0
 70
    24
 71
     1
 72
     4
 73
     2
 74
     0
 42
0.000000001
 43
0.0000000001
 40
0.0
 40
0.0
 40
1.0
 40
1.0
 10
161.1518528605265
 20
157.3636887062985
 30
0.0
 10
161.1518528605265
 20
157.2455767242718
 30
0.0
  0
SPLINE
  5
29E
330
1F
100
AcDbEntity
  8
1
  6
Continuous
 62
    31
370
    18
100
AcDbSpline
210
0.0
220
0.0
230
1.0
 70
    24
 71
     1
 72
     4
 73
     2
 74
     0
 42
0.000000001
 43
0.0000000001
 40
0.0
 40
0.0
 40
1.0
 40
1.0
 10
161.1046132760493
 20
142.9798341913356
 30
0.0
 10
161.1046132760493
 20
143.0979461733623
 30
0.0
  0
SPLINE
  5
29F
330
1F
100
AcDbEntity
  8
1
  6
Continuous
 62
    31
370
    18
100
AcDbSpline
210
0.0
220
0.0
230
1.0
 70
    24
 71
     1
 72
     4
 73
     2
 74
     0
 42
0.000000001
 43
0.0000000001
 40
0.0
 40
0.0
 40
1.0
 40
1.0
 10
161.1518528605265
 20
143.0979461733623
 30
0.0
 10
161.1518528605265
 20
142.9798341913356
 30
0.0
  0
SPLINE
  5
2A0
330
1F
100
AcDbEntity
  8
1
  6
Continuous
 62
    31
370
    18
100
AcDbSpline
210
0.0
220
0.0
230
1.0
 70
    24
 71
     1
 72
     4
 73
     2
 74
     0
 42
0.000000001
 43
0.0000000001
 40
0.0
 40
0.0
 40
1.0
 40
1.0
 10
161.19122786148
 20
142.9798341913356
 30
0.0
 10
161.1518528605265
 20
142.9798341913356
 30
0.0
  0
SPLINE
  5
2A1
330
1F
100
AcDbEntity
  8
1
  6
Continuous
 62
    31
370
    18
100
AcDbSpline
210
0.0
220
0.0
230
1.0
 70
    24
 71
     1
 72
     4
 73
     2
 74
     0
 42
0.000000001
 43
0.0000000001
 40
0.0
 40
0.0
 40
1.0
 40
1.0
 10
161.1518528605265
 20
157.3636887062985
 30
0.0
 10
161.19122786148
 20
157.3636887062985
 30
0.0
  0
SPLINE
  5
2A2
330
1F
100
AcDbEntity
  8
1
  6
Continuous
 62
    31
370
    18
100
AcDbSpline
210
0.0
220
0.0
230
1.0
 70
    24
 71
     1
 72
     4
 73
     2
 74
     0
 42
0.000000001
 43
0.0000000001
 40
0.0
 40
0.0
 40
1.0
 40
1.0
 10
204.1682080688079
 20
123.2303415256137
 30
0.0
 10
204.1682080688079
 20
123.1468258985915
 30
0.0
  0
SPLINE
  5
2A3
330
1F
100
AcDbEntity
  8
1
  6
Continuous
 62
    31
370
    18
100
AcDbSpline
210
0.0
220
0.0
230
1.0
 70
    24
 71
     1
 72
     4
 73
     2
 74
     0
 42
0.000000001
 43
0.0000000001
 40
0.0
 40
0.0
 40
1.0
 40
1.0
 10
204.1209684843307
 20
123.1468258985915
 30
0.0
 10
204.1209684843307
 20
123.2303415256137
 30
0.0
  0
SPLINE
  5
2A4
330
1F
100
AcDbEntity
  8
1
  6
Continuous
 62
    31
370
    18
100
AcDbSpline
210
0.0
220
0.0
230
1.0
 70
    24
 71
     1
 72
     4
 73
     2
 74
     0
 42
0.000000001
 43
0.0000000001
 40
0.0
 40
0.0
 40
1.0
 40
1.0
 10
204.1209684843307
 20
112.399338659181
 30
0.0
 10
204.1209684843307
 20
112.4828542862033
 30
0.0
  0
SPLINE
  5
2A5
330
1F
100
AcDbEntity
  8
1
  6
Continuous
 62
    31
370
    18
100
AcDbSpline
210
0.0
220
0.0
230
1.0
 70
    24
 71
     1
 72
     4
 73
     2
 74
     0
 42
0.000000001
 43
0.0000000001
 40
0.0
 40
0.0
 40
1.0
 40
1.0
 10
204.1682080688079
 20
112.4828542862033
 30
0.0
 10
204.1682080688079
 20
112.399338659181
 30
0.0
  0
SPLINE
  5
2A6
330
1F
100
AcDbEntity
  8
1
  6
Continuous
 62
    31
370
    18
100
AcDbSpline
210
0.0
220
0.0
230
1.0
 70
    24
 71
     1
 72
     4
 73
     2
 74
     0
 42
0.000000001
 43
0.0000000001
 40
0.0
 40
0.0
 40
1.0
 40
1.0
 10
204.1209684843307
 20
123.9800420646006
 30
0.0
 10
204.1209684843307
 20
124.0635576916229
 30
0.0
  0
SPLINE
  5
2A7
330
1F
100
AcDbEntity
  8
1
  6
Continuous
 62
    31
370
    18
100
AcDbSpline
210
0.0
220
0.0
230
1.0
 70
    24
 71
     1
 72
     4
 73
     2
 74
     0
 42
0.000000001
 43
0.0000000001
 40
0.0
 40
0.0
 40
1.0
 40
1.0
 10
204.1682080688079
 20
124.0635576916229
 30
0.0
 10
204.1682080688079
 20
123.9800420646006
 30
0.0
  0
SPLINE
  5
2A8
330
1F
100
AcDbEntity
  8
1
  6
Continuous
 62
    31
370
    18
100
AcDbSpline
210
0.0
220
0.0
230
1.0
 70
    24
 71
     1
 72
     4
 73
     2
 74
     0
 42
0.000000001
 43
0.0000000001
 40
0.0
 40
0.0
 40
1.0
 40
1.0
 10
204.1209684843307
 20
111.5661094723382
 30
0.0
 10
204.1209684843307
 20
111.6496250993605
 30
0.0
  0
SPLINE
  5
2A9
330
1F
100
AcDbEntity
  8
1
  6
Continuous
 62
    31
370
    18
100
AcDbSpline
210
0.0
220
0.0
230
1.0
 70
    24
 71
     1
 72
     4
 73
     2
 74
     0
 42
0.000000001
 43
0.0000000001
 40
0.0
 40
0.0
 40
1.0
 40
1.0
 10
204.1682080688079
 20
111.6496250993605
 30
0.0
 10
204.1682080688079
 20
111.5661094723382
 30
0.0
  0
SPLINE
  5
2AA
330
1F
100
AcDbEntity
  8
1
  6
Continuous
 62
    31
370
    18
100
AcDbSpline
210
0.0
220
0.0
230
1.0
 70
    24
 71
     1
 72
     4
 73
     2
 74
     0
 42
0.000000001
 43
0.0000000001
 40
0.0
 40
0.0
 40
1.0
 40
1.0
 10
204.1209684843307
 20
110.6229063244991
 30
0.0
 10
204.1209684843307
 20
110.7410183065258
 30
0.0
  0
SPLINE
  5
2AB
330
1F
100
AcDbEntity
  8
1
  6
Continuous
 62
    31
370
    18
100
AcDbSpline
210
0.0
220
0.0
230
1.0
 70
    24
 71
     1
 72
     4
 73
     2
 74
     0
 42
0.000000001
 43
0.0000000001
 40
0.0
 40
0.0
 40
1.0
 40
1.0
 10
204.1682080688079
 20
110.7410183065258
 30
0.0
 10
204.1682080688079
 20
110.6229063244991
 30
0.0
  0
SPLINE
  5
2AC
330
1F
100
AcDbEntity
  8
1
  6
Continuous
 62
    31
370
    18
100
AcDbSpline
210
0.0
220
0.0
230
1.0
 70
    24
 71
     1
 72
     4
 73
     2
 74
     0
 42
0.000000001
 43
0.0000000001
 40
0.0
 40
0.0
 40
1.0
 40
1.0
 10
204.1209684843307
 20
124.8886618782689
 30
0.0
 10
204.1209684843307
 20
125.006760839462
 30
0.0
  0
SPLINE
  5
2AD
330
1F
100
AcDbEntity
  8
1
  6
Continuous
 62
    31
370
    18
100
AcDbSpline
210
0.0
220
0.0
230
1.0
 70
    24
 71
     1
 72
     4
 73
     2
 74
     0
 42
0.000000001
 43
0.0000000001
 40
0.0
 40
0.0
 40
1.0
 40
1.0
 10
204.1682080688079
 20
125.006760839462
 30
0.0
 10
204.1682080688079
 20
124.8886618782689
 30
0.0
  0
SPLINE
  5
2AE
330
1F
100
AcDbEntity
  8
1
  6
Continuous
 62
    31
370
    18
100
AcDbSpline
210
0.0
220
0.0
230
1.0
 70
    24
 71
     1
 72
     4
 73
     2
 74
     0
 42
0.000000001
 43
0.0000000001
 40
0.0
 40
0.0
 40
1.0
 40
1.0
 10
204.1209684843307
 20
110.6229063244991
 30
0.0
 10
204.0815934833772
 20
110.6229063244991
 30
0.0
  0
SPLINE
  5
2AF
330
1F
100
AcDbEntity
  8
1
  6
Continuous
 62
    31
370
    18
100
AcDbSpline
210
0.0
220
0.0
230
1.0
 70
    24
 71
     1
 72
     4
 73
     2
 74
     0
 42
0.000000001
 43
0.0000000001
 40
0.0
 40
0.0
 40
1.0
 40
1.0
 10
204.0815934833772
 20
125.006760839462
 30
0.0
 10
204.1209684843307
 20
125.006760839462
 30
0.0
  0
SPLINE
  5
2B0
330
1F
100
AcDbEntity
  8
1
  6
Continuous
 62
    30
370
    18
100
AcDbSpline
210
0.0
220
0.0
230
1.0
 70
    24
 71
     1
 72
     4
 73
     2
 74
     0
 42
0.000000001
 43
0.0000000001
 40
0.0
 40
0.0
 40
1.0
 40
1.0
 10
204.1209684843307
 20
137.6450814579912
 30
0.0
 10
204.1209684843307
 20
137.7631934400178
 30
0.0
  0
SPLINE
  5
2B1
330
1F
100
AcDbEntity
  8
1
  6
Continuous
 62
    30
370
    18
100
AcDbSpline
210
0.0
220
0.0
230
1.0
 70
    24
 71
     1
 72
     4
 73
     2
 74
     0
 42
0.000000001
 43
0.0000000001
 40
0.0
 40
0.0
 40
1.0
 40
1.0
 10
204.1682080688079
 20
137.7631934400178
 30
0.0
 10
204.1682080688079
 20
137.6450814579912
 30
0.0
  0
SPLINE
  5
2B2
330
1F
100
AcDbEntity
  8
1
  6
Continuous
 62
    30
370
    18
100
AcDbSpline
210
0.0
220
0.0
230
1.0
 70
    24
 71
     1
 72
     4
 73
     2
 74
     0
 42
0.000000001
 43
0.0000000001
 40
0.0
 40
0.0
 40
1.0
 40
1.0
 10
204.1682080688079
 20
145.7824514466993
 30
0.0
 10
204.1682080688079
 20
145.6643394646726
 30
0.0
  0
SPLINE
  5
2B3
330
1F
100
AcDbEntity
  8
1
  6
Continuous
 62
    30
370
    18
100
AcDbSpline
210
0.0
220
0.0
230
1.0
 70
    24
 71
     1
 72
     4
 73
     2
 74
     0
 42
0.000000001
 43
0.0000000001
 40
0.0
 40
0.0
 40
1.0
 40
1.0
 10
204.1209684843307
 20
138.9396257601711
 30
0.0
 10
204.1209684843307
 20
139.041904408481
 30
0.0
  0
SPLINE
  5
2B4
330
1F
100
AcDbEntity
  8
1
  6
Continuous
 62
    30
370
    18
100
AcDbSpline
210
0.0
220
0.0
230
1.0
 70
    24
 71
     1
 72
     4
 73
     2
 74
     0
 42
0.000000001
 43
0.0000000001
 40
0.0
 40
0.0
 40
1.0
 40
1.0
 10
204.1682080688079
 20
139.041904408481
 30
0.0
 10
204.1682080688079
 20
138.9396257601711
 30
0.0
  0
SPLINE
  5
2B5
330
1F
100
AcDbEntity
  8
1
  6
Continuous
 62
    30
370
    18
100
AcDbSpline
210
0.0
220
0.0
230
1.0
 70
    24
 71
     1
 72
     4
 73
     2
 74
     0
 42
0.000000001
 43
0.0000000001
 40
0.0
 40
0.0
 40
1.0
 40
1.0
 10
204.1209684843307
 20
141.7511622865841
 30
0.0
 10
204.1209684843307
 20
141.853440934894
 30
0.0
  0
SPLINE
  5
2B6
330
1F
100
AcDbEntity
  8
1
  6
Continuous
 62
    30
370
    18
100
AcDbSpline
210
0.0
220
0.0
230
1.0
 70
    24
 71
     1
 72
     4
 73
     2
 74
     0
 42
0.000000001
 43
0.0000000001
 40
0.0
 40
0.0
 40
1.0
 40
1.0
 10
204.1682080688079
 20
141.853440934894
 30
0.0
 10
204.1682080688079
 20
141.7511622865841
 30
0.0
  0
SPLINE
  5
2B7
330
1F
100
AcDbEntity
  8
1
  6
Continuous
 62
    21
370
    18
100
AcDbSpline
210
0.0
220
0.0
230
1.0
 70
     8
 71
     1
 72
    19
 73
    17
 74
     0
 42
0.000000001
 43
0.0000000001
 40
0.0
 40
0.0
 40
0.0895286808287012
 40
0.1751910233071283
 40
0.2573805059462014
 40
0.3356860222288007
 40
0.4099867628573103
 40
0.4802053360562916
 40
0.5466073841705143
 40
0.609500063470491
 40
0.6683424317719085
 40
0.7233700086454414
 40
0.7756156471718768
 40
0.8245688718352377
 40
0.8707439243090236
 40
0.9151540493802309
 40
0.9577753351133296
 40
1.0
 40
1.0
 10
204.1935726527554
 20
178.9354340203117
 30
0.0
 10
204.1906429651845
 20
178.9369965203496
 30
0.0
 10
204.1878695276173
 20
178.9385459995537
 30
0.0
 10
204.1852523400539
 20
178.9401084995916
 30
0.0
 10
204.182804423328
 20
178.9416709996294
 30
0.0
 10
204.1805257774395
 20
178.9432204788336
 30
0.0
 10
204.1784424440557
 20
178.9447829788714
 30
0.0
 10
204.1765283815093
 20
178.9463324580756
 30
0.0
 10
204.1747966106341
 20
178.9478949581134
 30
0.0
 10
204.1732731730972
 20
178.9494574581513
 30
0.0
 10
204.171945048065
 20
178.9510069373555
 30
0.0
 10
204.1707992147039
 20
178.9525694373933
 30
0.0
 10
204.1698747355149
 20
178.9541319374311
 30
0.0
 10
204.1691455688306
 20
178.9556814166353
 30
0.0
 10
204.1686247354846
 20
178.9572439166732
 30
0.0
 10
204.1683122354771
 20
178.9587933958773
 30
0.0
 10
204.1682080688079
 20
178.9603558959152
 30
0.0
  0
SPLINE
  5
2B8
330
1F
100
AcDbEntity
  8
1
  6
Continuous
 62
    21
370
    18
100
AcDbSpline
210
0.0
220
0.0
230
1.0
 70
    24
 71
     1
 72
     4
 73
     2
 74
     0
 42
0.000000001
 43
0.0000000001
 40
0.0
 40
0.0
 40
1.0
 40
1.0
 10
204.1935726527554
 20
155.1188318811073
 30
0.0
 10
204.2548226542385
 20
155.1188318811073
 30
0.0
  0
SPLINE
  5
2B9
330
1F
100
AcDbEntity
  8
1
  6
Continuous
 62
    21
370
    18
100
AcDbSpline
210
0.0
220
0.0
230
1.0
 70
     8
 71
     1
 72
     7
 73
     5
 74
     0
 42
0.000000001
 43
0.0000000001
 40
0.0
 40
0.0
 40
0.2962822857369067
 40
0.5574562209973713
 40
0.7877583242555533
 40
1.0
 40
1.0
 10
204.1935726527554
 20
155.1188318811073
 30
0.0
 10
204.182804423328
 20
155.1080376100126
 30
0.0
 10
204.1747966106341
 20
155.0972433389179
 30
0.0
 10
204.1698747355149
 20
155.0864620886568
 30
0.0
 10
204.1682080688079
 20
155.0756678175621
 30
0.0
  0
SPLINE
  5
2BA
330
1F
100
AcDbEntity
  8
1
  6
Continuous
 62
    21
370
    18
100
AcDbSpline
210
0.0
220
0.0
230
1.0
 70
    24
 71
     1
 72
     4
 73
     2
 74
     0
 42
0.000000001
 43
0.0000000001
 40
0.0
 40
0.0
 40
1.0
 40
1.0
 10
204.2548226542385
 20
178.9354340203117
 30
0.0
 10
204.1935726527554
 20
178.9354340203117
 30
0.0
  0
SPLINE
  5
2BB
330
1F
100
AcDbEntity
  8
1
  6
Continuous
 62
    21
370
    18
100
AcDbSpline
210
0.0
220
0.0
230
1.0
 70
    24
 71
     1
 72
     4
 73
     2
 74
     0
 42
0.000000001
 43
0.0000000001
 40
0.0
 40
0.0
 40
1.0
 40
1.0
 10
204.1682080688079
 20
187.6425956894836
 30
0.0
 10
204.2548226542385
 20
187.6425956894836
 30
0.0
  0
SPLINE
  5
2BC
330
1F
100
AcDbEntity
  8
1
  6
Continuous
 62
    21
370
    18
100
AcDbSpline
210
0.0
220
0.0
230
1.0
 70
     8
 71
     1
 72
    19
 73
    17
 74
     0
 42
0.000000001
 43
0.0000000001
 40
0.0
 40
0.0
 40
0.0418772749662683
 40
0.0848457748365651
 40
0.1289260361642119
 40
0.1754222451275138
 40
0.2243788820352731
 40
0.2763454343469903
 40
0.3316439071441933
 40
0.3904903770046603
 40
0.4531527726488432
 40
0.5197809305711703
 40
0.5897942913709661
 40
0.6642982136281445
 40
0.7426091881325694
 40
0.8246249675846069
 40
0.9104650786479881
 40
1.0
 40
1.0
 10
204.1682080688079
 20
182.2894054556927
 30
0.0
 10
204.1683122354771
 20
182.2909549348969
 30
0.0
 10
204.1686247354846
 20
182.2925174349347
 30
0.0
 10
204.1691455688306
 20
182.2940669141389
 30
0.0
 10
204.1698747355149
 20
182.2956294141768
 30
0.0
 10
204.1707992147039
 20
182.2971919142146
 30
0.0
 10
204.171945048065
 20
182.2987413934188
 30
0.0
 10
204.1732731730972
 20
182.3003038934566
 30
0.0
 10
204.1747966106341
 20
182.3018663934945
 30
0.0
 10
204.1765283815093
 20
182.3034158726987
 30
0.0
 10
204.1784424440557
 20
182.3049783727365
 30
0.0
 10
204.1805257774395
 20
182.3065278519407
 30
0.0
 10
204.182804423328
 20
182.3080903519785
 30
0.0
 10
204.1852523400539
 20
182.3096528520163
 30
0.0
 10
204.1878695276173
 20
182.3112023312205
 30
0.0
 10
204.1906429651845
 20
182.3127648312584
 30
0.0
 10
204.1935726527554
 20
182.3143273312962
 30
0.0
  0
SPLINE
  5
2BD
330
1F
100
AcDbEntity
  8
1
  6
Continuous
 62
    21
370
    18
100
AcDbSpline
210
0.0
220
0.0
230
1.0
 70
    24
 71
     1
 72
     4
 73
     2
 74
     0
 42
0.000000001
 43
0.0000000001
 40
0.0
 40
0.0
 40
1.0
 40
1.0
 10
204.1935726527554
 20
182.3143273312962
 30
0.0
 10
204.2548226542385
 20
182.3143273312962
 30
0.0
  0
SPLINE
  5
2BE
330
1F
100
AcDbEntity
  8
1
  6
Continuous
 62
    21
370
    18
100
AcDbSpline
210
0.0
220
0.0
230
1.0
 70
     8
 71
     1
 72
     7
 73
     5
 74
     0
 42
0.000000001
 43
0.0000000001
 40
0.0
 40
0.0
 40
0.2629551278171234
 40
0.5156280581202973
 40
0.7599197862070306
 40
1.0
 40
1.0
 10
204.2269841118978
 20
155.1188318811073
 30
0.0
 10
204.2220882784459
 20
155.1080376100126
 30
0.0
 10
204.2184554658579
 20
155.0972433389179
 30
0.0
 10
204.2162158824703
 20
155.0864620886568
 30
0.0
 10
204.2154476532851
 20
155.0756678175621
 30
0.0
  0
SPLINE
  5
2BF
330
1F
100
AcDbEntity
  8
1
  6
Continuous
 62
    21
370
    18
100
AcDbSpline
210
0.0
220
0.0
230
1.0
 70
     8
 71
     1
 72
     7
 73
     5
 74
     0
 42
0.000000001
 43
0.0000000001
 40
0.0
 40
0.0
 40
0.2828385252299684
 40
0.5399076785487936
 40
0.7762979434144532
 40
1.0
 40
1.0
 10
204.2269841118978
 20
178.9354340203117
 30
0.0
 10
204.2220882784459
 20
178.9416709996294
 30
0.0
 10
204.2184554658579
 20
178.9478949581134
 30
0.0
 10
204.2162158824703
 20
178.9541319374311
 30
0.0
 10
204.2154476532851
 20
178.9603558959152
 30
0.0
  0
SPLINE
  5
2C0
330
1F
100
AcDbEntity
  8
1
  6
Continuous
 62
    21
370
    18
100
AcDbSpline
210
0.0
220
0.0
230
1.0
 70
     8
 71
     1
 72
     7
 73
     5
 74
     0
 42
0.000000001
 43
0.0000000001
 40
0.0
 40
0.0
 40
0.2237020565855469
 40
0.4600923214512066
 40
0.7171614747700317
 40
1.0
 40
1.0
 10
204.2154476532851
 20
182.2894054556927
 30
0.0
 10
204.2162158824703
 20
182.2956294141768
 30
0.0
 10
204.2184554658579
 20
182.3018663934945
 30
0.0
 10
204.2220882784459
 20
182.3080903519785
 30
0.0
 10
204.2269841118978
 20
182.3143273312962
 30
0.0
  0
SPLINE
  5
2C1
330
1F
100
AcDbEntity
  8
1
  6
Continuous
 62
    21
370
    18
100
AcDbSpline
210
0.0
220
0.0
230
1.0
 70
    24
 71
     1
 72
     4
 73
     2
 74
     0
 42
0.000000001
 43
0.0000000001
 40
0.0
 40
0.0
 40
1.0
 40
1.0
 10
204.2548226542385
 20
179.1377387127104
 30
0.0
 10
204.1682080688079
 20
179.1377387127104
 30
0.0
  0
SPLINE
  5
2C2
330
1F
100
AcDbEntity
  8
1
  6
Continuous
 62
    21
370
    18
100
AcDbSpline
210
0.0
220
0.0
230
1.0
 70
    24
 71
     1
 72
     4
 73
     2
 74
     0
 42
0.000000001
 43
0.0000000001
 40
0.0
 40
0.0
 40
1.0
 40
1.0
 10
204.2548226542385
 20
182.1120226388975
 30
0.0
 10
204.1682080688079
 20
182.1120226388975
 30
0.0
  0
SPLINE
  5
2C3
330
1F
100
AcDbEntity
  8
1
  6
Continuous
 62
    21
370
    18
100
AcDbSpline
210
0.0
220
0.0
230
1.0
 70
    24
 71
     1
 72
     4
 73
     2
 74
     0
 42
0.000000001
 43
0.0000000001
 40
0.0
 40
0.0
 40
1.0
 40
1.0
 10
204.1682080688079
 20
187.6425956894836
 30
0.0
 10
204.1682080688079
 20
187.7607076715103
 30
0.0
  0
SPLINE
  5
2C4
330
1F
100
AcDbEntity
  8
1
  6
Continuous
 62
    21
370
    18
100
AcDbSpline
210
0.0
220
0.0
230
1.0
 70
    24
 71
     1
 72
     4
 73
     2
 74
     0
 42
0.000000001
 43
0.0000000001
 40
0.0
 40
0.0
 40
1.0
 40
1.0
 10
204.2154476532851
 20
187.7607076715103
 30
0.0
 10
204.2154476532851
 20
187.6425956894836
 30
0.0
  0
SPLINE
  5
2C5
330
1F
100
AcDbEntity
  8
1
  6
Continuous
 62
    21
370
    18
100
AcDbSpline
210
0.0
220
0.0
230
1.0
 70
    24
 71
     1
 72
     5
 73
     3
 74
     0
 42
0.000000001
 43
0.0000000001
 40
0.0
 40
0.0
 40
0.2499173189284533
 40
1.0
 40
1.0
 10
204.2154476532851
 20
179.0196267306837
 30
0.0
 10
204.2154476532851
 20
179.0491449605651
 30
0.0
 10
204.2154476532851
 20
179.1377387127104
 30
0.0
  0
SPLINE
  5
2C6
330
1F
100
AcDbEntity
  8
1
  6
Continuous
 62
    21
370
    18
100
AcDbSpline
210
0.0
220
0.0
230
1.0
 70
    24
 71
     1
 72
     5
 73
     3
 74
     0
 42
0.000000001
 43
0.0000000001
 40
0.0
 40
0.0
 40
0.2500275603571822
 40
1.0
 40
1.0
 10
204.2154476532851
 20
182.2301346209242
 30
0.0
 10
204.2154476532851
 20
182.2006033702091
 30
0.0
 10
204.2154476532851
 20
182.1120226388975
 30
0.0
  0
SPLINE
  5
2C7
330
1F
100
AcDbEntity
  8
1
  6
Continuous
 62
    21
370
    18
100
AcDbSpline
210
0.0
220
0.0
230
1.0
 70
    24
 71
     1
 72
     4
 73
     2
 74
     0
 42
0.000000001
 43
0.0000000001
 40
0.0
 40
0.0
 40
1.0
 40
1.0
 10
204.1682080688079
 20
187.9575566346102
 30
0.0
 10
204.1682080688079
 20
188.0756686166369
 30
0.0
  0
SPLINE
  5
2C8
330
1F
100
AcDbEntity
  8
1
  6
Continuous
 62
    21
370
    18
100
AcDbSpline
210
0.0
220
0.0
230
1.0
 70
    24
 71
     1
 72
     4
 73
     2
 74
     0
 42
0.000000001
 43
0.0000000001
 40
0.0
 40
0.0
 40
1.0
 40
1.0
 10
204.2154476532851
 20
188.0756686166369
 30
0.0
 10
204.2154476532851
 20
187.9575566346102
 30
0.0
  0
SPLINE
  5
2C9
330
1F
100
AcDbEntity
  8
1
  6
Continuous
 62
    21
370
    18
100
AcDbSpline
210
0.0
220
0.0
230
1.0
 70
    24
 71
     1
 72
     4
 73
     2
 74
     0
 42
0.000000001
 43
0.0000000001
 40
0.0
 40
0.0
 40
1.0
 40
1.0
 10
204.1682080688079
 20
154.4536235316664
 30
0.0
 10
204.1682080688079
 20
154.5717224928594
 30
0.0
  0
SPLINE
  5
2CA
330
1F
100
AcDbEntity
  8
1
  6
Continuous
 62
    21
370
    18
100
AcDbSpline
210
0.0
220
0.0
230
1.0
 70
    24
 71
     1
 72
     4
 73
     2
 74
     0
 42
0.000000001
 43
0.0000000001
 40
0.0
 40
0.0
 40
1.0
 40
1.0
 10
204.2154476532851
 20
154.5717224928594
 30
0.0
 10
204.2154476532851
 20
154.4536235316664
 30
0.0
  0
SPLINE
  5
2CB
330
1F
100
AcDbEntity
  8
1
  6
Continuous
 62
    21
370
    18
100
AcDbSpline
210
0.0
220
0.0
230
1.0
 70
    24
 71
     1
 72
     4
 73
     2
 74
     0
 42
0.000000001
 43
0.0000000001
 40
0.0
 40
0.0
 40
1.0
 40
1.0
 10
204.1682080688079
 20
153.5087406962866
 30
0.0
 10
204.1682080688079
 20
153.6268396574796
 30
0.0
  0
SPLINE
  5
2CC
330
1F
100
AcDbEntity
  8
1
  6
Continuous
 62
    21
370
    18
100
AcDbSpline
210
0.0
220
0.0
230
1.0
 70
    24
 71
     1
 72
     4
 73
     2
 74
     0
 42
0.000000001
 43
0.0000000001
 40
0.0
 40
0.0
 40
1.0
 40
1.0
 10
204.2154476532851
 20
153.6268396574796
 30
0.0
 10
204.2154476532851
 20
153.5087406962866
 30
0.0
  0
SPLINE
  5
2CD
330
1F
100
AcDbEntity
  8
1
  6
Continuous
 62
    21
370
    18
100
AcDbSpline
210
0.0
220
0.0
230
1.0
 70
    24
 71
     1
 72
     4
 73
     2
 74
     0
 42
0.000000001
 43
0.0000000001
 40
0.0
 40
0.0
 40
1.0
 40
1.0
 10
204.1682080688079
 20
153.5087406962866
 30
0.0
 10
204.1480257766525
 20
153.5087406962866
 30
0.0
  0
SPLINE
  5
2CE
330
1F
100
AcDbEntity
  8
1
  6
Continuous
 62
    21
370
    18
100
AcDbSpline
210
0.0
220
0.0
230
1.0
 70
    24
 71
     1
 72
     4
 73
     2
 74
     0
 42
0.000000001
 43
0.0000000001
 40
0.0
 40
0.0
 40
1.0
 40
1.0
 10
204.1288330678544
 20
188.0756686166369
 30
0.0
 10
204.1682080688079
 20
188.0756686166369
 30
0.0
  0
SPLINE
  5
2CF
330
1F
100
AcDbEntity
  8
1
  6
Continuous
 62
    21
370
    18
100
AcDbSpline
210
0.0
220
0.0
230
1.0
 70
     8
 71
     1
 72
    19
 73
    17
 74
     0
 42
0.000000001
 43
0.0000000001
 40
0.0
 40
0.0
 40
0.0895286808287012
 40
0.1751910233071283
 40
0.2573805059462014
 40
0.3356860222288007
 40
0.4099867628573103
 40
0.4802053360562916
 40
0.5466073841705143
 40
0.609500063470491
 40
0.6683424317719085
 40
0.7233700086454414
 40
0.7756156471718768
 40
0.8245688718352377
 40
0.8707439243090236
 40
0.9151540493802309
 40
0.9577753351133296
 40
1.0
 40
1.0
 10
204.1935726527554
 20
138.7070866920403
 30
0.0
 10
204.1906429651845
 20
138.7086491920781
 30
0.0
 10
204.1878695276173
 20
138.7101986712823
 30
0.0
 10
204.1852523400539
 20
138.7117611713202
 30
0.0
 10
204.182804423328
 20
138.713323671358
 30
0.0
 10
204.1805257774395
 20
138.7148731505622
 30
0.0
 10
204.1784424440557
 20
138.7164356506
 30
0.0
 10
204.1765283815093
 20
138.7179851298042
 30
0.0
 10
204.1747966106341
 20
138.719547629842
 30
0.0
 10
204.1732731730972
 20
138.7211101298799
 30
0.0
 10
204.171945048065
 20
138.722659609084
 30
0.0
 10
204.1707992147039
 20
138.7242221091219
 30
0.0
 10
204.1698747355149
 20
138.7257846091597
 30
0.0
 10
204.1691455688306
 20
138.7273340883639
 30
0.0
 10
204.1686247354846
 20
138.7288965884017
 30
0.0
 10
204.1683122354771
 20
138.7304460676059
 30
0.0
 10
204.1682080688079
 20
138.7320085676438
 30
0.0
  0
SPLINE
  5
2D0
330
1F
100
AcDbEntity
  8
1
  6
Continuous
 62
    21
370
    18
100
AcDbSpline
210
0.0
220
0.0
230
1.0
 70
    24
 71
     1
 72
     4
 73
     2
 74
     0
 42
0.000000001
 43
0.0000000001
 40
0.0
 40
0.0
 40
1.0
 40
1.0
 10
204.1935726527554
 20
114.8904845528359
 30
0.0
 10
204.2548226542385
 20
114.8904845528359
 30
0.0
  0
SPLINE
  5
2D1
330
1F
100
AcDbEntity
  8
1
  6
Continuous
 62
    21
370
    18
100
AcDbSpline
210
0.0
220
0.0
230
1.0
 70
    24
 71
     1
 72
     4
 73
     2
 74
     0
 42
0.000000001
 43
0.0000000001
 40
0.0
 40
0.0
 40
1.0
 40
1.0
 10
204.2548226542385
 20
138.7070866920403
 30
0.0
 10
204.1935726527554
 20
138.7070866920403
 30
0.0
  0
SPLINE
  5
2D2
330
1F
100
AcDbEntity
  8
1
  6
Continuous
 62
    21
370
    18
100
AcDbSpline
210
0.0
220
0.0
230
1.0
 70
    24
 71
     1
 72
     4
 73
     2
 74
     0
 42
0.000000001
 43
0.0000000001
 40
0.0
 40
0.0
 40
1.0
 40
1.0
 10
204.1682080688079
 20
147.4142483612122
 30
0.0
 10
204.2548226542385
 20
147.4142483612122
 30
0.0
  0
SPLINE
  5
2D3
330
1F
100
AcDbEntity
  8
1
  6
Continuous
 62
    21
370
    18
100
AcDbSpline
210
0.0
220
0.0
230
1.0
 70
     8
 71
     1
 72
    19
 73
    17
 74
     0
 42
0.000000001
 43
0.0000000001
 40
0.0
 40
0.0
 40
0.0418772749662683
 40
0.0848457748365651
 40
0.1289260361642119
 40
0.1754222451275138
 40
0.2243788820352731
 40
0.2763454343469903
 40
0.3316439071441933
 40
0.3904903770046603
 40
0.4531527726488432
 40
0.5197809305711703
 40
0.5897942913709661
 40
0.6642982136281445
 40
0.7426091881325694
 40
0.8246249675846069
 40
0.9104650786479881
 40
1.0
 40
1.0
 10
204.1682080688079
 20
142.0610581274213
 30
0.0
 10
204.1683122354771
 20
142.0626076066255
 30
0.0
 10
204.1686247354846
 20
142.0641701066633
 30
0.0
 10
204.1691455688306
 20
142.0657195858675
 30
0.0
 10
204.1698747355149
 20
142.0672820859054
 30
0.0
 10
204.1707992147039
 20
142.0688445859432
 30
0.0
 10
204.171945048065
 20
142.0703940651474
 30
0.0
 10
204.1732731730972
 20
142.0719565651852
 30
0.0
 10
204.1747966106341
 20
142.073519065223
 30
0.0
 10
204.1765283815093
 20
142.0750685444272
 30
0.0
 10
204.1784424440557
 20
142.0766310444651
 30
0.0
 10
204.1805257774395
 20
142.0781805236693
 30
0.0
 10
204.182804423328
 20
142.0797430237071
 30
0.0
 10
204.1852523400539
 20
142.0813055237449
 30
0.0
 10
204.1878695276173
 20
142.0828550029491
 30
0.0
 10
204.1906429651845
 20
142.084417502987
 30
0.0
 10
204.1935726527554
 20
142.0859800030248
 30
0.0
  0
SPLINE
  5
2D4
330
1F
100
AcDbEntity
  8
1
  6
Continuous
 62
    21
370
    18
100
AcDbSpline
210
0.0
220
0.0
230
1.0
 70
    24
 71
     1
 72
     4
 73
     2
 74
     0
 42
0.000000001
 43
0.0000000001
 40
0.0
 40
0.0
 40
1.0
 40
1.0
 10
204.1935726527554
 20
142.0859800030248
 30
0.0
 10
204.2548226542385
 20
142.0859800030248
 30
0.0
  0
SPLINE
  5
2D5
330
1F
100
AcDbEntity
  8
1
  6
Continuous
 62
    21
370
    18
100
AcDbSpline
210
0.0
220
0.0
230
1.0
 70
     8
 71
     1
 72
     7
 73
     5
 74
     0
 42
0.000000001
 43
0.0000000001
 40
0.0
 40
0.0
 40
0.2629551278171234
 40
0.5156280581202973
 40
0.7599197862070306
 40
1.0
 40
1.0
 10
204.2269841118978
 20
114.8904845528359
 30
0.0
 10
204.2220882784459
 20
114.8796902817412
 30
0.0
 10
204.2184554658579
 20
114.8688960106465
 30
0.0
 10
204.2162158824703
 20
114.8581147603854
 30
0.0
 10
204.2154476532851
 20
114.8473204892907
 30
0.0
  0
SPLINE
  5
2D6
330
1F
100
AcDbEntity
  8
1
  6
Continuous
 62
    21
370
    18
100
AcDbSpline
210
0.0
220
0.0
230
1.0
 70
     8
 71
     1
 72
     7
 73
     5
 74
     0
 42
0.000000001
 43
0.0000000001
 40
0.0
 40
0.0
 40
0.2828385252299684
 40
0.5399076785487936
 40
0.7762979434144532
 40
1.0
 40
1.0
 10
204.2269841118978
 20
138.7070866920403
 30
0.0
 10
204.2220882784459
 20
138.713323671358
 30
0.0
 10
204.2184554658579
 20
138.719547629842
 30
0.0
 10
204.2162158824703
 20
138.7257846091597
 30
0.0
 10
204.2154476532851
 20
138.7320085676438
 30
0.0
  0
SPLINE
  5
2D7
330
1F
100
AcDbEntity
  8
1
  6
Continuous
 62
    21
370
    18
100
AcDbSpline
210
0.0
220
0.0
230
1.0
 70
     8
 71
     1
 72
     7
 73
     5
 74
     0
 42
0.000000001
 43
0.0000000001
 40
0.0
 40
0.0
 40
0.2237020565855469
 40
0.4600923214512066
 40
0.7171614747700317
 40
1.0
 40
1.0
 10
204.2154476532851
 20
142.0610581274213
 30
0.0
 10
204.2162158824703
 20
142.0672820859054
 30
0.0
 10
204.2184554658579
 20
142.073519065223
 30
0.0
 10
204.2220882784459
 20
142.0797430237071
 30
0.0
 10
204.2269841118978
 20
142.0859800030248
 30
0.0
  0
SPLINE
  5
2D8
330
1F
100
AcDbEntity
  8
1
  6
Continuous
 62
    21
370
    18
100
AcDbSpline
210
0.0
220
0.0
230
1.0
 70
    24
 71
     1
 72
     4
 73
     2
 74
     0
 42
0.000000001
 43
0.0000000001
 40
0.0
 40
0.0
 40
1.0
 40
1.0
 10
204.2548226542385
 20
138.909391384439
 30
0.0
 10
204.1682080688079
 20
138.909391384439
 30
0.0
  0
SPLINE
  5
2D9
330
1F
100
AcDbEntity
  8
1
  6
Continuous
 62
    21
370
    18
100
AcDbSpline
210
0.0
220
0.0
230
1.0
 70
    24
 71
     1
 72
     4
 73
     2
 74
     0
 42
0.000000001
 43
0.0000000001
 40
0.0
 40
0.0
 40
1.0
 40
1.0
 10
204.2548226542385
 20
141.8836753106261
 30
0.0
 10
204.1682080688079
 20
141.8836753106261
 30
0.0
  0
SPLINE
  5
2DA
330
1F
100
AcDbEntity
  8
1
  6
Continuous
 62
    21
370
    18
100
AcDbSpline
210
0.0
220
0.0
230
1.0
 70
    24
 71
     1
 72
     4
 73
     2
 74
     0
 42
0.000000001
 43
0.0000000001
 40
0.0
 40
0.0
 40
1.0
 40
1.0
 10
204.1682080688079
 20
147.4142483612122
 30
0.0
 10
204.1682080688079
 20
147.5323603432389
 30
0.0
  0
SPLINE
  5
2DB
330
1F
100
AcDbEntity
  8
1
  6
Continuous
 62
    21
370
    18
100
AcDbSpline
210
0.0
220
0.0
230
1.0
 70
    24
 71
     1
 72
     4
 73
     2
 74
     0
 42
0.000000001
 43
0.0000000001
 40
0.0
 40
0.0
 40
1.0
 40
1.0
 10
204.2154476532851
 20
147.5323603432389
 30
0.0
 10
204.2154476532851
 20
147.4142483612122
 30
0.0
  0
SPLINE
  5
2DC
330
1F
100
AcDbEntity
  8
1
  6
Continuous
 62
    21
370
    18
100
AcDbSpline
210
0.0
220
0.0
230
1.0
 70
    24
 71
     1
 72
     5
 73
     3
 74
     0
 42
0.000000001
 43
0.0000000001
 40
0.0
 40
0.0
 40
0.2500275603571822
 40
1.0
 40
1.0
 10
204.2154476532851
 20
142.0017872926528
 30
0.0
 10
204.2154476532851
 20
141.9722560419377
 30
0.0
 10
204.2154476532851
 20
141.8836753106261
 30
0.0
  0
SPLINE
  5
2DD
330
1F
100
AcDbEntity
  8
1
  6
Continuous
 62
    21
370
    18
100
AcDbSpline
210
0.0
220
0.0
230
1.0
 70
    24
 71
     1
 72
     5
 73
     3
 74
     0
 42
0.000000001
 43
0.0000000001
 40
0.0
 40
0.0
 40
0.2499173189284533
 40
1.0
 40
1.0
 10
204.2154476532851
 20
138.7912794024123
 30
0.0
 10
204.2154476532851
 20
138.8207976322937
 30
0.0
 10
204.2154476532851
 20
138.909391384439
 30
0.0
  0
SPLINE
  5
2DE
330
1F
100
AcDbEntity
  8
1
  6
Continuous
 62
    21
370
    18
100
AcDbSpline
210
0.0
220
0.0
230
1.0
 70
    24
 71
     1
 72
     4
 73
     2
 74
     0
 42
0.000000001
 43
0.0000000001
 40
0.0
 40
0.0
 40
1.0
 40
1.0
 10
204.1682080688079
 20
147.7292093063388
 30
0.0
 10
204.1682080688079
 20
147.8473212883655
 30
0.0
  0
SPLINE
  5
2DF
330
1F
100
AcDbEntity
  8
1
  6
Continuous
 62
    21
370
    18
100
AcDbSpline
210
0.0
220
0.0
230
1.0
 70
    24
 71
     1
 72
     4
 73
     2
 74
     0
 42
0.000000001
 43
0.0000000001
 40
0.0
 40
0.0
 40
1.0
 40
1.0
 10
204.2154476532851
 20
147.8473212883655
 30
0.0
 10
204.2154476532851
 20
147.7292093063388
 30
0.0
  0
SPLINE
  5
2E0
330
1F
100
AcDbEntity
  8
1
  6
Continuous
 62
    21
370
    18
100
AcDbSpline
210
0.0
220
0.0
230
1.0
 70
    24
 71
     1
 72
     4
 73
     2
 74
     0
 42
0.000000001
 43
0.0000000001
 40
0.0
 40
0.0
 40
1.0
 40
1.0
 10
204.2154476532851
 20
114.343375164588
 30
0.0
 10
204.2154476532851
 20
114.2252762033949
 30
0.0
  0
SPLINE
  5
2E1
330
1F
100
AcDbEntity
  8
1
  6
Continuous
 62
    21
370
    18
100
AcDbSpline
210
0.0
220
0.0
230
1.0
 70
    24
 71
     1
 72
     4
 73
     2
 74
     0
 42
0.000000001
 43
0.0000000001
 40
0.0
 40
0.0
 40
1.0
 40
1.0
 10
204.2154476532851
 20
113.3984923292082
 30
0.0
 10
204.2154476532851
 20
113.2803933680152
 30
0.0
  0
SPLINE
  5
2E2
330
1F
100
AcDbEntity
  8
1
  6
Continuous
 62
    21
370
    18
100
AcDbSpline
210
0.0
220
0.0
230
1.0
 70
    24
 71
     1
 72
     4
 73
     2
 74
     0
 42
0.000000001
 43
0.0000000001
 40
0.0
 40
0.0
 40
1.0
 40
1.0
 10
204.1480257766525
 20
147.8473212883655
 30
0.0
 10
204.1682080688079
 20
147.8473212883655
 30
0.0
  0
SPLINE
  5
2E3
330
1F
100
AcDbEntity
  8
1
  6
Continuous
 62
    30
370
    18
100
AcDbSpline
210
0.0
220
0.0
230
1.0
 70
    24
 71
     1
 72
     4
 73
     2
 74
     0
 42
0.000000001
 43
0.0000000001
 40
0.0
 40
0.0
 40
1.0
 40
1.0
 10
204.1682080688079
 20
186.0107987749707
 30
0.0
 10
204.1682080688079
 20
185.892686792944
 30
0.0
  0
SPLINE
  5
2E4
330
1F
100
AcDbEntity
  8
1
  6
Continuous
 62
    30
370
    18
100
AcDbSpline
210
0.0
220
0.0
230
1.0
 70
    24
 71
     1
 72
     4
 73
     2
 74
     0
 42
0.000000001
 43
0.0000000001
 40
0.0
 40
0.0
 40
1.0
 40
1.0
 10
204.1209684843307
 20
185.892686792944
 30
0.0
 10
204.1209684843307
 20
186.0107987749707
 30
0.0
  0
SPLINE
  5
2E5
330
1F
100
AcDbEntity
  8
1
  6
Continuous
 62
    30
370
    18
100
AcDbSpline
210
0.0
220
0.0
230
1.0
 70
    24
 71
     1
 72
     4
 73
     2
 74
     0
 42
0.000000001
 43
0.0000000001
 40
0.0
 40
0.0
 40
1.0
 40
1.0
 10
204.1209684843307
 20
181.9795096148555
 30
0.0
 10
204.1209684843307
 20
182.0817882631654
 30
0.0
  0
SPLINE
  5
2E6
330
1F
100
AcDbEntity
  8
1
  6
Continuous
 62
    30
370
    18
100
AcDbSpline
210
0.0
220
0.0
230
1.0
 70
    24
 71
     1
 72
     4
 73
     2
 74
     0
 42
0.000000001
 43
0.0000000001
 40
0.0
 40
0.0
 40
1.0
 40
1.0
 10
204.1682080688079
 20
182.0817882631654
 30
0.0
 10
204.1682080688079
 20
181.9795096148555
 30
0.0
  0
SPLINE
  5
2E7
330
1F
100
AcDbEntity
  8
1
  6
Continuous
 62
    30
370
    18
100
AcDbSpline
210
0.0
220
0.0
230
1.0
 70
    24
 71
     1
 72
     4
 73
     2
 74
     0
 42
0.000000001
 43
0.0000000001
 40
0.0
 40
0.0
 40
1.0
 40
1.0
 10
204.1209684843307
 20
179.1679730884425
 30
0.0
 10
204.1209684843307
 20
179.2702517367525
 30
0.0
  0
SPLINE
  5
2E8
330
1F
100
AcDbEntity
  8
1
  6
Continuous
 62
    30
370
    18
100
AcDbSpline
210
0.0
220
0.0
230
1.0
 70
    24
 71
     1
 72
     4
 73
     2
 74
     0
 42
0.000000001
 43
0.0000000001
 40
0.0
 40
0.0
 40
1.0
 40
1.0
 10
204.1682080688079
 20
179.2702517367525
 30
0.0
 10
204.1682080688079
 20
179.1679730884425
 30
0.0
  0
SPLINE
  5
2E9
330
1F
100
AcDbEntity
  8
1
  6
Continuous
 62
    30
370
    18
100
AcDbSpline
210
0.0
220
0.0
230
1.0
 70
    24
 71
     1
 72
     4
 73
     2
 74
     0
 42
0.000000001
 43
0.0000000001
 40
0.0
 40
0.0
 40
1.0
 40
1.0
 10
204.1209684843307
 20
177.8734287862626
 30
0.0
 10
204.1209684843307
 20
177.9915407682892
 30
0.0
  0
SPLINE
  5
2EA
330
1F
100
AcDbEntity
  8
1
  6
Continuous
 62
    30
370
    18
100
AcDbSpline
210
0.0
220
0.0
230
1.0
 70
    24
 71
     1
 72
     4
 73
     2
 74
     0
 42
0.000000001
 43
0.0000000001
 40
0.0
 40
0.0
 40
1.0
 40
1.0
 10
204.1682080688079
 20
177.9915407682892
 30
0.0
 10
204.1682080688079
 20
177.8734287862626
 30
0.0
  0
SPLINE
  5
2EB
330
1F
100
AcDbEntity
  8
1
  6
Continuous
 62
    31
370
    18
100
AcDbSpline
210
0.0
220
0.0
230
1.0
 70
    24
 71
     1
 72
     4
 73
     2
 74
     0
 42
0.000000001
 43
0.0000000001
 40
0.0
 40
0.0
 40
1.0
 40
1.0
 10
204.1480257766525
 20
155.5872563716166
 30
0.0
 10
204.1480257766525
 20
155.5037407445943
 30
0.0
  0
SPLINE
  5
2EC
330
1F
100
AcDbEntity
  8
1
  6
Continuous
 62
    31
370
    18
100
AcDbSpline
210
0.0
220
0.0
230
1.0
 70
    24
 71
     1
 72
     4
 73
     2
 74
     0
 42
0.000000001
 43
0.0000000001
 40
0.0
 40
0.0
 40
1.0
 40
1.0
 10
204.1007861921753
 20
155.5037407445943
 30
0.0
 10
204.1007861921753
 20
155.5872563716166
 30
0.0
  0
SPLINE
  5
2ED
330
1F
100
AcDbEntity
  8
1
  6
Continuous
 62
    31
370
    18
100
AcDbSpline
210
0.0
220
0.0
230
1.0
 70
    24
 71
     1
 72
     4
 73
     2
 74
     0
 42
0.000000001
 43
0.0000000001
 40
0.0
 40
0.0
 40
1.0
 40
1.0
 10
204.1007861921753
 20
144.7562535051838
 30
0.0
 10
204.1007861921753
 20
144.8397821530398
 30
0.0
  0
SPLINE
  5
2EE
330
1F
100
AcDbEntity
  8
1
  6
Continuous
 62
    31
370
    18
100
AcDbSpline
210
0.0
220
0.0
230
1.0
 70
    24
 71
     1
 72
     4
 73
     2
 74
     0
 42
0.000000001
 43
0.0000000001
 40
0.0
 40
0.0
 40
1.0
 40
1.0
 10
204.1480257766525
 20
144.8397821530398
 30
0.0
 10
204.1480257766525
 20
144.7562535051838
 30
0.0
  0
SPLINE
  5
2EF
330
1F
100
AcDbEntity
  8
1
  6
Continuous
 62
    31
370
    18
100
AcDbSpline
210
0.0
220
0.0
230
1.0
 70
    24
 71
     1
 72
     4
 73
     2
 74
     0
 42
0.000000001
 43
0.0000000001
 40
0.0
 40
0.0
 40
1.0
 40
1.0
 10
204.1007861921753
 20
156.3369699314371
 30
0.0
 10
204.1007861921753
 20
156.4204855584594
 30
0.0
  0
SPLINE
  5
2F0
330
1F
100
AcDbEntity
  8
1
  6
Continuous
 62
    31
370
    18
100
AcDbSpline
210
0.0
220
0.0
230
1.0
 70
    24
 71
     1
 72
     4
 73
     2
 74
     0
 42
0.000000001
 43
0.0000000001
 40
0.0
 40
0.0
 40
1.0
 40
1.0
 10
204.1480257766525
 20
156.4204855584594
 30
0.0
 10
204.1480257766525
 20
156.3369699314371
 30
0.0
  0
SPLINE
  5
2F1
330
1F
100
AcDbEntity
  8
1
  6
Continuous
 62
    31
370
    18
100
AcDbSpline
210
0.0
220
0.0
230
1.0
 70
    24
 71
     1
 72
     4
 73
     2
 74
     0
 42
0.000000001
 43
0.0000000001
 40
0.0
 40
0.0
 40
1.0
 40
1.0
 10
204.1007861921753
 20
143.9230373391747
 30
0.0
 10
204.1007861921753
 20
144.0065529661969
 30
0.0
  0
SPLINE
  5
2F2
330
1F
100
AcDbEntity
  8
1
  6
Continuous
 62
    31
370
    18
100
AcDbSpline
210
0.0
220
0.0
230
1.0
 70
    24
 71
     1
 72
     4
 73
     2
 74
     0
 42
0.000000001
 43
0.0000000001
 40
0.0
 40
0.0
 40
1.0
 40
1.0
 10
204.1480257766525
 20
144.0065529661969
 30
0.0
 10
204.1480257766525
 20
143.9230373391747
 30
0.0
  0
SPLINE
  5
2F3
330
1F
100
AcDbEntity
  8
1
  6
Continuous
 62
    31
370
    18
100
AcDbSpline
210
0.0
220
0.0
230
1.0
 70
    24
 71
     1
 72
     4
 73
     2
 74
     0
 42
0.000000001
 43
0.0000000001
 40
0.0
 40
0.0
 40
1.0
 40
1.0
 10
204.1007861921753
 20
157.2455767242718
 30
0.0
 10
204.1007861921753
 20
157.3636887062985
 30
0.0
  0
SPLINE
  5
2F4
330
1F
100
AcDbEntity
  8
1
  6
Continuous
 62
    31
370
    18
100
AcDbSpline
210
0.0
220
0.0
230
1.0
 70
    24
 71
     1
 72
     4
 73
     2
 74
     0
 42
0.000000001
 43
0.0000000001
 40
0.0
 40
0.0
 40
1.0
 40
1.0
 10
204.1480257766525
 20
157.3636887062985
 30
0.0
 10
204.1480257766525
 20
157.2455767242718
 30
0.0
  0
SPLINE
  5
2F5
330
1F
100
AcDbEntity
  8
1
  6
Continuous
 62
    31
370
    18
100
AcDbSpline
210
0.0
220
0.0
230
1.0
 70
    24
 71
     1
 72
     4
 73
     2
 74
     0
 42
0.000000001
 43
0.0000000001
 40
0.0
 40
0.0
 40
1.0
 40
1.0
 10
204.1007861921753
 20
142.9798341913356
 30
0.0
 10
204.1007861921753
 20
143.0979461733623
 30
0.0
  0
SPLINE
  5
2F6
330
1F
100
AcDbEntity
  8
1
  6
Continuous
 62
    31
370
    18
100
AcDbSpline
210
0.0
220
0.0
230
1.0
 70
    24
 71
     1
 72
     4
 73
     2
 74
     0
 42
0.000000001
 43
0.0000000001
 40
0.0
 40
0.0
 40
1.0
 40
1.0
 10
204.1480257766525
 20
143.0979461733623
 30
0.0
 10
204.1480257766525
 20
142.9798341913356
 30
0.0
  0
SPLINE
  5
2F7
330
1F
100
AcDbEntity
  8
1
  6
Continuous
 62
    31
370
    18
100
AcDbSpline
210
0.0
220
0.0
230
1.0
 70
    24
 71
     1
 72
     4
 73
     2
 74
     0
 42
0.000000001
 43
0.0000000001
 40
0.0
 40
0.0
 40
1.0
 40
1.0
 10
204.1007861921753
 20
142.9798341913356
 30
0.0
 10
204.0614111912219
 20
142.9798341913356
 30
0.0
  0
SPLINE
  5
2F8
330
1F
100
AcDbEntity
  8
1
  6
Continuous
 62
    31
370
    18
100
AcDbSpline
210
0.0
220
0.0
230
1.0
 70
    24
 71
     1
 72
     4
 73
     2
 74
     0
 42
0.000000001
 43
0.0000000001
 40
0.0
 40
0.0
 40
1.0
 40
1.0
 10
204.0614111912219
 20
157.3636887062985
 30
0.0
 10
204.1007861921753
 20
157.3636887062985
 30
0.0
  0
SPLINE
  5
2F9
330
1F
100
AcDbEntity
  8
1
  6
Continuous
 62
    31
370
    18
100
AcDbSpline
210
0.0
220
0.0
230
1.0
 70
    24
 71
     1
 72
     4
 73
     2
 74
     0
 42
0.000000001
 43
0.0000000001
 40
0.0
 40
0.0
 40
1.0
 40
1.0
 10
161.5376862032026
 20
213.1014374517872
 30
0.0
 10
161.6557981852293
 20
213.1014374517872
 30
0.0
  0
SPLINE
  5
2FA
330
1F
100
AcDbEntity
  8
1
  6
Continuous
 62
    31
370
    18
100
AcDbSpline
210
0.0
220
0.0
230
1.0
 70
    24
 71
     1
 72
     4
 73
     2
 74
     0
 42
0.000000001
 43
0.0000000001
 40
0.0
 40
0.0
 40
1.0
 40
1.0
 10
161.6557981852293
 20
213.1014374517872
 30
0.0
 10
161.6903815194
 20
213.1014374517872
 30
0.0
  0
SPLINE
  5
2FB
330
1F
100
AcDbEntity
  8
1
  6
Continuous
 62
    31
370
    18
100
AcDbSpline
210
0.0
220
0.0
230
1.0
 70
    24
 71
     1
 72
     4
 73
     2
 74
     0
 42
0.000000001
 43
0.0000000001
 40
0.0
 40
0.0
 40
1.0
 40
1.0
 10
162.4400950792205
 20
213.1014374517872
 30
0.0
 10
162.4746914342249
 20
213.1014374517872
 30
0.0
  0
SPLINE
  5
2FC
330
1F
100
AcDbEntity
  8
1
  6
Continuous
 62
    31
370
    18
100
AcDbSpline
210
0.0
220
0.0
230
1.0
 70
    24
 71
     1
 72
     4
 73
     2
 74
     0
 42
0.000000001
 43
0.0000000001
 40
0.0
 40
0.0
 40
1.0
 40
1.0
 10
126.7266567144415
 20
212.010382737868
 30
0.0
 10
126.7266567144415
 20
212.1284947198947
 30
0.0
  0
SPLINE
  5
2FD
330
1F
100
AcDbEntity
  8
1
  6
Continuous
 62
    31
370
    18
100
AcDbSpline
210
0.0
220
0.0
230
1.0
 70
    24
 71
     1
 72
     4
 73
     2
 74
     0
 42
0.000000001
 43
0.0000000001
 40
0.0
 40
0.0
 40
1.0
 40
1.0
 10
126.7739093197524
 20
212.1284947198947
 30
0.0
 10
126.7739093197524
 20
212.010382737868
 30
0.0
  0
SPLINE
  5
2FE
330
1F
100
AcDbEntity
  8
1
  6
Continuous
 62
    31
370
    18
100
AcDbSpline
210
0.0
220
0.0
230
1.0
 70
    24
 71
     1
 72
     4
 73
     2
 74
     0
 42
0.000000001
 43
0.0000000001
 40
0.0
 40
0.0
 40
1.0
 40
1.0
 10
126.2227244105725
 20
213.0812421387982
 30
0.0
 10
126.3408363925991
 20
213.0812421387982
 30
0.0
  0
SPLINE
  5
2FF
330
1F
100
AcDbEntity
  8
1
  6
Continuous
 62
    31
370
    18
100
AcDbSpline
210
0.0
220
0.0
230
1.0
 70
    24
 71
     1
 72
     4
 73
     2
 74
     0
 42
0.000000001
 43
0.0000000001
 40
0.0
 40
0.0
 40
1.0
 40
1.0
 10
126.3408363925991
 20
213.034002554321
 30
0.0
 10
126.2227244105725
 20
213.034002554321
 30
0.0
  0
SPLINE
  5
300
330
1F
100
AcDbEntity
  8
1
  6
Continuous
 62
    31
370
    18
100
AcDbSpline
210
0.0
220
0.0
230
1.0
 70
    24
 71
     1
 72
     4
 73
     2
 74
     0
 42
0.000000001
 43
0.0000000001
 40
0.0
 40
0.0
 40
1.0
 40
1.0
 10
126.1881280555681
 20
213.0812421387982
 30
0.0
 10
126.2227244105725
 20
213.0812421387982
 30
0.0
  0
SPLINE
  5
301
330
1F
100
AcDbEntity
  8
1
  6
Continuous
 62
    31
370
    18
100
AcDbSpline
210
0.0
220
0.0
230
1.0
 70
    24
 71
     1
 72
     4
 73
     2
 74
     0
 42
0.000000001
 43
0.0000000001
 40
0.0
 40
0.0
 40
1.0
 40
1.0
 10
126.2227244105725
 20
213.034002554321
 30
0.0
 10
126.1881280555681
 20
213.034002554321
 30
0.0
  0
SPLINE
  5
302
330
1F
100
AcDbEntity
  8
1
  6
Continuous
 62
    31
370
    18
100
AcDbSpline
210
0.0
220
0.0
230
1.0
 70
    24
 71
     1
 72
     4
 73
     2
 74
     0
 42
0.000000001
 43
0.0000000001
 40
0.0
 40
0.0
 40
1.0
 40
1.0
 10
125.4038181407431
 20
213.0812421387982
 30
0.0
 10
125.4384144957475
 20
213.0812421387982
 30
0.0
  0
SPLINE
  5
303
330
1F
100
AcDbEntity
  8
1
  6
Continuous
 62
    31
370
    18
100
AcDbSpline
210
0.0
220
0.0
230
1.0
 70
    24
 71
     1
 72
     4
 73
     2
 74
     0
 42
0.000000001
 43
0.0000000001
 40
0.0
 40
0.0
 40
1.0
 40
1.0
 10
125.4384144957475
 20
213.034002554321
 30
0.0
 10
125.4038181407431
 20
213.034002554321
 30
0.0
  0
SPLINE
  5
304
330
1F
100
AcDbEntity
  8
1
  6
Continuous
 62
    21
370
    18
100
AcDbSpline
210
0.0
220
0.0
230
1.0
 70
    24
 71
     1
 72
     4
 73
     2
 74
     0
 42
0.000000001
 43
0.0000000001
 40
0.0
 40
0.0
 40
1.0
 40
1.0
 10
154.1046131065486
 20
211.6250572077042
 30
0.0
 10
154.1046131065486
 20
211.5069452256776
 30
0.0
  0
SPLINE
  5
305
330
1F
100
AcDbEntity
  8
1
  6
Continuous
 62
    21
370
    18
100
AcDbSpline
210
0.0
220
0.0
230
1.0
 70
    24
 71
     1
 72
     4
 73
     2
 74
     0
 42
0.000000001
 43
0.0000000001
 40
0.0
 40
0.0
 40
1.0
 40
1.0
 10
154.0573735220714
 20
211.5069452256776
 30
0.0
 10
154.0573735220714
 20
211.6250572077042
 30
0.0
  0
SPLINE
  5
306
330
1F
100
AcDbEntity
  8
1
  6
Continuous
 62
    21
370
    18
100
AcDbSpline
210
0.0
220
0.0
230
1.0
 70
    24
 71
     1
 72
     4
 73
     2
 74
     0
 42
0.000000001
 43
0.0000000001
 40
0.0
 40
0.0
 40
1.0
 40
1.0
 10
154.9471261477829
 20
213.1014374517872
 30
0.0
 10
154.8290271865899
 20
213.1014374517872
 30
0.0
  0
SPLINE
  5
307
330
1F
100
AcDbEntity
  8
1
  6
Continuous
 62
    21
370
    18
100
AcDbSpline
210
0.0
220
0.0
230
1.0
 70
    24
 71
     1
 72
     4
 73
     2
 74
     0
 42
0.000000001
 43
0.0000000001
 40
0.0
 40
0.0
 40
1.0
 40
1.0
 10
154.8290271865899
 20
213.1486770362644
 30
0.0
 10
154.9471261477829
 20
213.1486770362644
 30
0.0
  0
SPLINE
  5
308
330
1F
100
AcDbEntity
  8
1
  6
Continuous
 62
    21
370
    18
100
AcDbSpline
210
0.0
220
0.0
230
1.0
 70
    24
 71
     1
 72
     4
 73
     2
 74
     0
 42
0.000000001
 43
0.0000000001
 40
0.0
 40
0.0
 40
1.0
 40
1.0
 10
155.0652381298096
 20
213.1014374517872
 30
0.0
 10
154.9471261477829
 20
213.1014374517872
 30
0.0
  0
SPLINE
  5
309
330
1F
100
AcDbEntity
  8
1
  6
Continuous
 62
    21
370
    18
100
AcDbSpline
210
0.0
220
0.0
230
1.0
 70
    24
 71
     1
 72
     4
 73
     2
 74
     0
 42
0.000000001
 43
0.0000000001
 40
0.0
 40
0.0
 40
1.0
 40
1.0
 10
154.9471261477829
 20
213.1486770362644
 30
0.0
 10
155.0652381298096
 20
213.1486770362644
 30
0.0
  0
SPLINE
  5
30A
330
1F
100
AcDbEntity
  8
1
  6
Continuous
 62
    21
370
    18
100
AcDbSpline
210
0.0
220
0.0
230
1.0
 70
    24
 71
     1
 72
     4
 73
     2
 74
     0
 42
0.000000001
 43
0.0000000001
 40
0.0
 40
0.0
 40
1.0
 40
1.0
 10
155.427451680247
 20
213.9085208046636
 30
0.0
 10
155.427451680247
 20
214.0266327866902
 30
0.0
  0
SPLINE
  5
30B
330
1F
100
AcDbEntity
  8
1
  6
Continuous
 62
    21
370
    18
100
AcDbSpline
210
0.0
220
0.0
230
1.0
 70
    24
 71
     1
 72
     4
 73
     2
 74
     0
 42
0.000000001
 43
0.0000000001
 40
0.0
 40
0.0
 40
1.0
 40
1.0
 10
155.4746912647242
 20
214.0266327866902
 30
0.0
 10
155.4746912647242
 20
213.9085208046636
 30
0.0
  0
SPLINE
  5
30C
330
1F
100
AcDbEntity
  8
1
  6
Continuous
 62
    21
370
    18
100
AcDbSpline
210
0.0
220
0.0
230
1.0
 70
    24
 71
     1
 72
     4
 73
     2
 74
     0
 42
0.000000001
 43
0.0000000001
 40
0.0
 40
0.0
 40
1.0
 40
1.0
 10
155.0337407332135
 20
213.9085208046636
 30
0.0
 10
155.0337407332135
 20
214.0266327866902
 30
0.0
  0
SPLINE
  5
30D
330
1F
100
AcDbEntity
  8
1
  6
Continuous
 62
    21
370
    18
100
AcDbSpline
210
0.0
220
0.0
230
1.0
 70
    24
 71
     1
 72
     4
 73
     2
 74
     0
 42
0.000000001
 43
0.0000000001
 40
0.0
 40
0.0
 40
1.0
 40
1.0
 10
155.0809933385244
 20
214.0266327866902
 30
0.0
 10
155.0809933385244
 20
213.9085208046636
 30
0.0
  0
SPLINE
  5
30E
330
1F
100
AcDbEntity
  8
1
  6
Continuous
 62
   211
370
    18
100
AcDbSpline
210
0.0
220
0.0
230
1.0
 70
    24
 71
     1
 72
     4
 73
     2
 74
     0
 42
0.000000001
 43
0.0000000001
 40
0.0
 40
0.0
 40
1.0
 40
1.0
 10
133.8211490737303
 20
211.6250572077042
 30
0.0
 10
133.8211490737303
 20
211.5069452256776
 30
0.0
  0
SPLINE
  5
30F
330
1F
100
AcDbEntity
  8
1
  6
Continuous
 62
   211
370
    18
100
AcDbSpline
210
0.0
220
0.0
230
1.0
 70
    24
 71
     1
 72
     4
 73
     2
 74
     0
 42
0.000000001
 43
0.0000000001
 40
0.0
 40
0.0
 40
1.0
 40
1.0
 10
133.7739094892531
 20
211.5069452256776
 30
0.0
 10
133.7739094892531
 20
211.6250572077042
 30
0.0
  0
SPLINE
  5
310
330
1F
100
AcDbEntity
  8
1
  6
Continuous
 62
   211
370
    18
100
AcDbSpline
210
0.0
220
0.0
230
1.0
 70
    24
 71
     1
 72
     4
 73
     2
 74
     0
 42
0.000000001
 43
0.0000000001
 40
0.0
 40
0.0
 40
1.0
 40
1.0
 10
133.0494954092119
 20
213.1014374517872
 30
0.0
 10
132.9313834271852
 20
213.1014374517872
 30
0.0
  0
SPLINE
  5
311
330
1F
100
AcDbEntity
  8
1
  6
Continuous
 62
   211
370
    18
100
AcDbSpline
210
0.0
220
0.0
230
1.0
 70
    24
 71
     1
 72
     4
 73
     2
 74
     0
 42
0.000000001
 43
0.0000000001
 40
0.0
 40
0.0
 40
1.0
 40
1.0
 10
132.9313834271852
 20
213.1486770362644
 30
0.0
 10
133.0494954092119
 20
213.1486770362644
 30
0.0
  0
SPLINE
  5
312
330
1F
100
AcDbEntity
  8
1
  6
Continuous
 62
   211
370
    18
100
AcDbSpline
210
0.0
220
0.0
230
1.0
 70
    24
 71
     1
 72
     4
 73
     2
 74
     0
 42
0.000000001
 43
0.0000000001
 40
0.0
 40
0.0
 40
1.0
 40
1.0
 10
132.9313834271852
 20
213.1014374517872
 30
0.0
 10
132.8132714451585
 20
213.1014374517872
 30
0.0
  0
SPLINE
  5
313
330
1F
100
AcDbEntity
  8
1
  6
Continuous
 62
   211
370
    18
100
AcDbSpline
210
0.0
220
0.0
230
1.0
 70
    24
 71
     1
 72
     4
 73
     2
 74
     0
 42
0.000000001
 43
0.0000000001
 40
0.0
 40
0.0
 40
1.0
 40
1.0
 10
132.8132714451585
 20
213.1486770362644
 30
0.0
 10
132.9313834271852
 20
213.1486770362644
 30
0.0
  0
SPLINE
  5
314
330
1F
100
AcDbEntity
  8
1
  6
Continuous
 62
   211
370
    18
100
AcDbSpline
210
0.0
220
0.0
230
1.0
 70
    24
 71
     1
 72
     4
 73
     2
 74
     0
 42
0.000000001
 43
0.0000000001
 40
0.0
 40
0.0
 40
1.0
 40
1.0
 10
132.4038183102439
 20
213.9085208046636
 30
0.0
 10
132.4038183102439
 20
214.0266327866902
 30
0.0
  0
SPLINE
  5
315
330
1F
100
AcDbEntity
  8
1
  6
Continuous
 62
   211
370
    18
100
AcDbSpline
210
0.0
220
0.0
230
1.0
 70
    24
 71
     1
 72
     4
 73
     2
 74
     0
 42
0.000000001
 43
0.0000000001
 40
0.0
 40
0.0
 40
1.0
 40
1.0
 10
132.4510709155547
 20
214.0266327866902
 30
0.0
 10
132.4510709155547
 20
213.9085208046636
 30
0.0
  0
SPLINE
  5
316
330
1F
100
AcDbEntity
  8
1
  6
Continuous
 62
   211
370
    18
100
AcDbSpline
210
0.0
220
0.0
230
1.0
 70
    24
 71
     1
 72
     4
 73
     2
 74
     0
 42
0.000000001
 43
0.0000000001
 40
0.0
 40
0.0
 40
1.0
 40
1.0
 10
132.7975292572773
 20
213.9085208046636
 30
0.0
 10
132.7975292572773
 20
214.0266327866902
 30
0.0
  0
SPLINE
  5
317
330
1F
100
AcDbEntity
  8
1
  6
Continuous
 62
   211
370
    18
100
AcDbSpline
210
0.0
220
0.0
230
1.0
 70
    24
 71
     1
 72
     4
 73
     2
 74
     0
 42
0.000000001
 43
0.0000000001
 40
0.0
 40
0.0
 40
1.0
 40
1.0
 10
132.8447688417545
 20
214.0266327866902
 30
0.0
 10
132.8447688417545
 20
213.9085208046636
 30
0.0
  0
SPLINE
  5
318
330
1F
100
AcDbEntity
  8
1
  6
Continuous
 62
    31
370
    18
100
AcDbSpline
210
0.0
220
0.0
230
1.0
 70
    24
 71
     1
 72
     4
 73
     2
 74
     0
 42
0.000000001
 43
0.0000000001
 40
0.0
 40
0.0
 40
1.0
 40
1.0
 10
126.2227244105725
 20
213.1014374517872
 30
0.0
 10
126.3408363925991
 20
213.1014374517872
 30
0.0
  0
SPLINE
  5
319
330
1F
100
AcDbEntity
  8
1
  6
Continuous
 62
    31
370
    18
100
AcDbSpline
210
0.0
220
0.0
230
1.0
 70
    24
 71
     1
 72
     4
 73
     2
 74
     0
 42
0.000000001
 43
0.0000000001
 40
0.0
 40
0.0
 40
1.0
 40
1.0
 10
126.1881280555681
 20
213.1014374517872
 30
0.0
 10
126.2227244105725
 20
213.1014374517872
 30
0.0
  0
SPLINE
  5
31A
330
1F
100
AcDbEntity
  8
1
  6
Continuous
 62
    31
370
    18
100
AcDbSpline
210
0.0
220
0.0
230
1.0
 70
    24
 71
     1
 72
     4
 73
     2
 74
     0
 42
0.000000001
 43
0.0000000001
 40
0.0
 40
0.0
 40
1.0
 40
1.0
 10
125.4038181407431
 20
213.1014374517872
 30
0.0
 10
125.4384144957475
 20
213.1014374517872
 30
0.0
  0
SPLINE
  5
31B
330
1F
100
AcDbEntity
  8
1
  6
Continuous
 62
    30
370
    18
100
AcDbSpline
210
0.0
220
0.0
230
1.0
 70
    24
 71
     1
 72
     4
 73
     2
 74
     0
 42
0.000000001
 43
0.0000000001
 40
0.0
 40
0.0
 40
1.0
 40
1.0
 10
133.584925109677
 20
213.0541848464763
 30
0.0
 10
133.4668131276503
 20
213.0541848464763
 30
0.0
  0
SPLINE
  5
31C
330
1F
100
AcDbEntity
  8
1
  6
Continuous
 62
    30
370
    18
100
AcDbSpline
210
0.0
220
0.0
230
1.0
 70
    24
 71
     1
 72
     4
 73
     2
 74
     0
 42
0.000000001
 43
0.0000000001
 40
0.0
 40
0.0
 40
1.0
 40
1.0
 10
132.5219302922705
 20
213.0541848464763
 30
0.0
 10
132.4038183102439
 20
213.0541848464763
 30
0.0
  0
SPLINE
  5
31D
330
1F
100
AcDbEntity
  8
1
  6
Continuous
 62
    30
370
    18
100
AcDbSpline
210
0.0
220
0.0
230
1.0
 70
    24
 71
     1
 72
     4
 73
     2
 74
     0
 42
0.000000001
 43
0.0000000001
 40
0.0
 40
0.0
 40
1.0
 40
1.0
 10
132.4038183102439
 20
213.1014374517872
 30
0.0
 10
132.4904328956745
 20
213.1014374517872
 30
0.0
  0
SPLINE
  5
31E
330
1F
100
AcDbEntity
  8
1
  6
Continuous
 62
    30
370
    18
100
AcDbSpline
210
0.0
220
0.0
230
1.0
 70
    24
 71
     1
 72
     4
 73
     2
 74
     0
 42
0.000000001
 43
0.0000000001
 40
0.0
 40
0.0
 40
1.0
 40
1.0
 10
154.4116964473178
 20
213.0541848464763
 30
0.0
 10
154.2935844652911
 20
213.0541848464763
 30
0.0
  0
SPLINE
  5
31F
330
1F
100
AcDbEntity
  8
1
  6
Continuous
 62
    30
370
    18
100
AcDbSpline
210
0.0
220
0.0
230
1.0
 70
    24
 71
     1
 72
     4
 73
     2
 74
     0
 42
0.000000001
 43
0.0000000001
 40
0.0
 40
0.0
 40
1.0
 40
1.0
 10
155.3880766792936
 20
213.1014374517872
 30
0.0
 10
155.4746912647242
 20
213.1014374517872
 30
0.0
  0
SPLINE
  5
320
330
1F
100
AcDbEntity
  8
1
  6
Continuous
 62
    30
370
    18
100
AcDbSpline
210
0.0
220
0.0
230
1.0
 70
    24
 71
     1
 72
     4
 73
     2
 74
     0
 42
0.000000001
 43
0.0000000001
 40
0.0
 40
0.0
 40
1.0
 40
1.0
 10
155.4746912647242
 20
213.0541848464763
 30
0.0
 10
155.3565792826975
 20
213.0541848464763
 30
0.0
  0
SPLINE
  5
321
330
1F
100
AcDbEntity
  8
1
  6
Continuous
 62
    31
370
    18
100
AcDbSpline
210
0.0
220
0.0
230
1.0
 70
    24
 71
     1
 72
     4
 73
     2
 74
     0
 42
0.000000001
 43
0.0000000001
 40
0.0
 40
0.0
 40
1.0
 40
1.0
 10
161.6557981852293
 20
213.034002554321
 30
0.0
 10
161.5376862032026
 20
213.034002554321
 30
0.0
  0
SPLINE
  5
322
330
1F
100
AcDbEntity
  8
1
  6
Continuous
 62
    31
370
    18
100
AcDbSpline
210
0.0
220
0.0
230
1.0
 70
    24
 71
     1
 72
     4
 73
     2
 74
     0
 42
0.000000001
 43
0.0000000001
 40
0.0
 40
0.0
 40
1.0
 40
1.0
 10
161.5376862032026
 20
213.0812421387982
 30
0.0
 10
161.6557981852293
 20
213.0812421387982
 30
0.0
  0
SPLINE
  5
323
330
1F
100
AcDbEntity
  8
1
  6
Continuous
 62
    31
370
    18
100
AcDbSpline
210
0.0
220
0.0
230
1.0
 70
    24
 71
     1
 72
     4
 73
     2
 74
     0
 42
0.000000001
 43
0.0000000001
 40
0.0
 40
0.0
 40
1.0
 40
1.0
 10
161.1046132760493
 20
212.010382737868
 30
0.0
 10
161.1046132760493
 20
212.1284947198947
 30
0.0
  0
SPLINE
  5
324
330
1F
100
AcDbEntity
  8
1
  6
Continuous
 62
    31
370
    18
100
AcDbSpline
210
0.0
220
0.0
230
1.0
 70
    24
 71
     1
 72
     4
 73
     2
 74
     0
 42
0.000000001
 43
0.0000000001
 40
0.0
 40
0.0
 40
1.0
 40
1.0
 10
161.1518528605265
 20
212.1284947198947
 30
0.0
 10
161.1518528605265
 20
212.010382737868
 30
0.0
  0
SPLINE
  5
325
330
1F
100
AcDbEntity
  8
1
  6
Continuous
 62
    31
370
    18
100
AcDbSpline
210
0.0
220
0.0
230
1.0
 70
    24
 71
     1
 72
     4
 73
     2
 74
     0
 42
0.000000001
 43
0.0000000001
 40
0.0
 40
0.0
 40
1.0
 40
1.0
 10
161.6903815194
 20
213.034002554321
 30
0.0
 10
161.6557981852293
 20
213.034002554321
 30
0.0
  0
SPLINE
  5
326
330
1F
100
AcDbEntity
  8
1
  6
Continuous
 62
    31
370
    18
100
AcDbSpline
210
0.0
220
0.0
230
1.0
 70
    24
 71
     1
 72
     4
 73
     2
 74
     0
 42
0.000000001
 43
0.0000000001
 40
0.0
 40
0.0
 40
1.0
 40
1.0
 10
161.6557981852293
 20
213.0812421387982
 30
0.0
 10
161.6903815194
 20
213.0812421387982
 30
0.0
  0
SPLINE
  5
327
330
1F
100
AcDbEntity
  8
1
  6
Continuous
 62
    31
370
    18
100
AcDbSpline
210
0.0
220
0.0
230
1.0
 70
    24
 71
     1
 72
     4
 73
     2
 74
     0
 42
0.000000001
 43
0.0000000001
 40
0.0
 40
0.0
 40
1.0
 40
1.0
 10
162.4746914342249
 20
213.034002554321
 30
0.0
 10
162.4400950792205
 20
213.034002554321
 30
0.0
  0
SPLINE
  5
328
330
1F
100
AcDbEntity
  8
1
  6
Continuous
 62
    31
370
    18
100
AcDbSpline
210
0.0
220
0.0
230
1.0
 70
    24
 71
     1
 72
     4
 73
     2
 74
     0
 42
0.000000001
 43
0.0000000001
 40
0.0
 40
0.0
 40
1.0
 40
1.0
 10
162.4400950792205
 20
213.0812421387982
 30
0.0
 10
162.4746914342249
 20
213.0812421387982
 30
0.0
  0
ENDSEC
  0
SECTION
  2
OBJECTS
  0
DICTIONARY
  5
C
330
0
100
AcDbDictionary
281
     1
  3
ACAD_CIP_PREVIOUS_PRODUCT_INFO
350
39E
  3
ACAD_COLOR
350
398
  3
ACAD_DETAILVIEWSTYLE
350
395
  3
ACAD_GROUP
350
D
  3
ACAD_LAYOUT
350
1A
  3
ACAD_MATERIAL
350
43
  3
ACAD_MLEADERSTYLE
350
6B
  3
ACAD_MLINESTYLE
350
17
  3
ACAD_PLOTSETTINGS
350
19
  3
ACAD_PLOTSTYLENAME
350
E
  3
ACAD_SCALELIST
350
47
  3
ACAD_SECTIONVIEWSTYLE
350
396
  3
ACAD_TABLESTYLE
350
69
  3
ACAD_VISUALSTYLE
350
2A
  3
ACDB_RECOMPOSE_DATA
350
424
  3
AcDbVariableDictionary
350
352
  3
DWGPROPS
350
425
  0
DICTIONARY
  5
350
330
8
100
AcDbDictionary
280
     1
281
     1
  0
DICTIONARY
  5
3BA
330
10
100
AcDbDictionary
280
     1
281
     1
  3
ADSK_XREC_LAYER_RECONCILED
360
3BB
  0
DICTIONARY
  5
3BC
330
74
100
AcDbDictionary
280
     1
281
     1
  3
ADSK_XREC_LAYER_RECONCILED
360
3BD
  0
XRECORD
  5
39E
102
{ACAD_REACTORS
330
C
102
}
330
C
100
AcDbXrecord
280
     1
300
ACD
300
2016
300
86445ACD_2016_0F
  0
DICTIONARY
  5
398
102
{ACAD_REACTORS
330
C
102
}
330
C
100
AcDbDictionary
281
     1
  0
DICTIONARY
  5
395
102
{ACAD_REACTORS
330
C
102
}
330
C
100
AcDbDictionary
281
     1
  3
Imperial24
350
39A
  0
DICTIONARY
  5
D
102
{ACAD_REACTORS
330
C
102
}
330
C
100
AcDbDictionary
281
     1
  0
DICTIONARY
  5
1A
102
{ACAD_REACTORS
330
C
102
}
330
C
100
AcDbDictionary
281
     1
  3
Layout1
350
1E
  3
Layout2
350
26
  3
Model
350
22
  0
DICTIONARY
  5
43
102
{ACAD_REACTORS
330
C
102
}
330
C
100
AcDbDictionary
281
     1
  3
ByBlock
350
45
  3
ByLayer
350
44
  3
Global
350
46
  0
DICTIONARY
  5
6B
102
{ACAD_REACTORS
330
C
102
}
330
C
100
AcDbDictionary
281
     1
  3
Standard
350
6C
  0
DICTIONARY
  5
17
102
{ACAD_REACTORS
330
C
102
}
330
C
100
AcDbDictionary
281
     1
  3
Standard
350
18
  0
DICTIONARY
  5
19
102
{ACAD_REACTORS
330
C
102
}
330
C
100
AcDbDictionary
281
     1
  0
ACDBDICTIONARYWDFLT
  5
E
102
{ACAD_REACTORS
330
C
102
}
330
C
100
AcDbDictionary
281
     1
  3
Normal
350
F
100
AcDbDictionaryWithDefault
340
F
  0
DICTIONARY
  5
47
102
{ACAD_REACTORS
330
C
102
}
330
C
100
AcDbDictionary
281
     1
  3
A0
350
48
  3
A1
350
49
  3
A2
350
4A
  3
A3
350
4B
  3
A4
350
4C
  3
A5
350
4D
  3
A6
350
4E
  3
A7
350
4F
  3
A8
350
50
  3
A9
350
51
  3
B0
350
52
  3
B1
350
53
  3
B2
350
54
  3
B3
350
55
  3
B4
350
56
  3
B5
350
57
  3
B6
350
58
  3
B7
350
59
  3
B8
350
5A
  3
B9
350
5B
  3
C0
350
5C
  3
C1
350
5D
  3
C2
350
5E
  3
C3
350
5F
  3
C4
350
60
  3
C5
350
61
  3
C6
350
62
  3
C7
350
63
  3
C8
350
64
  3
C9
350
65
  3
D0
350
66
  3
D1
350
67
  3
D2
350
68
  0
DICTIONARY
  5
396
102
{ACAD_REACTORS
330
C
102
}
330
C
100
AcDbDictionary
281
     1
  3
Imperial24
350
399
  0
DICTIONARY
  5
69
102
{ACAD_REACTORS
330
C
102
}
330
C
100
AcDbDictionary
281
     1
  3
Standard
350
6A
  0
DICTIONARY
  5
2A
102
{ACAD_REACTORS
330
C
102
}
330
C
100
AcDbDictionary
281
     1
  3
2dWireframe
350
2F
  3
Basic
350
32
  3
Brighten
350
36
  3
ColorChange
350
3A
  3
Conceptual
350
34
  3
Dim
350
35
  3
EdgeColorOff
350
3D
  3
Facepattern
350
39
  3
Flat
350
2B
  3
FlatWithEdges
350
2C
  3
Gouraud
350
2D
  3
GouraudWithEdges
350
2E
  3
Hidden
350
31
  3
JitterOff
350
3B
  3
Linepattern
350
38
  3
OverhangOff
350
3C
  3
Realistic
350
33
  3
Shaded
350
42
  3
Shaded with edges
350
41
  3
Shades of Gray
350
3E
  3
Sketchy
350
3F
  3
Thicken
350
37
  3
Wireframe
350
30
  3
X-Ray
350
40
  0
XRECORD
  5
424
102
{ACAD_REACTORS
330
C
102
}
330
C
100
AcDbXrecord
280
     1
 90
        1
330
6A
  0
DICTIONARY
  5
352
102
{ACAD_REACTORS
330
C
102
}
330
C
100
AcDbDictionary
281
     1
  3
CANNOSCALE
350
353
  3
CMLEADERSTYLE
350
394
  3
CTABLESTYLE
350
393
  3
CVIEWDETAILSTYLE
350
41C
  3
CVIEWSECTIONSTYLE
350
41D
  3
DIMASSOC
350
421
  3
HIDETEXT
350
420
  3
INDEXCTL
350
41F
  3
MSLTSCALE
350
354
  3
SORTENTS
350
41E
  3
XCLIPFRAME
350
422
  0
XRECORD
  5
425
102
{ACAD_REACTORS
330
C
102
}
330
C
100
AcDbXrecord
280
     1
  1
DWGPROPS COOKIE
  2

  3

  4

  6

  7

  8
lee
  9

300
=
301
=
302
=
303
=
304
=
305
=
306
=
307
=
308
=
309
=
 40
0.0026237152777778
 41
2458339.582032454
 42
2458339.587277257
  1

 90
        0
  0
XRECORD
  5
3BB
102
{ACAD_REACTORS
330
3BA
102
}
330
3BA
100
AcDbXrecord
280
     1
290
     1
  0
XRECORD
  5
3BD
102
{ACAD_REACTORS
330
3BC
102
}
330
3BC
100
AcDbXrecord
280
     1
290
     1
  0
ACDBDETAILVIEWSTYLE
  5
39A
102
{ACAD_XDICTIONARY
360
465
102
}
102
{ACAD_REACTORS
330
395
102
}
330
395
100
AcDbModelDocViewStyle
 70
     0
  3
Imperial24
290
     0
100
AcDbDetailViewStyle
 70
     0
 71
     0
 90
        3
 71
     1
340
11
 40
0.24
340
0
 40
0.24
300

 40
0.36
280
     3
 71
     2
340
16
 90
       25
 71
     3
340
11
 40
0.24
 90
        1
 40
0.75
 90
        1
300
%<\AcVar ViewType \f "%tc1">% %<\AcVar ViewDetailId>%\PSCALE %<\AcVar ViewScale \f "%sn">%
 71
     4
340
16
 90
       25
340
16
 90
       25
280
     0
  0
LAYOUT
  5
1E
102
{ACAD_XDICTIONARY
360
426
102
}
102
{ACAD_REACTORS
330
1A
102
}
330
1A
100
AcDbPlotSettings
  1

  2
none_device
  4

  6

 40
0.0
 41
0.0
 42
0.0
 43
0.0
 44
0.0
 45
0.0
 46
0.0
 47
0.0
 48
0.0
 49
0.0
140
0.0
141
0.0
142
1.0
143
1.0
 70
   688
 72
     0
 73
     0
 74
     5
  7

 75
    16
147
1.0
148
0.0
149
0.0
100
AcDbLayout
  1
Layout1
 70
     1
 71
     1
 10
-0.5
 20
-0.5
 11
5.0
 21
5.0
 12
0.0
 22
0.0
 32
0.0
 14
-0.5
 24
-0.5
 34
-0.5
 15
5.0
 25
5.0
 35
5.0
146
0.0
 13
0.0
 23
0.0
 33
0.0
 16
1.0
 26
0.0
 36
0.0
 17
0.0
 27
1.0
 37
0.0
 76
     0
330
1B
  0
LAYOUT
  5
26
102
{ACAD_XDICTIONARY
360
42A
102
}
102
{ACAD_REACTORS
330
1A
102
}
330
1A
100
AcDbPlotSettings
  1

  2
none_device
  4

  6

 40
0.0
 41
0.0
 42
0.0
 43
0.0
 44
0.0
 45
0.0
 46
0.0
 47
0.0
 48
0.0
 49
0.0
140
0.0
141
0.0
142
1.0
143
1.0
 70
   688
 72
     0
 73
     0
 74
     5
  7

 75
    16
147
1.0
148
0.0
149
0.0
100
AcDbLayout
  1
Layout2
 70
     1
 71
     2
 10
0.0
 20
0.0
 11
0.0
 21
0.0
 12
0.0
 22
0.0
 32
0.0
 14
0.0
 24
0.0
 34
0.0
 15
0.0
 25
0.0
 35
0.0
146
0.0
 13
0.0
 23
0.0
 33
0.0
 16
1.0
 26
0.0
 36
0.0
 17
0.0
 27
1.0
 37
0.0
 76
     0
330
23
  0
LAYOUT
  5
22
102
{ACAD_XDICTIONARY
360
428
102
}
102
{ACAD_REACTORS
330
1A
102
}
330
1A
100
AcDbPlotSettings
  1

  2
none_device
  4
Letter_(8.50_x_11.00_Inches)
  6

 40
6.349999999999999
 41
6.349999999999999
 42
6.350005079999999
 43
6.350005079999999
 44
215.9
 45
279.4
 46
0.0
 47
0.0
 48
0.0
 49
0.0
140
0.0
141
0.0
142
1.0
143
1.0
 70
  1712
 72
     0
 73
     0
 74
     0
  7

 75
     0
147
1.0
148
0.0
149
0.0
100
AcDbLayout
  1
Model
 70
     1
 71
     0
 10
-0.5
 20
-0.5
 11
5.0
 21
5.0
 12
0.0
 22
0.0
 32
0.0
 14
-0.5
 24
-0.5
 34
-0.5
 15
5.0
 25
5.0
 35
5.0
146
0.0
 13
0.0
 23
0.0
 33
0.0
 16
1.0
 26
0.0
 36
0.0
 17
0.0
 27
1.0
 37
0.0
 76
     0
330
1F
331
29
  0
MATERIAL
  5
45
102
{ACAD_XDICTIONARY
360
45E
102
}
102
{ACAD_REACTORS
330
43
102
}
330
43
100
AcDbMaterial
  1
ByBlock
 73
     1
 78
     1
172
     1
176
     1
270
     1
274
     1
  0
MATERIAL
  5
44
102
{ACAD_XDICTIONARY
360
45C
102
}
102
{ACAD_REACTORS
330
43
102
}
330
43
100
AcDbMaterial
  1
ByLayer
 73
     1
 78
     1
172
     1
176
     1
270
     1
274
     1
  0
MATERIAL
  5
46
102
{ACAD_XDICTIONARY
360
460
102
}
102
{ACAD_REACTORS
330
43
102
}
330
43
100
AcDbMaterial
  1
Global
 73
     1
 78
     1
172
     1
176
     1
270
     1
274
     1
  0
MLEADERSTYLE
  5
6C
102
{ACAD_REACTORS
330
6B
102
}
330
6B
100
AcDbMLeaderStyle
170
     2
171
     1
172
     0
 90
        2
 40
0.0
 41
0.0
173
     1
 91
-1056964608
340
14
 92
       -2
290
     1
 42
0.09
291
     1
 43
0.36
  3
Standard
 44
0.18
300

342
11
174
     1
178
     6
175
     1
176
     0
 93
-1056964608
 45
0.18
292
     0
297
     0
 46
0.18
 94
-1056964608
 47
1.0
 49
1.0
140
1.0
293
     1
141
0.0
294
     1
177
     0
142
1.0
295
     0
296
     0
143
0.125
1001
ACAD_MLEADERVER
1070
     2
  0
MLINESTYLE
  5
18
102
{ACAD_REACTORS
330
17
102
}
330
17
100
AcDbMlineStyle
  2
STANDARD
 70
     0
  3

 62
   256
 51
90.0
 52
90.0
 71
     2
 49
0.5
 62
   256
  6
BYLAYER
 49
-0.5
 62
   256
  6
BYLAYER
  0
ACDBPLACEHOLDER
  5
F
102
{ACAD_REACTORS
330
E
102
}
330
E
  0
SCALE
  5
48
102
{ACAD_REACTORS
330
47
102
}
330
47
100
AcDbScale
 70
     0
300
1:1
140
1.0
141
1.0
290
     1
  0
SCALE
  5
49
102
{ACAD_REACTORS
330
47
102
}
330
47
100
AcDbScale
 70
     0
300
1:2
140
1.0
141
2.0
290
     0
  0
SCALE
  5
4A
102
{ACAD_REACTORS
330
47
102
}
330
47
100
AcDbScale
 70
     0
300
1:4
140
1.0
141
4.0
290
     0
  0
SCALE
  5
4B
102
{ACAD_REACTORS
330
47
102
}
330
47
100
AcDbScale
 70
     0
300
1:5
140
1.0
141
5.0
290
     0
  0
SCALE
  5
4C
102
{ACAD_REACTORS
330
47
102
}
330
47
100
AcDbScale
 70
     0
300
1:8
140
1.0
141
8.0
290
     0
  0
SCALE
  5
4D
102
{ACAD_REACTORS
330
47
102
}
330
47
100
AcDbScale
 70
     0
300
1:10
140
1.0
141
10.0
290
     0
  0
SCALE
  5
4E
102
{ACAD_REACTORS
330
47
102
}
330
47
100
AcDbScale
 70
     0
300
1:16
140
1.0
141
16.0
290
     0
  0
SCALE
  5
4F
102
{ACAD_REACTORS
330
47
102
}
330
47
100
AcDbScale
 70
     0
300
1:20
140
1.0
141
20.0
290
     0
  0
SCALE
  5
50
102
{ACAD_REACTORS
330
47
102
}
330
47
100
AcDbScale
 70
     0
300
1:30
140
1.0
141
30.0
290
     0
  0
SCALE
  5
51
102
{ACAD_REACTORS
330
47
102
}
330
47
100
AcDbScale
 70
     0
300
1:40
140
1.0
141
40.0
290
     0
  0
SCALE
  5
52
102
{ACAD_REACTORS
330
47
102
}
330
47
100
AcDbScale
 70
     0
300
1:50
140
1.0
141
50.0
290
     0
  0
SCALE
  5
53
102
{ACAD_REACTORS
330
47
102
}
330
47
100
AcDbScale
 70
     0
300
1:100
140
1.0
141
100.0
290
     0
  0
SCALE
  5
54
102
{ACAD_REACTORS
330
47
102
}
330
47
100
AcDbScale
 70
     0
300
2:1
140
2.0
141
1.0
290
     0
  0
SCALE
  5
55
102
{ACAD_REACTORS
330
47
102
}
330
47
100
AcDbScale
 70
     0
300
4:1
140
4.0
141
1.0
290
     0
  0
SCALE
  5
56
102
{ACAD_REACTORS
330
47
102
}
330
47
100
AcDbScale
 70
     0
300
8:1
140
8.0
141
1.0
290
     0
  0
SCALE
  5
57
102
{ACAD_REACTORS
330
47
102
}
330
47
100
AcDbScale
 70
     0
300
10:1
140
10.0
141
1.0
290
     0
  0
SCALE
  5
58
102
{ACAD_REACTORS
330
47
102
}
330
47
100
AcDbScale
 70
     0
300
100:1
140
100.0
141
1.0
290
     0
  0
SCALE
  5
59
102
{ACAD_REACTORS
330
47
102
}
330
47
100
AcDbScale
 70
     0
300
1/128" = 1'-0"
140
0.0078125
141
12.0
290
     0
  0
SCALE
  5
5A
102
{ACAD_REACTORS
330
47
102
}
330
47
100
AcDbScale
 70
     0
300
1/64" = 1'-0"
140
0.015625
141
12.0
290
     0
  0
SCALE
  5
5B
102
{ACAD_REACTORS
330
47
102
}
330
47
100
AcDbScale
 70
     0
300
1/32" = 1'-0"
140
0.03125
141
12.0
290
     0
  0
SCALE
  5
5C
102
{ACAD_REACTORS
330
47
102
}
330
47
100
AcDbScale
 70
     0
300
1/16" = 1'-0"
140
0.0625
141
12.0
290
     0
  0
SCALE
  5
5D
102
{ACAD_REACTORS
330
47
102
}
330
47
100
AcDbScale
 70
     0
300
3/32" = 1'-0"
140
0.09375
141
12.0
290
     0
  0
SCALE
  5
5E
102
{ACAD_REACTORS
330
47
102
}
330
47
100
AcDbScale
 70
     0
300
1/8" = 1'-0"
140
0.125
141
12.0
290
     0
  0
SCALE
  5
5F
102
{ACAD_REACTORS
330
47
102
}
330
47
100
AcDbScale
 70
     0
300
3/16" = 1'-0"
140
0.1875
141
12.0
290
     0
  0
SCALE
  5
60
102
{ACAD_REACTORS
330
47
102
}
330
47
100
AcDbScale
 70
     0
300
1/4" = 1'-0"
140
0.25
141
12.0
290
     0
  0
SCALE
  5
61
102
{ACAD_REACTORS
330
47
102
}
330
47
100
AcDbScale
 70
     0
300
3/8" = 1'-0"
140
0.375
141
12.0
290
     0
  0
SCALE
  5
62
102
{ACAD_REACTORS
330
47
102
}
330
47
100
AcDbScale
 70
     0
300
1/2" = 1'-0"
140
0.5
141
12.0
290
     0
  0
SCALE
  5
63
102
{ACAD_REACTORS
330
47
102
}
330
47
100
AcDbScale
 70
     0
300
3/4" = 1'-0"
140
0.75
141
12.0
290
     0
  0
SCALE
  5
64
102
{ACAD_REACTORS
330
47
102
}
330
47
100
AcDbScale
 70
     0
300
1" = 1'-0"
140
1.0
141
12.0
290
     0
  0
SCALE
  5
65
102
{ACAD_REACTORS
330
47
102
}
330
47
100
AcDbScale
 70
     0
300
1-1/2" = 1'-0"
140
1.5
141
12.0
290
     0
  0
SCALE
  5
66
102
{ACAD_REACTORS
330
47
102
}
330
47
100
AcDbScale
 70
     0
300
3" = 1'-0"
140
3.0
141
12.0
290
     0
  0
SCALE
  5
67
102
{ACAD_REACTORS
330
47
102
}
330
47
100
AcDbScale
 70
     0
300
6" = 1'-0"
140
6.0
141
12.0
290
     0
  0
SCALE
  5
68
102
{ACAD_REACTORS
330
47
102
}
330
47
100
AcDbScale
 70
     0
300
1'-0" = 1'-0"
140
12.0
141
12.0
290
     0
  0
ACDBSECTIONVIEWSTYLE
  5
399
102
{ACAD_XDICTIONARY
360
463
102
}
102
{ACAD_REACTORS
330
396
102
}
330
396
100
AcDbModelDocViewStyle
 70
     0
  3
Imperial24
290
     0
100
AcDbSectionViewStyle
 70
     0
 71
     0
 90
       78
 71
     1
340
11
 40
0.24
340
0
340
0
 40
0.24
300
I, O, Q, S, X, Z
 40
0.48
 90
        3
 40
0.18
 90
        1
 71
     2
340
16
 90
       25
340
16
 90
       50
 40
0.24
 40
0.0
 40
0.24
 71
     3
340
11
 40
0.24
 90
        1
 40
0.75
 90
        1
300
%<\AcVar ViewType \f "%tc1">% %<\AcVar ViewSectionStartId>%-%<\AcVar ViewSectionEndId>%\PSCALE %<\AcVar ViewScale \f "%sn">%
 71
     4
300
ANSI31
 40
1.0
 90
        0
290
     0
290
     0
 90
        6
 40
0.0
 40
1.570796326794896
 40
0.2617993877991494
 40
1.308996938995747
 40
-0.2617993877991494
 40
1.832595714594046
  0
TABLESTYLE
  5
6A
102
{ACAD_XDICTIONARY
360
38C
102
}
102
{ACAD_REACTORS
330
69
102
}
330
69
100
AcDbTableStyle
  3
Standard
 70
     0
 71
     0
 40
0.06
 41
0.06
280
     0
281
     0
  7
Standard
140
0.18
170
     2
 62
     0
 63
     7
283
     0
274
    -2
284
     1
 64
     0
275
    -2
285
     1
 65
     0
276
    -2
286
     1
 66
     0
277
    -2
287
     1
 67
     0
278
    -2
288
     1
 68
     0
279
    -2
289
     1
 69
     0
  7
Standard
140
0.25
170
     5
 62
     0
 63
     7
283
     0
274
    -2
284
     1
 64
     0
275
    -2
285
     1
 65
     0
276
    -2
286
     1
 66
     0
277
    -2
287
     1
 67
     0
278
    -2
288
     1
 68
     0
279
    -2
289
     1
 69
     0
  7
Standard
140
0.18
170
     5
 62
     0
 63
     7
283
     0
274
    -2
284
     1
 64
     0
275
    -2
285
     1
 65
     0
276
    -2
286
     1
 66
     0
277
    -2
287
     1
 67
     0
278
    -2
288
     1
 68
     0
279
    -2
289
     1
 69
     0
  0
VISUALSTYLE
  5
2F
102
{ACAD_XDICTIONARY
360
434
102
}
102
{ACAD_REACTORS
330
2A
102
}
330
2A
100
AcDbVisualStyle
  2
2dWireframe
 70
     4
 71
     0
 72
     2
 73
     0
 90
        0
 40
-0.6
 41
-30.0
 62
     5
 63
     7
 74
     1
 91
        4
 64
     7
 65
   257
 75
     1
175
     1
 42
1.0
 92
        0
 66
   257
 43
1.0
 76
     1
 77
     6
 78
     2
 67
     7
 79
     5
170
     0
171
     0
290
     0
174
     0
 93
        1
 44
0.0
173
     0
291
     0
 45
0.0
1001
ACAD
1000
AcDbSavedByObjectVersion
1070
     0
  0
VISUALSTYLE
  5
32
102
{ACAD_XDICTIONARY
360
43A
102
}
102
{ACAD_REACTORS
330
2A
102
}
330
2A
100
AcDbVisualStyle
  2
Basic
 70
     7
 71
     1
 72
     0
 73
     1
 90
        0
 40
-0.6
 41
-30.0
 62
     5
 63
     7
 74
     0
 91
        4
 64
     7
 65
   257
 75
     1
175
     1
 42
1.0
 92
        8
 66
     7
 43
1.0
 76
     1
 77
     6
 78
     2
 67
     7
 79
     5
170
     0
171
     0
290
     0
174
     0
 93
        1
 44
0.0
173
     0
291
     1
 45
0.0
1001
ACAD
1000
AcDbSavedByObjectVersion
1070
     0
  0
VISUALSTYLE
  5
36
102
{ACAD_XDICTIONARY
360
442
102
}
102
{ACAD_REACTORS
330
2A
102
}
330
2A
100
AcDbVisualStyle
  2
Brighten
 70
    12
 71
     2
 72
     2
 73
     0
 90
        0
 40
-0.6
 41
-30.0
 62
     5
 63
     7
 74
     1
 91
        4
 64
     7
 65
   257
 75
     1
175
     1
 42
1.0
 92
        8
 66
     7
 43
1.0
 76
     1
 77
     6
 78
     2
 67
     7
 79
     5
170
     0
171
     0
290
     0
174
     0
 93
        1
 44
50.0
173
     0
291
     1
 45
0.0
1001
ACAD
1000
AcDbSavedByObjectVersion
1070
     0
  0
VISUALSTYLE
  5
3A
102
{ACAD_XDICTIONARY
360
44A
102
}
102
{ACAD_REACTORS
330
2A
102
}
330
2A
100
AcDbVisualStyle
  2
ColorChange
 70
    16
 71
     2
 72
     2
 73
     3
 90
        0
 40
-0.6
 41
-30.0
 62
     5
 63
     8
 74
     1
 91
        4
 64
     7
 65
   257
 75
     1
175
     1
 42
1.0
 92
        8
 66
     8
 43
1.0
 76
     1
 77
     6
 78
     2
 67
     7
 79
     5
170
     0
171
     0
290
     0
174
     0
 93
        1
 44
0.0
173
     0
291
     1
 45
0.0
1001
ACAD
1000
AcDbSavedByObjectVersion
1070
     0
  0
VISUALSTYLE
  5
34
102
{ACAD_XDICTIONARY
360
43E
102
}
102
{ACAD_REACTORS
330
2A
102
}
330
2A
100
AcDbVisualStyle
  2
Conceptual
 70
     9
 71
     3
 72
     2
 73
     0
 90
        0
 40
-0.6
 41
-30.0
 62
     5
 63
     7
 74
     2
 91
        2
 64
     7
 65
   257
 75
     1
175
     1
 42
179.0
 92
        8
 66
     7
 43
1.0
 76
     1
 77
     6
 78
     2
 67
     7
 79
     3
170
     0
171
     0
290
     0
174
     0
 93
        1
 44
0.0
173
     0
291
     0
 45
0.0
1001
ACAD
1000
AcDbSavedByObjectVersion
1070
     0
  0
VISUALSTYLE
  5
35
102
{ACAD_XDICTIONARY
360
440
102
}
102
{ACAD_REACTORS
330
2A
102
}
330
2A
100
AcDbVisualStyle
  2
Dim
 70
    11
 71
     2
 72
     2
 73
     0
 90
        0
 40
-0.6
 41
-30.0
 62
     5
 63
     7
 74
     1
 91
        4
 64
     7
 65
   257
 75
     1
175
     1
 42
1.0
 92
        8
 66
     7
 43
1.0
 76
     1
 77
     6
 78
     2
 67
     7
 79
     5
170
     0
171
     0
290
     0
174
     0
 93
        1
 44
-50.0
173
     0
291
     1
 45
0.0
1001
ACAD
1000
AcDbSavedByObjectVersion
1070
     0
  0
VISUALSTYLE
  5
3D
102
{ACAD_XDICTIONARY
360
450
102
}
102
{ACAD_REACTORS
330
2A
102
}
330
2A
100
AcDbVisualStyle
  2
EdgeColorOff
 70
    22
 71
     2
 72
     2
 73
     0
 90
        0
 40
-0.6
 41
-30.0
 62
     5
 63
     7
 74
     1
 91
        4
 64
     7
 65
   257
 75
     1
175
     1
 42
1.0
 92
        8
 66
     7
 43
1.0
 76
     1
 77
     6
 78
     2
 67
     7
 79
     5
170
     0
171
     0
290
     0
174
     0
 93
        1
 44
0.0
173
     0
291
     1
 45
0.0
1001
ACAD
1000
AcDbSavedByObjectVersion
1070
     0
  0
VISUALSTYLE
  5
39
102
{ACAD_XDICTIONARY
360
448
102
}
102
{ACAD_REACTORS
330
2A
102
}
330
2A
100
AcDbVisualStyle
  2
Facepattern
 70
    15
 71
     2
 72
     2
 73
     0
 90
        0
 40
-0.6
 41
-30.0
 62
     5
 63
     7
 74
     1
 91
        4
 64
     7
 65
   257
 75
     1
175
     1
 42
1.0
 92
        8
 66
     7
 43
1.0
 76
     1
 77
     6
 78
     2
 67
     7
 79
     5
170
     0
171
     0
290
     0
174
     0
 93
        1
 44
0.0
173
     0
291
     1
 45
0.0
1001
ACAD
1000
AcDbSavedByObjectVersion
1070
     0
  0
VISUALSTYLE
  5
2B
102
{ACAD_XDICTIONARY
360
42C
102
}
102
{ACAD_REACTORS
330
2A
102
}
330
2A
100
AcDbVisualStyle
  2
Flat
 70
     0
 71
     2
 72
     1
 73
     1
 90
        2
 40
-0.6
 41
30.0
 62
     5
 63
     7
 74
     0
 91
        0
 64
     7
 65
   257
 75
     1
175
     1
 42
1.0
 92
        8
 66
     7
 43
1.0
 76
     1
 77
     6
 78
     2
 67
     7
 79
     5
170
     0
171
     0
290
     0
174
     0
 93
       13
 44
0.0
173
     0
291
     1
 45
0.0
1001
ACAD
1000
AcDbSavedByObjectVersion
1070
     0
  0
VISUALSTYLE
  5
2C
102
{ACAD_XDICTIONARY
360
42E
102
}
102
{ACAD_REACTORS
330
2A
102
}
330
2A
100
AcDbVisualStyle
  2
FlatWithEdges
 70
     1
 71
     2
 72
     1
 73
     1
 90
        2
 40
-0.6
 41
30.0
 62
     5
 63
     7
 74
     1
 91
        0
 64
     7
 65
   257
 75
     1
175
     1
 42
1.0
 92
        0
 66
   257
 43
1.0
 76
     1
 77
     6
 78
     2
 67
     7
 79
     5
170
     0
171
     0
290
     0
174
     0
 93
       13
 44
0.0
173
     0
291
     1
 45
0.0
1001
ACAD
1000
AcDbSavedByObjectVersion
1070
     0
  0
VISUALSTYLE
  5
2D
102
{ACAD_XDICTIONARY
360
430
102
}
102
{ACAD_REACTORS
330
2A
102
}
330
2A
100
AcDbVisualStyle
  2
Gouraud
 70
     2
 71
     2
 72
     2
 73
     1
 90
        2
 40
-0.6
 41
30.0
 62
     5
 63
     7
 74
     0
 91
        0
 64
     7
 65
   257
 75
     1
175
     1
 42
1.0
 92
        0
 66
     7
 43
1.0
 76
     1
 77
     6
 78
     2
 67
     7
 79
     5
170
     0
171
     0
290
     0
174
     0
 93
       13
 44
0.0
173
     0
291
     1
 45
0.0
1001
ACAD
1000
AcDbSavedByObjectVersion
1070
     0
  0
VISUALSTYLE
  5
2E
102
{ACAD_XDICTIONARY
360
432
102
}
102
{ACAD_REACTORS
330
2A
102
}
330
2A
100
AcDbVisualStyle
  2
GouraudWithEdges
 70
     3
 71
     2
 72
     2
 73
     1
 90
        2
 40
-0.6
 41
30.0
 62
     5
 63
     7
 74
     1
 91
        0
 64
     7
 65
   257
 75
     1
175
     1
 42
1.0
 92
        0
 66
   257
 43
1.0
 76
     1
 77
     6
 78
     2
 67
     7
 79
     5
170
     0
171
     0
290
     0
174
     0
 93
       13
 44
0.0
173
     0
291
     1
 45
0.0
1001
ACAD
1000
AcDbSavedByObjectVersion
1070
     0
  0
VISUALSTYLE
  5
31
102
{ACAD_XDICTIONARY
360
438
102
}
102
{ACAD_REACTORS
330
2A
102
}
330
2A
100
AcDbVisualStyle
  2
Hidden
 70
     6
 71
     1
 72
     2
 73
     2
 90
        0
 40
-0.6
 41
-30.0
 62
     5
 63
     7
 74
     2
 91
        2
 64
     7
 65
   257
 75
     2
175
     1
 42
40.0
 92
        0
 66
   257
 43
1.0
 76
     1
 77
     6
 78
     2
 67
     7
 79
     3
170
     0
171
     0
290
     0
174
     0
 93
        1
 44
0.0
173
     0
291
     0
 45
0.0
1001
ACAD
1000
AcDbSavedByObjectVersion
1070
     0
  0
VISUALSTYLE
  5
3B
102
{ACAD_XDICTIONARY
360
44C
102
}
102
{ACAD_REACTORS
330
2A
102
}
330
2A
100
AcDbVisualStyle
  2
JitterOff
 70
    20
 71
     2
 72
     2
 73
     0
 90
        0
 40
-0.6
 41
-30.0
 62
     5
 63
     7
 74
     1
 91
        4
 64
     7
 65
   257
 75
     1
175
     1
 42
1.0
 92
       10
 66
     7
 43
1.0
 76
     1
 77
     6
 78
     2
 67
     7
 79
     5
170
     0
171
     0
290
     0
174
     0
 93
        1
 44
0.0
173
     0
291
     1
 45
0.0
1001
ACAD
1000
AcDbSavedByObjectVersion
1070
     0
  0
VISUALSTYLE
  5
38
102
{ACAD_XDICTIONARY
360
446
102
}
102
{ACAD_REACTORS
330
2A
102
}
330
2A
100
AcDbVisualStyle
  2
Linepattern
 70
    14
 71
     2
 72
     2
 73
     0
 90
        0
 40
-0.6
 41
-30.0
 62
     5
 63
     7
 74
     1
 91
        4
 64
     7
 65
   257
 75
     7
175
     7
 42
1.0
 92
        8
 66
     7
 43
1.0
 76
     1
 77
     6
 78
     2
 67
     7
 79
     5
170
     0
171
     0
290
     0
174
     0
 93
        1
 44
0.0
173
     0
291
     1
 45
0.0
1001
ACAD
1000
AcDbSavedByObjectVersion
1070
     0
  0
VISUALSTYLE
  5
3C
102
{ACAD_XDICTIONARY
360
44E
102
}
102
{ACAD_REACTORS
330
2A
102
}
330
2A
100
AcDbVisualStyle
  2
OverhangOff
 70
    21
 71
     2
 72
     2
 73
     0
 90
        0
 40
-0.6
 41
-30.0
 62
     5
 63
     7
 74
     1
 91
        4
 64
     7
 65
   257
 75
     1
175
     1
 42
1.0
 92
        9
 66
     7
 43
1.0
 76
     1
 77
     6
 78
     2
 67
     7
 79
     5
170
     0
171
     0
290
     0
174
     0
 93
        1
 44
0.0
173
     0
291
     1
 45
0.0
1001
ACAD
1000
AcDbSavedByObjectVersion
1070
     0
  0
VISUALSTYLE
  5
33
102
{ACAD_XDICTIONARY
360
43C
102
}
102
{ACAD_REACTORS
330
2A
102
}
330
2A
100
AcDbVisualStyle
  2
Realistic
 70
     8
 71
     2
 72
     3
 73
     0
 90
        2
 40
-0.6
 41
30.0
 62
     5
 63
     7
 74
     0
 91
        0
 64
     7
 65
   257
 75
     1
175
     1
 42
1.0
 92
        8
 66
   257
 43
1.0
 76
     1
 77
     6
 78
     2
 67
     7
 79
     3
170
     0
171
     0
290
     0
174
     0
 93
       13
 44
0.0
173
     0
291
     0
 45
0.0
1001
ACAD
1000
AcDbSavedByObjectVersion
1070
     0
  0
VISUALSTYLE
  5
42
102
{ACAD_XDICTIONARY
360
45A
102
}
102
{ACAD_REACTORS
330
2A
102
}
330
2A
100
AcDbVisualStyle
  2
Shaded
 70
    27
 71
     2
 72
     2
 73
     1
 90
        2
 40
-0.6
 41
30.0
 62
     5
 63
     7
 74
     0
 91
        4
 64
     7
 65
   257
 75
     1
175
     1
 42
1.0
 92
        8
 66
   257
 43
1.0
 76
     1
 77
     6
 78
     2
 67
     8
 79
     3
170
     0
171
     0
290
     0
174
     0
 93
        5
 44
0.0
173
     0
291
     0
 45
0.0
1001
ACAD
1000
AcDbSavedByObjectVersion
1070
     0
  0
VISUALSTYLE
  5
41
102
{ACAD_XDICTIONARY
360
458
102
}
102
{ACAD_REACTORS
330
2A
102
}
330
2A
100
AcDbVisualStyle
  2
Shaded with edges
 70
    26
 71
     2
 72
     2
 73
     1
 90
        2
 40
-0.6
 41
30.0
 62
     5
 63
     7
 74
     1
 91
       10
 64
     7
 65
   257
 75
     2
175
     1
 42
1.0
 92
        8
 66
   257
 43
1.0
 76
     1
 77
     6
 78
     2
 67
     7
 79
     3
170
     0
171
     0
290
     0
174
     0
 93
        5
 44
0.0
173
     0
291
     0
 45
0.0
1001
ACAD
1000
AcDbSavedByObjectVersion
1070
     0
  0
VISUALSTYLE
  5
3E
102
{ACAD_XDICTIONARY
360
452
102
}
102
{ACAD_REACTORS
330
2A
102
}
330
2A
100
AcDbVisualStyle
  2
Shades of Gray
 70
    23
 71
     2
 72
     2
 73
     3
 90
        0
 40
-0.6
 41
-30.0
 62
     5
 63
     7
 74
     2
 91
        2
 64
     7
 65
     7
 75
     1
175
     1
 42
40.0
 92
        8
 66
     7
 43
1.0
 76
     1
 77
     6
 78
     2
 67
     7
 79
     3
170
     0
171
     0
290
     0
174
     0
 93
        1
 44
0.0
173
     0
291
     0
 45
0.0
1001
ACAD
1000
AcDbSavedByObjectVersion
1070
     0
  0
VISUALSTYLE
  5
3F
102
{ACAD_XDICTIONARY
360
454
102
}
102
{ACAD_REACTORS
330
2A
102
}
330
2A
100
AcDbVisualStyle
  2
Sketchy
 70
    24
 71
     1
 72
     2
 73
     2
 90
        0
 40
-0.6
 41
-30.0
 62
     5
 63
     7
 74
     2
 91
        2
 64
     7
 65
     7
 75
     1
175
     1
 42
40.0
 92
       11
 66
     7
 43
1.0
 76
     1
 77
     6
 78
     2
 67
     7
 79
     6
170
     0
171
     0
290
     0
174
     0
 93
        1
 44
0.0
173
     0
291
     0
 45
0.0
1001
ACAD
1000
AcDbSavedByObjectVersion
1070
     0
  0
VISUALSTYLE
  5
37
102
{ACAD_XDICTIONARY
360
444
102
}
102
{ACAD_REACTORS
330
2A
102
}
330
2A
100
AcDbVisualStyle
  2
Thicken
 70
    13
 71
     2
 72
     2
 73
     0
 90
        0
 40
-0.6
 41
-30.0
 62
     5
 63
     7
 74
     1
 91
        4
 64
     7
 65
   257
 75
     1
175
     1
 42
1.0
 92
       12
 66
     7
 43
1.0
 76
     1
 77
     6
 78
     2
 67
     7
 79
     5
170
     0
171
     0
290
     0
174
     0
 93
        1
 44
0.0
173
     0
291
     1
 45
0.0
1001
ACAD
1000
AcDbSavedByObjectVersion
1070
     0
  0
VISUALSTYLE
  5
30
102
{ACAD_XDICTIONARY
360
436
102
}
102
{ACAD_REACTORS
330
2A
102
}
330
2A
100
AcDbVisualStyle
  2
Wireframe
 70
     5
 71
     0
 72
     2
 73
     0
 90
        0
 40
-0.6
 41
-30.0
 62
     5
 63
     7
 74
     1
 91
        4
 64
     7
 65
   257
 75
     1
175
     1
 42
1.0
 92
        0
 66
   257
 43
1.0
 76
     1
 77
     6
 78
     2
 67
     7
 79
     3
170
     0
171
     0
290
     0
174
     0
 93
        1
 44
0.0
173
     0
291
     0
 45
0.0
1001
ACAD
1000
AcDbSavedByObjectVersion
1070
     0
  0
VISUALSTYLE
  5
40
102
{ACAD_XDICTIONARY
360
456
102
}
102
{ACAD_REACTORS
330
2A
102
}
330
2A
100
AcDbVisualStyle
  2
X-Ray
 70
    25
 71
     2
 72
     2
 73
     1
 90
        1
 40
0.5
 41
-30.0
 62
     5
 63
     7
 74
     1
 91
        0
 64
     7
 65
   257
 75
     1
175
     1
 42
1.0
 92
        8
 66
     7
 43
1.0
 76
     1
 77
     6
 78
     2
 67
     7
 79
     3
170
     0
171
     0
290
     0
174
     0
 93
       13
 44
0.0
173
     0
291
     0
 45
0.0
1001
ACAD
1000
AcDbSavedByObjectVersion
1070
     0
  0
DICTIONARYVAR
  5
353
102
{ACAD_REACTORS
330
352
102
}
330
352
100
DictionaryVariables
280
     0
  1
1:1
  0
DICTIONARYVAR
  5
394
102
{ACAD_REACTORS
330
352
102
}
330
352
100
DictionaryVariables
280
     0
  1
STANDARD
  0
DICTIONARYVAR
  5
393
102
{ACAD_REACTORS
330
352
102
}
330
352
100
DictionaryVariables
280
     0
  1
STANDARD
  0
DICTIONARYVAR
  5
41C
102
{ACAD_REACTORS
330
352
102
}
330
352
100
DictionaryVariables
280
     0
  1
Imperial24
  0
DICTIONARYVAR
  5
41D
102
{ACAD_REACTORS
330
352
102
}
330
352
100
DictionaryVariables
280
     0
  1
Imperial24
  0
DICTIONARYVAR
  5
421
102
{ACAD_REACTORS
330
352
102
}
330
352
100
DictionaryVariables
280
     0
  1
2
  0
DICTIONARYVAR
  5
420
102
{ACAD_REACTORS
330
352
102
}
330
352
100
DictionaryVariables
280
     0
  1
1
  0
DICTIONARYVAR
  5
41F
102
{ACAD_REACTORS
330
352
102
}
330
352
100
DictionaryVariables
280
     0
  1
0
  0
DICTIONARYVAR
  5
354
102
{ACAD_REACTORS
330
352
102
}
330
352
100
DictionaryVariables
280
     0
  1
1
  0
DICTIONARYVAR
  5
41E
102
{ACAD_REACTORS
330
352
102
}
330
352
100
DictionaryVariables
280
     0
  1
127
  0
DICTIONARYVAR
  5
422
102
{ACAD_REACTORS
330
352
102
}
330
352
100
DictionaryVariables
280
     0
  1
2
  0
DICTIONARY
  5
465
330
39A
100
AcDbDictionary
280
     1
281
     1
  3
ACAD_XREC_ROUNDTRIP
360
466
  0
DICTIONARY
  5
426
330
1E
100
AcDbDictionary
280
     1
281
     1
  3
ACAD_XREC_ROUNDTRIP
360
427
  0
DICTIONARY
  5
42A
330
26
100
AcDbDictionary
280
     1
281
     1
  3
ACAD_XREC_ROUNDTRIP
360
42B
  0
DICTIONARY
  5
428
330
22
100
AcDbDictionary
280
     1
281
     1
  3
ACAD_XREC_ROUNDTRIP
360
429
  0
DICTIONARY
  5
45E
330
45
100
AcDbDictionary
280
     1
281
     1
  3
ACAD_XREC_ROUNDTRIP
360
45F
  0
DICTIONARY
  5
45C
330
44
100
AcDbDictionary
280
     1
281
     1
  3
ACAD_XREC_ROUNDTRIP
360
45D
  0
DICTIONARY
  5
460
330
46
100
AcDbDictionary
280
     1
281
     1
  3
ACAD_XREC_ROUNDTRIP
360
461
  0
DICTIONARY
  5
463
330
399
100
AcDbDictionary
280
     1
281
     1
  3
ACAD_XREC_ROUNDTRIP
360
464
  0
DICTIONARY
  5
38C
330
6A
100
AcDbDictionary
280
     1
281
     1
  3
ACAD_ROUNDTRIP_2008_TABLESTYLE_CELLSTYLEMAP
360
423
  3
ACAD_XREC_ROUNDTRIP
360
462
  0
DICTIONARY
  5
434
330
2F
100
AcDbDictionary
280
     1
281
     1
  3
ACAD_XREC_ROUNDTRIP
360
435
  0
DICTIONARY
  5
43A
330
32
100
AcDbDictionary
280
     1
281
     1
  3
ACAD_XREC_ROUNDTRIP
360
43B
  0
DICTIONARY
  5
442
330
36
100
AcDbDictionary
280
     1
281
     1
  3
ACAD_XREC_ROUNDTRIP
360
443
  0
DICTIONARY
  5
44A
330
3A
100
AcDbDictionary
280
     1
281
     1
  3
ACAD_XREC_ROUNDTRIP
360
44B
  0
DICTIONARY
  5
43E
330
34
100
AcDbDictionary
280
     1
281
     1
  3
ACAD_XREC_ROUNDTRIP
360
43F
  0
DICTIONARY
  5
440
330
35
100
AcDbDictionary
280
     1
281
     1
  3
ACAD_XREC_ROUNDTRIP
360
441
  0
DICTIONARY
  5
450
330
3D
100
AcDbDictionary
280
     1
281
     1
  3
ACAD_XREC_ROUNDTRIP
360
451
  0
DICTIONARY
  5
448
330
39
100
AcDbDictionary
280
     1
281
     1
  3
ACAD_XREC_ROUNDTRIP
360
449
  0
DICTIONARY
  5
42C
330
2B
100
AcDbDictionary
280
     1
281
     1
  3
ACAD_XREC_ROUNDTRIP
360
42D
  0
DICTIONARY
  5
42E
330
2C
100
AcDbDictionary
280
     1
281
     1
  3
ACAD_XREC_ROUNDTRIP
360
42F
  0
DICTIONARY
  5
430
330
2D
100
AcDbDictionary
280
     1
281
     1
  3
ACAD_XREC_ROUNDTRIP
360
431
  0
DICTIONARY
  5
432
330
2E
100
AcDbDictionary
280
     1
281
     1
  3
ACAD_XREC_ROUNDTRIP
360
433
  0
DICTIONARY
  5
438
330
31
100
AcDbDictionary
280
     1
281
     1
  3
ACAD_XREC_ROUNDTRIP
360
439
  0
DICTIONARY
  5
44C
330
3B
100
AcDbDictionary
280
     1
281
     1
  3
ACAD_XREC_ROUNDTRIP
360
44D
  0
DICTIONARY
  5
446
330
38
100
AcDbDictionary
280
     1
281
     1
  3
ACAD_XREC_ROUNDTRIP
360
447
  0
DICTIONARY
  5
44E
330
3C
100
AcDbDictionary
280
     1
281
     1
  3
ACAD_XREC_ROUNDTRIP
360
44F
  0
DICTIONARY
  5
43C
330
33
100
AcDbDictionary
280
     1
281
     1
  3
ACAD_XREC_ROUNDTRIP
360
43D
  0
DICTIONARY
  5
45A
330
42
100
AcDbDictionary
280
     1
281
     1
  3
ACAD_XREC_ROUNDTRIP
360
45B
  0
DICTIONARY
  5
458
330
41
100
AcDbDictionary
280
     1
281
     1
  3
ACAD_XREC_ROUNDTRIP
360
459
  0
DICTIONARY
  5
452
330
3E
100
AcDbDictionary
280
     1
281
     1
  3
ACAD_XREC_ROUNDTRIP
360
453
  0
DICTIONARY
  5
454
330
3F
100
AcDbDictionary
280
     1
281
     1
  3
ACAD_XREC_ROUNDTRIP
360
455
  0
DICTIONARY
  5
444
330
37
100
AcDbDictionary
280
     1
281
     1
  3
ACAD_XREC_ROUNDTRIP
360
445
  0
DICTIONARY
  5
436
330
30
100
AcDbDictionary
280
     1
281
     1
  3
ACAD_XREC_ROUNDTRIP
360
437
  0
DICTIONARY
  5
456
330
40
100
AcDbDictionary
280
     1
281
     1
  3
ACAD_XREC_ROUNDTRIP
360
457
  0
XRECORD
  5
466
102
{ACAD_REACTORS
330
465
102
}
330
465
100
AcDbXrecord
280
     1
102
DISPLAYNAME
  1
Imperial24
102
FLAGS
 90
        0
  0
XRECORD
  5
427
102
{ACAD_REACTORS
330
426
102
}
330
426
100
AcDbXrecord
280
     1
102
SHADEPLOT
 70
     0
102
SHADEPLOTRESLEVEL
 70
     2
102
SHADEPLOTCUSTOMDPI
 70
   300
  0
XRECORD
  5
42B
102
{ACAD_REACTORS
330
42A
102
}
330
42A
100
AcDbXrecord
280
     1
102
SHADEPLOT
 70
     0
102
SHADEPLOTRESLEVEL
 70
     2
102
SHADEPLOTCUSTOMDPI
 70
   300
  0
XRECORD
  5
429
102
{ACAD_REACTORS
330
428
102
}
330
428
100
AcDbXrecord
280
     1
102
SHADEPLOT
 70
     0
102
SHADEPLOTRESLEVEL
 70
     2
102
SHADEPLOTCUSTOMDPI
 70
   300
  0
XRECORD
  5
45F
102
{ACAD_REACTORS
330
45E
102
}
330
45E
100
AcDbXrecord
280
     1
102
MATERIAL
148
0.0
149
0.0
149
0.0
 93
        0
 94
      127
282
     0
 72
     1
 77
     1
171
     1
175
     1
179
     1
273
     0
  0
XRECORD
  5
45D
102
{ACAD_REACTORS
330
45C
102
}
330
45C
100
AcDbXrecord
280
     1
102
MATERIAL
148
0.0
149
0.0
149
0.0
 93
        0
 94
      127
282
     0
 72
     1
 77
     1
171
     1
175
     1
179
     1
273
     0
  0
XRECORD
  5
461
102
{ACAD_REACTORS
330
460
102
}
330
460
100
AcDbXrecord
280
     1
102
MATERIAL
148
0.0
149
0.0
149
0.0
 93
        0
 94
      127
282
     0
 72
     1
 77
     1
171
     1
175
     1
179
     1
273
     0
  0
XRECORD
  5
464
102
{ACAD_REACTORS
330
463
102
}
330
463
100
AcDbXrecord
280
     1
102
DISPLAYNAME
  1
Imperial24
102
FLAGS
 90
        0
  0
CELLSTYLEMAP
  5
423
102
{ACAD_REACTORS
330
38C
102
}
330
38C
100
AcDbCellStyleMap
 90
        3
300
CELLSTYLE
  1
TABLEFORMAT_BEGIN
 90
        5
170
     1
 91
        0
 92
    32768
 62
   257
 93
        1
300
CONTENTFORMAT
  1
CONTENTFORMAT_BEGIN
 90
        0
 91
        0
 92
        4
 93
        0
300

 40
0.0
140
1.0
 94
        5
 62
     0
340
11
144
0.25
309
CONTENTFORMAT_END
171
     1
301
MARGIN
  1
CELLMARGIN_BEGIN
 40
0.06
 40
0.06
 40
0.06
 40
0.06
 40
0.06
 40
0.06
309
CELLMARGIN_END
 94
        6
 95
        1
302
GRIDFORMAT
  1
GRIDFORMAT_BEGIN
 90
        0
 91
        1
 62
     0
 92
       -2
340
14
 93
        0
 40
0.045
309
GRIDFORMAT_END
 95
        2
302
GRIDFORMAT
  1
GRIDFORMAT_BEGIN
 90
        0
 91
        1
 62
     0
 92
       -2
340
14
 93
        0
 40
0.045
309
GRIDFORMAT_END
 95
        4
302
GRIDFORMAT
  1
GRIDFORMAT_BEGIN
 90
        0
 91
        1
 62
     0
 92
       -2
340
14
 93
        0
 40
0.045
309
GRIDFORMAT_END
 95
        8
302
GRIDFORMAT
  1
GRIDFORMAT_BEGIN
 90
        0
 91
        1
 62
     0
 92
       -2
340
14
 93
        0
 40
0.045
309
GRIDFORMAT_END
 95
       16
302
GRIDFORMAT
  1
GRIDFORMAT_BEGIN
 90
        0
 91
        1
 62
     0
 92
       -2
340
14
 93
        0
 40
0.045
309
GRIDFORMAT_END
 95
       32
302
GRIDFORMAT
  1
GRIDFORMAT_BEGIN
 90
        0
 91
        1
 62
     0
 92
       -2
340
14
 93
        0
 40
0.045
309
GRIDFORMAT_END
309
TABLEFORMAT_END
  1
CELLSTYLE_BEGIN
 90
        1
 91
        1
300
_TITLE
309
CELLSTYLE_END
300
CELLSTYLE
  1
TABLEFORMAT_BEGIN
 90
        5
170
     1
 91
        0
 92
        0
 62
   257
 93
        1
300
CONTENTFORMAT
  1
CONTENTFORMAT_BEGIN
 90
        0
 91
        0
 92
        4
 93
        0
300

 40
0.0
140
1.0
 94
        5
 62
     0
340
11
144
0.18
309
CONTENTFORMAT_END
171
     1
301
MARGIN
  1
CELLMARGIN_BEGIN
 40
0.06
 40
0.06
 40
0.06
 40
0.06
 40
0.06
 40
0.06
309
CELLMARGIN_END
 94
        6
 95
        1
302
GRIDFORMAT
  1
GRIDFORMAT_BEGIN
 90
        0
 91
        1
 62
     0
 92
       -2
340
14
 93
        0
 40
0.045
309
GRIDFORMAT_END
 95
        2
302
GRIDFORMAT
  1
GRIDFORMAT_BEGIN
 90
        0
 91
        1
 62
     0
 92
       -2
340
14
 93
        0
 40
0.045
309
GRIDFORMAT_END
 95
        4
302
GRIDFORMAT
  1
GRIDFORMAT_BEGIN
 90
        0
 91
        1
 62
     0
 92
       -2
340
14
 93
        0
 40
0.045
309
GRIDFORMAT_END
 95
        8
302
GRIDFORMAT
  1
GRIDFORMAT_BEGIN
 90
        0
 91
        1
 62
     0
 92
       -2
340
14
 93
        0
 40
0.045
309
GRIDFORMAT_END
 95
       16
302
GRIDFORMAT
  1
GRIDFORMAT_BEGIN
 90
        0
 91
        1
 62
     0
 92
       -2
340
14
 93
        0
 40
0.045
309
GRIDFORMAT_END
 95
       32
302
GRIDFORMAT
  1
GRIDFORMAT_BEGIN
 90
        0
 91
        1
 62
     0
 92
       -2
340
14
 93
        0
 40
0.045
309
GRIDFORMAT_END
309
TABLEFORMAT_END
  1
CELLSTYLE_BEGIN
 90
        2
 91
        1
300
_HEADER
309
CELLSTYLE_END
300
CELLSTYLE
  1
TABLEFORMAT_BEGIN
 90
        5
170
     1
 91
        0
 92
        0
 62
   257
 93
        1
300
CONTENTFORMAT
  1
CONTENTFORMAT_BEGIN
 90
        0
 91
        0
 92
        4
 93
        0
300

 40
0.0
140
1.0
 94
        2
 62
     0
340
11
144
0.18
309
CONTENTFORMAT_END
171
     1
301
MARGIN
  1
CELLMARGIN_BEGIN
 40
0.06
 40
0.06
 40
0.06
 40
0.06
 40
0.06
 40
0.06
309
CELLMARGIN_END
 94
        6
 95
        1
302
GRIDFORMAT
  1
GRIDFORMAT_BEGIN
 90
        0
 91
        1
 62
     0
 92
       -2
340
14
 93
        0
 40
0.045
309
GRIDFORMAT_END
 95
        2
302
GRIDFORMAT
  1
GRIDFORMAT_BEGIN
 90
        0
 91
        1
 62
     0
 92
       -2
340
14
 93
        0
 40
0.045
309
GRIDFORMAT_END
 95
        4
302
GRIDFORMAT
  1
GRIDFORMAT_BEGIN
 90
        0
 91
        1
 62
     0
 92
       -2
340
14
 93
        0
 40
0.045
309
GRIDFORMAT_END
 95
        8
302
GRIDFORMAT
  1
GRIDFORMAT_BEGIN
 90
        0
 91
        1
 62
     0
 92
       -2
340
14
 93
        0
 40
0.045
309
GRIDFORMAT_END
 95
       16
302
GRIDFORMAT
  1
GRIDFORMAT_BEGIN
 90
        0
 91
        1
 62
     0
 92
       -2
340
14
 93
        0
 40
0.045
309
GRIDFORMAT_END
 95
       32
302
GRIDFORMAT
  1
GRIDFORMAT_BEGIN
 90
        0
 91
        1
 62
     0
 92
       -2
340
14
 93
        0
 40
0.045
309
GRIDFORMAT_END
309
TABLEFORMAT_END
  1
CELLSTYLE_BEGIN
 90
        3
 91
        2
300
_DATA
309
CELLSTYLE_END
  0
XRECORD
  5
462
102
{ACAD_REACTORS
330
38C
102
}
330
38C
100
AcDbXrecord
280
     1
102
ACAD_ROUNDTRIP_PRE2007_TABLESTYLE
 90
        4
 91
        0
  1

 92
        4
 93
        0
  2

 94
        4
 95
        0
  3

  0
XRECORD
  5
435
102
{ACAD_REACTORS
330
434
102
}
330
434
100
AcDbXrecord
280
     1
102
RTVSPost2010Prop28
280
     1
102
RTVSPost2010PropOp28
 70
     1
102
RTVSPost2010Prop29
280
     1
102
RTVSPost2010PropOp29
 70
     1
102
RTVSPost2010Prop30
280
     0
102
RTVSPost2010PropOp30
 70
     1
102
RTVSPost2010Prop31
280
     0
102
RTVSPost2010PropOp31
 70
     1
102
RTVSPost2010Prop32
280
     0
102
RTVSPost2010PropOp32
 70
     1
102
RTVSPost2010Prop33
280
     0
102
RTVSPost2010PropOp33
 70
     1
102
RTVSPost2010Prop34
280
     0
102
RTVSPost2010PropOp34
 70
     1
102
RTVSPost2010Prop35
280
     0
102
RTVSPost2010PropOp35
 70
     1
102
RTVSPost2010Prop36
280
     0
102
RTVSPost2010PropOp36
 70
     1
102
RTVSPost2010Prop37
 90
       50
102
RTVSPost2010PropOp37
 70
     1
102
RTVSPost2010Prop38
140
0.0
102
RTVSPost2010PropOp38
 70
     1
102
RTVSPost2010Prop39
140
1.0
102
RTVSPost2010PropOp39
 70
     1
102
RTVSPost2010Prop40
 90
        0
102
RTVSPost2010PropOp40
 70
     1
102
RTVSPost2010Prop41ColorIndex
 90
       18
102
RTVSPost2010Prop41ColorRGB
 90
        0
102
RTVSPost2010PropOp41
 70
     1
102
RTVSPost2010Prop42
 90
       50
102
RTVSPost2010PropOp42
 70
     1
102
RTVSPost2010Prop43
 90
        3
102
RTVSPost2010PropOp43
 70
     1
102
RTVSPost2010Prop44ColorIndex
 90
        5
102
RTVSPost2010Prop44ColorRGB
 90
      255
102
RTVSPost2010PropOp44
 70
     1
102
RTVSPost2010Prop45
280
     0
102
RTVSPost2010PropOp45
 70
     1
102
RTVSPost2010Prop46
 90
       50
102
RTVSPost2010PropOp46
 70
     1
102
RTVSPost2010Prop47
 90
       50
102
RTVSPost2010PropOp47
 70
     1
102
RTVSPost2010Prop48
 90
       50
102
RTVSPost2010PropOp48
 70
     1
102
RTVSPost2010Prop49
280
     0
102
RTVSPost2010PropOp49
 70
     1
102
RTVSPost2010Prop50
 90
       50
102
RTVSPost2010PropOp50
 70
     1
102
RTVSPost2010Prop51ColorIndex
 90
      256
102
RTVSPost2010Prop51ColorRGB
 90
-16777216
102
RTVSPost2010PropOp51
 70
     0
102
RTVSPost2010Prop52
140
1.0
102
RTVSPost2010PropOp52
 70
     0
102
RTVSPost2010Prop53
 90
        2
102
RTVSPost2010PropOp53
 70
     1
102
RTVSPost2010Prop54
  1
strokes_ogs.tif
102
RTVSPost2010PropOp54
 70
     1
102
RTVSPost2010Prop55
280
     0
102
RTVSPost2010PropOp55
 70
     1
102
RTVSPost2010Prop56
140
1.0
102
RTVSPost2010PropOp56
 70
     1
102
RTVSPost2010Prop57
140
1.0
102
RTVSPost2010PropOp57
 70
     1
102
RTVSPropertyOp0
 70
     1
102
RTVSPropertyOp1
 70
     1
102
RTVSPropertyOp2
 70
     1
102
RTVSPropertyOp3
 70
     1
102
RTVSPropertyOp4
 70
     1
102
RTVSPropertyOp5
 70
     1
102
RTVSPropertyOp6
 70
     1
102
RTVSPropertyOp7
 70
     1
102
RTVSPropertyOp8
 70
     1
102
RTVSPropertyOp9
 70
     1
102
RTVSPropertyOp10
 70
     1
102
RTVSPropertyOp11
 70
     1
102
RTVSPropertyOp12
 70
     1
102
RTVSPropertyOp13
 70
     1
102
RTVSPropertyOp14
 70
     1
102
RTVSPropertyOp15
 70
     1
102
RTVSPropertyOp16
 70
     1
102
RTVSPropertyOp17
 70
     1
102
RTVSPropertyOp18
 70
     1
102
RTVSPropertyOp19
 70
     1
102
RTVSPropertyOp20
 70
     1
102
RTVSPropertyOp21
 70
     1
102
RTVSPropertyOp22
 70
     1
102
RTVSPropertyOp23
 70
     1
102
RTVSPropertyOp24
 70
     1
102
RTVSPropertyOp25
 70
     1
102
RTVSPropertyOp26
 70
     1
102
RTVSPropertyOp27
 70
     1
102
RTVSPropertyOp28
 70
     1
102
RTVSPropertyOp29
 70
     1
102
RTVSPropertyOp30
 70
     1
102
RTVSPropertyOp31
 70
     1
102
RTVSPropertyOp32
 70
     1
102
RTVSPropertyOp33
 70
     1
102
RTVSPropertyOp34
 70
     1
102
RTVSPropertyOp35
 70
     1
102
RTVSPropertyOp36
 70
     1
102
RTVSPropertyOp37
 70
     1
102
RTVSPropertyOp38
 70
     1
102
RTVSPropertyOp39
 70
     1
102
RTVSPropertyOp40
 70
     1
102
RTVSPropertyOp41
 70
     1
102
RTVSPropertyOp42
 70
     1
102
RTVSPropertyOp43
 70
     1
102
RTVSPropertyOp44
 70
     1
102
RTVSPropertyOp45
 70
     1
102
RTVSPropertyOp46
 70
     1
102
RTVSPropertyOp47
 70
     1
102
RTVSPropertyOp48
 70
     1
102
RTVSPropertyOp49
 70
     1
102
RTVSPropertyOp50
 70
     1
102
RTVSPropertyOp51
 70
     0
102
RTVSPropertyOp52
 70
     0
102
RTVSPropertyOp53
 70
     1
102
RTVSPropertyOp54
 70
     1
102
RTVSPropertyOp55
 70
     1
102
RTVSPropertyOp56
 70
     1
102
RTVSPropertyOp57
 70
     1
102
RTVSPropertyOp58
 70
     1
102
RTVSPropertyOp59
 70
     1
102
RTVSPropertyOp60
 70
     1
102
RTVSPropertyOp61
 70
     1
102
RTVSPropertyOp62
 70
     1
  0
XRECORD
  5
43B
102
{ACAD_REACTORS
330
43A
102
}
330
43A
100
AcDbXrecord
280
     1
102
RTVSPost2010Prop28
280
     0
102
RTVSPost2010PropOp28
 70
     1
102
RTVSPost2010Prop29
280
     1
102
RTVSPost2010PropOp29
 70
     1
102
RTVSPost2010Prop30
280
     1
102
RTVSPost2010PropOp30
 70
     1
102
RTVSPost2010Prop31
280
     0
102
RTVSPost2010PropOp31
 70
     1
102
RTVSPost2010Prop32
280
     0
102
RTVSPost2010PropOp32
 70
     1
102
RTVSPost2010Prop33
280
     0
102
RTVSPost2010PropOp33
 70
     1
102
RTVSPost2010Prop34
280
     0
102
RTVSPost2010PropOp34
 70
     1
102
RTVSPost2010Prop35
280
     0
102
RTVSPost2010PropOp35
 70
     1
102
RTVSPost2010Prop36
280
     0
102
RTVSPost2010PropOp36
 70
     1
102
RTVSPost2010Prop37
 90
       50
102
RTVSPost2010PropOp37
 70
     1
102
RTVSPost2010Prop38
140
0.0
102
RTVSPost2010PropOp38
 70
     1
102
RTVSPost2010Prop39
140
1.0
102
RTVSPost2010PropOp39
 70
     1
102
RTVSPost2010Prop40
 90
        0
102
RTVSPost2010PropOp40
 70
     1
102
RTVSPost2010Prop41ColorIndex
 90
       18
102
RTVSPost2010Prop41ColorRGB
 90
        0
102
RTVSPost2010PropOp41
 70
     1
102
RTVSPost2010Prop42
 90
       50
102
RTVSPost2010PropOp42
 70
     1
102
RTVSPost2010Prop43
 90
        3
102
RTVSPost2010PropOp43
 70
     1
102
RTVSPost2010Prop44ColorIndex
 90
        5
102
RTVSPost2010Prop44ColorRGB
 90
      255
102
RTVSPost2010PropOp44
 70
     1
102
RTVSPost2010Prop45
280
     0
102
RTVSPost2010PropOp45
 70
     1
102
RTVSPost2010Prop46
 90
       50
102
RTVSPost2010PropOp46
 70
     1
102
RTVSPost2010Prop47
 90
       50
102
RTVSPost2010PropOp47
 70
     1
102
RTVSPost2010Prop48
 90
       50
102
RTVSPost2010PropOp48
 70
     1
102
RTVSPost2010Prop49
280
     0
102
RTVSPost2010PropOp49
 70
     1
102
RTVSPost2010Prop50
 90
       50
102
RTVSPost2010PropOp50
 70
     1
102
RTVSPost2010Prop51ColorIndex
 90
      256
102
RTVSPost2010Prop51ColorRGB
 90
-16777216
102
RTVSPost2010PropOp51
 70
     0
102
RTVSPost2010Prop52
140
1.0
102
RTVSPost2010PropOp52
 70
     0
102
RTVSPost2010Prop53
 90
        2
102
RTVSPost2010PropOp53
 70
     1
102
RTVSPost2010Prop54
  1
strokes_ogs.tif
102
RTVSPost2010PropOp54
 70
     1
102
RTVSPost2010Prop55
280
     0
102
RTVSPost2010PropOp55
 70
     1
102
RTVSPost2010Prop56
140
1.0
102
RTVSPost2010PropOp56
 70
     1
102
RTVSPost2010Prop57
140
1.0
102
RTVSPost2010PropOp57
 70
     1
102
RTVSPropertyOp0
 70
     1
102
RTVSPropertyOp1
 70
     1
102
RTVSPropertyOp2
 70
     1
102
RTVSPropertyOp3
 70
     1
102
RTVSPropertyOp4
 70
     1
102
RTVSPropertyOp5
 70
     1
102
RTVSPropertyOp6
 70
     1
102
RTVSPropertyOp7
 70
     1
102
RTVSPropertyOp8
 70
     1
102
RTVSPropertyOp9
 70
     1
102
RTVSPropertyOp10
 70
     1
102
RTVSPropertyOp11
 70
     1
102
RTVSPropertyOp12
 70
     1
102
RTVSPropertyOp13
 70
     1
102
RTVSPropertyOp14
 70
     1
102
RTVSPropertyOp15
 70
     1
102
RTVSPropertyOp16
 70
     1
102
RTVSPropertyOp17
 70
     1
102
RTVSPropertyOp18
 70
     1
102
RTVSPropertyOp19
 70
     1
102
RTVSPropertyOp20
 70
     1
102
RTVSPropertyOp21
 70
     1
102
RTVSPropertyOp22
 70
     1
102
RTVSPropertyOp23
 70
     1
102
RTVSPropertyOp24
 70
     1
102
RTVSPropertyOp25
 70
     1
102
RTVSPropertyOp26
 70
     1
102
RTVSPropertyOp27
 70
     1
102
RTVSPropertyOp28
 70
     1
102
RTVSPropertyOp29
 70
     1
102
RTVSPropertyOp30
 70
     1
102
RTVSPropertyOp31
 70
     1
102
RTVSPropertyOp32
 70
     1
102
RTVSPropertyOp33
 70
     1
102
RTVSPropertyOp34
 70
     1
102
RTVSPropertyOp35
 70
     1
102
RTVSPropertyOp36
 70
     1
102
RTVSPropertyOp37
 70
     1
102
RTVSPropertyOp38
 70
     1
102
RTVSPropertyOp39
 70
     1
102
RTVSPropertyOp40
 70
     1
102
RTVSPropertyOp41
 70
     1
102
RTVSPropertyOp42
 70
     1
102
RTVSPropertyOp43
 70
     1
102
RTVSPropertyOp44
 70
     1
102
RTVSPropertyOp45
 70
     1
102
RTVSPropertyOp46
 70
     1
102
RTVSPropertyOp47
 70
     1
102
RTVSPropertyOp48
 70
     1
102
RTVSPropertyOp49
 70
     1
102
RTVSPropertyOp50
 70
     1
102
RTVSPropertyOp51
 70
     0
102
RTVSPropertyOp52
 70
     0
102
RTVSPropertyOp53
 70
     1
102
RTVSPropertyOp54
 70
     1
102
RTVSPropertyOp55
 70
     1
102
RTVSPropertyOp56
 70
     1
102
RTVSPropertyOp57
 70
     1
102
RTVSPropertyOp58
 70
     1
102
RTVSPropertyOp59
 70
     1
102
RTVSPropertyOp60
 70
     1
102
RTVSPropertyOp61
 70
     1
102
RTVSPropertyOp62
 70
     1
  0
XRECORD
  5
443
102
{ACAD_REACTORS
330
442
102
}
330
442
100
AcDbXrecord
280
     1
102
RTVSPost2010Prop28
280
     0
102
RTVSPost2010PropOp28
 70
     1
102
RTVSPost2010Prop29
280
     1
102
RTVSPost2010PropOp29
 70
     1
102
RTVSPost2010Prop30
280
     1
102
RTVSPost2010PropOp30
 70
     1
102
RTVSPost2010Prop31
280
     0
102
RTVSPost2010PropOp31
 70
     1
102
RTVSPost2010Prop32
280
     0
102
RTVSPost2010PropOp32
 70
     1
102
RTVSPost2010Prop33
280
     0
102
RTVSPost2010PropOp33
 70
     1
102
RTVSPost2010Prop34
280
     0
102
RTVSPost2010PropOp34
 70
     1
102
RTVSPost2010Prop35
280
     0
102
RTVSPost2010PropOp35
 70
     1
102
RTVSPost2010Prop36
280
     0
102
RTVSPost2010PropOp36
 70
     1
102
RTVSPost2010Prop37
 90
       50
102
RTVSPost2010PropOp37
 70
     1
102
RTVSPost2010Prop38
140
0.0
102
RTVSPost2010PropOp38
 70
     1
102
RTVSPost2010Prop39
140
1.0
102
RTVSPost2010PropOp39
 70
     1
102
RTVSPost2010Prop40
 90
        0
102
RTVSPost2010PropOp40
 70
     1
102
RTVSPost2010Prop41ColorIndex
 90
       18
102
RTVSPost2010Prop41ColorRGB
 90
        0
102
RTVSPost2010PropOp41
 70
     1
102
RTVSPost2010Prop42
 90
       50
102
RTVSPost2010PropOp42
 70
     1
102
RTVSPost2010Prop43
 90
        3
102
RTVSPost2010PropOp43
 70
     1
102
RTVSPost2010Prop44ColorIndex
 90
        5
102
RTVSPost2010Prop44ColorRGB
 90
      255
102
RTVSPost2010PropOp44
 70
     1
102
RTVSPost2010Prop45
280
     0
102
RTVSPost2010PropOp45
 70
     1
102
RTVSPost2010Prop46
 90
       50
102
RTVSPost2010PropOp46
 70
     1
102
RTVSPost2010Prop47
 90
       50
102
RTVSPost2010PropOp47
 70
     1
102
RTVSPost2010Prop48
 90
       50
102
RTVSPost2010PropOp48
 70
     1
102
RTVSPost2010Prop49
280
     0
102
RTVSPost2010PropOp49
 70
     1
102
RTVSPost2010Prop50
 90
       50
102
RTVSPost2010PropOp50
 70
     1
102
RTVSPost2010Prop51ColorIndex
 90
      256
102
RTVSPost2010Prop51ColorRGB
 90
-16777216
102
RTVSPost2010PropOp51
 70
     0
102
RTVSPost2010Prop52
140
1.0
102
RTVSPost2010PropOp52
 70
     0
102
RTVSPost2010Prop53
 90
        2
102
RTVSPost2010PropOp53
 70
     1
102
RTVSPost2010Prop54
  1
strokes_ogs.tif
102
RTVSPost2010PropOp54
 70
     1
102
RTVSPost2010Prop55
280
     0
102
RTVSPost2010PropOp55
 70
     1
102
RTVSPost2010Prop56
140
1.0
102
RTVSPost2010PropOp56
 70
     1
102
RTVSPost2010Prop57
140
1.0
102
RTVSPost2010PropOp57
 70
     1
102
RTVSPropertyOp0
 70
     1
102
RTVSPropertyOp1
 70
     1
102
RTVSPropertyOp2
 70
     1
102
RTVSPropertyOp3
 70
     1
102
RTVSPropertyOp4
 70
     1
102
RTVSPropertyOp5
 70
     1
102
RTVSPropertyOp6
 70
     1
102
RTVSPropertyOp7
 70
     1
102
RTVSPropertyOp8
 70
     1
102
RTVSPropertyOp9
 70
     1
102
RTVSPropertyOp10
 70
     1
102
RTVSPropertyOp11
 70
     1
102
RTVSPropertyOp12
 70
     1
102
RTVSPropertyOp13
 70
     1
102
RTVSPropertyOp14
 70
     1
102
RTVSPropertyOp15
 70
     1
102
RTVSPropertyOp16
 70
     1
102
RTVSPropertyOp17
 70
     1
102
RTVSPropertyOp18
 70
     1
102
RTVSPropertyOp19
 70
     1
102
RTVSPropertyOp20
 70
     1
102
RTVSPropertyOp21
 70
     1
102
RTVSPropertyOp22
 70
     1
102
RTVSPropertyOp23
 70
     1
102
RTVSPropertyOp24
 70
     1
102
RTVSPropertyOp25
 70
     1
102
RTVSPropertyOp26
 70
     1
102
RTVSPropertyOp27
 70
     1
102
RTVSPropertyOp28
 70
     1
102
RTVSPropertyOp29
 70
     1
102
RTVSPropertyOp30
 70
     1
102
RTVSPropertyOp31
 70
     1
102
RTVSPropertyOp32
 70
     1
102
RTVSPropertyOp33
 70
     1
102
RTVSPropertyOp34
 70
     1
102
RTVSPropertyOp35
 70
     1
102
RTVSPropertyOp36
 70
     1
102
RTVSPropertyOp37
 70
     1
102
RTVSPropertyOp38
 70
     1
102
RTVSPropertyOp39
 70
     1
102
RTVSPropertyOp40
 70
     1
102
RTVSPropertyOp41
 70
     1
102
RTVSPropertyOp42
 70
     1
102
RTVSPropertyOp43
 70
     1
102
RTVSPropertyOp44
 70
     1
102
RTVSPropertyOp45
 70
     1
102
RTVSPropertyOp46
 70
     1
102
RTVSPropertyOp47
 70
     1
102
RTVSPropertyOp48
 70
     1
102
RTVSPropertyOp49
 70
     1
102
RTVSPropertyOp50
 70
     1
102
RTVSPropertyOp51
 70
     0
102
RTVSPropertyOp52
 70
     0
102
RTVSPropertyOp53
 70
     1
102
RTVSPropertyOp54
 70
     1
102
RTVSPropertyOp55
 70
     1
102
RTVSPropertyOp56
 70
     1
102
RTVSPropertyOp57
 70
     1
102
RTVSPropertyOp58
 70
     1
102
RTVSPropertyOp59
 70
     1
102
RTVSPropertyOp60
 70
     1
102
RTVSPropertyOp61
 70
     1
102
RTVSPropertyOp62
 70
     1
  0
XRECORD
  5
44B
102
{ACAD_REACTORS
330
44A
102
}
330
44A
100
AcDbXrecord
280
     1
102
RTVSPost2010Prop28
280
     0
102
RTVSPost2010PropOp28
 70
     1
102
RTVSPost2010Prop29
280
     1
102
RTVSPost2010PropOp29
 70
     1
102
RTVSPost2010Prop30
280
     1
102
RTVSPost2010PropOp30
 70
     1
102
RTVSPost2010Prop31
280
     0
102
RTVSPost2010PropOp31
 70
     1
102
RTVSPost2010Prop32
280
     0
102
RTVSPost2010PropOp32
 70
     1
102
RTVSPost2010Prop33
280
     0
102
RTVSPost2010PropOp33
 70
     1
102
RTVSPost2010Prop34
280
     0
102
RTVSPost2010PropOp34
 70
     1
102
RTVSPost2010Prop35
280
     0
102
RTVSPost2010PropOp35
 70
     1
102
RTVSPost2010Prop36
280
     0
102
RTVSPost2010PropOp36
 70
     1
102
RTVSPost2010Prop37
 90
       50
102
RTVSPost2010PropOp37
 70
     1
102
RTVSPost2010Prop38
140
0.0
102
RTVSPost2010PropOp38
 70
     1
102
RTVSPost2010Prop39
140
1.0
102
RTVSPost2010PropOp39
 70
     1
102
RTVSPost2010Prop40
 90
        0
102
RTVSPost2010PropOp40
 70
     1
102
RTVSPost2010Prop41ColorIndex
 90
       18
102
RTVSPost2010Prop41ColorRGB
 90
        0
102
RTVSPost2010PropOp41
 70
     1
102
RTVSPost2010Prop42
 90
       50
102
RTVSPost2010PropOp42
 70
     1
102
RTVSPost2010Prop43
 90
        3
102
RTVSPost2010PropOp43
 70
     1
102
RTVSPost2010Prop44ColorIndex
 90
        5
102
RTVSPost2010Prop44ColorRGB
 90
      255
102
RTVSPost2010PropOp44
 70
     1
102
RTVSPost2010Prop45
280
     0
102
RTVSPost2010PropOp45
 70
     1
102
RTVSPost2010Prop46
 90
       50
102
RTVSPost2010PropOp46
 70
     1
102
RTVSPost2010Prop47
 90
       50
102
RTVSPost2010PropOp47
 70
     1
102
RTVSPost2010Prop48
 90
       50
102
RTVSPost2010PropOp48
 70
     1
102
RTVSPost2010Prop49
280
     0
102
RTVSPost2010PropOp49
 70
     1
102
RTVSPost2010Prop50
 90
       50
102
RTVSPost2010PropOp50
 70
     1
102
RTVSPost2010Prop51ColorIndex
 90
      256
102
RTVSPost2010Prop51ColorRGB
 90
-16777216
102
RTVSPost2010PropOp51
 70
     0
102
RTVSPost2010Prop52
140
1.0
102
RTVSPost2010PropOp52
 70
     0
102
RTVSPost2010Prop53
 90
        2
102
RTVSPost2010PropOp53
 70
     1
102
RTVSPost2010Prop54
  1
strokes_ogs.tif
102
RTVSPost2010PropOp54
 70
     1
102
RTVSPost2010Prop55
280
     0
102
RTVSPost2010PropOp55
 70
     1
102
RTVSPost2010Prop56
140
1.0
102
RTVSPost2010PropOp56
 70
     1
102
RTVSPost2010Prop57
140
1.0
102
RTVSPost2010PropOp57
 70
     1
102
RTVSPropertyOp0
 70
     1
102
RTVSPropertyOp1
 70
     1
102
RTVSPropertyOp2
 70
     1
102
RTVSPropertyOp3
 70
     1
102
RTVSPropertyOp4
 70
     1
102
RTVSPropertyOp5
 70
     1
102
RTVSPropertyOp6
 70
     1
102
RTVSPropertyOp7
 70
     1
102
RTVSPropertyOp8
 70
     1
102
RTVSPropertyOp9
 70
     1
102
RTVSPropertyOp10
 70
     1
102
RTVSPropertyOp11
 70
     1
102
RTVSPropertyOp12
 70
     1
102
RTVSPropertyOp13
 70
     1
102
RTVSPropertyOp14
 70
     1
102
RTVSPropertyOp15
 70
     1
102
RTVSPropertyOp16
 70
     1
102
RTVSPropertyOp17
 70
     1
102
RTVSPropertyOp18
 70
     1
102
RTVSPropertyOp19
 70
     1
102
RTVSPropertyOp20
 70
     1
102
RTVSPropertyOp21
 70
     1
102
RTVSPropertyOp22
 70
     1
102
RTVSPropertyOp23
 70
     1
102
RTVSPropertyOp24
 70
     1
102
RTVSPropertyOp25
 70
     1
102
RTVSPropertyOp26
 70
     1
102
RTVSPropertyOp27
 70
     1
102
RTVSPropertyOp28
 70
     1
102
RTVSPropertyOp29
 70
     1
102
RTVSPropertyOp30
 70
     1
102
RTVSPropertyOp31
 70
     1
102
RTVSPropertyOp32
 70
     1
102
RTVSPropertyOp33
 70
     1
102
RTVSPropertyOp34
 70
     1
102
RTVSPropertyOp35
 70
     1
102
RTVSPropertyOp36
 70
     1
102
RTVSPropertyOp37
 70
     1
102
RTVSPropertyOp38
 70
     1
102
RTVSPropertyOp39
 70
     1
102
RTVSPropertyOp40
 70
     1
102
RTVSPropertyOp41
 70
     1
102
RTVSPropertyOp42
 70
     1
102
RTVSPropertyOp43
 70
     1
102
RTVSPropertyOp44
 70
     1
102
RTVSPropertyOp45
 70
     1
102
RTVSPropertyOp46
 70
     1
102
RTVSPropertyOp47
 70
     1
102
RTVSPropertyOp48
 70
     1
102
RTVSPropertyOp49
 70
     1
102
RTVSPropertyOp50
 70
     1
102
RTVSPropertyOp51
 70
     0
102
RTVSPropertyOp52
 70
     0
102
RTVSPropertyOp53
 70
     1
102
RTVSPropertyOp54
 70
     1
102
RTVSPropertyOp55
 70
     1
102
RTVSPropertyOp56
 70
     1
102
RTVSPropertyOp57
 70
     1
102
RTVSPropertyOp58
 70
     1
102
RTVSPropertyOp59
 70
     1
102
RTVSPropertyOp60
 70
     1
102
RTVSPropertyOp61
 70
     1
102
RTVSPropertyOp62
 70
     1
  0
XRECORD
  5
43F
102
{ACAD_REACTORS
330
43E
102
}
330
43E
100
AcDbXrecord
280
     1
102
RTVSPost2010Prop28
280
     0
102
RTVSPost2010PropOp28
 70
     1
102
RTVSPost2010Prop29
280
     1
102
RTVSPost2010PropOp29
 70
     1
102
RTVSPost2010Prop30
280
     1
102
RTVSPost2010PropOp30
 70
     1
102
RTVSPost2010Prop31
280
     0
102
RTVSPost2010PropOp31
 70
     1
102
RTVSPost2010Prop32
280
     0
102
RTVSPost2010PropOp32
 70
     1
102
RTVSPost2010Prop33
280
     0
102
RTVSPost2010PropOp33
 70
     1
102
RTVSPost2010Prop34
280
     0
102
RTVSPost2010PropOp34
 70
     1
102
RTVSPost2010Prop35
280
     0
102
RTVSPost2010PropOp35
 70
     1
102
RTVSPost2010Prop36
280
     0
102
RTVSPost2010PropOp36
 70
     1
102
RTVSPost2010Prop37
 90
       50
102
RTVSPost2010PropOp37
 70
     1
102
RTVSPost2010Prop38
140
0.0
102
RTVSPost2010PropOp38
 70
     1
102
RTVSPost2010Prop39
140
1.0
102
RTVSPost2010PropOp39
 70
     1
102
RTVSPost2010Prop40
 90
        0
102
RTVSPost2010PropOp40
 70
     1
102
RTVSPost2010Prop41ColorIndex
 90
       18
102
RTVSPost2010Prop41ColorRGB
 90
        0
102
RTVSPost2010PropOp41
 70
     1
102
RTVSPost2010Prop42
 90
       50
102
RTVSPost2010PropOp42
 70
     1
102
RTVSPost2010Prop43
 90
        3
102
RTVSPost2010PropOp43
 70
     1
102
RTVSPost2010Prop44ColorIndex
 90
        5
102
RTVSPost2010Prop44ColorRGB
 90
      255
102
RTVSPost2010PropOp44
 70
     1
102
RTVSPost2010Prop45
280
     0
102
RTVSPost2010PropOp45
 70
     1
102
RTVSPost2010Prop46
 90
       50
102
RTVSPost2010PropOp46
 70
     1
102
RTVSPost2010Prop47
 90
       50
102
RTVSPost2010PropOp47
 70
     1
102
RTVSPost2010Prop48
 90
       50
102
RTVSPost2010PropOp48
 70
     1
102
RTVSPost2010Prop49
280
     0
102
RTVSPost2010PropOp49
 70
     1
102
RTVSPost2010Prop50
 90
       50
102
RTVSPost2010PropOp50
 70
     1
102
RTVSPost2010Prop51ColorIndex
 90
      256
102
RTVSPost2010Prop51ColorRGB
 90
-16777216
102
RTVSPost2010PropOp51
 70
     0
102
RTVSPost2010Prop52
140
1.0
102
RTVSPost2010PropOp52
 70
     0
102
RTVSPost2010Prop53
 90
        2
102
RTVSPost2010PropOp53
 70
     1
102
RTVSPost2010Prop54
  1
strokes_ogs.tif
102
RTVSPost2010PropOp54
 70
     1
102
RTVSPost2010Prop55
280
     0
102
RTVSPost2010PropOp55
 70
     1
102
RTVSPost2010Prop56
140
1.0
102
RTVSPost2010PropOp56
 70
     1
102
RTVSPost2010Prop57
140
1.0
102
RTVSPost2010PropOp57
 70
     1
102
RTVSPropertyOp0
 70
     1
102
RTVSPropertyOp1
 70
     1
102
RTVSPropertyOp2
 70
     1
102
RTVSPropertyOp3
 70
     1
102
RTVSPropertyOp4
 70
     1
102
RTVSPropertyOp5
 70
     1
102
RTVSPropertyOp6
 70
     1
102
RTVSPropertyOp7
 70
     1
102
RTVSPropertyOp8
 70
     1
102
RTVSPropertyOp9
 70
     1
102
RTVSPropertyOp10
 70
     1
102
RTVSPropertyOp11
 70
     1
102
RTVSPropertyOp12
 70
     1
102
RTVSPropertyOp13
 70
     1
102
RTVSPropertyOp14
 70
     1
102
RTVSPropertyOp15
 70
     1
102
RTVSPropertyOp16
 70
     1
102
RTVSPropertyOp17
 70
     1
102
RTVSPropertyOp18
 70
     1
102
RTVSPropertyOp19
 70
     1
102
RTVSPropertyOp20
 70
     1
102
RTVSPropertyOp21
 70
     1
102
RTVSPropertyOp22
 70
     1
102
RTVSPropertyOp23
 70
     1
102
RTVSPropertyOp24
 70
     1
102
RTVSPropertyOp25
 70
     1
102
RTVSPropertyOp26
 70
     1
102
RTVSPropertyOp27
 70
     1
102
RTVSPropertyOp28
 70
     1
102
RTVSPropertyOp29
 70
     1
102
RTVSPropertyOp30
 70
     1
102
RTVSPropertyOp31
 70
     1
102
RTVSPropertyOp32
 70
     1
102
RTVSPropertyOp33
 70
     1
102
RTVSPropertyOp34
 70
     1
102
RTVSPropertyOp35
 70
     1
102
RTVSPropertyOp36
 70
     1
102
RTVSPropertyOp37
 70
     1
102
RTVSPropertyOp38
 70
     1
102
RTVSPropertyOp39
 70
     1
102
RTVSPropertyOp40
 70
     1
102
RTVSPropertyOp41
 70
     1
102
RTVSPropertyOp42
 70
     1
102
RTVSPropertyOp43
 70
     1
102
RTVSPropertyOp44
 70
     1
102
RTVSPropertyOp45
 70
     1
102
RTVSPropertyOp46
 70
     1
102
RTVSPropertyOp47
 70
     1
102
RTVSPropertyOp48
 70
     1
102
RTVSPropertyOp49
 70
     1
102
RTVSPropertyOp50
 70
     1
102
RTVSPropertyOp51
 70
     0
102
RTVSPropertyOp52
 70
     0
102
RTVSPropertyOp53
 70
     1
102
RTVSPropertyOp54
 70
     1
102
RTVSPropertyOp55
 70
     1
102
RTVSPropertyOp56
 70
     1
102
RTVSPropertyOp57
 70
     1
102
RTVSPropertyOp58
 70
     1
102
RTVSPropertyOp59
 70
     1
102
RTVSPropertyOp60
 70
     1
102
RTVSPropertyOp61
 70
     1
102
RTVSPropertyOp62
 70
     1
  0
XRECORD
  5
441
102
{ACAD_REACTORS
330
440
102
}
330
440
100
AcDbXrecord
280
     1
102
RTVSPost2010Prop28
280
     0
102
RTVSPost2010PropOp28
 70
     1
102
RTVSPost2010Prop29
280
     1
102
RTVSPost2010PropOp29
 70
     1
102
RTVSPost2010Prop30
280
     1
102
RTVSPost2010PropOp30
 70
     1
102
RTVSPost2010Prop31
280
     0
102
RTVSPost2010PropOp31
 70
     1
102
RTVSPost2010Prop32
280
     0
102
RTVSPost2010PropOp32
 70
     1
102
RTVSPost2010Prop33
280
     0
102
RTVSPost2010PropOp33
 70
     1
102
RTVSPost2010Prop34
280
     0
102
RTVSPost2010PropOp34
 70
     1
102
RTVSPost2010Prop35
280
     0
102
RTVSPost2010PropOp35
 70
     1
102
RTVSPost2010Prop36
280
     0
102
RTVSPost2010PropOp36
 70
     1
102
RTVSPost2010Prop37
 90
       50
102
RTVSPost2010PropOp37
 70
     1
102
RTVSPost2010Prop38
140
0.0
102
RTVSPost2010PropOp38
 70
     1
102
RTVSPost2010Prop39
140
1.0
102
RTVSPost2010PropOp39
 70
     1
102
RTVSPost2010Prop40
 90
        0
102
RTVSPost2010PropOp40
 70
     1
102
RTVSPost2010Prop41ColorIndex
 90
       18
102
RTVSPost2010Prop41ColorRGB
 90
        0
102
RTVSPost2010PropOp41
 70
     1
102
RTVSPost2010Prop42
 90
       50
102
RTVSPost2010PropOp42
 70
     1
102
RTVSPost2010Prop43
 90
        3
102
RTVSPost2010PropOp43
 70
     1
102
RTVSPost2010Prop44ColorIndex
 90
        5
102
RTVSPost2010Prop44ColorRGB
 90
      255
102
RTVSPost2010PropOp44
 70
     1
102
RTVSPost2010Prop45
280
     0
102
RTVSPost2010PropOp45
 70
     1
102
RTVSPost2010Prop46
 90
       50
102
RTVSPost2010PropOp46
 70
     1
102
RTVSPost2010Prop47
 90
       50
102
RTVSPost2010PropOp47
 70
     1
102
RTVSPost2010Prop48
 90
       50
102
RTVSPost2010PropOp48
 70
     1
102
RTVSPost2010Prop49
280
     0
102
RTVSPost2010PropOp49
 70
     1
102
RTVSPost2010Prop50
 90
       50
102
RTVSPost2010PropOp50
 70
     1
102
RTVSPost2010Prop51ColorIndex
 90
      256
102
RTVSPost2010Prop51ColorRGB
 90
-16777216
102
RTVSPost2010PropOp51
 70
     0
102
RTVSPost2010Prop52
140
1.0
102
RTVSPost2010PropOp52
 70
     0
102
RTVSPost2010Prop53
 90
        2
102
RTVSPost2010PropOp53
 70
     1
102
RTVSPost2010Prop54
  1
strokes_ogs.tif
102
RTVSPost2010PropOp54
 70
     1
102
RTVSPost2010Prop55
280
     0
102
RTVSPost2010PropOp55
 70
     1
102
RTVSPost2010Prop56
140
1.0
102
RTVSPost2010PropOp56
 70
     1
102
RTVSPost2010Prop57
140
1.0
102
RTVSPost2010PropOp57
 70
     1
102
RTVSPropertyOp0
 70
     1
102
RTVSPropertyOp1
 70
     1
102
RTVSPropertyOp2
 70
     1
102
RTVSPropertyOp3
 70
     1
102
RTVSPropertyOp4
 70
     1
102
RTVSPropertyOp5
 70
     1
102
RTVSPropertyOp6
 70
     1
102
RTVSPropertyOp7
 70
     1
102
RTVSPropertyOp8
 70
     1
102
RTVSPropertyOp9
 70
     1
102
RTVSPropertyOp10
 70
     1
102
RTVSPropertyOp11
 70
     1
102
RTVSPropertyOp12
 70
     1
102
RTVSPropertyOp13
 70
     1
102
RTVSPropertyOp14
 70
     1
102
RTVSPropertyOp15
 70
     1
102
RTVSPropertyOp16
 70
     1
102
RTVSPropertyOp17
 70
     1
102
RTVSPropertyOp18
 70
     1
102
RTVSPropertyOp19
 70
     1
102
RTVSPropertyOp20
 70
     1
102
RTVSPropertyOp21
 70
     1
102
RTVSPropertyOp22
 70
     1
102
RTVSPropertyOp23
 70
     1
102
RTVSPropertyOp24
 70
     1
102
RTVSPropertyOp25
 70
     1
102
RTVSPropertyOp26
 70
     1
102
RTVSPropertyOp27
 70
     1
102
RTVSPropertyOp28
 70
     1
102
RTVSPropertyOp29
 70
     1
102
RTVSPropertyOp30
 70
     1
102
RTVSPropertyOp31
 70
     1
102
RTVSPropertyOp32
 70
     1
102
RTVSPropertyOp33
 70
     1
102
RTVSPropertyOp34
 70
     1
102
RTVSPropertyOp35
 70
     1
102
RTVSPropertyOp36
 70
     1
102
RTVSPropertyOp37
 70
     1
102
RTVSPropertyOp38
 70
     1
102
RTVSPropertyOp39
 70
     1
102
RTVSPropertyOp40
 70
     1
102
RTVSPropertyOp41
 70
     1
102
RTVSPropertyOp42
 70
     1
102
RTVSPropertyOp43
 70
     1
102
RTVSPropertyOp44
 70
     1
102
RTVSPropertyOp45
 70
     1
102
RTVSPropertyOp46
 70
     1
102
RTVSPropertyOp47
 70
     1
102
RTVSPropertyOp48
 70
     1
102
RTVSPropertyOp49
 70
     1
102
RTVSPropertyOp50
 70
     1
102
RTVSPropertyOp51
 70
     0
102
RTVSPropertyOp52
 70
     0
102
RTVSPropertyOp53
 70
     1
102
RTVSPropertyOp54
 70
     1
102
RTVSPropertyOp55
 70
     1
102
RTVSPropertyOp56
 70
     1
102
RTVSPropertyOp57
 70
     1
102
RTVSPropertyOp58
 70
     1
102
RTVSPropertyOp59
 70
     1
102
RTVSPropertyOp60
 70
     1
102
RTVSPropertyOp61
 70
     1
102
RTVSPropertyOp62
 70
     1
  0
XRECORD
  5
451
102
{ACAD_REACTORS
330
450
102
}
330
450
100
AcDbXrecord
280
     1
102
RTVSPost2010Prop28
280
     0
102
RTVSPost2010PropOp28
 70
     0
102
RTVSPost2010Prop29
280
     1
102
RTVSPost2010PropOp29
 70
     0
102
RTVSPost2010Prop30
280
     1
102
RTVSPost2010PropOp30
 70
     0
102
RTVSPost2010Prop31
280
     0
102
RTVSPost2010PropOp31
 70
     0
102
RTVSPost2010Prop32
280
     0
102
RTVSPost2010PropOp32
 70
     0
102
RTVSPost2010Prop33
280
     0
102
RTVSPost2010PropOp33
 70
     0
102
RTVSPost2010Prop34
280
     0
102
RTVSPost2010PropOp34
 70
     0
102
RTVSPost2010Prop35
280
     0
102
RTVSPost2010PropOp35
 70
     0
102
RTVSPost2010Prop36
280
     0
102
RTVSPost2010PropOp36
 70
     0
102
RTVSPost2010Prop37
 90
       50
102
RTVSPost2010PropOp37
 70
     0
102
RTVSPost2010Prop38
140
0.0
102
RTVSPost2010PropOp38
 70
     0
102
RTVSPost2010Prop39
140
1.0
102
RTVSPost2010PropOp39
 70
     0
102
RTVSPost2010Prop40
 90
        0
102
RTVSPost2010PropOp40
 70
     0
102
RTVSPost2010Prop41ColorIndex
 90
       18
102
RTVSPost2010Prop41ColorRGB
 90
        0
102
RTVSPost2010PropOp41
 70
     0
102
RTVSPost2010Prop42
 90
       50
102
RTVSPost2010PropOp42
 70
     0
102
RTVSPost2010Prop43
 90
        3
102
RTVSPost2010PropOp43
 70
     0
102
RTVSPost2010Prop44ColorIndex
 90
        5
102
RTVSPost2010Prop44ColorRGB
 90
      255
102
RTVSPost2010PropOp44
 70
     0
102
RTVSPost2010Prop45
280
     0
102
RTVSPost2010PropOp45
 70
     0
102
RTVSPost2010Prop46
 90
       50
102
RTVSPost2010PropOp46
 70
     0
102
RTVSPost2010Prop47
 90
       50
102
RTVSPost2010PropOp47
 70
     0
102
RTVSPost2010Prop48
 90
       50
102
RTVSPost2010PropOp48
 70
     0
102
RTVSPost2010Prop49
280
     0
102
RTVSPost2010PropOp49
 70
     0
102
RTVSPost2010Prop50
 90
       50
102
RTVSPost2010PropOp50
 70
     0
102
RTVSPost2010Prop51ColorIndex
 90
      256
102
RTVSPost2010Prop51ColorRGB
 90
-16777216
102
RTVSPost2010PropOp51
 70
     0
102
RTVSPost2010Prop52
140
1.0
102
RTVSPost2010PropOp52
 70
     0
102
RTVSPost2010Prop53
 90
        2
102
RTVSPost2010PropOp53
 70
     0
102
RTVSPost2010Prop54
  1
strokes_ogs.tif
102
RTVSPost2010PropOp54
 70
     0
102
RTVSPost2010Prop55
280
     0
102
RTVSPost2010PropOp55
 70
     0
102
RTVSPost2010Prop56
140
1.0
102
RTVSPost2010PropOp56
 70
     0
102
RTVSPost2010Prop57
140
1.0
102
RTVSPost2010PropOp57
 70
     0
102
RTVSPropertyOp0
 70
     0
102
RTVSPropertyOp1
 70
     0
102
RTVSPropertyOp2
 70
     0
102
RTVSPropertyOp3
 70
     0
102
RTVSPropertyOp4
 70
     0
102
RTVSPropertyOp5
 70
     0
102
RTVSPropertyOp6
 70
     0
102
RTVSPropertyOp7
 70
     0
102
RTVSPropertyOp8
 70
     0
102
RTVSPropertyOp9
 70
     0
102
RTVSPropertyOp10
 70
     0
102
RTVSPropertyOp11
 70
     0
102
RTVSPropertyOp12
 70
     0
102
RTVSPropertyOp13
 70
     0
102
RTVSPropertyOp14
 70
     2
102
RTVSPropertyOp15
 70
     0
102
RTVSPropertyOp16
 70
     0
102
RTVSPropertyOp17
 70
     0
102
RTVSPropertyOp18
 70
     0
102
RTVSPropertyOp19
 70
     0
102
RTVSPropertyOp20
 70
     0
102
RTVSPropertyOp21
 70
     0
102
RTVSPropertyOp22
 70
     0
102
RTVSPropertyOp23
 70
     0
102
RTVSPropertyOp24
 70
     0
102
RTVSPropertyOp25
 70
     0
102
RTVSPropertyOp26
 70
     0
102
RTVSPropertyOp27
 70
     0
102
RTVSPropertyOp28
 70
     0
102
RTVSPropertyOp29
 70
     0
102
RTVSPropertyOp30
 70
     0
102
RTVSPropertyOp31
 70
     0
102
RTVSPropertyOp32
 70
     0
102
RTVSPropertyOp33
 70
     0
102
RTVSPropertyOp34
 70
     0
102
RTVSPropertyOp35
 70
     0
102
RTVSPropertyOp36
 70
     0
102
RTVSPropertyOp37
 70
     0
102
RTVSPropertyOp38
 70
     0
102
RTVSPropertyOp39
 70
     0
102
RTVSPropertyOp40
 70
     0
102
RTVSPropertyOp41
 70
     0
102
RTVSPropertyOp42
 70
     0
102
RTVSPropertyOp43
 70
     0
102
RTVSPropertyOp44
 70
     0
102
RTVSPropertyOp45
 70
     0
102
RTVSPropertyOp46
 70
     0
102
RTVSPropertyOp47
 70
     0
102
RTVSPropertyOp48
 70
     0
102
RTVSPropertyOp49
 70
     0
102
RTVSPropertyOp50
 70
     0
102
RTVSPropertyOp51
 70
     0
102
RTVSPropertyOp52
 70
     0
102
RTVSPropertyOp53
 70
     0
102
RTVSPropertyOp54
 70
     0
102
RTVSPropertyOp55
 70
     0
102
RTVSPropertyOp56
 70
     0
102
RTVSPropertyOp57
 70
     0
102
RTVSPropertyOp58
 70
     1
102
RTVSPropertyOp59
 70
     1
102
RTVSPropertyOp60
 70
     1
102
RTVSPropertyOp61
 70
     1
102
RTVSPropertyOp62
 70
     1
  0
XRECORD
  5
449
102
{ACAD_REACTORS
330
448
102
}
330
448
100
AcDbXrecord
280
     1
102
RTVSPost2010Prop28
280
     0
102
RTVSPost2010PropOp28
 70
     1
102
RTVSPost2010Prop29
280
     1
102
RTVSPost2010PropOp29
 70
     1
102
RTVSPost2010Prop30
280
     1
102
RTVSPost2010PropOp30
 70
     1
102
RTVSPost2010Prop31
280
     0
102
RTVSPost2010PropOp31
 70
     1
102
RTVSPost2010Prop32
280
     0
102
RTVSPost2010PropOp32
 70
     1
102
RTVSPost2010Prop33
280
     0
102
RTVSPost2010PropOp33
 70
     1
102
RTVSPost2010Prop34
280
     0
102
RTVSPost2010PropOp34
 70
     1
102
RTVSPost2010Prop35
280
     0
102
RTVSPost2010PropOp35
 70
     1
102
RTVSPost2010Prop36
280
     0
102
RTVSPost2010PropOp36
 70
     1
102
RTVSPost2010Prop37
 90
       50
102
RTVSPost2010PropOp37
 70
     1
102
RTVSPost2010Prop38
140
0.0
102
RTVSPost2010PropOp38
 70
     1
102
RTVSPost2010Prop39
140
1.0
102
RTVSPost2010PropOp39
 70
     1
102
RTVSPost2010Prop40
 90
        0
102
RTVSPost2010PropOp40
 70
     1
102
RTVSPost2010Prop41ColorIndex
 90
       18
102
RTVSPost2010Prop41ColorRGB
 90
        0
102
RTVSPost2010PropOp41
 70
     1
102
RTVSPost2010Prop42
 90
       50
102
RTVSPost2010PropOp42
 70
     1
102
RTVSPost2010Prop43
 90
        3
102
RTVSPost2010PropOp43
 70
     1
102
RTVSPost2010Prop44ColorIndex
 90
        5
102
RTVSPost2010Prop44ColorRGB
 90
      255
102
RTVSPost2010PropOp44
 70
     1
102
RTVSPost2010Prop45
280
     0
102
RTVSPost2010PropOp45
 70
     1
102
RTVSPost2010Prop46
 90
       50
102
RTVSPost2010PropOp46
 70
     1
102
RTVSPost2010Prop47
 90
       50
102
RTVSPost2010PropOp47
 70
     1
102
RTVSPost2010Prop48
 90
       50
102
RTVSPost2010PropOp48
 70
     1
102
RTVSPost2010Prop49
280
     0
102
RTVSPost2010PropOp49
 70
     1
102
RTVSPost2010Prop50
 90
       50
102
RTVSPost2010PropOp50
 70
     1
102
RTVSPost2010Prop51ColorIndex
 90
      256
102
RTVSPost2010Prop51ColorRGB
 90
-16777216
102
RTVSPost2010PropOp51
 70
     0
102
RTVSPost2010Prop52
140
1.0
102
RTVSPost2010PropOp52
 70
     0
102
RTVSPost2010Prop53
 90
        2
102
RTVSPost2010PropOp53
 70
     1
102
RTVSPost2010Prop54
  1
strokes_ogs.tif
102
RTVSPost2010PropOp54
 70
     1
102
RTVSPost2010Prop55
280
     0
102
RTVSPost2010PropOp55
 70
     1
102
RTVSPost2010Prop56
140
1.0
102
RTVSPost2010PropOp56
 70
     1
102
RTVSPost2010Prop57
140
1.0
102
RTVSPost2010PropOp57
 70
     1
102
RTVSPropertyOp0
 70
     1
102
RTVSPropertyOp1
 70
     1
102
RTVSPropertyOp2
 70
     1
102
RTVSPropertyOp3
 70
     1
102
RTVSPropertyOp4
 70
     1
102
RTVSPropertyOp5
 70
     1
102
RTVSPropertyOp6
 70
     1
102
RTVSPropertyOp7
 70
     1
102
RTVSPropertyOp8
 70
     1
102
RTVSPropertyOp9
 70
     1
102
RTVSPropertyOp10
 70
     1
102
RTVSPropertyOp11
 70
     1
102
RTVSPropertyOp12
 70
     1
102
RTVSPropertyOp13
 70
     1
102
RTVSPropertyOp14
 70
     1
102
RTVSPropertyOp15
 70
     1
102
RTVSPropertyOp16
 70
     1
102
RTVSPropertyOp17
 70
     1
102
RTVSPropertyOp18
 70
     1
102
RTVSPropertyOp19
 70
     1
102
RTVSPropertyOp20
 70
     1
102
RTVSPropertyOp21
 70
     1
102
RTVSPropertyOp22
 70
     1
102
RTVSPropertyOp23
 70
     1
102
RTVSPropertyOp24
 70
     1
102
RTVSPropertyOp25
 70
     1
102
RTVSPropertyOp26
 70
     1
102
RTVSPropertyOp27
 70
     1
102
RTVSPropertyOp28
 70
     1
102
RTVSPropertyOp29
 70
     1
102
RTVSPropertyOp30
 70
     1
102
RTVSPropertyOp31
 70
     1
102
RTVSPropertyOp32
 70
     1
102
RTVSPropertyOp33
 70
     1
102
RTVSPropertyOp34
 70
     1
102
RTVSPropertyOp35
 70
     1
102
RTVSPropertyOp36
 70
     1
102
RTVSPropertyOp37
 70
     1
102
RTVSPropertyOp38
 70
     1
102
RTVSPropertyOp39
 70
     1
102
RTVSPropertyOp40
 70
     1
102
RTVSPropertyOp41
 70
     1
102
RTVSPropertyOp42
 70
     1
102
RTVSPropertyOp43
 70
     1
102
RTVSPropertyOp44
 70
     1
102
RTVSPropertyOp45
 70
     1
102
RTVSPropertyOp46
 70
     1
102
RTVSPropertyOp47
 70
     1
102
RTVSPropertyOp48
 70
     1
102
RTVSPropertyOp49
 70
     1
102
RTVSPropertyOp50
 70
     1
102
RTVSPropertyOp51
 70
     0
102
RTVSPropertyOp52
 70
     0
102
RTVSPropertyOp53
 70
     1
102
RTVSPropertyOp54
 70
     1
102
RTVSPropertyOp55
 70
     1
102
RTVSPropertyOp56
 70
     1
102
RTVSPropertyOp57
 70
     1
102
RTVSPropertyOp58
 70
     1
102
RTVSPropertyOp59
 70
     1
102
RTVSPropertyOp60
 70
     1
102
RTVSPropertyOp61
 70
     1
102
RTVSPropertyOp62
 70
     1
  0
XRECORD
  5
42D
102
{ACAD_REACTORS
330
42C
102
}
330
42C
100
AcDbXrecord
280
     1
102
RTVSPost2010Prop28
280
     0
102
RTVSPost2010PropOp28
 70
     1
102
RTVSPost2010Prop29
280
     1
102
RTVSPost2010PropOp29
 70
     1
102
RTVSPost2010Prop30
280
     1
102
RTVSPost2010PropOp30
 70
     1
102
RTVSPost2010Prop31
280
     0
102
RTVSPost2010PropOp31
 70
     1
102
RTVSPost2010Prop32
280
     0
102
RTVSPost2010PropOp32
 70
     1
102
RTVSPost2010Prop33
280
     0
102
RTVSPost2010PropOp33
 70
     1
102
RTVSPost2010Prop34
280
     0
102
RTVSPost2010PropOp34
 70
     1
102
RTVSPost2010Prop35
280
     0
102
RTVSPost2010PropOp35
 70
     1
102
RTVSPost2010Prop36
280
     0
102
RTVSPost2010PropOp36
 70
     1
102
RTVSPost2010Prop37
 90
       50
102
RTVSPost2010PropOp37
 70
     1
102
RTVSPost2010Prop38
140
0.0
102
RTVSPost2010PropOp38
 70
     1
102
RTVSPost2010Prop39
140
1.0
102
RTVSPost2010PropOp39
 70
     1
102
RTVSPost2010Prop40
 90
        0
102
RTVSPost2010PropOp40
 70
     1
102
RTVSPost2010Prop41ColorIndex
 90
       18
102
RTVSPost2010Prop41ColorRGB
 90
        0
102
RTVSPost2010PropOp41
 70
     1
102
RTVSPost2010Prop42
 90
       50
102
RTVSPost2010PropOp42
 70
     1
102
RTVSPost2010Prop43
 90
        3
102
RTVSPost2010PropOp43
 70
     1
102
RTVSPost2010Prop44ColorIndex
 90
        5
102
RTVSPost2010Prop44ColorRGB
 90
      255
102
RTVSPost2010PropOp44
 70
     1
102
RTVSPost2010Prop45
280
     0
102
RTVSPost2010PropOp45
 70
     1
102
RTVSPost2010Prop46
 90
       50
102
RTVSPost2010PropOp46
 70
     1
102
RTVSPost2010Prop47
 90
       50
102
RTVSPost2010PropOp47
 70
     1
102
RTVSPost2010Prop48
 90
       50
102
RTVSPost2010PropOp48
 70
     1
102
RTVSPost2010Prop49
280
     0
102
RTVSPost2010PropOp49
 70
     1
102
RTVSPost2010Prop50
 90
       50
102
RTVSPost2010PropOp50
 70
     1
102
RTVSPost2010Prop51ColorIndex
 90
      256
102
RTVSPost2010Prop51ColorRGB
 90
-16777216
102
RTVSPost2010PropOp51
 70
     0
102
RTVSPost2010Prop52
140
1.0
102
RTVSPost2010PropOp52
 70
     0
102
RTVSPost2010Prop53
 90
        2
102
RTVSPost2010PropOp53
 70
     1
102
RTVSPost2010Prop54
  1
strokes_ogs.tif
102
RTVSPost2010PropOp54
 70
     1
102
RTVSPost2010Prop55
280
     0
102
RTVSPost2010PropOp55
 70
     1
102
RTVSPost2010Prop56
140
1.0
102
RTVSPost2010PropOp56
 70
     1
102
RTVSPost2010Prop57
140
1.0
102
RTVSPost2010PropOp57
 70
     1
102
RTVSPropertyOp0
 70
     1
102
RTVSPropertyOp1
 70
     1
102
RTVSPropertyOp2
 70
     1
102
RTVSPropertyOp3
 70
     1
102
RTVSPropertyOp4
 70
     1
102
RTVSPropertyOp5
 70
     1
102
RTVSPropertyOp6
 70
     1
102
RTVSPropertyOp7
 70
     1
102
RTVSPropertyOp8
 70
     1
102
RTVSPropertyOp9
 70
     1
102
RTVSPropertyOp10
 70
     1
102
RTVSPropertyOp11
 70
     1
102
RTVSPropertyOp12
 70
     1
102
RTVSPropertyOp13
 70
     1
102
RTVSPropertyOp14
 70
     1
102
RTVSPropertyOp15
 70
     1
102
RTVSPropertyOp16
 70
     1
102
RTVSPropertyOp17
 70
     1
102
RTVSPropertyOp18
 70
     1
102
RTVSPropertyOp19
 70
     1
102
RTVSPropertyOp20
 70
     1
102
RTVSPropertyOp21
 70
     1
102
RTVSPropertyOp22
 70
     1
102
RTVSPropertyOp23
 70
     1
102
RTVSPropertyOp24
 70
     1
102
RTVSPropertyOp25
 70
     1
102
RTVSPropertyOp26
 70
     1
102
RTVSPropertyOp27
 70
     1
102
RTVSPropertyOp28
 70
     1
102
RTVSPropertyOp29
 70
     1
102
RTVSPropertyOp30
 70
     1
102
RTVSPropertyOp31
 70
     1
102
RTVSPropertyOp32
 70
     1
102
RTVSPropertyOp33
 70
     1
102
RTVSPropertyOp34
 70
     1
102
RTVSPropertyOp35
 70
     1
102
RTVSPropertyOp36
 70
     1
102
RTVSPropertyOp37
 70
     1
102
RTVSPropertyOp38
 70
     1
102
RTVSPropertyOp39
 70
     1
102
RTVSPropertyOp40
 70
     1
102
RTVSPropertyOp41
 70
     1
102
RTVSPropertyOp42
 70
     1
102
RTVSPropertyOp43
 70
     1
102
RTVSPropertyOp44
 70
     1
102
RTVSPropertyOp45
 70
     1
102
RTVSPropertyOp46
 70
     1
102
RTVSPropertyOp47
 70
     1
102
RTVSPropertyOp48
 70
     1
102
RTVSPropertyOp49
 70
     1
102
RTVSPropertyOp50
 70
     1
102
RTVSPropertyOp51
 70
     0
102
RTVSPropertyOp52
 70
     0
102
RTVSPropertyOp53
 70
     1
102
RTVSPropertyOp54
 70
     1
102
RTVSPropertyOp55
 70
     1
102
RTVSPropertyOp56
 70
     1
102
RTVSPropertyOp57
 70
     1
102
RTVSPropertyOp58
 70
     1
102
RTVSPropertyOp59
 70
     1
102
RTVSPropertyOp60
 70
     1
102
RTVSPropertyOp61
 70
     1
102
RTVSPropertyOp62
 70
     1
  0
XRECORD
  5
42F
102
{ACAD_REACTORS
330
42E
102
}
330
42E
100
AcDbXrecord
280
     1
102
RTVSPost2010Prop28
280
     0
102
RTVSPost2010PropOp28
 70
     1
102
RTVSPost2010Prop29
280
     1
102
RTVSPost2010PropOp29
 70
     1
102
RTVSPost2010Prop30
280
     1
102
RTVSPost2010PropOp30
 70
     1
102
RTVSPost2010Prop31
280
     0
102
RTVSPost2010PropOp31
 70
     1
102
RTVSPost2010Prop32
280
     0
102
RTVSPost2010PropOp32
 70
     1
102
RTVSPost2010Prop33
280
     0
102
RTVSPost2010PropOp33
 70
     1
102
RTVSPost2010Prop34
280
     0
102
RTVSPost2010PropOp34
 70
     1
102
RTVSPost2010Prop35
280
     0
102
RTVSPost2010PropOp35
 70
     1
102
RTVSPost2010Prop36
280
     0
102
RTVSPost2010PropOp36
 70
     1
102
RTVSPost2010Prop37
 90
       50
102
RTVSPost2010PropOp37
 70
     1
102
RTVSPost2010Prop38
140
0.0
102
RTVSPost2010PropOp38
 70
     1
102
RTVSPost2010Prop39
140
1.0
102
RTVSPost2010PropOp39
 70
     1
102
RTVSPost2010Prop40
 90
        0
102
RTVSPost2010PropOp40
 70
     1
102
RTVSPost2010Prop41ColorIndex
 90
       18
102
RTVSPost2010Prop41ColorRGB
 90
        0
102
RTVSPost2010PropOp41
 70
     1
102
RTVSPost2010Prop42
 90
       50
102
RTVSPost2010PropOp42
 70
     1
102
RTVSPost2010Prop43
 90
        3
102
RTVSPost2010PropOp43
 70
     1
102
RTVSPost2010Prop44ColorIndex
 90
        5
102
RTVSPost2010Prop44ColorRGB
 90
      255
102
RTVSPost2010PropOp44
 70
     1
102
RTVSPost2010Prop45
280
     0
102
RTVSPost2010PropOp45
 70
     1
102
RTVSPost2010Prop46
 90
       50
102
RTVSPost2010PropOp46
 70
     1
102
RTVSPost2010Prop47
 90
       50
102
RTVSPost2010PropOp47
 70
     1
102
RTVSPost2010Prop48
 90
       50
102
RTVSPost2010PropOp48
 70
     1
102
RTVSPost2010Prop49
280
     0
102
RTVSPost2010PropOp49
 70
     1
102
RTVSPost2010Prop50
 90
       50
102
RTVSPost2010PropOp50
 70
     1
102
RTVSPost2010Prop51ColorIndex
 90
      256
102
RTVSPost2010Prop51ColorRGB
 90
-16777216
102
RTVSPost2010PropOp51
 70
     0
102
RTVSPost2010Prop52
140
1.0
102
RTVSPost2010PropOp52
 70
     0
102
RTVSPost2010Prop53
 90
        2
102
RTVSPost2010PropOp53
 70
     1
102
RTVSPost2010Prop54
  1
strokes_ogs.tif
102
RTVSPost2010PropOp54
 70
     1
102
RTVSPost2010Prop55
280
     0
102
RTVSPost2010PropOp55
 70
     1
102
RTVSPost2010Prop56
140
1.0
102
RTVSPost2010PropOp56
 70
     1
102
RTVSPost2010Prop57
140
1.0
102
RTVSPost2010PropOp57
 70
     1
102
RTVSPropertyOp0
 70
     1
102
RTVSPropertyOp1
 70
     1
102
RTVSPropertyOp2
 70
     1
102
RTVSPropertyOp3
 70
     1
102
RTVSPropertyOp4
 70
     1
102
RTVSPropertyOp5
 70
     1
102
RTVSPropertyOp6
 70
     1
102
RTVSPropertyOp7
 70
     1
102
RTVSPropertyOp8
 70
     1
102
RTVSPropertyOp9
 70
     1
102
RTVSPropertyOp10
 70
     1
102
RTVSPropertyOp11
 70
     1
102
RTVSPropertyOp12
 70
     1
102
RTVSPropertyOp13
 70
     1
102
RTVSPropertyOp14
 70
     1
102
RTVSPropertyOp15
 70
     1
102
RTVSPropertyOp16
 70
     1
102
RTVSPropertyOp17
 70
     1
102
RTVSPropertyOp18
 70
     1
102
RTVSPropertyOp19
 70
     1
102
RTVSPropertyOp20
 70
     1
102
RTVSPropertyOp21
 70
     1
102
RTVSPropertyOp22
 70
     1
102
RTVSPropertyOp23
 70
     1
102
RTVSPropertyOp24
 70
     1
102
RTVSPropertyOp25
 70
     1
102
RTVSPropertyOp26
 70
     1
102
RTVSPropertyOp27
 70
     1
102
RTVSPropertyOp28
 70
     1
102
RTVSPropertyOp29
 70
     1
102
RTVSPropertyOp30
 70
     1
102
RTVSPropertyOp31
 70
     1
102
RTVSPropertyOp32
 70
     1
102
RTVSPropertyOp33
 70
     1
102
RTVSPropertyOp34
 70
     1
102
RTVSPropertyOp35
 70
     1
102
RTVSPropertyOp36
 70
     1
102
RTVSPropertyOp37
 70
     1
102
RTVSPropertyOp38
 70
     1
102
RTVSPropertyOp39
 70
     1
102
RTVSPropertyOp40
 70
     1
102
RTVSPropertyOp41
 70
     1
102
RTVSPropertyOp42
 70
     1
102
RTVSPropertyOp43
 70
     1
102
RTVSPropertyOp44
 70
     1
102
RTVSPropertyOp45
 70
     1
102
RTVSPropertyOp46
 70
     1
102
RTVSPropertyOp47
 70
     1
102
RTVSPropertyOp48
 70
     1
102
RTVSPropertyOp49
 70
     1
102
RTVSPropertyOp50
 70
     1
102
RTVSPropertyOp51
 70
     0
102
RTVSPropertyOp52
 70
     0
102
RTVSPropertyOp53
 70
     1
102
RTVSPropertyOp54
 70
     1
102
RTVSPropertyOp55
 70
     1
102
RTVSPropertyOp56
 70
     1
102
RTVSPropertyOp57
 70
     1
102
RTVSPropertyOp58
 70
     1
102
RTVSPropertyOp59
 70
     1
102
RTVSPropertyOp60
 70
     1
102
RTVSPropertyOp61
 70
     1
102
RTVSPropertyOp62
 70
     1
  0
XRECORD
  5
431
102
{ACAD_REACTORS
330
430
102
}
330
430
100
AcDbXrecord
280
     1
102
RTVSPost2010Prop28
280
     0
102
RTVSPost2010PropOp28
 70
     1
102
RTVSPost2010Prop29
280
     1
102
RTVSPost2010PropOp29
 70
     1
102
RTVSPost2010Prop30
280
     1
102
RTVSPost2010PropOp30
 70
     1
102
RTVSPost2010Prop31
280
     0
102
RTVSPost2010PropOp31
 70
     1
102
RTVSPost2010Prop32
280
     0
102
RTVSPost2010PropOp32
 70
     1
102
RTVSPost2010Prop33
280
     0
102
RTVSPost2010PropOp33
 70
     1
102
RTVSPost2010Prop34
280
     0
102
RTVSPost2010PropOp34
 70
     1
102
RTVSPost2010Prop35
280
     0
102
RTVSPost2010PropOp35
 70
     1
102
RTVSPost2010Prop36
280
     0
102
RTVSPost2010PropOp36
 70
     1
102
RTVSPost2010Prop37
 90
       50
102
RTVSPost2010PropOp37
 70
     1
102
RTVSPost2010Prop38
140
0.0
102
RTVSPost2010PropOp38
 70
     1
102
RTVSPost2010Prop39
140
1.0
102
RTVSPost2010PropOp39
 70
     1
102
RTVSPost2010Prop40
 90
        0
102
RTVSPost2010PropOp40
 70
     1
102
RTVSPost2010Prop41ColorIndex
 90
       18
102
RTVSPost2010Prop41ColorRGB
 90
        0
102
RTVSPost2010PropOp41
 70
     1
102
RTVSPost2010Prop42
 90
       50
102
RTVSPost2010PropOp42
 70
     1
102
RTVSPost2010Prop43
 90
        3
102
RTVSPost2010PropOp43
 70
     1
102
RTVSPost2010Prop44ColorIndex
 90
        5
102
RTVSPost2010Prop44ColorRGB
 90
      255
102
RTVSPost2010PropOp44
 70
     1
102
RTVSPost2010Prop45
280
     0
102
RTVSPost2010PropOp45
 70
     1
102
RTVSPost2010Prop46
 90
       50
102
RTVSPost2010PropOp46
 70
     1
102
RTVSPost2010Prop47
 90
       50
102
RTVSPost2010PropOp47
 70
     1
102
RTVSPost2010Prop48
 90
       50
102
RTVSPost2010PropOp48
 70
     1
102
RTVSPost2010Prop49
280
     0
102
RTVSPost2010PropOp49
 70
     1
102
RTVSPost2010Prop50
 90
       50
102
RTVSPost2010PropOp50
 70
     1
102
RTVSPost2010Prop51ColorIndex
 90
      256
102
RTVSPost2010Prop51ColorRGB
 90
-16777216
102
RTVSPost2010PropOp51
 70
     0
102
RTVSPost2010Prop52
140
1.0
102
RTVSPost2010PropOp52
 70
     0
102
RTVSPost2010Prop53
 90
        2
102
RTVSPost2010PropOp53
 70
     1
102
RTVSPost2010Prop54
  1
strokes_ogs.tif
102
RTVSPost2010PropOp54
 70
     1
102
RTVSPost2010Prop55
280
     0
102
RTVSPost2010PropOp55
 70
     1
102
RTVSPost2010Prop56
140
1.0
102
RTVSPost2010PropOp56
 70
     1
102
RTVSPost2010Prop57
140
1.0
102
RTVSPost2010PropOp57
 70
     1
102
RTVSPropertyOp0
 70
     1
102
RTVSPropertyOp1
 70
     1
102
RTVSPropertyOp2
 70
     1
102
RTVSPropertyOp3
 70
     1
102
RTVSPropertyOp4
 70
     1
102
RTVSPropertyOp5
 70
     1
102
RTVSPropertyOp6
 70
     1
102
RTVSPropertyOp7
 70
     1
102
RTVSPropertyOp8
 70
     1
102
RTVSPropertyOp9
 70
     1
102
RTVSPropertyOp10
 70
     1
102
RTVSPropertyOp11
 70
     1
102
RTVSPropertyOp12
 70
     1
102
RTVSPropertyOp13
 70
     1
102
RTVSPropertyOp14
 70
     1
102
RTVSPropertyOp15
 70
     1
102
RTVSPropertyOp16
 70
     1
102
RTVSPropertyOp17
 70
     1
102
RTVSPropertyOp18
 70
     1
102
RTVSPropertyOp19
 70
     1
102
RTVSPropertyOp20
 70
     1
102
RTVSPropertyOp21
 70
     1
102
RTVSPropertyOp22
 70
     1
102
RTVSPropertyOp23
 70
     1
102
RTVSPropertyOp24
 70
     1
102
RTVSPropertyOp25
 70
     1
102
RTVSPropertyOp26
 70
     1
102
RTVSPropertyOp27
 70
     1
102
RTVSPropertyOp28
 70
     1
102
RTVSPropertyOp29
 70
     1
102
RTVSPropertyOp30
 70
     1
102
RTVSPropertyOp31
 70
     1
102
RTVSPropertyOp32
 70
     1
102
RTVSPropertyOp33
 70
     1
102
RTVSPropertyOp34
 70
     1
102
RTVSPropertyOp35
 70
     1
102
RTVSPropertyOp36
 70
     1
102
RTVSPropertyOp37
 70
     1
102
RTVSPropertyOp38
 70
     1
102
RTVSPropertyOp39
 70
     1
102
RTVSPropertyOp40
 70
     1
102
RTVSPropertyOp41
 70
     1
102
RTVSPropertyOp42
 70
     1
102
RTVSPropertyOp43
 70
     1
102
RTVSPropertyOp44
 70
     1
102
RTVSPropertyOp45
 70
     1
102
RTVSPropertyOp46
 70
     1
102
RTVSPropertyOp47
 70
     1
102
RTVSPropertyOp48
 70
     1
102
RTVSPropertyOp49
 70
     1
102
RTVSPropertyOp50
 70
     1
102
RTVSPropertyOp51
 70
     0
102
RTVSPropertyOp52
 70
     0
102
RTVSPropertyOp53
 70
     1
102
RTVSPropertyOp54
 70
     1
102
RTVSPropertyOp55
 70
     1
102
RTVSPropertyOp56
 70
     1
102
RTVSPropertyOp57
 70
     1
102
RTVSPropertyOp58
 70
     1
102
RTVSPropertyOp59
 70
     1
102
RTVSPropertyOp60
 70
     1
102
RTVSPropertyOp61
 70
     1
102
RTVSPropertyOp62
 70
     1
  0
XRECORD
  5
433
102
{ACAD_REACTORS
330
432
102
}
330
432
100
AcDbXrecord
280
     1
102
RTVSPost2010Prop28
280
     0
102
RTVSPost2010PropOp28
 70
     1
102
RTVSPost2010Prop29
280
     1
102
RTVSPost2010PropOp29
 70
     1
102
RTVSPost2010Prop30
280
     1
102
RTVSPost2010PropOp30
 70
     1
102
RTVSPost2010Prop31
280
     0
102
RTVSPost2010PropOp31
 70
     1
102
RTVSPost2010Prop32
280
     0
102
RTVSPost2010PropOp32
 70
     1
102
RTVSPost2010Prop33
280
     0
102
RTVSPost2010PropOp33
 70
     1
102
RTVSPost2010Prop34
280
     0
102
RTVSPost2010PropOp34
 70
     1
102
RTVSPost2010Prop35
280
     0
102
RTVSPost2010PropOp35
 70
     1
102
RTVSPost2010Prop36
280
     0
102
RTVSPost2010PropOp36
 70
     1
102
RTVSPost2010Prop37
 90
       50
102
RTVSPost2010PropOp37
 70
     1
102
RTVSPost2010Prop38
140
0.0
102
RTVSPost2010PropOp38
 70
     1
102
RTVSPost2010Prop39
140
1.0
102
RTVSPost2010PropOp39
 70
     1
102
RTVSPost2010Prop40
 90
        0
102
RTVSPost2010PropOp40
 70
     1
102
RTVSPost2010Prop41ColorIndex
 90
       18
102
RTVSPost2010Prop41ColorRGB
 90
        0
102
RTVSPost2010PropOp41
 70
     1
102
RTVSPost2010Prop42
 90
       50
102
RTVSPost2010PropOp42
 70
     1
102
RTVSPost2010Prop43
 90
        3
102
RTVSPost2010PropOp43
 70
     1
102
RTVSPost2010Prop44ColorIndex
 90
        5
102
RTVSPost2010Prop44ColorRGB
 90
      255
102
RTVSPost2010PropOp44
 70
     1
102
RTVSPost2010Prop45
280
     0
102
RTVSPost2010PropOp45
 70
     1
102
RTVSPost2010Prop46
 90
       50
102
RTVSPost2010PropOp46
 70
     1
102
RTVSPost2010Prop47
 90
       50
102
RTVSPost2010PropOp47
 70
     1
102
RTVSPost2010Prop48
 90
       50
102
RTVSPost2010PropOp48
 70
     1
102
RTVSPost2010Prop49
280
     0
102
RTVSPost2010PropOp49
 70
     1
102
RTVSPost2010Prop50
 90
       50
102
RTVSPost2010PropOp50
 70
     1
102
RTVSPost2010Prop51ColorIndex
 90
      256
102
RTVSPost2010Prop51ColorRGB
 90
-16777216
102
RTVSPost2010PropOp51
 70
     0
102
RTVSPost2010Prop52
140
1.0
102
RTVSPost2010PropOp52
 70
     0
102
RTVSPost2010Prop53
 90
        2
102
RTVSPost2010PropOp53
 70
     1
102
RTVSPost2010Prop54
  1
strokes_ogs.tif
102
RTVSPost2010PropOp54
 70
     1
102
RTVSPost2010Prop55
280
     0
102
RTVSPost2010PropOp55
 70
     1
102
RTVSPost2010Prop56
140
1.0
102
RTVSPost2010PropOp56
 70
     1
102
RTVSPost2010Prop57
140
1.0
102
RTVSPost2010PropOp57
 70
     1
102
RTVSPropertyOp0
 70
     1
102
RTVSPropertyOp1
 70
     1
102
RTVSPropertyOp2
 70
     1
102
RTVSPropertyOp3
 70
     1
102
RTVSPropertyOp4
 70
     1
102
RTVSPropertyOp5
 70
     1
102
RTVSPropertyOp6
 70
     1
102
RTVSPropertyOp7
 70
     1
102
RTVSPropertyOp8
 70
     1
102
RTVSPropertyOp9
 70
     1
102
RTVSPropertyOp10
 70
     1
102
RTVSPropertyOp11
 70
     1
102
RTVSPropertyOp12
 70
     1
102
RTVSPropertyOp13
 70
     1
102
RTVSPropertyOp14
 70
     1
102
RTVSPropertyOp15
 70
     1
102
RTVSPropertyOp16
 70
     1
102
RTVSPropertyOp17
 70
     1
102
RTVSPropertyOp18
 70
     1
102
RTVSPropertyOp19
 70
     1
102
RTVSPropertyOp20
 70
     1
102
RTVSPropertyOp21
 70
     1
102
RTVSPropertyOp22
 70
     1
102
RTVSPropertyOp23
 70
     1
102
RTVSPropertyOp24
 70
     1
102
RTVSPropertyOp25
 70
     1
102
RTVSPropertyOp26
 70
     1
102
RTVSPropertyOp27
 70
     1
102
RTVSPropertyOp28
 70
     1
102
RTVSPropertyOp29
 70
     1
102
RTVSPropertyOp30
 70
     1
102
RTVSPropertyOp31
 70
     1
102
RTVSPropertyOp32
 70
     1
102
RTVSPropertyOp33
 70
     1
102
RTVSPropertyOp34
 70
     1
102
RTVSPropertyOp35
 70
     1
102
RTVSPropertyOp36
 70
     1
102
RTVSPropertyOp37
 70
     1
102
RTVSPropertyOp38
 70
     1
102
RTVSPropertyOp39
 70
     1
102
RTVSPropertyOp40
 70
     1
102
RTVSPropertyOp41
 70
     1
102
RTVSPropertyOp42
 70
     1
102
RTVSPropertyOp43
 70
     1
102
RTVSPropertyOp44
 70
     1
102
RTVSPropertyOp45
 70
     1
102
RTVSPropertyOp46
 70
     1
102
RTVSPropertyOp47
 70
     1
102
RTVSPropertyOp48
 70
     1
102
RTVSPropertyOp49
 70
     1
102
RTVSPropertyOp50
 70
     1
102
RTVSPropertyOp51
 70
     0
102
RTVSPropertyOp52
 70
     0
102
RTVSPropertyOp53
 70
     1
102
RTVSPropertyOp54
 70
     1
102
RTVSPropertyOp55
 70
     1
102
RTVSPropertyOp56
 70
     1
102
RTVSPropertyOp57
 70
     1
102
RTVSPropertyOp58
 70
     1
102
RTVSPropertyOp59
 70
     1
102
RTVSPropertyOp60
 70
     1
102
RTVSPropertyOp61
 70
     1
102
RTVSPropertyOp62
 70
     1
  0
XRECORD
  5
439
102
{ACAD_REACTORS
330
438
102
}
330
438
100
AcDbXrecord
280
     1
102
RTVSPost2010Prop28
280
     0
102
RTVSPost2010PropOp28
 70
     1
102
RTVSPost2010Prop29
280
     1
102
RTVSPost2010PropOp29
 70
     1
102
RTVSPost2010Prop30
280
     1
102
RTVSPost2010PropOp30
 70
     1
102
RTVSPost2010Prop31
280
     0
102
RTVSPost2010PropOp31
 70
     1
102
RTVSPost2010Prop32
280
     0
102
RTVSPost2010PropOp32
 70
     1
102
RTVSPost2010Prop33
280
     0
102
RTVSPost2010PropOp33
 70
     1
102
RTVSPost2010Prop34
280
     0
102
RTVSPost2010PropOp34
 70
     1
102
RTVSPost2010Prop35
280
     0
102
RTVSPost2010PropOp35
 70
     1
102
RTVSPost2010Prop36
280
     0
102
RTVSPost2010PropOp36
 70
     1
102
RTVSPost2010Prop37
 90
       50
102
RTVSPost2010PropOp37
 70
     1
102
RTVSPost2010Prop38
140
0.0
102
RTVSPost2010PropOp38
 70
     1
102
RTVSPost2010Prop39
140
1.0
102
RTVSPost2010PropOp39
 70
     1
102
RTVSPost2010Prop40
 90
        0
102
RTVSPost2010PropOp40
 70
     1
102
RTVSPost2010Prop41ColorIndex
 90
       18
102
RTVSPost2010Prop41ColorRGB
 90
        0
102
RTVSPost2010PropOp41
 70
     1
102
RTVSPost2010Prop42
 90
       50
102
RTVSPost2010PropOp42
 70
     1
102
RTVSPost2010Prop43
 90
        3
102
RTVSPost2010PropOp43
 70
     1
102
RTVSPost2010Prop44ColorIndex
 90
        5
102
RTVSPost2010Prop44ColorRGB
 90
      255
102
RTVSPost2010PropOp44
 70
     1
102
RTVSPost2010Prop45
280
     0
102
RTVSPost2010PropOp45
 70
     1
102
RTVSPost2010Prop46
 90
       50
102
RTVSPost2010PropOp46
 70
     1
102
RTVSPost2010Prop47
 90
       50
102
RTVSPost2010PropOp47
 70
     1
102
RTVSPost2010Prop48
 90
       50
102
RTVSPost2010PropOp48
 70
     1
102
RTVSPost2010Prop49
280
     0
102
RTVSPost2010PropOp49
 70
     1
102
RTVSPost2010Prop50
 90
       50
102
RTVSPost2010PropOp50
 70
     1
102
RTVSPost2010Prop51ColorIndex
 90
      256
102
RTVSPost2010Prop51ColorRGB
 90
-16777216
102
RTVSPost2010PropOp51
 70
     0
102
RTVSPost2010Prop52
140
1.0
102
RTVSPost2010PropOp52
 70
     0
102
RTVSPost2010Prop53
 90
        2
102
RTVSPost2010PropOp53
 70
     1
102
RTVSPost2010Prop54
  1
strokes_ogs.tif
102
RTVSPost2010PropOp54
 70
     1
102
RTVSPost2010Prop55
280
     0
102
RTVSPost2010PropOp55
 70
     1
102
RTVSPost2010Prop56
140
1.0
102
RTVSPost2010PropOp56
 70
     1
102
RTVSPost2010Prop57
140
1.0
102
RTVSPost2010PropOp57
 70
     1
102
RTVSPropertyOp0
 70
     1
102
RTVSPropertyOp1
 70
     1
102
RTVSPropertyOp2
 70
     1
102
RTVSPropertyOp3
 70
     1
102
RTVSPropertyOp4
 70
     1
102
RTVSPropertyOp5
 70
     1
102
RTVSPropertyOp6
 70
     1
102
RTVSPropertyOp7
 70
     1
102
RTVSPropertyOp8
 70
     1
102
RTVSPropertyOp9
 70
     1
102
RTVSPropertyOp10
 70
     1
102
RTVSPropertyOp11
 70
     1
102
RTVSPropertyOp12
 70
     1
102
RTVSPropertyOp13
 70
     1
102
RTVSPropertyOp14
 70
     1
102
RTVSPropertyOp15
 70
     1
102
RTVSPropertyOp16
 70
     1
102
RTVSPropertyOp17
 70
     1
102
RTVSPropertyOp18
 70
     1
102
RTVSPropertyOp19
 70
     1
102
RTVSPropertyOp20
 70
     1
102
RTVSPropertyOp21
 70
     1
102
RTVSPropertyOp22
 70
     1
102
RTVSPropertyOp23
 70
     1
102
RTVSPropertyOp24
 70
     1
102
RTVSPropertyOp25
 70
     1
102
RTVSPropertyOp26
 70
     1
102
RTVSPropertyOp27
 70
     1
102
RTVSPropertyOp28
 70
     1
102
RTVSPropertyOp29
 70
     1
102
RTVSPropertyOp30
 70
     1
102
RTVSPropertyOp31
 70
     1
102
RTVSPropertyOp32
 70
     1
102
RTVSPropertyOp33
 70
     1
102
RTVSPropertyOp34
 70
     1
102
RTVSPropertyOp35
 70
     1
102
RTVSPropertyOp36
 70
     1
102
RTVSPropertyOp37
 70
     1
102
RTVSPropertyOp38
 70
     1
102
RTVSPropertyOp39
 70
     1
102
RTVSPropertyOp40
 70
     1
102
RTVSPropertyOp41
 70
     1
102
RTVSPropertyOp42
 70
     1
102
RTVSPropertyOp43
 70
     1
102
RTVSPropertyOp44
 70
     1
102
RTVSPropertyOp45
 70
     1
102
RTVSPropertyOp46
 70
     1
102
RTVSPropertyOp47
 70
     1
102
RTVSPropertyOp48
 70
     1
102
RTVSPropertyOp49
 70
     1
102
RTVSPropertyOp50
 70
     1
102
RTVSPropertyOp51
 70
     0
102
RTVSPropertyOp52
 70
     0
102
RTVSPropertyOp53
 70
     1
102
RTVSPropertyOp54
 70
     1
102
RTVSPropertyOp55
 70
     1
102
RTVSPropertyOp56
 70
     1
102
RTVSPropertyOp57
 70
     1
102
RTVSPropertyOp58
 70
     1
102
RTVSPropertyOp59
 70
     1
102
RTVSPropertyOp60
 70
     1
102
RTVSPropertyOp61
 70
     1
102
RTVSPropertyOp62
 70
     1
  0
XRECORD
  5
44D
102
{ACAD_REACTORS
330
44C
102
}
330
44C
100
AcDbXrecord
280
     1
102
RTVSPost2010Prop28
280
     0
102
RTVSPost2010PropOp28
 70
     0
102
RTVSPost2010Prop29
280
     1
102
RTVSPost2010PropOp29
 70
     0
102
RTVSPost2010Prop30
280
     1
102
RTVSPost2010PropOp30
 70
     0
102
RTVSPost2010Prop31
280
     0
102
RTVSPost2010PropOp31
 70
     0
102
RTVSPost2010Prop32
280
     0
102
RTVSPost2010PropOp32
 70
     0
102
RTVSPost2010Prop33
280
     0
102
RTVSPost2010PropOp33
 70
     0
102
RTVSPost2010Prop34
280
     0
102
RTVSPost2010PropOp34
 70
     0
102
RTVSPost2010Prop35
280
     0
102
RTVSPost2010PropOp35
 70
     0
102
RTVSPost2010Prop36
280
     0
102
RTVSPost2010PropOp36
 70
     0
102
RTVSPost2010Prop37
 90
       50
102
RTVSPost2010PropOp37
 70
     0
102
RTVSPost2010Prop38
140
0.0
102
RTVSPost2010PropOp38
 70
     0
102
RTVSPost2010Prop39
140
1.0
102
RTVSPost2010PropOp39
 70
     0
102
RTVSPost2010Prop40
 90
        0
102
RTVSPost2010PropOp40
 70
     0
102
RTVSPost2010Prop41ColorIndex
 90
       18
102
RTVSPost2010Prop41ColorRGB
 90
        0
102
RTVSPost2010PropOp41
 70
     0
102
RTVSPost2010Prop42
 90
       50
102
RTVSPost2010PropOp42
 70
     0
102
RTVSPost2010Prop43
 90
        3
102
RTVSPost2010PropOp43
 70
     0
102
RTVSPost2010Prop44ColorIndex
 90
        5
102
RTVSPost2010Prop44ColorRGB
 90
      255
102
RTVSPost2010PropOp44
 70
     0
102
RTVSPost2010Prop45
280
     0
102
RTVSPost2010PropOp45
 70
     0
102
RTVSPost2010Prop46
 90
       50
102
RTVSPost2010PropOp46
 70
     0
102
RTVSPost2010Prop47
 90
       50
102
RTVSPost2010PropOp47
 70
     0
102
RTVSPost2010Prop48
 90
       50
102
RTVSPost2010PropOp48
 70
     0
102
RTVSPost2010Prop49
280
     0
102
RTVSPost2010PropOp49
 70
     0
102
RTVSPost2010Prop50
 90
       50
102
RTVSPost2010PropOp50
 70
     0
102
RTVSPost2010Prop51ColorIndex
 90
      256
102
RTVSPost2010Prop51ColorRGB
 90
-16777216
102
RTVSPost2010PropOp51
 70
     0
102
RTVSPost2010Prop52
140
1.0
102
RTVSPost2010PropOp52
 70
     0
102
RTVSPost2010Prop53
 90
        2
102
RTVSPost2010PropOp53
 70
     0
102
RTVSPost2010Prop54
  1
strokes_ogs.tif
102
RTVSPost2010PropOp54
 70
     0
102
RTVSPost2010Prop55
280
     0
102
RTVSPost2010PropOp55
 70
     0
102
RTVSPost2010Prop56
140
1.0
102
RTVSPost2010PropOp56
 70
     0
102
RTVSPost2010Prop57
140
1.0
102
RTVSPost2010PropOp57
 70
     0
102
RTVSPropertyOp0
 70
     0
102
RTVSPropertyOp1
 70
     0
102
RTVSPropertyOp2
 70
     0
102
RTVSPropertyOp3
 70
     0
102
RTVSPropertyOp4
 70
     0
102
RTVSPropertyOp5
 70
     0
102
RTVSPropertyOp6
 70
     0
102
RTVSPropertyOp7
 70
     0
102
RTVSPropertyOp8
 70
     0
102
RTVSPropertyOp9
 70
     0
102
RTVSPropertyOp10
 70
     0
102
RTVSPropertyOp11
 70
     0
102
RTVSPropertyOp12
 70
     0
102
RTVSPropertyOp13
 70
     0
102
RTVSPropertyOp14
 70
     2
102
RTVSPropertyOp15
 70
     0
102
RTVSPropertyOp16
 70
     0
102
RTVSPropertyOp17
 70
     0
102
RTVSPropertyOp18
 70
     0
102
RTVSPropertyOp19
 70
     0
102
RTVSPropertyOp20
 70
     0
102
RTVSPropertyOp21
 70
     0
102
RTVSPropertyOp22
 70
     0
102
RTVSPropertyOp23
 70
     0
102
RTVSPropertyOp24
 70
     0
102
RTVSPropertyOp25
 70
     0
102
RTVSPropertyOp26
 70
     0
102
RTVSPropertyOp27
 70
     0
102
RTVSPropertyOp28
 70
     0
102
RTVSPropertyOp29
 70
     0
102
RTVSPropertyOp30
 70
     0
102
RTVSPropertyOp31
 70
     0
102
RTVSPropertyOp32
 70
     0
102
RTVSPropertyOp33
 70
     0
102
RTVSPropertyOp34
 70
     0
102
RTVSPropertyOp35
 70
     0
102
RTVSPropertyOp36
 70
     0
102
RTVSPropertyOp37
 70
     0
102
RTVSPropertyOp38
 70
     0
102
RTVSPropertyOp39
 70
     0
102
RTVSPropertyOp40
 70
     0
102
RTVSPropertyOp41
 70
     0
102
RTVSPropertyOp42
 70
     0
102
RTVSPropertyOp43
 70
     0
102
RTVSPropertyOp44
 70
     0
102
RTVSPropertyOp45
 70
     0
102
RTVSPropertyOp46
 70
     0
102
RTVSPropertyOp47
 70
     0
102
RTVSPropertyOp48
 70
     0
102
RTVSPropertyOp49
 70
     0
102
RTVSPropertyOp50
 70
     0
102
RTVSPropertyOp51
 70
     0
102
RTVSPropertyOp52
 70
     0
102
RTVSPropertyOp53
 70
     0
102
RTVSPropertyOp54
 70
     0
102
RTVSPropertyOp55
 70
     0
102
RTVSPropertyOp56
 70
     0
102
RTVSPropertyOp57
 70
     0
102
RTVSPropertyOp58
 70
     1
102
RTVSPropertyOp59
 70
     1
102
RTVSPropertyOp60
 70
     1
102
RTVSPropertyOp61
 70
     1
102
RTVSPropertyOp62
 70
     1
  0
XRECORD
  5
447
102
{ACAD_REACTORS
330
446
102
}
330
446
100
AcDbXrecord
280
     1
102
RTVSPost2010Prop28
280
     0
102
RTVSPost2010PropOp28
 70
     1
102
RTVSPost2010Prop29
280
     1
102
RTVSPost2010PropOp29
 70
     1
102
RTVSPost2010Prop30
280
     1
102
RTVSPost2010PropOp30
 70
     1
102
RTVSPost2010Prop31
280
     0
102
RTVSPost2010PropOp31
 70
     1
102
RTVSPost2010Prop32
280
     0
102
RTVSPost2010PropOp32
 70
     1
102
RTVSPost2010Prop33
280
     0
102
RTVSPost2010PropOp33
 70
     1
102
RTVSPost2010Prop34
280
     0
102
RTVSPost2010PropOp34
 70
     1
102
RTVSPost2010Prop35
280
     0
102
RTVSPost2010PropOp35
 70
     1
102
RTVSPost2010Prop36
280
     0
102
RTVSPost2010PropOp36
 70
     1
102
RTVSPost2010Prop37
 90
       50
102
RTVSPost2010PropOp37
 70
     1
102
RTVSPost2010Prop38
140
0.0
102
RTVSPost2010PropOp38
 70
     1
102
RTVSPost2010Prop39
140
1.0
102
RTVSPost2010PropOp39
 70
     1
102
RTVSPost2010Prop40
 90
        0
102
RTVSPost2010PropOp40
 70
     1
102
RTVSPost2010Prop41ColorIndex
 90
       18
102
RTVSPost2010Prop41ColorRGB
 90
        0
102
RTVSPost2010PropOp41
 70
     1
102
RTVSPost2010Prop42
 90
       50
102
RTVSPost2010PropOp42
 70
     1
102
RTVSPost2010Prop43
 90
        3
102
RTVSPost2010PropOp43
 70
     1
102
RTVSPost2010Prop44ColorIndex
 90
        5
102
RTVSPost2010Prop44ColorRGB
 90
      255
102
RTVSPost2010PropOp44
 70
     1
102
RTVSPost2010Prop45
280
     0
102
RTVSPost2010PropOp45
 70
     1
102
RTVSPost2010Prop46
 90
       50
102
RTVSPost2010PropOp46
 70
     1
102
RTVSPost2010Prop47
 90
       50
102
RTVSPost2010PropOp47
 70
     1
102
RTVSPost2010Prop48
 90
       50
102
RTVSPost2010PropOp48
 70
     1
102
RTVSPost2010Prop49
280
     0
102
RTVSPost2010PropOp49
 70
     1
102
RTVSPost2010Prop50
 90
       50
102
RTVSPost2010PropOp50
 70
     1
102
RTVSPost2010Prop51ColorIndex
 90
      256
102
RTVSPost2010Prop51ColorRGB
 90
-16777216
102
RTVSPost2010PropOp51
 70
     0
102
RTVSPost2010Prop52
140
1.0
102
RTVSPost2010PropOp52
 70
     0
102
RTVSPost2010Prop53
 90
        2
102
RTVSPost2010PropOp53
 70
     1
102
RTVSPost2010Prop54
  1
strokes_ogs.tif
102
RTVSPost2010PropOp54
 70
     1
102
RTVSPost2010Prop55
280
     0
102
RTVSPost2010PropOp55
 70
     1
102
RTVSPost2010Prop56
140
1.0
102
RTVSPost2010PropOp56
 70
     1
102
RTVSPost2010Prop57
140
1.0
102
RTVSPost2010PropOp57
 70
     1
102
RTVSPropertyOp0
 70
     1
102
RTVSPropertyOp1
 70
     1
102
RTVSPropertyOp2
 70
     1
102
RTVSPropertyOp3
 70
     1
102
RTVSPropertyOp4
 70
     1
102
RTVSPropertyOp5
 70
     1
102
RTVSPropertyOp6
 70
     1
102
RTVSPropertyOp7
 70
     1
102
RTVSPropertyOp8
 70
     1
102
RTVSPropertyOp9
 70
     1
102
RTVSPropertyOp10
 70
     1
102
RTVSPropertyOp11
 70
     1
102
RTVSPropertyOp12
 70
     1
102
RTVSPropertyOp13
 70
     1
102
RTVSPropertyOp14
 70
     1
102
RTVSPropertyOp15
 70
     1
102
RTVSPropertyOp16
 70
     1
102
RTVSPropertyOp17
 70
     1
102
RTVSPropertyOp18
 70
     1
102
RTVSPropertyOp19
 70
     1
102
RTVSPropertyOp20
 70
     1
102
RTVSPropertyOp21
 70
     1
102
RTVSPropertyOp22
 70
     1
102
RTVSPropertyOp23
 70
     1
102
RTVSPropertyOp24
 70
     1
102
RTVSPropertyOp25
 70
     1
102
RTVSPropertyOp26
 70
     1
102
RTVSPropertyOp27
 70
     1
102
RTVSPropertyOp28
 70
     1
102
RTVSPropertyOp29
 70
     1
102
RTVSPropertyOp30
 70
     1
102
RTVSPropertyOp31
 70
     1
102
RTVSPropertyOp32
 70
     1
102
RTVSPropertyOp33
 70
     1
102
RTVSPropertyOp34
 70
     1
102
RTVSPropertyOp35
 70
     1
102
RTVSPropertyOp36
 70
     1
102
RTVSPropertyOp37
 70
     1
102
RTVSPropertyOp38
 70
     1
102
RTVSPropertyOp39
 70
     1
102
RTVSPropertyOp40
 70
     1
102
RTVSPropertyOp41
 70
     1
102
RTVSPropertyOp42
 70
     1
102
RTVSPropertyOp43
 70
     1
102
RTVSPropertyOp44
 70
     1
102
RTVSPropertyOp45
 70
     1
102
RTVSPropertyOp46
 70
     1
102
RTVSPropertyOp47
 70
     1
102
RTVSPropertyOp48
 70
     1
102
RTVSPropertyOp49
 70
     1
102
RTVSPropertyOp50
 70
     1
102
RTVSPropertyOp51
 70
     0
102
RTVSPropertyOp52
 70
     0
102
RTVSPropertyOp53
 70
     1
102
RTVSPropertyOp54
 70
     1
102
RTVSPropertyOp55
 70
     1
102
RTVSPropertyOp56
 70
     1
102
RTVSPropertyOp57
 70
     1
102
RTVSPropertyOp58
 70
     1
102
RTVSPropertyOp59
 70
     1
102
RTVSPropertyOp60
 70
     1
102
RTVSPropertyOp61
 70
     1
102
RTVSPropertyOp62
 70
     1
  0
XRECORD
  5
44F
102
{ACAD_REACTORS
330
44E
102
}
330
44E
100
AcDbXrecord
280
     1
102
RTVSPost2010Prop28
280
     0
102
RTVSPost2010PropOp28
 70
     0
102
RTVSPost2010Prop29
280
     1
102
RTVSPost2010PropOp29
 70
     0
102
RTVSPost2010Prop30
280
     1
102
RTVSPost2010PropOp30
 70
     0
102
RTVSPost2010Prop31
280
     0
102
RTVSPost2010PropOp31
 70
     0
102
RTVSPost2010Prop32
280
     0
102
RTVSPost2010PropOp32
 70
     0
102
RTVSPost2010Prop33
280
     0
102
RTVSPost2010PropOp33
 70
     0
102
RTVSPost2010Prop34
280
     0
102
RTVSPost2010PropOp34
 70
     0
102
RTVSPost2010Prop35
280
     0
102
RTVSPost2010PropOp35
 70
     0
102
RTVSPost2010Prop36
280
     0
102
RTVSPost2010PropOp36
 70
     0
102
RTVSPost2010Prop37
 90
       50
102
RTVSPost2010PropOp37
 70
     0
102
RTVSPost2010Prop38
140
0.0
102
RTVSPost2010PropOp38
 70
     0
102
RTVSPost2010Prop39
140
1.0
102
RTVSPost2010PropOp39
 70
     0
102
RTVSPost2010Prop40
 90
        0
102
RTVSPost2010PropOp40
 70
     0
102
RTVSPost2010Prop41ColorIndex
 90
       18
102
RTVSPost2010Prop41ColorRGB
 90
        0
102
RTVSPost2010PropOp41
 70
     0
102
RTVSPost2010Prop42
 90
       50
102
RTVSPost2010PropOp42
 70
     0
102
RTVSPost2010Prop43
 90
        3
102
RTVSPost2010PropOp43
 70
     0
102
RTVSPost2010Prop44ColorIndex
 90
        5
102
RTVSPost2010Prop44ColorRGB
 90
      255
102
RTVSPost2010PropOp44
 70
     0
102
RTVSPost2010Prop45
280
     0
102
RTVSPost2010PropOp45
 70
     0
102
RTVSPost2010Prop46
 90
       50
102
RTVSPost2010PropOp46
 70
     0
102
RTVSPost2010Prop47
 90
       50
102
RTVSPost2010PropOp47
 70
     0
102
RTVSPost2010Prop48
 90
       50
102
RTVSPost2010PropOp48
 70
     0
102
RTVSPost2010Prop49
280
     0
102
RTVSPost2010PropOp49
 70
     0
102
RTVSPost2010Prop50
 90
       50
102
RTVSPost2010PropOp50
 70
     0
102
RTVSPost2010Prop51ColorIndex
 90
      256
102
RTVSPost2010Prop51ColorRGB
 90
-16777216
102
RTVSPost2010PropOp51
 70
     0
102
RTVSPost2010Prop52
140
1.0
102
RTVSPost2010PropOp52
 70
     0
102
RTVSPost2010Prop53
 90
        2
102
RTVSPost2010PropOp53
 70
     0
102
RTVSPost2010Prop54
  1
strokes_ogs.tif
102
RTVSPost2010PropOp54
 70
     0
102
RTVSPost2010Prop55
280
     0
102
RTVSPost2010PropOp55
 70
     0
102
RTVSPost2010Prop56
140
1.0
102
RTVSPost2010PropOp56
 70
     0
102
RTVSPost2010Prop57
140
1.0
102
RTVSPost2010PropOp57
 70
     0
102
RTVSPropertyOp0
 70
     0
102
RTVSPropertyOp1
 70
     0
102
RTVSPropertyOp2
 70
     0
102
RTVSPropertyOp3
 70
     0
102
RTVSPropertyOp4
 70
     0
102
RTVSPropertyOp5
 70
     0
102
RTVSPropertyOp6
 70
     0
102
RTVSPropertyOp7
 70
     0
102
RTVSPropertyOp8
 70
     0
102
RTVSPropertyOp9
 70
     0
102
RTVSPropertyOp10
 70
     0
102
RTVSPropertyOp11
 70
     0
102
RTVSPropertyOp12
 70
     0
102
RTVSPropertyOp13
 70
     0
102
RTVSPropertyOp14
 70
     2
102
RTVSPropertyOp15
 70
     0
102
RTVSPropertyOp16
 70
     0
102
RTVSPropertyOp17
 70
     0
102
RTVSPropertyOp18
 70
     0
102
RTVSPropertyOp19
 70
     0
102
RTVSPropertyOp20
 70
     0
102
RTVSPropertyOp21
 70
     0
102
RTVSPropertyOp22
 70
     0
102
RTVSPropertyOp23
 70
     0
102
RTVSPropertyOp24
 70
     0
102
RTVSPropertyOp25
 70
     0
102
RTVSPropertyOp26
 70
     0
102
RTVSPropertyOp27
 70
     0
102
RTVSPropertyOp28
 70
     0
102
RTVSPropertyOp29
 70
     0
102
RTVSPropertyOp30
 70
     0
102
RTVSPropertyOp31
 70
     0
102
RTVSPropertyOp32
 70
     0
102
RTVSPropertyOp33
 70
     0
102
RTVSPropertyOp34
 70
     0
102
RTVSPropertyOp35
 70
     0
102
RTVSPropertyOp36
 70
     0
102
RTVSPropertyOp37
 70
     0
102
RTVSPropertyOp38
 70
     0
102
RTVSPropertyOp39
 70
     0
102
RTVSPropertyOp40
 70
     0
102
RTVSPropertyOp41
 70
     0
102
RTVSPropertyOp42
 70
     0
102
RTVSPropertyOp43
 70
     0
102
RTVSPropertyOp44
 70
     0
102
RTVSPropertyOp45
 70
     0
102
RTVSPropertyOp46
 70
     0
102
RTVSPropertyOp47
 70
     0
102
RTVSPropertyOp48
 70
     0
102
RTVSPropertyOp49
 70
     0
102
RTVSPropertyOp50
 70
     0
102
RTVSPropertyOp51
 70
     0
102
RTVSPropertyOp52
 70
     0
102
RTVSPropertyOp53
 70
     0
102
RTVSPropertyOp54
 70
     0
102
RTVSPropertyOp55
 70
     0
102
RTVSPropertyOp56
 70
     0
102
RTVSPropertyOp57
 70
     0
102
RTVSPropertyOp58
 70
     1
102
RTVSPropertyOp59
 70
     1
102
RTVSPropertyOp60
 70
     1
102
RTVSPropertyOp61
 70
     1
102
RTVSPropertyOp62
 70
     1
  0
XRECORD
  5
43D
102
{ACAD_REACTORS
330
43C
102
}
330
43C
100
AcDbXrecord
280
     1
102
RTVSPost2010Prop28
280
     0
102
RTVSPost2010PropOp28
 70
     1
102
RTVSPost2010Prop29
280
     1
102
RTVSPost2010PropOp29
 70
     1
102
RTVSPost2010Prop30
280
     1
102
RTVSPost2010PropOp30
 70
     1
102
RTVSPost2010Prop31
280
     0
102
RTVSPost2010PropOp31
 70
     1
102
RTVSPost2010Prop32
280
     0
102
RTVSPost2010PropOp32
 70
     1
102
RTVSPost2010Prop33
280
     0
102
RTVSPost2010PropOp33
 70
     1
102
RTVSPost2010Prop34
280
     0
102
RTVSPost2010PropOp34
 70
     1
102
RTVSPost2010Prop35
280
     0
102
RTVSPost2010PropOp35
 70
     1
102
RTVSPost2010Prop36
280
     0
102
RTVSPost2010PropOp36
 70
     1
102
RTVSPost2010Prop37
 90
       50
102
RTVSPost2010PropOp37
 70
     1
102
RTVSPost2010Prop38
140
0.0
102
RTVSPost2010PropOp38
 70
     1
102
RTVSPost2010Prop39
140
1.0
102
RTVSPost2010PropOp39
 70
     1
102
RTVSPost2010Prop40
 90
        0
102
RTVSPost2010PropOp40
 70
     1
102
RTVSPost2010Prop41ColorIndex
 90
       18
102
RTVSPost2010Prop41ColorRGB
 90
        0
102
RTVSPost2010PropOp41
 70
     1
102
RTVSPost2010Prop42
 90
       50
102
RTVSPost2010PropOp42
 70
     1
102
RTVSPost2010Prop43
 90
        3
102
RTVSPost2010PropOp43
 70
     1
102
RTVSPost2010Prop44ColorIndex
 90
        5
102
RTVSPost2010Prop44ColorRGB
 90
      255
102
RTVSPost2010PropOp44
 70
     1
102
RTVSPost2010Prop45
280
     0
102
RTVSPost2010PropOp45
 70
     1
102
RTVSPost2010Prop46
 90
       50
102
RTVSPost2010PropOp46
 70
     1
102
RTVSPost2010Prop47
 90
       50
102
RTVSPost2010PropOp47
 70
     1
102
RTVSPost2010Prop48
 90
       50
102
RTVSPost2010PropOp48
 70
     1
102
RTVSPost2010Prop49
280
     0
102
RTVSPost2010PropOp49
 70
     1
102
RTVSPost2010Prop50
 90
       50
102
RTVSPost2010PropOp50
 70
     1
102
RTVSPost2010Prop51ColorIndex
 90
      256
102
RTVSPost2010Prop51ColorRGB
 90
-16777216
102
RTVSPost2010PropOp51
 70
     0
102
RTVSPost2010Prop52
140
1.0
102
RTVSPost2010PropOp52
 70
     0
102
RTVSPost2010Prop53
 90
        2
102
RTVSPost2010PropOp53
 70
     1
102
RTVSPost2010Prop54
  1
strokes_ogs.tif
102
RTVSPost2010PropOp54
 70
     1
102
RTVSPost2010Prop55
280
     0
102
RTVSPost2010PropOp55
 70
     1
102
RTVSPost2010Prop56
140
1.0
102
RTVSPost2010PropOp56
 70
     1
102
RTVSPost2010Prop57
140
1.0
102
RTVSPost2010PropOp57
 70
     1
102
RTVSPropertyOp0
 70
     1
102
RTVSPropertyOp1
 70
     1
102
RTVSPropertyOp2
 70
     1
102
RTVSPropertyOp3
 70
     1
102
RTVSPropertyOp4
 70
     1
102
RTVSPropertyOp5
 70
     1
102
RTVSPropertyOp6
 70
     1
102
RTVSPropertyOp7
 70
     1
102
RTVSPropertyOp8
 70
     1
102
RTVSPropertyOp9
 70
     1
102
RTVSPropertyOp10
 70
     1
102
RTVSPropertyOp11
 70
     1
102
RTVSPropertyOp12
 70
     1
102
RTVSPropertyOp13
 70
     1
102
RTVSPropertyOp14
 70
     1
102
RTVSPropertyOp15
 70
     1
102
RTVSPropertyOp16
 70
     1
102
RTVSPropertyOp17
 70
     1
102
RTVSPropertyOp18
 70
     1
102
RTVSPropertyOp19
 70
     1
102
RTVSPropertyOp20
 70
     1
102
RTVSPropertyOp21
 70
     1
102
RTVSPropertyOp22
 70
     1
102
RTVSPropertyOp23
 70
     1
102
RTVSPropertyOp24
 70
     1
102
RTVSPropertyOp25
 70
     1
102
RTVSPropertyOp26
 70
     1
102
RTVSPropertyOp27
 70
     1
102
RTVSPropertyOp28
 70
     1
102
RTVSPropertyOp29
 70
     1
102
RTVSPropertyOp30
 70
     1
102
RTVSPropertyOp31
 70
     1
102
RTVSPropertyOp32
 70
     1
102
RTVSPropertyOp33
 70
     1
102
RTVSPropertyOp34
 70
     1
102
RTVSPropertyOp35
 70
     1
102
RTVSPropertyOp36
 70
     1
102
RTVSPropertyOp37
 70
     1
102
RTVSPropertyOp38
 70
     1
102
RTVSPropertyOp39
 70
     1
102
RTVSPropertyOp40
 70
     1
102
RTVSPropertyOp41
 70
     1
102
RTVSPropertyOp42
 70
     1
102
RTVSPropertyOp43
 70
     1
102
RTVSPropertyOp44
 70
     1
102
RTVSPropertyOp45
 70
     1
102
RTVSPropertyOp46
 70
     1
102
RTVSPropertyOp47
 70
     1
102
RTVSPropertyOp48
 70
     1
102
RTVSPropertyOp49
 70
     1
102
RTVSPropertyOp50
 70
     1
102
RTVSPropertyOp51
 70
     0
102
RTVSPropertyOp52
 70
     0
102
RTVSPropertyOp53
 70
     1
102
RTVSPropertyOp54
 70
     1
102
RTVSPropertyOp55
 70
     1
102
RTVSPropertyOp56
 70
     1
102
RTVSPropertyOp57
 70
     1
102
RTVSPropertyOp58
 70
     1
102
RTVSPropertyOp59
 70
     1
102
RTVSPropertyOp60
 70
     1
102
RTVSPropertyOp61
 70
     1
102
RTVSPropertyOp62
 70
     1
  0
XRECORD
  5
45B
102
{ACAD_REACTORS
330
45A
102
}
330
45A
100
AcDbXrecord
280
     1
102
RTVSPost2010Prop28
280
     0
102
RTVSPost2010PropOp28
 70
     1
102
RTVSPost2010Prop29
280
     1
102
RTVSPost2010PropOp29
 70
     1
102
RTVSPost2010Prop30
280
     1
102
RTVSPost2010PropOp30
 70
     1
102
RTVSPost2010Prop31
280
     0
102
RTVSPost2010PropOp31
 70
     1
102
RTVSPost2010Prop32
280
     0
102
RTVSPost2010PropOp32
 70
     1
102
RTVSPost2010Prop33
280
     0
102
RTVSPost2010PropOp33
 70
     1
102
RTVSPost2010Prop34
280
     0
102
RTVSPost2010PropOp34
 70
     1
102
RTVSPost2010Prop35
280
     0
102
RTVSPost2010PropOp35
 70
     1
102
RTVSPost2010Prop36
280
     0
102
RTVSPost2010PropOp36
 70
     1
102
RTVSPost2010Prop37
 90
       50
102
RTVSPost2010PropOp37
 70
     1
102
RTVSPost2010Prop38
140
0.0
102
RTVSPost2010PropOp38
 70
     1
102
RTVSPost2010Prop39
140
1.0
102
RTVSPost2010PropOp39
 70
     1
102
RTVSPost2010Prop40
 90
        0
102
RTVSPost2010PropOp40
 70
     1
102
RTVSPost2010Prop41ColorIndex
 90
       18
102
RTVSPost2010Prop41ColorRGB
 90
        0
102
RTVSPost2010PropOp41
 70
     1
102
RTVSPost2010Prop42
 90
       50
102
RTVSPost2010PropOp42
 70
     1
102
RTVSPost2010Prop43
 90
        3
102
RTVSPost2010PropOp43
 70
     1
102
RTVSPost2010Prop44ColorIndex
 90
        5
102
RTVSPost2010Prop44ColorRGB
 90
      255
102
RTVSPost2010PropOp44
 70
     1
102
RTVSPost2010Prop45
280
     0
102
RTVSPost2010PropOp45
 70
     1
102
RTVSPost2010Prop46
 90
       50
102
RTVSPost2010PropOp46
 70
     1
102
RTVSPost2010Prop47
 90
       50
102
RTVSPost2010PropOp47
 70
     1
102
RTVSPost2010Prop48
 90
       50
102
RTVSPost2010PropOp48
 70
     1
102
RTVSPost2010Prop49
280
     0
102
RTVSPost2010PropOp49
 70
     1
102
RTVSPost2010Prop50
 90
       50
102
RTVSPost2010PropOp50
 70
     1
102
RTVSPost2010Prop51ColorIndex
 90
      256
102
RTVSPost2010Prop51ColorRGB
 90
-16777216
102
RTVSPost2010PropOp51
 70
     0
102
RTVSPost2010Prop52
140
1.0
102
RTVSPost2010PropOp52
 70
     0
102
RTVSPost2010Prop53
 90
        2
102
RTVSPost2010PropOp53
 70
     1
102
RTVSPost2010Prop54
  1
strokes_ogs.tif
102
RTVSPost2010PropOp54
 70
     1
102
RTVSPost2010Prop55
280
     0
102
RTVSPost2010PropOp55
 70
     1
102
RTVSPost2010Prop56
140
1.0
102
RTVSPost2010PropOp56
 70
     1
102
RTVSPost2010Prop57
140
1.0
102
RTVSPost2010PropOp57
 70
     1
102
RTVSPropertyOp0
 70
     1
102
RTVSPropertyOp1
 70
     1
102
RTVSPropertyOp2
 70
     1
102
RTVSPropertyOp3
 70
     1
102
RTVSPropertyOp4
 70
     1
102
RTVSPropertyOp5
 70
     1
102
RTVSPropertyOp6
 70
     1
102
RTVSPropertyOp7
 70
     1
102
RTVSPropertyOp8
 70
     1
102
RTVSPropertyOp9
 70
     1
102
RTVSPropertyOp10
 70
     1
102
RTVSPropertyOp11
 70
     1
102
RTVSPropertyOp12
 70
     1
102
RTVSPropertyOp13
 70
     1
102
RTVSPropertyOp14
 70
     1
102
RTVSPropertyOp15
 70
     1
102
RTVSPropertyOp16
 70
     1
102
RTVSPropertyOp17
 70
     1
102
RTVSPropertyOp18
 70
     1
102
RTVSPropertyOp19
 70
     1
102
RTVSPropertyOp20
 70
     1
102
RTVSPropertyOp21
 70
     1
102
RTVSPropertyOp22
 70
     1
102
RTVSPropertyOp23
 70
     1
102
RTVSPropertyOp24
 70
     1
102
RTVSPropertyOp25
 70
     1
102
RTVSPropertyOp26
 70
     1
102
RTVSPropertyOp27
 70
     1
102
RTVSPropertyOp28
 70
     1
102
RTVSPropertyOp29
 70
     1
102
RTVSPropertyOp30
 70
     1
102
RTVSPropertyOp31
 70
     1
102
RTVSPropertyOp32
 70
     1
102
RTVSPropertyOp33
 70
     1
102
RTVSPropertyOp34
 70
     1
102
RTVSPropertyOp35
 70
     1
102
RTVSPropertyOp36
 70
     1
102
RTVSPropertyOp37
 70
     1
102
RTVSPropertyOp38
 70
     1
102
RTVSPropertyOp39
 70
     1
102
RTVSPropertyOp40
 70
     1
102
RTVSPropertyOp41
 70
     1
102
RTVSPropertyOp42
 70
     1
102
RTVSPropertyOp43
 70
     1
102
RTVSPropertyOp44
 70
     1
102
RTVSPropertyOp45
 70
     1
102
RTVSPropertyOp46
 70
     1
102
RTVSPropertyOp47
 70
     1
102
RTVSPropertyOp48
 70
     1
102
RTVSPropertyOp49
 70
     1
102
RTVSPropertyOp50
 70
     1
102
RTVSPropertyOp51
 70
     0
102
RTVSPropertyOp52
 70
     0
102
RTVSPropertyOp53
 70
     1
102
RTVSPropertyOp54
 70
     1
102
RTVSPropertyOp55
 70
     1
102
RTVSPropertyOp56
 70
     1
102
RTVSPropertyOp57
 70
     1
102
RTVSPropertyOp58
 70
     1
102
RTVSPropertyOp59
 70
     1
102
RTVSPropertyOp60
 70
     1
102
RTVSPropertyOp61
 70
     1
102
RTVSPropertyOp62
 70
     1
  0
XRECORD
  5
459
102
{ACAD_REACTORS
330
458
102
}
330
458
100
AcDbXrecord
280
     1
102
RTVSPost2010Prop28
280
     0
102
RTVSPost2010PropOp28
 70
     1
102
RTVSPost2010Prop29
280
     1
102
RTVSPost2010PropOp29
 70
     1
102
RTVSPost2010Prop30
280
     1
102
RTVSPost2010PropOp30
 70
     1
102
RTVSPost2010Prop31
280
     0
102
RTVSPost2010PropOp31
 70
     1
102
RTVSPost2010Prop32
280
     0
102
RTVSPost2010PropOp32
 70
     1
102
RTVSPost2010Prop33
280
     0
102
RTVSPost2010PropOp33
 70
     1
102
RTVSPost2010Prop34
280
     0
102
RTVSPost2010PropOp34
 70
     1
102
RTVSPost2010Prop35
280
     0
102
RTVSPost2010PropOp35
 70
     1
102
RTVSPost2010Prop36
280
     0
102
RTVSPost2010PropOp36
 70
     1
102
RTVSPost2010Prop37
 90
       50
102
RTVSPost2010PropOp37
 70
     1
102
RTVSPost2010Prop38
140
0.0
102
RTVSPost2010PropOp38
 70
     1
102
RTVSPost2010Prop39
140
1.0
102
RTVSPost2010PropOp39
 70
     1
102
RTVSPost2010Prop40
 90
        0
102
RTVSPost2010PropOp40
 70
     1
102
RTVSPost2010Prop41ColorIndex
 90
       18
102
RTVSPost2010Prop41ColorRGB
 90
        0
102
RTVSPost2010PropOp41
 70
     1
102
RTVSPost2010Prop42
 90
       50
102
RTVSPost2010PropOp42
 70
     1
102
RTVSPost2010Prop43
 90
        3
102
RTVSPost2010PropOp43
 70
     1
102
RTVSPost2010Prop44ColorIndex
 90
        5
102
RTVSPost2010Prop44ColorRGB
 90
      255
102
RTVSPost2010PropOp44
 70
     1
102
RTVSPost2010Prop45
280
     0
102
RTVSPost2010PropOp45
 70
     1
102
RTVSPost2010Prop46
 90
       50
102
RTVSPost2010PropOp46
 70
     1
102
RTVSPost2010Prop47
 90
       50
102
RTVSPost2010PropOp47
 70
     1
102
RTVSPost2010Prop48
 90
       50
102
RTVSPost2010PropOp48
 70
     1
102
RTVSPost2010Prop49
280
     0
102
RTVSPost2010PropOp49
 70
     1
102
RTVSPost2010Prop50
 90
       50
102
RTVSPost2010PropOp50
 70
     1
102
RTVSPost2010Prop51ColorIndex
 90
      256
102
RTVSPost2010Prop51ColorRGB
 90
-16777216
102
RTVSPost2010PropOp51
 70
     0
102
RTVSPost2010Prop52
140
1.0
102
RTVSPost2010PropOp52
 70
     0
102
RTVSPost2010Prop53
 90
        2
102
RTVSPost2010PropOp53
 70
     1
102
RTVSPost2010Prop54
  1
strokes_ogs.tif
102
RTVSPost2010PropOp54
 70
     1
102
RTVSPost2010Prop55
280
     0
102
RTVSPost2010PropOp55
 70
     1
102
RTVSPost2010Prop56
140
1.0
102
RTVSPost2010PropOp56
 70
     1
102
RTVSPost2010Prop57
140
1.0
102
RTVSPost2010PropOp57
 70
     1
102
RTVSPropertyOp0
 70
     1
102
RTVSPropertyOp1
 70
     1
102
RTVSPropertyOp2
 70
     1
102
RTVSPropertyOp3
 70
     1
102
RTVSPropertyOp4
 70
     1
102
RTVSPropertyOp5
 70
     1
102
RTVSPropertyOp6
 70
     1
102
RTVSPropertyOp7
 70
     1
102
RTVSPropertyOp8
 70
     1
102
RTVSPropertyOp9
 70
     1
102
RTVSPropertyOp10
 70
     1
102
RTVSPropertyOp11
 70
     1
102
RTVSPropertyOp12
 70
     1
102
RTVSPropertyOp13
 70
     1
102
RTVSPropertyOp14
 70
     1
102
RTVSPropertyOp15
 70
     1
102
RTVSPropertyOp16
 70
     1
102
RTVSPropertyOp17
 70
     1
102
RTVSPropertyOp18
 70
     1
102
RTVSPropertyOp19
 70
     1
102
RTVSPropertyOp20
 70
     1
102
RTVSPropertyOp21
 70
     1
102
RTVSPropertyOp22
 70
     1
102
RTVSPropertyOp23
 70
     1
102
RTVSPropertyOp24
 70
     1
102
RTVSPropertyOp25
 70
     1
102
RTVSPropertyOp26
 70
     1
102
RTVSPropertyOp27
 70
     1
102
RTVSPropertyOp28
 70
     1
102
RTVSPropertyOp29
 70
     1
102
RTVSPropertyOp30
 70
     1
102
RTVSPropertyOp31
 70
     1
102
RTVSPropertyOp32
 70
     1
102
RTVSPropertyOp33
 70
     1
102
RTVSPropertyOp34
 70
     1
102
RTVSPropertyOp35
 70
     1
102
RTVSPropertyOp36
 70
     1
102
RTVSPropertyOp37
 70
     1
102
RTVSPropertyOp38
 70
     1
102
RTVSPropertyOp39
 70
     1
102
RTVSPropertyOp40
 70
     1
102
RTVSPropertyOp41
 70
     1
102
RTVSPropertyOp42
 70
     1
102
RTVSPropertyOp43
 70
     1
102
RTVSPropertyOp44
 70
     1
102
RTVSPropertyOp45
 70
     1
102
RTVSPropertyOp46
 70
     1
102
RTVSPropertyOp47
 70
     1
102
RTVSPropertyOp48
 70
     1
102
RTVSPropertyOp49
 70
     1
102
RTVSPropertyOp50
 70
     1
102
RTVSPropertyOp51
 70
     0
102
RTVSPropertyOp52
 70
     0
102
RTVSPropertyOp53
 70
     1
102
RTVSPropertyOp54
 70
     1
102
RTVSPropertyOp55
 70
     1
102
RTVSPropertyOp56
 70
     1
102
RTVSPropertyOp57
 70
     1
102
RTVSPropertyOp58
 70
     1
102
RTVSPropertyOp59
 70
     1
102
RTVSPropertyOp60
 70
     1
102
RTVSPropertyOp61
 70
     1
102
RTVSPropertyOp62
 70
     1
  0
XRECORD
  5
453
102
{ACAD_REACTORS
330
452
102
}
330
452
100
AcDbXrecord
280
     1
102
RTVSPost2010Prop28
280
     0
102
RTVSPost2010PropOp28
 70
     1
102
RTVSPost2010Prop29
280
     1
102
RTVSPost2010PropOp29
 70
     1
102
RTVSPost2010Prop30
280
     1
102
RTVSPost2010PropOp30
 70
     1
102
RTVSPost2010Prop31
280
     0
102
RTVSPost2010PropOp31
 70
     1
102
RTVSPost2010Prop32
280
     0
102
RTVSPost2010PropOp32
 70
     1
102
RTVSPost2010Prop33
280
     0
102
RTVSPost2010PropOp33
 70
     1
102
RTVSPost2010Prop34
280
     0
102
RTVSPost2010PropOp34
 70
     1
102
RTVSPost2010Prop35
280
     0
102
RTVSPost2010PropOp35
 70
     1
102
RTVSPost2010Prop36
280
     0
102
RTVSPost2010PropOp36
 70
     1
102
RTVSPost2010Prop37
 90
       50
102
RTVSPost2010PropOp37
 70
     1
102
RTVSPost2010Prop38
140
0.0
102
RTVSPost2010PropOp38
 70
     1
102
RTVSPost2010Prop39
140
1.0
102
RTVSPost2010PropOp39
 70
     1
102
RTVSPost2010Prop40
 90
        0
102
RTVSPost2010PropOp40
 70
     1
102
RTVSPost2010Prop41ColorIndex
 90
       18
102
RTVSPost2010Prop41ColorRGB
 90
        0
102
RTVSPost2010PropOp41
 70
     1
102
RTVSPost2010Prop42
 90
       50
102
RTVSPost2010PropOp42
 70
     1
102
RTVSPost2010Prop43
 90
        3
102
RTVSPost2010PropOp43
 70
     1
102
RTVSPost2010Prop44ColorIndex
 90
        5
102
RTVSPost2010Prop44ColorRGB
 90
      255
102
RTVSPost2010PropOp44
 70
     1
102
RTVSPost2010Prop45
280
     0
102
RTVSPost2010PropOp45
 70
     1
102
RTVSPost2010Prop46
 90
       50
102
RTVSPost2010PropOp46
 70
     1
102
RTVSPost2010Prop47
 90
       50
102
RTVSPost2010PropOp47
 70
     1
102
RTVSPost2010Prop48
 90
       50
102
RTVSPost2010PropOp48
 70
     1
102
RTVSPost2010Prop49
280
     0
102
RTVSPost2010PropOp49
 70
     1
102
RTVSPost2010Prop50
 90
       50
102
RTVSPost2010PropOp50
 70
     1
102
RTVSPost2010Prop51ColorIndex
 90
      256
102
RTVSPost2010Prop51ColorRGB
 90
-16777216
102
RTVSPost2010PropOp51
 70
     0
102
RTVSPost2010Prop52
140
1.0
102
RTVSPost2010PropOp52
 70
     0
102
RTVSPost2010Prop53
 90
        2
102
RTVSPost2010PropOp53
 70
     1
102
RTVSPost2010Prop54
  1
strokes_ogs.tif
102
RTVSPost2010PropOp54
 70
     1
102
RTVSPost2010Prop55
280
     0
102
RTVSPost2010PropOp55
 70
     1
102
RTVSPost2010Prop56
140
1.0
102
RTVSPost2010PropOp56
 70
     1
102
RTVSPost2010Prop57
140
1.0
102
RTVSPost2010PropOp57
 70
     1
102
RTVSPropertyOp0
 70
     1
102
RTVSPropertyOp1
 70
     1
102
RTVSPropertyOp2
 70
     1
102
RTVSPropertyOp3
 70
     1
102
RTVSPropertyOp4
 70
     1
102
RTVSPropertyOp5
 70
     1
102
RTVSPropertyOp6
 70
     1
102
RTVSPropertyOp7
 70
     1
102
RTVSPropertyOp8
 70
     1
102
RTVSPropertyOp9
 70
     1
102
RTVSPropertyOp10
 70
     1
102
RTVSPropertyOp11
 70
     1
102
RTVSPropertyOp12
 70
     1
102
RTVSPropertyOp13
 70
     1
102
RTVSPropertyOp14
 70
     1
102
RTVSPropertyOp15
 70
     1
102
RTVSPropertyOp16
 70
     1
102
RTVSPropertyOp17
 70
     1
102
RTVSPropertyOp18
 70
     1
102
RTVSPropertyOp19
 70
     1
102
RTVSPropertyOp20
 70
     1
102
RTVSPropertyOp21
 70
     1
102
RTVSPropertyOp22
 70
     1
102
RTVSPropertyOp23
 70
     1
102
RTVSPropertyOp24
 70
     1
102
RTVSPropertyOp25
 70
     1
102
RTVSPropertyOp26
 70
     1
102
RTVSPropertyOp27
 70
     1
102
RTVSPropertyOp28
 70
     1
102
RTVSPropertyOp29
 70
     1
102
RTVSPropertyOp30
 70
     1
102
RTVSPropertyOp31
 70
     1
102
RTVSPropertyOp32
 70
     1
102
RTVSPropertyOp33
 70
     1
102
RTVSPropertyOp34
 70
     1
102
RTVSPropertyOp35
 70
     1
102
RTVSPropertyOp36
 70
     1
102
RTVSPropertyOp37
 70
     1
102
RTVSPropertyOp38
 70
     1
102
RTVSPropertyOp39
 70
     1
102
RTVSPropertyOp40
 70
     1
102
RTVSPropertyOp41
 70
     1
102
RTVSPropertyOp42
 70
     1
102
RTVSPropertyOp43
 70
     1
102
RTVSPropertyOp44
 70
     1
102
RTVSPropertyOp45
 70
     1
102
RTVSPropertyOp46
 70
     1
102
RTVSPropertyOp47
 70
     1
102
RTVSPropertyOp48
 70
     1
102
RTVSPropertyOp49
 70
     1
102
RTVSPropertyOp50
 70
     1
102
RTVSPropertyOp51
 70
     0
102
RTVSPropertyOp52
 70
     0
102
RTVSPropertyOp53
 70
     1
102
RTVSPropertyOp54
 70
     1
102
RTVSPropertyOp55
 70
     1
102
RTVSPropertyOp56
 70
     1
102
RTVSPropertyOp57
 70
     1
102
RTVSPropertyOp58
 70
     1
102
RTVSPropertyOp59
 70
     1
102
RTVSPropertyOp60
 70
     1
102
RTVSPropertyOp61
 70
     1
102
RTVSPropertyOp62
 70
     1
  0
XRECORD
  5
455
102
{ACAD_REACTORS
330
454
102
}
330
454
100
AcDbXrecord
280
     1
102
RTVSPost2010Prop28
280
     0
102
RTVSPost2010PropOp28
 70
     1
102
RTVSPost2010Prop29
280
     1
102
RTVSPost2010PropOp29
 70
     1
102
RTVSPost2010Prop30
280
     1
102
RTVSPost2010PropOp30
 70
     1
102
RTVSPost2010Prop31
280
     0
102
RTVSPost2010PropOp31
 70
     1
102
RTVSPost2010Prop32
280
     0
102
RTVSPost2010PropOp32
 70
     1
102
RTVSPost2010Prop33
280
     0
102
RTVSPost2010PropOp33
 70
     1
102
RTVSPost2010Prop34
280
     0
102
RTVSPost2010PropOp34
 70
     1
102
RTVSPost2010Prop35
280
     0
102
RTVSPost2010PropOp35
 70
     1
102
RTVSPost2010Prop36
280
     0
102
RTVSPost2010PropOp36
 70
     1
102
RTVSPost2010Prop37
 90
       50
102
RTVSPost2010PropOp37
 70
     1
102
RTVSPost2010Prop38
140
0.0
102
RTVSPost2010PropOp38
 70
     1
102
RTVSPost2010Prop39
140
1.0
102
RTVSPost2010PropOp39
 70
     1
102
RTVSPost2010Prop40
 90
        0
102
RTVSPost2010PropOp40
 70
     1
102
RTVSPost2010Prop41ColorIndex
 90
       18
102
RTVSPost2010Prop41ColorRGB
 90
        0
102
RTVSPost2010PropOp41
 70
     1
102
RTVSPost2010Prop42
 90
       50
102
RTVSPost2010PropOp42
 70
     1
102
RTVSPost2010Prop43
 90
        3
102
RTVSPost2010PropOp43
 70
     1
102
RTVSPost2010Prop44ColorIndex
 90
        5
102
RTVSPost2010Prop44ColorRGB
 90
      255
102
RTVSPost2010PropOp44
 70
     1
102
RTVSPost2010Prop45
280
     0
102
RTVSPost2010PropOp45
 70
     1
102
RTVSPost2010Prop46
 90
       50
102
RTVSPost2010PropOp46
 70
     1
102
RTVSPost2010Prop47
 90
       50
102
RTVSPost2010PropOp47
 70
     1
102
RTVSPost2010Prop48
 90
       50
102
RTVSPost2010PropOp48
 70
     1
102
RTVSPost2010Prop49
280
     0
102
RTVSPost2010PropOp49
 70
     1
102
RTVSPost2010Prop50
 90
       50
102
RTVSPost2010PropOp50
 70
     1
102
RTVSPost2010Prop51ColorIndex
 90
      256
102
RTVSPost2010Prop51ColorRGB
 90
-16777216
102
RTVSPost2010PropOp51
 70
     0
102
RTVSPost2010Prop52
140
1.0
102
RTVSPost2010PropOp52
 70
     0
102
RTVSPost2010Prop53
 90
        2
102
RTVSPost2010PropOp53
 70
     1
102
RTVSPost2010Prop54
  1
strokes_ogs.tif
102
RTVSPost2010PropOp54
 70
     1
102
RTVSPost2010Prop55
280
     0
102
RTVSPost2010PropOp55
 70
     1
102
RTVSPost2010Prop56
140
1.0
102
RTVSPost2010PropOp56
 70
     1
102
RTVSPost2010Prop57
140
1.0
102
RTVSPost2010PropOp57
 70
     1
102
RTVSPropertyOp0
 70
     1
102
RTVSPropertyOp1
 70
     1
102
RTVSPropertyOp2
 70
     1
102
RTVSPropertyOp3
 70
     1
102
RTVSPropertyOp4
 70
     1
102
RTVSPropertyOp5
 70
     1
102
RTVSPropertyOp6
 70
     1
102
RTVSPropertyOp7
 70
     1
102
RTVSPropertyOp8
 70
     1
102
RTVSPropertyOp9
 70
     1
102
RTVSPropertyOp10
 70
     1
102
RTVSPropertyOp11
 70
     1
102
RTVSPropertyOp12
 70
     1
102
RTVSPropertyOp13
 70
     1
102
RTVSPropertyOp14
 70
     1
102
RTVSPropertyOp15
 70
     1
102
RTVSPropertyOp16
 70
     1
102
RTVSPropertyOp17
 70
     1
102
RTVSPropertyOp18
 70
     1
102
RTVSPropertyOp19
 70
     1
102
RTVSPropertyOp20
 70
     1
102
RTVSPropertyOp21
 70
     1
102
RTVSPropertyOp22
 70
     1
102
RTVSPropertyOp23
 70
     1
102
RTVSPropertyOp24
 70
     1
102
RTVSPropertyOp25
 70
     1
102
RTVSPropertyOp26
 70
     1
102
RTVSPropertyOp27
 70
     1
102
RTVSPropertyOp28
 70
     1
102
RTVSPropertyOp29
 70
     1
102
RTVSPropertyOp30
 70
     1
102
RTVSPropertyOp31
 70
     1
102
RTVSPropertyOp32
 70
     1
102
RTVSPropertyOp33
 70
     1
102
RTVSPropertyOp34
 70
     1
102
RTVSPropertyOp35
 70
     1
102
RTVSPropertyOp36
 70
     1
102
RTVSPropertyOp37
 70
     1
102
RTVSPropertyOp38
 70
     1
102
RTVSPropertyOp39
 70
     1
102
RTVSPropertyOp40
 70
     1
102
RTVSPropertyOp41
 70
     1
102
RTVSPropertyOp42
 70
     1
102
RTVSPropertyOp43
 70
     1
102
RTVSPropertyOp44
 70
     1
102
RTVSPropertyOp45
 70
     1
102
RTVSPropertyOp46
 70
     1
102
RTVSPropertyOp47
 70
     1
102
RTVSPropertyOp48
 70
     1
102
RTVSPropertyOp49
 70
     1
102
RTVSPropertyOp50
 70
     1
102
RTVSPropertyOp51
 70
     0
102
RTVSPropertyOp52
 70
     0
102
RTVSPropertyOp53
 70
     1
102
RTVSPropertyOp54
 70
     1
102
RTVSPropertyOp55
 70
     1
102
RTVSPropertyOp56
 70
     1
102
RTVSPropertyOp57
 70
     1
102
RTVSPropertyOp58
 70
     1
102
RTVSPropertyOp59
 70
     1
102
RTVSPropertyOp60
 70
     1
102
RTVSPropertyOp61
 70
     1
102
RTVSPropertyOp62
 70
     1
  0
XRECORD
  5
445
102
{ACAD_REACTORS
330
444
102
}
330
444
100
AcDbXrecord
280
     1
102
RTVSPost2010Prop28
280
     0
102
RTVSPost2010PropOp28
 70
     1
102
RTVSPost2010Prop29
280
     1
102
RTVSPost2010PropOp29
 70
     1
102
RTVSPost2010Prop30
280
     1
102
RTVSPost2010PropOp30
 70
     1
102
RTVSPost2010Prop31
280
     0
102
RTVSPost2010PropOp31
 70
     1
102
RTVSPost2010Prop32
280
     0
102
RTVSPost2010PropOp32
 70
     1
102
RTVSPost2010Prop33
280
     0
102
RTVSPost2010PropOp33
 70
     1
102
RTVSPost2010Prop34
280
     0
102
RTVSPost2010PropOp34
 70
     1
102
RTVSPost2010Prop35
280
     0
102
RTVSPost2010PropOp35
 70
     1
102
RTVSPost2010Prop36
280
     0
102
RTVSPost2010PropOp36
 70
     1
102
RTVSPost2010Prop37
 90
       50
102
RTVSPost2010PropOp37
 70
     1
102
RTVSPost2010Prop38
140
0.0
102
RTVSPost2010PropOp38
 70
     1
102
RTVSPost2010Prop39
140
1.0
102
RTVSPost2010PropOp39
 70
     1
102
RTVSPost2010Prop40
 90
        0
102
RTVSPost2010PropOp40
 70
     1
102
RTVSPost2010Prop41ColorIndex
 90
       18
102
RTVSPost2010Prop41ColorRGB
 90
        0
102
RTVSPost2010PropOp41
 70
     1
102
RTVSPost2010Prop42
 90
       50
102
RTVSPost2010PropOp42
 70
     1
102
RTVSPost2010Prop43
 90
        3
102
RTVSPost2010PropOp43
 70
     1
102
RTVSPost2010Prop44ColorIndex
 90
        5
102
RTVSPost2010Prop44ColorRGB
 90
      255
102
RTVSPost2010PropOp44
 70
     1
102
RTVSPost2010Prop45
280
     0
102
RTVSPost2010PropOp45
 70
     1
102
RTVSPost2010Prop46
 90
       50
102
RTVSPost2010PropOp46
 70
     1
102
RTVSPost2010Prop47
 90
       50
102
RTVSPost2010PropOp47
 70
     1
102
RTVSPost2010Prop48
 90
       50
102
RTVSPost2010PropOp48
 70
     1
102
RTVSPost2010Prop49
280
     0
102
RTVSPost2010PropOp49
 70
     1
102
RTVSPost2010Prop50
 90
       50
102
RTVSPost2010PropOp50
 70
     1
102
RTVSPost2010Prop51ColorIndex
 90
      256
102
RTVSPost2010Prop51ColorRGB
 90
-16777216
102
RTVSPost2010PropOp51
 70
     0
102
RTVSPost2010Prop52
140
1.0
102
RTVSPost2010PropOp52
 70
     0
102
RTVSPost2010Prop53
 90
        2
102
RTVSPost2010PropOp53
 70
     1
102
RTVSPost2010Prop54
  1
strokes_ogs.tif
102
RTVSPost2010PropOp54
 70
     1
102
RTVSPost2010Prop55
280
     0
102
RTVSPost2010PropOp55
 70
     1
102
RTVSPost2010Prop56
140
1.0
102
RTVSPost2010PropOp56
 70
     1
102
RTVSPost2010Prop57
140
1.0
102
RTVSPost2010PropOp57
 70
     1
102
RTVSPropertyOp0
 70
     1
102
RTVSPropertyOp1
 70
     1
102
RTVSPropertyOp2
 70
     1
102
RTVSPropertyOp3
 70
     1
102
RTVSPropertyOp4
 70
     1
102
RTVSPropertyOp5
 70
     1
102
RTVSPropertyOp6
 70
     1
102
RTVSPropertyOp7
 70
     1
102
RTVSPropertyOp8
 70
     1
102
RTVSPropertyOp9
 70
     1
102
RTVSPropertyOp10
 70
     1
102
RTVSPropertyOp11
 70
     1
102
RTVSPropertyOp12
 70
     1
102
RTVSPropertyOp13
 70
     1
102
RTVSPropertyOp14
 70
     1
102
RTVSPropertyOp15
 70
     1
102
RTVSPropertyOp16
 70
     1
102
RTVSPropertyOp17
 70
     1
102
RTVSPropertyOp18
 70
     1
102
RTVSPropertyOp19
 70
     1
102
RTVSPropertyOp20
 70
     1
102
RTVSPropertyOp21
 70
     1
102
RTVSPropertyOp22
 70
     1
102
RTVSPropertyOp23
 70
     1
102
RTVSPropertyOp24
 70
     1
102
RTVSPropertyOp25
 70
     1
102
RTVSPropertyOp26
 70
     1
102
RTVSPropertyOp27
 70
     1
102
RTVSPropertyOp28
 70
     1
102
RTVSPropertyOp29
 70
     1
102
RTVSPropertyOp30
 70
     1
102
RTVSPropertyOp31
 70
     1
102
RTVSPropertyOp32
 70
     1
102
RTVSPropertyOp33
 70
     1
102
RTVSPropertyOp34
 70
     1
102
RTVSPropertyOp35
 70
     1
102
RTVSPropertyOp36
 70
     1
102
RTVSPropertyOp37
 70
     1
102
RTVSPropertyOp38
 70
     1
102
RTVSPropertyOp39
 70
     1
102
RTVSPropertyOp40
 70
     1
102
RTVSPropertyOp41
 70
     1
102
RTVSPropertyOp42
 70
     1
102
RTVSPropertyOp43
 70
     1
102
RTVSPropertyOp44
 70
     1
102
RTVSPropertyOp45
 70
     1
102
RTVSPropertyOp46
 70
     1
102
RTVSPropertyOp47
 70
     1
102
RTVSPropertyOp48
 70
     1
102
RTVSPropertyOp49
 70
     1
102
RTVSPropertyOp50
 70
     1
102
RTVSPropertyOp51
 70
     0
102
RTVSPropertyOp52
 70
     0
102
RTVSPropertyOp53
 70
     1
102
RTVSPropertyOp54
 70
     1
102
RTVSPropertyOp55
 70
     1
102
RTVSPropertyOp56
 70
     1
102
RTVSPropertyOp57
 70
     1
102
RTVSPropertyOp58
 70
     1
102
RTVSPropertyOp59
 70
     1
102
RTVSPropertyOp60
 70
     1
102
RTVSPropertyOp61
 70
     1
102
RTVSPropertyOp62
 70
     1
  0
XRECORD
  5
437
102
{ACAD_REACTORS
330
436
102
}
330
436
100
AcDbXrecord
280
     1
102
RTVSPost2010Prop28
280
     0
102
RTVSPost2010PropOp28
 70
     1
102
RTVSPost2010Prop29
280
     1
102
RTVSPost2010PropOp29
 70
     1
102
RTVSPost2010Prop30
280
     1
102
RTVSPost2010PropOp30
 70
     1
102
RTVSPost2010Prop31
280
     0
102
RTVSPost2010PropOp31
 70
     1
102
RTVSPost2010Prop32
280
     0
102
RTVSPost2010PropOp32
 70
     1
102
RTVSPost2010Prop33
280
     0
102
RTVSPost2010PropOp33
 70
     1
102
RTVSPost2010Prop34
280
     0
102
RTVSPost2010PropOp34
 70
     1
102
RTVSPost2010Prop35
280
     0
102
RTVSPost2010PropOp35
 70
     1
102
RTVSPost2010Prop36
280
     0
102
RTVSPost2010PropOp36
 70
     1
102
RTVSPost2010Prop37
 90
       50
102
RTVSPost2010PropOp37
 70
     1
102
RTVSPost2010Prop38
140
0.0
102
RTVSPost2010PropOp38
 70
     1
102
RTVSPost2010Prop39
140
1.0
102
RTVSPost2010PropOp39
 70
     1
102
RTVSPost2010Prop40
 90
        0
102
RTVSPost2010PropOp40
 70
     1
102
RTVSPost2010Prop41ColorIndex
 90
       18
102
RTVSPost2010Prop41ColorRGB
 90
        0
102
RTVSPost2010PropOp41
 70
     1
102
RTVSPost2010Prop42
 90
       50
102
RTVSPost2010PropOp42
 70
     1
102
RTVSPost2010Prop43
 90
        3
102
RTVSPost2010PropOp43
 70
     1
102
RTVSPost2010Prop44ColorIndex
 90
        5
102
RTVSPost2010Prop44ColorRGB
 90
      255
102
RTVSPost2010PropOp44
 70
     1
102
RTVSPost2010Prop45
280
     0
102
RTVSPost2010PropOp45
 70
     1
102
RTVSPost2010Prop46
 90
       50
102
RTVSPost2010PropOp46
 70
     1
102
RTVSPost2010Prop47
 90
       50
102
RTVSPost2010PropOp47
 70
     1
102
RTVSPost2010Prop48
 90
       50
102
RTVSPost2010PropOp48
 70
     1
102
RTVSPost2010Prop49
280
     0
102
RTVSPost2010PropOp49
 70
     1
102
RTVSPost2010Prop50
 90
       50
102
RTVSPost2010PropOp50
 70
     1
102
RTVSPost2010Prop51ColorIndex
 90
      256
102
RTVSPost2010Prop51ColorRGB
 90
-16777216
102
RTVSPost2010PropOp51
 70
     0
102
RTVSPost2010Prop52
140
1.0
102
RTVSPost2010PropOp52
 70
     0
102
RTVSPost2010Prop53
 90
        2
102
RTVSPost2010PropOp53
 70
     1
102
RTVSPost2010Prop54
  1
strokes_ogs.tif
102
RTVSPost2010PropOp54
 70
     1
102
RTVSPost2010Prop55
280
     0
102
RTVSPost2010PropOp55
 70
     1
102
RTVSPost2010Prop56
140
1.0
102
RTVSPost2010PropOp56
 70
     1
102
RTVSPost2010Prop57
140
1.0
102
RTVSPost2010PropOp57
 70
     1
102
RTVSPropertyOp0
 70
     1
102
RTVSPropertyOp1
 70
     1
102
RTVSPropertyOp2
 70
     1
102
RTVSPropertyOp3
 70
     1
102
RTVSPropertyOp4
 70
     1
102
RTVSPropertyOp5
 70
     1
102
RTVSPropertyOp6
 70
     1
102
RTVSPropertyOp7
 70
     1
102
RTVSPropertyOp8
 70
     1
102
RTVSPropertyOp9
 70
     1
102
RTVSPropertyOp10
 70
     1
102
RTVSPropertyOp11
 70
     1
102
RTVSPropertyOp12
 70
     1
102
RTVSPropertyOp13
 70
     1
102
RTVSPropertyOp14
 70
     1
102
RTVSPropertyOp15
 70
     1
102
RTVSPropertyOp16
 70
     1
102
RTVSPropertyOp17
 70
     1
102
RTVSPropertyOp18
 70
     1
102
RTVSPropertyOp19
 70
     1
102
RTVSPropertyOp20
 70
     1
102
RTVSPropertyOp21
 70
     1
102
RTVSPropertyOp22
 70
     1
102
RTVSPropertyOp23
 70
     1
102
RTVSPropertyOp24
 70
     1
102
RTVSPropertyOp25
 70
     1
102
RTVSPropertyOp26
 70
     1
102
RTVSPropertyOp27
 70
     1
102
RTVSPropertyOp28
 70
     1
102
RTVSPropertyOp29
 70
     1
102
RTVSPropertyOp30
 70
     1
102
RTVSPropertyOp31
 70
     1
102
RTVSPropertyOp32
 70
     1
102
RTVSPropertyOp33
 70
     1
102
RTVSPropertyOp34
 70
     1
102
RTVSPropertyOp35
 70
     1
102
RTVSPropertyOp36
 70
     1
102
RTVSPropertyOp37
 70
     1
102
RTVSPropertyOp38
 70
     1
102
RTVSPropertyOp39
 70
     1
102
RTVSPropertyOp40
 70
     1
102
RTVSPropertyOp41
 70
     1
102
RTVSPropertyOp42
 70
     1
102
RTVSPropertyOp43
 70
     1
102
RTVSPropertyOp44
 70
     1
102
RTVSPropertyOp45
 70
     1
102
RTVSPropertyOp46
 70
     1
102
RTVSPropertyOp47
 70
     1
102
RTVSPropertyOp48
 70
     1
102
RTVSPropertyOp49
 70
     1
102
RTVSPropertyOp50
 70
     1
102
RTVSPropertyOp51
 70
     0
102
RTVSPropertyOp52
 70
     0
102
RTVSPropertyOp53
 70
     1
102
RTVSPropertyOp54
 70
     1
102
RTVSPropertyOp55
 70
     1
102
RTVSPropertyOp56
 70
     1
102
RTVSPropertyOp57
 70
     1
102
RTVSPropertyOp58
 70
     1
102
RTVSPropertyOp59
 70
     1
102
RTVSPropertyOp60
 70
     1
102
RTVSPropertyOp61
 70
     1
102
RTVSPropertyOp62
 70
     1
  0
XRECORD
  5
457
102
{ACAD_REACTORS
330
456
102
}
330
456
100
AcDbXrecord
280
     1
102
RTVSPost2010Prop28
280
     0
102
RTVSPost2010PropOp28
 70
     1
102
RTVSPost2010Prop29
280
     1
102
RTVSPost2010PropOp29
 70
     1
102
RTVSPost2010Prop30
280
     1
102
RTVSPost2010PropOp30
 70
     1
102
RTVSPost2010Prop31
280
     0
102
RTVSPost2010PropOp31
 70
     1
102
RTVSPost2010Prop32
280
     0
102
RTVSPost2010PropOp32
 70
     1
102
RTVSPost2010Prop33
280
     0
102
RTVSPost2010PropOp33
 70
     1
102
RTVSPost2010Prop34
280
     0
102
RTVSPost2010PropOp34
 70
     1
102
RTVSPost2010Prop35
280
     0
102
RTVSPost2010PropOp35
 70
     1
102
RTVSPost2010Prop36
280
     0
102
RTVSPost2010PropOp36
 70
     1
102
RTVSPost2010Prop37
 90
       50
102
RTVSPost2010PropOp37
 70
     1
102
RTVSPost2010Prop38
140
0.0
102
RTVSPost2010PropOp38
 70
     1
102
RTVSPost2010Prop39
140
1.0
102
RTVSPost2010PropOp39
 70
     1
102
RTVSPost2010Prop40
 90
        0
102
RTVSPost2010PropOp40
 70
     1
102
RTVSPost2010Prop41ColorIndex
 90
       18
102
RTVSPost2010Prop41ColorRGB
 90
        0
102
RTVSPost2010PropOp41
 70
     1
102
RTVSPost2010Prop42
 90
       50
102
RTVSPost2010PropOp42
 70
     1
102
RTVSPost2010Prop43
 90
        3
102
RTVSPost2010PropOp43
 70
     1
102
RTVSPost2010Prop44ColorIndex
 90
        5
102
RTVSPost2010Prop44ColorRGB
 90
      255
102
RTVSPost2010PropOp44
 70
     1
102
RTVSPost2010Prop45
280
     0
102
RTVSPost2010PropOp45
 70
     1
102
RTVSPost2010Prop46
 90
       50
102
RTVSPost2010PropOp46
 70
     1
102
RTVSPost2010Prop47
 90
       50
102
RTVSPost2010PropOp47
 70
     1
102
RTVSPost2010Prop48
 90
       50
102
RTVSPost2010PropOp48
 70
     1
102
RTVSPost2010Prop49
280
     0
102
RTVSPost2010PropOp49
 70
     1
102
RTVSPost2010Prop50
 90
       50
102
RTVSPost2010PropOp50
 70
     1
102
RTVSPost2010Prop51ColorIndex
 90
      256
102
RTVSPost2010Prop51ColorRGB
 90
-16777216
102
RTVSPost2010PropOp51
 70
     0
102
RTVSPost2010Prop52
140
1.0
102
RTVSPost2010PropOp52
 70
     0
102
RTVSPost2010Prop53
 90
        2
102
RTVSPost2010PropOp53
 70
     1
102
RTVSPost2010Prop54
  1
strokes_ogs.tif
102
RTVSPost2010PropOp54
 70
     1
102
RTVSPost2010Prop55
280
     0
102
RTVSPost2010PropOp55
 70
     1
102
RTVSPost2010Prop56
140
1.0
102
RTVSPost2010PropOp56
 70
     1
102
RTVSPost2010Prop57
140
1.0
102
RTVSPost2010PropOp57
 70
     1
102
RTVSPropertyOp0
 70
     1
102
RTVSPropertyOp1
 70
     1
102
RTVSPropertyOp2
 70
     1
102
RTVSPropertyOp3
 70
     1
102
RTVSPropertyOp4
 70
     1
102
RTVSPropertyOp5
 70
     1
102
RTVSPropertyOp6
 70
     1
102
RTVSPropertyOp7
 70
     1
102
RTVSPropertyOp8
 70
     1
102
RTVSPropertyOp9
 70
     1
102
RTVSPropertyOp10
 70
     1
102
RTVSPropertyOp11
 70
     1
102
RTVSPropertyOp12
 70
     1
102
RTVSPropertyOp13
 70
     1
102
RTVSPropertyOp14
 70
     1
102
RTVSPropertyOp15
 70
     1
102
RTVSPropertyOp16
 70
     1
102
RTVSPropertyOp17
 70
     1
102
RTVSPropertyOp18
 70
     1
102
RTVSPropertyOp19
 70
     1
102
RTVSPropertyOp20
 70
     1
102
RTVSPropertyOp21
 70
     1
102
RTVSPropertyOp22
 70
     1
102
RTVSPropertyOp23
 70
     1
102
RTVSPropertyOp24
 70
     1
102
RTVSPropertyOp25
 70
     1
102
RTVSPropertyOp26
 70
     1
102
RTVSPropertyOp27
 70
     1
102
RTVSPropertyOp28
 70
     1
102
RTVSPropertyOp29
 70
     1
102
RTVSPropertyOp30
 70
     1
102
RTVSPropertyOp31
 70
     1
102
RTVSPropertyOp32
 70
     1
102
RTVSPropertyOp33
 70
     1
102
RTVSPropertyOp34
 70
     1
102
RTVSPropertyOp35
 70
     1
102
RTVSPropertyOp36
 70
     1
102
RTVSPropertyOp37
 70
     1
102
RTVSPropertyOp38
 70
     1
102
RTVSPropertyOp39
 70
     1
102
RTVSPropertyOp40
 70
     1
102
RTVSPropertyOp41
 70
     1
102
RTVSPropertyOp42
 70
     1
102
RTVSPropertyOp43
 70
     1
102
RTVSPropertyOp44
 70
     1
102
RTVSPropertyOp45
 70
     1
102
RTVSPropertyOp46
 70
     1
102
RTVSPropertyOp47
 70
     1
102
RTVSPropertyOp48
 70
     1
102
RTVSPropertyOp49
 70
     1
102
RTVSPropertyOp50
 70
     1
102
RTVSPropertyOp51
 70
     0
102
RTVSPropertyOp52
 70
     0
102
RTVSPropertyOp53
 70
     1
102
RTVSPropertyOp54
 70
     1
102
RTVSPropertyOp55
 70
     1
102
RTVSPropertyOp56
 70
     1
102
RTVSPropertyOp57
 70
     1
102
RTVSPropertyOp58
 70
     1
102
RTVSPropertyOp59
 70
     1
102
RTVSPropertyOp60
 70
     1
102
RTVSPropertyOp61
 70
     1
102
RTVSPropertyOp62
 70
     1
  0
ENDSEC
  0
EOF
