  0
SECTION
  2
HEADER
  9
$ACADVER
  1
AC1015
  9
$ACADMAINTVER
 70
     6
  9
$DWGCODEPAGE
  3
ANSI_1252
  9
$INSBASE
 10
0.0
 20
0.0
 30
0.0
  9
$EXTMIN
 10
-3.871801181102362
 20
-3.989419291338582
 30
0.0
  9
$EXTMAX
 10
-0.3937007874015748
 20
0.573818897637795
 30
0.0
  9
$LIMMIN
 10
0.0
 20
0.0
  9
$LIMMAX
 10
12.0
 20
9.0
  9
$ORTHOMODE
 70
     0
  9
$REGENMODE
 70
     1
  9
$FILLMODE
 70
     1
  9
$QTEXTMODE
 70
     0
  9
$MIRRTEXT
 70
     1
  9
$LTSCALE
 40
1.0
  9
$ATTMODE
 70
     1
  9
$TEXTSIZE
 40
0.2
  9
$TRACEWID
 40
0.05
  9
$TEXTSTYLE
  7
STANDARD
  9
$CLAYER
  8
0
  9
$CELTYPE
  6
ByLayer
  9
$CECOLOR
 62
   256
  9
$CELTSCALE
 40
1.0
  9
$DISPSILH
 70
     0
  9
$DIMSCALE
 40
1.0
  9
$DIMASZ
 40
0.18
  9
$DIMEXO
 40
0.0625
  9
$DIMDLI
 40
0.38
  9
$DIMRND
 40
0.0
  9
$DIMDLE
 40
0.0
  9
$DIMEXE
 40
0.18
  9
$DIMTP
 40
0.0
  9
$DIMTM
 40
0.0
  9
$DIMTXT
 40
0.18
  9
$DIMCEN
 40
0.09
  9
$DIMTSZ
 40
0.0
  9
$DIMTOL
 70
     0
  9
$DIMLIM
 70
     0
  9
$DIMTIH
 70
     1
  9
$DIMTOH
 70
     1
  9
$DIMSE1
 70
     0
  9
$DIMSE2
 70
     0
  9
$DIMTAD
 70
     0
  9
$DIMZIN
 70
     0
  9
$DIMBLK
  1

  9
$DIMASO
 70
     1
  9
$DIMSHO
 70
     1
  9
$DIMPOST
  1

  9
$DIMAPOST
  1

  9
$DIMALT
 70
     0
  9
$DIMALTD
 70
     2
  9
$DIMALTF
 40
25.4
  9
$DIMLFAC
 40
1.0
  9
$DIMTOFL
 70
     0
  9
$DIMTVP
 40
0.0
  9
$DIMTIX
 70
     0
  9
$DIMSOXD
 70
     0
  9
$DIMSAH
 70
     0
  9
$DIMBLK1
  1

  9
$DIMBLK2
  1

  9
$DIMSTYLE
  2
Standard
  9
$DIMCLRD
 70
     0
  9
$DIMCLRE
 70
     0
  9
$DIMCLRT
 70
     0
  9
$DIMTFAC
 40
1.0
  9
$DIMGAP
 40
0.09
  9
$DIMJUST
 70
     0
  9
$DIMSD1
 70
     0
  9
$DIMSD2
 70
     0
  9
$DIMTOLJ
 70
     1
  9
$DIMTZIN
 70
     0
  9
$DIMALTZ
 70
     0
  9
$DIMALTTZ
 70
     0
  9
$DIMUPT
 70
     0
  9
$DIMDEC
 70
     4
  9
$DIMTDEC
 70
     4
  9
$DIMALTU
 70
     2
  9
$DIMALTTD
 70
     2
  9
$DIMTXSTY
  7
STANDARD
  9
$DIMAUNIT
 70
     0
  9
$DIMADEC
 70
     0
  9
$DIMALTRND
 40
0.0
  9
$DIMAZIN
 70
     0
  9
$DIMDSEP
 70
    46
  9
$DIMATFIT
 70
     3
  9
$DIMFRAC
 70
     0
  9
$DIMLDRBLK
  1

  9
$DIMLUNIT
 70
     2
  9
$DIMLWD
 70
    -2
  9
$DIMLWE
 70
    -2
  9
$DIMTMOVE
 70
     2
  9
$LUNITS
 70
     2
  9
$LUPREC
 70
     4
  9
$SKETCHINC
 40
0.1
  9
$FILLETRAD
 40
0.0
  9
$AUNITS
 70
     0
  9
$AUPREC
 70
     0
  9
$MENU
  1
acad
  9
$ELEVATION
 40
0.0
  9
$PELEVATION
 40
0.0
  9
$THICKNESS
 40
0.0
  9
$LIMCHECK
 70
     0
  9
$CHAMFERA
 40
0.0
  9
$CHAMFERB
 40
0.0
  9
$CHAMFERC
 40
0.0
  9
$CHAMFERD
 40
0.0
  9
$SKPOLY
 70
     0
  9
$TDCREATE
 40
2452829.585763888
  9
$TDUCREATE
 40
2452829.794097222
  9
$TDUPDATE
 40
2454187.727609432
  9
$TDUUPDATE
 40
2454187.935942766
  9
$TDINDWG
 40
0.0007582755
  9
$TDUSRTIMER
 40
0.0007582755
  9
$USRTIMER
 70
     1
  9
$ANGBASE
 50
0.0
  9
$ANGDIR
 70
     0
  9
$PDMODE
 70
     0
  9
$PDSIZE
 40
0.0
  9
$PLINEWID
 40
0.0
  9
$SPLFRAME
 70
     0
  9
$SPLINETYPE
 70
     6
  9
$SPLINESEGS
 70
     8
  9
$HANDSEED
  5
281A
  9
$SURFTAB1
 70
     6
  9
$SURFTAB2
 70
     6
  9
$SURFTYPE
 70
     6
  9
$SURFU
 70
     6
  9
$SURFV
 70
     6
  9
$UCSBASE
  2

  9
$UCSNAME
  2

  9
$UCSORG
 10
0.0
 20
0.0
 30
0.0
  9
$UCSXDIR
 10
1.0
 20
0.0
 30
0.0
  9
$UCSYDIR
 10
0.0
 20
1.0
 30
0.0
  9
$UCSORTHOREF
  2

  9
$UCSORTHOVIEW
 70
     0
  9
$UCSORGTOP
 10
0.0
 20
0.0
 30
0.0
  9
$UCSORGBOTTOM
 10
0.0
 20
0.0
 30
0.0
  9
$UCSORGLEFT
 10
0.0
 20
0.0
 30
0.0
  9
$UCSORGRIGHT
 10
0.0
 20
0.0
 30
0.0
  9
$UCSORGFRONT
 10
0.0
 20
0.0
 30
0.0
  9
$UCSORGBACK
 10
0.0
 20
0.0
 30
0.0
  9
$PUCSBASE
  2

  9
$PUCSNAME
  2

  9
$PUCSORG
 10
0.0
 20
0.0
 30
0.0
  9
$PUCSXDIR
 10
1.0
 20
0.0
 30
0.0
  9
$PUCSYDIR
 10
0.0
 20
1.0
 30
0.0
  9
$PUCSORTHOREF
  2

  9
$PUCSORTHOVIEW
 70
     0
  9
$PUCSORGTOP
 10
0.0
 20
0.0
 30
0.0
  9
$PUCSORGBOTTOM
 10
0.0
 20
0.0
 30
0.0
  9
$PUCSORGLEFT
 10
0.0
 20
0.0
 30
0.0
  9
$PUCSORGRIGHT
 10
0.0
 20
0.0
 30
0.0
  9
$PUCSORGFRONT
 10
0.0
 20
0.0
 30
0.0
  9
$PUCSORGBACK
 10
0.0
 20
0.0
 30
0.0
  9
$USERI1
 70
     0
  9
$USERI2
 70
     0
  9
$USERI3
 70
     0
  9
$USERI4
 70
     0
  9
$USERI5
 70
     0
  9
$USERR1
 40
0.0
  9
$USERR2
 40
0.0
  9
$USERR3
 40
0.0
  9
$USERR4
 40
0.0
  9
$USERR5
 40
0.0
  9
$WORLDVIEW
 70
     1
  9
$SHADEDGE
 70
     3
  9
$SHADEDIF
 70
    70
  9
$TILEMODE
 70
     1
  9
$MAXACTVP
 70
    16
  9
$PINSBASE
 10
0.0
 20
0.0
 30
0.0
  9
$PLIMCHECK
 70
     0
  9
$PEXTMIN
 10
1.000000000000000E+20
 20
1.000000000000000E+20
 30
1.000000000000000E+20
  9
$PEXTMAX
 10
-1.000000000000000E+20
 20
-1.000000000000000E+20
 30
-1.000000000000000E+20
  9
$PLIMMIN
 10
0.0
 20
0.0
  9
$PLIMMAX
 10
12.0
 20
9.0
  9
$UNITMODE
 70
     0
  9
$VISRETAIN
 70
     0
  9
$PLINEGEN
 70
     0
  9
$PSLTSCALE
 70
     1
  9
$TREEDEPTH
 70
  3020
  9
$CMLSTYLE
  2
Standard
  9
$CMLJUST
 70
     0
  9
$CMLSCALE
 40
1.0
  9
$PROXYGRAPHICS
 70
     1
  9
$MEASUREMENT
 70
     0
  9
$CELWEIGHT
370
    -1
  9
$ENDCAPS
280
     0
  9
$JOINSTYLE
280
     0
  9
$LWDISPLAY
290
     0
  9
$INSUNITS
 70
     0
  9
$HYPERLINKBASE
  1

  9
$STYLESHEET
  1

  9
$XEDIT
290
     1
  9
$CEPSNTYPE
380
     0
  9
$PSTYLEMODE
290
     1
  9
$FINGERPRINTGUID
  2
{0E280F90-B177-11D7-A271-00B0D0A1FBDD}
  9
$VERSIONGUID
  2
{0E280F92-B177-11D7-A271-00B0D0A1FBDD}
  9
$EXTNAMES
290
     1
  9
$PSVPSCALE
 40
0.0
  9
$OLESTARTUP
290
     0
  0
ENDSEC
  0
SECTION
  2
CLASSES
  0
CLASS
  1
ACDBDICTIONARYWDFLT
  2
AcDbDictionaryWithDefault
  3
AutoCAD 2000
 90
        0
280
     0
281
     0
  0
CLASS
  1
ACDBPLACEHOLDER
  2
AcDbPlaceHolder
  3
AutoCAD 2000
 90
        0
280
     0
281
     0
  0
CLASS
  1
LAYOUT
  2
AcDbLayout
  3
AutoCAD 2000
 90
        0
280
     0
281
     0
  0
ENDSEC
  0
SECTION
  2
TABLES
  0
TABLE
  2
VPORT
  5
8
330
0
100
AcDbSymbolTable
 70
     2
  0
VPORT
  5
2819
330
8
100
AcDbSymbolTableRecord
100
AcDbViewportTableRecord
  2
*Active
 70
     0
 10
0.0
 20
0.0
 11
1.0
 21
1.0
 12
-2.026673731710075
 22
-1.707618699650767
 13
0.0
 23
0.0
 14
1.0
 24
1.0
 15
0.0
 25
0.0
 16
0.0
 26
0.0
 36
1.0
 17
0.0
 27
0.0
 37
0.0
 40
4.599106882087617
 41
1.601063829787233
 42
50.0
 43
0.0
 44
0.0
 50
0.0
 51
0.0
 71
     0
 72
   100
 73
     1
 74
     1
 75
     0
 76
     0
 77
     0
 78
     0
281
     0
 65
     1
110
0.0
120
0.0
130
0.0
111
1.0
121
0.0
131
0.0
112
0.0
122
1.0
132
0.0
 79
     0
146
0.0
  0
ENDTAB
  0
TABLE
  2
LTYPE
  5
5
330
0
100
AcDbSymbolTable
 70
    25
  0
LTYPE
  5
13
330
5
100
AcDbSymbolTableRecord
100
AcDbLinetypeTableRecord
  2
ByBlock
 70
     0
  3

 72
    65
 73
     0
 40
0.0
  0
LTYPE
  5
14
330
5
100
AcDbSymbolTableRecord
100
AcDbLinetypeTableRecord
  2
ByLayer
 70
     0
  3

 72
    65
 73
     0
 40
0.0
  0
LTYPE
  5
15
330
5
100
AcDbSymbolTableRecord
100
AcDbLinetypeTableRecord
  2
CONTINUOUS
 70
     0
  3
Solid line
 72
    65
 73
     0
 40
0.0
  0
LTYPE
  5
22
330
5
100
AcDbSymbolTableRecord
100
AcDbLinetypeTableRecord
  2
BORDER
 70
     0
  3
__ __ . __ __ . __ __ . __ __ . __ __ . __ __ .
 72
    65
 73
     6
 40
1.75
 49
0.5
 74
     0
 49
-0.25
 74
     0
 49
0.5
 74
     0
 49
-0.25
 74
     0
 49
0.5
 74
     0
 49
-0.25
 74
     0
  0
LTYPE
  5
23
330
5
100
AcDbSymbolTableRecord
100
AcDbLinetypeTableRecord
  2
BORDER2
 70
     0
  3
__.__.__.__.__.__.__.__.__.__.__.__.__.__.__.__
 72
    65
 73
     6
 40
0.875
 49
0.25
 74
     0
 49
-0.125
 74
     0
 49
0.25
 74
     0
 49
-0.125
 74
     0
 49
0.25
 74
     0
 49
-0.125
 74
     0
  0
LTYPE
  5
24
330
5
100
AcDbSymbolTableRecord
100
AcDbLinetypeTableRecord
  2
BORDERX2
 70
     0
  3
____  ____  .  ____  ____  .  
 72
    65
 73
     6
 40
3.5
 49
1.0
 74
     0
 49
-0.5
 74
     0
 49
1.0
 74
     0
 49
-0.5
 74
     0
 49
1.0
 74
     0
 49
-0.5
 74
     0
  0
LTYPE
  5
25
330
5
100
AcDbSymbolTableRecord
100
AcDbLinetypeTableRecord
  2
CENTER
 70
     0
  3
____ _ ____ _ ____ _ ____ _ ____ _ ____ _ ____
 72
    65
 73
     4
 40
2.0
 49
1.25
 74
     0
 49
-0.25
 74
     0
 49
0.25
 74
     0
 49
-0.25
 74
     0
  0
LTYPE
  5
26
330
5
100
AcDbSymbolTableRecord
100
AcDbLinetypeTableRecord
  2
CENTER2
 70
     0
  3
____ _ ____ _ ____ _ ____ _ ____ _ ____ _ ____
 72
    65
 73
     4
 40
1.125
 49
0.75
 74
     0
 49
-0.125
 74
     0
 49
0.125
 74
     0
 49
-0.125
 74
     0
  0
LTYPE
  5
27
330
5
100
AcDbSymbolTableRecord
100
AcDbLinetypeTableRecord
  2
CENTERX2
 70
     0
  3
________  __  ________  __  ________  __  
 72
    65
 73
     4
 40
4.0
 49
2.5
 74
     0
 49
-0.5
 74
     0
 49
0.5
 74
     0
 49
-0.5
 74
     0
  0
LTYPE
  5
28
330
5
100
AcDbSymbolTableRecord
100
AcDbLinetypeTableRecord
  2
DASHDOT
 70
     0
  3
__ . __ . __ . __ . __ . __ . __ . 
 72
    65
 73
     4
 40
1.0
 49
0.5
 74
     0
 49
-0.25
 74
     0
 49
0.0
 74
     0
 49
-0.25
 74
     0
  0
LTYPE
  5
29
330
5
100
AcDbSymbolTableRecord
100
AcDbLinetypeTableRecord
  2
DASHDOT2
 70
     0
  3
_._._._._._._._._._._._._._._._.
 72
    65
 73
     4
 40
0.5
 49
0.25
 74
     0
 49
-0.125
 74
     0
 49
0.0
 74
     0
 49
-0.125
 74
     0
  0
LTYPE
  5
2A
330
5
100
AcDbSymbolTableRecord
100
AcDbLinetypeTableRecord
  2
DASHDOTX2
 70
     0
  3
____  .  ____  .  ____  .  ____  .  
 72
    65
 73
     4
 40
2.0
 49
1.0
 74
     0
 49
-0.5
 74
     0
 49
0.0
 74
     0
 49
-0.5
 74
     0
  0
LTYPE
  5
2B
330
5
100
AcDbSymbolTableRecord
100
AcDbLinetypeTableRecord
  2
DASHED
 70
     0
  3
__ __ __ __ __ __ __ __ __ __ __ __ 
 72
    65
 73
     2
 40
0.75
 49
0.5
 74
     0
 49
-0.25
 74
     0
  0
LTYPE
  5
2C
330
5
100
AcDbSymbolTableRecord
100
AcDbLinetypeTableRecord
  2
DASHED2
 70
     0
  3
_ _ _ _ _ _ _ _ _ _ _ _ _ _ _ _ _ _ 
 72
    65
 73
     2
 40
0.375
 49
0.25
 74
     0
 49
-0.125
 74
     0
  0
LTYPE
  5
2D
330
5
100
AcDbSymbolTableRecord
100
AcDbLinetypeTableRecord
  2
DASHEDX2
 70
     0
  3
____  ____  ____  ____  ____  ____  
 72
    65
 73
     2
 40
1.5
 49
1.0
 74
     0
 49
-0.5
 74
     0
  0
LTYPE
  5
2E
330
5
100
AcDbSymbolTableRecord
100
AcDbLinetypeTableRecord
  2
DIVIDE
 70
     0
  3
____ . . ____ . . ____ . . ____ . . 
 72
    65
 73
     6
 40
1.25
 49
0.5
 74
     0
 49
-0.25
 74
     0
 49
0.0
 74
     0
 49
-0.25
 74
     0
 49
0.0
 74
     0
 49
-0.25
 74
     0
  0
LTYPE
  5
2F
330
5
100
AcDbSymbolTableRecord
100
AcDbLinetypeTableRecord
  2
DIVIDE2
 70
     0
  3
__..__..__..__..__..__..__..__..__..
 72
    65
 73
     6
 40
0.625
 49
0.25
 74
     0
 49
-0.125
 74
     0
 49
0.0
 74
     0
 49
-0.125
 74
     0
 49
0.0
 74
     0
 49
-0.125
 74
     0
  0
LTYPE
  5
30
330
5
100
AcDbSymbolTableRecord
100
AcDbLinetypeTableRecord
  2
DIVIDEX2
 70
     0
  3
________  .  .  ________  .  .  ________  .  . 
 72
    65
 73
     6
 40
2.5
 49
1.0
 74
     0
 49
-0.5
 74
     0
 49
0.0
 74
     0
 49
-0.5
 74
     0
 49
0.0
 74
     0
 49
-0.5
 74
     0
  0
LTYPE
  5
31
330
5
100
AcDbSymbolTableRecord
100
AcDbLinetypeTableRecord
  2
DOT
 70
     0
  3
. . . . . . . . . . . . . . . . . . 
 72
    65
 73
     2
 40
0.25
 49
0.0
 74
     0
 49
-0.25
 74
     0
  0
LTYPE
  5
32
330
5
100
AcDbSymbolTableRecord
100
AcDbLinetypeTableRecord
  2
DOT2
 70
     0
  3
....................................
 72
    65
 73
     2
 40
0.125
 49
0.0
 74
     0
 49
-0.125
 74
     0
  0
LTYPE
  5
33
330
5
100
AcDbSymbolTableRecord
100
AcDbLinetypeTableRecord
  2
DOTX2
 70
     0
  3
.  .  .  .  .  .  .  .  .  .  .  .  .  
 72
    65
 73
     2
 40
0.5
 49
0.0
 74
     0
 49
-0.5
 74
     0
  0
LTYPE
  5
34
330
5
100
AcDbSymbolTableRecord
100
AcDbLinetypeTableRecord
  2
HIDDEN
 70
     0
  3
__ __ __ __ __ __ __ __ __ __ __ __ 
 72
    65
 73
     2
 40
0.375
 49
0.25
 74
     0
 49
-0.125
 74
     0
  0
LTYPE
  5
35
330
5
100
AcDbSymbolTableRecord
100
AcDbLinetypeTableRecord
  2
HIDDEN2
 70
     0
  3
_ _ _ _ _ _ _ _ _ _ _ _ _ _ _ _ _ _ 
 72
    65
 73
     2
 40
0.1875
 49
0.125
 74
     0
 49
-0.0625
 74
     0
  0
LTYPE
  5
36
330
5
100
AcDbSymbolTableRecord
100
AcDbLinetypeTableRecord
  2
HIDDENX2
 70
     0
  3
____ ____ ____ ____ ____ ____ ____ 
 72
    65
 73
     2
 40
0.75
 49
0.5
 74
     0
 49
-0.25
 74
     0
  0
LTYPE
  5
37
330
5
100
AcDbSymbolTableRecord
100
AcDbLinetypeTableRecord
  2
PHANTOM
 70
     0
  3
______  __  __  ______  __  __  
 72
    65
 73
     6
 40
2.5
 49
1.25
 74
     0
 49
-0.25
 74
     0
 49
0.25
 74
     0
 49
-0.25
 74
     0
 49
0.25
 74
     0
 49
-0.25
 74
     0
  0
LTYPE
  5
38
330
5
100
AcDbSymbolTableRecord
100
AcDbLinetypeTableRecord
  2
PHANTOM2
 70
     0
  3
___ _ _ ___ _ _ ___ _ _ ___ _ _ 
 72
    65
 73
     6
 40
1.25
 49
0.625
 74
     0
 49
-0.125
 74
     0
 49
0.125
 74
     0
 49
-0.125
 74
     0
 49
0.125
 74
     0
 49
-0.125
 74
     0
  0
LTYPE
  5
39
330
5
100
AcDbSymbolTableRecord
100
AcDbLinetypeTableRecord
  2
PHANTOMX2
 70
     0
  3
___ _ _ ___ _ _ ___ _ _ ___ _ _ 
 72
    65
 73
     6
 40
5.0
 49
2.5
 74
     0
 49
-0.5
 74
     0
 49
0.5
 74
     0
 49
-0.5
 74
     0
 49
0.5
 74
     0
 49
-0.5
 74
     0
  0
ENDTAB
  0
TABLE
  2
LAYER
  5
2
330
0
100
AcDbSymbolTable
 70
   256
  0
LAYER
  5
10
330
2
100
AcDbSymbolTableRecord
100
AcDbLayerTableRecord
  2
0
 70
     0
 62
     7
  6
CONTINUOUS
370
    -3
390
F
  0
LAYER
  5
3A
330
2
100
AcDbSymbolTableRecord
100
AcDbLayerTableRecord
  2
1
 70
     0
 62
     1
  6
CONTINUOUS
370
    -3
390
F
  0
LAYER
  5
3B
330
2
100
AcDbSymbolTableRecord
100
AcDbLayerTableRecord
  2
2
 70
     0
 62
     2
  6
CONTINUOUS
370
    -3
390
F
  0
LAYER
  5
3C
330
2
100
AcDbSymbolTableRecord
100
AcDbLayerTableRecord
  2
3
 70
     0
 62
     3
  6
CONTINUOUS
370
    -3
390
F
  0
LAYER
  5
3D
330
2
100
AcDbSymbolTableRecord
100
AcDbLayerTableRecord
  2
4
 70
     0
 62
     4
  6
CONTINUOUS
370
    -3
390
F
  0
LAYER
  5
3E
330
2
100
AcDbSymbolTableRecord
100
AcDbLayerTableRecord
  2
5
 70
     0
 62
     5
  6
CONTINUOUS
370
    -3
390
F
  0
LAYER
  5
3F
330
2
100
AcDbSymbolTableRecord
100
AcDbLayerTableRecord
  2
6
 70
     0
 62
     6
  6
CONTINUOUS
370
    -3
390
F
  0
LAYER
  5
40
330
2
100
AcDbSymbolTableRecord
100
AcDbLayerTableRecord
  2
7
 70
     0
 62
     7
  6
CONTINUOUS
370
    -3
390
F
  0
LAYER
  5
41
330
2
100
AcDbSymbolTableRecord
100
AcDbLayerTableRecord
  2
8
 70
     0
 62
     8
  6
CONTINUOUS
370
    -3
390
F
  0
LAYER
  5
42
330
2
100
AcDbSymbolTableRecord
100
AcDbLayerTableRecord
  2
9
 70
     0
 62
     9
  6
CONTINUOUS
370
    -3
390
F
  0
LAYER
  5
43
330
2
100
AcDbSymbolTableRecord
100
AcDbLayerTableRecord
  2
10
 70
     0
 62
    10
  6
CONTINUOUS
370
    -3
390
F
  0
LAYER
  5
44
330
2
100
AcDbSymbolTableRecord
100
AcDbLayerTableRecord
  2
11
 70
     0
 62
    11
  6
CONTINUOUS
370
    -3
390
F
  0
LAYER
  5
45
330
2
100
AcDbSymbolTableRecord
100
AcDbLayerTableRecord
  2
12
 70
     0
 62
    12
  6
CONTINUOUS
370
    -3
390
F
  0
LAYER
  5
46
330
2
100
AcDbSymbolTableRecord
100
AcDbLayerTableRecord
  2
13
 70
     0
 62
    13
  6
CONTINUOUS
370
    -3
390
F
  0
LAYER
  5
47
330
2
100
AcDbSymbolTableRecord
100
AcDbLayerTableRecord
  2
14
 70
     0
 62
    14
  6
CONTINUOUS
370
    -3
390
F
  0
LAYER
  5
48
330
2
100
AcDbSymbolTableRecord
100
AcDbLayerTableRecord
  2
15
 70
     0
 62
    15
  6
CONTINUOUS
370
    -3
390
F
  0
LAYER
  5
49
330
2
100
AcDbSymbolTableRecord
100
AcDbLayerTableRecord
  2
16
 70
     0
 62
    16
  6
CONTINUOUS
370
    -3
390
F
  0
LAYER
  5
4A
330
2
100
AcDbSymbolTableRecord
100
AcDbLayerTableRecord
  2
17
 70
     0
 62
    17
  6
CONTINUOUS
370
    -3
390
F
  0
LAYER
  5
4B
330
2
100
AcDbSymbolTableRecord
100
AcDbLayerTableRecord
  2
18
 70
     0
 62
    18
  6
CONTINUOUS
370
    -3
390
F
  0
LAYER
  5
4C
330
2
100
AcDbSymbolTableRecord
100
AcDbLayerTableRecord
  2
19
 70
     0
 62
    19
  6
CONTINUOUS
370
    -3
390
F
  0
LAYER
  5
4D
330
2
100
AcDbSymbolTableRecord
100
AcDbLayerTableRecord
  2
20
 70
     0
 62
    20
  6
CONTINUOUS
370
    -3
390
F
  0
LAYER
  5
4E
330
2
100
AcDbSymbolTableRecord
100
AcDbLayerTableRecord
  2
21
 70
     0
 62
    21
  6
CONTINUOUS
370
    -3
390
F
  0
LAYER
  5
4F
330
2
100
AcDbSymbolTableRecord
100
AcDbLayerTableRecord
  2
22
 70
     0
 62
    22
  6
CONTINUOUS
370
    -3
390
F
  0
LAYER
  5
50
330
2
100
AcDbSymbolTableRecord
100
AcDbLayerTableRecord
  2
23
 70
     0
 62
    23
  6
CONTINUOUS
370
    -3
390
F
  0
LAYER
  5
51
330
2
100
AcDbSymbolTableRecord
100
AcDbLayerTableRecord
  2
24
 70
     0
 62
    24
  6
CONTINUOUS
370
    -3
390
F
  0
LAYER
  5
52
330
2
100
AcDbSymbolTableRecord
100
AcDbLayerTableRecord
  2
25
 70
     0
 62
    25
  6
CONTINUOUS
370
    -3
390
F
  0
LAYER
  5
53
330
2
100
AcDbSymbolTableRecord
100
AcDbLayerTableRecord
  2
26
 70
     0
 62
    26
  6
CONTINUOUS
370
    -3
390
F
  0
LAYER
  5
54
330
2
100
AcDbSymbolTableRecord
100
AcDbLayerTableRecord
  2
27
 70
     0
 62
    27
  6
CONTINUOUS
370
    -3
390
F
  0
LAYER
  5
55
330
2
100
AcDbSymbolTableRecord
100
AcDbLayerTableRecord
  2
28
 70
     0
 62
    28
  6
CONTINUOUS
370
    -3
390
F
  0
LAYER
  5
56
330
2
100
AcDbSymbolTableRecord
100
AcDbLayerTableRecord
  2
29
 70
     0
 62
    29
  6
CONTINUOUS
370
    -3
390
F
  0
LAYER
  5
57
330
2
100
AcDbSymbolTableRecord
100
AcDbLayerTableRecord
  2
30
 70
     0
 62
    30
  6
CONTINUOUS
370
    -3
390
F
  0
LAYER
  5
58
330
2
100
AcDbSymbolTableRecord
100
AcDbLayerTableRecord
  2
31
 70
     0
 62
    31
  6
CONTINUOUS
370
    -3
390
F
  0
LAYER
  5
59
330
2
100
AcDbSymbolTableRecord
100
AcDbLayerTableRecord
  2
32
 70
     0
 62
    32
  6
CONTINUOUS
370
    -3
390
F
  0
LAYER
  5
5A
330
2
100
AcDbSymbolTableRecord
100
AcDbLayerTableRecord
  2
33
 70
     0
 62
    33
  6
CONTINUOUS
370
    -3
390
F
  0
LAYER
  5
5B
330
2
100
AcDbSymbolTableRecord
100
AcDbLayerTableRecord
  2
34
 70
     0
 62
    34
  6
CONTINUOUS
370
    -3
390
F
  0
LAYER
  5
5C
330
2
100
AcDbSymbolTableRecord
100
AcDbLayerTableRecord
  2
35
 70
     0
 62
    35
  6
CONTINUOUS
370
    -3
390
F
  0
LAYER
  5
5D
330
2
100
AcDbSymbolTableRecord
100
AcDbLayerTableRecord
  2
36
 70
     0
 62
    36
  6
CONTINUOUS
370
    -3
390
F
  0
LAYER
  5
5E
330
2
100
AcDbSymbolTableRecord
100
AcDbLayerTableRecord
  2
37
 70
     0
 62
    37
  6
CONTINUOUS
370
    -3
390
F
  0
LAYER
  5
5F
330
2
100
AcDbSymbolTableRecord
100
AcDbLayerTableRecord
  2
38
 70
     0
 62
    38
  6
CONTINUOUS
370
    -3
390
F
  0
LAYER
  5
60
330
2
100
AcDbSymbolTableRecord
100
AcDbLayerTableRecord
  2
39
 70
     0
 62
    39
  6
CONTINUOUS
370
    -3
390
F
  0
LAYER
  5
61
330
2
100
AcDbSymbolTableRecord
100
AcDbLayerTableRecord
  2
40
 70
     0
 62
    40
  6
CONTINUOUS
370
    -3
390
F
  0
LAYER
  5
62
330
2
100
AcDbSymbolTableRecord
100
AcDbLayerTableRecord
  2
41
 70
     0
 62
    41
  6
CONTINUOUS
370
    -3
390
F
  0
LAYER
  5
63
330
2
100
AcDbSymbolTableRecord
100
AcDbLayerTableRecord
  2
42
 70
     0
 62
    42
  6
CONTINUOUS
370
    -3
390
F
  0
LAYER
  5
64
330
2
100
AcDbSymbolTableRecord
100
AcDbLayerTableRecord
  2
43
 70
     0
 62
    43
  6
CONTINUOUS
370
    -3
390
F
  0
LAYER
  5
65
330
2
100
AcDbSymbolTableRecord
100
AcDbLayerTableRecord
  2
44
 70
     0
 62
    44
  6
CONTINUOUS
370
    -3
390
F
  0
LAYER
  5
66
330
2
100
AcDbSymbolTableRecord
100
AcDbLayerTableRecord
  2
45
 70
     0
 62
    45
  6
CONTINUOUS
370
    -3
390
F
  0
LAYER
  5
67
330
2
100
AcDbSymbolTableRecord
100
AcDbLayerTableRecord
  2
46
 70
     0
 62
    46
  6
CONTINUOUS
370
    -3
390
F
  0
LAYER
  5
68
330
2
100
AcDbSymbolTableRecord
100
AcDbLayerTableRecord
  2
47
 70
     0
 62
    47
  6
CONTINUOUS
370
    -3
390
F
  0
LAYER
  5
69
330
2
100
AcDbSymbolTableRecord
100
AcDbLayerTableRecord
  2
48
 70
     0
 62
    48
  6
CONTINUOUS
370
    -3
390
F
  0
LAYER
  5
6A
330
2
100
AcDbSymbolTableRecord
100
AcDbLayerTableRecord
  2
49
 70
     0
 62
    49
  6
CONTINUOUS
370
    -3
390
F
  0
LAYER
  5
6B
330
2
100
AcDbSymbolTableRecord
100
AcDbLayerTableRecord
  2
50
 70
     0
 62
    50
  6
CONTINUOUS
370
    -3
390
F
  0
LAYER
  5
6C
330
2
100
AcDbSymbolTableRecord
100
AcDbLayerTableRecord
  2
51
 70
     0
 62
    51
  6
CONTINUOUS
370
    -3
390
F
  0
LAYER
  5
6D
330
2
100
AcDbSymbolTableRecord
100
AcDbLayerTableRecord
  2
52
 70
     0
 62
    52
  6
CONTINUOUS
370
    -3
390
F
  0
LAYER
  5
6E
330
2
100
AcDbSymbolTableRecord
100
AcDbLayerTableRecord
  2
53
 70
     0
 62
    53
  6
CONTINUOUS
370
    -3
390
F
  0
LAYER
  5
6F
330
2
100
AcDbSymbolTableRecord
100
AcDbLayerTableRecord
  2
54
 70
     0
 62
    54
  6
CONTINUOUS
370
    -3
390
F
  0
LAYER
  5
70
330
2
100
AcDbSymbolTableRecord
100
AcDbLayerTableRecord
  2
55
 70
     0
 62
    55
  6
CONTINUOUS
370
    -3
390
F
  0
LAYER
  5
71
330
2
100
AcDbSymbolTableRecord
100
AcDbLayerTableRecord
  2
56
 70
     0
 62
    56
  6
CONTINUOUS
370
    -3
390
F
  0
LAYER
  5
72
330
2
100
AcDbSymbolTableRecord
100
AcDbLayerTableRecord
  2
57
 70
     0
 62
    57
  6
CONTINUOUS
370
    -3
390
F
  0
LAYER
  5
73
330
2
100
AcDbSymbolTableRecord
100
AcDbLayerTableRecord
  2
58
 70
     0
 62
    58
  6
CONTINUOUS
370
    -3
390
F
  0
LAYER
  5
74
330
2
100
AcDbSymbolTableRecord
100
AcDbLayerTableRecord
  2
59
 70
     0
 62
    59
  6
CONTINUOUS
370
    -3
390
F
  0
LAYER
  5
75
330
2
100
AcDbSymbolTableRecord
100
AcDbLayerTableRecord
  2
60
 70
     0
 62
    60
  6
CONTINUOUS
370
    -3
390
F
  0
LAYER
  5
76
330
2
100
AcDbSymbolTableRecord
100
AcDbLayerTableRecord
  2
61
 70
     0
 62
    61
  6
CONTINUOUS
370
    -3
390
F
  0
LAYER
  5
77
330
2
100
AcDbSymbolTableRecord
100
AcDbLayerTableRecord
  2
62
 70
     0
 62
    62
  6
CONTINUOUS
370
    -3
390
F
  0
LAYER
  5
78
330
2
100
AcDbSymbolTableRecord
100
AcDbLayerTableRecord
  2
63
 70
     0
 62
    63
  6
CONTINUOUS
370
    -3
390
F
  0
LAYER
  5
79
330
2
100
AcDbSymbolTableRecord
100
AcDbLayerTableRecord
  2
64
 70
     0
 62
    64
  6
CONTINUOUS
370
    -3
390
F
  0
LAYER
  5
7A
330
2
100
AcDbSymbolTableRecord
100
AcDbLayerTableRecord
  2
65
 70
     0
 62
    65
  6
CONTINUOUS
370
    -3
390
F
  0
LAYER
  5
7B
330
2
100
AcDbSymbolTableRecord
100
AcDbLayerTableRecord
  2
66
 70
     0
 62
    66
  6
CONTINUOUS
370
    -3
390
F
  0
LAYER
  5
7C
330
2
100
AcDbSymbolTableRecord
100
AcDbLayerTableRecord
  2
67
 70
     0
 62
    67
  6
CONTINUOUS
370
    -3
390
F
  0
LAYER
  5
7D
330
2
100
AcDbSymbolTableRecord
100
AcDbLayerTableRecord
  2
68
 70
     0
 62
    68
  6
CONTINUOUS
370
    -3
390
F
  0
LAYER
  5
7E
330
2
100
AcDbSymbolTableRecord
100
AcDbLayerTableRecord
  2
69
 70
     0
 62
    69
  6
CONTINUOUS
370
    -3
390
F
  0
LAYER
  5
7F
330
2
100
AcDbSymbolTableRecord
100
AcDbLayerTableRecord
  2
70
 70
     0
 62
    70
  6
CONTINUOUS
370
    -3
390
F
  0
LAYER
  5
80
330
2
100
AcDbSymbolTableRecord
100
AcDbLayerTableRecord
  2
71
 70
     0
 62
    71
  6
CONTINUOUS
370
    -3
390
F
  0
LAYER
  5
81
330
2
100
AcDbSymbolTableRecord
100
AcDbLayerTableRecord
  2
72
 70
     0
 62
    72
  6
CONTINUOUS
370
    -3
390
F
  0
LAYER
  5
82
330
2
100
AcDbSymbolTableRecord
100
AcDbLayerTableRecord
  2
73
 70
     0
 62
    73
  6
CONTINUOUS
370
    -3
390
F
  0
LAYER
  5
83
330
2
100
AcDbSymbolTableRecord
100
AcDbLayerTableRecord
  2
74
 70
     0
 62
    74
  6
CONTINUOUS
370
    -3
390
F
  0
LAYER
  5
84
330
2
100
AcDbSymbolTableRecord
100
AcDbLayerTableRecord
  2
75
 70
     0
 62
    75
  6
CONTINUOUS
370
    -3
390
F
  0
LAYER
  5
85
330
2
100
AcDbSymbolTableRecord
100
AcDbLayerTableRecord
  2
76
 70
     0
 62
    76
  6
CONTINUOUS
370
    -3
390
F
  0
LAYER
  5
86
330
2
100
AcDbSymbolTableRecord
100
AcDbLayerTableRecord
  2
77
 70
     0
 62
    77
  6
CONTINUOUS
370
    -3
390
F
  0
LAYER
  5
87
330
2
100
AcDbSymbolTableRecord
100
AcDbLayerTableRecord
  2
78
 70
     0
 62
    78
  6
CONTINUOUS
370
    -3
390
F
  0
LAYER
  5
88
330
2
100
AcDbSymbolTableRecord
100
AcDbLayerTableRecord
  2
79
 70
     0
 62
    79
  6
CONTINUOUS
370
    -3
390
F
  0
LAYER
  5
89
330
2
100
AcDbSymbolTableRecord
100
AcDbLayerTableRecord
  2
80
 70
     0
 62
    80
  6
CONTINUOUS
370
    -3
390
F
  0
LAYER
  5
8A
330
2
100
AcDbSymbolTableRecord
100
AcDbLayerTableRecord
  2
81
 70
     0
 62
    81
  6
CONTINUOUS
370
    -3
390
F
  0
LAYER
  5
8B
330
2
100
AcDbSymbolTableRecord
100
AcDbLayerTableRecord
  2
82
 70
     0
 62
    82
  6
CONTINUOUS
370
    -3
390
F
  0
LAYER
  5
8C
330
2
100
AcDbSymbolTableRecord
100
AcDbLayerTableRecord
  2
83
 70
     0
 62
    83
  6
CONTINUOUS
370
    -3
390
F
  0
LAYER
  5
8D
330
2
100
AcDbSymbolTableRecord
100
AcDbLayerTableRecord
  2
84
 70
     0
 62
    84
  6
CONTINUOUS
370
    -3
390
F
  0
LAYER
  5
8E
330
2
100
AcDbSymbolTableRecord
100
AcDbLayerTableRecord
  2
85
 70
     0
 62
    85
  6
CONTINUOUS
370
    -3
390
F
  0
LAYER
  5
8F
330
2
100
AcDbSymbolTableRecord
100
AcDbLayerTableRecord
  2
86
 70
     0
 62
    86
  6
CONTINUOUS
370
    -3
390
F
  0
LAYER
  5
90
330
2
100
AcDbSymbolTableRecord
100
AcDbLayerTableRecord
  2
87
 70
     0
 62
    87
  6
CONTINUOUS
370
    -3
390
F
  0
LAYER
  5
91
330
2
100
AcDbSymbolTableRecord
100
AcDbLayerTableRecord
  2
88
 70
     0
 62
    88
  6
CONTINUOUS
370
    -3
390
F
  0
LAYER
  5
92
330
2
100
AcDbSymbolTableRecord
100
AcDbLayerTableRecord
  2
89
 70
     0
 62
    89
  6
CONTINUOUS
370
    -3
390
F
  0
LAYER
  5
93
330
2
100
AcDbSymbolTableRecord
100
AcDbLayerTableRecord
  2
90
 70
     0
 62
    90
  6
CONTINUOUS
370
    -3
390
F
  0
LAYER
  5
94
330
2
100
AcDbSymbolTableRecord
100
AcDbLayerTableRecord
  2
91
 70
     0
 62
    91
  6
CONTINUOUS
370
    -3
390
F
  0
LAYER
  5
95
330
2
100
AcDbSymbolTableRecord
100
AcDbLayerTableRecord
  2
92
 70
     0
 62
    92
  6
CONTINUOUS
370
    -3
390
F
  0
LAYER
  5
96
330
2
100
AcDbSymbolTableRecord
100
AcDbLayerTableRecord
  2
93
 70
     0
 62
    93
  6
CONTINUOUS
370
    -3
390
F
  0
LAYER
  5
97
330
2
100
AcDbSymbolTableRecord
100
AcDbLayerTableRecord
  2
94
 70
     0
 62
    94
  6
CONTINUOUS
370
    -3
390
F
  0
LAYER
  5
98
330
2
100
AcDbSymbolTableRecord
100
AcDbLayerTableRecord
  2
95
 70
     0
 62
    95
  6
CONTINUOUS
370
    -3
390
F
  0
LAYER
  5
99
330
2
100
AcDbSymbolTableRecord
100
AcDbLayerTableRecord
  2
96
 70
     0
 62
    96
  6
CONTINUOUS
370
    -3
390
F
  0
LAYER
  5
9A
330
2
100
AcDbSymbolTableRecord
100
AcDbLayerTableRecord
  2
97
 70
     0
 62
    97
  6
CONTINUOUS
370
    -3
390
F
  0
LAYER
  5
9B
330
2
100
AcDbSymbolTableRecord
100
AcDbLayerTableRecord
  2
98
 70
     0
 62
    98
  6
CONTINUOUS
370
    -3
390
F
  0
LAYER
  5
9C
330
2
100
AcDbSymbolTableRecord
100
AcDbLayerTableRecord
  2
99
 70
     0
 62
    99
  6
CONTINUOUS
370
    -3
390
F
  0
LAYER
  5
9D
330
2
100
AcDbSymbolTableRecord
100
AcDbLayerTableRecord
  2
100
 70
     0
 62
   100
  6
CONTINUOUS
370
    -3
390
F
  0
LAYER
  5
9E
330
2
100
AcDbSymbolTableRecord
100
AcDbLayerTableRecord
  2
101
 70
     0
 62
   101
  6
CONTINUOUS
370
    -3
390
F
  0
LAYER
  5
9F
330
2
100
AcDbSymbolTableRecord
100
AcDbLayerTableRecord
  2
102
 70
     0
 62
   102
  6
CONTINUOUS
370
    -3
390
F
  0
LAYER
  5
A0
330
2
100
AcDbSymbolTableRecord
100
AcDbLayerTableRecord
  2
103
 70
     0
 62
   103
  6
CONTINUOUS
370
    -3
390
F
  0
LAYER
  5
A1
330
2
100
AcDbSymbolTableRecord
100
AcDbLayerTableRecord
  2
104
 70
     0
 62
   104
  6
CONTINUOUS
370
    -3
390
F
  0
LAYER
  5
A2
330
2
100
AcDbSymbolTableRecord
100
AcDbLayerTableRecord
  2
105
 70
     0
 62
   105
  6
CONTINUOUS
370
    -3
390
F
  0
LAYER
  5
A3
330
2
100
AcDbSymbolTableRecord
100
AcDbLayerTableRecord
  2
106
 70
     0
 62
   106
  6
CONTINUOUS
370
    -3
390
F
  0
LAYER
  5
A4
330
2
100
AcDbSymbolTableRecord
100
AcDbLayerTableRecord
  2
107
 70
     0
 62
   107
  6
CONTINUOUS
370
    -3
390
F
  0
LAYER
  5
A5
330
2
100
AcDbSymbolTableRecord
100
AcDbLayerTableRecord
  2
108
 70
     0
 62
   108
  6
CONTINUOUS
370
    -3
390
F
  0
LAYER
  5
A6
330
2
100
AcDbSymbolTableRecord
100
AcDbLayerTableRecord
  2
109
 70
     0
 62
   109
  6
CONTINUOUS
370
    -3
390
F
  0
LAYER
  5
A7
330
2
100
AcDbSymbolTableRecord
100
AcDbLayerTableRecord
  2
110
 70
     0
 62
   110
  6
CONTINUOUS
370
    -3
390
F
  0
LAYER
  5
A8
330
2
100
AcDbSymbolTableRecord
100
AcDbLayerTableRecord
  2
111
 70
     0
 62
   111
  6
CONTINUOUS
370
    -3
390
F
  0
LAYER
  5
A9
330
2
100
AcDbSymbolTableRecord
100
AcDbLayerTableRecord
  2
112
 70
     0
 62
   112
  6
CONTINUOUS
370
    -3
390
F
  0
LAYER
  5
AA
330
2
100
AcDbSymbolTableRecord
100
AcDbLayerTableRecord
  2
113
 70
     0
 62
   113
  6
CONTINUOUS
370
    -3
390
F
  0
LAYER
  5
AB
330
2
100
AcDbSymbolTableRecord
100
AcDbLayerTableRecord
  2
114
 70
     0
 62
   114
  6
CONTINUOUS
370
    -3
390
F
  0
LAYER
  5
AC
330
2
100
AcDbSymbolTableRecord
100
AcDbLayerTableRecord
  2
115
 70
     0
 62
   115
  6
CONTINUOUS
370
    -3
390
F
  0
LAYER
  5
AD
330
2
100
AcDbSymbolTableRecord
100
AcDbLayerTableRecord
  2
116
 70
     0
 62
   116
  6
CONTINUOUS
370
    -3
390
F
  0
LAYER
  5
AE
330
2
100
AcDbSymbolTableRecord
100
AcDbLayerTableRecord
  2
117
 70
     0
 62
   117
  6
CONTINUOUS
370
    -3
390
F
  0
LAYER
  5
AF
330
2
100
AcDbSymbolTableRecord
100
AcDbLayerTableRecord
  2
118
 70
     0
 62
   118
  6
CONTINUOUS
370
    -3
390
F
  0
LAYER
  5
B0
330
2
100
AcDbSymbolTableRecord
100
AcDbLayerTableRecord
  2
119
 70
     0
 62
   119
  6
CONTINUOUS
370
    -3
390
F
  0
LAYER
  5
B1
330
2
100
AcDbSymbolTableRecord
100
AcDbLayerTableRecord
  2
120
 70
     0
 62
   120
  6
CONTINUOUS
370
    -3
390
F
  0
LAYER
  5
B2
330
2
100
AcDbSymbolTableRecord
100
AcDbLayerTableRecord
  2
121
 70
     0
 62
   121
  6
CONTINUOUS
370
    -3
390
F
  0
LAYER
  5
B3
330
2
100
AcDbSymbolTableRecord
100
AcDbLayerTableRecord
  2
122
 70
     0
 62
   122
  6
CONTINUOUS
370
    -3
390
F
  0
LAYER
  5
B4
330
2
100
AcDbSymbolTableRecord
100
AcDbLayerTableRecord
  2
123
 70
     0
 62
   123
  6
CONTINUOUS
370
    -3
390
F
  0
LAYER
  5
B5
330
2
100
AcDbSymbolTableRecord
100
AcDbLayerTableRecord
  2
124
 70
     0
 62
   124
  6
CONTINUOUS
370
    -3
390
F
  0
LAYER
  5
B6
330
2
100
AcDbSymbolTableRecord
100
AcDbLayerTableRecord
  2
125
 70
     0
 62
   125
  6
CONTINUOUS
370
    -3
390
F
  0
LAYER
  5
B7
330
2
100
AcDbSymbolTableRecord
100
AcDbLayerTableRecord
  2
126
 70
     0
 62
   126
  6
CONTINUOUS
370
    -3
390
F
  0
LAYER
  5
B8
330
2
100
AcDbSymbolTableRecord
100
AcDbLayerTableRecord
  2
127
 70
     0
 62
   127
  6
CONTINUOUS
370
    -3
390
F
  0
LAYER
  5
B9
330
2
100
AcDbSymbolTableRecord
100
AcDbLayerTableRecord
  2
128
 70
     0
 62
   128
  6
CONTINUOUS
370
    -3
390
F
  0
LAYER
  5
BA
330
2
100
AcDbSymbolTableRecord
100
AcDbLayerTableRecord
  2
129
 70
     0
 62
   129
  6
CONTINUOUS
370
    -3
390
F
  0
LAYER
  5
BB
330
2
100
AcDbSymbolTableRecord
100
AcDbLayerTableRecord
  2
130
 70
     0
 62
   130
  6
CONTINUOUS
370
    -3
390
F
  0
LAYER
  5
BC
330
2
100
AcDbSymbolTableRecord
100
AcDbLayerTableRecord
  2
131
 70
     0
 62
   131
  6
CONTINUOUS
370
    -3
390
F
  0
LAYER
  5
BD
330
2
100
AcDbSymbolTableRecord
100
AcDbLayerTableRecord
  2
132
 70
     0
 62
   132
  6
CONTINUOUS
370
    -3
390
F
  0
LAYER
  5
BE
330
2
100
AcDbSymbolTableRecord
100
AcDbLayerTableRecord
  2
133
 70
     0
 62
   133
  6
CONTINUOUS
370
    -3
390
F
  0
LAYER
  5
BF
330
2
100
AcDbSymbolTableRecord
100
AcDbLayerTableRecord
  2
134
 70
     0
 62
   134
  6
CONTINUOUS
370
    -3
390
F
  0
LAYER
  5
C0
330
2
100
AcDbSymbolTableRecord
100
AcDbLayerTableRecord
  2
135
 70
     0
 62
   135
  6
CONTINUOUS
370
    -3
390
F
  0
LAYER
  5
C1
330
2
100
AcDbSymbolTableRecord
100
AcDbLayerTableRecord
  2
136
 70
     0
 62
   136
  6
CONTINUOUS
370
    -3
390
F
  0
LAYER
  5
C2
330
2
100
AcDbSymbolTableRecord
100
AcDbLayerTableRecord
  2
137
 70
     0
 62
   137
  6
CONTINUOUS
370
    -3
390
F
  0
LAYER
  5
C3
330
2
100
AcDbSymbolTableRecord
100
AcDbLayerTableRecord
  2
138
 70
     0
 62
   138
  6
CONTINUOUS
370
    -3
390
F
  0
LAYER
  5
C4
330
2
100
AcDbSymbolTableRecord
100
AcDbLayerTableRecord
  2
139
 70
     0
 62
   139
  6
CONTINUOUS
370
    -3
390
F
  0
LAYER
  5
C5
330
2
100
AcDbSymbolTableRecord
100
AcDbLayerTableRecord
  2
140
 70
     0
 62
   140
  6
CONTINUOUS
370
    -3
390
F
  0
LAYER
  5
C6
330
2
100
AcDbSymbolTableRecord
100
AcDbLayerTableRecord
  2
141
 70
     0
 62
   141
  6
CONTINUOUS
370
    -3
390
F
  0
LAYER
  5
C7
330
2
100
AcDbSymbolTableRecord
100
AcDbLayerTableRecord
  2
142
 70
     0
 62
   142
  6
CONTINUOUS
370
    -3
390
F
  0
LAYER
  5
C8
330
2
100
AcDbSymbolTableRecord
100
AcDbLayerTableRecord
  2
143
 70
     0
 62
   143
  6
CONTINUOUS
370
    -3
390
F
  0
LAYER
  5
C9
330
2
100
AcDbSymbolTableRecord
100
AcDbLayerTableRecord
  2
144
 70
     0
 62
   144
  6
CONTINUOUS
370
    -3
390
F
  0
LAYER
  5
CA
330
2
100
AcDbSymbolTableRecord
100
AcDbLayerTableRecord
  2
145
 70
     0
 62
   145
  6
CONTINUOUS
370
    -3
390
F
  0
LAYER
  5
CB
330
2
100
AcDbSymbolTableRecord
100
AcDbLayerTableRecord
  2
146
 70
     0
 62
   146
  6
CONTINUOUS
370
    -3
390
F
  0
LAYER
  5
CC
330
2
100
AcDbSymbolTableRecord
100
AcDbLayerTableRecord
  2
147
 70
     0
 62
   147
  6
CONTINUOUS
370
    -3
390
F
  0
LAYER
  5
CD
330
2
100
AcDbSymbolTableRecord
100
AcDbLayerTableRecord
  2
148
 70
     0
 62
   148
  6
CONTINUOUS
370
    -3
390
F
  0
LAYER
  5
CE
330
2
100
AcDbSymbolTableRecord
100
AcDbLayerTableRecord
  2
149
 70
     0
 62
   149
  6
CONTINUOUS
370
    -3
390
F
  0
LAYER
  5
CF
330
2
100
AcDbSymbolTableRecord
100
AcDbLayerTableRecord
  2
150
 70
     0
 62
   150
  6
CONTINUOUS
370
    -3
390
F
  0
LAYER
  5
D0
330
2
100
AcDbSymbolTableRecord
100
AcDbLayerTableRecord
  2
151
 70
     0
 62
   151
  6
CONTINUOUS
370
    -3
390
F
  0
LAYER
  5
D1
330
2
100
AcDbSymbolTableRecord
100
AcDbLayerTableRecord
  2
152
 70
     0
 62
   152
  6
CONTINUOUS
370
    -3
390
F
  0
LAYER
  5
D2
330
2
100
AcDbSymbolTableRecord
100
AcDbLayerTableRecord
  2
153
 70
     0
 62
   153
  6
CONTINUOUS
370
    -3
390
F
  0
LAYER
  5
D3
330
2
100
AcDbSymbolTableRecord
100
AcDbLayerTableRecord
  2
154
 70
     0
 62
   154
  6
CONTINUOUS
370
    -3
390
F
  0
LAYER
  5
D4
330
2
100
AcDbSymbolTableRecord
100
AcDbLayerTableRecord
  2
155
 70
     0
 62
   155
  6
CONTINUOUS
370
    -3
390
F
  0
LAYER
  5
D5
330
2
100
AcDbSymbolTableRecord
100
AcDbLayerTableRecord
  2
156
 70
     0
 62
   156
  6
CONTINUOUS
370
    -3
390
F
  0
LAYER
  5
D6
330
2
100
AcDbSymbolTableRecord
100
AcDbLayerTableRecord
  2
157
 70
     0
 62
   157
  6
CONTINUOUS
370
    -3
390
F
  0
LAYER
  5
D7
330
2
100
AcDbSymbolTableRecord
100
AcDbLayerTableRecord
  2
158
 70
     0
 62
   158
  6
CONTINUOUS
370
    -3
390
F
  0
LAYER
  5
D8
330
2
100
AcDbSymbolTableRecord
100
AcDbLayerTableRecord
  2
159
 70
     0
 62
   159
  6
CONTINUOUS
370
    -3
390
F
  0
LAYER
  5
D9
330
2
100
AcDbSymbolTableRecord
100
AcDbLayerTableRecord
  2
160
 70
     0
 62
   160
  6
CONTINUOUS
370
    -3
390
F
  0
LAYER
  5
DA
330
2
100
AcDbSymbolTableRecord
100
AcDbLayerTableRecord
  2
161
 70
     0
 62
   161
  6
CONTINUOUS
370
    -3
390
F
  0
LAYER
  5
DB
330
2
100
AcDbSymbolTableRecord
100
AcDbLayerTableRecord
  2
162
 70
     0
 62
   162
  6
CONTINUOUS
370
    -3
390
F
  0
LAYER
  5
DC
330
2
100
AcDbSymbolTableRecord
100
AcDbLayerTableRecord
  2
163
 70
     0
 62
   163
  6
CONTINUOUS
370
    -3
390
F
  0
LAYER
  5
DD
330
2
100
AcDbSymbolTableRecord
100
AcDbLayerTableRecord
  2
164
 70
     0
 62
   164
  6
CONTINUOUS
370
    -3
390
F
  0
LAYER
  5
DE
330
2
100
AcDbSymbolTableRecord
100
AcDbLayerTableRecord
  2
165
 70
     0
 62
   165
  6
CONTINUOUS
370
    -3
390
F
  0
LAYER
  5
DF
330
2
100
AcDbSymbolTableRecord
100
AcDbLayerTableRecord
  2
166
 70
     0
 62
   166
  6
CONTINUOUS
370
    -3
390
F
  0
LAYER
  5
E0
330
2
100
AcDbSymbolTableRecord
100
AcDbLayerTableRecord
  2
167
 70
     0
 62
   167
  6
CONTINUOUS
370
    -3
390
F
  0
LAYER
  5
E1
330
2
100
AcDbSymbolTableRecord
100
AcDbLayerTableRecord
  2
168
 70
     0
 62
   168
  6
CONTINUOUS
370
    -3
390
F
  0
LAYER
  5
E2
330
2
100
AcDbSymbolTableRecord
100
AcDbLayerTableRecord
  2
169
 70
     0
 62
   169
  6
CONTINUOUS
370
    -3
390
F
  0
LAYER
  5
E3
330
2
100
AcDbSymbolTableRecord
100
AcDbLayerTableRecord
  2
170
 70
     0
 62
   170
  6
CONTINUOUS
370
    -3
390
F
  0
LAYER
  5
E4
330
2
100
AcDbSymbolTableRecord
100
AcDbLayerTableRecord
  2
171
 70
     0
 62
   171
  6
CONTINUOUS
370
    -3
390
F
  0
LAYER
  5
E5
330
2
100
AcDbSymbolTableRecord
100
AcDbLayerTableRecord
  2
172
 70
     0
 62
   172
  6
CONTINUOUS
370
    -3
390
F
  0
LAYER
  5
E6
330
2
100
AcDbSymbolTableRecord
100
AcDbLayerTableRecord
  2
173
 70
     0
 62
   173
  6
CONTINUOUS
370
    -3
390
F
  0
LAYER
  5
E7
330
2
100
AcDbSymbolTableRecord
100
AcDbLayerTableRecord
  2
174
 70
     0
 62
   174
  6
CONTINUOUS
370
    -3
390
F
  0
LAYER
  5
E8
330
2
100
AcDbSymbolTableRecord
100
AcDbLayerTableRecord
  2
175
 70
     0
 62
   175
  6
CONTINUOUS
370
    -3
390
F
  0
LAYER
  5
E9
330
2
100
AcDbSymbolTableRecord
100
AcDbLayerTableRecord
  2
176
 70
     0
 62
   176
  6
CONTINUOUS
370
    -3
390
F
  0
LAYER
  5
EA
330
2
100
AcDbSymbolTableRecord
100
AcDbLayerTableRecord
  2
177
 70
     0
 62
   177
  6
CONTINUOUS
370
    -3
390
F
  0
LAYER
  5
EB
330
2
100
AcDbSymbolTableRecord
100
AcDbLayerTableRecord
  2
178
 70
     0
 62
   178
  6
CONTINUOUS
370
    -3
390
F
  0
LAYER
  5
EC
330
2
100
AcDbSymbolTableRecord
100
AcDbLayerTableRecord
  2
179
 70
     0
 62
   179
  6
CONTINUOUS
370
    -3
390
F
  0
LAYER
  5
ED
330
2
100
AcDbSymbolTableRecord
100
AcDbLayerTableRecord
  2
180
 70
     0
 62
   180
  6
CONTINUOUS
370
    -3
390
F
  0
LAYER
  5
EE
330
2
100
AcDbSymbolTableRecord
100
AcDbLayerTableRecord
  2
181
 70
     0
 62
   181
  6
CONTINUOUS
370
    -3
390
F
  0
LAYER
  5
EF
330
2
100
AcDbSymbolTableRecord
100
AcDbLayerTableRecord
  2
182
 70
     0
 62
   182
  6
CONTINUOUS
370
    -3
390
F
  0
LAYER
  5
F0
330
2
100
AcDbSymbolTableRecord
100
AcDbLayerTableRecord
  2
183
 70
     0
 62
   183
  6
CONTINUOUS
370
    -3
390
F
  0
LAYER
  5
F1
330
2
100
AcDbSymbolTableRecord
100
AcDbLayerTableRecord
  2
184
 70
     0
 62
   184
  6
CONTINUOUS
370
    -3
390
F
  0
LAYER
  5
F2
330
2
100
AcDbSymbolTableRecord
100
AcDbLayerTableRecord
  2
185
 70
     0
 62
   185
  6
CONTINUOUS
370
    -3
390
F
  0
LAYER
  5
F3
330
2
100
AcDbSymbolTableRecord
100
AcDbLayerTableRecord
  2
186
 70
     0
 62
   186
  6
CONTINUOUS
370
    -3
390
F
  0
LAYER
  5
F4
330
2
100
AcDbSymbolTableRecord
100
AcDbLayerTableRecord
  2
187
 70
     0
 62
   187
  6
CONTINUOUS
370
    -3
390
F
  0
LAYER
  5
F5
330
2
100
AcDbSymbolTableRecord
100
AcDbLayerTableRecord
  2
188
 70
     0
 62
   188
  6
CONTINUOUS
370
    -3
390
F
  0
LAYER
  5
F6
330
2
100
AcDbSymbolTableRecord
100
AcDbLayerTableRecord
  2
189
 70
     0
 62
   189
  6
CONTINUOUS
370
    -3
390
F
  0
LAYER
  5
F7
330
2
100
AcDbSymbolTableRecord
100
AcDbLayerTableRecord
  2
190
 70
     0
 62
   190
  6
CONTINUOUS
370
    -3
390
F
  0
LAYER
  5
F8
330
2
100
AcDbSymbolTableRecord
100
AcDbLayerTableRecord
  2
191
 70
     0
 62
   191
  6
CONTINUOUS
370
    -3
390
F
  0
LAYER
  5
F9
330
2
100
AcDbSymbolTableRecord
100
AcDbLayerTableRecord
  2
192
 70
     0
 62
   192
  6
CONTINUOUS
370
    -3
390
F
  0
LAYER
  5
FA
330
2
100
AcDbSymbolTableRecord
100
AcDbLayerTableRecord
  2
193
 70
     0
 62
   193
  6
CONTINUOUS
370
    -3
390
F
  0
LAYER
  5
FB
330
2
100
AcDbSymbolTableRecord
100
AcDbLayerTableRecord
  2
194
 70
     0
 62
   194
  6
CONTINUOUS
370
    -3
390
F
  0
LAYER
  5
FC
330
2
100
AcDbSymbolTableRecord
100
AcDbLayerTableRecord
  2
195
 70
     0
 62
   195
  6
CONTINUOUS
370
    -3
390
F
  0
LAYER
  5
FD
330
2
100
AcDbSymbolTableRecord
100
AcDbLayerTableRecord
  2
196
 70
     0
 62
   196
  6
CONTINUOUS
370
    -3
390
F
  0
LAYER
  5
FE
330
2
100
AcDbSymbolTableRecord
100
AcDbLayerTableRecord
  2
197
 70
     0
 62
   197
  6
CONTINUOUS
370
    -3
390
F
  0
LAYER
  5
FF
330
2
100
AcDbSymbolTableRecord
100
AcDbLayerTableRecord
  2
198
 70
     0
 62
   198
  6
CONTINUOUS
370
    -3
390
F
  0
LAYER
  5
100
330
2
100
AcDbSymbolTableRecord
100
AcDbLayerTableRecord
  2
199
 70
     0
 62
   199
  6
CONTINUOUS
370
    -3
390
F
  0
LAYER
  5
101
330
2
100
AcDbSymbolTableRecord
100
AcDbLayerTableRecord
  2
200
 70
     0
 62
   200
  6
CONTINUOUS
370
    -3
390
F
  0
LAYER
  5
102
330
2
100
AcDbSymbolTableRecord
100
AcDbLayerTableRecord
  2
201
 70
     0
 62
   201
  6
CONTINUOUS
370
    -3
390
F
  0
LAYER
  5
103
330
2
100
AcDbSymbolTableRecord
100
AcDbLayerTableRecord
  2
202
 70
     0
 62
   202
  6
CONTINUOUS
370
    -3
390
F
  0
LAYER
  5
104
330
2
100
AcDbSymbolTableRecord
100
AcDbLayerTableRecord
  2
203
 70
     0
 62
   203
  6
CONTINUOUS
370
    -3
390
F
  0
LAYER
  5
105
330
2
100
AcDbSymbolTableRecord
100
AcDbLayerTableRecord
  2
204
 70
     0
 62
   204
  6
CONTINUOUS
370
    -3
390
F
  0
LAYER
  5
106
330
2
100
AcDbSymbolTableRecord
100
AcDbLayerTableRecord
  2
205
 70
     0
 62
   205
  6
CONTINUOUS
370
    -3
390
F
  0
LAYER
  5
107
330
2
100
AcDbSymbolTableRecord
100
AcDbLayerTableRecord
  2
206
 70
     0
 62
   206
  6
CONTINUOUS
370
    -3
390
F
  0
LAYER
  5
108
330
2
100
AcDbSymbolTableRecord
100
AcDbLayerTableRecord
  2
207
 70
     0
 62
   207
  6
CONTINUOUS
370
    -3
390
F
  0
LAYER
  5
109
330
2
100
AcDbSymbolTableRecord
100
AcDbLayerTableRecord
  2
208
 70
     0
 62
   208
  6
CONTINUOUS
370
    -3
390
F
  0
LAYER
  5
10A
330
2
100
AcDbSymbolTableRecord
100
AcDbLayerTableRecord
  2
209
 70
     0
 62
   209
  6
CONTINUOUS
370
    -3
390
F
  0
LAYER
  5
10B
330
2
100
AcDbSymbolTableRecord
100
AcDbLayerTableRecord
  2
210
 70
     0
 62
   210
  6
CONTINUOUS
370
    -3
390
F
  0
LAYER
  5
10C
330
2
100
AcDbSymbolTableRecord
100
AcDbLayerTableRecord
  2
211
 70
     0
 62
   211
  6
CONTINUOUS
370
    -3
390
F
  0
LAYER
  5
10D
330
2
100
AcDbSymbolTableRecord
100
AcDbLayerTableRecord
  2
212
 70
     0
 62
   212
  6
CONTINUOUS
370
    -3
390
F
  0
LAYER
  5
10E
330
2
100
AcDbSymbolTableRecord
100
AcDbLayerTableRecord
  2
213
 70
     0
 62
   213
  6
CONTINUOUS
370
    -3
390
F
  0
LAYER
  5
10F
330
2
100
AcDbSymbolTableRecord
100
AcDbLayerTableRecord
  2
214
 70
     0
 62
   214
  6
CONTINUOUS
370
    -3
390
F
  0
LAYER
  5
110
330
2
100
AcDbSymbolTableRecord
100
AcDbLayerTableRecord
  2
215
 70
     0
 62
   215
  6
CONTINUOUS
370
    -3
390
F
  0
LAYER
  5
111
330
2
100
AcDbSymbolTableRecord
100
AcDbLayerTableRecord
  2
216
 70
     0
 62
   216
  6
CONTINUOUS
370
    -3
390
F
  0
LAYER
  5
112
330
2
100
AcDbSymbolTableRecord
100
AcDbLayerTableRecord
  2
217
 70
     0
 62
   217
  6
CONTINUOUS
370
    -3
390
F
  0
LAYER
  5
113
330
2
100
AcDbSymbolTableRecord
100
AcDbLayerTableRecord
  2
218
 70
     0
 62
   218
  6
CONTINUOUS
370
    -3
390
F
  0
LAYER
  5
114
330
2
100
AcDbSymbolTableRecord
100
AcDbLayerTableRecord
  2
219
 70
     0
 62
   219
  6
CONTINUOUS
370
    -3
390
F
  0
LAYER
  5
115
330
2
100
AcDbSymbolTableRecord
100
AcDbLayerTableRecord
  2
220
 70
     0
 62
   220
  6
CONTINUOUS
370
    -3
390
F
  0
LAYER
  5
116
330
2
100
AcDbSymbolTableRecord
100
AcDbLayerTableRecord
  2
221
 70
     0
 62
   221
  6
CONTINUOUS
370
    -3
390
F
  0
LAYER
  5
117
330
2
100
AcDbSymbolTableRecord
100
AcDbLayerTableRecord
  2
222
 70
     0
 62
   222
  6
CONTINUOUS
370
    -3
390
F
  0
LAYER
  5
118
330
2
100
AcDbSymbolTableRecord
100
AcDbLayerTableRecord
  2
223
 70
     0
 62
   223
  6
CONTINUOUS
370
    -3
390
F
  0
LAYER
  5
119
330
2
100
AcDbSymbolTableRecord
100
AcDbLayerTableRecord
  2
224
 70
     0
 62
   224
  6
CONTINUOUS
370
    -3
390
F
  0
LAYER
  5
11A
330
2
100
AcDbSymbolTableRecord
100
AcDbLayerTableRecord
  2
225
 70
     0
 62
   225
  6
CONTINUOUS
370
    -3
390
F
  0
LAYER
  5
11B
330
2
100
AcDbSymbolTableRecord
100
AcDbLayerTableRecord
  2
226
 70
     0
 62
   226
  6
CONTINUOUS
370
    -3
390
F
  0
LAYER
  5
11C
330
2
100
AcDbSymbolTableRecord
100
AcDbLayerTableRecord
  2
227
 70
     0
 62
   227
  6
CONTINUOUS
370
    -3
390
F
  0
LAYER
  5
11D
330
2
100
AcDbSymbolTableRecord
100
AcDbLayerTableRecord
  2
228
 70
     0
 62
   228
  6
CONTINUOUS
370
    -3
390
F
  0
LAYER
  5
11E
330
2
100
AcDbSymbolTableRecord
100
AcDbLayerTableRecord
  2
229
 70
     0
 62
   229
  6
CONTINUOUS
370
    -3
390
F
  0
LAYER
  5
11F
330
2
100
AcDbSymbolTableRecord
100
AcDbLayerTableRecord
  2
230
 70
     0
 62
   230
  6
CONTINUOUS
370
    -3
390
F
  0
LAYER
  5
120
330
2
100
AcDbSymbolTableRecord
100
AcDbLayerTableRecord
  2
231
 70
     0
 62
   231
  6
CONTINUOUS
370
    -3
390
F
  0
LAYER
  5
121
330
2
100
AcDbSymbolTableRecord
100
AcDbLayerTableRecord
  2
232
 70
     0
 62
   232
  6
CONTINUOUS
370
    -3
390
F
  0
LAYER
  5
122
330
2
100
AcDbSymbolTableRecord
100
AcDbLayerTableRecord
  2
233
 70
     0
 62
   233
  6
CONTINUOUS
370
    -3
390
F
  0
LAYER
  5
123
330
2
100
AcDbSymbolTableRecord
100
AcDbLayerTableRecord
  2
234
 70
     0
 62
   234
  6
CONTINUOUS
370
    -3
390
F
  0
LAYER
  5
124
330
2
100
AcDbSymbolTableRecord
100
AcDbLayerTableRecord
  2
235
 70
     0
 62
   235
  6
CONTINUOUS
370
    -3
390
F
  0
LAYER
  5
125
330
2
100
AcDbSymbolTableRecord
100
AcDbLayerTableRecord
  2
236
 70
     0
 62
   236
  6
CONTINUOUS
370
    -3
390
F
  0
LAYER
  5
126
330
2
100
AcDbSymbolTableRecord
100
AcDbLayerTableRecord
  2
237
 70
     0
 62
   237
  6
CONTINUOUS
370
    -3
390
F
  0
LAYER
  5
127
330
2
100
AcDbSymbolTableRecord
100
AcDbLayerTableRecord
  2
238
 70
     0
 62
   238
  6
CONTINUOUS
370
    -3
390
F
  0
LAYER
  5
128
330
2
100
AcDbSymbolTableRecord
100
AcDbLayerTableRecord
  2
239
 70
     0
 62
   239
  6
CONTINUOUS
370
    -3
390
F
  0
LAYER
  5
129
330
2
100
AcDbSymbolTableRecord
100
AcDbLayerTableRecord
  2
240
 70
     0
 62
   240
  6
CONTINUOUS
370
    -3
390
F
  0
LAYER
  5
12A
330
2
100
AcDbSymbolTableRecord
100
AcDbLayerTableRecord
  2
241
 70
     0
 62
   241
  6
CONTINUOUS
370
    -3
390
F
  0
LAYER
  5
12B
330
2
100
AcDbSymbolTableRecord
100
AcDbLayerTableRecord
  2
242
 70
     0
 62
   242
  6
CONTINUOUS
370
    -3
390
F
  0
LAYER
  5
12C
330
2
100
AcDbSymbolTableRecord
100
AcDbLayerTableRecord
  2
243
 70
     0
 62
   243
  6
CONTINUOUS
370
    -3
390
F
  0
LAYER
  5
12D
330
2
100
AcDbSymbolTableRecord
100
AcDbLayerTableRecord
  2
244
 70
     0
 62
   244
  6
CONTINUOUS
370
    -3
390
F
  0
LAYER
  5
12E
330
2
100
AcDbSymbolTableRecord
100
AcDbLayerTableRecord
  2
245
 70
     0
 62
   245
  6
CONTINUOUS
370
    -3
390
F
  0
LAYER
  5
12F
330
2
100
AcDbSymbolTableRecord
100
AcDbLayerTableRecord
  2
246
 70
     0
 62
   246
  6
CONTINUOUS
370
    -3
390
F
  0
LAYER
  5
130
330
2
100
AcDbSymbolTableRecord
100
AcDbLayerTableRecord
  2
247
 70
     0
 62
   247
  6
CONTINUOUS
370
    -3
390
F
  0
LAYER
  5
131
330
2
100
AcDbSymbolTableRecord
100
AcDbLayerTableRecord
  2
248
 70
     0
 62
   248
  6
CONTINUOUS
370
    -3
390
F
  0
LAYER
  5
132
330
2
100
AcDbSymbolTableRecord
100
AcDbLayerTableRecord
  2
249
 70
     0
 62
   249
  6
CONTINUOUS
370
    -3
390
F
  0
LAYER
  5
133
330
2
100
AcDbSymbolTableRecord
100
AcDbLayerTableRecord
  2
250
 70
     0
 62
   250
  6
CONTINUOUS
370
    -3
390
F
  0
LAYER
  5
134
330
2
100
AcDbSymbolTableRecord
100
AcDbLayerTableRecord
  2
251
 70
     0
 62
   251
  6
CONTINUOUS
370
    -3
390
F
  0
LAYER
  5
135
330
2
100
AcDbSymbolTableRecord
100
AcDbLayerTableRecord
  2
252
 70
     0
 62
   252
  6
CONTINUOUS
370
    -3
390
F
  0
LAYER
  5
136
330
2
100
AcDbSymbolTableRecord
100
AcDbLayerTableRecord
  2
253
 70
     0
 62
   253
  6
CONTINUOUS
370
    -3
390
F
  0
LAYER
  5
137
330
2
100
AcDbSymbolTableRecord
100
AcDbLayerTableRecord
  2
254
 70
     0
 62
   254
  6
CONTINUOUS
370
    -3
390
F
  0
LAYER
  5
138
330
2
100
AcDbSymbolTableRecord
100
AcDbLayerTableRecord
  2
255
 70
     0
 62
   255
  6
CONTINUOUS
370
    -3
390
F
  0
ENDTAB
  0
TABLE
  2
STYLE
  5
3
330
0
100
AcDbSymbolTable
 70
     1
  0
STYLE
  5
11
330
3
100
AcDbSymbolTableRecord
100
AcDbTextStyleTableRecord
  2
STANDARD
 70
     0
 40
0.0
 41
1.0
 50
0.0
 71
     0
 42
0.2
  3
monotxt
  4

  0
ENDTAB
  0
TABLE
  2
VIEW
  5
6
330
0
100
AcDbSymbolTable
 70
     0
  0
ENDTAB
  0
TABLE
  2
UCS
  5
7
330
0
100
AcDbSymbolTable
 70
     0
  0
ENDTAB
  0
TABLE
  2
APPID
  5
9
330
0
100
AcDbSymbolTable
 70
     1
  0
APPID
  5
12
330
9
100
AcDbSymbolTableRecord
100
AcDbRegAppTableRecord
  2
ACAD
 70
     0
  0
ENDTAB
  0
TABLE
  2
DIMSTYLE
  5
A
330
0
100
AcDbSymbolTable
 70
     1
100
AcDbDimStyleTable
 71
     0
  0
DIMSTYLE
105
19BF
330
A
100
AcDbSymbolTableRecord
100
AcDbDimStyleTableRecord
  2
Standard
 70
     0
340
11
  0
ENDTAB
  0
TABLE
  2
BLOCK_RECORD
  5
1
330
0
100
AcDbSymbolTable
 70
     0
  0
BLOCK_RECORD
  5
1E
330
1
100
AcDbSymbolTableRecord
100
AcDbBlockTableRecord
  2
*Model_Space
340
21
  0
BLOCK_RECORD
  5
1A
330
1
100
AcDbSymbolTableRecord
100
AcDbBlockTableRecord
  2
*Paper_Space
340
1D
  0
ENDTAB
  0
ENDSEC
  0
SECTION
  2
BLOCKS
  0
BLOCK
  5
13B
330
1E
100
AcDbEntity
  8
0
100
AcDbBlockBegin
  2
*Model_Space
 70
     0
 10
0.0
 20
0.0
 30
0.0
  3
*Model_Space
  1

  0
ENDBLK
  5
13C
330
1E
100
AcDbEntity
  8
0
100
AcDbBlockEnd
  0
BLOCK
  5
139
330
1A
100
AcDbEntity
 67
     1
  8
0
100
AcDbBlockBegin
  2
*Paper_Space
 70
     0
 10
0.0
 20
0.0
 30
0.0
  3
*Paper_Space
  1

  0
ENDBLK
  5
13A
330
1A
100
AcDbEntity
 67
     1
  8
0
100
AcDbBlockEnd
  0
ENDSEC
  0
SECTION
  2
ENTITIES
  0
LINE
  5
13E
330
1E
100
AcDbEntity
  8
3
100
AcDbLine
 10
-1.535433070866141
 20
0.4606299212598431
 30
0.0
 11
-1.616633858267716
 21
0.4606299212598431
 31
0.0
  0
LINE
  5
13F
330
1E
100
AcDbEntity
  8
3
100
AcDbLine
 10
-1.616633858267716
 20
-3.683070866141731
 30
0.0
 11
-1.535433070866141
 21
-3.683070866141731
 31
0.0
  0
LINE
  5
140
330
1E
100
AcDbEntity
  8
3
100
AcDbLine
 10
-3.539616141732283
 20
0.2945374015748032
 30
0.0
 11
-3.820127952755905
 21
0.279773622047244
 31
0.0
  0
LINE
  5
141
330
1E
100
AcDbEntity
  8
3
100
AcDbLine
 10
-3.312007874015748
 20
0.3056102362204727
 30
0.0
 11
-3.4251968503937
 21
0.2994586614173227
 31
0.0
  0
LINE
  5
142
330
1E
100
AcDbEntity
  8
3
100
AcDbLine
 10
-3.084399606299212
 20
0.3179133858267717
 30
0.0
 11
-3.197588582677164
 21
0.3117618110236218
 31
0.0
  0
LINE
  5
143
330
1E
100
AcDbEntity
  8
3
100
AcDbLine
 10
-2.856791338582676
 20
0.3302165354330708
 30
0.0
 11
-2.97121062992126
 21
0.3240649606299208
 31
0.0
  0
LINE
  5
144
330
1E
100
AcDbEntity
  8
3
100
AcDbLine
 10
-2.629183070866141
 20
0.3425196850393699
 30
0.0
 11
-2.743602362204724
 21
0.3363681102362208
 31
0.0
  0
LINE
  5
145
330
1E
100
AcDbEntity
  8
3
100
AcDbLine
 10
-2.319143700787401
 20
0.3585137795275588
 30
0.0
 11
-2.515994094488188
 21
0.3486712598425199
 31
0.0
  0
LINE
  5
146
330
1E
100
AcDbEntity
  8
3
100
AcDbLine
 10
-2.629183070866141
 20
-0.2271161417322838
 30
0.0
 11
-2.319143700787401
 21
-0.2431102362204722
 31
0.0
  0
LINE
  5
147
330
1E
100
AcDbEntity
  8
3
100
AcDbLine
 10
-2.856791338582676
 20
-0.2148129921259843
 30
0.0
 11
-2.742372047244094
 21
-0.2209645669291338
 31
0.0
  0
LINE
  5
148
330
1E
100
AcDbEntity
  8
3
100
AcDbLine
 10
-3.084399606299212
 20
-0.2025098425196852
 30
0.0
 11
-2.96998031496063
 21
-0.2086614173228347
 31
0.0
  0
LINE
  5
149
330
1E
100
AcDbEntity
  8
3
100
AcDbLine
 10
-3.312007874015748
 20
-0.1902066929133857
 30
0.0
 11
-3.197588582677164
 21
-0.1963582677165352
 31
0.0
  0
LINE
  5
14A
330
1E
100
AcDbEntity
  8
3
100
AcDbLine
 10
-3.539616141732283
 20
-0.1791338582677162
 30
0.0
 11
-3.4251968503937
 21
-0.1840551181102361
 31
0.0
  0
LINE
  5
14B
330
1E
100
AcDbEntity
  8
3
100
AcDbLine
 10
-3.820127952755905
 20
-0.1643700787401574
 30
0.0
 11
-3.652805118110236
 21
-0.1729822834645671
 31
0.0
  0
LINE
  5
14C
330
1E
100
AcDbEntity
  8
3
100
AcDbLine
 10
-0.7861712598425197
 20
-2.895669291338582
 30
0.0
 11
-0.8218503937007874
 21
-2.895669291338582
 31
0.0
  0
LINE
  5
14D
330
1E
100
AcDbEntity
  8
3
100
AcDbLine
 10
-0.8218503937007874
 20
-3.989419291338582
 30
0.0
 11
-0.7861712598425197
 21
-3.989419291338582
 31
0.0
  0
LINE
  5
14E
330
1E
100
AcDbEntity
  8
3
100
AcDbLine
 10
-0.7640255905511811
 20
-3.968503937007874
 30
0.0
 11
-0.7603346456692913
 21
-3.86884842519685
 31
0.0
  0
LINE
  5
14F
330
1E
100
AcDbEntity
  8
3
100
AcDbLine
 10
-0.7603346456692913
 20
-3.015009842519684
 30
0.0
 11
-0.7640255905511811
 21
-2.916584645669291
 31
0.0
  0
LINE
  5
150
330
1E
100
AcDbEntity
  8
3
100
AcDbLine
 10
-1.018700787401574
 20
-3.958661417322834
 30
0.0
 11
-0.8439960629921259
 21
-3.958661417322834
 31
0.0
  0
LINE
  5
151
330
1E
100
AcDbEntity
  8
3
100
AcDbLine
 10
-0.8439960629921259
 20
-2.92642716535433
 30
0.0
 11
-1.465305118110236
 21
-2.92642716535433
 31
0.0
  0
LINE
  5
152
330
1E
100
AcDbEntity
  8
3
100
AcDbLine
 10
-1.509596456692913
 20
-2.969488188976377
 30
0.0
 11
-1.513287401574802
 21
-3.332431102362204
 31
0.0
  0
LINE
  5
153
330
1E
100
AcDbEntity
  8
3
100
AcDbLine
 10
-1.513287401574802
 20
-3.55142716535433
 30
0.0
 11
-1.509596456692913
 21
-3.913139763779527
 31
0.0
  0
LINE
  5
154
330
1E
100
AcDbEntity
  8
3
100
AcDbLine
 10
-0.4601377952755906
 20
-3.019931102362204
 30
0.0
 11
-0.7566437007874017
 21
-3.019931102362204
 31
0.0
  0
LINE
  5
155
330
1E
100
AcDbEntity
  8
3
100
AcDbLine
 10
-0.5450295275590551
 20
-3.86515748031496
 30
0.0
 11
-0.3937007874015748
 21
-3.86515748031496
 31
0.0
  0
LINE
  5
156
330
1E
100
AcDbEntity
  8
3
100
AcDbLine
 10
-0.7566437007874017
 20
-3.86515748031496
 30
0.0
 11
-0.6422244094488189
 21
-3.86515748031496
 31
0.0
  0
LINE
  5
157
330
1E
100
AcDbEntity
  8
3
100
AcDbLine
 10
-1.654773622047243
 20
-3.617864173228346
 30
0.0
 11
-1.622785433070866
 21
-3.617864173228346
 31
0.0
  0
LINE
  5
158
330
1E
100
AcDbEntity
  8
3
100
AcDbLine
 10
-1.622785433070866
 20
-3.267224409448818
 30
0.0
 11
-1.654773622047243
 21
-3.267224409448818
 31
0.0
  0
LINE
  5
159
330
1E
100
AcDbEntity
  8
3
100
AcDbLine
 10
-1.622785433070866
 20
-3.55142716535433
 30
0.0
 11
-1.616633858267716
 21
-3.55142716535433
 31
0.0
  0
LINE
  5
15A
330
1E
100
AcDbEntity
  8
3
100
AcDbLine
 10
-1.535433070866141
 20
-3.55142716535433
 30
0.0
 11
-1.513287401574802
 21
-3.55142716535433
 31
0.0
  0
LINE
  5
15B
330
1E
100
AcDbEntity
  8
3
100
AcDbLine
 10
-1.513287401574802
 20
-3.332431102362204
 30
0.0
 11
-1.535433070866141
 21
-3.332431102362204
 31
0.0
  0
LINE
  5
15C
330
1E
100
AcDbEntity
  8
3
100
AcDbLine
 10
-1.616633858267716
 20
-3.332431102362204
 30
0.0
 11
-1.622785433070866
 21
-3.332431102362204
 31
0.0
  0
LINE
  5
15D
330
1E
100
AcDbEntity
  8
3
100
AcDbLine
 10
-2.059547244094487
 20
-0.2111220472440944
 30
0.0
 11
-2.010334645669291
 21
-0.2111220472440944
 31
0.0
  0
LINE
  5
15E
330
1E
100
AcDbEntity
  8
3
100
AcDbLine
 10
-2.010334645669291
 20
0.326525590551181
 30
0.0
 11
-2.01648622047244
 21
0.326525590551181
 31
0.0
  0
LINE
  5
15F
330
1E
100
AcDbEntity
  8
3
100
AcDbLine
 10
-2.041092519685038
 20
0.2846948818897634
 30
0.0
 11
-2.063238188976377
 21
0.2846948818897634
 31
0.0
  0
LINE
  5
160
330
1E
100
AcDbEntity
  8
3
100
AcDbLine
 10
-0.7627952755905512
 20
0.573818897637795
 30
0.0
 11
-0.9387303149606298
 21
0.5713582677165357
 31
0.0
  0
LINE
  5
161
330
1E
100
AcDbEntity
  8
3
100
AcDbLine
 10
-0.9387303149606298
 20
-0.4559547244094491
 30
0.0
 11
-0.7627952755905512
 21
-0.4584153543307084
 31
0.0
  0
LINE
  5
162
330
1E
100
AcDbEntity
  8
3
100
AcDbLine
 10
-1.827017716535433
 20
-0.2394192913385829
 30
0.0
 11
-1.616633858267716
 21
-0.2394192913385829
 31
0.0
  0
LINE
  5
163
330
1E
100
AcDbEntity
  8
3
100
AcDbLine
 10
-1.507135826771653
 20
-0.2394192913385829
 30
0.0
 11
-1.462844488188976
 21
-0.2394192913385829
 31
0.0
  0
LINE
  5
164
330
1E
100
AcDbEntity
  8
3
100
AcDbLine
 10
-1.462844488188976
 20
0.3548228346456699
 30
0.0
 11
-1.507135826771653
 21
0.3548228346456699
 31
0.0
  0
LINE
  5
165
330
1E
100
AcDbEntity
  8
3
100
AcDbLine
 10
-1.616633858267716
 20
0.3548228346456699
 30
0.0
 11
-1.827017716535433
 21
0.3548228346456699
 31
0.0
  0
LINE
  5
16B
330
1E
100
AcDbEntity
  8
3
100
AcDbLine
 10
-3.845964566929134
 20
-0.1545275590551181
 30
0.0
 11
-3.820127952755905
 21
-0.1631397637795278
 31
0.0
  0
LINE
  5
1C8
330
1E
100
AcDbEntity
  8
3
100
AcDbLine
 10
-3.5691437007874
 20
-0.107775590551181
 30
0.0
 11
-3.566683070866141
 21
-0.1126968503937009
 31
0.0
  0
LINE
  5
1FF
330
1E
100
AcDbEntity
  8
3
100
AcDbLine
 10
-2.763287401574802
 20
0.2871555118110236
 30
0.0
 11
-2.763287401574802
 21
0.2859251968503931
 31
0.0
  0
LINE
  5
2F7
330
1E
100
AcDbEntity
  8
3
100
AcDbLine
 10
-2.078001968503937
 20
-0.1791338582677162
 30
0.0
 11
-2.059547244094487
 21
-0.2098917322834648
 31
0.0
  0
LINE
  5
2FE
330
1E
100
AcDbEntity
  8
3
100
AcDbLine
 10
-2.062007874015748
 20
0.2834645669291338
 30
0.0
 11
-2.078001968503937
 21
0.3105314960629921
 31
0.0
  0
LINE
  5
33D
330
1E
100
AcDbEntity
  8
3
100
AcDbLine
 10
-1.616633858267716
 20
-3.152805118110236
 30
0.0
 11
-1.616633858267716
 21
-0.4153543307086616
 31
0.0
  0
LINE
  5
33E
330
1E
100
AcDbEntity
  8
3
100
AcDbLine
 10
-1.616633858267716
 20
-3.152805118110236
 30
0.0
 11
-1.535433070866141
 21
-3.152805118110236
 31
0.0
  0
LINE
  5
385
330
1E
100
AcDbEntity
  8
3
100
AcDbLine
 10
-1.616633858267716
 20
-0.3132381889763778
 30
0.0
 11
-1.535433070866141
 21
-0.3132381889763778
 31
0.0
  0
LINE
  5
40A
330
1E
100
AcDbEntity
  8
3
100
AcDbLine
 10
-0.7566437007874017
 20
-3.024852362204724
 30
0.0
 11
-0.7566437007874017
 21
-3.019931102362204
 31
0.0
  0
LINE
  5
430
330
1E
100
AcDbEntity
  8
3
100
AcDbLine
 10
-0.5548720472440945
 20
-3.434547244094487
 30
0.0
 11
-0.5561023622047243
 21
-3.432086614173227
 31
0.0
  0
LINE
  5
455
330
1E
100
AcDbEntity
  8
3
100
AcDbLine
 10
-0.5241141732283464
 20
-3.304133858267716
 30
0.0
 11
-0.5499507874015749
 21
-3.252460629921259
 31
0.0
  0
LINE
  5
456
330
1E
100
AcDbEntity
  8
3
100
AcDbLine
 10
-0.5684055118110237
 20
-3.219242125984251
 30
0.0
 11
-0.5499507874015749
 21
-3.252460629921259
 31
0.0
  0
LINE
  5
4AE
330
1E
100
AcDbEntity
  8
3
100
AcDbLine
 10
-0.5511811023622047
 20
-3.86515748031496
 30
0.0
 11
-0.5450295275590551
 21
-3.86392716535433
 31
0.0
  0
LINE
  5
4AF
330
1E
100
AcDbEntity
  8
3
100
AcDbLine
 10
-0.5511811023622047
 20
-3.86515748031496
 30
0.0
 11
-0.5671751968503937
 21
-3.8626968503937
 31
0.0
  0
LINE
  5
4B5
330
1E
100
AcDbEntity
  8
3
100
AcDbLine
 10
-0.6545275590551181
 20
-3.86392716535433
 30
0.0
 11
-0.6545275590551181
 21
-3.852854330708661
 31
0.0
  0
LINE
  5
526
330
1E
100
AcDbEntity
  8
3
100
AcDbLine
 10
-1.018700787401574
 20
-3.146653543307086
 30
0.0
 11
-1.018700787401574
 21
-3.183562992125983
 31
0.0
  0
LINE
  5
527
330
1E
100
AcDbEntity
  8
3
100
AcDbLine
 10
-1.018700787401574
 20
-3.183562992125983
 30
0.0
 11
-1.018700787401574
 21
-3.222933070866141
 31
0.0
  0
LINE
  5
52D
330
1E
100
AcDbEntity
  8
3
100
AcDbLine
 10
-1.018700787401574
 20
-3.956200787401574
 30
0.0
 11
-1.018700787401574
 21
-3.958661417322834
 31
0.0
  0
LINE
  5
576
330
1E
100
AcDbEntity
  8
3
100
AcDbLine
 10
-1.053149606299212
 20
-3.627706692913385
 30
0.0
 11
-1.053149606299212
 21
-3.588336614173227
 31
0.0
  0
LINE
  5
58D
330
1E
100
AcDbEntity
  8
3
100
AcDbLine
 10
-1.022391732283464
 20
-3.787647637795275
 30
0.0
 11
-1.018700787401574
 21
-3.807332677165354
 31
0.0
  0
LINE
  5
644
330
1E
100
AcDbEntity
  8
3
100
AcDbLine
 10
-1.509596456692913
 20
-3.801181102362204
 30
0.0
 11
-1.509596456692913
 21
-3.818405511811023
 31
0.0
  0
LINE
  5
689
330
1E
100
AcDbEntity
  8
3
100
AcDbLine
 10
-3.681102362204724
 20
0.0570866141732287
 30
0.0
 11
-3.624507874015748
 21
0.0570866141732287
 31
0.0
  0
LINE
  5
6C8
330
1E
100
AcDbEntity
  8
3
100
AcDbLine
 10
-2.920767716535433
 20
-0.095472440944882
 30
0.0
 11
-2.912155511811024
 21
-0.0733267716535435
 31
0.0
  0
LINE
  5
6FD
330
1E
100
AcDbEntity
  8
3
100
AcDbLine
 10
-2.674704724409449
 20
-0.1126968503937009
 30
0.0
 11
-2.678395669291337
 21
-0.1065452755905509
 31
0.0
  0
LINE
  5
76B
330
1E
100
AcDbEntity
  8
3
100
AcDbLine
 10
-3.59621062992126
 20
0.0583169291338583
 30
0.0
 11
-3.709399606299212
 21
0.0583169291338583
 31
0.0
  0
LINE
  5
82F
330
1E
100
AcDbEntity
  8
3
100
AcDbLine
 10
-2.947834645669291
 20
-0.1594488188976375
 30
0.0
 11
-2.949064960629921
 21
-0.1643700787401574
 31
0.0
  0
LINE
  5
8B4
330
1E
100
AcDbEntity
  8
3
100
AcDbLine
 10
-2.078001968503937
 20
-0.2652559055118107
 30
0.0
 11
-2.319143700787401
 21
-0.2652559055118107
 31
0.0
  0
LINE
  5
8B5
330
1E
100
AcDbEntity
  8
3
100
AcDbLine
 10
-2.078001968503937
 20
-0.2418799212598426
 30
0.0
 11
-2.078001968503937
 21
-0.2652559055118107
 31
0.0
  0
LINE
  5
8BC
330
1E
100
AcDbEntity
  8
3
100
AcDbLine
 10
-2.078001968503937
 20
0.0816929133858269
 30
0.0
 11
-2.078001968503937
 21
0.0337106299212597
 31
0.0
  0
LINE
  5
8C3
330
1E
100
AcDbEntity
  8
3
100
AcDbLine
 10
-2.078001968503937
 20
0.3806594488188977
 30
0.0
 11
-2.078001968503937
 21
0.3572834645669292
 31
0.0
  0
LINE
  5
8C4
330
1E
100
AcDbEntity
  8
3
100
AcDbLine
 10
-2.319143700787401
 20
0.3806594488188977
 30
0.0
 11
-2.078001968503937
 21
0.3806594488188977
 31
0.0
  0
LINE
  5
8DA
330
1E
100
AcDbEntity
  8
3
100
AcDbLine
 10
-2.059547244094487
 20
0.2773129921259847
 30
0.0
 11
-2.062007874015748
 21
0.2834645669291338
 31
0.0
  0
LINE
  5
8E6
330
1E
100
AcDbEntity
  8
3
100
AcDbLine
 10
-2.059547244094487
 20
-0.2098917322834648
 30
0.0
 11
-2.062007874015748
 21
-0.2037401574803148
 31
0.0
  0
LINE
  5
8F1
330
1E
100
AcDbEntity
  8
3
100
AcDbLine
 10
-2.078001968503937
 20
0.2773129921259847
 30
0.0
 11
-2.010334645669291
 21
0.2773129921259847
 31
0.0
  0
LINE
  5
8F7
330
1E
100
AcDbEntity
  8
3
100
AcDbLine
 10
-2.010334645669291
 20
-0.2652559055118107
 30
0.0
 11
-2.010334645669291
 21
-0.2418799212598426
 31
0.0
  0
LINE
  5
8FD
330
1E
100
AcDbEntity
  8
3
100
AcDbLine
 10
-1.827017716535433
 20
0.3572834645669292
 30
0.0
 11
-2.010334645669291
 21
0.3572834645669292
 31
0.0
  0
LINE
  5
8FE
330
1E
100
AcDbEntity
  8
3
100
AcDbLine
 10
-1.827017716535433
 20
0.3806594488188977
 30
0.0
 11
-1.827017716535433
 21
0.3572834645669292
 31
0.0
  0
LINE
  5
8FF
330
1E
100
AcDbEntity
  8
3
100
AcDbLine
 10
-2.010334645669291
 20
0.3806594488188977
 30
0.0
 11
-1.827017716535433
 21
0.3806594488188977
 31
0.0
  0
LINE
  5
900
330
1E
100
AcDbEntity
  8
3
100
AcDbLine
 10
-1.827017716535433
 20
0.0337106299212597
 30
0.0
 11
-2.010334645669291
 21
0.0337106299212597
 31
0.0
  0
LINE
  5
901
330
1E
100
AcDbEntity
  8
3
100
AcDbLine
 10
-1.827017716535433
 20
0.0816929133858269
 30
0.0
 11
-1.827017716535433
 21
0.0337106299212597
 31
0.0
  0
LINE
  5
907
330
1E
100
AcDbEntity
  8
3
100
AcDbLine
 10
-1.827017716535433
 20
-0.2652559055118107
 30
0.0
 11
-2.010334645669291
 21
-0.2652559055118107
 31
0.0
  0
LINE
  5
908
330
1E
100
AcDbEntity
  8
3
100
AcDbLine
 10
-1.827017716535433
 20
-0.2418799212598426
 30
0.0
 11
-1.827017716535433
 21
-0.2652559055118107
 31
0.0
  0
LINE
  5
913
330
1E
100
AcDbEntity
  8
3
100
AcDbLine
 10
-0.6176181102362205
 20
-0.0462598425196852
 30
0.0
 11
-0.6176181102362205
 21
-0.015501968503937
 31
0.0
  0
LINE
  5
919
330
1E
100
AcDbEntity
  8
3
100
AcDbLine
 10
-0.6434547244094487
 20
-0.015501968503937
 30
0.0
 11
-0.5991633858267717
 21
-0.015501968503937
 31
0.0
  0
LINE
  5
91F
330
1E
100
AcDbEntity
  8
3
100
AcDbLine
 10
-0.7627952755905512
 20
0.164124015748031
 30
0.0
 11
-0.6090059055118111
 21
0.164124015748031
 31
0.0
  0
LINE
  5
920
330
1E
100
AcDbEntity
  8
3
100
AcDbLine
 10
-0.6742125984251969
 20
-0.0659448818897639
 30
0.0
 11
-0.6742125984251969
 21
-0.0634842519685042
 31
0.0
  0
LINE
  5
926
330
1E
100
AcDbEntity
  8
3
100
AcDbLine
 10
-0.7627952755905512
 20
-0.1003937007874014
 30
0.0
 11
-0.6840551181102362
 21
-0.0794783464566926
 31
0.0
  0
LINE
  5
927
330
1E
100
AcDbEntity
  8
3
100
AcDbLine
 10
-0.7468011811023623
 20
-0.11884842519685
 30
0.0
 11
-0.7627952755905512
 21
-0.1336122047244097
 31
0.0
  0
LINE
  5
92D
330
1E
100
AcDbEntity
  8
3
100
AcDbLine
 10
-0.5585629921259843
 20
-0.015501968503937
 30
0.0
 11
-0.5597933070866141
 21
-0.1040846456692912
 31
0.0
  0
LINE
  5
92E
330
1E
100
AcDbEntity
  8
3
100
AcDbLine
 10
-0.5819389763779527
 20
-0.015501968503937
 30
0.0
 11
-0.5585629921259843
 21
-0.015501968503937
 31
0.0
  0
LINE
  5
92F
330
1E
100
AcDbEntity
  8
3
100
AcDbLine
 10
-0.5597933070866141
 20
-0.1040846456692912
 30
0.0
 11
-0.5474901574803149
 21
-0.0991633858267713
 31
0.0
  0
LINE
  5
937
330
1E
100
AcDbEntity
  8
3
100
AcDbLine
 10
-0.6434547244094487
 20
-0.0634842519685042
 30
0.0
 11
-0.6348425196850394
 21
-0.0634842519685042
 31
0.0
  0
LINE
  5
938
330
1E
100
AcDbEntity
  8
3
100
AcDbLine
 10
-0.6434547244094487
 20
-0.0634842519685042
 30
0.0
 11
-0.7627952755905512
 21
-0.0634842519685042
 31
0.0
  0
LINE
  5
939
330
1E
100
AcDbEntity
  8
3
100
AcDbLine
 10
-0.5819389763779527
 20
0.1382874015748032
 30
0.0
 11
-0.5819389763779527
 21
-0.015501968503937
 31
0.0
  0
LINE
  5
93A
330
1E
100
AcDbEntity
  8
3
100
AcDbLine
 10
-0.6434547244094487
 20
-0.015501968503937
 30
0.0
 11
-0.6434547244094487
 21
-0.0450295275590551
 31
0.0
  0
LINE
  5
946
330
1E
100
AcDbEntity
  8
3
100
AcDbLine
 10
-0.5991633858267717
 20
-0.015501968503937
 30
0.0
 11
-0.5991633858267717
 21
0.1382874015748032
 31
0.0
  0
LINE
  5
94C
330
1E
100
AcDbEntity
  8
3
100
AcDbLine
 10
-0.6003937007874017
 20
0.1382874015748032
 30
0.0
 11
-0.6028543307086615
 21
0.1444389763779523
 31
0.0
  0
LINE
  5
94D
330
1E
100
AcDbEntity
  8
3
100
AcDbLine
 10
-0.6028543307086615
 20
0.1444389763779523
 30
0.0
 11
-0.6090059055118111
 21
0.1468996062992134
 31
0.0
  0
LINE
  5
953
330
1E
100
AcDbEntity
  8
3
100
AcDbLine
 10
-0.6090059055118111
 20
0.1468996062992134
 30
0.0
 11
-0.7627952755905512
 21
0.1468996062992134
 31
0.0
  0
LINE
  5
954
330
1E
100
AcDbEntity
  8
3
100
AcDbLine
 10
-0.7627952755905512
 20
-0.0450295275590551
 30
0.0
 11
-0.6434547244094487
 21
-0.0450295275590551
 31
0.0
  0
LINE
  5
970
330
1E
100
AcDbEntity
  8
3
100
AcDbLine
 10
-1.462844488188976
 20
0.517224409448819
 30
0.0
 11
-1.462844488188976
 21
0.5356791338582681
 31
0.0
  0
LINE
  5
A0D
330
1E
100
AcDbEntity
  8
3
100
AcDbLine
 10
-1.462844488188976
 20
0.1395177165354329
 30
0.0
 11
-1.460383858267716
 21
0.1272145669291342
 31
0.0
  0
LINE
  5
A45
330
1E
100
AcDbEntity
  8
3
100
AcDbLine
 10
-1.462844488188976
 20
-0.1557578740157477
 30
0.0
 11
-1.460383858267716
 21
-0.1729822834645671
 31
0.0
  0
LINE
  5
2221
330
1E
100
AcDbEntity
  8
3
100
AcDbLine
 10
-1.441929133858267
 20
-0.4375
 30
0.0
 11
-1.122047244094487
 21
-0.4436515748031496
 31
0.0
  0
LINE
  5
2222
330
1E
100
AcDbEntity
  8
3
100
AcDbLine
 10
-1.122047244094487
 20
-0.4436515748031496
 30
0.0
 11
-0.9731791338582675
 21
-0.4461122047244097
 31
0.0
  0
LINE
  5
2223
330
1E
100
AcDbEntity
  8
3
100
AcDbLine
 10
-0.9731791338582675
 20
-0.4461122047244097
 30
0.0
 11
-0.9645669291338581
 21
-0.4461122047244097
 31
0.0
  0
LINE
  5
2224
330
1E
100
AcDbEntity
  8
3
100
AcDbLine
 10
-0.9645669291338581
 20
-0.4461122047244097
 30
0.0
 11
-0.9559547244094487
 21
-0.4473425196850394
 31
0.0
  0
LINE
  5
2225
330
1E
100
AcDbEntity
  8
3
100
AcDbLine
 10
-0.9559547244094487
 20
-0.4473425196850394
 30
0.0
 11
-0.9485728346456692
 21
-0.448572834645669
 31
0.0
  0
LINE
  5
2226
330
1E
100
AcDbEntity
  8
3
100
AcDbLine
 10
-0.9485728346456692
 20
-0.448572834645669
 30
0.0
 11
-0.9424212598425196
 21
-0.4510334645669292
 31
0.0
  0
LINE
  5
2227
330
1E
100
AcDbEntity
  8
3
100
AcDbLine
 10
-0.9424212598425196
 20
-0.4510334645669292
 30
0.0
 11
-0.9387303149606298
 21
-0.4534940944881885
 31
0.0
  0
LINE
  5
2228
330
1E
100
AcDbEntity
  8
3
100
AcDbLine
 10
-0.9387303149606298
 20
-0.4534940944881885
 30
0.0
 11
-0.9387303149606298
 21
-0.454724409448819
 31
0.0
  0
LINE
  5
2229
330
1E
100
AcDbEntity
  8
3
100
AcDbLine
 10
-1.462844488188976
 20
-0.4202755905511811
 30
0.0
 11
-1.460383858267716
 21
-0.4288877952755903
 31
0.0
  0
LINE
  5
222A
330
1E
100
AcDbEntity
  8
3
100
AcDbLine
 10
-1.460383858267716
 20
-0.4288877952755903
 30
0.0
 11
-1.456692913385826
 21
-0.4325787401574801
 31
0.0
  0
LINE
  5
222B
330
1E
100
AcDbEntity
  8
3
100
AcDbLine
 10
-1.456692913385826
 20
-0.4325787401574801
 30
0.0
 11
-1.450541338582677
 21
-0.4362696850393704
 31
0.0
  0
LINE
  5
222C
330
1E
100
AcDbEntity
  8
3
100
AcDbLine
 10
-1.450541338582677
 20
-0.4362696850393704
 30
0.0
 11
-1.444389763779527
 21
-0.4375
 31
0.0
  0
LINE
  5
222D
330
1E
100
AcDbEntity
  8
3
100
AcDbLine
 10
-1.444389763779527
 20
-0.4375
 30
0.0
 11
-1.441929133858267
 21
-0.4375
 31
0.0
  0
LINE
  5
222E
330
1E
100
AcDbEntity
  8
3
100
AcDbLine
 10
-1.441929133858267
 20
-0.3993602362204722
 30
0.0
 11
-1.441929133858267
 21
-0.4215059055118116
 31
0.0
  0
LINE
  5
222F
330
1E
100
AcDbEntity
  8
3
100
AcDbLine
 10
-1.441929133858267
 20
-0.4215059055118116
 30
0.0
 11
-1.441929133858267
 21
-0.4375
 31
0.0
  0
LINE
  5
2230
330
1E
100
AcDbEntity
  8
3
100
AcDbLine
 10
-1.462844488188976
 20
-0.3686023622047245
 30
0.0
 11
-1.460383858267716
 21
-0.3858267716535435
 31
0.0
  0
LINE
  5
2231
330
1E
100
AcDbEntity
  8
3
100
AcDbLine
 10
-1.460383858267716
 20
-0.3858267716535435
 30
0.0
 11
-1.456692913385826
 21
-0.3919783464566931
 31
0.0
  0
LINE
  5
2232
330
1E
100
AcDbEntity
  8
3
100
AcDbLine
 10
-1.456692913385826
 20
-0.3919783464566931
 30
0.0
 11
-1.450541338582677
 21
-0.3981299212598426
 31
0.0
  0
LINE
  5
2233
330
1E
100
AcDbEntity
  8
3
100
AcDbLine
 10
-1.450541338582677
 20
-0.3981299212598426
 30
0.0
 11
-1.444389763779527
 21
-0.3993602362204722
 31
0.0
  0
LINE
  5
2234
330
1E
100
AcDbEntity
  8
3
100
AcDbLine
 10
-1.444389763779527
 20
-0.3993602362204722
 30
0.0
 11
-1.441929133858267
 21
-0.3993602362204722
 31
0.0
  0
LINE
  5
2235
330
1E
100
AcDbEntity
  8
3
100
AcDbLine
 10
-1.441929133858267
 20
-0.2861712598425199
 30
0.0
 11
-1.122047244094487
 21
-0.2910925196850394
 31
0.0
  0
LINE
  5
2236
330
1E
100
AcDbEntity
  8
3
100
AcDbLine
 10
-1.122047244094487
 20
-0.2910925196850394
 30
0.0
 11
-0.9731791338582675
 21
-0.2935531496062991
 31
0.0
  0
LINE
  5
2237
330
1E
100
AcDbEntity
  8
3
100
AcDbLine
 10
-0.9485728346456692
 20
-0.4005905511811024
 30
0.0
 11
-0.9571850393700787
 21
-0.4042814960629922
 31
0.0
  0
LINE
  5
2238
330
1E
100
AcDbEntity
  8
3
100
AcDbLine
 10
-0.9571850393700787
 20
-0.4042814960629922
 30
0.0
 11
-0.9657972440944881
 21
-0.4055118110236223
 31
0.0
  0
LINE
  5
2239
330
1E
100
AcDbEntity
  8
3
100
AcDbLine
 10
-0.9657972440944881
 20
-0.4055118110236223
 30
0.0
 11
-0.9731791338582675
 21
-0.4055118110236223
 31
0.0
  0
LINE
  5
223A
330
1E
100
AcDbEntity
  8
3
100
AcDbLine
 10
-0.9731791338582675
 20
-0.4055118110236223
 30
0.0
 11
-1.277066929133858
 21
-0.4018208661417329
 31
0.0
  0
LINE
  5
223B
330
1E
100
AcDbEntity
  8
3
100
AcDbLine
 10
-1.277066929133858
 20
-0.4018208661417329
 30
0.0
 11
-1.441929133858267
 21
-0.3993602362204722
 31
0.0
  0
LINE
  5
223C
330
1E
100
AcDbEntity
  8
3
100
AcDbLine
 10
-0.9387303149606298
 20
-0.3784448818897639
 30
0.0
 11
-0.9387303149606298
 21
-0.3870570866141736
 31
0.0
  0
LINE
  5
223D
330
1E
100
AcDbEntity
  8
3
100
AcDbLine
 10
-0.9387303149606298
 20
-0.3870570866141736
 30
0.0
 11
-0.9436515748031496
 21
-0.3956692913385829
 31
0.0
  0
LINE
  5
223E
330
1E
100
AcDbEntity
  8
3
100
AcDbLine
 10
-0.9436515748031496
 20
-0.3956692913385829
 30
0.0
 11
-0.9485728346456692
 21
-0.4005905511811024
 31
0.0
  0
LINE
  5
223F
330
1E
100
AcDbEntity
  8
3
100
AcDbLine
 10
-0.9731791338582675
 20
-0.2935531496062991
 30
0.0
 11
-0.9731791338582675
 21
-0.3033956692913384
 31
0.0
  0
LINE
  5
2240
330
1E
100
AcDbEntity
  8
3
100
AcDbLine
 10
-0.9731791338582675
 20
-0.3033956692913384
 30
0.0
 11
-0.9731791338582675
 21
-0.3267716535433074
 31
0.0
  0
LINE
  5
2241
330
1E
100
AcDbEntity
  8
3
100
AcDbLine
 10
-0.9731791338582675
 20
-0.3267716535433074
 30
0.0
 11
-0.9731791338582675
 21
-0.3624507874015754
 31
0.0
  0
LINE
  5
2242
330
1E
100
AcDbEntity
  8
3
100
AcDbLine
 10
-0.9731791338582675
 20
-0.3624507874015754
 30
0.0
 11
-0.9731791338582675
 21
-0.4055118110236223
 31
0.0
  0
LINE
  5
2243
330
1E
100
AcDbEntity
  8
3
100
AcDbLine
 10
-0.9731791338582675
 20
-0.2935531496062991
 30
0.0
 11
-0.9645669291338581
 21
-0.2947834645669292
 31
0.0
  0
LINE
  5
2244
330
1E
100
AcDbEntity
  8
3
100
AcDbLine
 10
-0.9645669291338581
 20
-0.2947834645669292
 30
0.0
 11
-0.9559547244094487
 21
-0.298474409448819
 31
0.0
  0
LINE
  5
2245
330
1E
100
AcDbEntity
  8
3
100
AcDbLine
 10
-0.9559547244094487
 20
-0.298474409448819
 30
0.0
 11
-0.9485728346456692
 21
-0.3033956692913384
 31
0.0
  0
LINE
  5
2246
330
1E
100
AcDbEntity
  8
3
100
AcDbLine
 10
-0.9485728346456692
 20
-0.3033956692913384
 30
0.0
 11
-0.9424212598425196
 21
-0.3132381889763778
 31
0.0
  0
LINE
  5
2247
330
1E
100
AcDbEntity
  8
3
100
AcDbLine
 10
-0.9424212598425196
 20
-0.3132381889763778
 30
0.0
 11
-0.9387303149606298
 21
-0.3304625984251968
 31
0.0
  0
LINE
  5
2248
330
1E
100
AcDbEntity
  8
3
100
AcDbLine
 10
-0.9387303149606298
 20
-0.3304625984251968
 30
0.0
 11
-0.9387303149606298
 21
-0.3341535433070866
 31
0.0
  0
LINE
  5
2249
330
1E
100
AcDbEntity
  8
3
100
AcDbLine
 10
-0.9387303149606298
 20
-0.3341535433070866
 30
0.0
 11
-0.9387303149606298
 21
-0.3575295275590555
 31
0.0
  0
LINE
  5
224A
330
1E
100
AcDbEntity
  8
3
100
AcDbLine
 10
-0.9387303149606298
 20
-0.3575295275590555
 30
0.0
 11
-0.9387303149606298
 21
-0.3784448818897639
 31
0.0
  0
LINE
  5
224B
330
1E
100
AcDbEntity
  8
3
100
AcDbLine
 10
-1.462844488188976
 20
-0.2886318897637796
 30
0.0
 11
-1.460383858267716
 21
-0.2861712598425199
 31
0.0
  0
LINE
  5
224C
330
1E
100
AcDbEntity
  8
3
100
AcDbLine
 10
-1.460383858267716
 20
-0.2861712598425199
 30
0.0
 11
-1.456692913385826
 21
-0.2849409448818903
 31
0.0
  0
LINE
  5
224D
330
1E
100
AcDbEntity
  8
3
100
AcDbLine
 10
-1.456692913385826
 20
-0.2849409448818903
 30
0.0
 11
-1.450541338582677
 21
-0.2849409448818903
 31
0.0
  0
LINE
  5
224E
330
1E
100
AcDbEntity
  8
3
100
AcDbLine
 10
-1.450541338582677
 20
-0.2849409448818903
 30
0.0
 11
-1.444389763779527
 21
-0.2849409448818903
 31
0.0
  0
LINE
  5
224F
330
1E
100
AcDbEntity
  8
3
100
AcDbLine
 10
-1.444389763779527
 20
-0.2849409448818903
 30
0.0
 11
-1.441929133858267
 21
-0.2861712598425199
 31
0.0
  0
LINE
  5
2250
330
1E
100
AcDbEntity
  8
3
100
AcDbLine
 10
-1.460383858267716
 20
-0.1729822834645671
 30
0.0
 11
-1.456692913385826
 21
-0.1803641732283459
 31
0.0
  0
LINE
  5
2251
330
1E
100
AcDbEntity
  8
3
100
AcDbLine
 10
-1.456692913385826
 20
-0.1803641732283459
 30
0.0
 11
-1.450541338582677
 21
-0.1852854330708657
 31
0.0
  0
LINE
  5
2252
330
1E
100
AcDbEntity
  8
3
100
AcDbLine
 10
-1.450541338582677
 20
-0.1852854330708657
 30
0.0
 11
-1.444389763779527
 21
-0.1877460629921264
 31
0.0
  0
LINE
  5
2253
330
1E
100
AcDbEntity
  8
3
100
AcDbLine
 10
-1.444389763779527
 20
-0.1877460629921264
 30
0.0
 11
-1.441929133858267
 21
-0.1877460629921264
 31
0.0
  0
LINE
  5
2254
330
1E
100
AcDbEntity
  8
3
100
AcDbLine
 10
-1.441929133858267
 20
-0.1877460629921264
 30
0.0
 11
-1.441929133858267
 21
-0.2381889763779523
 31
0.0
  0
LINE
  5
2255
330
1E
100
AcDbEntity
  8
3
100
AcDbLine
 10
-1.441929133858267
 20
-0.2381889763779523
 30
0.0
 11
-1.441929133858267
 21
-0.2861712598425199
 31
0.0
  0
LINE
  5
2256
330
1E
100
AcDbEntity
  8
3
100
AcDbLine
 10
-1.441929133858267
 20
-0.0031988188976375
 30
0.0
 11
-1.122047244094487
 21
-0.0056594488188977
 31
0.0
  0
LINE
  5
2257
330
1E
100
AcDbEntity
  8
3
100
AcDbLine
 10
-1.122047244094487
 20
-0.0056594488188977
 30
0.0
 11
-0.9731791338582675
 21
-0.0068897637795278
 31
0.0
  0
LINE
  5
2258
330
1E
100
AcDbEntity
  8
3
100
AcDbLine
 10
-0.9387303149606298
 20
-0.136072834645669
 30
0.0
 11
-0.9387303149606298
 21
-0.1520669291338583
 31
0.0
  0
LINE
  5
2259
330
1E
100
AcDbEntity
  8
3
100
AcDbLine
 10
-0.9387303149606298
 20
-0.1520669291338583
 30
0.0
 11
-0.9436515748031496
 21
-0.1680610236220477
 31
0.0
  0
LINE
  5
225A
330
1E
100
AcDbEntity
  8
3
100
AcDbLine
 10
-0.9436515748031496
 20
-0.1680610236220477
 30
0.0
 11
-0.9485728346456692
 21
-0.1766732283464565
 31
0.0
  0
LINE
  5
225B
330
1E
100
AcDbEntity
  8
3
100
AcDbLine
 10
-0.9485728346456692
 20
-0.1766732283464565
 30
0.0
 11
-0.9571850393700787
 21
-0.1840551181102361
 31
0.0
  0
LINE
  5
225C
330
1E
100
AcDbEntity
  8
3
100
AcDbLine
 10
-0.9571850393700787
 20
-0.1840551181102361
 30
0.0
 11
-0.9657972440944881
 21
-0.1877460629921264
 31
0.0
  0
LINE
  5
225D
330
1E
100
AcDbEntity
  8
3
100
AcDbLine
 10
-0.9657972440944881
 20
-0.1877460629921264
 30
0.0
 11
-0.9731791338582675
 21
-0.188976377952756
 31
0.0
  0
LINE
  5
225E
330
1E
100
AcDbEntity
  8
3
100
AcDbLine
 10
-0.9731791338582675
 20
-0.188976377952756
 30
0.0
 11
-1.277066929133858
 21
-0.1877460629921264
 31
0.0
  0
LINE
  5
225F
330
1E
100
AcDbEntity
  8
3
100
AcDbLine
 10
-1.277066929133858
 20
-0.1877460629921264
 30
0.0
 11
-1.441929133858267
 21
-0.1877460629921264
 31
0.0
  0
LINE
  5
2260
330
1E
100
AcDbEntity
  8
3
100
AcDbLine
 10
-0.9731791338582675
 20
-0.0068897637795278
 30
0.0
 11
-0.9731791338582675
 21
-0.0339566929133857
 31
0.0
  0
LINE
  5
2261
330
1E
100
AcDbEntity
  8
3
100
AcDbLine
 10
-0.9731791338582675
 20
-0.0339566929133857
 30
0.0
 11
-0.9731791338582675
 21
-0.0684055118110236
 31
0.0
  0
LINE
  5
2262
330
1E
100
AcDbEntity
  8
3
100
AcDbLine
 10
-0.9731791338582675
 20
-0.0684055118110236
 30
0.0
 11
-0.9731791338582675
 21
-0.107775590551181
 31
0.0
  0
LINE
  5
2263
330
1E
100
AcDbEntity
  8
3
100
AcDbLine
 10
-0.9731791338582675
 20
-0.107775590551181
 30
0.0
 11
-0.9731791338582675
 21
-0.148375984251969
 31
0.0
  0
LINE
  5
2264
330
1E
100
AcDbEntity
  8
3
100
AcDbLine
 10
-0.9731791338582675
 20
-0.148375984251969
 30
0.0
 11
-0.9731791338582675
 21
-0.188976377952756
 31
0.0
  0
LINE
  5
2265
330
1E
100
AcDbEntity
  8
3
100
AcDbLine
 10
-0.9731791338582675
 20
-0.0068897637795278
 30
0.0
 11
-0.9645669291338581
 21
-0.0093503937007871
 31
0.0
  0
LINE
  5
2266
330
1E
100
AcDbEntity
  8
3
100
AcDbLine
 10
-0.9645669291338581
 20
-0.0093503937007871
 30
0.0
 11
-0.9559547244094487
 21
-0.0130413385826773
 31
0.0
  0
LINE
  5
2267
330
1E
100
AcDbEntity
  8
3
100
AcDbLine
 10
-0.9559547244094487
 20
-0.0130413385826773
 30
0.0
 11
-0.9485728346456692
 21
-0.0204232283464565
 31
0.0
  0
LINE
  5
2268
330
1E
100
AcDbEntity
  8
3
100
AcDbLine
 10
-0.9485728346456692
 20
-0.0204232283464565
 30
0.0
 11
-0.9424212598425196
 21
-0.0339566929133857
 31
0.0
  0
LINE
  5
2269
330
1E
100
AcDbEntity
  8
3
100
AcDbLine
 10
-0.9424212598425196
 20
-0.0339566929133857
 30
0.0
 11
-0.9387303149606298
 21
-0.0585629921259843
 31
0.0
  0
LINE
  5
226A
330
1E
100
AcDbEntity
  8
3
100
AcDbLine
 10
-0.9387303149606298
 20
-0.0585629921259843
 30
0.0
 11
-0.9387303149606298
 21
-0.0647145669291338
 31
0.0
  0
LINE
  5
226B
330
1E
100
AcDbEntity
  8
3
100
AcDbLine
 10
-0.9387303149606298
 20
-0.0647145669291338
 30
0.0
 11
-0.9387303149606298
 21
-0.1003937007874014
 31
0.0
  0
LINE
  5
226C
330
1E
100
AcDbEntity
  8
3
100
AcDbLine
 10
-0.9387303149606298
 20
-0.1003937007874014
 30
0.0
 11
-0.9387303149606298
 21
-0.136072834645669
 31
0.0
  0
LINE
  5
226D
330
1E
100
AcDbEntity
  8
3
100
AcDbLine
 10
-1.462844488188976
 20
-0.0241141732283459
 30
0.0
 11
-1.460383858267716
 21
-0.0118110236220477
 31
0.0
  0
LINE
  5
226E
330
1E
100
AcDbEntity
  8
3
100
AcDbLine
 10
-1.460383858267716
 20
-0.0118110236220477
 30
0.0
 11
-1.456692913385826
 21
-0.0068897637795278
 31
0.0
  0
LINE
  5
226F
330
1E
100
AcDbEntity
  8
3
100
AcDbLine
 10
-1.456692913385826
 20
-0.0068897637795278
 30
0.0
 11
-1.450541338582677
 21
-0.0044291338582672
 31
0.0
  0
LINE
  5
2270
330
1E
100
AcDbEntity
  8
3
100
AcDbLine
 10
-1.450541338582677
 20
-0.0044291338582672
 30
0.0
 11
-1.444389763779527
 21
-0.0031988188976375
 31
0.0
  0
LINE
  5
2271
330
1E
100
AcDbEntity
  8
3
100
AcDbLine
 10
-1.444389763779527
 20
-0.0031988188976375
 30
0.0
 11
-1.441929133858267
 21
-0.0031988188976375
 31
0.0
  0
LINE
  5
2272
330
1E
100
AcDbEntity
  8
3
100
AcDbLine
 10
-1.460383858267716
 20
0.1272145669291342
 30
0.0
 11
-1.456692913385826
 21
0.1222933070866143
 31
0.0
  0
LINE
  5
2273
330
1E
100
AcDbEntity
  8
3
100
AcDbLine
 10
-1.456692913385826
 20
0.1222933070866143
 30
0.0
 11
-1.450541338582677
 21
0.1198326771653542
 31
0.0
  0
LINE
  5
2274
330
1E
100
AcDbEntity
  8
3
100
AcDbLine
 10
-1.450541338582677
 20
0.1198326771653542
 30
0.0
 11
-1.444389763779527
 21
0.1186023622047245
 31
0.0
  0
LINE
  5
2275
330
1E
100
AcDbEntity
  8
3
100
AcDbLine
 10
-1.444389763779527
 20
0.1186023622047245
 30
0.0
 11
-1.441929133858267
 21
0.1186023622047245
 31
0.0
  0
LINE
  5
2276
330
1E
100
AcDbEntity
  8
3
100
AcDbLine
 10
-1.441929133858267
 20
0.1186023622047245
 30
0.0
 11
-1.441929133858267
 21
0.0583169291338583
 31
0.0
  0
LINE
  5
2277
330
1E
100
AcDbEntity
  8
3
100
AcDbLine
 10
-1.441929133858267
 20
0.0583169291338583
 30
0.0
 11
-1.441929133858267
 21
-0.0031988188976375
 31
0.0
  0
LINE
  5
2278
330
1E
100
AcDbEntity
  8
3
100
AcDbLine
 10
-1.441929133858267
 20
0.3031496062992134
 30
0.0
 11
-1.122047244094487
 21
0.3031496062992134
 31
0.0
  0
LINE
  5
2279
330
1E
100
AcDbEntity
  8
3
100
AcDbLine
 10
-1.122047244094487
 20
0.3031496062992134
 30
0.0
 11
-0.9731791338582675
 21
0.304379921259843
 31
0.0
  0
LINE
  5
227A
330
1E
100
AcDbEntity
  8
3
100
AcDbLine
 10
-0.9387303149606298
 20
0.1801181102362208
 30
0.0
 11
-0.9387303149606298
 21
0.1628937007874014
 31
0.0
  0
LINE
  5
227B
330
1E
100
AcDbEntity
  8
3
100
AcDbLine
 10
-0.9387303149606298
 20
0.1628937007874014
 30
0.0
 11
-0.9436515748031496
 21
0.1456692913385829
 31
0.0
  0
LINE
  5
227C
330
1E
100
AcDbEntity
  8
3
100
AcDbLine
 10
-0.9436515748031496
 20
0.1456692913385829
 30
0.0
 11
-0.9485728346456692
 21
0.1358267716535431
 31
0.0
  0
LINE
  5
227D
330
1E
100
AcDbEntity
  8
3
100
AcDbLine
 10
-0.9485728346456692
 20
0.1358267716535431
 30
0.0
 11
-0.9571850393700787
 21
0.1272145669291342
 31
0.0
  0
LINE
  5
227E
330
1E
100
AcDbEntity
  8
3
100
AcDbLine
 10
-0.9571850393700787
 20
0.1272145669291342
 30
0.0
 11
-0.9657972440944881
 21
0.123523622047244
 31
0.0
  0
LINE
  5
227F
330
1E
100
AcDbEntity
  8
3
100
AcDbLine
 10
-0.9657972440944881
 20
0.123523622047244
 30
0.0
 11
-0.9731791338582675
 21
0.1222933070866143
 31
0.0
  0
LINE
  5
2280
330
1E
100
AcDbEntity
  8
3
100
AcDbLine
 10
-0.9731791338582675
 20
0.1222933070866143
 30
0.0
 11
-1.277066929133858
 21
0.1198326771653542
 31
0.0
  0
LINE
  5
2281
330
1E
100
AcDbEntity
  8
3
100
AcDbLine
 10
-1.277066929133858
 20
0.1198326771653542
 30
0.0
 11
-1.441929133858267
 21
0.1186023622047245
 31
0.0
  0
LINE
  5
2282
330
1E
100
AcDbEntity
  8
3
100
AcDbLine
 10
-0.9731791338582675
 20
0.304379921259843
 30
0.0
 11
-0.9731791338582675
 21
0.2637795275590551
 31
0.0
  0
LINE
  5
2283
330
1E
100
AcDbEntity
  8
3
100
AcDbLine
 10
-0.9731791338582675
 20
0.2637795275590551
 30
0.0
 11
-0.9731791338582675
 21
0.223179133858268
 31
0.0
  0
LINE
  5
2284
330
1E
100
AcDbEntity
  8
3
100
AcDbLine
 10
-0.9731791338582675
 20
0.223179133858268
 30
0.0
 11
-0.9731791338582675
 21
0.1838090551181097
 31
0.0
  0
LINE
  5
2285
330
1E
100
AcDbEntity
  8
3
100
AcDbLine
 10
-0.9731791338582675
 20
0.1838090551181097
 30
0.0
 11
-0.9731791338582675
 21
0.1505905511811023
 31
0.0
  0
LINE
  5
2286
330
1E
100
AcDbEntity
  8
3
100
AcDbLine
 10
-0.9731791338582675
 20
0.1505905511811023
 30
0.0
 11
-0.9731791338582675
 21
0.1222933070866143
 31
0.0
  0
LINE
  5
2287
330
1E
100
AcDbEntity
  8
3
100
AcDbLine
 10
-0.9731791338582675
 20
0.304379921259843
 30
0.0
 11
-0.9645669291338581
 21
0.3031496062992134
 31
0.0
  0
LINE
  5
2288
330
1E
100
AcDbEntity
  8
3
100
AcDbLine
 10
-0.9645669291338581
 20
0.3031496062992134
 30
0.0
 11
-0.9559547244094487
 21
0.2982283464566931
 31
0.0
  0
LINE
  5
2289
330
1E
100
AcDbEntity
  8
3
100
AcDbLine
 10
-0.9559547244094487
 20
0.2982283464566931
 30
0.0
 11
-0.9485728346456692
 21
0.2920767716535431
 31
0.0
  0
LINE
  5
228A
330
1E
100
AcDbEntity
  8
3
100
AcDbLine
 10
-0.9485728346456692
 20
0.2920767716535431
 30
0.0
 11
-0.9424212598425196
 21
0.279773622047244
 31
0.0
  0
LINE
  5
228B
330
1E
100
AcDbEntity
  8
3
100
AcDbLine
 10
-0.9424212598425196
 20
0.279773622047244
 30
0.0
 11
-0.9387303149606298
 21
0.257627952755906
 31
0.0
  0
LINE
  5
228C
330
1E
100
AcDbEntity
  8
3
100
AcDbLine
 10
-0.9387303149606298
 20
0.257627952755906
 30
0.0
 11
-0.9387303149606298
 21
0.251476377952756
 31
0.0
  0
LINE
  5
228D
330
1E
100
AcDbEntity
  8
3
100
AcDbLine
 10
-0.9387303149606298
 20
0.251476377952756
 30
0.0
 11
-0.9387303149606298
 21
0.2157972440944884
 31
0.0
  0
LINE
  5
228E
330
1E
100
AcDbEntity
  8
3
100
AcDbLine
 10
-0.9387303149606298
 20
0.2157972440944884
 30
0.0
 11
-0.9387303149606298
 21
0.1801181102362208
 31
0.0
  0
LINE
  5
228F
330
1E
100
AcDbEntity
  8
3
100
AcDbLine
 10
-1.462844488188976
 20
0.2711614173228347
 30
0.0
 11
-1.460383858267716
 21
0.2883858267716541
 31
0.0
  0
LINE
  5
2290
330
1E
100
AcDbEntity
  8
3
100
AcDbLine
 10
-1.460383858267716
 20
0.2883858267716541
 30
0.0
 11
-1.456692913385826
 21
0.2957677165354329
 31
0.0
  0
LINE
  5
2291
330
1E
100
AcDbEntity
  8
3
100
AcDbLine
 10
-1.456692913385826
 20
0.2957677165354329
 30
0.0
 11
-1.450541338582677
 21
0.3006889763779523
 31
0.0
  0
LINE
  5
2292
330
1E
100
AcDbEntity
  8
3
100
AcDbLine
 10
-1.450541338582677
 20
0.3006889763779523
 30
0.0
 11
-1.444389763779527
 21
0.3031496062992134
 31
0.0
  0
LINE
  5
2293
330
1E
100
AcDbEntity
  8
3
100
AcDbLine
 10
-1.444389763779527
 20
0.3031496062992134
 30
0.0
 11
-1.441929133858267
 21
0.3031496062992134
 31
0.0
  0
LINE
  5
2294
330
1E
100
AcDbEntity
  8
3
100
AcDbLine
 10
-1.462844488188976
 20
0.4040354330708662
 30
0.0
 11
-1.460383858267716
 21
0.4015748031496061
 31
0.0
  0
LINE
  5
2295
330
1E
100
AcDbEntity
  8
3
100
AcDbLine
 10
-1.460383858267716
 20
0.4015748031496061
 30
0.0
 11
-1.456692913385826
 21
0.4003444881889764
 31
0.0
  0
LINE
  5
2296
330
1E
100
AcDbEntity
  8
3
100
AcDbLine
 10
-1.456692913385826
 20
0.4003444881889764
 30
0.0
 11
-1.450541338582677
 21
0.4003444881889764
 31
0.0
  0
LINE
  5
2297
330
1E
100
AcDbEntity
  8
3
100
AcDbLine
 10
-1.450541338582677
 20
0.4003444881889764
 30
0.0
 11
-1.444389763779527
 21
0.4003444881889764
 31
0.0
  0
LINE
  5
2298
330
1E
100
AcDbEntity
  8
3
100
AcDbLine
 10
-1.444389763779527
 20
0.4003444881889764
 30
0.0
 11
-1.441929133858267
 21
0.4015748031496061
 31
0.0
  0
LINE
  5
2299
330
1E
100
AcDbEntity
  8
3
100
AcDbLine
 10
-1.441929133858267
 20
0.4015748031496061
 30
0.0
 11
-1.441929133858267
 21
0.3535925196850393
 31
0.0
  0
LINE
  5
229A
330
1E
100
AcDbEntity
  8
3
100
AcDbLine
 10
-1.441929133858267
 20
0.3535925196850393
 30
0.0
 11
-1.441929133858267
 21
0.3031496062992134
 31
0.0
  0
LINE
  5
229B
330
1E
100
AcDbEntity
  8
3
100
AcDbLine
 10
-1.441929133858267
 20
0.5147637795275588
 30
0.0
 11
-1.122047244094487
 21
0.5196850393700783
 31
0.0
  0
LINE
  5
229C
330
1E
100
AcDbEntity
  8
3
100
AcDbLine
 10
-1.122047244094487
 20
0.5196850393700783
 30
0.0
 11
-0.9731791338582675
 21
0.5209153543307079
 31
0.0
  0
LINE
  5
229D
330
1E
100
AcDbEntity
  8
3
100
AcDbLine
 10
-0.9387303149606298
 20
0.4495570866141727
 30
0.0
 11
-0.9387303149606298
 21
0.4384842519685042
 31
0.0
  0
LINE
  5
229E
330
1E
100
AcDbEntity
  8
3
100
AcDbLine
 10
-0.9387303149606298
 20
0.4384842519685042
 30
0.0
 11
-0.9436515748031496
 21
0.4261811023622051
 31
0.0
  0
LINE
  5
229F
330
1E
100
AcDbEntity
  8
3
100
AcDbLine
 10
-0.9436515748031496
 20
0.4261811023622051
 30
0.0
 11
-0.9485728346456692
 21
0.4187992125984255
 31
0.0
  0
LINE
  5
22A0
330
1E
100
AcDbEntity
  8
3
100
AcDbLine
 10
-0.9485728346456692
 20
0.4187992125984255
 30
0.0
 11
-0.9571850393700787
 21
0.4126476377952755
 31
0.0
  0
LINE
  5
22A1
330
1E
100
AcDbEntity
  8
3
100
AcDbLine
 10
-0.9571850393700787
 20
0.4126476377952755
 30
0.0
 11
-0.9657972440944881
 21
0.4101870078740153
 31
0.0
  0
LINE
  5
22A2
330
1E
100
AcDbEntity
  8
3
100
AcDbLine
 10
-0.9657972440944881
 20
0.4101870078740153
 30
0.0
 11
-0.9731791338582675
 21
0.4089566929133857
 31
0.0
  0
LINE
  5
22A3
330
1E
100
AcDbEntity
  8
3
100
AcDbLine
 10
-0.9731791338582675
 20
0.4089566929133857
 30
0.0
 11
-1.277066929133858
 21
0.4040354330708662
 31
0.0
  0
LINE
  5
22A4
330
1E
100
AcDbEntity
  8
3
100
AcDbLine
 10
-1.277066929133858
 20
0.4040354330708662
 30
0.0
 11
-1.441929133858267
 21
0.4015748031496061
 31
0.0
  0
LINE
  5
22A5
330
1E
100
AcDbEntity
  8
3
100
AcDbLine
 10
-0.9731791338582675
 20
0.5209153543307079
 30
0.0
 11
-0.9731791338582675
 21
0.4778543307086616
 31
0.0
  0
LINE
  5
22A6
330
1E
100
AcDbEntity
  8
3
100
AcDbLine
 10
-0.9731791338582675
 20
0.4778543307086616
 30
0.0
 11
-0.9731791338582675
 21
0.4421751968503931
 31
0.0
  0
LINE
  5
22A7
330
1E
100
AcDbEntity
  8
3
100
AcDbLine
 10
-0.9731791338582675
 20
0.4421751968503931
 30
0.0
 11
-0.9731791338582675
 21
0.4187992125984255
 31
0.0
  0
LINE
  5
22A8
330
1E
100
AcDbEntity
  8
3
100
AcDbLine
 10
-0.9731791338582675
 20
0.4187992125984255
 30
0.0
 11
-0.9731791338582675
 21
0.4089566929133857
 31
0.0
  0
LINE
  5
22A9
330
1E
100
AcDbEntity
  8
3
100
AcDbLine
 10
-0.9731791338582675
 20
0.5209153543307079
 30
0.0
 11
-0.9645669291338581
 21
0.5209153543307079
 31
0.0
  0
LINE
  5
22AA
330
1E
100
AcDbEntity
  8
3
100
AcDbLine
 10
-0.9645669291338581
 20
0.5209153543307079
 30
0.0
 11
-0.9559547244094487
 21
0.5184547244094487
 31
0.0
  0
LINE
  5
22AB
330
1E
100
AcDbEntity
  8
3
100
AcDbLine
 10
-0.9559547244094487
 20
0.5184547244094487
 30
0.0
 11
-0.9485728346456692
 21
0.5159940944881885
 31
0.0
  0
LINE
  5
22AC
330
1E
100
AcDbEntity
  8
3
100
AcDbLine
 10
-0.9485728346456692
 20
0.5159940944881885
 30
0.0
 11
-0.9424212598425196
 21
0.5098425196850394
 31
0.0
  0
LINE
  5
22AD
330
1E
100
AcDbEntity
  8
3
100
AcDbLine
 10
-0.9424212598425196
 20
0.5098425196850394
 30
0.0
 11
-0.9387303149606298
 21
0.4975393700787403
 31
0.0
  0
LINE
  5
22AE
330
1E
100
AcDbEntity
  8
3
100
AcDbLine
 10
-0.9387303149606298
 20
0.4975393700787403
 30
0.0
 11
-0.9387303149606298
 21
0.4938484251968505
 31
0.0
  0
LINE
  5
22AF
330
1E
100
AcDbEntity
  8
3
100
AcDbLine
 10
-0.9387303149606298
 20
0.4938484251968505
 30
0.0
 11
-0.9387303149606298
 21
0.4729330708661422
 31
0.0
  0
LINE
  5
22B0
330
1E
100
AcDbEntity
  8
3
100
AcDbLine
 10
-0.9387303149606298
 20
0.4729330708661422
 30
0.0
 11
-0.9387303149606298
 21
0.4495570866141727
 31
0.0
  0
LINE
  5
22B1
330
1E
100
AcDbEntity
  8
3
100
AcDbLine
 10
-1.462844488188976
 20
0.4840059055118107
 30
0.0
 11
-1.460383858267716
 21
0.5012303149606301
 31
0.0
  0
LINE
  5
22B2
330
1E
100
AcDbEntity
  8
3
100
AcDbLine
 10
-1.460383858267716
 20
0.5012303149606301
 30
0.0
 11
-1.456692913385826
 21
0.5073818897637792
 31
0.0
  0
LINE
  5
22B3
330
1E
100
AcDbEntity
  8
3
100
AcDbLine
 10
-1.456692913385826
 20
0.5073818897637792
 30
0.0
 11
-1.450541338582677
 21
0.5135334645669292
 31
0.0
  0
LINE
  5
22B4
330
1E
100
AcDbEntity
  8
3
100
AcDbLine
 10
-1.450541338582677
 20
0.5135334645669292
 30
0.0
 11
-1.444389763779527
 21
0.5147637795275588
 31
0.0
  0
LINE
  5
22B5
330
1E
100
AcDbEntity
  8
3
100
AcDbLine
 10
-1.444389763779527
 20
0.5147637795275588
 30
0.0
 11
-1.441929133858267
 21
0.5147637795275588
 31
0.0
  0
LINE
  5
22B6
330
1E
100
AcDbEntity
  8
3
100
AcDbLine
 10
-1.462844488188976
 20
0.5356791338582681
 30
0.0
 11
-1.460383858267716
 21
0.5442913385826773
 31
0.0
  0
LINE
  5
22B7
330
1E
100
AcDbEntity
  8
3
100
AcDbLine
 10
-1.460383858267716
 20
0.5442913385826773
 30
0.0
 11
-1.456692913385826
 21
0.5479822834645672
 31
0.0
  0
LINE
  5
22B8
330
1E
100
AcDbEntity
  8
3
100
AcDbLine
 10
-1.456692913385826
 20
0.5479822834645672
 30
0.0
 11
-1.450541338582677
 21
0.551673228346457
 31
0.0
  0
LINE
  5
22B9
330
1E
100
AcDbEntity
  8
3
100
AcDbLine
 10
-1.450541338582677
 20
0.551673228346457
 30
0.0
 11
-1.444389763779527
 21
0.5529035433070866
 31
0.0
  0
LINE
  5
22BA
330
1E
100
AcDbEntity
  8
3
100
AcDbLine
 10
-1.444389763779527
 20
0.5529035433070866
 30
0.0
 11
-1.441929133858267
 21
0.5529035433070866
 31
0.0
  0
LINE
  5
22BB
330
1E
100
AcDbEntity
  8
3
100
AcDbLine
 10
-1.441929133858267
 20
0.5529035433070866
 30
0.0
 11
-1.441929133858267
 21
0.5369094488188977
 31
0.0
  0
LINE
  5
22BC
330
1E
100
AcDbEntity
  8
3
100
AcDbLine
 10
-1.441929133858267
 20
0.5369094488188977
 30
0.0
 11
-1.441929133858267
 21
0.5147637795275588
 31
0.0
  0
LINE
  5
22BD
330
1E
100
AcDbEntity
  8
3
100
AcDbLine
 10
-0.9731791338582675
 20
0.5615157480314959
 30
0.0
 11
-1.277066929133858
 21
0.5553641732283468
 31
0.0
  0
LINE
  5
22BE
330
1E
100
AcDbEntity
  8
3
100
AcDbLine
 10
-1.277066929133858
 20
0.5553641732283468
 30
0.0
 11
-1.441929133858267
 21
0.5529035433070866
 31
0.0
  0
LINE
  5
22BF
330
1E
100
AcDbEntity
  8
3
100
AcDbLine
 10
-0.9387303149606298
 20
0.570127952755906
 30
0.0
 11
-0.9387303149606298
 21
0.5676673228346459
 31
0.0
  0
LINE
  5
22C0
330
1E
100
AcDbEntity
  8
3
100
AcDbLine
 10
-0.9387303149606298
 20
0.5676673228346459
 30
0.0
 11
-0.9436515748031496
 21
0.5652066929133857
 31
0.0
  0
LINE
  5
22C1
330
1E
100
AcDbEntity
  8
3
100
AcDbLine
 10
-0.9436515748031496
 20
0.5652066929133857
 30
0.0
 11
-0.9485728346456692
 21
0.5639763779527561
 31
0.0
  0
LINE
  5
22C2
330
1E
100
AcDbEntity
  8
3
100
AcDbLine
 10
-0.9485728346456692
 20
0.5639763779527561
 30
0.0
 11
-0.9571850393700787
 21
0.5627460629921264
 31
0.0
  0
LINE
  5
22C3
330
1E
100
AcDbEntity
  8
3
100
AcDbLine
 10
-0.9571850393700787
 20
0.5627460629921264
 30
0.0
 11
-0.9657972440944881
 21
0.5615157480314959
 31
0.0
  0
LINE
  5
22C4
330
1E
100
AcDbEntity
  8
3
100
AcDbLine
 10
-0.9657972440944881
 20
0.5615157480314959
 30
0.0
 11
-0.9731791338582675
 21
0.5615157480314959
 31
0.0
  0
LINE
  5
22C5
330
1E
100
AcDbEntity
  8
3
100
AcDbLine
 10
-0.7627952755905512
 20
-0.4375
 30
0.0
 11
-0.7627952755905512
 21
-0.4116633858267718
 31
0.0
  0
LINE
  5
22C6
330
1E
100
AcDbEntity
  8
3
100
AcDbLine
 10
-0.7627952755905512
 20
-0.4116633858267718
 30
0.0
 11
-0.7627952755905512
 21
-0.3759842519685042
 31
0.0
  0
LINE
  5
22C7
330
1E
100
AcDbEntity
  8
3
100
AcDbLine
 10
-0.7627952755905512
 20
-0.3759842519685042
 30
0.0
 11
-0.7627952755905512
 21
-0.3329232283464569
 31
0.0
  0
LINE
  5
22C8
330
1E
100
AcDbEntity
  8
3
100
AcDbLine
 10
-0.7627952755905512
 20
-0.3329232283464569
 30
0.0
 11
-0.7627952755905512
 21
-0.2800196850393699
 31
0.0
  0
LINE
  5
22C9
330
1E
100
AcDbEntity
  8
3
100
AcDbLine
 10
-0.7627952755905512
 20
-0.2800196850393699
 30
0.0
 11
-0.7627952755905512
 21
-0.2209645669291338
 31
0.0
  0
LINE
  5
22CA
330
1E
100
AcDbEntity
  8
3
100
AcDbLine
 10
-0.7627952755905512
 20
-0.2209645669291338
 30
0.0
 11
-0.7627952755905512
 21
-0.1569881889763778
 31
0.0
  0
LINE
  5
22CB
330
1E
100
AcDbEntity
  8
3
100
AcDbLine
 10
-0.7627952755905512
 20
-0.1569881889763778
 30
0.0
 11
-0.7627952755905512
 21
-0.0880905511811023
 31
0.0
  0
LINE
  5
22CC
330
1E
100
AcDbEntity
  8
3
100
AcDbLine
 10
-0.7627952755905512
 20
-0.0880905511811023
 30
0.0
 11
-0.7627952755905512
 21
-0.015501968503937
 31
0.0
  0
LINE
  5
22CD
330
1E
100
AcDbEntity
  8
3
100
AcDbLine
 10
-0.7627952755905512
 20
-0.015501968503937
 30
0.0
 11
-0.7627952755905512
 21
0.0583169291338583
 31
0.0
  0
LINE
  5
22CE
330
1E
100
AcDbEntity
  8
3
100
AcDbLine
 10
-0.7627952755905512
 20
-0.4584153543307084
 30
0.0
 11
-0.7627952755905512
 21
-0.4534940944881885
 31
0.0
  0
LINE
  5
22CF
330
1E
100
AcDbEntity
  8
3
100
AcDbLine
 10
-0.7627952755905512
 20
-0.4534940944881885
 30
0.0
 11
-0.7627952755905512
 21
-0.4375
 31
0.0
  0
LINE
  5
22D0
330
1E
100
AcDbEntity
  8
3
100
AcDbLine
 10
-0.7627952755905512
 20
0.0583169291338583
 30
0.0
 11
-0.7627952755905512
 21
0.1309055118110236
 31
0.0
  0
LINE
  5
22D1
330
1E
100
AcDbEntity
  8
3
100
AcDbLine
 10
-0.7627952755905512
 20
0.1309055118110236
 30
0.0
 11
-0.7627952755905512
 21
0.2034940944881893
 31
0.0
  0
LINE
  5
22D2
330
1E
100
AcDbEntity
  8
3
100
AcDbLine
 10
-0.7627952755905512
 20
0.2034940944881893
 30
0.0
 11
-0.7627952755905512
 21
0.2723917322834644
 31
0.0
  0
LINE
  5
22D3
330
1E
100
AcDbEntity
  8
3
100
AcDbLine
 10
-0.7627952755905512
 20
0.2723917322834644
 30
0.0
 11
-0.7627952755905512
 21
0.3363681102362208
 31
0.0
  0
LINE
  5
22D4
330
1E
100
AcDbEntity
  8
3
100
AcDbLine
 10
-0.7627952755905512
 20
0.3363681102362208
 30
0.0
 11
-0.7627952755905512
 21
0.3954232283464569
 31
0.0
  0
LINE
  5
22D5
330
1E
100
AcDbEntity
  8
3
100
AcDbLine
 10
-0.7627952755905512
 20
0.3954232283464569
 30
0.0
 11
-0.7627952755905512
 21
0.4483267716535431
 31
0.0
  0
LINE
  5
22D6
330
1E
100
AcDbEntity
  8
3
100
AcDbLine
 10
-0.7627952755905512
 20
0.4483267716535431
 30
0.0
 11
-0.7627952755905512
 21
0.4926181102362209
 31
0.0
  0
LINE
  5
22D7
330
1E
100
AcDbEntity
  8
3
100
AcDbLine
 10
-0.7627952755905512
 20
0.4926181102362209
 30
0.0
 11
-0.7627952755905512
 21
0.5270669291338579
 31
0.0
  0
LINE
  5
22D8
330
1E
100
AcDbEntity
  8
3
100
AcDbLine
 10
-0.7627952755905512
 20
0.5270669291338579
 30
0.0
 11
-0.7627952755905512
 21
0.5529035433070866
 31
0.0
  0
LINE
  5
22D9
330
1E
100
AcDbEntity
  8
3
100
AcDbLine
 10
-0.7627952755905512
 20
0.5529035433070866
 30
0.0
 11
-0.7627952755905512
 21
0.5688976377952755
 31
0.0
  0
LINE
  5
22DA
330
1E
100
AcDbEntity
  8
3
100
AcDbLine
 10
-0.7627952755905512
 20
0.5688976377952755
 30
0.0
 11
-0.7627952755905512
 21
0.573818897637795
 31
0.0
  0
LINE
  5
22DB
330
1E
100
AcDbEntity
  8
3
100
AcDbLine
 10
-1.462844488188976
 20
-0.3686023622047245
 30
0.0
 11
-1.462844488188976
 21
-0.3316929133858268
 31
0.0
  0
LINE
  5
22DC
330
1E
100
AcDbEntity
  8
3
100
AcDbLine
 10
-1.462844488188976
 20
-0.3316929133858268
 30
0.0
 11
-1.462844488188976
 21
-0.3033956692913384
 31
0.0
  0
LINE
  5
22DD
330
1E
100
AcDbEntity
  8
3
100
AcDbLine
 10
-1.462844488188976
 20
-0.3033956692913384
 30
0.0
 11
-1.462844488188976
 21
-0.2886318897637796
 31
0.0
  0
LINE
  5
22DE
330
1E
100
AcDbEntity
  8
3
100
AcDbLine
 10
-1.462844488188976
 20
-0.2886318897637796
 30
0.0
 11
-1.462844488188976
 21
-0.2258858267716532
 31
0.0
  0
LINE
  5
22DF
330
1E
100
AcDbEntity
  8
3
100
AcDbLine
 10
-1.462844488188976
 20
-0.2258858267716532
 30
0.0
 11
-1.462844488188976
 21
-0.1557578740157477
 31
0.0
  0
LINE
  5
22E0
330
1E
100
AcDbEntity
  8
3
100
AcDbLine
 10
-1.462844488188976
 20
-0.1557578740157477
 30
0.0
 11
-1.462844488188976
 21
-0.107775590551181
 31
0.0
  0
LINE
  5
22E1
330
1E
100
AcDbEntity
  8
3
100
AcDbLine
 10
-1.462844488188976
 20
-0.107775590551181
 30
0.0
 11
-1.462844488188976
 21
-0.0634842519685042
 31
0.0
  0
LINE
  5
22E2
330
1E
100
AcDbEntity
  8
3
100
AcDbLine
 10
-1.462844488188976
 20
-0.0634842519685042
 30
0.0
 11
-1.462844488188976
 21
-0.0241141732283459
 31
0.0
  0
LINE
  5
22E3
330
1E
100
AcDbEntity
  8
3
100
AcDbLine
 10
-1.462844488188976
 20
-0.0241141732283459
 30
0.0
 11
-1.462844488188976
 21
0.0583169291338583
 31
0.0
  0
LINE
  5
22E4
330
1E
100
AcDbEntity
  8
3
100
AcDbLine
 10
-1.462844488188976
 20
0.0583169291338583
 30
0.0
 11
-1.462844488188976
 21
0.1395177165354329
 31
0.0
  0
LINE
  5
22E5
330
1E
100
AcDbEntity
  8
3
100
AcDbLine
 10
-1.462844488188976
 20
0.1395177165354329
 30
0.0
 11
-1.462844488188976
 21
0.1788877952755903
 31
0.0
  0
LINE
  5
22E6
330
1E
100
AcDbEntity
  8
3
100
AcDbLine
 10
-1.462844488188976
 20
0.1788877952755903
 30
0.0
 11
-1.462844488188976
 21
0.223179133858268
 31
0.0
  0
LINE
  5
22E7
330
1E
100
AcDbEntity
  8
3
100
AcDbLine
 10
-1.462844488188976
 20
0.223179133858268
 30
0.0
 11
-1.462844488188976
 21
0.2711614173228347
 31
0.0
  0
LINE
  5
22E8
330
1E
100
AcDbEntity
  8
3
100
AcDbLine
 10
-1.462844488188976
 20
0.2711614173228347
 30
0.0
 11
-1.462844488188976
 21
0.3412893700787403
 31
0.0
  0
LINE
  5
22E9
330
1E
100
AcDbEntity
  8
3
100
AcDbLine
 10
-1.462844488188976
 20
0.3412893700787403
 30
0.0
 11
-1.462844488188976
 21
0.4040354330708662
 31
0.0
  0
LINE
  5
22EA
330
1E
100
AcDbEntity
  8
3
100
AcDbLine
 10
-1.462844488188976
 20
0.4040354330708662
 30
0.0
 11
-1.462844488188976
 21
0.4187992125984255
 31
0.0
  0
LINE
  5
22EB
330
1E
100
AcDbEntity
  8
3
100
AcDbLine
 10
-1.462844488188976
 20
0.4187992125984255
 30
0.0
 11
-1.462844488188976
 21
0.4470964566929135
 31
0.0
  0
LINE
  5
22EC
330
1E
100
AcDbEntity
  8
3
100
AcDbLine
 10
-1.462844488188976
 20
0.4470964566929135
 30
0.0
 11
-1.462844488188976
 21
0.4840059055118107
 31
0.0
  0
LINE
  5
22ED
330
1E
100
AcDbEntity
  8
3
100
AcDbLine
 10
-1.462844488188976
 20
0.4840059055118107
 30
0.0
 11
-1.462844488188976
 21
0.517224409448819
 31
0.0
  0
LINE
  5
22EE
330
1E
100
AcDbEntity
  8
3
100
AcDbLine
 10
-1.462844488188976
 20
-0.4202755905511811
 30
0.0
 11
-1.462844488188976
 21
-0.4018208661417329
 31
0.0
  0
LINE
  5
22EF
330
1E
100
AcDbEntity
  8
3
100
AcDbLine
 10
-1.462844488188976
 20
-0.4018208661417329
 30
0.0
 11
-1.462844488188976
 21
-0.3686023622047245
 31
0.0
  0
LINE
  5
22F0
330
1E
100
AcDbEntity
  8
3
100
AcDbLine
 10
-0.6434547244094487
 20
-0.0450295275590551
 30
0.0
 11
-0.6434547244094487
 21
-0.0573326771653542
 31
0.0
  0
LINE
  5
22F1
330
1E
100
AcDbEntity
  8
3
100
AcDbLine
 10
-0.6434547244094487
 20
-0.0573326771653542
 30
0.0
 11
-0.6434547244094487
 21
-0.0634842519685042
 31
0.0
  0
LINE
  5
22F2
330
1E
100
AcDbEntity
  8
3
100
AcDbLine
 10
-0.6090059055118111
 20
0.164124015748031
 30
0.0
 11
-0.6090059055118111
 21
0.1592027559055116
 31
0.0
  0
LINE
  5
22F3
330
1E
100
AcDbEntity
  8
3
100
AcDbLine
 10
-0.6090059055118111
 20
0.1592027559055116
 30
0.0
 11
-0.6090059055118111
 21
0.1468996062992134
 31
0.0
  0
LINE
  5
22F4
330
1E
100
AcDbEntity
  8
3
100
AcDbLine
 10
-0.5819389763779527
 20
0.1382874015748032
 30
0.0
 11
-0.5868602362204724
 21
0.1382874015748032
 31
0.0
  0
LINE
  5
22F5
330
1E
100
AcDbEntity
  8
3
100
AcDbLine
 10
-0.5868602362204724
 20
0.1382874015748032
 30
0.0
 11
-0.5991633858267717
 21
0.1382874015748032
 31
0.0
  0
LINE
  5
22F6
330
1E
100
AcDbEntity
  8
3
100
AcDbLine
 10
-0.6176181102362205
 20
-0.0462598425196852
 30
0.0
 11
-0.6213090551181102
 21
-0.0462598425196852
 31
0.0
  0
LINE
  5
22F7
330
1E
100
AcDbEntity
  8
3
100
AcDbLine
 10
-0.6213090551181102
 20
-0.0462598425196852
 30
0.0
 11
-0.6311515748031496
 21
-0.0462598425196852
 31
0.0
  0
LINE
  5
22F8
330
1E
100
AcDbEntity
  8
3
100
AcDbLine
 10
-0.6311515748031496
 20
-0.0462598425196852
 30
0.0
 11
-0.6434547244094487
 21
-0.0450295275590551
 31
0.0
  0
LINE
  5
22F9
330
1E
100
AcDbEntity
  8
3
100
AcDbLine
 10
-0.5474901574803149
 20
-0.0991633858267713
 30
0.0
 11
-0.5425688976377953
 21
-0.0868602362204723
 31
0.0
  0
LINE
  5
22FA
330
1E
100
AcDbEntity
  8
3
100
AcDbLine
 10
-0.5425688976377953
 20
-0.0868602362204723
 30
0.0
 11
-0.5413385826771653
 21
-0.015501968503937
 31
0.0
  0
LINE
  5
22FB
330
1E
100
AcDbEntity
  8
3
100
AcDbLine
 10
-0.5413385826771653
 20
-0.015501968503937
 30
0.0
 11
-0.546259842519685
 21
-0.015501968503937
 31
0.0
  0
LINE
  5
22FC
330
1E
100
AcDbEntity
  8
3
100
AcDbLine
 10
-0.546259842519685
 20
-0.015501968503937
 30
0.0
 11
-0.5585629921259843
 21
-0.015501968503937
 31
0.0
  0
LINE
  5
22FD
330
1E
100
AcDbEntity
  8
3
100
AcDbLine
 10
-0.7468011811023623
 20
-0.11884842519685
 30
0.0
 11
-0.6914370078740158
 21
-0.1040846456692912
 31
0.0
  0
LINE
  5
22FE
330
1E
100
AcDbEntity
  8
3
100
AcDbLine
 10
-0.6914370078740158
 20
-0.1040846456692912
 30
0.0
 11
-0.5597933070866141
 21
-0.1040846456692912
 31
0.0
  0
LINE
  5
22FF
330
1E
100
AcDbEntity
  8
3
100
AcDbLine
 10
-0.6742125984251969
 20
-0.0659448818897639
 30
0.0
 11
-0.6766732283464567
 21
-0.0745570866141732
 31
0.0
  0
LINE
  5
2300
330
1E
100
AcDbEntity
  8
3
100
AcDbLine
 10
-0.6766732283464567
 20
-0.0745570866141732
 30
0.0
 11
-0.6840551181102362
 21
-0.0794783464566926
 31
0.0
  0
LINE
  5
2301
330
1E
100
AcDbEntity
  8
3
100
AcDbLine
 10
-0.6348425196850394
 20
-0.0622539370078736
 30
0.0
 11
-0.6225393700787402
 21
-0.0573326771653542
 31
0.0
  0
LINE
  5
2302
330
1E
100
AcDbEntity
  8
3
100
AcDbLine
 10
-0.6225393700787402
 20
-0.0573326771653542
 30
0.0
 11
-0.6176181102362205
 21
-0.0450295275590551
 31
0.0
  0
LINE
  5
2303
330
1E
100
AcDbEntity
  8
3
100
AcDbLine
 10
-0.5819389763779527
 20
-0.015501968503937
 30
0.0
 11
-0.5868602362204724
 21
-0.015501968503937
 31
0.0
  0
LINE
  5
2304
330
1E
100
AcDbEntity
  8
3
100
AcDbLine
 10
-0.5868602362204724
 20
-0.015501968503937
 30
0.0
 11
-0.5991633858267717
 21
-0.015501968503937
 31
0.0
  0
LINE
  5
2305
330
1E
100
AcDbEntity
  8
3
100
AcDbLine
 10
-0.5831692913385826
 20
0.1382874015748032
 30
0.0
 11
-0.5905511811023623
 21
0.1567421259842523
 31
0.0
  0
LINE
  5
2306
330
1E
100
AcDbEntity
  8
3
100
AcDbLine
 10
-0.5905511811023623
 20
0.1567421259842523
 30
0.0
 11
-0.6090059055118111
 21
0.164124015748031
 31
0.0
  0
LINE
  5
2307
330
1E
100
AcDbEntity
  8
3
100
AcDbLine
 10
-2.010334645669291
 20
-0.2418799212598426
 30
0.0
 11
-1.827017716535433
 21
-0.2418799212598426
 31
0.0
  0
LINE
  5
2308
330
1E
100
AcDbEntity
  8
3
100
AcDbLine
 10
-1.827017716535433
 20
-0.2418799212598426
 30
0.0
 11
-1.827017716535433
 21
0.0337106299212597
 31
0.0
  0
LINE
  5
2309
330
1E
100
AcDbEntity
  8
3
100
AcDbLine
 10
-2.010334645669291
 20
0.0816929133858269
 30
0.0
 11
-1.827017716535433
 21
0.0816929133858269
 31
0.0
  0
LINE
  5
230A
330
1E
100
AcDbEntity
  8
3
100
AcDbLine
 10
-1.827017716535433
 20
0.0816929133858269
 30
0.0
 11
-1.827017716535433
 21
0.3572834645669292
 31
0.0
  0
LINE
  5
230B
330
1E
100
AcDbEntity
  8
3
100
AcDbLine
 10
-2.010334645669291
 20
-0.2418799212598426
 30
0.0
 11
-2.010334645669291
 21
0.0337106299212597
 31
0.0
  0
LINE
  5
230C
330
1E
100
AcDbEntity
  8
3
100
AcDbLine
 10
-2.010334645669291
 20
0.0337106299212597
 30
0.0
 11
-2.010334645669291
 21
0.0816929133858269
 31
0.0
  0
LINE
  5
230D
330
1E
100
AcDbEntity
  8
3
100
AcDbLine
 10
-2.010334645669291
 20
0.0816929133858269
 30
0.0
 11
-2.010334645669291
 21
0.3572834645669292
 31
0.0
  0
LINE
  5
230E
330
1E
100
AcDbEntity
  8
3
100
AcDbLine
 10
-2.010334645669291
 20
0.3572834645669292
 30
0.0
 11
-2.010334645669291
 21
0.3806594488188977
 31
0.0
  0
LINE
  5
230F
330
1E
100
AcDbEntity
  8
3
100
AcDbLine
 10
-2.062007874015748
 20
-0.2037401574803148
 30
0.0
 11
-2.064468503937007
 21
-0.1902066929133857
 31
0.0
  0
LINE
  5
2310
330
1E
100
AcDbEntity
  8
3
100
AcDbLine
 10
-2.064468503937007
 20
-0.1902066929133857
 30
0.0
 11
-2.066929133858267
 21
-0.1680610236220477
 31
0.0
  0
LINE
  5
2311
330
1E
100
AcDbEntity
  8
3
100
AcDbLine
 10
-2.066929133858267
 20
-0.1680610236220477
 30
0.0
 11
-2.069389763779527
 21
-0.1409940944881884
 31
0.0
  0
LINE
  5
2312
330
1E
100
AcDbEntity
  8
3
100
AcDbLine
 10
-2.069389763779527
 20
-0.1409940944881884
 30
0.0
 11
-2.070620078740157
 21
-0.107775590551181
 31
0.0
  0
LINE
  5
2313
330
1E
100
AcDbEntity
  8
3
100
AcDbLine
 10
-2.070620078740157
 20
-0.107775590551181
 30
0.0
 11
-2.073080708661417
 21
-0.0696358267716533
 31
0.0
  0
LINE
  5
2314
330
1E
100
AcDbEntity
  8
3
100
AcDbLine
 10
-2.073080708661417
 20
-0.0696358267716533
 30
0.0
 11
-2.075541338582676
 21
-0.0278051181102361
 31
0.0
  0
LINE
  5
2315
330
1E
100
AcDbEntity
  8
3
100
AcDbLine
 10
-2.075541338582676
 20
-0.0278051181102361
 30
0.0
 11
-2.078001968503937
 21
0.0189468503937009
 31
0.0
  0
LINE
  5
2316
330
1E
100
AcDbEntity
  8
3
100
AcDbLine
 10
-2.010334645669291
 20
0.2957677165354329
 30
0.0
 11
-2.01279527559055
 21
0.3117618110236218
 31
0.0
  0
LINE
  5
2317
330
1E
100
AcDbEntity
  8
3
100
AcDbLine
 10
-2.01279527559055
 20
0.3117618110236218
 30
0.0
 11
-2.014025590551181
 21
0.3228346456692912
 31
0.0
  0
LINE
  5
2318
330
1E
100
AcDbEntity
  8
3
100
AcDbLine
 10
-2.014025590551181
 20
0.3228346456692912
 30
0.0
 11
-2.01648622047244
 21
0.326525590551181
 31
0.0
  0
LINE
  5
2319
330
1E
100
AcDbEntity
  8
3
100
AcDbLine
 10
-2.041092519685038
 20
0.2834645669291338
 30
0.0
 11
-2.039862204724409
 21
0.2834645669291338
 31
0.0
  0
LINE
  5
231A
330
1E
100
AcDbEntity
  8
3
100
AcDbLine
 10
-2.039862204724409
 20
0.2834645669291338
 30
0.0
 11
-2.037401574803149
 21
0.2773129921259847
 31
0.0
  0
LINE
  5
231B
330
1E
100
AcDbEntity
  8
3
100
AcDbLine
 10
-3.606053149606299
 20
0.0570866141732287
 30
0.0
 11
-3.612204724409449
 21
0.0570866141732287
 31
0.0
  0
LINE
  5
231C
330
1E
100
AcDbEntity
  8
3
100
AcDbLine
 10
-3.612204724409449
 20
0.0570866141732287
 30
0.0
 11
-3.618356299212598
 21
0.0570866141732287
 31
0.0
  0
LINE
  5
231D
330
1E
100
AcDbEntity
  8
3
100
AcDbLine
 10
-3.618356299212598
 20
0.0570866141732287
 30
0.0
 11
-3.624507874015748
 21
0.0570866141732287
 31
0.0
  0
LINE
  5
231E
330
1E
100
AcDbEntity
  8
3
100
AcDbLine
 10
-3.59621062992126
 20
0.0570866141732287
 30
0.0
 11
-3.598671259842519
 21
0.0570866141732287
 31
0.0
  0
LINE
  5
231F
330
1E
100
AcDbEntity
  8
3
100
AcDbLine
 10
-3.598671259842519
 20
0.0570866141732287
 30
0.0
 11
-3.602362204724409
 21
0.0570866141732287
 31
0.0
  0
LINE
  5
2320
330
1E
100
AcDbEntity
  8
3
100
AcDbLine
 10
-3.602362204724409
 20
0.0570866141732287
 30
0.0
 11
-3.606053149606299
 21
0.0570866141732287
 31
0.0
  0
LINE
  5
2321
330
1E
100
AcDbEntity
  8
3
100
AcDbLine
 10
-3.681102362204724
 20
0.0570866141732287
 30
0.0
 11
-3.689714566929134
 21
0.0570866141732287
 31
0.0
  0
LINE
  5
2322
330
1E
100
AcDbEntity
  8
3
100
AcDbLine
 10
-3.689714566929134
 20
0.0570866141732287
 30
0.0
 11
-3.697096456692913
 21
0.0570866141732287
 31
0.0
  0
LINE
  5
2323
330
1E
100
AcDbEntity
  8
3
100
AcDbLine
 10
-3.697096456692913
 20
0.0570866141732287
 30
0.0
 11
-3.702017716535433
 21
0.0570866141732287
 31
0.0
  0
LINE
  5
2324
330
1E
100
AcDbEntity
  8
3
100
AcDbLine
 10
-3.702017716535433
 20
0.0570866141732287
 30
0.0
 11
-3.706938976377953
 21
0.0570866141732287
 31
0.0
  0
LINE
  5
2325
330
1E
100
AcDbEntity
  8
3
100
AcDbLine
 10
-3.706938976377953
 20
0.0570866141732287
 30
0.0
 11
-3.709399606299212
 21
0.0570866141732287
 31
0.0
  0
LINE
  5
2326
330
1E
100
AcDbEntity
  8
3
100
AcDbLine
 10
-3.709399606299212
 20
0.0570866141732287
 30
0.0
 11
-3.709399606299212
 21
0.0583169291338583
 31
0.0
  0
LINE
  5
2327
330
1E
100
AcDbEntity
  8
3
100
AcDbLine
 10
-2.319143700787401
 20
0.0816929133858269
 30
0.0
 11
-2.078001968503937
 21
0.0816929133858269
 31
0.0
  0
LINE
  5
2328
330
1E
100
AcDbEntity
  8
3
100
AcDbLine
 10
-2.078001968503937
 20
0.0816929133858269
 30
0.0
 11
-2.078001968503937
 21
0.3572834645669292
 31
0.0
  0
LINE
  5
2329
330
1E
100
AcDbEntity
  8
3
100
AcDbLine
 10
-2.078001968503937
 20
0.3572834645669292
 30
0.0
 11
-2.319143700787401
 21
0.3572834645669292
 31
0.0
  0
LINE
  5
232A
330
1E
100
AcDbEntity
  8
3
100
AcDbLine
 10
-2.319143700787401
 20
-0.2418799212598426
 30
0.0
 11
-2.078001968503937
 21
-0.2418799212598426
 31
0.0
  0
LINE
  5
232B
330
1E
100
AcDbEntity
  8
3
100
AcDbLine
 10
-2.078001968503937
 20
-0.2418799212598426
 30
0.0
 11
-2.078001968503937
 21
0.0337106299212597
 31
0.0
  0
LINE
  5
232C
330
1E
100
AcDbEntity
  8
3
100
AcDbLine
 10
-2.078001968503937
 20
0.0337106299212597
 30
0.0
 11
-2.319143700787401
 21
0.0337106299212597
 31
0.0
  0
LINE
  5
232D
330
1E
100
AcDbEntity
  8
3
100
AcDbLine
 10
-2.319143700787401
 20
-0.2652559055118107
 30
0.0
 11
-2.319143700787401
 21
-0.2418799212598426
 31
0.0
  0
LINE
  5
232E
330
1E
100
AcDbEntity
  8
3
100
AcDbLine
 10
-2.319143700787401
 20
-0.2418799212598426
 30
0.0
 11
-2.319143700787401
 21
0.0337106299212597
 31
0.0
  0
LINE
  5
232F
330
1E
100
AcDbEntity
  8
3
100
AcDbLine
 10
-2.319143700787401
 20
0.0337106299212597
 30
0.0
 11
-2.319143700787401
 21
0.0816929133858269
 31
0.0
  0
LINE
  5
2330
330
1E
100
AcDbEntity
  8
3
100
AcDbLine
 10
-2.319143700787401
 20
0.0816929133858269
 30
0.0
 11
-2.319143700787401
 21
0.3572834645669292
 31
0.0
  0
LINE
  5
2331
330
1E
100
AcDbEntity
  8
3
100
AcDbLine
 10
-2.319143700787401
 20
0.3572834645669292
 30
0.0
 11
-2.319143700787401
 21
0.3806594488188977
 31
0.0
  0
LINE
  5
2332
330
1E
100
AcDbEntity
  8
3
100
AcDbLine
 10
-3.871801181102362
 20
-0.0868602362204723
 30
0.0
 11
-3.871801181102362
 21
-0.0597933070866139
 31
0.0
  0
LINE
  5
2333
330
1E
100
AcDbEntity
  8
3
100
AcDbLine
 10
-3.871801181102362
 20
-0.0597933070866139
 30
0.0
 11
-3.871801181102362
 21
-0.0253444881889764
 31
0.0
  0
LINE
  5
2334
330
1E
100
AcDbEntity
  8
3
100
AcDbLine
 10
-3.871801181102362
 20
-0.0253444881889764
 30
0.0
 11
-3.871801181102362
 21
0.014025590551181
 31
0.0
  0
LINE
  5
2335
330
1E
100
AcDbEntity
  8
3
100
AcDbLine
 10
-3.871801181102362
 20
0.014025590551181
 30
0.0
 11
-3.871801181102362
 21
0.0583169291338583
 31
0.0
  0
LINE
  5
2336
330
1E
100
AcDbEntity
  8
3
100
AcDbLine
 10
-3.871801181102362
 20
-0.1090059055118107
 30
0.0
 11
-3.871801181102362
 21
-0.1040846456692912
 31
0.0
  0
LINE
  5
2337
330
1E
100
AcDbEntity
  8
3
100
AcDbLine
 10
-3.871801181102362
 20
-0.1040846456692912
 30
0.0
 11
-3.871801181102362
 21
-0.0868602362204723
 31
0.0
  0
LINE
  5
2338
330
1E
100
AcDbEntity
  8
3
100
AcDbLine
 10
-3.871801181102362
 20
0.0583169291338583
 30
0.0
 11
-3.871801181102362
 21
0.1013779527559055
 31
0.0
  0
LINE
  5
2339
330
1E
100
AcDbEntity
  8
3
100
AcDbLine
 10
-3.871801181102362
 20
0.1013779527559055
 30
0.0
 11
-3.871801181102362
 21
0.1407480314960634
 31
0.0
  0
LINE
  5
233A
330
1E
100
AcDbEntity
  8
3
100
AcDbLine
 10
-3.871801181102362
 20
0.1407480314960634
 30
0.0
 11
-3.871801181102362
 21
0.1751968503937005
 31
0.0
  0
LINE
  5
233B
330
1E
100
AcDbEntity
  8
3
100
AcDbLine
 10
-3.871801181102362
 20
0.1751968503937005
 30
0.0
 11
-3.871801181102362
 21
0.2022637795275588
 31
0.0
  0
LINE
  5
233C
330
1E
100
AcDbEntity
  8
3
100
AcDbLine
 10
-3.871801181102362
 20
0.2022637795275588
 30
0.0
 11
-3.871801181102362
 21
0.2194881889763782
 31
0.0
  0
LINE
  5
233D
330
1E
100
AcDbEntity
  8
3
100
AcDbLine
 10
-3.871801181102362
 20
0.2194881889763782
 30
0.0
 11
-3.871801181102362
 21
0.2244094488188977
 31
0.0
  0
LINE
  5
233E
330
1E
100
AcDbEntity
  8
3
100
AcDbLine
 10
-3.672490157480314
 20
-0.1373031496062991
 30
0.0
 11
-3.678641732283464
 21
-0.1139271653543306
 31
0.0
  0
LINE
  5
233F
330
1E
100
AcDbEntity
  8
3
100
AcDbLine
 10
-3.678641732283464
 20
-0.1139271653543306
 30
0.0
 11
-3.686023622047243
 21
-0.0843996062992125
 31
0.0
  0
LINE
  5
2340
330
1E
100
AcDbEntity
  8
3
100
AcDbLine
 10
-3.686023622047243
 20
-0.0843996062992125
 30
0.0
 11
-3.692175196850393
 21
-0.0524114173228347
 31
0.0
  0
LINE
  5
2341
330
1E
100
AcDbEntity
  8
3
100
AcDbLine
 10
-3.692175196850393
 20
-0.0524114173228347
 30
0.0
 11
-3.698326771653543
 21
-0.0167322834645671
 31
0.0
  0
LINE
  5
2342
330
1E
100
AcDbEntity
  8
3
100
AcDbLine
 10
-3.698326771653543
 20
-0.0167322834645671
 30
0.0
 11
-3.703248031496062
 21
0.020177165354331
 31
0.0
  0
LINE
  5
2343
330
1E
100
AcDbEntity
  8
3
100
AcDbLine
 10
-3.703248031496062
 20
0.020177165354331
 30
0.0
 11
-3.709399606299212
 21
0.0583169291338583
 31
0.0
  0
LINE
  5
2344
330
1E
100
AcDbEntity
  8
3
100
AcDbLine
 10
-3.626968503937007
 20
-0.1176181102362204
 30
0.0
 11
-3.629429133858268
 21
-0.1274606299212597
 31
0.0
  0
LINE
  5
2345
330
1E
100
AcDbEntity
  8
3
100
AcDbLine
 10
-3.629429133858268
 20
-0.1274606299212597
 30
0.0
 11
-3.635580708661417
 21
-0.148375984251969
 31
0.0
  0
LINE
  5
2346
330
1E
100
AcDbEntity
  8
3
100
AcDbLine
 10
-3.635580708661417
 20
-0.148375984251969
 30
0.0
 11
-3.641732283464566
 21
-0.1631397637795278
 31
0.0
  0
LINE
  5
2347
330
1E
100
AcDbEntity
  8
3
100
AcDbLine
 10
-3.641732283464566
 20
-0.1631397637795278
 30
0.0
 11
-3.647883858267715
 21
-0.1705216535433069
 31
0.0
  0
LINE
  5
2348
330
1E
100
AcDbEntity
  8
3
100
AcDbLine
 10
-3.647883858267715
 20
-0.1705216535433069
 30
0.0
 11
-3.654035433070866
 21
-0.171751968503937
 31
0.0
  0
LINE
  5
2349
330
1E
100
AcDbEntity
  8
3
100
AcDbLine
 10
-3.654035433070866
 20
-0.171751968503937
 30
0.0
 11
-3.660187007874015
 21
-0.1668307086614171
 31
0.0
  0
LINE
  5
234A
330
1E
100
AcDbEntity
  8
3
100
AcDbLine
 10
-3.660187007874015
 20
-0.1668307086614171
 30
0.0
 11
-3.666338582677164
 21
-0.1557578740157477
 31
0.0
  0
LINE
  5
234B
330
1E
100
AcDbEntity
  8
3
100
AcDbLine
 10
-3.666338582677164
 20
-0.1557578740157477
 30
0.0
 11
-3.672490157480314
 21
-0.1373031496062991
 31
0.0
  0
LINE
  5
234C
330
1E
100
AcDbEntity
  8
3
100
AcDbLine
 10
-3.499015748031496
 20
0.1665846456692912
 30
0.0
 11
-3.505167322834645
 21
0.2010334645669292
 31
0.0
  0
LINE
  5
234D
330
1E
100
AcDbEntity
  8
3
100
AcDbLine
 10
-3.505167322834645
 20
0.2010334645669292
 30
0.0
 11
-3.511318897637794
 21
0.2305610236220477
 31
0.0
  0
LINE
  5
234E
330
1E
100
AcDbEntity
  8
3
100
AcDbLine
 10
-3.511318897637794
 20
0.2305610236220477
 30
0.0
 11
-3.517470472440945
 21
0.2563976377952755
 31
0.0
  0
LINE
  5
234F
330
1E
100
AcDbEntity
  8
3
100
AcDbLine
 10
-3.517470472440945
 20
0.2563976377952755
 30
0.0
 11
-3.523622047244094
 21
0.2748523622047245
 31
0.0
  0
LINE
  5
2350
330
1E
100
AcDbEntity
  8
3
100
AcDbLine
 10
-3.523622047244094
 20
0.2748523622047245
 30
0.0
 11
-3.531003937007873
 21
0.2871555118110236
 31
0.0
  0
LINE
  5
2351
330
1E
100
AcDbEntity
  8
3
100
AcDbLine
 10
-3.531003937007873
 20
0.2871555118110236
 30
0.0
 11
-3.539616141732283
 21
0.2933070866141736
 31
0.0
  0
LINE
  5
2352
330
1E
100
AcDbEntity
  8
3
100
AcDbLine
 10
-3.400590551181102
 20
-0.1323818897637796
 30
0.0
 11
-3.406742125984251
 21
-0.1532972440944884
 31
0.0
  0
LINE
  5
2353
330
1E
100
AcDbEntity
  8
3
100
AcDbLine
 10
-3.406742125984251
 20
-0.1532972440944884
 30
0.0
 11
-3.4128937007874
 21
-0.1705216535433069
 31
0.0
  0
LINE
  5
2354
330
1E
100
AcDbEntity
  8
3
100
AcDbLine
 10
-3.4128937007874
 20
-0.1705216535433069
 30
0.0
 11
-3.419045275590551
 21
-0.1815944881889764
 31
0.0
  0
LINE
  5
2355
330
1E
100
AcDbEntity
  8
3
100
AcDbLine
 10
-3.419045275590551
 20
-0.1815944881889764
 30
0.0
 11
-3.4251968503937
 21
-0.1840551181102361
 31
0.0
  0
LINE
  5
2356
330
1E
100
AcDbEntity
  8
3
100
AcDbLine
 10
-3.4251968503937
 20
-0.1840551181102361
 30
0.0
 11
-3.43134842519685
 21
-0.1815944881889764
 31
0.0
  0
LINE
  5
2357
330
1E
100
AcDbEntity
  8
3
100
AcDbLine
 10
-3.43134842519685
 20
-0.1815944881889764
 30
0.0
 11
-3.4375
 21
-0.1705216535433069
 31
0.0
  0
LINE
  5
2358
330
1E
100
AcDbEntity
  8
3
100
AcDbLine
 10
-3.4375
 20
-0.1705216535433069
 30
0.0
 11
-3.443651574803149
 21
-0.1532972440944884
 31
0.0
  0
LINE
  5
2359
330
1E
100
AcDbEntity
  8
3
100
AcDbLine
 10
-3.443651574803149
 20
-0.1532972440944884
 30
0.0
 11
-3.449803149606299
 21
-0.1299212598425199
 31
0.0
  0
LINE
  5
235A
330
1E
100
AcDbEntity
  8
3
100
AcDbLine
 10
-3.449803149606299
 20
-0.1299212598425199
 30
0.0
 11
-3.455954724409449
 21
-0.101624015748031
 31
0.0
  0
LINE
  5
235B
330
1E
100
AcDbEntity
  8
3
100
AcDbLine
 10
-3.455954724409449
 20
-0.101624015748031
 30
0.0
 11
-3.462106299212598
 21
-0.0684055118110236
 31
0.0
  0
LINE
  5
235C
330
1E
100
AcDbEntity
  8
3
100
AcDbLine
 10
-3.462106299212598
 20
-0.0684055118110236
 30
0.0
 11
-3.468257874015748
 21
-0.0314960629921264
 31
0.0
  0
LINE
  5
235D
330
1E
100
AcDbEntity
  8
3
100
AcDbLine
 10
-3.468257874015748
 20
-0.0314960629921264
 30
0.0
 11
-3.474409448818898
 21
0.007874015748031
 31
0.0
  0
LINE
  5
235E
330
1E
100
AcDbEntity
  8
3
100
AcDbLine
 10
-3.474409448818898
 20
0.007874015748031
 30
0.0
 11
-3.480561023622047
 21
0.048474409448819
 31
0.0
  0
LINE
  5
235F
330
1E
100
AcDbEntity
  8
3
100
AcDbLine
 10
-3.480561023622047
 20
0.048474409448819
 30
0.0
 11
-3.486712598425196
 21
0.0890748031496065
 31
0.0
  0
LINE
  5
2360
330
1E
100
AcDbEntity
  8
3
100
AcDbLine
 10
-3.486712598425196
 20
0.0890748031496065
 30
0.0
 11
-3.492864173228347
 21
0.1284448818897639
 31
0.0
  0
LINE
  5
2361
330
1E
100
AcDbEntity
  8
3
100
AcDbLine
 10
-3.492864173228347
 20
0.1284448818897639
 30
0.0
 11
-3.499015748031496
 21
0.1665846456692912
 31
0.0
  0
LINE
  5
2362
330
1E
100
AcDbEntity
  8
3
100
AcDbLine
 10
-3.220964566929134
 20
-0.1459153543307083
 30
0.0
 11
-3.227116141732283
 21
-0.1176181102362204
 31
0.0
  0
LINE
  5
2363
330
1E
100
AcDbEntity
  8
3
100
AcDbLine
 10
-3.227116141732283
 20
-0.1176181102362204
 30
0.0
 11
-3.233267716535433
 21
-0.0831692913385829
 31
0.0
  0
LINE
  5
2364
330
1E
100
AcDbEntity
  8
3
100
AcDbLine
 10
-3.233267716535433
 20
-0.0831692913385829
 30
0.0
 11
-3.239419291338583
 21
-0.0462598425196852
 31
0.0
  0
LINE
  5
2365
330
1E
100
AcDbEntity
  8
3
100
AcDbLine
 10
-3.239419291338583
 20
-0.0462598425196852
 30
0.0
 11
-3.245570866141732
 21
-0.0056594488188977
 31
0.0
  0
LINE
  5
2366
330
1E
100
AcDbEntity
  8
3
100
AcDbLine
 10
-3.245570866141732
 20
-0.0056594488188977
 30
0.0
 11
-3.251722440944881
 21
0.03740157480315
 31
0.0
  0
LINE
  5
2367
330
1E
100
AcDbEntity
  8
3
100
AcDbLine
 10
-3.251722440944881
 20
0.03740157480315
 30
0.0
 11
-3.257874015748032
 21
0.0804625984251968
 31
0.0
  0
LINE
  5
2368
330
1E
100
AcDbEntity
  8
3
100
AcDbLine
 10
-3.257874015748032
 20
0.0804625984251968
 30
0.0
 11
-3.264025590551181
 21
0.1222933070866143
 31
0.0
  0
LINE
  5
2369
330
1E
100
AcDbEntity
  8
3
100
AcDbLine
 10
-3.264025590551181
 20
0.1222933070866143
 30
0.0
 11
-3.27017716535433
 21
0.1628937007874014
 31
0.0
  0
LINE
  5
236A
330
1E
100
AcDbEntity
  8
3
100
AcDbLine
 10
-3.27017716535433
 20
0.1628937007874014
 30
0.0
 11
-3.276328740157479
 21
0.1998031496062995
 31
0.0
  0
LINE
  5
236B
330
1E
100
AcDbEntity
  8
3
100
AcDbLine
 10
-3.276328740157479
 20
0.1998031496062995
 30
0.0
 11
-3.28248031496063
 21
0.2317913385826773
 31
0.0
  0
LINE
  5
236C
330
1E
100
AcDbEntity
  8
3
100
AcDbLine
 10
-3.28248031496063
 20
0.2317913385826773
 30
0.0
 11
-3.288631889763779
 21
0.2600885826771653
 31
0.0
  0
LINE
  5
236D
330
1E
100
AcDbEntity
  8
3
100
AcDbLine
 10
-3.288631889763779
 20
0.2600885826771653
 30
0.0
 11
-3.294783464566928
 21
0.2810039370078736
 31
0.0
  0
LINE
  5
236E
330
1E
100
AcDbEntity
  8
3
100
AcDbLine
 10
-3.294783464566928
 20
0.2810039370078736
 30
0.0
 11
-3.300935039370078
 21
0.2969980314960634
 31
0.0
  0
LINE
  5
236F
330
1E
100
AcDbEntity
  8
3
100
AcDbLine
 10
-3.300935039370078
 20
0.2969980314960634
 30
0.0
 11
-3.312007874015748
 21
0.3056102362204727
 31
0.0
  0
LINE
  5
2370
330
1E
100
AcDbEntity
  8
3
100
AcDbLine
 10
-3.174212598425196
 20
-0.1459153543307083
 30
0.0
 11
-3.177903543307086
 21
-0.1582185039370079
 31
0.0
  0
LINE
  5
2371
330
1E
100
AcDbEntity
  8
3
100
AcDbLine
 10
-3.177903543307086
 20
-0.1582185039370079
 30
0.0
 11
-3.184055118110236
 21
-0.1779035433070866
 31
0.0
  0
LINE
  5
2372
330
1E
100
AcDbEntity
  8
3
100
AcDbLine
 10
-3.184055118110236
 20
-0.1779035433070866
 30
0.0
 11
-3.190206692913386
 21
-0.1914370078740157
 31
0.0
  0
LINE
  5
2373
330
1E
100
AcDbEntity
  8
3
100
AcDbLine
 10
-3.190206692913386
 20
-0.1914370078740157
 30
0.0
 11
-3.196358267716535
 21
-0.1963582677165352
 31
0.0
  0
LINE
  5
2374
330
1E
100
AcDbEntity
  8
3
100
AcDbLine
 10
-3.196358267716535
 20
-0.1963582677165352
 30
0.0
 11
-3.202509842519685
 21
-0.1938976377952755
 31
0.0
  0
LINE
  5
2375
330
1E
100
AcDbEntity
  8
3
100
AcDbLine
 10
-3.202509842519685
 20
-0.1938976377952755
 30
0.0
 11
-3.208661417322834
 21
-0.1852854330708657
 31
0.0
  0
LINE
  5
2376
330
1E
100
AcDbEntity
  8
3
100
AcDbLine
 10
-3.208661417322834
 20
-0.1852854330708657
 30
0.0
 11
-3.214812992125984
 21
-0.1692913385826773
 31
0.0
  0
LINE
  5
2377
330
1E
100
AcDbEntity
  8
3
100
AcDbLine
 10
-3.214812992125984
 20
-0.1692913385826773
 30
0.0
 11
-3.220964566929134
 21
-0.1459153543307083
 31
0.0
  0
LINE
  5
2378
330
1E
100
AcDbEntity
  8
3
100
AcDbLine
 10
-3.047490157480314
 20
0.1985728346456699
 30
0.0
 11
-3.053641732283464
 21
0.2330216535433069
 31
0.0
  0
LINE
  5
2379
330
1E
100
AcDbEntity
  8
3
100
AcDbLine
 10
-3.053641732283464
 20
0.2330216535433069
 30
0.0
 11
-3.059793307086613
 21
0.2637795275590551
 31
0.0
  0
LINE
  5
237A
330
1E
100
AcDbEntity
  8
3
100
AcDbLine
 10
-3.059793307086613
 20
0.2637795275590551
 30
0.0
 11
-3.065944881889763
 21
0.2883858267716541
 31
0.0
  0
LINE
  5
237B
330
1E
100
AcDbEntity
  8
3
100
AcDbLine
 10
-3.065944881889763
 20
0.2883858267716541
 30
0.0
 11
-3.072096456692913
 21
0.3056102362204727
 31
0.0
  0
LINE
  5
237C
330
1E
100
AcDbEntity
  8
3
100
AcDbLine
 10
-3.072096456692913
 20
0.3056102362204727
 30
0.0
 11
-3.084399606299212
 21
0.3179133858267717
 31
0.0
  0
LINE
  5
237D
330
1E
100
AcDbEntity
  8
3
100
AcDbLine
 10
-2.949064960629921
 20
-0.1643700787401574
 30
0.0
 11
-2.955216535433071
 21
-0.1852854330708657
 31
0.0
  0
LINE
  5
237E
330
1E
100
AcDbEntity
  8
3
100
AcDbLine
 10
-2.955216535433071
 20
-0.1852854330708657
 30
0.0
 11
-2.96136811023622
 21
-0.2000492125984246
 31
0.0
  0
LINE
  5
237F
330
1E
100
AcDbEntity
  8
3
100
AcDbLine
 10
-2.96136811023622
 20
-0.2000492125984246
 30
0.0
 11
-2.96751968503937
 21
-0.2074311023622051
 31
0.0
  0
LINE
  5
2380
330
1E
100
AcDbEntity
  8
3
100
AcDbLine
 10
-2.96751968503937
 20
-0.2074311023622051
 30
0.0
 11
-2.973671259842519
 21
-0.2074311023622051
 31
0.0
  0
LINE
  5
2381
330
1E
100
AcDbEntity
  8
3
100
AcDbLine
 10
-2.973671259842519
 20
-0.2074311023622051
 30
0.0
 11
-2.979822834645669
 21
-0.1988188976377949
 31
0.0
  0
LINE
  5
2382
330
1E
100
AcDbEntity
  8
3
100
AcDbLine
 10
-2.979822834645669
 20
-0.1988188976377949
 30
0.0
 11
-2.985974409448819
 21
-0.1840551181102361
 31
0.0
  0
LINE
  5
2383
330
1E
100
AcDbEntity
  8
3
100
AcDbLine
 10
-2.985974409448819
 20
-0.1840551181102361
 30
0.0
 11
-2.992125984251968
 21
-0.1606791338582671
 31
0.0
  0
LINE
  5
2384
330
1E
100
AcDbEntity
  8
3
100
AcDbLine
 10
-2.992125984251968
 20
-0.1606791338582671
 30
0.0
 11
-2.998277559055117
 21
-0.1323818897637796
 31
0.0
  0
LINE
  5
2385
330
1E
100
AcDbEntity
  8
3
100
AcDbLine
 10
-2.998277559055117
 20
-0.1323818897637796
 30
0.0
 11
-3.004429133858268
 21
-0.0979330708661417
 31
0.0
  0
LINE
  5
2386
330
1E
100
AcDbEntity
  8
3
100
AcDbLine
 10
-3.004429133858268
 20
-0.0979330708661417
 30
0.0
 11
-3.010580708661417
 21
-0.0597933070866139
 31
0.0
  0
LINE
  5
2387
330
1E
100
AcDbEntity
  8
3
100
AcDbLine
 10
-3.010580708661417
 20
-0.0597933070866139
 30
0.0
 11
-3.016732283464566
 21
-0.0167322834645671
 31
0.0
  0
LINE
  5
2388
330
1E
100
AcDbEntity
  8
3
100
AcDbLine
 10
-3.016732283464566
 20
-0.0167322834645671
 30
0.0
 11
-3.022883858267715
 21
0.0263287401574801
 31
0.0
  0
LINE
  5
2389
330
1E
100
AcDbEntity
  8
3
100
AcDbLine
 10
-3.022883858267715
 20
0.0263287401574801
 30
0.0
 11
-3.029035433070866
 21
0.0718503937007875
 31
0.0
  0
LINE
  5
238A
330
1E
100
AcDbEntity
  8
3
100
AcDbLine
 10
-3.029035433070866
 20
0.0718503937007875
 30
0.0
 11
-3.035187007874015
 21
0.1161417322834648
 31
0.0
  0
LINE
  5
238B
330
1E
100
AcDbEntity
  8
3
100
AcDbLine
 10
-3.035187007874015
 20
0.1161417322834648
 30
0.0
 11
-3.041338582677164
 21
0.1592027559055116
 31
0.0
  0
LINE
  5
238C
330
1E
100
AcDbEntity
  8
3
100
AcDbLine
 10
-3.041338582677164
 20
0.1592027559055116
 30
0.0
 11
-3.047490157480314
 21
0.1985728346456699
 31
0.0
  0
LINE
  5
238D
330
1E
100
AcDbEntity
  8
3
100
AcDbLine
 10
-2.775590551181101
 20
-0.1114665354330708
 30
0.0
 11
-2.781742125984251
 21
-0.0720964566929134
 31
0.0
  0
LINE
  5
238E
330
1E
100
AcDbEntity
  8
3
100
AcDbLine
 10
-2.781742125984251
 20
-0.0720964566929134
 30
0.0
 11
-2.787893700787401
 21
-0.0278051181102361
 31
0.0
  0
LINE
  5
238F
330
1E
100
AcDbEntity
  8
3
100
AcDbLine
 10
-2.787893700787401
 20
-0.0278051181102361
 30
0.0
 11
-2.79404527559055
 21
0.0177165354330708
 31
0.0
  0
LINE
  5
2390
330
1E
100
AcDbEntity
  8
3
100
AcDbLine
 10
-2.79404527559055
 20
0.0177165354330708
 30
0.0
 11
-2.8001968503937
 21
0.0644685039370079
 31
0.0
  0
LINE
  5
2391
330
1E
100
AcDbEntity
  8
3
100
AcDbLine
 10
-2.8001968503937
 20
0.0644685039370079
 30
0.0
 11
-2.80634842519685
 21
0.1112204724409449
 31
0.0
  0
LINE
  5
2392
330
1E
100
AcDbEntity
  8
3
100
AcDbLine
 10
-2.80634842519685
 20
0.1112204724409449
 30
0.0
 11
-2.8125
 21
0.1555118110236218
 31
0.0
  0
LINE
  5
2393
330
1E
100
AcDbEntity
  8
3
100
AcDbLine
 10
-2.8125
 20
0.1555118110236218
 30
0.0
 11
-2.818651574803149
 21
0.1973425196850394
 31
0.0
  0
LINE
  5
2394
330
1E
100
AcDbEntity
  8
3
100
AcDbLine
 10
-2.818651574803149
 20
0.1973425196850394
 30
0.0
 11
-2.824803149606299
 21
0.2354822834645671
 31
0.0
  0
LINE
  5
2395
330
1E
100
AcDbEntity
  8
3
100
AcDbLine
 10
-2.824803149606299
 20
0.2354822834645671
 30
0.0
 11
-2.830954724409449
 21
0.2674704724409449
 31
0.0
  0
LINE
  5
2396
330
1E
100
AcDbEntity
  8
3
100
AcDbLine
 10
-2.830954724409449
 20
0.2674704724409449
 30
0.0
 11
-2.837106299212598
 21
0.2945374015748032
 31
0.0
  0
LINE
  5
2397
330
1E
100
AcDbEntity
  8
3
100
AcDbLine
 10
-2.837106299212598
 20
0.2945374015748032
 30
0.0
 11
-2.843257874015748
 21
0.3142224409448819
 31
0.0
  0
LINE
  5
2398
330
1E
100
AcDbEntity
  8
3
100
AcDbLine
 10
-2.843257874015748
 20
0.3142224409448819
 30
0.0
 11
-2.849409448818897
 21
0.3252952755905505
 31
0.0
  0
LINE
  5
2399
330
1E
100
AcDbEntity
  8
3
100
AcDbLine
 10
-2.849409448818897
 20
0.3252952755905505
 30
0.0
 11
-2.856791338582676
 21
0.3302165354330708
 31
0.0
  0
LINE
  5
239A
330
1E
100
AcDbEntity
  8
3
100
AcDbLine
 10
-2.721456692913386
 20
-0.1729822834645671
 30
0.0
 11
-2.726377952755905
 21
-0.1938976377952755
 31
0.0
  0
LINE
  5
239B
330
1E
100
AcDbEntity
  8
3
100
AcDbLine
 10
-2.726377952755905
 20
-0.1938976377952755
 30
0.0
 11
-2.732529527559054
 21
-0.2098917322834648
 31
0.0
  0
LINE
  5
239C
330
1E
100
AcDbEntity
  8
3
100
AcDbLine
 10
-2.732529527559054
 20
-0.2098917322834648
 30
0.0
 11
-2.738681102362204
 21
-0.2197342519685042
 31
0.0
  0
LINE
  5
239D
330
1E
100
AcDbEntity
  8
3
100
AcDbLine
 10
-2.738681102362204
 20
-0.2197342519685042
 30
0.0
 11
-2.744832677165353
 21
-0.2197342519685042
 31
0.0
  0
LINE
  5
239E
330
1E
100
AcDbEntity
  8
3
100
AcDbLine
 10
-2.744832677165353
 20
-0.2197342519685042
 30
0.0
 11
-2.750984251968503
 21
-0.2123523622047245
 31
0.0
  0
LINE
  5
239F
330
1E
100
AcDbEntity
  8
3
100
AcDbLine
 10
-2.750984251968503
 20
-0.2123523622047245
 30
0.0
 11
-2.757135826771653
 21
-0.1975885826771653
 31
0.0
  0
LINE
  5
23A0
330
1E
100
AcDbEntity
  8
3
100
AcDbLine
 10
-2.757135826771653
 20
-0.1975885826771653
 30
0.0
 11
-2.763287401574802
 21
-0.1754429133858264
 31
0.0
  0
LINE
  5
23A1
330
1E
100
AcDbEntity
  8
3
100
AcDbLine
 10
-2.763287401574802
 20
-0.1754429133858264
 30
0.0
 11
-2.769438976377952
 21
-0.1459153543307083
 31
0.0
  0
LINE
  5
23A2
330
1E
100
AcDbEntity
  8
3
100
AcDbLine
 10
-2.769438976377952
 20
-0.1459153543307083
 30
0.0
 11
-2.775590551181101
 21
-0.1114665354330708
 31
0.0
  0
LINE
  5
23A3
330
1E
100
AcDbEntity
  8
3
100
AcDbLine
 10
-2.597194881889763
 20
0.2379429133858273
 30
0.0
 11
-2.603346456692913
 21
0.2723917322834644
 31
0.0
  0
LINE
  5
23A4
330
1E
100
AcDbEntity
  8
3
100
AcDbLine
 10
-2.603346456692913
 20
0.2723917322834644
 30
0.0
 11
-2.609498031496062
 21
0.3006889763779523
 31
0.0
  0
LINE
  5
23A5
330
1E
100
AcDbEntity
  8
3
100
AcDbLine
 10
-2.609498031496062
 20
0.3006889763779523
 30
0.0
 11
-2.615649606299212
 21
0.3228346456692912
 31
0.0
  0
LINE
  5
23A6
330
1E
100
AcDbEntity
  8
3
100
AcDbLine
 10
-2.615649606299212
 20
0.3228346456692912
 30
0.0
 11
-2.621801181102362
 21
0.3363681102362208
 31
0.0
  0
LINE
  5
23A7
330
1E
100
AcDbEntity
  8
3
100
AcDbLine
 10
-2.621801181102362
 20
0.3363681102362208
 30
0.0
 11
-2.629183070866141
 21
0.3412893700787403
 31
0.0
  0
LINE
  5
23A8
330
1E
100
AcDbEntity
  8
3
100
AcDbLine
 10
-2.525836614173228
 20
0.3363681102362208
 30
0.0
 11
-2.519685039370078
 21
0.3462106299212597
 31
0.0
  0
LINE
  5
23A9
330
1E
100
AcDbEntity
  8
3
100
AcDbLine
 10
-2.519685039370078
 20
0.3462106299212597
 30
0.0
 11
-2.513533464566929
 21
0.3474409448818903
 31
0.0
  0
LINE
  5
23AA
330
1E
100
AcDbEntity
  8
3
100
AcDbLine
 10
-2.513533464566929
 20
0.3474409448818903
 30
0.0
 11
-2.507381889763779
 21
0.3412893700787403
 31
0.0
  0
LINE
  5
23AB
330
1E
100
AcDbEntity
  8
3
100
AcDbLine
 10
-2.507381889763779
 20
0.3412893700787403
 30
0.0
 11
-2.501230314960629
 21
0.326525590551181
 31
0.0
  0
LINE
  5
23AC
330
1E
100
AcDbEntity
  8
3
100
AcDbLine
 10
-2.501230314960629
 20
0.326525590551181
 30
0.0
 11
-2.49507874015748
 21
0.304379921259843
 31
0.0
  0
LINE
  5
23AD
330
1E
100
AcDbEntity
  8
3
100
AcDbLine
 10
-2.49507874015748
 20
0.304379921259843
 30
0.0
 11
-2.48892716535433
 21
0.2748523622047245
 31
0.0
  0
LINE
  5
23AE
330
1E
100
AcDbEntity
  8
3
100
AcDbLine
 10
-2.48892716535433
 20
0.2748523622047245
 30
0.0
 11
-2.48277559055118
 21
0.2379429133858273
 31
0.0
  0
LINE
  5
23AF
330
1E
100
AcDbEntity
  8
3
100
AcDbLine
 10
-2.48277559055118
 20
0.2379429133858273
 30
0.0
 11
-2.476624015748031
 21
0.1973425196850394
 31
0.0
  0
LINE
  5
23B0
330
1E
100
AcDbEntity
  8
3
100
AcDbLine
 10
-2.476624015748031
 20
0.1973425196850394
 30
0.0
 11
-2.470472440944881
 21
0.1518208661417328
 31
0.0
  0
LINE
  5
23B1
330
1E
100
AcDbEntity
  8
3
100
AcDbLine
 10
-2.470472440944881
 20
0.1518208661417328
 30
0.0
 11
-2.464320866141732
 21
0.1038385826771653
 31
0.0
  0
LINE
  5
23B2
330
1E
100
AcDbEntity
  8
3
100
AcDbLine
 10
-2.464320866141732
 20
0.1038385826771653
 30
0.0
 11
-2.458169291338582
 21
0.0583169291338583
 31
0.0
  0
LINE
  5
23B3
330
1E
100
AcDbEntity
  8
3
100
AcDbLine
 10
-2.458169291338582
 20
0.0583169291338583
 30
0.0
 11
-2.572588582677165
 21
0.0583169291338583
 31
0.0
  0
LINE
  5
23B4
330
1E
100
AcDbEntity
  8
3
100
AcDbLine
 10
-2.572588582677165
 20
0.0583169291338583
 30
0.0
 11
-2.578740157480314
 21
0.1062992125984254
 31
0.0
  0
LINE
  5
23B5
330
1E
100
AcDbEntity
  8
3
100
AcDbLine
 10
-2.578740157480314
 20
0.1062992125984254
 30
0.0
 11
-2.584891732283464
 21
0.1530511811023625
 31
0.0
  0
LINE
  5
23B6
330
1E
100
AcDbEntity
  8
3
100
AcDbLine
 10
-2.584891732283464
 20
0.1530511811023625
 30
0.0
 11
-2.591043307086613
 21
0.1973425196850394
 31
0.0
  0
LINE
  5
23B7
330
1E
100
AcDbEntity
  8
3
100
AcDbLine
 10
-2.591043307086613
 20
0.1973425196850394
 30
0.0
 11
-2.597194881889763
 21
0.2379429133858273
 31
0.0
  0
LINE
  5
23B8
330
1E
100
AcDbEntity
  8
3
100
AcDbLine
 10
-2.538139763779527
 20
0.2908464566929134
 30
0.0
 11
-2.538139763779527
 21
0.2920767716535431
 31
0.0
  0
LINE
  5
23B9
330
1E
100
AcDbEntity
  8
3
100
AcDbLine
 10
-2.538139763779527
 20
0.2920767716535431
 30
0.0
 11
-2.531988188976377
 21
0.3179133858267717
 31
0.0
  0
LINE
  5
23BA
330
1E
100
AcDbEntity
  8
3
100
AcDbLine
 10
-2.531988188976377
 20
0.3179133858267717
 30
0.0
 11
-2.525836614173228
 21
0.3363681102362208
 31
0.0
  0
LINE
  5
23BB
330
1E
100
AcDbEntity
  8
3
100
AcDbLine
 10
-2.704232283464566
 20
0.1899606299212597
 30
0.0
 11
-2.698080708661416
 21
0.1468996062992134
 31
0.0
  0
LINE
  5
23BC
330
1E
100
AcDbEntity
  8
3
100
AcDbLine
 10
-2.698080708661416
 20
0.1468996062992134
 30
0.0
 11
-2.691929133858267
 21
0.1001476377952755
 31
0.0
  0
LINE
  5
23BD
330
1E
100
AcDbEntity
  8
3
100
AcDbLine
 10
-2.691929133858267
 20
0.1001476377952755
 30
0.0
 11
-2.685777559055117
 21
0.0521653543307088
 31
0.0
  0
LINE
  5
23BE
330
1E
100
AcDbEntity
  8
3
100
AcDbLine
 10
-2.685777559055117
 20
0.0521653543307088
 30
0.0
 11
-2.679625984251968
 21
0.0054133858267718
 31
0.0
  0
LINE
  5
23BF
330
1E
100
AcDbEntity
  8
3
100
AcDbLine
 10
-2.679625984251968
 20
0.0054133858267718
 30
0.0
 11
-2.673474409448818
 21
-0.0413385826771653
 31
0.0
  0
LINE
  5
23C0
330
1E
100
AcDbEntity
  8
3
100
AcDbLine
 10
-2.673474409448818
 20
-0.0413385826771653
 30
0.0
 11
-2.667322834645669
 21
-0.0843996062992125
 31
0.0
  0
LINE
  5
23C1
330
1E
100
AcDbEntity
  8
3
100
AcDbLine
 10
-2.667322834645669
 20
-0.0843996062992125
 30
0.0
 11
-2.661171259842519
 21
-0.1237696850393699
 31
0.0
  0
LINE
  5
23C2
330
1E
100
AcDbEntity
  8
3
100
AcDbLine
 10
-2.661171259842519
 20
-0.1237696850393699
 30
0.0
 11
-2.65501968503937
 21
-0.1582185039370079
 31
0.0
  0
LINE
  5
23C3
330
1E
100
AcDbEntity
  8
3
100
AcDbLine
 10
-2.65501968503937
 20
-0.1582185039370079
 30
0.0
 11
-2.64886811023622
 21
-0.1865157480314958
 31
0.0
  0
LINE
  5
23C4
330
1E
100
AcDbEntity
  8
3
100
AcDbLine
 10
-2.64886811023622
 20
-0.1865157480314958
 30
0.0
 11
-2.642716535433071
 21
-0.2074311023622051
 31
0.0
  0
LINE
  5
23C5
330
1E
100
AcDbEntity
  8
3
100
AcDbLine
 10
-2.642716535433071
 20
-0.2074311023622051
 30
0.0
 11
-2.636564960629921
 21
-0.2209645669291338
 31
0.0
  0
LINE
  5
23C6
330
1E
100
AcDbEntity
  8
3
100
AcDbLine
 10
-2.636564960629921
 20
-0.2209645669291338
 30
0.0
 11
-2.629183070866141
 21
-0.2258858267716532
 31
0.0
  0
LINE
  5
23C7
330
1E
100
AcDbEntity
  8
3
100
AcDbLine
 10
-2.766978346456693
 20
0.2773129921259847
 30
0.0
 11
-2.765748031496062
 21
0.2834645669291338
 31
0.0
  0
LINE
  5
23C8
330
1E
100
AcDbEntity
  8
3
100
AcDbLine
 10
-2.765748031496062
 20
0.2834645669291338
 30
0.0
 11
-2.759596456692913
 21
0.3080708661417328
 31
0.0
  0
LINE
  5
23C9
330
1E
100
AcDbEntity
  8
3
100
AcDbLine
 10
-2.759596456692913
 20
0.3080708661417328
 30
0.0
 11
-2.753444881889763
 21
0.3252952755905505
 31
0.0
  0
LINE
  5
23CA
330
1E
100
AcDbEntity
  8
3
100
AcDbLine
 10
-2.753444881889763
 20
0.3252952755905505
 30
0.0
 11
-2.747293307086613
 21
0.3339074803149606
 31
0.0
  0
LINE
  5
23CB
330
1E
100
AcDbEntity
  8
3
100
AcDbLine
 10
-2.747293307086613
 20
0.3339074803149606
 30
0.0
 11
-2.741141732283464
 21
0.3351377952755903
 31
0.0
  0
LINE
  5
23CC
330
1E
100
AcDbEntity
  8
3
100
AcDbLine
 10
-2.741141732283464
 20
0.3351377952755903
 30
0.0
 11
-2.734990157480314
 21
0.3289862204724412
 31
0.0
  0
LINE
  5
23CD
330
1E
100
AcDbEntity
  8
3
100
AcDbLine
 10
-2.734990157480314
 20
0.3289862204724412
 30
0.0
 11
-2.728838582677165
 21
0.3142224409448819
 31
0.0
  0
LINE
  5
23CE
330
1E
100
AcDbEntity
  8
3
100
AcDbLine
 10
-2.728838582677165
 20
0.3142224409448819
 30
0.0
 11
-2.722687007874015
 21
0.2933070866141736
 31
0.0
  0
LINE
  5
23CF
330
1E
100
AcDbEntity
  8
3
100
AcDbLine
 10
-2.722687007874015
 20
0.2933070866141736
 30
0.0
 11
-2.716535433070865
 21
0.2637795275590551
 31
0.0
  0
LINE
  5
23D0
330
1E
100
AcDbEntity
  8
3
100
AcDbLine
 10
-2.716535433070865
 20
0.2637795275590551
 30
0.0
 11
-2.710383858267716
 21
0.2293307086614171
 31
0.0
  0
LINE
  5
23D1
330
1E
100
AcDbEntity
  8
3
100
AcDbLine
 10
-2.710383858267716
 20
0.2293307086614171
 30
0.0
 11
-2.704232283464566
 21
0.1899606299212597
 31
0.0
  0
LINE
  5
23D2
330
1E
100
AcDbEntity
  8
3
100
AcDbLine
 10
-2.882627952755905
 20
-0.1496062992125986
 30
0.0
 11
-2.876476377952755
 21
-0.1766732283464565
 31
0.0
  0
LINE
  5
23D3
330
1E
100
AcDbEntity
  8
3
100
AcDbLine
 10
-2.876476377952755
 20
-0.1766732283464565
 30
0.0
 11
-2.870324803149606
 21
-0.1963582677165352
 31
0.0
  0
LINE
  5
23D4
330
1E
100
AcDbEntity
  8
3
100
AcDbLine
 10
-2.870324803149606
 20
-0.1963582677165352
 30
0.0
 11
-2.864173228346456
 21
-0.2086614173228347
 31
0.0
  0
LINE
  5
23D5
330
1E
100
AcDbEntity
  8
3
100
AcDbLine
 10
-2.864173228346456
 20
-0.2086614173228347
 30
0.0
 11
-2.856791338582676
 21
-0.2148129921259843
 31
0.0
  0
LINE
  5
23D6
330
1E
100
AcDbEntity
  8
3
100
AcDbLine
 10
-2.981053149606299
 20
0.3129921259842523
 30
0.0
 11
-2.974901574803149
 21
0.3228346456692912
 31
0.0
  0
LINE
  5
23D7
330
1E
100
AcDbEntity
  8
3
100
AcDbLine
 10
-2.974901574803149
 20
0.3228346456692912
 30
0.0
 11
-2.96875
 21
0.3240649606299208
 31
0.0
  0
LINE
  5
23D8
330
1E
100
AcDbEntity
  8
3
100
AcDbLine
 10
-2.96875
 20
0.3240649606299208
 30
0.0
 11
-2.96259842519685
 21
0.3166830708661421
 31
0.0
  0
LINE
  5
23D9
330
1E
100
AcDbEntity
  8
3
100
AcDbLine
 10
-2.96259842519685
 20
0.3166830708661421
 30
0.0
 11
-2.9564468503937
 21
0.3031496062992134
 31
0.0
  0
LINE
  5
23DA
330
1E
100
AcDbEntity
  8
3
100
AcDbLine
 10
-2.9564468503937
 20
0.3031496062992134
 30
0.0
 11
-2.950295275590551
 21
0.2822342519685042
 31
0.0
  0
LINE
  5
23DB
330
1E
100
AcDbEntity
  8
3
100
AcDbLine
 10
-2.950295275590551
 20
0.2822342519685042
 30
0.0
 11
-2.9441437007874
 21
0.2551673228346458
 31
0.0
  0
LINE
  5
23DC
330
1E
100
AcDbEntity
  8
3
100
AcDbLine
 10
-2.9441437007874
 20
0.2551673228346458
 30
0.0
 11
-2.937992125984251
 21
0.2219488188976375
 31
0.0
  0
LINE
  5
23DD
330
1E
100
AcDbEntity
  8
3
100
AcDbLine
 10
-2.937992125984251
 20
0.2219488188976375
 30
0.0
 11
-2.931840551181102
 21
0.1838090551181097
 31
0.0
  0
LINE
  5
23DE
330
1E
100
AcDbEntity
  8
3
100
AcDbLine
 10
-2.931840551181102
 20
0.1838090551181097
 30
0.0
 11
-2.925688976377953
 21
0.141978346456693
 31
0.0
  0
LINE
  5
23DF
330
1E
100
AcDbEntity
  8
3
100
AcDbLine
 10
-2.925688976377953
 20
0.141978346456693
 30
0.0
 11
-2.919537401574802
 21
0.0976870078740158
 31
0.0
  0
LINE
  5
23E0
330
1E
100
AcDbEntity
  8
3
100
AcDbLine
 10
-2.919537401574802
 20
0.0976870078740158
 30
0.0
 11
-2.913385826771653
 21
0.0521653543307088
 31
0.0
  0
LINE
  5
23E1
330
1E
100
AcDbEntity
  8
3
100
AcDbLine
 10
-2.913385826771653
 20
0.0521653543307088
 30
0.0
 11
-2.907234251968504
 21
0.0066437007874014
 31
0.0
  0
LINE
  5
23E2
330
1E
100
AcDbEntity
  8
3
100
AcDbLine
 10
-2.907234251968504
 20
0.0066437007874014
 30
0.0
 11
-2.901082677165353
 21
-0.0376476377952755
 31
0.0
  0
LINE
  5
23E3
330
1E
100
AcDbEntity
  8
3
100
AcDbLine
 10
-2.901082677165353
 20
-0.0376476377952755
 30
0.0
 11
-2.894931102362204
 21
-0.0794783464566926
 31
0.0
  0
LINE
  5
23E4
330
1E
100
AcDbEntity
  8
3
100
AcDbLine
 10
-2.894931102362204
 20
-0.0794783464566926
 30
0.0
 11
-2.888779527559054
 21
-0.1163877952755903
 31
0.0
  0
LINE
  5
23E5
330
1E
100
AcDbEntity
  8
3
100
AcDbLine
 10
-2.888779527559054
 20
-0.1163877952755903
 30
0.0
 11
-2.882627952755905
 21
-0.1496062992125986
 31
0.0
  0
LINE
  5
23E6
330
1E
100
AcDbEntity
  8
3
100
AcDbLine
 10
-2.994586614173228
 20
0.2637795275590551
 30
0.0
 11
-2.993356299212598
 21
0.2736220472440949
 31
0.0
  0
LINE
  5
23E7
330
1E
100
AcDbEntity
  8
3
100
AcDbLine
 10
-2.993356299212598
 20
0.2736220472440949
 30
0.0
 11
-2.987204724409449
 21
0.2969980314960634
 31
0.0
  0
LINE
  5
23E8
330
1E
100
AcDbEntity
  8
3
100
AcDbLine
 10
-2.987204724409449
 20
0.2969980314960634
 30
0.0
 11
-2.981053149606299
 21
0.3129921259842523
 31
0.0
  0
LINE
  5
23E9
330
1E
100
AcDbEntity
  8
3
100
AcDbLine
 10
-3.159448818897637
 20
0.1788877952755903
 30
0.0
 11
-3.153297244094487
 21
0.1382874015748032
 31
0.0
  0
LINE
  5
23EA
330
1E
100
AcDbEntity
  8
3
100
AcDbLine
 10
-3.153297244094487
 20
0.1382874015748032
 30
0.0
 11
-3.147145669291338
 21
0.0964566929133861
 31
0.0
  0
LINE
  5
23EB
330
1E
100
AcDbEntity
  8
3
100
AcDbLine
 10
-3.147145669291338
 20
0.0964566929133861
 30
0.0
 11
-3.140994094488189
 21
0.0521653543307088
 31
0.0
  0
LINE
  5
23EC
330
1E
100
AcDbEntity
  8
3
100
AcDbLine
 10
-3.140994094488189
 20
0.0521653543307088
 30
0.0
 11
-3.134842519685038
 21
0.0091043307086616
 31
0.0
  0
LINE
  5
23ED
330
1E
100
AcDbEntity
  8
3
100
AcDbLine
 10
-3.134842519685038
 20
0.0091043307086616
 30
0.0
 11
-3.128690944881889
 21
-0.032726377952756
 31
0.0
  0
LINE
  5
23EE
330
1E
100
AcDbEntity
  8
3
100
AcDbLine
 10
-3.128690944881889
 20
-0.032726377952756
 30
0.0
 11
-3.12253937007874
 21
-0.0733267716535435
 31
0.0
  0
LINE
  5
23EF
330
1E
100
AcDbEntity
  8
3
100
AcDbLine
 10
-3.12253937007874
 20
-0.0733267716535435
 30
0.0
 11
-3.11638779527559
 21
-0.1090059055118107
 31
0.0
  0
LINE
  5
23F0
330
1E
100
AcDbEntity
  8
3
100
AcDbLine
 10
-3.11638779527559
 20
-0.1090059055118107
 30
0.0
 11
-3.11023622047244
 21
-0.1397637795275588
 31
0.0
  0
LINE
  5
23F1
330
1E
100
AcDbEntity
  8
3
100
AcDbLine
 10
-3.11023622047244
 20
-0.1397637795275588
 30
0.0
 11
-3.104084645669291
 21
-0.165600393700787
 31
0.0
  0
LINE
  5
23F2
330
1E
100
AcDbEntity
  8
3
100
AcDbLine
 10
-3.104084645669291
 20
-0.165600393700787
 30
0.0
 11
-3.097933070866141
 21
-0.1852854330708657
 31
0.0
  0
LINE
  5
23F3
330
1E
100
AcDbEntity
  8
3
100
AcDbLine
 10
-3.097933070866141
 20
-0.1852854330708657
 30
0.0
 11
-3.091781496062992
 21
-0.1975885826771653
 31
0.0
  0
LINE
  5
23F4
330
1E
100
AcDbEntity
  8
3
100
AcDbLine
 10
-3.091781496062992
 20
-0.1975885826771653
 30
0.0
 11
-3.084399606299212
 21
-0.2025098425196852
 31
0.0
  0
LINE
  5
23F5
330
1E
100
AcDbEntity
  8
3
100
AcDbLine
 10
-3.223425196850393
 20
0.2490157480314958
 30
0.0
 11
-3.220964566929134
 21
0.2637795275590551
 31
0.0
  0
LINE
  5
23F6
330
1E
100
AcDbEntity
  8
3
100
AcDbLine
 10
-3.220964566929134
 20
0.2637795275590551
 30
0.0
 11
-3.214812992125984
 21
0.2859251968503931
 31
0.0
  0
LINE
  5
23F7
330
1E
100
AcDbEntity
  8
3
100
AcDbLine
 10
-3.214812992125984
 20
0.2859251968503931
 30
0.0
 11
-3.208661417322834
 21
0.3019192913385829
 31
0.0
  0
LINE
  5
23F8
330
1E
100
AcDbEntity
  8
3
100
AcDbLine
 10
-3.208661417322834
 20
0.3019192913385829
 30
0.0
 11
-3.202509842519685
 21
0.3105314960629921
 31
0.0
  0
LINE
  5
23F9
330
1E
100
AcDbEntity
  8
3
100
AcDbLine
 10
-3.202509842519685
 20
0.3105314960629921
 30
0.0
 11
-3.196358267716535
 21
0.3117618110236218
 31
0.0
  0
LINE
  5
23FA
330
1E
100
AcDbEntity
  8
3
100
AcDbLine
 10
-3.196358267716535
 20
0.3117618110236218
 30
0.0
 11
-3.190206692913386
 21
0.3056102362204727
 31
0.0
  0
LINE
  5
23FB
330
1E
100
AcDbEntity
  8
3
100
AcDbLine
 10
-3.190206692913386
 20
0.3056102362204727
 30
0.0
 11
-3.184055118110236
 21
0.2920767716535431
 31
0.0
  0
LINE
  5
23FC
330
1E
100
AcDbEntity
  8
3
100
AcDbLine
 10
-3.184055118110236
 20
0.2920767716535431
 30
0.0
 11
-3.177903543307086
 21
0.2723917322834644
 31
0.0
  0
LINE
  5
23FD
330
1E
100
AcDbEntity
  8
3
100
AcDbLine
 10
-3.177903543307086
 20
0.2723917322834644
 30
0.0
 11
-3.171751968503937
 21
0.2465551181102357
 31
0.0
  0
LINE
  5
23FE
330
1E
100
AcDbEntity
  8
3
100
AcDbLine
 10
-3.171751968503937
 20
0.2465551181102357
 30
0.0
 11
-3.165600393700787
 21
0.2145669291338579
 31
0.0
  0
LINE
  5
23FF
330
1E
100
AcDbEntity
  8
3
100
AcDbLine
 10
-3.165600393700787
 20
0.2145669291338579
 30
0.0
 11
-3.159448818897637
 21
0.1788877952755903
 31
0.0
  0
LINE
  5
2400
330
1E
100
AcDbEntity
  8
3
100
AcDbLine
 10
-3.337844488188976
 20
-0.1299212598425199
 30
0.0
 11
-3.331692913385826
 21
-0.1545275590551181
 31
0.0
  0
LINE
  5
2401
330
1E
100
AcDbEntity
  8
3
100
AcDbLine
 10
-3.331692913385826
 20
-0.1545275590551181
 30
0.0
 11
-3.325541338582676
 21
-0.1729822834645671
 31
0.0
  0
LINE
  5
2402
330
1E
100
AcDbEntity
  8
3
100
AcDbLine
 10
-3.325541338582676
 20
-0.1729822834645671
 30
0.0
 11
-3.319389763779527
 21
-0.1852854330708657
 31
0.0
  0
LINE
  5
2403
330
1E
100
AcDbEntity
  8
3
100
AcDbLine
 10
-3.319389763779527
 20
-0.1852854330708657
 30
0.0
 11
-3.312007874015748
 21
-0.1902066929133857
 31
0.0
  0
LINE
  5
2404
330
1E
100
AcDbEntity
  8
3
100
AcDbLine
 10
-3.43626968503937
 20
0.2896161417322838
 30
0.0
 11
-3.43011811023622
 21
0.2982283464566931
 31
0.0
  0
LINE
  5
2405
330
1E
100
AcDbEntity
  8
3
100
AcDbLine
 10
-3.43011811023622
 20
0.2982283464566931
 30
0.0
 11
-3.423966535433071
 21
0.2994586614173227
 31
0.0
  0
LINE
  5
2406
330
1E
100
AcDbEntity
  8
3
100
AcDbLine
 10
-3.423966535433071
 20
0.2994586614173227
 30
0.0
 11
-3.417814960629921
 21
0.2945374015748032
 31
0.0
  0
LINE
  5
2407
330
1E
100
AcDbEntity
  8
3
100
AcDbLine
 10
-3.417814960629921
 20
0.2945374015748032
 30
0.0
 11
-3.411663385826771
 21
0.2822342519685042
 31
0.0
  0
LINE
  5
2408
330
1E
100
AcDbEntity
  8
3
100
AcDbLine
 10
-3.411663385826771
 20
0.2822342519685042
 30
0.0
 11
-3.405511811023622
 21
0.2637795275590551
 31
0.0
  0
LINE
  5
2409
330
1E
100
AcDbEntity
  8
3
100
AcDbLine
 10
-3.405511811023622
 20
0.2637795275590551
 30
0.0
 11
-3.399360236220473
 21
0.2391732283464569
 31
0.0
  0
LINE
  5
240A
330
1E
100
AcDbEntity
  8
3
100
AcDbLine
 10
-3.399360236220473
 20
0.2391732283464569
 30
0.0
 11
-3.393208661417322
 21
0.2084153543307088
 31
0.0
  0
LINE
  5
240B
330
1E
100
AcDbEntity
  8
3
100
AcDbLine
 10
-3.393208661417322
 20
0.2084153543307088
 30
0.0
 11
-3.387057086614173
 21
0.1739665354330708
 31
0.0
  0
LINE
  5
240C
330
1E
100
AcDbEntity
  8
3
100
AcDbLine
 10
-3.387057086614173
 20
0.1739665354330708
 30
0.0
 11
-3.380905511811024
 21
0.1358267716535431
 31
0.0
  0
LINE
  5
240D
330
1E
100
AcDbEntity
  8
3
100
AcDbLine
 10
-3.380905511811024
 20
0.1358267716535431
 30
0.0
 11
-3.374753937007873
 21
0.0964566929133861
 31
0.0
  0
LINE
  5
240E
330
1E
100
AcDbEntity
  8
3
100
AcDbLine
 10
-3.374753937007873
 20
0.0964566929133861
 30
0.0
 11
-3.368602362204724
 21
0.054625984251969
 31
0.0
  0
LINE
  5
240F
330
1E
100
AcDbEntity
  8
3
100
AcDbLine
 10
-3.368602362204724
 20
0.054625984251969
 30
0.0
 11
-3.362450787401574
 21
0.012795275590551
 31
0.0
  0
LINE
  5
2410
330
1E
100
AcDbEntity
  8
3
100
AcDbLine
 10
-3.362450787401574
 20
0.012795275590551
 30
0.0
 11
-3.356299212598425
 21
-0.0278051181102361
 31
0.0
  0
LINE
  5
2411
330
1E
100
AcDbEntity
  8
3
100
AcDbLine
 10
-3.356299212598425
 20
-0.0278051181102361
 30
0.0
 11
-3.350147637795275
 21
-0.0659448818897639
 31
0.0
  0
LINE
  5
2412
330
1E
100
AcDbEntity
  8
3
100
AcDbLine
 10
-3.350147637795275
 20
-0.0659448818897639
 30
0.0
 11
-3.343996062992125
 21
-0.1003937007874014
 31
0.0
  0
LINE
  5
2413
330
1E
100
AcDbEntity
  8
3
100
AcDbLine
 10
-3.343996062992125
 20
-0.1003937007874014
 30
0.0
 11
-3.337844488188976
 21
-0.1299212598425199
 31
0.0
  0
LINE
  5
2414
330
1E
100
AcDbEntity
  8
3
100
AcDbLine
 10
-3.452263779527558
 20
0.2354822834645671
 30
0.0
 11
-3.448572834645669
 21
0.2527066929133856
 31
0.0
  0
LINE
  5
2415
330
1E
100
AcDbEntity
  8
3
100
AcDbLine
 10
-3.448572834645669
 20
0.2527066929133856
 30
0.0
 11
-3.442421259842519
 21
0.2748523622047245
 31
0.0
  0
LINE
  5
2416
330
1E
100
AcDbEntity
  8
3
100
AcDbLine
 10
-3.442421259842519
 20
0.2748523622047245
 30
0.0
 11
-3.43626968503937
 21
0.2896161417322838
 31
0.0
  0
LINE
  5
2417
330
1E
100
AcDbEntity
  8
3
100
AcDbLine
 10
-3.59621062992126
 20
0.0583169291338583
 30
0.0
 11
-3.590059055118111
 21
0.0177165354330708
 31
0.0
  0
LINE
  5
2418
330
1E
100
AcDbEntity
  8
3
100
AcDbLine
 10
-3.590059055118111
 20
0.0177165354330708
 30
0.0
 11
-3.58390748031496
 21
-0.0204232283464565
 31
0.0
  0
LINE
  5
2419
330
1E
100
AcDbEntity
  8
3
100
AcDbLine
 10
-3.58390748031496
 20
-0.0204232283464565
 30
0.0
 11
-3.577755905511811
 21
-0.0573326771653542
 31
0.0
  0
LINE
  5
241A
330
1E
100
AcDbEntity
  8
3
100
AcDbLine
 10
-3.577755905511811
 20
-0.0573326771653542
 30
0.0
 11
-3.571604330708662
 21
-0.0905511811023625
 31
0.0
  0
LINE
  5
241B
330
1E
100
AcDbEntity
  8
3
100
AcDbLine
 10
-3.571604330708662
 20
-0.0905511811023625
 30
0.0
 11
-3.565452755905512
 21
-0.11884842519685
 31
0.0
  0
LINE
  5
241C
330
1E
100
AcDbEntity
  8
3
100
AcDbLine
 10
-3.565452755905512
 20
-0.11884842519685
 30
0.0
 11
-3.559301181102362
 21
-0.1434547244094491
 31
0.0
  0
LINE
  5
241D
330
1E
100
AcDbEntity
  8
3
100
AcDbLine
 10
-3.559301181102362
 20
-0.1434547244094491
 30
0.0
 11
-3.553149606299212
 21
-0.1606791338582671
 31
0.0
  0
LINE
  5
241E
330
1E
100
AcDbEntity
  8
3
100
AcDbLine
 10
-3.553149606299212
 20
-0.1606791338582671
 30
0.0
 11
-3.546998031496062
 21
-0.1729822834645671
 31
0.0
  0
LINE
  5
241F
330
1E
100
AcDbEntity
  8
3
100
AcDbLine
 10
-3.546998031496062
 20
-0.1729822834645671
 30
0.0
 11
-3.539616141732283
 21
-0.1779035433070866
 31
0.0
  0
LINE
  5
2420
330
1E
100
AcDbEntity
  8
3
100
AcDbLine
 10
-3.820127952755905
 20
0.279773622047244
 30
0.0
 11
-3.820127952755905
 21
0.2736220472440949
 31
0.0
  0
LINE
  5
2421
330
1E
100
AcDbEntity
  8
3
100
AcDbLine
 10
-3.820127952755905
 20
0.2736220472440949
 30
0.0
 11
-3.820127952755905
 21
0.257627952755906
 31
0.0
  0
LINE
  5
2422
330
1E
100
AcDbEntity
  8
3
100
AcDbLine
 10
-3.820127952755905
 20
0.257627952755906
 30
0.0
 11
-3.820127952755905
 21
0.2305610236220477
 31
0.0
  0
LINE
  5
2423
330
1E
100
AcDbEntity
  8
3
100
AcDbLine
 10
-3.820127952755905
 20
0.2305610236220477
 30
0.0
 11
-3.820127952755905
 21
0.1961122047244097
 31
0.0
  0
LINE
  5
2424
330
1E
100
AcDbEntity
  8
3
100
AcDbLine
 10
-3.820127952755905
 20
0.1961122047244097
 30
0.0
 11
-3.820127952755905
 21
0.1542814960629921
 31
0.0
  0
LINE
  5
2425
330
1E
100
AcDbEntity
  8
3
100
AcDbLine
 10
-3.820127952755905
 20
0.1542814960629921
 30
0.0
 11
-3.820127952755905
 21
0.1075295275590551
 31
0.0
  0
LINE
  5
2426
330
1E
100
AcDbEntity
  8
3
100
AcDbLine
 10
-3.820127952755905
 20
0.1075295275590551
 30
0.0
 11
-3.820127952755905
 21
0.0583169291338583
 31
0.0
  0
LINE
  5
2427
330
1E
100
AcDbEntity
  8
3
100
AcDbLine
 10
-3.820127952755905
 20
0.0583169291338583
 30
0.0
 11
-3.820127952755905
 21
0.007874015748031
 31
0.0
  0
LINE
  5
2428
330
1E
100
AcDbEntity
  8
3
100
AcDbLine
 10
-3.820127952755905
 20
0.007874015748031
 30
0.0
 11
-3.820127952755905
 21
-0.0388779527559051
 31
0.0
  0
LINE
  5
2429
330
1E
100
AcDbEntity
  8
3
100
AcDbLine
 10
-3.820127952755905
 20
-0.0388779527559051
 30
0.0
 11
-3.820127952755905
 21
-0.0807086614173227
 31
0.0
  0
LINE
  5
242A
330
1E
100
AcDbEntity
  8
3
100
AcDbLine
 10
-3.820127952755905
 20
-0.0807086614173227
 30
0.0
 11
-3.820127952755905
 21
-0.1151574803149606
 31
0.0
  0
LINE
  5
242B
330
1E
100
AcDbEntity
  8
3
100
AcDbLine
 10
-3.820127952755905
 20
-0.1151574803149606
 30
0.0
 11
-3.820127952755905
 21
-0.142224409448819
 31
0.0
  0
LINE
  5
242C
330
1E
100
AcDbEntity
  8
3
100
AcDbLine
 10
-3.820127952755905
 20
-0.142224409448819
 30
0.0
 11
-3.820127952755905
 21
-0.1582185039370079
 31
0.0
  0
LINE
  5
242D
330
1E
100
AcDbEntity
  8
3
100
AcDbLine
 10
-3.820127952755905
 20
-0.1582185039370079
 30
0.0
 11
-3.820127952755905
 21
-0.1643700787401574
 31
0.0
  0
LINE
  5
242E
330
1E
100
AcDbEntity
  8
3
100
AcDbLine
 10
-3.58513779527559
 20
-0.0684055118110236
 30
0.0
 11
-3.590059055118111
 21
-0.0585629921259843
 31
0.0
  0
LINE
  5
242F
330
1E
100
AcDbEntity
  8
3
100
AcDbLine
 10
-3.590059055118111
 20
-0.0585629921259843
 30
0.0
 11
-3.603592519685038
 21
-0.0216535433070866
 31
0.0
  0
LINE
  5
2430
330
1E
100
AcDbEntity
  8
3
100
AcDbLine
 10
-3.603592519685038
 20
-0.0216535433070866
 30
0.0
 11
-3.615895669291338
 21
0.0238681102362204
 31
0.0
  0
LINE
  5
2431
330
1E
100
AcDbEntity
  8
3
100
AcDbLine
 10
-3.615895669291338
 20
0.0238681102362204
 30
0.0
 11
-3.624507874015748
 21
0.0570866141732287
 31
0.0
  0
LINE
  5
2432
330
1E
100
AcDbEntity
  8
3
100
AcDbLine
 10
-3.401820866141732
 20
0.0755413385826773
 30
0.0
 11
-3.414124015748032
 21
0.1259842519685042
 31
0.0
  0
LINE
  5
2433
330
1E
100
AcDbEntity
  8
3
100
AcDbLine
 10
-3.414124015748032
 20
0.1259842519685042
 30
0.0
 11
-3.42765748031496
 21
0.1665846456692912
 31
0.0
  0
LINE
  5
2434
330
1E
100
AcDbEntity
  8
3
100
AcDbLine
 10
-3.42765748031496
 20
0.1665846456692912
 30
0.0
 11
-3.43996062992126
 21
0.1948818897637792
 31
0.0
  0
LINE
  5
2435
330
1E
100
AcDbEntity
  8
3
100
AcDbLine
 10
-3.43996062992126
 20
0.1948818897637792
 30
0.0
 11
-3.452263779527558
 21
0.2071850393700783
 31
0.0
  0
LINE
  5
2436
330
1E
100
AcDbEntity
  8
3
100
AcDbLine
 10
-3.452263779527558
 20
0.2071850393700783
 30
0.0
 11
-3.464566929133858
 21
0.2010334645669292
 31
0.0
  0
LINE
  5
2437
330
1E
100
AcDbEntity
  8
3
100
AcDbLine
 10
-3.464566929133858
 20
0.2010334645669292
 30
0.0
 11
-3.481791338582676
 21
0.164124015748031
 31
0.0
  0
LINE
  5
2438
330
1E
100
AcDbEntity
  8
3
100
AcDbLine
 10
-3.357529527559055
 20
-0.078248031496063
 30
0.0
 11
-3.364911417322834
 21
-0.0647145669291338
 31
0.0
  0
LINE
  5
2439
330
1E
100
AcDbEntity
  8
3
100
AcDbLine
 10
-3.364911417322834
 20
-0.0647145669291338
 30
0.0
 11
-3.377214566929134
 21
-0.0253444881889764
 31
0.0
  0
LINE
  5
243A
330
1E
100
AcDbEntity
  8
3
100
AcDbLine
 10
-3.377214566929134
 20
-0.0253444881889764
 30
0.0
 11
-3.389517716535433
 21
0.0226377952755903
 31
0.0
  0
LINE
  5
243B
330
1E
100
AcDbEntity
  8
3
100
AcDbLine
 10
-3.389517716535433
 20
0.0226377952755903
 30
0.0
 11
-3.401820866141732
 21
0.0755413385826773
 31
0.0
  0
LINE
  5
243C
330
1E
100
AcDbEntity
  8
3
100
AcDbLine
 10
-3.158218503937007
 20
-0.0019685039370079
 30
0.0
 11
-3.164370078740157
 21
0.0250984251968505
 31
0.0
  0
LINE
  5
243D
330
1E
100
AcDbEntity
  8
3
100
AcDbLine
 10
-3.164370078740157
 20
0.0250984251968505
 30
0.0
 11
-3.176673228346456
 21
0.0816929133858269
 31
0.0
  0
LINE
  5
243E
330
1E
100
AcDbEntity
  8
3
100
AcDbLine
 10
-3.176673228346456
 20
0.0816929133858269
 30
0.0
 11
-3.188976377952755
 21
0.1345964566929134
 31
0.0
  0
LINE
  5
243F
330
1E
100
AcDbEntity
  8
3
100
AcDbLine
 10
-3.188976377952755
 20
0.1345964566929134
 30
0.0
 11
-3.201279527559055
 21
0.1776574803149606
 31
0.0
  0
LINE
  5
2440
330
1E
100
AcDbEntity
  8
3
100
AcDbLine
 10
-3.201279527559055
 20
0.1776574803149606
 30
0.0
 11
-3.213582677165353
 21
0.2059547244094486
 31
0.0
  0
LINE
  5
2441
330
1E
100
AcDbEntity
  8
3
100
AcDbLine
 10
-3.213582677165353
 20
0.2059547244094486
 30
0.0
 11
-3.227116141732283
 21
0.2170275590551181
 31
0.0
  0
LINE
  5
2442
330
1E
100
AcDbEntity
  8
3
100
AcDbLine
 10
-3.227116141732283
 20
0.2170275590551181
 30
0.0
 11
-3.239419291338583
 21
0.2084153543307088
 31
0.0
  0
LINE
  5
2443
330
1E
100
AcDbEntity
  8
3
100
AcDbLine
 10
-3.239419291338583
 20
0.2084153543307088
 30
0.0
 11
-3.254183070866141
 21
0.176427165354331
 31
0.0
  0
LINE
  5
2444
330
1E
100
AcDbEntity
  8
3
100
AcDbLine
 10
-3.128690944881889
 20
-0.0930118110236222
 30
0.0
 11
-3.132381889763779
 21
-0.0856299212598426
 31
0.0
  0
LINE
  5
2445
330
1E
100
AcDbEntity
  8
3
100
AcDbLine
 10
-3.132381889763779
 20
-0.0856299212598426
 30
0.0
 11
-3.138533464566928
 21
-0.0696358267716533
 31
0.0
  0
LINE
  5
2446
330
1E
100
AcDbEntity
  8
3
100
AcDbLine
 10
-3.138533464566928
 20
-0.0696358267716533
 30
0.0
 11
-3.145915354330709
 21
-0.0499507874015746
 31
0.0
  0
LINE
  5
2447
330
1E
100
AcDbEntity
  8
3
100
AcDbLine
 10
-3.145915354330709
 20
-0.0499507874015746
 30
0.0
 11
-3.152066929133858
 21
-0.0265748031496065
 31
0.0
  0
LINE
  5
2448
330
1E
100
AcDbEntity
  8
3
100
AcDbLine
 10
-3.152066929133858
 20
-0.0265748031496065
 30
0.0
 11
-3.158218503937007
 21
-0.0019685039370079
 31
0.0
  0
LINE
  5
2449
330
1E
100
AcDbEntity
  8
3
100
AcDbLine
 10
-2.963828740157479
 20
0.1456692913385829
 30
0.0
 11
-2.97121062992126
 21
0.170275590551181
 31
0.0
  0
LINE
  5
244A
330
1E
100
AcDbEntity
  8
3
100
AcDbLine
 10
-2.97121062992126
 20
0.170275590551181
 30
0.0
 11
-2.977362204724409
 21
0.1899606299212597
 31
0.0
  0
LINE
  5
244B
330
1E
100
AcDbEntity
  8
3
100
AcDbLine
 10
-2.977362204724409
 20
0.1899606299212597
 30
0.0
 11
-2.983513779527558
 21
0.2059547244094486
 31
0.0
  0
LINE
  5
244C
330
1E
100
AcDbEntity
  8
3
100
AcDbLine
 10
-2.983513779527558
 20
0.2059547244094486
 30
0.0
 11
-2.989665354330709
 21
0.2182578740157486
 31
0.0
  0
LINE
  5
244D
330
1E
100
AcDbEntity
  8
3
100
AcDbLine
 10
-2.989665354330709
 20
0.2182578740157486
 30
0.0
 11
-2.995816929133858
 21
0.2244094488188977
 31
0.0
  0
LINE
  5
244E
330
1E
100
AcDbEntity
  8
3
100
AcDbLine
 10
-2.995816929133858
 20
0.2244094488188977
 30
0.0
 11
-3.001968503937007
 21
0.2268700787401578
 31
0.0
  0
LINE
  5
244F
330
1E
100
AcDbEntity
  8
3
100
AcDbLine
 10
-3.001968503937007
 20
0.2268700787401578
 30
0.0
 11
-3.008120078740157
 21
0.2244094488188977
 31
0.0
  0
LINE
  5
2450
330
1E
100
AcDbEntity
  8
3
100
AcDbLine
 10
-3.008120078740157
 20
0.2244094488188977
 30
0.0
 11
-3.014271653543307
 21
0.2157972440944884
 31
0.0
  0
LINE
  5
2451
330
1E
100
AcDbEntity
  8
3
100
AcDbLine
 10
-3.014271653543307
 20
0.2157972440944884
 30
0.0
 11
-3.026574803149606
 21
0.1875000000000004
 31
0.0
  0
LINE
  5
2452
330
1E
100
AcDbEntity
  8
3
100
AcDbLine
 10
-2.902312992125984
 20
-0.1028543307086616
 30
0.0
 11
-2.908464566929134
 21
-0.089320866141732
 31
0.0
  0
LINE
  5
2453
330
1E
100
AcDbEntity
  8
3
100
AcDbLine
 10
-2.908464566929134
 20
-0.089320866141732
 30
0.0
 11
-2.914616141732283
 21
-0.0708661417322838
 31
0.0
  0
LINE
  5
2454
330
1E
100
AcDbEntity
  8
3
100
AcDbLine
 10
-2.914616141732283
 20
-0.0708661417322838
 30
0.0
 11
-2.920767716535433
 21
-0.0487204724409449
 31
0.0
  0
LINE
  5
2455
330
1E
100
AcDbEntity
  8
3
100
AcDbLine
 10
-2.920767716535433
 20
-0.0487204724409449
 30
0.0
 11
-2.926919291338583
 21
-0.0241141732283459
 31
0.0
  0
LINE
  5
2456
330
1E
100
AcDbEntity
  8
3
100
AcDbLine
 10
-2.926919291338583
 20
-0.0241141732283459
 30
0.0
 11
-2.933070866141732
 21
0.0029527559055116
 31
0.0
  0
LINE
  5
2457
330
1E
100
AcDbEntity
  8
3
100
AcDbLine
 10
-2.933070866141732
 20
0.0029527559055116
 30
0.0
 11
-2.939222440944881
 21
0.0324803149606301
 31
0.0
  0
LINE
  5
2458
330
1E
100
AcDbEntity
  8
3
100
AcDbLine
 10
-2.939222440944881
 20
0.0324803149606301
 30
0.0
 11
-2.945374015748032
 21
0.0620078740157482
 31
0.0
  0
LINE
  5
2459
330
1E
100
AcDbEntity
  8
3
100
AcDbLine
 10
-2.945374015748032
 20
0.0620078740157482
 30
0.0
 11
-2.951525590551181
 21
0.0915354330708662
 31
0.0
  0
LINE
  5
245A
330
1E
100
AcDbEntity
  8
3
100
AcDbLine
 10
-2.951525590551181
 20
0.0915354330708662
 30
0.0
 11
-2.95767716535433
 21
0.1198326771653542
 31
0.0
  0
LINE
  5
245B
330
1E
100
AcDbEntity
  8
3
100
AcDbLine
 10
-2.95767716535433
 20
0.1198326771653542
 30
0.0
 11
-2.963828740157479
 21
0.1456692913385829
 31
0.0
  0
LINE
  5
245C
330
1E
100
AcDbEntity
  8
3
100
AcDbLine
 10
-2.778051181102362
 20
0.2367125984251968
 30
0.0
 11
-2.784202755905512
 21
0.2305610236220477
 31
0.0
  0
LINE
  5
245D
330
1E
100
AcDbEntity
  8
3
100
AcDbLine
 10
-2.784202755905512
 20
0.2305610236220477
 30
0.0
 11
-2.790354330708661
 21
0.2207185039370079
 31
0.0
  0
LINE
  5
245E
330
1E
100
AcDbEntity
  8
3
100
AcDbLine
 10
-2.790354330708661
 20
0.2207185039370079
 30
0.0
 11
-2.798966535433071
 21
0.1973425196850394
 31
0.0
  0
LINE
  5
245F
330
1E
100
AcDbEntity
  8
3
100
AcDbLine
 10
-2.678395669291337
 20
-0.1065452755905509
 30
0.0
 11
-2.684547244094487
 21
-0.0905511811023625
 31
0.0
  0
LINE
  5
2460
330
1E
100
AcDbEntity
  8
3
100
AcDbLine
 10
-2.684547244094487
 20
-0.0905511811023625
 30
0.0
 11
-2.690698818897637
 21
-0.0696358267716533
 31
0.0
  0
LINE
  5
2461
330
1E
100
AcDbEntity
  8
3
100
AcDbLine
 10
-2.690698818897637
 20
-0.0696358267716533
 30
0.0
 11
-2.696850393700787
 21
-0.0450295275590551
 31
0.0
  0
LINE
  5
2462
330
1E
100
AcDbEntity
  8
3
100
AcDbLine
 10
-2.696850393700787
 20
-0.0450295275590551
 30
0.0
 11
-2.703001968503937
 21
-0.0179625984251968
 31
0.0
  0
LINE
  5
2463
330
1E
100
AcDbEntity
  8
3
100
AcDbLine
 10
-2.703001968503937
 20
-0.0179625984251968
 30
0.0
 11
-2.709153543307087
 21
0.0115649606299213
 31
0.0
  0
LINE
  5
2464
330
1E
100
AcDbEntity
  8
3
100
AcDbLine
 10
-2.709153543307087
 20
0.0115649606299213
 30
0.0
 11
-2.715305118110236
 21
0.0435531496062991
 31
0.0
  0
LINE
  5
2465
330
1E
100
AcDbEntity
  8
3
100
AcDbLine
 10
-2.715305118110236
 20
0.0435531496062991
 30
0.0
 11
-2.721456692913386
 21
0.0743110236220477
 31
0.0
  0
LINE
  5
2466
330
1E
100
AcDbEntity
  8
3
100
AcDbLine
 10
-2.721456692913386
 20
0.0743110236220477
 30
0.0
 11
-2.727608267716535
 21
0.1050688976377949
 31
0.0
  0
LINE
  5
2467
330
1E
100
AcDbEntity
  8
3
100
AcDbLine
 10
-2.727608267716535
 20
0.1050688976377949
 30
0.0
 11
-2.733759842519685
 21
0.1345964566929134
 31
0.0
  0
LINE
  5
2468
330
1E
100
AcDbEntity
  8
3
100
AcDbLine
 10
-2.733759842519685
 20
0.1345964566929134
 30
0.0
 11
-2.739911417322834
 21
0.1616633858267717
 31
0.0
  0
LINE
  5
2469
330
1E
100
AcDbEntity
  8
3
100
AcDbLine
 10
-2.739911417322834
 20
0.1616633858267717
 30
0.0
 11
-2.746062992125984
 21
0.1850393700787403
 31
0.0
  0
LINE
  5
246A
330
1E
100
AcDbEntity
  8
3
100
AcDbLine
 10
-2.746062992125984
 20
0.1850393700787403
 30
0.0
 11
-2.752214566929134
 21
0.204724409448819
 31
0.0
  0
LINE
  5
246B
330
1E
100
AcDbEntity
  8
3
100
AcDbLine
 10
-2.752214566929134
 20
0.204724409448819
 30
0.0
 11
-2.758366141732283
 21
0.2194881889763782
 31
0.0
  0
LINE
  5
246C
330
1E
100
AcDbEntity
  8
3
100
AcDbLine
 10
-2.758366141732283
 20
0.2194881889763782
 30
0.0
 11
-2.764517716535433
 21
0.2305610236220477
 31
0.0
  0
LINE
  5
246D
330
1E
100
AcDbEntity
  8
3
100
AcDbLine
 10
-2.764517716535433
 20
0.2305610236220477
 30
0.0
 11
-2.770669291338582
 21
0.2367125984251968
 31
0.0
  0
LINE
  5
246E
330
1E
100
AcDbEntity
  8
3
100
AcDbLine
 10
-2.770669291338582
 20
0.2367125984251968
 30
0.0
 11
-2.778051181102362
 21
0.2367125984251968
 31
0.0
  0
LINE
  5
246F
330
1E
100
AcDbEntity
  8
3
100
AcDbLine
 10
-2.49138779527559
 20
0.0583169291338583
 30
0.0
 11
-2.497539370078739
 21
0.0903051181102361
 31
0.0
  0
LINE
  5
2470
330
1E
100
AcDbEntity
  8
3
100
AcDbLine
 10
-2.497539370078739
 20
0.0903051181102361
 30
0.0
 11
-2.503690944881889
 21
0.1222933070866143
 31
0.0
  0
LINE
  5
2471
330
1E
100
AcDbEntity
  8
3
100
AcDbLine
 10
-2.503690944881889
 20
0.1222933070866143
 30
0.0
 11
-2.511072834645669
 21
0.1518208661417328
 31
0.0
  0
LINE
  5
2472
330
1E
100
AcDbEntity
  8
3
100
AcDbLine
 10
-2.511072834645669
 20
0.1518208661417328
 30
0.0
 11
-2.517224409448818
 21
0.1788877952755903
 31
0.0
  0
LINE
  5
2473
330
1E
100
AcDbEntity
  8
3
100
AcDbLine
 10
-2.517224409448818
 20
0.1788877952755903
 30
0.0
 11
-2.523375984251968
 21
0.2022637795275588
 31
0.0
  0
LINE
  5
2474
330
1E
100
AcDbEntity
  8
3
100
AcDbLine
 10
-2.523375984251968
 20
0.2022637795275588
 30
0.0
 11
-2.529527559055117
 21
0.2207185039370079
 31
0.0
  0
LINE
  5
2475
330
1E
100
AcDbEntity
  8
3
100
AcDbLine
 10
-2.529527559055117
 20
0.2207185039370079
 30
0.0
 11
-2.535679133858267
 21
0.2342519685039366
 31
0.0
  0
LINE
  5
2476
330
1E
100
AcDbEntity
  8
3
100
AcDbLine
 10
-2.535679133858267
 20
0.2342519685039366
 30
0.0
 11
-2.541830708661416
 21
0.2440944881889764
 31
0.0
  0
LINE
  5
2477
330
1E
100
AcDbEntity
  8
3
100
AcDbLine
 10
-2.541830708661416
 20
0.2440944881889764
 30
0.0
 11
-2.547982283464566
 21
0.2465551181102357
 31
0.0
  0
LINE
  5
2478
330
1E
100
AcDbEntity
  8
3
100
AcDbLine
 10
-2.547982283464566
 20
0.2465551181102357
 30
0.0
 11
-2.554133858267716
 21
0.2440944881889764
 31
0.0
  0
LINE
  5
2479
330
1E
100
AcDbEntity
  8
3
100
AcDbLine
 10
-2.554133858267716
 20
0.2440944881889764
 30
0.0
 11
-2.560285433070865
 21
0.2367125984251968
 31
0.0
  0
LINE
  5
247A
330
1E
100
AcDbEntity
  8
3
100
AcDbLine
 10
-2.560285433070865
 20
0.2367125984251968
 30
0.0
 11
-2.571358267716535
 21
0.2071850393700783
 31
0.0
  0
LINE
  5
247B
330
1E
100
AcDbEntity
  8
3
100
AcDbLine
 10
-2.583661417322834
 20
0.2354822834645671
 30
0.0
 11
-2.577509842519685
 21
0.223179133858268
 31
0.0
  0
LINE
  5
247C
330
1E
100
AcDbEntity
  8
3
100
AcDbLine
 10
-2.577509842519685
 20
0.223179133858268
 30
0.0
 11
-2.571358267716535
 21
0.2059547244094486
 31
0.0
  0
LINE
  5
247D
330
1E
100
AcDbEntity
  8
3
100
AcDbLine
 10
-2.571358267716535
 20
0.2059547244094486
 30
0.0
 11
-2.565206692913386
 21
0.1850393700787403
 31
0.0
  0
LINE
  5
247E
330
1E
100
AcDbEntity
  8
3
100
AcDbLine
 10
-2.565206692913386
 20
0.1850393700787403
 30
0.0
 11
-2.559055118110236
 21
0.1592027559055116
 31
0.0
  0
LINE
  5
247F
330
1E
100
AcDbEntity
  8
3
100
AcDbLine
 10
-2.559055118110236
 20
0.1592027559055116
 30
0.0
 11
-2.552903543307087
 21
0.1309055118110236
 31
0.0
  0
LINE
  5
2480
330
1E
100
AcDbEntity
  8
3
100
AcDbLine
 10
-2.552903543307087
 20
0.1309055118110236
 30
0.0
 11
-2.546751968503937
 21
0.1001476377952755
 31
0.0
  0
LINE
  5
2481
330
1E
100
AcDbEntity
  8
3
100
AcDbLine
 10
-2.546751968503937
 20
0.1001476377952755
 30
0.0
 11
-2.540600393700787
 21
0.0681594488188977
 31
0.0
  0
LINE
  5
2482
330
1E
100
AcDbEntity
  8
3
100
AcDbLine
 10
-2.540600393700787
 20
0.0681594488188977
 30
0.0
 11
-2.538139763779527
 21
0.0583169291338583
 31
0.0
  0
LINE
  5
2483
330
1E
100
AcDbEntity
  8
3
100
AcDbLine
 10
-2.733759842519685
 20
-0.0856299212598426
 30
0.0
 11
-2.727608267716535
 21
-0.1028543307086616
 31
0.0
  0
LINE
  5
2484
330
1E
100
AcDbEntity
  8
3
100
AcDbLine
 10
-2.727608267716535
 20
-0.1028543307086616
 30
0.0
 11
-2.721456692913386
 21
-0.1151574803149606
 31
0.0
  0
LINE
  5
2485
330
1E
100
AcDbEntity
  8
3
100
AcDbLine
 10
-2.721456692913386
 20
-0.1151574803149606
 30
0.0
 11
-2.715305118110236
 21
-0.1225393700787403
 31
0.0
  0
LINE
  5
2486
330
1E
100
AcDbEntity
  8
3
100
AcDbLine
 10
-2.715305118110236
 20
-0.1225393700787403
 30
0.0
 11
-2.709153543307087
 21
-0.1237696850393699
 31
0.0
  0
LINE
  5
2487
330
1E
100
AcDbEntity
  8
3
100
AcDbLine
 10
-2.709153543307087
 20
-0.1237696850393699
 30
0.0
 11
-2.701771653543307
 21
-0.1213090551181097
 31
0.0
  0
LINE
  5
2488
330
1E
100
AcDbEntity
  8
3
100
AcDbLine
 10
-2.701771653543307
 20
-0.1213090551181097
 30
0.0
 11
-2.695620078740157
 21
-0.1126968503937009
 31
0.0
  0
LINE
  5
2489
330
1E
100
AcDbEntity
  8
3
100
AcDbLine
 10
-2.695620078740157
 20
-0.1126968503937009
 30
0.0
 11
-2.685777559055117
 21
-0.0856299212598426
 31
0.0
  0
LINE
  5
248A
330
1E
100
AcDbEntity
  8
3
100
AcDbLine
 10
-2.810039370078739
 20
0.223179133858268
 30
0.0
 11
-2.80880905511811
 21
0.2194881889763782
 31
0.0
  0
LINE
  5
248B
330
1E
100
AcDbEntity
  8
3
100
AcDbLine
 10
-2.80880905511811
 20
0.2194881889763782
 30
0.0
 11
-2.80265748031496
 21
0.204724409448819
 31
0.0
  0
LINE
  5
248C
330
1E
100
AcDbEntity
  8
3
100
AcDbLine
 10
-2.80265748031496
 20
0.204724409448819
 30
0.0
 11
-2.796505905511811
 21
0.1862696850393708
 31
0.0
  0
LINE
  5
248D
330
1E
100
AcDbEntity
  8
3
100
AcDbLine
 10
-2.796505905511811
 20
0.1862696850393708
 30
0.0
 11
-2.790354330708661
 21
0.1628937007874014
 31
0.0
  0
LINE
  5
248E
330
1E
100
AcDbEntity
  8
3
100
AcDbLine
 10
-2.790354330708661
 20
0.1628937007874014
 30
0.0
 11
-2.782972440944881
 21
0.1370570866141736
 31
0.0
  0
LINE
  5
248F
330
1E
100
AcDbEntity
  8
3
100
AcDbLine
 10
-2.782972440944881
 20
0.1370570866141736
 30
0.0
 11
-2.776820866141732
 21
0.1087598425196852
 31
0.0
  0
LINE
  5
2490
330
1E
100
AcDbEntity
  8
3
100
AcDbLine
 10
-2.776820866141732
 20
0.1087598425196852
 30
0.0
 11
-2.770669291338582
 21
0.078001968503937
 31
0.0
  0
LINE
  5
2491
330
1E
100
AcDbEntity
  8
3
100
AcDbLine
 10
-2.770669291338582
 20
0.078001968503937
 30
0.0
 11
-2.764517716535433
 21
0.0472440944881893
 31
0.0
  0
LINE
  5
2492
330
1E
100
AcDbEntity
  8
3
100
AcDbLine
 10
-2.764517716535433
 20
0.0472440944881893
 30
0.0
 11
-2.758366141732283
 21
0.0164862204724412
 31
0.0
  0
LINE
  5
2493
330
1E
100
AcDbEntity
  8
3
100
AcDbLine
 10
-2.758366141732283
 20
0.0164862204724412
 30
0.0
 11
-2.752214566929134
 21
-0.0130413385826773
 31
0.0
  0
LINE
  5
2494
330
1E
100
AcDbEntity
  8
3
100
AcDbLine
 10
-2.752214566929134
 20
-0.0130413385826773
 30
0.0
 11
-2.746062992125984
 21
-0.0401082677165352
 31
0.0
  0
LINE
  5
2495
330
1E
100
AcDbEntity
  8
3
100
AcDbLine
 10
-2.746062992125984
 20
-0.0401082677165352
 30
0.0
 11
-2.739911417322834
 21
-0.0647145669291338
 31
0.0
  0
LINE
  5
2496
330
1E
100
AcDbEntity
  8
3
100
AcDbLine
 10
-2.739911417322834
 20
-0.0647145669291338
 30
0.0
 11
-2.733759842519685
 21
-0.0856299212598426
 31
0.0
  0
LINE
  5
2497
330
1E
100
AcDbEntity
  8
3
100
AcDbLine
 10
-3.027805118110236
 20
0.1875000000000004
 30
0.0
 11
-3.020423228346456
 21
0.1665846456692912
 31
0.0
  0
LINE
  5
2498
330
1E
100
AcDbEntity
  8
3
100
AcDbLine
 10
-3.020423228346456
 20
0.1665846456692912
 30
0.0
 11
-3.014271653543307
 21
0.1432086614173227
 31
0.0
  0
LINE
  5
2499
330
1E
100
AcDbEntity
  8
3
100
AcDbLine
 10
-3.014271653543307
 20
0.1432086614173227
 30
0.0
 11
-3.008120078740157
 21
0.1173720472440949
 31
0.0
  0
LINE
  5
249A
330
1E
100
AcDbEntity
  8
3
100
AcDbLine
 10
-3.008120078740157
 20
0.1173720472440949
 30
0.0
 11
-3.001968503937007
 21
0.0890748031496065
 31
0.0
  0
LINE
  5
249B
330
1E
100
AcDbEntity
  8
3
100
AcDbLine
 10
-3.001968503937007
 20
0.0890748031496065
 30
0.0
 11
-2.995816929133858
 21
0.0607775590551181
 31
0.0
  0
LINE
  5
249C
330
1E
100
AcDbEntity
  8
3
100
AcDbLine
 10
-2.995816929133858
 20
0.0607775590551181
 30
0.0
 11
-2.989665354330709
 21
0.03125
 31
0.0
  0
LINE
  5
249D
330
1E
100
AcDbEntity
  8
3
100
AcDbLine
 10
-2.989665354330709
 20
0.03125
 30
0.0
 11
-2.983513779527558
 21
0.0029527559055116
 31
0.0
  0
LINE
  5
249E
330
1E
100
AcDbEntity
  8
3
100
AcDbLine
 10
-2.983513779527558
 20
0.0029527559055116
 30
0.0
 11
-2.977362204724409
 21
-0.0241141732283459
 31
0.0
  0
LINE
  5
249F
330
1E
100
AcDbEntity
  8
3
100
AcDbLine
 10
-2.977362204724409
 20
-0.0241141732283459
 30
0.0
 11
-2.97121062992126
 21
-0.0487204724409449
 31
0.0
  0
LINE
  5
24A0
330
1E
100
AcDbEntity
  8
3
100
AcDbLine
 10
-2.97121062992126
 20
-0.0487204724409449
 30
0.0
 11
-2.965059055118111
 21
-0.0696358267716533
 31
0.0
  0
LINE
  5
24A1
330
1E
100
AcDbEntity
  8
3
100
AcDbLine
 10
-2.965059055118111
 20
-0.0696358267716533
 30
0.0
 11
-2.95890748031496
 21
-0.0880905511811023
 31
0.0
  0
LINE
  5
24A2
330
1E
100
AcDbEntity
  8
3
100
AcDbLine
 10
-2.95890748031496
 20
-0.0880905511811023
 30
0.0
 11
-2.952755905511811
 21
-0.101624015748031
 31
0.0
  0
LINE
  5
24A3
330
1E
100
AcDbEntity
  8
3
100
AcDbLine
 10
-2.952755905511811
 20
-0.101624015748031
 30
0.0
 11
-2.945374015748032
 21
-0.1102362204724412
 31
0.0
  0
LINE
  5
24A4
330
1E
100
AcDbEntity
  8
3
100
AcDbLine
 10
-2.945374015748032
 20
-0.1102362204724412
 30
0.0
 11
-2.939222440944881
 21
-0.1139271653543306
 31
0.0
  0
LINE
  5
24A5
330
1E
100
AcDbEntity
  8
3
100
AcDbLine
 10
-2.939222440944881
 20
-0.1139271653543306
 30
0.0
 11
-2.933070866141732
 21
-0.1126968503937009
 31
0.0
  0
LINE
  5
24A6
330
1E
100
AcDbEntity
  8
3
100
AcDbLine
 10
-2.933070866141732
 20
-0.1126968503937009
 30
0.0
 11
-2.926919291338583
 21
-0.1065452755905509
 31
0.0
  0
LINE
  5
24A7
330
1E
100
AcDbEntity
  8
3
100
AcDbLine
 10
-2.926919291338583
 20
-0.1065452755905509
 30
0.0
 11
-2.920767716535433
 21
-0.095472440944882
 31
0.0
  0
LINE
  5
24A8
330
1E
100
AcDbEntity
  8
3
100
AcDbLine
 10
-3.037647637795275
 20
0.210875984251969
 30
0.0
 11
-3.033956692913386
 21
0.2034940944881893
 31
0.0
  0
LINE
  5
24A9
330
1E
100
AcDbEntity
  8
3
100
AcDbLine
 10
-3.033956692913386
 20
0.2034940944881893
 30
0.0
 11
-3.027805118110236
 21
0.1875000000000004
 31
0.0
  0
LINE
  5
24AA
330
1E
100
AcDbEntity
  8
3
100
AcDbLine
 10
-3.264025590551181
 20
0.1985728346456699
 30
0.0
 11
-3.252952755905512
 21
0.170275590551181
 31
0.0
  0
LINE
  5
24AB
330
1E
100
AcDbEntity
  8
3
100
AcDbLine
 10
-3.252952755905512
 20
0.170275590551181
 30
0.0
 11
-3.240649606299212
 21
0.1272145669291342
 31
0.0
  0
LINE
  5
24AC
330
1E
100
AcDbEntity
  8
3
100
AcDbLine
 10
-3.240649606299212
 20
0.1272145669291342
 30
0.0
 11
-3.227116141732283
 21
0.0743110236220477
 31
0.0
  0
LINE
  5
24AD
330
1E
100
AcDbEntity
  8
3
100
AcDbLine
 10
-3.227116141732283
 20
0.0743110236220477
 30
0.0
 11
-3.214812992125984
 21
0.020177165354331
 31
0.0
  0
LINE
  5
24AE
330
1E
100
AcDbEntity
  8
3
100
AcDbLine
 10
-3.214812992125984
 20
0.020177165354331
 30
0.0
 11
-3.202509842519685
 21
-0.0302657480314959
 31
0.0
  0
LINE
  5
24AF
330
1E
100
AcDbEntity
  8
3
100
AcDbLine
 10
-3.202509842519685
 20
-0.0302657480314959
 30
0.0
 11
-3.190206692913386
 21
-0.0708661417322838
 31
0.0
  0
LINE
  5
24B0
330
1E
100
AcDbEntity
  8
3
100
AcDbLine
 10
-3.190206692913386
 20
-0.0708661417322838
 30
0.0
 11
-3.177903543307086
 21
-0.0967027559055116
 31
0.0
  0
LINE
  5
24B1
330
1E
100
AcDbEntity
  8
3
100
AcDbLine
 10
-3.177903543307086
 20
-0.0967027559055116
 30
0.0
 11
-3.164370078740157
 21
-0.1040846456692912
 31
0.0
  0
LINE
  5
24B2
330
1E
100
AcDbEntity
  8
3
100
AcDbLine
 10
-3.164370078740157
 20
-0.1040846456692912
 30
0.0
 11
-3.152066929133858
 21
-0.0930118110236222
 31
0.0
  0
LINE
  5
24B3
330
1E
100
AcDbEntity
  8
3
100
AcDbLine
 10
-3.152066929133858
 20
-0.0930118110236222
 30
0.0
 11
-3.139763779527558
 21
-0.0622539370078736
 31
0.0
  0
LINE
  5
24B4
330
1E
100
AcDbEntity
  8
3
100
AcDbLine
 10
-3.491633858267715
 20
0.1875000000000004
 30
0.0
 11
-3.479330708661417
 21
0.1567421259842523
 31
0.0
  0
LINE
  5
24B5
330
1E
100
AcDbEntity
  8
3
100
AcDbLine
 10
-3.479330708661417
 20
0.1567421259842523
 30
0.0
 11
-3.465797244094487
 21
0.1136811023622051
 31
0.0
  0
LINE
  5
24B6
330
1E
100
AcDbEntity
  8
3
100
AcDbLine
 10
-3.465797244094487
 20
0.1136811023622051
 30
0.0
 11
-3.453494094488189
 21
0.0644685039370079
 31
0.0
  0
LINE
  5
24B7
330
1E
100
AcDbEntity
  8
3
100
AcDbLine
 10
-3.453494094488189
 20
0.0644685039370079
 30
0.0
 11
-3.441190944881889
 21
0.012795275590551
 31
0.0
  0
LINE
  5
24B8
330
1E
100
AcDbEntity
  8
3
100
AcDbLine
 10
-3.441190944881889
 20
0.012795275590551
 30
0.0
 11
-3.42888779527559
 21
-0.0339566929133857
 31
0.0
  0
LINE
  5
24B9
330
1E
100
AcDbEntity
  8
3
100
AcDbLine
 10
-3.42888779527559
 20
-0.0339566929133857
 30
0.0
 11
-3.416584645669291
 21
-0.0696358267716533
 31
0.0
  0
LINE
  5
24BA
330
1E
100
AcDbEntity
  8
3
100
AcDbLine
 10
-3.416584645669291
 20
-0.0696358267716533
 30
0.0
 11
-3.403051181102362
 21
-0.0905511811023625
 31
0.0
  0
LINE
  5
24BB
330
1E
100
AcDbEntity
  8
3
100
AcDbLine
 10
-3.403051181102362
 20
-0.0905511811023625
 30
0.0
 11
-3.390748031496062
 21
-0.0930118110236222
 31
0.0
  0
LINE
  5
24BC
330
1E
100
AcDbEntity
  8
3
100
AcDbLine
 10
-3.390748031496062
 20
-0.0930118110236222
 30
0.0
 11
-3.367372047244094
 21
-0.0524114173228347
 31
0.0
  0
LINE
  5
24BD
330
1E
100
AcDbEntity
  8
3
100
AcDbLine
 10
-3.642962598425196
 20
-0.0647145669291338
 30
0.0
 11
-3.630659448818898
 21
-0.0819389763779524
 31
0.0
  0
LINE
  5
24BE
330
1E
100
AcDbEntity
  8
3
100
AcDbLine
 10
-3.630659448818898
 20
-0.0819389763779524
 30
0.0
 11
-3.617125984251968
 21
-0.0831692913385829
 31
0.0
  0
LINE
  5
24BF
330
1E
100
AcDbEntity
  8
3
100
AcDbLine
 10
-3.617125984251968
 20
-0.0831692913385829
 30
0.0
 11
-3.59498031496063
 21
-0.0437992125984246
 31
0.0
  0
LINE
  5
24C0
330
1E
100
AcDbEntity
  8
3
100
AcDbLine
 10
-3.681102362204724
 20
0.0570866141732287
 30
0.0
 11
-3.667568897637794
 21
0.0103346456692917
 31
0.0
  0
LINE
  5
24C1
330
1E
100
AcDbEntity
  8
3
100
AcDbLine
 10
-3.667568897637794
 20
0.0103346456692917
 30
0.0
 11
-3.655265748031496
 21
-0.032726377952756
 31
0.0
  0
LINE
  5
24C2
330
1E
100
AcDbEntity
  8
3
100
AcDbLine
 10
-3.655265748031496
 20
-0.032726377952756
 30
0.0
 11
-3.642962598425196
 21
-0.0647145669291338
 31
0.0
  0
LINE
  5
24C3
330
1E
100
AcDbEntity
  8
3
100
AcDbLine
 10
-1.513287401574802
 20
-3.377952755905511
 30
0.0
 11
-1.513287401574802
 21
-3.408710629921259
 31
0.0
  0
LINE
  5
24C4
330
1E
100
AcDbEntity
  8
3
100
AcDbLine
 10
-1.513287401574802
 20
-3.408710629921259
 30
0.0
 11
-1.513287401574802
 21
-3.441929133858267
 31
0.0
  0
LINE
  5
24C5
330
1E
100
AcDbEntity
  8
3
100
AcDbLine
 10
-1.513287401574802
 20
-3.441929133858267
 30
0.0
 11
-1.513287401574802
 21
-3.476377952755905
 31
0.0
  0
LINE
  5
24C6
330
1E
100
AcDbEntity
  8
3
100
AcDbLine
 10
-1.513287401574802
 20
-3.476377952755905
 30
0.0
 11
-1.513287401574802
 21
-3.507135826771653
 31
0.0
  0
LINE
  5
24C7
330
1E
100
AcDbEntity
  8
3
100
AcDbLine
 10
-1.513287401574802
 20
-3.507135826771653
 30
0.0
 11
-1.513287401574802
 21
-3.530511811023621
 31
0.0
  0
LINE
  5
24C8
330
1E
100
AcDbEntity
  8
3
100
AcDbLine
 10
-1.513287401574802
 20
-3.530511811023621
 30
0.0
 11
-1.513287401574802
 21
-3.54650590551181
 31
0.0
  0
LINE
  5
24C9
330
1E
100
AcDbEntity
  8
3
100
AcDbLine
 10
-1.513287401574802
 20
-3.54650590551181
 30
0.0
 11
-1.513287401574802
 21
-3.55142716535433
 31
0.0
  0
LINE
  5
24CA
330
1E
100
AcDbEntity
  8
3
100
AcDbLine
 10
-1.513287401574802
 20
-3.332431102362204
 30
0.0
 11
-1.513287401574802
 21
-3.338582677165354
 31
0.0
  0
LINE
  5
24CB
330
1E
100
AcDbEntity
  8
3
100
AcDbLine
 10
-1.513287401574802
 20
-3.338582677165354
 30
0.0
 11
-1.513287401574802
 21
-3.353346456692912
 31
0.0
  0
LINE
  5
24CC
330
1E
100
AcDbEntity
  8
3
100
AcDbLine
 10
-1.513287401574802
 20
-3.353346456692912
 30
0.0
 11
-1.513287401574802
 21
-3.377952755905511
 31
0.0
  0
LINE
  5
24CD
330
1E
100
AcDbEntity
  8
3
100
AcDbLine
 10
-1.622785433070866
 20
-3.617864173228346
 30
0.0
 11
-1.622785433070866
 21
-3.611712598425196
 31
0.0
  0
LINE
  5
24CE
330
1E
100
AcDbEntity
  8
3
100
AcDbLine
 10
-1.622785433070866
 20
-3.611712598425196
 30
0.0
 11
-1.622785433070866
 21
-3.593257874015747
 31
0.0
  0
LINE
  5
24CF
330
1E
100
AcDbEntity
  8
3
100
AcDbLine
 10
-1.622785433070866
 20
-3.593257874015747
 30
0.0
 11
-1.622785433070866
 21
-3.566190944881889
 31
0.0
  0
LINE
  5
24D0
330
1E
100
AcDbEntity
  8
3
100
AcDbLine
 10
-1.622785433070866
 20
-3.566190944881889
 30
0.0
 11
-1.622785433070866
 21
-3.529281496062991
 31
0.0
  0
LINE
  5
24D1
330
1E
100
AcDbEntity
  8
3
100
AcDbLine
 10
-1.622785433070866
 20
-3.529281496062991
 30
0.0
 11
-1.622785433070866
 21
-3.487450787401574
 31
0.0
  0
LINE
  5
24D2
330
1E
100
AcDbEntity
  8
3
100
AcDbLine
 10
-1.622785433070866
 20
-3.487450787401574
 30
0.0
 11
-1.622785433070866
 21
-3.441929133858267
 31
0.0
  0
LINE
  5
24D3
330
1E
100
AcDbEntity
  8
3
100
AcDbLine
 10
-1.622785433070866
 20
-3.441929133858267
 30
0.0
 11
-1.622785433070866
 21
-3.39640748031496
 31
0.0
  0
LINE
  5
24D4
330
1E
100
AcDbEntity
  8
3
100
AcDbLine
 10
-1.622785433070866
 20
-3.39640748031496
 30
0.0
 11
-1.622785433070866
 21
-3.354576771653542
 31
0.0
  0
LINE
  5
24D5
330
1E
100
AcDbEntity
  8
3
100
AcDbLine
 10
-1.622785433070866
 20
-3.354576771653542
 30
0.0
 11
-1.622785433070866
 21
-3.318897637795275
 31
0.0
  0
LINE
  5
24D6
330
1E
100
AcDbEntity
  8
3
100
AcDbLine
 10
-1.622785433070866
 20
-3.318897637795275
 30
0.0
 11
-1.622785433070866
 21
-3.290600393700787
 31
0.0
  0
LINE
  5
24D7
330
1E
100
AcDbEntity
  8
3
100
AcDbLine
 10
-1.622785433070866
 20
-3.290600393700787
 30
0.0
 11
-1.622785433070866
 21
-3.273375984251968
 31
0.0
  0
LINE
  5
24D8
330
1E
100
AcDbEntity
  8
3
100
AcDbLine
 10
-1.622785433070866
 20
-3.273375984251968
 30
0.0
 11
-1.622785433070866
 21
-3.267224409448818
 31
0.0
  0
LINE
  5
24D9
330
1E
100
AcDbEntity
  8
3
100
AcDbLine
 10
-1.654773622047243
 20
-3.267224409448818
 30
0.0
 11
-1.654773622047243
 21
-3.272145669291338
 31
0.0
  0
LINE
  5
24DA
330
1E
100
AcDbEntity
  8
3
100
AcDbLine
 10
-1.654773622047243
 20
-3.272145669291338
 30
0.0
 11
-1.654773622047243
 21
-3.286909448818897
 31
0.0
  0
LINE
  5
24DB
330
1E
100
AcDbEntity
  8
3
100
AcDbLine
 10
-1.654773622047243
 20
-3.286909448818897
 30
0.0
 11
-1.654773622047243
 21
-3.311515748031495
 31
0.0
  0
LINE
  5
24DC
330
1E
100
AcDbEntity
  8
3
100
AcDbLine
 10
-1.654773622047243
 20
-3.311515748031495
 30
0.0
 11
-1.654773622047243
 21
-3.342273622047243
 31
0.0
  0
LINE
  5
24DD
330
1E
100
AcDbEntity
  8
3
100
AcDbLine
 10
-1.654773622047243
 20
-3.342273622047243
 30
0.0
 11
-1.654773622047243
 21
-3.380413385826771
 31
0.0
  0
LINE
  5
24DE
330
1E
100
AcDbEntity
  8
3
100
AcDbLine
 10
-1.654773622047243
 20
-3.380413385826771
 30
0.0
 11
-1.654773622047243
 21
-3.421013779527559
 31
0.0
  0
LINE
  5
24DF
330
1E
100
AcDbEntity
  8
3
100
AcDbLine
 10
-1.654773622047243
 20
-3.421013779527559
 30
0.0
 11
-1.654773622047243
 21
-3.462844488188976
 31
0.0
  0
LINE
  5
24E0
330
1E
100
AcDbEntity
  8
3
100
AcDbLine
 10
-1.654773622047243
 20
-3.462844488188976
 30
0.0
 11
-1.654773622047243
 21
-3.504675196850393
 31
0.0
  0
LINE
  5
24E1
330
1E
100
AcDbEntity
  8
3
100
AcDbLine
 10
-1.654773622047243
 20
-3.504675196850393
 30
0.0
 11
-1.654773622047243
 21
-3.541584645669291
 31
0.0
  0
LINE
  5
24E2
330
1E
100
AcDbEntity
  8
3
100
AcDbLine
 10
-1.654773622047243
 20
-3.541584645669291
 30
0.0
 11
-1.654773622047243
 21
-3.573572834645668
 31
0.0
  0
LINE
  5
24E3
330
1E
100
AcDbEntity
  8
3
100
AcDbLine
 10
-1.654773622047243
 20
-3.573572834645668
 30
0.0
 11
-1.654773622047243
 21
-3.596948818897637
 31
0.0
  0
LINE
  5
24E4
330
1E
100
AcDbEntity
  8
3
100
AcDbLine
 10
-1.654773622047243
 20
-3.596948818897637
 30
0.0
 11
-1.654773622047243
 21
-3.611712598425196
 31
0.0
  0
LINE
  5
24E5
330
1E
100
AcDbEntity
  8
3
100
AcDbLine
 10
-1.654773622047243
 20
-3.611712598425196
 30
0.0
 11
-1.654773622047243
 21
-3.617864173228346
 31
0.0
  0
LINE
  5
24E6
330
1E
100
AcDbEntity
  8
3
100
AcDbLine
 10
-1.676919291338582
 20
-3.595718503937007
 30
0.0
 11
-1.676919291338582
 21
-3.590797244094487
 31
0.0
  0
LINE
  5
24E7
330
1E
100
AcDbEntity
  8
3
100
AcDbLine
 10
-1.676919291338582
 20
-3.590797244094487
 30
0.0
 11
-1.676919291338582
 21
-3.574803149606299
 31
0.0
  0
LINE
  5
24E8
330
1E
100
AcDbEntity
  8
3
100
AcDbLine
 10
-1.676919291338582
 20
-3.574803149606299
 30
0.0
 11
-1.676919291338582
 21
-3.5501968503937
 31
0.0
  0
LINE
  5
24E9
330
1E
100
AcDbEntity
  8
3
100
AcDbLine
 10
-1.676919291338582
 20
-3.5501968503937
 30
0.0
 11
-1.676919291338582
 21
-3.519438976377952
 31
0.0
  0
LINE
  5
24EA
330
1E
100
AcDbEntity
  8
3
100
AcDbLine
 10
-1.676919291338582
 20
-3.519438976377952
 30
0.0
 11
-1.676919291338582
 21
-3.482529527559055
 31
0.0
  0
LINE
  5
24EB
330
1E
100
AcDbEntity
  8
3
100
AcDbLine
 10
-1.676919291338582
 20
-3.482529527559055
 30
0.0
 11
-1.676919291338582
 21
-3.441929133858267
 31
0.0
  0
LINE
  5
24EC
330
1E
100
AcDbEntity
  8
3
100
AcDbLine
 10
-1.676919291338582
 20
-3.441929133858267
 30
0.0
 11
-1.676919291338582
 21
-3.40255905511811
 31
0.0
  0
LINE
  5
24ED
330
1E
100
AcDbEntity
  8
3
100
AcDbLine
 10
-1.676919291338582
 20
-3.40255905511811
 30
0.0
 11
-1.676919291338582
 21
-3.365649606299212
 31
0.0
  0
LINE
  5
24EE
330
1E
100
AcDbEntity
  8
3
100
AcDbLine
 10
-1.676919291338582
 20
-3.365649606299212
 30
0.0
 11
-1.676919291338582
 21
-3.333661417322834
 31
0.0
  0
LINE
  5
24EF
330
1E
100
AcDbEntity
  8
3
100
AcDbLine
 10
-1.676919291338582
 20
-3.333661417322834
 30
0.0
 11
-1.676919291338582
 21
-3.310285433070865
 31
0.0
  0
LINE
  5
24F0
330
1E
100
AcDbEntity
  8
3
100
AcDbLine
 10
-1.676919291338582
 20
-3.310285433070865
 30
0.0
 11
-1.676919291338582
 21
-3.294291338582676
 31
0.0
  0
LINE
  5
24F1
330
1E
100
AcDbEntity
  8
3
100
AcDbLine
 10
-1.676919291338582
 20
-3.294291338582676
 30
0.0
 11
-1.676919291338582
 21
-3.289370078740157
 31
0.0
  0
LINE
  5
24F2
330
1E
100
AcDbEntity
  8
3
100
AcDbLine
 10
-1.465305118110236
 20
-3.766732283464566
 30
0.0
 11
-1.477608267716535
 21
-3.766732283464566
 31
0.0
  0
LINE
  5
24F3
330
1E
100
AcDbEntity
  8
3
100
AcDbLine
 10
-1.477608267716535
 20
-3.766732283464566
 30
0.0
 11
-1.487450787401574
 21
-3.766732283464566
 31
0.0
  0
LINE
  5
24F4
330
1E
100
AcDbEntity
  8
3
100
AcDbLine
 10
-1.487450787401574
 20
-3.766732283464566
 30
0.0
 11
-1.496062992125984
 21
-3.767962598425196
 31
0.0
  0
LINE
  5
24F5
330
1E
100
AcDbEntity
  8
3
100
AcDbLine
 10
-1.496062992125984
 20
-3.767962598425196
 30
0.0
 11
-1.503444881889763
 21
-3.770423228346456
 31
0.0
  0
LINE
  5
24F6
330
1E
100
AcDbEntity
  8
3
100
AcDbLine
 10
-1.503444881889763
 20
-3.770423228346456
 30
0.0
 11
-1.508366141732283
 21
-3.779035433070865
 31
0.0
  0
LINE
  5
24F7
330
1E
100
AcDbEntity
  8
3
100
AcDbLine
 10
-1.508366141732283
 20
-3.779035433070865
 30
0.0
 11
-1.509596456692913
 21
-3.790108267716535
 31
0.0
  0
LINE
  5
24F8
330
1E
100
AcDbEntity
  8
3
100
AcDbLine
 10
-1.509596456692913
 20
-3.790108267716535
 30
0.0
 11
-1.509596456692913
 21
-3.801181102362204
 31
0.0
  0
LINE
  5
24F9
330
1E
100
AcDbEntity
  8
3
100
AcDbLine
 10
-1.509596456692913
 20
-3.790108267716535
 30
0.0
 11
-1.509596456692913
 21
-3.738435039370078
 31
0.0
  0
LINE
  5
24FA
330
1E
100
AcDbEntity
  8
3
100
AcDbLine
 10
-1.509596456692913
 20
-3.738435039370078
 30
0.0
 11
-1.509596456692913
 21
-3.679379921259842
 31
0.0
  0
LINE
  5
24FB
330
1E
100
AcDbEntity
  8
3
100
AcDbLine
 10
-1.509596456692913
 20
-3.679379921259842
 30
0.0
 11
-1.509596456692913
 21
-3.614173228346456
 31
0.0
  0
LINE
  5
24FC
330
1E
100
AcDbEntity
  8
3
100
AcDbLine
 10
-1.509596456692913
 20
-3.614173228346456
 30
0.0
 11
-1.509596456692913
 21
-3.54527559055118
 31
0.0
  0
LINE
  5
24FD
330
1E
100
AcDbEntity
  8
3
100
AcDbLine
 10
-1.480068897637795
 20
-3.625246062992125
 30
0.0
 11
-1.467765748031496
 21
-3.627706692913385
 31
0.0
  0
LINE
  5
24FE
330
1E
100
AcDbEntity
  8
3
100
AcDbLine
 10
-1.467765748031496
 20
-3.627706692913385
 30
0.0
 11
-1.465305118110236
 21
-3.627706692913385
 31
0.0
  0
LINE
  5
24FF
330
1E
100
AcDbEntity
  8
3
100
AcDbLine
 10
-1.465305118110236
 20
-3.433316929133858
 30
0.0
 11
-1.477608267716535
 21
-3.434547244094487
 31
0.0
  0
LINE
  5
2500
330
1E
100
AcDbEntity
  8
3
100
AcDbLine
 10
-1.477608267716535
 20
-3.434547244094487
 30
0.0
 11
-1.487450787401574
 21
-3.438238188976377
 31
0.0
  0
LINE
  5
2501
330
1E
100
AcDbEntity
  8
3
100
AcDbLine
 10
-1.487450787401574
 20
-3.438238188976377
 30
0.0
 11
-1.496062992125984
 21
-3.444389763779527
 31
0.0
  0
LINE
  5
2502
330
1E
100
AcDbEntity
  8
3
100
AcDbLine
 10
-1.496062992125984
 20
-3.444389763779527
 30
0.0
 11
-1.503444881889763
 21
-3.456692913385826
 31
0.0
  0
LINE
  5
2503
330
1E
100
AcDbEntity
  8
3
100
AcDbLine
 10
-1.503444881889763
 20
-3.456692913385826
 30
0.0
 11
-1.508366141732283
 21
-3.481299212598425
 31
0.0
  0
LINE
  5
2504
330
1E
100
AcDbEntity
  8
3
100
AcDbLine
 10
-1.508366141732283
 20
-3.481299212598425
 30
0.0
 11
-1.509596456692913
 21
-3.502214566929133
 31
0.0
  0
LINE
  5
2505
330
1E
100
AcDbEntity
  8
3
100
AcDbLine
 10
-1.509596456692913
 20
-3.502214566929133
 30
0.0
 11
-1.509596456692913
 21
-3.520669291338582
 31
0.0
  0
LINE
  5
2506
330
1E
100
AcDbEntity
  8
3
100
AcDbLine
 10
-1.509596456692913
 20
-3.520669291338582
 30
0.0
 11
-1.509596456692913
 21
-3.54527559055118
 31
0.0
  0
LINE
  5
2507
330
1E
100
AcDbEntity
  8
3
100
AcDbLine
 10
-1.509596456692913
 20
-3.54527559055118
 30
0.0
 11
-1.508366141732283
 21
-3.568651574803149
 31
0.0
  0
LINE
  5
2508
330
1E
100
AcDbEntity
  8
3
100
AcDbLine
 10
-1.508366141732283
 20
-3.568651574803149
 30
0.0
 11
-1.505905511811023
 21
-3.589566929133858
 31
0.0
  0
LINE
  5
2509
330
1E
100
AcDbEntity
  8
3
100
AcDbLine
 10
-1.505905511811023
 20
-3.589566929133858
 30
0.0
 11
-1.500984251968503
 21
-3.605561023622046
 31
0.0
  0
LINE
  5
250A
330
1E
100
AcDbEntity
  8
3
100
AcDbLine
 10
-1.500984251968503
 20
-3.605561023622046
 30
0.0
 11
-1.489911417322834
 21
-3.619094488188976
 31
0.0
  0
LINE
  5
250B
330
1E
100
AcDbEntity
  8
3
100
AcDbLine
 10
-1.489911417322834
 20
-3.619094488188976
 30
0.0
 11
-1.480068897637795
 21
-3.625246062992125
 31
0.0
  0
LINE
  5
250C
330
1E
100
AcDbEntity
  8
3
100
AcDbLine
 10
-1.509596456692913
 20
-3.502214566929133
 30
0.0
 11
-1.509596456692913
 21
-3.430856299212598
 31
0.0
  0
LINE
  5
250D
330
1E
100
AcDbEntity
  8
3
100
AcDbLine
 10
-1.509596456692913
 20
-3.430856299212598
 30
0.0
 11
-1.509596456692913
 21
-3.360728346456692
 31
0.0
  0
LINE
  5
250E
330
1E
100
AcDbEntity
  8
3
100
AcDbLine
 10
-1.509596456692913
 20
-3.360728346456692
 30
0.0
 11
-1.509596456692913
 21
-3.290600393700787
 31
0.0
  0
LINE
  5
250F
330
1E
100
AcDbEntity
  8
3
100
AcDbLine
 10
-1.509596456692913
 20
-3.290600393700787
 30
0.0
 11
-1.509596456692913
 21
-3.2253937007874
 31
0.0
  0
LINE
  5
2510
330
1E
100
AcDbEntity
  8
3
100
AcDbLine
 10
-1.503444881889763
 20
-3.136811023622046
 30
0.0
 11
-1.508366141732283
 21
-3.165108267716535
 31
0.0
  0
LINE
  5
2511
330
1E
100
AcDbEntity
  8
3
100
AcDbLine
 10
-1.508366141732283
 20
-3.165108267716535
 30
0.0
 11
-1.509596456692913
 21
-3.187253937007874
 31
0.0
  0
LINE
  5
2512
330
1E
100
AcDbEntity
  8
3
100
AcDbLine
 10
-1.509596456692913
 20
-3.187253937007874
 30
0.0
 11
-1.509596456692913
 21
-3.204478346456692
 31
0.0
  0
LINE
  5
2513
330
1E
100
AcDbEntity
  8
3
100
AcDbLine
 10
-1.509596456692913
 20
-3.204478346456692
 30
0.0
 11
-1.509596456692913
 21
-3.2253937007874
 31
0.0
  0
LINE
  5
2514
330
1E
100
AcDbEntity
  8
3
100
AcDbLine
 10
-1.509596456692913
 20
-3.2253937007874
 30
0.0
 11
-1.508366141732283
 21
-3.24138779527559
 31
0.0
  0
LINE
  5
2515
330
1E
100
AcDbEntity
  8
3
100
AcDbLine
 10
-1.508366141732283
 20
-3.24138779527559
 30
0.0
 11
-1.505905511811023
 21
-3.254921259842519
 31
0.0
  0
LINE
  5
2516
330
1E
100
AcDbEntity
  8
3
100
AcDbLine
 10
-1.505905511811023
 20
-3.254921259842519
 30
0.0
 11
-1.500984251968503
 21
-3.264763779527559
 31
0.0
  0
LINE
  5
2517
330
1E
100
AcDbEntity
  8
3
100
AcDbLine
 10
-1.500984251968503
 20
-3.264763779527559
 30
0.0
 11
-1.489911417322834
 21
-3.270915354330708
 31
0.0
  0
LINE
  5
2518
330
1E
100
AcDbEntity
  8
3
100
AcDbLine
 10
-1.489911417322834
 20
-3.270915354330708
 30
0.0
 11
-1.480068897637795
 21
-3.273375984251968
 31
0.0
  0
LINE
  5
2519
330
1E
100
AcDbEntity
  8
3
100
AcDbLine
 10
-1.480068897637795
 20
-3.273375984251968
 30
0.0
 11
-1.467765748031496
 21
-3.274606299212598
 31
0.0
  0
LINE
  5
251A
330
1E
100
AcDbEntity
  8
3
100
AcDbLine
 10
-1.467765748031496
 20
-3.274606299212598
 30
0.0
 11
-1.465305118110236
 21
-3.274606299212598
 31
0.0
  0
LINE
  5
251B
330
1E
100
AcDbEntity
  8
3
100
AcDbLine
 10
-1.465305118110236
 20
-3.103592519685039
 30
0.0
 11
-1.477608267716535
 21
-3.104822834645668
 31
0.0
  0
LINE
  5
251C
330
1E
100
AcDbEntity
  8
3
100
AcDbLine
 10
-1.477608267716535
 20
-3.104822834645668
 30
0.0
 11
-1.487450787401574
 21
-3.110974409448818
 31
0.0
  0
LINE
  5
251D
330
1E
100
AcDbEntity
  8
3
100
AcDbLine
 10
-1.487450787401574
 20
-3.110974409448818
 30
0.0
 11
-1.496062992125984
 21
-3.119586614173227
 31
0.0
  0
LINE
  5
251E
330
1E
100
AcDbEntity
  8
3
100
AcDbLine
 10
-1.496062992125984
 20
-3.119586614173227
 30
0.0
 11
-1.503444881889763
 21
-3.136811023622046
 31
0.0
  0
LINE
  5
251F
330
1E
100
AcDbEntity
  8
3
100
AcDbLine
 10
-1.509596456692913
 20
-3.187253937007874
 30
0.0
 11
-1.509596456692913
 21
-3.129429133858267
 31
0.0
  0
LINE
  5
2520
330
1E
100
AcDbEntity
  8
3
100
AcDbLine
 10
-1.509596456692913
 20
-3.129429133858267
 30
0.0
 11
-1.509596456692913
 21
-3.08021653543307
 31
0.0
  0
LINE
  5
2521
330
1E
100
AcDbEntity
  8
3
100
AcDbLine
 10
-1.509596456692913
 20
-3.08021653543307
 30
0.0
 11
-1.509596456692913
 21
-3.038385826771653
 31
0.0
  0
LINE
  5
2522
330
1E
100
AcDbEntity
  8
3
100
AcDbLine
 10
-1.509596456692913
 20
-3.038385826771653
 30
0.0
 11
-1.509596456692913
 21
-3.006397637795275
 31
0.0
  0
LINE
  5
2523
330
1E
100
AcDbEntity
  8
3
100
AcDbLine
 10
-1.508366141732283
 20
-3.008858267716535
 30
0.0
 11
-1.505905511811023
 21
-3.008858267716535
 31
0.0
  0
LINE
  5
2524
330
1E
100
AcDbEntity
  8
3
100
AcDbLine
 10
-1.505905511811023
 20
-3.008858267716535
 30
0.0
 11
-1.500984251968503
 21
-3.006397637795275
 31
0.0
  0
LINE
  5
2525
330
1E
100
AcDbEntity
  8
3
100
AcDbLine
 10
-1.500984251968503
 20
-3.006397637795275
 30
0.0
 11
-1.489911417322834
 21
-3.002706692913385
 31
0.0
  0
LINE
  5
2526
330
1E
100
AcDbEntity
  8
3
100
AcDbLine
 10
-1.489911417322834
 20
-3.002706692913385
 30
0.0
 11
-1.480068897637795
 21
-3.001476377952755
 31
0.0
  0
LINE
  5
2527
330
1E
100
AcDbEntity
  8
3
100
AcDbLine
 10
-1.480068897637795
 20
-3.001476377952755
 30
0.0
 11
-1.467765748031496
 21
-3.000246062992125
 31
0.0
  0
LINE
  5
2528
330
1E
100
AcDbEntity
  8
3
100
AcDbLine
 10
-1.467765748031496
 20
-3.000246062992125
 30
0.0
 11
-1.465305118110236
 21
-3.000246062992125
 31
0.0
  0
LINE
  5
2529
330
1E
100
AcDbEntity
  8
3
100
AcDbLine
 10
-1.465305118110236
 20
-2.93257874015748
 30
0.0
 11
-1.477608267716535
 21
-2.93380905511811
 31
0.0
  0
LINE
  5
252A
330
1E
100
AcDbEntity
  8
3
100
AcDbLine
 10
-1.477608267716535
 20
-2.93380905511811
 30
0.0
 11
-1.487450787401574
 21
-2.938730314960629
 31
0.0
  0
LINE
  5
252B
330
1E
100
AcDbEntity
  8
3
100
AcDbLine
 10
-1.487450787401574
 20
-2.938730314960629
 30
0.0
 11
-1.496062992125984
 21
-2.946112204724409
 31
0.0
  0
LINE
  5
252C
330
1E
100
AcDbEntity
  8
3
100
AcDbLine
 10
-1.496062992125984
 20
-2.946112204724409
 30
0.0
 11
-1.503444881889763
 21
-2.959645669291338
 31
0.0
  0
LINE
  5
252D
330
1E
100
AcDbEntity
  8
3
100
AcDbLine
 10
-1.503444881889763
 20
-2.959645669291338
 30
0.0
 11
-1.508366141732283
 21
-2.978100393700787
 31
0.0
  0
LINE
  5
252E
330
1E
100
AcDbEntity
  8
3
100
AcDbLine
 10
-1.508366141732283
 20
-2.978100393700787
 30
0.0
 11
-1.509596456692913
 21
-2.990403543307086
 31
0.0
  0
LINE
  5
252F
330
1E
100
AcDbEntity
  8
3
100
AcDbLine
 10
-1.509596456692913
 20
-2.990403543307086
 30
0.0
 11
-1.509596456692913
 21
-2.999015748031495
 31
0.0
  0
LINE
  5
2530
330
1E
100
AcDbEntity
  8
3
100
AcDbLine
 10
-1.509596456692913
 20
-2.999015748031495
 30
0.0
 11
-1.509596456692913
 21
-3.006397637795275
 31
0.0
  0
LINE
  5
2531
330
1E
100
AcDbEntity
  8
3
100
AcDbLine
 10
-1.509596456692913
 20
-3.006397637795275
 30
0.0
 11
-1.508366141732283
 21
-3.008858267716535
 31
0.0
  0
LINE
  5
2532
330
1E
100
AcDbEntity
  8
3
100
AcDbLine
 10
-1.509596456692913
 20
-2.990403543307086
 30
0.0
 11
-1.509596456692913
 21
-2.974409448818897
 31
0.0
  0
LINE
  5
2533
330
1E
100
AcDbEntity
  8
3
100
AcDbLine
 10
-1.509596456692913
 20
-2.974409448818897
 30
0.0
 11
-1.509596456692913
 21
-2.969488188976377
 31
0.0
  0
LINE
  5
2534
330
1E
100
AcDbEntity
  8
3
100
AcDbLine
 10
-1.508366141732283
 20
-3.919291338582676
 30
0.0
 11
-1.509596456692913
 21
-3.914370078740157
 31
0.0
  0
LINE
  5
2535
330
1E
100
AcDbEntity
  8
3
100
AcDbLine
 10
-1.509596456692913
 20
-3.914370078740157
 30
0.0
 11
-1.509596456692913
 21
-3.913139763779527
 31
0.0
  0
LINE
  5
2536
330
1E
100
AcDbEntity
  8
3
100
AcDbLine
 10
-1.465305118110236
 20
-3.948818897637795
 30
0.0
 11
-1.477608267716535
 21
-3.947588582677164
 31
0.0
  0
LINE
  5
2537
330
1E
100
AcDbEntity
  8
3
100
AcDbLine
 10
-1.477608267716535
 20
-3.947588582677164
 30
0.0
 11
-1.487450787401574
 21
-3.943897637795275
 31
0.0
  0
LINE
  5
2538
330
1E
100
AcDbEntity
  8
3
100
AcDbLine
 10
-1.487450787401574
 20
-3.943897637795275
 30
0.0
 11
-1.496062992125984
 21
-3.938976377952755
 31
0.0
  0
LINE
  5
2539
330
1E
100
AcDbEntity
  8
3
100
AcDbLine
 10
-1.496062992125984
 20
-3.938976377952755
 30
0.0
 11
-1.503444881889763
 21
-3.930364173228346
 31
0.0
  0
LINE
  5
253A
330
1E
100
AcDbEntity
  8
3
100
AcDbLine
 10
-1.503444881889763
 20
-3.930364173228346
 30
0.0
 11
-1.508366141732283
 21
-3.919291338582676
 31
0.0
  0
LINE
  5
253B
330
1E
100
AcDbEntity
  8
3
100
AcDbLine
 10
-1.509596456692913
 20
-3.914370078740157
 30
0.0
 11
-1.509596456692913
 21
-3.905757874015747
 31
0.0
  0
LINE
  5
253C
330
1E
100
AcDbEntity
  8
3
100
AcDbLine
 10
-1.509596456692913
 20
-3.905757874015747
 30
0.0
 11
-1.509596456692913
 21
-3.887303149606299
 31
0.0
  0
LINE
  5
253D
330
1E
100
AcDbEntity
  8
3
100
AcDbLine
 10
-1.509596456692913
 20
-3.887303149606299
 30
0.0
 11
-1.509596456692913
 21
-3.85777559055118
 31
0.0
  0
LINE
  5
253E
330
1E
100
AcDbEntity
  8
3
100
AcDbLine
 10
-1.509596456692913
 20
-3.85777559055118
 30
0.0
 11
-1.509596456692913
 21
-3.818405511811023
 31
0.0
  0
LINE
  5
253F
330
1E
100
AcDbEntity
  8
3
100
AcDbLine
 10
-1.505905511811023
 20
-3.85531496062992
 30
0.0
 11
-1.500984251968503
 21
-3.87007874015748
 31
0.0
  0
LINE
  5
2540
330
1E
100
AcDbEntity
  8
3
100
AcDbLine
 10
-1.500984251968503
 20
-3.87007874015748
 30
0.0
 11
-1.489911417322834
 21
-3.883612204724409
 31
0.0
  0
LINE
  5
2541
330
1E
100
AcDbEntity
  8
3
100
AcDbLine
 10
-1.489911417322834
 20
-3.883612204724409
 30
0.0
 11
-1.480068897637795
 21
-3.890994094488188
 31
0.0
  0
LINE
  5
2542
330
1E
100
AcDbEntity
  8
3
100
AcDbLine
 10
-1.480068897637795
 20
-3.890994094488188
 30
0.0
 11
-1.467765748031496
 21
-3.893454724409448
 31
0.0
  0
LINE
  5
2543
330
1E
100
AcDbEntity
  8
3
100
AcDbLine
 10
-1.467765748031496
 20
-3.893454724409448
 30
0.0
 11
-1.465305118110236
 21
-3.893454724409448
 31
0.0
  0
LINE
  5
2544
330
1E
100
AcDbEntity
  8
3
100
AcDbLine
 10
-1.509596456692913
 20
-3.818405511811023
 30
0.0
 11
-1.508366141732283
 21
-3.835629921259842
 31
0.0
  0
LINE
  5
2545
330
1E
100
AcDbEntity
  8
3
100
AcDbLine
 10
-1.508366141732283
 20
-3.835629921259842
 30
0.0
 11
-1.505905511811023
 21
-3.85531496062992
 31
0.0
  0
LINE
  5
2546
330
1E
100
AcDbEntity
  8
3
100
AcDbLine
 10
-1.053149606299212
 20
-3.274606299212598
 30
0.0
 11
-1.465305118110236
 21
-3.274606299212598
 31
0.0
  0
LINE
  5
2547
330
1E
100
AcDbEntity
  8
3
100
AcDbLine
 10
-1.465305118110236
 20
-3.274606299212598
 30
0.0
 11
-1.465305118110236
 21
-3.352116141732282
 31
0.0
  0
LINE
  5
2548
330
1E
100
AcDbEntity
  8
3
100
AcDbLine
 10
-1.465305118110236
 20
-3.352116141732282
 30
0.0
 11
-1.465305118110236
 21
-3.433316929133858
 31
0.0
  0
LINE
  5
2549
330
1E
100
AcDbEntity
  8
3
100
AcDbLine
 10
-1.465305118110236
 20
-3.433316929133858
 30
0.0
 11
-1.053149606299212
 21
-3.433316929133858
 31
0.0
  0
LINE
  5
254A
330
1E
100
AcDbEntity
  8
3
100
AcDbLine
 10
-1.053149606299212
 20
-3.000246062992125
 30
0.0
 11
-1.465305118110236
 21
-3.000246062992125
 31
0.0
  0
LINE
  5
254B
330
1E
100
AcDbEntity
  8
3
100
AcDbLine
 10
-1.465305118110236
 20
-3.000246062992125
 30
0.0
 11
-1.465305118110236
 21
-3.046998031496062
 31
0.0
  0
LINE
  5
254C
330
1E
100
AcDbEntity
  8
3
100
AcDbLine
 10
-1.465305118110236
 20
-3.046998031496062
 30
0.0
 11
-1.465305118110236
 21
-3.103592519685039
 31
0.0
  0
LINE
  5
254D
330
1E
100
AcDbEntity
  8
3
100
AcDbLine
 10
-1.465305118110236
 20
-3.103592519685039
 30
0.0
 11
-1.053149606299212
 21
-3.103592519685039
 31
0.0
  0
LINE
  5
254E
330
1E
100
AcDbEntity
  8
3
100
AcDbLine
 10
-1.465305118110236
 20
-2.92642716535433
 30
0.0
 11
-1.465305118110236
 21
-2.92765748031496
 31
0.0
  0
LINE
  5
254F
330
1E
100
AcDbEntity
  8
3
100
AcDbLine
 10
-1.465305118110236
 20
-2.92765748031496
 30
0.0
 11
-1.465305118110236
 21
-2.93257874015748
 31
0.0
  0
LINE
  5
2550
330
1E
100
AcDbEntity
  8
3
100
AcDbLine
 10
-1.465305118110236
 20
-2.93257874015748
 30
0.0
 11
-1.053149606299212
 21
-2.93257874015748
 31
0.0
  0
LINE
  5
2551
330
1E
100
AcDbEntity
  8
3
100
AcDbLine
 10
-1.053149606299212
 20
-3.893454724409448
 30
0.0
 11
-1.465305118110236
 21
-3.893454724409448
 31
0.0
  0
LINE
  5
2552
330
1E
100
AcDbEntity
  8
3
100
AcDbLine
 10
-1.465305118110236
 20
-3.893454724409448
 30
0.0
 11
-1.465305118110236
 21
-3.927903543307086
 31
0.0
  0
LINE
  5
2553
330
1E
100
AcDbEntity
  8
3
100
AcDbLine
 10
-1.465305118110236
 20
-3.927903543307086
 30
0.0
 11
-1.465305118110236
 21
-3.948818897637795
 31
0.0
  0
LINE
  5
2554
330
1E
100
AcDbEntity
  8
3
100
AcDbLine
 10
-1.465305118110236
 20
-3.948818897637795
 30
0.0
 11
-1.053149606299212
 21
-3.948818897637795
 31
0.0
  0
LINE
  5
2555
330
1E
100
AcDbEntity
  8
3
100
AcDbLine
 10
-1.053149606299212
 20
-3.627706692913385
 30
0.0
 11
-1.465305118110236
 21
-3.627706692913385
 31
0.0
  0
LINE
  5
2556
330
1E
100
AcDbEntity
  8
3
100
AcDbLine
 10
-1.465305118110236
 20
-3.627706692913385
 30
0.0
 11
-1.465305118110236
 21
-3.70029527559055
 31
0.0
  0
LINE
  5
2557
330
1E
100
AcDbEntity
  8
3
100
AcDbLine
 10
-1.465305118110236
 20
-3.70029527559055
 30
0.0
 11
-1.465305118110236
 21
-3.766732283464566
 31
0.0
  0
LINE
  5
2558
330
1E
100
AcDbEntity
  8
3
100
AcDbLine
 10
-1.465305118110236
 20
-3.766732283464566
 30
0.0
 11
-1.053149606299212
 21
-3.766732283464566
 31
0.0
  0
LINE
  5
2559
330
1E
100
AcDbEntity
  8
3
100
AcDbLine
 10
-1.018700787401574
 20
-3.86515748031496
 30
0.0
 11
-1.022391732283464
 21
-3.879921259842519
 31
0.0
  0
LINE
  5
255A
330
1E
100
AcDbEntity
  8
3
100
AcDbLine
 10
-1.022391732283464
 20
-3.879921259842519
 30
0.0
 11
-1.027312992125984
 21
-3.886072834645668
 31
0.0
  0
LINE
  5
255B
330
1E
100
AcDbEntity
  8
3
100
AcDbLine
 10
-1.027312992125984
 20
-3.886072834645668
 30
0.0
 11
-1.035925196850393
 21
-3.890994094488188
 31
0.0
  0
LINE
  5
255C
330
1E
100
AcDbEntity
  8
3
100
AcDbLine
 10
-1.035925196850393
 20
-3.890994094488188
 30
0.0
 11
-1.044537401574803
 21
-3.893454724409448
 31
0.0
  0
LINE
  5
255D
330
1E
100
AcDbEntity
  8
3
100
AcDbLine
 10
-1.044537401574803
 20
-3.893454724409448
 30
0.0
 11
-1.053149606299212
 21
-3.893454724409448
 31
0.0
  0
LINE
  5
255E
330
1E
100
AcDbEntity
  8
3
100
AcDbLine
 10
-1.053149606299212
 20
-3.893454724409448
 30
0.0
 11
-1.053149606299212
 21
-3.852854330708661
 31
0.0
  0
LINE
  5
255F
330
1E
100
AcDbEntity
  8
3
100
AcDbLine
 10
-1.053149606299212
 20
-3.852854330708661
 30
0.0
 11
-1.053149606299212
 21
-3.818405511811023
 31
0.0
  0
LINE
  5
2560
330
1E
100
AcDbEntity
  8
3
100
AcDbLine
 10
-1.053149606299212
 20
-3.818405511811023
 30
0.0
 11
-1.053149606299212
 21
-3.790108267716535
 31
0.0
  0
LINE
  5
2561
330
1E
100
AcDbEntity
  8
3
100
AcDbLine
 10
-1.053149606299212
 20
-3.790108267716535
 30
0.0
 11
-1.053149606299212
 21
-3.772883858267716
 31
0.0
  0
LINE
  5
2562
330
1E
100
AcDbEntity
  8
3
100
AcDbLine
 10
-1.053149606299212
 20
-3.772883858267716
 30
0.0
 11
-1.053149606299212
 21
-3.766732283464566
 31
0.0
  0
LINE
  5
2563
330
1E
100
AcDbEntity
  8
3
100
AcDbLine
 10
-1.053149606299212
 20
-3.766732283464566
 30
0.0
 11
-1.044537401574803
 21
-3.767962598425196
 31
0.0
  0
LINE
  5
2564
330
1E
100
AcDbEntity
  8
3
100
AcDbLine
 10
-1.044537401574803
 20
-3.767962598425196
 30
0.0
 11
-1.035925196850393
 21
-3.771653543307086
 31
0.0
  0
LINE
  5
2565
330
1E
100
AcDbEntity
  8
3
100
AcDbLine
 10
-1.035925196850393
 20
-3.771653543307086
 30
0.0
 11
-1.028543307086614
 21
-3.777805118110236
 31
0.0
  0
LINE
  5
2566
330
1E
100
AcDbEntity
  8
3
100
AcDbLine
 10
-1.028543307086614
 20
-3.777805118110236
 30
0.0
 11
-1.022391732283464
 21
-3.787647637795275
 31
0.0
  0
LINE
  5
2567
330
1E
100
AcDbEntity
  8
3
100
AcDbLine
 10
-1.018700787401574
 20
-3.574803149606299
 30
0.0
 11
-1.022391732283464
 21
-3.600639763779527
 31
0.0
  0
LINE
  5
2568
330
1E
100
AcDbEntity
  8
3
100
AcDbLine
 10
-1.022391732283464
 20
-3.600639763779527
 30
0.0
 11
-1.027312992125984
 21
-3.612942913385826
 31
0.0
  0
LINE
  5
2569
330
1E
100
AcDbEntity
  8
3
100
AcDbLine
 10
-1.027312992125984
 20
-3.612942913385826
 30
0.0
 11
-1.035925196850393
 21
-3.621555118110236
 31
0.0
  0
LINE
  5
256A
330
1E
100
AcDbEntity
  8
3
100
AcDbLine
 10
-1.035925196850393
 20
-3.621555118110236
 30
0.0
 11
-1.044537401574803
 21
-3.626476377952755
 31
0.0
  0
LINE
  5
256B
330
1E
100
AcDbEntity
  8
3
100
AcDbLine
 10
-1.044537401574803
 20
-3.626476377952755
 30
0.0
 11
-1.053149606299212
 21
-3.627706692913385
 31
0.0
  0
LINE
  5
256C
330
1E
100
AcDbEntity
  8
3
100
AcDbLine
 10
-1.053149606299212
 20
-3.588336614173227
 30
0.0
 11
-1.053149606299212
 21
-3.54527559055118
 31
0.0
  0
LINE
  5
256D
330
1E
100
AcDbEntity
  8
3
100
AcDbLine
 10
-1.053149606299212
 20
-3.54527559055118
 30
0.0
 11
-1.053149606299212
 21
-3.503444881889763
 31
0.0
  0
LINE
  5
256E
330
1E
100
AcDbEntity
  8
3
100
AcDbLine
 10
-1.053149606299212
 20
-3.503444881889763
 30
0.0
 11
-1.053149606299212
 21
-3.465305118110236
 31
0.0
  0
LINE
  5
256F
330
1E
100
AcDbEntity
  8
3
100
AcDbLine
 10
-1.053149606299212
 20
-3.465305118110236
 30
0.0
 11
-1.053149606299212
 21
-3.433316929133858
 31
0.0
  0
LINE
  5
2570
330
1E
100
AcDbEntity
  8
3
100
AcDbLine
 10
-1.053149606299212
 20
-3.433316929133858
 30
0.0
 11
-1.044537401574803
 21
-3.434547244094487
 31
0.0
  0
LINE
  5
2571
330
1E
100
AcDbEntity
  8
3
100
AcDbLine
 10
-1.044537401574803
 20
-3.434547244094487
 30
0.0
 11
-1.035925196850393
 21
-3.439468503937007
 31
0.0
  0
LINE
  5
2572
330
1E
100
AcDbEntity
  8
3
100
AcDbLine
 10
-1.035925196850393
 20
-3.439468503937007
 30
0.0
 11
-1.028543307086614
 21
-3.446850393700787
 31
0.0
  0
LINE
  5
2573
330
1E
100
AcDbEntity
  8
3
100
AcDbLine
 10
-1.028543307086614
 20
-3.446850393700787
 30
0.0
 11
-1.022391732283464
 21
-3.460383858267716
 31
0.0
  0
LINE
  5
2574
330
1E
100
AcDbEntity
  8
3
100
AcDbLine
 10
-1.022391732283464
 20
-3.460383858267716
 30
0.0
 11
-1.018700787401574
 21
-3.488681102362204
 31
0.0
  0
LINE
  5
2575
330
1E
100
AcDbEntity
  8
3
100
AcDbLine
 10
-1.018700787401574
 20
-3.222933070866141
 30
0.0
 11
-1.022391732283464
 21
-3.24753937007874
 31
0.0
  0
LINE
  5
2576
330
1E
100
AcDbEntity
  8
3
100
AcDbLine
 10
-1.022391732283464
 20
-3.24753937007874
 30
0.0
 11
-1.027312992125984
 21
-3.259842519685039
 31
0.0
  0
LINE
  5
2577
330
1E
100
AcDbEntity
  8
3
100
AcDbLine
 10
-1.027312992125984
 20
-3.259842519685039
 30
0.0
 11
-1.035925196850393
 21
-3.268454724409448
 31
0.0
  0
LINE
  5
2578
330
1E
100
AcDbEntity
  8
3
100
AcDbLine
 10
-1.035925196850393
 20
-3.268454724409448
 30
0.0
 11
-1.044537401574803
 21
-3.273375984251968
 31
0.0
  0
LINE
  5
2579
330
1E
100
AcDbEntity
  8
3
100
AcDbLine
 10
-1.044537401574803
 20
-3.273375984251968
 30
0.0
 11
-1.053149606299212
 21
-3.274606299212598
 31
0.0
  0
LINE
  5
257A
330
1E
100
AcDbEntity
  8
3
100
AcDbLine
 10
-1.053149606299212
 20
-3.274606299212598
 30
0.0
 11
-1.053149606299212
 21
-3.254921259842519
 31
0.0
  0
LINE
  5
257B
330
1E
100
AcDbEntity
  8
3
100
AcDbLine
 10
-1.053149606299212
 20
-3.254921259842519
 30
0.0
 11
-1.053149606299212
 21
-3.224163385826771
 31
0.0
  0
LINE
  5
257C
330
1E
100
AcDbEntity
  8
3
100
AcDbLine
 10
-1.053149606299212
 20
-3.224163385826771
 30
0.0
 11
-1.053149606299212
 21
-3.187253937007874
 31
0.0
  0
LINE
  5
257D
330
1E
100
AcDbEntity
  8
3
100
AcDbLine
 10
-1.053149606299212
 20
-3.187253937007874
 30
0.0
 11
-1.053149606299212
 21
-3.146653543307086
 31
0.0
  0
LINE
  5
257E
330
1E
100
AcDbEntity
  8
3
100
AcDbLine
 10
-1.053149606299212
 20
-3.146653543307086
 30
0.0
 11
-1.053149606299212
 21
-3.103592519685039
 31
0.0
  0
LINE
  5
257F
330
1E
100
AcDbEntity
  8
3
100
AcDbLine
 10
-1.053149606299212
 20
-3.103592519685039
 30
0.0
 11
-1.044537401574803
 21
-3.104822834645668
 31
0.0
  0
LINE
  5
2580
330
1E
100
AcDbEntity
  8
3
100
AcDbLine
 10
-1.044537401574803
 20
-3.104822834645668
 30
0.0
 11
-1.035925196850393
 21
-3.108513779527559
 31
0.0
  0
LINE
  5
2581
330
1E
100
AcDbEntity
  8
3
100
AcDbLine
 10
-1.035925196850393
 20
-3.108513779527559
 30
0.0
 11
-1.028543307086614
 21
-3.113435039370078
 31
0.0
  0
LINE
  5
2582
330
1E
100
AcDbEntity
  8
3
100
AcDbLine
 10
-1.028543307086614
 20
-3.113435039370078
 30
0.0
 11
-1.022391732283464
 21
-3.124507874015747
 31
0.0
  0
LINE
  5
2583
330
1E
100
AcDbEntity
  8
3
100
AcDbLine
 10
-1.022391732283464
 20
-3.124507874015747
 30
0.0
 11
-1.018700787401574
 21
-3.146653543307086
 31
0.0
  0
LINE
  5
2584
330
1E
100
AcDbEntity
  8
3
100
AcDbLine
 10
-1.027312992125984
 20
-2.991633858267716
 30
0.0
 11
-1.035925196850393
 21
-2.996555118110236
 31
0.0
  0
LINE
  5
2585
330
1E
100
AcDbEntity
  8
3
100
AcDbLine
 10
-1.035925196850393
 20
-2.996555118110236
 30
0.0
 11
-1.044537401574803
 21
-2.999015748031495
 31
0.0
  0
LINE
  5
2586
330
1E
100
AcDbEntity
  8
3
100
AcDbLine
 10
-1.044537401574803
 20
-2.999015748031495
 30
0.0
 11
-1.053149606299212
 21
-3.000246062992125
 31
0.0
  0
LINE
  5
2587
330
1E
100
AcDbEntity
  8
3
100
AcDbLine
 10
-1.018700787401574
 20
-2.974409448818897
 30
0.0
 11
-1.022391732283464
 21
-2.985482283464566
 31
0.0
  0
LINE
  5
2588
330
1E
100
AcDbEntity
  8
3
100
AcDbLine
 10
-1.022391732283464
 20
-2.985482283464566
 30
0.0
 11
-1.027312992125984
 21
-2.991633858267716
 31
0.0
  0
LINE
  5
2589
330
1E
100
AcDbEntity
  8
3
100
AcDbLine
 10
-1.053149606299212
 20
-3.000246062992125
 30
0.0
 11
-1.053149606299212
 21
-2.973179133858267
 31
0.0
  0
LINE
  5
258A
330
1E
100
AcDbEntity
  8
3
100
AcDbLine
 10
-1.053149606299212
 20
-2.973179133858267
 30
0.0
 11
-1.053149606299212
 21
-2.93257874015748
 31
0.0
  0
LINE
  5
258B
330
1E
100
AcDbEntity
  8
3
100
AcDbLine
 10
-1.053149606299212
 20
-2.93257874015748
 30
0.0
 11
-1.044537401574803
 21
-2.93257874015748
 31
0.0
  0
LINE
  5
258C
330
1E
100
AcDbEntity
  8
3
100
AcDbLine
 10
-1.044537401574803
 20
-2.93257874015748
 30
0.0
 11
-1.035925196850393
 21
-2.93380905511811
 31
0.0
  0
LINE
  5
258D
330
1E
100
AcDbEntity
  8
3
100
AcDbLine
 10
-1.035925196850393
 20
-2.93380905511811
 30
0.0
 11
-1.028543307086614
 21
-2.93503937007874
 31
0.0
  0
LINE
  5
258E
330
1E
100
AcDbEntity
  8
3
100
AcDbLine
 10
-1.028543307086614
 20
-2.93503937007874
 30
0.0
 11
-1.022391732283464
 21
-2.9375
 31
0.0
  0
LINE
  5
258F
330
1E
100
AcDbEntity
  8
3
100
AcDbLine
 10
-1.022391732283464
 20
-2.9375
 30
0.0
 11
-1.018700787401574
 21
-2.943651574803149
 31
0.0
  0
LINE
  5
2590
330
1E
100
AcDbEntity
  8
3
100
AcDbLine
 10
-1.028543307086614
 20
-3.951279527559055
 30
0.0
 11
-1.022391732283464
 21
-3.953740157480314
 31
0.0
  0
LINE
  5
2591
330
1E
100
AcDbEntity
  8
3
100
AcDbLine
 10
-1.022391732283464
 20
-3.953740157480314
 30
0.0
 11
-1.018700787401574
 21
-3.956200787401574
 31
0.0
  0
LINE
  5
2592
330
1E
100
AcDbEntity
  8
3
100
AcDbLine
 10
-1.053149606299212
 20
-3.948818897637795
 30
0.0
 11
-1.044537401574803
 21
-3.948818897637795
 31
0.0
  0
LINE
  5
2593
330
1E
100
AcDbEntity
  8
3
100
AcDbLine
 10
-1.044537401574803
 20
-3.948818897637795
 30
0.0
 11
-1.035925196850393
 21
-3.950049212598425
 31
0.0
  0
LINE
  5
2594
330
1E
100
AcDbEntity
  8
3
100
AcDbLine
 10
-1.035925196850393
 20
-3.950049212598425
 30
0.0
 11
-1.028543307086614
 21
-3.951279527559055
 31
0.0
  0
LINE
  5
2595
330
1E
100
AcDbEntity
  8
3
100
AcDbLine
 10
-1.018700787401574
 20
-3.807332677165354
 30
0.0
 11
-1.018700787401574
 21
-3.838090551181101
 31
0.0
  0
LINE
  5
2596
330
1E
100
AcDbEntity
  8
3
100
AcDbLine
 10
-1.018700787401574
 20
-3.838090551181101
 30
0.0
 11
-1.018700787401574
 21
-3.86515748031496
 31
0.0
  0
LINE
  5
2597
330
1E
100
AcDbEntity
  8
3
100
AcDbLine
 10
-1.018700787401574
 20
-2.943651574803149
 30
0.0
 11
-1.018700787401574
 21
-2.957185039370078
 31
0.0
  0
LINE
  5
2598
330
1E
100
AcDbEntity
  8
3
100
AcDbLine
 10
-1.018700787401574
 20
-2.957185039370078
 30
0.0
 11
-1.018700787401574
 21
-2.974409448818897
 31
0.0
  0
LINE
  5
2599
330
1E
100
AcDbEntity
  8
3
100
AcDbLine
 10
-1.018700787401574
 20
-3.488681102362204
 30
0.0
 11
-1.018700787401574
 21
-3.531742125984251
 31
0.0
  0
LINE
  5
259A
330
1E
100
AcDbEntity
  8
3
100
AcDbLine
 10
-1.018700787401574
 20
-3.531742125984251
 30
0.0
 11
-1.018700787401574
 21
-3.574803149606299
 31
0.0
  0
LINE
  5
259B
330
1E
100
AcDbEntity
  8
3
100
AcDbLine
 10
-0.8439960629921259
 20
-3.967273622047243
 30
0.0
 11
-0.8439960629921259
 21
-3.962352362204724
 31
0.0
  0
LINE
  5
259C
330
1E
100
AcDbEntity
  8
3
100
AcDbLine
 10
-0.8439960629921259
 20
-3.962352362204724
 30
0.0
 11
-0.8439960629921259
 21
-3.946358267716535
 31
0.0
  0
LINE
  5
259D
330
1E
100
AcDbEntity
  8
3
100
AcDbLine
 10
-0.8439960629921259
 20
-3.946358267716535
 30
0.0
 11
-0.8439960629921259
 21
-3.919291338582676
 31
0.0
  0
LINE
  5
259E
330
1E
100
AcDbEntity
  8
3
100
AcDbLine
 10
-0.8439960629921259
 20
-3.919291338582676
 30
0.0
 11
-0.8439960629921259
 21
-3.883612204724409
 31
0.0
  0
LINE
  5
259F
330
1E
100
AcDbEntity
  8
3
100
AcDbLine
 10
-0.8439960629921259
 20
-3.883612204724409
 30
0.0
 11
-0.8439960629921259
 21
-3.839320866141731
 31
0.0
  0
LINE
  5
25A0
330
1E
100
AcDbEntity
  8
3
100
AcDbLine
 10
-0.8439960629921259
 20
-3.839320866141731
 30
0.0
 11
-0.8439960629921259
 21
-3.786417322834645
 31
0.0
  0
LINE
  5
25A1
330
1E
100
AcDbEntity
  8
3
100
AcDbLine
 10
-0.8439960629921259
 20
-3.786417322834645
 30
0.0
 11
-0.8439960629921259
 21
-3.726131889763779
 31
0.0
  0
LINE
  5
25A2
330
1E
100
AcDbEntity
  8
3
100
AcDbLine
 10
-0.8439960629921259
 20
-3.726131889763779
 30
0.0
 11
-0.8439960629921259
 21
-3.660925196850393
 31
0.0
  0
LINE
  5
25A3
330
1E
100
AcDbEntity
  8
3
100
AcDbLine
 10
-0.8439960629921259
 20
-3.660925196850393
 30
0.0
 11
-0.8439960629921259
 21
-3.590797244094487
 31
0.0
  0
LINE
  5
25A4
330
1E
100
AcDbEntity
  8
3
100
AcDbLine
 10
-0.8439960629921259
 20
-3.590797244094487
 30
0.0
 11
-0.8439960629921259
 21
-3.516978346456692
 31
0.0
  0
LINE
  5
25A5
330
1E
100
AcDbEntity
  8
3
100
AcDbLine
 10
-0.8439960629921259
 20
-3.516978346456692
 30
0.0
 11
-0.8439960629921259
 21
-3.441929133858267
 31
0.0
  0
LINE
  5
25A6
330
1E
100
AcDbEntity
  8
3
100
AcDbLine
 10
-0.8439960629921259
 20
-3.441929133858267
 30
0.0
 11
-0.8439960629921259
 21
-3.368110236220472
 31
0.0
  0
LINE
  5
25A7
330
1E
100
AcDbEntity
  8
3
100
AcDbLine
 10
-0.8439960629921259
 20
-3.368110236220472
 30
0.0
 11
-0.8439960629921259
 21
-3.294291338582676
 31
0.0
  0
LINE
  5
25A8
330
1E
100
AcDbEntity
  8
3
100
AcDbLine
 10
-0.8439960629921259
 20
-3.294291338582676
 30
0.0
 11
-0.8439960629921259
 21
-3.224163385826771
 31
0.0
  0
LINE
  5
25A9
330
1E
100
AcDbEntity
  8
3
100
AcDbLine
 10
-0.8439960629921259
 20
-3.224163385826771
 30
0.0
 11
-0.8439960629921259
 21
-3.158956692913385
 31
0.0
  0
LINE
  5
25AA
330
1E
100
AcDbEntity
  8
3
100
AcDbLine
 10
-0.8439960629921259
 20
-3.158956692913385
 30
0.0
 11
-0.8439960629921259
 21
-3.098671259842519
 31
0.0
  0
LINE
  5
25AB
330
1E
100
AcDbEntity
  8
3
100
AcDbLine
 10
-0.8439960629921259
 20
-3.098671259842519
 30
0.0
 11
-0.8439960629921259
 21
-3.045767716535432
 31
0.0
  0
LINE
  5
25AC
330
1E
100
AcDbEntity
  8
3
100
AcDbLine
 10
-0.8439960629921259
 20
-3.045767716535432
 30
0.0
 11
-0.8439960629921259
 21
-3.000246062992125
 31
0.0
  0
LINE
  5
25AD
330
1E
100
AcDbEntity
  8
3
100
AcDbLine
 10
-0.8439960629921259
 20
-3.000246062992125
 30
0.0
 11
-0.8439960629921259
 21
-2.964566929133858
 31
0.0
  0
LINE
  5
25AE
330
1E
100
AcDbEntity
  8
3
100
AcDbLine
 10
-0.8439960629921259
 20
-2.964566929133858
 30
0.0
 11
-0.8439960629921259
 21
-2.938730314960629
 31
0.0
  0
LINE
  5
25AF
330
1E
100
AcDbEntity
  8
3
100
AcDbLine
 10
-0.8439960629921259
 20
-2.938730314960629
 30
0.0
 11
-0.8439960629921259
 21
-2.92273622047244
 31
0.0
  0
LINE
  5
25B0
330
1E
100
AcDbEntity
  8
3
100
AcDbLine
 10
-0.8439960629921259
 20
-2.92273622047244
 30
0.0
 11
-0.8439960629921259
 21
-2.91781496062992
 31
0.0
  0
LINE
  5
25B1
330
1E
100
AcDbEntity
  8
3
100
AcDbLine
 10
-0.8218503937007874
 20
-3.943897637795275
 30
0.0
 11
-0.8218503937007874
 21
-3.968503937007874
 31
0.0
  0
LINE
  5
25B2
330
1E
100
AcDbEntity
  8
3
100
AcDbLine
 10
-0.8218503937007874
 20
-3.968503937007874
 30
0.0
 11
-0.8218503937007874
 21
-3.984498031496062
 31
0.0
  0
LINE
  5
25B3
330
1E
100
AcDbEntity
  8
3
100
AcDbLine
 10
-0.8218503937007874
 20
-3.984498031496062
 30
0.0
 11
-0.8218503937007874
 21
-3.989419291338582
 31
0.0
  0
LINE
  5
25B4
330
1E
100
AcDbEntity
  8
3
100
AcDbLine
 10
-0.8218503937007874
 20
-2.975639763779527
 30
0.0
 11
-0.8218503937007874
 21
-3.017470472440944
 31
0.0
  0
LINE
  5
25B5
330
1E
100
AcDbEntity
  8
3
100
AcDbLine
 10
-0.8218503937007874
 20
-3.017470472440944
 30
0.0
 11
-0.8218503937007874
 21
-3.0691437007874
 31
0.0
  0
LINE
  5
25B6
330
1E
100
AcDbEntity
  8
3
100
AcDbLine
 10
-0.8218503937007874
 20
-3.0691437007874
 30
0.0
 11
-0.8218503937007874
 21
-3.126968503937007
 31
0.0
  0
LINE
  5
25B7
330
1E
100
AcDbEntity
  8
3
100
AcDbLine
 10
-0.8218503937007874
 20
-3.126968503937007
 30
0.0
 11
-0.8218503937007874
 21
-3.190944881889763
 31
0.0
  0
LINE
  5
25B8
330
1E
100
AcDbEntity
  8
3
100
AcDbLine
 10
-0.8218503937007874
 20
-3.190944881889763
 30
0.0
 11
-0.8218503937007874
 21
-3.258612204724409
 31
0.0
  0
LINE
  5
25B9
330
1E
100
AcDbEntity
  8
3
100
AcDbLine
 10
-0.8218503937007874
 20
-3.258612204724409
 30
0.0
 11
-0.8218503937007874
 21
-3.331200787401574
 31
0.0
  0
LINE
  5
25BA
330
1E
100
AcDbEntity
  8
3
100
AcDbLine
 10
-0.8218503937007874
 20
-3.331200787401574
 30
0.0
 11
-0.8218503937007874
 21
-3.405019685039369
 31
0.0
  0
LINE
  5
25BB
330
1E
100
AcDbEntity
  8
3
100
AcDbLine
 10
-0.8218503937007874
 20
-3.405019685039369
 30
0.0
 11
-0.8218503937007874
 21
-3.480068897637795
 31
0.0
  0
LINE
  5
25BC
330
1E
100
AcDbEntity
  8
3
100
AcDbLine
 10
-0.8218503937007874
 20
-3.480068897637795
 30
0.0
 11
-0.8218503937007874
 21
-3.55388779527559
 31
0.0
  0
LINE
  5
25BD
330
1E
100
AcDbEntity
  8
3
100
AcDbLine
 10
-0.8218503937007874
 20
-3.55388779527559
 30
0.0
 11
-0.8218503937007874
 21
-3.625246062992125
 31
0.0
  0
LINE
  5
25BE
330
1E
100
AcDbEntity
  8
3
100
AcDbLine
 10
-0.8218503937007874
 20
-3.625246062992125
 30
0.0
 11
-0.8218503937007874
 21
-3.6941437007874
 31
0.0
  0
LINE
  5
25BF
330
1E
100
AcDbEntity
  8
3
100
AcDbLine
 10
-0.8218503937007874
 20
-3.6941437007874
 30
0.0
 11
-0.8218503937007874
 21
-3.758120078740157
 31
0.0
  0
LINE
  5
25C0
330
1E
100
AcDbEntity
  8
3
100
AcDbLine
 10
-0.8218503937007874
 20
-3.758120078740157
 30
0.0
 11
-0.8218503937007874
 21
-3.815944881889763
 31
0.0
  0
LINE
  5
25C1
330
1E
100
AcDbEntity
  8
3
100
AcDbLine
 10
-0.8218503937007874
 20
-3.815944881889763
 30
0.0
 11
-0.8218503937007874
 21
-3.86638779527559
 31
0.0
  0
LINE
  5
25C2
330
1E
100
AcDbEntity
  8
3
100
AcDbLine
 10
-0.8218503937007874
 20
-3.86638779527559
 30
0.0
 11
-0.8218503937007874
 21
-3.909448818897637
 31
0.0
  0
LINE
  5
25C3
330
1E
100
AcDbEntity
  8
3
100
AcDbLine
 10
-0.8218503937007874
 20
-3.909448818897637
 30
0.0
 11
-0.8218503937007874
 21
-3.943897637795275
 31
0.0
  0
LINE
  5
25C4
330
1E
100
AcDbEntity
  8
3
100
AcDbLine
 10
-0.8218503937007874
 20
-2.895669291338582
 30
0.0
 11
-0.8218503937007874
 21
-2.900590551181101
 31
0.0
  0
LINE
  5
25C5
330
1E
100
AcDbEntity
  8
3
100
AcDbLine
 10
-0.8218503937007874
 20
-2.900590551181101
 30
0.0
 11
-0.8218503937007874
 21
-2.915354330708661
 31
0.0
  0
LINE
  5
25C6
330
1E
100
AcDbEntity
  8
3
100
AcDbLine
 10
-0.8218503937007874
 20
-2.915354330708661
 30
0.0
 11
-0.8218503937007874
 21
-2.941190944881889
 31
0.0
  0
LINE
  5
25C7
330
1E
100
AcDbEntity
  8
3
100
AcDbLine
 10
-0.8218503937007874
 20
-2.941190944881889
 30
0.0
 11
-0.8218503937007874
 21
-2.975639763779527
 31
0.0
  0
LINE
  5
25C8
330
1E
100
AcDbEntity
  8
3
100
AcDbLine
 10
-0.4601377952755906
 20
-3.019931102362204
 30
0.0
 11
-0.4589074803149607
 21
-3.019931102362204
 31
0.0
  0
LINE
  5
25C9
330
1E
100
AcDbEntity
  8
3
100
AcDbLine
 10
-0.4589074803149607
 20
-3.019931102362204
 30
0.0
 11
-0.4256889763779527
 21
-3.027312992125983
 31
0.0
  0
LINE
  5
25CA
330
1E
100
AcDbEntity
  8
3
100
AcDbLine
 10
-0.4256889763779527
 20
-3.027312992125983
 30
0.0
 11
-0.3937007874015748
 21
-3.050688976377952
 31
0.0
  0
LINE
  5
25CB
330
1E
100
AcDbEntity
  8
3
100
AcDbLine
 10
-0.3937007874015748
 20
-3.775344488188976
 30
0.0
 11
-0.3937007874015748
 21
-3.813484251968503
 31
0.0
  0
LINE
  5
25CC
330
1E
100
AcDbEntity
  8
3
100
AcDbLine
 10
-0.3937007874015748
 20
-3.813484251968503
 30
0.0
 11
-0.3937007874015748
 21
-3.841781496062991
 31
0.0
  0
LINE
  5
25CD
330
1E
100
AcDbEntity
  8
3
100
AcDbLine
 10
-0.3937007874015748
 20
-3.841781496062991
 30
0.0
 11
-0.3937007874015748
 21
-3.85900590551181
 31
0.0
  0
LINE
  5
25CE
330
1E
100
AcDbEntity
  8
3
100
AcDbLine
 10
-0.3937007874015748
 20
-3.85900590551181
 30
0.0
 11
-0.3937007874015748
 21
-3.86515748031496
 31
0.0
  0
LINE
  5
25CF
330
1E
100
AcDbEntity
  8
3
100
AcDbLine
 10
-0.3937007874015748
 20
-3.050688976377952
 30
0.0
 11
-0.3937007874015748
 21
-3.08267716535433
 31
0.0
  0
LINE
  5
25D0
330
1E
100
AcDbEntity
  8
3
100
AcDbLine
 10
-0.3937007874015748
 20
-3.08267716535433
 30
0.0
 11
-0.3937007874015748
 21
-3.123277559055118
 31
0.0
  0
LINE
  5
25D1
330
1E
100
AcDbEntity
  8
3
100
AcDbLine
 10
-0.3937007874015748
 20
-3.123277559055118
 30
0.0
 11
-0.3937007874015748
 21
-3.173720472440944
 31
0.0
  0
LINE
  5
25D2
330
1E
100
AcDbEntity
  8
3
100
AcDbLine
 10
-0.3937007874015748
 20
-3.173720472440944
 30
0.0
 11
-0.3937007874015748
 21
-3.23277559055118
 31
0.0
  0
LINE
  5
25D3
330
1E
100
AcDbEntity
  8
3
100
AcDbLine
 10
-0.3937007874015748
 20
-3.23277559055118
 30
0.0
 11
-0.3937007874015748
 21
-3.295521653543306
 31
0.0
  0
LINE
  5
25D4
330
1E
100
AcDbEntity
  8
3
100
AcDbLine
 10
-0.3937007874015748
 20
-3.295521653543306
 30
0.0
 11
-0.3937007874015748
 21
-3.363188976377952
 31
0.0
  0
LINE
  5
25D5
330
1E
100
AcDbEntity
  8
3
100
AcDbLine
 10
-0.3937007874015748
 20
-3.363188976377952
 30
0.0
 11
-0.3937007874015748
 21
-3.433316929133858
 31
0.0
  0
LINE
  5
25D6
330
1E
100
AcDbEntity
  8
3
100
AcDbLine
 10
-0.3937007874015748
 20
-3.433316929133858
 30
0.0
 11
-0.3937007874015748
 21
-3.503444881889763
 31
0.0
  0
LINE
  5
25D7
330
1E
100
AcDbEntity
  8
3
100
AcDbLine
 10
-0.6545275590551181
 20
-3.86392716535433
 30
0.0
 11
-0.6213090551181102
 21
-3.86146653543307
 31
0.0
  0
LINE
  5
25D8
330
1E
100
AcDbEntity
  8
3
100
AcDbLine
 10
-0.6213090551181102
 20
-3.86146653543307
 30
0.0
 11
-0.595472440944882
 21
-3.849163385826771
 31
0.0
  0
LINE
  5
25D9
330
1E
100
AcDbEntity
  8
3
100
AcDbLine
 10
-0.6680610236220473
 20
-3.86146653543307
 30
0.0
 11
-0.6643700787401575
 21
-3.8626968503937
 31
0.0
  0
LINE
  5
25DA
330
1E
100
AcDbEntity
  8
3
100
AcDbLine
 10
-0.6643700787401575
 20
-3.8626968503937
 30
0.0
 11
-0.6532972440944881
 21
-3.86392716535433
 31
0.0
  0
LINE
  5
25DB
330
1E
100
AcDbEntity
  8
3
100
AcDbLine
 10
-0.5659448818897637
 20
-3.86146653543307
 30
0.0
 11
-0.5634842519685039
 21
-3.86023622047244
 31
0.0
  0
LINE
  5
25DC
330
1E
100
AcDbEntity
  8
3
100
AcDbLine
 10
-0.5634842519685039
 20
-3.86023622047244
 30
0.0
 11
-0.5671751968503937
 21
-3.85654527559055
 31
0.0
  0
LINE
  5
25DD
330
1E
100
AcDbEntity
  8
3
100
AcDbLine
 10
-0.5671751968503937
 20
-3.85654527559055
 30
0.0
 11
-0.5794783464566928
 21
-3.852854330708661
 31
0.0
  0
LINE
  5
25DE
330
1E
100
AcDbEntity
  8
3
100
AcDbLine
 10
-0.5794783464566928
 20
-3.852854330708661
 30
0.0
 11
-0.595472440944882
 21
-3.849163385826771
 31
0.0
  0
LINE
  5
25DF
330
1E
100
AcDbEntity
  8
3
100
AcDbLine
 10
-0.595472440944882
 20
-3.849163385826771
 30
0.0
 11
-0.6163877952755906
 21
-3.847933070866141
 31
0.0
  0
LINE
  5
25E0
330
1E
100
AcDbEntity
  8
3
100
AcDbLine
 10
-0.6163877952755906
 20
-3.847933070866141
 30
0.0
 11
-0.6360728346456693
 21
-3.849163385826771
 31
0.0
  0
LINE
  5
25E1
330
1E
100
AcDbEntity
  8
3
100
AcDbLine
 10
-0.6360728346456693
 20
-3.849163385826771
 30
0.0
 11
-0.6532972440944881
 21
-3.851624015748031
 31
0.0
  0
LINE
  5
25E2
330
1E
100
AcDbEntity
  8
3
100
AcDbLine
 10
-0.6532972440944881
 20
-3.851624015748031
 30
0.0
 11
-0.6643700787401575
 21
-3.85654527559055
 31
0.0
  0
LINE
  5
25E3
330
1E
100
AcDbEntity
  8
3
100
AcDbLine
 10
-0.6643700787401575
 20
-3.85654527559055
 30
0.0
 11
-0.6692913385826773
 21
-3.86023622047244
 31
0.0
  0
LINE
  5
25E4
330
1E
100
AcDbEntity
  8
3
100
AcDbLine
 10
-0.6692913385826773
 20
-3.86023622047244
 30
0.0
 11
-0.6680610236220473
 21
-3.86146653543307
 31
0.0
  0
LINE
  5
25E5
330
1E
100
AcDbEntity
  8
3
100
AcDbLine
 10
-0.5671751968503937
 20
-3.85654527559055
 30
0.0
 11
-0.5671751968503937
 21
-3.85777559055118
 31
0.0
  0
LINE
  5
25E6
330
1E
100
AcDbEntity
  8
3
100
AcDbLine
 10
-0.5671751968503937
 20
-3.85777559055118
 30
0.0
 11
-0.5671751968503937
 21
-3.8626968503937
 31
0.0
  0
LINE
  5
25E7
330
1E
100
AcDbEntity
  8
3
100
AcDbLine
 10
-0.3937007874015748
 20
-3.738435039370078
 30
0.0
 11
-0.3937007874015748
 21
-3.749507874015747
 31
0.0
  0
LINE
  5
25E8
330
1E
100
AcDbEntity
  8
3
100
AcDbLine
 10
-0.3937007874015748
 20
-3.749507874015747
 30
0.0
 11
-0.3937007874015748
 21
-3.759350393700787
 31
0.0
  0
LINE
  5
25E9
330
1E
100
AcDbEntity
  8
3
100
AcDbLine
 10
-0.3937007874015748
 20
-3.759350393700787
 30
0.0
 11
-0.3937007874015748
 21
-3.775344488188976
 31
0.0
  0
LINE
  5
25EA
330
1E
100
AcDbEntity
  8
3
100
AcDbLine
 10
-0.4995078740157481
 20
-3.564960629921259
 30
0.0
 11
-0.46751968503937
 21
-3.636318897637795
 31
0.0
  0
LINE
  5
25EB
330
1E
100
AcDbEntity
  8
3
100
AcDbLine
 10
-0.46751968503937
 20
-3.636318897637795
 30
0.0
 11
-0.4367618110236221
 21
-3.70152559055118
 31
0.0
  0
LINE
  5
25EC
330
1E
100
AcDbEntity
  8
3
100
AcDbLine
 10
-0.4367618110236221
 20
-3.70152559055118
 30
0.0
 11
-0.4146161417322835
 21
-3.740895669291338
 31
0.0
  0
LINE
  5
25ED
330
1E
100
AcDbEntity
  8
3
100
AcDbLine
 10
-0.4146161417322835
 20
-3.740895669291338
 30
0.0
 11
-0.3937007874015748
 21
-3.775344488188976
 31
0.0
  0
LINE
  5
25EE
330
1E
100
AcDbEntity
  8
3
100
AcDbLine
 10
-0.6545275590551181
 20
-3.206938976377952
 30
0.0
 11
-0.6274606299212599
 21
-3.263533464566928
 31
0.0
  0
LINE
  5
25EF
330
1E
100
AcDbEntity
  8
3
100
AcDbLine
 10
-0.6274606299212599
 20
-3.263533464566928
 30
0.0
 11
-0.595472440944882
 21
-3.336122047244094
 31
0.0
  0
LINE
  5
25F0
330
1E
100
AcDbEntity
  8
3
100
AcDbLine
 10
-0.595472440944882
 20
-3.336122047244094
 30
0.0
 11
-0.5634842519685039
 21
-3.412401574803149
 31
0.0
  0
LINE
  5
25F1
330
1E
100
AcDbEntity
  8
3
100
AcDbLine
 10
-0.5634842519685039
 20
-3.412401574803149
 30
0.0
 11
-0.531496062992126
 21
-3.489911417322834
 31
0.0
  0
LINE
  5
25F2
330
1E
100
AcDbEntity
  8
3
100
AcDbLine
 10
-0.531496062992126
 20
-3.489911417322834
 30
0.0
 11
-0.4995078740157481
 21
-3.564960629921259
 31
0.0
  0
LINE
  5
25F3
330
1E
100
AcDbEntity
  8
3
100
AcDbLine
 10
-0.595472440944882
 20
-3.140501968503937
 30
0.0
 11
-0.6163877952755906
 21
-3.138041338582676
 31
0.0
  0
LINE
  5
25F4
330
1E
100
AcDbEntity
  8
3
100
AcDbLine
 10
-0.6163877952755906
 20
-3.138041338582676
 30
0.0
 11
-0.6360728346456693
 21
-3.140501968503937
 31
0.0
  0
LINE
  5
25F5
330
1E
100
AcDbEntity
  8
3
100
AcDbLine
 10
-0.6360728346456693
 20
-3.140501968503937
 30
0.0
 11
-0.6532972440944881
 21
-3.147883858267716
 31
0.0
  0
LINE
  5
25F6
330
1E
100
AcDbEntity
  8
3
100
AcDbLine
 10
-0.6532972440944881
 20
-3.147883858267716
 30
0.0
 11
-0.6643700787401575
 21
-3.160187007874015
 31
0.0
  0
LINE
  5
25F7
330
1E
100
AcDbEntity
  8
3
100
AcDbLine
 10
-0.6643700787401575
 20
-3.160187007874015
 30
0.0
 11
-0.6692913385826773
 21
-3.176181102362204
 31
0.0
  0
LINE
  5
25F8
330
1E
100
AcDbEntity
  8
3
100
AcDbLine
 10
-0.6692913385826773
 20
-3.176181102362204
 30
0.0
 11
-0.6680610236220473
 21
-3.184793307086613
 31
0.0
  0
LINE
  5
25F9
330
1E
100
AcDbEntity
  8
3
100
AcDbLine
 10
-0.6680610236220473
 20
-3.184793307086613
 30
0.0
 11
-0.6643700787401575
 21
-3.192175196850393
 31
0.0
  0
LINE
  5
25FA
330
1E
100
AcDbEntity
  8
3
100
AcDbLine
 10
-0.6643700787401575
 20
-3.192175196850393
 30
0.0
 11
-0.6532972440944881
 21
-3.206938976377952
 31
0.0
  0
LINE
  5
25FB
330
1E
100
AcDbEntity
  8
3
100
AcDbLine
 10
-0.5511811023622047
 20
-3.221702755905511
 30
0.0
 11
-0.5634842519685039
 21
-3.197096456692912
 31
0.0
  0
LINE
  5
25FC
330
1E
100
AcDbEntity
  8
3
100
AcDbLine
 10
-0.5634842519685039
 20
-3.197096456692912
 30
0.0
 11
-0.5659448818897637
 21
-3.189714566929133
 31
0.0
  0
LINE
  5
25FD
330
1E
100
AcDbEntity
  8
3
100
AcDbLine
 10
-0.5659448818897637
 20
-3.189714566929133
 30
0.0
 11
-0.5634842519685039
 21
-3.176181102362204
 31
0.0
  0
LINE
  5
25FE
330
1E
100
AcDbEntity
  8
3
100
AcDbLine
 10
-0.5634842519685039
 20
-3.176181102362204
 30
0.0
 11
-0.5671751968503937
 21
-3.161417322834645
 31
0.0
  0
LINE
  5
25FF
330
1E
100
AcDbEntity
  8
3
100
AcDbLine
 10
-0.5671751968503937
 20
-3.161417322834645
 30
0.0
 11
-0.5794783464566928
 21
-3.147883858267716
 31
0.0
  0
LINE
  5
2600
330
1E
100
AcDbEntity
  8
3
100
AcDbLine
 10
-0.5794783464566928
 20
-3.147883858267716
 30
0.0
 11
-0.595472440944882
 21
-3.140501968503937
 31
0.0
  0
LINE
  5
2601
330
1E
100
AcDbEntity
  8
3
100
AcDbLine
 10
-0.5659448818897637
 20
-3.189714566929133
 30
0.0
 11
-0.5671751968503937
 21
-3.204478346456692
 31
0.0
  0
LINE
  5
2602
330
1E
100
AcDbEntity
  8
3
100
AcDbLine
 10
-0.5671751968503937
 20
-3.204478346456692
 30
0.0
 11
-0.5684055118110237
 21
-3.220472440944881
 31
0.0
  0
LINE
  5
2603
330
1E
100
AcDbEntity
  8
3
100
AcDbLine
 10
-0.5524114173228347
 20
-3.24630905511811
 30
0.0
 11
-0.5524114173228347
 21
-3.24753937007874
 31
0.0
  0
LINE
  5
2604
330
1E
100
AcDbEntity
  8
3
100
AcDbLine
 10
-0.5524114173228347
 20
-3.24753937007874
 30
0.0
 11
-0.5511811023622047
 21
-3.248769685039369
 31
0.0
  0
LINE
  5
2605
330
1E
100
AcDbEntity
  8
3
100
AcDbLine
 10
-0.5511811023622047
 20
-3.248769685039369
 30
0.0
 11
-0.5511811023622047
 21
-3.25
 31
0.0
  0
LINE
  5
2606
330
1E
100
AcDbEntity
  8
3
100
AcDbLine
 10
-0.5511811023622047
 20
-3.25
 30
0.0
 11
-0.5511811023622047
 21
-3.251230314960629
 31
0.0
  0
LINE
  5
2607
330
1E
100
AcDbEntity
  8
3
100
AcDbLine
 10
-0.5511811023622047
 20
-3.251230314960629
 30
0.0
 11
-0.5499507874015749
 21
-3.252460629921259
 31
0.0
  0
LINE
  5
2608
330
1E
100
AcDbEntity
  8
3
100
AcDbLine
 10
-0.5511811023622047
 20
-3.221702755905511
 30
0.0
 11
-0.5511811023622047
 21
-3.229084645669291
 31
0.0
  0
LINE
  5
2609
330
1E
100
AcDbEntity
  8
3
100
AcDbLine
 10
-0.5511811023622047
 20
-3.229084645669291
 30
0.0
 11
-0.5511811023622047
 21
-3.23646653543307
 31
0.0
  0
LINE
  5
260A
330
1E
100
AcDbEntity
  8
3
100
AcDbLine
 10
-0.5511811023622047
 20
-3.23646653543307
 30
0.0
 11
-0.5524114173228347
 21
-3.24015748031496
 31
0.0
  0
LINE
  5
260B
330
1E
100
AcDbEntity
  8
3
100
AcDbLine
 10
-0.5524114173228347
 20
-3.24015748031496
 30
0.0
 11
-0.5524114173228347
 21
-3.24384842519685
 31
0.0
  0
LINE
  5
260C
330
1E
100
AcDbEntity
  8
3
100
AcDbLine
 10
-0.5524114173228347
 20
-3.24384842519685
 30
0.0
 11
-0.5524114173228347
 21
-3.24630905511811
 31
0.0
  0
LINE
  5
260D
330
1E
100
AcDbEntity
  8
3
100
AcDbLine
 10
-0.5511811023622047
 20
-3.221702755905511
 30
0.0
 11
-0.5216535433070866
 21
-3.273375984251968
 31
0.0
  0
LINE
  5
260E
330
1E
100
AcDbEntity
  8
3
100
AcDbLine
 10
-0.5216535433070866
 20
-3.273375984251968
 30
0.0
 11
-0.4908956692913386
 21
-3.329970472440944
 31
0.0
  0
LINE
  5
260F
330
1E
100
AcDbEntity
  8
3
100
AcDbLine
 10
-0.4908956692913386
 20
-3.329970472440944
 30
0.0
 11
-0.4527559055118111
 21
-3.40625
 31
0.0
  0
LINE
  5
2610
330
1E
100
AcDbEntity
  8
3
100
AcDbLine
 10
-0.4527559055118111
 20
-3.40625
 30
0.0
 11
-0.4072342519685039
 21
-3.481299212598425
 31
0.0
  0
LINE
  5
2611
330
1E
100
AcDbEntity
  8
3
100
AcDbLine
 10
-0.4072342519685039
 20
-3.481299212598425
 30
0.0
 11
-0.4047736220472441
 21
-3.486220472440944
 31
0.0
  0
LINE
  5
2612
330
1E
100
AcDbEntity
  8
3
100
AcDbLine
 10
-0.3937007874015748
 20
-3.577263779527559
 30
0.0
 11
-0.3937007874015748
 21
-3.503444881889763
 31
0.0
  0
LINE
  5
2613
330
1E
100
AcDbEntity
  8
3
100
AcDbLine
 10
-0.3937007874015748
 20
-3.503444881889763
 30
0.0
 11
-0.4047736220472441
 21
-3.486220472440944
 31
0.0
  0
LINE
  5
2614
330
1E
100
AcDbEntity
  8
3
100
AcDbLine
 10
-0.6631397637795275
 20
-3.194635826771653
 30
0.0
 11
-0.6594488188976378
 21
-3.187253937007874
 31
0.0
  0
LINE
  5
2615
330
1E
100
AcDbEntity
  8
3
100
AcDbLine
 10
-0.6594488188976378
 20
-3.187253937007874
 30
0.0
 11
-0.6520669291338583
 21
-3.179872047244094
 31
0.0
  0
LINE
  5
2616
330
1E
100
AcDbEntity
  8
3
100
AcDbLine
 10
-0.6520669291338583
 20
-3.179872047244094
 30
0.0
 11
-0.6409940944881889
 21
-3.174950787401574
 31
0.0
  0
LINE
  5
2617
330
1E
100
AcDbEntity
  8
3
100
AcDbLine
 10
-0.6409940944881889
 20
-3.174950787401574
 30
0.0
 11
-0.6286909448818898
 21
-3.171259842519684
 31
0.0
  0
LINE
  5
2618
330
1E
100
AcDbEntity
  8
3
100
AcDbLine
 10
-0.6286909448818898
 20
-3.171259842519684
 30
0.0
 11
-0.6151574803149607
 21
-3.170029527559055
 31
0.0
  0
LINE
  5
2619
330
1E
100
AcDbEntity
  8
3
100
AcDbLine
 10
-0.6151574803149607
 20
-3.170029527559055
 30
0.0
 11
-0.6016240157480315
 21
-3.171259842519684
 31
0.0
  0
LINE
  5
261A
330
1E
100
AcDbEntity
  8
3
100
AcDbLine
 10
-0.6016240157480315
 20
-3.171259842519684
 30
0.0
 11
-0.5893208661417324
 21
-3.176181102362204
 31
0.0
  0
LINE
  5
261B
330
1E
100
AcDbEntity
  8
3
100
AcDbLine
 10
-0.5893208661417324
 20
-3.176181102362204
 30
0.0
 11
-0.578248031496063
 21
-3.182332677165354
 31
0.0
  0
LINE
  5
261C
330
1E
100
AcDbEntity
  8
3
100
AcDbLine
 10
-0.578248031496063
 20
-3.182332677165354
 30
0.0
 11
-0.5671751968503937
 21
-3.198326771653542
 31
0.0
  0
LINE
  5
261D
330
1E
100
AcDbEntity
  8
3
100
AcDbLine
 10
-0.4810531496062992
 20
-3.39271653543307
 30
0.0
 11
-0.5019685039370079
 21
-3.347194881889763
 31
0.0
  0
LINE
  5
261E
330
1E
100
AcDbEntity
  8
3
100
AcDbLine
 10
-0.5019685039370079
 20
-3.347194881889763
 30
0.0
 11
-0.5241141732283464
 21
-3.304133858267716
 31
0.0
  0
LINE
  5
261F
330
1E
100
AcDbEntity
  8
3
100
AcDbLine
 10
-0.4798228346456693
 20
-3.39271653543307
 30
0.0
 11
-0.4589074803149607
 21
-3.439468503937007
 31
0.0
  0
LINE
  5
2620
330
1E
100
AcDbEntity
  8
3
100
AcDbLine
 10
-0.4589074803149607
 20
-3.439468503937007
 30
0.0
 11
-0.4367618110236221
 21
-3.486220472440944
 31
0.0
  0
LINE
  5
2621
330
1E
100
AcDbEntity
  8
3
100
AcDbLine
 10
-0.4367618110236221
 20
-3.486220472440944
 30
0.0
 11
-0.4146161417322835
 21
-3.531742125984251
 31
0.0
  0
LINE
  5
2622
330
1E
100
AcDbEntity
  8
3
100
AcDbLine
 10
-0.4146161417322835
 20
-3.531742125984251
 30
0.0
 11
-0.3937007874015748
 21
-3.576033464566928
 31
0.0
  0
LINE
  5
2623
330
1E
100
AcDbEntity
  8
3
100
AcDbLine
 10
-0.3937007874015748
 20
-3.577263779527559
 30
0.0
 11
-0.3937007874015748
 21
-3.635088582677164
 31
0.0
  0
LINE
  5
2624
330
1E
100
AcDbEntity
  8
3
100
AcDbLine
 10
-0.3937007874015748
 20
-3.635088582677164
 30
0.0
 11
-0.3937007874015748
 21
-3.687992125984251
 31
0.0
  0
LINE
  5
2625
330
1E
100
AcDbEntity
  8
3
100
AcDbLine
 10
-0.3937007874015748
 20
-3.687992125984251
 30
0.0
 11
-0.3937007874015748
 21
-3.732283464566928
 31
0.0
  0
LINE
  5
2626
330
1E
100
AcDbEntity
  8
3
100
AcDbLine
 10
-0.3937007874015748
 20
-3.732283464566928
 30
0.0
 11
-0.3937007874015748
 21
-3.733513779527559
 31
0.0
  0
LINE
  5
2627
330
1E
100
AcDbEntity
  8
3
100
AcDbLine
 10
-0.3937007874015748
 20
-3.733513779527559
 30
0.0
 11
-0.3937007874015748
 21
-3.735974409448818
 31
0.0
  0
LINE
  5
2628
330
1E
100
AcDbEntity
  8
3
100
AcDbLine
 10
-0.3937007874015748
 20
-3.735974409448818
 30
0.0
 11
-0.3937007874015748
 21
-3.737204724409448
 31
0.0
  0
LINE
  5
2629
330
1E
100
AcDbEntity
  8
3
100
AcDbLine
 10
-0.3937007874015748
 20
-3.737204724409448
 30
0.0
 11
-0.3937007874015748
 21
-3.738435039370078
 31
0.0
  0
LINE
  5
262A
330
1E
100
AcDbEntity
  8
3
100
AcDbLine
 10
-0.4945866141732284
 20
-3.561269685039369
 30
0.0
 11
-0.4601377952755906
 21
-3.627706692913385
 31
0.0
  0
LINE
  5
262B
330
1E
100
AcDbEntity
  8
3
100
AcDbLine
 10
-0.4601377952755906
 20
-3.627706692913385
 30
0.0
 11
-0.4269192913385826
 21
-3.687992125984251
 31
0.0
  0
LINE
  5
262C
330
1E
100
AcDbEntity
  8
3
100
AcDbLine
 10
-0.4269192913385826
 20
-3.687992125984251
 30
0.0
 11
-0.3937007874015748
 21
-3.738435039370078
 31
0.0
  0
LINE
  5
262D
330
1E
100
AcDbEntity
  8
3
100
AcDbLine
 10
-0.4945866141732284
 20
-3.561269685039369
 30
0.0
 11
-0.5290354330708662
 21
-3.488681102362204
 31
0.0
  0
LINE
  5
262E
330
1E
100
AcDbEntity
  8
3
100
AcDbLine
 10
-0.5290354330708662
 20
-3.488681102362204
 30
0.0
 11
-0.5548720472440945
 21
-3.434547244094487
 31
0.0
  0
LINE
  5
262F
330
1E
100
AcDbEntity
  8
3
100
AcDbLine
 10
-0.421998031496063
 20
-3.691683070866141
 30
0.0
 11
-0.4318405511811024
 21
-3.675688976377952
 31
0.0
  0
LINE
  5
2630
330
1E
100
AcDbEntity
  8
3
100
AcDbLine
 10
-0.4318405511811024
 20
-3.675688976377952
 30
0.0
 11
-0.4416830708661417
 21
-3.658464566929133
 31
0.0
  0
LINE
  5
2631
330
1E
100
AcDbEntity
  8
3
100
AcDbLine
 10
-0.4416830708661417
 20
-3.658464566929133
 30
0.0
 11
-0.4466043307086613
 21
-3.649852362204724
 31
0.0
  0
LINE
  5
2632
330
1E
100
AcDbEntity
  8
3
100
AcDbLine
 10
-0.4466043307086613
 20
-3.649852362204724
 30
0.0
 11
-0.4564468503937009
 21
-3.632627952755905
 31
0.0
  0
LINE
  5
2633
330
1E
100
AcDbEntity
  8
3
100
AcDbLine
 10
-0.4564468503937009
 20
-3.632627952755905
 30
0.0
 11
-0.4662893700787402
 21
-3.614173228346456
 31
0.0
  0
LINE
  5
2634
330
1E
100
AcDbEntity
  8
3
100
AcDbLine
 10
-0.4662893700787402
 20
-3.614173228346456
 30
0.0
 11
-0.4761318897637796
 21
-3.594488188976377
 31
0.0
  0
LINE
  5
2635
330
1E
100
AcDbEntity
  8
3
100
AcDbLine
 10
-0.4761318897637796
 20
-3.594488188976377
 30
0.0
 11
-0.4810531496062992
 21
-3.584645669291338
 31
0.0
  0
LINE
  5
2636
330
1E
100
AcDbEntity
  8
3
100
AcDbLine
 10
-0.4810531496062992
 20
-3.584645669291338
 30
0.0
 11
-0.4908956692913386
 21
-3.564960629921259
 31
0.0
  0
LINE
  5
2637
330
1E
100
AcDbEntity
  8
3
100
AcDbLine
 10
-0.4908956692913386
 20
-3.564960629921259
 30
0.0
 11
-0.5007381889763779
 21
-3.54527559055118
 31
0.0
  0
LINE
  5
2638
330
1E
100
AcDbEntity
  8
3
100
AcDbLine
 10
-0.5007381889763779
 20
-3.54527559055118
 30
0.0
 11
-0.5056594488188976
 21
-3.534202755905511
 31
0.0
  0
LINE
  5
2639
330
1E
100
AcDbEntity
  8
3
100
AcDbLine
 10
-0.5056594488188976
 20
-3.534202755905511
 30
0.0
 11
-0.515501968503937
 21
-3.513287401574802
 31
0.0
  0
LINE
  5
263A
330
1E
100
AcDbEntity
  8
3
100
AcDbLine
 10
-0.515501968503937
 20
-3.513287401574802
 30
0.0
 11
-0.5253444881889764
 21
-3.492372047244094
 31
0.0
  0
LINE
  5
263B
330
1E
100
AcDbEntity
  8
3
100
AcDbLine
 10
-0.5253444881889764
 20
-3.492372047244094
 30
0.0
 11
-0.5351870078740158
 21
-3.471456692913385
 31
0.0
  0
LINE
  5
263C
330
1E
100
AcDbEntity
  8
3
100
AcDbLine
 10
-0.5351870078740158
 20
-3.471456692913385
 30
0.0
 11
-0.5401082677165354
 21
-3.461614173228346
 31
0.0
  0
LINE
  5
263D
330
1E
100
AcDbEntity
  8
3
100
AcDbLine
 10
-0.5401082677165354
 20
-3.461614173228346
 30
0.0
 11
-0.5536417322834647
 21
-3.432086614173227
 31
0.0
  0
LINE
  5
263E
330
1E
100
AcDbEntity
  8
3
100
AcDbLine
 10
-0.3937007874015748
 20
-3.732283464566928
 30
0.0
 11
-0.4010826771653543
 21
-3.721210629921259
 31
0.0
  0
LINE
  5
263F
330
1E
100
AcDbEntity
  8
3
100
AcDbLine
 10
-0.4010826771653543
 20
-3.721210629921259
 30
0.0
 11
-0.4109251968503937
 21
-3.70767716535433
 31
0.0
  0
LINE
  5
2640
330
1E
100
AcDbEntity
  8
3
100
AcDbLine
 10
-0.4109251968503937
 20
-3.70767716535433
 30
0.0
 11
-0.421998031496063
 21
-3.691683070866141
 31
0.0
  0
LINE
  5
2641
330
1E
100
AcDbEntity
  8
3
100
AcDbLine
 10
-0.7566437007874017
 20
-3.86515748031496
 30
0.0
 11
-0.7566437007874017
 21
-3.86023622047244
 31
0.0
  0
LINE
  5
2642
330
1E
100
AcDbEntity
  8
3
100
AcDbLine
 10
-0.7566437007874017
 20
-3.86023622047244
 30
0.0
 11
-0.7566437007874017
 21
-3.844242125984251
 31
0.0
  0
LINE
  5
2643
330
1E
100
AcDbEntity
  8
3
100
AcDbLine
 10
-0.7566437007874017
 20
-3.844242125984251
 30
0.0
 11
-0.7566437007874017
 21
-3.818405511811023
 31
0.0
  0
LINE
  5
2644
330
1E
100
AcDbEntity
  8
3
100
AcDbLine
 10
-0.7566437007874017
 20
-3.818405511811023
 30
0.0
 11
-0.7566437007874017
 21
-3.783956692913385
 31
0.0
  0
LINE
  5
2645
330
1E
100
AcDbEntity
  8
3
100
AcDbLine
 10
-0.7566437007874017
 20
-3.783956692913385
 30
0.0
 11
-0.7566437007874017
 21
-3.740895669291338
 31
0.0
  0
LINE
  5
2646
330
1E
100
AcDbEntity
  8
3
100
AcDbLine
 10
-0.7566437007874017
 20
-3.740895669291338
 30
0.0
 11
-0.7566437007874017
 21
-3.690452755905511
 31
0.0
  0
LINE
  5
2647
330
1E
100
AcDbEntity
  8
3
100
AcDbLine
 10
-0.7566437007874017
 20
-3.690452755905511
 30
0.0
 11
-0.7566437007874017
 21
-3.633858267716535
 31
0.0
  0
LINE
  5
2648
330
1E
100
AcDbEntity
  8
3
100
AcDbLine
 10
-0.7566437007874017
 20
-3.633858267716535
 30
0.0
 11
-0.7566437007874017
 21
-3.572342519685039
 31
0.0
  0
LINE
  5
2649
330
1E
100
AcDbEntity
  8
3
100
AcDbLine
 10
-0.7566437007874017
 20
-3.572342519685039
 30
0.0
 11
-0.7566437007874017
 21
-3.508366141732282
 31
0.0
  0
LINE
  5
264A
330
1E
100
AcDbEntity
  8
3
100
AcDbLine
 10
-0.7566437007874017
 20
-3.508366141732282
 30
0.0
 11
-0.7566437007874017
 21
-3.441929133858267
 31
0.0
  0
LINE
  5
264B
330
1E
100
AcDbEntity
  8
3
100
AcDbLine
 10
-0.7566437007874017
 20
-3.441929133858267
 30
0.0
 11
-0.7566437007874017
 21
-3.376722440944881
 31
0.0
  0
LINE
  5
264C
330
1E
100
AcDbEntity
  8
3
100
AcDbLine
 10
-0.7566437007874017
 20
-3.376722440944881
 30
0.0
 11
-0.7566437007874017
 21
-3.311515748031495
 31
0.0
  0
LINE
  5
264D
330
1E
100
AcDbEntity
  8
3
100
AcDbLine
 10
-0.7566437007874017
 20
-3.311515748031495
 30
0.0
 11
-0.7566437007874017
 21
-3.25
 31
0.0
  0
LINE
  5
264E
330
1E
100
AcDbEntity
  8
3
100
AcDbLine
 10
-0.7566437007874017
 20
-3.25
 30
0.0
 11
-0.7566437007874017
 21
-3.193405511811023
 31
0.0
  0
LINE
  5
264F
330
1E
100
AcDbEntity
  8
3
100
AcDbLine
 10
-0.7566437007874017
 20
-3.193405511811023
 30
0.0
 11
-0.7566437007874017
 21
-3.142962598425196
 31
0.0
  0
LINE
  5
2650
330
1E
100
AcDbEntity
  8
3
100
AcDbLine
 10
-0.7566437007874017
 20
-3.142962598425196
 30
0.0
 11
-0.7566437007874017
 21
-3.099901574803149
 31
0.0
  0
LINE
  5
2651
330
1E
100
AcDbEntity
  8
3
100
AcDbLine
 10
-0.7566437007874017
 20
-3.099901574803149
 30
0.0
 11
-0.7566437007874017
 21
-3.065452755905511
 31
0.0
  0
LINE
  5
2652
330
1E
100
AcDbEntity
  8
3
100
AcDbLine
 10
-0.7566437007874017
 20
-3.065452755905511
 30
0.0
 11
-0.7566437007874017
 21
-3.040846456692912
 31
0.0
  0
LINE
  5
2653
330
1E
100
AcDbEntity
  8
3
100
AcDbLine
 10
-0.7566437007874017
 20
-3.040846456692912
 30
0.0
 11
-0.7566437007874017
 21
-3.024852362204724
 31
0.0
  0
LINE
  5
2654
330
1E
100
AcDbEntity
  8
3
100
AcDbLine
 10
-0.7603346456692913
 20
-3.847933070866141
 30
0.0
 11
-0.7603346456692913
 21
-3.822096456692912
 31
0.0
  0
LINE
  5
2655
330
1E
100
AcDbEntity
  8
3
100
AcDbLine
 10
-0.7603346456692913
 20
-3.822096456692912
 30
0.0
 11
-0.7603346456692913
 21
-3.787647637795275
 31
0.0
  0
LINE
  5
2656
330
1E
100
AcDbEntity
  8
3
100
AcDbLine
 10
-0.7603346456692913
 20
-3.787647637795275
 30
0.0
 11
-0.7603346456692913
 21
-3.744586614173227
 31
0.0
  0
LINE
  5
2657
330
1E
100
AcDbEntity
  8
3
100
AcDbLine
 10
-0.7603346456692913
 20
-3.744586614173227
 30
0.0
 11
-0.7603346456692913
 21
-3.692913385826771
 31
0.0
  0
LINE
  5
2658
330
1E
100
AcDbEntity
  8
3
100
AcDbLine
 10
-0.7603346456692913
 20
-3.692913385826771
 30
0.0
 11
-0.7603346456692913
 21
-3.636318897637795
 31
0.0
  0
LINE
  5
2659
330
1E
100
AcDbEntity
  8
3
100
AcDbLine
 10
-0.7603346456692913
 20
-3.636318897637795
 30
0.0
 11
-0.7603346456692913
 21
-3.574803149606299
 31
0.0
  0
LINE
  5
265A
330
1E
100
AcDbEntity
  8
3
100
AcDbLine
 10
-0.7603346456692913
 20
-3.574803149606299
 30
0.0
 11
-0.7603346456692913
 21
-3.509596456692912
 31
0.0
  0
LINE
  5
265B
330
1E
100
AcDbEntity
  8
3
100
AcDbLine
 10
-0.7603346456692913
 20
-3.509596456692912
 30
0.0
 11
-0.7603346456692913
 21
-3.441929133858267
 31
0.0
  0
LINE
  5
265C
330
1E
100
AcDbEntity
  8
3
100
AcDbLine
 10
-0.7603346456692913
 20
-3.86884842519685
 30
0.0
 11
-0.7603346456692913
 21
-3.86392716535433
 31
0.0
  0
LINE
  5
265D
330
1E
100
AcDbEntity
  8
3
100
AcDbLine
 10
-0.7603346456692913
 20
-3.86392716535433
 30
0.0
 11
-0.7603346456692913
 21
-3.847933070866141
 31
0.0
  0
LINE
  5
265E
330
1E
100
AcDbEntity
  8
3
100
AcDbLine
 10
-0.7603346456692913
 20
-3.441929133858267
 30
0.0
 11
-0.7603346456692913
 21
-3.375492125984251
 31
0.0
  0
LINE
  5
265F
330
1E
100
AcDbEntity
  8
3
100
AcDbLine
 10
-0.7603346456692913
 20
-3.375492125984251
 30
0.0
 11
-0.7603346456692913
 21
-3.310285433070865
 31
0.0
  0
LINE
  5
2660
330
1E
100
AcDbEntity
  8
3
100
AcDbLine
 10
-0.7603346456692913
 20
-3.310285433070865
 30
0.0
 11
-0.7603346456692913
 21
-3.248769685039369
 31
0.0
  0
LINE
  5
2661
330
1E
100
AcDbEntity
  8
3
100
AcDbLine
 10
-0.7603346456692913
 20
-3.248769685039369
 30
0.0
 11
-0.7603346456692913
 21
-3.190944881889763
 31
0.0
  0
LINE
  5
2662
330
1E
100
AcDbEntity
  8
3
100
AcDbLine
 10
-0.7603346456692913
 20
-3.190944881889763
 30
0.0
 11
-0.7603346456692913
 21
-3.140501968503937
 31
0.0
  0
LINE
  5
2663
330
1E
100
AcDbEntity
  8
3
100
AcDbLine
 10
-0.7603346456692913
 20
-3.140501968503937
 30
0.0
 11
-0.7603346456692913
 21
-3.097440944881889
 31
0.0
  0
LINE
  5
2664
330
1E
100
AcDbEntity
  8
3
100
AcDbLine
 10
-0.7603346456692913
 20
-3.097440944881889
 30
0.0
 11
-0.7603346456692913
 21
-3.061761811023621
 31
0.0
  0
LINE
  5
2665
330
1E
100
AcDbEntity
  8
3
100
AcDbLine
 10
-0.7603346456692913
 20
-3.061761811023621
 30
0.0
 11
-0.7603346456692913
 21
-3.035925196850393
 31
0.0
  0
LINE
  5
2666
330
1E
100
AcDbEntity
  8
3
100
AcDbLine
 10
-0.7603346456692913
 20
-3.035925196850393
 30
0.0
 11
-0.7603346456692913
 21
-3.021161417322834
 31
0.0
  0
LINE
  5
2667
330
1E
100
AcDbEntity
  8
3
100
AcDbLine
 10
-0.7603346456692913
 20
-3.021161417322834
 30
0.0
 11
-0.7603346456692913
 21
-3.015009842519684
 31
0.0
  0
LINE
  5
2668
330
1E
100
AcDbEntity
  8
3
100
AcDbLine
 10
-0.7861712598425197
 20
-3.669537401574802
 30
0.0
 11
-0.7861712598425197
 21
-3.596948818897637
 31
0.0
  0
LINE
  5
2669
330
1E
100
AcDbEntity
  8
3
100
AcDbLine
 10
-0.7861712598425197
 20
-3.596948818897637
 30
0.0
 11
-0.7861712598425197
 21
-3.520669291338582
 31
0.0
  0
LINE
  5
266A
330
1E
100
AcDbEntity
  8
3
100
AcDbLine
 10
-0.7861712598425197
 20
-3.520669291338582
 30
0.0
 11
-0.7861712598425197
 21
-3.441929133858267
 31
0.0
  0
LINE
  5
266B
330
1E
100
AcDbEntity
  8
3
100
AcDbLine
 10
-0.7861712598425197
 20
-3.989419291338582
 30
0.0
 11
-0.7861712598425197
 21
-3.983267716535432
 31
0.0
  0
LINE
  5
266C
330
1E
100
AcDbEntity
  8
3
100
AcDbLine
 10
-0.7861712598425197
 20
-3.983267716535432
 30
0.0
 11
-0.7861712598425197
 21
-3.967273622047243
 31
0.0
  0
LINE
  5
266D
330
1E
100
AcDbEntity
  8
3
100
AcDbLine
 10
-0.7861712598425197
 20
-3.967273622047243
 30
0.0
 11
-0.7861712598425197
 21
-3.940206692913385
 31
0.0
  0
LINE
  5
266E
330
1E
100
AcDbEntity
  8
3
100
AcDbLine
 10
-0.7861712598425197
 20
-3.940206692913385
 30
0.0
 11
-0.7861712598425197
 21
-3.902066929133858
 31
0.0
  0
LINE
  5
266F
330
1E
100
AcDbEntity
  8
3
100
AcDbLine
 10
-0.7861712598425197
 20
-3.902066929133858
 30
0.0
 11
-0.7861712598425197
 21
-3.85531496062992
 31
0.0
  0
LINE
  5
2670
330
1E
100
AcDbEntity
  8
3
100
AcDbLine
 10
-0.7861712598425197
 20
-3.85531496062992
 30
0.0
 11
-0.7861712598425197
 21
-3.799950787401574
 31
0.0
  0
LINE
  5
2671
330
1E
100
AcDbEntity
  8
3
100
AcDbLine
 10
-0.7861712598425197
 20
-3.799950787401574
 30
0.0
 11
-0.7861712598425197
 21
-3.738435039370078
 31
0.0
  0
LINE
  5
2672
330
1E
100
AcDbEntity
  8
3
100
AcDbLine
 10
-0.7861712598425197
 20
-3.738435039370078
 30
0.0
 11
-0.7861712598425197
 21
-3.669537401574802
 31
0.0
  0
LINE
  5
2673
330
1E
100
AcDbEntity
  8
3
100
AcDbLine
 10
-0.7861712598425197
 20
-3.288139763779527
 30
0.0
 11
-0.7861712598425197
 21
-3.215551181102361
 31
0.0
  0
LINE
  5
2674
330
1E
100
AcDbEntity
  8
3
100
AcDbLine
 10
-0.7861712598425197
 20
-3.215551181102361
 30
0.0
 11
-0.7861712598425197
 21
-3.146653543307086
 31
0.0
  0
LINE
  5
2675
330
1E
100
AcDbEntity
  8
3
100
AcDbLine
 10
-0.7861712598425197
 20
-3.146653543307086
 30
0.0
 11
-0.7861712598425197
 21
-3.08390748031496
 31
0.0
  0
LINE
  5
2676
330
1E
100
AcDbEntity
  8
3
100
AcDbLine
 10
-0.7861712598425197
 20
-3.08390748031496
 30
0.0
 11
-0.7861712598425197
 21
-3.028543307086613
 31
0.0
  0
LINE
  5
2677
330
1E
100
AcDbEntity
  8
3
100
AcDbLine
 10
-0.7861712598425197
 20
-3.028543307086613
 30
0.0
 11
-0.7861712598425197
 21
-2.981791338582676
 31
0.0
  0
LINE
  5
2678
330
1E
100
AcDbEntity
  8
3
100
AcDbLine
 10
-0.7861712598425197
 20
-2.981791338582676
 30
0.0
 11
-0.7861712598425197
 21
-2.944881889763779
 31
0.0
  0
LINE
  5
2679
330
1E
100
AcDbEntity
  8
3
100
AcDbLine
 10
-0.7861712598425197
 20
-2.944881889763779
 30
0.0
 11
-0.7861712598425197
 21
-2.91781496062992
 31
0.0
  0
LINE
  5
267A
330
1E
100
AcDbEntity
  8
3
100
AcDbLine
 10
-0.7861712598425197
 20
-2.91781496062992
 30
0.0
 11
-0.7861712598425197
 21
-2.900590551181101
 31
0.0
  0
LINE
  5
267B
330
1E
100
AcDbEntity
  8
3
100
AcDbLine
 10
-0.7861712598425197
 20
-2.900590551181101
 30
0.0
 11
-0.7861712598425197
 21
-2.895669291338582
 31
0.0
  0
LINE
  5
267C
330
1E
100
AcDbEntity
  8
3
100
AcDbLine
 10
-0.7861712598425197
 20
-3.441929133858267
 30
0.0
 11
-0.7861712598425197
 21
-3.364419291338582
 31
0.0
  0
LINE
  5
267D
330
1E
100
AcDbEntity
  8
3
100
AcDbLine
 10
-0.7861712598425197
 20
-3.364419291338582
 30
0.0
 11
-0.7861712598425197
 21
-3.288139763779527
 31
0.0
  0
LINE
  5
267E
330
1E
100
AcDbEntity
  8
3
100
AcDbLine
 10
-0.7640255905511811
 20
-3.366879921259842
 30
0.0
 11
-0.7640255905511811
 21
-3.441929133858267
 31
0.0
  0
LINE
  5
267F
330
1E
100
AcDbEntity
  8
3
100
AcDbLine
 10
-0.7640255905511811
 20
-3.441929133858267
 30
0.0
 11
-0.7640255905511811
 21
-3.516978346456692
 31
0.0
  0
LINE
  5
2680
330
1E
100
AcDbEntity
  8
3
100
AcDbLine
 10
-0.7640255905511811
 20
-3.516978346456692
 30
0.0
 11
-0.7640255905511811
 21
-3.590797244094487
 31
0.0
  0
LINE
  5
2681
330
1E
100
AcDbEntity
  8
3
100
AcDbLine
 10
-0.7640255905511811
 20
-3.590797244094487
 30
0.0
 11
-0.7640255905511811
 21
-3.660925196850393
 31
0.0
  0
LINE
  5
2682
330
1E
100
AcDbEntity
  8
3
100
AcDbLine
 10
-0.7640255905511811
 20
-3.660925196850393
 30
0.0
 11
-0.7640255905511811
 21
-3.726131889763779
 31
0.0
  0
LINE
  5
2683
330
1E
100
AcDbEntity
  8
3
100
AcDbLine
 10
-0.7640255905511811
 20
-3.726131889763779
 30
0.0
 11
-0.7640255905511811
 21
-3.786417322834645
 31
0.0
  0
LINE
  5
2684
330
1E
100
AcDbEntity
  8
3
100
AcDbLine
 10
-0.7640255905511811
 20
-3.786417322834645
 30
0.0
 11
-0.7640255905511811
 21
-3.839320866141731
 31
0.0
  0
LINE
  5
2685
330
1E
100
AcDbEntity
  8
3
100
AcDbLine
 10
-0.7640255905511811
 20
-3.839320866141731
 30
0.0
 11
-0.7640255905511811
 21
-3.884842519685039
 31
0.0
  0
LINE
  5
2686
330
1E
100
AcDbEntity
  8
3
100
AcDbLine
 10
-0.7640255905511811
 20
-3.884842519685039
 30
0.0
 11
-0.7640255905511811
 21
-3.920521653543306
 31
0.0
  0
LINE
  5
2687
330
1E
100
AcDbEntity
  8
3
100
AcDbLine
 10
-0.7640255905511811
 20
-3.920521653543306
 30
0.0
 11
-0.7640255905511811
 21
-3.946358267716535
 31
0.0
  0
LINE
  5
2688
330
1E
100
AcDbEntity
  8
3
100
AcDbLine
 10
-0.7640255905511811
 20
-3.946358267716535
 30
0.0
 11
-0.7640255905511811
 21
-3.962352362204724
 31
0.0
  0
LINE
  5
2689
330
1E
100
AcDbEntity
  8
3
100
AcDbLine
 10
-0.7640255905511811
 20
-3.962352362204724
 30
0.0
 11
-0.7640255905511811
 21
-3.968503937007874
 31
0.0
  0
LINE
  5
268A
330
1E
100
AcDbEntity
  8
3
100
AcDbLine
 10
-0.7640255905511811
 20
-2.916584645669291
 30
0.0
 11
-0.7640255905511811
 21
-2.92150590551181
 31
0.0
  0
LINE
  5
268B
330
1E
100
AcDbEntity
  8
3
100
AcDbLine
 10
-0.7640255905511811
 20
-2.92150590551181
 30
0.0
 11
-0.7640255905511811
 21
-2.9375
 31
0.0
  0
LINE
  5
268C
330
1E
100
AcDbEntity
  8
3
100
AcDbLine
 10
-0.7640255905511811
 20
-2.9375
 30
0.0
 11
-0.7640255905511811
 21
-2.964566929133858
 31
0.0
  0
LINE
  5
268D
330
1E
100
AcDbEntity
  8
3
100
AcDbLine
 10
-0.7640255905511811
 20
-2.964566929133858
 30
0.0
 11
-0.7640255905511811
 21
-3.000246062992125
 31
0.0
  0
LINE
  5
268E
330
1E
100
AcDbEntity
  8
3
100
AcDbLine
 10
-0.7640255905511811
 20
-3.000246062992125
 30
0.0
 11
-0.7640255905511811
 21
-3.044537401574802
 31
0.0
  0
LINE
  5
268F
330
1E
100
AcDbEntity
  8
3
100
AcDbLine
 10
-0.7640255905511811
 20
-3.044537401574802
 30
0.0
 11
-0.7640255905511811
 21
-3.097440944881889
 31
0.0
  0
LINE
  5
2690
330
1E
100
AcDbEntity
  8
3
100
AcDbLine
 10
-0.7640255905511811
 20
-3.097440944881889
 30
0.0
 11
-0.7640255905511811
 21
-3.157726377952755
 31
0.0
  0
LINE
  5
2691
330
1E
100
AcDbEntity
  8
3
100
AcDbLine
 10
-0.7640255905511811
 20
-3.157726377952755
 30
0.0
 11
-0.7640255905511811
 21
-3.224163385826771
 31
0.0
  0
LINE
  5
2692
330
1E
100
AcDbEntity
  8
3
100
AcDbLine
 10
-0.7640255905511811
 20
-3.224163385826771
 30
0.0
 11
-0.7640255905511811
 21
-3.294291338582676
 31
0.0
  0
LINE
  5
2693
330
1E
100
AcDbEntity
  8
3
100
AcDbLine
 10
-0.7640255905511811
 20
-3.294291338582676
 30
0.0
 11
-0.7640255905511811
 21
-3.366879921259842
 31
0.0
  0
LINE
  5
2694
330
1E
100
AcDbEntity
  8
3
100
AcDbLine
 10
-0.7603346456692913
 20
-3.744586614173227
 30
0.0
 11
-0.7603346456692913
 21
-3.692913385826771
 31
0.0
  0
LINE
  5
2695
330
1E
100
AcDbEntity
  8
3
100
AcDbLine
 10
-0.7603346456692913
 20
-3.692913385826771
 30
0.0
 11
-0.7603346456692913
 21
-3.636318897637795
 31
0.0
  0
LINE
  5
2696
330
1E
100
AcDbEntity
  8
3
100
AcDbLine
 10
-0.7603346456692913
 20
-3.636318897637795
 30
0.0
 11
-0.7603346456692913
 21
-3.574803149606299
 31
0.0
  0
LINE
  5
2697
330
1E
100
AcDbEntity
  8
3
100
AcDbLine
 10
-0.7603346456692913
 20
-3.574803149606299
 30
0.0
 11
-0.7603346456692913
 21
-3.509596456692912
 31
0.0
  0
LINE
  5
2698
330
1E
100
AcDbEntity
  8
3
100
AcDbLine
 10
-0.7603346456692913
 20
-3.509596456692912
 30
0.0
 11
-0.7603346456692913
 21
-3.441929133858267
 31
0.0
  0
LINE
  5
2699
330
1E
100
AcDbEntity
  8
3
100
AcDbLine
 10
-0.7603346456692913
 20
-3.86884842519685
 30
0.0
 11
-0.7603346456692913
 21
-3.86392716535433
 31
0.0
  0
LINE
  5
269A
330
1E
100
AcDbEntity
  8
3
100
AcDbLine
 10
-0.7603346456692913
 20
-3.86392716535433
 30
0.0
 11
-0.7603346456692913
 21
-3.847933070866141
 31
0.0
  0
LINE
  5
269B
330
1E
100
AcDbEntity
  8
3
100
AcDbLine
 10
-0.7603346456692913
 20
-3.847933070866141
 30
0.0
 11
-0.7603346456692913
 21
-3.822096456692912
 31
0.0
  0
LINE
  5
269C
330
1E
100
AcDbEntity
  8
3
100
AcDbLine
 10
-0.7603346456692913
 20
-3.822096456692912
 30
0.0
 11
-0.7603346456692913
 21
-3.787647637795275
 31
0.0
  0
LINE
  5
269D
330
1E
100
AcDbEntity
  8
3
100
AcDbLine
 10
-0.7603346456692913
 20
-3.787647637795275
 30
0.0
 11
-0.7603346456692913
 21
-3.744586614173227
 31
0.0
  0
LINE
  5
269E
330
1E
100
AcDbEntity
  8
3
100
AcDbLine
 10
-0.7603346456692913
 20
-3.441929133858267
 30
0.0
 11
-0.7603346456692913
 21
-3.375492125984251
 31
0.0
  0
LINE
  5
269F
330
1E
100
AcDbEntity
  8
3
100
AcDbLine
 10
-0.7603346456692913
 20
-3.375492125984251
 30
0.0
 11
-0.7603346456692913
 21
-3.310285433070865
 31
0.0
  0
LINE
  5
26A0
330
1E
100
AcDbEntity
  8
3
100
AcDbLine
 10
-0.7603346456692913
 20
-3.310285433070865
 30
0.0
 11
-0.7603346456692913
 21
-3.248769685039369
 31
0.0
  0
LINE
  5
26A1
330
1E
100
AcDbEntity
  8
3
100
AcDbLine
 10
-0.7603346456692913
 20
-3.248769685039369
 30
0.0
 11
-0.7603346456692913
 21
-3.190944881889763
 31
0.0
  0
LINE
  5
26A2
330
1E
100
AcDbEntity
  8
3
100
AcDbLine
 10
-0.7603346456692913
 20
-3.190944881889763
 30
0.0
 11
-0.7603346456692913
 21
-3.140501968503937
 31
0.0
  0
LINE
  5
26A3
330
1E
100
AcDbEntity
  8
3
100
AcDbLine
 10
-0.7603346456692913
 20
-3.140501968503937
 30
0.0
 11
-0.7603346456692913
 21
-3.097440944881889
 31
0.0
  0
LINE
  5
26A4
330
1E
100
AcDbEntity
  8
3
100
AcDbLine
 10
-0.7603346456692913
 20
-3.097440944881889
 30
0.0
 11
-0.7603346456692913
 21
-3.061761811023621
 31
0.0
  0
LINE
  5
26A5
330
1E
100
AcDbEntity
  8
3
100
AcDbLine
 10
-0.7603346456692913
 20
-3.061761811023621
 30
0.0
 11
-0.7603346456692913
 21
-3.035925196850393
 31
0.0
  0
LINE
  5
26A6
330
1E
100
AcDbEntity
  8
3
100
AcDbLine
 10
-0.7603346456692913
 20
-3.035925196850393
 30
0.0
 11
-0.7603346456692913
 21
-3.021161417322834
 31
0.0
  0
LINE
  5
26A7
330
1E
100
AcDbEntity
  8
3
100
AcDbLine
 10
-0.7603346456692913
 20
-3.021161417322834
 30
0.0
 11
-0.7603346456692913
 21
-3.015009842519684
 31
0.0
  0
LINE
  5
26A8
330
1E
100
AcDbEntity
  8
3
100
AcDbLine
 10
-1.616633858267716
 20
-3.24384842519685
 30
0.0
 11
-1.616633858267716
 21
-3.219242125984251
 31
0.0
  0
LINE
  5
26A9
330
1E
100
AcDbEntity
  8
3
100
AcDbLine
 10
-1.616633858267716
 20
-3.219242125984251
 30
0.0
 11
-1.616633858267716
 21
-3.187253937007874
 31
0.0
  0
LINE
  5
26AA
330
1E
100
AcDbEntity
  8
3
100
AcDbLine
 10
-1.616633858267716
 20
-3.187253937007874
 30
0.0
 11
-1.616633858267716
 21
-3.152805118110236
 31
0.0
  0
LINE
  5
26AB
330
1E
100
AcDbEntity
  8
3
100
AcDbLine
 10
-1.616633858267716
 20
0.0398622047244097
 30
0.0
 11
-1.616633858267716
 21
-0.0253444881889764
 31
0.0
  0
LINE
  5
26AC
330
1E
100
AcDbEntity
  8
3
100
AcDbLine
 10
-1.616633858267716
 20
-0.0253444881889764
 30
0.0
 11
-1.616633858267716
 21
-0.0868602362204723
 31
0.0
  0
LINE
  5
26AD
330
1E
100
AcDbEntity
  8
3
100
AcDbLine
 10
-1.616633858267716
 20
-0.0868602362204723
 30
0.0
 11
-1.616633858267716
 21
-0.1459153543307083
 31
0.0
  0
LINE
  5
26AE
330
1E
100
AcDbEntity
  8
3
100
AcDbLine
 10
-1.616633858267716
 20
-0.1459153543307083
 30
0.0
 11
-1.616633858267716
 21
-0.1988188976377949
 31
0.0
  0
LINE
  5
26AF
330
1E
100
AcDbEntity
  8
3
100
AcDbLine
 10
-1.616633858267716
 20
-0.1988188976377949
 30
0.0
 11
-1.616633858267716
 21
-0.245570866141732
 31
0.0
  0
LINE
  5
26B0
330
1E
100
AcDbEntity
  8
3
100
AcDbLine
 10
-1.616633858267716
 20
-0.245570866141732
 30
0.0
 11
-1.616633858267716
 21
-0.2837106299212597
 31
0.0
  0
LINE
  5
26B1
330
1E
100
AcDbEntity
  8
3
100
AcDbLine
 10
-1.616633858267716
 20
-0.2837106299212597
 30
0.0
 11
-1.616633858267716
 21
-0.3132381889763778
 31
0.0
  0
LINE
  5
26B2
330
1E
100
AcDbEntity
  8
3
100
AcDbLine
 10
-1.616633858267716
 20
0.4606299212598431
 30
0.0
 11
-1.616633858267716
 21
0.4544783464566931
 31
0.0
  0
LINE
  5
26B3
330
1E
100
AcDbEntity
  8
3
100
AcDbLine
 10
-1.616633858267716
 20
0.4544783464566931
 30
0.0
 11
-1.616633858267716
 21
0.4397145669291338
 31
0.0
  0
LINE
  5
26B4
330
1E
100
AcDbEntity
  8
3
100
AcDbLine
 10
-1.616633858267716
 20
0.4397145669291338
 30
0.0
 11
-1.616633858267716
 21
0.413877952755906
 31
0.0
  0
LINE
  5
26B5
330
1E
100
AcDbEntity
  8
3
100
AcDbLine
 10
-1.616633858267716
 20
0.413877952755906
 30
0.0
 11
-1.616633858267716
 21
0.379429133858268
 31
0.0
  0
LINE
  5
26B6
330
1E
100
AcDbEntity
  8
3
100
AcDbLine
 10
-1.616633858267716
 20
0.379429133858268
 30
0.0
 11
-1.616633858267716
 21
0.3363681102362208
 31
0.0
  0
LINE
  5
26B7
330
1E
100
AcDbEntity
  8
3
100
AcDbLine
 10
-1.616633858267716
 20
0.3363681102362208
 30
0.0
 11
-1.616633858267716
 21
0.2859251968503931
 31
0.0
  0
LINE
  5
26B8
330
1E
100
AcDbEntity
  8
3
100
AcDbLine
 10
-1.616633858267716
 20
0.2859251968503931
 30
0.0
 11
-1.616633858267716
 21
0.2293307086614171
 31
0.0
  0
LINE
  5
26B9
330
1E
100
AcDbEntity
  8
3
100
AcDbLine
 10
-1.616633858267716
 20
0.2293307086614171
 30
0.0
 11
-1.616633858267716
 21
0.1678149606299208
 31
0.0
  0
LINE
  5
26BA
330
1E
100
AcDbEntity
  8
3
100
AcDbLine
 10
-1.616633858267716
 20
0.1678149606299208
 30
0.0
 11
-1.616633858267716
 21
0.1050688976377949
 31
0.0
  0
LINE
  5
26BB
330
1E
100
AcDbEntity
  8
3
100
AcDbLine
 10
-1.616633858267716
 20
0.1050688976377949
 30
0.0
 11
-1.616633858267716
 21
0.0398622047244097
 31
0.0
  0
LINE
  5
26BC
330
1E
100
AcDbEntity
  8
3
100
AcDbLine
 10
-1.616633858267716
 20
-0.4153543307086616
 30
0.0
 11
-1.616633858267716
 21
-0.373523622047244
 31
0.0
  0
LINE
  5
26BD
330
1E
100
AcDbEntity
  8
3
100
AcDbLine
 10
-1.616633858267716
 20
-0.373523622047244
 30
0.0
 11
-1.616633858267716
 21
-0.3378444881889768
 31
0.0
  0
LINE
  5
26BE
330
1E
100
AcDbEntity
  8
3
100
AcDbLine
 10
-1.616633858267716
 20
-0.3378444881889768
 30
0.0
 11
-1.616633858267716
 21
-0.3132381889763778
 31
0.0
  0
LINE
  5
26BF
330
1E
100
AcDbEntity
  8
3
100
AcDbLine
 10
-1.535433070866141
 20
-3.152805118110236
 30
0.0
 11
-1.535433070866141
 21
-3.187253937007874
 31
0.0
  0
LINE
  5
26C0
330
1E
100
AcDbEntity
  8
3
100
AcDbLine
 10
-1.535433070866141
 20
-3.187253937007874
 30
0.0
 11
-1.535433070866141
 21
-3.219242125984251
 31
0.0
  0
LINE
  5
26C1
330
1E
100
AcDbEntity
  8
3
100
AcDbLine
 10
-1.535433070866141
 20
-3.219242125984251
 30
0.0
 11
-1.535433070866141
 21
-3.24384842519685
 31
0.0
  0
LINE
  5
26C2
330
1E
100
AcDbEntity
  8
3
100
AcDbLine
 10
-1.535433070866141
 20
-0.3132381889763778
 30
0.0
 11
-1.535433070866141
 21
-0.3378444881889768
 31
0.0
  0
LINE
  5
26C3
330
1E
100
AcDbEntity
  8
3
100
AcDbLine
 10
-1.535433070866141
 20
-0.3378444881889768
 30
0.0
 11
-1.535433070866141
 21
-0.373523622047244
 31
0.0
  0
LINE
  5
26C4
330
1E
100
AcDbEntity
  8
3
100
AcDbLine
 10
-1.535433070866141
 20
-0.373523622047244
 30
0.0
 11
-1.535433070866141
 21
-0.4153543307086616
 31
0.0
  0
LINE
  5
26C5
330
1E
100
AcDbEntity
  8
3
100
AcDbLine
 10
-1.535433070866141
 20
0.2293307086614171
 30
0.0
 11
-1.535433070866141
 21
0.2859251968503931
 31
0.0
  0
LINE
  5
26C6
330
1E
100
AcDbEntity
  8
3
100
AcDbLine
 10
-1.535433070866141
 20
0.2859251968503931
 30
0.0
 11
-1.535433070866141
 21
0.3363681102362208
 31
0.0
  0
LINE
  5
26C7
330
1E
100
AcDbEntity
  8
3
100
AcDbLine
 10
-1.535433070866141
 20
0.3363681102362208
 30
0.0
 11
-1.535433070866141
 21
0.379429133858268
 31
0.0
  0
LINE
  5
26C8
330
1E
100
AcDbEntity
  8
3
100
AcDbLine
 10
-1.535433070866141
 20
0.379429133858268
 30
0.0
 11
-1.535433070866141
 21
0.413877952755906
 31
0.0
  0
LINE
  5
26C9
330
1E
100
AcDbEntity
  8
3
100
AcDbLine
 10
-1.535433070866141
 20
0.413877952755906
 30
0.0
 11
-1.535433070866141
 21
0.4397145669291338
 31
0.0
  0
LINE
  5
26CA
330
1E
100
AcDbEntity
  8
3
100
AcDbLine
 10
-1.535433070866141
 20
0.4397145669291338
 30
0.0
 11
-1.535433070866141
 21
0.4544783464566931
 31
0.0
  0
LINE
  5
26CB
330
1E
100
AcDbEntity
  8
3
100
AcDbLine
 10
-1.535433070866141
 20
0.4544783464566931
 30
0.0
 11
-1.535433070866141
 21
0.4606299212598431
 31
0.0
  0
LINE
  5
26CC
330
1E
100
AcDbEntity
  8
3
100
AcDbLine
 10
-1.535433070866141
 20
-0.3132381889763778
 30
0.0
 11
-1.535433070866141
 21
-0.2837106299212597
 31
0.0
  0
LINE
  5
26CD
330
1E
100
AcDbEntity
  8
3
100
AcDbLine
 10
-1.535433070866141
 20
-0.2837106299212597
 30
0.0
 11
-1.535433070866141
 21
-0.245570866141732
 31
0.0
  0
LINE
  5
26CE
330
1E
100
AcDbEntity
  8
3
100
AcDbLine
 10
-1.535433070866141
 20
-0.245570866141732
 30
0.0
 11
-1.535433070866141
 21
-0.1988188976377949
 31
0.0
  0
LINE
  5
26CF
330
1E
100
AcDbEntity
  8
3
100
AcDbLine
 10
-1.535433070866141
 20
-0.1988188976377949
 30
0.0
 11
-1.535433070866141
 21
-0.1459153543307083
 31
0.0
  0
LINE
  5
26D0
330
1E
100
AcDbEntity
  8
3
100
AcDbLine
 10
-1.535433070866141
 20
-0.1459153543307083
 30
0.0
 11
-1.535433070866141
 21
-0.0868602362204723
 31
0.0
  0
LINE
  5
26D1
330
1E
100
AcDbEntity
  8
3
100
AcDbLine
 10
-1.535433070866141
 20
-0.0868602362204723
 30
0.0
 11
-1.535433070866141
 21
-0.0253444881889764
 31
0.0
  0
LINE
  5
26D2
330
1E
100
AcDbEntity
  8
3
100
AcDbLine
 10
-1.535433070866141
 20
-0.0253444881889764
 30
0.0
 11
-1.535433070866141
 21
0.0398622047244097
 31
0.0
  0
LINE
  5
26D3
330
1E
100
AcDbEntity
  8
3
100
AcDbLine
 10
-1.535433070866141
 20
0.0398622047244097
 30
0.0
 11
-1.535433070866141
 21
0.1050688976377949
 31
0.0
  0
LINE
  5
26D4
330
1E
100
AcDbEntity
  8
3
100
AcDbLine
 10
-1.535433070866141
 20
0.1050688976377949
 30
0.0
 11
-1.535433070866141
 21
0.1678149606299208
 31
0.0
  0
LINE
  5
26D5
330
1E
100
AcDbEntity
  8
3
100
AcDbLine
 10
-1.535433070866141
 20
0.1678149606299208
 30
0.0
 11
-1.535433070866141
 21
0.2293307086614171
 31
0.0
  0
LINE
  5
26D6
330
1E
100
AcDbEntity
  8
3
100
AcDbLine
 10
-1.535433070866141
 20
-3.152805118110236
 30
0.0
 11
-1.535433070866141
 21
-0.4153543307086616
 31
0.0
  0
LINE
  5
26D7
330
1E
100
AcDbEntity
  8
3
100
AcDbLine
 10
-1.535433070866141
 20
-0.4153543307086616
 30
0.0
 11
-1.616633858267716
 21
-0.4153543307086616
 31
0.0
  0
LINE
  5
26D8
330
1E
100
AcDbEntity
  8
3
100
AcDbLine
 10
-1.535433070866141
 20
-3.683070866141731
 30
0.0
 11
-1.535433070866141
 21
-3.676919291338582
 31
0.0
  0
LINE
  5
26D9
330
1E
100
AcDbEntity
  8
3
100
AcDbLine
 10
-1.535433070866141
 20
-3.676919291338582
 30
0.0
 11
-1.535433070866141
 21
-3.662155511811023
 31
0.0
  0
LINE
  5
26DA
330
1E
100
AcDbEntity
  8
3
100
AcDbLine
 10
-1.535433070866141
 20
-3.662155511811023
 30
0.0
 11
-1.535433070866141
 21
-3.636318897637795
 31
0.0
  0
LINE
  5
26DB
330
1E
100
AcDbEntity
  8
3
100
AcDbLine
 10
-1.535433070866141
 20
-3.636318897637795
 30
0.0
 11
-1.535433070866141
 21
-3.601870078740157
 31
0.0
  0
LINE
  5
26DC
330
1E
100
AcDbEntity
  8
3
100
AcDbLine
 10
-1.535433070866141
 20
-3.601870078740157
 30
0.0
 11
-1.535433070866141
 21
-3.56003937007874
 31
0.0
  0
LINE
  5
26DD
330
1E
100
AcDbEntity
  8
3
100
AcDbLine
 10
-1.535433070866141
 20
-3.56003937007874
 30
0.0
 11
-1.535433070866141
 21
-3.513287401574802
 31
0.0
  0
LINE
  5
26DE
330
1E
100
AcDbEntity
  8
3
100
AcDbLine
 10
-1.535433070866141
 20
-3.513287401574802
 30
0.0
 11
-1.535433070866141
 21
-3.462844488188976
 31
0.0
  0
LINE
  5
26DF
330
1E
100
AcDbEntity
  8
3
100
AcDbLine
 10
-1.535433070866141
 20
-3.462844488188976
 30
0.0
 11
-1.535433070866141
 21
-3.412401574803149
 31
0.0
  0
LINE
  5
26E0
330
1E
100
AcDbEntity
  8
3
100
AcDbLine
 10
-1.535433070866141
 20
-3.412401574803149
 30
0.0
 11
-1.535433070866141
 21
-3.363188976377952
 31
0.0
  0
LINE
  5
26E1
330
1E
100
AcDbEntity
  8
3
100
AcDbLine
 10
-1.535433070866141
 20
-3.363188976377952
 30
0.0
 11
-1.535433070866141
 21
-3.316437007874015
 31
0.0
  0
LINE
  5
26E2
330
1E
100
AcDbEntity
  8
3
100
AcDbLine
 10
-1.535433070866141
 20
-3.316437007874015
 30
0.0
 11
-1.535433070866141
 21
-3.275836614173227
 31
0.0
  0
LINE
  5
26E3
330
1E
100
AcDbEntity
  8
3
100
AcDbLine
 10
-1.535433070866141
 20
-3.275836614173227
 30
0.0
 11
-1.535433070866141
 21
-3.24384842519685
 31
0.0
  0
LINE
  5
26E4
330
1E
100
AcDbEntity
  8
3
100
AcDbLine
 10
-1.535433070866141
 20
-3.24384842519685
 30
0.0
 11
-1.616633858267716
 21
-3.24384842519685
 31
0.0
  0
LINE
  5
26E5
330
1E
100
AcDbEntity
  8
3
100
AcDbLine
 10
-1.616633858267716
 20
-3.24384842519685
 30
0.0
 11
-1.616633858267716
 21
-3.275836614173227
 31
0.0
  0
LINE
  5
26E6
330
1E
100
AcDbEntity
  8
3
100
AcDbLine
 10
-1.616633858267716
 20
-3.275836614173227
 30
0.0
 11
-1.616633858267716
 21
-3.316437007874015
 31
0.0
  0
LINE
  5
26E7
330
1E
100
AcDbEntity
  8
3
100
AcDbLine
 10
-1.616633858267716
 20
-3.316437007874015
 30
0.0
 11
-1.616633858267716
 21
-3.363188976377952
 31
0.0
  0
LINE
  5
26E8
330
1E
100
AcDbEntity
  8
3
100
AcDbLine
 10
-1.616633858267716
 20
-3.363188976377952
 30
0.0
 11
-1.616633858267716
 21
-3.412401574803149
 31
0.0
  0
LINE
  5
26E9
330
1E
100
AcDbEntity
  8
3
100
AcDbLine
 10
-1.616633858267716
 20
-3.412401574803149
 30
0.0
 11
-1.616633858267716
 21
-3.462844488188976
 31
0.0
  0
LINE
  5
26EA
330
1E
100
AcDbEntity
  8
3
100
AcDbLine
 10
-1.616633858267716
 20
-3.462844488188976
 30
0.0
 11
-1.616633858267716
 21
-3.513287401574802
 31
0.0
  0
LINE
  5
26EB
330
1E
100
AcDbEntity
  8
3
100
AcDbLine
 10
-1.616633858267716
 20
-3.513287401574802
 30
0.0
 11
-1.616633858267716
 21
-3.56003937007874
 31
0.0
  0
LINE
  5
26EC
330
1E
100
AcDbEntity
  8
3
100
AcDbLine
 10
-1.616633858267716
 20
-3.56003937007874
 30
0.0
 11
-1.616633858267716
 21
-3.601870078740157
 31
0.0
  0
LINE
  5
26ED
330
1E
100
AcDbEntity
  8
3
100
AcDbLine
 10
-1.616633858267716
 20
-3.601870078740157
 30
0.0
 11
-1.616633858267716
 21
-3.636318897637795
 31
0.0
  0
LINE
  5
26EE
330
1E
100
AcDbEntity
  8
3
100
AcDbLine
 10
-1.616633858267716
 20
-3.636318897637795
 30
0.0
 11
-1.616633858267716
 21
-3.662155511811023
 31
0.0
  0
LINE
  5
26EF
330
1E
100
AcDbEntity
  8
3
100
AcDbLine
 10
-1.616633858267716
 20
-3.662155511811023
 30
0.0
 11
-1.616633858267716
 21
-3.676919291338582
 31
0.0
  0
LINE
  5
26F0
330
1E
100
AcDbEntity
  8
3
100
AcDbLine
 10
-1.616633858267716
 20
-3.676919291338582
 30
0.0
 11
-1.616633858267716
 21
-3.683070866141731
 31
0.0
  0
LINE
  5
26F1
330
1E
100
AcDbEntity
  8
3
100
AcDbLine
 10
-1.614173228346456
 20
-3.371801181102361
 30
0.0
 11
-1.614173228346456
 21
-3.405019685039369
 31
0.0
  0
LINE
  5
26F2
330
1E
100
AcDbEntity
  8
3
100
AcDbLine
 10
-1.614173228346456
 20
-3.405019685039369
 30
0.0
 11
-1.614173228346456
 21
-3.441929133858267
 31
0.0
  0
LINE
  5
26F3
330
1E
100
AcDbEntity
  8
3
100
AcDbLine
 10
-1.614173228346456
 20
-3.441929133858267
 30
0.0
 11
-1.614173228346456
 21
-3.478838582677164
 31
0.0
  0
LINE
  5
26F4
330
1E
100
AcDbEntity
  8
3
100
AcDbLine
 10
-1.614173228346456
 20
-3.478838582677164
 30
0.0
 11
-1.614173228346456
 21
-3.513287401574802
 31
0.0
  0
LINE
  5
26F5
330
1E
100
AcDbEntity
  8
3
100
AcDbLine
 10
-1.614173228346456
 20
-3.513287401574802
 30
0.0
 11
-1.614173228346456
 21
-3.541584645669291
 31
0.0
  0
LINE
  5
26F6
330
1E
100
AcDbEntity
  8
3
100
AcDbLine
 10
-1.614173228346456
 20
-3.541584645669291
 30
0.0
 11
-1.614173228346456
 21
-3.561269685039369
 31
0.0
  0
LINE
  5
26F7
330
1E
100
AcDbEntity
  8
3
100
AcDbLine
 10
-1.614173228346456
 20
-3.561269685039369
 30
0.0
 11
-1.614173228346456
 21
-3.572342519685039
 31
0.0
  0
LINE
  5
26F8
330
1E
100
AcDbEntity
  8
3
100
AcDbLine
 10
-1.614173228346456
 20
-3.572342519685039
 30
0.0
 11
-1.614173228346456
 21
-3.561269685039369
 31
0.0
  0
LINE
  5
26F9
330
1E
100
AcDbEntity
  8
3
100
AcDbLine
 10
-1.614173228346456
 20
-3.561269685039369
 30
0.0
 11
-1.614173228346456
 21
-3.541584645669291
 31
0.0
  0
LINE
  5
26FA
330
1E
100
AcDbEntity
  8
3
100
AcDbLine
 10
-1.614173228346456
 20
-3.541584645669291
 30
0.0
 11
-1.614173228346456
 21
-3.513287401574802
 31
0.0
  0
LINE
  5
26FB
330
1E
100
AcDbEntity
  8
3
100
AcDbLine
 10
-1.614173228346456
 20
-3.513287401574802
 30
0.0
 11
-1.614173228346456
 21
-3.478838582677164
 31
0.0
  0
LINE
  5
26FC
330
1E
100
AcDbEntity
  8
3
100
AcDbLine
 10
-1.614173228346456
 20
-3.478838582677164
 30
0.0
 11
-1.614173228346456
 21
-3.441929133858267
 31
0.0
  0
LINE
  5
26FD
330
1E
100
AcDbEntity
  8
3
100
AcDbLine
 10
-1.614173228346456
 20
-3.441929133858267
 30
0.0
 11
-1.614173228346456
 21
-3.405019685039369
 31
0.0
  0
LINE
  5
26FE
330
1E
100
AcDbEntity
  8
3
100
AcDbLine
 10
-1.614173228346456
 20
-3.405019685039369
 30
0.0
 11
-1.614173228346456
 21
-3.371801181102361
 31
0.0
  0
LINE
  5
26FF
330
1E
100
AcDbEntity
  8
3
100
AcDbLine
 10
-1.614173228346456
 20
-3.371801181102361
 30
0.0
 11
-1.614173228346456
 21
-3.343503937007874
 31
0.0
  0
LINE
  5
2700
330
1E
100
AcDbEntity
  8
3
100
AcDbLine
 10
-1.614173228346456
 20
-3.343503937007874
 30
0.0
 11
-1.614173228346456
 21
-3.322588582677164
 31
0.0
  0
LINE
  5
2701
330
1E
100
AcDbEntity
  8
3
100
AcDbLine
 10
-1.614173228346456
 20
-3.322588582677164
 30
0.0
 11
-1.614173228346456
 21
-3.312746062992125
 31
0.0
  0
LINE
  5
2702
330
1E
100
AcDbEntity
  8
3
100
AcDbLine
 10
-1.614173228346456
 20
-3.312746062992125
 30
0.0
 11
-1.614173228346456
 21
-3.322588582677164
 31
0.0
  0
LINE
  5
2703
330
1E
100
AcDbEntity
  8
3
100
AcDbLine
 10
-1.614173228346456
 20
-3.322588582677164
 30
0.0
 11
-1.614173228346456
 21
-3.343503937007874
 31
0.0
  0
LINE
  5
2704
330
1E
100
AcDbEntity
  8
3
100
AcDbLine
 10
-1.614173228346456
 20
-3.343503937007874
 30
0.0
 11
-1.614173228346456
 21
-3.371801181102361
 31
0.0
  0
LINE
  5
2705
330
1E
100
AcDbEntity
  8
3
100
AcDbLine
 10
-2.01771653543307
 20
0.3252952755905505
 30
0.0
 11
-2.02509842519685
 21
0.3129921259842523
 31
0.0
  0
LINE
  5
2706
330
1E
100
AcDbEntity
  8
3
100
AcDbLine
 10
-2.02509842519685
 20
0.3129921259842523
 30
0.0
 11
-2.033710629921259
 21
0.2994586614173227
 31
0.0
  0
LINE
  5
2707
330
1E
100
AcDbEntity
  8
3
100
AcDbLine
 10
-2.033710629921259
 20
0.2994586614173227
 30
0.0
 11
-2.042322834645669
 21
0.2846948818897634
 31
0.0
  0
LINE
  5
2708
330
1E
100
AcDbEntity
  8
3
100
AcDbLine
 10
-3.491633858267715
 20
0.1875000000000004
 30
0.0
 11
-3.491633858267715
 21
0.1899606299212597
 31
0.0
  0
LINE
  5
2709
330
1E
100
AcDbEntity
  8
3
100
AcDbLine
 10
-3.491633858267715
 20
0.1899606299212597
 30
0.0
 11
-3.492864173228347
 21
0.1924212598425199
 31
0.0
  0
LINE
  5
270A
330
1E
100
AcDbEntity
  8
3
100
AcDbLine
 10
-3.492864173228347
 20
0.1924212598425199
 30
0.0
 11
-3.494094488188976
 21
0.1961122047244097
 31
0.0
  0
LINE
  5
270B
330
1E
100
AcDbEntity
  8
3
100
AcDbLine
 10
-3.494094488188976
 20
0.1961122047244097
 30
0.0
 11
-3.495324803149606
 21
0.1973425196850394
 31
0.0
  0
LINE
  5
270C
330
1E
100
AcDbEntity
  8
3
100
AcDbLine
 10
-3.495324803149606
 20
0.1973425196850394
 30
0.0
 11
-3.497785433070866
 21
0.2022637795275588
 31
0.0
  0
LINE
  5
270D
330
1E
100
AcDbEntity
  8
3
100
AcDbLine
 10
-3.497785433070866
 20
0.2022637795275588
 30
0.0
 11
-3.499015748031496
 21
0.2071850393700783
 31
0.0
  0
LINE
  5
270E
330
1E
100
AcDbEntity
  8
3
100
AcDbLine
 10
-3.499015748031496
 20
0.2071850393700783
 30
0.0
 11
-3.505167322834645
 21
0.2207185039370079
 31
0.0
  0
LINE
  5
270F
330
1E
100
AcDbEntity
  8
3
100
AcDbLine
 10
-3.505167322834645
 20
0.2207185039370079
 30
0.0
 11
-3.507627952755905
 21
0.2268700787401578
 31
0.0
  0
LINE
  5
2710
330
1E
100
AcDbEntity
  8
3
100
AcDbLine
 10
-3.507627952755905
 20
0.2268700787401578
 30
0.0
 11
-3.511318897637794
 21
0.2330216535433069
 31
0.0
  0
LINE
  5
2711
330
1E
100
AcDbEntity
  8
3
100
AcDbLine
 10
-3.511318897637794
 20
0.2330216535433069
 30
0.0
 11
-3.513779527559055
 21
0.2391732283464569
 31
0.0
  0
LINE
  5
2712
330
1E
100
AcDbEntity
  8
3
100
AcDbLine
 10
-3.513779527559055
 20
0.2391732283464569
 30
0.0
 11
-3.513779527559055
 21
0.2404035433070866
 31
0.0
  0
LINE
  5
2713
330
1E
100
AcDbEntity
  8
3
100
AcDbLine
 10
-3.28371062992126
 20
0.2465551181102357
 30
0.0
 11
-3.284940944881889
 21
0.2490157480314958
 31
0.0
  0
LINE
  5
2714
330
1E
100
AcDbEntity
  8
3
100
AcDbLine
 10
-3.284940944881889
 20
0.2490157480314958
 30
0.0
 11
-3.287401574803149
 21
0.2539370078740153
 31
0.0
  0
LINE
  5
2715
330
1E
100
AcDbEntity
  8
3
100
AcDbLine
 10
-3.265255905511811
 20
0.1998031496062995
 30
0.0
 11
-3.265255905511811
 21
0.2022637795275588
 31
0.0
  0
LINE
  5
2716
330
1E
100
AcDbEntity
  8
3
100
AcDbLine
 10
-3.265255905511811
 20
0.2022637795275588
 30
0.0
 11
-3.26648622047244
 21
0.204724409448819
 31
0.0
  0
LINE
  5
2717
330
1E
100
AcDbEntity
  8
3
100
AcDbLine
 10
-3.26648622047244
 20
0.204724409448819
 30
0.0
 11
-3.267716535433071
 21
0.2084153543307088
 31
0.0
  0
LINE
  5
2718
330
1E
100
AcDbEntity
  8
3
100
AcDbLine
 10
-3.267716535433071
 20
0.2084153543307088
 30
0.0
 11
-3.2689468503937
 21
0.210875984251969
 31
0.0
  0
LINE
  5
2719
330
1E
100
AcDbEntity
  8
3
100
AcDbLine
 10
-3.2689468503937
 20
0.210875984251969
 30
0.0
 11
-3.27017716535433
 21
0.2133366141732282
 31
0.0
  0
LINE
  5
271A
330
1E
100
AcDbEntity
  8
3
100
AcDbLine
 10
-3.27017716535433
 20
0.2133366141732282
 30
0.0
 11
-3.27263779527559
 21
0.2194881889763782
 31
0.0
  0
LINE
  5
271B
330
1E
100
AcDbEntity
  8
3
100
AcDbLine
 10
-3.27263779527559
 20
0.2194881889763782
 30
0.0
 11
-3.27509842519685
 21
0.2256397637795282
 31
0.0
  0
LINE
  5
271C
330
1E
100
AcDbEntity
  8
3
100
AcDbLine
 10
-3.27509842519685
 20
0.2256397637795282
 30
0.0
 11
-3.27878937007874
 21
0.2342519685039366
 31
0.0
  0
LINE
  5
271D
330
1E
100
AcDbEntity
  8
3
100
AcDbLine
 10
-3.27878937007874
 20
0.2342519685039366
 30
0.0
 11
-3.28248031496063
 21
0.2428641732283467
 31
0.0
  0
LINE
  5
271E
330
1E
100
AcDbEntity
  8
3
100
AcDbLine
 10
-3.28248031496063
 20
0.2428641732283467
 30
0.0
 11
-3.28371062992126
 21
0.2465551181102357
 31
0.0
  0
LINE
  5
271F
330
1E
100
AcDbEntity
  8
3
100
AcDbLine
 10
-3.049950787401574
 20
0.2428641732283467
 30
0.0
 11
-3.052411417322834
 21
0.2465551181102357
 31
0.0
  0
LINE
  5
2720
330
1E
100
AcDbEntity
  8
3
100
AcDbLine
 10
-3.052411417322834
 20
0.2465551181102357
 30
0.0
 11
-3.053641732283464
 21
0.251476377952756
 31
0.0
  0
LINE
  5
2721
330
1E
100
AcDbEntity
  8
3
100
AcDbLine
 10
-3.053641732283464
 20
0.251476377952756
 30
0.0
 11
-3.056102362204724
 21
0.2551673228346458
 31
0.0
  0
LINE
  5
2722
330
1E
100
AcDbEntity
  8
3
100
AcDbLine
 10
-3.056102362204724
 20
0.2551673228346458
 30
0.0
 11
-3.057332677165353
 21
0.2600885826771653
 31
0.0
  0
LINE
  5
2723
330
1E
100
AcDbEntity
  8
3
100
AcDbLine
 10
-3.057332677165353
 20
0.2600885826771653
 30
0.0
 11
-3.058562992125984
 21
0.2637795275590551
 31
0.0
  0
LINE
  5
2724
330
1E
100
AcDbEntity
  8
3
100
AcDbLine
 10
-3.058562992125984
 20
0.2637795275590551
 30
0.0
 11
-3.061023622047243
 21
0.2674704724409449
 31
0.0
  0
LINE
  5
2725
330
1E
100
AcDbEntity
  8
3
100
AcDbLine
 10
-3.061023622047243
 20
0.2674704724409449
 30
0.0
 11
-3.061023622047243
 21
0.2687007874015745
 31
0.0
  0
LINE
  5
2726
330
1E
100
AcDbEntity
  8
3
100
AcDbLine
 10
-3.037647637795275
 20
0.2121062992125986
 30
0.0
 11
-3.038877952755905
 21
0.2157972440944884
 31
0.0
  0
LINE
  5
2727
330
1E
100
AcDbEntity
  8
3
100
AcDbLine
 10
-3.038877952755905
 20
0.2157972440944884
 30
0.0
 11
-3.040108267716535
 21
0.2194881889763782
 31
0.0
  0
LINE
  5
2728
330
1E
100
AcDbEntity
  8
3
100
AcDbLine
 10
-3.040108267716535
 20
0.2194881889763782
 30
0.0
 11
-3.041338582677164
 21
0.2207185039370079
 31
0.0
  0
LINE
  5
2729
330
1E
100
AcDbEntity
  8
3
100
AcDbLine
 10
-3.041338582677164
 20
0.2207185039370079
 30
0.0
 11
-3.042568897637794
 21
0.223179133858268
 31
0.0
  0
LINE
  5
272A
330
1E
100
AcDbEntity
  8
3
100
AcDbLine
 10
-3.042568897637794
 20
0.223179133858268
 30
0.0
 11
-3.042568897637794
 21
0.2256397637795282
 31
0.0
  0
LINE
  5
272B
330
1E
100
AcDbEntity
  8
3
100
AcDbLine
 10
-3.042568897637794
 20
0.2256397637795282
 30
0.0
 11
-3.045029527559055
 21
0.2305610236220477
 31
0.0
  0
LINE
  5
272C
330
1E
100
AcDbEntity
  8
3
100
AcDbLine
 10
-3.045029527559055
 20
0.2305610236220477
 30
0.0
 11
-3.047490157480314
 21
0.2354822834645671
 31
0.0
  0
LINE
  5
272D
330
1E
100
AcDbEntity
  8
3
100
AcDbLine
 10
-3.047490157480314
 20
0.2354822834645671
 30
0.0
 11
-3.049950787401574
 21
0.2428641732283467
 31
0.0
  0
LINE
  5
272E
330
1E
100
AcDbEntity
  8
3
100
AcDbLine
 10
-2.819881889763779
 20
0.2490157480314958
 30
0.0
 11
-2.823572834645669
 21
0.2563976377952755
 31
0.0
  0
LINE
  5
272F
330
1E
100
AcDbEntity
  8
3
100
AcDbLine
 10
-2.823572834645669
 20
0.2563976377952755
 30
0.0
 11
-2.824803149606299
 21
0.2600885826771653
 31
0.0
  0
LINE
  5
2730
330
1E
100
AcDbEntity
  8
3
100
AcDbLine
 10
-2.824803149606299
 20
0.2600885826771653
 30
0.0
 11
-2.827263779527559
 21
0.2650098425196856
 31
0.0
  0
LINE
  5
2731
330
1E
100
AcDbEntity
  8
3
100
AcDbLine
 10
-2.827263779527559
 20
0.2650098425196856
 30
0.0
 11
-2.828494094488188
 21
0.2687007874015745
 31
0.0
  0
LINE
  5
2732
330
1E
100
AcDbEntity
  8
3
100
AcDbLine
 10
-2.828494094488188
 20
0.2687007874015745
 30
0.0
 11
-2.830954724409449
 21
0.2723917322834644
 31
0.0
  0
LINE
  5
2733
330
1E
100
AcDbEntity
  8
3
100
AcDbLine
 10
-2.830954724409449
 20
0.2723917322834644
 30
0.0
 11
-2.832185039370078
 21
0.2773129921259847
 31
0.0
  0
LINE
  5
2734
330
1E
100
AcDbEntity
  8
3
100
AcDbLine
 10
-2.832185039370078
 20
0.2773129921259847
 30
0.0
 11
-2.833415354330708
 21
0.2810039370078736
 31
0.0
  0
LINE
  5
2735
330
1E
100
AcDbEntity
  8
3
100
AcDbLine
 10
-2.833415354330708
 20
0.2810039370078736
 30
0.0
 11
-2.834645669291337
 21
0.2822342519685042
 31
0.0
  0
LINE
  5
2736
330
1E
100
AcDbEntity
  8
3
100
AcDbLine
 10
-2.81126968503937
 20
0.2244094488188977
 30
0.0
 11
-2.81126968503937
 21
0.2256397637795282
 31
0.0
  0
LINE
  5
2737
330
1E
100
AcDbEntity
  8
3
100
AcDbLine
 10
-2.81126968503937
 20
0.2256397637795282
 30
0.0
 11
-2.8125
 21
0.2293307086614171
 31
0.0
  0
LINE
  5
2738
330
1E
100
AcDbEntity
  8
3
100
AcDbLine
 10
-2.8125
 20
0.2293307086614171
 30
0.0
 11
-2.813730314960629
 21
0.2330216535433069
 31
0.0
  0
LINE
  5
2739
330
1E
100
AcDbEntity
  8
3
100
AcDbLine
 10
-2.813730314960629
 20
0.2330216535433069
 30
0.0
 11
-2.814960629921259
 21
0.2342519685039366
 31
0.0
  0
LINE
  5
273A
330
1E
100
AcDbEntity
  8
3
100
AcDbLine
 10
-2.814960629921259
 20
0.2342519685039366
 30
0.0
 11
-2.814960629921259
 21
0.2367125984251968
 31
0.0
  0
LINE
  5
273B
330
1E
100
AcDbEntity
  8
3
100
AcDbLine
 10
-2.814960629921259
 20
0.2367125984251968
 30
0.0
 11
-2.816190944881889
 21
0.2391732283464569
 31
0.0
  0
LINE
  5
273C
330
1E
100
AcDbEntity
  8
3
100
AcDbLine
 10
-2.816190944881889
 20
0.2391732283464569
 30
0.0
 11
-2.818651574803149
 21
0.2440944881889764
 31
0.0
  0
LINE
  5
273D
330
1E
100
AcDbEntity
  8
3
100
AcDbLine
 10
-2.818651574803149
 20
0.2440944881889764
 30
0.0
 11
-2.819881889763779
 21
0.2490157480314958
 31
0.0
  0
LINE
  5
273E
330
1E
100
AcDbEntity
  8
3
100
AcDbLine
 10
-2.587352362204724
 20
0.2477854330708662
 30
0.0
 11
-2.589812992125984
 21
0.251476377952756
 31
0.0
  0
LINE
  5
273F
330
1E
100
AcDbEntity
  8
3
100
AcDbLine
 10
-2.589812992125984
 20
0.251476377952756
 30
0.0
 11
-2.589812992125984
 21
0.2527066929133856
 31
0.0
  0
LINE
  5
2740
330
1E
100
AcDbEntity
  8
3
100
AcDbLine
 10
-2.589812992125984
 20
0.2527066929133856
 30
0.0
 11
-2.592273622047244
 21
0.2588582677165356
 31
0.0
  0
LINE
  5
2741
330
1E
100
AcDbEntity
  8
3
100
AcDbLine
 10
-2.592273622047244
 20
0.2588582677165356
 30
0.0
 11
-2.594734251968503
 21
0.2637795275590551
 31
0.0
  0
LINE
  5
2742
330
1E
100
AcDbEntity
  8
3
100
AcDbLine
 10
-2.594734251968503
 20
0.2637795275590551
 30
0.0
 11
-2.597194881889763
 21
0.2711614173228347
 31
0.0
  0
LINE
  5
2743
330
1E
100
AcDbEntity
  8
3
100
AcDbLine
 10
-2.597194881889763
 20
0.2711614173228347
 30
0.0
 11
-2.600885826771653
 21
0.2785433070866143
 31
0.0
  0
LINE
  5
2744
330
1E
100
AcDbEntity
  8
3
100
AcDbLine
 10
-2.600885826771653
 20
0.2785433070866143
 30
0.0
 11
-2.603346456692913
 21
0.2846948818897634
 31
0.0
  0
LINE
  5
2745
330
1E
100
AcDbEntity
  8
3
100
AcDbLine
 10
-2.603346456692913
 20
0.2846948818897634
 30
0.0
 11
-2.605807086614173
 21
0.2908464566929134
 31
0.0
  0
LINE
  5
2746
330
1E
100
AcDbEntity
  8
3
100
AcDbLine
 10
-2.605807086614173
 20
0.2908464566929134
 30
0.0
 11
-2.608267716535433
 21
0.2957677165354329
 31
0.0
  0
LINE
  5
2747
330
1E
100
AcDbEntity
  8
3
100
AcDbLine
 10
-2.583661417322834
 20
0.2354822834645671
 30
0.0
 11
-2.584891732283464
 21
0.2379429133858273
 31
0.0
  0
LINE
  5
2748
330
1E
100
AcDbEntity
  8
3
100
AcDbLine
 10
-2.584891732283464
 20
0.2379429133858273
 30
0.0
 11
-2.584891732283464
 21
0.2416338582677162
 31
0.0
  0
LINE
  5
2749
330
1E
100
AcDbEntity
  8
3
100
AcDbLine
 10
-2.584891732283464
 20
0.2416338582677162
 30
0.0
 11
-2.586122047244094
 21
0.2440944881889764
 31
0.0
  0
LINE
  5
274A
330
1E
100
AcDbEntity
  8
3
100
AcDbLine
 10
-2.586122047244094
 20
0.2440944881889764
 30
0.0
 11
-2.587352362204724
 21
0.2477854330708662
 31
0.0
  0
LINE
  5
274B
330
1E
100
AcDbEntity
  8
3
100
AcDbLine
 10
-2.722687007874015
 20
-0.1766732283464565
 30
0.0
 11
-2.722687007874015
 21
-0.1754429133858264
 31
0.0
  0
LINE
  5
274C
330
1E
100
AcDbEntity
  8
3
100
AcDbLine
 10
-2.722687007874015
 20
-0.1754429133858264
 30
0.0
 11
-2.721456692913386
 21
-0.1742125984251968
 31
0.0
  0
LINE
  5
274D
330
1E
100
AcDbEntity
  8
3
100
AcDbLine
 10
-2.721456692913386
 20
-0.1742125984251968
 30
0.0
 11
-2.720226377952755
 21
-0.1705216535433069
 31
0.0
  0
LINE
  5
274E
330
1E
100
AcDbEntity
  8
3
100
AcDbLine
 10
-2.720226377952755
 20
-0.1705216535433069
 30
0.0
 11
-2.717765748031495
 21
-0.1668307086614171
 31
0.0
  0
LINE
  5
274F
330
1E
100
AcDbEntity
  8
3
100
AcDbLine
 10
-2.717765748031495
 20
-0.1668307086614171
 30
0.0
 11
-2.715305118110236
 21
-0.1594488188976375
 31
0.0
  0
LINE
  5
2750
330
1E
100
AcDbEntity
  8
3
100
AcDbLine
 10
-2.715305118110236
 20
-0.1594488188976375
 30
0.0
 11
-2.711614173228346
 21
-0.1508366141732282
 31
0.0
  0
LINE
  5
2751
330
1E
100
AcDbEntity
  8
3
100
AcDbLine
 10
-2.711614173228346
 20
-0.1508366141732282
 30
0.0
 11
-2.706692913385826
 21
-0.1397637795275588
 31
0.0
  0
LINE
  5
2752
330
1E
100
AcDbEntity
  8
3
100
AcDbLine
 10
-2.706692913385826
 20
-0.1397637795275588
 30
0.0
 11
-2.704232283464566
 21
-0.1336122047244097
 31
0.0
  0
LINE
  5
2753
330
1E
100
AcDbEntity
  8
3
100
AcDbLine
 10
-2.704232283464566
 20
-0.1336122047244097
 30
0.0
 11
-2.703001968503937
 21
-0.1311515748031495
 31
0.0
  0
LINE
  5
2754
330
1E
100
AcDbEntity
  8
3
100
AcDbLine
 10
-2.703001968503937
 20
-0.1311515748031495
 30
0.0
 11
-2.701771653543307
 21
-0.1286909448818903
 31
0.0
  0
LINE
  5
2755
330
1E
100
AcDbEntity
  8
3
100
AcDbLine
 10
-2.701771653543307
 20
-0.1286909448818903
 30
0.0
 11
-2.700541338582676
 21
-0.1237696850393699
 31
0.0
  0
LINE
  5
2756
330
1E
100
AcDbEntity
  8
3
100
AcDbLine
 10
-2.700541338582676
 20
-0.1237696850393699
 30
0.0
 11
-2.699311023622047
 21
-0.1200787401574801
 31
0.0
  0
LINE
  5
2757
330
1E
100
AcDbEntity
  8
3
100
AcDbLine
 10
-2.699311023622047
 20
-0.1200787401574801
 30
0.0
 11
-2.698080708661416
 21
-0.1163877952755903
 31
0.0
  0
LINE
  5
2758
330
1E
100
AcDbEntity
  8
3
100
AcDbLine
 10
-2.698080708661416
 20
-0.1163877952755903
 30
0.0
 11
-2.696850393700787
 21
-0.1151574803149606
 31
0.0
  0
LINE
  5
2759
330
1E
100
AcDbEntity
  8
3
100
AcDbLine
 10
-2.950295275590551
 20
-0.1631397637795278
 30
0.0
 11
-2.949064960629921
 21
-0.1631397637795278
 31
0.0
  0
LINE
  5
275A
330
1E
100
AcDbEntity
  8
3
100
AcDbLine
 10
-2.949064960629921
 20
-0.1631397637795278
 30
0.0
 11
-2.949064960629921
 21
-0.1619094488188977
 31
0.0
  0
LINE
  5
275B
330
1E
100
AcDbEntity
  8
3
100
AcDbLine
 10
-2.949064960629921
 20
-0.1619094488188977
 30
0.0
 11
-2.947834645669291
 21
-0.1594488188976375
 31
0.0
  0
LINE
  5
275C
330
1E
100
AcDbEntity
  8
3
100
AcDbLine
 10
-2.947834645669291
 20
-0.1594488188976375
 30
0.0
 11
-2.946604330708662
 21
-0.1569881889763778
 31
0.0
  0
LINE
  5
275D
330
1E
100
AcDbEntity
  8
3
100
AcDbLine
 10
-2.946604330708662
 20
-0.1569881889763778
 30
0.0
 11
-2.945374015748032
 21
-0.1532972440944884
 31
0.0
  0
LINE
  5
275E
330
1E
100
AcDbEntity
  8
3
100
AcDbLine
 10
-2.945374015748032
 20
-0.1532972440944884
 30
0.0
 11
-2.941683070866141
 21
-0.1471456692913384
 31
0.0
  0
LINE
  5
275F
330
1E
100
AcDbEntity
  8
3
100
AcDbLine
 10
-2.941683070866141
 20
-0.1471456692913384
 30
0.0
 11
-2.939222440944881
 21
-0.1397637795275588
 31
0.0
  0
LINE
  5
2760
330
1E
100
AcDbEntity
  8
3
100
AcDbLine
 10
-2.939222440944881
 20
-0.1397637795275588
 30
0.0
 11
-2.936761811023622
 21
-0.1336122047244097
 31
0.0
  0
LINE
  5
2761
330
1E
100
AcDbEntity
  8
3
100
AcDbLine
 10
-2.936761811023622
 20
-0.1336122047244097
 30
0.0
 11
-2.931840551181102
 21
-0.1225393700787403
 31
0.0
  0
LINE
  5
2762
330
1E
100
AcDbEntity
  8
3
100
AcDbLine
 10
-2.931840551181102
 20
-0.1225393700787403
 30
0.0
 11
-2.930610236220473
 21
-0.1176181102362204
 31
0.0
  0
LINE
  5
2763
330
1E
100
AcDbEntity
  8
3
100
AcDbLine
 10
-2.930610236220473
 20
-0.1176181102362204
 30
0.0
 11
-2.929379921259842
 21
-0.1151574803149606
 31
0.0
  0
LINE
  5
2764
330
1E
100
AcDbEntity
  8
3
100
AcDbLine
 10
-2.929379921259842
 20
-0.1151574803149606
 30
0.0
 11
-2.928149606299212
 21
-0.1139271653543306
 31
0.0
  0
LINE
  5
2765
330
1E
100
AcDbEntity
  8
3
100
AcDbLine
 10
-2.928149606299212
 20
-0.1139271653543306
 30
0.0
 11
-2.926919291338583
 21
-0.1102362204724412
 31
0.0
  0
LINE
  5
2766
330
1E
100
AcDbEntity
  8
3
100
AcDbLine
 10
-2.926919291338583
 20
-0.1102362204724412
 30
0.0
 11
-2.925688976377953
 21
-0.1065452755905509
 31
0.0
  0
LINE
  5
2767
330
1E
100
AcDbEntity
  8
3
100
AcDbLine
 10
-2.925688976377953
 20
-0.1065452755905509
 30
0.0
 11
-2.924458661417322
 21
-0.1028543307086616
 31
0.0
  0
LINE
  5
2768
330
1E
100
AcDbEntity
  8
3
100
AcDbLine
 10
-3.158218503937007
 20
-0.1102362204724412
 30
0.0
 11
-3.156988188976377
 21
-0.1040846456692912
 31
0.0
  0
LINE
  5
2769
330
1E
100
AcDbEntity
  8
3
100
AcDbLine
 10
-3.156988188976377
 20
-0.1040846456692912
 30
0.0
 11
-3.155757874015748
 21
-0.1028543307086616
 31
0.0
  0
LINE
  5
276A
330
1E
100
AcDbEntity
  8
3
100
AcDbLine
 10
-3.155757874015748
 20
-0.1028543307086616
 30
0.0
 11
-3.154527559055117
 21
-0.1003937007874014
 31
0.0
  0
LINE
  5
276B
330
1E
100
AcDbEntity
  8
3
100
AcDbLine
 10
-3.154527559055117
 20
-0.1003937007874014
 30
0.0
 11
-3.153297244094487
 21
-0.0967027559055116
 31
0.0
  0
LINE
  5
276C
330
1E
100
AcDbEntity
  8
3
100
AcDbLine
 10
-3.153297244094487
 20
-0.0967027559055116
 30
0.0
 11
-3.152066929133858
 21
-0.0930118110236222
 31
0.0
  0
LINE
  5
276D
330
1E
100
AcDbEntity
  8
3
100
AcDbLine
 10
-3.152066929133858
 20
-0.0930118110236222
 30
0.0
 11
-3.150836614173228
 21
-0.0905511811023625
 31
0.0
  0
LINE
  5
276E
330
1E
100
AcDbEntity
  8
3
100
AcDbLine
 10
-3.176673228346456
 20
-0.1508366141732282
 30
0.0
 11
-3.176673228346456
 21
-0.1496062992125986
 31
0.0
  0
LINE
  5
276F
330
1E
100
AcDbEntity
  8
3
100
AcDbLine
 10
-3.176673228346456
 20
-0.1496062992125986
 30
0.0
 11
-3.175442913385826
 21
-0.148375984251969
 31
0.0
  0
LINE
  5
2770
330
1E
100
AcDbEntity
  8
3
100
AcDbLine
 10
-3.175442913385826
 20
-0.148375984251969
 30
0.0
 11
-3.174212598425196
 21
-0.1471456692913384
 31
0.0
  0
LINE
  5
2771
330
1E
100
AcDbEntity
  8
3
100
AcDbLine
 10
-3.174212598425196
 20
-0.1471456692913384
 30
0.0
 11
-3.172982283464566
 21
-0.1434547244094491
 31
0.0
  0
LINE
  5
2772
330
1E
100
AcDbEntity
  8
3
100
AcDbLine
 10
-3.172982283464566
 20
-0.1434547244094491
 30
0.0
 11
-3.171751968503937
 21
-0.1397637795275588
 31
0.0
  0
LINE
  5
2773
330
1E
100
AcDbEntity
  8
3
100
AcDbLine
 10
-3.171751968503937
 20
-0.1397637795275588
 30
0.0
 11
-3.169291338582676
 21
-0.1336122047244097
 31
0.0
  0
LINE
  5
2774
330
1E
100
AcDbEntity
  8
3
100
AcDbLine
 10
-3.169291338582676
 20
-0.1336122047244097
 30
0.0
 11
-3.165600393700787
 21
-0.1274606299212597
 31
0.0
  0
LINE
  5
2775
330
1E
100
AcDbEntity
  8
3
100
AcDbLine
 10
-3.165600393700787
 20
-0.1274606299212597
 30
0.0
 11
-3.163139763779527
 21
-0.1200787401574801
 31
0.0
  0
LINE
  5
2776
330
1E
100
AcDbEntity
  8
3
100
AcDbLine
 10
-3.163139763779527
 20
-0.1200787401574801
 30
0.0
 11
-3.158218503937007
 21
-0.1102362204724412
 31
0.0
  0
LINE
  5
2777
330
1E
100
AcDbEntity
  8
3
100
AcDbLine
 10
-3.400590551181102
 20
-0.1323818897637796
 30
0.0
 11
-3.399360236220473
 21
-0.1299212598425199
 31
0.0
  0
LINE
  5
2778
330
1E
100
AcDbEntity
  8
3
100
AcDbLine
 10
-3.399360236220473
 20
-0.1299212598425199
 30
0.0
 11
-3.396899606299212
 21
-0.1225393700787403
 31
0.0
  0
LINE
  5
2779
330
1E
100
AcDbEntity
  8
3
100
AcDbLine
 10
-3.396899606299212
 20
-0.1225393700787403
 30
0.0
 11
-3.393208661417322
 21
-0.1151574803149606
 31
0.0
  0
LINE
  5
277A
330
1E
100
AcDbEntity
  8
3
100
AcDbLine
 10
-3.393208661417322
 20
-0.1151574803149606
 30
0.0
 11
-3.389517716535433
 21
-0.1053149606299213
 31
0.0
  0
LINE
  5
277B
330
1E
100
AcDbEntity
  8
3
100
AcDbLine
 10
-3.389517716535433
 20
-0.1053149606299213
 30
0.0
 11
-3.384596456692913
 21
-0.0930118110236222
 31
0.0
  0
LINE
  5
277C
330
1E
100
AcDbEntity
  8
3
100
AcDbLine
 10
-3.384596456692913
 20
-0.0930118110236222
 30
0.0
 11
-3.382135826771653
 21
-0.0880905511811023
 31
0.0
  0
LINE
  5
277D
330
1E
100
AcDbEntity
  8
3
100
AcDbLine
 10
-3.382135826771653
 20
-0.0880905511811023
 30
0.0
 11
-3.379675196850393
 21
-0.0831692913385829
 31
0.0
  0
LINE
  5
277E
330
1E
100
AcDbEntity
  8
3
100
AcDbLine
 10
-3.379675196850393
 20
-0.0831692913385829
 30
0.0
 11
-3.378444881889763
 21
-0.0794783464566926
 31
0.0
  0
LINE
  5
277F
330
1E
100
AcDbEntity
  8
3
100
AcDbLine
 10
-3.378444881889763
 20
-0.0794783464566926
 30
0.0
 11
-3.377214566929134
 21
-0.078248031496063
 31
0.0
  0
LINE
  5
2780
330
1E
100
AcDbEntity
  8
3
100
AcDbLine
 10
-3.377214566929134
 20
-0.078248031496063
 30
0.0
 11
-3.377214566929134
 21
-0.0770177165354329
 31
0.0
  0
LINE
  5
2781
330
1E
100
AcDbEntity
  8
3
100
AcDbLine
 10
-3.377214566929134
 20
-0.0770177165354329
 30
0.0
 11
-3.375984251968504
 21
-0.0757874015748032
 31
0.0
  0
LINE
  5
2782
330
1E
100
AcDbEntity
  8
3
100
AcDbLine
 10
-3.403051181102362
 20
-0.1373031496062991
 30
0.0
 11
-3.403051181102362
 21
-0.136072834645669
 31
0.0
  0
LINE
  5
2783
330
1E
100
AcDbEntity
  8
3
100
AcDbLine
 10
-3.403051181102362
 20
-0.136072834645669
 30
0.0
 11
-3.401820866141732
 21
-0.1348425196850393
 31
0.0
  0
LINE
  5
2784
330
1E
100
AcDbEntity
  8
3
100
AcDbLine
 10
-3.401820866141732
 20
-0.1348425196850393
 30
0.0
 11
-3.400590551181102
 21
-0.1323818897637796
 31
0.0
  0
LINE
  5
2785
330
1E
100
AcDbEntity
  8
3
100
AcDbLine
 10
-3.629429133858268
 20
-0.1237696850393699
 30
0.0
 11
-3.629429133858268
 21
-0.1225393700787403
 31
0.0
  0
LINE
  5
2786
330
1E
100
AcDbEntity
  8
3
100
AcDbLine
 10
-3.629429133858268
 20
-0.1225393700787403
 30
0.0
 11
-3.628198818897637
 21
-0.1213090551181097
 31
0.0
  0
LINE
  5
2787
330
1E
100
AcDbEntity
  8
3
100
AcDbLine
 10
-3.628198818897637
 20
-0.1213090551181097
 30
0.0
 11
-3.628198818897637
 21
-0.1200787401574801
 31
0.0
  0
LINE
  5
2788
330
1E
100
AcDbEntity
  8
3
100
AcDbLine
 10
-3.628198818897637
 20
-0.1200787401574801
 30
0.0
 11
-3.626968503937007
 21
-0.1176181102362204
 31
0.0
  0
LINE
  5
2789
330
1E
100
AcDbEntity
  8
3
100
AcDbLine
 10
-3.626968503937007
 20
-0.1176181102362204
 30
0.0
 11
-3.625738188976377
 21
-0.1163877952755903
 31
0.0
  0
LINE
  5
278A
330
1E
100
AcDbEntity
  8
3
100
AcDbLine
 10
-3.625738188976377
 20
-0.1163877952755903
 30
0.0
 11
-3.623277559055117
 21
-0.1090059055118107
 31
0.0
  0
LINE
  5
278B
330
1E
100
AcDbEntity
  8
3
100
AcDbLine
 10
-3.623277559055117
 20
-0.1090059055118107
 30
0.0
 11
-3.618356299212598
 21
-0.0991633858267713
 31
0.0
  0
LINE
  5
278C
330
1E
100
AcDbEntity
  8
3
100
AcDbLine
 10
-3.618356299212598
 20
-0.0991633858267713
 30
0.0
 11
-3.614665354330709
 21
-0.089320866141732
 31
0.0
  0
LINE
  5
278D
330
1E
100
AcDbEntity
  8
3
100
AcDbLine
 10
-3.614665354330709
 20
-0.089320866141732
 30
0.0
 11
-3.610974409448819
 21
-0.0807086614173227
 31
0.0
  0
LINE
  5
278E
330
1E
100
AcDbEntity
  8
3
100
AcDbLine
 10
-3.610974409448819
 20
-0.0807086614173227
 30
0.0
 11
-3.607283464566928
 21
-0.0733267716535435
 31
0.0
  0
LINE
  5
278F
330
1E
100
AcDbEntity
  8
3
100
AcDbLine
 10
-3.607283464566928
 20
-0.0733267716535435
 30
0.0
 11
-3.607283464566928
 21
-0.0720964566929134
 31
0.0
  0
LINE
  5
2790
330
1E
100
AcDbEntity
  8
3
100
AcDbLine
 10
-3.607283464566928
 20
-0.0720964566929134
 30
0.0
 11
-3.606053149606299
 21
-0.0708661417322838
 31
0.0
  0
LINE
  5
2791
330
1E
100
AcDbEntity
  8
3
100
AcDbLine
 10
-3.606053149606299
 20
-0.0708661417322838
 30
0.0
 11
-3.606053149606299
 21
-0.0696358267716533
 31
0.0
  0
LINE
  5
2792
330
1E
100
AcDbEntity
  8
3
100
AcDbLine
 10
-3.606053149606299
 20
-0.0696358267716533
 30
0.0
 11
-3.606053149606299
 21
-0.0684055118110236
 31
0.0
  0
LINE
  5
2793
330
1E
100
AcDbEntity
  8
3
100
AcDbLine
 10
-3.606053149606299
 20
-0.0684055118110236
 30
0.0
 11
-3.604822834645669
 21
-0.0659448818897639
 31
0.0
  0
LINE
  5
2794
330
1E
100
AcDbEntity
  8
3
100
AcDbLine
 10
-3.447342519685038
 20
0.2465551181102357
 30
0.0
 11
-3.448572834645669
 21
0.2465551181102357
 31
0.0
  0
LINE
  5
2795
330
1E
100
AcDbEntity
  8
3
100
AcDbLine
 10
-3.448572834645669
 20
0.2465551181102357
 30
0.0
 11
-3.448572834645669
 21
0.245324803149606
 31
0.0
  0
LINE
  5
2796
330
1E
100
AcDbEntity
  8
3
100
AcDbLine
 10
-3.448572834645669
 20
0.245324803149606
 30
0.0
 11
-3.448572834645669
 21
0.2440944881889764
 31
0.0
  0
LINE
  5
2797
330
1E
100
AcDbEntity
  8
3
100
AcDbLine
 10
-3.448572834645669
 20
0.2440944881889764
 30
0.0
 11
-3.449803149606299
 21
0.2416338582677162
 31
0.0
  0
LINE
  5
2798
330
1E
100
AcDbEntity
  8
3
100
AcDbLine
 10
-3.449803149606299
 20
0.2416338582677162
 30
0.0
 11
-3.452263779527558
 21
0.2379429133858273
 31
0.0
  0
LINE
  5
2799
330
1E
100
AcDbEntity
  8
3
100
AcDbLine
 10
-3.452263779527558
 20
0.2379429133858273
 30
0.0
 11
-3.454724409448819
 21
0.2317913385826773
 31
0.0
  0
LINE
  5
279A
330
1E
100
AcDbEntity
  8
3
100
AcDbLine
 10
-3.454724409448819
 20
0.2317913385826773
 30
0.0
 11
-3.457185039370078
 21
0.223179133858268
 31
0.0
  0
LINE
  5
279B
330
1E
100
AcDbEntity
  8
3
100
AcDbLine
 10
-3.457185039370078
 20
0.223179133858268
 30
0.0
 11
-3.460875984251968
 21
0.2145669291338579
 31
0.0
  0
LINE
  5
279C
330
1E
100
AcDbEntity
  8
3
100
AcDbLine
 10
-3.460875984251968
 20
0.2145669291338579
 30
0.0
 11
-3.465797244094487
 21
0.204724409448819
 31
0.0
  0
LINE
  5
279D
330
1E
100
AcDbEntity
  8
3
100
AcDbLine
 10
-3.465797244094487
 20
0.204724409448819
 30
0.0
 11
-3.470718503937007
 21
0.1924212598425199
 31
0.0
  0
LINE
  5
279E
330
1E
100
AcDbEntity
  8
3
100
AcDbLine
 10
-3.470718503937007
 20
0.1924212598425199
 30
0.0
 11
-3.471948818897637
 21
0.1899606299212597
 31
0.0
  0
LINE
  5
279F
330
1E
100
AcDbEntity
  8
3
100
AcDbLine
 10
-3.241879921259842
 20
0.2071850393700783
 30
0.0
 11
-3.243110236220473
 21
0.2034940944881893
 31
0.0
  0
LINE
  5
27A0
330
1E
100
AcDbEntity
  8
3
100
AcDbLine
 10
-3.243110236220473
 20
0.2034940944881893
 30
0.0
 11
-3.245570866141732
 21
0.1985728346456699
 31
0.0
  0
LINE
  5
27A1
330
1E
100
AcDbEntity
  8
3
100
AcDbLine
 10
-3.220964566929134
 20
0.2551673228346458
 30
0.0
 11
-3.220964566929134
 21
0.2539370078740153
 31
0.0
  0
LINE
  5
27A2
330
1E
100
AcDbEntity
  8
3
100
AcDbLine
 10
-3.220964566929134
 20
0.2539370078740153
 30
0.0
 11
-3.222194881889763
 21
0.251476377952756
 31
0.0
  0
LINE
  5
27A3
330
1E
100
AcDbEntity
  8
3
100
AcDbLine
 10
-3.222194881889763
 20
0.251476377952756
 30
0.0
 11
-3.223425196850393
 21
0.2490157480314958
 31
0.0
  0
LINE
  5
27A4
330
1E
100
AcDbEntity
  8
3
100
AcDbLine
 10
-3.223425196850393
 20
0.2490157480314958
 30
0.0
 11
-3.225885826771653
 21
0.245324803149606
 31
0.0
  0
LINE
  5
27A5
330
1E
100
AcDbEntity
  8
3
100
AcDbLine
 10
-3.225885826771653
 20
0.245324803149606
 30
0.0
 11
-3.228346456692913
 21
0.2404035433070866
 31
0.0
  0
LINE
  5
27A6
330
1E
100
AcDbEntity
  8
3
100
AcDbLine
 10
-3.228346456692913
 20
0.2404035433070866
 30
0.0
 11
-3.230807086614173
 21
0.2330216535433069
 31
0.0
  0
LINE
  5
27A7
330
1E
100
AcDbEntity
  8
3
100
AcDbLine
 10
-3.230807086614173
 20
0.2330216535433069
 30
0.0
 11
-3.235728346456692
 21
0.2207185039370079
 31
0.0
  0
LINE
  5
27A8
330
1E
100
AcDbEntity
  8
3
100
AcDbLine
 10
-3.235728346456692
 20
0.2207185039370079
 30
0.0
 11
-3.239419291338583
 21
0.210875984251969
 31
0.0
  0
LINE
  5
27A9
330
1E
100
AcDbEntity
  8
3
100
AcDbLine
 10
-3.239419291338583
 20
0.210875984251969
 30
0.0
 11
-3.240649606299212
 21
0.2096456692913384
 31
0.0
  0
LINE
  5
27AA
330
1E
100
AcDbEntity
  8
3
100
AcDbLine
 10
-3.240649606299212
 20
0.2096456692913384
 30
0.0
 11
-3.241879921259842
 21
0.2071850393700783
 31
0.0
  0
LINE
  5
27AB
330
1E
100
AcDbEntity
  8
3
100
AcDbLine
 10
-3.004429133858268
 20
0.2416338582677162
 30
0.0
 11
-3.006889763779527
 21
0.2342519685039366
 31
0.0
  0
LINE
  5
27AC
330
1E
100
AcDbEntity
  8
3
100
AcDbLine
 10
-3.006889763779527
 20
0.2342519685039366
 30
0.0
 11
-3.010580708661417
 21
0.2256397637795282
 31
0.0
  0
LINE
  5
27AD
330
1E
100
AcDbEntity
  8
3
100
AcDbLine
 10
-3.010580708661417
 20
0.2256397637795282
 30
0.0
 11
-3.014271653543307
 21
0.2170275590551181
 31
0.0
  0
LINE
  5
27AE
330
1E
100
AcDbEntity
  8
3
100
AcDbLine
 10
-3.014271653543307
 20
0.2170275590551181
 30
0.0
 11
-3.015501968503937
 21
0.2121062992125986
 31
0.0
  0
LINE
  5
27AF
330
1E
100
AcDbEntity
  8
3
100
AcDbLine
 10
-2.990895669291338
 20
0.2736220472440949
 30
0.0
 11
-2.992125984251968
 21
0.2723917322834644
 31
0.0
  0
LINE
  5
27B0
330
1E
100
AcDbEntity
  8
3
100
AcDbLine
 10
-2.992125984251968
 20
0.2723917322834644
 30
0.0
 11
-2.992125984251968
 21
0.2711614173228347
 31
0.0
  0
LINE
  5
27B1
330
1E
100
AcDbEntity
  8
3
100
AcDbLine
 10
-2.992125984251968
 20
0.2711614173228347
 30
0.0
 11
-2.993356299212598
 21
0.2699311023622051
 31
0.0
  0
LINE
  5
27B2
330
1E
100
AcDbEntity
  8
3
100
AcDbLine
 10
-2.993356299212598
 20
0.2699311023622051
 30
0.0
 11
-2.993356299212598
 21
0.2674704724409449
 31
0.0
  0
LINE
  5
27B3
330
1E
100
AcDbEntity
  8
3
100
AcDbLine
 10
-2.993356299212598
 20
0.2674704724409449
 30
0.0
 11
-2.995816929133858
 21
0.2625492125984254
 31
0.0
  0
LINE
  5
27B4
330
1E
100
AcDbEntity
  8
3
100
AcDbLine
 10
-2.995816929133858
 20
0.2625492125984254
 30
0.0
 11
-2.999507874015748
 21
0.2539370078740153
 31
0.0
  0
LINE
  5
27B5
330
1E
100
AcDbEntity
  8
3
100
AcDbLine
 10
-2.999507874015748
 20
0.2539370078740153
 30
0.0
 11
-3.004429133858268
 21
0.2416338582677162
 31
0.0
  0
LINE
  5
27B6
330
1E
100
AcDbEntity
  8
3
100
AcDbLine
 10
-2.763287401574802
 20
0.2859251968503931
 30
0.0
 11
-2.764517716535433
 21
0.2822342519685042
 31
0.0
  0
LINE
  5
27B7
330
1E
100
AcDbEntity
  8
3
100
AcDbLine
 10
-2.764517716535433
 20
0.2822342519685042
 30
0.0
 11
-2.768208661417323
 21
0.2748523622047245
 31
0.0
  0
LINE
  5
27B8
330
1E
100
AcDbEntity
  8
3
100
AcDbLine
 10
-2.768208661417323
 20
0.2748523622047245
 30
0.0
 11
-2.770669291338582
 21
0.2674704724409449
 31
0.0
  0
LINE
  5
27B9
330
1E
100
AcDbEntity
  8
3
100
AcDbLine
 10
-2.770669291338582
 20
0.2674704724409449
 30
0.0
 11
-2.774360236220472
 21
0.257627952755906
 31
0.0
  0
LINE
  5
27BA
330
1E
100
AcDbEntity
  8
3
100
AcDbLine
 10
-2.774360236220472
 20
0.257627952755906
 30
0.0
 11
-2.779281496062992
 21
0.2465551181102357
 31
0.0
  0
LINE
  5
27BB
330
1E
100
AcDbEntity
  8
3
100
AcDbLine
 10
-2.779281496062992
 20
0.2465551181102357
 30
0.0
 11
-2.784202755905512
 21
0.2342519685039366
 31
0.0
  0
LINE
  5
27BC
330
1E
100
AcDbEntity
  8
3
100
AcDbLine
 10
-2.784202755905512
 20
0.2342519685039366
 30
0.0
 11
-2.789124015748031
 21
0.223179133858268
 31
0.0
  0
LINE
  5
27BD
330
1E
100
AcDbEntity
  8
3
100
AcDbLine
 10
-2.535679133858267
 20
0.2945374015748032
 30
0.0
 11
-2.536909448818897
 21
0.2945374015748032
 31
0.0
  0
LINE
  5
27BE
330
1E
100
AcDbEntity
  8
3
100
AcDbLine
 10
-2.536909448818897
 20
0.2945374015748032
 30
0.0
 11
-2.538139763779527
 21
0.2920767716535431
 31
0.0
  0
LINE
  5
27BF
330
1E
100
AcDbEntity
  8
3
100
AcDbLine
 10
-2.538139763779527
 20
0.2920767716535431
 30
0.0
 11
-2.539370078740157
 21
0.2896161417322838
 31
0.0
  0
LINE
  5
27C0
330
1E
100
AcDbEntity
  8
3
100
AcDbLine
 10
-2.539370078740157
 20
0.2896161417322838
 30
0.0
 11
-2.540600393700787
 21
0.2871555118110236
 31
0.0
  0
LINE
  5
27C1
330
1E
100
AcDbEntity
  8
3
100
AcDbLine
 10
-2.540600393700787
 20
0.2871555118110236
 30
0.0
 11
-2.540600393700787
 21
0.2846948818897634
 31
0.0
  0
LINE
  5
27C2
330
1E
100
AcDbEntity
  8
3
100
AcDbLine
 10
-2.540600393700787
 20
0.2846948818897634
 30
0.0
 11
-2.544291338582676
 21
0.2773129921259847
 31
0.0
  0
LINE
  5
27C3
330
1E
100
AcDbEntity
  8
3
100
AcDbLine
 10
-2.544291338582676
 20
0.2773129921259847
 30
0.0
 11
-2.545521653543307
 21
0.2723917322834644
 31
0.0
  0
LINE
  5
27C4
330
1E
100
AcDbEntity
  8
3
100
AcDbLine
 10
-2.545521653543307
 20
0.2723917322834644
 30
0.0
 11
-2.547982283464566
 21
0.2662401574803153
 31
0.0
  0
LINE
  5
27C5
330
1E
100
AcDbEntity
  8
3
100
AcDbLine
 10
-2.547982283464566
 20
0.2662401574803153
 30
0.0
 11
-2.551673228346456
 21
0.2588582677165356
 31
0.0
  0
LINE
  5
27C6
330
1E
100
AcDbEntity
  8
3
100
AcDbLine
 10
-2.551673228346456
 20
0.2588582677165356
 30
0.0
 11
-2.554133858267716
 21
0.251476377952756
 31
0.0
  0
LINE
  5
27C7
330
1E
100
AcDbEntity
  8
3
100
AcDbLine
 10
-2.554133858267716
 20
0.251476377952756
 30
0.0
 11
-2.557824803149606
 21
0.2428641732283467
 31
0.0
  0
LINE
  5
27C8
330
1E
100
AcDbEntity
  8
3
100
AcDbLine
 10
-2.557824803149606
 20
0.2428641732283467
 30
0.0
 11
-2.561515748031495
 21
0.2342519685039366
 31
0.0
  0
LINE
  5
27C9
330
1E
100
AcDbEntity
  8
3
100
AcDbLine
 10
-2.674704724409449
 20
-0.1126968503937009
 30
0.0
 11
-2.671013779527559
 21
-0.1237696850393699
 31
0.0
  0
LINE
  5
27CA
330
1E
100
AcDbEntity
  8
3
100
AcDbLine
 10
-2.671013779527559
 20
-0.1237696850393699
 30
0.0
 11
-2.666092519685038
 21
-0.1348425196850393
 31
0.0
  0
LINE
  5
27CB
330
1E
100
AcDbEntity
  8
3
100
AcDbLine
 10
-2.666092519685038
 20
-0.1348425196850393
 30
0.0
 11
-2.662401574803149
 21
-0.1446850393700787
 31
0.0
  0
LINE
  5
27CC
330
1E
100
AcDbEntity
  8
3
100
AcDbLine
 10
-2.662401574803149
 20
-0.1446850393700787
 30
0.0
 11
-2.659940944881889
 21
-0.1520669291338583
 31
0.0
  0
LINE
  5
27CD
330
1E
100
AcDbEntity
  8
3
100
AcDbLine
 10
-2.659940944881889
 20
-0.1520669291338583
 30
0.0
 11
-2.657480314960629
 21
-0.1569881889763778
 31
0.0
  0
LINE
  5
27CE
330
1E
100
AcDbEntity
  8
3
100
AcDbLine
 10
-2.657480314960629
 20
-0.1569881889763778
 30
0.0
 11
-2.65501968503937
 21
-0.1631397637795278
 31
0.0
  0
LINE
  5
27CF
330
1E
100
AcDbEntity
  8
3
100
AcDbLine
 10
-2.65501968503937
 20
-0.1631397637795278
 30
0.0
 11
-2.65255905511811
 21
-0.1692913385826773
 31
0.0
  0
LINE
  5
27D0
330
1E
100
AcDbEntity
  8
3
100
AcDbLine
 10
-2.902312992125984
 20
-0.1028543307086616
 30
0.0
 11
-2.899852362204724
 21
-0.1102362204724412
 31
0.0
  0
LINE
  5
27D1
330
1E
100
AcDbEntity
  8
3
100
AcDbLine
 10
-2.899852362204724
 20
-0.1102362204724412
 30
0.0
 11
-2.894931102362204
 21
-0.1213090551181097
 31
0.0
  0
LINE
  5
27D2
330
1E
100
AcDbEntity
  8
3
100
AcDbLine
 10
-2.894931102362204
 20
-0.1213090551181097
 30
0.0
 11
-2.891240157480314
 21
-0.1299212598425199
 31
0.0
  0
LINE
  5
27D3
330
1E
100
AcDbEntity
  8
3
100
AcDbLine
 10
-2.891240157480314
 20
-0.1299212598425199
 30
0.0
 11
-2.888779527559054
 21
-0.1373031496062991
 31
0.0
  0
LINE
  5
27D4
330
1E
100
AcDbEntity
  8
3
100
AcDbLine
 10
-2.888779527559054
 20
-0.1373031496062991
 30
0.0
 11
-2.886318897637795
 21
-0.142224409448819
 31
0.0
  0
LINE
  5
27D5
330
1E
100
AcDbEntity
  8
3
100
AcDbLine
 10
-2.886318897637795
 20
-0.142224409448819
 30
0.0
 11
-2.883858267716535
 21
-0.1471456692913384
 31
0.0
  0
LINE
  5
27D6
330
1E
100
AcDbEntity
  8
3
100
AcDbLine
 10
-2.883858267716535
 20
-0.1471456692913384
 30
0.0
 11
-2.881397637795275
 21
-0.1557578740157477
 31
0.0
  0
LINE
  5
27D7
330
1E
100
AcDbEntity
  8
3
100
AcDbLine
 10
-3.129921259842519
 20
-0.0917814960629922
 30
0.0
 11
-3.12623031496063
 21
-0.0991633858267713
 31
0.0
  0
LINE
  5
27D8
330
1E
100
AcDbEntity
  8
3
100
AcDbLine
 10
-3.12623031496063
 20
-0.0991633858267713
 30
0.0
 11
-3.121309055118111
 21
-0.1126968503937009
 31
0.0
  0
LINE
  5
27D9
330
1E
100
AcDbEntity
  8
3
100
AcDbLine
 10
-3.121309055118111
 20
-0.1126968503937009
 30
0.0
 11
-3.11638779527559
 21
-0.1237696850393699
 31
0.0
  0
LINE
  5
27DA
330
1E
100
AcDbEntity
  8
3
100
AcDbLine
 10
-3.11638779527559
 20
-0.1237696850393699
 30
0.0
 11
-3.1126968503937
 21
-0.1323818897637796
 31
0.0
  0
LINE
  5
27DB
330
1E
100
AcDbEntity
  8
3
100
AcDbLine
 10
-3.1126968503937
 20
-0.1323818897637796
 30
0.0
 11
-3.11023622047244
 21
-0.1385334645669292
 31
0.0
  0
LINE
  5
27DC
330
1E
100
AcDbEntity
  8
3
100
AcDbLine
 10
-3.11023622047244
 20
-0.1385334645669292
 30
0.0
 11
-3.109005905511811
 21
-0.1409940944881884
 31
0.0
  0
LINE
  5
27DD
330
1E
100
AcDbEntity
  8
3
100
AcDbLine
 10
-3.357529527559055
 20
-0.0794783464566926
 30
0.0
 11
-3.356299212598425
 21
-0.0831692913385829
 31
0.0
  0
LINE
  5
27DE
330
1E
100
AcDbEntity
  8
3
100
AcDbLine
 10
-3.356299212598425
 20
-0.0831692913385829
 30
0.0
 11
-3.352608267716535
 21
-0.0930118110236222
 31
0.0
  0
LINE
  5
27DF
330
1E
100
AcDbEntity
  8
3
100
AcDbLine
 10
-3.352608267716535
 20
-0.0930118110236222
 30
0.0
 11
-3.348917322834645
 21
-0.101624015748031
 31
0.0
  0
LINE
  5
27E0
330
1E
100
AcDbEntity
  8
3
100
AcDbLine
 10
-3.348917322834645
 20
-0.101624015748031
 30
0.0
 11
-3.345226377952755
 21
-0.1090059055118107
 31
0.0
  0
LINE
  5
27E1
330
1E
100
AcDbEntity
  8
3
100
AcDbLine
 10
-3.345226377952755
 20
-0.1090059055118107
 30
0.0
 11
-3.342765748031496
 21
-0.1163877952755903
 31
0.0
  0
LINE
  5
27E2
330
1E
100
AcDbEntity
  8
3
100
AcDbLine
 10
-3.342765748031496
 20
-0.1163877952755903
 30
0.0
 11
-3.340305118110236
 21
-0.1213090551181097
 31
0.0
  0
LINE
  5
27E3
330
1E
100
AcDbEntity
  8
3
100
AcDbLine
 10
-3.340305118110236
 20
-0.1213090551181097
 30
0.0
 11
-3.337844488188976
 21
-0.1274606299212597
 31
0.0
  0
LINE
  5
27E4
330
1E
100
AcDbEntity
  8
3
100
AcDbLine
 10
-3.58513779527559
 20
-0.0696358267716533
 30
0.0
 11
-3.58390748031496
 21
-0.0733267716535435
 31
0.0
  0
LINE
  5
27E5
330
1E
100
AcDbEntity
  8
3
100
AcDbLine
 10
-3.58390748031496
 20
-0.0733267716535435
 30
0.0
 11
-3.577755905511811
 21
-0.0868602362204723
 31
0.0
  0
LINE
  5
27E6
330
1E
100
AcDbEntity
  8
3
100
AcDbLine
 10
-3.577755905511811
 20
-0.0868602362204723
 30
0.0
 11
-3.572834645669291
 21
-0.0979330708661417
 31
0.0
  0
LINE
  5
27E7
330
1E
100
AcDbEntity
  8
3
100
AcDbLine
 10
-3.572834645669291
 20
-0.0979330708661417
 30
0.0
 11
-3.5691437007874
 21
-0.107775590551181
 31
0.0
  0
LINE
  5
27E8
330
1E
100
AcDbEntity
  8
3
100
AcDbLine
 10
-1.507135826771653
 20
-0.1311515748031495
 30
0.0
 11
-1.507135826771653
 21
-0.0819389763779524
 31
0.0
  0
LINE
  5
27E9
330
1E
100
AcDbEntity
  8
3
100
AcDbLine
 10
-1.507135826771653
 20
-0.0819389763779524
 30
0.0
 11
-1.507135826771653
 21
-0.0278051181102361
 31
0.0
  0
LINE
  5
27EA
330
1E
100
AcDbEntity
  8
3
100
AcDbLine
 10
-1.507135826771653
 20
-0.0278051181102361
 30
0.0
 11
-1.507135826771653
 21
0.0287893700787403
 31
0.0
  0
LINE
  5
27EB
330
1E
100
AcDbEntity
  8
3
100
AcDbLine
 10
-1.507135826771653
 20
0.0287893700787403
 30
0.0
 11
-1.507135826771653
 21
0.0866141732283468
 31
0.0
  0
LINE
  5
27EC
330
1E
100
AcDbEntity
  8
3
100
AcDbLine
 10
-1.507135826771653
 20
0.0866141732283468
 30
0.0
 11
-1.507135826771653
 21
0.1432086614173227
 31
0.0
  0
LINE
  5
27ED
330
1E
100
AcDbEntity
  8
3
100
AcDbLine
 10
-1.507135826771653
 20
0.1432086614173227
 30
0.0
 11
-1.507135826771653
 21
0.1973425196850394
 31
0.0
  0
LINE
  5
27EE
330
1E
100
AcDbEntity
  8
3
100
AcDbLine
 10
-1.507135826771653
 20
0.1973425196850394
 30
0.0
 11
-1.507135826771653
 21
0.2465551181102357
 31
0.0
  0
LINE
  5
27EF
330
1E
100
AcDbEntity
  8
3
100
AcDbLine
 10
-1.507135826771653
 20
0.2465551181102357
 30
0.0
 11
-1.507135826771653
 21
0.2896161417322838
 31
0.0
  0
LINE
  5
27F0
330
1E
100
AcDbEntity
  8
3
100
AcDbLine
 10
-1.507135826771653
 20
0.2896161417322838
 30
0.0
 11
-1.507135826771653
 21
0.3240649606299208
 31
0.0
  0
LINE
  5
27F1
330
1E
100
AcDbEntity
  8
3
100
AcDbLine
 10
-1.507135826771653
 20
0.3240649606299208
 30
0.0
 11
-1.507135826771653
 21
0.3499015748031495
 31
0.0
  0
LINE
  5
27F2
330
1E
100
AcDbEntity
  8
3
100
AcDbLine
 10
-1.507135826771653
 20
0.3499015748031495
 30
0.0
 11
-1.507135826771653
 21
0.3658956692913384
 31
0.0
  0
LINE
  5
27F3
330
1E
100
AcDbEntity
  8
3
100
AcDbLine
 10
-1.507135826771653
 20
0.3658956692913384
 30
0.0
 11
-1.507135826771653
 21
0.3708169291338579
 31
0.0
  0
LINE
  5
27F4
330
1E
100
AcDbEntity
  8
3
100
AcDbLine
 10
-1.507135826771653
 20
-0.2554133858267713
 30
0.0
 11
-1.507135826771653
 21
-0.2504921259842519
 31
0.0
  0
LINE
  5
27F5
330
1E
100
AcDbEntity
  8
3
100
AcDbLine
 10
-1.507135826771653
 20
-0.2504921259842519
 30
0.0
 11
-1.507135826771653
 21
-0.234498031496063
 31
0.0
  0
LINE
  5
27F6
330
1E
100
AcDbEntity
  8
3
100
AcDbLine
 10
-1.507135826771653
 20
-0.234498031496063
 30
0.0
 11
-1.507135826771653
 21
-0.2086614173228347
 31
0.0
  0
LINE
  5
27F7
330
1E
100
AcDbEntity
  8
3
100
AcDbLine
 10
-1.507135826771653
 20
-0.2086614173228347
 30
0.0
 11
-1.507135826771653
 21
-0.1742125984251968
 31
0.0
  0
LINE
  5
27F8
330
1E
100
AcDbEntity
  8
3
100
AcDbLine
 10
-1.507135826771653
 20
-0.1742125984251968
 30
0.0
 11
-1.507135826771653
 21
-0.1311515748031495
 31
0.0
  0
LINE
  5
27F9
330
1E
100
AcDbEntity
  8
3
100
AcDbLine
 10
-1.508366141732283
 20
0.3708169291338579
 30
0.0
 11
-1.515748031496062
 21
0.3905019685039366
 31
0.0
  0
LINE
  5
27FA
330
1E
100
AcDbEntity
  8
3
100
AcDbLine
 10
-1.515748031496062
 20
0.3905019685039366
 30
0.0
 11
-1.535433070866141
 21
0.4003444881889764
 31
0.0
  0
LINE
  5
27FB
330
1E
100
AcDbEntity
  8
3
100
AcDbLine
 10
-1.535433070866141
 20
-0.2849409448818903
 30
0.0
 11
-1.515748031496062
 21
-0.27509842519685
 31
0.0
  0
LINE
  5
27FC
330
1E
100
AcDbEntity
  8
3
100
AcDbLine
 10
-1.515748031496062
 20
-0.27509842519685
 30
0.0
 11
-1.508366141732283
 21
-0.2554133858267713
 31
0.0
  0
LINE
  5
27FD
330
1E
100
AcDbEntity
  8
3
100
AcDbLine
 10
-1.465305118110236
 20
-2.92642716535433
 30
0.0
 11
-1.486220472440944
 21
-2.93257874015748
 31
0.0
  0
LINE
  5
27FE
330
1E
100
AcDbEntity
  8
3
100
AcDbLine
 10
-1.486220472440944
 20
-2.93257874015748
 30
0.0
 11
-1.502214566929133
 21
-2.947342519685039
 31
0.0
  0
LINE
  5
27FF
330
1E
100
AcDbEntity
  8
3
100
AcDbLine
 10
-1.502214566929133
 20
-2.947342519685039
 30
0.0
 11
-1.508366141732283
 21
-2.969488188976377
 31
0.0
  0
LINE
  5
2800
330
1E
100
AcDbEntity
  8
3
100
AcDbLine
 10
-1.654773622047243
 20
-3.268454724409448
 30
0.0
 11
-1.669537401574802
 21
-3.274606299212598
 31
0.0
  0
LINE
  5
2801
330
1E
100
AcDbEntity
  8
3
100
AcDbLine
 10
-1.669537401574802
 20
-3.274606299212598
 30
0.0
 11
-1.675688976377952
 21
-3.289370078740157
 31
0.0
  0
LINE
  5
2802
330
1E
100
AcDbEntity
  8
3
100
AcDbLine
 10
-1.675688976377952
 20
-3.595718503937007
 30
0.0
 11
-1.669537401574802
 21
-3.610482283464566
 31
0.0
  0
LINE
  5
2803
330
1E
100
AcDbEntity
  8
3
100
AcDbLine
 10
-1.669537401574802
 20
-3.610482283464566
 30
0.0
 11
-1.654773622047243
 21
-3.616633858267716
 31
0.0
  0
LINE
  5
2804
330
1E
100
AcDbEntity
  8
3
100
AcDbLine
 10
-0.7603346456692913
 20
-3.015009842519684
 30
0.0
 11
-0.7591043307086615
 21
-3.017470472440944
 31
0.0
  0
LINE
  5
2805
330
1E
100
AcDbEntity
  8
3
100
AcDbLine
 10
-0.7591043307086615
 20
-3.017470472440944
 30
0.0
 11
-0.7566437007874017
 21
-3.018700787401574
 31
0.0
  0
LINE
  5
2806
330
1E
100
AcDbEntity
  8
3
100
AcDbLine
 10
-0.7566437007874017
 20
-3.86515748031496
 30
0.0
 11
-0.7591043307086615
 21
-3.86638779527559
 31
0.0
  0
LINE
  5
2807
330
1E
100
AcDbEntity
  8
3
100
AcDbLine
 10
-0.7591043307086615
 20
-3.86638779527559
 30
0.0
 11
-0.7603346456692913
 21
-3.86884842519685
 31
0.0
  0
LINE
  5
2808
330
1E
100
AcDbEntity
  8
3
100
AcDbLine
 10
-0.7652559055118111
 20
-2.916584645669291
 30
0.0
 11
-0.7714074803149607
 21
-2.903051181102361
 31
0.0
  0
LINE
  5
2809
330
1E
100
AcDbEntity
  8
3
100
AcDbLine
 10
-0.7714074803149607
 20
-2.903051181102361
 30
0.0
 11
-0.7861712598425197
 21
-2.896899606299212
 31
0.0
  0
LINE
  5
280A
330
1E
100
AcDbEntity
  8
3
100
AcDbLine
 10
-0.7861712598425197
 20
-3.988188976377952
 30
0.0
 11
-0.7714074803149607
 21
-3.982037401574802
 31
0.0
  0
LINE
  5
280B
330
1E
100
AcDbEntity
  8
3
100
AcDbLine
 10
-0.7714074803149607
 20
-3.982037401574802
 30
0.0
 11
-0.7652559055118111
 21
-3.968503937007874
 31
0.0
  0
LINE
  5
280C
330
1E
100
AcDbEntity
  8
3
100
AcDbLine
 10
-0.8218503937007874
 20
-2.896899606299212
 30
0.0
 11
-0.8366141732283464
 21
-2.903051181102361
 31
0.0
  0
LINE
  5
280D
330
1E
100
AcDbEntity
  8
3
100
AcDbLine
 10
-0.8366141732283464
 20
-2.903051181102361
 30
0.0
 11
-0.8427657480314961
 21
-2.91781496062992
 31
0.0
  0
LINE
  5
280E
330
1E
100
AcDbEntity
  8
3
100
AcDbLine
 10
-0.8427657480314961
 20
-3.967273622047243
 30
0.0
 11
-0.8366141732283464
 21
-3.982037401574802
 31
0.0
  0
LINE
  5
280F
330
1E
100
AcDbEntity
  8
3
100
AcDbLine
 10
-0.8366141732283464
 20
-3.982037401574802
 30
0.0
 11
-0.8218503937007874
 21
-3.988188976377952
 31
0.0
  0
LINE
  5
2810
330
1E
100
AcDbEntity
  8
3
100
AcDbLine
 10
-3.820127952755905
 20
0.2785433070866143
 30
0.0
 11
-3.845964566929134
 21
0.2699311023622051
 31
0.0
  0
LINE
  5
2811
330
1E
100
AcDbEntity
  8
3
100
AcDbLine
 10
-3.845964566929134
 20
0.2699311023622051
 30
0.0
 11
-3.864419291338583
 21
0.2502460629921264
 31
0.0
  0
LINE
  5
2812
330
1E
100
AcDbEntity
  8
3
100
AcDbLine
 10
-3.864419291338583
 20
0.2502460629921264
 30
0.0
 11
-3.871801181102362
 21
0.2244094488188977
 31
0.0
  0
LINE
  5
2813
330
1E
100
AcDbEntity
  8
3
100
AcDbLine
 10
-3.871801181102362
 20
-0.1090059055118107
 30
0.0
 11
-3.864419291338583
 21
-0.1348425196850393
 31
0.0
  0
LINE
  5
2814
330
1E
100
AcDbEntity
  8
3
100
AcDbLine
 10
-3.864419291338583
 20
-0.1348425196850393
 30
0.0
 11
-3.845964566929134
 21
-0.1545275590551181
 31
0.0
  0
ENDSEC
  0
SECTION
  2
OBJECTS
  0
DICTIONARY
  5
C
330
0
100
AcDbDictionary
281
     1
  3
ACAD_GROUP
350
D
  3
ACAD_LAYOUT
350
19
  3
ACAD_MLINESTYLE
350
16
  3
ACAD_PLOTSETTINGS
350
18
  3
ACAD_PLOTSTYLENAME
350
E
  0
DICTIONARY
  5
D
102
{ACAD_REACTORS
330
C
102
}
330
C
100
AcDbDictionary
281
     1
  0
DICTIONARY
  5
19
102
{ACAD_REACTORS
330
C
102
}
330
C
100
AcDbDictionary
281
     1
  3
Layout1
350
1D
  3
Model
350
21
  0
DICTIONARY
  5
16
102
{ACAD_REACTORS
330
C
102
}
330
C
100
AcDbDictionary
281
     1
  3
Standard
350
17
  0
DICTIONARY
  5
18
102
{ACAD_REACTORS
330
C
102
}
330
C
100
AcDbDictionary
281
     1
  0
ACDBDICTIONARYWDFLT
  5
E
102
{ACAD_REACTORS
330
C
102
}
330
C
100
AcDbDictionary
281
     1
  3
Normal
350
F
100
AcDbDictionaryWithDefault
340
F
  0
LAYOUT
  5
1D
102
{ACAD_REACTORS
330
19
102
}
330
19
100
AcDbPlotSettings
  1

  2
\\nseng\OPlaser1
  4

  6

 40
0.0
 41
0.0
 42
0.0
 43
0.0
 44
0.0
 45
0.0
 46
0.0
 47
0.0
 48
0.0
 49
0.0
140
0.0
141
0.0
142
1.0
143
1.0
 70
   688
 72
     0
 73
     0
 74
     5
  7

 75
    16
147
1.0
148
0.0
149
0.0
100
AcDbLayout
  1
Layout1
 70
     1
 71
     1
 10
0.0
 20
0.0
 11
12.0
 21
9.0
 12
0.0
 22
0.0
 32
0.0
 14
1.000000000000000E+20
 24
1.000000000000000E+20
 34
1.000000000000000E+20
 15
-1.000000000000000E+20
 25
-1.000000000000000E+20
 35
-1.000000000000000E+20
146
0.0
 13
0.0
 23
0.0
 33
0.0
 16
1.0
 26
0.0
 36
0.0
 17
0.0
 27
1.0
 37
0.0
 76
     0
330
1A
  0
LAYOUT
  5
21
102
{ACAD_REACTORS
330
19
102
}
330
19
100
AcDbPlotSettings
  1

  2
\\nseng\OPlaser1
  4

  6

 40
0.0
 41
0.0
 42
0.0
 43
0.0
 44
0.0
 45
0.0
 46
0.0
 47
0.0
 48
0.0
 49
0.0
140
0.0
141
0.0
142
1.0
143
1.0
 70
  1712
 72
     0
 73
     0
 74
     0
  7

 75
     0
147
1.0
148
0.0
149
0.0
100
AcDbLayout
  1
Model
 70
     1
 71
     0
 10
0.0
 20
0.0
 11
12.0
 21
9.0
 12
0.0
 22
0.0
 32
0.0
 14
0.0
 24
0.0
 34
0.0
 15
0.0
 25
0.0
 35
0.0
146
0.0
 13
0.0
 23
0.0
 33
0.0
 16
1.0
 26
0.0
 36
0.0
 17
0.0
 27
1.0
 37
0.0
 76
     0
330
1E
  0
MLINESTYLE
  5
17
102
{ACAD_REACTORS
330
16
102
}
330
16
100
AcDbMlineStyle
  2
STANDARD
 70
     0
  3

 62
   256
 51
90.0
 52
90.0
 71
     2
 49
0.5
 62
   256
  6
BYLAYER
 49
-0.5
 62
   256
  6
BYLAYER
  0
ACDBPLACEHOLDER
  5
F
102
{ACAD_REACTORS
330
E
102
}
330
E
  0
ENDSEC
  0
EOF
