  0
SECTION
  2
HEADER
  9
$ACADVER
  1
AC1012
  9
$DWGCODEPAGE
  3
ANSI_1252
  9
$INSBASE
 10
0.0
 20
0.0
 30
0.0
  9
$EXTMIN
 10
1.030156250561715
 20
3.301992887433121
 30
0.0
  9
$EXTMAX
 10
10.54984128993179
 20
10.47522123388981
 30
0.0
  9
$LIMMIN
 10
0.0
 20
0.0
  9
$LIMMAX
 10
12.0
 20
9.0
  9
$ORTHOMODE
 70
     0
  9
$REGENMODE
 70
     1
  9
$FILLMODE
 70
     1
  9
$QTEXTMODE
 70
     0
  9
$MIRRTEXT
 70
     1
  9
$DRAGMODE
 70
     2
  9
$LTSCALE
 40
1.0
  9
$OSMODE
 70
   547
  9
$ATTMODE
 70
     1
  9
$TEXTSIZE
 40
0.2
  9
$TRACEWID
 40
0.05
  9
$TEXTSTYLE
  7
STANDARD
  9
$CLAYER
  8
0
  9
$CELTYPE
  6
BYLAYER
  9
$CECOLOR
 62
   256
  9
$CELTSCALE
 40
1.0
  9
$DELOBJ
 70
     1
  9
$DISPSILH
 70
     0
  9
$DIMSCALE
 40
1.0
  9
$DIMASZ
 40
0.18
  9
$DIMEXO
 40
0.0625
  9
$DIMDLI
 40
0.38
  9
$DIMRND
 40
0.0
  9
$DIMDLE
 40
0.0
  9
$DIMEXE
 40
0.18
  9
$DIMTP
 40
0.0
  9
$DIMTM
 40
0.0
  9
$DIMTXT
 40
0.18
  9
$DIMCEN
 40
0.09
  9
$DIMTSZ
 40
0.0
  9
$DIMTOL
 70
     0
  9
$DIMLIM
 70
     0
  9
$DIMTIH
 70
     1
  9
$DIMTOH
 70
     1
  9
$DIMSE1
 70
     0
  9
$DIMSE2
 70
     0
  9
$DIMTAD
 70
     0
  9
$DIMZIN
 70
     0
  9
$DIMBLK
  1

  9
$DIMASO
 70
     1
  9
$DIMSHO
 70
     1
  9
$DIMPOST
  1

  9
$DIMAPOST
  1

  9
$DIMALT
 70
     0
  9
$DIMALTD
 70
     2
  9
$DIMALTF
 40
25.4
  9
$DIMLFAC
 40
1.0
  9
$DIMTOFL
 70
     0
  9
$DIMTVP
 40
0.0
  9
$DIMTIX
 70
     0
  9
$DIMSOXD
 70
     0
  9
$DIMSAH
 70
     0
  9
$DIMBLK1
  1

  9
$DIMBLK2
  1

  9
$DIMSTYLE
  2
STANDARD
  9
$DIMCLRD
 70
     0
  9
$DIMCLRE
 70
     0
  9
$DIMCLRT
 70
     0
  9
$DIMTFAC
 40
1.0
  9
$DIMGAP
 40
0.09
  9
$DIMJUST
 70
     0
  9
$DIMSD1
 70
     0
  9
$DIMSD2
 70
     0
  9
$DIMTOLJ
 70
     1
  9
$DIMTZIN
 70
     0
  9
$DIMALTZ
 70
     0
  9
$DIMALTTZ
 70
     0
  9
$DIMFIT
 70
     5
  9
$DIMUPT
 70
     0
  9
$DIMUNIT
 70
     2
  9
$DIMDEC
 70
     4
  9
$DIMTDEC
 70
     4
  9
$DIMALTU
 70
     2
  9
$DIMALTTD
 70
     2
  9
$DIMTXSTY
  7
STANDARD
  9
$DIMAUNIT
 70
     0
  9
$LUNITS
 70
     2
  9
$LUPREC
 70
     4
  9
$SKETCHINC
 40
0.1
  9
$FILLETRAD
 40
0.0
  9
$AUNITS
 70
     0
  9
$AUPREC
 70
     0
  9
$MENU
  1
acad
  9
$ELEVATION
 40
0.0
  9
$PELEVATION
 40
0.0
  9
$THICKNESS
 40
0.0
  9
$LIMCHECK
 70
     0
  9
$BLIPMODE
 70
     0
  9
$CHAMFERA
 40
0.0
  9
$CHAMFERB
 40
0.0
  9
$CHAMFERC
 40
0.0
  9
$CHAMFERD
 40
0.0
  9
$SKPOLY
 70
     0
  9
$TDCREATE
 40
2451901.550821759
  9
$TDUPDATE
 40
2453945.456863727
  9
$TDINDWG
 40
0.0015267014
  9
$TDUSRTIMER
 40
0.0015267014
  9
$USRTIMER
 70
     1
  9
$ANGBASE
 50
0.0
  9
$ANGDIR
 70
     0
  9
$PDMODE
 70
     0
  9
$PDSIZE
 40
0.0
  9
$PLINEWID
 40
0.0
  9
$COORDS
 70
     1
  9
$SPLFRAME
 70
     0
  9
$SPLINETYPE
 70
     6
  9
$SPLINESEGS
 70
     8
  9
$ATTDIA
 70
     0
  9
$ATTREQ
 70
     1
  9
$HANDLING
 70
  4097
  9
$HANDSEED
  5
2B23
  9
$SURFTAB1
 70
     6
  9
$SURFTAB2
 70
     6
  9
$SURFTYPE
 70
     6
  9
$SURFU
 70
     6
  9
$SURFV
 70
     6
  9
$UCSNAME
  2

  9
$UCSORG
 10
0.0
 20
0.0
 30
0.0
  9
$UCSXDIR
 10
1.0
 20
0.0
 30
0.0
  9
$UCSYDIR
 10
0.0
 20
1.0
 30
0.0
  9
$PUCSNAME
  2

  9
$PUCSORG
 10
0.0
 20
0.0
 30
0.0
  9
$PUCSXDIR
 10
1.0
 20
0.0
 30
0.0
  9
$PUCSYDIR
 10
0.0
 20
1.0
 30
0.0
  9
$USERI1
 70
     0
  9
$USERI2
 70
     0
  9
$USERI3
 70
     0
  9
$USERI4
 70
     0
  9
$USERI5
 70
     0
  9
$USERR1
 40
0.0
  9
$USERR2
 40
0.0
  9
$USERR3
 40
0.0
  9
$USERR4
 40
0.0
  9
$USERR5
 40
0.0
  9
$WORLDVIEW
 70
     1
  9
$SHADEDGE
 70
     3
  9
$SHADEDIF
 70
    70
  9
$TILEMODE
 70
     1
  9
$MAXACTVP
 70
    16
  9
$PINSBASE
 10
0.0
 20
0.0
 30
0.0
  9
$PLIMCHECK
 70
     0
  9
$PEXTMIN
 10
1.000000000000000E+20
 20
1.000000000000000E+20
 30
1.000000000000000E+20
  9
$PEXTMAX
 10
-1.000000000000000E+20
 20
-1.000000000000000E+20
 30
-1.000000000000000E+20
  9
$PLIMMIN
 10
0.0
 20
0.0
  9
$PLIMMAX
 10
12.0
 20
9.0
  9
$UNITMODE
 70
     0
  9
$VISRETAIN
 70
     0
  9
$PLINEGEN
 70
     0
  9
$PSLTSCALE
 70
     1
  9
$TREEDEPTH
 70
  3020
  9
$PICKSTYLE
 70
     1
  9
$CMLSTYLE
  2
STANDARD
  9
$CMLJUST
 70
     0
  9
$CMLSCALE
 40
1.0
  9
$SAVEIMAGES
 70
     1
  0
ENDSEC
  0
SECTION
  2
CLASSES
  0
CLASS
  1
ACDBDICTIONARYWDFLT
  2
AcDbDictionaryWithDefault
  3
AutoCAD 2000
 90
    32768
280
     0
281
     0
  0
CLASS
  1
ACDBPLACEHOLDER
  2
AcDbPlaceHolder
  3
AutoCAD 2000
 90
    32768
280
     0
281
     0
  0
CLASS
  1
LAYOUT
  2
AcDbLayout
  3
AutoCAD 2000
 90
    32768
280
     0
281
     0
  0
CLASS
  1
LONG_TRANSACTION
  2
AcDbLongTransaction
  3
AutoCAD 2000
 90
    32768
280
     0
281
     0
  0
CLASS
  1
LWPOLYLINE
  2
AcDbPolyline
  3
AutoCAD 2000
 90
    32768
280
     0
281
     1
  0
CLASS
  1
HATCH
  2
AcDbHatch
  3
AutoCAD 2000
 90
    32768
280
     0
281
     1
  0
CLASS
  1
XRECORD
  2
AcDbXrecord
  3
AutoCAD 2000
 90
    32768
280
     0
281
     0
  0
CLASS
  1
LONG_TRANSACTION
  2
AcDbLongTransaction
  3
AutoCAD 2000
 90
    32768
280
     0
281
     0
  0
CLASS
  1
LWPOLYLINE
  2
AcDbPolyline
  3
AutoCAD 2000
 90
    32768
280
     0
281
     1
  0
CLASS
  1
HATCH
  2
AcDbHatch
  3
AutoCAD 2000
 90
    32768
280
     0
281
     1
  0
CLASS
  1
XRECORD
  2
AcDbXrecord
  3
AutoCAD 2000
 90
    32768
280
     0
281
     0
  0
ENDSEC
  0
SECTION
  2
TABLES
  0
TABLE
  2
VPORT
  5
8
330
0
100
AcDbSymbolTable
 70
     3
  0
VPORT
  5
2B20
330
8
100
AcDbSymbolTableRecord
100
AcDbViewportTableRecord
  2
*ACTIVE
 70
     0
 10
0.0
 20
0.0
 11
1.0
 21
1.0
 12
5.789643701841581
 22
7.1099892517314
 13
0.0
 23
0.0
 14
1.0
 24
1.0
 15
0.0
 25
0.0
 16
0.0
 26
0.0
 36
1.0
 17
0.0
 27
0.0
 37
0.0
 40
7.696287536719296
 41
1.647569444444444
 42
50.0
 43
0.0
 44
0.0
 50
0.0
 51
0.0
 71
     0
 72
   100
 73
     1
 74
     1
 75
     0
 76
     0
 77
     0
 78
     0
  0
ENDTAB
  0
TABLE
  2
LTYPE
  5
5
330
0
100
AcDbSymbolTable
 70
    25
  0
LTYPE
  5
13
330
5
100
AcDbSymbolTableRecord
100
AcDbLinetypeTableRecord
  2
BYBLOCK
 70
     0
  3

 72
    65
 73
     0
 40
0.0
  0
LTYPE
  5
14
330
5
100
AcDbSymbolTableRecord
100
AcDbLinetypeTableRecord
  2
BYLAYER
 70
     0
  3

 72
    65
 73
     0
 40
0.0
  0
LTYPE
  5
15
330
5
100
AcDbSymbolTableRecord
100
AcDbLinetypeTableRecord
  2
CONTINUOUS
 70
     0
  3
Solid line
 72
    65
 73
     0
 40
0.0
  0
LTYPE
  5
22
330
5
100
AcDbSymbolTableRecord
100
AcDbLinetypeTableRecord
  2
BORDER
 70
     0
  3
__ __ . __ __ . __ __ . __ __ . __ __ . __ __ .
 72
    65
 73
     6
 40
1.75
 49
0.5
 74
     0
 49
-0.25
 74
     0
 49
0.5
 74
     0
 49
-0.25
 74
     0
 49
0.5
 74
     0
 49
-0.25
 74
     0
  0
LTYPE
  5
23
330
5
100
AcDbSymbolTableRecord
100
AcDbLinetypeTableRecord
  2
BORDER2
 70
     0
  3
__.__.__.__.__.__.__.__.__.__.__.__.__.__.__.__
 72
    65
 73
     6
 40
0.875
 49
0.25
 74
     0
 49
-0.125
 74
     0
 49
0.25
 74
     0
 49
-0.125
 74
     0
 49
0.25
 74
     0
 49
-0.125
 74
     0
  0
LTYPE
  5
24
330
5
100
AcDbSymbolTableRecord
100
AcDbLinetypeTableRecord
  2
BORDERX2
 70
     0
  3
____  ____  .  ____  ____  .  
 72
    65
 73
     6
 40
3.5
 49
1.0
 74
     0
 49
-0.5
 74
     0
 49
1.0
 74
     0
 49
-0.5
 74
     0
 49
1.0
 74
     0
 49
-0.5
 74
     0
  0
LTYPE
  5
25
330
5
100
AcDbSymbolTableRecord
100
AcDbLinetypeTableRecord
  2
CENTER
 70
     0
  3
____ _ ____ _ ____ _ ____ _ ____ _ ____ _ ____
 72
    65
 73
     4
 40
2.0
 49
1.25
 74
     0
 49
-0.25
 74
     0
 49
0.25
 74
     0
 49
-0.25
 74
     0
  0
LTYPE
  5
26
330
5
100
AcDbSymbolTableRecord
100
AcDbLinetypeTableRecord
  2
CENTER2
 70
     0
  3
____ _ ____ _ ____ _ ____ _ ____ _ ____ _ ____
 72
    65
 73
     4
 40
1.125
 49
0.75
 74
     0
 49
-0.125
 74
     0
 49
0.125
 74
     0
 49
-0.125
 74
     0
  0
LTYPE
  5
27
330
5
100
AcDbSymbolTableRecord
100
AcDbLinetypeTableRecord
  2
CENTERX2
 70
     0
  3
________  __  ________  __  ________  __  
 72
    65
 73
     4
 40
4.0
 49
2.5
 74
     0
 49
-0.5
 74
     0
 49
0.5
 74
     0
 49
-0.5
 74
     0
  0
LTYPE
  5
28
330
5
100
AcDbSymbolTableRecord
100
AcDbLinetypeTableRecord
  2
DASHDOT
 70
     0
  3
__ . __ . __ . __ . __ . __ . __ . 
 72
    65
 73
     4
 40
1.0
 49
0.5
 74
     0
 49
-0.25
 74
     0
 49
0.0
 74
     0
 49
-0.25
 74
     0
  0
LTYPE
  5
29
330
5
100
AcDbSymbolTableRecord
100
AcDbLinetypeTableRecord
  2
DASHDOT2
 70
     0
  3
_._._._._._._._._._._._._._._._.
 72
    65
 73
     4
 40
0.5
 49
0.25
 74
     0
 49
-0.125
 74
     0
 49
0.0
 74
     0
 49
-0.125
 74
     0
  0
LTYPE
  5
2A
330
5
100
AcDbSymbolTableRecord
100
AcDbLinetypeTableRecord
  2
DASHDOTX2
 70
     0
  3
____  .  ____  .  ____  .  ____  .  
 72
    65
 73
     4
 40
2.0
 49
1.0
 74
     0
 49
-0.5
 74
     0
 49
0.0
 74
     0
 49
-0.5
 74
     0
  0
LTYPE
  5
2B
330
5
100
AcDbSymbolTableRecord
100
AcDbLinetypeTableRecord
  2
DASHED
 70
     0
  3
__ __ __ __ __ __ __ __ __ __ __ __ 
 72
    65
 73
     2
 40
0.75
 49
0.5
 74
     0
 49
-0.25
 74
     0
  0
LTYPE
  5
2C
330
5
100
AcDbSymbolTableRecord
100
AcDbLinetypeTableRecord
  2
DASHED2
 70
     0
  3
_ _ _ _ _ _ _ _ _ _ _ _ _ _ _ _ _ _ 
 72
    65
 73
     2
 40
0.375
 49
0.25
 74
     0
 49
-0.125
 74
     0
  0
LTYPE
  5
2D
330
5
100
AcDbSymbolTableRecord
100
AcDbLinetypeTableRecord
  2
DASHEDX2
 70
     0
  3
____  ____  ____  ____  ____  ____  
 72
    65
 73
     2
 40
1.5
 49
1.0
 74
     0
 49
-0.5
 74
     0
  0
LTYPE
  5
2E
330
5
100
AcDbSymbolTableRecord
100
AcDbLinetypeTableRecord
  2
DIVIDE
 70
     0
  3
____ . . ____ . . ____ . . ____ . . 
 72
    65
 73
     6
 40
1.25
 49
0.5
 74
     0
 49
-0.25
 74
     0
 49
0.0
 74
     0
 49
-0.25
 74
     0
 49
0.0
 74
     0
 49
-0.25
 74
     0
  0
LTYPE
  5
2F
330
5
100
AcDbSymbolTableRecord
100
AcDbLinetypeTableRecord
  2
DIVIDE2
 70
     0
  3
__..__..__..__..__..__..__..__..__..
 72
    65
 73
     6
 40
0.625
 49
0.25
 74
     0
 49
-0.125
 74
     0
 49
0.0
 74
     0
 49
-0.125
 74
     0
 49
0.0
 74
     0
 49
-0.125
 74
     0
  0
LTYPE
  5
30
330
5
100
AcDbSymbolTableRecord
100
AcDbLinetypeTableRecord
  2
DIVIDEX2
 70
     0
  3
________  .  .  ________  .  .  ________  .  . 
 72
    65
 73
     6
 40
2.5
 49
1.0
 74
     0
 49
-0.5
 74
     0
 49
0.0
 74
     0
 49
-0.5
 74
     0
 49
0.0
 74
     0
 49
-0.5
 74
     0
  0
LTYPE
  5
31
330
5
100
AcDbSymbolTableRecord
100
AcDbLinetypeTableRecord
  2
DOT
 70
     0
  3
. . . . . . . . . . . . . . . . . . 
 72
    65
 73
     2
 40
0.25
 49
0.0
 74
     0
 49
-0.25
 74
     0
  0
LTYPE
  5
32
330
5
100
AcDbSymbolTableRecord
100
AcDbLinetypeTableRecord
  2
DOT2
 70
     0
  3
....................................
 72
    65
 73
     2
 40
0.125
 49
0.0
 74
     0
 49
-0.125
 74
     0
  0
LTYPE
  5
33
330
5
100
AcDbSymbolTableRecord
100
AcDbLinetypeTableRecord
  2
DOTX2
 70
     0
  3
.  .  .  .  .  .  .  .  .  .  .  .  .  
 72
    65
 73
     2
 40
0.5
 49
0.0
 74
     0
 49
-0.5
 74
     0
  0
LTYPE
  5
34
330
5
100
AcDbSymbolTableRecord
100
AcDbLinetypeTableRecord
  2
HIDDEN
 70
     0
  3
__ __ __ __ __ __ __ __ __ __ __ __ 
 72
    65
 73
     2
 40
0.375
 49
0.25
 74
     0
 49
-0.125
 74
     0
  0
LTYPE
  5
35
330
5
100
AcDbSymbolTableRecord
100
AcDbLinetypeTableRecord
  2
HIDDEN2
 70
     0
  3
_ _ _ _ _ _ _ _ _ _ _ _ _ _ _ _ _ _ 
 72
    65
 73
     2
 40
0.1875
 49
0.125
 74
     0
 49
-0.0625
 74
     0
  0
LTYPE
  5
36
330
5
100
AcDbSymbolTableRecord
100
AcDbLinetypeTableRecord
  2
HIDDENX2
 70
     0
  3
____ ____ ____ ____ ____ ____ ____ 
 72
    65
 73
     2
 40
0.75
 49
0.5
 74
     0
 49
-0.25
 74
     0
  0
LTYPE
  5
37
330
5
100
AcDbSymbolTableRecord
100
AcDbLinetypeTableRecord
  2
PHANTOM
 70
     0
  3
______  __  __  ______  __  __  
 72
    65
 73
     6
 40
2.5
 49
1.25
 74
     0
 49
-0.25
 74
     0
 49
0.25
 74
     0
 49
-0.25
 74
     0
 49
0.25
 74
     0
 49
-0.25
 74
     0
  0
LTYPE
  5
38
330
5
100
AcDbSymbolTableRecord
100
AcDbLinetypeTableRecord
  2
PHANTOM2
 70
     0
  3
___ _ _ ___ _ _ ___ _ _ ___ _ _ 
 72
    65
 73
     6
 40
1.25
 49
0.625
 74
     0
 49
-0.125
 74
     0
 49
0.125
 74
     0
 49
-0.125
 74
     0
 49
0.125
 74
     0
 49
-0.125
 74
     0
  0
LTYPE
  5
39
330
5
100
AcDbSymbolTableRecord
100
AcDbLinetypeTableRecord
  2
PHANTOMX2
 70
     0
  3
___ _ _ ___ _ _ ___ _ _ ___ _ _ 
 72
    65
 73
     6
 40
5.0
 49
2.5
 74
     0
 49
-0.5
 74
     0
 49
0.5
 74
     0
 49
-0.5
 74
     0
 49
0.5
 74
     0
 49
-0.5
 74
     0
  0
ENDTAB
  0
TABLE
  2
LAYER
  5
2
330
0
100
AcDbSymbolTable
 70
   256
  0
LAYER
  5
10
330
2
100
AcDbSymbolTableRecord
100
AcDbLayerTableRecord
  2
0
 70
     0
 62
     7
  6
CONTINUOUS
  0
LAYER
  5
3A
330
2
100
AcDbSymbolTableRecord
100
AcDbLayerTableRecord
  2
1
 70
     0
 62
     1
  6
CONTINUOUS
  0
LAYER
  5
3B
330
2
100
AcDbSymbolTableRecord
100
AcDbLayerTableRecord
  2
2
 70
     0
 62
     2
  6
CONTINUOUS
  0
LAYER
  5
3C
330
2
100
AcDbSymbolTableRecord
100
AcDbLayerTableRecord
  2
3
 70
     0
 62
     3
  6
CONTINUOUS
  0
LAYER
  5
3D
330
2
100
AcDbSymbolTableRecord
100
AcDbLayerTableRecord
  2
4
 70
     0
 62
     4
  6
CONTINUOUS
  0
LAYER
  5
3E
330
2
100
AcDbSymbolTableRecord
100
AcDbLayerTableRecord
  2
5
 70
     0
 62
     5
  6
CONTINUOUS
  0
LAYER
  5
3F
330
2
100
AcDbSymbolTableRecord
100
AcDbLayerTableRecord
  2
6
 70
     0
 62
     6
  6
CONTINUOUS
  0
LAYER
  5
40
330
2
100
AcDbSymbolTableRecord
100
AcDbLayerTableRecord
  2
7
 70
     0
 62
     7
  6
CONTINUOUS
  0
LAYER
  5
41
330
2
100
AcDbSymbolTableRecord
100
AcDbLayerTableRecord
  2
8
 70
     0
 62
     8
  6
CONTINUOUS
  0
LAYER
  5
42
330
2
100
AcDbSymbolTableRecord
100
AcDbLayerTableRecord
  2
9
 70
     0
 62
     9
  6
CONTINUOUS
  0
LAYER
  5
43
330
2
100
AcDbSymbolTableRecord
100
AcDbLayerTableRecord
  2
10
 70
     0
 62
    10
  6
CONTINUOUS
  0
LAYER
  5
44
330
2
100
AcDbSymbolTableRecord
100
AcDbLayerTableRecord
  2
11
 70
     0
 62
    11
  6
CONTINUOUS
  0
LAYER
  5
45
330
2
100
AcDbSymbolTableRecord
100
AcDbLayerTableRecord
  2
12
 70
     0
 62
    12
  6
CONTINUOUS
  0
LAYER
  5
46
330
2
100
AcDbSymbolTableRecord
100
AcDbLayerTableRecord
  2
13
 70
     0
 62
    13
  6
CONTINUOUS
  0
LAYER
  5
47
330
2
100
AcDbSymbolTableRecord
100
AcDbLayerTableRecord
  2
14
 70
     0
 62
    14
  6
CONTINUOUS
  0
LAYER
  5
48
330
2
100
AcDbSymbolTableRecord
100
AcDbLayerTableRecord
  2
15
 70
     0
 62
    15
  6
CONTINUOUS
  0
LAYER
  5
49
330
2
100
AcDbSymbolTableRecord
100
AcDbLayerTableRecord
  2
16
 70
     0
 62
    16
  6
CONTINUOUS
  0
LAYER
  5
4A
330
2
100
AcDbSymbolTableRecord
100
AcDbLayerTableRecord
  2
17
 70
     0
 62
    17
  6
CONTINUOUS
  0
LAYER
  5
4B
330
2
100
AcDbSymbolTableRecord
100
AcDbLayerTableRecord
  2
18
 70
     0
 62
    18
  6
CONTINUOUS
  0
LAYER
  5
4C
330
2
100
AcDbSymbolTableRecord
100
AcDbLayerTableRecord
  2
19
 70
     0
 62
    19
  6
CONTINUOUS
  0
LAYER
  5
4D
330
2
100
AcDbSymbolTableRecord
100
AcDbLayerTableRecord
  2
20
 70
     0
 62
    20
  6
CONTINUOUS
  0
LAYER
  5
4E
330
2
100
AcDbSymbolTableRecord
100
AcDbLayerTableRecord
  2
21
 70
     0
 62
    21
  6
CONTINUOUS
  0
LAYER
  5
4F
330
2
100
AcDbSymbolTableRecord
100
AcDbLayerTableRecord
  2
22
 70
     0
 62
    22
  6
CONTINUOUS
  0
LAYER
  5
50
330
2
100
AcDbSymbolTableRecord
100
AcDbLayerTableRecord
  2
23
 70
     0
 62
    23
  6
CONTINUOUS
  0
LAYER
  5
51
330
2
100
AcDbSymbolTableRecord
100
AcDbLayerTableRecord
  2
24
 70
     0
 62
    24
  6
CONTINUOUS
  0
LAYER
  5
52
330
2
100
AcDbSymbolTableRecord
100
AcDbLayerTableRecord
  2
25
 70
     0
 62
    25
  6
CONTINUOUS
  0
LAYER
  5
53
330
2
100
AcDbSymbolTableRecord
100
AcDbLayerTableRecord
  2
26
 70
     0
 62
    26
  6
CONTINUOUS
  0
LAYER
  5
54
330
2
100
AcDbSymbolTableRecord
100
AcDbLayerTableRecord
  2
27
 70
     0
 62
    27
  6
CONTINUOUS
  0
LAYER
  5
55
330
2
100
AcDbSymbolTableRecord
100
AcDbLayerTableRecord
  2
28
 70
     0
 62
    28
  6
CONTINUOUS
  0
LAYER
  5
56
330
2
100
AcDbSymbolTableRecord
100
AcDbLayerTableRecord
  2
29
 70
     0
 62
    29
  6
CONTINUOUS
  0
LAYER
  5
57
330
2
100
AcDbSymbolTableRecord
100
AcDbLayerTableRecord
  2
30
 70
     0
 62
    30
  6
CONTINUOUS
  0
LAYER
  5
58
330
2
100
AcDbSymbolTableRecord
100
AcDbLayerTableRecord
  2
31
 70
     0
 62
    31
  6
CONTINUOUS
  0
LAYER
  5
59
330
2
100
AcDbSymbolTableRecord
100
AcDbLayerTableRecord
  2
32
 70
     0
 62
    32
  6
CONTINUOUS
  0
LAYER
  5
5A
330
2
100
AcDbSymbolTableRecord
100
AcDbLayerTableRecord
  2
33
 70
     0
 62
    33
  6
CONTINUOUS
  0
LAYER
  5
5B
330
2
100
AcDbSymbolTableRecord
100
AcDbLayerTableRecord
  2
34
 70
     0
 62
    34
  6
CONTINUOUS
  0
LAYER
  5
5C
330
2
100
AcDbSymbolTableRecord
100
AcDbLayerTableRecord
  2
35
 70
     0
 62
    35
  6
CONTINUOUS
  0
LAYER
  5
5D
330
2
100
AcDbSymbolTableRecord
100
AcDbLayerTableRecord
  2
36
 70
     0
 62
    36
  6
CONTINUOUS
  0
LAYER
  5
5E
330
2
100
AcDbSymbolTableRecord
100
AcDbLayerTableRecord
  2
37
 70
     0
 62
    37
  6
CONTINUOUS
  0
LAYER
  5
5F
330
2
100
AcDbSymbolTableRecord
100
AcDbLayerTableRecord
  2
38
 70
     0
 62
    38
  6
CONTINUOUS
  0
LAYER
  5
60
330
2
100
AcDbSymbolTableRecord
100
AcDbLayerTableRecord
  2
39
 70
     0
 62
    39
  6
CONTINUOUS
  0
LAYER
  5
61
330
2
100
AcDbSymbolTableRecord
100
AcDbLayerTableRecord
  2
40
 70
     0
 62
    40
  6
CONTINUOUS
  0
LAYER
  5
62
330
2
100
AcDbSymbolTableRecord
100
AcDbLayerTableRecord
  2
41
 70
     0
 62
    41
  6
CONTINUOUS
  0
LAYER
  5
63
330
2
100
AcDbSymbolTableRecord
100
AcDbLayerTableRecord
  2
42
 70
     0
 62
    42
  6
CONTINUOUS
  0
LAYER
  5
64
330
2
100
AcDbSymbolTableRecord
100
AcDbLayerTableRecord
  2
43
 70
     0
 62
    43
  6
CONTINUOUS
  0
LAYER
  5
65
330
2
100
AcDbSymbolTableRecord
100
AcDbLayerTableRecord
  2
44
 70
     0
 62
    44
  6
CONTINUOUS
  0
LAYER
  5
66
330
2
100
AcDbSymbolTableRecord
100
AcDbLayerTableRecord
  2
45
 70
     0
 62
    45
  6
CONTINUOUS
  0
LAYER
  5
67
330
2
100
AcDbSymbolTableRecord
100
AcDbLayerTableRecord
  2
46
 70
     0
 62
    46
  6
CONTINUOUS
  0
LAYER
  5
68
330
2
100
AcDbSymbolTableRecord
100
AcDbLayerTableRecord
  2
47
 70
     0
 62
    47
  6
CONTINUOUS
  0
LAYER
  5
69
330
2
100
AcDbSymbolTableRecord
100
AcDbLayerTableRecord
  2
48
 70
     0
 62
    48
  6
CONTINUOUS
  0
LAYER
  5
6A
330
2
100
AcDbSymbolTableRecord
100
AcDbLayerTableRecord
  2
49
 70
     0
 62
    49
  6
CONTINUOUS
  0
LAYER
  5
6B
330
2
100
AcDbSymbolTableRecord
100
AcDbLayerTableRecord
  2
50
 70
     0
 62
    50
  6
CONTINUOUS
  0
LAYER
  5
6C
330
2
100
AcDbSymbolTableRecord
100
AcDbLayerTableRecord
  2
51
 70
     0
 62
    51
  6
CONTINUOUS
  0
LAYER
  5
6D
330
2
100
AcDbSymbolTableRecord
100
AcDbLayerTableRecord
  2
52
 70
     0
 62
    52
  6
CONTINUOUS
  0
LAYER
  5
6E
330
2
100
AcDbSymbolTableRecord
100
AcDbLayerTableRecord
  2
53
 70
     0
 62
    53
  6
CONTINUOUS
  0
LAYER
  5
6F
330
2
100
AcDbSymbolTableRecord
100
AcDbLayerTableRecord
  2
54
 70
     0
 62
    54
  6
CONTINUOUS
  0
LAYER
  5
70
330
2
100
AcDbSymbolTableRecord
100
AcDbLayerTableRecord
  2
55
 70
     0
 62
    55
  6
CONTINUOUS
  0
LAYER
  5
71
330
2
100
AcDbSymbolTableRecord
100
AcDbLayerTableRecord
  2
56
 70
     0
 62
    56
  6
CONTINUOUS
  0
LAYER
  5
72
330
2
100
AcDbSymbolTableRecord
100
AcDbLayerTableRecord
  2
57
 70
     0
 62
    57
  6
CONTINUOUS
  0
LAYER
  5
73
330
2
100
AcDbSymbolTableRecord
100
AcDbLayerTableRecord
  2
58
 70
     0
 62
    58
  6
CONTINUOUS
  0
LAYER
  5
74
330
2
100
AcDbSymbolTableRecord
100
AcDbLayerTableRecord
  2
59
 70
     0
 62
    59
  6
CONTINUOUS
  0
LAYER
  5
75
330
2
100
AcDbSymbolTableRecord
100
AcDbLayerTableRecord
  2
60
 70
     0
 62
    60
  6
CONTINUOUS
  0
LAYER
  5
76
330
2
100
AcDbSymbolTableRecord
100
AcDbLayerTableRecord
  2
61
 70
     0
 62
    61
  6
CONTINUOUS
  0
LAYER
  5
77
330
2
100
AcDbSymbolTableRecord
100
AcDbLayerTableRecord
  2
62
 70
     0
 62
    62
  6
CONTINUOUS
  0
LAYER
  5
78
330
2
100
AcDbSymbolTableRecord
100
AcDbLayerTableRecord
  2
63
 70
     0
 62
    63
  6
CONTINUOUS
  0
LAYER
  5
79
330
2
100
AcDbSymbolTableRecord
100
AcDbLayerTableRecord
  2
64
 70
     0
 62
    64
  6
CONTINUOUS
  0
LAYER
  5
7A
330
2
100
AcDbSymbolTableRecord
100
AcDbLayerTableRecord
  2
65
 70
     0
 62
    65
  6
CONTINUOUS
  0
LAYER
  5
7B
330
2
100
AcDbSymbolTableRecord
100
AcDbLayerTableRecord
  2
66
 70
     0
 62
    66
  6
CONTINUOUS
  0
LAYER
  5
7C
330
2
100
AcDbSymbolTableRecord
100
AcDbLayerTableRecord
  2
67
 70
     0
 62
    67
  6
CONTINUOUS
  0
LAYER
  5
7D
330
2
100
AcDbSymbolTableRecord
100
AcDbLayerTableRecord
  2
68
 70
     0
 62
    68
  6
CONTINUOUS
  0
LAYER
  5
7E
330
2
100
AcDbSymbolTableRecord
100
AcDbLayerTableRecord
  2
69
 70
     0
 62
    69
  6
CONTINUOUS
  0
LAYER
  5
7F
330
2
100
AcDbSymbolTableRecord
100
AcDbLayerTableRecord
  2
70
 70
     0
 62
    70
  6
CONTINUOUS
  0
LAYER
  5
80
330
2
100
AcDbSymbolTableRecord
100
AcDbLayerTableRecord
  2
71
 70
     0
 62
    71
  6
CONTINUOUS
  0
LAYER
  5
81
330
2
100
AcDbSymbolTableRecord
100
AcDbLayerTableRecord
  2
72
 70
     0
 62
    72
  6
CONTINUOUS
  0
LAYER
  5
82
330
2
100
AcDbSymbolTableRecord
100
AcDbLayerTableRecord
  2
73
 70
     0
 62
    73
  6
CONTINUOUS
  0
LAYER
  5
83
330
2
100
AcDbSymbolTableRecord
100
AcDbLayerTableRecord
  2
74
 70
     0
 62
    74
  6
CONTINUOUS
  0
LAYER
  5
84
330
2
100
AcDbSymbolTableRecord
100
AcDbLayerTableRecord
  2
75
 70
     0
 62
    75
  6
CONTINUOUS
  0
LAYER
  5
85
330
2
100
AcDbSymbolTableRecord
100
AcDbLayerTableRecord
  2
76
 70
     0
 62
    76
  6
CONTINUOUS
  0
LAYER
  5
86
330
2
100
AcDbSymbolTableRecord
100
AcDbLayerTableRecord
  2
77
 70
     0
 62
    77
  6
CONTINUOUS
  0
LAYER
  5
87
330
2
100
AcDbSymbolTableRecord
100
AcDbLayerTableRecord
  2
78
 70
     0
 62
    78
  6
CONTINUOUS
  0
LAYER
  5
88
330
2
100
AcDbSymbolTableRecord
100
AcDbLayerTableRecord
  2
79
 70
     0
 62
    79
  6
CONTINUOUS
  0
LAYER
  5
89
330
2
100
AcDbSymbolTableRecord
100
AcDbLayerTableRecord
  2
80
 70
     0
 62
    80
  6
CONTINUOUS
  0
LAYER
  5
8A
330
2
100
AcDbSymbolTableRecord
100
AcDbLayerTableRecord
  2
81
 70
     0
 62
    81
  6
CONTINUOUS
  0
LAYER
  5
8B
330
2
100
AcDbSymbolTableRecord
100
AcDbLayerTableRecord
  2
82
 70
     0
 62
    82
  6
CONTINUOUS
  0
LAYER
  5
8C
330
2
100
AcDbSymbolTableRecord
100
AcDbLayerTableRecord
  2
83
 70
     0
 62
    83
  6
CONTINUOUS
  0
LAYER
  5
8D
330
2
100
AcDbSymbolTableRecord
100
AcDbLayerTableRecord
  2
84
 70
     0
 62
    84
  6
CONTINUOUS
  0
LAYER
  5
8E
330
2
100
AcDbSymbolTableRecord
100
AcDbLayerTableRecord
  2
85
 70
     0
 62
    85
  6
CONTINUOUS
  0
LAYER
  5
8F
330
2
100
AcDbSymbolTableRecord
100
AcDbLayerTableRecord
  2
86
 70
     0
 62
    86
  6
CONTINUOUS
  0
LAYER
  5
90
330
2
100
AcDbSymbolTableRecord
100
AcDbLayerTableRecord
  2
87
 70
     0
 62
    87
  6
CONTINUOUS
  0
LAYER
  5
91
330
2
100
AcDbSymbolTableRecord
100
AcDbLayerTableRecord
  2
88
 70
     0
 62
    88
  6
CONTINUOUS
  0
LAYER
  5
92
330
2
100
AcDbSymbolTableRecord
100
AcDbLayerTableRecord
  2
89
 70
     0
 62
    89
  6
CONTINUOUS
  0
LAYER
  5
93
330
2
100
AcDbSymbolTableRecord
100
AcDbLayerTableRecord
  2
90
 70
     0
 62
    90
  6
CONTINUOUS
  0
LAYER
  5
94
330
2
100
AcDbSymbolTableRecord
100
AcDbLayerTableRecord
  2
91
 70
     0
 62
    91
  6
CONTINUOUS
  0
LAYER
  5
95
330
2
100
AcDbSymbolTableRecord
100
AcDbLayerTableRecord
  2
92
 70
     0
 62
    92
  6
CONTINUOUS
  0
LAYER
  5
96
330
2
100
AcDbSymbolTableRecord
100
AcDbLayerTableRecord
  2
93
 70
     0
 62
    93
  6
CONTINUOUS
  0
LAYER
  5
97
330
2
100
AcDbSymbolTableRecord
100
AcDbLayerTableRecord
  2
94
 70
     0
 62
    94
  6
CONTINUOUS
  0
LAYER
  5
98
330
2
100
AcDbSymbolTableRecord
100
AcDbLayerTableRecord
  2
95
 70
     0
 62
    95
  6
CONTINUOUS
  0
LAYER
  5
99
330
2
100
AcDbSymbolTableRecord
100
AcDbLayerTableRecord
  2
96
 70
     0
 62
    96
  6
CONTINUOUS
  0
LAYER
  5
9A
330
2
100
AcDbSymbolTableRecord
100
AcDbLayerTableRecord
  2
97
 70
     0
 62
    97
  6
CONTINUOUS
  0
LAYER
  5
9B
330
2
100
AcDbSymbolTableRecord
100
AcDbLayerTableRecord
  2
98
 70
     0
 62
    98
  6
CONTINUOUS
  0
LAYER
  5
9C
330
2
100
AcDbSymbolTableRecord
100
AcDbLayerTableRecord
  2
99
 70
     0
 62
    99
  6
CONTINUOUS
  0
LAYER
  5
9D
330
2
100
AcDbSymbolTableRecord
100
AcDbLayerTableRecord
  2
100
 70
     0
 62
   100
  6
CONTINUOUS
  0
LAYER
  5
9E
330
2
100
AcDbSymbolTableRecord
100
AcDbLayerTableRecord
  2
101
 70
     0
 62
   101
  6
CONTINUOUS
  0
LAYER
  5
9F
330
2
100
AcDbSymbolTableRecord
100
AcDbLayerTableRecord
  2
102
 70
     0
 62
   102
  6
CONTINUOUS
  0
LAYER
  5
A0
330
2
100
AcDbSymbolTableRecord
100
AcDbLayerTableRecord
  2
103
 70
     0
 62
   103
  6
CONTINUOUS
  0
LAYER
  5
A1
330
2
100
AcDbSymbolTableRecord
100
AcDbLayerTableRecord
  2
104
 70
     0
 62
   104
  6
CONTINUOUS
  0
LAYER
  5
A2
330
2
100
AcDbSymbolTableRecord
100
AcDbLayerTableRecord
  2
105
 70
     0
 62
   105
  6
CONTINUOUS
  0
LAYER
  5
A3
330
2
100
AcDbSymbolTableRecord
100
AcDbLayerTableRecord
  2
106
 70
     0
 62
   106
  6
CONTINUOUS
  0
LAYER
  5
A4
330
2
100
AcDbSymbolTableRecord
100
AcDbLayerTableRecord
  2
107
 70
     0
 62
   107
  6
CONTINUOUS
  0
LAYER
  5
A5
330
2
100
AcDbSymbolTableRecord
100
AcDbLayerTableRecord
  2
108
 70
     0
 62
   108
  6
CONTINUOUS
  0
LAYER
  5
A6
330
2
100
AcDbSymbolTableRecord
100
AcDbLayerTableRecord
  2
109
 70
     0
 62
   109
  6
CONTINUOUS
  0
LAYER
  5
A7
330
2
100
AcDbSymbolTableRecord
100
AcDbLayerTableRecord
  2
110
 70
     0
 62
   110
  6
CONTINUOUS
  0
LAYER
  5
A8
330
2
100
AcDbSymbolTableRecord
100
AcDbLayerTableRecord
  2
111
 70
     0
 62
   111
  6
CONTINUOUS
  0
LAYER
  5
A9
330
2
100
AcDbSymbolTableRecord
100
AcDbLayerTableRecord
  2
112
 70
     0
 62
   112
  6
CONTINUOUS
  0
LAYER
  5
AA
330
2
100
AcDbSymbolTableRecord
100
AcDbLayerTableRecord
  2
113
 70
     0
 62
   113
  6
CONTINUOUS
  0
LAYER
  5
AB
330
2
100
AcDbSymbolTableRecord
100
AcDbLayerTableRecord
  2
114
 70
     0
 62
   114
  6
CONTINUOUS
  0
LAYER
  5
AC
330
2
100
AcDbSymbolTableRecord
100
AcDbLayerTableRecord
  2
115
 70
     0
 62
   115
  6
CONTINUOUS
  0
LAYER
  5
AD
330
2
100
AcDbSymbolTableRecord
100
AcDbLayerTableRecord
  2
116
 70
     0
 62
   116
  6
CONTINUOUS
  0
LAYER
  5
AE
330
2
100
AcDbSymbolTableRecord
100
AcDbLayerTableRecord
  2
117
 70
     0
 62
   117
  6
CONTINUOUS
  0
LAYER
  5
AF
330
2
100
AcDbSymbolTableRecord
100
AcDbLayerTableRecord
  2
118
 70
     0
 62
   118
  6
CONTINUOUS
  0
LAYER
  5
B0
330
2
100
AcDbSymbolTableRecord
100
AcDbLayerTableRecord
  2
119
 70
     0
 62
   119
  6
CONTINUOUS
  0
LAYER
  5
B1
330
2
100
AcDbSymbolTableRecord
100
AcDbLayerTableRecord
  2
120
 70
     0
 62
   120
  6
CONTINUOUS
  0
LAYER
  5
B2
330
2
100
AcDbSymbolTableRecord
100
AcDbLayerTableRecord
  2
121
 70
     0
 62
   121
  6
CONTINUOUS
  0
LAYER
  5
B3
330
2
100
AcDbSymbolTableRecord
100
AcDbLayerTableRecord
  2
122
 70
     0
 62
   122
  6
CONTINUOUS
  0
LAYER
  5
B4
330
2
100
AcDbSymbolTableRecord
100
AcDbLayerTableRecord
  2
123
 70
     0
 62
   123
  6
CONTINUOUS
  0
LAYER
  5
B5
330
2
100
AcDbSymbolTableRecord
100
AcDbLayerTableRecord
  2
124
 70
     0
 62
   124
  6
CONTINUOUS
  0
LAYER
  5
B6
330
2
100
AcDbSymbolTableRecord
100
AcDbLayerTableRecord
  2
125
 70
     0
 62
   125
  6
CONTINUOUS
  0
LAYER
  5
B7
330
2
100
AcDbSymbolTableRecord
100
AcDbLayerTableRecord
  2
126
 70
     0
 62
   126
  6
CONTINUOUS
  0
LAYER
  5
B8
330
2
100
AcDbSymbolTableRecord
100
AcDbLayerTableRecord
  2
127
 70
     0
 62
   127
  6
CONTINUOUS
  0
LAYER
  5
B9
330
2
100
AcDbSymbolTableRecord
100
AcDbLayerTableRecord
  2
128
 70
     0
 62
   128
  6
CONTINUOUS
  0
LAYER
  5
BA
330
2
100
AcDbSymbolTableRecord
100
AcDbLayerTableRecord
  2
129
 70
     0
 62
   129
  6
CONTINUOUS
  0
LAYER
  5
BB
330
2
100
AcDbSymbolTableRecord
100
AcDbLayerTableRecord
  2
130
 70
     0
 62
   130
  6
CONTINUOUS
  0
LAYER
  5
BC
330
2
100
AcDbSymbolTableRecord
100
AcDbLayerTableRecord
  2
131
 70
     0
 62
   131
  6
CONTINUOUS
  0
LAYER
  5
BD
330
2
100
AcDbSymbolTableRecord
100
AcDbLayerTableRecord
  2
132
 70
     0
 62
   132
  6
CONTINUOUS
  0
LAYER
  5
BE
330
2
100
AcDbSymbolTableRecord
100
AcDbLayerTableRecord
  2
133
 70
     0
 62
   133
  6
CONTINUOUS
  0
LAYER
  5
BF
330
2
100
AcDbSymbolTableRecord
100
AcDbLayerTableRecord
  2
134
 70
     0
 62
   134
  6
CONTINUOUS
  0
LAYER
  5
C0
330
2
100
AcDbSymbolTableRecord
100
AcDbLayerTableRecord
  2
135
 70
     0
 62
   135
  6
CONTINUOUS
  0
LAYER
  5
C1
330
2
100
AcDbSymbolTableRecord
100
AcDbLayerTableRecord
  2
136
 70
     0
 62
   136
  6
CONTINUOUS
  0
LAYER
  5
C2
330
2
100
AcDbSymbolTableRecord
100
AcDbLayerTableRecord
  2
137
 70
     0
 62
   137
  6
CONTINUOUS
  0
LAYER
  5
C3
330
2
100
AcDbSymbolTableRecord
100
AcDbLayerTableRecord
  2
138
 70
     0
 62
   138
  6
CONTINUOUS
  0
LAYER
  5
C4
330
2
100
AcDbSymbolTableRecord
100
AcDbLayerTableRecord
  2
139
 70
     0
 62
   139
  6
CONTINUOUS
  0
LAYER
  5
C5
330
2
100
AcDbSymbolTableRecord
100
AcDbLayerTableRecord
  2
140
 70
     0
 62
   140
  6
CONTINUOUS
  0
LAYER
  5
C6
330
2
100
AcDbSymbolTableRecord
100
AcDbLayerTableRecord
  2
141
 70
     0
 62
   141
  6
CONTINUOUS
  0
LAYER
  5
C7
330
2
100
AcDbSymbolTableRecord
100
AcDbLayerTableRecord
  2
142
 70
     0
 62
   142
  6
CONTINUOUS
  0
LAYER
  5
C8
330
2
100
AcDbSymbolTableRecord
100
AcDbLayerTableRecord
  2
143
 70
     0
 62
   143
  6
CONTINUOUS
  0
LAYER
  5
C9
330
2
100
AcDbSymbolTableRecord
100
AcDbLayerTableRecord
  2
144
 70
     0
 62
   144
  6
CONTINUOUS
  0
LAYER
  5
CA
330
2
100
AcDbSymbolTableRecord
100
AcDbLayerTableRecord
  2
145
 70
     0
 62
   145
  6
CONTINUOUS
  0
LAYER
  5
CB
330
2
100
AcDbSymbolTableRecord
100
AcDbLayerTableRecord
  2
146
 70
     0
 62
   146
  6
CONTINUOUS
  0
LAYER
  5
CC
330
2
100
AcDbSymbolTableRecord
100
AcDbLayerTableRecord
  2
147
 70
     0
 62
   147
  6
CONTINUOUS
  0
LAYER
  5
CD
330
2
100
AcDbSymbolTableRecord
100
AcDbLayerTableRecord
  2
148
 70
     0
 62
   148
  6
CONTINUOUS
  0
LAYER
  5
CE
330
2
100
AcDbSymbolTableRecord
100
AcDbLayerTableRecord
  2
149
 70
     0
 62
   149
  6
CONTINUOUS
  0
LAYER
  5
CF
330
2
100
AcDbSymbolTableRecord
100
AcDbLayerTableRecord
  2
150
 70
     0
 62
   150
  6
CONTINUOUS
  0
LAYER
  5
D0
330
2
100
AcDbSymbolTableRecord
100
AcDbLayerTableRecord
  2
151
 70
     0
 62
   151
  6
CONTINUOUS
  0
LAYER
  5
D1
330
2
100
AcDbSymbolTableRecord
100
AcDbLayerTableRecord
  2
152
 70
     0
 62
   152
  6
CONTINUOUS
  0
LAYER
  5
D2
330
2
100
AcDbSymbolTableRecord
100
AcDbLayerTableRecord
  2
153
 70
     0
 62
   153
  6
CONTINUOUS
  0
LAYER
  5
D3
330
2
100
AcDbSymbolTableRecord
100
AcDbLayerTableRecord
  2
154
 70
     0
 62
   154
  6
CONTINUOUS
  0
LAYER
  5
D4
330
2
100
AcDbSymbolTableRecord
100
AcDbLayerTableRecord
  2
155
 70
     0
 62
   155
  6
CONTINUOUS
  0
LAYER
  5
D5
330
2
100
AcDbSymbolTableRecord
100
AcDbLayerTableRecord
  2
156
 70
     0
 62
   156
  6
CONTINUOUS
  0
LAYER
  5
D6
330
2
100
AcDbSymbolTableRecord
100
AcDbLayerTableRecord
  2
157
 70
     0
 62
   157
  6
CONTINUOUS
  0
LAYER
  5
D7
330
2
100
AcDbSymbolTableRecord
100
AcDbLayerTableRecord
  2
158
 70
     0
 62
   158
  6
CONTINUOUS
  0
LAYER
  5
D8
330
2
100
AcDbSymbolTableRecord
100
AcDbLayerTableRecord
  2
159
 70
     0
 62
   159
  6
CONTINUOUS
  0
LAYER
  5
D9
330
2
100
AcDbSymbolTableRecord
100
AcDbLayerTableRecord
  2
160
 70
     0
 62
   160
  6
CONTINUOUS
  0
LAYER
  5
DA
330
2
100
AcDbSymbolTableRecord
100
AcDbLayerTableRecord
  2
161
 70
     0
 62
   161
  6
CONTINUOUS
  0
LAYER
  5
DB
330
2
100
AcDbSymbolTableRecord
100
AcDbLayerTableRecord
  2
162
 70
     0
 62
   162
  6
CONTINUOUS
  0
LAYER
  5
DC
330
2
100
AcDbSymbolTableRecord
100
AcDbLayerTableRecord
  2
163
 70
     0
 62
   163
  6
CONTINUOUS
  0
LAYER
  5
DD
330
2
100
AcDbSymbolTableRecord
100
AcDbLayerTableRecord
  2
164
 70
     0
 62
   164
  6
CONTINUOUS
  0
LAYER
  5
DE
330
2
100
AcDbSymbolTableRecord
100
AcDbLayerTableRecord
  2
165
 70
     0
 62
   165
  6
CONTINUOUS
  0
LAYER
  5
DF
330
2
100
AcDbSymbolTableRecord
100
AcDbLayerTableRecord
  2
166
 70
     0
 62
   166
  6
CONTINUOUS
  0
LAYER
  5
E0
330
2
100
AcDbSymbolTableRecord
100
AcDbLayerTableRecord
  2
167
 70
     0
 62
   167
  6
CONTINUOUS
  0
LAYER
  5
E1
330
2
100
AcDbSymbolTableRecord
100
AcDbLayerTableRecord
  2
168
 70
     0
 62
   168
  6
CONTINUOUS
  0
LAYER
  5
E2
330
2
100
AcDbSymbolTableRecord
100
AcDbLayerTableRecord
  2
169
 70
     0
 62
   169
  6
CONTINUOUS
  0
LAYER
  5
E3
330
2
100
AcDbSymbolTableRecord
100
AcDbLayerTableRecord
  2
170
 70
     0
 62
   170
  6
CONTINUOUS
  0
LAYER
  5
E4
330
2
100
AcDbSymbolTableRecord
100
AcDbLayerTableRecord
  2
171
 70
     0
 62
   171
  6
CONTINUOUS
  0
LAYER
  5
E5
330
2
100
AcDbSymbolTableRecord
100
AcDbLayerTableRecord
  2
172
 70
     0
 62
   172
  6
CONTINUOUS
  0
LAYER
  5
E6
330
2
100
AcDbSymbolTableRecord
100
AcDbLayerTableRecord
  2
173
 70
     0
 62
   173
  6
CONTINUOUS
  0
LAYER
  5
E7
330
2
100
AcDbSymbolTableRecord
100
AcDbLayerTableRecord
  2
174
 70
     0
 62
   174
  6
CONTINUOUS
  0
LAYER
  5
E8
330
2
100
AcDbSymbolTableRecord
100
AcDbLayerTableRecord
  2
175
 70
     0
 62
   175
  6
CONTINUOUS
  0
LAYER
  5
E9
330
2
100
AcDbSymbolTableRecord
100
AcDbLayerTableRecord
  2
176
 70
     0
 62
   176
  6
CONTINUOUS
  0
LAYER
  5
EA
330
2
100
AcDbSymbolTableRecord
100
AcDbLayerTableRecord
  2
177
 70
     0
 62
   177
  6
CONTINUOUS
  0
LAYER
  5
EB
330
2
100
AcDbSymbolTableRecord
100
AcDbLayerTableRecord
  2
178
 70
     0
 62
   178
  6
CONTINUOUS
  0
LAYER
  5
EC
330
2
100
AcDbSymbolTableRecord
100
AcDbLayerTableRecord
  2
179
 70
     0
 62
   179
  6
CONTINUOUS
  0
LAYER
  5
ED
330
2
100
AcDbSymbolTableRecord
100
AcDbLayerTableRecord
  2
180
 70
     0
 62
   180
  6
CONTINUOUS
  0
LAYER
  5
EE
330
2
100
AcDbSymbolTableRecord
100
AcDbLayerTableRecord
  2
181
 70
     0
 62
   181
  6
CONTINUOUS
  0
LAYER
  5
EF
330
2
100
AcDbSymbolTableRecord
100
AcDbLayerTableRecord
  2
182
 70
     0
 62
   182
  6
CONTINUOUS
  0
LAYER
  5
F0
330
2
100
AcDbSymbolTableRecord
100
AcDbLayerTableRecord
  2
183
 70
     0
 62
   183
  6
CONTINUOUS
  0
LAYER
  5
F1
330
2
100
AcDbSymbolTableRecord
100
AcDbLayerTableRecord
  2
184
 70
     0
 62
   184
  6
CONTINUOUS
  0
LAYER
  5
F2
330
2
100
AcDbSymbolTableRecord
100
AcDbLayerTableRecord
  2
185
 70
     0
 62
   185
  6
CONTINUOUS
  0
LAYER
  5
F3
330
2
100
AcDbSymbolTableRecord
100
AcDbLayerTableRecord
  2
186
 70
     0
 62
   186
  6
CONTINUOUS
  0
LAYER
  5
F4
330
2
100
AcDbSymbolTableRecord
100
AcDbLayerTableRecord
  2
187
 70
     0
 62
   187
  6
CONTINUOUS
  0
LAYER
  5
F5
330
2
100
AcDbSymbolTableRecord
100
AcDbLayerTableRecord
  2
188
 70
     0
 62
   188
  6
CONTINUOUS
  0
LAYER
  5
F6
330
2
100
AcDbSymbolTableRecord
100
AcDbLayerTableRecord
  2
189
 70
     0
 62
   189
  6
CONTINUOUS
  0
LAYER
  5
F7
330
2
100
AcDbSymbolTableRecord
100
AcDbLayerTableRecord
  2
190
 70
     0
 62
   190
  6
CONTINUOUS
  0
LAYER
  5
F8
330
2
100
AcDbSymbolTableRecord
100
AcDbLayerTableRecord
  2
191
 70
     0
 62
   191
  6
CONTINUOUS
  0
LAYER
  5
F9
330
2
100
AcDbSymbolTableRecord
100
AcDbLayerTableRecord
  2
192
 70
     0
 62
   192
  6
CONTINUOUS
  0
LAYER
  5
FA
330
2
100
AcDbSymbolTableRecord
100
AcDbLayerTableRecord
  2
193
 70
     0
 62
   193
  6
CONTINUOUS
  0
LAYER
  5
FB
330
2
100
AcDbSymbolTableRecord
100
AcDbLayerTableRecord
  2
194
 70
     0
 62
   194
  6
CONTINUOUS
  0
LAYER
  5
FC
330
2
100
AcDbSymbolTableRecord
100
AcDbLayerTableRecord
  2
195
 70
     0
 62
   195
  6
CONTINUOUS
  0
LAYER
  5
FD
330
2
100
AcDbSymbolTableRecord
100
AcDbLayerTableRecord
  2
196
 70
     0
 62
   196
  6
CONTINUOUS
  0
LAYER
  5
FE
330
2
100
AcDbSymbolTableRecord
100
AcDbLayerTableRecord
  2
197
 70
     0
 62
   197
  6
CONTINUOUS
  0
LAYER
  5
FF
330
2
100
AcDbSymbolTableRecord
100
AcDbLayerTableRecord
  2
198
 70
     0
 62
   198
  6
CONTINUOUS
  0
LAYER
  5
100
330
2
100
AcDbSymbolTableRecord
100
AcDbLayerTableRecord
  2
199
 70
     0
 62
   199
  6
CONTINUOUS
  0
LAYER
  5
101
330
2
100
AcDbSymbolTableRecord
100
AcDbLayerTableRecord
  2
200
 70
     0
 62
   200
  6
CONTINUOUS
  0
LAYER
  5
102
330
2
100
AcDbSymbolTableRecord
100
AcDbLayerTableRecord
  2
201
 70
     0
 62
   201
  6
CONTINUOUS
  0
LAYER
  5
103
330
2
100
AcDbSymbolTableRecord
100
AcDbLayerTableRecord
  2
202
 70
     0
 62
   202
  6
CONTINUOUS
  0
LAYER
  5
104
330
2
100
AcDbSymbolTableRecord
100
AcDbLayerTableRecord
  2
203
 70
     0
 62
   203
  6
CONTINUOUS
  0
LAYER
  5
105
330
2
100
AcDbSymbolTableRecord
100
AcDbLayerTableRecord
  2
204
 70
     0
 62
   204
  6
CONTINUOUS
  0
LAYER
  5
106
330
2
100
AcDbSymbolTableRecord
100
AcDbLayerTableRecord
  2
205
 70
     0
 62
   205
  6
CONTINUOUS
  0
LAYER
  5
107
330
2
100
AcDbSymbolTableRecord
100
AcDbLayerTableRecord
  2
206
 70
     0
 62
   206
  6
CONTINUOUS
  0
LAYER
  5
108
330
2
100
AcDbSymbolTableRecord
100
AcDbLayerTableRecord
  2
207
 70
     0
 62
   207
  6
CONTINUOUS
  0
LAYER
  5
109
330
2
100
AcDbSymbolTableRecord
100
AcDbLayerTableRecord
  2
208
 70
     0
 62
   208
  6
CONTINUOUS
  0
LAYER
  5
10A
330
2
100
AcDbSymbolTableRecord
100
AcDbLayerTableRecord
  2
209
 70
     0
 62
   209
  6
CONTINUOUS
  0
LAYER
  5
10B
330
2
100
AcDbSymbolTableRecord
100
AcDbLayerTableRecord
  2
210
 70
     0
 62
   210
  6
CONTINUOUS
  0
LAYER
  5
10C
330
2
100
AcDbSymbolTableRecord
100
AcDbLayerTableRecord
  2
211
 70
     0
 62
   211
  6
CONTINUOUS
  0
LAYER
  5
10D
330
2
100
AcDbSymbolTableRecord
100
AcDbLayerTableRecord
  2
212
 70
     0
 62
   212
  6
CONTINUOUS
  0
LAYER
  5
10E
330
2
100
AcDbSymbolTableRecord
100
AcDbLayerTableRecord
  2
213
 70
     0
 62
   213
  6
CONTINUOUS
  0
LAYER
  5
10F
330
2
100
AcDbSymbolTableRecord
100
AcDbLayerTableRecord
  2
214
 70
     0
 62
   214
  6
CONTINUOUS
  0
LAYER
  5
110
330
2
100
AcDbSymbolTableRecord
100
AcDbLayerTableRecord
  2
215
 70
     0
 62
   215
  6
CONTINUOUS
  0
LAYER
  5
111
330
2
100
AcDbSymbolTableRecord
100
AcDbLayerTableRecord
  2
216
 70
     0
 62
   216
  6
CONTINUOUS
  0
LAYER
  5
112
330
2
100
AcDbSymbolTableRecord
100
AcDbLayerTableRecord
  2
217
 70
     0
 62
   217
  6
CONTINUOUS
  0
LAYER
  5
113
330
2
100
AcDbSymbolTableRecord
100
AcDbLayerTableRecord
  2
218
 70
     0
 62
   218
  6
CONTINUOUS
  0
LAYER
  5
114
330
2
100
AcDbSymbolTableRecord
100
AcDbLayerTableRecord
  2
219
 70
     0
 62
   219
  6
CONTINUOUS
  0
LAYER
  5
115
330
2
100
AcDbSymbolTableRecord
100
AcDbLayerTableRecord
  2
220
 70
     0
 62
   220
  6
CONTINUOUS
  0
LAYER
  5
116
330
2
100
AcDbSymbolTableRecord
100
AcDbLayerTableRecord
  2
221
 70
     0
 62
   221
  6
CONTINUOUS
  0
LAYER
  5
117
330
2
100
AcDbSymbolTableRecord
100
AcDbLayerTableRecord
  2
222
 70
     0
 62
   222
  6
CONTINUOUS
  0
LAYER
  5
118
330
2
100
AcDbSymbolTableRecord
100
AcDbLayerTableRecord
  2
223
 70
     0
 62
   223
  6
CONTINUOUS
  0
LAYER
  5
119
330
2
100
AcDbSymbolTableRecord
100
AcDbLayerTableRecord
  2
224
 70
     0
 62
   224
  6
CONTINUOUS
  0
LAYER
  5
11A
330
2
100
AcDbSymbolTableRecord
100
AcDbLayerTableRecord
  2
225
 70
     0
 62
   225
  6
CONTINUOUS
  0
LAYER
  5
11B
330
2
100
AcDbSymbolTableRecord
100
AcDbLayerTableRecord
  2
226
 70
     0
 62
   226
  6
CONTINUOUS
  0
LAYER
  5
11C
330
2
100
AcDbSymbolTableRecord
100
AcDbLayerTableRecord
  2
227
 70
     0
 62
   227
  6
CONTINUOUS
  0
LAYER
  5
11D
330
2
100
AcDbSymbolTableRecord
100
AcDbLayerTableRecord
  2
228
 70
     0
 62
   228
  6
CONTINUOUS
  0
LAYER
  5
11E
330
2
100
AcDbSymbolTableRecord
100
AcDbLayerTableRecord
  2
229
 70
     0
 62
   229
  6
CONTINUOUS
  0
LAYER
  5
11F
330
2
100
AcDbSymbolTableRecord
100
AcDbLayerTableRecord
  2
230
 70
     0
 62
   230
  6
CONTINUOUS
  0
LAYER
  5
120
330
2
100
AcDbSymbolTableRecord
100
AcDbLayerTableRecord
  2
231
 70
     0
 62
   231
  6
CONTINUOUS
  0
LAYER
  5
121
330
2
100
AcDbSymbolTableRecord
100
AcDbLayerTableRecord
  2
232
 70
     0
 62
   232
  6
CONTINUOUS
  0
LAYER
  5
122
330
2
100
AcDbSymbolTableRecord
100
AcDbLayerTableRecord
  2
233
 70
     0
 62
   233
  6
CONTINUOUS
  0
LAYER
  5
123
330
2
100
AcDbSymbolTableRecord
100
AcDbLayerTableRecord
  2
234
 70
     0
 62
   234
  6
CONTINUOUS
  0
LAYER
  5
124
330
2
100
AcDbSymbolTableRecord
100
AcDbLayerTableRecord
  2
235
 70
     0
 62
   235
  6
CONTINUOUS
  0
LAYER
  5
125
330
2
100
AcDbSymbolTableRecord
100
AcDbLayerTableRecord
  2
236
 70
     0
 62
   236
  6
CONTINUOUS
  0
LAYER
  5
126
330
2
100
AcDbSymbolTableRecord
100
AcDbLayerTableRecord
  2
237
 70
     0
 62
   237
  6
CONTINUOUS
  0
LAYER
  5
127
330
2
100
AcDbSymbolTableRecord
100
AcDbLayerTableRecord
  2
238
 70
     0
 62
   238
  6
CONTINUOUS
  0
LAYER
  5
128
330
2
100
AcDbSymbolTableRecord
100
AcDbLayerTableRecord
  2
239
 70
     0
 62
   239
  6
CONTINUOUS
  0
LAYER
  5
129
330
2
100
AcDbSymbolTableRecord
100
AcDbLayerTableRecord
  2
240
 70
     0
 62
   240
  6
CONTINUOUS
  0
LAYER
  5
12A
330
2
100
AcDbSymbolTableRecord
100
AcDbLayerTableRecord
  2
241
 70
     0
 62
   241
  6
CONTINUOUS
  0
LAYER
  5
12B
330
2
100
AcDbSymbolTableRecord
100
AcDbLayerTableRecord
  2
242
 70
     0
 62
   242
  6
CONTINUOUS
  0
LAYER
  5
12C
330
2
100
AcDbSymbolTableRecord
100
AcDbLayerTableRecord
  2
243
 70
     0
 62
   243
  6
CONTINUOUS
  0
LAYER
  5
12D
330
2
100
AcDbSymbolTableRecord
100
AcDbLayerTableRecord
  2
244
 70
     0
 62
   244
  6
CONTINUOUS
  0
LAYER
  5
12E
330
2
100
AcDbSymbolTableRecord
100
AcDbLayerTableRecord
  2
245
 70
     0
 62
   245
  6
CONTINUOUS
  0
LAYER
  5
12F
330
2
100
AcDbSymbolTableRecord
100
AcDbLayerTableRecord
  2
246
 70
     0
 62
   246
  6
CONTINUOUS
  0
LAYER
  5
130
330
2
100
AcDbSymbolTableRecord
100
AcDbLayerTableRecord
  2
247
 70
     0
 62
   247
  6
CONTINUOUS
  0
LAYER
  5
131
330
2
100
AcDbSymbolTableRecord
100
AcDbLayerTableRecord
  2
248
 70
     0
 62
   248
  6
CONTINUOUS
  0
LAYER
  5
132
330
2
100
AcDbSymbolTableRecord
100
AcDbLayerTableRecord
  2
249
 70
     0
 62
   249
  6
CONTINUOUS
  0
LAYER
  5
133
330
2
100
AcDbSymbolTableRecord
100
AcDbLayerTableRecord
  2
250
 70
     0
 62
   250
  6
CONTINUOUS
  0
LAYER
  5
134
330
2
100
AcDbSymbolTableRecord
100
AcDbLayerTableRecord
  2
251
 70
     0
 62
   251
  6
CONTINUOUS
  0
LAYER
  5
135
330
2
100
AcDbSymbolTableRecord
100
AcDbLayerTableRecord
  2
252
 70
     0
 62
   252
  6
CONTINUOUS
  0
LAYER
  5
136
330
2
100
AcDbSymbolTableRecord
100
AcDbLayerTableRecord
  2
253
 70
     0
 62
   253
  6
CONTINUOUS
  0
LAYER
  5
137
330
2
100
AcDbSymbolTableRecord
100
AcDbLayerTableRecord
  2
254
 70
     0
 62
   254
  6
CONTINUOUS
  0
LAYER
  5
138
330
2
100
AcDbSymbolTableRecord
100
AcDbLayerTableRecord
  2
255
 70
     0
 62
   255
  6
CONTINUOUS
  0
ENDTAB
  0
TABLE
  2
STYLE
  5
3
330
0
100
AcDbSymbolTable
 70
     1
  0
STYLE
  5
11
330
3
100
AcDbSymbolTableRecord
100
AcDbTextStyleTableRecord
  2
STANDARD
 70
     0
 40
0.0
 41
1.0
 50
0.0
 71
     0
 42
0.2
  3
monotxt
  4

  0
ENDTAB
  0
TABLE
  2
VIEW
  5
6
330
0
100
AcDbSymbolTable
 70
     0
  0
ENDTAB
  0
TABLE
  2
UCS
  5
7
330
0
100
AcDbSymbolTable
 70
     0
  0
ENDTAB
  0
TABLE
  2
APPID
  5
9
330
0
100
AcDbSymbolTable
 70
     1
  0
APPID
  5
12
330
9
100
AcDbSymbolTableRecord
100
AcDbRegAppTableRecord
  2
ACAD
 70
     0
  0
ENDTAB
  0
TABLE
  2
DIMSTYLE
  5
A
330
0
100
AcDbSymbolTable
 70
     1
  0
DIMSTYLE
105
2580
330
A
100
AcDbSymbolTableRecord
100
AcDbDimStyleTableRecord
  2
STANDARD
 70
     0
  3

  4

  5

  6

  7

 40
1.0
 41
0.18
 42
0.0625
 43
0.38
 44
0.18
 45
0.0
 46
0.0
 47
0.0
 48
0.0
140
0.18
141
0.09
142
0.0
143
25.4
144
1.0
145
0.0
146
1.0
147
0.09
 71
     0
 72
     0
 73
     1
 74
     1
 75
     0
 76
     0
 77
     0
 78
     0
170
     0
171
     2
172
     0
173
     0
174
     0
175
     0
176
     0
177
     0
178
     0
270
     2
271
     4
272
     4
273
     2
274
     2
340
11
275
     0
280
     0
281
     0
282
     0
283
     1
284
     0
285
     0
286
     0
287
     3
288
     0
  0
ENDTAB
  0
TABLE
  2
BLOCK_RECORD
  5
1
330
0
100
AcDbSymbolTable
 70
     0
  0
BLOCK_RECORD
  5
1E
102
{ACAD_XDICTIONARY
360
2AE9
102
}
330
1
100
AcDbSymbolTableRecord
100
AcDbBlockTableRecord
  2
*MODEL_SPACE
  0
BLOCK_RECORD
  5
1A
102
{ACAD_XDICTIONARY
360
2AEB
102
}
330
1
100
AcDbSymbolTableRecord
100
AcDbBlockTableRecord
  2
*PAPER_SPACE
  0
ENDTAB
  0
ENDSEC
  0
SECTION
  2
BLOCKS
  0
BLOCK
  5
13B
330
1E
100
AcDbEntity
  8
0
100
AcDbBlockBegin
  2
*MODEL_SPACE
 70
     0
 10
0.0
 20
0.0
 30
0.0
  3
*MODEL_SPACE
  1

  0
ENDBLK
  5
13C
330
1E
100
AcDbEntity
  8
0
100
AcDbBlockEnd
  0
BLOCK
  5
139
330
1A
100
AcDbEntity
 67
     1
  8
0
100
AcDbBlockBegin
  2
*PAPER_SPACE
 70
     0
 10
0.0
 20
0.0
 30
0.0
  3
*PAPER_SPACE
  1

  0
ENDBLK
  5
13A
330
1A
100
AcDbEntity
 67
     1
  8
0
100
AcDbBlockEnd
  0
ENDSEC
  0
SECTION
  2
ENTITIES
  0
LINE
  5
2B0
330
1E
100
AcDbEntity
  8
7
100
AcDbLine
 10
2.317557825364865
 20
4.195693674834698
 30
0.0
 11
2.492754675758565
 21
4.195693674834698
 31
0.0
  0
LINE
  5
2B1
330
1E
100
AcDbEntity
  8
7
100
AcDbLine
 10
2.443542077333367
 20
3.327583438614226
 30
0.0
 11
2.482912156073526
 21
3.327583438614226
 31
0.0
  0
LINE
  5
2B2
330
1E
100
AcDbEntity
  8
7
100
AcDbLine
 10
2.327400345049905
 20
3.327583438614226
 30
0.0
 11
2.36873892772707
 21
3.327583438614226
 31
0.0
  0
LINE
  5
2B3
330
1E
100
AcDbEntity
  8
7
100
AcDbLine
 10
2.437636565522344
 20
3.301992887433121
 30
0.0
 11
2.49669168363258
 21
3.301992887433121
 31
0.0
  0
LINE
  5
2B4
330
1E
100
AcDbEntity
  8
7
100
AcDbLine
 10
2.372675935601085
 20
3.305929895307137
 30
0.0
 11
2.437636565522344
 21
3.305929895307137
 31
0.0
  0
LINE
  5
2B5
330
1E
100
AcDbEntity
  8
7
100
AcDbLine
 10
2.313620817490846
 20
3.301992887433121
 30
0.0
 11
2.372675935601085
 21
3.301992887433121
 31
0.0
  0
LINE
  5
2B6
330
1E
100
AcDbEntity
  8
7
100
AcDbLine
 10
3.691573573396361
 20
4.368922021291389
 30
0.0
 11
1.754565699380613
 21
4.368922021291389
 31
0.0
  0
LINE
  5
2B7
330
1E
100
AcDbEntity
  8
7
100
AcDbLine
 10
2.953384597018407
 20
4.195693674834698
 30
0.0
 11
3.128581447412107
 21
4.195693674834698
 31
0.0
  0
LINE
  5
2B8
330
1E
100
AcDbEntity
  8
7
100
AcDbLine
 10
2.963227116703446
 20
3.327583438614226
 30
0.0
 11
3.002597195443604
 21
3.327583438614226
 31
0.0
  0
LINE
  5
2B9
330
1E
100
AcDbEntity
  8
7
100
AcDbLine
 10
3.077400345049905
 20
3.327583438614226
 30
0.0
 11
3.11873892772707
 21
3.327583438614226
 31
0.0
  0
LINE
  5
2BA
330
1E
100
AcDbEntity
  8
7
100
AcDbLine
 10
2.949447589144392
 20
3.301992887433121
 30
0.0
 11
3.008502707254626
 21
3.301992887433121
 31
0.0
  0
LINE
  5
2BB
330
1E
100
AcDbEntity
  8
7
100
AcDbLine
 10
3.008502707254626
 20
3.305929895307137
 30
0.0
 11
3.073463337175887
 21
3.305929895307137
 31
0.0
  0
LINE
  5
2BC
330
1E
100
AcDbEntity
  8
7
100
AcDbLine
 10
3.073463337175887
 20
3.301992887433121
 30
0.0
 11
3.130549951349115
 21
3.301992887433121
 31
0.0
  0
LINE
  5
2C9
330
1E
100
AcDbEntity
  8
7
100
AcDbLine
 10
1.215195620640454
 20
3.788213359874067
 30
0.0
 11
4.228975148199507
 21
3.788213359874067
 31
0.0
  0
LINE
  5
2CA
330
1E
100
AcDbEntity
  8
7
100
AcDbLine
 10
4.402203494656205
 20
3.626796037039422
 30
0.0
 11
4.415983022215257
 21
3.422071627590602
 31
0.0
  0
LINE
  5
2DD
330
1E
100
AcDbEntity
  8
7
100
AcDbLine
 10
4.228975148199507
 20
3.788213359874067
 30
0.0
 11
4.266376723002657
 21
3.78427635200005
 31
0.0
  0
LINE
  5
2FE
330
1E
100
AcDbEntity
  8
7
100
AcDbLine
 10
1.179762549774311
 20
3.78427635200005
 30
0.0
 11
1.215195620640454
 21
3.788213359874067
 31
0.0
  0
LINE
  5
309
330
1E
100
AcDbEntity
  8
7
100
AcDbLine
 10
3.150234990719194
 20
4.235063753574854
 30
0.0
 11
3.349053888356989
 21
4.235063753574854
 31
0.0
  0
LINE
  5
30A
330
1E
100
AcDbEntity
  8
7
100
AcDbLine
 10
2.295904282057776
 20
4.235063753574854
 30
0.0
 11
2.095116880482974
 21
4.235063753574854
 31
0.0
  0
LINE
  5
30B
330
1E
100
AcDbEntity
  8
7
100
AcDbLine
 10
2.437636565522344
 20
3.307898399244146
 30
0.0
 11
2.437636565522344
 21
3.301992887433121
 31
0.0
  0
LINE
  5
30C
330
1E
100
AcDbEntity
  8
7
100
AcDbLine
 10
2.372675935601085
 20
3.307898399244146
 30
0.0
 11
2.372675935601085
 21
3.301992887433121
 31
0.0
  0
LINE
  5
30D
330
1E
100
AcDbEntity
  8
7
100
AcDbLine
 10
2.492754675758565
 20
4.197662178771704
 30
0.0
 11
2.492754675758565
 21
4.195693674834698
 31
0.0
  0
LINE
  5
30E
330
1E
100
AcDbEntity
  8
7
100
AcDbLine
 10
2.317557825364865
 20
4.197662178771704
 30
0.0
 11
2.492754675758565
 21
4.197662178771704
 31
0.0
  0
LINE
  5
30F
330
1E
100
AcDbEntity
  8
7
100
AcDbLine
 10
2.317557825364865
 20
4.197662178771704
 30
0.0
 11
2.317557825364865
 21
4.195693674834698
 31
0.0
  0
LINE
  5
310
330
1E
100
AcDbEntity
  8
7
100
AcDbLine
 10
2.492754675758565
 20
4.237032257511861
 30
0.0
 11
2.492754675758565
 21
4.197662178771704
 31
0.0
  0
LINE
  5
31B
330
1E
100
AcDbEntity
  8
7
100
AcDbLine
 10
2.492754675758565
 20
4.264591312629974
 30
0.0
 11
2.492754675758565
 21
4.237032257511861
 31
0.0
  0
LINE
  5
31C
330
1E
100
AcDbEntity
  8
7
100
AcDbLine
 10
2.443542077333367
 20
3.327583438614226
 30
0.0
 11
2.443542077333367
 21
3.32955194255123
 31
0.0
  0
LINE
  5
31D
330
1E
100
AcDbEntity
  8
7
100
AcDbLine
 10
2.482912156073526
 20
3.327583438614226
 30
0.0
 11
2.482912156073526
 21
3.32955194255123
 31
0.0
  0
LINE
  5
31E
330
1E
100
AcDbEntity
  8
7
100
AcDbLine
 10
2.443542077333367
 20
3.32955194255123
 30
0.0
 11
2.482912156073526
 21
3.32955194255123
 31
0.0
  0
LINE
  5
324
330
1E
100
AcDbEntity
  8
7
100
AcDbLine
 10
2.327400345049905
 20
3.327583438614226
 30
0.0
 11
2.327400345049905
 21
3.32955194255123
 31
0.0
  0
LINE
  5
325
330
1E
100
AcDbEntity
  8
7
100
AcDbLine
 10
2.49669168363258
 20
3.307898399244146
 30
0.0
 11
2.437636565522344
 21
3.307898399244146
 31
0.0
  0
LINE
  5
326
330
1E
100
AcDbEntity
  8
7
100
AcDbLine
 10
2.49669168363258
 20
3.301992887433121
 30
0.0
 11
2.49669168363258
 21
3.307898399244146
 31
0.0
  0
LINE
  5
327
330
1E
100
AcDbEntity
  8
7
100
AcDbLine
 10
2.372675935601085
 20
3.307898399244146
 30
0.0
 11
2.437636565522344
 21
3.307898399244146
 31
0.0
  0
LINE
  5
328
330
1E
100
AcDbEntity
  8
7
100
AcDbLine
 10
2.313620817490846
 20
3.307898399244146
 30
0.0
 11
2.372675935601085
 21
3.307898399244146
 31
0.0
  0
LINE
  5
329
330
1E
100
AcDbEntity
  8
7
100
AcDbLine
 10
2.313620817490846
 20
3.301992887433121
 30
0.0
 11
2.313620817490846
 21
3.307898399244146
 31
0.0
  0
LINE
  5
32A
330
1E
100
AcDbEntity
  8
7
100
AcDbLine
 10
2.293935778120768
 20
4.209473202393754
 30
0.0
 11
2.295904282057776
 21
4.209473202393754
 31
0.0
  0
LINE
  5
32B
330
1E
100
AcDbEntity
  8
7
100
AcDbLine
 10
2.295904282057776
 20
4.235063753574854
 30
0.0
 11
2.295904282057776
 21
4.209473202393754
 31
0.0
  0
LINE
  5
32C
330
1E
100
AcDbEntity
  8
7
100
AcDbLine
 10
2.293935778120768
 20
4.235063753574854
 30
0.0
 11
2.293935778120768
 21
4.209473202393754
 31
0.0
  0
LINE
  5
332
330
1E
100
AcDbEntity
  8
7
100
AcDbLine
 10
2.514408219065652
 20
4.235063753574854
 30
0.0
 11
2.514408219065652
 21
4.209473202393754
 31
0.0
  0
LINE
  5
333
330
1E
100
AcDbEntity
  8
7
100
AcDbLine
 10
2.095116880482974
 20
4.209473202393754
 30
0.0
 11
2.293935778120768
 21
4.209473202393754
 31
0.0
  0
LINE
  5
334
330
1E
100
AcDbEntity
  8
7
100
AcDbLine
 10
2.317557825364865
 20
4.209473202393754
 30
0.0
 11
2.295904282057776
 21
4.209473202393754
 31
0.0
  0
LINE
  5
335
330
1E
100
AcDbEntity
  8
7
100
AcDbLine
 10
2.514408219065652
 20
4.209473202393754
 30
0.0
 11
2.492754675758565
 21
4.209473202393754
 31
0.0
  0
LINE
  5
336
330
1E
100
AcDbEntity
  8
7
100
AcDbLine
 10
2.508502707254626
 20
4.264591312629974
 30
0.0
 11
2.508502707254626
 21
4.300024383496113
 31
0.0
  0
LINE
  5
337
330
1E
100
AcDbEntity
  8
7
100
AcDbLine
 10
2.508502707254626
 20
4.337425958299263
 30
0.0
 11
2.508502707254626
 21
4.300024383496113
 31
0.0
  0
LINE
  5
338
330
1E
100
AcDbEntity
  8
7
100
AcDbLine
 10
2.301809793868802
 20
4.337425958299263
 30
0.0
 11
2.508502707254626
 21
4.337425958299263
 31
0.0
  0
LINE
  5
339
330
1E
100
AcDbEntity
  8
7
100
AcDbLine
 10
2.301809793868802
 20
4.264591312629974
 30
0.0
 11
2.317557825364865
 21
4.264591312629974
 31
0.0
  0
LINE
  5
33A
330
1E
100
AcDbEntity
  8
7
100
AcDbLine
 10
2.508502707254626
 20
4.264591312629974
 30
0.0
 11
2.492754675758565
 21
4.264591312629974
 31
0.0
  0
LINE
  5
33B
330
1E
100
AcDbEntity
  8
7
100
AcDbLine
 10
2.301809793868802
 20
4.300024383496113
 30
0.0
 11
2.301809793868802
 21
4.264591312629974
 31
0.0
  0
LINE
  5
33C
330
1E
100
AcDbEntity
  8
7
100
AcDbLine
 10
2.301809793868802
 20
4.300024383496113
 30
0.0
 11
2.301809793868802
 21
4.337425958299263
 31
0.0
  0
LINE
  5
33D
330
1E
100
AcDbEntity
  8
7
100
AcDbLine
 10
2.301809793868802
 20
4.300024383496113
 30
0.0
 11
2.095116880482974
 21
4.300024383496113
 31
0.0
  0
LINE
  5
33E
330
1E
100
AcDbEntity
  8
7
100
AcDbLine
 10
2.095116880482974
 20
3.83348895042525
 30
0.0
 11
2.095116880482974
 21
4.300024383496113
 31
0.0
  0
LINE
  5
33F
330
1E
100
AcDbEntity
  8
7
100
AcDbLine
 10
2.095116880482974
 20
3.83348895042525
 30
0.0
 11
2.156140502530217
 21
3.83348895042525
 31
0.0
  0
LINE
  5
340
330
1E
100
AcDbEntity
  8
7
100
AcDbLine
 10
2.50653420331762
 20
3.422071627590602
 30
0.0
 11
2.49669168363258
 21
3.307898399244146
 31
0.0
  0
LINE
  5
341
330
1E
100
AcDbEntity
  8
7
100
AcDbLine
 10
2.482912156073526
 20
3.32955194255123
 30
0.0
 11
2.484880660010533
 21
3.422071627590602
 31
0.0
  0
LINE
  5
342
330
1E
100
AcDbEntity
  8
7
100
AcDbLine
 10
2.443542077333367
 20
3.32955194255123
 30
0.0
 11
2.441573573396361
 21
3.422071627590602
 31
0.0
  0
LINE
  5
343
330
1E
100
AcDbEntity
  8
7
100
AcDbLine
 10
2.36873892772707
 20
3.32955194255123
 30
0.0
 11
2.36873892772707
 21
3.422071627590602
 31
0.0
  0
LINE
  5
344
330
1E
100
AcDbEntity
  8
7
100
AcDbLine
 10
2.327400345049905
 20
3.32955194255123
 30
0.0
 11
2.327400345049905
 21
3.422071627590602
 31
0.0
  0
LINE
  5
345
330
1E
100
AcDbEntity
  8
7
100
AcDbLine
 10
2.303778297805807
 20
3.422071627590602
 30
0.0
 11
2.313620817490846
 21
3.307898399244146
 31
0.0
  0
LINE
  5
346
330
1E
100
AcDbEntity
  8
7
100
AcDbLine
 10
2.095116880482974
 20
4.122859029165406
 30
0.0
 11
3.349053888356989
 21
4.122859029165406
 31
0.0
  0
LINE
  5
347
330
1E
100
AcDbEntity
  8
7
100
AcDbLine
 10
3.349053888356989
 20
4.209473202393754
 30
0.0
 11
3.150234990719194
 21
4.209473202393754
 31
0.0
  0
LINE
  5
348
330
1E
100
AcDbEntity
  8
7
100
AcDbLine
 10
2.516376723002657
 20
4.209473202393754
 30
0.0
 11
2.929762549774311
 21
4.209473202393754
 31
0.0
  0
LINE
  5
349
330
1E
100
AcDbEntity
  8
7
100
AcDbLine
 10
2.095116880482974
 20
4.111048005543356
 30
0.0
 11
3.349053888356989
 21
4.111048005543356
 31
0.0
  0
LINE
  5
34A
330
1E
100
AcDbEntity
  8
7
100
AcDbLine
 10
3.691573573396361
 20
4.351205485858319
 30
0.0
 11
1.754565699380613
 21
4.351205485858319
 31
0.0
  0
LINE
  5
355
330
1E
100
AcDbEntity
  8
7
100
AcDbLine
 10
3.349053888356989
 20
3.83348895042525
 30
0.0
 11
3.288030266309746
 21
3.83348895042525
 31
0.0
  0
LINE
  5
356
330
1E
100
AcDbEntity
  8
7
100
AcDbLine
 10
3.288030266309746
 20
3.788213359874067
 30
0.0
 11
3.288030266309746
 21
3.83348895042525
 31
0.0
  0
LINE
  5
357
330
1E
100
AcDbEntity
  8
7
100
AcDbLine
 10
3.691573573396361
 20
4.351205485858319
 30
0.0
 11
3.7014160930814
 21
3.788213359874067
 31
0.0
  0
LINE
  5
358
330
1E
100
AcDbEntity
  8
7
100
AcDbLine
 10
1.754565699380613
 20
4.351205485858319
 30
0.0
 11
1.744723179695572
 21
3.788213359874067
 31
0.0
  0
LINE
  5
359
330
1E
100
AcDbEntity
  8
7
100
AcDbLine
 10
2.158109006467228
 20
3.788213359874067
 30
0.0
 11
2.156140502530217
 21
3.83348895042525
 31
0.0
  0
LINE
  5
35A
330
1E
100
AcDbEntity
  8
7
100
AcDbLine
 10
2.937636565522344
 20
4.300024383496113
 30
0.0
 11
2.508502707254626
 21
4.300024383496113
 31
0.0
  0
LINE
  5
35B
330
1E
100
AcDbEntity
  8
7
100
AcDbLine
 10
2.935668061585335
 20
4.337425958299263
 30
0.0
 11
2.937636565522344
 21
4.300024383496113
 31
0.0
  0
LINE
  5
35C
330
1E
100
AcDbEntity
  8
7
100
AcDbLine
 10
3.144329478908172
 20
4.337425958299263
 30
0.0
 11
2.935668061585335
 21
4.337425958299263
 31
0.0
  0
LINE
  5
35D
330
1E
100
AcDbEntity
  8
7
100
AcDbLine
 10
3.144329478908172
 20
4.300024383496113
 30
0.0
 11
3.144329478908172
 21
4.337425958299263
 31
0.0
  0
LINE
  5
35E
330
1E
100
AcDbEntity
  8
7
100
AcDbLine
 10
3.144329478908172
 20
4.300024383496113
 30
0.0
 11
3.349053888356989
 21
4.300024383496113
 31
0.0
  0
LINE
  5
35F
330
1E
100
AcDbEntity
  8
7
100
AcDbLine
 10
3.349053888356989
 20
3.83348895042525
 30
0.0
 11
3.349053888356989
 21
4.300024383496113
 31
0.0
  0
LINE
  5
365
330
1E
100
AcDbEntity
  8
7
100
AcDbLine
 10
2.652203494656205
 20
3.788213359874067
 30
0.0
 11
2.654171998593209
 21
3.83348895042525
 31
0.0
  0
LINE
  5
366
330
1E
100
AcDbEntity
  8
7
100
AcDbLine
 10
2.929762549774311
 20
4.235063753574854
 30
0.0
 11
2.514408219065652
 21
4.235063753574854
 31
0.0
  0
LINE
  5
36C
330
1E
100
AcDbEntity
  8
7
100
AcDbLine
 10
2.937636565522344
 20
4.264591312629974
 30
0.0
 11
2.953384597018407
 21
4.264591312629974
 31
0.0
  0
LINE
  5
36D
330
1E
100
AcDbEntity
  8
7
100
AcDbLine
 10
2.937636565522344
 20
4.264591312629974
 30
0.0
 11
2.937636565522344
 21
4.300024383496113
 31
0.0
  0
LINE
  5
36E
330
1E
100
AcDbEntity
  8
7
100
AcDbLine
 10
2.929762549774311
 20
4.209473202393754
 30
0.0
 11
2.929762549774311
 21
4.235063753574854
 31
0.0
  0
LINE
  5
36F
330
1E
100
AcDbEntity
  8
7
100
AcDbLine
 10
3.008502707254626
 20
3.307898399244146
 30
0.0
 11
3.008502707254626
 21
3.301992887433121
 31
0.0
  0
LINE
  5
370
330
1E
100
AcDbEntity
  8
7
100
AcDbLine
 10
3.073463337175887
 20
3.307898399244146
 30
0.0
 11
3.073463337175887
 21
3.301992887433121
 31
0.0
  0
LINE
  5
371
330
1E
100
AcDbEntity
  8
7
100
AcDbLine
 10
2.953384597018407
 20
4.197662178771704
 30
0.0
 11
2.953384597018407
 21
4.195693674834698
 31
0.0
  0
LINE
  5
372
330
1E
100
AcDbEntity
  8
7
100
AcDbLine
 10
3.128581447412107
 20
4.197662178771704
 30
0.0
 11
3.128581447412107
 21
4.195693674834698
 31
0.0
  0
LINE
  5
373
330
1E
100
AcDbEntity
  8
7
100
AcDbLine
 10
3.128581447412107
 20
4.197662178771704
 30
0.0
 11
2.953384597018407
 21
4.197662178771704
 31
0.0
  0
LINE
  5
374
330
1E
100
AcDbEntity
  8
7
100
AcDbLine
 10
3.128581447412107
 20
4.237032257511861
 30
0.0
 11
3.128581447412107
 21
4.197662178771704
 31
0.0
  0
LINE
  5
375
330
1E
100
AcDbEntity
  8
7
100
AcDbLine
 10
2.953384597018407
 20
4.237032257511861
 30
0.0
 11
3.128581447412107
 21
4.237032257511861
 31
0.0
  0
LINE
  5
376
330
1E
100
AcDbEntity
  8
7
100
AcDbLine
 10
2.953384597018407
 20
4.237032257511861
 30
0.0
 11
2.953384597018407
 21
4.197662178771704
 31
0.0
  0
LINE
  5
377
330
1E
100
AcDbEntity
  8
7
100
AcDbLine
 10
2.953384597018407
 20
4.264591312629974
 30
0.0
 11
3.128581447412107
 21
4.264591312629974
 31
0.0
  0
LINE
  5
378
330
1E
100
AcDbEntity
  8
7
100
AcDbLine
 10
2.953384597018407
 20
4.264591312629974
 30
0.0
 11
2.953384597018407
 21
4.237032257511861
 31
0.0
  0
LINE
  5
379
330
1E
100
AcDbEntity
  8
7
100
AcDbLine
 10
3.128581447412107
 20
4.264591312629974
 30
0.0
 11
3.128581447412107
 21
4.237032257511861
 31
0.0
  0
LINE
  5
37A
330
1E
100
AcDbEntity
  8
7
100
AcDbLine
 10
3.002597195443604
 20
3.327583438614226
 30
0.0
 11
3.002597195443604
 21
3.32955194255123
 31
0.0
  0
LINE
  5
37B
330
1E
100
AcDbEntity
  8
7
100
AcDbLine
 10
3.002597195443604
 20
3.32955194255123
 30
0.0
 11
2.963227116703446
 21
3.32955194255123
 31
0.0
  0
LINE
  5
37C
330
1E
100
AcDbEntity
  8
7
100
AcDbLine
 10
2.963227116703446
 20
3.327583438614226
 30
0.0
 11
2.963227116703446
 21
3.32955194255123
 31
0.0
  0
LINE
  5
37D
330
1E
100
AcDbEntity
  8
7
100
AcDbLine
 10
3.077400345049905
 20
3.327583438614226
 30
0.0
 11
3.077400345049905
 21
3.32955194255123
 31
0.0
  0
LINE
  5
37E
330
1E
100
AcDbEntity
  8
7
100
AcDbLine
 10
3.11873892772707
 20
3.327583438614226
 30
0.0
 11
3.11873892772707
 21
3.32955194255123
 31
0.0
  0
LINE
  5
37F
330
1E
100
AcDbEntity
  8
7
100
AcDbLine
 10
3.077400345049905
 20
3.32955194255123
 30
0.0
 11
3.11873892772707
 21
3.32955194255123
 31
0.0
  0
LINE
  5
380
330
1E
100
AcDbEntity
  8
7
100
AcDbLine
 10
2.947479085207383
 20
3.307898399244146
 30
0.0
 11
3.008502707254626
 21
3.307898399244146
 31
0.0
  0
LINE
  5
381
330
1E
100
AcDbEntity
  8
7
100
AcDbLine
 10
2.949447589144392
 20
3.301992887433121
 30
0.0
 11
2.947479085207383
 21
3.307898399244146
 31
0.0
  0
LINE
  5
382
330
1E
100
AcDbEntity
  8
7
100
AcDbLine
 10
3.073463337175887
 20
3.307898399244146
 30
0.0
 11
3.008502707254626
 21
3.307898399244146
 31
0.0
  0
LINE
  5
383
330
1E
100
AcDbEntity
  8
7
100
AcDbLine
 10
3.132518455286124
 20
3.307898399244146
 30
0.0
 11
3.073463337175887
 21
3.307898399244146
 31
0.0
  0
LINE
  5
384
330
1E
100
AcDbEntity
  8
7
100
AcDbLine
 10
3.130549951349115
 20
3.301992887433121
 30
0.0
 11
3.132518455286124
 21
3.307898399244146
 31
0.0
  0
LINE
  5
385
330
1E
100
AcDbEntity
  8
7
100
AcDbLine
 10
3.150234990719194
 20
4.235063753574854
 30
0.0
 11
3.150234990719194
 21
4.209473202393754
 31
0.0
  0
LINE
  5
386
330
1E
100
AcDbEntity
  8
7
100
AcDbLine
 10
3.150234990719194
 20
4.235063753574854
 30
0.0
 11
3.150234990719194
 21
4.209473202393754
 31
0.0
  0
LINE
  5
387
330
1E
100
AcDbEntity
  8
7
100
AcDbLine
 10
2.931731053711322
 20
4.209473202393754
 30
0.0
 11
2.929762549774311
 21
4.209473202393754
 31
0.0
  0
LINE
  5
388
330
1E
100
AcDbEntity
  8
7
100
AcDbLine
 10
3.128581447412107
 20
4.209473202393754
 30
0.0
 11
3.150234990719194
 21
4.209473202393754
 31
0.0
  0
LINE
  5
389
330
1E
100
AcDbEntity
  8
7
100
AcDbLine
 10
3.142360974971166
 20
4.264591312629974
 30
0.0
 11
3.128581447412107
 21
4.264591312629974
 31
0.0
  0
LINE
  5
38A
330
1E
100
AcDbEntity
  8
7
100
AcDbLine
 10
3.144329478908172
 20
4.300024383496113
 30
0.0
 11
3.142360974971166
 21
4.264591312629974
 31
0.0
  0
LINE
  5
38B
330
1E
100
AcDbEntity
  8
7
100
AcDbLine
 10
2.939605069459355
 20
3.422071627590602
 30
0.0
 11
2.947479085207383
 21
3.307898399244146
 31
0.0
  0
LINE
  5
38C
330
1E
100
AcDbEntity
  8
7
100
AcDbLine
 10
2.963227116703446
 20
3.32955194255123
 30
0.0
 11
2.961258612766437
 21
3.422071627590602
 31
0.0
  0
LINE
  5
38D
330
1E
100
AcDbEntity
  8
7
100
AcDbLine
 10
3.002597195443604
 20
3.32955194255123
 30
0.0
 11
3.004565699380613
 21
3.422071627590602
 31
0.0
  0
LINE
  5
38E
330
1E
100
AcDbEntity
  8
7
100
AcDbLine
 10
3.077400345049905
 20
3.32955194255123
 30
0.0
 11
3.077400345049905
 21
3.422071627590602
 31
0.0
  0
LINE
  5
38F
330
1E
100
AcDbEntity
  8
7
100
AcDbLine
 10
3.11873892772707
 20
3.32955194255123
 30
0.0
 11
3.11873892772707
 21
3.422071627590602
 31
0.0
  0
LINE
  5
390
330
1E
100
AcDbEntity
  8
7
100
AcDbLine
 10
3.142360974971166
 20
3.422071627590602
 30
0.0
 11
3.132518455286124
 21
3.307898399244146
 31
0.0
  0
LINE
  5
39E
330
1E
100
AcDbEntity
  8
7
100
AcDbLine
 10
1.68369955764833
 20
3.788213359874067
 30
0.0
 11
1.691573573396361
 21
4.307898399244146
 31
0.0
  0
LINE
  5
22E2
330
1E
100
AcDbEntity
  8
7
100
AcDbLine
 10
1.68369955764833
 20
9.707504698456746
 30
0.0
 11
1.68369955764833
 21
7.758685800818948
 31
0.0
  0
LINE
  5
22EB
330
1E
100
AcDbEntity
  8
7
100
AcDbLine
 10
3.7014160930814
 20
9.888607060661469
 30
0.0
 11
1.744723179695572
 21
9.888607060661469
 31
0.0
  0
LINE
  5
22F4
330
1E
100
AcDbEntity
  8
7
100
AcDbLine
 10
3.762439715128644
 20
9.707504698456746
 30
0.0
 11
3.762439715128644
 21
7.758685800818948
 31
0.0
  0
LINE
  5
2306
330
1E
100
AcDbEntity
  8
7
100
AcDbLine
 10
2.652203494656205
 20
7.672071627590602
 30
0.0
 11
2.791967274183763
 21
7.672071627590602
 31
0.0
  0
LINE
  5
2307
330
1E
100
AcDbEntity
  8
7
100
AcDbLine
 10
2.530156250561715
 20
7.672071627590602
 30
0.0
 11
2.652203494656205
 21
7.672071627590602
 31
0.0
  0
LINE
  5
2308
330
1E
100
AcDbEntity
  8
7
100
AcDbLine
 10
2.280156250561715
 20
7.672071627590602
 30
0.0
 11
2.530156250561715
 21
7.672071627590602
 31
0.0
  0
LINE
  5
2326
330
1E
100
AcDbEntity
  8
7
100
AcDbLine
 10
1.398266486782187
 20
8.782307848063039
 30
0.0
 11
1.406140502530217
 21
8.735063753574854
 31
0.0
  0
LINE
  5
234B
330
1E
100
AcDbEntity
  8
7
100
AcDbLine
 10
1.045904282057776
 20
10.47522123388981
 30
0.0
 11
1.059683809616831
 21
10.46144170633076
 31
0.0
  0
LINE
  5
2364
330
1E
100
AcDbEntity
  8
7
100
AcDbLine
 10
1.030156250561715
 20
10.46144170633076
 30
0.0
 11
1.030156250561715
 21
7.105142493732333
 31
0.0
  0
LINE
  5
23DD
330
1E
100
AcDbEntity
  8
7
100
AcDbLine
 10
1.585274360797932
 20
8.729158241763828
 30
0.0
 11
1.585274360797932
 21
8.837425958299263
 31
0.0
  0
LINE
  5
23E4
330
1E
100
AcDbEntity
  8
7
100
AcDbLine
 10
1.484880660010533
 20
8.837425958299263
 30
0.0
 11
1.484880660010533
 21
8.729158241763828
 31
0.0
  0
LINE
  5
23EB
330
1E
100
AcDbEntity
  8
7
100
AcDbLine
 10
3.860864911979033
 20
8.837425958299263
 30
0.0
 11
3.860864911979033
 21
8.729158241763828
 31
0.0
  0
LINE
  5
23F2
330
1E
100
AcDbEntity
  8
7
100
AcDbLine
 10
3.961258612766437
 20
8.729158241763828
 30
0.0
 11
3.961258612766437
 21
8.837425958299263
 31
0.0
  0
LINE
  5
2422
330
1E
100
AcDbEntity
  8
7
100
AcDbLine
 10
3.782124754498722
 20
8.82955194255123
 30
0.0
 11
3.774250738750691
 21
8.782307848063039
 31
0.0
  0
LINE
  5
242E
330
1E
100
AcDbEntity
  8
7
100
AcDbLine
 10
3.980943652136517
 20
8.801992887433124
 30
0.0
 11
3.95929010882943
 21
8.835457454362257
 31
0.0
  0
LINE
  5
2461
330
1E
100
AcDbEntity
  8
7
100
AcDbLine
 10
1.484880660010533
 20
8.837425958299263
 30
0.0
 11
1.484880660010533
 21
8.729158241763828
 31
0.0
  0
LINE
  5
2462
330
1E
100
AcDbEntity
  8
7
100
AcDbLine
 10
1.585274360797932
 20
8.729158241763828
 30
0.0
 11
1.585274360797932
 21
8.837425958299263
 31
0.0
  0
LINE
  5
2463
330
1E
100
AcDbEntity
  8
7
100
AcDbLine
 10
3.961258612766437
 20
8.729158241763828
 30
0.0
 11
3.961258612766437
 21
8.837425958299263
 31
0.0
  0
LINE
  5
2464
330
1E
100
AcDbEntity
  8
7
100
AcDbLine
 10
3.860864911979033
 20
8.837425958299263
 30
0.0
 11
3.860864911979033
 21
8.729158241763828
 31
0.0
  0
LINE
  5
2465
330
1E
100
AcDbEntity
  8
7
100
AcDbLine
 10
3.286061762372737
 20
7.735063753574854
 30
0.0
 11
3.160077510404237
 21
7.735063753574854
 31
0.0
  0
LINE
  5
2466
330
1E
100
AcDbEntity
  8
7
100
AcDbLine
 10
3.288030266309746
 20
7.782307848063039
 30
0.0
 11
3.286061762372737
 21
7.735063753574854
 31
0.0
  0
LINE
  5
2467
330
1E
100
AcDbEntity
  8
7
100
AcDbLine
 10
3.349053888356989
 20
7.782307848063039
 30
0.0
 11
3.288030266309746
 21
7.782307848063039
 31
0.0
  0
LINE
  5
246E
330
1E
100
AcDbEntity
  8
7
100
AcDbLine
 10
2.492754675758565
 20
8.193725170897689
 30
0.0
 11
2.317557825364865
 21
8.193725170897689
 31
0.0
  0
LINE
  5
2474
330
1E
100
AcDbEntity
  8
7
100
AcDbLine
 10
2.492754675758565
 20
8.221284226015802
 30
0.0
 11
2.492754675758565
 21
8.193725170897689
 31
0.0
  0
LINE
  5
2475
330
1E
100
AcDbEntity
  8
7
100
AcDbLine
 10
2.30968380961683
 20
8.122859029165404
 30
0.0
 11
2.500628691506596
 21
8.122859029165404
 31
0.0
  0
LINE
  5
247B
330
1E
100
AcDbEntity
  8
7
100
AcDbLine
 10
2.307715305679824
 20
8.095299974047298
 30
0.0
 11
2.30968380961683
 21
8.122859029165404
 31
0.0
  0
LINE
  5
2481
330
1E
100
AcDbEntity
  8
7
100
AcDbLine
 10
2.502597195443604
 20
8.095299974047298
 30
0.0
 11
2.502597195443604
 21
8.089394462236271
 31
0.0
  0
LINE
  5
2487
330
1E
100
AcDbEntity
  8
7
100
AcDbLine
 10
2.307715305679824
 20
8.087425958299263
 30
0.0
 11
2.307715305679824
 21
8.089394462236271
 31
0.0
  0
LINE
  5
248D
330
1E
100
AcDbEntity
  8
7
100
AcDbLine
 10
2.502597195443604
 20
8.087425958299263
 30
0.0
 11
2.502597195443604
 21
8.069709422866193
 31
0.0
  0
LINE
  5
2493
330
1E
100
AcDbEntity
  8
7
100
AcDbLine
 10
2.502597195443604
 20
8.069709422866193
 30
0.0
 11
2.502597195443604
 21
8.061835407118158
 31
0.0
  0
LINE
  5
2499
330
1E
100
AcDbEntity
  8
7
100
AcDbLine
 10
2.508502707254626
 20
8.223252729952807
 30
0.0
 11
2.508502707254626
 21
8.183882651212647
 31
0.0
  0
LINE
  5
249A
330
1E
100
AcDbEntity
  8
7
100
AcDbLine
 10
2.301809793868802
 20
8.223252729952807
 30
0.0
 11
2.508502707254626
 21
8.223252729952807
 31
0.0
  0
LINE
  5
24A0
330
1E
100
AcDbEntity
  8
7
100
AcDbLine
 10
2.508502707254626
 20
8.221284226015802
 30
0.0
 11
2.492754675758565
 21
8.221284226015802
 31
0.0
  0
LINE
  5
24A1
330
1E
100
AcDbEntity
  8
7
100
AcDbLine
 10
2.301809793868802
 20
8.183882651212647
 30
0.0
 11
2.301809793868802
 21
8.221284226015802
 31
0.0
  0
LINE
  5
24A2
330
1E
100
AcDbEntity
  8
7
100
AcDbLine
 10
2.301809793868802
 20
8.183882651212647
 30
0.0
 11
2.301809793868802
 21
8.223252729952807
 31
0.0
  0
LINE
  5
24A3
330
1E
100
AcDbEntity
  8
7
100
AcDbLine
 10
2.301809793868802
 20
8.183882651212647
 30
0.0
 11
2.095116880482974
 21
8.183882651212647
 31
0.0
  0
LINE
  5
24A4
330
1E
100
AcDbEntity
  8
7
100
AcDbLine
 10
2.095116880482974
 20
7.71734721814178
 30
0.0
 11
2.095116880482974
 21
8.183882651212647
 31
0.0
  0
LINE
  5
24AA
330
1E
100
AcDbEntity
  8
7
100
AcDbLine
 10
2.158109006467228
 20
7.672071627590602
 30
0.0
 11
2.158109006467228
 21
7.735063753574854
 31
0.0
  0
LINE
  5
24AB
330
1E
100
AcDbEntity
  8
7
100
AcDbLine
 10
2.502597195443604
 20
8.040181863811076
 30
0.0
 11
2.530156250561715
 21
7.672071627590602
 31
0.0
  0
LINE
  5
24B1
330
1E
100
AcDbEntity
  8
7
100
AcDbLine
 10
2.652203494656205
 20
7.672071627590602
 30
0.0
 11
2.652203494656205
 21
7.735063753574854
 31
0.0
  0
LINE
  5
24B2
330
1E
100
AcDbEntity
  8
7
100
AcDbLine
 10
2.5262192426877
 20
7.735063753574854
 30
0.0
 11
2.652203494656205
 21
7.735063753574854
 31
0.0
  0
LINE
  5
24B3
330
1E
100
AcDbEntity
  8
7
100
AcDbLine
 10
2.502597195443604
 20
8.061835407118158
 30
0.0
 11
2.502597195443604
 21
8.040181863811076
 31
0.0
  0
LINE
  5
24B4
330
1E
100
AcDbEntity
  8
7
100
AcDbLine
 10
2.307715305679824
 20
8.040181863811076
 30
0.0
 11
2.307715305679824
 21
8.061835407118158
 31
0.0
  0
LINE
  5
24B5
330
1E
100
AcDbEntity
  8
7
100
AcDbLine
 10
2.791967274183763
 20
7.782307848063039
 30
0.0
 11
2.652203494656205
 21
7.782307848063039
 31
0.0
  0
LINE
  5
24B6
330
1E
100
AcDbEntity
  8
7
100
AcDbLine
 10
2.791967274183763
 20
7.782307848063039
 30
0.0
 11
2.793935778120768
 21
7.735063753574854
 31
0.0
  0
LINE
  5
24B7
330
1E
100
AcDbEntity
  8
7
100
AcDbLine
 10
2.919920030089274
 20
7.735063753574854
 30
0.0
 11
2.793935778120768
 21
7.735063753574854
 31
0.0
  0
LINE
  5
24B8
330
1E
100
AcDbEntity
  8
7
100
AcDbLine
 10
2.652203494656205
 20
7.782307848063039
 30
0.0
 11
2.652203494656205
 21
7.735063753574854
 31
0.0
  0
LINE
  5
24B9
330
1E
100
AcDbEntity
  8
7
100
AcDbLine
 10
1.754565699380613
 20
8.300024383496118
 30
0.0
 11
3.691573573396361
 21
8.300024383496118
 31
0.0
  0
LINE
  5
24BA
330
1E
100
AcDbEntity
  8
7
100
AcDbLine
 10
3.7014160930814
 20
9.888607060661469
 30
0.0
 11
3.691573573396361
 21
8.300024383496118
 31
0.0
  0
LINE
  5
24BB
330
1E
100
AcDbEntity
  8
7
100
AcDbLine
 10
1.744723179695572
 20
9.888607060661469
 30
0.0
 11
1.754565699380613
 21
8.300024383496118
 31
0.0
  0
LINE
  5
24BC
330
1E
100
AcDbEntity
  8
7
100
AcDbLine
 10
3.691573573396361
 20
8.235063753574854
 30
0.0
 11
1.754565699380613
 21
8.235063753574854
 31
0.0
  0
LINE
  5
24C7
330
1E
100
AcDbEntity
  8
7
100
AcDbLine
 10
3.349053888356989
 20
7.71734721814178
 30
0.0
 11
3.288030266309746
 21
7.71734721814178
 31
0.0
  0
LINE
  5
24C8
330
1E
100
AcDbEntity
  8
7
100
AcDbLine
 10
3.288030266309746
 20
7.672071627590602
 30
0.0
 11
3.288030266309746
 21
7.71734721814178
 31
0.0
  0
LINE
  5
24C9
330
1E
100
AcDbEntity
  8
7
100
AcDbLine
 10
3.691573573396361
 20
8.235063753574854
 30
0.0
 11
3.7014160930814
 21
7.672071627590602
 31
0.0
  0
LINE
  5
24CA
330
1E
100
AcDbEntity
  8
7
100
AcDbLine
 10
1.754565699380613
 20
8.235063753574854
 30
0.0
 11
1.744723179695572
 21
7.672071627590602
 31
0.0
  0
LINE
  5
24CB
330
1E
100
AcDbEntity
  8
7
100
AcDbLine
 10
2.158109006467228
 20
7.672071627590602
 30
0.0
 11
2.156140502530217
 21
7.71734721814178
 31
0.0
  0
LINE
  5
24CC
330
1E
100
AcDbEntity
  8
7
100
AcDbLine
 10
2.937636565522344
 20
8.183882651212647
 30
0.0
 11
2.508502707254626
 21
8.183882651212647
 31
0.0
  0
LINE
  5
24CD
330
1E
100
AcDbEntity
  8
7
100
AcDbLine
 10
2.935668061585335
 20
8.223252729952807
 30
0.0
 11
2.937636565522344
 21
8.183882651212647
 31
0.0
  0
LINE
  5
24CE
330
1E
100
AcDbEntity
  8
7
100
AcDbLine
 10
3.144329478908172
 20
8.223252729952807
 30
0.0
 11
2.935668061585335
 21
8.223252729952807
 31
0.0
  0
LINE
  5
24CF
330
1E
100
AcDbEntity
  8
7
100
AcDbLine
 10
3.144329478908172
 20
8.183882651212647
 30
0.0
 11
3.144329478908172
 21
8.223252729952807
 31
0.0
  0
LINE
  5
24D0
330
1E
100
AcDbEntity
  8
7
100
AcDbLine
 10
3.144329478908172
 20
8.183882651212647
 30
0.0
 11
3.349053888356989
 21
8.183882651212647
 31
0.0
  0
LINE
  5
24D1
330
1E
100
AcDbEntity
  8
7
100
AcDbLine
 10
3.349053888356989
 20
7.71734721814178
 30
0.0
 11
3.349053888356989
 21
8.183882651212647
 31
0.0
  0
LINE
  5
24D7
330
1E
100
AcDbEntity
  8
7
100
AcDbLine
 10
2.652203494656205
 20
7.672071627590602
 30
0.0
 11
2.654171998593209
 21
7.71734721814178
 31
0.0
  0
LINE
  5
24D8
330
1E
100
AcDbEntity
  8
7
100
AcDbLine
 10
2.791967274183763
 20
7.71734721814178
 30
0.0
 11
2.791967274183763
 21
7.782307848063039
 31
0.0
  0
LINE
  5
24D9
330
1E
100
AcDbEntity
  8
7
100
AcDbLine
 10
2.652203494656205
 20
7.782307848063039
 30
0.0
 11
2.654171998593209
 21
7.71734721814178
 31
0.0
  0
LINE
  5
24DA
330
1E
100
AcDbEntity
  8
7
100
AcDbLine
 10
2.937636565522344
 20
8.221284226015802
 30
0.0
 11
2.953384597018407
 21
8.221284226015802
 31
0.0
  0
LINE
  5
24DB
330
1E
100
AcDbEntity
  8
7
100
AcDbLine
 10
2.937636565522344
 20
8.221284226015802
 30
0.0
 11
2.937636565522344
 21
8.183882651212647
 31
0.0
  0
LINE
  5
24DC
330
1E
100
AcDbEntity
  8
7
100
AcDbLine
 10
2.953384597018407
 20
8.193725170897689
 30
0.0
 11
3.128581447412107
 21
8.193725170897689
 31
0.0
  0
LINE
  5
24DD
330
1E
100
AcDbEntity
  8
7
100
AcDbLine
 10
2.953384597018407
 20
8.221284226015802
 30
0.0
 11
3.128581447412107
 21
8.221284226015802
 31
0.0
  0
LINE
  5
24DE
330
1E
100
AcDbEntity
  8
7
100
AcDbLine
 10
2.953384597018407
 20
8.221284226015802
 30
0.0
 11
2.953384597018407
 21
8.193725170897689
 31
0.0
  0
LINE
  5
24DF
330
1E
100
AcDbEntity
  8
7
100
AcDbLine
 10
3.128581447412107
 20
8.221284226015802
 30
0.0
 11
3.128581447412107
 21
8.193725170897689
 31
0.0
  0
LINE
  5
24E0
330
1E
100
AcDbEntity
  8
7
100
AcDbLine
 10
3.136455463160141
 20
8.122859029165404
 30
0.0
 11
2.943542077333367
 21
8.122859029165404
 31
0.0
  0
LINE
  5
24E1
330
1E
100
AcDbEntity
  8
7
100
AcDbLine
 10
3.138423967097146
 20
8.095299974047298
 30
0.0
 11
2.941573573396361
 21
8.095299974047298
 31
0.0
  0
LINE
  5
24E2
330
1E
100
AcDbEntity
  8
7
100
AcDbLine
 10
3.138423967097146
 20
8.095299974047298
 30
0.0
 11
3.136455463160141
 21
8.122859029165404
 31
0.0
  0
LINE
  5
24E3
330
1E
100
AcDbEntity
  8
7
100
AcDbLine
 10
2.941573573396361
 20
8.095299974047298
 30
0.0
 11
2.943542077333367
 21
8.122859029165404
 31
0.0
  0
LINE
  5
24E4
330
1E
100
AcDbEntity
  8
7
100
AcDbLine
 10
3.138423967097146
 20
8.095299974047298
 30
0.0
 11
3.138423967097146
 21
8.089394462236271
 31
0.0
  0
LINE
  5
24E5
330
1E
100
AcDbEntity
  8
7
100
AcDbLine
 10
2.941573573396361
 20
8.095299974047298
 30
0.0
 11
2.941573573396361
 21
8.089394462236271
 31
0.0
  0
LINE
  5
24E6
330
1E
100
AcDbEntity
  8
7
100
AcDbLine
 10
3.138423967097146
 20
8.089394462236271
 30
0.0
 11
2.941573573396361
 21
8.089394462236271
 31
0.0
  0
LINE
  5
24E7
330
1E
100
AcDbEntity
  8
7
100
AcDbLine
 10
3.138423967097146
 20
8.087425958299263
 30
0.0
 11
2.941573573396361
 21
8.087425958299263
 31
0.0
  0
LINE
  5
24E8
330
1E
100
AcDbEntity
  8
7
100
AcDbLine
 10
3.138423967097146
 20
8.087425958299263
 30
0.0
 11
3.138423967097146
 21
8.089394462236271
 31
0.0
  0
LINE
  5
24E9
330
1E
100
AcDbEntity
  8
7
100
AcDbLine
 10
2.941573573396361
 20
8.087425958299263
 30
0.0
 11
2.941573573396361
 21
8.089394462236271
 31
0.0
  0
LINE
  5
24EA
330
1E
100
AcDbEntity
  8
7
100
AcDbLine
 10
3.138423967097146
 20
8.087425958299263
 30
0.0
 11
3.138423967097146
 21
8.069709422866193
 31
0.0
  0
LINE
  5
24EB
330
1E
100
AcDbEntity
  8
7
100
AcDbLine
 10
2.941573573396361
 20
8.087425958299263
 30
0.0
 11
2.943542077333367
 21
8.069709422866193
 31
0.0
  0
LINE
  5
24F1
330
1E
100
AcDbEntity
  8
7
100
AcDbLine
 10
2.943542077333367
 20
8.061835407118158
 30
0.0
 11
3.138423967097146
 21
8.061835407118158
 31
0.0
  0
LINE
  5
24F2
330
1E
100
AcDbEntity
  8
7
100
AcDbLine
 10
3.138423967097146
 20
8.069709422866193
 30
0.0
 11
3.138423967097146
 21
8.061835407118158
 31
0.0
  0
LINE
  5
24F3
330
1E
100
AcDbEntity
  8
7
100
AcDbLine
 10
2.935668061585335
 20
8.223252729952807
 30
0.0
 11
2.937636565522344
 21
8.221284226015802
 31
0.0
  0
LINE
  5
24F4
330
1E
100
AcDbEntity
  8
7
100
AcDbLine
 10
3.142360974971166
 20
8.221284226015802
 30
0.0
 11
3.128581447412107
 21
8.221284226015802
 31
0.0
  0
LINE
  5
24F5
330
1E
100
AcDbEntity
  8
7
100
AcDbLine
 10
3.144329478908172
 20
8.223252729952807
 30
0.0
 11
3.142360974971166
 21
8.221284226015802
 31
0.0
  0
LINE
  5
24F6
330
1E
100
AcDbEntity
  8
7
100
AcDbLine
 10
3.144329478908172
 20
8.183882651212647
 30
0.0
 11
3.142360974971166
 21
8.221284226015802
 31
0.0
  0
LINE
  5
24F7
330
1E
100
AcDbEntity
  8
7
100
AcDbLine
 10
3.288030266309746
 20
7.782307848063039
 30
0.0
 11
3.288030266309746
 21
7.71734721814178
 31
0.0
  0
LINE
  5
24F8
330
1E
100
AcDbEntity
  8
7
100
AcDbLine
 10
3.288030266309746
 20
7.672071627590602
 30
0.0
 11
3.286061762372737
 21
7.735063753574854
 31
0.0
  0
LINE
  5
24F9
330
1E
100
AcDbEntity
  8
7
100
AcDbLine
 10
3.138423967097146
 20
8.040181863811076
 30
0.0
 11
3.165983022215257
 21
7.672071627590602
 31
0.0
  0
LINE
  5
24FF
330
1E
100
AcDbEntity
  8
7
100
AcDbLine
 10
2.791967274183763
 20
7.672071627590602
 30
0.0
 11
2.793935778120768
 21
7.735063753574854
 31
0.0
  0
LINE
  5
2500
330
1E
100
AcDbEntity
  8
7
100
AcDbLine
 10
2.941573573396361
 20
8.040181863811076
 30
0.0
 11
2.943542077333367
 21
8.061835407118158
 31
0.0
  0
LINE
  5
2501
330
1E
100
AcDbEntity
  8
7
100
AcDbLine
 10
3.138423967097146
 20
8.061835407118158
 30
0.0
 11
3.138423967097146
 21
8.040181863811076
 31
0.0
  0
LINE
  5
250F
330
1E
100
AcDbEntity
  8
7
100
AcDbLine
 10
3.752597195443604
 20
8.278370840189028
 30
0.0
 11
3.762439715128644
 21
9.707504698456746
 31
0.0
  0
LINE
  5
2520
330
1E
100
AcDbEntity
  8
7
100
AcDbLine
 10
1.723069636388485
 20
8.298055879559102
 30
0.0
 11
1.754565699380613
 21
8.300024383496118
 31
0.0
  0
LINE
  5
2521
330
1E
100
AcDbEntity
  8
7
100
AcDbLine
 10
7.349053888356987
 20
3.788213359874067
 30
0.0
 11
10.36480191985305
 21
3.788213359874067
 31
0.0
  0
LINE
  5
2522
330
1E
100
AcDbEntity
  8
7
100
AcDbLine
 10
10.53606176237273
 20
3.626796037039422
 30
0.0
 11
10.54984128993179
 21
3.422071627590602
 31
0.0
  0
LINE
  5
2529
330
1E
100
AcDbEntity
  8
7
100
AcDbLine
 10
10.53409325843572
 20
3.422071627590602
 30
0.0
 11
10.52031373087667
 21
3.626796037039422
 31
0.0
  0
LINE
  5
252A
330
1E
100
AcDbEntity
  8
7
100
AcDbLine
 10
7.164014518278253
 20
3.422071627590602
 30
0.0
 11
7.177794045837305
 21
3.626796037039422
 31
0.0
  0
LINE
  5
2535
330
1E
100
AcDbEntity
  8
7
100
AcDbLine
 10
7.349053888356987
 20
3.788213359874067
 30
0.0
 11
7.311652313553842
 21
3.782307848063043
 31
0.0
  0
LINE
  5
254E
330
1E
100
AcDbEntity
  8
7
100
AcDbLine
 10
7.315589321427857
 20
3.78427635200005
 30
0.0
 11
7.349053888356987
 21
3.788213359874067
 31
0.0
  0
LINE
  5
254F
330
1E
100
AcDbEntity
  8
7
100
AcDbLine
 10
10.36480191985305
 20
3.788213359874067
 30
0.0
 11
10.39432947890817
 21
3.78427635200005
 31
0.0
  0
LINE
  5
2560
330
1E
100
AcDbEntity
  8
7
100
AcDbLine
 10
9.961258612766439
 20
3.788213359874067
 30
0.0
 11
8.374644439538094
 21
4.364985013417378
 31
0.0
  0
LINE
  5
2566
330
1E
100
AcDbEntity
  8
7
100
AcDbLine
 10
8.307715305679828
 20
4.351205485858319
 30
0.0
 11
7.744723179695576
 21
3.788213359874067
 31
0.0
  0
LINE
  5
2567
330
1E
100
AcDbEntity
  8
7
100
AcDbLine
 10
8.104959400168013
 20
3.32955194255123
 30
0.0
 11
8.091179872608961
 21
3.32955194255123
 31
0.0
  0
LINE
  5
2568
330
1E
100
AcDbEntity
  8
7
100
AcDbLine
 10
8.114801919853054
 20
3.34136296617328
 30
0.0
 11
8.104959400168013
 21
3.32955194255123
 31
0.0
  0
LINE
  5
256F
330
1E
100
AcDbEntity
  8
7
100
AcDbLine
 10
8.195510581270379
 20
3.325614934677217
 30
0.0
 11
8.197479085207383
 21
3.422071627590602
 31
0.0
  0
LINE
  5
2570
330
1E
100
AcDbEntity
  8
7
100
AcDbLine
 10
8.091179872608961
 20
3.32955194255123
 30
0.0
 11
7.992754675758568
 21
3.422071627590602
 31
0.0
  0
LINE
  5
2571
330
1E
100
AcDbEntity
  8
7
100
AcDbLine
 10
8.022282234813687
 20
3.422071627590602
 30
0.0
 11
8.154171998593213
 21
3.307898399244146
 31
0.0
  0
LINE
  5
2579
330
1E
100
AcDbEntity
  8
7
100
AcDbLine
 10
8.352990896231009
 20
4.307898399244146
 30
0.0
 11
8.362833415916046
 21
4.337425958299263
 31
0.0
  0
LINE
  5
257F
330
1E
100
AcDbEntity
  8
7
100
AcDbLine
 10
8.352990896231009
 20
4.307898399244146
 30
0.0
 11
9.782124754498724
 21
3.788213359874067
 31
0.0
  0
LINE
  5
258D
330
1E
100
AcDbEntity
  8
7
100
AcDbLine
 10
8.362833415916046
 20
4.337425958299263
 30
0.0
 11
8.370707431664079
 21
4.357110997669344
 31
0.0
  0
LINE
  5
258E
330
1E
100
AcDbEntity
  8
7
100
AcDbLine
 10
8.370707431664079
 20
4.357110997669344
 30
0.0
 11
8.374644439538094
 21
4.364985013417378
 31
0.0
  0
LINE
  5
258F
330
1E
100
AcDbEntity
  8
7
100
AcDbLine
 10
7.831337352923917
 20
3.788213359874067
 30
0.0
 11
8.352990896231009
 21
4.307898399244146
 31
0.0
  0
LINE
  5
2590
330
1E
100
AcDbEntity
  8
7
100
AcDbLine
 10
8.352990896231009
 20
4.307898399244146
 30
0.0
 11
8.33133735292392
 21
4.32955194255123
 31
0.0
  0
LINE
  5
2591
330
1E
100
AcDbEntity
  8
7
100
AcDbLine
 10
8.33133735292392
 20
4.32955194255123
 30
0.0
 11
8.31362081749085
 21
4.345299974047296
 31
0.0
  0
LINE
  5
2592
330
1E
100
AcDbEntity
  8
7
100
AcDbLine
 10
8.31362081749085
 20
4.345299974047296
 30
0.0
 11
8.307715305679828
 21
4.351205485858319
 31
0.0
  0
LINE
  5
2593
330
1E
100
AcDbEntity
  8
7
100
AcDbLine
 10
8.195510581270379
 20
3.325614934677217
 30
0.0
 11
8.187636565522343
 21
3.309866903181154
 31
0.0
  0
LINE
  5
2594
330
1E
100
AcDbEntity
  8
7
100
AcDbLine
 10
8.187636565522343
 20
3.309866903181154
 30
0.0
 11
8.171888534026283
 21
3.301992887433121
 31
0.0
  0
LINE
  5
2595
330
1E
100
AcDbEntity
  8
7
100
AcDbLine
 10
8.171888534026283
 20
3.301992887433121
 30
0.0
 11
8.154171998593213
 21
3.307898399244146
 31
0.0
  0
LINE
  5
2596
330
1E
100
AcDbEntity
  8
7
100
AcDbLine
 10
8.374644439538094
 20
4.363016509480367
 30
0.0
 11
8.339211368671957
 21
4.364985013417378
 31
0.0
  0
LINE
  5
2597
330
1E
100
AcDbEntity
  8
7
100
AcDbLine
 10
8.339211368671957
 20
4.364985013417378
 30
0.0
 11
8.309683809616835
 21
4.349236981921311
 31
0.0
  0
LINE
  5
2598
330
1E
100
AcDbEntity
  8
7
100
AcDbLine
 10
10.52031373087667
 20
3.626796037039422
 30
0.0
 11
10.53015625056171
 21
3.628764540976428
 31
0.0
  0
LINE
  5
2599
330
1E
100
AcDbEntity
  8
7
100
AcDbLine
 10
10.53015625056171
 20
3.628764540976428
 30
0.0
 11
10.53606176237273
 21
3.626796037039422
 31
0.0
  0
LINE
  5
259A
330
1E
100
AcDbEntity
  8
7
100
AcDbLine
 10
7.177794045837305
 20
3.626796037039422
 30
0.0
 11
7.183699557648331
 21
3.628764540976428
 31
0.0
  0
LINE
  5
259B
330
1E
100
AcDbEntity
  8
7
100
AcDbLine
 10
7.183699557648331
 20
3.628764540976428
 30
0.0
 11
7.193542077333372
 21
3.626796037039422
 31
0.0
  0
LINE
  5
259C
330
1E
100
AcDbEntity
  8
7
100
AcDbLine
 10
10.46913262851447
 20
3.750811785070919
 30
0.0
 11
10.5025971954436
 21
3.717347218141782
 31
0.0
  0
LINE
  5
259D
330
1E
100
AcDbEntity
  8
7
100
AcDbLine
 10
10.5025971954436
 20
3.717347218141782
 30
0.0
 11
10.5262192426877
 21
3.674040131527609
 31
0.0
  0
LINE
  5
259E
330
1E
100
AcDbEntity
  8
7
100
AcDbLine
 10
10.5262192426877
 20
3.674040131527609
 30
0.0
 11
10.53606176237273
 21
3.626796037039422
 31
0.0
  0
LINE
  5
259F
330
1E
100
AcDbEntity
  8
7
100
AcDbLine
 10
7.177794045837305
 20
3.626796037039422
 30
0.0
 11
7.185668061585335
 21
3.668134619716585
 31
0.0
  0
LINE
  5
25A0
330
1E
100
AcDbEntity
  8
7
100
AcDbLine
 10
7.185668061585335
 20
3.668134619716585
 30
0.0
 11
7.203384597018406
 21
3.703567690582728
 31
0.0
  0
LINE
  5
25A1
330
1E
100
AcDbEntity
  8
7
100
AcDbLine
 10
7.203384597018406
 20
3.703567690582728
 30
0.0
 11
7.227006644262505
 21
3.737032257511861
 31
0.0
  0
LINE
  5
25A2
330
1E
100
AcDbEntity
  8
7
100
AcDbLine
 10
7.227006644262505
 20
3.737032257511861
 30
0.0
 11
7.258502707254628
 21
3.760654304755957
 31
0.0
  0
LINE
  5
25A3
330
1E
100
AcDbEntity
  8
7
100
AcDbLine
 10
10.52031373087667
 20
3.626796037039422
 30
0.0
 11
10.51243971512864
 21
3.670103123653596
 31
0.0
  0
LINE
  5
25A4
330
1E
100
AcDbEntity
  8
7
100
AcDbLine
 10
10.51243971512864
 20
3.670103123653596
 30
0.0
 11
10.49472317969557
 21
3.707504698456743
 31
0.0
  0
LINE
  5
25A5
330
1E
100
AcDbEntity
  8
7
100
AcDbLine
 10
10.49472317969557
 20
3.707504698456743
 30
0.0
 11
10.47110113245148
 21
3.740969265385876
 31
0.0
  0
LINE
  5
25A6
330
1E
100
AcDbEntity
  8
7
100
AcDbLine
 10
10.47110113245148
 20
3.740969265385876
 30
0.0
 11
10.43960506945935
 21
3.76655981656698
 31
0.0
  0
LINE
  5
25A7
330
1E
100
AcDbEntity
  8
7
100
AcDbLine
 10
10.43960506945935
 20
3.76655981656698
 30
0.0
 11
10.4022034946562
 21
3.782307848063043
 31
0.0
  0
LINE
  5
25A8
330
1E
100
AcDbEntity
  8
7
100
AcDbLine
 10
10.4022034946562
 20
3.782307848063043
 30
0.0
 11
10.36480191985305
 21
3.788213359874067
 31
0.0
  0
LINE
  5
25A9
330
1E
100
AcDbEntity
  8
7
100
AcDbLine
 10
7.311652313553842
 20
3.782307848063043
 30
0.0
 11
7.274250738750694
 21
3.76655981656698
 31
0.0
  0
LINE
  5
25AA
330
1E
100
AcDbEntity
  8
7
100
AcDbLine
 10
7.274250738750694
 20
3.76655981656698
 30
0.0
 11
7.242754675758568
 21
3.740969265385876
 31
0.0
  0
LINE
  5
25AB
330
1E
100
AcDbEntity
  8
7
100
AcDbLine
 10
7.242754675758568
 20
3.740969265385876
 30
0.0
 11
7.219132628514472
 21
3.707504698456743
 31
0.0
  0
LINE
  5
25AC
330
1E
100
AcDbEntity
  8
7
100
AcDbLine
 10
7.219132628514472
 20
3.707504698456743
 30
0.0
 11
7.201416093081402
 21
3.670103123653596
 31
0.0
  0
LINE
  5
25AD
330
1E
100
AcDbEntity
  8
7
100
AcDbLine
 10
7.201416093081402
 20
3.670103123653596
 30
0.0
 11
7.193542077333372
 21
3.626796037039422
 31
0.0
  0
LINE
  5
25AE
330
1E
100
AcDbEntity
  8
7
100
AcDbLine
 10
10.54984128993179
 20
3.422071627590602
 30
0.0
 11
10.54590428205777
 21
3.422071627590602
 31
0.0
  0
LINE
  5
25AF
330
1E
100
AcDbEntity
  8
7
100
AcDbLine
 10
10.54590428205777
 20
3.422071627590602
 30
0.0
 11
10.53409325843572
 21
3.422071627590602
 31
0.0
  0
LINE
  5
25B0
330
1E
100
AcDbEntity
  8
7
100
AcDbLine
 10
7.179762549774316
 20
3.422071627590602
 30
0.0
 11
7.167951526152268
 21
3.422071627590602
 31
0.0
  0
LINE
  5
25B1
330
1E
100
AcDbEntity
  8
7
100
AcDbLine
 10
7.167951526152268
 20
3.422071627590602
 30
0.0
 11
7.164014518278253
 21
3.422071627590602
 31
0.0
  0
LINE
  5
25B2
330
1E
100
AcDbEntity
  8
7
100
AcDbLine
 10
10.52031373087667
 20
3.626796037039422
 30
0.0
 11
7.193542077333372
 21
3.626796037039422
 31
0.0
  0
LINE
  5
25B3
330
1E
100
AcDbEntity
  8
7
100
AcDbLine
 10
7.193542077333372
 20
3.626796037039422
 30
0.0
 11
7.179762549774316
 21
3.422071627590602
 31
0.0
  0
LINE
  5
25B4
330
1E
100
AcDbEntity
  8
7
100
AcDbLine
 10
7.179762549774316
 20
3.422071627590602
 30
0.0
 11
10.53409325843572
 21
3.422071627590602
 31
0.0
  0
LINE
  5
25B5
330
1E
100
AcDbEntity
  8
7
100
AcDbLine
 10
1.691573573396361
 20
8.278370840189028
 30
0.0
 11
1.7014160930814
 21
8.290181863811076
 31
0.0
  0
LINE
  5
25B6
330
1E
100
AcDbEntity
  8
7
100
AcDbLine
 10
1.7014160930814
 20
8.290181863811076
 30
0.0
 11
1.723069636388485
 21
8.298055879559102
 31
0.0
  0
LINE
  5
25B7
330
1E
100
AcDbEntity
  8
7
100
AcDbLine
 10
1.68369955764833
 20
7.758685800818948
 30
0.0
 11
1.691573573396361
 21
8.278370840189028
 31
0.0
  0
LINE
  5
25B8
330
1E
100
AcDbEntity
  8
7
100
AcDbLine
 10
1.691573573396361
 20
8.278370840189028
 30
0.0
 11
1.68369955764833
 21
9.707504698456746
 31
0.0
  0
LINE
  5
25B9
330
1E
100
AcDbEntity
  8
7
100
AcDbLine
 10
1.691573573396361
 20
8.278370840189028
 30
0.0
 11
1.7014160930814
 21
8.256717296881941
 31
0.0
  0
LINE
  5
25BA
330
1E
100
AcDbEntity
  8
7
100
AcDbLine
 10
1.7014160930814
 20
8.256717296881941
 30
0.0
 11
1.723069636388485
 21
8.240969265385878
 31
0.0
  0
LINE
  5
25BB
330
1E
100
AcDbEntity
  8
7
100
AcDbLine
 10
1.723069636388485
 20
8.240969265385878
 30
0.0
 11
1.754565699380613
 21
8.235063753574854
 31
0.0
  0
LINE
  5
25BC
330
1E
100
AcDbEntity
  8
7
100
AcDbLine
 10
3.752597195443604
 20
8.278370840189028
 30
0.0
 11
3.744723179695576
 21
8.290181863811076
 31
0.0
  0
LINE
  5
25BD
330
1E
100
AcDbEntity
  8
7
100
AcDbLine
 10
3.744723179695576
 20
8.290181863811076
 30
0.0
 11
3.721101132451479
 21
8.298055879559102
 31
0.0
  0
LINE
  5
25BE
330
1E
100
AcDbEntity
  8
7
100
AcDbLine
 10
3.721101132451479
 20
8.298055879559102
 30
0.0
 11
3.691573573396361
 21
8.300024383496118
 31
0.0
  0
LINE
  5
25BF
330
1E
100
AcDbEntity
  8
7
100
AcDbLine
 10
3.762439715128644
 20
7.758685800818948
 30
0.0
 11
3.752597195443604
 21
8.278370840189028
 31
0.0
  0
LINE
  5
25C0
330
1E
100
AcDbEntity
  8
7
100
AcDbLine
 10
3.752597195443604
 20
8.278370840189028
 30
0.0
 11
3.744723179695576
 21
8.256717296881941
 31
0.0
  0
LINE
  5
25C1
330
1E
100
AcDbEntity
  8
7
100
AcDbLine
 10
3.744723179695576
 20
8.256717296881941
 30
0.0
 11
3.721101132451479
 21
8.240969265385878
 31
0.0
  0
LINE
  5
25C2
330
1E
100
AcDbEntity
  8
7
100
AcDbLine
 10
3.721101132451479
 20
8.240969265385878
 30
0.0
 11
3.691573573396361
 21
8.235063753574854
 31
0.0
  0
LINE
  5
25C3
330
1E
100
AcDbEntity
  8
7
100
AcDbLine
 10
3.138423967097146
 20
8.040181863811076
 30
0.0
 11
2.941573573396361
 21
8.040181863811076
 31
0.0
  0
LINE
  5
25C4
330
1E
100
AcDbEntity
  8
7
100
AcDbLine
 10
2.941573573396361
 20
8.040181863811076
 30
0.0
 11
2.915983022215257
 21
7.672071627590602
 31
0.0
  0
LINE
  5
25C5
330
1E
100
AcDbEntity
  8
7
100
AcDbLine
 10
3.138423967097146
 20
8.069709422866193
 30
0.0
 11
2.943542077333367
 21
8.069709422866193
 31
0.0
  0
LINE
  5
25C6
330
1E
100
AcDbEntity
  8
7
100
AcDbLine
 10
2.943542077333367
 20
8.069709422866193
 30
0.0
 11
2.943542077333367
 21
8.061835407118158
 31
0.0
  0
LINE
  5
25C7
330
1E
100
AcDbEntity
  8
7
100
AcDbLine
 10
2.791967274183763
 20
7.672071627590602
 30
0.0
 11
2.791967274183763
 21
7.71734721814178
 31
0.0
  0
LINE
  5
25C8
330
1E
100
AcDbEntity
  8
7
100
AcDbLine
 10
2.791967274183763
 20
7.71734721814178
 30
0.0
 11
2.654171998593209
 21
7.71734721814178
 31
0.0
  0
LINE
  5
25C9
330
1E
100
AcDbEntity
  8
7
100
AcDbLine
 10
1.754565699380613
 20
8.235063753574854
 30
0.0
 11
1.754565699380613
 21
8.264591312629972
 31
0.0
  0
LINE
  5
25CA
330
1E
100
AcDbEntity
  8
7
100
AcDbLine
 10
1.754565699380613
 20
8.264591312629972
 30
0.0
 11
1.754565699380613
 21
8.300024383496118
 31
0.0
  0
LINE
  5
25CB
330
1E
100
AcDbEntity
  8
7
100
AcDbLine
 10
3.691573573396361
 20
8.235063753574854
 30
0.0
 11
3.691573573396361
 21
8.264591312629972
 31
0.0
  0
LINE
  5
25CC
330
1E
100
AcDbEntity
  8
7
100
AcDbLine
 10
3.691573573396361
 20
8.264591312629972
 30
0.0
 11
3.691573573396361
 21
8.300024383496118
 31
0.0
  0
LINE
  5
25CD
330
1E
100
AcDbEntity
  8
7
100
AcDbLine
 10
2.502597195443604
 20
8.040181863811076
 30
0.0
 11
2.307715305679824
 21
8.040181863811076
 31
0.0
  0
LINE
  5
25CE
330
1E
100
AcDbEntity
  8
7
100
AcDbLine
 10
2.307715305679824
 20
8.040181863811076
 30
0.0
 11
2.280156250561715
 21
7.672071627590602
 31
0.0
  0
LINE
  5
25CF
330
1E
100
AcDbEntity
  8
7
100
AcDbLine
 10
2.095116880482974
 20
7.71734721814178
 30
0.0
 11
2.156140502530217
 21
7.71734721814178
 31
0.0
  0
LINE
  5
25D0
330
1E
100
AcDbEntity
  8
7
100
AcDbLine
 10
2.156140502530217
 20
7.71734721814178
 30
0.0
 11
2.158109006467228
 21
7.782307848063039
 31
0.0
  0
LINE
  5
25D1
330
1E
100
AcDbEntity
  8
7
100
AcDbLine
 10
2.301809793868802
 20
8.223252729952807
 30
0.0
 11
2.301809793868802
 21
8.221284226015802
 31
0.0
  0
LINE
  5
25D2
330
1E
100
AcDbEntity
  8
7
100
AcDbLine
 10
2.301809793868802
 20
8.221284226015802
 30
0.0
 11
2.317557825364865
 21
8.221284226015802
 31
0.0
  0
LINE
  5
25D3
330
1E
100
AcDbEntity
  8
7
100
AcDbLine
 10
2.508502707254626
 20
8.223252729952807
 30
0.0
 11
2.508502707254626
 21
8.221284226015802
 31
0.0
  0
LINE
  5
25D4
330
1E
100
AcDbEntity
  8
7
100
AcDbLine
 10
2.508502707254626
 20
8.221284226015802
 30
0.0
 11
2.508502707254626
 21
8.183882651212647
 31
0.0
  0
LINE
  5
25D5
330
1E
100
AcDbEntity
  8
7
100
AcDbLine
 10
2.307715305679824
 20
8.069709422866193
 30
0.0
 11
2.307715305679824
 21
8.061835407118158
 31
0.0
  0
LINE
  5
25D6
330
1E
100
AcDbEntity
  8
7
100
AcDbLine
 10
2.307715305679824
 20
8.061835407118158
 30
0.0
 11
2.502597195443604
 21
8.061835407118158
 31
0.0
  0
LINE
  5
25D7
330
1E
100
AcDbEntity
  8
7
100
AcDbLine
 10
2.307715305679824
 20
8.087425958299263
 30
0.0
 11
2.307715305679824
 21
8.069709422866193
 31
0.0
  0
LINE
  5
25D8
330
1E
100
AcDbEntity
  8
7
100
AcDbLine
 10
2.307715305679824
 20
8.069709422866193
 30
0.0
 11
2.502597195443604
 21
8.069709422866193
 31
0.0
  0
LINE
  5
25D9
330
1E
100
AcDbEntity
  8
7
100
AcDbLine
 10
2.307715305679824
 20
8.087425958299263
 30
0.0
 11
2.502597195443604
 21
8.087425958299263
 31
0.0
  0
LINE
  5
25DA
330
1E
100
AcDbEntity
  8
7
100
AcDbLine
 10
2.502597195443604
 20
8.087425958299263
 30
0.0
 11
2.502597195443604
 21
8.089394462236271
 31
0.0
  0
LINE
  5
25DB
330
1E
100
AcDbEntity
  8
7
100
AcDbLine
 10
2.307715305679824
 20
8.095299974047298
 30
0.0
 11
2.307715305679824
 21
8.089394462236271
 31
0.0
  0
LINE
  5
25DC
330
1E
100
AcDbEntity
  8
7
100
AcDbLine
 10
2.307715305679824
 20
8.089394462236271
 30
0.0
 11
2.502597195443604
 21
8.089394462236271
 31
0.0
  0
LINE
  5
25DD
330
1E
100
AcDbEntity
  8
7
100
AcDbLine
 10
2.307715305679824
 20
8.095299974047298
 30
0.0
 11
2.502597195443604
 21
8.095299974047298
 31
0.0
  0
LINE
  5
25DE
330
1E
100
AcDbEntity
  8
7
100
AcDbLine
 10
2.502597195443604
 20
8.095299974047298
 30
0.0
 11
2.500628691506596
 21
8.122859029165404
 31
0.0
  0
LINE
  5
25DF
330
1E
100
AcDbEntity
  8
7
100
AcDbLine
 10
2.492754675758565
 20
8.221284226015802
 30
0.0
 11
2.317557825364865
 21
8.221284226015802
 31
0.0
  0
LINE
  5
25E0
330
1E
100
AcDbEntity
  8
7
100
AcDbLine
 10
2.317557825364865
 20
8.221284226015802
 30
0.0
 11
2.317557825364865
 21
8.193725170897689
 31
0.0
  0
LINE
  5
25E1
330
1E
100
AcDbEntity
  8
7
100
AcDbLine
 10
2.095116880482974
 20
7.782307848063039
 30
0.0
 11
2.158109006467228
 21
7.782307848063039
 31
0.0
  0
LINE
  5
25E2
330
1E
100
AcDbEntity
  8
7
100
AcDbLine
 10
2.158109006467228
 20
7.782307848063039
 30
0.0
 11
2.158109006467228
 21
7.735063753574854
 31
0.0
  0
LINE
  5
25E3
330
1E
100
AcDbEntity
  8
7
100
AcDbLine
 10
2.158109006467228
 20
7.735063753574854
 30
0.0
 11
2.284093258435728
 21
7.735063753574854
 31
0.0
  0
LINE
  5
25E4
330
1E
100
AcDbEntity
  8
7
100
AcDbLine
 10
1.524250738750691
 20
8.707504698456745
 30
0.0
 11
1.55968380961683
 21
8.711441706330759
 31
0.0
  0
LINE
  5
25E5
330
1E
100
AcDbEntity
  8
7
100
AcDbLine
 10
1.55968380961683
 20
8.711441706330759
 30
0.0
 11
1.589211368671952
 21
8.733095249637845
 31
0.0
  0
LINE
  5
25E6
330
1E
100
AcDbEntity
  8
7
100
AcDbLine
 10
1.589211368671952
 20
8.733095249637845
 30
0.0
 11
1.606927904105022
 21
8.764591312629972
 31
0.0
  0
LINE
  5
25E7
330
1E
100
AcDbEntity
  8
7
100
AcDbLine
 10
1.606927904105022
 20
8.764591312629972
 30
0.0
 11
1.606927904105022
 21
8.800024383496118
 31
0.0
  0
LINE
  5
25E8
330
1E
100
AcDbEntity
  8
7
100
AcDbLine
 10
1.606927904105022
 20
8.800024383496118
 30
0.0
 11
1.589211368671952
 21
8.831520446488243
 31
0.0
  0
LINE
  5
25E9
330
1E
100
AcDbEntity
  8
7
100
AcDbLine
 10
1.589211368671952
 20
8.831520446488243
 30
0.0
 11
1.55968380961683
 21
8.853173989795328
 31
0.0
  0
LINE
  5
25EA
330
1E
100
AcDbEntity
  8
7
100
AcDbLine
 10
1.55968380961683
 20
8.853173989795328
 30
0.0
 11
1.524250738750691
 21
8.857110997669341
 31
0.0
  0
LINE
  5
25EB
330
1E
100
AcDbEntity
  8
7
100
AcDbLine
 10
1.524250738750691
 20
8.857110997669341
 30
0.0
 11
1.490786171821556
 21
8.843331470110287
 31
0.0
  0
LINE
  5
25EC
330
1E
100
AcDbEntity
  8
7
100
AcDbLine
 10
1.490786171821556
 20
8.843331470110287
 30
0.0
 11
1.467164124577463
 21
8.817740918929185
 31
0.0
  0
LINE
  5
25ED
330
1E
100
AcDbEntity
  8
7
100
AcDbLine
 10
1.467164124577463
 20
8.817740918929185
 30
0.0
 11
1.45929010882943
 21
8.782307848063039
 31
0.0
  0
LINE
  5
25EE
330
1E
100
AcDbEntity
  8
7
100
AcDbLine
 10
1.45929010882943
 20
8.782307848063039
 30
0.0
 11
1.467164124577463
 21
8.7468747771969
 31
0.0
  0
LINE
  5
25EF
330
1E
100
AcDbEntity
  8
7
100
AcDbLine
 10
1.467164124577463
 20
8.7468747771969
 30
0.0
 11
1.490786171821556
 21
8.721284226015802
 31
0.0
  0
LINE
  5
25F0
330
1E
100
AcDbEntity
  8
7
100
AcDbLine
 10
1.490786171821556
 20
8.721284226015802
 30
0.0
 11
1.524250738750691
 21
8.707504698456745
 31
0.0
  0
LINE
  5
25F1
330
1E
100
AcDbEntity
  8
7
100
AcDbLine
 10
1.484880660010533
 20
8.835457454362257
 30
0.0
 11
1.463227116703446
 21
8.801992887433124
 31
0.0
  0
LINE
  5
25F2
330
1E
100
AcDbEntity
  8
7
100
AcDbLine
 10
1.463227116703446
 20
8.801992887433124
 30
0.0
 11
1.463227116703446
 21
8.762622808692965
 31
0.0
  0
LINE
  5
25F3
330
1E
100
AcDbEntity
  8
7
100
AcDbLine
 10
1.463227116703446
 20
8.762622808692965
 30
0.0
 11
1.484880660010533
 21
8.729158241763828
 31
0.0
  0
LINE
  5
25F4
330
1E
100
AcDbEntity
  8
7
100
AcDbLine
 10
1.583305856860926
 20
8.729158241763828
 30
0.0
 11
1.604959400168013
 21
8.762622808692965
 31
0.0
  0
LINE
  5
25F5
330
1E
100
AcDbEntity
  8
7
100
AcDbLine
 10
1.604959400168013
 20
8.762622808692965
 30
0.0
 11
1.604959400168013
 21
8.801992887433124
 31
0.0
  0
LINE
  5
25F6
330
1E
100
AcDbEntity
  8
7
100
AcDbLine
 10
1.604959400168013
 20
8.801992887433124
 30
0.0
 11
1.583305856860926
 21
8.835457454362257
 31
0.0
  0
LINE
  5
25F7
330
1E
100
AcDbEntity
  8
7
100
AcDbLine
 10
3.965195620640454
 20
8.831520446488243
 30
0.0
 11
3.935668061585335
 21
8.853173989795328
 31
0.0
  0
LINE
  5
25F8
330
1E
100
AcDbEntity
  8
7
100
AcDbLine
 10
3.935668061585335
 20
8.853173989795328
 30
0.0
 11
3.900234990719194
 21
8.857110997669341
 31
0.0
  0
LINE
  5
25F9
330
1E
100
AcDbEntity
  8
7
100
AcDbLine
 10
3.900234990719194
 20
8.857110997669341
 30
0.0
 11
3.866770423790059
 21
8.843331470110287
 31
0.0
  0
LINE
  5
25FA
330
1E
100
AcDbEntity
  8
7
100
AcDbLine
 10
3.866770423790059
 20
8.843331470110287
 30
0.0
 11
3.843148376545963
 21
8.817740918929185
 31
0.0
  0
LINE
  5
25FB
330
1E
100
AcDbEntity
  8
7
100
AcDbLine
 10
3.843148376545963
 20
8.817740918929185
 30
0.0
 11
3.835274360797935
 21
8.782307848063039
 31
0.0
  0
LINE
  5
25FC
330
1E
100
AcDbEntity
  8
7
100
AcDbLine
 10
3.835274360797935
 20
8.782307848063039
 30
0.0
 11
3.843148376545963
 21
8.7468747771969
 31
0.0
  0
LINE
  5
25FD
330
1E
100
AcDbEntity
  8
7
100
AcDbLine
 10
3.843148376545963
 20
8.7468747771969
 30
0.0
 11
3.866770423790059
 21
8.721284226015802
 31
0.0
  0
LINE
  5
25FE
330
1E
100
AcDbEntity
  8
7
100
AcDbLine
 10
3.866770423790059
 20
8.721284226015802
 30
0.0
 11
3.900234990719194
 21
8.707504698456745
 31
0.0
  0
LINE
  5
25FF
330
1E
100
AcDbEntity
  8
7
100
AcDbLine
 10
3.900234990719194
 20
8.707504698456745
 30
0.0
 11
3.935668061585335
 21
8.711441706330759
 31
0.0
  0
LINE
  5
2600
330
1E
100
AcDbEntity
  8
7
100
AcDbLine
 10
3.935668061585335
 20
8.711441706330759
 30
0.0
 11
3.965195620640454
 21
8.733095249637845
 31
0.0
  0
LINE
  5
2601
330
1E
100
AcDbEntity
  8
7
100
AcDbLine
 10
3.965195620640454
 20
8.733095249637845
 30
0.0
 11
3.982912156073526
 21
8.764591312629972
 31
0.0
  0
LINE
  5
2602
330
1E
100
AcDbEntity
  8
7
100
AcDbLine
 10
3.982912156073526
 20
8.764591312629972
 30
0.0
 11
3.982912156073526
 21
8.800024383496118
 31
0.0
  0
LINE
  5
2603
330
1E
100
AcDbEntity
  8
7
100
AcDbLine
 10
3.982912156073526
 20
8.800024383496118
 30
0.0
 11
3.965195620640454
 21
8.831520446488243
 31
0.0
  0
LINE
  5
2604
330
1E
100
AcDbEntity
  8
7
100
AcDbLine
 10
3.95929010882943
 20
8.729158241763828
 30
0.0
 11
3.980943652136517
 21
8.762622808692965
 31
0.0
  0
LINE
  5
2605
330
1E
100
AcDbEntity
  8
7
100
AcDbLine
 10
3.980943652136517
 20
8.762622808692965
 30
0.0
 11
3.980943652136517
 21
8.801992887433124
 31
0.0
  0
LINE
  5
2606
330
1E
100
AcDbEntity
  8
7
100
AcDbLine
 10
3.860864911979033
 20
8.835457454362257
 30
0.0
 11
3.839211368671952
 21
8.801992887433124
 31
0.0
  0
LINE
  5
2607
330
1E
100
AcDbEntity
  8
7
100
AcDbLine
 10
3.839211368671952
 20
8.801992887433124
 30
0.0
 11
3.839211368671952
 21
8.762622808692965
 31
0.0
  0
LINE
  5
2608
330
1E
100
AcDbEntity
  8
7
100
AcDbLine
 10
3.839211368671952
 20
8.762622808692965
 30
0.0
 11
3.860864911979033
 21
8.729158241763828
 31
0.0
  0
LINE
  5
2609
330
1E
100
AcDbEntity
  8
7
100
AcDbLine
 10
3.805746801742817
 20
8.6956936748347
 30
0.0
 11
3.841179872608956
 21
8.664197611842572
 31
0.0
  0
LINE
  5
260A
330
1E
100
AcDbEntity
  8
7
100
AcDbLine
 10
3.841179872608956
 20
8.664197611842572
 30
0.0
 11
3.886455463160141
 21
8.648449580346511
 31
0.0
  0
LINE
  5
260B
330
1E
100
AcDbEntity
  8
7
100
AcDbLine
 10
3.886455463160141
 20
8.648449580346511
 30
0.0
 11
3.93369955764833
 21
8.648449580346511
 31
0.0
  0
LINE
  5
260C
330
1E
100
AcDbEntity
  8
7
100
AcDbLine
 10
3.93369955764833
 20
8.648449580346511
 30
0.0
 11
3.977006644262502
 21
8.664197611842572
 31
0.0
  0
LINE
  5
260D
330
1E
100
AcDbEntity
  8
7
100
AcDbLine
 10
3.977006644262502
 20
8.664197611842572
 30
0.0
 11
4.014408219065652
 21
8.6956936748347
 31
0.0
  0
LINE
  5
260E
330
1E
100
AcDbEntity
  8
7
100
AcDbLine
 10
4.014408219065652
 20
8.6956936748347
 30
0.0
 11
4.038030266309746
 21
8.735063753574854
 31
0.0
  0
LINE
  5
260F
330
1E
100
AcDbEntity
  8
7
100
AcDbLine
 10
4.038030266309746
 20
8.735063753574854
 30
0.0
 11
4.045904282057776
 21
8.782307848063039
 31
0.0
  0
LINE
  5
2610
330
1E
100
AcDbEntity
  8
7
100
AcDbLine
 10
4.045904282057776
 20
8.782307848063039
 30
0.0
 11
4.038030266309746
 21
8.82955194255123
 31
0.0
  0
LINE
  5
2611
330
1E
100
AcDbEntity
  8
7
100
AcDbLine
 10
4.038030266309746
 20
8.82955194255123
 30
0.0
 11
4.014408219065652
 21
8.868922021291389
 31
0.0
  0
LINE
  5
2612
330
1E
100
AcDbEntity
  8
7
100
AcDbLine
 10
4.014408219065652
 20
8.868922021291389
 30
0.0
 11
3.978975148199507
 21
8.900418084283517
 31
0.0
  0
LINE
  5
2613
330
1E
100
AcDbEntity
  8
7
100
AcDbLine
 10
3.978975148199507
 20
8.900418084283517
 30
0.0
 11
3.93369955764833
 21
8.91616611577958
 31
0.0
  0
LINE
  5
2614
330
1E
100
AcDbEntity
  8
7
100
AcDbLine
 10
3.93369955764833
 20
8.91616611577958
 30
0.0
 11
3.886455463160141
 21
8.91616611577958
 31
0.0
  0
LINE
  5
2615
330
1E
100
AcDbEntity
  8
7
100
AcDbLine
 10
3.886455463160141
 20
8.91616611577958
 30
0.0
 11
3.843148376545963
 21
8.900418084283517
 31
0.0
  0
LINE
  5
2616
330
1E
100
AcDbEntity
  8
7
100
AcDbLine
 10
3.843148376545963
 20
8.900418084283517
 30
0.0
 11
3.805746801742817
 21
8.868922021291389
 31
0.0
  0
LINE
  5
2617
330
1E
100
AcDbEntity
  8
7
100
AcDbLine
 10
3.805746801742817
 20
8.868922021291389
 30
0.0
 11
3.782124754498722
 21
8.82955194255123
 31
0.0
  0
LINE
  5
2618
330
1E
100
AcDbEntity
  8
7
100
AcDbLine
 10
3.774250738750691
 20
8.782307848063039
 30
0.0
 11
3.782124754498722
 21
8.735063753574854
 31
0.0
  0
LINE
  5
2619
330
1E
100
AcDbEntity
  8
7
100
AcDbLine
 10
3.782124754498722
 20
8.735063753574854
 30
0.0
 11
3.805746801742817
 21
8.6956936748347
 31
0.0
  0
LINE
  5
261A
330
1E
100
AcDbEntity
  8
7
100
AcDbLine
 10
1.662046014341242
 20
8.82955194255123
 30
0.0
 11
1.638423967097146
 21
8.868922021291389
 31
0.0
  0
LINE
  5
261B
330
1E
100
AcDbEntity
  8
7
100
AcDbLine
 10
1.638423967097146
 20
8.868922021291389
 30
0.0
 11
1.602990896231004
 21
8.900418084283517
 31
0.0
  0
LINE
  5
261C
330
1E
100
AcDbEntity
  8
7
100
AcDbLine
 10
1.602990896231004
 20
8.900418084283517
 30
0.0
 11
1.557715305679824
 21
8.91616611577958
 31
0.0
  0
LINE
  5
261D
330
1E
100
AcDbEntity
  8
7
100
AcDbLine
 10
1.557715305679824
 20
8.91616611577958
 30
0.0
 11
1.510471211191635
 21
8.91616611577958
 31
0.0
  0
LINE
  5
261E
330
1E
100
AcDbEntity
  8
7
100
AcDbLine
 10
1.510471211191635
 20
8.91616611577958
 30
0.0
 11
1.467164124577463
 21
8.900418084283517
 31
0.0
  0
LINE
  5
261F
330
1E
100
AcDbEntity
  8
7
100
AcDbLine
 10
1.467164124577463
 20
8.900418084283517
 30
0.0
 11
1.429762549774311
 21
8.868922021291389
 31
0.0
  0
LINE
  5
2620
330
1E
100
AcDbEntity
  8
7
100
AcDbLine
 10
1.429762549774311
 20
8.868922021291389
 30
0.0
 11
1.406140502530217
 21
8.82955194255123
 31
0.0
  0
LINE
  5
2621
330
1E
100
AcDbEntity
  8
7
100
AcDbLine
 10
1.406140502530217
 20
8.82955194255123
 30
0.0
 11
1.398266486782187
 21
8.782307848063039
 31
0.0
  0
LINE
  5
2622
330
1E
100
AcDbEntity
  8
7
100
AcDbLine
 10
1.398266486782187
 20
8.782307848063039
 30
0.0
 11
1.406140502530217
 21
8.735063753574854
 31
0.0
  0
LINE
  5
2623
330
1E
100
AcDbEntity
  8
7
100
AcDbLine
 10
1.406140502530217
 20
8.735063753574854
 30
0.0
 11
1.429762549774311
 21
8.6956936748347
 31
0.0
  0
LINE
  5
2624
330
1E
100
AcDbEntity
  8
7
100
AcDbLine
 10
1.429762549774311
 20
8.6956936748347
 30
0.0
 11
1.465195620640454
 21
8.664197611842572
 31
0.0
  0
LINE
  5
2625
330
1E
100
AcDbEntity
  8
7
100
AcDbLine
 10
1.465195620640454
 20
8.664197611842572
 30
0.0
 11
1.510471211191635
 21
8.648449580346511
 31
0.0
  0
LINE
  5
2626
330
1E
100
AcDbEntity
  8
7
100
AcDbLine
 10
1.510471211191635
 20
8.648449580346511
 30
0.0
 11
1.557715305679824
 21
8.648449580346511
 31
0.0
  0
LINE
  5
2627
330
1E
100
AcDbEntity
  8
7
100
AcDbLine
 10
1.557715305679824
 20
8.648449580346511
 30
0.0
 11
1.601022392293996
 21
8.664197611842572
 31
0.0
  0
LINE
  5
2628
330
1E
100
AcDbEntity
  8
7
100
AcDbLine
 10
1.601022392293996
 20
8.664197611842572
 30
0.0
 11
1.638423967097146
 21
8.6956936748347
 31
0.0
  0
LINE
  5
2629
330
1E
100
AcDbEntity
  8
7
100
AcDbLine
 10
1.638423967097146
 20
8.6956936748347
 30
0.0
 11
1.662046014341242
 21
8.735063753574854
 31
0.0
  0
LINE
  5
262A
330
1E
100
AcDbEntity
  8
7
100
AcDbLine
 10
1.662046014341242
 20
8.735063753574854
 30
0.0
 11
1.669920030089274
 21
8.782307848063039
 31
0.0
  0
LINE
  5
262B
330
1E
100
AcDbEntity
  8
7
100
AcDbLine
 10
1.669920030089274
 20
8.782307848063039
 30
0.0
 11
1.662046014341242
 21
8.82955194255123
 31
0.0
  0
LINE
  5
262C
330
1E
100
AcDbEntity
  8
7
100
AcDbLine
 10
3.860864911979033
 20
8.729158241763828
 30
0.0
 11
3.892360974971166
 21
8.711441706330759
 31
0.0
  0
LINE
  5
262D
330
1E
100
AcDbEntity
  8
7
100
AcDbLine
 10
3.892360974971166
 20
8.711441706330759
 30
0.0
 11
3.927794045837305
 21
8.711441706330759
 31
0.0
  0
LINE
  5
262E
330
1E
100
AcDbEntity
  8
7
100
AcDbLine
 10
3.927794045837305
 20
8.711441706330759
 30
0.0
 11
3.95929010882943
 21
8.729158241763828
 31
0.0
  0
LINE
  5
262F
330
1E
100
AcDbEntity
  8
7
100
AcDbLine
 10
3.95929010882943
 20
8.835457454362257
 30
0.0
 11
3.927794045837305
 21
8.853173989795328
 31
0.0
  0
LINE
  5
2630
330
1E
100
AcDbEntity
  8
7
100
AcDbLine
 10
3.927794045837305
 20
8.853173989795328
 30
0.0
 11
3.892360974971166
 21
8.853173989795328
 31
0.0
  0
LINE
  5
2631
330
1E
100
AcDbEntity
  8
7
100
AcDbLine
 10
3.892360974971166
 20
8.853173989795328
 30
0.0
 11
3.860864911979033
 21
8.835457454362257
 31
0.0
  0
LINE
  5
2632
330
1E
100
AcDbEntity
  8
7
100
AcDbLine
 10
1.583305856860926
 20
8.835457454362257
 30
0.0
 11
1.551809793868802
 21
8.853173989795328
 31
0.0
  0
LINE
  5
2633
330
1E
100
AcDbEntity
  8
7
100
AcDbLine
 10
1.551809793868802
 20
8.853173989795328
 30
0.0
 11
1.516376723002657
 21
8.853173989795328
 31
0.0
  0
LINE
  5
2634
330
1E
100
AcDbEntity
  8
7
100
AcDbLine
 10
1.516376723002657
 20
8.853173989795328
 30
0.0
 11
1.484880660010533
 21
8.835457454362257
 31
0.0
  0
LINE
  5
2635
330
1E
100
AcDbEntity
  8
7
100
AcDbLine
 10
1.484880660010533
 20
8.729158241763828
 30
0.0
 11
1.516376723002657
 21
8.711441706330759
 31
0.0
  0
LINE
  5
2636
330
1E
100
AcDbEntity
  8
7
100
AcDbLine
 10
1.516376723002657
 20
8.711441706330759
 30
0.0
 11
1.551809793868802
 21
8.711441706330759
 31
0.0
  0
LINE
  5
2637
330
1E
100
AcDbEntity
  8
7
100
AcDbLine
 10
1.551809793868802
 20
8.711441706330759
 30
0.0
 11
1.583305856860926
 21
8.729158241763828
 31
0.0
  0
LINE
  5
2638
330
1E
100
AcDbEntity
  8
7
100
AcDbLine
 10
1.059683809616831
 20
10.46144170633076
 30
0.0
 11
1.049841289931794
 21
10.45750469845674
 31
0.0
  0
LINE
  5
2639
330
1E
100
AcDbEntity
  8
7
100
AcDbLine
 10
1.049841289931794
 20
10.45750469845674
 30
0.0
 11
1.043935778120768
 21
10.44569367483469
 31
0.0
  0
LINE
  5
263A
330
1E
100
AcDbEntity
  8
7
100
AcDbLine
 10
1.043935778120768
 20
7.120890525228398
 30
0.0
 11
1.049841289931794
 21
7.109079501606352
 31
0.0
  0
LINE
  5
263B
330
1E
100
AcDbEntity
  8
7
100
AcDbLine
 10
1.049841289931794
 20
7.109079501606352
 30
0.0
 11
1.059683809616831
 21
7.105142493732333
 31
0.0
  0
LINE
  5
263C
330
1E
100
AcDbEntity
  8
7
100
AcDbLine
 10
4.402203494656205
 20
10.44569367483469
 30
0.0
 11
4.396297982845178
 21
10.45750469845674
 31
0.0
  0
LINE
  5
263D
330
1E
100
AcDbEntity
  8
7
100
AcDbLine
 10
4.396297982845178
 20
10.45750469845674
 30
0.0
 11
4.386455463160141
 21
10.46144170633076
 31
0.0
  0
LINE
  5
263E
330
1E
100
AcDbEntity
  8
7
100
AcDbLine
 10
4.386455463160141
 20
7.105142493732333
 30
0.0
 11
4.396297982845178
 21
7.109079501606352
 31
0.0
  0
LINE
  5
263F
330
1E
100
AcDbEntity
  8
7
100
AcDbLine
 10
4.396297982845178
 20
7.109079501606352
 30
0.0
 11
4.402203494656205
 21
7.120890525228398
 31
0.0
  0
LINE
  5
2640
330
1E
100
AcDbEntity
  8
7
100
AcDbLine
 10
1.215195620640454
 20
10.29018186381107
 30
0.0
 11
1.173857037963291
 21
10.32955194255122
 31
0.0
  0
LINE
  5
2641
330
1E
100
AcDbEntity
  8
7
100
AcDbLine
 10
1.173857037963291
 20
10.32955194255122
 30
0.0
 11
1.132518455286124
 21
10.36498501341737
 31
0.0
  0
LINE
  5
2642
330
1E
100
AcDbEntity
  8
7
100
AcDbLine
 10
1.132518455286124
 20
10.36498501341737
 30
0.0
 11
1.099053888356989
 21
10.3964810764095
 31
0.0
  0
LINE
  5
2643
330
1E
100
AcDbEntity
  8
7
100
AcDbLine
 10
1.099053888356989
 20
10.3964810764095
 30
0.0
 11
1.07149483323888
 21
10.4220716275906
 31
0.0
  0
LINE
  5
2644
330
1E
100
AcDbEntity
  8
7
100
AcDbLine
 10
1.07149483323888
 20
10.4220716275906
 30
0.0
 11
1.051809793868802
 21
10.43781965908666
 31
0.0
  0
LINE
  5
2645
330
1E
100
AcDbEntity
  8
7
100
AcDbLine
 10
1.051809793868802
 20
10.43781965908666
 30
0.0
 11
1.043935778120768
 21
10.44569367483469
 31
0.0
  0
LINE
  5
2646
330
1E
100
AcDbEntity
  8
7
100
AcDbLine
 10
1.132518455286124
 20
7.20159918664572
 30
0.0
 11
1.173857037963291
 21
7.237032257511861
 31
0.0
  0
LINE
  5
2647
330
1E
100
AcDbEntity
  8
7
100
AcDbLine
 10
1.173857037963291
 20
7.237032257511861
 30
0.0
 11
1.215195620640454
 21
7.27640233625202
 31
0.0
  0
LINE
  5
2648
330
1E
100
AcDbEntity
  8
7
100
AcDbLine
 10
1.043935778120768
 20
7.120890525228398
 30
0.0
 11
1.051809793868802
 21
7.12679603703942
 31
0.0
  0
LINE
  5
2649
330
1E
100
AcDbEntity
  8
7
100
AcDbLine
 10
1.051809793868802
 20
7.12679603703942
 30
0.0
 11
1.07149483323888
 21
7.144512572472491
 31
0.0
  0
LINE
  5
264A
330
1E
100
AcDbEntity
  8
7
100
AcDbLine
 10
1.07149483323888
 20
7.144512572472491
 30
0.0
 11
1.099053888356989
 21
7.170103123653596
 31
0.0
  0
LINE
  5
264B
330
1E
100
AcDbEntity
  8
7
100
AcDbLine
 10
1.099053888356989
 20
7.170103123653596
 30
0.0
 11
1.132518455286124
 21
7.20159918664572
 31
0.0
  0
LINE
  5
264C
330
1E
100
AcDbEntity
  8
7
100
AcDbLine
 10
1.059683809616831
 20
10.46144170633076
 30
0.0
 11
1.067557825364863
 21
10.45356769058272
 31
0.0
  0
LINE
  5
264D
330
1E
100
AcDbEntity
  8
7
100
AcDbLine
 10
1.067557825364863
 20
10.45356769058272
 30
0.0
 11
1.083305856860926
 21
10.43388265121264
 31
0.0
  0
LINE
  5
264E
330
1E
100
AcDbEntity
  8
7
100
AcDbLine
 10
1.083305856860926
 20
10.43388265121264
 30
0.0
 11
1.10889640804203
 21
10.40829210003154
 31
0.0
  0
LINE
  5
264F
330
1E
100
AcDbEntity
  8
7
100
AcDbLine
 10
1.10889640804203
 20
10.40829210003154
 30
0.0
 11
1.140392471034154
 21
10.3728590291654
 31
0.0
  0
LINE
  5
2650
330
1E
100
AcDbEntity
  8
7
100
AcDbLine
 10
1.140392471034154
 20
10.3728590291654
 30
0.0
 11
1.177794045837304
 21
10.33348895042525
 31
0.0
  0
LINE
  5
2651
330
1E
100
AcDbEntity
  8
7
100
AcDbLine
 10
1.177794045837304
 20
10.33348895042525
 30
0.0
 11
1.215195620640454
 21
10.29018186381107
 31
0.0
  0
LINE
  5
2652
330
1E
100
AcDbEntity
  8
7
100
AcDbLine
 10
4.360864911979033
 20
10.43388265121264
 30
0.0
 11
4.378581447412107
 21
10.45356769058272
 31
0.0
  0
LINE
  5
2653
330
1E
100
AcDbEntity
  8
7
100
AcDbLine
 10
4.378581447412107
 20
10.45356769058272
 30
0.0
 11
4.386455463160141
 21
10.46144170633076
 31
0.0
  0
LINE
  5
2654
330
1E
100
AcDbEntity
  8
7
100
AcDbLine
 10
4.228975148199507
 20
10.29018186381107
 30
0.0
 11
4.268345226939667
 21
10.33348895042525
 31
0.0
  0
LINE
  5
2655
330
1E
100
AcDbEntity
  8
7
100
AcDbLine
 10
4.268345226939667
 20
10.33348895042525
 30
0.0
 11
4.303778297805807
 21
10.3728590291654
 31
0.0
  0
LINE
  5
2656
330
1E
100
AcDbEntity
  8
7
100
AcDbLine
 10
4.303778297805807
 20
10.3728590291654
 30
0.0
 11
4.337242864734943
 21
10.40829210003154
 31
0.0
  0
LINE
  5
2657
330
1E
100
AcDbEntity
  8
7
100
AcDbLine
 10
4.337242864734943
 20
10.40829210003154
 30
0.0
 11
4.360864911979033
 21
10.43388265121264
 31
0.0
  0
LINE
  5
2658
330
1E
100
AcDbEntity
  8
7
100
AcDbLine
 10
1.215195620640454
 20
7.27640233625202
 30
0.0
 11
1.177794045837304
 21
7.23309524963785
 31
0.0
  0
LINE
  5
2659
330
1E
100
AcDbEntity
  8
7
100
AcDbLine
 10
1.177794045837304
 20
7.23309524963785
 30
0.0
 11
1.140392471034154
 21
7.193725170897689
 31
0.0
  0
LINE
  5
265A
330
1E
100
AcDbEntity
  8
7
100
AcDbLine
 10
1.140392471034154
 20
7.193725170897689
 30
0.0
 11
1.10889640804203
 21
7.158292100031548
 31
0.0
  0
LINE
  5
265B
330
1E
100
AcDbEntity
  8
7
100
AcDbLine
 10
1.10889640804203
 20
7.158292100031548
 30
0.0
 11
1.083305856860926
 21
7.130733044913441
 31
0.0
  0
LINE
  5
265C
330
1E
100
AcDbEntity
  8
7
100
AcDbLine
 10
1.083305856860926
 20
7.130733044913441
 30
0.0
 11
1.067557825364863
 21
7.113016509480367
 31
0.0
  0
LINE
  5
265D
330
1E
100
AcDbEntity
  8
7
100
AcDbLine
 10
1.067557825364863
 20
7.113016509480367
 30
0.0
 11
1.059683809616831
 21
7.105142493732333
 31
0.0
  0
LINE
  5
265E
330
1E
100
AcDbEntity
  8
7
100
AcDbLine
 10
4.386455463160141
 20
7.105142493732333
 30
0.0
 11
4.378581447412107
 21
7.113016509480367
 31
0.0
  0
LINE
  5
265F
330
1E
100
AcDbEntity
  8
7
100
AcDbLine
 10
4.378581447412107
 20
7.113016509480367
 30
0.0
 11
4.360864911979033
 21
7.130733044913441
 31
0.0
  0
LINE
  5
2660
330
1E
100
AcDbEntity
  8
7
100
AcDbLine
 10
4.360864911979033
 20
7.130733044913441
 30
0.0
 11
4.337242864734943
 21
7.158292100031548
 31
0.0
  0
LINE
  5
2661
330
1E
100
AcDbEntity
  8
7
100
AcDbLine
 10
4.337242864734943
 20
7.158292100031548
 30
0.0
 11
4.303778297805807
 21
7.193725170897689
 31
0.0
  0
LINE
  5
2662
330
1E
100
AcDbEntity
  8
7
100
AcDbLine
 10
4.303778297805807
 20
7.193725170897689
 30
0.0
 11
4.268345226939667
 21
7.23309524963785
 31
0.0
  0
LINE
  5
2663
330
1E
100
AcDbEntity
  8
7
100
AcDbLine
 10
4.268345226939667
 20
7.23309524963785
 30
0.0
 11
4.228975148199507
 21
7.27640233625202
 31
0.0
  0
LINE
  5
2664
330
1E
100
AcDbEntity
  8
7
100
AcDbLine
 10
4.402203494656205
 20
10.44569367483469
 30
0.0
 11
4.392360974971166
 21
10.43781965908666
 31
0.0
  0
LINE
  5
2665
330
1E
100
AcDbEntity
  8
7
100
AcDbLine
 10
4.392360974971166
 20
10.43781965908666
 30
0.0
 11
4.374644439538093
 21
10.4220716275906
 31
0.0
  0
LINE
  5
2666
330
1E
100
AcDbEntity
  8
7
100
AcDbLine
 10
4.374644439538093
 20
10.4220716275906
 30
0.0
 11
4.347085384419983
 21
10.3964810764095
 31
0.0
  0
LINE
  5
2667
330
1E
100
AcDbEntity
  8
7
100
AcDbLine
 10
4.347085384419983
 20
10.3964810764095
 30
0.0
 11
4.311652313553839
 21
10.36498501341737
 31
0.0
  0
LINE
  5
2668
330
1E
100
AcDbEntity
  8
7
100
AcDbLine
 10
4.311652313553839
 20
10.36498501341737
 30
0.0
 11
4.272282234813683
 21
10.32955194255122
 31
0.0
  0
LINE
  5
2669
330
1E
100
AcDbEntity
  8
7
100
AcDbLine
 10
4.272282234813683
 20
10.32955194255122
 30
0.0
 11
4.228975148199507
 21
10.29018186381107
 31
0.0
  0
LINE
  5
266A
330
1E
100
AcDbEntity
  8
7
100
AcDbLine
 10
4.228975148199507
 20
7.27640233625202
 30
0.0
 11
4.272282234813683
 21
7.237032257511861
 31
0.0
  0
LINE
  5
266B
330
1E
100
AcDbEntity
  8
7
100
AcDbLine
 10
4.272282234813683
 20
7.237032257511861
 30
0.0
 11
4.311652313553839
 21
7.20159918664572
 31
0.0
  0
LINE
  5
266C
330
1E
100
AcDbEntity
  8
7
100
AcDbLine
 10
4.311652313553839
 20
7.20159918664572
 30
0.0
 11
4.347085384419983
 21
7.170103123653596
 31
0.0
  0
LINE
  5
266D
330
1E
100
AcDbEntity
  8
7
100
AcDbLine
 10
4.347085384419983
 20
7.170103123653596
 30
0.0
 11
4.374644439538093
 21
7.144512572472491
 31
0.0
  0
LINE
  5
266E
330
1E
100
AcDbEntity
  8
7
100
AcDbLine
 10
4.374644439538093
 20
7.144512572472491
 30
0.0
 11
4.392360974971166
 21
7.12679603703942
 31
0.0
  0
LINE
  5
266F
330
1E
100
AcDbEntity
  8
7
100
AcDbLine
 10
4.392360974971166
 20
7.12679603703942
 30
0.0
 11
4.402203494656205
 21
7.120890525228398
 31
0.0
  0
LINE
  5
2670
330
1E
100
AcDbEntity
  8
7
100
AcDbLine
 10
1.030156250561715
 20
7.105142493732333
 30
0.0
 11
1.043935778120768
 21
7.120890525228398
 31
0.0
  0
LINE
  5
2671
330
1E
100
AcDbEntity
  8
7
100
AcDbLine
 10
1.043935778120768
 20
7.120890525228398
 30
0.0
 11
1.043935778120768
 21
10.44569367483469
 31
0.0
  0
LINE
  5
2672
330
1E
100
AcDbEntity
  8
7
100
AcDbLine
 10
1.043935778120768
 20
10.44569367483469
 30
0.0
 11
1.030156250561715
 21
10.46144170633076
 31
0.0
  0
LINE
  5
2673
330
1E
100
AcDbEntity
  8
7
100
AcDbLine
 10
4.400234990719194
 20
10.47522123388981
 30
0.0
 11
4.412046014341242
 21
10.4712842260158
 31
0.0
  0
LINE
  5
2674
330
1E
100
AcDbEntity
  8
7
100
AcDbLine
 10
4.412046014341242
 20
10.4712842260158
 30
0.0
 11
4.415983022215257
 21
10.46144170633076
 31
0.0
  0
LINE
  5
2675
330
1E
100
AcDbEntity
  8
7
100
AcDbLine
 10
1.030156250561715
 20
10.46144170633076
 30
0.0
 11
1.03409325843573
 21
10.4712842260158
 31
0.0
  0
LINE
  5
2676
330
1E
100
AcDbEntity
  8
7
100
AcDbLine
 10
1.03409325843573
 20
10.4712842260158
 30
0.0
 11
1.045904282057776
 21
10.47522123388981
 31
0.0
  0
LINE
  5
2677
330
1E
100
AcDbEntity
  8
7
100
AcDbLine
 10
1.045904282057776
 20
7.089394462236271
 30
0.0
 11
1.03409325843573
 21
7.095299974047296
 31
0.0
  0
LINE
  5
2678
330
1E
100
AcDbEntity
  8
7
100
AcDbLine
 10
1.03409325843573
 20
7.095299974047296
 30
0.0
 11
1.030156250561715
 21
7.105142493732333
 31
0.0
  0
LINE
  5
2679
330
1E
100
AcDbEntity
  8
7
100
AcDbLine
 10
4.415983022215257
 20
7.105142493732333
 30
0.0
 11
4.412046014341242
 21
7.095299974047296
 31
0.0
  0
LINE
  5
267A
330
1E
100
AcDbEntity
  8
7
100
AcDbLine
 10
4.412046014341242
 20
7.095299974047296
 30
0.0
 11
4.400234990719194
 21
7.089394462236271
 31
0.0
  0
LINE
  5
267B
330
1E
100
AcDbEntity
  8
7
100
AcDbLine
 10
1.045904282057776
 20
7.089394462236271
 30
0.0
 11
4.400234990719194
 21
7.089394462236271
 31
0.0
  0
LINE
  5
267C
330
1E
100
AcDbEntity
  8
7
100
AcDbLine
 10
4.400234990719194
 20
7.089394462236271
 30
0.0
 11
4.386455463160141
 21
7.105142493732333
 31
0.0
  0
LINE
  5
267D
330
1E
100
AcDbEntity
  8
7
100
AcDbLine
 10
4.386455463160141
 20
7.105142493732333
 30
0.0
 11
1.059683809616831
 21
7.105142493732333
 31
0.0
  0
LINE
  5
267E
330
1E
100
AcDbEntity
  8
7
100
AcDbLine
 10
1.059683809616831
 20
7.105142493732333
 30
0.0
 11
1.045904282057776
 21
7.089394462236271
 31
0.0
  0
LINE
  5
267F
330
1E
100
AcDbEntity
  8
7
100
AcDbLine
 10
4.402203494656205
 20
10.44569367483469
 30
0.0
 11
4.402203494656205
 21
7.120890525228398
 31
0.0
  0
LINE
  5
2680
330
1E
100
AcDbEntity
  8
7
100
AcDbLine
 10
4.402203494656205
 20
7.120890525228398
 30
0.0
 11
4.415983022215257
 21
7.105142493732333
 31
0.0
  0
LINE
  5
2681
330
1E
100
AcDbEntity
  8
7
100
AcDbLine
 10
4.415983022215257
 20
7.105142493732333
 30
0.0
 11
4.415983022215257
 21
10.46144170633076
 31
0.0
  0
LINE
  5
2682
330
1E
100
AcDbEntity
  8
7
100
AcDbLine
 10
4.415983022215257
 20
10.46144170633076
 30
0.0
 11
4.402203494656205
 21
10.44569367483469
 31
0.0
  0
LINE
  5
2683
330
1E
100
AcDbEntity
  8
7
100
AcDbLine
 10
1.059683809616831
 20
10.46144170633076
 30
0.0
 11
4.386455463160141
 21
10.46144170633076
 31
0.0
  0
LINE
  5
2684
330
1E
100
AcDbEntity
  8
7
100
AcDbLine
 10
4.386455463160141
 20
10.46144170633076
 30
0.0
 11
4.400234990719194
 21
10.47522123388981
 31
0.0
  0
LINE
  5
2685
330
1E
100
AcDbEntity
  8
7
100
AcDbLine
 10
4.400234990719194
 20
10.47522123388981
 30
0.0
 11
1.045904282057776
 21
10.47522123388981
 31
0.0
  0
LINE
  5
2686
330
1E
100
AcDbEntity
  8
7
100
AcDbLine
 10
4.228975148199507
 20
10.29018186381107
 30
0.0
 11
1.215195620640454
 21
10.29018186381107
 31
0.0
  0
LINE
  5
2687
330
1E
100
AcDbEntity
  8
7
100
AcDbLine
 10
1.215195620640454
 20
10.29018186381107
 30
0.0
 11
1.215195620640454
 21
7.27640233625202
 31
0.0
  0
LINE
  5
2688
330
1E
100
AcDbEntity
  8
7
100
AcDbLine
 10
1.215195620640454
 20
7.27640233625202
 30
0.0
 11
4.228975148199507
 21
7.27640233625202
 31
0.0
  0
LINE
  5
2689
330
1E
100
AcDbEntity
  8
7
100
AcDbLine
 10
4.228975148199507
 20
7.27640233625202
 30
0.0
 11
4.228975148199507
 21
10.29018186381107
 31
0.0
  0
LINE
  5
268A
330
1E
100
AcDbEntity
  8
7
100
AcDbLine
 10
1.429762549774311
 20
8.868922021291389
 30
0.0
 11
1.406140502530217
 21
8.82955194255123
 31
0.0
  0
LINE
  5
268B
330
1E
100
AcDbEntity
  8
7
100
AcDbLine
 10
1.406140502530217
 20
8.82955194255123
 30
0.0
 11
1.398266486782187
 21
8.782307848063039
 31
0.0
  0
LINE
  5
268C
330
1E
100
AcDbEntity
  8
7
100
AcDbLine
 10
1.406140502530217
 20
8.735063753574854
 30
0.0
 11
1.429762549774311
 21
8.6956936748347
 31
0.0
  0
LINE
  5
268D
330
1E
100
AcDbEntity
  8
7
100
AcDbLine
 10
1.429762549774311
 20
8.6956936748347
 30
0.0
 11
1.465195620640454
 21
8.664197611842572
 31
0.0
  0
LINE
  5
268E
330
1E
100
AcDbEntity
  8
7
100
AcDbLine
 10
1.465195620640454
 20
8.664197611842572
 30
0.0
 11
1.510471211191635
 21
8.648449580346511
 31
0.0
  0
LINE
  5
268F
330
1E
100
AcDbEntity
  8
7
100
AcDbLine
 10
1.510471211191635
 20
8.648449580346511
 30
0.0
 11
1.557715305679824
 21
8.648449580346511
 31
0.0
  0
LINE
  5
2690
330
1E
100
AcDbEntity
  8
7
100
AcDbLine
 10
1.557715305679824
 20
8.648449580346511
 30
0.0
 11
1.601022392293996
 21
8.664197611842572
 31
0.0
  0
LINE
  5
2691
330
1E
100
AcDbEntity
  8
7
100
AcDbLine
 10
1.601022392293996
 20
8.664197611842572
 30
0.0
 11
1.638423967097146
 21
8.6956936748347
 31
0.0
  0
LINE
  5
2692
330
1E
100
AcDbEntity
  8
7
100
AcDbLine
 10
1.638423967097146
 20
8.6956936748347
 30
0.0
 11
1.662046014341242
 21
8.735063753574854
 31
0.0
  0
LINE
  5
2693
330
1E
100
AcDbEntity
  8
7
100
AcDbLine
 10
1.662046014341242
 20
8.735063753574854
 30
0.0
 11
1.669920030089274
 21
8.782307848063039
 31
0.0
  0
LINE
  5
2694
330
1E
100
AcDbEntity
  8
7
100
AcDbLine
 10
1.669920030089274
 20
8.782307848063039
 30
0.0
 11
1.662046014341242
 21
8.82955194255123
 31
0.0
  0
LINE
  5
2695
330
1E
100
AcDbEntity
  8
7
100
AcDbLine
 10
1.662046014341242
 20
8.82955194255123
 30
0.0
 11
1.638423967097146
 21
8.868922021291389
 31
0.0
  0
LINE
  5
2696
330
1E
100
AcDbEntity
  8
7
100
AcDbLine
 10
1.638423967097146
 20
8.868922021291389
 30
0.0
 11
1.602990896231004
 21
8.900418084283517
 31
0.0
  0
LINE
  5
2697
330
1E
100
AcDbEntity
  8
7
100
AcDbLine
 10
1.602990896231004
 20
8.900418084283517
 30
0.0
 11
1.557715305679824
 21
8.91616611577958
 31
0.0
  0
LINE
  5
2698
330
1E
100
AcDbEntity
  8
7
100
AcDbLine
 10
1.557715305679824
 20
8.91616611577958
 30
0.0
 11
1.510471211191635
 21
8.91616611577958
 31
0.0
  0
LINE
  5
2699
330
1E
100
AcDbEntity
  8
7
100
AcDbLine
 10
1.510471211191635
 20
8.91616611577958
 30
0.0
 11
1.467164124577463
 21
8.900418084283517
 31
0.0
  0
LINE
  5
269A
330
1E
100
AcDbEntity
  8
7
100
AcDbLine
 10
1.467164124577463
 20
8.900418084283517
 30
0.0
 11
1.429762549774311
 21
8.868922021291389
 31
0.0
  0
LINE
  5
269B
330
1E
100
AcDbEntity
  8
7
100
AcDbLine
 10
4.045904282057776
 20
8.782307848063039
 30
0.0
 11
4.038030266309746
 21
8.82955194255123
 31
0.0
  0
LINE
  5
269C
330
1E
100
AcDbEntity
  8
7
100
AcDbLine
 10
4.038030266309746
 20
8.82955194255123
 30
0.0
 11
4.014408219065652
 21
8.868922021291389
 31
0.0
  0
LINE
  5
269D
330
1E
100
AcDbEntity
  8
7
100
AcDbLine
 10
4.014408219065652
 20
8.868922021291389
 30
0.0
 11
3.978975148199507
 21
8.900418084283517
 31
0.0
  0
LINE
  5
269E
330
1E
100
AcDbEntity
  8
7
100
AcDbLine
 10
3.978975148199507
 20
8.900418084283517
 30
0.0
 11
3.93369955764833
 21
8.91616611577958
 31
0.0
  0
LINE
  5
269F
330
1E
100
AcDbEntity
  8
7
100
AcDbLine
 10
3.93369955764833
 20
8.91616611577958
 30
0.0
 11
3.886455463160141
 21
8.91616611577958
 31
0.0
  0
LINE
  5
26A0
330
1E
100
AcDbEntity
  8
7
100
AcDbLine
 10
3.886455463160141
 20
8.91616611577958
 30
0.0
 11
3.843148376545963
 21
8.900418084283517
 31
0.0
  0
LINE
  5
26A1
330
1E
100
AcDbEntity
  8
7
100
AcDbLine
 10
3.843148376545963
 20
8.900418084283517
 30
0.0
 11
3.805746801742817
 21
8.868922021291389
 31
0.0
  0
LINE
  5
26A2
330
1E
100
AcDbEntity
  8
7
100
AcDbLine
 10
3.805746801742817
 20
8.868922021291389
 30
0.0
 11
3.782124754498722
 21
8.82955194255123
 31
0.0
  0
LINE
  5
26A3
330
1E
100
AcDbEntity
  8
7
100
AcDbLine
 10
3.782124754498722
 20
8.82955194255123
 30
0.0
 11
3.774250738750691
 21
8.782307848063039
 31
0.0
  0
LINE
  5
26A4
330
1E
100
AcDbEntity
  8
7
100
AcDbLine
 10
3.774250738750691
 20
8.782307848063039
 30
0.0
 11
3.782124754498722
 21
8.735063753574854
 31
0.0
  0
LINE
  5
26A5
330
1E
100
AcDbEntity
  8
7
100
AcDbLine
 10
3.782124754498722
 20
8.735063753574854
 30
0.0
 11
3.805746801742817
 21
8.6956936748347
 31
0.0
  0
LINE
  5
26A6
330
1E
100
AcDbEntity
  8
7
100
AcDbLine
 10
3.805746801742817
 20
8.6956936748347
 30
0.0
 11
3.841179872608956
 21
8.664197611842572
 31
0.0
  0
LINE
  5
26A7
330
1E
100
AcDbEntity
  8
7
100
AcDbLine
 10
3.841179872608956
 20
8.664197611842572
 30
0.0
 11
3.886455463160141
 21
8.648449580346511
 31
0.0
  0
LINE
  5
26A8
330
1E
100
AcDbEntity
  8
7
100
AcDbLine
 10
3.886455463160141
 20
8.648449580346511
 30
0.0
 11
3.93369955764833
 21
8.648449580346511
 31
0.0
  0
LINE
  5
26A9
330
1E
100
AcDbEntity
  8
7
100
AcDbLine
 10
3.93369955764833
 20
8.648449580346511
 30
0.0
 11
3.977006644262502
 21
8.664197611842572
 31
0.0
  0
LINE
  5
26AA
330
1E
100
AcDbEntity
  8
7
100
AcDbLine
 10
3.977006644262502
 20
8.664197611842572
 30
0.0
 11
4.014408219065652
 21
8.6956936748347
 31
0.0
  0
LINE
  5
26AB
330
1E
100
AcDbEntity
  8
7
100
AcDbLine
 10
4.014408219065652
 20
8.6956936748347
 30
0.0
 11
4.038030266309746
 21
8.735063753574854
 31
0.0
  0
LINE
  5
26AC
330
1E
100
AcDbEntity
  8
7
100
AcDbLine
 10
4.038030266309746
 20
8.735063753574854
 30
0.0
 11
4.045904282057776
 21
8.782307848063039
 31
0.0
  0
LINE
  5
26AD
330
1E
100
AcDbEntity
  8
7
100
AcDbLine
 10
2.280156250561715
 20
7.672071627590602
 30
0.0
 11
2.158109006467228
 21
7.672071627590602
 31
0.0
  0
LINE
  5
26AE
330
1E
100
AcDbEntity
  8
7
100
AcDbLine
 10
2.158109006467228
 20
7.672071627590602
 30
0.0
 11
1.744723179695572
 21
7.672071627590602
 31
0.0
  0
LINE
  5
26AF
330
1E
100
AcDbEntity
  8
7
100
AcDbLine
 10
3.7014160930814
 20
7.672071627590602
 30
0.0
 11
3.288030266309746
 21
7.672071627590602
 31
0.0
  0
LINE
  5
26B0
330
1E
100
AcDbEntity
  8
7
100
AcDbLine
 10
3.288030266309746
 20
7.672071627590602
 30
0.0
 11
3.165983022215257
 21
7.672071627590602
 31
0.0
  0
LINE
  5
26B1
330
1E
100
AcDbEntity
  8
7
100
AcDbLine
 10
3.165983022215257
 20
7.672071627590602
 30
0.0
 11
2.915983022215257
 21
7.672071627590602
 31
0.0
  0
LINE
  5
26B2
330
1E
100
AcDbEntity
  8
7
100
AcDbLine
 10
2.915983022215257
 20
7.672071627590602
 30
0.0
 11
2.791967274183763
 21
7.672071627590602
 31
0.0
  0
LINE
  5
26B3
330
1E
100
AcDbEntity
  8
7
100
AcDbLine
 10
3.744723179695576
 20
7.697662178771704
 30
0.0
 11
3.758502707254626
 21
7.725221233889817
 31
0.0
  0
LINE
  5
26B4
330
1E
100
AcDbEntity
  8
7
100
AcDbLine
 10
3.758502707254626
 20
7.725221233889817
 30
0.0
 11
3.762439715128644
 21
7.758685800818948
 31
0.0
  0
LINE
  5
26B5
330
1E
100
AcDbEntity
  8
7
100
AcDbLine
 10
3.7014160930814
 20
7.672071627590602
 30
0.0
 11
3.725038140325496
 21
7.67797713940163
 31
0.0
  0
LINE
  5
26B6
330
1E
100
AcDbEntity
  8
7
100
AcDbLine
 10
3.725038140325496
 20
7.67797713940163
 30
0.0
 11
3.744723179695576
 21
7.697662178771704
 31
0.0
  0
LINE
  5
26B7
330
1E
100
AcDbEntity
  8
7
100
AcDbLine
 10
3.762439715128644
 20
9.707504698456746
 30
0.0
 11
3.760471211191633
 21
9.764591312629972
 31
0.0
  0
LINE
  5
26B8
330
1E
100
AcDbEntity
  8
7
100
AcDbLine
 10
3.760471211191633
 20
9.764591312629972
 30
0.0
 11
3.750628691506596
 21
9.813803911055169
 31
0.0
  0
LINE
  5
26B9
330
1E
100
AcDbEntity
  8
7
100
AcDbLine
 10
3.750628691506596
 20
9.813803911055169
 30
0.0
 11
3.736849163947542
 21
9.853173989795328
 31
0.0
  0
LINE
  5
26BA
330
1E
100
AcDbEntity
  8
7
100
AcDbLine
 10
3.736849163947542
 20
9.853173989795328
 30
0.0
 11
3.719132628514469
 21
9.878764540976428
 31
0.0
  0
LINE
  5
26BB
330
1E
100
AcDbEntity
  8
7
100
AcDbLine
 10
3.719132628514469
 20
9.878764540976428
 30
0.0
 11
3.7014160930814
 21
9.888607060661469
 31
0.0
  0
LINE
  5
26BC
330
1E
100
AcDbEntity
  8
7
100
AcDbLine
 10
1.68369955764833
 20
9.707504698456746
 30
0.0
 11
1.685668061585335
 21
9.764591312629972
 31
0.0
  0
LINE
  5
26BD
330
1E
100
AcDbEntity
  8
7
100
AcDbLine
 10
1.685668061585335
 20
9.764591312629972
 30
0.0
 11
1.695510581270376
 21
9.813803911055169
 31
0.0
  0
LINE
  5
26BE
330
1E
100
AcDbEntity
  8
7
100
AcDbLine
 10
1.695510581270376
 20
9.813803911055169
 30
0.0
 11
1.707321604892424
 21
9.853173989795328
 31
0.0
  0
LINE
  5
26BF
330
1E
100
AcDbEntity
  8
7
100
AcDbLine
 10
1.707321604892424
 20
9.853173989795328
 30
0.0
 11
1.725038140325494
 21
9.878764540976428
 31
0.0
  0
LINE
  5
26C0
330
1E
100
AcDbEntity
  8
7
100
AcDbLine
 10
1.725038140325494
 20
9.878764540976428
 30
0.0
 11
1.744723179695572
 21
9.888607060661469
 31
0.0
  0
LINE
  5
26C1
330
1E
100
AcDbEntity
  8
7
100
AcDbLine
 10
1.744723179695572
 20
7.672071627590602
 30
0.0
 11
1.721101132451479
 21
7.67797713940163
 31
0.0
  0
LINE
  5
26C2
330
1E
100
AcDbEntity
  8
7
100
AcDbLine
 10
1.721101132451479
 20
7.67797713940163
 30
0.0
 11
1.7014160930814
 21
7.697662178771704
 31
0.0
  0
LINE
  5
26C3
330
1E
100
AcDbEntity
  8
7
100
AcDbLine
 10
1.7014160930814
 20
7.697662178771704
 30
0.0
 11
1.687636565522343
 21
7.725221233889817
 31
0.0
  0
LINE
  5
26C4
330
1E
100
AcDbEntity
  8
7
100
AcDbLine
 10
1.687636565522343
 20
7.725221233889817
 30
0.0
 11
1.68369955764833
 21
7.758685800818948
 31
0.0
  0
LINE
  5
2A13
330
1E
100
AcDbEntity
  8
7
100
AcDbLine
 10
1.691573573396361
 20
4.307898399244146
 30
0.0
 11
1.7014160930814
 21
4.32955194255123
 31
0.0
  0
LINE
  5
2A14
330
1E
100
AcDbEntity
  8
7
100
AcDbLine
 10
1.7014160930814
 20
4.32955194255123
 30
0.0
 11
1.723069636388485
 21
4.345299974047296
 31
0.0
  0
LINE
  5
2A15
330
1E
100
AcDbEntity
  8
7
100
AcDbLine
 10
1.723069636388485
 20
4.345299974047296
 30
0.0
 11
1.754565699380613
 21
4.351205485858319
 31
0.0
  0
LINE
  5
2A16
330
1E
100
AcDbEntity
  8
7
100
AcDbLine
 10
3.762439715128644
 20
3.788213359874067
 30
0.0
 11
3.752597195443604
 21
4.307898399244146
 31
0.0
  0
LINE
  5
2A17
330
1E
100
AcDbEntity
  8
7
100
AcDbLine
 10
3.752597195443604
 20
4.307898399244146
 30
0.0
 11
3.744723179695576
 21
4.32955194255123
 31
0.0
  0
LINE
  5
2A18
330
1E
100
AcDbEntity
  8
7
100
AcDbLine
 10
3.744723179695576
 20
4.32955194255123
 30
0.0
 11
3.721101132451479
 21
4.345299974047296
 31
0.0
  0
LINE
  5
2A19
330
1E
100
AcDbEntity
  8
7
100
AcDbLine
 10
3.721101132451479
 20
4.345299974047296
 30
0.0
 11
3.691573573396361
 21
4.351205485858319
 31
0.0
  0
LINE
  5
2A1A
330
1E
100
AcDbEntity
  8
7
100
AcDbLine
 10
2.929762549774311
 20
4.235063753574854
 30
0.0
 11
2.931731053711322
 21
4.209473202393754
 31
0.0
  0
LINE
  5
2A1B
330
1E
100
AcDbEntity
  8
7
100
AcDbLine
 10
2.931731053711322
 20
4.209473202393754
 30
0.0
 11
2.953384597018407
 21
4.209473202393754
 31
0.0
  0
LINE
  5
2A1C
330
1E
100
AcDbEntity
  8
7
100
AcDbLine
 10
2.791967274183763
 20
3.788213359874067
 30
0.0
 11
2.791967274183763
 21
3.83348895042525
 31
0.0
  0
LINE
  5
2A1D
330
1E
100
AcDbEntity
  8
7
100
AcDbLine
 10
2.791967274183763
 20
3.83348895042525
 30
0.0
 11
2.654171998593209
 21
3.83348895042525
 31
0.0
  0
LINE
  5
2A1E
330
1E
100
AcDbEntity
  8
7
100
AcDbLine
 10
1.754565699380613
 20
4.351205485858319
 30
0.0
 11
1.754565699380613
 21
4.364985013417378
 31
0.0
  0
LINE
  5
2A1F
330
1E
100
AcDbEntity
  8
7
100
AcDbLine
 10
1.754565699380613
 20
4.364985013417378
 30
0.0
 11
1.754565699380613
 21
4.368922021291389
 31
0.0
  0
LINE
  5
2A20
330
1E
100
AcDbEntity
  8
7
100
AcDbLine
 10
3.691573573396361
 20
4.351205485858319
 30
0.0
 11
3.691573573396361
 21
4.364985013417378
 31
0.0
  0
LINE
  5
2A21
330
1E
100
AcDbEntity
  8
7
100
AcDbLine
 10
3.691573573396361
 20
4.364985013417378
 30
0.0
 11
3.691573573396361
 21
4.368922021291389
 31
0.0
  0
LINE
  5
2A22
330
1E
100
AcDbEntity
  8
7
100
AcDbLine
 10
2.514408219065652
 20
4.209473202393754
 30
0.0
 11
2.516376723002657
 21
4.209473202393754
 31
0.0
  0
LINE
  5
2A23
330
1E
100
AcDbEntity
  8
7
100
AcDbLine
 10
2.516376723002657
 20
4.209473202393754
 30
0.0
 11
2.516376723002657
 21
4.235063753574854
 31
0.0
  0
LINE
  5
2A24
330
1E
100
AcDbEntity
  8
7
100
AcDbLine
 10
2.36873892772707
 20
3.327583438614226
 30
0.0
 11
2.36873892772707
 21
3.32955194255123
 31
0.0
  0
LINE
  5
2A25
330
1E
100
AcDbEntity
  8
7
100
AcDbLine
 10
2.36873892772707
 20
3.32955194255123
 30
0.0
 11
2.327400345049905
 21
3.32955194255123
 31
0.0
  0
LINE
  5
2A26
330
1E
100
AcDbEntity
  8
7
100
AcDbLine
 10
2.492754675758565
 20
4.264591312629974
 30
0.0
 11
2.317557825364865
 21
4.264591312629974
 31
0.0
  0
LINE
  5
2A27
330
1E
100
AcDbEntity
  8
7
100
AcDbLine
 10
2.317557825364865
 20
4.264591312629974
 30
0.0
 11
2.317557825364865
 21
4.237032257511861
 31
0.0
  0
LINE
  5
2A28
330
1E
100
AcDbEntity
  8
7
100
AcDbLine
 10
2.492754675758565
 20
4.237032257511861
 30
0.0
 11
2.317557825364865
 21
4.237032257511861
 31
0.0
  0
LINE
  5
2A29
330
1E
100
AcDbEntity
  8
7
100
AcDbLine
 10
2.317557825364865
 20
4.237032257511861
 30
0.0
 11
2.317557825364865
 21
4.197662178771704
 31
0.0
  0
LINE
  5
2A2A
330
1E
100
AcDbEntity
  8
7
100
AcDbLine
 10
1.043935778120768
 20
3.626796037039422
 30
0.0
 11
1.049841289931794
 21
3.628764540976428
 31
0.0
  0
LINE
  5
2A2B
330
1E
100
AcDbEntity
  8
7
100
AcDbLine
 10
1.049841289931794
 20
3.628764540976428
 30
0.0
 11
1.059683809616831
 21
3.626796037039422
 31
0.0
  0
LINE
  5
2A2C
330
1E
100
AcDbEntity
  8
7
100
AcDbLine
 10
4.386455463160141
 20
3.626796037039422
 30
0.0
 11
4.396297982845178
 21
3.628764540976428
 31
0.0
  0
LINE
  5
2A2D
330
1E
100
AcDbEntity
  8
7
100
AcDbLine
 10
4.396297982845178
 20
3.628764540976428
 30
0.0
 11
4.402203494656205
 21
3.626796037039422
 31
0.0
  0
LINE
  5
2A2E
330
1E
100
AcDbEntity
  8
7
100
AcDbLine
 10
1.043935778120768
 20
3.626796037039422
 30
0.0
 11
1.051809793868802
 21
3.668134619716585
 31
0.0
  0
LINE
  5
2A2F
330
1E
100
AcDbEntity
  8
7
100
AcDbLine
 10
1.051809793868802
 20
3.668134619716585
 30
0.0
 11
1.067557825364863
 21
3.703567690582728
 31
0.0
  0
LINE
  5
2A30
330
1E
100
AcDbEntity
  8
7
100
AcDbLine
 10
1.067557825364863
 20
3.703567690582728
 30
0.0
 11
1.093148376545967
 21
3.737032257511861
 31
0.0
  0
LINE
  5
2A31
330
1E
100
AcDbEntity
  8
7
100
AcDbLine
 10
1.093148376545967
 20
3.737032257511861
 30
0.0
 11
1.124644439538093
 21
3.760654304755957
 31
0.0
  0
LINE
  5
2A32
330
1E
100
AcDbEntity
  8
7
100
AcDbLine
 10
1.215195620640454
 20
3.788213359874067
 30
0.0
 11
1.177794045837304
 21
3.782307848063043
 31
0.0
  0
LINE
  5
2A33
330
1E
100
AcDbEntity
  8
7
100
AcDbLine
 10
1.177794045837304
 20
3.782307848063043
 30
0.0
 11
1.140392471034154
 21
3.76655981656698
 31
0.0
  0
LINE
  5
2A34
330
1E
100
AcDbEntity
  8
7
100
AcDbLine
 10
1.140392471034154
 20
3.76655981656698
 30
0.0
 11
1.10889640804203
 21
3.740969265385876
 31
0.0
  0
LINE
  5
2A35
330
1E
100
AcDbEntity
  8
7
100
AcDbLine
 10
1.10889640804203
 20
3.740969265385876
 30
0.0
 11
1.083305856860926
 21
3.707504698456743
 31
0.0
  0
LINE
  5
2A36
330
1E
100
AcDbEntity
  8
7
100
AcDbLine
 10
1.083305856860926
 20
3.707504698456743
 30
0.0
 11
1.067557825364863
 21
3.670103123653596
 31
0.0
  0
LINE
  5
2A37
330
1E
100
AcDbEntity
  8
7
100
AcDbLine
 10
1.067557825364863
 20
3.670103123653596
 30
0.0
 11
1.059683809616831
 21
3.626796037039422
 31
0.0
  0
LINE
  5
2A38
330
1E
100
AcDbEntity
  8
7
100
AcDbLine
 10
4.386455463160141
 20
3.626796037039422
 30
0.0
 11
4.378581447412107
 21
3.670103123653596
 31
0.0
  0
LINE
  5
2A39
330
1E
100
AcDbEntity
  8
7
100
AcDbLine
 10
4.378581447412107
 20
3.670103123653596
 30
0.0
 11
4.360864911979033
 21
3.707504698456743
 31
0.0
  0
LINE
  5
2A3A
330
1E
100
AcDbEntity
  8
7
100
AcDbLine
 10
4.360864911979033
 20
3.707504698456743
 30
0.0
 11
4.337242864734943
 21
3.740969265385876
 31
0.0
  0
LINE
  5
2A3B
330
1E
100
AcDbEntity
  8
7
100
AcDbLine
 10
4.337242864734943
 20
3.740969265385876
 30
0.0
 11
4.303778297805807
 21
3.76655981656698
 31
0.0
  0
LINE
  5
2A3C
330
1E
100
AcDbEntity
  8
7
100
AcDbLine
 10
4.303778297805807
 20
3.76655981656698
 30
0.0
 11
4.268345226939667
 21
3.782307848063043
 31
0.0
  0
LINE
  5
2A3D
330
1E
100
AcDbEntity
  8
7
100
AcDbLine
 10
4.268345226939667
 20
3.782307848063043
 30
0.0
 11
4.228975148199507
 21
3.788213359874067
 31
0.0
  0
LINE
  5
2A3E
330
1E
100
AcDbEntity
  8
7
100
AcDbLine
 10
4.30968380961683
 20
3.76655981656698
 30
0.0
 11
4.345116880482974
 21
3.742937769322887
 31
0.0
  0
LINE
  5
2A3F
330
1E
100
AcDbEntity
  8
7
100
AcDbLine
 10
4.345116880482974
 20
3.742937769322887
 30
0.0
 11
4.374644439538093
 21
3.709473202393754
 31
0.0
  0
LINE
  5
2A40
330
1E
100
AcDbEntity
  8
7
100
AcDbLine
 10
4.374644439538093
 20
3.709473202393754
 30
0.0
 11
4.392360974971166
 21
3.670103123653596
 31
0.0
  0
LINE
  5
2A41
330
1E
100
AcDbEntity
  8
7
100
AcDbLine
 10
4.392360974971166
 20
3.670103123653596
 30
0.0
 11
4.402203494656205
 21
3.626796037039422
 31
0.0
  0
LINE
  5
2A42
330
1E
100
AcDbEntity
  8
7
100
AcDbLine
 10
1.045904282057776
 20
3.422071627590602
 30
0.0
 11
1.03409325843573
 21
3.422071627590602
 31
0.0
  0
LINE
  5
2A43
330
1E
100
AcDbEntity
  8
7
100
AcDbLine
 10
1.03409325843573
 20
3.422071627590602
 30
0.0
 11
1.030156250561715
 21
3.422071627590602
 31
0.0
  0
LINE
  5
2A44
330
1E
100
AcDbEntity
  8
7
100
AcDbLine
 10
1.030156250561715
 20
3.422071627590602
 30
0.0
 11
1.043935778120768
 21
3.626796037039422
 31
0.0
  0
LINE
  5
2A45
330
1E
100
AcDbEntity
  8
7
100
AcDbLine
 10
4.415983022215257
 20
3.422071627590602
 30
0.0
 11
4.412046014341242
 21
3.422071627590602
 31
0.0
  0
LINE
  5
2A46
330
1E
100
AcDbEntity
  8
7
100
AcDbLine
 10
4.412046014341242
 20
3.422071627590602
 30
0.0
 11
4.400234990719194
 21
3.422071627590602
 31
0.0
  0
LINE
  5
2A47
330
1E
100
AcDbEntity
  8
7
100
AcDbLine
 10
1.045904282057776
 20
3.422071627590602
 30
0.0
 11
4.400234990719194
 21
3.422071627590602
 31
0.0
  0
LINE
  5
2A48
330
1E
100
AcDbEntity
  8
7
100
AcDbLine
 10
4.400234990719194
 20
3.422071627590602
 30
0.0
 11
4.386455463160141
 21
3.626796037039422
 31
0.0
  0
LINE
  5
2A49
330
1E
100
AcDbEntity
  8
7
100
AcDbLine
 10
4.386455463160141
 20
3.626796037039422
 30
0.0
 11
1.059683809616831
 21
3.626796037039422
 31
0.0
  0
LINE
  5
2A4A
330
1E
100
AcDbEntity
  8
7
100
AcDbLine
 10
1.059683809616831
 20
3.626796037039422
 30
0.0
 11
1.045904282057776
 21
3.422071627590602
 31
0.0
  0
LINE
  5
2A4B
330
1E
100
AcDbEntity
  8
7
100
AcDbLine
 10
1.754565699380613
 20
4.366953517354382
 30
0.0
 11
1.725038140325494
 21
4.359079501606352
 31
0.0
  0
LINE
  5
2A4C
330
1E
100
AcDbEntity
  8
7
100
AcDbLine
 10
1.725038140325494
 20
4.359079501606352
 30
0.0
 11
1.7014160930814
 21
4.337425958299263
 31
0.0
  0
LINE
  5
2A4D
330
1E
100
AcDbEntity
  8
7
100
AcDbLine
 10
1.7014160930814
 20
4.337425958299263
 30
0.0
 11
1.693542077333367
 21
4.307898399244146
 31
0.0
  0
LINE
  5
2A4E
330
1E
100
AcDbEntity
  8
7
100
AcDbLine
 10
3.752597195443604
 20
4.307898399244146
 30
0.0
 11
3.744723179695576
 21
4.337425958299263
 31
0.0
  0
LINE
  5
2A4F
330
1E
100
AcDbEntity
  8
7
100
AcDbLine
 10
3.744723179695576
 20
4.337425958299263
 30
0.0
 11
3.721101132451479
 21
4.359079501606352
 31
0.0
  0
LINE
  5
2A50
330
1E
100
AcDbEntity
  8
7
100
AcDbLine
 10
3.721101132451479
 20
4.359079501606352
 30
0.0
 11
3.691573573396361
 21
4.366953517354382
 31
0.0
  0
ENDSEC
  0
SECTION
  2
OBJECTS
  0
DICTIONARY
  5
C
330
0
100
AcDbDictionary
  3
ACAD_GROUP
350
D
  3
ACAD_LAYOUT
350
19
  3
ACAD_MLINESTYLE
350
16
  3
ACAD_PLOTSETTINGS
350
18
1001
ACAD
1000
TREAT_AS_HARD
1070
     0
  0
DICTIONARY
  5
2AE9
330
1E
100
AcDbDictionary
  3
ACAD_LAYOUTSELFREF
350
2B22
1001
ACAD
1000
TREAT_AS_HARD
1070
     1
  0
DICTIONARY
  5
2AEB
330
1A
100
AcDbDictionary
  3
ACAD_LAYOUTSELFREF
350
2B21
1001
ACAD
1000
TREAT_AS_HARD
1070
     1
  0
DICTIONARY
  5
D
102
{ACAD_REACTORS
330
C
102
}
330
C
100
AcDbDictionary
1001
ACAD
1000
TREAT_AS_HARD
1070
     0
  0
DICTIONARY
  5
19
102
{ACAD_REACTORS
330
C
102
}
330
C
100
AcDbDictionary
1001
ACAD
1000
TREAT_AS_HARD
1070
     0
  0
DICTIONARY
  5
16
102
{ACAD_REACTORS
330
C
102
}
330
C
100
AcDbDictionary
  3
STANDARD
350
17
1001
ACAD
1000
TREAT_AS_HARD
1070
     0
  0
DICTIONARY
  5
18
102
{ACAD_REACTORS
330
C
102
}
330
C
100
AcDbDictionary
1001
ACAD
1000
TREAT_AS_HARD
1070
     0
  0
XRECORD
  5
2B22
102
{ACAD_REACTORS
330
2AE9
102
}
330
2AE9
100
AcDbXrecord
340
1E
  0
XRECORD
  5
2B21
102
{ACAD_REACTORS
330
2AEB
102
}
330
2AEB
100
AcDbXrecord
340
1A
  0
MLINESTYLE
  5
17
102
{ACAD_REACTORS
330
16
102
}
330
16
100
AcDbMlineStyle
  2
STANDARD
 70
     0
  3

 62
   256
 51
90.0
 52
90.0
 71
     2
 49
0.5
 62
   256
  6
BYLAYER
 49
-0.5
 62
   256
  6
BYLAYER
  0
ENDSEC
  0
EOF
