  0
SECTION
  2
HEADER
  9
$ACADVER
  1
AC1012
  9
$DWGCODEPAGE
  3
ANSI_1252
  9
$INSBASE
 10
0.0
 20
0.0
 30
0.0
  9
$EXTMIN
 10
-0.4114638227643468
 20
3.01445054668101
 30
0.0
  9
$EXTMAX
 10
4.801134602432499
 20
7.518387554555022
 30
0.0
  9
$LIMMIN
 10
0.0
 20
0.0
  9
$LIMMAX
 10
12.0
 20
9.0
  9
$ORTHOMODE
 70
     0
  9
$REGENMODE
 70
     1
  9
$FILLMODE
 70
     1
  9
$QTEXTMODE
 70
     0
  9
$MIRRTEXT
 70
     1
  9
$DRAGMODE
 70
     2
  9
$LTSCALE
 40
1.0
  9
$OSMODE
 70
   547
  9
$ATTMODE
 70
     1
  9
$TEXTSIZE
 40
0.2
  9
$TRACEWID
 40
0.05
  9
$TEXTSTYLE
  7
STANDARD
  9
$CLAYER
  8
0
  9
$CELTYPE
  6
BYLAYER
  9
$CECOLOR
 62
   256
  9
$CELTSCALE
 40
1.0
  9
$DELOBJ
 70
     1
  9
$DISPSILH
 70
     0
  9
$DIMSCALE
 40
1.0
  9
$DIMASZ
 40
0.18
  9
$DIMEXO
 40
0.0625
  9
$DIMDLI
 40
0.38
  9
$DIMRND
 40
0.0
  9
$DIMDLE
 40
0.0
  9
$DIMEXE
 40
0.18
  9
$DIMTP
 40
0.0
  9
$DIMTM
 40
0.0
  9
$DIMTXT
 40
0.18
  9
$DIMCEN
 40
0.09
  9
$DIMTSZ
 40
0.0
  9
$DIMTOL
 70
     0
  9
$DIMLIM
 70
     0
  9
$DIMTIH
 70
     1
  9
$DIMTOH
 70
     1
  9
$DIMSE1
 70
     0
  9
$DIMSE2
 70
     0
  9
$DIMTAD
 70
     0
  9
$DIMZIN
 70
     0
  9
$DIMBLK
  1

  9
$DIMASO
 70
     1
  9
$DIMSHO
 70
     1
  9
$DIMPOST
  1

  9
$DIMAPOST
  1

  9
$DIMALT
 70
     0
  9
$DIMALTD
 70
     2
  9
$DIMALTF
 40
25.4
  9
$DIMLFAC
 40
1.0
  9
$DIMTOFL
 70
     0
  9
$DIMTVP
 40
0.0
  9
$DIMTIX
 70
     0
  9
$DIMSOXD
 70
     0
  9
$DIMSAH
 70
     0
  9
$DIMBLK1
  1

  9
$DIMBLK2
  1

  9
$DIMSTYLE
  2
STANDARD
  9
$DIMCLRD
 70
     0
  9
$DIMCLRE
 70
     0
  9
$DIMCLRT
 70
     0
  9
$DIMTFAC
 40
1.0
  9
$DIMGAP
 40
0.09
  9
$DIMJUST
 70
     0
  9
$DIMSD1
 70
     0
  9
$DIMSD2
 70
     0
  9
$DIMTOLJ
 70
     1
  9
$DIMTZIN
 70
     0
  9
$DIMALTZ
 70
     0
  9
$DIMALTTZ
 70
     0
  9
$DIMFIT
 70
     5
  9
$DIMUPT
 70
     0
  9
$DIMUNIT
 70
     2
  9
$DIMDEC
 70
     4
  9
$DIMTDEC
 70
     4
  9
$DIMALTU
 70
     2
  9
$DIMALTTD
 70
     2
  9
$DIMTXSTY
  7
STANDARD
  9
$DIMAUNIT
 70
     0
  9
$LUNITS
 70
     2
  9
$LUPREC
 70
     4
  9
$SKETCHINC
 40
0.1
  9
$FILLETRAD
 40
0.0
  9
$AUNITS
 70
     0
  9
$AUPREC
 70
     0
  9
$MENU
  1
acad
  9
$ELEVATION
 40
0.0
  9
$PELEVATION
 40
0.0
  9
$THICKNESS
 40
0.0
  9
$LIMCHECK
 70
     0
  9
$BLIPMODE
 70
     0
  9
$CHAMFERA
 40
0.0
  9
$CHAMFERB
 40
0.0
  9
$CHAMFERC
 40
0.0
  9
$CHAMFERD
 40
0.0
  9
$SKPOLY
 70
     0
  9
$TDCREATE
 40
2452569.366608796
  9
$TDUPDATE
 40
2453776.654072720
  9
$TDINDWG
 40
0.0063489468
  9
$TDUSRTIMER
 40
0.0063489468
  9
$USRTIMER
 70
     1
  9
$ANGBASE
 50
0.0
  9
$ANGDIR
 70
     0
  9
$PDMODE
 70
     0
  9
$PDSIZE
 40
0.0
  9
$PLINEWID
 40
0.0
  9
$COORDS
 70
     1
  9
$SPLFRAME
 70
     0
  9
$SPLINETYPE
 70
     6
  9
$SPLINESEGS
 70
     8
  9
$ATTDIA
 70
     0
  9
$ATTREQ
 70
     1
  9
$HANDLING
 70
  4097
  9
$HANDSEED
  5
4070
  9
$SURFTAB1
 70
     6
  9
$SURFTAB2
 70
     6
  9
$SURFTYPE
 70
     6
  9
$SURFU
 70
     6
  9
$SURFV
 70
     6
  9
$UCSNAME
  2

  9
$UCSORG
 10
0.0
 20
0.0
 30
0.0
  9
$UCSXDIR
 10
1.0
 20
0.0
 30
0.0
  9
$UCSYDIR
 10
0.0
 20
1.0
 30
0.0
  9
$PUCSNAME
  2

  9
$PUCSORG
 10
0.0
 20
0.0
 30
0.0
  9
$PUCSXDIR
 10
1.0
 20
0.0
 30
0.0
  9
$PUCSYDIR
 10
0.0
 20
1.0
 30
0.0
  9
$USERI1
 70
     0
  9
$USERI2
 70
     0
  9
$USERI3
 70
     0
  9
$USERI4
 70
     0
  9
$USERI5
 70
     0
  9
$USERR1
 40
0.0
  9
$USERR2
 40
0.0
  9
$USERR3
 40
0.0
  9
$USERR4
 40
0.0
  9
$USERR5
 40
0.0
  9
$WORLDVIEW
 70
     1
  9
$SHADEDGE
 70
     3
  9
$SHADEDIF
 70
    70
  9
$TILEMODE
 70
     1
  9
$MAXACTVP
 70
    16
  9
$PINSBASE
 10
0.0
 20
0.0
 30
0.0
  9
$PLIMCHECK
 70
     0
  9
$PEXTMIN
 10
1.000000000000000E+20
 20
1.000000000000000E+20
 30
1.000000000000000E+20
  9
$PEXTMAX
 10
-1.000000000000000E+20
 20
-1.000000000000000E+20
 30
-1.000000000000000E+20
  9
$PLIMMIN
 10
0.0
 20
0.0
  9
$PLIMMAX
 10
12.0
 20
9.0
  9
$UNITMODE
 70
     0
  9
$VISRETAIN
 70
     0
  9
$PLINEGEN
 70
     0
  9
$PSLTSCALE
 70
     1
  9
$TREEDEPTH
 70
  3020
  9
$PICKSTYLE
 70
     1
  9
$CMLSTYLE
  2
STANDARD
  9
$CMLJUST
 70
     0
  9
$CMLSCALE
 40
1.0
  9
$SAVEIMAGES
 70
     1
  0
ENDSEC
  0
SECTION
  2
CLASSES
  0
CLASS
  1
ACDBDICTIONARYWDFLT
  2
AcDbDictionaryWithDefault
  3
AutoCAD 2000
 90
    32768
280
     0
281
     0
  0
CLASS
  1
ACDBPLACEHOLDER
  2
AcDbPlaceHolder
  3
AutoCAD 2000
 90
    32768
280
     0
281
     0
  0
CLASS
  1
LAYOUT
  2
AcDbLayout
  3
AutoCAD 2000
 90
    32768
280
     0
281
     0
  0
CLASS
  1
LONG_TRANSACTION
  2
AcDbLongTransaction
  3
AutoCAD 2000
 90
    32768
280
     0
281
     0
  0
CLASS
  1
LWPOLYLINE
  2
AcDbPolyline
  3
AutoCAD 2000
 90
    32768
280
     0
281
     1
  0
CLASS
  1
HATCH
  2
AcDbHatch
  3
AutoCAD 2000
 90
    32768
280
     0
281
     1
  0
CLASS
  1
XRECORD
  2
AcDbXrecord
  3
AutoCAD 2000
 90
    32768
280
     0
281
     0
  0
CLASS
  1
LONG_TRANSACTION
  2
AcDbLongTransaction
  3
AutoCAD 2000
 90
    32768
280
     0
281
     0
  0
CLASS
  1
LWPOLYLINE
  2
AcDbPolyline
  3
AutoCAD 2000
 90
    32768
280
     0
281
     1
  0
CLASS
  1
HATCH
  2
AcDbHatch
  3
AutoCAD 2000
 90
    32768
280
     0
281
     1
  0
CLASS
  1
XRECORD
  2
AcDbXrecord
  3
AutoCAD 2000
 90
    32768
280
     0
281
     0
  0
ENDSEC
  0
SECTION
  2
TABLES
  0
TABLE
  2
VPORT
  5
8
330
0
100
AcDbSymbolTable
 70
     2
  0
VPORT
  5
406D
330
8
100
AcDbSymbolTableRecord
100
AcDbViewportTableRecord
  2
*ACTIVE
 70
     0
 10
0.0
 20
0.0
 11
1.0
 21
1.0
 12
2.464392836877651
 22
5.266296408565594
 13
0.0
 23
0.0
 14
1.0
 24
1.0
 15
0.0
 25
0.0
 16
0.0
 26
0.0
 36
1.0
 17
0.0
 27
0.0
 37
0.0
 40
4.541486477214909
 41
1.740671641791044
 42
50.0
 43
0.0
 44
0.0
 50
0.0
 51
0.0
 71
     0
 72
   100
 73
     1
 74
     1
 75
     0
 76
     0
 77
     0
 78
     0
  0
ENDTAB
  0
TABLE
  2
LTYPE
  5
5
330
0
100
AcDbSymbolTable
 70
    25
  0
LTYPE
  5
13
330
5
100
AcDbSymbolTableRecord
100
AcDbLinetypeTableRecord
  2
BYBLOCK
 70
     0
  3

 72
    65
 73
     0
 40
0.0
  0
LTYPE
  5
14
330
5
100
AcDbSymbolTableRecord
100
AcDbLinetypeTableRecord
  2
BYLAYER
 70
     0
  3

 72
    65
 73
     0
 40
0.0
  0
LTYPE
  5
15
330
5
100
AcDbSymbolTableRecord
100
AcDbLinetypeTableRecord
  2
CONTINUOUS
 70
     0
  3
Solid line
 72
    65
 73
     0
 40
0.0
  0
LTYPE
  5
22
330
5
100
AcDbSymbolTableRecord
100
AcDbLinetypeTableRecord
  2
BORDER
 70
     0
  3
__ __ . __ __ . __ __ . __ __ . __ __ . __ __ .
 72
    65
 73
     6
 40
1.75
 49
0.5
 74
     0
 49
-0.25
 74
     0
 49
0.5
 74
     0
 49
-0.25
 74
     0
 49
0.5
 74
     0
 49
-0.25
 74
     0
  0
LTYPE
  5
23
330
5
100
AcDbSymbolTableRecord
100
AcDbLinetypeTableRecord
  2
BORDER2
 70
     0
  3
__.__.__.__.__.__.__.__.__.__.__.__.__.__.__.__
 72
    65
 73
     6
 40
0.875
 49
0.25
 74
     0
 49
-0.125
 74
     0
 49
0.25
 74
     0
 49
-0.125
 74
     0
 49
0.25
 74
     0
 49
-0.125
 74
     0
  0
LTYPE
  5
24
330
5
100
AcDbSymbolTableRecord
100
AcDbLinetypeTableRecord
  2
BORDERX2
 70
     0
  3
____  ____  .  ____  ____  .  
 72
    65
 73
     6
 40
3.5
 49
1.0
 74
     0
 49
-0.5
 74
     0
 49
1.0
 74
     0
 49
-0.5
 74
     0
 49
1.0
 74
     0
 49
-0.5
 74
     0
  0
LTYPE
  5
25
330
5
100
AcDbSymbolTableRecord
100
AcDbLinetypeTableRecord
  2
CENTER
 70
     0
  3
____ _ ____ _ ____ _ ____ _ ____ _ ____ _ ____
 72
    65
 73
     4
 40
2.0
 49
1.25
 74
     0
 49
-0.25
 74
     0
 49
0.25
 74
     0
 49
-0.25
 74
     0
  0
LTYPE
  5
26
330
5
100
AcDbSymbolTableRecord
100
AcDbLinetypeTableRecord
  2
CENTER2
 70
     0
  3
____ _ ____ _ ____ _ ____ _ ____ _ ____ _ ____
 72
    65
 73
     4
 40
1.125
 49
0.75
 74
     0
 49
-0.125
 74
     0
 49
0.125
 74
     0
 49
-0.125
 74
     0
  0
LTYPE
  5
27
330
5
100
AcDbSymbolTableRecord
100
AcDbLinetypeTableRecord
  2
CENTERX2
 70
     0
  3
________  __  ________  __  ________  __  
 72
    65
 73
     4
 40
4.0
 49
2.5
 74
     0
 49
-0.5
 74
     0
 49
0.5
 74
     0
 49
-0.5
 74
     0
  0
LTYPE
  5
28
330
5
100
AcDbSymbolTableRecord
100
AcDbLinetypeTableRecord
  2
DASHDOT
 70
     0
  3
__ . __ . __ . __ . __ . __ . __ . 
 72
    65
 73
     4
 40
1.0
 49
0.5
 74
     0
 49
-0.25
 74
     0
 49
0.0
 74
     0
 49
-0.25
 74
     0
  0
LTYPE
  5
29
330
5
100
AcDbSymbolTableRecord
100
AcDbLinetypeTableRecord
  2
DASHDOT2
 70
     0
  3
_._._._._._._._._._._._._._._._.
 72
    65
 73
     4
 40
0.5
 49
0.25
 74
     0
 49
-0.125
 74
     0
 49
0.0
 74
     0
 49
-0.125
 74
     0
  0
LTYPE
  5
2A
330
5
100
AcDbSymbolTableRecord
100
AcDbLinetypeTableRecord
  2
DASHDOTX2
 70
     0
  3
____  .  ____  .  ____  .  ____  .  
 72
    65
 73
     4
 40
2.0
 49
1.0
 74
     0
 49
-0.5
 74
     0
 49
0.0
 74
     0
 49
-0.5
 74
     0
  0
LTYPE
  5
2B
330
5
100
AcDbSymbolTableRecord
100
AcDbLinetypeTableRecord
  2
DASHED
 70
     0
  3
__ __ __ __ __ __ __ __ __ __ __ __ 
 72
    65
 73
     2
 40
0.75
 49
0.5
 74
     0
 49
-0.25
 74
     0
  0
LTYPE
  5
2C
330
5
100
AcDbSymbolTableRecord
100
AcDbLinetypeTableRecord
  2
DASHED2
 70
     0
  3
_ _ _ _ _ _ _ _ _ _ _ _ _ _ _ _ _ _ 
 72
    65
 73
     2
 40
0.375
 49
0.25
 74
     0
 49
-0.125
 74
     0
  0
LTYPE
  5
2D
330
5
100
AcDbSymbolTableRecord
100
AcDbLinetypeTableRecord
  2
DASHEDX2
 70
     0
  3
____  ____  ____  ____  ____  ____  
 72
    65
 73
     2
 40
1.5
 49
1.0
 74
     0
 49
-0.5
 74
     0
  0
LTYPE
  5
2E
330
5
100
AcDbSymbolTableRecord
100
AcDbLinetypeTableRecord
  2
DIVIDE
 70
     0
  3
____ . . ____ . . ____ . . ____ . . 
 72
    65
 73
     6
 40
1.25
 49
0.5
 74
     0
 49
-0.25
 74
     0
 49
0.0
 74
     0
 49
-0.25
 74
     0
 49
0.0
 74
     0
 49
-0.25
 74
     0
  0
LTYPE
  5
2F
330
5
100
AcDbSymbolTableRecord
100
AcDbLinetypeTableRecord
  2
DIVIDE2
 70
     0
  3
__..__..__..__..__..__..__..__..__..
 72
    65
 73
     6
 40
0.625
 49
0.25
 74
     0
 49
-0.125
 74
     0
 49
0.0
 74
     0
 49
-0.125
 74
     0
 49
0.0
 74
     0
 49
-0.125
 74
     0
  0
LTYPE
  5
30
330
5
100
AcDbSymbolTableRecord
100
AcDbLinetypeTableRecord
  2
DIVIDEX2
 70
     0
  3
________  .  .  ________  .  .  ________  .  . 
 72
    65
 73
     6
 40
2.5
 49
1.0
 74
     0
 49
-0.5
 74
     0
 49
0.0
 74
     0
 49
-0.5
 74
     0
 49
0.0
 74
     0
 49
-0.5
 74
     0
  0
LTYPE
  5
31
330
5
100
AcDbSymbolTableRecord
100
AcDbLinetypeTableRecord
  2
DOT
 70
     0
  3
. . . . . . . . . . . . . . . . . . 
 72
    65
 73
     2
 40
0.25
 49
0.0
 74
     0
 49
-0.25
 74
     0
  0
LTYPE
  5
32
330
5
100
AcDbSymbolTableRecord
100
AcDbLinetypeTableRecord
  2
DOT2
 70
     0
  3
....................................
 72
    65
 73
     2
 40
0.125
 49
0.0
 74
     0
 49
-0.125
 74
     0
  0
LTYPE
  5
33
330
5
100
AcDbSymbolTableRecord
100
AcDbLinetypeTableRecord
  2
DOTX2
 70
     0
  3
.  .  .  .  .  .  .  .  .  .  .  .  .  
 72
    65
 73
     2
 40
0.5
 49
0.0
 74
     0
 49
-0.5
 74
     0
  0
LTYPE
  5
34
330
5
100
AcDbSymbolTableRecord
100
AcDbLinetypeTableRecord
  2
HIDDEN
 70
     0
  3
__ __ __ __ __ __ __ __ __ __ __ __ 
 72
    65
 73
     2
 40
0.375
 49
0.25
 74
     0
 49
-0.125
 74
     0
  0
LTYPE
  5
35
330
5
100
AcDbSymbolTableRecord
100
AcDbLinetypeTableRecord
  2
HIDDEN2
 70
     0
  3
_ _ _ _ _ _ _ _ _ _ _ _ _ _ _ _ _ _ 
 72
    65
 73
     2
 40
0.1875
 49
0.125
 74
     0
 49
-0.0625
 74
     0
  0
LTYPE
  5
36
330
5
100
AcDbSymbolTableRecord
100
AcDbLinetypeTableRecord
  2
HIDDENX2
 70
     0
  3
____ ____ ____ ____ ____ ____ ____ 
 72
    65
 73
     2
 40
0.75
 49
0.5
 74
     0
 49
-0.25
 74
     0
  0
LTYPE
  5
37
330
5
100
AcDbSymbolTableRecord
100
AcDbLinetypeTableRecord
  2
PHANTOM
 70
     0
  3
______  __  __  ______  __  __  
 72
    65
 73
     6
 40
2.5
 49
1.25
 74
     0
 49
-0.25
 74
     0
 49
0.25
 74
     0
 49
-0.25
 74
     0
 49
0.25
 74
     0
 49
-0.25
 74
     0
  0
LTYPE
  5
38
330
5
100
AcDbSymbolTableRecord
100
AcDbLinetypeTableRecord
  2
PHANTOM2
 70
     0
  3
___ _ _ ___ _ _ ___ _ _ ___ _ _ 
 72
    65
 73
     6
 40
1.25
 49
0.625
 74
     0
 49
-0.125
 74
     0
 49
0.125
 74
     0
 49
-0.125
 74
     0
 49
0.125
 74
     0
 49
-0.125
 74
     0
  0
LTYPE
  5
39
330
5
100
AcDbSymbolTableRecord
100
AcDbLinetypeTableRecord
  2
PHANTOMX2
 70
     0
  3
___ _ _ ___ _ _ ___ _ _ ___ _ _ 
 72
    65
 73
     6
 40
5.0
 49
2.5
 74
     0
 49
-0.5
 74
     0
 49
0.5
 74
     0
 49
-0.5
 74
     0
 49
0.5
 74
     0
 49
-0.5
 74
     0
  0
ENDTAB
  0
TABLE
  2
LAYER
  5
2
330
0
100
AcDbSymbolTable
 70
   257
  0
LAYER
  5
10
330
2
100
AcDbSymbolTableRecord
100
AcDbLayerTableRecord
  2
0
 70
     0
 62
     7
  6
CONTINUOUS
  0
LAYER
  5
3A
330
2
100
AcDbSymbolTableRecord
100
AcDbLayerTableRecord
  2
1
 70
     0
 62
     1
  6
CONTINUOUS
  0
LAYER
  5
3B
330
2
100
AcDbSymbolTableRecord
100
AcDbLayerTableRecord
  2
2
 70
     0
 62
     2
  6
CONTINUOUS
  0
LAYER
  5
3C
330
2
100
AcDbSymbolTableRecord
100
AcDbLayerTableRecord
  2
3
 70
     0
 62
     3
  6
CONTINUOUS
  0
LAYER
  5
3D
330
2
100
AcDbSymbolTableRecord
100
AcDbLayerTableRecord
  2
4
 70
     0
 62
     4
  6
CONTINUOUS
  0
LAYER
  5
3E
330
2
100
AcDbSymbolTableRecord
100
AcDbLayerTableRecord
  2
5
 70
     0
 62
     5
  6
CONTINUOUS
  0
LAYER
  5
3F
330
2
100
AcDbSymbolTableRecord
100
AcDbLayerTableRecord
  2
6
 70
     0
 62
     6
  6
CONTINUOUS
  0
LAYER
  5
40
330
2
100
AcDbSymbolTableRecord
100
AcDbLayerTableRecord
  2
7
 70
     0
 62
     7
  6
CONTINUOUS
  0
LAYER
  5
41
330
2
100
AcDbSymbolTableRecord
100
AcDbLayerTableRecord
  2
8
 70
     0
 62
     8
  6
CONTINUOUS
  0
LAYER
  5
42
330
2
100
AcDbSymbolTableRecord
100
AcDbLayerTableRecord
  2
9
 70
     0
 62
     9
  6
CONTINUOUS
  0
LAYER
  5
43
330
2
100
AcDbSymbolTableRecord
100
AcDbLayerTableRecord
  2
10
 70
     0
 62
    10
  6
CONTINUOUS
  0
LAYER
  5
44
330
2
100
AcDbSymbolTableRecord
100
AcDbLayerTableRecord
  2
11
 70
     0
 62
    11
  6
CONTINUOUS
  0
LAYER
  5
45
330
2
100
AcDbSymbolTableRecord
100
AcDbLayerTableRecord
  2
12
 70
     0
 62
    12
  6
CONTINUOUS
  0
LAYER
  5
46
330
2
100
AcDbSymbolTableRecord
100
AcDbLayerTableRecord
  2
13
 70
     0
 62
    13
  6
CONTINUOUS
  0
LAYER
  5
47
330
2
100
AcDbSymbolTableRecord
100
AcDbLayerTableRecord
  2
14
 70
     0
 62
    14
  6
CONTINUOUS
  0
LAYER
  5
48
330
2
100
AcDbSymbolTableRecord
100
AcDbLayerTableRecord
  2
15
 70
     0
 62
    15
  6
CONTINUOUS
  0
LAYER
  5
49
330
2
100
AcDbSymbolTableRecord
100
AcDbLayerTableRecord
  2
16
 70
     0
 62
    16
  6
CONTINUOUS
  0
LAYER
  5
4A
330
2
100
AcDbSymbolTableRecord
100
AcDbLayerTableRecord
  2
17
 70
     0
 62
    17
  6
CONTINUOUS
  0
LAYER
  5
4B
330
2
100
AcDbSymbolTableRecord
100
AcDbLayerTableRecord
  2
18
 70
     0
 62
    18
  6
CONTINUOUS
  0
LAYER
  5
4C
330
2
100
AcDbSymbolTableRecord
100
AcDbLayerTableRecord
  2
19
 70
     0
 62
    19
  6
CONTINUOUS
  0
LAYER
  5
4D
330
2
100
AcDbSymbolTableRecord
100
AcDbLayerTableRecord
  2
20
 70
     0
 62
    20
  6
CONTINUOUS
  0
LAYER
  5
4E
330
2
100
AcDbSymbolTableRecord
100
AcDbLayerTableRecord
  2
21
 70
     0
 62
    21
  6
CONTINUOUS
  0
LAYER
  5
4F
330
2
100
AcDbSymbolTableRecord
100
AcDbLayerTableRecord
  2
22
 70
     0
 62
    22
  6
CONTINUOUS
  0
LAYER
  5
50
330
2
100
AcDbSymbolTableRecord
100
AcDbLayerTableRecord
  2
23
 70
     0
 62
    23
  6
CONTINUOUS
  0
LAYER
  5
51
330
2
100
AcDbSymbolTableRecord
100
AcDbLayerTableRecord
  2
24
 70
     0
 62
    24
  6
CONTINUOUS
  0
LAYER
  5
52
330
2
100
AcDbSymbolTableRecord
100
AcDbLayerTableRecord
  2
25
 70
     0
 62
    25
  6
CONTINUOUS
  0
LAYER
  5
53
330
2
100
AcDbSymbolTableRecord
100
AcDbLayerTableRecord
  2
26
 70
     0
 62
    26
  6
CONTINUOUS
  0
LAYER
  5
54
330
2
100
AcDbSymbolTableRecord
100
AcDbLayerTableRecord
  2
27
 70
     0
 62
    27
  6
CONTINUOUS
  0
LAYER
  5
55
330
2
100
AcDbSymbolTableRecord
100
AcDbLayerTableRecord
  2
28
 70
     0
 62
    28
  6
CONTINUOUS
  0
LAYER
  5
56
330
2
100
AcDbSymbolTableRecord
100
AcDbLayerTableRecord
  2
29
 70
     0
 62
    29
  6
CONTINUOUS
  0
LAYER
  5
57
330
2
100
AcDbSymbolTableRecord
100
AcDbLayerTableRecord
  2
30
 70
     0
 62
    30
  6
CONTINUOUS
  0
LAYER
  5
58
330
2
100
AcDbSymbolTableRecord
100
AcDbLayerTableRecord
  2
31
 70
     0
 62
    31
  6
CONTINUOUS
  0
LAYER
  5
59
330
2
100
AcDbSymbolTableRecord
100
AcDbLayerTableRecord
  2
32
 70
     0
 62
    32
  6
CONTINUOUS
  0
LAYER
  5
5A
330
2
100
AcDbSymbolTableRecord
100
AcDbLayerTableRecord
  2
33
 70
     0
 62
    33
  6
CONTINUOUS
  0
LAYER
  5
5B
330
2
100
AcDbSymbolTableRecord
100
AcDbLayerTableRecord
  2
34
 70
     0
 62
    34
  6
CONTINUOUS
  0
LAYER
  5
5C
330
2
100
AcDbSymbolTableRecord
100
AcDbLayerTableRecord
  2
35
 70
     0
 62
    35
  6
CONTINUOUS
  0
LAYER
  5
5D
330
2
100
AcDbSymbolTableRecord
100
AcDbLayerTableRecord
  2
36
 70
     0
 62
    36
  6
CONTINUOUS
  0
LAYER
  5
5E
330
2
100
AcDbSymbolTableRecord
100
AcDbLayerTableRecord
  2
37
 70
     0
 62
    37
  6
CONTINUOUS
  0
LAYER
  5
5F
330
2
100
AcDbSymbolTableRecord
100
AcDbLayerTableRecord
  2
38
 70
     0
 62
    38
  6
CONTINUOUS
  0
LAYER
  5
60
330
2
100
AcDbSymbolTableRecord
100
AcDbLayerTableRecord
  2
39
 70
     0
 62
    39
  6
CONTINUOUS
  0
LAYER
  5
61
330
2
100
AcDbSymbolTableRecord
100
AcDbLayerTableRecord
  2
40
 70
     0
 62
    40
  6
CONTINUOUS
  0
LAYER
  5
62
330
2
100
AcDbSymbolTableRecord
100
AcDbLayerTableRecord
  2
41
 70
     0
 62
    41
  6
CONTINUOUS
  0
LAYER
  5
63
330
2
100
AcDbSymbolTableRecord
100
AcDbLayerTableRecord
  2
42
 70
     0
 62
    42
  6
CONTINUOUS
  0
LAYER
  5
64
330
2
100
AcDbSymbolTableRecord
100
AcDbLayerTableRecord
  2
43
 70
     0
 62
    43
  6
CONTINUOUS
  0
LAYER
  5
65
330
2
100
AcDbSymbolTableRecord
100
AcDbLayerTableRecord
  2
44
 70
     0
 62
    44
  6
CONTINUOUS
  0
LAYER
  5
66
330
2
100
AcDbSymbolTableRecord
100
AcDbLayerTableRecord
  2
45
 70
     0
 62
    45
  6
CONTINUOUS
  0
LAYER
  5
67
330
2
100
AcDbSymbolTableRecord
100
AcDbLayerTableRecord
  2
46
 70
     0
 62
    46
  6
CONTINUOUS
  0
LAYER
  5
68
330
2
100
AcDbSymbolTableRecord
100
AcDbLayerTableRecord
  2
47
 70
     0
 62
    47
  6
CONTINUOUS
  0
LAYER
  5
69
330
2
100
AcDbSymbolTableRecord
100
AcDbLayerTableRecord
  2
48
 70
     0
 62
    48
  6
CONTINUOUS
  0
LAYER
  5
6A
330
2
100
AcDbSymbolTableRecord
100
AcDbLayerTableRecord
  2
49
 70
     0
 62
    49
  6
CONTINUOUS
  0
LAYER
  5
6B
330
2
100
AcDbSymbolTableRecord
100
AcDbLayerTableRecord
  2
50
 70
     0
 62
    50
  6
CONTINUOUS
  0
LAYER
  5
6C
330
2
100
AcDbSymbolTableRecord
100
AcDbLayerTableRecord
  2
51
 70
     0
 62
    51
  6
CONTINUOUS
  0
LAYER
  5
6D
330
2
100
AcDbSymbolTableRecord
100
AcDbLayerTableRecord
  2
52
 70
     0
 62
    52
  6
CONTINUOUS
  0
LAYER
  5
6E
330
2
100
AcDbSymbolTableRecord
100
AcDbLayerTableRecord
  2
53
 70
     0
 62
    53
  6
CONTINUOUS
  0
LAYER
  5
6F
330
2
100
AcDbSymbolTableRecord
100
AcDbLayerTableRecord
  2
54
 70
     0
 62
    54
  6
CONTINUOUS
  0
LAYER
  5
70
330
2
100
AcDbSymbolTableRecord
100
AcDbLayerTableRecord
  2
55
 70
     0
 62
    55
  6
CONTINUOUS
  0
LAYER
  5
71
330
2
100
AcDbSymbolTableRecord
100
AcDbLayerTableRecord
  2
56
 70
     0
 62
    56
  6
CONTINUOUS
  0
LAYER
  5
72
330
2
100
AcDbSymbolTableRecord
100
AcDbLayerTableRecord
  2
57
 70
     0
 62
    57
  6
CONTINUOUS
  0
LAYER
  5
73
330
2
100
AcDbSymbolTableRecord
100
AcDbLayerTableRecord
  2
58
 70
     0
 62
    58
  6
CONTINUOUS
  0
LAYER
  5
74
330
2
100
AcDbSymbolTableRecord
100
AcDbLayerTableRecord
  2
59
 70
     0
 62
    59
  6
CONTINUOUS
  0
LAYER
  5
75
330
2
100
AcDbSymbolTableRecord
100
AcDbLayerTableRecord
  2
60
 70
     0
 62
    60
  6
CONTINUOUS
  0
LAYER
  5
76
330
2
100
AcDbSymbolTableRecord
100
AcDbLayerTableRecord
  2
61
 70
     0
 62
    61
  6
CONTINUOUS
  0
LAYER
  5
77
330
2
100
AcDbSymbolTableRecord
100
AcDbLayerTableRecord
  2
62
 70
     0
 62
    62
  6
CONTINUOUS
  0
LAYER
  5
78
330
2
100
AcDbSymbolTableRecord
100
AcDbLayerTableRecord
  2
63
 70
     0
 62
    63
  6
CONTINUOUS
  0
LAYER
  5
79
330
2
100
AcDbSymbolTableRecord
100
AcDbLayerTableRecord
  2
64
 70
     0
 62
    64
  6
CONTINUOUS
  0
LAYER
  5
7A
330
2
100
AcDbSymbolTableRecord
100
AcDbLayerTableRecord
  2
65
 70
     0
 62
    65
  6
CONTINUOUS
  0
LAYER
  5
7B
330
2
100
AcDbSymbolTableRecord
100
AcDbLayerTableRecord
  2
66
 70
     0
 62
    66
  6
CONTINUOUS
  0
LAYER
  5
7C
330
2
100
AcDbSymbolTableRecord
100
AcDbLayerTableRecord
  2
67
 70
     0
 62
    67
  6
CONTINUOUS
  0
LAYER
  5
7D
330
2
100
AcDbSymbolTableRecord
100
AcDbLayerTableRecord
  2
68
 70
     0
 62
    68
  6
CONTINUOUS
  0
LAYER
  5
7E
330
2
100
AcDbSymbolTableRecord
100
AcDbLayerTableRecord
  2
69
 70
     0
 62
    69
  6
CONTINUOUS
  0
LAYER
  5
7F
330
2
100
AcDbSymbolTableRecord
100
AcDbLayerTableRecord
  2
70
 70
     0
 62
    70
  6
CONTINUOUS
  0
LAYER
  5
80
330
2
100
AcDbSymbolTableRecord
100
AcDbLayerTableRecord
  2
71
 70
     0
 62
    71
  6
CONTINUOUS
  0
LAYER
  5
81
330
2
100
AcDbSymbolTableRecord
100
AcDbLayerTableRecord
  2
72
 70
     0
 62
    72
  6
CONTINUOUS
  0
LAYER
  5
82
330
2
100
AcDbSymbolTableRecord
100
AcDbLayerTableRecord
  2
73
 70
     0
 62
    73
  6
CONTINUOUS
  0
LAYER
  5
83
330
2
100
AcDbSymbolTableRecord
100
AcDbLayerTableRecord
  2
74
 70
     0
 62
    74
  6
CONTINUOUS
  0
LAYER
  5
84
330
2
100
AcDbSymbolTableRecord
100
AcDbLayerTableRecord
  2
75
 70
     0
 62
    75
  6
CONTINUOUS
  0
LAYER
  5
85
330
2
100
AcDbSymbolTableRecord
100
AcDbLayerTableRecord
  2
76
 70
     0
 62
    76
  6
CONTINUOUS
  0
LAYER
  5
86
330
2
100
AcDbSymbolTableRecord
100
AcDbLayerTableRecord
  2
77
 70
     0
 62
    77
  6
CONTINUOUS
  0
LAYER
  5
87
330
2
100
AcDbSymbolTableRecord
100
AcDbLayerTableRecord
  2
78
 70
     0
 62
    78
  6
CONTINUOUS
  0
LAYER
  5
88
330
2
100
AcDbSymbolTableRecord
100
AcDbLayerTableRecord
  2
79
 70
     0
 62
    79
  6
CONTINUOUS
  0
LAYER
  5
89
330
2
100
AcDbSymbolTableRecord
100
AcDbLayerTableRecord
  2
80
 70
     0
 62
    80
  6
CONTINUOUS
  0
LAYER
  5
8A
330
2
100
AcDbSymbolTableRecord
100
AcDbLayerTableRecord
  2
81
 70
     0
 62
    81
  6
CONTINUOUS
  0
LAYER
  5
8B
330
2
100
AcDbSymbolTableRecord
100
AcDbLayerTableRecord
  2
82
 70
     0
 62
    82
  6
CONTINUOUS
  0
LAYER
  5
8C
330
2
100
AcDbSymbolTableRecord
100
AcDbLayerTableRecord
  2
83
 70
     0
 62
    83
  6
CONTINUOUS
  0
LAYER
  5
8D
330
2
100
AcDbSymbolTableRecord
100
AcDbLayerTableRecord
  2
84
 70
     0
 62
    84
  6
CONTINUOUS
  0
LAYER
  5
8E
330
2
100
AcDbSymbolTableRecord
100
AcDbLayerTableRecord
  2
85
 70
     0
 62
    85
  6
CONTINUOUS
  0
LAYER
  5
8F
330
2
100
AcDbSymbolTableRecord
100
AcDbLayerTableRecord
  2
86
 70
     0
 62
    86
  6
CONTINUOUS
  0
LAYER
  5
90
330
2
100
AcDbSymbolTableRecord
100
AcDbLayerTableRecord
  2
87
 70
     0
 62
    87
  6
CONTINUOUS
  0
LAYER
  5
91
330
2
100
AcDbSymbolTableRecord
100
AcDbLayerTableRecord
  2
88
 70
     0
 62
    88
  6
CONTINUOUS
  0
LAYER
  5
92
330
2
100
AcDbSymbolTableRecord
100
AcDbLayerTableRecord
  2
89
 70
     0
 62
    89
  6
CONTINUOUS
  0
LAYER
  5
93
330
2
100
AcDbSymbolTableRecord
100
AcDbLayerTableRecord
  2
90
 70
     0
 62
    90
  6
CONTINUOUS
  0
LAYER
  5
94
330
2
100
AcDbSymbolTableRecord
100
AcDbLayerTableRecord
  2
91
 70
     0
 62
    91
  6
CONTINUOUS
  0
LAYER
  5
95
330
2
100
AcDbSymbolTableRecord
100
AcDbLayerTableRecord
  2
92
 70
     0
 62
    92
  6
CONTINUOUS
  0
LAYER
  5
96
330
2
100
AcDbSymbolTableRecord
100
AcDbLayerTableRecord
  2
93
 70
     0
 62
    93
  6
CONTINUOUS
  0
LAYER
  5
97
330
2
100
AcDbSymbolTableRecord
100
AcDbLayerTableRecord
  2
94
 70
     0
 62
    94
  6
CONTINUOUS
  0
LAYER
  5
98
330
2
100
AcDbSymbolTableRecord
100
AcDbLayerTableRecord
  2
95
 70
     0
 62
    95
  6
CONTINUOUS
  0
LAYER
  5
99
330
2
100
AcDbSymbolTableRecord
100
AcDbLayerTableRecord
  2
96
 70
     0
 62
    96
  6
CONTINUOUS
  0
LAYER
  5
9A
330
2
100
AcDbSymbolTableRecord
100
AcDbLayerTableRecord
  2
97
 70
     0
 62
    97
  6
CONTINUOUS
  0
LAYER
  5
9B
330
2
100
AcDbSymbolTableRecord
100
AcDbLayerTableRecord
  2
98
 70
     0
 62
    98
  6
CONTINUOUS
  0
LAYER
  5
9C
330
2
100
AcDbSymbolTableRecord
100
AcDbLayerTableRecord
  2
99
 70
     0
 62
    99
  6
CONTINUOUS
  0
LAYER
  5
9D
330
2
100
AcDbSymbolTableRecord
100
AcDbLayerTableRecord
  2
100
 70
     0
 62
   100
  6
CONTINUOUS
  0
LAYER
  5
9E
330
2
100
AcDbSymbolTableRecord
100
AcDbLayerTableRecord
  2
101
 70
     0
 62
   101
  6
CONTINUOUS
  0
LAYER
  5
9F
330
2
100
AcDbSymbolTableRecord
100
AcDbLayerTableRecord
  2
102
 70
     0
 62
   102
  6
CONTINUOUS
  0
LAYER
  5
A0
330
2
100
AcDbSymbolTableRecord
100
AcDbLayerTableRecord
  2
103
 70
     0
 62
   103
  6
CONTINUOUS
  0
LAYER
  5
A1
330
2
100
AcDbSymbolTableRecord
100
AcDbLayerTableRecord
  2
104
 70
     0
 62
   104
  6
CONTINUOUS
  0
LAYER
  5
A2
330
2
100
AcDbSymbolTableRecord
100
AcDbLayerTableRecord
  2
105
 70
     0
 62
   105
  6
CONTINUOUS
  0
LAYER
  5
A3
330
2
100
AcDbSymbolTableRecord
100
AcDbLayerTableRecord
  2
106
 70
     0
 62
   106
  6
CONTINUOUS
  0
LAYER
  5
A4
330
2
100
AcDbSymbolTableRecord
100
AcDbLayerTableRecord
  2
107
 70
     0
 62
   107
  6
CONTINUOUS
  0
LAYER
  5
A5
330
2
100
AcDbSymbolTableRecord
100
AcDbLayerTableRecord
  2
108
 70
     0
 62
   108
  6
CONTINUOUS
  0
LAYER
  5
A6
330
2
100
AcDbSymbolTableRecord
100
AcDbLayerTableRecord
  2
109
 70
     0
 62
   109
  6
CONTINUOUS
  0
LAYER
  5
A7
330
2
100
AcDbSymbolTableRecord
100
AcDbLayerTableRecord
  2
110
 70
     0
 62
   110
  6
CONTINUOUS
  0
LAYER
  5
A8
330
2
100
AcDbSymbolTableRecord
100
AcDbLayerTableRecord
  2
111
 70
     0
 62
   111
  6
CONTINUOUS
  0
LAYER
  5
A9
330
2
100
AcDbSymbolTableRecord
100
AcDbLayerTableRecord
  2
112
 70
     0
 62
   112
  6
CONTINUOUS
  0
LAYER
  5
AA
330
2
100
AcDbSymbolTableRecord
100
AcDbLayerTableRecord
  2
113
 70
     0
 62
   113
  6
CONTINUOUS
  0
LAYER
  5
AB
330
2
100
AcDbSymbolTableRecord
100
AcDbLayerTableRecord
  2
114
 70
     0
 62
   114
  6
CONTINUOUS
  0
LAYER
  5
AC
330
2
100
AcDbSymbolTableRecord
100
AcDbLayerTableRecord
  2
115
 70
     0
 62
   115
  6
CONTINUOUS
  0
LAYER
  5
AD
330
2
100
AcDbSymbolTableRecord
100
AcDbLayerTableRecord
  2
116
 70
     0
 62
   116
  6
CONTINUOUS
  0
LAYER
  5
AE
330
2
100
AcDbSymbolTableRecord
100
AcDbLayerTableRecord
  2
117
 70
     0
 62
   117
  6
CONTINUOUS
  0
LAYER
  5
AF
330
2
100
AcDbSymbolTableRecord
100
AcDbLayerTableRecord
  2
118
 70
     0
 62
   118
  6
CONTINUOUS
  0
LAYER
  5
B0
330
2
100
AcDbSymbolTableRecord
100
AcDbLayerTableRecord
  2
119
 70
     0
 62
   119
  6
CONTINUOUS
  0
LAYER
  5
B1
330
2
100
AcDbSymbolTableRecord
100
AcDbLayerTableRecord
  2
120
 70
     0
 62
   120
  6
CONTINUOUS
  0
LAYER
  5
B2
330
2
100
AcDbSymbolTableRecord
100
AcDbLayerTableRecord
  2
121
 70
     0
 62
   121
  6
CONTINUOUS
  0
LAYER
  5
B3
330
2
100
AcDbSymbolTableRecord
100
AcDbLayerTableRecord
  2
122
 70
     0
 62
   122
  6
CONTINUOUS
  0
LAYER
  5
B4
330
2
100
AcDbSymbolTableRecord
100
AcDbLayerTableRecord
  2
123
 70
     0
 62
   123
  6
CONTINUOUS
  0
LAYER
  5
B5
330
2
100
AcDbSymbolTableRecord
100
AcDbLayerTableRecord
  2
124
 70
     0
 62
   124
  6
CONTINUOUS
  0
LAYER
  5
B6
330
2
100
AcDbSymbolTableRecord
100
AcDbLayerTableRecord
  2
125
 70
     0
 62
   125
  6
CONTINUOUS
  0
LAYER
  5
B7
330
2
100
AcDbSymbolTableRecord
100
AcDbLayerTableRecord
  2
126
 70
     0
 62
   126
  6
CONTINUOUS
  0
LAYER
  5
B8
330
2
100
AcDbSymbolTableRecord
100
AcDbLayerTableRecord
  2
127
 70
     0
 62
   127
  6
CONTINUOUS
  0
LAYER
  5
B9
330
2
100
AcDbSymbolTableRecord
100
AcDbLayerTableRecord
  2
128
 70
     0
 62
   128
  6
CONTINUOUS
  0
LAYER
  5
BA
330
2
100
AcDbSymbolTableRecord
100
AcDbLayerTableRecord
  2
129
 70
     0
 62
   129
  6
CONTINUOUS
  0
LAYER
  5
BB
330
2
100
AcDbSymbolTableRecord
100
AcDbLayerTableRecord
  2
130
 70
     0
 62
   130
  6
CONTINUOUS
  0
LAYER
  5
BC
330
2
100
AcDbSymbolTableRecord
100
AcDbLayerTableRecord
  2
131
 70
     0
 62
   131
  6
CONTINUOUS
  0
LAYER
  5
BD
330
2
100
AcDbSymbolTableRecord
100
AcDbLayerTableRecord
  2
132
 70
     0
 62
   132
  6
CONTINUOUS
  0
LAYER
  5
BE
330
2
100
AcDbSymbolTableRecord
100
AcDbLayerTableRecord
  2
133
 70
     0
 62
   133
  6
CONTINUOUS
  0
LAYER
  5
BF
330
2
100
AcDbSymbolTableRecord
100
AcDbLayerTableRecord
  2
134
 70
     0
 62
   134
  6
CONTINUOUS
  0
LAYER
  5
C0
330
2
100
AcDbSymbolTableRecord
100
AcDbLayerTableRecord
  2
135
 70
     0
 62
   135
  6
CONTINUOUS
  0
LAYER
  5
C1
330
2
100
AcDbSymbolTableRecord
100
AcDbLayerTableRecord
  2
136
 70
     0
 62
   136
  6
CONTINUOUS
  0
LAYER
  5
C2
330
2
100
AcDbSymbolTableRecord
100
AcDbLayerTableRecord
  2
137
 70
     0
 62
   137
  6
CONTINUOUS
  0
LAYER
  5
C3
330
2
100
AcDbSymbolTableRecord
100
AcDbLayerTableRecord
  2
138
 70
     0
 62
   138
  6
CONTINUOUS
  0
LAYER
  5
C4
330
2
100
AcDbSymbolTableRecord
100
AcDbLayerTableRecord
  2
139
 70
     0
 62
   139
  6
CONTINUOUS
  0
LAYER
  5
C5
330
2
100
AcDbSymbolTableRecord
100
AcDbLayerTableRecord
  2
140
 70
     0
 62
   140
  6
CONTINUOUS
  0
LAYER
  5
C6
330
2
100
AcDbSymbolTableRecord
100
AcDbLayerTableRecord
  2
141
 70
     0
 62
   141
  6
CONTINUOUS
  0
LAYER
  5
C7
330
2
100
AcDbSymbolTableRecord
100
AcDbLayerTableRecord
  2
142
 70
     0
 62
   142
  6
CONTINUOUS
  0
LAYER
  5
C8
330
2
100
AcDbSymbolTableRecord
100
AcDbLayerTableRecord
  2
143
 70
     0
 62
   143
  6
CONTINUOUS
  0
LAYER
  5
C9
330
2
100
AcDbSymbolTableRecord
100
AcDbLayerTableRecord
  2
144
 70
     0
 62
   144
  6
CONTINUOUS
  0
LAYER
  5
CA
330
2
100
AcDbSymbolTableRecord
100
AcDbLayerTableRecord
  2
145
 70
     0
 62
   145
  6
CONTINUOUS
  0
LAYER
  5
CB
330
2
100
AcDbSymbolTableRecord
100
AcDbLayerTableRecord
  2
146
 70
     0
 62
   146
  6
CONTINUOUS
  0
LAYER
  5
CC
330
2
100
AcDbSymbolTableRecord
100
AcDbLayerTableRecord
  2
147
 70
     0
 62
   147
  6
CONTINUOUS
  0
LAYER
  5
CD
330
2
100
AcDbSymbolTableRecord
100
AcDbLayerTableRecord
  2
148
 70
     0
 62
   148
  6
CONTINUOUS
  0
LAYER
  5
CE
330
2
100
AcDbSymbolTableRecord
100
AcDbLayerTableRecord
  2
149
 70
     0
 62
   149
  6
CONTINUOUS
  0
LAYER
  5
CF
330
2
100
AcDbSymbolTableRecord
100
AcDbLayerTableRecord
  2
150
 70
     0
 62
   150
  6
CONTINUOUS
  0
LAYER
  5
D0
330
2
100
AcDbSymbolTableRecord
100
AcDbLayerTableRecord
  2
151
 70
     0
 62
   151
  6
CONTINUOUS
  0
LAYER
  5
D1
330
2
100
AcDbSymbolTableRecord
100
AcDbLayerTableRecord
  2
152
 70
     0
 62
   152
  6
CONTINUOUS
  0
LAYER
  5
D2
330
2
100
AcDbSymbolTableRecord
100
AcDbLayerTableRecord
  2
153
 70
     0
 62
   153
  6
CONTINUOUS
  0
LAYER
  5
D3
330
2
100
AcDbSymbolTableRecord
100
AcDbLayerTableRecord
  2
154
 70
     0
 62
   154
  6
CONTINUOUS
  0
LAYER
  5
D4
330
2
100
AcDbSymbolTableRecord
100
AcDbLayerTableRecord
  2
155
 70
     0
 62
   155
  6
CONTINUOUS
  0
LAYER
  5
D5
330
2
100
AcDbSymbolTableRecord
100
AcDbLayerTableRecord
  2
156
 70
     0
 62
   156
  6
CONTINUOUS
  0
LAYER
  5
D6
330
2
100
AcDbSymbolTableRecord
100
AcDbLayerTableRecord
  2
157
 70
     0
 62
   157
  6
CONTINUOUS
  0
LAYER
  5
D7
330
2
100
AcDbSymbolTableRecord
100
AcDbLayerTableRecord
  2
158
 70
     0
 62
   158
  6
CONTINUOUS
  0
LAYER
  5
D8
330
2
100
AcDbSymbolTableRecord
100
AcDbLayerTableRecord
  2
159
 70
     0
 62
   159
  6
CONTINUOUS
  0
LAYER
  5
D9
330
2
100
AcDbSymbolTableRecord
100
AcDbLayerTableRecord
  2
160
 70
     0
 62
   160
  6
CONTINUOUS
  0
LAYER
  5
DA
330
2
100
AcDbSymbolTableRecord
100
AcDbLayerTableRecord
  2
161
 70
     0
 62
   161
  6
CONTINUOUS
  0
LAYER
  5
DB
330
2
100
AcDbSymbolTableRecord
100
AcDbLayerTableRecord
  2
162
 70
     0
 62
   162
  6
CONTINUOUS
  0
LAYER
  5
DC
330
2
100
AcDbSymbolTableRecord
100
AcDbLayerTableRecord
  2
163
 70
     0
 62
   163
  6
CONTINUOUS
  0
LAYER
  5
DD
330
2
100
AcDbSymbolTableRecord
100
AcDbLayerTableRecord
  2
164
 70
     0
 62
   164
  6
CONTINUOUS
  0
LAYER
  5
DE
330
2
100
AcDbSymbolTableRecord
100
AcDbLayerTableRecord
  2
165
 70
     0
 62
   165
  6
CONTINUOUS
  0
LAYER
  5
DF
330
2
100
AcDbSymbolTableRecord
100
AcDbLayerTableRecord
  2
166
 70
     0
 62
   166
  6
CONTINUOUS
  0
LAYER
  5
E0
330
2
100
AcDbSymbolTableRecord
100
AcDbLayerTableRecord
  2
167
 70
     0
 62
   167
  6
CONTINUOUS
  0
LAYER
  5
E1
330
2
100
AcDbSymbolTableRecord
100
AcDbLayerTableRecord
  2
168
 70
     0
 62
   168
  6
CONTINUOUS
  0
LAYER
  5
E2
330
2
100
AcDbSymbolTableRecord
100
AcDbLayerTableRecord
  2
169
 70
     0
 62
   169
  6
CONTINUOUS
  0
LAYER
  5
E3
330
2
100
AcDbSymbolTableRecord
100
AcDbLayerTableRecord
  2
170
 70
     0
 62
   170
  6
CONTINUOUS
  0
LAYER
  5
E4
330
2
100
AcDbSymbolTableRecord
100
AcDbLayerTableRecord
  2
171
 70
     0
 62
   171
  6
CONTINUOUS
  0
LAYER
  5
E5
330
2
100
AcDbSymbolTableRecord
100
AcDbLayerTableRecord
  2
172
 70
     0
 62
   172
  6
CONTINUOUS
  0
LAYER
  5
E6
330
2
100
AcDbSymbolTableRecord
100
AcDbLayerTableRecord
  2
173
 70
     0
 62
   173
  6
CONTINUOUS
  0
LAYER
  5
E7
330
2
100
AcDbSymbolTableRecord
100
AcDbLayerTableRecord
  2
174
 70
     0
 62
   174
  6
CONTINUOUS
  0
LAYER
  5
E8
330
2
100
AcDbSymbolTableRecord
100
AcDbLayerTableRecord
  2
175
 70
     0
 62
   175
  6
CONTINUOUS
  0
LAYER
  5
E9
330
2
100
AcDbSymbolTableRecord
100
AcDbLayerTableRecord
  2
176
 70
     0
 62
   176
  6
CONTINUOUS
  0
LAYER
  5
EA
330
2
100
AcDbSymbolTableRecord
100
AcDbLayerTableRecord
  2
177
 70
     0
 62
   177
  6
CONTINUOUS
  0
LAYER
  5
EB
330
2
100
AcDbSymbolTableRecord
100
AcDbLayerTableRecord
  2
178
 70
     0
 62
   178
  6
CONTINUOUS
  0
LAYER
  5
EC
330
2
100
AcDbSymbolTableRecord
100
AcDbLayerTableRecord
  2
179
 70
     0
 62
   179
  6
CONTINUOUS
  0
LAYER
  5
ED
330
2
100
AcDbSymbolTableRecord
100
AcDbLayerTableRecord
  2
180
 70
     0
 62
   180
  6
CONTINUOUS
  0
LAYER
  5
EE
330
2
100
AcDbSymbolTableRecord
100
AcDbLayerTableRecord
  2
181
 70
     0
 62
   181
  6
CONTINUOUS
  0
LAYER
  5
EF
330
2
100
AcDbSymbolTableRecord
100
AcDbLayerTableRecord
  2
182
 70
     0
 62
   182
  6
CONTINUOUS
  0
LAYER
  5
F0
330
2
100
AcDbSymbolTableRecord
100
AcDbLayerTableRecord
  2
183
 70
     0
 62
   183
  6
CONTINUOUS
  0
LAYER
  5
F1
330
2
100
AcDbSymbolTableRecord
100
AcDbLayerTableRecord
  2
184
 70
     0
 62
   184
  6
CONTINUOUS
  0
LAYER
  5
F2
330
2
100
AcDbSymbolTableRecord
100
AcDbLayerTableRecord
  2
185
 70
     0
 62
   185
  6
CONTINUOUS
  0
LAYER
  5
F3
330
2
100
AcDbSymbolTableRecord
100
AcDbLayerTableRecord
  2
186
 70
     0
 62
   186
  6
CONTINUOUS
  0
LAYER
  5
F4
330
2
100
AcDbSymbolTableRecord
100
AcDbLayerTableRecord
  2
187
 70
     0
 62
   187
  6
CONTINUOUS
  0
LAYER
  5
F5
330
2
100
AcDbSymbolTableRecord
100
AcDbLayerTableRecord
  2
188
 70
     0
 62
   188
  6
CONTINUOUS
  0
LAYER
  5
F6
330
2
100
AcDbSymbolTableRecord
100
AcDbLayerTableRecord
  2
189
 70
     0
 62
   189
  6
CONTINUOUS
  0
LAYER
  5
F7
330
2
100
AcDbSymbolTableRecord
100
AcDbLayerTableRecord
  2
190
 70
     0
 62
   190
  6
CONTINUOUS
  0
LAYER
  5
F8
330
2
100
AcDbSymbolTableRecord
100
AcDbLayerTableRecord
  2
191
 70
     0
 62
   191
  6
CONTINUOUS
  0
LAYER
  5
F9
330
2
100
AcDbSymbolTableRecord
100
AcDbLayerTableRecord
  2
192
 70
     0
 62
   192
  6
CONTINUOUS
  0
LAYER
  5
FA
330
2
100
AcDbSymbolTableRecord
100
AcDbLayerTableRecord
  2
193
 70
     0
 62
   193
  6
CONTINUOUS
  0
LAYER
  5
FB
330
2
100
AcDbSymbolTableRecord
100
AcDbLayerTableRecord
  2
194
 70
     0
 62
   194
  6
CONTINUOUS
  0
LAYER
  5
FC
330
2
100
AcDbSymbolTableRecord
100
AcDbLayerTableRecord
  2
195
 70
     0
 62
   195
  6
CONTINUOUS
  0
LAYER
  5
FD
330
2
100
AcDbSymbolTableRecord
100
AcDbLayerTableRecord
  2
196
 70
     0
 62
   196
  6
CONTINUOUS
  0
LAYER
  5
FE
330
2
100
AcDbSymbolTableRecord
100
AcDbLayerTableRecord
  2
197
 70
     0
 62
   197
  6
CONTINUOUS
  0
LAYER
  5
FF
330
2
100
AcDbSymbolTableRecord
100
AcDbLayerTableRecord
  2
198
 70
     0
 62
   198
  6
CONTINUOUS
  0
LAYER
  5
100
330
2
100
AcDbSymbolTableRecord
100
AcDbLayerTableRecord
  2
199
 70
     0
 62
   199
  6
CONTINUOUS
  0
LAYER
  5
101
330
2
100
AcDbSymbolTableRecord
100
AcDbLayerTableRecord
  2
200
 70
     0
 62
   200
  6
CONTINUOUS
  0
LAYER
  5
102
330
2
100
AcDbSymbolTableRecord
100
AcDbLayerTableRecord
  2
201
 70
     0
 62
   201
  6
CONTINUOUS
  0
LAYER
  5
103
330
2
100
AcDbSymbolTableRecord
100
AcDbLayerTableRecord
  2
202
 70
     0
 62
   202
  6
CONTINUOUS
  0
LAYER
  5
104
330
2
100
AcDbSymbolTableRecord
100
AcDbLayerTableRecord
  2
203
 70
     0
 62
   203
  6
CONTINUOUS
  0
LAYER
  5
105
330
2
100
AcDbSymbolTableRecord
100
AcDbLayerTableRecord
  2
204
 70
     0
 62
   204
  6
CONTINUOUS
  0
LAYER
  5
106
330
2
100
AcDbSymbolTableRecord
100
AcDbLayerTableRecord
  2
205
 70
     0
 62
   205
  6
CONTINUOUS
  0
LAYER
  5
107
330
2
100
AcDbSymbolTableRecord
100
AcDbLayerTableRecord
  2
206
 70
     0
 62
   206
  6
CONTINUOUS
  0
LAYER
  5
108
330
2
100
AcDbSymbolTableRecord
100
AcDbLayerTableRecord
  2
207
 70
     0
 62
   207
  6
CONTINUOUS
  0
LAYER
  5
109
330
2
100
AcDbSymbolTableRecord
100
AcDbLayerTableRecord
  2
208
 70
     0
 62
   208
  6
CONTINUOUS
  0
LAYER
  5
10A
330
2
100
AcDbSymbolTableRecord
100
AcDbLayerTableRecord
  2
209
 70
     0
 62
   209
  6
CONTINUOUS
  0
LAYER
  5
10B
330
2
100
AcDbSymbolTableRecord
100
AcDbLayerTableRecord
  2
210
 70
     0
 62
   210
  6
CONTINUOUS
  0
LAYER
  5
10C
330
2
100
AcDbSymbolTableRecord
100
AcDbLayerTableRecord
  2
211
 70
     0
 62
   211
  6
CONTINUOUS
  0
LAYER
  5
10D
330
2
100
AcDbSymbolTableRecord
100
AcDbLayerTableRecord
  2
212
 70
     0
 62
   212
  6
CONTINUOUS
  0
LAYER
  5
10E
330
2
100
AcDbSymbolTableRecord
100
AcDbLayerTableRecord
  2
213
 70
     0
 62
   213
  6
CONTINUOUS
  0
LAYER
  5
10F
330
2
100
AcDbSymbolTableRecord
100
AcDbLayerTableRecord
  2
214
 70
     0
 62
   214
  6
CONTINUOUS
  0
LAYER
  5
110
330
2
100
AcDbSymbolTableRecord
100
AcDbLayerTableRecord
  2
215
 70
     0
 62
   215
  6
CONTINUOUS
  0
LAYER
  5
111
330
2
100
AcDbSymbolTableRecord
100
AcDbLayerTableRecord
  2
216
 70
     0
 62
   216
  6
CONTINUOUS
  0
LAYER
  5
112
330
2
100
AcDbSymbolTableRecord
100
AcDbLayerTableRecord
  2
217
 70
     0
 62
   217
  6
CONTINUOUS
  0
LAYER
  5
113
330
2
100
AcDbSymbolTableRecord
100
AcDbLayerTableRecord
  2
218
 70
     0
 62
   218
  6
CONTINUOUS
  0
LAYER
  5
114
330
2
100
AcDbSymbolTableRecord
100
AcDbLayerTableRecord
  2
219
 70
     0
 62
   219
  6
CONTINUOUS
  0
LAYER
  5
115
330
2
100
AcDbSymbolTableRecord
100
AcDbLayerTableRecord
  2
220
 70
     0
 62
   220
  6
CONTINUOUS
  0
LAYER
  5
116
330
2
100
AcDbSymbolTableRecord
100
AcDbLayerTableRecord
  2
221
 70
     0
 62
   221
  6
CONTINUOUS
  0
LAYER
  5
117
330
2
100
AcDbSymbolTableRecord
100
AcDbLayerTableRecord
  2
222
 70
     0
 62
   222
  6
CONTINUOUS
  0
LAYER
  5
118
330
2
100
AcDbSymbolTableRecord
100
AcDbLayerTableRecord
  2
223
 70
     0
 62
   223
  6
CONTINUOUS
  0
LAYER
  5
119
330
2
100
AcDbSymbolTableRecord
100
AcDbLayerTableRecord
  2
224
 70
     0
 62
   224
  6
CONTINUOUS
  0
LAYER
  5
11A
330
2
100
AcDbSymbolTableRecord
100
AcDbLayerTableRecord
  2
225
 70
     0
 62
   225
  6
CONTINUOUS
  0
LAYER
  5
11B
330
2
100
AcDbSymbolTableRecord
100
AcDbLayerTableRecord
  2
226
 70
     0
 62
   226
  6
CONTINUOUS
  0
LAYER
  5
11C
330
2
100
AcDbSymbolTableRecord
100
AcDbLayerTableRecord
  2
227
 70
     0
 62
   227
  6
CONTINUOUS
  0
LAYER
  5
11D
330
2
100
AcDbSymbolTableRecord
100
AcDbLayerTableRecord
  2
228
 70
     0
 62
   228
  6
CONTINUOUS
  0
LAYER
  5
11E
330
2
100
AcDbSymbolTableRecord
100
AcDbLayerTableRecord
  2
229
 70
     0
 62
   229
  6
CONTINUOUS
  0
LAYER
  5
11F
330
2
100
AcDbSymbolTableRecord
100
AcDbLayerTableRecord
  2
230
 70
     0
 62
   230
  6
CONTINUOUS
  0
LAYER
  5
120
330
2
100
AcDbSymbolTableRecord
100
AcDbLayerTableRecord
  2
231
 70
     0
 62
   231
  6
CONTINUOUS
  0
LAYER
  5
121
330
2
100
AcDbSymbolTableRecord
100
AcDbLayerTableRecord
  2
232
 70
     0
 62
   232
  6
CONTINUOUS
  0
LAYER
  5
122
330
2
100
AcDbSymbolTableRecord
100
AcDbLayerTableRecord
  2
233
 70
     0
 62
   233
  6
CONTINUOUS
  0
LAYER
  5
123
330
2
100
AcDbSymbolTableRecord
100
AcDbLayerTableRecord
  2
234
 70
     0
 62
   234
  6
CONTINUOUS
  0
LAYER
  5
124
330
2
100
AcDbSymbolTableRecord
100
AcDbLayerTableRecord
  2
235
 70
     0
 62
   235
  6
CONTINUOUS
  0
LAYER
  5
125
330
2
100
AcDbSymbolTableRecord
100
AcDbLayerTableRecord
  2
236
 70
     0
 62
   236
  6
CONTINUOUS
  0
LAYER
  5
126
330
2
100
AcDbSymbolTableRecord
100
AcDbLayerTableRecord
  2
237
 70
     0
 62
   237
  6
CONTINUOUS
  0
LAYER
  5
127
330
2
100
AcDbSymbolTableRecord
100
AcDbLayerTableRecord
  2
238
 70
     0
 62
   238
  6
CONTINUOUS
  0
LAYER
  5
128
330
2
100
AcDbSymbolTableRecord
100
AcDbLayerTableRecord
  2
239
 70
     0
 62
   239
  6
CONTINUOUS
  0
LAYER
  5
129
330
2
100
AcDbSymbolTableRecord
100
AcDbLayerTableRecord
  2
240
 70
     0
 62
   240
  6
CONTINUOUS
  0
LAYER
  5
12A
330
2
100
AcDbSymbolTableRecord
100
AcDbLayerTableRecord
  2
241
 70
     0
 62
   241
  6
CONTINUOUS
  0
LAYER
  5
12B
330
2
100
AcDbSymbolTableRecord
100
AcDbLayerTableRecord
  2
242
 70
     0
 62
   242
  6
CONTINUOUS
  0
LAYER
  5
12C
330
2
100
AcDbSymbolTableRecord
100
AcDbLayerTableRecord
  2
243
 70
     0
 62
   243
  6
CONTINUOUS
  0
LAYER
  5
12D
330
2
100
AcDbSymbolTableRecord
100
AcDbLayerTableRecord
  2
244
 70
     0
 62
   244
  6
CONTINUOUS
  0
LAYER
  5
12E
330
2
100
AcDbSymbolTableRecord
100
AcDbLayerTableRecord
  2
245
 70
     0
 62
   245
  6
CONTINUOUS
  0
LAYER
  5
12F
330
2
100
AcDbSymbolTableRecord
100
AcDbLayerTableRecord
  2
246
 70
     0
 62
   246
  6
CONTINUOUS
  0
LAYER
  5
130
330
2
100
AcDbSymbolTableRecord
100
AcDbLayerTableRecord
  2
247
 70
     0
 62
   247
  6
CONTINUOUS
  0
LAYER
  5
131
330
2
100
AcDbSymbolTableRecord
100
AcDbLayerTableRecord
  2
248
 70
     0
 62
   248
  6
CONTINUOUS
  0
LAYER
  5
132
330
2
100
AcDbSymbolTableRecord
100
AcDbLayerTableRecord
  2
249
 70
     0
 62
   249
  6
CONTINUOUS
  0
LAYER
  5
133
330
2
100
AcDbSymbolTableRecord
100
AcDbLayerTableRecord
  2
250
 70
     0
 62
   250
  6
CONTINUOUS
  0
LAYER
  5
134
330
2
100
AcDbSymbolTableRecord
100
AcDbLayerTableRecord
  2
251
 70
     0
 62
   251
  6
CONTINUOUS
  0
LAYER
  5
135
330
2
100
AcDbSymbolTableRecord
100
AcDbLayerTableRecord
  2
252
 70
     0
 62
   252
  6
CONTINUOUS
  0
LAYER
  5
136
330
2
100
AcDbSymbolTableRecord
100
AcDbLayerTableRecord
  2
253
 70
     0
 62
   253
  6
CONTINUOUS
  0
LAYER
  5
137
330
2
100
AcDbSymbolTableRecord
100
AcDbLayerTableRecord
  2
254
 70
     0
 62
   254
  6
CONTINUOUS
  0
LAYER
  5
138
330
2
100
AcDbSymbolTableRecord
100
AcDbLayerTableRecord
  2
255
 70
     0
 62
   255
  6
CONTINUOUS
  0
LAYER
  5
4004
330
2
100
AcDbSymbolTableRecord
100
AcDbLayerTableRecord
  2
DEFPOINTS
 70
     0
 62
     7
  6
CONTINUOUS
  0
ENDTAB
  0
TABLE
  2
STYLE
  5
3
330
0
100
AcDbSymbolTable
 70
     1
  0
STYLE
  5
11
330
3
100
AcDbSymbolTableRecord
100
AcDbTextStyleTableRecord
  2
STANDARD
 70
     0
 40
0.0
 41
1.0
 50
0.0
 71
     0
 42
0.2
  3
monotxt
  4

  0
ENDTAB
  0
TABLE
  2
VIEW
  5
6
330
0
100
AcDbSymbolTable
 70
     0
  0
ENDTAB
  0
TABLE
  2
UCS
  5
7
330
0
100
AcDbSymbolTable
 70
     0
  0
ENDTAB
  0
TABLE
  2
APPID
  5
9
330
0
100
AcDbSymbolTable
 70
     1
  0
APPID
  5
12
330
9
100
AcDbSymbolTableRecord
100
AcDbRegAppTableRecord
  2
ACAD
 70
     0
  0
ENDTAB
  0
TABLE
  2
DIMSTYLE
  5
A
330
0
100
AcDbSymbolTable
 70
     1
  0
DIMSTYLE
105
2C8A
330
A
100
AcDbSymbolTableRecord
100
AcDbDimStyleTableRecord
  2
STANDARD
 70
     0
  3

  4

  5

  6

  7

 40
1.0
 41
0.18
 42
0.0625
 43
0.38
 44
0.18
 45
0.0
 46
0.0
 47
0.0
 48
0.0
140
0.18
141
0.09
142
0.0
143
25.4
144
1.0
145
0.0
146
1.0
147
0.09
 71
     0
 72
     0
 73
     1
 74
     1
 75
     0
 76
     0
 77
     0
 78
     0
170
     0
171
     2
172
     0
173
     0
174
     0
175
     0
176
     0
177
     0
178
     0
270
     2
271
     4
272
     4
273
     2
274
     2
340
11
275
     0
280
     0
281
     0
282
     0
283
     1
284
     0
285
     0
286
     0
287
     3
288
     0
  0
ENDTAB
  0
TABLE
  2
BLOCK_RECORD
  5
1
330
0
100
AcDbSymbolTable
 70
     2
  0
BLOCK_RECORD
  5
1E
102
{ACAD_XDICTIONARY
360
4035
102
}
330
1
100
AcDbSymbolTableRecord
100
AcDbBlockTableRecord
  2
*MODEL_SPACE
  0
BLOCK_RECORD
  5
1A
102
{ACAD_XDICTIONARY
360
4037
102
}
330
1
100
AcDbSymbolTableRecord
100
AcDbBlockTableRecord
  2
*PAPER_SPACE
  0
ENDTAB
  0
ENDSEC
  0
SECTION
  2
BLOCKS
  0
BLOCK
  5
13B
330
1E
100
AcDbEntity
  8
0
100
AcDbBlockBegin
  2
*MODEL_SPACE
 70
     0
 10
0.0
 20
0.0
 30
0.0
  3
*MODEL_SPACE
  1

  0
ENDBLK
  5
13C
330
1E
100
AcDbEntity
  8
0
100
AcDbBlockEnd
  0
BLOCK
  5
139
330
1A
100
AcDbEntity
 67
     1
  8
0
100
AcDbBlockBegin
  2
*PAPER_SPACE
 70
     0
 10
0.0
 20
0.0
 30
0.0
  3
*PAPER_SPACE
  1

  0
ENDBLK
  5
13A
330
1A
100
AcDbEntity
 67
     1
  8
0
100
AcDbBlockEnd
  0
ENDSEC
  0
SECTION
  2
ENTITIES
  0
LINE
  5
29CB
330
1E
100
AcDbEntity
  8
3
100
AcDbLine
 10
1.896935127366885
 20
7.099752383951347
 30
0.0
 11
1.900872135240901
 21
7.084004352455284
 31
0.0
  0
LINE
  5
29CC
330
1E
100
AcDbEntity
  8
3
100
AcDbLine
 10
1.900872135240901
 20
3.454083092612769
 30
0.0
 11
1.900872135240901
 21
3.803164457442165
 31
0.0
  0
LINE
  5
29D3
330
1E
100
AcDbEntity
  8
3
100
AcDbLine
 10
0.0570401142435264
 20
3.422587029620642
 30
0.0
 11
1.869376072248774
 21
3.422587029620642
 31
0.0
  0
LINE
  5
29D9
330
1E
100
AcDbEntity
  8
3
100
AcDbLine
 10
0.0412920827474634
 20
3.426524037494658
 30
0.0
 11
0.0570401142435264
 21
3.422587029620642
 31
0.0
  0
LINE
  5
29DA
330
1E
100
AcDbEntity
  8
3
100
AcDbLine
 10
0.0255440512514005
 20
3.803164457442165
 30
0.0
 11
0.0255440512514005
 21
3.454083092612769
 31
0.0
  0
LINE
  5
29E1
330
1E
100
AcDbEntity
  8
3
100
AcDbLine
 10
1.869376072248774
 20
3.834660520434291
 30
0.0
 11
0.0570401142435264
 21
3.834660520434291
 31
0.0
  0
LINE
  5
29E2
330
1E
100
AcDbEntity
  8
3
100
AcDbLine
 10
1.900872135240901
 20
3.803164457442165
 30
0.0
 11
1.896935127366885
 21
3.818912488938228
 31
0.0
  0
LINE
  5
29E8
330
1E
100
AcDbEntity
  8
3
100
AcDbLine
 10
1.252578171986308
 20
4.946209076864736
 30
0.0
 11
1.252578171986308
 21
5.591878368203317
 31
0.0
  0
LINE
  5
29EE
330
1E
100
AcDbEntity
  8
3
100
AcDbLine
 10
1.252578171986308
 20
5.591878368203317
 30
0.0
 11
0.6725256785479888
 21
5.591878368203317
 31
0.0
  0
LINE
  5
29EF
330
1E
100
AcDbEntity
  8
3
100
AcDbLine
 10
-0.4088391508483369
 20
3.081379680539278
 30
0.0
 11
-0.4088391508483369
 21
7.455395428570771
 31
0.0
  0
LINE
  5
2AAE
330
1E
100
AcDbEntity
  8
3
100
AcDbLine
 10
0.9034968071569124
 20
6.757232698911979
 30
0.0
 11
1.022919379335389
 21
6.757232698911979
 31
0.0
  0
LINE
  5
2AC0
330
1E
100
AcDbEntity
  8
3
100
AcDbLine
 10
1.022919379335389
 20
7.060382305211192
 30
0.0
 11
0.9034968071569124
 21
7.060382305211192
 31
0.0
  0
LINE
  5
2AD2
330
1E
100
AcDbEntity
  8
3
100
AcDbLine
 10
0.0911608491516631
 20
6.704739260591769
 30
0.0
 11
0.0911608491516631
 21
7.114188079489405
 31
0.0
  0
LINE
  5
2AD3
330
1E
100
AcDbEntity
  8
3
100
AcDbLine
 10
1.835255337340638
 20
6.704739260591769
 30
0.0
 11
0.0911608491516631
 21
6.704739260591769
 31
0.0
  0
LINE
  5
2AD4
330
1E
100
AcDbEntity
  8
3
100
AcDbLine
 10
1.835255337340638
 20
6.704739260591769
 30
0.0
 11
1.835255337340638
 21
7.114188079489405
 31
0.0
  0
LINE
  5
2AD5
330
1E
100
AcDbEntity
  8
3
100
AcDbLine
 10
0.0911608491516631
 20
7.114188079489405
 30
0.0
 11
1.835255337340638
 21
7.114188079489405
 31
0.0
  0
LINE
  5
2AD6
330
1E
100
AcDbEntity
  8
3
100
AcDbLine
 10
0.0911608491516631
 20
6.704739260591769
 30
0.0
 11
0.0885361772356523
 21
6.703426924633763
 31
0.0
  0
LINE
  5
2AD7
330
1E
100
AcDbEntity
  8
3
100
AcDbLine
 10
0.0911608491516631
 20
7.114188079489405
 30
0.0
 11
0.0885361772356523
 21
7.114188079489405
 31
0.0
  0
LINE
  5
2AE7
330
1E
100
AcDbEntity
  8
3
100
AcDbLine
 10
1.835255337340638
 20
6.704739260591769
 30
0.0
 11
1.837880009256648
 21
6.703426924633763
 31
0.0
  0
LINE
  5
2AE8
330
1E
100
AcDbEntity
  8
3
100
AcDbLine
 10
1.835255337340638
 20
7.114188079489405
 30
0.0
 11
1.837880009256648
 21
7.114188079489405
 31
0.0
  0
LINE
  5
2AF8
330
1E
100
AcDbEntity
  8
3
100
AcDbLine
 10
1.89824746332489
 20
6.734922987625889
 30
0.0
 11
1.900872135240901
 21
6.734922987625889
 31
0.0
  0
LINE
  5
2AF9
330
1E
100
AcDbEntity
  8
3
100
AcDbLine
 10
1.869376072248774
 20
6.703426924633763
 30
0.0
 11
1.866751400332764
 21
6.703426924633763
 31
0.0
  0
LINE
  5
2AFA
330
1E
100
AcDbEntity
  8
3
100
AcDbLine
 10
1.866751400332764
 20
7.114188079489405
 30
0.0
 11
1.869376072248774
 21
7.11550041544741
 31
0.0
  0
LINE
  5
2AFB
330
1E
100
AcDbEntity
  8
3
100
AcDbLine
 10
1.900872135240901
 20
7.084004352455284
 30
0.0
 11
1.89824746332489
 21
7.084004352455284
 31
0.0
  0
LINE
  5
2AFC
330
1E
100
AcDbEntity
  8
3
100
AcDbLine
 10
0.0281687231674113
 20
7.084004352455284
 30
0.0
 11
0.0255440512514005
 21
7.084004352455284
 31
0.0
  0
LINE
  5
2AFD
330
1E
100
AcDbEntity
  8
3
100
AcDbLine
 10
0.0570401142435264
 20
7.11550041544741
 30
0.0
 11
0.0596647861595372
 21
7.114188079489405
 31
0.0
  0
LINE
  5
2AFE
330
1E
100
AcDbEntity
  8
3
100
AcDbLine
 10
0.0596647861595372
 20
6.703426924633763
 30
0.0
 11
0.0570401142435264
 21
6.703426924633763
 31
0.0
  0
LINE
  5
2AFF
330
1E
100
AcDbEntity
  8
3
100
AcDbLine
 10
0.0255440512514005
 20
6.734922987625889
 30
0.0
 11
0.0281687231674113
 21
6.734922987625889
 31
0.0
  0
LINE
  5
2B00
330
1E
100
AcDbEntity
  8
3
100
AcDbLine
 10
0.9034968071569124
 20
6.759857370827988
 30
0.0
 11
0.9034968071569124
 21
6.757232698911979
 31
0.0
  0
LINE
  5
2B06
330
1E
100
AcDbEntity
  8
3
100
AcDbLine
 10
1.022919379335389
 20
7.059069969253187
 30
0.0
 11
1.022919379335389
 21
7.060382305211192
 31
0.0
  0
LINE
  5
2B2E
330
1E
100
AcDbEntity
  8
3
100
AcDbLine
 10
0.9034968071569124
 20
6.833348184476283
 30
0.0
 11
1.022919379335389
 21
6.833348184476283
 31
0.0
  0
LINE
  5
2B3D
330
1E
100
AcDbEntity
  8
3
100
AcDbLine
 10
0.9034968071569124
 20
6.985579155604892
 30
0.0
 11
1.022919379335389
 21
6.985579155604892
 31
0.0
  0
LINE
  5
2B4C
330
1E
100
AcDbEntity
  8
3
100
AcDbLine
 10
0.9034968071569124
 20
6.985579155604892
 30
0.0
 11
1.022919379335389
 21
6.985579155604892
 31
0.0
  0
LINE
  5
2B4D
330
1E
100
AcDbEntity
  8
3
100
AcDbLine
 10
0.9034968071569124
 20
6.833348184476283
 30
0.0
 11
1.022919379335389
 21
6.833348184476283
 31
0.0
  0
LINE
  5
2B4E
330
1E
100
AcDbEntity
  8
3
100
AcDbLine
 10
1.068851137865573
 20
6.969831124108829
 30
0.0
 11
1.059664786159537
 21
6.976392803898855
 31
0.0
  0
LINE
  5
2B4F
330
1E
100
AcDbEntity
  8
3
100
AcDbLine
 10
1.059664786159537
 20
6.84253453618232
 30
0.0
 11
1.068851137865573
 21
6.849096215972346
 31
0.0
  0
LINE
  5
2B5F
330
1E
100
AcDbEntity
  8
3
100
AcDbLine
 10
0.8575650486267285
 20
6.849096215972346
 30
0.0
 11
0.8667514003327649
 21
6.84253453618232
 31
0.0
  0
LINE
  5
2B60
330
1E
100
AcDbEntity
  8
3
100
AcDbLine
 10
0.8667514003327649
 20
6.976392803898855
 30
0.0
 11
0.8575650486267285
 21
6.969831124108829
 31
0.0
  0
LINE
  5
2B66
330
1E
100
AcDbEntity
  8
3
100
AcDbLine
 10
0.8667514003327649
 20
6.84253453618232
 30
0.0
 11
1.059664786159537
 21
6.84253453618232
 31
0.0
  0
LINE
  5
2B67
330
1E
100
AcDbEntity
  8
3
100
AcDbLine
 10
1.068851137865573
 20
6.849096215972346
 30
0.0
 11
0.8575650486267285
 21
6.849096215972346
 31
0.0
  0
LINE
  5
2B68
330
1E
100
AcDbEntity
  8
3
100
AcDbLine
 10
0.8667514003327649
 20
6.976392803898855
 30
0.0
 11
1.059664786159537
 21
6.976392803898855
 31
0.0
  0
LINE
  5
2B69
330
1E
100
AcDbEntity
  8
3
100
AcDbLine
 10
1.068851137865573
 20
6.969831124108829
 30
0.0
 11
0.8575650486267285
 21
6.969831124108829
 31
0.0
  0
LINE
  5
2B6A
330
1E
100
AcDbEntity
  8
3
100
AcDbLine
 10
1.068851137865573
 20
3.569568656917231
 30
0.0
 11
1.089848513193657
 21
3.595815376077336
 31
0.0
  0
LINE
  5
2B78
330
1E
100
AcDbEntity
  8
3
100
AcDbLine
 10
0.9034968071569124
 20
3.77954241019807
 30
0.0
 11
1.022919379335389
 21
3.77954241019807
 31
0.0
  0
LINE
  5
2B87
330
1E
100
AcDbEntity
  8
3
100
AcDbLine
 10
1.022919379335389
 20
3.476392803898858
 30
0.0
 11
0.9034968071569124
 21
3.476392803898858
 31
0.0
  0
LINE
  5
2B95
330
1E
100
AcDbEntity
  8
3
100
AcDbLine
 10
0.8615020565007437
 20
3.484266819646889
 30
0.0
 11
0.9034968071569124
 21
3.477705139856863
 31
0.0
  0
LINE
  5
2B9B
330
1E
100
AcDbEntity
  8
3
100
AcDbLine
 10
1.835255337340638
 20
3.833348184476284
 30
0.0
 11
1.835255337340638
 21
3.423899365578648
 31
0.0
  0
LINE
  5
2BA1
330
1E
100
AcDbEntity
  8
3
100
AcDbLine
 10
0.0911608491516631
 20
3.423899365578648
 30
0.0
 11
0.0885361772356523
 21
3.422587029620642
 31
0.0
  0
LINE
  5
2BA8
330
1E
100
AcDbEntity
  8
3
100
AcDbLine
 10
0.0281687231674113
 20
3.454083092612769
 30
0.0
 11
0.0281687231674113
 21
3.801852121484159
 31
0.0
  0
LINE
  5
2BAF
330
1E
100
AcDbEntity
  8
3
100
AcDbLine
 10
0.0885361772356523
 20
3.422587029620642
 30
0.0
 11
0.0596647861595372
 21
3.422587029620642
 31
0.0
  0
LINE
  5
2BB0
330
1E
100
AcDbEntity
  8
3
100
AcDbLine
 10
0.0596647861595372
 20
3.833348184476284
 30
0.0
 11
0.0885361772356523
 21
3.833348184476284
 31
0.0
  0
LINE
  5
2BB1
330
1E
100
AcDbEntity
  8
3
100
AcDbLine
 10
1.835255337340638
 20
3.833348184476284
 30
0.0
 11
1.837880009256648
 21
3.833348184476284
 31
0.0
  0
LINE
  5
2BB2
330
1E
100
AcDbEntity
  8
3
100
AcDbLine
 10
1.835255337340638
 20
3.423899365578648
 30
0.0
 11
1.837880009256648
 21
3.422587029620642
 31
0.0
  0
LINE
  5
2BB3
330
1E
100
AcDbEntity
  8
3
100
AcDbLine
 10
1.866751400332764
 20
3.422587029620642
 30
0.0
 11
1.837880009256648
 21
3.422587029620642
 31
0.0
  0
LINE
  5
2BBA
330
1E
100
AcDbEntity
  8
3
100
AcDbLine
 10
1.89824746332489
 20
3.801852121484159
 30
0.0
 11
1.89824746332489
 21
3.454083092612769
 31
0.0
  0
LINE
  5
2BC1
330
1E
100
AcDbEntity
  8
3
100
AcDbLine
 10
1.837880009256648
 20
3.833348184476284
 30
0.0
 11
1.866751400332764
 21
3.833348184476284
 31
0.0
  0
LINE
  5
2BC2
330
1E
100
AcDbEntity
  8
3
100
AcDbLine
 10
1.869376072248774
 20
3.834660520434291
 30
0.0
 11
1.866751400332764
 21
3.833348184476284
 31
0.0
  0
LINE
  5
2BC3
330
1E
100
AcDbEntity
  8
3
100
AcDbLine
 10
1.89824746332489
 20
3.801852121484159
 30
0.0
 11
1.900872135240901
 21
3.803164457442165
 31
0.0
  0
LINE
  5
2BC4
330
1E
100
AcDbEntity
  8
3
100
AcDbLine
 10
1.900872135240901
 20
3.454083092612769
 30
0.0
 11
1.89824746332489
 21
3.454083092612769
 31
0.0
  0
LINE
  5
2BC5
330
1E
100
AcDbEntity
  8
3
100
AcDbLine
 10
1.866751400332764
 20
3.422587029620642
 30
0.0
 11
1.869376072248774
 21
3.422587029620642
 31
0.0
  0
LINE
  5
2BC6
330
1E
100
AcDbEntity
  8
3
100
AcDbLine
 10
0.0570401142435264
 20
3.422587029620642
 30
0.0
 11
0.0596647861595372
 21
3.422587029620642
 31
0.0
  0
LINE
  5
2BC7
330
1E
100
AcDbEntity
  8
3
100
AcDbLine
 10
0.0281687231674113
 20
3.454083092612769
 30
0.0
 11
0.0255440512514005
 21
3.454083092612769
 31
0.0
  0
LINE
  5
2BC8
330
1E
100
AcDbEntity
  8
3
100
AcDbLine
 10
0.0255440512514005
 20
3.803164457442165
 30
0.0
 11
0.0281687231674113
 21
3.801852121484159
 31
0.0
  0
LINE
  5
2BC9
330
1E
100
AcDbEntity
  8
3
100
AcDbLine
 10
0.0596647861595372
 20
3.833348184476284
 30
0.0
 11
0.0570401142435264
 21
3.834660520434291
 31
0.0
  0
LINE
  5
2BCA
330
1E
100
AcDbEntity
  8
3
100
AcDbLine
 10
0.9034968071569124
 20
3.778230074240065
 30
0.0
 11
0.9034968071569124
 21
3.77954241019807
 31
0.0
  0
LINE
  5
2BCB
330
1E
100
AcDbEntity
  8
3
100
AcDbLine
 10
1.022919379335389
 20
3.778230074240065
 30
0.0
 11
0.9034968071569124
 21
3.778230074240065
 31
0.0
  0
LINE
  5
2BCC
330
1E
100
AcDbEntity
  8
3
100
AcDbLine
 10
1.022919379335389
 20
3.77954241019807
 30
0.0
 11
1.022919379335389
 21
3.778230074240065
 31
0.0
  0
LINE
  5
2BCD
330
1E
100
AcDbEntity
  8
3
100
AcDbLine
 10
1.022919379335389
 20
3.477705139856863
 30
0.0
 11
1.022919379335389
 21
3.476392803898858
 31
0.0
  0
LINE
  5
2BCE
330
1E
100
AcDbEntity
  8
3
100
AcDbLine
 10
0.9034968071569124
 20
3.477705139856863
 30
0.0
 11
1.022919379335389
 21
3.477705139856863
 31
0.0
  0
LINE
  5
2BCF
330
1E
100
AcDbEntity
  8
3
100
AcDbLine
 10
0.9034968071569124
 20
3.476392803898858
 30
0.0
 11
0.9034968071569124
 21
3.477705139856863
 31
0.0
  0
LINE
  5
2BEC
330
1E
100
AcDbEntity
  8
3
100
AcDbLine
 10
0.9034968071569124
 20
3.704739260591772
 30
0.0
 11
1.022919379335389
 21
3.704739260591772
 31
0.0
  0
LINE
  5
2BF8
330
1E
100
AcDbEntity
  8
3
100
AcDbLine
 10
0.9034968071569124
 20
3.551195953505157
 30
0.0
 11
1.022919379335389
 21
3.551195953505157
 31
0.0
  0
LINE
  5
2C04
330
1E
100
AcDbEntity
  8
3
100
AcDbLine
 10
0.9034968071569124
 20
3.551195953505157
 30
0.0
 11
1.022919379335389
 21
3.551195953505157
 31
0.0
  0
LINE
  5
2C05
330
1E
100
AcDbEntity
  8
3
100
AcDbLine
 10
0.9034968071569124
 20
3.704739260591772
 30
0.0
 11
1.022919379335389
 21
3.704739260591772
 31
0.0
  0
LINE
  5
2C06
330
1E
100
AcDbEntity
  8
3
100
AcDbLine
 10
1.068851137865573
 20
3.568256320959225
 30
0.0
 11
1.059664786159537
 21
3.560382305211194
 31
0.0
  0
LINE
  5
2C11
330
1E
100
AcDbEntity
  8
3
100
AcDbLine
 10
1.059664786159537
 20
3.695552908885735
 30
0.0
 11
1.068851137865573
 21
3.687678893137703
 31
0.0
  0
LINE
  5
2C17
330
1E
100
AcDbEntity
  8
3
100
AcDbLine
 10
0.8667514003327649
 20
3.560382305211194
 30
0.0
 11
0.8575650486267285
 21
3.568256320959225
 31
0.0
  0
LINE
  5
2C18
330
1E
100
AcDbEntity
  8
3
100
AcDbLine
 10
0.8575650486267285
 20
3.687678893137703
 30
0.0
 11
0.8667514003327649
 21
3.695552908885735
 31
0.0
  0
LINE
  5
2C1E
330
1E
100
AcDbEntity
  8
3
100
AcDbLine
 10
0.8667514003327649
 20
3.695552908885735
 30
0.0
 11
1.059664786159537
 21
3.695552908885735
 31
0.0
  0
LINE
  5
2C1F
330
1E
100
AcDbEntity
  8
3
100
AcDbLine
 10
1.068851137865573
 20
3.687678893137703
 30
0.0
 11
0.8575650486267285
 21
3.687678893137703
 31
0.0
  0
LINE
  5
2C20
330
1E
100
AcDbEntity
  8
3
100
AcDbLine
 10
0.8667514003327649
 20
3.560382305211194
 30
0.0
 11
1.059664786159537
 21
3.560382305211194
 31
0.0
  0
LINE
  5
2C21
330
1E
100
AcDbEntity
  8
3
100
AcDbLine
 10
1.068851137865573
 20
3.568256320959225
 30
0.0
 11
0.8575650486267285
 21
3.568256320959225
 31
0.0
  0
LINE
  5
2C22
330
1E
100
AcDbEntity
  8
3
100
AcDbLine
 10
4.349691032878693
 20
3.242797003373924
 30
0.0
 11
4.349691032878693
 21
7.287416425946098
 31
0.0
  0
LINE
  5
2C23
330
1E
100
AcDbEntity
  8
3
100
AcDbLine
 10
4.563601794033549
 20
7.511825874764997
 30
0.0
 11
4.625281584059796
 21
7.514450546681007
 31
0.0
  0
LINE
  5
2C2B
330
1E
100
AcDbEntity
  8
3
100
AcDbLine
 10
4.625281584059796
 20
3.01445054668101
 30
0.0
 11
4.563601794033549
 21
3.018387554555026
 31
0.0
  0
LINE
  5
2C3A
330
1E
100
AcDbEntity
  8
3
100
AcDbLine
 10
4.349691032878693
 20
3.242797003373924
 30
0.0
 11
4.35362804075271
 21
3.211300940381798
 31
0.0
  0
LINE
  5
2C6F
330
1E
100
AcDbEntity
  8
3
100
AcDbLine
 10
4.563601794033549
 20
3.018387554555026
 30
0.0
 11
4.562289458075544
 21
3.026261570303058
 31
0.0
  0
LINE
  5
2C75
330
1E
100
AcDbEntity
  8
3
100
AcDbLine
 10
4.801134602432499
 20
4.8372851923503
 30
0.0
 11
4.801134602432499
 21
4.875342935132452
 31
0.0
  0
LINE
  5
2C7D
330
1E
100
AcDbEntity
  8
3
100
AcDbLine
 10
4.730268460700216
 20
4.935710389200694
 30
0.0
 11
4.742079484322262
 21
4.935710389200694
 31
0.0
  0
LINE
  5
2C7E
330
1E
100
AcDbEntity
  8
3
100
AcDbLine
 10
4.801134602432499
 20
5.763794378702005
 30
0.0
 11
4.801134602432499
 21
5.801852121484158
 31
0.0
  0
LINE
  5
2C86
330
1E
100
AcDbEntity
  8
3
100
AcDbLine
 10
4.625281584059796
 20
4.83466052043429
 30
0.0
 11
4.801134602432499
 21
4.8372851923503
 31
0.0
  0
LINE
  5
2C87
330
1E
100
AcDbEntity
  8
3
100
AcDbLine
 10
4.625281584059796
 20
5.804476793400168
 30
0.0
 11
4.801134602432499
 21
5.801852121484158
 31
0.0
  0
LINE
  5
2C88
330
1E
100
AcDbEntity
  8
3
100
AcDbLine
 10
4.730268460700216
 20
4.935710389200694
 30
0.0
 11
4.730268460700216
 21
5.703426924633763
 31
0.0
  0
LINE
  5
2C89
330
1E
100
AcDbEntity
  8
3
100
AcDbLine
 10
4.730268460700216
 20
5.703426924633763
 30
0.0
 11
4.742079484322262
 21
5.703426924633763
 31
0.0
  0
LINE
  5
2C8D
330
1E
100
AcDbEntity
  8
3
100
AcDbLine
 10
4.801134602432499
 20
5.763794378702005
 30
0.0
 11
4.797197594558483
 21
5.741484667415917
 31
0.0
  0
LINE
  5
2C8E
330
1E
100
AcDbEntity
  8
3
100
AcDbLine
 10
4.797197594558483
 20
5.741484667415917
 30
0.0
 11
4.78407423497843
 21
5.721799628045838
 31
0.0
  0
LINE
  5
2C8F
330
1E
100
AcDbEntity
  8
3
100
AcDbLine
 10
4.78407423497843
 20
5.721799628045838
 30
0.0
 11
4.764389195608353
 21
5.708676268465785
 31
0.0
  0
LINE
  5
2C90
330
1E
100
AcDbEntity
  8
3
100
AcDbLine
 10
4.764389195608353
 20
5.708676268465785
 30
0.0
 11
4.742079484322262
 21
5.703426924633763
 31
0.0
  0
LINE
  5
2C91
330
1E
100
AcDbEntity
  8
3
100
AcDbLine
 10
4.742079484322262
 20
4.935710389200694
 30
0.0
 11
4.764389195608353
 21
4.930461045368673
 31
0.0
  0
LINE
  5
2C92
330
1E
100
AcDbEntity
  8
3
100
AcDbLine
 10
4.764389195608353
 20
4.930461045368673
 30
0.0
 11
4.78407423497843
 21
4.91733768578862
 31
0.0
  0
LINE
  5
2C93
330
1E
100
AcDbEntity
  8
3
100
AcDbLine
 10
4.78407423497843
 20
4.91733768578862
 30
0.0
 11
4.797197594558483
 21
4.897652646418542
 31
0.0
  0
LINE
  5
2C94
330
1E
100
AcDbEntity
  8
3
100
AcDbLine
 10
4.797197594558483
 20
4.897652646418542
 30
0.0
 11
4.801134602432499
 21
4.875342935132452
 31
0.0
  0
LINE
  5
2C95
330
1E
100
AcDbEntity
  8
3
100
AcDbLine
 10
4.562289458075544
 20
3.026261570303058
 30
0.0
 11
4.562289458075544
 21
3.048571281589147
 31
0.0
  0
LINE
  5
2C96
330
1E
100
AcDbEntity
  8
3
100
AcDbLine
 10
4.562289458075544
 20
3.048571281589147
 30
0.0
 11
4.563601794033549
 21
3.077442672665262
 31
0.0
  0
LINE
  5
2C97
330
1E
100
AcDbEntity
  8
3
100
AcDbLine
 10
4.563601794033549
 20
7.451458420696755
 30
0.0
 11
4.562289458075544
 21
7.481642147730876
 31
0.0
  0
LINE
  5
2C98
330
1E
100
AcDbEntity
  8
3
100
AcDbLine
 10
4.562289458075544
 20
7.481642147730876
 30
0.0
 11
4.562289458075544
 21
7.503951859016964
 31
0.0
  0
LINE
  5
2C99
330
1E
100
AcDbEntity
  8
3
100
AcDbLine
 10
4.562289458075544
 20
7.503951859016964
 30
0.0
 11
4.563601794033549
 21
7.511825874764997
 31
0.0
  0
LINE
  5
2C9A
330
1E
100
AcDbEntity
  8
3
100
AcDbLine
 10
4.349691032878693
 20
7.287416425946098
 30
0.0
 11
4.35362804075271
 21
7.329411176602267
 31
0.0
  0
LINE
  5
2C9B
330
1E
100
AcDbEntity
  8
3
100
AcDbLine
 10
4.35362804075271
 20
7.329411176602267
 30
0.0
 11
4.365439064374756
 21
7.370093591300429
 31
0.0
  0
LINE
  5
2C9C
330
1E
100
AcDbEntity
  8
3
100
AcDbLine
 10
4.365439064374756
 20
7.370093591300429
 30
0.0
 11
4.385124103744836
 21
7.408151334082582
 31
0.0
  0
LINE
  5
2C9D
330
1E
100
AcDbEntity
  8
3
100
AcDbLine
 10
4.385124103744836
 20
7.408151334082582
 30
0.0
 11
4.41137082290494
 21
7.442272068990718
 31
0.0
  0
LINE
  5
2C9E
330
1E
100
AcDbEntity
  8
3
100
AcDbLine
 10
4.41137082290494
 20
7.442272068990718
 30
0.0
 11
4.444179221855071
 21
7.469831124108828
 31
0.0
  0
LINE
  5
2C9F
330
1E
100
AcDbEntity
  8
3
100
AcDbLine
 10
4.444179221855071
 20
7.469831124108828
 30
0.0
 11
4.480924628679218
 21
7.490828499436913
 31
0.0
  0
LINE
  5
2CA0
330
1E
100
AcDbEntity
  8
3
100
AcDbLine
 10
4.480924628679218
 20
7.490828499436913
 30
0.0
 11
4.521607043377381
 21
7.505264194974969
 31
0.0
  0
LINE
  5
2CA1
330
1E
100
AcDbEntity
  8
3
100
AcDbLine
 10
4.521607043377381
 20
7.505264194974969
 30
0.0
 11
4.563601794033549
 21
7.511825874764997
 31
0.0
  0
LINE
  5
2CA2
330
1E
100
AcDbEntity
  8
3
100
AcDbLine
 10
4.563601794033549
 20
3.018387554555026
 30
0.0
 11
4.521607043377381
 21
3.024949234345053
 31
0.0
  0
LINE
  5
2CA3
330
1E
100
AcDbEntity
  8
3
100
AcDbLine
 10
4.521607043377381
 20
3.024949234345053
 30
0.0
 11
4.480924628679218
 21
3.038072593925105
 31
0.0
  0
LINE
  5
2CA4
330
1E
100
AcDbEntity
  8
3
100
AcDbLine
 10
4.480924628679218
 20
3.038072593925105
 30
0.0
 11
4.444179221855071
 21
3.060382305211194
 31
0.0
  0
LINE
  5
2CA5
330
1E
100
AcDbEntity
  8
3
100
AcDbLine
 10
4.444179221855071
 20
3.060382305211194
 30
0.0
 11
4.41137082290494
 21
3.087941360329304
 31
0.0
  0
LINE
  5
2CA6
330
1E
100
AcDbEntity
  8
3
100
AcDbLine
 10
4.41137082290494
 20
3.087941360329304
 30
0.0
 11
4.385124103744836
 21
3.122062095237441
 31
0.0
  0
LINE
  5
2CA7
330
1E
100
AcDbEntity
  8
3
100
AcDbLine
 10
4.385124103744836
 20
3.122062095237441
 30
0.0
 11
4.365439064374756
 21
3.158807502061588
 31
0.0
  0
LINE
  5
2CA8
330
1E
100
AcDbEntity
  8
3
100
AcDbLine
 10
4.365439064374756
 20
3.158807502061588
 30
0.0
 11
4.35362804075271
 21
3.200802252717756
 31
0.0
  0
LINE
  5
2CA9
330
1E
100
AcDbEntity
  8
3
100
AcDbLine
 10
4.35362804075271
 20
3.200802252717756
 30
0.0
 11
4.349691032878693
 21
3.242797003373924
 31
0.0
  0
LINE
  5
2CAA
330
1E
100
AcDbEntity
  8
3
100
AcDbLine
 10
4.385124103744836
 20
7.37534293513245
 30
0.0
 11
4.365439064374756
 21
7.34778388001434
 31
0.0
  0
LINE
  5
2CAB
330
1E
100
AcDbEntity
  8
3
100
AcDbLine
 10
4.365439064374756
 20
7.34778388001434
 30
0.0
 11
4.35362804075271
 21
7.317600152980219
 31
0.0
  0
LINE
  5
2CAC
330
1E
100
AcDbEntity
  8
3
100
AcDbLine
 10
4.35362804075271
 20
7.317600152980219
 30
0.0
 11
4.349691032878693
 21
7.287416425946098
 31
0.0
  0
LINE
  5
2CAD
330
1E
100
AcDbEntity
  8
3
100
AcDbLine
 10
4.563601794033549
 20
7.451458420696755
 30
0.0
 11
4.521607043377381
 21
7.447521412822739
 31
0.0
  0
LINE
  5
2CAE
330
1E
100
AcDbEntity
  8
3
100
AcDbLine
 10
4.521607043377381
 20
7.447521412822739
 30
0.0
 11
4.480924628679218
 21
7.437022725158697
 31
0.0
  0
LINE
  5
2CAF
330
1E
100
AcDbEntity
  8
3
100
AcDbLine
 10
4.480924628679218
 20
7.437022725158697
 30
0.0
 11
4.444179221855071
 21
7.421274693662634
 31
0.0
  0
LINE
  5
2CB0
330
1E
100
AcDbEntity
  8
3
100
AcDbLine
 10
4.444179221855071
 20
7.421274693662634
 30
0.0
 11
4.41137082290494
 21
7.40027731833455
 31
0.0
  0
LINE
  5
2CB1
330
1E
100
AcDbEntity
  8
3
100
AcDbLine
 10
4.41137082290494
 20
7.40027731833455
 30
0.0
 11
4.385124103744836
 21
7.37534293513245
 31
0.0
  0
LINE
  5
2CB2
330
1E
100
AcDbEntity
  8
3
100
AcDbLine
 10
4.35362804075271
 20
3.211300940381798
 30
0.0
 11
4.365439064374756
 21
3.181117213347677
 31
0.0
  0
LINE
  5
2CB3
330
1E
100
AcDbEntity
  8
3
100
AcDbLine
 10
4.365439064374756
 20
3.181117213347677
 30
0.0
 11
4.385124103744836
 21
3.153558158229567
 31
0.0
  0
LINE
  5
2CB4
330
1E
100
AcDbEntity
  8
3
100
AcDbLine
 10
4.385124103744836
 20
3.153558158229567
 30
0.0
 11
4.41137082290494
 21
3.128623775027467
 31
0.0
  0
LINE
  5
2CB5
330
1E
100
AcDbEntity
  8
3
100
AcDbLine
 10
4.41137082290494
 20
3.128623775027467
 30
0.0
 11
4.444179221855071
 21
3.108938735657389
 31
0.0
  0
LINE
  5
2CB6
330
1E
100
AcDbEntity
  8
3
100
AcDbLine
 10
4.444179221855071
 20
3.108938735657389
 30
0.0
 11
4.480924628679218
 21
3.093190704161325
 31
0.0
  0
LINE
  5
2CB7
330
1E
100
AcDbEntity
  8
3
100
AcDbLine
 10
4.480924628679218
 20
3.093190704161325
 30
0.0
 11
4.521607043377381
 21
3.082692016497283
 31
0.0
  0
LINE
  5
2CB8
330
1E
100
AcDbEntity
  8
3
100
AcDbLine
 10
4.521607043377381
 20
3.082692016497283
 30
0.0
 11
4.563601794033549
 21
3.077442672665262
 31
0.0
  0
LINE
  5
2CB9
330
1E
100
AcDbEntity
  8
3
100
AcDbLine
 10
4.625281584059796
 20
7.514450546681007
 30
0.0
 11
4.625281584059796
 21
7.510513538806991
 31
0.0
  0
LINE
  5
2CBA
330
1E
100
AcDbEntity
  8
3
100
AcDbLine
 10
4.625281584059796
 20
7.510513538806991
 30
0.0
 11
4.625281584059796
 21
7.497390179226939
 31
0.0
  0
LINE
  5
2CBB
330
1E
100
AcDbEntity
  8
3
100
AcDbLine
 10
4.625281584059796
 20
7.497390179226939
 30
0.0
 11
4.625281584059796
 21
7.47770513985686
 31
0.0
  0
LINE
  5
2CBC
330
1E
100
AcDbEntity
  8
3
100
AcDbLine
 10
4.625281584059796
 20
7.47770513985686
 30
0.0
 11
4.625281584059796
 21
7.455395428570771
 31
0.0
  0
LINE
  5
2CBD
330
1E
100
AcDbEntity
  8
3
100
AcDbLine
 10
4.625281584059796
 20
3.074818000749252
 30
0.0
 11
4.625281584059796
 21
3.051195953505157
 31
0.0
  0
LINE
  5
2CBE
330
1E
100
AcDbEntity
  8
3
100
AcDbLine
 10
4.625281584059796
 20
3.051195953505157
 30
0.0
 11
4.625281584059796
 21
3.032823250093084
 31
0.0
  0
LINE
  5
2CBF
330
1E
100
AcDbEntity
  8
3
100
AcDbLine
 10
4.625281584059796
 20
3.032823250093084
 30
0.0
 11
4.625281584059796
 21
3.019699890513031
 31
0.0
  0
LINE
  5
2CC0
330
1E
100
AcDbEntity
  8
3
100
AcDbLine
 10
4.625281584059796
 20
3.019699890513031
 30
0.0
 11
4.625281584059796
 21
3.01445054668101
 31
0.0
  0
LINE
  5
2CC1
330
1E
100
AcDbEntity
  8
3
100
AcDbLine
 10
4.563601794033549
 20
7.451458420696755
 30
0.0
 11
4.563601794033549
 21
3.077442672665262
 31
0.0
  0
LINE
  5
2CC2
330
1E
100
AcDbEntity
  8
3
100
AcDbLine
 10
4.563601794033549
 20
3.077442672665262
 30
0.0
 11
4.625281584059796
 21
3.074818000749252
 31
0.0
  0
LINE
  5
2CC3
330
1E
100
AcDbEntity
  8
3
100
AcDbLine
 10
4.625281584059796
 20
3.074818000749252
 30
0.0
 11
4.625281584059796
 21
7.455395428570771
 31
0.0
  0
LINE
  5
2CC4
330
1E
100
AcDbEntity
  8
3
100
AcDbLine
 10
4.625281584059796
 20
7.455395428570771
 30
0.0
 11
4.563601794033549
 21
7.451458420696755
 31
0.0
  0
LINE
  5
2CC5
330
1E
100
AcDbEntity
  8
3
100
AcDbLine
 10
0.9034968071569124
 20
3.704739260591772
 30
0.0
 11
0.8851241037448392
 21
3.70211458867576
 31
0.0
  0
LINE
  5
2CC6
330
1E
100
AcDbEntity
  8
3
100
AcDbLine
 10
0.8851241037448392
 20
3.70211458867576
 30
0.0
 11
0.8680637362907702
 21
3.695552908885735
 31
0.0
  0
LINE
  5
2CC7
330
1E
100
AcDbEntity
  8
3
100
AcDbLine
 10
0.8680637362907702
 20
3.561694641169199
 30
0.0
 11
0.8851241037448392
 21
3.555132961379173
 31
0.0
  0
LINE
  5
2CC8
330
1E
100
AcDbEntity
  8
3
100
AcDbLine
 10
0.8851241037448392
 20
3.555132961379173
 30
0.0
 11
0.9034968071569124
 21
3.552508289463162
 31
0.0
  0
LINE
  5
2CC9
330
1E
100
AcDbEntity
  8
3
100
AcDbLine
 10
1.058352450201531
 20
3.695552908885735
 30
0.0
 11
1.041292082747462
 21
3.70211458867576
 31
0.0
  0
LINE
  5
2CCA
330
1E
100
AcDbEntity
  8
3
100
AcDbLine
 10
1.041292082747462
 20
3.70211458867576
 30
0.0
 11
1.022919379335389
 21
3.704739260591772
 31
0.0
  0
LINE
  5
2CCB
330
1E
100
AcDbEntity
  8
3
100
AcDbLine
 10
1.022919379335389
 20
3.552508289463162
 30
0.0
 11
1.041292082747462
 21
3.555132961379173
 31
0.0
  0
LINE
  5
2CCC
330
1E
100
AcDbEntity
  8
3
100
AcDbLine
 10
1.041292082747462
 20
3.555132961379173
 30
0.0
 11
1.058352450201531
 21
3.561694641169199
 31
0.0
  0
LINE
  5
2CCD
330
1E
100
AcDbEntity
  8
3
100
AcDbLine
 10
0.9034968071569124
 20
3.704739260591772
 30
0.0
 11
0.8746254160807964
 21
3.699489916759751
 31
0.0
  0
LINE
  5
2CCE
330
1E
100
AcDbEntity
  8
3
100
AcDbLine
 10
0.8746254160807964
 20
3.699489916759751
 30
0.0
 11
0.849691032878697
 21
3.682429549305682
 31
0.0
  0
LINE
  5
2CCF
330
1E
100
AcDbEntity
  8
3
100
AcDbLine
 10
0.849691032878697
 20
3.682429549305682
 30
0.0
 11
0.8326306654246288
 21
3.657495166103583
 31
0.0
  0
LINE
  5
2CD0
330
1E
100
AcDbEntity
  8
3
100
AcDbLine
 10
0.8326306654246288
 20
3.657495166103583
 30
0.0
 11
0.8273813215926075
 21
3.628623775027467
 31
0.0
  0
LINE
  5
2CD1
330
1E
100
AcDbEntity
  8
3
100
AcDbLine
 10
0.8273813215926075
 20
3.628623775027467
 30
0.0
 11
0.8326306654246288
 21
3.599752383951351
 31
0.0
  0
LINE
  5
2CD2
330
1E
100
AcDbEntity
  8
3
100
AcDbLine
 10
0.8326306654246288
 20
3.599752383951351
 30
0.0
 11
0.849691032878697
 21
3.574818000749252
 31
0.0
  0
LINE
  5
2CD3
330
1E
100
AcDbEntity
  8
3
100
AcDbLine
 10
0.849691032878697
 20
3.574818000749252
 30
0.0
 11
0.8746254160807964
 21
3.557757633295183
 31
0.0
  0
LINE
  5
2CD4
330
1E
100
AcDbEntity
  8
3
100
AcDbLine
 10
0.8746254160807964
 20
3.557757633295183
 30
0.0
 11
0.9034968071569124
 21
3.552508289463162
 31
0.0
  0
LINE
  5
2CD5
330
1E
100
AcDbEntity
  8
3
100
AcDbLine
 10
1.022919379335389
 20
3.552508289463162
 30
0.0
 11
1.051790770411505
 21
3.557757633295183
 31
0.0
  0
LINE
  5
2CD6
330
1E
100
AcDbEntity
  8
3
100
AcDbLine
 10
1.051790770411505
 20
3.557757633295183
 30
0.0
 11
1.076725153613605
 21
3.574818000749252
 31
0.0
  0
LINE
  5
2CD7
330
1E
100
AcDbEntity
  8
3
100
AcDbLine
 10
1.076725153613605
 20
3.574818000749252
 30
0.0
 11
1.093785521067673
 21
3.599752383951351
 31
0.0
  0
LINE
  5
2CD8
330
1E
100
AcDbEntity
  8
3
100
AcDbLine
 10
1.093785521067673
 20
3.599752383951351
 30
0.0
 11
1.099034864899694
 21
3.628623775027467
 31
0.0
  0
LINE
  5
2CD9
330
1E
100
AcDbEntity
  8
3
100
AcDbLine
 10
1.099034864899694
 20
3.628623775027467
 30
0.0
 11
1.093785521067673
 21
3.657495166103583
 31
0.0
  0
LINE
  5
2CDA
330
1E
100
AcDbEntity
  8
3
100
AcDbLine
 10
1.093785521067673
 20
3.657495166103583
 30
0.0
 11
1.076725153613605
 21
3.682429549305682
 31
0.0
  0
LINE
  5
2CDB
330
1E
100
AcDbEntity
  8
3
100
AcDbLine
 10
1.076725153613605
 20
3.682429549305682
 30
0.0
 11
1.051790770411505
 21
3.699489916759751
 31
0.0
  0
LINE
  5
2CDC
330
1E
100
AcDbEntity
  8
3
100
AcDbLine
 10
1.051790770411505
 20
3.699489916759751
 30
0.0
 11
1.022919379335389
 21
3.704739260591772
 31
0.0
  0
LINE
  5
2CDD
330
1E
100
AcDbEntity
  8
3
100
AcDbLine
 10
0.9034968071569124
 20
3.778230074240065
 30
0.0
 11
0.8615020565007437
 21
3.771668394450038
 31
0.0
  0
LINE
  5
2CDE
330
1E
100
AcDbEntity
  8
3
100
AcDbLine
 10
0.8615020565007437
 20
3.771668394450038
 30
0.0
 11
0.8221319777605863
 21
3.75460802699597
 31
0.0
  0
LINE
  5
2CDF
330
1E
100
AcDbEntity
  8
3
100
AcDbLine
 10
0.8221319777605863
 20
3.75460802699597
 30
0.0
 11
0.7906359147684606
 21
3.727048971877861
 31
0.0
  0
LINE
  5
2CE0
330
1E
100
AcDbEntity
  8
3
100
AcDbLine
 10
0.7906359147684606
 20
3.727048971877861
 30
0.0
 11
0.7670138675243661
 21
3.690303565053714
 31
0.0
  0
LINE
  5
2CE1
330
1E
100
AcDbEntity
  8
3
100
AcDbLine
 10
0.7670138675243661
 20
3.690303565053714
 30
0.0
 11
0.7552028439023193
 21
3.649621150355551
 31
0.0
  0
LINE
  5
2CE2
330
1E
100
AcDbEntity
  8
3
100
AcDbLine
 10
0.7552028439023193
 20
3.649621150355551
 30
0.0
 11
0.7552028439023193
 21
3.607626399699383
 31
0.0
  0
LINE
  5
2CE3
330
1E
100
AcDbEntity
  8
3
100
AcDbLine
 10
0.7552028439023193
 20
3.607626399699383
 30
0.0
 11
0.7670138675243661
 21
3.56694398500122
 31
0.0
  0
LINE
  5
2CE4
330
1E
100
AcDbEntity
  8
3
100
AcDbLine
 10
0.7670138675243661
 20
3.56694398500122
 30
0.0
 11
0.7906359147684606
 21
3.530198578177073
 31
0.0
  0
LINE
  5
2CE5
330
1E
100
AcDbEntity
  8
3
100
AcDbLine
 10
0.7906359147684606
 20
3.530198578177073
 30
0.0
 11
0.8221319777605863
 21
3.502639523058963
 31
0.0
  0
LINE
  5
2CE6
330
1E
100
AcDbEntity
  8
3
100
AcDbLine
 10
0.8221319777605863
 20
3.502639523058963
 30
0.0
 11
0.8615020565007437
 21
3.485579155604895
 31
0.0
  0
LINE
  5
2CE7
330
1E
100
AcDbEntity
  8
3
100
AcDbLine
 10
0.8615020565007437
 20
3.485579155604895
 30
0.0
 11
0.9034968071569124
 21
3.479017475814868
 31
0.0
  0
LINE
  5
2CE8
330
1E
100
AcDbEntity
  8
3
100
AcDbLine
 10
1.022919379335389
 20
3.479017475814868
 30
0.0
 11
1.064914129991557
 21
3.485579155604895
 31
0.0
  0
LINE
  5
2CE9
330
1E
100
AcDbEntity
  8
3
100
AcDbLine
 10
1.064914129991557
 20
3.485579155604895
 30
0.0
 11
1.104284208731715
 21
3.502639523058963
 31
0.0
  0
LINE
  5
2CEA
330
1E
100
AcDbEntity
  8
3
100
AcDbLine
 10
1.104284208731715
 20
3.502639523058963
 30
0.0
 11
1.135780271723841
 21
3.530198578177073
 31
0.0
  0
LINE
  5
2CEB
330
1E
100
AcDbEntity
  8
3
100
AcDbLine
 10
1.135780271723841
 20
3.530198578177073
 30
0.0
 11
1.159402318967935
 21
3.56694398500122
 31
0.0
  0
LINE
  5
2CEC
330
1E
100
AcDbEntity
  8
3
100
AcDbLine
 10
1.159402318967935
 20
3.56694398500122
 30
0.0
 11
1.171213342589982
 21
3.607626399699383
 31
0.0
  0
LINE
  5
2CED
330
1E
100
AcDbEntity
  8
3
100
AcDbLine
 10
1.171213342589982
 20
3.607626399699383
 30
0.0
 11
1.171213342589982
 21
3.649621150355551
 31
0.0
  0
LINE
  5
2CEE
330
1E
100
AcDbEntity
  8
3
100
AcDbLine
 10
1.171213342589982
 20
3.649621150355551
 30
0.0
 11
1.159402318967935
 21
3.690303565053714
 31
0.0
  0
LINE
  5
2CEF
330
1E
100
AcDbEntity
  8
3
100
AcDbLine
 10
1.159402318967935
 20
3.690303565053714
 30
0.0
 11
1.135780271723841
 21
3.727048971877861
 31
0.0
  0
LINE
  5
2CF0
330
1E
100
AcDbEntity
  8
3
100
AcDbLine
 10
1.135780271723841
 20
3.727048971877861
 30
0.0
 11
1.104284208731715
 21
3.75460802699597
 31
0.0
  0
LINE
  5
2CF1
330
1E
100
AcDbEntity
  8
3
100
AcDbLine
 10
1.104284208731715
 20
3.75460802699597
 30
0.0
 11
1.064914129991557
 21
3.771668394450038
 31
0.0
  0
LINE
  5
2CF2
330
1E
100
AcDbEntity
  8
3
100
AcDbLine
 10
1.064914129991557
 20
3.771668394450038
 30
0.0
 11
1.022919379335389
 21
3.778230074240065
 31
0.0
  0
LINE
  5
2CF3
330
1E
100
AcDbEntity
  8
3
100
AcDbLine
 10
1.866751400332764
 20
3.833348184476284
 30
0.0
 11
1.882499431828827
 21
3.82941117660227
 31
0.0
  0
LINE
  5
2CF4
330
1E
100
AcDbEntity
  8
3
100
AcDbLine
 10
1.882499431828827
 20
3.82941117660227
 30
0.0
 11
1.894310455450874
 21
3.817600152980222
 31
0.0
  0
LINE
  5
2CF5
330
1E
100
AcDbEntity
  8
3
100
AcDbLine
 10
1.894310455450874
 20
3.817600152980222
 30
0.0
 11
1.89824746332489
 21
3.801852121484159
 31
0.0
  0
LINE
  5
2CF6
330
1E
100
AcDbEntity
  8
3
100
AcDbLine
 10
1.89824746332489
 20
3.454083092612769
 30
0.0
 11
1.894310455450874
 21
3.438335061116705
 31
0.0
  0
LINE
  5
2CF7
330
1E
100
AcDbEntity
  8
3
100
AcDbLine
 10
1.894310455450874
 20
3.438335061116705
 30
0.0
 11
1.882499431828827
 21
3.426524037494658
 31
0.0
  0
LINE
  5
2CF8
330
1E
100
AcDbEntity
  8
3
100
AcDbLine
 10
1.882499431828827
 20
3.426524037494658
 30
0.0
 11
1.866751400332764
 21
3.422587029620642
 31
0.0
  0
LINE
  5
2CF9
330
1E
100
AcDbEntity
  8
3
100
AcDbLine
 10
0.0596647861595372
 20
3.422587029620642
 30
0.0
 11
0.0439167546634742
 21
3.426524037494658
 31
0.0
  0
LINE
  5
2CFA
330
1E
100
AcDbEntity
  8
3
100
AcDbLine
 10
0.0439167546634742
 20
3.426524037494658
 30
0.0
 11
0.032105731041427
 21
3.438335061116705
 31
0.0
  0
LINE
  5
2CFB
330
1E
100
AcDbEntity
  8
3
100
AcDbLine
 10
0.032105731041427
 20
3.438335061116705
 30
0.0
 11
0.0281687231674113
 21
3.454083092612769
 31
0.0
  0
LINE
  5
2CFC
330
1E
100
AcDbEntity
  8
3
100
AcDbLine
 10
0.0281687231674113
 20
3.801852121484159
 30
0.0
 11
0.032105731041427
 21
3.817600152980222
 31
0.0
  0
LINE
  5
2CFD
330
1E
100
AcDbEntity
  8
3
100
AcDbLine
 10
0.032105731041427
 20
3.817600152980222
 30
0.0
 11
0.0439167546634742
 21
3.82941117660227
 31
0.0
  0
LINE
  5
2CFE
330
1E
100
AcDbEntity
  8
3
100
AcDbLine
 10
0.0439167546634742
 20
3.82941117660227
 30
0.0
 11
0.0596647861595372
 21
3.833348184476284
 31
0.0
  0
LINE
  5
2CFF
330
1E
100
AcDbEntity
  8
3
100
AcDbLine
 10
1.835255337340638
 20
3.833348184476284
 30
0.0
 11
0.0911608491516631
 21
3.833348184476284
 31
0.0
  0
LINE
  5
2D00
330
1E
100
AcDbEntity
  8
3
100
AcDbLine
 10
0.0911608491516631
 20
3.833348184476284
 30
0.0
 11
0.0885361772356523
 21
3.833348184476284
 31
0.0
  0
LINE
  5
2D01
330
1E
100
AcDbEntity
  8
3
100
AcDbLine
 10
0.0911608491516631
 20
3.833348184476284
 30
0.0
 11
0.0911608491516631
 21
3.423899365578648
 31
0.0
  0
LINE
  5
2D02
330
1E
100
AcDbEntity
  8
3
100
AcDbLine
 10
0.0911608491516631
 20
3.423899365578648
 30
0.0
 11
1.835255337340638
 21
3.423899365578648
 31
0.0
  0
LINE
  5
2D03
330
1E
100
AcDbEntity
  8
3
100
AcDbLine
 10
0.9034968071569124
 20
3.77954241019807
 30
0.0
 11
0.8615020565007437
 21
3.772980730408044
 31
0.0
  0
LINE
  5
2D04
330
1E
100
AcDbEntity
  8
3
100
AcDbLine
 10
0.8615020565007437
 20
3.772980730408044
 30
0.0
 11
0.8221319777605863
 21
3.755920362953975
 31
0.0
  0
LINE
  5
2D05
330
1E
100
AcDbEntity
  8
3
100
AcDbLine
 10
0.8221319777605863
 20
3.755920362953975
 30
0.0
 11
0.7893235788104556
 21
3.727048971877861
 31
0.0
  0
LINE
  5
2D06
330
1E
100
AcDbEntity
  8
3
100
AcDbLine
 10
0.7893235788104556
 20
3.727048971877861
 30
0.0
 11
0.7657015315663612
 21
3.691615901011719
 31
0.0
  0
LINE
  5
2D07
330
1E
100
AcDbEntity
  8
3
100
AcDbLine
 10
0.7657015315663612
 20
3.691615901011719
 30
0.0
 11
0.7538905079443139
 21
3.649621150355551
 31
0.0
  0
LINE
  5
2D08
330
1E
100
AcDbEntity
  8
3
100
AcDbLine
 10
0.7538905079443139
 20
3.649621150355551
 30
0.0
 11
0.7538905079443139
 21
3.607626399699383
 31
0.0
  0
LINE
  5
2D09
330
1E
100
AcDbEntity
  8
3
100
AcDbLine
 10
0.7538905079443139
 20
3.607626399699383
 30
0.0
 11
0.7657015315663612
 21
3.565631649043215
 31
0.0
  0
LINE
  5
2D0A
330
1E
100
AcDbEntity
  8
3
100
AcDbLine
 10
0.7657015315663612
 20
3.565631649043215
 30
0.0
 11
0.7893235788104556
 21
3.530198578177073
 31
0.0
  0
LINE
  5
2D0B
330
1E
100
AcDbEntity
  8
3
100
AcDbLine
 10
0.7893235788104556
 20
3.530198578177073
 30
0.0
 11
0.8221319777605863
 21
3.501327187100958
 31
0.0
  0
LINE
  5
2D0C
330
1E
100
AcDbEntity
  8
3
100
AcDbLine
 10
0.8221319777605863
 20
3.501327187100958
 30
0.0
 11
0.8615020565007437
 21
3.484266819646889
 31
0.0
  0
LINE
  5
2D0D
330
1E
100
AcDbEntity
  8
3
100
AcDbLine
 10
1.022919379335389
 20
3.477705139856863
 30
0.0
 11
1.064914129991557
 21
3.484266819646889
 31
0.0
  0
LINE
  5
2D0E
330
1E
100
AcDbEntity
  8
3
100
AcDbLine
 10
1.064914129991557
 20
3.484266819646889
 30
0.0
 11
1.104284208731715
 21
3.501327187100958
 31
0.0
  0
LINE
  5
2D0F
330
1E
100
AcDbEntity
  8
3
100
AcDbLine
 10
1.104284208731715
 20
3.501327187100958
 30
0.0
 11
1.137092607681846
 21
3.530198578177073
 31
0.0
  0
LINE
  5
2D10
330
1E
100
AcDbEntity
  8
3
100
AcDbLine
 10
1.137092607681846
 20
3.530198578177073
 30
0.0
 11
1.16071465492594
 21
3.565631649043215
 31
0.0
  0
LINE
  5
2D11
330
1E
100
AcDbEntity
  8
3
100
AcDbLine
 10
1.16071465492594
 20
3.565631649043215
 30
0.0
 11
1.172525678547988
 21
3.607626399699383
 31
0.0
  0
LINE
  5
2D12
330
1E
100
AcDbEntity
  8
3
100
AcDbLine
 10
1.172525678547988
 20
3.607626399699383
 30
0.0
 11
1.172525678547988
 21
3.649621150355551
 31
0.0
  0
LINE
  5
2D13
330
1E
100
AcDbEntity
  8
3
100
AcDbLine
 10
1.172525678547988
 20
3.649621150355551
 30
0.0
 11
1.16071465492594
 21
3.691615901011719
 31
0.0
  0
LINE
  5
2D14
330
1E
100
AcDbEntity
  8
3
100
AcDbLine
 10
1.16071465492594
 20
3.691615901011719
 30
0.0
 11
1.137092607681846
 21
3.727048971877861
 31
0.0
  0
LINE
  5
2D15
330
1E
100
AcDbEntity
  8
3
100
AcDbLine
 10
1.137092607681846
 20
3.727048971877861
 30
0.0
 11
1.104284208731715
 21
3.755920362953975
 31
0.0
  0
LINE
  5
2D16
330
1E
100
AcDbEntity
  8
3
100
AcDbLine
 10
1.104284208731715
 20
3.755920362953975
 30
0.0
 11
1.064914129991557
 21
3.772980730408044
 31
0.0
  0
LINE
  5
2D17
330
1E
100
AcDbEntity
  8
3
100
AcDbLine
 10
1.064914129991557
 20
3.772980730408044
 30
0.0
 11
1.022919379335389
 21
3.77954241019807
 31
0.0
  0
LINE
  5
2D18
330
1E
100
AcDbEntity
  8
3
100
AcDbLine
 10
0.8575650486267285
 20
3.687678893137703
 30
0.0
 11
0.8365676732986443
 21
3.661432173977598
 31
0.0
  0
LINE
  5
2D19
330
1E
100
AcDbEntity
  8
3
100
AcDbLine
 10
0.8365676732986443
 20
3.661432173977598
 30
0.0
 11
0.8286936575506128
 21
3.628623775027467
 31
0.0
  0
LINE
  5
2D1A
330
1E
100
AcDbEntity
  8
3
100
AcDbLine
 10
0.8286936575506128
 20
3.628623775027467
 30
0.0
 11
0.8365676732986443
 21
3.595815376077336
 31
0.0
  0
LINE
  5
2D1B
330
1E
100
AcDbEntity
  8
3
100
AcDbLine
 10
0.8365676732986443
 20
3.595815376077336
 30
0.0
 11
0.8575650486267285
 21
3.569568656917231
 31
0.0
  0
LINE
  5
2D1C
330
1E
100
AcDbEntity
  8
3
100
AcDbLine
 10
1.089848513193657
 20
3.595815376077336
 30
0.0
 11
1.097722528941688
 21
3.628623775027467
 31
0.0
  0
LINE
  5
2D1D
330
1E
100
AcDbEntity
  8
3
100
AcDbLine
 10
1.097722528941688
 20
3.628623775027467
 30
0.0
 11
1.089848513193657
 21
3.661432173977598
 31
0.0
  0
LINE
  5
2D1E
330
1E
100
AcDbEntity
  8
3
100
AcDbLine
 10
1.089848513193657
 20
3.661432173977598
 30
0.0
 11
1.068851137865573
 21
3.687678893137703
 31
0.0
  0
LINE
  5
2D1F
330
1E
100
AcDbEntity
  8
3
100
AcDbLine
 10
0.9034968071569124
 20
6.985579155604892
 30
0.0
 11
0.8851241037448392
 21
6.982954483688882
 31
0.0
  0
LINE
  5
2D20
330
1E
100
AcDbEntity
  8
3
100
AcDbLine
 10
0.8851241037448392
 20
6.982954483688882
 30
0.0
 11
0.8680637362907702
 21
6.976392803898855
 31
0.0
  0
LINE
  5
2D21
330
1E
100
AcDbEntity
  8
3
100
AcDbLine
 10
0.8680637362907702
 20
6.84253453618232
 30
0.0
 11
0.8851241037448392
 21
6.835972856392293
 31
0.0
  0
LINE
  5
2D22
330
1E
100
AcDbEntity
  8
3
100
AcDbLine
 10
0.8851241037448392
 20
6.835972856392293
 30
0.0
 11
0.9034968071569124
 21
6.833348184476283
 31
0.0
  0
LINE
  5
2D23
330
1E
100
AcDbEntity
  8
3
100
AcDbLine
 10
1.058352450201531
 20
6.976392803898855
 30
0.0
 11
1.041292082747462
 21
6.982954483688882
 31
0.0
  0
LINE
  5
2D24
330
1E
100
AcDbEntity
  8
3
100
AcDbLine
 10
1.041292082747462
 20
6.982954483688882
 30
0.0
 11
1.022919379335389
 21
6.985579155604892
 31
0.0
  0
LINE
  5
2D25
330
1E
100
AcDbEntity
  8
3
100
AcDbLine
 10
1.022919379335389
 20
6.833348184476283
 30
0.0
 11
1.041292082747462
 21
6.835972856392293
 31
0.0
  0
LINE
  5
2D26
330
1E
100
AcDbEntity
  8
3
100
AcDbLine
 10
1.041292082747462
 20
6.835972856392293
 30
0.0
 11
1.058352450201531
 21
6.84253453618232
 31
0.0
  0
LINE
  5
2D27
330
1E
100
AcDbEntity
  8
3
100
AcDbLine
 10
1.093785521067673
 20
6.880592278964472
 30
0.0
 11
1.099034864899694
 21
6.909463670040587
 31
0.0
  0
LINE
  5
2D28
330
1E
100
AcDbEntity
  8
3
100
AcDbLine
 10
1.099034864899694
 20
6.909463670040587
 30
0.0
 11
1.093785521067673
 21
6.938335061116703
 31
0.0
  0
LINE
  5
2D29
330
1E
100
AcDbEntity
  8
3
100
AcDbLine
 10
1.093785521067673
 20
6.938335061116703
 30
0.0
 11
1.076725153613605
 21
6.963269444318802
 31
0.0
  0
LINE
  5
2D2A
330
1E
100
AcDbEntity
  8
3
100
AcDbLine
 10
1.076725153613605
 20
6.963269444318802
 30
0.0
 11
1.051790770411505
 21
6.980329811772872
 31
0.0
  0
LINE
  5
2D2B
330
1E
100
AcDbEntity
  8
3
100
AcDbLine
 10
1.051790770411505
 20
6.980329811772872
 30
0.0
 11
1.022919379335389
 21
6.985579155604892
 31
0.0
  0
LINE
  5
2D2C
330
1E
100
AcDbEntity
  8
3
100
AcDbLine
 10
1.022919379335389
 20
6.833348184476283
 30
0.0
 11
1.051790770411505
 21
6.838597528308303
 31
0.0
  0
LINE
  5
2D2D
330
1E
100
AcDbEntity
  8
3
100
AcDbLine
 10
1.051790770411505
 20
6.838597528308303
 30
0.0
 11
1.076725153613605
 21
6.855657895762373
 31
0.0
  0
LINE
  5
2D2E
330
1E
100
AcDbEntity
  8
3
100
AcDbLine
 10
1.076725153613605
 20
6.855657895762373
 30
0.0
 11
1.093785521067673
 21
6.880592278964472
 31
0.0
  0
LINE
  5
2D2F
330
1E
100
AcDbEntity
  8
3
100
AcDbLine
 10
0.849691032878697
 20
6.963269444318802
 30
0.0
 11
0.8326306654246288
 21
6.938335061116703
 31
0.0
  0
LINE
  5
2D30
330
1E
100
AcDbEntity
  8
3
100
AcDbLine
 10
0.8326306654246288
 20
6.938335061116703
 30
0.0
 11
0.8273813215926075
 21
6.909463670040587
 31
0.0
  0
LINE
  5
2D31
330
1E
100
AcDbEntity
  8
3
100
AcDbLine
 10
0.8273813215926075
 20
6.909463670040587
 30
0.0
 11
0.8326306654246288
 21
6.880592278964472
 31
0.0
  0
LINE
  5
2D32
330
1E
100
AcDbEntity
  8
3
100
AcDbLine
 10
0.8326306654246288
 20
6.880592278964472
 30
0.0
 11
0.849691032878697
 21
6.855657895762373
 31
0.0
  0
LINE
  5
2D33
330
1E
100
AcDbEntity
  8
3
100
AcDbLine
 10
0.849691032878697
 20
6.855657895762373
 30
0.0
 11
0.8746254160807964
 21
6.838597528308303
 31
0.0
  0
LINE
  5
2D34
330
1E
100
AcDbEntity
  8
3
100
AcDbLine
 10
0.8746254160807964
 20
6.838597528308303
 30
0.0
 11
0.9034968071569124
 21
6.833348184476283
 31
0.0
  0
LINE
  5
2D35
330
1E
100
AcDbEntity
  8
3
100
AcDbLine
 10
0.9034968071569124
 20
6.985579155604892
 30
0.0
 11
0.8746254160807964
 21
6.980329811772872
 31
0.0
  0
LINE
  5
2D36
330
1E
100
AcDbEntity
  8
3
100
AcDbLine
 10
0.8746254160807964
 20
6.980329811772872
 30
0.0
 11
0.849691032878697
 21
6.963269444318802
 31
0.0
  0
LINE
  5
2D37
330
1E
100
AcDbEntity
  8
3
100
AcDbLine
 10
0.7552028439023193
 20
6.930461045368671
 30
0.0
 11
0.7552028439023193
 21
6.888466294712504
 31
0.0
  0
LINE
  5
2D38
330
1E
100
AcDbEntity
  8
3
100
AcDbLine
 10
0.7552028439023193
 20
6.888466294712504
 30
0.0
 11
0.7670138675243661
 21
6.847783880014341
 31
0.0
  0
LINE
  5
2D39
330
1E
100
AcDbEntity
  8
3
100
AcDbLine
 10
0.7670138675243661
 20
6.847783880014341
 30
0.0
 11
0.7906359147684606
 21
6.811038473190194
 31
0.0
  0
LINE
  5
2D3A
330
1E
100
AcDbEntity
  8
3
100
AcDbLine
 10
0.7906359147684606
 20
6.811038473190194
 30
0.0
 11
0.8221319777605863
 21
6.783479418072084
 31
0.0
  0
LINE
  5
2D3B
330
1E
100
AcDbEntity
  8
3
100
AcDbLine
 10
0.8221319777605863
 20
6.783479418072084
 30
0.0
 11
0.8615020565007437
 21
6.766419050618015
 31
0.0
  0
LINE
  5
2D3C
330
1E
100
AcDbEntity
  8
3
100
AcDbLine
 10
0.8615020565007437
 20
6.766419050618015
 30
0.0
 11
0.9034968071569124
 21
6.759857370827988
 31
0.0
  0
LINE
  5
2D3D
330
1E
100
AcDbEntity
  8
3
100
AcDbLine
 10
0.9034968071569124
 20
7.059069969253187
 30
0.0
 11
0.8615020565007437
 21
7.052508289463158
 31
0.0
  0
LINE
  5
2D3E
330
1E
100
AcDbEntity
  8
3
100
AcDbLine
 10
0.8615020565007437
 20
7.052508289463158
 30
0.0
 11
0.8221319777605863
 21
7.03544792200909
 31
0.0
  0
LINE
  5
2D3F
330
1E
100
AcDbEntity
  8
3
100
AcDbLine
 10
0.8221319777605863
 20
7.03544792200909
 30
0.0
 11
0.7906359147684606
 21
7.007888866890981
 31
0.0
  0
LINE
  5
2D40
330
1E
100
AcDbEntity
  8
3
100
AcDbLine
 10
0.7906359147684606
 20
7.007888866890981
 30
0.0
 11
0.7670138675243661
 21
6.971143460066834
 31
0.0
  0
LINE
  5
2D41
330
1E
100
AcDbEntity
  8
3
100
AcDbLine
 10
0.7670138675243661
 20
6.971143460066834
 30
0.0
 11
0.7552028439023193
 21
6.930461045368671
 31
0.0
  0
LINE
  5
2D42
330
1E
100
AcDbEntity
  8
3
100
AcDbLine
 10
1.171213342589982
 20
6.930461045368671
 30
0.0
 11
1.159402318967935
 21
6.971143460066834
 31
0.0
  0
LINE
  5
2D43
330
1E
100
AcDbEntity
  8
3
100
AcDbLine
 10
1.159402318967935
 20
6.971143460066834
 30
0.0
 11
1.135780271723841
 21
7.007888866890981
 31
0.0
  0
LINE
  5
2D44
330
1E
100
AcDbEntity
  8
3
100
AcDbLine
 10
1.135780271723841
 20
7.007888866890981
 30
0.0
 11
1.104284208731715
 21
7.03544792200909
 31
0.0
  0
LINE
  5
2D45
330
1E
100
AcDbEntity
  8
3
100
AcDbLine
 10
1.104284208731715
 20
7.03544792200909
 30
0.0
 11
1.064914129991557
 21
7.052508289463158
 31
0.0
  0
LINE
  5
2D46
330
1E
100
AcDbEntity
  8
3
100
AcDbLine
 10
1.064914129991557
 20
7.052508289463158
 30
0.0
 11
1.022919379335389
 21
7.059069969253187
 31
0.0
  0
LINE
  5
2D47
330
1E
100
AcDbEntity
  8
3
100
AcDbLine
 10
1.022919379335389
 20
6.759857370827988
 30
0.0
 11
1.064914129991557
 21
6.766419050618015
 31
0.0
  0
LINE
  5
2D48
330
1E
100
AcDbEntity
  8
3
100
AcDbLine
 10
1.064914129991557
 20
6.766419050618015
 30
0.0
 11
1.104284208731715
 21
6.783479418072084
 31
0.0
  0
LINE
  5
2D49
330
1E
100
AcDbEntity
  8
3
100
AcDbLine
 10
1.104284208731715
 20
6.783479418072084
 30
0.0
 11
1.135780271723841
 21
6.811038473190194
 31
0.0
  0
LINE
  5
2D4A
330
1E
100
AcDbEntity
  8
3
100
AcDbLine
 10
1.135780271723841
 20
6.811038473190194
 30
0.0
 11
1.159402318967935
 21
6.847783880014341
 31
0.0
  0
LINE
  5
2D4B
330
1E
100
AcDbEntity
  8
3
100
AcDbLine
 10
1.159402318967935
 20
6.847783880014341
 30
0.0
 11
1.171213342589982
 21
6.888466294712504
 31
0.0
  0
LINE
  5
2D4C
330
1E
100
AcDbEntity
  8
3
100
AcDbLine
 10
1.171213342589982
 20
6.888466294712504
 30
0.0
 11
1.171213342589982
 21
6.930461045368671
 31
0.0
  0
LINE
  5
2D4D
330
1E
100
AcDbEntity
  8
3
100
AcDbLine
 10
0.9034968071569124
 20
7.060382305211192
 30
0.0
 11
0.9034968071569124
 21
7.059069969253187
 31
0.0
  0
LINE
  5
2D4E
330
1E
100
AcDbEntity
  8
3
100
AcDbLine
 10
0.9034968071569124
 20
7.059069969253187
 30
0.0
 11
1.022919379335389
 21
7.059069969253187
 31
0.0
  0
LINE
  5
2D4F
330
1E
100
AcDbEntity
  8
3
100
AcDbLine
 10
1.022919379335389
 20
6.757232698911979
 30
0.0
 11
1.022919379335389
 21
6.759857370827988
 31
0.0
  0
LINE
  5
2D50
330
1E
100
AcDbEntity
  8
3
100
AcDbLine
 10
1.022919379335389
 20
6.759857370827988
 30
0.0
 11
0.9034968071569124
 21
6.759857370827988
 31
0.0
  0
LINE
  5
2D51
330
1E
100
AcDbEntity
  8
3
100
AcDbLine
 10
1.882499431828827
 20
6.707363932507779
 30
0.0
 11
1.894310455450874
 21
6.719174956129826
 31
0.0
  0
LINE
  5
2D52
330
1E
100
AcDbEntity
  8
3
100
AcDbLine
 10
1.894310455450874
 20
6.719174956129826
 30
0.0
 11
1.89824746332489
 21
6.734922987625889
 31
0.0
  0
LINE
  5
2D53
330
1E
100
AcDbEntity
  8
3
100
AcDbLine
 10
1.89824746332489
 20
6.734922987625889
 30
0.0
 11
1.89824746332489
 21
7.084004352455284
 31
0.0
  0
LINE
  5
2D54
330
1E
100
AcDbEntity
  8
3
100
AcDbLine
 10
1.89824746332489
 20
7.084004352455284
 30
0.0
 11
1.894310455450874
 21
7.099752383951347
 31
0.0
  0
LINE
  5
2D55
330
1E
100
AcDbEntity
  8
3
100
AcDbLine
 10
1.894310455450874
 20
7.099752383951347
 30
0.0
 11
1.882499431828827
 21
7.110251071615389
 31
0.0
  0
LINE
  5
2D56
330
1E
100
AcDbEntity
  8
3
100
AcDbLine
 10
1.882499431828827
 20
7.110251071615389
 30
0.0
 11
1.866751400332764
 21
7.114188079489405
 31
0.0
  0
LINE
  5
2D57
330
1E
100
AcDbEntity
  8
3
100
AcDbLine
 10
1.866751400332764
 20
7.114188079489405
 30
0.0
 11
1.837880009256648
 21
7.114188079489405
 31
0.0
  0
LINE
  5
2D58
330
1E
100
AcDbEntity
  8
3
100
AcDbLine
 10
1.837880009256648
 20
6.703426924633763
 30
0.0
 11
1.866751400332764
 21
6.703426924633763
 31
0.0
  0
LINE
  5
2D59
330
1E
100
AcDbEntity
  8
3
100
AcDbLine
 10
1.866751400332764
 20
6.703426924633763
 30
0.0
 11
1.882499431828827
 21
6.707363932507779
 31
0.0
  0
LINE
  5
2D5A
330
1E
100
AcDbEntity
  8
3
100
AcDbLine
 10
0.0885361772356523
 20
7.114188079489405
 30
0.0
 11
0.0596647861595372
 21
7.114188079489405
 31
0.0
  0
LINE
  5
2D5B
330
1E
100
AcDbEntity
  8
3
100
AcDbLine
 10
0.0596647861595372
 20
7.114188079489405
 30
0.0
 11
0.0439167546634742
 21
7.110251071615389
 31
0.0
  0
LINE
  5
2D5C
330
1E
100
AcDbEntity
  8
3
100
AcDbLine
 10
0.0439167546634742
 20
7.110251071615389
 30
0.0
 11
0.032105731041427
 21
7.099752383951347
 31
0.0
  0
LINE
  5
2D5D
330
1E
100
AcDbEntity
  8
3
100
AcDbLine
 10
0.032105731041427
 20
7.099752383951347
 30
0.0
 11
0.0281687231674113
 21
7.084004352455284
 31
0.0
  0
LINE
  5
2D5E
330
1E
100
AcDbEntity
  8
3
100
AcDbLine
 10
0.0281687231674113
 20
7.084004352455284
 30
0.0
 11
0.0281687231674113
 21
6.734922987625889
 31
0.0
  0
LINE
  5
2D5F
330
1E
100
AcDbEntity
  8
3
100
AcDbLine
 10
0.0281687231674113
 20
6.734922987625889
 30
0.0
 11
0.032105731041427
 21
6.719174956129826
 31
0.0
  0
LINE
  5
2D60
330
1E
100
AcDbEntity
  8
3
100
AcDbLine
 10
0.032105731041427
 20
6.719174956129826
 30
0.0
 11
0.0439167546634742
 21
6.707363932507779
 31
0.0
  0
LINE
  5
2D61
330
1E
100
AcDbEntity
  8
3
100
AcDbLine
 10
0.0439167546634742
 20
6.707363932507779
 30
0.0
 11
0.0596647861595372
 21
6.703426924633763
 31
0.0
  0
LINE
  5
2D62
330
1E
100
AcDbEntity
  8
3
100
AcDbLine
 10
0.0596647861595372
 20
6.703426924633763
 30
0.0
 11
0.0885361772356523
 21
6.703426924633763
 31
0.0
  0
LINE
  5
2D63
330
1E
100
AcDbEntity
  8
3
100
AcDbLine
 10
1.172525678547988
 20
6.930461045368671
 30
0.0
 11
1.16071465492594
 21
6.972455796024839
 31
0.0
  0
LINE
  5
2D64
330
1E
100
AcDbEntity
  8
3
100
AcDbLine
 10
1.16071465492594
 20
6.972455796024839
 30
0.0
 11
1.137092607681846
 21
7.007888866890981
 31
0.0
  0
LINE
  5
2D65
330
1E
100
AcDbEntity
  8
3
100
AcDbLine
 10
1.137092607681846
 20
7.007888866890981
 30
0.0
 11
1.104284208731715
 21
7.036760257967095
 31
0.0
  0
LINE
  5
2D66
330
1E
100
AcDbEntity
  8
3
100
AcDbLine
 10
1.104284208731715
 20
7.036760257967095
 30
0.0
 11
1.064914129991557
 21
7.053820625421165
 31
0.0
  0
LINE
  5
2D67
330
1E
100
AcDbEntity
  8
3
100
AcDbLine
 10
1.064914129991557
 20
7.053820625421165
 30
0.0
 11
1.022919379335389
 21
7.060382305211192
 31
0.0
  0
LINE
  5
2D68
330
1E
100
AcDbEntity
  8
3
100
AcDbLine
 10
1.022919379335389
 20
6.758545034869984
 30
0.0
 11
1.064914129991557
 21
6.76510671466001
 31
0.0
  0
LINE
  5
2D69
330
1E
100
AcDbEntity
  8
3
100
AcDbLine
 10
1.064914129991557
 20
6.76510671466001
 30
0.0
 11
1.104284208731715
 21
6.782167082114078
 31
0.0
  0
LINE
  5
2D6A
330
1E
100
AcDbEntity
  8
3
100
AcDbLine
 10
1.104284208731715
 20
6.782167082114078
 30
0.0
 11
1.137092607681846
 21
6.811038473190194
 31
0.0
  0
LINE
  5
2D6B
330
1E
100
AcDbEntity
  8
3
100
AcDbLine
 10
1.137092607681846
 20
6.811038473190194
 30
0.0
 11
1.16071465492594
 21
6.846471544056336
 31
0.0
  0
LINE
  5
2D6C
330
1E
100
AcDbEntity
  8
3
100
AcDbLine
 10
1.16071465492594
 20
6.846471544056336
 30
0.0
 11
1.172525678547988
 21
6.888466294712504
 31
0.0
  0
LINE
  5
2D6D
330
1E
100
AcDbEntity
  8
3
100
AcDbLine
 10
1.172525678547988
 20
6.888466294712504
 30
0.0
 11
1.172525678547988
 21
6.930461045368671
 31
0.0
  0
LINE
  5
2D6E
330
1E
100
AcDbEntity
  8
3
100
AcDbLine
 10
0.7893235788104556
 20
6.811038473190194
 30
0.0
 11
0.8221319777605863
 21
6.782167082114078
 31
0.0
  0
LINE
  5
2D6F
330
1E
100
AcDbEntity
  8
3
100
AcDbLine
 10
0.8221319777605863
 20
6.782167082114078
 30
0.0
 11
0.8615020565007437
 21
6.76510671466001
 31
0.0
  0
LINE
  5
2D70
330
1E
100
AcDbEntity
  8
3
100
AcDbLine
 10
0.8615020565007437
 20
6.76510671466001
 30
0.0
 11
0.9034968071569124
 21
6.758545034869984
 31
0.0
  0
LINE
  5
2D71
330
1E
100
AcDbEntity
  8
3
100
AcDbLine
 10
0.9034968071569124
 20
7.060382305211192
 30
0.0
 11
0.8615020565007437
 21
7.053820625421165
 31
0.0
  0
LINE
  5
2D72
330
1E
100
AcDbEntity
  8
3
100
AcDbLine
 10
0.8615020565007437
 20
7.053820625421165
 30
0.0
 11
0.8221319777605863
 21
7.036760257967095
 31
0.0
  0
LINE
  5
2D73
330
1E
100
AcDbEntity
  8
3
100
AcDbLine
 10
0.8221319777605863
 20
7.036760257967095
 30
0.0
 11
0.7893235788104556
 21
7.007888866890981
 31
0.0
  0
LINE
  5
2D74
330
1E
100
AcDbEntity
  8
3
100
AcDbLine
 10
0.7893235788104556
 20
7.007888866890981
 30
0.0
 11
0.7657015315663612
 21
6.972455796024839
 31
0.0
  0
LINE
  5
2D75
330
1E
100
AcDbEntity
  8
3
100
AcDbLine
 10
0.7657015315663612
 20
6.972455796024839
 30
0.0
 11
0.7538905079443139
 21
6.930461045368671
 31
0.0
  0
LINE
  5
2D76
330
1E
100
AcDbEntity
  8
3
100
AcDbLine
 10
0.7538905079443139
 20
6.930461045368671
 30
0.0
 11
0.7538905079443139
 21
6.888466294712504
 31
0.0
  0
LINE
  5
2D77
330
1E
100
AcDbEntity
  8
3
100
AcDbLine
 10
0.7538905079443139
 20
6.888466294712504
 30
0.0
 11
0.7657015315663612
 21
6.846471544056336
 31
0.0
  0
LINE
  5
2D78
330
1E
100
AcDbEntity
  8
3
100
AcDbLine
 10
0.7657015315663612
 20
6.846471544056336
 30
0.0
 11
0.7893235788104556
 21
6.811038473190194
 31
0.0
  0
LINE
  5
2D79
330
1E
100
AcDbEntity
  8
3
100
AcDbLine
 10
0.8575650486267285
 20
6.968518788150824
 30
0.0
 11
0.8365676732986443
 21
6.942272068990718
 31
0.0
  0
LINE
  5
2D7A
330
1E
100
AcDbEntity
  8
3
100
AcDbLine
 10
0.8365676732986443
 20
6.942272068990718
 30
0.0
 11
0.8286936575506128
 21
6.909463670040587
 31
0.0
  0
LINE
  5
2D7B
330
1E
100
AcDbEntity
  8
3
100
AcDbLine
 10
0.8286936575506128
 20
6.909463670040587
 30
0.0
 11
0.8365676732986443
 21
6.876655271090457
 31
0.0
  0
LINE
  5
2D7C
330
1E
100
AcDbEntity
  8
3
100
AcDbLine
 10
0.8365676732986443
 20
6.876655271090457
 30
0.0
 11
0.8575650486267285
 21
6.850408551930351
 31
0.0
  0
LINE
  5
2D7D
330
1E
100
AcDbEntity
  8
3
100
AcDbLine
 10
1.068851137865573
 20
6.850408551930351
 30
0.0
 11
1.089848513193657
 21
6.876655271090457
 31
0.0
  0
LINE
  5
2D7E
330
1E
100
AcDbEntity
  8
3
100
AcDbLine
 10
1.089848513193657
 20
6.876655271090457
 30
0.0
 11
1.097722528941688
 21
6.909463670040587
 31
0.0
  0
LINE
  5
2D7F
330
1E
100
AcDbEntity
  8
3
100
AcDbLine
 10
1.097722528941688
 20
6.909463670040587
 30
0.0
 11
1.089848513193657
 21
6.942272068990718
 31
0.0
  0
LINE
  5
2D80
330
1E
100
AcDbEntity
  8
3
100
AcDbLine
 10
1.089848513193657
 20
6.942272068990718
 30
0.0
 11
1.068851137865573
 21
6.968518788150824
 31
0.0
  0
LINE
  5
2D81
330
1E
100
AcDbEntity
  8
3
100
AcDbLine
 10
-0.4088391508483369
 20
3.081379680539278
 30
0.0
 11
-0.4009651351003054
 21
3.052508289463163
 31
0.0
  0
LINE
  5
2D82
330
1E
100
AcDbEntity
  8
3
100
AcDbLine
 10
-0.4009651351003054
 20
3.052508289463163
 30
0.0
 11
-0.3786554238142159
 21
3.030198578177073
 31
0.0
  0
LINE
  5
2D83
330
1E
100
AcDbEntity
  8
3
100
AcDbLine
 10
-0.3786554238142159
 20
3.030198578177073
 30
0.0
 11
-0.3484716967800949
 21
3.022324562429042
 31
0.0
  0
LINE
  5
2D84
330
1E
100
AcDbEntity
  8
3
100
AcDbLine
 10
-0.3484716967800949
 20
7.515762882639012
 30
0.0
 11
-0.3786554238142159
 21
7.507888866890981
 31
0.0
  0
LINE
  5
2D85
330
1E
100
AcDbEntity
  8
3
100
AcDbLine
 10
-0.3786554238142159
 20
7.507888866890981
 30
0.0
 11
-0.4009651351003054
 21
7.485579155604892
 31
0.0
  0
LINE
  5
2D86
330
1E
100
AcDbEntity
  8
3
100
AcDbLine
 10
-0.4009651351003054
 20
7.485579155604892
 30
0.0
 11
-0.4088391508483369
 21
7.455395428570771
 31
0.0
  0
LINE
  5
2D87
330
1E
100
AcDbEntity
  8
3
100
AcDbLine
 10
2.274887883272396
 20
3.022324562429042
 30
0.0
 11
2.305071610306517
 21
3.030198578177073
 31
0.0
  0
LINE
  5
2D88
330
1E
100
AcDbEntity
  8
3
100
AcDbLine
 10
2.305071610306517
 20
3.030198578177073
 30
0.0
 11
2.327381321592606
 21
3.052508289463163
 31
0.0
  0
LINE
  5
2D89
330
1E
100
AcDbEntity
  8
3
100
AcDbLine
 10
2.327381321592606
 20
3.052508289463163
 30
0.0
 11
2.335255337340638
 21
3.081379680539278
 31
0.0
  0
LINE
  5
2D8A
330
1E
100
AcDbEntity
  8
3
100
AcDbLine
 10
2.335255337340638
 20
7.455395428570771
 30
0.0
 11
2.327381321592606
 21
7.485579155604892
 31
0.0
  0
LINE
  5
2D8B
330
1E
100
AcDbEntity
  8
3
100
AcDbLine
 10
2.327381321592606
 20
7.485579155604892
 30
0.0
 11
2.305071610306517
 21
7.507888866890981
 31
0.0
  0
LINE
  5
2D8C
330
1E
100
AcDbEntity
  8
3
100
AcDbLine
 10
2.305071610306517
 20
7.507888866890981
 30
0.0
 11
2.274887883272396
 21
7.515762882639012
 31
0.0
  0
LINE
  5
2D8D
330
1E
100
AcDbEntity
  8
3
100
AcDbLine
 10
-0.4088391508483369
 20
3.081379680539278
 30
0.0
 11
-0.4022774710583104
 21
3.086629024371299
 31
0.0
  0
LINE
  5
2D8E
330
1E
100
AcDbEntity
  8
3
100
AcDbLine
 10
-0.4022774710583104
 20
3.086629024371299
 30
0.0
 11
-0.3878417755202523
 21
3.097127712035341
 31
0.0
  0
LINE
  5
2D8F
330
1E
100
AcDbEntity
  8
3
100
AcDbLine
 10
-0.3878417755202523
 20
3.097127712035341
 30
0.0
 11
-0.3668444001921678
 21
3.112875743531404
 31
0.0
  0
LINE
  5
2D90
330
1E
100
AcDbEntity
  8
3
100
AcDbLine
 10
-0.3668444001921678
 20
3.112875743531404
 30
0.0
 11
-0.3392853450740585
 21
3.132560782901483
 31
0.0
  0
LINE
  5
2D91
330
1E
100
AcDbEntity
  8
3
100
AcDbLine
 10
-0.3392853450740585
 20
3.132560782901483
 30
0.0
 11
-0.3051646101659218
 21
3.157495166103583
 31
0.0
  0
LINE
  5
2D92
330
1E
100
AcDbEntity
  8
3
100
AcDbLine
 10
-0.3051646101659218
 20
3.157495166103583
 30
0.0
 11
-0.2671068673837693
 21
3.185054221221693
 31
0.0
  0
LINE
  5
2D93
330
1E
100
AcDbEntity
  8
3
100
AcDbLine
 10
-0.2671068673837693
 20
3.185054221221693
 30
0.0
 11
-0.226424452685607
 21
3.215237948255813
 31
0.0
  0
LINE
  5
2D94
330
1E
100
AcDbEntity
  8
3
100
AcDbLine
 10
-0.226424452685607
 20
3.215237948255813
 30
0.0
 11
-0.1844297020294387
 21
3.24673401124794
 31
0.0
  0
LINE
  5
2D95
330
1E
100
AcDbEntity
  8
3
100
AcDbLine
 10
-0.1844297020294387
 20
7.291353433820114
 30
0.0
 11
-0.226424452685607
 21
7.321537160854235
 31
0.0
  0
LINE
  5
2D96
330
1E
100
AcDbEntity
  8
3
100
AcDbLine
 10
-0.226424452685607
 20
7.321537160854235
 30
0.0
 11
-0.2671068673837693
 21
7.351720887888356
 31
0.0
  0
LINE
  5
2D97
330
1E
100
AcDbEntity
  8
3
100
AcDbLine
 10
-0.2671068673837693
 20
7.351720887888356
 30
0.0
 11
-0.3051646101659218
 21
7.379279943006466
 31
0.0
  0
LINE
  5
2D98
330
1E
100
AcDbEntity
  8
3
100
AcDbLine
 10
-0.3051646101659218
 20
7.379279943006466
 30
0.0
 11
-0.3392853450740585
 21
7.404214326208566
 31
0.0
  0
LINE
  5
2D99
330
1E
100
AcDbEntity
  8
3
100
AcDbLine
 10
-0.3392853450740585
 20
7.404214326208566
 30
0.0
 11
-0.3668444001921678
 21
7.42521170153665
 31
0.0
  0
LINE
  5
2D9A
330
1E
100
AcDbEntity
  8
3
100
AcDbLine
 10
-0.3668444001921678
 20
7.42521170153665
 30
0.0
 11
-0.3878417755202523
 21
7.440959733032713
 31
0.0
  0
LINE
  5
2D9B
330
1E
100
AcDbEntity
  8
3
100
AcDbLine
 10
-0.3878417755202523
 20
7.440959733032713
 30
0.0
 11
-0.4022774710583104
 21
7.451458420696755
 31
0.0
  0
LINE
  5
2D9C
330
1E
100
AcDbEntity
  8
3
100
AcDbLine
 10
-0.4022774710583104
 20
7.451458420696755
 30
0.0
 11
-0.4088391508483369
 21
7.455395428570771
 31
0.0
  0
LINE
  5
2D9D
330
1E
100
AcDbEntity
  8
3
100
AcDbLine
 10
2.223706780910191
 20
7.446209076864734
 30
0.0
 11
2.244704156238276
 21
7.473768131982843
 31
0.0
  0
LINE
  5
2D9E
330
1E
100
AcDbEntity
  8
3
100
AcDbLine
 10
2.244704156238276
 20
7.473768131982843
 30
0.0
 11
2.260452187734339
 21
7.494765507310928
 31
0.0
  0
LINE
  5
2D9F
330
1E
100
AcDbEntity
  8
3
100
AcDbLine
 10
2.260452187734339
 20
7.494765507310928
 30
0.0
 11
2.270950875398381
 21
7.509201202848986
 31
0.0
  0
LINE
  5
2DA0
330
1E
100
AcDbEntity
  8
3
100
AcDbLine
 10
2.270950875398381
 20
7.509201202848986
 30
0.0
 11
2.274887883272396
 21
7.515762882639012
 31
0.0
  0
LINE
  5
2DA1
330
1E
100
AcDbEntity
  8
3
100
AcDbLine
 10
2.11084588852174
 20
7.291353433820114
 30
0.0
 11
2.141029615555861
 21
7.333348184476282
 31
0.0
  0
LINE
  5
2DA2
330
1E
100
AcDbEntity
  8
3
100
AcDbLine
 10
2.141029615555861
 20
7.333348184476282
 30
0.0
 11
2.171213342589981
 21
7.374030599174445
 31
0.0
  0
LINE
  5
2DA3
330
1E
100
AcDbEntity
  8
3
100
AcDbLine
 10
2.171213342589981
 20
7.374030599174445
 30
0.0
 11
2.198772397708092
 21
7.412088341956597
 31
0.0
  0
LINE
  5
2DA4
330
1E
100
AcDbEntity
  8
3
100
AcDbLine
 10
2.198772397708092
 20
7.412088341956597
 30
0.0
 11
2.223706780910191
 21
7.446209076864734
 31
0.0
  0
LINE
  5
2DA5
330
1E
100
AcDbEntity
  8
3
100
AcDbLine
 10
-0.3484716967800949
 20
7.515762882639012
 30
0.0
 11
-0.3445346889060792
 21
7.509201202848986
 31
0.0
  0
LINE
  5
2DA6
330
1E
100
AcDbEntity
  8
3
100
AcDbLine
 10
-0.3445346889060792
 20
7.509201202848986
 30
0.0
 11
-0.3340360012420369
 21
7.494765507310928
 31
0.0
  0
LINE
  5
2DA7
330
1E
100
AcDbEntity
  8
3
100
AcDbLine
 10
-0.3340360012420369
 20
7.494765507310928
 30
0.0
 11
-0.3182879697459739
 21
7.473768131982843
 31
0.0
  0
LINE
  5
2DA8
330
1E
100
AcDbEntity
  8
3
100
AcDbLine
 10
-0.3182879697459739
 20
7.473768131982843
 30
0.0
 11
-0.2972905944178903
 21
7.446209076864734
 31
0.0
  0
LINE
  5
2DA9
330
1E
100
AcDbEntity
  8
3
100
AcDbLine
 10
-0.2972905944178903
 20
7.446209076864734
 30
0.0
 11
-0.27235621121579
 21
7.412088341956597
 31
0.0
  0
LINE
  5
2DAA
330
1E
100
AcDbEntity
  8
3
100
AcDbLine
 10
-0.27235621121579
 20
7.412088341956597
 30
0.0
 11
-0.2447971560976807
 21
7.374030599174445
 31
0.0
  0
LINE
  5
2DAB
330
1E
100
AcDbEntity
  8
3
100
AcDbLine
 10
-0.2447971560976807
 20
7.374030599174445
 30
0.0
 11
-0.2146134290635597
 21
7.333348184476282
 31
0.0
  0
LINE
  5
2DAC
330
1E
100
AcDbEntity
  8
3
100
AcDbLine
 10
-0.2146134290635597
 20
7.333348184476282
 30
0.0
 11
-0.1844297020294387
 21
7.291353433820114
 31
0.0
  0
LINE
  5
2DAD
330
1E
100
AcDbEntity
  8
3
100
AcDbLine
 10
-0.1844297020294387
 20
3.24673401124794
 30
0.0
 11
-0.2146134290635597
 21
3.204739260591772
 31
0.0
  0
LINE
  5
2DAE
330
1E
100
AcDbEntity
  8
3
100
AcDbLine
 10
-0.2146134290635597
 20
3.204739260591772
 30
0.0
 11
-0.2447971560976807
 21
3.162744509935603
 31
0.0
  0
LINE
  5
2DAF
330
1E
100
AcDbEntity
  8
3
100
AcDbLine
 10
-0.2447971560976807
 20
3.162744509935603
 30
0.0
 11
-0.27235621121579
 21
3.125999103111457
 31
0.0
  0
LINE
  5
2DB0
330
1E
100
AcDbEntity
  8
3
100
AcDbLine
 10
-0.27235621121579
 20
3.125999103111457
 30
0.0
 11
-0.2972905944178903
 21
3.09187836820332
 31
0.0
  0
LINE
  5
2DB1
330
1E
100
AcDbEntity
  8
3
100
AcDbLine
 10
-0.2972905944178903
 20
3.09187836820332
 30
0.0
 11
-0.3182879697459739
 21
3.06431931308521
 31
0.0
  0
LINE
  5
2DB2
330
1E
100
AcDbEntity
  8
3
100
AcDbLine
 10
-0.3182879697459739
 20
3.06431931308521
 30
0.0
 11
-0.3340360012420369
 21
3.042009601799121
 31
0.0
  0
LINE
  5
2DB3
330
1E
100
AcDbEntity
  8
3
100
AcDbLine
 10
-0.3340360012420369
 20
3.042009601799121
 30
0.0
 11
-0.3445346889060792
 21
3.028886242219068
 31
0.0
  0
LINE
  5
2DB4
330
1E
100
AcDbEntity
  8
3
100
AcDbLine
 10
-0.3445346889060792
 20
3.028886242219068
 30
0.0
 11
-0.3484716967800949
 21
3.022324562429042
 31
0.0
  0
LINE
  5
2DB5
330
1E
100
AcDbEntity
  8
3
100
AcDbLine
 10
2.198772397708092
 20
3.125999103111457
 30
0.0
 11
2.171213342589981
 21
3.162744509935603
 31
0.0
  0
LINE
  5
2DB6
330
1E
100
AcDbEntity
  8
3
100
AcDbLine
 10
2.171213342589981
 20
3.162744509935603
 30
0.0
 11
2.141029615555861
 21
3.204739260591772
 31
0.0
  0
LINE
  5
2DB7
330
1E
100
AcDbEntity
  8
3
100
AcDbLine
 10
2.141029615555861
 20
3.204739260591772
 30
0.0
 11
2.11084588852174
 21
3.24673401124794
 31
0.0
  0
LINE
  5
2DB8
330
1E
100
AcDbEntity
  8
3
100
AcDbLine
 10
2.274887883272396
 20
3.022324562429042
 30
0.0
 11
2.270950875398381
 21
3.028886242219068
 31
0.0
  0
LINE
  5
2DB9
330
1E
100
AcDbEntity
  8
3
100
AcDbLine
 10
2.270950875398381
 20
3.028886242219068
 30
0.0
 11
2.260452187734339
 21
3.042009601799121
 31
0.0
  0
LINE
  5
2DBA
330
1E
100
AcDbEntity
  8
3
100
AcDbLine
 10
2.260452187734339
 20
3.042009601799121
 30
0.0
 11
2.244704156238276
 21
3.06431931308521
 31
0.0
  0
LINE
  5
2DBB
330
1E
100
AcDbEntity
  8
3
100
AcDbLine
 10
2.244704156238276
 20
3.06431931308521
 30
0.0
 11
2.223706780910191
 21
3.09187836820332
 31
0.0
  0
LINE
  5
2DBC
330
1E
100
AcDbEntity
  8
3
100
AcDbLine
 10
2.223706780910191
 20
3.09187836820332
 30
0.0
 11
2.198772397708092
 21
3.125999103111457
 31
0.0
  0
LINE
  5
2DBD
330
1E
100
AcDbEntity
  8
3
100
AcDbLine
 10
2.314257962012554
 20
7.440959733032713
 30
0.0
 11
2.293260586684469
 21
7.42521170153665
 31
0.0
  0
LINE
  5
2DBE
330
1E
100
AcDbEntity
  8
3
100
AcDbLine
 10
2.293260586684469
 20
7.42521170153665
 30
0.0
 11
2.26570153156636
 21
7.404214326208566
 31
0.0
  0
LINE
  5
2DBF
330
1E
100
AcDbEntity
  8
3
100
AcDbLine
 10
2.26570153156636
 20
7.404214326208566
 30
0.0
 11
2.231580796658223
 21
7.379279943006466
 31
0.0
  0
LINE
  5
2DC0
330
1E
100
AcDbEntity
  8
3
100
AcDbLine
 10
2.231580796658223
 20
7.379279943006466
 30
0.0
 11
2.193523053876071
 21
7.351720887888356
 31
0.0
  0
LINE
  5
2DC1
330
1E
100
AcDbEntity
  8
3
100
AcDbLine
 10
2.193523053876071
 20
7.351720887888356
 30
0.0
 11
2.152840639177908
 21
7.321537160854235
 31
0.0
  0
LINE
  5
2DC2
330
1E
100
AcDbEntity
  8
3
100
AcDbLine
 10
2.152840639177908
 20
7.321537160854235
 30
0.0
 11
2.11084588852174
 21
7.291353433820114
 31
0.0
  0
LINE
  5
2DC3
330
1E
100
AcDbEntity
  8
3
100
AcDbLine
 10
2.335255337340638
 20
7.455395428570771
 30
0.0
 11
2.328693657550612
 21
7.451458420696755
 31
0.0
  0
LINE
  5
2DC4
330
1E
100
AcDbEntity
  8
3
100
AcDbLine
 10
2.328693657550612
 20
7.451458420696755
 30
0.0
 11
2.314257962012554
 21
7.440959733032713
 31
0.0
  0
LINE
  5
2DC5
330
1E
100
AcDbEntity
  8
3
100
AcDbLine
 10
2.11084588852174
 20
3.24673401124794
 30
0.0
 11
2.152840639177908
 21
3.215237948255813
 31
0.0
  0
LINE
  5
2DC6
330
1E
100
AcDbEntity
  8
3
100
AcDbLine
 10
2.152840639177908
 20
3.215237948255813
 30
0.0
 11
2.193523053876071
 21
3.185054221221693
 31
0.0
  0
LINE
  5
2DC7
330
1E
100
AcDbEntity
  8
3
100
AcDbLine
 10
2.193523053876071
 20
3.185054221221693
 30
0.0
 11
2.231580796658223
 21
3.157495166103583
 31
0.0
  0
LINE
  5
2DC8
330
1E
100
AcDbEntity
  8
3
100
AcDbLine
 10
2.231580796658223
 20
3.157495166103583
 30
0.0
 11
2.26570153156636
 21
3.132560782901483
 31
0.0
  0
LINE
  5
2DC9
330
1E
100
AcDbEntity
  8
3
100
AcDbLine
 10
2.26570153156636
 20
3.132560782901483
 30
0.0
 11
2.293260586684469
 21
3.112875743531404
 31
0.0
  0
LINE
  5
2DCA
330
1E
100
AcDbEntity
  8
3
100
AcDbLine
 10
2.293260586684469
 20
3.112875743531404
 30
0.0
 11
2.314257962012554
 21
3.097127712035341
 31
0.0
  0
LINE
  5
2DCB
330
1E
100
AcDbEntity
  8
3
100
AcDbLine
 10
2.314257962012554
 20
3.097127712035341
 30
0.0
 11
2.328693657550612
 21
3.086629024371299
 31
0.0
  0
LINE
  5
2DCC
330
1E
100
AcDbEntity
  8
3
100
AcDbLine
 10
2.328693657550612
 20
3.086629024371299
 30
0.0
 11
2.335255337340638
 21
3.081379680539278
 31
0.0
  0
LINE
  5
2DCD
330
1E
100
AcDbEntity
  8
3
100
AcDbLine
 10
2.278824891146412
 20
7.518387554555022
 30
0.0
 11
2.301134602432501
 21
7.514450546681007
 31
0.0
  0
LINE
  5
2DCE
330
1E
100
AcDbEntity
  8
3
100
AcDbLine
 10
2.301134602432501
 20
7.514450546681007
 30
0.0
 11
2.32081964180258
 21
7.501327187100955
 31
0.0
  0
LINE
  5
2DCF
330
1E
100
AcDbEntity
  8
3
100
AcDbLine
 10
2.32081964180258
 20
7.501327187100955
 30
0.0
 11
2.333943001382633
 21
7.481642147730876
 31
0.0
  0
LINE
  5
2DD0
330
1E
100
AcDbEntity
  8
3
100
AcDbLine
 10
2.333943001382633
 20
7.481642147730876
 30
0.0
 11
2.337880009256648
 21
7.459332436444785
 31
0.0
  0
LINE
  5
2DD1
330
1E
100
AcDbEntity
  8
3
100
AcDbLine
 10
-0.4114638227643468
 20
7.459332436444785
 30
0.0
 11
-0.4075268148903311
 21
7.481642147730876
 31
0.0
  0
LINE
  5
2DD2
330
1E
100
AcDbEntity
  8
3
100
AcDbLine
 10
-0.4075268148903311
 20
7.481642147730876
 30
0.0
 11
-0.3944034553102789
 21
7.501327187100955
 31
0.0
  0
LINE
  5
2DD3
330
1E
100
AcDbEntity
  8
3
100
AcDbLine
 10
-0.3944034553102789
 20
7.501327187100955
 30
0.0
 11
-0.3747184159401993
 21
7.514450546681007
 31
0.0
  0
LINE
  5
2DD4
330
1E
100
AcDbEntity
  8
3
100
AcDbLine
 10
-0.3747184159401993
 20
7.514450546681007
 30
0.0
 11
-0.3524087046541107
 21
7.518387554555022
 31
0.0
  0
LINE
  5
2DD5
330
1E
100
AcDbEntity
  8
3
100
AcDbLine
 10
-0.3524087046541107
 20
3.018387554555026
 30
0.0
 11
-0.3747184159401993
 21
3.023636898387048
 31
0.0
  0
LINE
  5
2DD6
330
1E
100
AcDbEntity
  8
3
100
AcDbLine
 10
-0.3747184159401993
 20
3.023636898387048
 30
0.0
 11
-0.3944034553102789
 21
3.0367602579671
 31
0.0
  0
LINE
  5
2DD7
330
1E
100
AcDbEntity
  8
3
100
AcDbLine
 10
-0.3944034553102789
 20
3.0367602579671
 30
0.0
 11
-0.4075268148903311
 21
3.055132961379174
 31
0.0
  0
LINE
  5
2DD8
330
1E
100
AcDbEntity
  8
3
100
AcDbLine
 10
-0.4075268148903311
 20
3.055132961379174
 30
0.0
 11
-0.4114638227643468
 21
3.078755008623268
 31
0.0
  0
LINE
  5
2DD9
330
1E
100
AcDbEntity
  8
3
100
AcDbLine
 10
2.337880009256648
 20
3.078755008623268
 30
0.0
 11
2.333943001382633
 21
3.055132961379174
 31
0.0
  0
LINE
  5
2DDA
330
1E
100
AcDbEntity
  8
3
100
AcDbLine
 10
2.333943001382633
 20
3.055132961379174
 30
0.0
 11
2.32081964180258
 21
3.0367602579671
 31
0.0
  0
LINE
  5
2DDB
330
1E
100
AcDbEntity
  8
3
100
AcDbLine
 10
2.32081964180258
 20
3.0367602579671
 30
0.0
 11
2.301134602432501
 21
3.023636898387048
 31
0.0
  0
LINE
  5
2DDC
330
1E
100
AcDbEntity
  8
3
100
AcDbLine
 10
2.301134602432501
 20
3.023636898387048
 30
0.0
 11
2.278824891146412
 21
3.018387554555026
 31
0.0
  0
LINE
  5
2DDD
330
1E
100
AcDbEntity
  8
3
100
AcDbLine
 10
-0.3524087046541107
 20
3.018387554555026
 30
0.0
 11
2.278824891146412
 21
3.018387554555026
 31
0.0
  0
LINE
  5
2DDE
330
1E
100
AcDbEntity
  8
3
100
AcDbLine
 10
2.278824891146412
 20
3.018387554555026
 30
0.0
 11
2.274887883272396
 21
3.022324562429042
 31
0.0
  0
LINE
  5
2DDF
330
1E
100
AcDbEntity
  8
3
100
AcDbLine
 10
2.274887883272396
 20
3.022324562429042
 30
0.0
 11
-0.3484716967800949
 21
3.022324562429042
 31
0.0
  0
LINE
  5
2DE0
330
1E
100
AcDbEntity
  8
3
100
AcDbLine
 10
-0.3484716967800949
 20
3.022324562429042
 30
0.0
 11
-0.3524087046541107
 21
3.018387554555026
 31
0.0
  0
LINE
  5
2DE1
330
1E
100
AcDbEntity
  8
3
100
AcDbLine
 10
2.335255337340638
 20
7.455395428570771
 30
0.0
 11
2.335255337340638
 21
3.081379680539278
 31
0.0
  0
LINE
  5
2DE2
330
1E
100
AcDbEntity
  8
3
100
AcDbLine
 10
2.335255337340638
 20
3.081379680539278
 30
0.0
 11
2.337880009256648
 21
3.078755008623268
 31
0.0
  0
LINE
  5
2DE3
330
1E
100
AcDbEntity
  8
3
100
AcDbLine
 10
2.337880009256648
 20
3.078755008623268
 30
0.0
 11
2.337880009256648
 21
7.459332436444785
 31
0.0
  0
LINE
  5
2DE4
330
1E
100
AcDbEntity
  8
3
100
AcDbLine
 10
2.337880009256648
 20
7.459332436444785
 30
0.0
 11
2.335255337340638
 21
7.455395428570771
 31
0.0
  0
LINE
  5
2DE5
330
1E
100
AcDbEntity
  8
3
100
AcDbLine
 10
2.278824891146412
 20
7.518387554555022
 30
0.0
 11
-0.3524087046541107
 21
7.518387554555022
 31
0.0
  0
LINE
  5
2DE6
330
1E
100
AcDbEntity
  8
3
100
AcDbLine
 10
-0.3524087046541107
 20
7.518387554555022
 30
0.0
 11
-0.3484716967800949
 21
7.515762882639012
 31
0.0
  0
LINE
  5
2DE7
330
1E
100
AcDbEntity
  8
3
100
AcDbLine
 10
-0.3484716967800949
 20
7.515762882639012
 30
0.0
 11
2.274887883272396
 21
7.515762882639012
 31
0.0
  0
LINE
  5
2DE8
330
1E
100
AcDbEntity
  8
3
100
AcDbLine
 10
2.274887883272396
 20
7.515762882639012
 30
0.0
 11
2.278824891146412
 21
7.518387554555022
 31
0.0
  0
LINE
  5
2DE9
330
1E
100
AcDbEntity
  8
3
100
AcDbLine
 10
-0.4088391508483369
 20
7.455395428570771
 30
0.0
 11
-0.4114638227643468
 21
7.459332436444785
 31
0.0
  0
LINE
  5
2DEA
330
1E
100
AcDbEntity
  8
3
100
AcDbLine
 10
-0.4114638227643468
 20
7.459332436444785
 30
0.0
 11
-0.4114638227643468
 21
3.078755008623268
 31
0.0
  0
LINE
  5
2DEB
330
1E
100
AcDbEntity
  8
3
100
AcDbLine
 10
-0.4114638227643468
 20
3.078755008623268
 30
0.0
 11
-0.4088391508483369
 21
3.081379680539278
 31
0.0
  0
LINE
  5
2DEC
330
1E
100
AcDbEntity
  8
3
100
AcDbLine
 10
1.252578171986308
 20
4.946209076864736
 30
0.0
 11
0.6725256785479888
 21
4.946209076864736
 31
0.0
  0
LINE
  5
2DED
330
1E
100
AcDbEntity
  8
3
100
AcDbLine
 10
0.6725256785479888
 20
4.946209076864736
 30
0.0
 11
0.6725256785479888
 21
5.591878368203317
 31
0.0
  0
LINE
  5
2DEE
330
1E
100
AcDbEntity
  8
3
100
AcDbLine
 10
1.896935127366885
 20
3.818912488938228
 30
0.0
 11
1.885124103744837
 21
3.82941117660227
 31
0.0
  0
LINE
  5
2DEF
330
1E
100
AcDbEntity
  8
3
100
AcDbLine
 10
1.885124103744837
 20
3.82941117660227
 30
0.0
 11
1.869376072248774
 21
3.834660520434291
 31
0.0
  0
LINE
  5
2DF0
330
1E
100
AcDbEntity
  8
3
100
AcDbLine
 10
0.0570401142435264
 20
3.834660520434291
 30
0.0
 11
0.0412920827474634
 21
3.82941117660227
 31
0.0
  0
LINE
  5
2DF1
330
1E
100
AcDbEntity
  8
3
100
AcDbLine
 10
0.0412920827474634
 20
3.82941117660227
 30
0.0
 11
0.0294810591254171
 21
3.818912488938228
 31
0.0
  0
LINE
  5
2DF2
330
1E
100
AcDbEntity
  8
3
100
AcDbLine
 10
0.0294810591254171
 20
3.818912488938228
 30
0.0
 11
0.0255440512514005
 21
3.803164457442165
 31
0.0
  0
LINE
  5
2DF3
330
1E
100
AcDbEntity
  8
3
100
AcDbLine
 10
0.0255440512514005
 20
3.454083092612769
 30
0.0
 11
0.0294810591254171
 21
3.438335061116705
 31
0.0
  0
LINE
  5
2DF4
330
1E
100
AcDbEntity
  8
3
100
AcDbLine
 10
0.0294810591254171
 20
3.438335061116705
 30
0.0
 11
0.0412920827474634
 21
3.426524037494658
 31
0.0
  0
LINE
  5
2DF5
330
1E
100
AcDbEntity
  8
3
100
AcDbLine
 10
1.869376072248774
 20
3.422587029620642
 30
0.0
 11
1.885124103744837
 21
3.426524037494658
 31
0.0
  0
LINE
  5
2DF6
330
1E
100
AcDbEntity
  8
3
100
AcDbLine
 10
1.885124103744837
 20
3.426524037494658
 30
0.0
 11
1.896935127366885
 21
3.438335061116705
 31
0.0
  0
LINE
  5
2DF7
330
1E
100
AcDbEntity
  8
3
100
AcDbLine
 10
1.896935127366885
 20
3.438335061116705
 30
0.0
 11
1.900872135240901
 21
3.454083092612769
 31
0.0
  0
LINE
  5
2DF8
330
1E
100
AcDbEntity
  8
3
100
AcDbLine
 10
1.900872135240901
 20
7.084004352455284
 30
0.0
 11
1.900872135240901
 21
6.734922987625889
 31
0.0
  0
LINE
  5
2DF9
330
1E
100
AcDbEntity
  8
3
100
AcDbLine
 10
1.900872135240901
 20
6.734922987625889
 30
0.0
 11
1.896935127366885
 21
6.719174956129826
 31
0.0
  0
LINE
  5
2DFA
330
1E
100
AcDbEntity
  8
3
100
AcDbLine
 10
1.896935127366885
 20
6.719174956129826
 30
0.0
 11
1.885124103744837
 21
6.707363932507779
 31
0.0
  0
LINE
  5
2DFB
330
1E
100
AcDbEntity
  8
3
100
AcDbLine
 10
1.885124103744837
 20
6.707363932507779
 30
0.0
 11
1.869376072248774
 21
6.703426924633763
 31
0.0
  0
LINE
  5
2DFC
330
1E
100
AcDbEntity
  8
3
100
AcDbLine
 10
1.869376072248774
 20
6.703426924633763
 30
0.0
 11
0.0570401142435264
 21
6.703426924633763
 31
0.0
  0
LINE
  5
2DFD
330
1E
100
AcDbEntity
  8
3
100
AcDbLine
 10
0.0570401142435264
 20
6.703426924633763
 30
0.0
 11
0.0412920827474634
 21
6.707363932507779
 31
0.0
  0
LINE
  5
2DFE
330
1E
100
AcDbEntity
  8
3
100
AcDbLine
 10
0.0412920827474634
 20
6.707363932507779
 30
0.0
 11
0.0294810591254171
 21
6.719174956129826
 31
0.0
  0
LINE
  5
2DFF
330
1E
100
AcDbEntity
  8
3
100
AcDbLine
 10
0.0294810591254171
 20
6.719174956129826
 30
0.0
 11
0.0255440512514005
 21
6.734922987625889
 31
0.0
  0
LINE
  5
2E00
330
1E
100
AcDbEntity
  8
3
100
AcDbLine
 10
0.0255440512514005
 20
6.734922987625889
 30
0.0
 11
0.0255440512514005
 21
7.084004352455284
 31
0.0
  0
LINE
  5
2E01
330
1E
100
AcDbEntity
  8
3
100
AcDbLine
 10
0.0255440512514005
 20
7.084004352455284
 30
0.0
 11
0.0294810591254171
 21
7.099752383951347
 31
0.0
  0
LINE
  5
2E02
330
1E
100
AcDbEntity
  8
3
100
AcDbLine
 10
0.0294810591254171
 20
7.099752383951347
 30
0.0
 11
0.0412920827474634
 21
7.111563407573395
 31
0.0
  0
LINE
  5
2E03
330
1E
100
AcDbEntity
  8
3
100
AcDbLine
 10
0.0412920827474634
 20
7.111563407573395
 30
0.0
 11
0.0570401142435264
 21
7.11550041544741
 31
0.0
  0
LINE
  5
2E04
330
1E
100
AcDbEntity
  8
3
100
AcDbLine
 10
0.0570401142435264
 20
7.11550041544741
 30
0.0
 11
1.869376072248774
 21
7.11550041544741
 31
0.0
  0
LINE
  5
2E05
330
1E
100
AcDbEntity
  8
3
100
AcDbLine
 10
1.869376072248774
 20
7.11550041544741
 30
0.0
 11
1.885124103744837
 21
7.111563407573395
 31
0.0
  0
LINE
  5
2E06
330
1E
100
AcDbEntity
  8
3
100
AcDbLine
 10
1.885124103744837
 20
7.111563407573395
 30
0.0
 11
1.896935127366885
 21
7.099752383951347
 31
0.0
  0
LINE
  5
2E07
330
1E
100
AcDbEntity
  8
3
100
AcDbLine
 10
2.11084588852174
 20
7.291353433820114
 30
0.0
 11
-0.1844297020294387
 21
7.291353433820114
 31
0.0
  0
LINE
  5
2E08
330
1E
100
AcDbEntity
  8
3
100
AcDbLine
 10
-0.1844297020294387
 20
7.291353433820114
 30
0.0
 11
-0.1844297020294387
 21
3.24673401124794
 31
0.0
  0
LINE
  5
2E09
330
1E
100
AcDbEntity
  8
3
100
AcDbLine
 10
-0.1844297020294387
 20
3.24673401124794
 30
0.0
 11
2.11084588852174
 21
3.24673401124794
 31
0.0
  0
LINE
  5
2E0A
330
1E
100
AcDbEntity
  8
3
100
AcDbLine
 10
2.11084588852174
 20
3.24673401124794
 30
0.0
 11
2.11084588852174
 21
7.291353433820114
 31
0.0
  0
ENDSEC
  0
SECTION
  2
OBJECTS
  0
DICTIONARY
  5
C
330
0
100
AcDbDictionary
  3
ACAD_GROUP
350
D
  3
ACAD_LAYOUT
350
19
  3
ACAD_MLINESTYLE
350
16
  3
ACAD_PLOTSETTINGS
350
18
1001
ACAD
1000
TREAT_AS_HARD
1070
     0
  0
DICTIONARY
  5
4035
330
1E
100
AcDbDictionary
  3
ACAD_LAYOUTSELFREF
350
406F
1001
ACAD
1000
TREAT_AS_HARD
1070
     1
  0
DICTIONARY
  5
4037
330
1A
100
AcDbDictionary
  3
ACAD_LAYOUTSELFREF
350
406E
1001
ACAD
1000
TREAT_AS_HARD
1070
     1
  0
DICTIONARY
  5
D
102
{ACAD_REACTORS
330
C
102
}
330
C
100
AcDbDictionary
1001
ACAD
1000
TREAT_AS_HARD
1070
     0
  0
DICTIONARY
  5
19
102
{ACAD_REACTORS
330
C
102
}
330
C
100
AcDbDictionary
1001
ACAD
1000
TREAT_AS_HARD
1070
     0
  0
DICTIONARY
  5
16
102
{ACAD_REACTORS
330
C
102
}
330
C
100
AcDbDictionary
  3
STANDARD
350
17
1001
ACAD
1000
TREAT_AS_HARD
1070
     0
  0
DICTIONARY
  5
18
102
{ACAD_REACTORS
330
C
102
}
330
C
100
AcDbDictionary
1001
ACAD
1000
TREAT_AS_HARD
1070
     0
  0
XRECORD
  5
406F
102
{ACAD_REACTORS
330
4035
102
}
330
4035
100
AcDbXrecord
340
1E
  0
XRECORD
  5
406E
102
{ACAD_REACTORS
330
4037
102
}
330
4037
100
AcDbXrecord
340
1A
  0
MLINESTYLE
  5
17
102
{ACAD_REACTORS
330
16
102
}
330
16
100
AcDbMlineStyle
  2
STANDARD
 70
     0
  3

 62
   256
 51
90.0
 52
90.0
 71
     2
 49
0.5
 62
   256
  6
BYLAYER
 49
-0.5
 62
   256
  6
BYLAYER
  0
ENDSEC
  0
EOF
