ISO-10303-21;
HEADER;
/* Generated by software containing ST-Developer
 * from STEP Tools, Inc. (www.steptools.com) 
 */
/* OPTION: using custom schema-name function */

FILE_DESCRIPTION(
/* description */ (''),
/* implementation_level */ '2;1');

FILE_NAME(
/* name */ 'QB-WASHER-Q (14L203RF_05).stp',
/* time_stamp */ '2015-10-22T10:52:13-04:00',
/* author */ (''),
/* organization */ (''),
/* preprocessor_version */ 'ST-DEVELOPER v15',
/* originating_system */ 'SIEMENS PLM Software NX 8.5',
/* authorisation */ '');

FILE_SCHEMA (('CONFIG_CONTROL_DESIGN'));
ENDSEC;

DATA;
#10=SHAPE_REPRESENTATION_RELATIONSHIP('None',
'relationship between 14L203RF_05-None and 14L203RF_05-None',#92,#11);
#11=ADVANCED_BREP_SHAPE_REPRESENTATION('14L203RF_05-None',(#93),#557);
#12=CC_DESIGN_APPROVAL(#24,(#82));
#13=CC_DESIGN_APPROVAL(#25,(#84));
#14=CC_DESIGN_APPROVAL(#26,(#31));
#15=APPROVAL_PERSON_ORGANIZATION(#69,#24,#18);
#16=APPROVAL_PERSON_ORGANIZATION(#70,#25,#19);
#17=APPROVAL_PERSON_ORGANIZATION(#71,#26,#20);
#18=APPROVAL_ROLE('approver');
#19=APPROVAL_ROLE('approver');
#20=APPROVAL_ROLE('approver');
#21=APPROVAL_DATE_TIME(#39,#24);
#22=APPROVAL_DATE_TIME(#40,#25);
#23=APPROVAL_DATE_TIME(#41,#26);
#24=APPROVAL(#27,' ');
#25=APPROVAL(#28,' ');
#26=APPROVAL(#29,' ');
#27=APPROVAL_STATUS('not_yet_approved');
#28=APPROVAL_STATUS('not_yet_approved');
#29=APPROVAL_STATUS('not_yet_approved');
#30=CC_DESIGN_SECURITY_CLASSIFICATION(#31,(#84));
#31=SECURITY_CLASSIFICATION(' ',' ',#32);
#32=SECURITY_CLASSIFICATION_LEVEL('confidential');
#33=CC_DESIGN_DATE_AND_TIME_ASSIGNMENT(#37,#35,(#82));
#34=CC_DESIGN_DATE_AND_TIME_ASSIGNMENT(#38,#36,(#31));
#35=DATE_TIME_ROLE('creation_date');
#36=DATE_TIME_ROLE('classification_date');
#37=DATE_AND_TIME(#52,#42);
#38=DATE_AND_TIME(#53,#43);
#39=DATE_AND_TIME(#54,#44);
#40=DATE_AND_TIME(#55,#45);
#41=DATE_AND_TIME(#56,#46);
#42=LOCAL_TIME(0,0,0.,#47);
#43=LOCAL_TIME(0,0,0.,#48);
#44=LOCAL_TIME(0,0,0.,#49);
#45=LOCAL_TIME(0,0,0.,#50);
#46=LOCAL_TIME(0,0,0.,#51);
#47=COORDINATED_UNIVERSAL_TIME_OFFSET(0,0,.BEHIND.);
#48=COORDINATED_UNIVERSAL_TIME_OFFSET(0,0,.BEHIND.);
#49=COORDINATED_UNIVERSAL_TIME_OFFSET(0,0,.BEHIND.);
#50=COORDINATED_UNIVERSAL_TIME_OFFSET(0,0,.BEHIND.);
#51=COORDINATED_UNIVERSAL_TIME_OFFSET(0,0,.BEHIND.);
#52=CALENDAR_DATE(0,1,1);
#53=CALENDAR_DATE(0,1,1);
#54=CALENDAR_DATE(0,1,1);
#55=CALENDAR_DATE(0,1,1);
#56=CALENDAR_DATE(0,1,1);
#57=CC_DESIGN_PERSON_AND_ORGANIZATION_ASSIGNMENT(#65,#61,(#82,#84));
#58=CC_DESIGN_PERSON_AND_ORGANIZATION_ASSIGNMENT(#66,#62,(#86));
#59=CC_DESIGN_PERSON_AND_ORGANIZATION_ASSIGNMENT(#67,#63,(#84));
#60=CC_DESIGN_PERSON_AND_ORGANIZATION_ASSIGNMENT(#68,#64,(#31));
#61=PERSON_AND_ORGANIZATION_ROLE('creator');
#62=PERSON_AND_ORGANIZATION_ROLE('design_owner');
#63=PERSON_AND_ORGANIZATION_ROLE('design_supplier');
#64=PERSON_AND_ORGANIZATION_ROLE('classification_officer');
#65=PERSON_AND_ORGANIZATION(#79,#72);
#66=PERSON_AND_ORGANIZATION(#79,#73);
#67=PERSON_AND_ORGANIZATION(#79,#74);
#68=PERSON_AND_ORGANIZATION(#79,#75);
#69=PERSON_AND_ORGANIZATION(#79,#76);
#70=PERSON_AND_ORGANIZATION(#79,#77);
#71=PERSON_AND_ORGANIZATION(#79,#78);
#72=ORGANIZATION(' ',' ',' ');
#73=ORGANIZATION(' ',' ',' ');
#74=ORGANIZATION(' ',' ',' ');
#75=ORGANIZATION(' ',' ',' ');
#76=ORGANIZATION(' ',' ',' ');
#77=ORGANIZATION(' ',' ',' ');
#78=ORGANIZATION(' ',' ',' ');
#79=PERSON(' ',' ',' ',(' '),$,$);
#80=SHAPE_DEFINITION_REPRESENTATION(#81,#92);
#81=PRODUCT_DEFINITION_SHAPE('','',#82);
#82=PRODUCT_DEFINITION(' ','',#84,#83);
#83=DESIGN_CONTEXT('',#91,'design');
#84=PRODUCT_DEFINITION_FORMATION_WITH_SPECIFIED_SOURCE(' ',' ',#86,
 .NOT_KNOWN.);
#85=PRODUCT_RELATED_PRODUCT_CATEGORY('detail','',(#86));
#86=PRODUCT('14L203RF_05','14L203RF_05',' ',(#89));
#87=PRODUCT_CATEGORY('part',' ');
#88=PRODUCT_CATEGORY(' ','');
#89=MECHANICAL_CONTEXT(' ',#91,'mechanical');
#90=APPLICATION_PROTOCOL_DEFINITION('international standard',
'config_control_design',2010,#91);
#91=APPLICATION_CONTEXT(
'configuration controlled 3D designs of mechanical parts and assemblie
s');
#92=SHAPE_REPRESENTATION('14L203RF_05-None',(#363),#557);
#93=MANIFOLD_SOLID_BREP('',#94);
#94=CLOSED_SHELL('',(#109,#110,#111,#112,#113,#114,#115,#116,#117,#118,
#119,#120,#121,#122,#123));
#95=FACE_BOUND('',#154,.T.);
#96=FACE_BOUND('',#155,.T.);
#97=FACE_BOUND('',#157,.T.);
#98=FACE_BOUND('',#158,.T.);
#99=FACE_BOUND('',#159,.T.);
#100=FACE_BOUND('',#160,.T.);
#101=PLANE('',#373);
#102=PLANE('',#374);
#103=PLANE('',#375);
#104=PLANE('',#385);
#105=PLANE('',#386);
#106=PLANE('',#390);
#107=PLANE('',#391);
#108=PLANE('',#392);
#109=ADVANCED_FACE('',(#131),#124,.T.);
#110=ADVANCED_FACE('',(#132),#125,.F.);
#111=ADVANCED_FACE('',(#133),#126,.T.);
#112=ADVANCED_FACE('',(#134),#101,.T.);
#113=ADVANCED_FACE('',(#135),#102,.T.);
#114=ADVANCED_FACE('',(#136),#103,.T.);
#115=ADVANCED_FACE('',(#137),#127,.T.);
#116=ADVANCED_FACE('',(#138),#128,.F.);
#117=ADVANCED_FACE('',(#139),#129,.T.);
#118=ADVANCED_FACE('',(#140),#104,.T.);
#119=ADVANCED_FACE('',(#141),#105,.T.);
#120=ADVANCED_FACE('',(#95,#96),#130,.T.);
#121=ADVANCED_FACE('',(#142),#106,.T.);
#122=ADVANCED_FACE('',(#97,#98),#107,.T.);
#123=ADVANCED_FACE('',(#99,#100),#108,.F.);
#124=CYLINDRICAL_SURFACE('',#366,0.05);
#125=CYLINDRICAL_SURFACE('',#369,0.125);
#126=CYLINDRICAL_SURFACE('',#372,0.05);
#127=CYLINDRICAL_SURFACE('',#378,0.05);
#128=CYLINDRICAL_SURFACE('',#381,0.125);
#129=CYLINDRICAL_SURFACE('',#384,0.05);
#130=CYLINDRICAL_SURFACE('',#389,0.5);
#131=FACE_OUTER_BOUND('',#143,.T.);
#132=FACE_OUTER_BOUND('',#144,.T.);
#133=FACE_OUTER_BOUND('',#145,.T.);
#134=FACE_OUTER_BOUND('',#146,.T.);
#135=FACE_OUTER_BOUND('',#147,.T.);
#136=FACE_OUTER_BOUND('',#148,.T.);
#137=FACE_OUTER_BOUND('',#149,.T.);
#138=FACE_OUTER_BOUND('',#150,.T.);
#139=FACE_OUTER_BOUND('',#151,.T.);
#140=FACE_OUTER_BOUND('',#152,.T.);
#141=FACE_OUTER_BOUND('',#153,.T.);
#142=FACE_OUTER_BOUND('',#156,.T.);
#143=EDGE_LOOP('',(#209,#210,#211,#212));
#144=EDGE_LOOP('',(#213,#214,#215,#216));
#145=EDGE_LOOP('',(#217,#218,#219,#220));
#146=EDGE_LOOP('',(#221,#222,#223,#224));
#147=EDGE_LOOP('',(#225,#226,#227,#228));
#148=EDGE_LOOP('',(#229,#230,#231,#232));
#149=EDGE_LOOP('',(#233,#234,#235,#236));
#150=EDGE_LOOP('',(#237,#238,#239,#240));
#151=EDGE_LOOP('',(#241,#242,#243,#244));
#152=EDGE_LOOP('',(#245,#246,#247,#248));
#153=EDGE_LOOP('',(#249,#250,#251,#252));
#154=EDGE_LOOP('',(#253));
#155=EDGE_LOOP('',(#254));
#156=EDGE_LOOP('',(#255,#256,#257,#258));
#157=EDGE_LOOP('',(#259));
#158=EDGE_LOOP('',(#260,#261,#262,#263,#264,#265,#266,#267,#268,#269,#270,
#271));
#159=EDGE_LOOP('',(#272));
#160=EDGE_LOOP('',(#273,#274,#275,#276,#277,#278,#279,#280,#281,#282,#283,
#284));
#161=LINE('',#481,#185);
#162=LINE('',#485,#186);
#163=LINE('',#489,#187);
#164=LINE('',#495,#188);
#165=LINE('',#499,#189);
#166=LINE('',#501,#190);
#167=LINE('',#503,#191);
#168=LINE('',#505,#192);
#169=LINE('',#507,#193);
#170=LINE('',#509,#194);
#171=LINE('',#511,#195);
#172=LINE('',#513,#196);
#173=LINE('',#515,#197);
#174=LINE('',#519,#198);
#175=LINE('',#525,#199);
#176=LINE('',#531,#200);
#177=LINE('',#535,#201);
#178=LINE('',#537,#202);
#179=LINE('',#539,#203);
#180=LINE('',#541,#204);
#181=LINE('',#543,#205);
#182=LINE('',#545,#206);
#183=LINE('',#552,#207);
#184=LINE('',#553,#208);
#185=VECTOR('',#397,1.);
#186=VECTOR('',#400,1.);
#187=VECTOR('',#405,1.);
#188=VECTOR('',#412,1.);
#189=VECTOR('',#417,1.);
#190=VECTOR('',#418,1.);
#191=VECTOR('',#419,1.);
#192=VECTOR('',#422,1.);
#193=VECTOR('',#423,1.);
#194=VECTOR('',#424,1.);
#195=VECTOR('',#427,1.);
#196=VECTOR('',#428,1.);
#197=VECTOR('',#429,1.);
#198=VECTOR('',#434,1.);
#199=VECTOR('',#441,1.);
#200=VECTOR('',#448,1.);
#201=VECTOR('',#453,1.);
#202=VECTOR('',#454,1.);
#203=VECTOR('',#455,1.);
#204=VECTOR('',#458,1.);
#205=VECTOR('',#459,1.);
#206=VECTOR('',#460,1.);
#207=VECTOR('',#469,1.);
#208=VECTOR('',#470,1.);
#209=ORIENTED_EDGE('',*,*,#311,.F.);
#210=ORIENTED_EDGE('',*,*,#312,.F.);
#211=ORIENTED_EDGE('',*,*,#313,.T.);
#212=ORIENTED_EDGE('',*,*,#314,.T.);
#213=ORIENTED_EDGE('',*,*,#315,.F.);
#214=ORIENTED_EDGE('',*,*,#316,.F.);
#215=ORIENTED_EDGE('',*,*,#317,.T.);
#216=ORIENTED_EDGE('',*,*,#312,.T.);
#217=ORIENTED_EDGE('',*,*,#318,.F.);
#218=ORIENTED_EDGE('',*,*,#319,.F.);
#219=ORIENTED_EDGE('',*,*,#320,.T.);
#220=ORIENTED_EDGE('',*,*,#316,.T.);
#221=ORIENTED_EDGE('',*,*,#321,.F.);
#222=ORIENTED_EDGE('',*,*,#322,.F.);
#223=ORIENTED_EDGE('',*,*,#323,.T.);
#224=ORIENTED_EDGE('',*,*,#319,.T.);
#225=ORIENTED_EDGE('',*,*,#324,.F.);
#226=ORIENTED_EDGE('',*,*,#325,.F.);
#227=ORIENTED_EDGE('',*,*,#326,.T.);
#228=ORIENTED_EDGE('',*,*,#322,.T.);
#229=ORIENTED_EDGE('',*,*,#327,.F.);
#230=ORIENTED_EDGE('',*,*,#328,.F.);
#231=ORIENTED_EDGE('',*,*,#329,.T.);
#232=ORIENTED_EDGE('',*,*,#325,.T.);
#233=ORIENTED_EDGE('',*,*,#330,.F.);
#234=ORIENTED_EDGE('',*,*,#331,.F.);
#235=ORIENTED_EDGE('',*,*,#332,.T.);
#236=ORIENTED_EDGE('',*,*,#328,.T.);
#237=ORIENTED_EDGE('',*,*,#333,.F.);
#238=ORIENTED_EDGE('',*,*,#334,.F.);
#239=ORIENTED_EDGE('',*,*,#335,.T.);
#240=ORIENTED_EDGE('',*,*,#331,.T.);
#241=ORIENTED_EDGE('',*,*,#336,.F.);
#242=ORIENTED_EDGE('',*,*,#337,.F.);
#243=ORIENTED_EDGE('',*,*,#338,.T.);
#244=ORIENTED_EDGE('',*,*,#334,.T.);
#245=ORIENTED_EDGE('',*,*,#339,.F.);
#246=ORIENTED_EDGE('',*,*,#340,.F.);
#247=ORIENTED_EDGE('',*,*,#341,.T.);
#248=ORIENTED_EDGE('',*,*,#337,.T.);
#249=ORIENTED_EDGE('',*,*,#342,.F.);
#250=ORIENTED_EDGE('',*,*,#343,.F.);
#251=ORIENTED_EDGE('',*,*,#344,.T.);
#252=ORIENTED_EDGE('',*,*,#340,.T.);
#253=ORIENTED_EDGE('',*,*,#345,.F.);
#254=ORIENTED_EDGE('',*,*,#346,.T.);
#255=ORIENTED_EDGE('',*,*,#347,.F.);
#256=ORIENTED_EDGE('',*,*,#314,.F.);
#257=ORIENTED_EDGE('',*,*,#348,.T.);
#258=ORIENTED_EDGE('',*,*,#343,.T.);
#259=ORIENTED_EDGE('',*,*,#345,.T.);
#260=ORIENTED_EDGE('',*,*,#313,.F.);
#261=ORIENTED_EDGE('',*,*,#317,.F.);
#262=ORIENTED_EDGE('',*,*,#320,.F.);
#263=ORIENTED_EDGE('',*,*,#323,.F.);
#264=ORIENTED_EDGE('',*,*,#326,.F.);
#265=ORIENTED_EDGE('',*,*,#329,.F.);
#266=ORIENTED_EDGE('',*,*,#332,.F.);
#267=ORIENTED_EDGE('',*,*,#335,.F.);
#268=ORIENTED_EDGE('',*,*,#338,.F.);
#269=ORIENTED_EDGE('',*,*,#341,.F.);
#270=ORIENTED_EDGE('',*,*,#344,.F.);
#271=ORIENTED_EDGE('',*,*,#348,.F.);
#272=ORIENTED_EDGE('',*,*,#346,.F.);
#273=ORIENTED_EDGE('',*,*,#311,.T.);
#274=ORIENTED_EDGE('',*,*,#347,.T.);
#275=ORIENTED_EDGE('',*,*,#342,.T.);
#276=ORIENTED_EDGE('',*,*,#339,.T.);
#277=ORIENTED_EDGE('',*,*,#336,.T.);
#278=ORIENTED_EDGE('',*,*,#333,.T.);
#279=ORIENTED_EDGE('',*,*,#330,.T.);
#280=ORIENTED_EDGE('',*,*,#327,.T.);
#281=ORIENTED_EDGE('',*,*,#324,.T.);
#282=ORIENTED_EDGE('',*,*,#321,.T.);
#283=ORIENTED_EDGE('',*,*,#318,.T.);
#284=ORIENTED_EDGE('',*,*,#315,.T.);
#285=VERTEX_POINT('',#479);
#286=VERTEX_POINT('',#480);
#287=VERTEX_POINT('',#482);
#288=VERTEX_POINT('',#484);
#289=VERTEX_POINT('',#488);
#290=VERTEX_POINT('',#490);
#291=VERTEX_POINT('',#494);
#292=VERTEX_POINT('',#496);
#293=VERTEX_POINT('',#500);
#294=VERTEX_POINT('',#502);
#295=VERTEX_POINT('',#506);
#296=VERTEX_POINT('',#508);
#297=VERTEX_POINT('',#512);
#298=VERTEX_POINT('',#514);
#299=VERTEX_POINT('',#518);
#300=VERTEX_POINT('',#520);
#301=VERTEX_POINT('',#524);
#302=VERTEX_POINT('',#526);
#303=VERTEX_POINT('',#530);
#304=VERTEX_POINT('',#532);
#305=VERTEX_POINT('',#536);
#306=VERTEX_POINT('',#538);
#307=VERTEX_POINT('',#542);
#308=VERTEX_POINT('',#544);
#309=VERTEX_POINT('',#548);
#310=VERTEX_POINT('',#550);
#311=EDGE_CURVE('',#285,#286,#349,.T.);
#312=EDGE_CURVE('',#287,#285,#161,.T.);
#313=EDGE_CURVE('',#287,#288,#350,.T.);
#314=EDGE_CURVE('',#288,#286,#162,.T.);
#315=EDGE_CURVE('',#289,#285,#351,.T.);
#316=EDGE_CURVE('',#290,#289,#163,.T.);
#317=EDGE_CURVE('',#290,#287,#352,.T.);
#318=EDGE_CURVE('',#291,#289,#353,.T.);
#319=EDGE_CURVE('',#292,#291,#164,.T.);
#320=EDGE_CURVE('',#292,#290,#354,.T.);
#321=EDGE_CURVE('',#293,#291,#165,.T.);
#322=EDGE_CURVE('',#294,#293,#166,.T.);
#323=EDGE_CURVE('',#294,#292,#167,.T.);
#324=EDGE_CURVE('',#295,#293,#168,.T.);
#325=EDGE_CURVE('',#296,#295,#169,.T.);
#326=EDGE_CURVE('',#296,#294,#170,.T.);
#327=EDGE_CURVE('',#297,#295,#171,.T.);
#328=EDGE_CURVE('',#298,#297,#172,.T.);
#329=EDGE_CURVE('',#298,#296,#173,.T.);
#330=EDGE_CURVE('',#299,#297,#355,.T.);
#331=EDGE_CURVE('',#300,#299,#174,.T.);
#332=EDGE_CURVE('',#300,#298,#356,.T.);
#333=EDGE_CURVE('',#301,#299,#357,.T.);
#334=EDGE_CURVE('',#302,#301,#175,.T.);
#335=EDGE_CURVE('',#302,#300,#358,.T.);
#336=EDGE_CURVE('',#303,#301,#359,.T.);
#337=EDGE_CURVE('',#304,#303,#176,.T.);
#338=EDGE_CURVE('',#304,#302,#360,.T.);
#339=EDGE_CURVE('',#305,#303,#177,.T.);
#340=EDGE_CURVE('',#306,#305,#178,.T.);
#341=EDGE_CURVE('',#306,#304,#179,.T.);
#342=EDGE_CURVE('',#307,#305,#180,.T.);
#343=EDGE_CURVE('',#308,#307,#181,.T.);
#344=EDGE_CURVE('',#308,#306,#182,.T.);
#345=EDGE_CURVE('',#309,#309,#361,.T.);
#346=EDGE_CURVE('',#310,#310,#362,.T.);
#347=EDGE_CURVE('',#286,#307,#183,.T.);
#348=EDGE_CURVE('',#288,#308,#184,.T.);
#349=CIRCLE('',#364,0.05);
#350=CIRCLE('',#365,0.05);
#351=CIRCLE('',#367,0.125);
#352=CIRCLE('',#368,0.125);
#353=CIRCLE('',#370,0.05);
#354=CIRCLE('',#371,0.05);
#355=CIRCLE('',#376,0.05);
#356=CIRCLE('',#377,0.05);
#357=CIRCLE('',#379,0.125);
#358=CIRCLE('',#380,0.125);
#359=CIRCLE('',#382,0.05);
#360=CIRCLE('',#383,0.05);
#361=CIRCLE('',#387,0.5);
#362=CIRCLE('',#388,0.5);
#363=AXIS2_PLACEMENT_3D('',#477,#393,#394);
#364=AXIS2_PLACEMENT_3D('',#478,#395,#396);
#365=AXIS2_PLACEMENT_3D('',#483,#398,#399);
#366=AXIS2_PLACEMENT_3D('',#486,#401,#402);
#367=AXIS2_PLACEMENT_3D('',#487,#403,#404);
#368=AXIS2_PLACEMENT_3D('',#491,#406,#407);
#369=AXIS2_PLACEMENT_3D('',#492,#408,#409);
#370=AXIS2_PLACEMENT_3D('',#493,#410,#411);
#371=AXIS2_PLACEMENT_3D('',#497,#413,#414);
#372=AXIS2_PLACEMENT_3D('',#498,#415,#416);
#373=AXIS2_PLACEMENT_3D('',#504,#420,#421);
#374=AXIS2_PLACEMENT_3D('',#510,#425,#426);
#375=AXIS2_PLACEMENT_3D('',#516,#430,#431);
#376=AXIS2_PLACEMENT_3D('',#517,#432,#433);
#377=AXIS2_PLACEMENT_3D('',#521,#435,#436);
#378=AXIS2_PLACEMENT_3D('',#522,#437,#438);
#379=AXIS2_PLACEMENT_3D('',#523,#439,#440);
#380=AXIS2_PLACEMENT_3D('',#527,#442,#443);
#381=AXIS2_PLACEMENT_3D('',#528,#444,#445);
#382=AXIS2_PLACEMENT_3D('',#529,#446,#447);
#383=AXIS2_PLACEMENT_3D('',#533,#449,#450);
#384=AXIS2_PLACEMENT_3D('',#534,#451,#452);
#385=AXIS2_PLACEMENT_3D('',#540,#456,#457);
#386=AXIS2_PLACEMENT_3D('',#546,#461,#462);
#387=AXIS2_PLACEMENT_3D('',#547,#463,#464);
#388=AXIS2_PLACEMENT_3D('',#549,#465,#466);
#389=AXIS2_PLACEMENT_3D('',#551,#467,#468);
#390=AXIS2_PLACEMENT_3D('',#554,#471,#472);
#391=AXIS2_PLACEMENT_3D('',#555,#473,#474);
#392=AXIS2_PLACEMENT_3D('',#556,#475,#476);
#393=DIRECTION('',(0.,0.,1.));
#394=DIRECTION('',(1.,0.,0.));
#395=DIRECTION('',(0.,0.,-1.));
#396=DIRECTION('',(1.,0.,0.));
#397=DIRECTION('',(0.,0.,-1.));
#398=DIRECTION('',(0.,0.,-1.));
#399=DIRECTION('',(1.,0.,0.));
#400=DIRECTION('',(0.,0.,-1.));
#401=DIRECTION('',(0.,0.,-1.));
#402=DIRECTION('',(-1.,0.,0.));
#403=DIRECTION('',(0.,0.,1.));
#404=DIRECTION('',(1.,0.,0.));
#405=DIRECTION('',(0.,0.,-1.));
#406=DIRECTION('',(0.,0.,1.));
#407=DIRECTION('',(1.,0.,0.));
#408=DIRECTION('',(0.,0.,-1.));
#409=DIRECTION('',(-1.,0.,0.));
#410=DIRECTION('',(0.,0.,-1.));
#411=DIRECTION('',(1.,0.,0.));
#412=DIRECTION('',(0.,0.,-1.));
#413=DIRECTION('',(0.,0.,-1.));
#414=DIRECTION('',(1.,0.,0.));
#415=DIRECTION('',(0.,0.,-1.));
#416=DIRECTION('',(-1.,0.,0.));
#417=DIRECTION('',(-1.,-7.94138317806598E-015,0.));
#418=DIRECTION('',(0.,0.,-1.));
#419=DIRECTION('',(-1.,-7.94138317806598E-015,0.));
#420=DIRECTION('',(7.94138317806598E-015,-1.,0.));
#421=DIRECTION('',(1.,7.94134723258733E-015,0.));
#422=DIRECTION('',(0.,1.,0.));
#423=DIRECTION('',(0.,0.,-1.));
#424=DIRECTION('',(0.,1.,0.));
#425=DIRECTION('',(-1.,0.,0.));
#426=DIRECTION('',(0.,0.,1.));
#427=DIRECTION('',(1.,-8.75778705618492E-015,0.));
#428=DIRECTION('',(0.,0.,-1.));
#429=DIRECTION('',(1.,-8.75778705618492E-015,0.));
#430=DIRECTION('',(8.75778705618492E-015,1.,0.));
#431=DIRECTION('',(-1.,8.75775146846891E-015,0.));
#432=DIRECTION('',(0.,0.,-1.));
#433=DIRECTION('',(1.,0.,0.));
#434=DIRECTION('',(0.,0.,-1.));
#435=DIRECTION('',(0.,0.,-1.));
#436=DIRECTION('',(1.,0.,0.));
#437=DIRECTION('',(0.,0.,-1.));
#438=DIRECTION('',(-1.,0.,0.));
#439=DIRECTION('',(0.,0.,1.));
#440=DIRECTION('',(1.,0.,0.));
#441=DIRECTION('',(0.,0.,-1.));
#442=DIRECTION('',(0.,0.,1.));
#443=DIRECTION('',(1.,0.,0.));
#444=DIRECTION('',(0.,0.,-1.));
#445=DIRECTION('',(-1.,0.,0.));
#446=DIRECTION('',(0.,0.,-1.));
#447=DIRECTION('',(1.,0.,0.));
#448=DIRECTION('',(0.,0.,-1.));
#449=DIRECTION('',(0.,0.,-1.));
#450=DIRECTION('',(1.,0.,0.));
#451=DIRECTION('',(0.,0.,-1.));
#452=DIRECTION('',(-1.,0.,0.));
#453=DIRECTION('',(1.,2.72382021154231E-014,0.));
#454=DIRECTION('',(0.,0.,-1.));
#455=DIRECTION('',(1.,2.72382021154231E-014,0.));
#456=DIRECTION('',(-2.72382021154231E-014,1.,0.));
#457=DIRECTION('',(-1.,-2.72381943389188E-014,0.));
#458=DIRECTION('',(0.,-1.,0.));
#459=DIRECTION('',(0.,0.,-1.));
#460=DIRECTION('',(0.,-1.,0.));
#461=DIRECTION('',(1.,0.,0.));
#462=DIRECTION('',(0.,0.,-1.));
#463=DIRECTION('',(0.,0.,1.));
#464=DIRECTION('',(1.,0.,0.));
#465=DIRECTION('',(0.,0.,1.));
#466=DIRECTION('',(1.,0.,0.));
#467=DIRECTION('',(0.,0.,-1.));
#468=DIRECTION('',(-1.,0.,0.));
#469=DIRECTION('',(-1.,-7.64450904056807E-015,0.));
#470=DIRECTION('',(-1.,-7.64450904056807E-015,0.));
#471=DIRECTION('',(7.64450904056807E-015,-1.,0.));
#472=DIRECTION('',(1.,7.64449267776079E-015,0.));
#473=DIRECTION('',(0.,0.,1.));
#474=DIRECTION('',(1.,0.,0.));
#475=DIRECTION('',(0.,0.,1.));
#476=DIRECTION('',(1.,0.,0.));
#477=CARTESIAN_POINT('',(0.,0.,0.));
#478=CARTESIAN_POINT('',(-0.122474487139158,0.125000000000001,0.));
#479=CARTESIAN_POINT('',(-0.08748177652797,0.0892857142857149,0.));
#480=CARTESIAN_POINT('',(-0.122474487139158,0.0750000000000009,0.));
#481=CARTESIAN_POINT('',(-0.08748177652797,0.0892857142857149,0.125));
#482=CARTESIAN_POINT('',(-0.08748177652797,0.0892857142857149,0.125));
#483=CARTESIAN_POINT('',(-0.122474487139158,0.125000000000001,0.125));
#484=CARTESIAN_POINT('',(-0.122474487139158,0.0750000000000009,0.125));
#485=CARTESIAN_POINT('',(-0.122474487139158,0.0750000000000009,0.125));
#486=CARTESIAN_POINT('',(-0.122474487139158,0.125000000000001,0.125));
#487=CARTESIAN_POINT('',(0.,0.,0.));
#488=CARTESIAN_POINT('',(0.0874817765279713,0.0892857142857136,0.));
#489=CARTESIAN_POINT('',(0.0874817765279713,0.0892857142857136,0.125));
#490=CARTESIAN_POINT('',(0.0874817765279713,0.0892857142857136,0.125));
#491=CARTESIAN_POINT('',(0.,0.,0.125));
#492=CARTESIAN_POINT('',(0.,0.,0.125));
#493=CARTESIAN_POINT('',(0.12247448713916,0.124999999999999,0.));
#494=CARTESIAN_POINT('',(0.12247448713916,0.0749999999999991,0.));
#495=CARTESIAN_POINT('',(0.12247448713916,0.0749999999999991,0.125));
#496=CARTESIAN_POINT('',(0.12247448713916,0.0749999999999991,0.125));
#497=CARTESIAN_POINT('',(0.12247448713916,0.124999999999999,0.125));
#498=CARTESIAN_POINT('',(0.12247448713916,0.124999999999999,0.125));
#499=CARTESIAN_POINT('',(0.2375,0.075,0.));
#500=CARTESIAN_POINT('',(0.2375,0.075,0.));
#501=CARTESIAN_POINT('',(0.2375,0.075,0.125));
#502=CARTESIAN_POINT('',(0.2375,0.075,0.125));
#503=CARTESIAN_POINT('',(0.2375,0.075,0.125));
#504=CARTESIAN_POINT('',(0.2375,0.075,0.125));
#505=CARTESIAN_POINT('',(0.2375,-0.075,0.));
#506=CARTESIAN_POINT('',(0.2375,-0.075,0.));
#507=CARTESIAN_POINT('',(0.2375,-0.075,0.125));
#508=CARTESIAN_POINT('',(0.2375,-0.075,0.125));
#509=CARTESIAN_POINT('',(0.2375,-0.075,0.125));
#510=CARTESIAN_POINT('',(0.2375,-0.075,0.125));
#511=CARTESIAN_POINT('',(0.12247448713916,-0.074999999999999,0.));
#512=CARTESIAN_POINT('',(0.12247448713916,-0.074999999999999,0.));
#513=CARTESIAN_POINT('',(0.12247448713916,-0.074999999999999,0.125));
#514=CARTESIAN_POINT('',(0.12247448713916,-0.074999999999999,0.125));
#515=CARTESIAN_POINT('',(0.12247448713916,-0.074999999999999,0.125));
#516=CARTESIAN_POINT('',(0.12247448713916,-0.074999999999999,0.125));
#517=CARTESIAN_POINT('',(0.12247448713916,-0.124999999999999,0.));
#518=CARTESIAN_POINT('',(0.0874817765278009,-0.0892857142858806,0.));
#519=CARTESIAN_POINT('',(0.0874817765278009,-0.0892857142858806,0.125));
#520=CARTESIAN_POINT('',(0.0874817765278009,-0.0892857142858806,0.125));
#521=CARTESIAN_POINT('',(0.12247448713916,-0.124999999999999,0.125));
#522=CARTESIAN_POINT('',(0.12247448713916,-0.124999999999999,0.125));
#523=CARTESIAN_POINT('',(0.,0.,0.));
#524=CARTESIAN_POINT('',(-0.0874817765279729,-0.0892857142857121,0.));
#525=CARTESIAN_POINT('',(-0.0874817765279729,-0.0892857142857121,0.125));
#526=CARTESIAN_POINT('',(-0.0874817765279729,-0.0892857142857121,0.125));
#527=CARTESIAN_POINT('',(0.,0.,0.125));
#528=CARTESIAN_POINT('',(0.,0.,0.125));
#529=CARTESIAN_POINT('',(-0.122474487139162,-0.124999999999997,0.));
#530=CARTESIAN_POINT('',(-0.122474487139162,-0.0749999999999969,0.));
#531=CARTESIAN_POINT('',(-0.122474487139162,-0.0749999999999969,0.125));
#532=CARTESIAN_POINT('',(-0.122474487139162,-0.0749999999999969,0.125));
#533=CARTESIAN_POINT('',(-0.122474487139162,-0.124999999999997,0.125));
#534=CARTESIAN_POINT('',(-0.122474487139162,-0.124999999999997,0.125));
#535=CARTESIAN_POINT('',(-0.2375,-0.075,0.));
#536=CARTESIAN_POINT('',(-0.2375,-0.075,0.));
#537=CARTESIAN_POINT('',(-0.2375,-0.075,0.125));
#538=CARTESIAN_POINT('',(-0.2375,-0.075,0.125));
#539=CARTESIAN_POINT('',(-0.2375,-0.075,0.125));
#540=CARTESIAN_POINT('',(-0.2375,-0.075,0.125));
#541=CARTESIAN_POINT('',(-0.2375,0.075,0.));
#542=CARTESIAN_POINT('',(-0.2375,0.075,0.));
#543=CARTESIAN_POINT('',(-0.2375,0.075,0.125));
#544=CARTESIAN_POINT('',(-0.2375,0.075,0.125));
#545=CARTESIAN_POINT('',(-0.2375,0.075,0.125));
#546=CARTESIAN_POINT('',(-0.2375,0.075,0.125));
#547=CARTESIAN_POINT('',(0.,0.,0.125));
#548=CARTESIAN_POINT('',(0.5,0.,0.125));
#549=CARTESIAN_POINT('',(0.,0.,0.));
#550=CARTESIAN_POINT('',(0.5,0.,0.));
#551=CARTESIAN_POINT('',(0.,0.,0.125));
#552=CARTESIAN_POINT('',(-0.122474487139158,0.0750000000000009,0.));
#553=CARTESIAN_POINT('',(-0.122474487139158,0.0750000000000009,0.125));
#554=CARTESIAN_POINT('',(-0.122474487139158,0.0750000000000009,0.125));
#555=CARTESIAN_POINT('',(0.,0.,0.125));
#556=CARTESIAN_POINT('',(0.,0.,0.));
#557=(
GEOMETRIC_REPRESENTATION_CONTEXT(3)
GLOBAL_UNCERTAINTY_ASSIGNED_CONTEXT((#558))
GLOBAL_UNIT_ASSIGNED_CONTEXT((#563,#560,#559))
REPRESENTATION_CONTEXT('QB-WASHER-Q (14L203RF_05)',
'TOP_LEVEL_ASSEMBLY_PART')
);
#558=UNCERTAINTY_MEASURE_WITH_UNIT(LENGTH_MEASURE(7.8740157480315E-007),
#563,'DISTANCE_ACCURACY_VALUE','Maximum Tolerance applied to model');
#559=(
NAMED_UNIT(*)
SI_UNIT($,.STERADIAN.)
SOLID_ANGLE_UNIT()
);
#560=(
CONVERSION_BASED_UNIT('DEGREE',#561)
NAMED_UNIT(#565)
PLANE_ANGLE_UNIT()
);
#561=PLANE_ANGLE_MEASURE_WITH_UNIT(PLANE_ANGLE_MEASURE(0.0174532925),#562);
#562=(
NAMED_UNIT(*)
PLANE_ANGLE_UNIT()
SI_UNIT($,.RADIAN.)
);
#563=(
CONVERSION_BASED_UNIT('INCH',#566)
LENGTH_UNIT()
NAMED_UNIT(#564)
);
#564=DIMENSIONAL_EXPONENTS(1.,0.,0.,0.,0.,0.,0.);
#565=DIMENSIONAL_EXPONENTS(0.,0.,0.,0.,0.,0.,0.);
#566=LENGTH_MEASURE_WITH_UNIT(LENGTH_MEASURE(25.4),#567);
#567=(
LENGTH_UNIT()
NAMED_UNIT(*)
SI_UNIT(.MILLI.,.METRE.)
);
ENDSEC;
END-ISO-10303-21;
