  0
SECTION
  2
HEADER
  9
$ACADVER
  1
AC1015
  9
$ACADMAINTVER
 70
    20
  9
$DWGCODEPAGE
  3
ANSI_1252
  9
$INSBASE
 10
0.0
 20
0.0
 30
0.0
  9
$EXTMIN
 10
-0.5
 20
-0.5
 30
-0.5
  9
$EXTMAX
 10
5.0
 20
5.0
 30
5.0
  9
$LIMMIN
 10
-0.5
 20
-0.5
  9
$LIMMAX
 10
5.0
 20
5.0
  9
$ORTHOMODE
 70
     0
  9
$REGENMODE
 70
     1
  9
$FILLMODE
 70
     1
  9
$QTEXTMODE
 70
     0
  9
$MIRRTEXT
 70
     1
  9
$LTSCALE
 40
1.0
  9
$ATTMODE
 70
     1
  9
$TEXTSIZE
 40
0.0
  9
$TRACEWID
 40
0.05
  9
$TEXTSTYLE
  7
Standard
  9
$CLAYER
  8
0
  9
$CELTYPE
  6
Continuous
  9
$CECOLOR
 62
   256
  9
$CELTSCALE
 40
1.0
  9
$DISPSILH
 70
     0
  9
$DIMSCALE
 40
1.0
  9
$DIMASZ
 40
0.18
  9
$DIMEXO
 40
0.0625
  9
$DIMDLI
 40
0.38
  9
$DIMRND
 40
0.0
  9
$DIMDLE
 40
0.0
  9
$DIMEXE
 40
0.18
  9
$DIMTP
 40
0.0
  9
$DIMTM
 40
0.0
  9
$DIMTXT
 40
0.18
  9
$DIMCEN
 40
0.09
  9
$DIMTSZ
 40
0.0
  9
$DIMTOL
 70
     0
  9
$DIMLIM
 70
     0
  9
$DIMTIH
 70
     1
  9
$DIMTOH
 70
     1
  9
$DIMSE1
 70
     0
  9
$DIMSE2
 70
     0
  9
$DIMTAD
 70
     0
  9
$DIMZIN
 70
     0
  9
$DIMBLK
  1

  9
$DIMASO
 70
     1
  9
$DIMSHO
 70
     1
  9
$DIMPOST
  1

  9
$DIMAPOST
  1

  9
$DIMALT
 70
     0
  9
$DIMALTD
 70
     2
  9
$DIMALTF
 40
25.4
  9
$DIMLFAC
 40
1.0
  9
$DIMTOFL
 70
     0
  9
$DIMTVP
 40
0.0
  9
$DIMTIX
 70
     0
  9
$DIMSOXD
 70
     0
  9
$DIMSAH
 70
     0
  9
$DIMBLK1
  1

  9
$DIMBLK2
  1

  9
$DIMSTYLE
  2
Standard
  9
$DIMCLRD
 70
     0
  9
$DIMCLRE
 70
     0
  9
$DIMCLRT
 70
     0
  9
$DIMTFAC
 40
1.0
  9
$DIMGAP
 40
0.09
  9
$DIMJUST
 70
     0
  9
$DIMSD1
 70
     0
  9
$DIMSD2
 70
     0
  9
$DIMTOLJ
 70
     1
  9
$DIMTZIN
 70
     0
  9
$DIMALTZ
 70
     0
  9
$DIMALTTZ
 70
     0
  9
$DIMUPT
 70
     0
  9
$DIMDEC
 70
     4
  9
$DIMTDEC
 70
     4
  9
$DIMALTU
 70
     2
  9
$DIMALTTD
 70
     2
  9
$DIMTXSTY
  7
Standard
  9
$DIMAUNIT
 70
     0
  9
$DIMADEC
 70
     0
  9
$DIMALTRND
 40
0.0
  9
$DIMAZIN
 70
     0
  9
$DIMDSEP
 70
     0
  9
$DIMATFIT
 70
     3
  9
$DIMFRAC
 70
     0
  9
$DIMLDRBLK
  1

  9
$DIMLUNIT
 70
     2
  9
$DIMLWD
 70
     0
  9
$DIMLWE
 70
     0
  9
$DIMTMOVE
 70
     0
  9
$LUNITS
 70
     2
  9
$LUPREC
 70
     4
  9
$SKETCHINC
 40
0.1
  9
$FILLETRAD
 40
0.0
  9
$AUNITS
 70
     0
  9
$AUPREC
 70
     0
  9
$MENU
  1
acad
  9
$ELEVATION
 40
0.0
  9
$PELEVATION
 40
0.0
  9
$THICKNESS
 40
0.0
  9
$LIMCHECK
 70
     0
  9
$CHAMFERA
 40
0.0
  9
$CHAMFERB
 40
0.0
  9
$CHAMFERC
 40
0.0
  9
$CHAMFERD
 40
0.0
  9
$SKPOLY
 70
     0
  9
$TDCREATE
 40
2455352.711212002
  9
$TDUCREATE
 40
2455352.919545336
  9
$TDUPDATE
 40
2455352.713837639
  9
$TDUUPDATE
 40
2455352.922170973
  9
$TDINDWG
 40
0.0026279861
  9
$TDUSRTIMER
 40
0.0026279861
  9
$USRTIMER
 70
     1
  9
$ANGBASE
 50
0.0
  9
$ANGDIR
 70
     0
  9
$PDMODE
 70
     0
  9
$PDSIZE
 40
0.0
  9
$PLINEWID
 40
0.0
  9
$SPLFRAME
 70
     0
  9
$SPLINETYPE
 70
     6
  9
$SPLINESEGS
 70
     8
  9
$HANDSEED
  5
3BA
  9
$SURFTAB1
 70
     6
  9
$SURFTAB2
 70
     6
  9
$SURFTYPE
 70
     6
  9
$SURFU
 70
     6
  9
$SURFV
 70
     6
  9
$UCSBASE
  2

  9
$UCSNAME
  2

  9
$UCSORG
 10
0.0
 20
0.0
 30
0.0
  9
$UCSXDIR
 10
1.0
 20
0.0
 30
0.0
  9
$UCSYDIR
 10
0.0
 20
1.0
 30
0.0
  9
$UCSORTHOREF
  2

  9
$UCSORTHOVIEW
 70
     0
  9
$UCSORGTOP
 10
0.0
 20
0.0
 30
0.0
  9
$UCSORGBOTTOM
 10
0.0
 20
0.0
 30
0.0
  9
$UCSORGLEFT
 10
0.0
 20
0.0
 30
0.0
  9
$UCSORGRIGHT
 10
0.0
 20
0.0
 30
0.0
  9
$UCSORGFRONT
 10
0.0
 20
0.0
 30
0.0
  9
$UCSORGBACK
 10
0.0
 20
0.0
 30
0.0
  9
$PUCSBASE
  2

  9
$PUCSNAME
  2

  9
$PUCSORG
 10
0.0
 20
0.0
 30
0.0
  9
$PUCSXDIR
 10
1.0
 20
0.0
 30
0.0
  9
$PUCSYDIR
 10
0.0
 20
1.0
 30
0.0
  9
$PUCSORTHOREF
  2

  9
$PUCSORTHOVIEW
 70
     0
  9
$PUCSORGTOP
 10
0.0
 20
0.0
 30
0.0
  9
$PUCSORGBOTTOM
 10
0.0
 20
0.0
 30
0.0
  9
$PUCSORGLEFT
 10
0.0
 20
0.0
 30
0.0
  9
$PUCSORGRIGHT
 10
0.0
 20
0.0
 30
0.0
  9
$PUCSORGFRONT
 10
0.0
 20
0.0
 30
0.0
  9
$PUCSORGBACK
 10
0.0
 20
0.0
 30
0.0
  9
$USERI1
 70
     0
  9
$USERI2
 70
     0
  9
$USERI3
 70
     0
  9
$USERI4
 70
     0
  9
$USERI5
 70
     0
  9
$USERR1
 40
0.0
  9
$USERR2
 40
0.0
  9
$USERR3
 40
0.0
  9
$USERR4
 40
0.0
  9
$USERR5
 40
0.0
  9
$WORLDVIEW
 70
     1
  9
$SHADEDGE
 70
     3
  9
$SHADEDIF
 70
    70
  9
$TILEMODE
 70
     0
  9
$MAXACTVP
 70
    64
  9
$PINSBASE
 10
0.0
 20
0.0
 30
0.0
  9
$PLIMCHECK
 70
     0
  9
$PEXTMIN
 10
2.169517546973093
 20
3.79812624666156
 30
-0.0004043445228632
  9
$PEXTMAX
 10
5.939620992564151
 20
4.528717057347201
 30
0.0000152657740013
  9
$PLIMMIN
 10
2.079753088864411
 20
3.708361876181043
  9
$PLIMMAX
 10
6.029385363044668
 20
6.760350432074869
  9
$UNITMODE
 70
     0
  9
$VISRETAIN
 70
     0
  9
$PLINEGEN
 70
     1
  9
$PSLTSCALE
 70
     0
  9
$TREEDEPTH
 70
  3020
  9
$CMLSTYLE
  2
Standard
  9
$CMLJUST
 70
     0
  9
$CMLSCALE
 40
1.0
  9
$PROXYGRAPHICS
 70
     0
  9
$MEASUREMENT
 70
     0
  9
$CELWEIGHT
370
     0
  9
$ENDCAPS
280
     0
  9
$JOINSTYLE
280
     0
  9
$LWDISPLAY
290
     0
  9
$INSUNITS
 70
     0
  9
$HYPERLINKBASE
  1

  9
$STYLESHEET
  1

  9
$XEDIT
290
     1
  9
$CEPSNTYPE
380
     0
  9
$PSTYLEMODE
290
     1
  9
$FINGERPRINTGUID
  2

  9
$VERSIONGUID
  2
{4A8341EC-37D6-48FC-B7D4-A62CF89412D3}
  9
$EXTNAMES
290
     1
  9
$PSVPSCALE
 40
0.0
  9
$OLESTARTUP
290
     0
  0
ENDSEC
  0
SECTION
  2
CLASSES
  0
CLASS
  1
IMAGE
  2
AcDbRasterImage
  3
ISM
 90
    34943
280
     0
281
     1
  0
CLASS
  1
DICTIONARYVAR
  2
AcDbDictionaryVar
  3
ObjectDBX Classes
 90
        0
280
     0
281
     0
  0
CLASS
  1
RASTERVARIABLES
  2
AcDbRasterVariables
  3
ISM
 90
    32768
280
     0
281
     0
  0
CLASS
  1
IMAGEDEF
  2
AcDbRasterImageDef
  3
ISM
 90
    32768
280
     0
281
     0
  0
CLASS
  1
IMAGEDEF_REACTOR
  2
AcDbRasterImageDefReactor
  3
ISM
 90
    32769
280
     0
281
     0
  0
CLASS
  1
IDBUFFER
  2
AcDbIdBuffer
  3
ObjectDBX Classes
 90
    32768
280
     0
281
     0
  0
CLASS
  1
SPATIAL_FILTER
  2
AcDbSpatialFilter
  3
ObjectDBX Classes
 90
    32768
280
     0
281
     0
  0
CLASS
  1
SORTENTSTABLE
  2
AcDbSortentsTable
  3
ObjectDBX Classes
 90
    32768
280
     0
281
     0
  0
CLASS
  1
LAYER_INDEX
  2
AcDbLayerIndex
  3
ObjectDBX Classes
 90
    32768
280
     0
281
     0
  0
CLASS
  1
SPATIAL_INDEX
  2
AcDbSpatialIndex
  3
ObjectDBX Classes
 90
    32768
280
     0
281
     0
  0
CLASS
  1
OBJECT_PTR
  2
CAseDLPNTableRecord
  3
ASE-LPNTableRecord
 90
    32769
280
     0
281
     0
  0
CLASS
  1
LAYOUT
  2
AcDbLayout
  3
ObjectDBX Classes
 90
        0
280
     0
281
     0
  0
CLASS
  1
PLOTSETTINGS
  2
AcDbPlotSettings
  3
ObjectDBX Classes
 90
    32768
280
     0
281
     0
  0
CLASS
  1
ACDBDICTIONARYWDFLT
  2
AcDbDictionaryWithDefault
  3
ObjectDBX Classes
 90
        0
280
     0
281
     0
  0
CLASS
  1
ACDBPLACEHOLDER
  2
AcDbPlaceHolder
  3
ObjectDBX Classes
 90
        0
280
     0
281
     0
  0
CLASS
  1
VBA_PROJECT
  2
AcDbVbaProject
  3
acad
 90
    32768
280
     0
281
     0
  0
CLASS
  1
WIPEOUT
  2
AcDbWipeout
  3
"WipeOut|Product Desc: Object Enabler for WipeOut entity                        |Company: Autodesk, Inc.                        |WEB Address: www.autodesk.com"
 90
    34943
280
     0
281
     1
  0
CLASS
  1
WIPEOUTVARIABLES
  2
AcDbWipeoutVariables
  3
"WipeOut|Product Desc:     WipeOut Dbx Application|Company:          Autodesk, Inc.|WEB Address:      www.autodesk.com"
 90
        0
280
     0
281
     0
  0
CLASS
  1
RTEXT
  2
RText
  3
RText|AutoCAD Express Tool|expresstools@autodesk.com
 90
    35839
280
     0
281
     1
  0
CLASS
  1
ARCALIGNEDTEXT
  2
AcDbArcAlignedText
  3
ATEXT|AutoCAD Express Tool|expresstools@autodesk.com
 90
    32768
280
     0
281
     1
  0
CLASS
  1
MATERIAL
  2
AcDbMaterial
  3
ObjectDBX Classes
 90
     1024
280
     0
281
     0
  0
CLASS
  1
VISUALSTYLE
  2
AcDbVisualStyle
  3
ObjectDBX Classes
 90
     4095
280
     0
281
     0
  0
CLASS
  1
TABLESTYLE
  2
AcDbTableStyle
  3
ObjectDBX Classes
 90
     4095
280
     0
281
     0
  0
ENDSEC
  0
SECTION
  2
TABLES
  0
TABLE
  2
VPORT
  5
7
330
0
100
AcDbSymbolTable
 70
    16
  0
VPORT
  5
371
330
7
100
AcDbSymbolTableRecord
100
AcDbViewportTableRecord
  2
*ACTIVE
 70
     0
 10
0.0
 20
0.0
 11
1.0
 21
1.0
 12
0.0
 22
0.0
 13
0.0
 23
0.0
 14
1.0
 24
1.0
 15
0.0
 25
0.0
 16
0.718873
 26
-0.5850489999999999
 36
0.375419
 17
0.0
 27
0.0
 37
0.0
 40
45.47360499999999
 41
0.6885640000000001
 42
50.0
 43
22.4721
 44
-22.4721
 50
0.0
 51
0.0
 71
    16
 72
   100
 73
     1
 74
     1
 75
     0
 76
     0
 77
     0
 78
     0
281
     0
 65
     0
110
0.0
120
0.0
130
0.0
111
1.0
121
0.0
131
0.0
112
0.0
122
1.0
132
0.0
 79
     0
146
0.0
  0
VPORT
  5
372
330
7
100
AcDbSymbolTableRecord
100
AcDbViewportTableRecord
  2
L1
 70
     0
 10
0.0
 20
0.0
 11
1.0
 21
1.0
 12
0.0
 22
0.0
 13
0.0
 23
0.0
 14
1.0
 24
1.0
 15
0.0
 25
0.0
 16
0.718873
 26
-0.5850489999999999
 36
0.375419
 17
0.0
 27
0.0
 37
0.0
 40
45.47360499999999
 41
0.6885640000000001
 42
50.0
 43
22.4721
 44
-22.4721
 50
0.0
 51
0.0
 71
    16
 72
   100
 73
     1
 74
     1
 75
     0
 76
     0
 77
     0
 78
     0
281
     0
 65
     0
110
0.0
120
0.0
130
0.0
111
1.0
121
0.0
131
0.0
112
0.0
122
1.0
132
0.0
 79
     0
146
0.0
  0
VPORT
  5
373
330
7
100
AcDbSymbolTableRecord
100
AcDbViewportTableRecord
  2
L2
 70
     0
 10
0.0
 20
0.0
 11
0.5
 21
1.0
 12
0.0
 22
0.0
 13
0.0
 23
0.0
 14
1.0
 24
1.0
 15
0.0
 25
0.0
 16
0.0
 26
-1.0
 36
0.0
 17
0.0
 27
0.0
 37
0.0
 40
43.848
 41
0.6885640000000001
 42
50.0
 43
22.625359
 44
-22.625359
 50
0.0
 51
0.0
 71
    16
 72
   100
 73
     1
 74
     1
 75
     0
 76
     0
 77
     0
 78
     0
281
     0
 65
     0
110
0.0
120
0.0
130
0.0
111
1.0
121
0.0
131
0.0
112
0.0
122
1.0
132
0.0
 79
     0
146
0.0
  0
VPORT
  5
374
330
7
100
AcDbSymbolTableRecord
100
AcDbViewportTableRecord
  2
L2
 70
     0
 10
0.5
 20
0.0
 11
1.0
 21
1.0
 12
0.0
 22
0.0
 13
0.0
 23
0.0
 14
1.0
 24
1.0
 15
0.0
 25
0.0
 16
1.0
 26
0.0
 36
0.0
 17
0.0
 27
0.0
 37
0.0
 40
43.848
 41
0.6885640000000001
 42
50.0
 43
22.175271
 44
-22.175271
 50
0.0
 51
0.0
 71
    16
 72
   100
 73
     1
 74
     1
 75
     0
 76
     0
 77
     0
 78
     0
281
     0
 65
     0
110
0.0
120
0.0
130
0.0
111
1.0
121
0.0
131
0.0
112
0.0
122
1.0
132
0.0
 79
     0
146
0.0
  0
VPORT
  5
375
330
7
100
AcDbSymbolTableRecord
100
AcDbViewportTableRecord
  2
L3
 70
     0
 10
0.0
 20
0.5
 11
1.0
 21
1.0
 12
0.0
 22
0.0
 13
0.0
 23
0.0
 14
1.0
 24
1.0
 15
0.0
 25
0.0
 16
0.0
 26
0.0
 36
1.0
 17
0.0
 27
0.0
 37
0.0
 40
6.657592999999999
 41
0.6885640000000003
 42
50.0
 43
21.924
 44
-21.924
 50
0.0
 51
0.0
 71
    16
 72
   100
 73
     1
 74
     1
 75
     0
 76
     0
 77
     0
 78
     0
281
     0
 65
     0
110
0.0
120
0.0
130
0.0
111
1.0
121
0.0
131
0.0
112
0.0
122
1.0
132
0.0
 79
     0
146
0.0
  0
VPORT
  5
376
330
7
100
AcDbSymbolTableRecord
100
AcDbViewportTableRecord
  2
L3
 70
     0
 10
0.0
 20
0.0
 11
1.0
 21
0.5
 12
0.0
 22
0.0
 13
0.0
 23
0.0
 14
1.0
 24
1.0
 15
0.0
 25
0.0
 16
0.0
 26
-1.0
 36
0.0
 17
0.0
 27
0.0
 37
0.0
 40
43.848
 41
0.6885640000000001
 42
50.0
 43
22.625359
 44
-22.625359
 50
0.0
 51
0.0
 71
    16
 72
   100
 73
     1
 74
     1
 75
     0
 76
     0
 77
     0
 78
     0
281
     0
 65
     0
110
0.0
120
0.0
130
0.0
111
1.0
121
0.0
131
0.0
112
0.0
122
1.0
132
0.0
 79
     0
146
0.0
  0
VPORT
  5
377
330
7
100
AcDbSymbolTableRecord
100
AcDbViewportTableRecord
  2
L4
 70
     0
 10
0.0
 20
0.5
 11
0.5
 21
1.0
 12
0.0
 22
0.0
 13
0.0
 23
0.0
 14
1.0
 24
1.0
 15
0.0
 25
0.0
 16
0.0
 26
0.0
 36
1.0
 17
0.0
 27
0.0
 37
0.0
 40
6.657592999999999
 41
0.6885640000000003
 42
50.0
 43
21.924
 44
-21.924
 50
0.0
 51
0.0
 71
    16
 72
   100
 73
     1
 74
     1
 75
     0
 76
     0
 77
     0
 78
     0
281
     0
 65
     0
110
0.0
120
0.0
130
0.0
111
1.0
121
0.0
131
0.0
112
0.0
122
1.0
132
0.0
 79
     0
146
0.0
  0
VPORT
  5
378
330
7
100
AcDbSymbolTableRecord
100
AcDbViewportTableRecord
  2
L4
 70
     0
 10
0.0
 20
0.0
 11
0.5
 21
0.5
 12
0.0
 22
0.0
 13
0.0
 23
0.0
 14
1.0
 24
1.0
 15
0.0
 25
0.0
 16
0.0
 26
-1.0
 36
0.0
 17
0.0
 27
0.0
 37
0.0
 40
43.848
 41
0.6885640000000001
 42
50.0
 43
22.625359
 44
-22.625359
 50
0.0
 51
0.0
 71
    16
 72
   100
 73
     1
 74
     1
 75
     0
 76
     0
 77
     0
 78
     0
281
     0
 65
     0
110
0.0
120
0.0
130
0.0
111
1.0
121
0.0
131
0.0
112
0.0
122
1.0
132
0.0
 79
     0
146
0.0
  0
VPORT
  5
379
330
7
100
AcDbSymbolTableRecord
100
AcDbViewportTableRecord
  2
L4
 70
     0
 10
0.5
 20
0.0
 11
1.0
 21
0.5
 12
0.0
 22
0.0
 13
0.0
 23
0.0
 14
1.0
 24
1.0
 15
0.0
 25
0.0
 16
1.0
 26
0.0
 36
0.0
 17
0.0
 27
0.0
 37
0.0
 40
43.848
 41
0.6885640000000001
 42
50.0
 43
22.175271
 44
-22.175271
 50
0.0
 51
0.0
 71
    16
 72
   100
 73
     1
 74
     1
 75
     0
 76
     0
 77
     0
 78
     0
281
     0
 65
     0
110
0.0
120
0.0
130
0.0
111
1.0
121
0.0
131
0.0
112
0.0
122
1.0
132
0.0
 79
     0
146
0.0
  0
VPORT
  5
37A
330
7
100
AcDbSymbolTableRecord
100
AcDbViewportTableRecord
  2
L4
 70
     0
 10
0.5
 20
0.5
 11
1.0
 21
1.0
 12
0.0
 22
0.0
 13
0.0
 23
0.0
 14
1.0
 24
1.0
 15
0.0
 25
0.0
 16
0.5773500000000001
 26
-0.5773500000000001
 36
0.5773500000000001
 17
0.0
 27
0.0
 37
0.0
 40
43.083689
 41
0.6885640000000001
 42
50.0
 43
22.44596
 44
-22.44596
 50
0.0
 51
0.0
 71
    16
 72
   100
 73
     1
 74
     1
 75
     0
 76
     0
 77
     0
 78
     0
281
     0
 65
     0
110
0.0
120
0.0
130
0.0
111
1.0
121
0.0
131
0.0
112
0.0
122
1.0
132
0.0
 79
     0
146
0.0
  0
VPORT
  5
37B
330
7
100
AcDbSymbolTableRecord
100
AcDbViewportTableRecord
  2
L6
 70
     0
 10
0.0
 20
0.5
 11
0.333333
 21
1.0
 12
0.0
 22
0.0
 13
0.0
 23
0.0
 14
1.0
 24
1.0
 15
0.0
 25
0.0
 16
0.718873
 26
-0.5850489999999999
 36
0.375419
 17
0.0
 27
0.0
 37
0.0
 40
45.47360499999999
 41
0.6885640000000001
 42
50.0
 43
22.4721
 44
-22.4721
 50
0.0
 51
0.0
 71
    16
 72
   100
 73
     1
 74
     1
 75
     0
 76
     0
 77
     0
 78
     0
281
     0
 65
     0
110
0.0
120
0.0
130
0.0
111
1.0
121
0.0
131
0.0
112
0.0
122
1.0
132
0.0
 79
     0
146
0.0
  0
VPORT
  5
37C
330
7
100
AcDbSymbolTableRecord
100
AcDbViewportTableRecord
  2
L6
 70
     0
 10
0.0
 20
0.0
 11
0.333333
 21
0.5
 12
0.0
 22
0.0
 13
0.0
 23
0.0
 14
1.0
 24
1.0
 15
0.0
 25
0.0
 16
-1.0
 26
0.0
 36
0.0
 17
0.0
 27
0.0
 37
0.0
 40
43.848
 41
0.6885640000000001
 42
50.0
 43
22.175271
 44
-22.175271
 50
0.0
 51
0.0
 71
    16
 72
   100
 73
     1
 74
     1
 75
     0
 76
     0
 77
     0
 78
     0
281
     0
 65
     0
110
0.0
120
0.0
130
0.0
111
1.0
121
0.0
131
0.0
112
0.0
122
1.0
132
0.0
 79
     0
146
0.0
  0
VPORT
  5
37D
330
7
100
AcDbSymbolTableRecord
100
AcDbViewportTableRecord
  2
L6
 70
     0
 10
0.333333
 20
0.5
 11
0.666667
 21
1.0
 12
0.0
 22
0.0
 13
0.0
 23
0.0
 14
1.0
 24
1.0
 15
0.0
 25
0.0
 16
0.0
 26
0.0
 36
1.0
 17
0.0
 27
0.0
 37
0.0
 40
6.657592999999999
 41
0.6885640000000003
 42
50.0
 43
21.924
 44
-21.924
 50
0.0
 51
0.0
 71
    16
 72
   100
 73
     1
 74
     1
 75
     0
 76
     0
 77
     0
 78
     0
281
     0
 65
     0
110
0.0
120
0.0
130
0.0
111
1.0
121
0.0
131
0.0
112
0.0
122
1.0
132
0.0
 79
     0
146
0.0
  0
VPORT
  5
37E
330
7
100
AcDbSymbolTableRecord
100
AcDbViewportTableRecord
  2
L6
 70
     0
 10
0.333333
 20
0.0
 11
0.666667
 21
0.5
 12
0.0
 22
0.0
 13
0.0
 23
0.0
 14
1.0
 24
1.0
 15
0.0
 25
0.0
 16
0.0
 26
-1.0
 36
0.0
 17
0.0
 27
0.0
 37
0.0
 40
43.848
 41
0.6885640000000001
 42
50.0
 43
22.625359
 44
-22.625359
 50
0.0
 51
0.0
 71
    16
 72
   100
 73
     1
 74
     1
 75
     0
 76
     0
 77
     0
 78
     0
281
     0
 65
     0
110
0.0
120
0.0
130
0.0
111
1.0
121
0.0
131
0.0
112
0.0
122
1.0
132
0.0
 79
     0
146
0.0
  0
VPORT
  5
37F
330
7
100
AcDbSymbolTableRecord
100
AcDbViewportTableRecord
  2
L6
 70
     0
 10
0.666667
 20
0.5
 11
1.0
 21
1.0
 12
0.0
 22
0.0
 13
0.0
 23
0.0
 14
1.0
 24
1.0
 15
0.0
 25
0.0
 16
0.5773500000000001
 26
-0.5773500000000001
 36
0.5773500000000001
 17
0.0
 27
0.0
 37
0.0
 40
43.083689
 41
0.6885640000000001
 42
50.0
 43
22.44596
 44
-22.44596
 50
0.0
 51
0.0
 71
    16
 72
   100
 73
     1
 74
     1
 75
     0
 76
     0
 77
     0
 78
     0
281
     0
 65
     0
110
0.0
120
0.0
130
0.0
111
1.0
121
0.0
131
0.0
112
0.0
122
1.0
132
0.0
 79
     0
146
0.0
  0
VPORT
  5
380
330
7
100
AcDbSymbolTableRecord
100
AcDbViewportTableRecord
  2
L6
 70
     0
 10
0.666667
 20
0.0
 11
1.0
 21
0.5
 12
0.0
 22
0.0
 13
0.0
 23
0.0
 14
1.0
 24
1.0
 15
0.0
 25
0.0
 16
1.0
 26
0.0
 36
0.0
 17
0.0
 27
0.0
 37
0.0
 40
43.848
 41
0.6885640000000001
 42
50.0
 43
22.175271
 44
-22.175271
 50
0.0
 51
0.0
 71
    16
 72
   100
 73
     1
 74
     1
 75
     0
 76
     0
 77
     0
 78
     0
281
     0
 65
     0
110
0.0
120
0.0
130
0.0
111
1.0
121
0.0
131
0.0
112
0.0
122
1.0
132
0.0
 79
     0
146
0.0
  0
ENDTAB
  0
TABLE
  2
LTYPE
  5
4
330
0
100
AcDbSymbolTable
 70
     7
  0
LTYPE
  5
11
330
4
100
AcDbSymbolTableRecord
100
AcDbLinetypeTableRecord
  2
ByBlock
 70
     0
  3

 72
    65
 73
     0
 40
0.0
  0
LTYPE
  5
12
330
4
100
AcDbSymbolTableRecord
100
AcDbLinetypeTableRecord
  2
ByLayer
 70
     0
  3

 72
    65
 73
     0
 40
0.0
  0
LTYPE
  5
13
330
4
100
AcDbSymbolTableRecord
100
AcDbLinetypeTableRecord
  2
Continuous
 70
     0
  3
Solid line
 72
    65
 73
     0
 40
0.0
  0
LTYPE
  5
24
330
4
100
AcDbSymbolTableRecord
100
AcDbLinetypeTableRecord
  2
DASHED
 70
     0
  3
__ __ __ __ __ __ __ __ __
 72
    65
 73
     2
 40
25.72
 49
12.86
 74
     0
 49
-12.86
 74
     0
  0
LTYPE
  5
25
330
4
100
AcDbSymbolTableRecord
100
AcDbLinetypeTableRecord
  2
HIDDEN
 70
     0
  3
_ _ _ _ _ _ _ _ _ _ _ _ _ _ _
 72
    65
 73
     2
 40
0.5
 49
0.25
 74
     0
 49
-0.25
 74
     0
  0
LTYPE
  5
26
330
4
100
AcDbSymbolTableRecord
100
AcDbLinetypeTableRecord
  2
PHANTOM
 70
     0
  3
____ _ _ ____ _ _ _____ _ _ ____
 72
    65
 73
     6
 40
50.5
 49
18.0
 74
     0
 49
-6.5
 74
     0
 49
6.5
 74
     0
 49
-6.5
 74
     0
 49
6.5
 74
     0
 49
-6.5
 74
     0
  0
LTYPE
  5
27
330
4
100
AcDbSymbolTableRecord
100
AcDbLinetypeTableRecord
  2
CENTER
 70
     0
  3
____ _ ____ _ ____ _ ____
 72
    65
 73
     4
 40
47.5
 49
22.0
 74
     0
 49
-8.5
 74
     0
 49
8.5
 74
     0
 49
-8.5
 74
     0
  0
LTYPE
  5
28
330
4
100
AcDbSymbolTableRecord
100
AcDbLinetypeTableRecord
  2
DOT
 70
     0
  3
.........................
 72
    65
 73
     2
 40
10.0
 49
0.0
 74
     0
 49
-10.0
 74
     0
  0
LTYPE
  5
29
330
4
100
AcDbSymbolTableRecord
100
AcDbLinetypeTableRecord
  2
DASHDOT
 70
     0
  3
_._._._._._._._._._._._._._._._.
 72
    65
 73
     4
 40
70.0
 49
31.0
 74
     0
 49
-13.0
 74
     0
 49
13.0
 74
     0
 49
-13.0
 74
     0
  0
ENDTAB
  0
TABLE
  2
LAYER
  5
2
330
0
100
AcDbSymbolTable
 70
     2
  0
LAYER
  5
14
330
2
100
AcDbSymbolTableRecord
100
AcDbLayerTableRecord
  2
0
 70
     0
 62
     7
  6
Continuous
370
    -3
390
1D
  0
LAYER
  5
34
330
2
100
AcDbSymbolTableRecord
100
AcDbLayerTableRecord
  2
1
 70
     0
 62
     7
  6
Continuous
370
    -3
390
1D
  0
ENDTAB
  0
TABLE
  2
STYLE
  5
3
330
0
100
AcDbSymbolTable
 70
     1
  0
STYLE
  5
17
330
3
100
AcDbSymbolTableRecord
100
AcDbTextStyleTableRecord
  2
Standard
 70
     0
 40
0.0
 41
1.0
 50
0.0
 71
     0
 42
0.0
  3
txt
  4

  0
ENDTAB
  0
TABLE
  2
VIEW
  5
5
330
0
100
AcDbSymbolTable
 70
     8
  0
VIEW
  5
2A
330
5
100
AcDbSymbolTableRecord
100
AcDbViewTableRecord
  2
TOP
 70
     0
 40
6.657592999999999
 10
0.0
 20
0.0
 41
11.179462
 11
0.0
 21
0.0
 31
1.0
 12
0.0
 22
0.0
 32
0.0
 42
50.0
 43
21.924
 44
-21.924
 50
0.0
 71
    16
281
     0
 72
     0
  0
VIEW
  5
2B
330
5
100
AcDbSymbolTableRecord
100
AcDbViewTableRecord
  2
FRONT
 70
     0
 40
43.848
 10
0.0
 20
0.0
 41
11.179462
 11
0.0
 21
-1.0
 31
0.0
 12
0.0
 22
0.0
 32
0.0
 42
50.0
 43
22.625359
 44
-22.625359
 50
0.0
 71
    16
281
     0
 72
     0
  0
VIEW
  5
2C
330
5
100
AcDbSymbolTableRecord
100
AcDbViewTableRecord
  2
RIGHT
 70
     0
 40
43.848
 10
0.0
 20
0.0
 41
6.657592999999999
 11
1.0
 21
0.0
 31
0.0
 12
0.0
 22
0.0
 32
0.0
 42
50.0
 43
22.175271
 44
-22.175271
 50
0.0
 71
    16
281
     0
 72
     0
  0
VIEW
  5
2D
330
5
100
AcDbSymbolTableRecord
100
AcDbViewTableRecord
  2
BACK
 70
     0
 40
43.848
 10
0.0
 20
0.0
 41
11.179462
 11
0.0
 21
1.0
 31
0.0
 12
0.0
 22
0.0
 32
0.0
 42
50.0
 43
22.625359
 44
-22.625359
 50
0.0
 71
    16
281
     0
 72
     0
  0
VIEW
  5
2E
330
5
100
AcDbSymbolTableRecord
100
AcDbViewTableRecord
  2
BOTTOM
 70
     0
 40
6.657592999999999
 10
0.0
 20
0.0
 41
11.179462
 11
0.0
 21
0.0
 31
-1.0
 12
0.0
 22
0.0
 32
0.0
 42
50.0
 43
21.924
 44
-21.924
 50
180.0
 71
    16
281
     0
 72
     0
  0
VIEW
  5
2F
330
5
100
AcDbSymbolTableRecord
100
AcDbViewTableRecord
  2
LEFT
 70
     0
 40
43.848
 10
0.0
 20
0.0
 41
6.657592999999999
 11
-1.0
 21
0.0
 31
0.0
 12
0.0
 22
0.0
 32
0.0
 42
50.0
 43
22.175271
 44
-22.175271
 50
0.0
 71
    16
281
     0
 72
     0
  0
VIEW
  5
30
330
5
100
AcDbSymbolTableRecord
100
AcDbViewTableRecord
  2
TFR-ISO
 70
     0
 40
43.083689
 10
0.0
 20
0.0
 41
12.612702
 11
0.5773500000000001
 21
-0.5773500000000001
 31
0.5773500000000001
 12
0.0
 22
0.0
 32
0.0
 42
50.0
 43
22.44596
 44
-22.44596
 50
0.0
 71
    16
281
     0
 72
     0
  0
VIEW
  5
31
330
5
100
AcDbSymbolTableRecord
100
AcDbViewTableRecord
  2
TFR-TRI
 70
     0
 40
45.47360499999999
 10
0.0
 20
0.0
 41
12.220349
 11
0.718873
 21
-0.5850489999999999
 31
0.375419
 12
0.0
 22
0.0
 32
0.0
 42
50.0
 43
22.4721
 44
-22.4721
 50
0.0
 71
    16
281
     0
 72
     0
  0
ENDTAB
  0
TABLE
  2
UCS
  5
6
330
0
100
AcDbSymbolTable
 70
     0
  0
ENDTAB
  0
TABLE
  2
APPID
  5
8
330
0
100
AcDbSymbolTable
 70
     3
  0
APPID
  5
16
330
8
100
AcDbSymbolTableRecord
100
AcDbRegAppTableRecord
  2
ACAD
 70
     0
  0
APPID
  5
39F
330
8
100
AcDbSymbolTableRecord
100
AcDbRegAppTableRecord
  2
ACAD_PSEXT
 70
     0
  0
APPID
  5
3A2
330
8
100
AcDbSymbolTableRecord
100
AcDbRegAppTableRecord
  2
DCO15
 70
     0
  0
ENDTAB
  0
TABLE
  2
DIMSTYLE
  5
9
330
0
100
AcDbSymbolTable
 70
     1
100
AcDbDimStyleTable
 71
     0
  0
DIMSTYLE
105
18
330
9
100
AcDbSymbolTableRecord
100
AcDbDimStyleTableRecord
  2
Standard
 70
     0
340
17
  0
ENDTAB
  0
TABLE
  2
BLOCK_RECORD
  5
1
330
0
100
AcDbSymbolTable
 70
     0
  0
BLOCK_RECORD
  5
A
330
1
100
AcDbSymbolTableRecord
100
AcDbBlockTableRecord
  2
*MODEL_SPACE
340
20
  0
BLOCK_RECORD
  5
B
330
1
100
AcDbSymbolTableRecord
100
AcDbBlockTableRecord
  2
*PAPER_SPACE
340
21
  0
ENDTAB
  0
ENDSEC
  0
SECTION
  2
BLOCKS
  0
BLOCK
  5
D
330
A
100
AcDbEntity
  8
0
100
AcDbBlockBegin
  2
*MODEL_SPACE
 70
     0
 10
0.0
 20
0.0
 30
0.0
  3
*MODEL_SPACE
  1

  0
ENDBLK
  5
E
330
A
100
AcDbEntity
  8
0
100
AcDbBlockEnd
  0
BLOCK
  5
F
330
B
100
AcDbEntity
 67
     1
  8
0
100
AcDbBlockBegin
  2
*PAPER_SPACE
 70
     0
 10
0.0
 20
0.0
 30
0.0
  3
*PAPER_SPACE
  1

  0
ENDBLK
  5
10
330
B
100
AcDbEntity
 67
     1
  8
0
100
AcDbBlockEnd
  0
ENDSEC
  0
SECTION
  2
ENTITIES
  0
VIEWPORT
  5
32
102
{ACAD_XDICTIONARY
360
3AE
102
}
330
B
100
AcDbEntity
 67
     1
  8
0
100
AcDbViewport
 10
7.570097244732576
 20
4.25
 30
0.0
 40
15.14019448946515
 41
8.5
 68
     1
 69
     1
 12
7.570097244732576
 22
4.25
 13
0.0
 23
0.0
 14
0.0
 24
0.0
 15
0.0
 25
0.0
 16
0.0
 26
0.0
 36
1.0
 17
0.0
 27
0.0
 37
0.0
 42
38.207132
 43
0.0
 44
0.0
 45
8.5
 50
0.0
 51
0.0
 72
   100
 90
    32800
  1

281
     0
 71
     0
 74
     1
110
0.0
120
0.0
130
0.0
111
1.0
121
0.0
131
0.0
112
0.0
122
1.0
132
0.0
 79
     0
146
0.0
  0
LINE
  5
33
330
B
100
AcDbEntity
 67
     1
  8
1
  6
Continuous
 62
    18
100
AcDbLine
 10
5.430363999999999
 20
4.348758
 30
0.0
 11
5.434153
 21
4.35911
 31
0.0
  0
LINE
  5
35
330
B
100
AcDbEntity
 67
     1
  8
1
  6
Continuous
 62
    18
100
AcDbLine
 10
2.65045
 20
4.089498999999999
 30
0.0
 11
2.650802
 21
4.069353999999999
 31
0.0
  0
LINE
  5
36
330
B
100
AcDbEntity
 67
     1
  8
1
  6
Continuous
 62
    18
100
AcDbLine
 10
2.722024999999999
 20
4.521202999999999
 30
0.0
 11
2.782427999999999
 21
4.521202999999999
 31
0.0
  0
LINE
  5
37
330
B
100
AcDbEntity
 67
     1
  8
1
  6
Continuous
 62
    18
100
AcDbLine
 10
2.375634999999999
 20
4.326055999999999
 30
0.0
 11
2.375106
 21
4.325298
 31
0.0
  0
LINE
  5
38
330
B
100
AcDbEntity
 67
     1
  8
1
  6
Continuous
 62
    18
100
AcDbLine
 10
5.127742999999999
 20
4.307998
 30
0.0
 11
5.123720999999999
 21
4.293022
 31
0.0
  0
LINE
  5
39
330
B
100
AcDbEntity
 67
     1
  8
1
  6
Continuous
 62
    18
100
AcDbLine
 10
2.333450999999999
 20
4.054352999999999
 30
0.0
 11
2.333450999999999
 21
4.207862
 31
0.0
  0
LINE
  5
3A
330
B
100
AcDbEntity
 67
     1
  8
1
  6
Continuous
 62
    18
100
AcDbLine
 10
2.56647
 20
4.481593
 30
0.0
 11
2.577450999999999
 21
4.484535
 31
0.0
  0
LINE
  5
3B
330
B
100
AcDbEntity
 67
     1
  8
1
  6
Continuous
 62
    18
100
AcDbLine
 10
2.588058
 20
3.878116999999999
 30
0.0
 11
2.577452999999999
 21
3.873724999999999
 31
0.0
  0
LINE
  5
3C
330
B
100
AcDbEntity
 67
     1
  8
1
  6
Continuous
 62
    18
100
AcDbLine
 10
2.557450999999999
 20
4.523244
 30
0.0
 11
2.60745
 21
4.523244
 31
0.0
  0
LINE
  5
3D
330
B
100
AcDbEntity
 67
     1
  8
1
  6
Continuous
 62
    18
100
AcDbLine
 10
5.765310999999999
 20
4.406502999999999
 30
0.0
 11
5.755466
 21
4.408724999999999
 31
0.0
  0
LINE
  5
3E
330
B
100
AcDbEntity
 67
     1
  8
1
  6
Continuous
 62
    18
100
AcDbLine
 10
5.097705999999999
 20
4.413156999999999
 30
0.0
 11
5.027741
 21
4.413114
 31
0.0
  0
LINE
  5
3F
330
B
100
AcDbEntity
 67
     1
  8
1
  6
Continuous
 62
    18
100
AcDbLine
 10
2.782427999999999
 20
4.521202999999999
 30
0.0
 11
2.787427
 21
4.516204
 31
0.0
  0
LINE
  5
40
330
B
100
AcDbEntity
 67
     1
  8
1
  6
Continuous
 62
    18
100
AcDbLine
 10
2.592449999999999
 20
4.485612
 30
0.0
 11
2.592449999999999
 21
4.434352999999999
 31
0.0
  0
LINE
  5
41
330
B
100
AcDbEntity
 67
     1
  8
1
  6
Continuous
 62
    18
100
AcDbLine
 10
5.755310999999999
 20
4.411386
 30
0.0
 11
5.755010999999999
 21
4.411814999999999
 31
0.0
  0
LINE
  5
42
330
B
100
AcDbEntity
 67
     1
  8
1
  6
Continuous
 62
    18
100
AcDbLine
 10
5.112729999999999
 20
3.907427999999999
 30
0.0
 11
5.097705999999999
 21
3.903426999999999
 31
0.0
  0
LINE
  5
43
330
B
100
AcDbEntity
 67
     1
  8
1
  6
Continuous
 62
    18
100
AcDbLine
 10
5.100233999999999
 20
3.902165
 30
0.0
 11
5.11524
 21
3.906175
 31
0.0
  0
LINE
  5
44
330
B
100
AcDbEntity
 67
     1
  8
1
  6
Continuous
 62
    18
100
AcDbLine
 10
2.780802999999999
 20
3.808726
 30
0.0
 11
2.780802999999999
 21
4.457868
 31
0.0
  0
LINE
  5
45
330
B
100
AcDbEntity
 67
     1
  8
1
  6
Continuous
 62
    18
100
AcDbLine
 10
2.674901999999999
 20
4.089498999999999
 30
0.0
 11
2.674549999999999
 21
4.069352999999999
 31
0.0
  0
LINE
  5
46
330
B
100
AcDbEntity
 67
     1
  8
1
  6
Continuous
 62
    18
100
AcDbLine
 10
5.668419999999999
 20
4.410244999999999
 30
0.0
 11
5.667934999999999
 21
4.409575
 31
0.0
  0
LINE
  5
47
330
B
100
AcDbEntity
 67
     1
  8
1
  6
Continuous
 62
    18
100
AcDbLine
 10
4.958389
 20
3.798292
 30
0.0
 11
4.442565
 21
3.798292
 31
0.0
  0
LINE
  5
48
330
B
100
AcDbEntity
 67
     1
  8
1
  6
Continuous
 62
    18
100
AcDbLine
 10
2.720315
 20
4.514579
 30
0.0
 11
2.720315
 21
4.457868
 31
0.0
  0
LINE
  5
49
330
B
100
AcDbEntity
 67
     1
  8
1
  6
Continuous
 62
    18
100
AcDbLine
 10
5.937058999999999
 20
4.283184999999999
 30
0.0
 11
5.825955999999999
 21
4.281244999999999
 31
0.0
  0
LINE
  5
4A
330
B
100
AcDbEntity
 67
     1
  8
1
  6
Continuous
 62
    18
100
AcDbLine
 10
2.553908
 20
4.058301
 30
0.0
 11
2.570994999999999
 21
4.058301
 31
0.0
  0
LINE
  5
4B
330
B
100
AcDbEntity
 67
     1
  8
1
  6
Continuous
 62
    18
100
AcDbLine
 10
2.393908
 20
4.058301
 30
0.0
 11
2.410995
 21
4.058301
 31
0.0
  0
LINE
  5
4C
330
B
100
AcDbEntity
 67
     1
  8
1
  6
Continuous
 62
    18
100
AcDbLine
 10
4.626374
 20
4.512438999999999
 30
0.0
 11
4.647621
 21
4.512809999999999
 31
0.0
  0
LINE
  5
4D
330
B
100
AcDbEntity
 67
     1
  8
1
  6
Continuous
 62
    18
100
AcDbLine
 10
5.768841
 20
3.798292
 30
0.0
 11
5.712310999999999
 21
3.798292
 31
0.0
  0
LINE
  5
4E
330
B
100
AcDbEntity
 67
     1
  8
1
  6
Continuous
 62
    18
100
AcDbLine
 10
2.473961
 20
4.061319
 30
0.0
 11
2.471500999999999
 21
4.061319
 31
0.0
  0
LINE
  5
4F
330
B
100
AcDbEntity
 67
     1
  8
1
  6
Continuous
 62
    18
100
AcDbLine
 10
5.447153
 20
4.435172
 30
0.0
 11
5.434153
 21
4.435852999999999
 31
0.0
  0
LINE
  5
50
330
B
100
AcDbEntity
 67
     1
  8
1
  6
Continuous
 62
    18
100
AcDbLine
 10
2.390171
 20
4.315752999999999
 30
0.0
 11
2.390171
 21
4.323822999999999
 31
0.0
  0
LINE
  5
51
330
B
100
AcDbEntity
 67
     1
  8
1
  6
Continuous
 62
    18
100
AcDbLine
 10
2.373450999999999
 20
4.061319
 30
0.0
 11
2.370941999999999
 21
4.061319
 31
0.0
  0
LINE
  5
52
330
B
100
AcDbEntity
 67
     1
  8
1
  6
Continuous
 62
    18
100
AcDbLine
 10
5.658135999999999
 20
4.429899999999999
 30
0.0
 11
5.492623
 21
4.432788999999999
 31
0.0
  0
LINE
  5
53
330
B
100
AcDbEntity
 67
     1
  8
1
  6
Continuous
 62
    18
100
AcDbLine
 10
5.104709999999999
 20
4.285072
 30
0.0
 11
5.104709999999999
 21
4.406156
 31
0.0
  0
LINE
  5
54
330
B
100
AcDbEntity
 67
     1
  8
1
  6
Continuous
 62
    18
100
AcDbLine
 10
2.314452999999999
 20
4.089498999999999
 30
0.0
 11
2.314100999999999
 21
4.069353999999999
 31
0.0
  0
LINE
  5
55
330
B
100
AcDbEntity
 67
     1
  8
1
  6
Continuous
 62
    18
100
AcDbLine
 10
5.118913
 20
4.395145999999999
 30
0.0
 11
5.104709999999999
 21
4.406156
 31
0.0
  0
LINE
  5
56
330
B
100
AcDbEntity
 67
     1
  8
1
  6
Continuous
 62
    18
100
AcDbLine
 10
2.795122
 20
4.027404999999999
 30
0.0
 11
2.794806
 21
4.038016
 31
0.0
  0
LINE
  5
57
330
B
100
AcDbEntity
 67
     1
  8
1
  6
Continuous
 62
    18
100
AcDbLine
 10
5.755531999999999
 20
4.410923999999999
 30
0.0
 11
5.755310999999999
 21
4.411386
 31
0.0
  0
LINE
  5
58
330
B
100
AcDbEntity
 67
     1
  8
1
  6
Continuous
 62
    18
100
AcDbLine
 10
5.703135999999999
 20
3.840630999999999
 30
0.0
 11
5.703135999999999
 21
3.827188999999999
 31
0.0
  0
LINE
  5
59
330
B
100
AcDbEntity
 67
     1
  8
1
  6
Continuous
 62
    18
100
AcDbLine
 10
2.584886999999999
 20
4.333066
 30
0.0
 11
2.584886999999999
 21
4.326787999999999
 31
0.0
  0
LINE
  5
5A
330
B
100
AcDbEntity
 67
     1
  8
1
  6
Continuous
 62
    18
100
AcDbLine
 10
2.402450999999999
 20
4.404352999999999
 30
0.0
 11
2.402450999999999
 21
4.477573
 31
0.0
  0
LINE
  5
5B
330
B
100
AcDbEntity
 67
     1
  8
1
  6
Continuous
 62
    18
100
AcDbLine
 10
5.814516
 20
4.355324999999999
 30
0.0
 11
5.939516
 21
4.357249999999999
 31
0.0
  0
LINE
  5
5C
330
B
100
AcDbEntity
 67
     1
  8
1
  6
Continuous
 62
    18
100
AcDbLine
 10
5.225296
 20
4.331967999999999
 30
0.0
 11
5.433011
 21
4.331967999999999
 31
0.0
  0
LINE
  5
5D
330
B
100
AcDbEntity
 67
     1
  8
1
  6
Continuous
 62
    18
100
AcDbLine
 10
2.170125
 20
4.524093999999999
 30
0.0
 11
2.170224
 21
4.524693
 31
0.0
  0
LINE
  5
5E
330
B
100
AcDbEntity
 67
     1
  8
1
  6
Continuous
 62
    18
100
AcDbLine
 10
5.104709999999999
 20
3.910427999999999
 30
0.0
 11
5.104709999999999
 21
4.031512
 31
0.0
  0
LINE
  5
5F
330
B
100
AcDbEntity
 67
     1
  8
1
  6
Continuous
 62
    18
100
AcDbLine
 10
5.757516
 20
4.37833
 30
0.0
 11
5.757516
 21
4.370263999999999
 31
0.0
  0
LINE
  5
60
330
B
100
AcDbEntity
 67
     1
  8
1
  6
Continuous
 62
    18
100
AcDbLine
 10
2.358449999999999
 20
4.298352999999999
 30
0.0
 11
2.247951
 21
4.298352999999999
 31
0.0
  0
LINE
  5
61
330
B
100
AcDbEntity
 67
     1
  8
1
  6
Continuous
 62
    18
100
AcDbLine
 10
5.034387999999999
 20
3.908469999999999
 30
0.0
 11
5.093150999999999
 21
3.908469999999999
 31
0.0
  0
LINE
  5
62
330
B
100
AcDbEntity
 67
     1
  8
1
  6
Continuous
 62
    18
100
AcDbLine
 10
2.239164
 20
4.060566
 30
0.0
 11
2.229430999999999
 21
4.050832999999999
 31
0.0
  0
LINE
  5
63
330
B
100
AcDbEntity
 67
     1
  8
1
  6
Continuous
 62
    18
100
AcDbLine
 10
5.754916
 20
4.411945999999999
 30
0.0
 11
5.755359999999999
 21
4.411387
 31
0.0
  0
LINE
  5
64
330
B
100
AcDbEntity
 67
     1
  8
1
  6
Continuous
 62
    18
100
AcDbLine
 10
5.753754999999999
 20
4.412736999999999
 30
0.0
 11
5.754369
 21
4.412404
 31
0.0
  0
LINE
  5
65
330
B
100
AcDbEntity
 67
     1
  8
1
  6
Continuous
 62
    18
100
AcDbLine
 10
5.126216999999999
 20
4.291776
 30
0.0
 11
5.130233999999999
 21
4.306753999999999
 31
0.0
  0
LINE
  5
66
330
B
100
AcDbEntity
 67
     1
  8
1
  6
Continuous
 62
    18
100
AcDbLine
 10
2.577452999999999
 20
3.873724999999999
 30
0.0
 11
2.576754999999999
 21
3.874423
 31
0.0
  0
LINE
  5
67
330
B
100
AcDbEntity
 67
     1
  8
1
  6
Continuous
 62
    18
100
AcDbLine
 10
2.356166999999999
 20
4.340637
 30
0.0
 11
2.349663999999999
 21
4.34714
 31
0.0
  0
LINE
  5
68
330
B
100
AcDbEntity
 67
     1
  8
1
  6
Continuous
 62
    18
100
AcDbLine
 10
5.939516
 20
4.357319
 30
0.0
 11
5.814516
 21
4.355394
 31
0.0
  0
LINE
  5
69
330
B
100
AcDbEntity
 67
     1
  8
1
  6
Continuous
 62
    18
100
AcDbLine
 10
4.958359999999999
 20
4.513148
 30
0.0
 11
4.958389
 21
4.513071
 31
0.0
  0
LINE
  5
6A
330
B
100
AcDbEntity
 67
     1
  8
1
  6
Continuous
 62
    18
100
AcDbLine
 10
5.932787999999999
 20
4.367951
 30
0.0
 11
5.83679
 21
4.369626999999999
 31
0.0
  0
LINE
  5
6B
330
B
100
AcDbEntity
 67
     1
  8
1
  6
Continuous
 62
    18
100
AcDbLine
 10
2.402450999999999
 20
4.404352999999999
 30
0.0
 11
2.400166999999999
 21
4.406636999999999
 31
0.0
  0
LINE
  5
6C
330
B
100
AcDbEntity
 67
     1
  8
1
  6
Continuous
 62
    18
100
AcDbLine
 10
2.410449999999999
 20
4.191984999999999
 30
0.0
 11
2.41345
 21
4.191984999999999
 31
0.0
  0
LINE
  5
6D
330
B
100
AcDbEntity
 67
     1
  8
1
  6
Continuous
 62
    18
100
AcDbLine
 10
4.958389
 20
4.518146999999999
 30
0.0
 11
4.535652999999999
 21
4.510768999999999
 31
0.0
  0
LINE
  5
6E
330
B
100
AcDbEntity
 67
     1
  8
1
  6
Continuous
 62
    18
100
AcDbLine
 10
2.593993999999999
 20
4.326787999999999
 30
0.0
 11
2.591486
 21
4.326787999999999
 31
0.0
  0
LINE
  5
6F
330
B
100
AcDbEntity
 67
     1
  8
1
  6
Continuous
 62
    18
100
AcDbLine
 10
5.822263999999999
 20
4.302189
 30
0.0
 11
5.939516
 21
4.303995999999999
 31
0.0
  0
LINE
  5
70
330
B
100
AcDbEntity
 67
     1
  8
1
  6
Continuous
 62
    18
100
AcDbLine
 10
2.333450999999999
 20
4.061319
 30
0.0
 11
2.330941999999999
 21
4.061319
 31
0.0
  0
LINE
  5
71
330
B
100
AcDbEntity
 67
     1
  8
1
  6
Continuous
 62
    18
100
AcDbLine
 10
2.613500999999999
 20
4.191984999999999
 30
0.0
 11
2.610450999999999
 21
4.191984999999999
 31
0.0
  0
LINE
  5
72
330
B
100
AcDbEntity
 67
     1
  8
1
  6
Continuous
 62
    18
100
AcDbLine
 10
2.606450999999999
 20
4.226405
 30
0.0
 11
2.606450999999999
 21
4.298352999999999
 31
0.0
  0
LINE
  5
73
330
B
100
AcDbEntity
 67
     1
  8
1
  6
Continuous
 62
    18
100
AcDbLine
 10
4.437653
 20
3.798292
 30
0.0
 11
4.437653
 21
4.447433
 31
0.0
  0
LINE
  5
74
330
B
100
AcDbEntity
 67
     1
  8
1
  6
Continuous
 62
    18
100
AcDbLine
 10
2.376843
 20
3.933332
 30
0.0
 11
2.37245
 21
3.922726999999999
 31
0.0
  0
LINE
  5
75
330
B
100
AcDbEntity
 67
     1
  8
1
  6
Continuous
 62
    18
100
AcDbLine
 10
2.574729999999999
 20
4.323822999999999
 30
0.0
 11
2.573606
 21
4.321851999999999
 31
0.0
  0
LINE
  5
76
330
B
100
AcDbEntity
 67
     1
  8
1
  6
Continuous
 62
    18
100
AcDbLine
 10
5.667310999999999
 20
4.360114
 30
0.0
 11
5.667310999999999
 21
4.364799999999999
 31
0.0
  0
LINE
  5
77
330
B
100
AcDbEntity
 67
     1
  8
1
  6
Continuous
 62
    18
100
AcDbLine
 10
5.750522
 20
4.413062
 30
0.0
 11
5.751374
 21
4.41304
 31
0.0
  0
LINE
  5
78
330
B
100
AcDbEntity
 67
     1
  8
1
  6
Continuous
 62
    18
100
AcDbLine
 10
5.755673
 20
4.410438
 30
0.0
 11
5.755531999999999
 21
4.410923999999999
 31
0.0
  0
LINE
  5
79
330
B
100
AcDbEntity
 67
     1
  8
1
  6
Continuous
 62
    18
100
AcDbLine
 10
2.354449999999999
 20
4.191984999999999
 30
0.0
 11
2.354449999999999
 21
4.093257
 31
0.0
  0
LINE
  5
7A
330
B
100
AcDbEntity
 67
     1
  8
1
  6
Continuous
 62
    18
100
AcDbLine
 10
2.574729999999999
 20
4.323822999999999
 30
0.0
 11
2.574972999999999
 21
4.324105
 31
0.0
  0
LINE
  5
7B
330
B
100
AcDbEntity
 67
     1
  8
1
  6
Continuous
 62
    18
100
AcDbLine
 10
5.652512
 20
4.364779
 30
0.0
 11
5.659926
 21
4.36479
 31
0.0
  0
LINE
  5
7C
330
B
100
AcDbEntity
 67
     1
  8
1
  6
Continuous
 62
    18
100
AcDbLine
 10
2.45045
 20
4.093257
 30
0.0
 11
2.43445
 21
4.093257
 31
0.0
  0
LINE
  5
7D
330
B
100
AcDbEntity
 67
     1
  8
1
  6
Continuous
 62
    18
100
AcDbLine
 10
5.676712999999999
 20
4.411862999999999
 30
0.0
 11
5.676701999999999
 21
4.411378
 31
0.0
  0
LINE
  5
7E
330
B
100
AcDbEntity
 67
     1
  8
1
  6
Continuous
 62
    18
100
AcDbLine
 10
2.591318
 20
4.321787999999999
 30
0.0
 11
2.591295
 21
4.321851999999999
 31
0.0
  0
LINE
  5
7F
330
B
100
AcDbEntity
 67
     1
  8
1
  6
Continuous
 62
    18
100
AcDbLine
 10
2.725737
 20
4.060566
 30
0.0
 11
2.73547
 21
4.050832999999999
 31
0.0
  0
LINE
  5
80
330
B
100
AcDbEntity
 67
     1
  8
1
  6
Continuous
 62
    18
100
AcDbLine
 10
2.402454999999999
 20
4.409162999999999
 30
0.0
 11
2.562446
 21
4.409162999999999
 31
0.0
  0
LINE
  5
81
330
B
100
AcDbEntity
 67
     1
  8
1
  6
Continuous
 62
    18
100
AcDbLine
 10
2.53045
 20
4.191984999999999
 30
0.0
 11
2.53045
 21
4.093257
 31
0.0
  0
LINE
  5
82
330
B
100
AcDbEntity
 67
     1
  8
1
  6
Continuous
 62
    18
100
AcDbLine
 10
5.939516
 20
4.303995999999999
 30
0.0
 11
5.939516
 21
4.301319999999999
 31
0.0
  0
LINE
  5
83
330
B
100
AcDbEntity
 67
     1
  8
1
  6
Continuous
 62
    18
100
AcDbLine
 10
5.729537
 20
4.412976
 30
0.0
 11
5.729537
 21
4.412044999999999
 31
0.0
  0
LINE
  5
84
330
B
100
AcDbEntity
 67
     1
  8
1
  6
Continuous
 62
    18
100
AcDbLine
 10
5.814516
 20
4.382944
 30
0.0
 11
5.814516
 21
4.379258999999999
 31
0.0
  0
LINE
  5
85
330
B
100
AcDbEntity
 67
     1
  8
1
  6
Continuous
 62
    18
100
AcDbLine
 10
2.591318
 20
4.321787999999999
 30
0.0
 11
2.597455
 21
4.321787999999999
 31
0.0
  0
LINE
  5
86
330
B
100
AcDbEntity
 67
     1
  8
1
  6
Continuous
 62
    18
100
AcDbLine
 10
2.608734
 20
4.340637
 30
0.0
 11
2.615237
 21
4.34714
 31
0.0
  0
LINE
  5
87
330
B
100
AcDbEntity
 67
     1
  8
1
  6
Continuous
 62
    18
100
AcDbLine
 10
5.706305999999999
 20
4.413003999999999
 30
0.0
 11
5.729516
 21
4.413612
 31
0.0
  0
LINE
  5
88
330
B
100
AcDbEntity
 67
     1
  8
1
  6
Continuous
 62
    18
100
AcDbLine
 10
2.376843
 20
3.878116999999999
 30
0.0
 11
2.387448
 21
3.873724999999999
 31
0.0
  0
LINE
  5
89
330
B
100
AcDbEntity
 67
     1
  8
1
  6
Continuous
 62
    18
100
AcDbLine
 10
2.63445
 20
4.191984999999999
 30
0.0
 11
2.63445
 21
4.093257
 31
0.0
  0
LINE
  5
8A
330
B
100
AcDbEntity
 67
     1
  8
1
  6
Continuous
 62
    18
100
AcDbLine
 10
2.577684999999999
 20
4.326781999999999
 30
0.0
 11
2.577944
 21
4.326787999999999
 31
0.0
  0
LINE
  5
8B
330
B
100
AcDbEntity
 67
     1
  8
1
  6
Continuous
 62
    18
100
AcDbLine
 10
2.56245
 20
4.404352999999999
 30
0.0
 11
2.564734
 21
4.406636999999999
 31
0.0
  0
LINE
  5
8C
330
B
100
AcDbEntity
 67
     1
  8
1
  6
Continuous
 62
    18
100
AcDbLine
 10
5.729535
 20
4.410823
 30
0.0
 11
5.729516
 21
4.409448999999999
 31
0.0
  0
LINE
  5
8D
330
B
100
AcDbEntity
 67
     1
  8
1
  6
Continuous
 62
    18
100
AcDbLine
 10
2.179097999999999
 20
3.808726
 30
0.0
 11
2.180593
 21
3.808726
 31
0.0
  0
LINE
  5
8E
330
B
100
AcDbEntity
 67
     1
  8
1
  6
Continuous
 62
    18
100
AcDbLine
 10
5.755676999999999
 20
4.410764
 30
0.0
 11
5.755917
 21
4.409483999999999
 31
0.0
  0
LINE
  5
8F
330
B
100
AcDbEntity
 67
     1
  8
1
  6
Continuous
 62
    18
100
AcDbLine
 10
2.373415
 20
4.326787999999999
 30
0.0
 11
2.377943999999999
 21
4.326787999999999
 31
0.0
  0
LINE
  5
90
330
B
100
AcDbEntity
 67
     1
  8
1
  6
Continuous
 62
    18
100
AcDbLine
 10
2.247951
 20
4.106887
 30
0.0
 11
2.250243
 21
4.106887
 31
0.0
  0
LINE
  5
91
330
B
100
AcDbEntity
 67
     1
  8
1
  6
Continuous
 62
    18
100
AcDbLine
 10
4.958223999999999
 20
4.515812
 30
0.0
 11
4.958305999999999
 21
4.517058999999999
 31
0.0
  0
LINE
  5
92
330
B
100
AcDbEntity
 67
     1
  8
1
  6
Continuous
 62
    18
100
AcDbLine
 10
2.374825999999999
 20
4.312787999999999
 30
0.0
 11
2.370906999999999
 21
4.312787999999999
 31
0.0
  0
LINE
  5
93
330
B
100
AcDbEntity
 67
     1
  8
1
  6
Continuous
 62
    18
100
AcDbLine
 10
5.755917
 20
4.370222
 30
0.0
 11
5.757516
 21
4.370263999999999
 31
0.0
  0
LINE
  5
94
330
B
100
AcDbEntity
 67
     1
  8
1
  6
Continuous
 62
    18
100
AcDbLine
 10
2.794806
 20
4.523582
 30
0.0
 11
2.794806
 21
4.523505
 31
0.0
  0
LINE
  5
95
330
B
100
AcDbEntity
 67
     1
  8
1
  6
Continuous
 62
    18
100
AcDbLine
 10
5.026436
 20
4.276809
 30
0.0
 11
5.027741
 21
4.278113999999999
 31
0.0
  0
LINE
  5
96
330
B
100
AcDbEntity
 67
     1
  8
1
  6
Continuous
 62
    18
100
AcDbLine
 10
2.247951
 20
4.089498999999999
 30
0.0
 11
2.260205
 21
4.089498999999999
 31
0.0
  0
LINE
  5
97
330
B
100
AcDbEntity
 67
     1
  8
1
  6
Continuous
 62
    18
100
AcDbLine
 10
2.388145999999999
 20
3.937026999999999
 30
0.0
 11
2.576754999999999
 21
3.937026999999999
 31
0.0
  0
LINE
  5
98
330
B
100
AcDbEntity
 67
     1
  8
1
  6
Continuous
 62
    18
100
AcDbLine
 10
5.609383999999999
 20
4.364733999999999
 30
0.0
 11
5.621753
 21
4.364733999999999
 31
0.0
  0
LINE
  5
99
330
B
100
AcDbEntity
 67
     1
  8
1
  6
Continuous
 62
    18
100
AcDbLine
 10
5.762772
 20
3.814292
 30
0.0
 11
5.767237
 21
3.803119
 31
0.0
  0
LINE
  5
9A
330
B
100
AcDbEntity
 67
     1
  8
1
  6
Continuous
 62
    18
100
AcDbLine
 10
2.370449999999999
 20
4.089498999999999
 30
0.0
 11
2.354452999999999
 21
4.089498999999999
 31
0.0
  0
LINE
  5
9B
330
B
100
AcDbEntity
 67
     1
  8
1
  6
Continuous
 62
    18
100
AcDbLine
 10
2.794775999999999
 20
4.524093999999999
 30
0.0
 11
2.794677
 21
4.524693
 31
0.0
  0
LINE
  5
9C
330
B
100
AcDbEntity
 67
     1
  8
1
  6
Continuous
 62
    18
100
AcDbLine
 10
2.576754999999999
 20
3.874423
 30
0.0
 11
2.587359999999999
 21
3.878815
 31
0.0
  0
LINE
  5
9D
330
B
100
AcDbEntity
 67
     1
  8
1
  6
Continuous
 62
    18
100
AcDbLine
 10
5.652512
 20
4.340620999999999
 30
0.0
 11
5.621211999999999
 21
4.340575
 31
0.0
  0
LINE
  5
9E
330
B
100
AcDbEntity
 67
     1
  8
1
  6
Continuous
 62
    18
100
AcDbLine
 10
5.026436
 20
3.902165
 30
0.0
 11
5.027741
 21
3.903469999999999
 31
0.0
  0
LINE
  5
9F
330
B
100
AcDbEntity
 67
     1
  8
1
  6
Continuous
 62
    18
100
AcDbLine
 10
5.814516
 20
4.366812999999999
 30
0.0
 11
5.814516
 21
4.368973999999999
 31
0.0
  0
LINE
  5
A0
330
B
100
AcDbEntity
 67
     1
  8
1
  6
Continuous
 62
    18
100
AcDbLine
 10
5.754369
 20
4.412404
 30
0.0
 11
5.754916
 21
4.411945999999999
 31
0.0
  0
LINE
  5
A1
330
B
100
AcDbEntity
 67
     1
  8
1
  6
Continuous
 62
    18
100
AcDbLine
 10
2.474451999999999
 20
4.089498999999999
 30
0.0
 11
2.473908
 21
4.058301
 31
0.0
  0
LINE
  5
A2
330
B
100
AcDbEntity
 67
     1
  8
1
  6
Continuous
 62
    18
100
AcDbLine
 10
2.606450999999999
 20
4.298352999999999
 30
0.0
 11
2.71695
 21
4.298352999999999
 31
0.0
  0
LINE
  5
A3
330
B
100
AcDbEntity
 67
     1
  8
1
  6
Continuous
 62
    18
100
AcDbLine
 10
2.591752
 20
3.889421
 30
0.0
 11
2.592449999999999
 21
3.888721999999999
 31
0.0
  0
LINE
  5
A4
330
B
100
AcDbEntity
 67
     1
  8
1
  6
Continuous
 62
    18
100
AcDbLine
 10
2.170099
 20
4.523736
 30
0.0
 11
2.170125
 21
4.524093999999999
 31
0.0
  0
LINE
  5
A5
330
B
100
AcDbEntity
 67
     1
  8
1
  6
Continuous
 62
    18
100
AcDbLine
 10
2.365377999999999
 20
4.317788
 30
0.0
 11
2.367445999999999
 21
4.317788
 31
0.0
  0
LINE
  5
A6
330
B
100
AcDbEntity
 67
     1
  8
1
  6
Continuous
 62
    18
100
AcDbLine
 10
2.169779
 20
4.402048
 30
0.0
 11
2.169665
 21
4.388548
 31
0.0
  0
LINE
  5
A7
330
B
100
AcDbEntity
 67
     1
  8
1
  6
Continuous
 62
    18
100
AcDbLine
 10
2.570450999999999
 20
4.089498999999999
 30
0.0
 11
2.570994999999999
 21
4.058301
 31
0.0
  0
LINE
  5
A8
330
B
100
AcDbEntity
 67
     1
  8
1
  6
Continuous
 62
    18
100
AcDbLine
 10
2.175094
 20
4.528582
 30
0.0
 11
2.48245
 21
4.528582
 31
0.0
  0
LINE
  5
A9
330
B
100
AcDbEntity
 67
     1
  8
1
  6
Continuous
 62
    18
100
AcDbLine
 10
5.224153
 20
4.35911
 30
0.0
 11
5.224153
 21
4.446858999999999
 31
0.0
  0
LINE
  5
AA
330
B
100
AcDbEntity
 67
     1
  8
1
  6
Continuous
 62
    18
100
AcDbLine
 10
2.65045
 20
4.089498999999999
 30
0.0
 11
2.634452999999999
 21
4.089498999999999
 31
0.0
  0
LINE
  5
AB
330
B
100
AcDbEntity
 67
     1
  8
1
  6
Continuous
 62
    18
100
AcDbLine
 10
2.789807
 20
4.528582
 30
0.0
 11
2.782427999999999
 21
4.521202999999999
 31
0.0
  0
LINE
  5
AC
330
B
100
AcDbEntity
 67
     1
  8
1
  6
Continuous
 62
    18
100
AcDbLine
 10
5.676753999999999
 20
4.407011999999999
 30
0.0
 11
5.676753999999999
 21
4.364812
 31
0.0
  0
LINE
  5
AD
330
B
100
AcDbEntity
 67
     1
  8
1
  6
Continuous
 62
    18
100
AcDbLine
 10
5.667334999999999
 20
4.408095999999999
 30
0.0
 11
5.667221999999999
 21
4.407362
 31
0.0
  0
LINE
  5
AE
330
B
100
AcDbEntity
 67
     1
  8
1
  6
Continuous
 62
    18
100
AcDbLine
 10
5.123720999999999
 20
4.293022
 30
0.0
 11
5.112729999999999
 21
4.282072
 31
0.0
  0
LINE
  5
AF
330
B
100
AcDbEntity
 67
     1
  8
1
  6
Continuous
 62
    18
100
AcDbLine
 10
2.795236
 20
4.388548
 30
0.0
 11
2.795122
 21
4.402048
 31
0.0
  0
LINE
  5
B0
330
B
100
AcDbEntity
 67
     1
  8
1
  6
Continuous
 62
    18
100
AcDbLine
 10
2.431449999999999
 20
4.054352999999999
 30
0.0
 11
2.431449999999999
 21
4.207862
 31
0.0
  0
LINE
  5
B1
330
B
100
AcDbEntity
 67
     1
  8
1
  6
Continuous
 62
    18
100
AcDbLine
 10
2.577450999999999
 20
4.484535
 30
0.0
 11
2.592449999999999
 21
4.485612
 31
0.0
  0
LINE
  5
B2
330
B
100
AcDbEntity
 67
     1
  8
1
  6
Continuous
 62
    18
100
AcDbLine
 10
2.373606
 20
4.317725
 30
0.0
 11
2.373582999999999
 21
4.317788
 31
0.0
  0
LINE
  5
B3
330
B
100
AcDbEntity
 67
     1
  8
1
  6
Continuous
 62
    18
100
AcDbLine
 10
2.21795
 20
4.368352999999999
 30
0.0
 11
2.21795
 21
4.039353
 31
0.0
  0
LINE
  5
B4
330
B
100
AcDbEntity
 67
     1
  8
1
  6
Continuous
 62
    18
100
AcDbLine
 10
2.657449999999999
 20
4.523244
 30
0.0
 11
2.682450999999999
 21
4.523244
 31
0.0
  0
LINE
  5
B5
330
B
100
AcDbEntity
 67
     1
  8
1
  6
Continuous
 62
    18
100
AcDbLine
 10
2.380015
 20
4.308587
 30
0.0
 11
2.374916999999999
 21
4.308587
 31
0.0
  0
LINE
  5
B6
330
B
100
AcDbEntity
 67
     1
  8
1
  6
Continuous
 62
    18
100
AcDbLine
 10
5.027741
 20
4.413114
 30
0.0
 11
5.027741
 21
4.278113999999999
 31
0.0
  0
LINE
  5
B7
330
B
100
AcDbEntity
 67
     1
  8
1
  6
Continuous
 62
    18
100
AcDbLine
 10
2.37473
 20
4.323822999999999
 30
0.0
 11
2.37473
 21
4.315752999999999
 31
0.0
  0
LINE
  5
B8
330
B
100
AcDbEntity
 67
     1
  8
1
  6
Continuous
 62
    18
100
AcDbLine
 10
2.453500999999999
 20
4.054352999999999
 30
0.0
 11
2.453500999999999
 21
4.207862
 31
0.0
  0
LINE
  5
B9
330
B
100
AcDbEntity
 67
     1
  8
1
  6
Continuous
 62
    18
100
AcDbLine
 10
2.794806
 20
4.523582
 30
0.0
 11
2.794802
 21
4.523736
 31
0.0
  0
LINE
  5
BA
330
B
100
AcDbEntity
 67
     1
  8
1
  6
Continuous
 62
    18
100
AcDbLine
 10
2.592449999999999
 20
4.434352999999999
 30
0.0
 11
2.636450999999999
 21
4.434352999999999
 31
0.0
  0
LINE
  5
BB
330
B
100
AcDbEntity
 67
     1
  8
1
  6
Continuous
 62
    18
100
AcDbLine
 10
2.682450999999999
 20
4.522501999999999
 30
0.0
 11
2.682450999999999
 21
4.523244
 31
0.0
  0
LINE
  5
BC
330
B
100
AcDbEntity
 67
     1
  8
1
  6
Continuous
 62
    18
100
AcDbLine
 10
5.755010999999999
 20
4.411814999999999
 30
0.0
 11
5.754641999999999
 21
4.412188999999999
 31
0.0
  0
LINE
  5
BD
330
B
100
AcDbEntity
 67
     1
  8
1
  6
Continuous
 62
    18
100
AcDbLine
 10
2.633908
 20
4.058301
 30
0.0
 11
2.642450999999999
 21
4.058301
 31
0.0
  0
LINE
  5
BE
330
B
100
AcDbEntity
 67
     1
  8
1
  6
Continuous
 62
    18
100
AcDbLine
 10
5.667934999999999
 20
4.409575
 30
0.0
 11
5.667575
 21
4.408856
 31
0.0
  0
LINE
  5
BF
330
B
100
AcDbEntity
 67
     1
  8
1
  6
Continuous
 62
    18
100
AcDbLine
 10
5.026436
 20
4.039774999999999
 30
0.0
 11
5.026436
 21
3.902165
 31
0.0
  0
LINE
  5
C0
330
B
100
AcDbEntity
 67
     1
  8
1
  6
Continuous
 62
    18
100
AcDbLine
 10
2.244585999999999
 20
4.514579
 30
0.0
 11
2.720315
 21
4.514579
 31
0.0
  0
LINE
  5
C1
330
B
100
AcDbEntity
 67
     1
  8
1
  6
Continuous
 62
    18
100
AcDbLine
 10
2.553961
 20
4.061319
 30
0.0
 11
2.551501
 21
4.061319
 31
0.0
  0
LINE
  5
C2
330
B
100
AcDbEntity
 67
     1
  8
1
  6
Continuous
 62
    18
100
AcDbLine
 10
2.391318
 20
4.317788
 30
0.0
 11
2.397454999999999
 21
4.317788
 31
0.0
  0
LINE
  5
C3
330
B
100
AcDbEntity
 67
     1
  8
1
  6
Continuous
 62
    18
100
AcDbLine
 10
5.755917
 20
4.409483999999999
 30
0.0
 11
5.755180999999999
 21
4.409448999999999
 31
0.0
  0
LINE
  5
C4
330
B
100
AcDbEntity
 67
     1
  8
1
  6
Continuous
 62
    18
100
AcDbLine
 10
5.097705999999999
 20
3.903426999999999
 30
0.0
 11
5.100233999999999
 21
3.902165
 31
0.0
  0
LINE
  5
C5
330
B
100
AcDbEntity
 67
     1
  8
1
  6
Continuous
 62
    18
100
AcDbLine
 10
5.433011
 20
4.331967999999999
 30
0.0
 11
5.420010999999999
 21
4.344967999999999
 31
0.0
  0
LINE
  5
C6
330
B
100
AcDbEntity
 67
     1
  8
1
  6
Continuous
 62
    18
100
AcDbLine
 10
5.492623
 20
4.432788999999999
 30
0.0
 11
5.447153
 21
4.435172
 31
0.0
  0
LINE
  5
C7
330
B
100
AcDbEntity
 67
     1
  8
1
  6
Continuous
 62
    18
100
AcDbLine
 10
2.353908
 20
4.058301
 30
0.0
 11
2.370995
 21
4.058301
 31
0.0
  0
LINE
  5
C8
330
B
100
AcDbEntity
 67
     1
  8
1
  6
Continuous
 62
    18
100
AcDbLine
 10
5.658135999999999
 20
4.392878999999999
 30
0.0
 11
5.658135999999999
 21
4.429899999999999
 31
0.0
  0
LINE
  5
C9
330
B
100
AcDbEntity
 67
     1
  8
1
  6
Continuous
 62
    18
100
AcDbLine
 10
2.374916999999999
 20
4.330989999999999
 30
0.0
 11
2.380015
 21
4.330989999999999
 31
0.0
  0
LINE
  5
CA
330
B
100
AcDbEntity
 67
     1
  8
1
  6
Continuous
 62
    18
100
AcDbLine
 10
5.104709999999999
 20
4.406156
 30
0.0
 11
5.093150999999999
 21
4.408114
 31
0.0
  0
LINE
  5
CB
330
B
100
AcDbEntity
 67
     1
  8
1
  6
Continuous
 62
    18
100
AcDbLine
 10
2.666779999999999
 20
4.093257
 30
0.0
 11
2.666779999999999
 21
4.245662
 31
0.0
  0
LINE
  5
CC
330
B
100
AcDbEntity
 67
     1
  8
1
  6
Continuous
 62
    18
100
AcDbLine
 10
2.795122
 20
4.310048
 30
0.0
 11
2.795236
 21
4.323548
 31
0.0
  0
LINE
  5
CD
330
B
100
AcDbEntity
 67
     1
  8
1
  6
Continuous
 62
    18
100
AcDbLine
 10
5.939516
 20
4.296248
 30
0.0
 11
5.939516
 21
4.285683999999999
 31
0.0
  0
LINE
  5
CE
330
B
100
AcDbEntity
 67
     1
  8
1
  6
Continuous
 62
    18
100
AcDbLine
 10
5.187653
 20
3.811394999999999
 30
0.0
 11
5.15906
 21
3.811894
 31
0.0
  0
LINE
  5
CF
330
B
100
AcDbEntity
 67
     1
  8
1
  6
Continuous
 62
    18
100
AcDbLine
 10
2.169665
 20
3.948904
 30
0.0
 11
2.169665
 21
4.013904
 31
0.0
  0
LINE
  5
D0
330
B
100
AcDbEntity
 67
     1
  8
1
  6
Continuous
 62
    18
100
AcDbLine
 10
2.533500999999999
 20
4.191984999999999
 30
0.0
 11
2.53045
 21
4.191984999999999
 31
0.0
  0
LINE
  5
D1
330
B
100
AcDbEntity
 67
     1
  8
1
  6
Continuous
 62
    18
100
AcDbLine
 10
2.382449999999999
 20
4.312787999999999
 30
0.0
 11
2.374825999999999
 21
4.312787999999999
 31
0.0
  0
LINE
  5
D2
330
B
100
AcDbEntity
 67
     1
  8
1
  6
Continuous
 62
    18
100
AcDbLine
 10
5.452153
 20
4.068769
 30
0.0
 11
5.665858
 21
3.855064
 31
0.0
  0
LINE
  5
D3
330
B
100
AcDbEntity
 67
     1
  8
1
  6
Continuous
 62
    18
100
AcDbLine
 10
2.380014
 20
4.30651
 30
0.0
 11
2.380014
 21
4.312787999999999
 31
0.0
  0
LINE
  5
D4
330
B
100
AcDbEntity
 67
     1
  8
1
  6
Continuous
 62
    18
100
AcDbLine
 10
2.242875999999999
 20
4.521202999999999
 30
0.0
 11
2.242875999999999
 21
4.459577999999999
 31
0.0
  0
LINE
  5
D5
330
B
100
AcDbEntity
 67
     1
  8
1
  6
Continuous
 62
    18
100
AcDbLine
 10
2.794806
 20
4.299436
 30
0.0
 11
2.795122
 21
4.310048
 31
0.0
  0
LINE
  5
D6
330
B
100
AcDbEntity
 67
     1
  8
1
  6
Continuous
 62
    18
100
AcDbLine
 10
5.674269999999999
 20
4.412164999999999
 30
0.0
 11
5.675016999999999
 21
4.412185
 31
0.0
  0
LINE
  5
D7
330
B
100
AcDbEntity
 67
     1
  8
1
  6
Continuous
 62
    18
100
AcDbLine
 10
5.939516
 20
4.350559999999999
 30
0.0
 11
5.939516
 21
4.331995
 31
0.0
  0
LINE
  5
D8
330
B
100
AcDbEntity
 67
     1
  8
1
  6
Continuous
 62
    18
100
AcDbLine
 10
5.225296
 20
4.331967999999999
 30
0.0
 11
5.214941999999999
 21
4.335758
 31
0.0
  0
LINE
  5
D9
330
B
100
AcDbEntity
 67
     1
  8
1
  6
Continuous
 62
    18
100
AcDbLine
 10
2.170224
 20
4.524693
 30
0.0
 11
2.170868
 21
4.526245999999999
 31
0.0
  0
LINE
  5
DA
330
B
100
AcDbEntity
 67
     1
  8
1
  6
Continuous
 62
    18
100
AcDbLine
 10
5.729516
 20
4.413612
 30
0.0
 11
5.729531999999999
 21
4.413508999999999
 31
0.0
  0
LINE
  5
DB
330
B
100
AcDbEntity
 67
     1
  8
1
  6
Continuous
 62
    18
100
AcDbLine
 10
5.104709999999999
 20
3.910427999999999
 30
0.0
 11
5.118913
 21
3.921437999999999
 31
0.0
  0
LINE
  5
DC
330
B
100
AcDbEntity
 67
     1
  8
1
  6
Continuous
 62
    18
100
AcDbLine
 10
2.247951
 20
4.338352999999999
 30
0.0
 11
2.358449999999999
 21
4.338352999999999
 31
0.0
  0
LINE
  5
DD
330
B
100
AcDbEntity
 67
     1
  8
1
  6
Continuous
 62
    18
100
AcDbLine
 10
5.093150999999999
 20
3.908469999999999
 30
0.0
 11
5.104709999999999
 21
3.910427999999999
 31
0.0
  0
LINE
  5
DE
330
B
100
AcDbEntity
 67
     1
  8
1
  6
Continuous
 62
    18
100
AcDbLine
 10
2.229430999999999
 20
4.050832999999999
 30
0.0
 11
2.21795
 21
4.039353
 31
0.0
  0
LINE
  5
DF
330
B
100
AcDbEntity
 67
     1
  8
1
  6
Continuous
 62
    18
100
AcDbLine
 10
5.75308
 20
4.409412999999999
 30
0.0
 11
5.749925
 21
4.409377
 31
0.0
  0
LINE
  5
E0
330
B
100
AcDbEntity
 67
     1
  8
1
  6
Continuous
 62
    18
100
AcDbLine
 10
2.610450999999999
 20
4.089498999999999
 30
0.0
 11
2.594452999999999
 21
4.089498999999999
 31
0.0
  0
LINE
  5
E1
330
B
100
AcDbEntity
 67
     1
  8
1
  6
Continuous
 62
    18
100
AcDbLine
 10
5.026436
 20
4.276809
 30
0.0
 11
5.100233999999999
 21
4.276809
 31
0.0
  0
LINE
  5
E2
330
B
100
AcDbEntity
 67
     1
  8
1
  6
Continuous
 62
    18
100
AcDbLine
 10
5.79774
 20
4.364991
 30
0.0
 11
5.798141
 21
4.360305
 31
0.0
  0
LINE
  5
E3
330
B
100
AcDbEntity
 67
     1
  8
1
  6
Continuous
 62
    18
100
AcDbLine
 10
2.349663999999999
 20
4.34714
 30
0.0
 11
2.339930999999999
 21
4.356873
 31
0.0
  0
LINE
  5
E4
330
B
100
AcDbEntity
 67
     1
  8
1
  6
Continuous
 62
    18
100
AcDbLine
 10
5.939516
 20
4.365376999999999
 30
0.0
 11
5.939516
 21
4.359994999999999
 31
0.0
  0
LINE
  5
E5
330
B
100
AcDbEntity
 67
     1
  8
1
  6
Continuous
 62
    18
100
AcDbLine
 10
4.535652999999999
 20
4.50577
 30
0.0
 11
4.958359999999999
 21
4.513148
 31
0.0
  0
LINE
  5
E6
330
B
100
AcDbEntity
 67
     1
  8
1
  6
Continuous
 62
    18
100
AcDbLine
 10
5.939516
 20
4.301319999999999
 30
0.0
 11
5.939516
 21
4.301229
 31
0.0
  0
LINE
  5
E7
330
B
100
AcDbEntity
 67
     1
  8
1
  6
Continuous
 62
    18
100
AcDbLine
 10
2.400166999999999
 20
4.406636999999999
 30
0.0
 11
2.393663999999999
 21
4.41314
 31
0.0
  0
LINE
  5
E8
330
B
100
AcDbEntity
 67
     1
  8
1
  6
Continuous
 62
    18
100
AcDbLine
 10
4.437653
 20
4.504144999999999
 30
0.0
 11
4.442565
 21
4.509144
 31
0.0
  0
LINE
  5
E9
330
B
100
AcDbEntity
 67
     1
  8
1
  6
Continuous
 62
    18
100
AcDbLine
 10
2.591486
 20
4.326787999999999
 30
0.0
 11
2.586956999999999
 21
4.326787999999999
 31
0.0
  0
LINE
  5
EA
330
B
100
AcDbEntity
 67
     1
  8
1
  6
Continuous
 62
    18
100
AcDbLine
 10
5.757516
 20
4.381451
 30
0.0
 11
5.755917
 21
4.381492999999999
 31
0.0
  0
LINE
  5
EB
330
B
100
AcDbEntity
 67
     1
  8
1
  6
Continuous
 62
    18
100
AcDbLine
 10
2.59445
 20
4.191984999999999
 30
0.0
 11
2.59145
 21
4.191984999999999
 31
0.0
  0
LINE
  5
EC
330
B
100
AcDbEntity
 67
     1
  8
1
  6
Continuous
 62
    18
100
AcDbLine
 10
2.573583
 20
4.317788
 30
0.0
 11
2.567445999999999
 21
4.317788
 31
0.0
  0
LINE
  5
ED
330
B
100
AcDbEntity
 67
     1
  8
1
  6
Continuous
 62
    18
100
AcDbLine
 10
2.606450999999999
 20
4.226405
 30
0.0
 11
2.358449999999999
 21
4.226405
 31
0.0
  0
LINE
  5
EE
330
B
100
AcDbEntity
 67
     1
  8
1
  6
Continuous
 62
    18
100
AcDbLine
 10
2.577452999999999
 20
3.937725
 30
0.0
 11
2.387448
 21
3.937725
 31
0.0
  0
LINE
  5
EF
330
B
100
AcDbEntity
 67
     1
  8
1
  6
Continuous
 62
    18
100
AcDbLine
 10
2.573606
 20
4.321851999999999
 30
0.0
 11
2.573583
 21
4.321787999999999
 31
0.0
  0
LINE
  5
F0
330
B
100
AcDbEntity
 67
     1
  8
1
  6
Continuous
 62
    18
100
AcDbLine
 10
5.813519999999999
 20
4.351768999999999
 30
0.0
 11
5.838122
 21
4.212241999999999
 31
0.0
  0
LINE
  5
F1
330
B
100
AcDbEntity
 67
     1
  8
1
  6
Continuous
 62
    18
100
AcDbLine
 10
2.370449999999999
 20
4.093257
 30
0.0
 11
2.354449999999999
 21
4.093257
 31
0.0
  0
LINE
  5
F2
330
B
100
AcDbEntity
 67
     1
  8
1
  6
Continuous
 62
    18
100
AcDbLine
 10
2.589928
 20
4.324105
 30
0.0
 11
2.590170999999999
 21
4.323822999999999
 31
0.0
  0
LINE
  5
F3
330
B
100
AcDbEntity
 67
     1
  8
1
  6
Continuous
 62
    18
100
AcDbLine
 10
5.659926
 20
4.36479
 30
0.0
 11
5.665334999999999
 21
4.364798
 31
0.0
  0
LINE
  5
F4
330
B
100
AcDbEntity
 67
     1
  8
1
  6
Continuous
 62
    18
100
AcDbLine
 10
2.45045
 20
4.191984999999999
 30
0.0
 11
2.45045
 21
4.093257
 31
0.0
  0
LINE
  5
F5
330
B
100
AcDbEntity
 67
     1
  8
1
  6
Continuous
 62
    18
100
AcDbLine
 10
2.576754999999999
 20
3.937026999999999
 30
0.0
 11
2.577452999999999
 21
3.937725
 31
0.0
  0
LINE
  5
F6
330
B
100
AcDbEntity
 67
     1
  8
1
  6
Continuous
 62
    18
100
AcDbLine
 10
2.591295
 20
4.321851999999999
 30
0.0
 11
2.590170999999999
 21
4.323822999999999
 31
0.0
  0
LINE
  5
F7
330
B
100
AcDbEntity
 67
     1
  8
1
  6
Continuous
 62
    18
100
AcDbLine
 10
2.73547
 20
4.050832999999999
 30
0.0
 11
2.74695
 21
4.039353
 31
0.0
  0
LINE
  5
F8
330
B
100
AcDbEntity
 67
     1
  8
1
  6
Continuous
 62
    18
100
AcDbLine
 10
2.554450999999999
 20
4.191984999999999
 30
0.0
 11
2.554450999999999
 21
4.093257
 31
0.0
  0
LINE
  5
F9
330
B
100
AcDbEntity
 67
     1
  8
1
  6
Continuous
 62
    18
100
AcDbLine
 10
5.729537
 20
4.412044999999999
 30
0.0
 11
5.729535
 21
4.410823
 31
0.0
  0
LINE
  5
FA
330
B
100
AcDbEntity
 67
     1
  8
1
  6
Continuous
 62
    18
100
AcDbLine
 10
2.597455
 20
4.321787999999999
 30
0.0
 11
2.599523
 21
4.321787999999999
 31
0.0
  0
LINE
  5
FB
330
B
100
AcDbEntity
 67
     1
  8
1
  6
Continuous
 62
    18
100
AcDbLine
 10
2.615237
 20
4.34714
 30
0.0
 11
2.62497
 21
4.356873
 31
0.0
  0
LINE
  5
FC
330
B
100
AcDbEntity
 67
     1
  8
1
  6
Continuous
 62
    18
100
AcDbLine
 10
2.795236
 20
4.323548
 30
0.0
 11
2.795236
 21
4.388548
 31
0.0
  0
LINE
  5
FD
330
B
100
AcDbEntity
 67
     1
  8
1
  6
Continuous
 62
    18
100
AcDbLine
 10
5.746208999999999
 20
4.410751999999999
 30
0.0
 11
5.746178999999999
 21
4.409341
 31
0.0
  0
LINE
  5
FE
330
B
100
AcDbEntity
 67
     1
  8
1
  6
Continuous
 62
    18
100
AcDbLine
 10
2.586956999999999
 20
4.326787999999999
 30
0.0
 11
2.587855999999999
 21
4.326707999999999
 31
0.0
  0
LINE
  5
FF
330
B
100
AcDbEntity
 67
     1
  8
1
  6
Continuous
 62
    18
100
AcDbLine
 10
2.564734
 20
4.406636999999999
 30
0.0
 11
2.571236999999999
 21
4.41314
 31
0.0
  0
LINE
  5
100
330
B
100
AcDbEntity
 67
     1
  8
1
  6
Continuous
 62
    18
100
AcDbLine
 10
2.180593
 20
3.808726
 30
0.0
 11
2.184098
 21
3.808726
 31
0.0
  0
LINE
  5
101
330
B
100
AcDbEntity
 67
     1
  8
1
  6
Continuous
 62
    18
100
AcDbLine
 10
2.386956
 20
4.326787999999999
 30
0.0
 11
2.377943999999999
 21
4.326787999999999
 31
0.0
  0
LINE
  5
102
330
B
100
AcDbEntity
 67
     1
  8
1
  6
Continuous
 62
    18
100
AcDbLine
 10
2.170094999999999
 20
3.808726
 30
0.0
 11
2.170094999999999
 21
4.523505
 31
0.0
  0
LINE
  5
103
330
B
100
AcDbEntity
 67
     1
  8
1
  6
Continuous
 62
    18
100
AcDbLine
 10
2.74745
 20
4.027352999999999
 30
0.0
 11
2.74745
 21
4.039353
 31
0.0
  0
LINE
  5
104
330
B
100
AcDbEntity
 67
     1
  8
1
  6
Continuous
 62
    18
100
AcDbLine
 10
2.399522999999999
 20
4.321787999999999
 30
0.0
 11
2.397454999999999
 21
4.321787999999999
 31
0.0
  0
LINE
  5
105
330
B
100
AcDbEntity
 67
     1
  8
1
  6
Continuous
 62
    18
100
AcDbLine
 10
2.787427
 20
4.516204
 30
0.0
 11
2.794806
 21
4.523582
 31
0.0
  0
LINE
  5
106
330
B
100
AcDbEntity
 67
     1
  8
1
  6
Continuous
 62
    18
100
AcDbLine
 10
5.100233999999999
 20
4.414419
 30
0.0
 11
5.097705999999999
 21
4.413156999999999
 31
0.0
  0
LINE
  5
107
330
B
100
AcDbEntity
 67
     1
  8
1
  6
Continuous
 62
    18
100
AcDbLine
 10
5.817339999999999
 20
4.330112999999999
 30
0.0
 11
5.939516
 21
4.331995
 31
0.0
  0
LINE
  5
108
330
B
100
AcDbEntity
 67
     1
  8
1
  6
Continuous
 62
    18
100
AcDbLine
 10
5.813519999999999
 20
4.351768999999999
 30
0.0
 11
5.809105999999999
 21
4.350923
 31
0.0
  0
LINE
  5
109
330
B
100
AcDbEntity
 67
     1
  8
1
  6
Continuous
 62
    18
100
AcDbLine
 10
5.126216999999999
 20
4.024808
 30
0.0
 11
5.11524
 21
4.035766
 31
0.0
  0
LINE
  5
10A
330
B
100
AcDbEntity
 67
     1
  8
1
  6
Continuous
 62
    18
100
AcDbLine
 10
2.704695999999999
 20
4.089498999999999
 30
0.0
 11
2.71695
 21
4.089498999999999
 31
0.0
  0
LINE
  5
10B
330
B
100
AcDbEntity
 67
     1
  8
1
  6
Continuous
 62
    18
100
AcDbLine
 10
2.720315
 20
4.514579
 30
0.0
 11
2.7204
 21
4.519578
 31
0.0
  0
LINE
  5
10C
330
B
100
AcDbEntity
 67
     1
  8
1
  6
Continuous
 62
    18
100
AcDbLine
 10
2.373149
 20
3.922029
 30
0.0
 11
2.377540999999999
 21
3.932633999999999
 31
0.0
  0
LINE
  5
10D
330
B
100
AcDbEntity
 67
     1
  8
1
  6
Continuous
 62
    18
100
AcDbLine
 10
5.667310999999999
 20
3.879226999999999
 30
0.0
 11
5.712310999999999
 21
3.879226999999999
 31
0.0
  0
LINE
  5
10E
330
B
100
AcDbEntity
 67
     1
  8
1
  6
Continuous
 62
    18
100
AcDbLine
 10
5.100233999999999
 20
4.276809
 30
0.0
 11
5.11524
 21
4.280818
 31
0.0
  0
LINE
  5
10F
330
B
100
AcDbEntity
 67
     1
  8
1
  6
Continuous
 62
    18
100
AcDbLine
 10
5.767237
 20
3.803119
 30
0.0
 11
5.768845999999999
 21
3.798297
 31
0.0
  0
LINE
  5
110
330
B
100
AcDbEntity
 67
     1
  8
1
  6
Continuous
 62
    18
100
AcDbLine
 10
2.386956
 20
4.326787999999999
 30
0.0
 11
2.391486
 21
4.326787999999999
 31
0.0
  0
LINE
  5
111
330
B
100
AcDbEntity
 67
     1
  8
1
  6
Continuous
 62
    18
100
AcDbLine
 10
2.394452999999999
 20
4.089498999999999
 30
0.0
 11
2.393908
 21
4.058301
 31
0.0
  0
LINE
  5
112
330
B
100
AcDbEntity
 67
     1
  8
1
  6
Continuous
 62
    18
100
AcDbLine
 10
2.587359999999999
 20
3.878815
 30
0.0
 11
2.591752
 21
3.889421
 31
0.0
  0
LINE
  5
113
330
B
100
AcDbEntity
 67
     1
  8
1
  6
Continuous
 62
    18
100
AcDbLine
 10
5.621211999999999
 20
4.340575
 30
0.0
 11
5.578130999999999
 21
4.340575
 31
0.0
  0
LINE
  5
114
330
B
100
AcDbEntity
 67
     1
  8
1
  6
Continuous
 62
    18
100
AcDbLine
 10
5.939516
 20
4.329318999999999
 30
0.0
 11
5.817810999999999
 21
4.327444999999999
 31
0.0
  0
LINE
  5
115
330
B
100
AcDbEntity
 67
     1
  8
1
  6
Continuous
 62
    18
100
AcDbLine
 10
4.427651999999999
 20
4.008919
 30
0.0
 11
4.427651999999999
 21
4.011262
 31
0.0
  0
LINE
  5
116
330
B
100
AcDbEntity
 67
     1
  8
1
  6
Continuous
 62
    18
100
AcDbLine
 10
2.374972999999999
 20
4.324105
 30
0.0
 11
2.382449999999999
 21
4.319787999999999
 31
0.0
  0
LINE
  5
117
330
B
100
AcDbEntity
 67
     1
  8
1
  6
Continuous
 62
    18
100
AcDbLine
 10
2.49045
 20
4.089498999999999
 30
0.0
 11
2.490995
 21
4.058301
 31
0.0
  0
LINE
  5
118
330
B
100
AcDbEntity
 67
     1
  8
1
  6
Continuous
 62
    18
100
AcDbLine
 10
2.71695
 20
4.338352999999999
 30
0.0
 11
2.606450999999999
 21
4.338352999999999
 31
0.0
  0
LINE
  5
119
330
B
100
AcDbEntity
 67
     1
  8
1
  6
Continuous
 62
    18
100
AcDbLine
 10
2.591752
 20
3.922029
 30
0.0
 11
2.592449999999999
 21
3.922726999999999
 31
0.0
  0
LINE
  5
11A
330
B
100
AcDbEntity
 67
     1
  8
1
  6
Continuous
 62
    18
100
AcDbLine
 10
5.822680999999999
 20
4.210841999999999
 30
0.0
 11
5.798321999999999
 21
4.348991
 31
0.0
  0
LINE
  5
11B
330
B
100
AcDbEntity
 67
     1
  8
1
  6
Continuous
 62
    18
100
AcDbLine
 10
2.367445999999999
 20
4.317788
 30
0.0
 11
2.373582999999999
 21
4.317788
 31
0.0
  0
LINE
  5
11C
330
B
100
AcDbEntity
 67
     1
  8
1
  6
Continuous
 62
    18
100
AcDbLine
 10
2.533500999999999
 20
4.054352999999999
 30
0.0
 11
2.533500999999999
 21
4.207862
 31
0.0
  0
LINE
  5
11D
330
B
100
AcDbEntity
 67
     1
  8
1
  6
Continuous
 62
    18
100
AcDbLine
 10
2.175094
 20
4.528582
 30
0.0
 11
2.182472999999999
 21
4.521202999999999
 31
0.0
  0
LINE
  5
11E
330
B
100
AcDbEntity
 67
     1
  8
1
  6
Continuous
 62
    18
100
AcDbLine
 10
2.377136999999999
 20
4.313983999999999
 30
0.0
 11
2.382449999999999
 21
4.312825
 31
0.0
  0
LINE
  5
11F
330
B
100
AcDbEntity
 67
     1
  8
1
  6
Continuous
 62
    18
100
AcDbLine
 10
5.757516
 20
4.364931999999999
 30
0.0
 11
5.757516
 21
4.366708
 31
0.0
  0
LINE
  5
120
330
B
100
AcDbEntity
 67
     1
  8
1
  6
Continuous
 62
    18
100
AcDbLine
 10
2.391449999999999
 20
4.054352999999999
 30
0.0
 11
2.391449999999999
 21
4.207862
 31
0.0
  0
LINE
  5
121
330
B
100
AcDbEntity
 67
     1
  8
1
  6
Continuous
 62
    18
100
AcDbLine
 10
2.56245
 20
4.404352999999999
 30
0.0
 11
2.56245
 21
4.477573
 31
0.0
  0
LINE
  5
122
330
B
100
AcDbEntity
 67
     1
  8
1
  6
Continuous
 62
    18
100
AcDbLine
 10
5.676701999999999
 20
4.411378
 30
0.0
 11
5.676696999999999
 21
4.4107
 31
0.0
  0
LINE
  5
123
330
B
100
AcDbEntity
 67
     1
  8
1
  6
Continuous
 62
    18
100
AcDbLine
 10
2.282449999999999
 20
4.520277
 30
0.0
 11
2.282449999999999
 21
4.521018999999999
 31
0.0
  0
LINE
  5
124
330
B
100
AcDbEntity
 67
     1
  8
1
  6
Continuous
 62
    18
100
AcDbLine
 10
5.755917
 20
4.409698
 30
0.0
 11
5.755917
 21
4.409571999999999
 31
0.0
  0
LINE
  5
125
330
B
100
AcDbEntity
 67
     1
  8
1
  6
Continuous
 62
    18
100
AcDbLine
 10
5.112729999999999
 20
4.282072
 30
0.0
 11
5.097705999999999
 21
4.278070999999999
 31
0.0
  0
LINE
  5
126
330
B
100
AcDbEntity
 67
     1
  8
1
  6
Continuous
 62
    18
100
AcDbLine
 10
2.41345
 20
4.054352999999999
 30
0.0
 11
2.41345
 21
4.207862
 31
0.0
  0
LINE
  5
127
330
B
100
AcDbEntity
 67
     1
  8
1
  6
Continuous
 62
    18
100
AcDbLine
 10
2.244585999999999
 20
4.514579
 30
0.0
 11
2.244500999999999
 21
4.519578
 31
0.0
  0
LINE
  5
128
330
B
100
AcDbEntity
 67
     1
  8
1
  6
Continuous
 62
    18
100
AcDbLine
 10
2.282449999999999
 20
4.520277
 30
0.0
 11
2.307450999999999
 21
4.520277
 31
0.0
  0
LINE
  5
129
330
B
100
AcDbEntity
 67
     1
  8
1
  6
Continuous
 62
    18
100
AcDbLine
 10
2.378403
 20
4.306908999999999
 30
0.0
 11
2.380014
 21
4.307004
 31
0.0
  0
LINE
  5
12A
330
B
100
AcDbEntity
 67
     1
  8
1
  6
Continuous
 62
    18
100
AcDbLine
 10
5.097705999999999
 20
4.038513
 30
0.0
 11
5.027741
 21
4.038469999999999
 31
0.0
  0
LINE
  5
12B
330
B
100
AcDbEntity
 67
     1
  8
1
  6
Continuous
 62
    18
100
AcDbLine
 10
2.551501
 20
4.054352999999999
 30
0.0
 11
2.551501
 21
4.207862
 31
0.0
  0
LINE
  5
12C
330
B
100
AcDbEntity
 67
     1
  8
1
  6
Continuous
 62
    18
100
AcDbLine
 10
2.794802
 20
4.523736
 30
0.0
 11
2.794775999999999
 21
4.524093999999999
 31
0.0
  0
LINE
  5
12D
330
B
100
AcDbEntity
 67
     1
  8
1
  6
Continuous
 62
    18
100
AcDbLine
 10
5.751984999999999
 20
4.413022999999999
 30
0.0
 11
5.752354
 21
4.413013999999999
 31
0.0
  0
LINE
  5
12E
330
B
100
AcDbEntity
 67
     1
  8
1
  6
Continuous
 62
    18
100
AcDbLine
 10
5.621194
 20
4.364733
 30
0.0
 11
5.621211999999999
 21
4.340575
 31
0.0
  0
LINE
  5
12F
330
B
100
AcDbEntity
 67
     1
  8
1
  6
Continuous
 62
    18
100
AcDbLine
 10
2.37245
 20
3.922726999999999
 30
0.0
 11
2.37245
 21
3.888721999999999
 31
0.0
  0
LINE
  5
130
330
B
100
AcDbEntity
 67
     1
  8
1
  6
Continuous
 62
    18
100
AcDbLine
 10
2.633961
 20
4.061319
 30
0.0
 11
2.631500999999999
 21
4.061319
 31
0.0
  0
LINE
  5
131
330
B
100
AcDbEntity
 67
     1
  8
1
  6
Continuous
 62
    18
100
AcDbLine
 10
5.667575
 20
4.408856
 30
0.0
 11
5.667334999999999
 21
4.408095999999999
 31
0.0
  0
LINE
  5
132
330
B
100
AcDbEntity
 67
     1
  8
1
  6
Continuous
 62
    18
100
AcDbLine
 10
2.533500999999999
 20
4.061319
 30
0.0
 11
2.530942
 21
4.061319
 31
0.0
  0
LINE
  5
133
330
B
100
AcDbEntity
 67
     1
  8
1
  6
Continuous
 62
    18
100
AcDbLine
 10
4.541387
 20
4.510955
 30
0.0
 11
4.58388
 21
4.511696999999999
 31
0.0
  0
LINE
  5
134
330
B
100
AcDbEntity
 67
     1
  8
1
  6
Continuous
 62
    18
100
AcDbLine
 10
5.127742999999999
 20
4.008586
 30
0.0
 11
5.130233999999999
 21
4.00983
 31
0.0
  0
LINE
  5
135
330
B
100
AcDbEntity
 67
     1
  8
1
  6
Continuous
 62
    18
100
AcDbLine
 10
2.433908
 20
4.058301
 30
0.0
 11
2.450995
 21
4.058301
 31
0.0
  0
LINE
  5
136
330
B
100
AcDbEntity
 67
     1
  8
1
  6
Continuous
 62
    18
100
AcDbLine
 10
5.678136
 20
3.855064
 30
0.0
 11
5.665858
 21
3.855064
 31
0.0
  0
LINE
  5
137
330
B
100
AcDbEntity
 67
     1
  8
1
  6
Continuous
 62
    18
100
AcDbLine
 10
2.169779
 20
4.310048
 30
0.0
 11
2.170094999999999
 21
4.299436
 31
0.0
  0
LINE
  5
138
330
B
100
AcDbEntity
 67
     1
  8
1
  6
Continuous
 62
    18
100
AcDbLine
 10
5.804777999999999
 20
4.401644999999999
 30
0.0
 11
5.804885999999999
 21
4.408711
 31
0.0
  0
LINE
  5
139
330
B
100
AcDbEntity
 67
     1
  8
1
  6
Continuous
 62
    18
100
AcDbLine
 10
2.636450999999999
 20
4.434352999999999
 30
0.0
 11
2.636450999999999
 21
4.368352999999999
 31
0.0
  0
LINE
  5
13A
330
B
100
AcDbEntity
 67
     1
  8
1
  6
Continuous
 62
    18
100
AcDbLine
 10
4.439085999999999
 20
3.798292
 30
0.0
 11
4.437653
 21
3.798292
 31
0.0
  0
LINE
  5
13B
330
B
100
AcDbEntity
 67
     1
  8
1
  6
Continuous
 62
    18
100
AcDbLine
 10
2.794677
 20
4.524693
 30
0.0
 11
2.794033
 21
4.526245999999999
 31
0.0
  0
LINE
  5
13C
330
B
100
AcDbEntity
 67
     1
  8
1
  6
Continuous
 62
    18
100
AcDbLine
 10
5.034387999999999
 20
4.283114
 30
0.0
 11
5.034387999999999
 21
4.408114
 31
0.0
  0
LINE
  5
13D
330
B
100
AcDbEntity
 67
     1
  8
1
  6
Continuous
 62
    18
100
AcDbLine
 10
5.097705999999999
 20
4.038513
 30
0.0
 11
5.112729999999999
 21
4.034512999999999
 31
0.0
  0
LINE
  5
13E
330
B
100
AcDbEntity
 67
     1
  8
1
  6
Continuous
 62
    18
100
AcDbLine
 10
5.034387999999999
 20
3.908469999999999
 30
0.0
 11
5.034387999999999
 21
4.033469999999999
 31
0.0
  0
LINE
  5
13F
330
B
100
AcDbEntity
 67
     1
  8
1
  6
Continuous
 62
    18
100
AcDbLine
 10
2.169665
 20
3.948904
 30
0.0
 11
2.169779
 21
3.935404
 31
0.0
  0
LINE
  5
140
330
B
100
AcDbEntity
 67
     1
  8
1
  6
Continuous
 62
    18
100
AcDbLine
 10
2.184098
 20
4.457868
 30
0.0
 11
2.179097999999999
 21
4.457952999999999
 31
0.0
  0
LINE
  5
141
330
B
100
AcDbEntity
 67
     1
  8
1
  6
Continuous
 62
    18
100
AcDbLine
 10
5.452153
 20
4.172034
 30
0.0
 11
5.452153
 21
4.068769
 31
0.0
  0
LINE
  5
142
330
B
100
AcDbEntity
 67
     1
  8
1
  6
Continuous
 62
    18
100
AcDbLine
 10
2.380014
 20
4.326787999999999
 30
0.0
 11
2.380014
 21
4.333066
 31
0.0
  0
LINE
  5
143
330
B
100
AcDbEntity
 67
     1
  8
1
  6
Continuous
 62
    18
100
AcDbLine
 10
2.242875999999999
 20
4.459577999999999
 30
0.0
 11
2.244585999999999
 21
4.457868
 31
0.0
  0
LINE
  5
144
330
B
100
AcDbEntity
 67
     1
  8
1
  6
Continuous
 62
    18
100
AcDbLine
 10
2.389768
 20
4.325362999999999
 30
0.0
 11
2.389386999999999
 21
4.325937999999999
 31
0.0
  0
LINE
  5
145
330
B
100
AcDbEntity
 67
     1
  8
1
  6
Continuous
 62
    18
100
AcDbLine
 10
5.214941999999999
 20
4.335758
 30
0.0
 11
5.211152999999999
 21
4.346109999999999
 31
0.0
  0
LINE
  5
146
330
B
100
AcDbEntity
 67
     1
  8
1
  6
Continuous
 62
    18
100
AcDbLine
 10
2.170868
 20
4.526245999999999
 30
0.0
 11
2.171982999999999
 21
4.527492999999999
 31
0.0
  0
LINE
  5
147
330
B
100
AcDbEntity
 67
     1
  8
1
  6
Continuous
 62
    18
100
AcDbLine
 10
5.118913
 20
3.921437999999999
 30
0.0
 11
5.124279
 21
3.938469999999999
 31
0.0
  0
LINE
  5
148
330
B
100
AcDbEntity
 67
     1
  8
1
  6
Continuous
 62
    18
100
AcDbLine
 10
2.322449999999999
 20
4.039353
 30
0.0
 11
2.322449999999999
 21
4.054352999999999
 31
0.0
  0
LINE
  5
149
330
B
100
AcDbEntity
 67
     1
  8
1
  6
Continuous
 62
    18
100
AcDbLine
 10
4.958389
 20
4.513071
 30
0.0
 11
5.187653
 21
4.472644999999999
 31
0.0
  0
LINE
  5
14A
330
B
100
AcDbEntity
 67
     1
  8
1
  6
Continuous
 62
    18
100
AcDbLine
 10
2.247951
 20
4.338352999999999
 30
0.0
 11
2.245666999999999
 21
4.340637
 31
0.0
  0
LINE
  5
14B
330
B
100
AcDbEntity
 67
     1
  8
1
  6
Continuous
 62
    18
100
AcDbLine
 10
2.250243
 20
4.093257
 30
0.0
 11
2.247951
 21
4.093257
 31
0.0
  0
LINE
  5
14C
330
B
100
AcDbEntity
 67
     1
  8
1
  6
Continuous
 62
    18
100
AcDbLine
 10
5.026436
 20
4.276809
 30
0.0
 11
5.026436
 21
4.414419
 31
0.0
  0
LINE
  5
14D
330
B
100
AcDbEntity
 67
     1
  8
1
  6
Continuous
 62
    18
100
AcDbLine
 10
2.339930999999999
 20
4.356873
 30
0.0
 11
2.32845
 21
4.368352999999999
 31
0.0
  0
LINE
  5
14E
330
B
100
AcDbEntity
 67
     1
  8
1
  6
Continuous
 62
    18
100
AcDbLine
 10
5.814516
 20
4.346122
 30
0.0
 11
5.814516
 21
4.366812999999999
 31
0.0
  0
LINE
  5
14F
330
B
100
AcDbEntity
 67
     1
  8
1
  6
Continuous
 62
    18
100
AcDbLine
 10
2.244585999999999
 20
4.514579
 30
0.0
 11
2.244585999999999
 21
4.457868
 31
0.0
  0
LINE
  5
150
330
B
100
AcDbEntity
 67
     1
  8
1
  6
Continuous
 62
    18
100
AcDbLine
 10
4.535652999999999
 20
4.449144
 30
0.0
 11
4.535652999999999
 21
4.50577
 31
0.0
  0
LINE
  5
151
330
B
100
AcDbEntity
 67
     1
  8
1
  6
Continuous
 62
    18
100
AcDbLine
 10
2.393663999999999
 20
4.41314
 30
0.0
 11
2.383931
 21
4.422873
 31
0.0
  0
LINE
  5
152
330
B
100
AcDbEntity
 67
     1
  8
1
  6
Continuous
 62
    18
100
AcDbLine
 10
2.370449999999999
 20
4.191984999999999
 30
0.0
 11
2.373450999999999
 21
4.191984999999999
 31
0.0
  0
LINE
  5
153
330
B
100
AcDbEntity
 67
     1
  8
1
  6
Continuous
 62
    18
100
AcDbLine
 10
4.535652999999999
 20
4.510768999999999
 30
0.0
 11
4.535652999999999
 21
4.50577
 31
0.0
  0
LINE
  5
154
330
B
100
AcDbEntity
 67
     1
  8
1
  6
Continuous
 62
    18
100
AcDbLine
 10
2.58245
 20
4.312787999999999
 30
0.0
 11
2.590075
 21
4.312787999999999
 31
0.0
  0
LINE
  5
155
330
B
100
AcDbEntity
 67
     1
  8
1
  6
Continuous
 62
    18
100
AcDbLine
 10
2.794806
 20
3.924791999999999
 30
0.0
 11
2.795122
 21
3.935404
 31
0.0
  0
LINE
  5
156
330
B
100
AcDbEntity
 67
     1
  8
1
  6
Continuous
 62
    18
100
AcDbLine
 10
5.187653
 20
3.813832
 30
0.0
 11
5.187653
 21
4.472644999999999
 31
0.0
  0
LINE
  5
157
330
B
100
AcDbEntity
 67
     1
  8
1
  6
Continuous
 62
    18
100
AcDbLine
 10
2.37245
 20
3.888721999999999
 30
0.0
 11
2.376843
 21
3.878116999999999
 31
0.0
  0
LINE
  5
158
330
B
100
AcDbEntity
 67
     1
  8
1
  6
Continuous
 62
    18
100
AcDbLine
 10
2.573450999999999
 20
4.191984999999999
 30
0.0
 11
2.570450999999999
 21
4.191984999999999
 31
0.0
  0
LINE
  5
159
330
B
100
AcDbEntity
 67
     1
  8
1
  6
Continuous
 62
    18
100
AcDbLine
 10
2.567445999999999
 20
4.317788
 30
0.0
 11
2.565377999999999
 21
4.317788
 31
0.0
  0
LINE
  5
15A
330
B
100
AcDbEntity
 67
     1
  8
1
  6
Continuous
 62
    18
100
AcDbLine
 10
2.358449999999999
 20
4.226405
 30
0.0
 11
2.358449999999999
 21
4.298352999999999
 31
0.0
  0
LINE
  5
15B
330
B
100
AcDbEntity
 67
     1
  8
1
  6
Continuous
 62
    18
100
AcDbLine
 10
2.577452999999999
 20
3.937725
 30
0.0
 11
2.588058
 21
3.933332
 31
0.0
  0
LINE
  5
15C
330
B
100
AcDbEntity
 67
     1
  8
1
  6
Continuous
 62
    18
100
AcDbLine
 10
2.58245
 20
4.312825
 30
0.0
 11
2.577566
 21
4.313800999999999
 31
0.0
  0
LINE
  5
15D
330
B
100
AcDbEntity
 67
     1
  8
1
  6
Continuous
 62
    18
100
AcDbLine
 10
5.801966999999999
 20
3.831418
 30
0.0
 11
5.768845999999999
 21
3.798297
 31
0.0
  0
LINE
  5
15E
330
B
100
AcDbEntity
 67
     1
  8
1
  6
Continuous
 62
    18
100
AcDbLine
 10
2.370449999999999
 20
4.191984999999999
 30
0.0
 11
2.370449999999999
 21
4.093257
 31
0.0
  0
LINE
  5
15F
330
B
100
AcDbEntity
 67
     1
  8
1
  6
Continuous
 62
    18
100
AcDbLine
 10
5.937107
 20
4.367874999999999
 30
0.0
 11
5.937058999999999
 21
4.367877
 31
0.0
  0
LINE
  5
160
330
B
100
AcDbEntity
 67
     1
  8
1
  6
Continuous
 62
    18
100
AcDbLine
 10
2.589928
 20
4.324105
 30
0.0
 11
2.58245
 21
4.319787999999999
 31
0.0
  0
LINE
  5
161
330
B
100
AcDbEntity
 67
     1
  8
1
  6
Continuous
 62
    18
100
AcDbLine
 10
5.665334999999999
 20
4.364798
 30
0.0
 11
5.667310999999999
 21
4.364799999999999
 31
0.0
  0
LINE
  5
162
330
B
100
AcDbEntity
 67
     1
  8
1
  6
Continuous
 62
    18
100
AcDbLine
 10
5.814516
 20
4.368973999999999
 30
0.0
 11
5.814516
 21
4.370016
 31
0.0
  0
LINE
  5
163
330
B
100
AcDbEntity
 67
     1
  8
1
  6
Continuous
 62
    18
100
AcDbLine
 10
2.47445
 20
4.191984999999999
 30
0.0
 11
2.47445
 21
4.093257
 31
0.0
  0
LINE
  5
164
330
B
100
AcDbEntity
 67
     1
  8
1
  6
Continuous
 62
    18
100
AcDbLine
 10
2.590170999999999
 20
4.315752999999999
 30
0.0
 11
2.591295
 21
4.317725
 31
0.0
  0
LINE
  5
165
330
B
100
AcDbEntity
 67
     1
  8
1
  6
Continuous
 62
    18
100
AcDbLine
 10
2.71695
 20
4.338352999999999
 30
0.0
 11
2.719234
 21
4.340637
 31
0.0
  0
LINE
  5
166
330
B
100
AcDbEntity
 67
     1
  8
1
  6
Continuous
 62
    18
100
AcDbLine
 10
5.814516
 20
4.382944
 30
0.0
 11
5.811678999999999
 21
4.382869
 31
0.0
  0
LINE
  5
167
330
B
100
AcDbEntity
 67
     1
  8
1
  6
Continuous
 62
    18
100
AcDbLine
 10
2.554450999999999
 20
4.093257
 30
0.0
 11
2.570450999999999
 21
4.093257
 31
0.0
  0
LINE
  5
168
330
B
100
AcDbEntity
 67
     1
  8
1
  6
Continuous
 62
    18
100
AcDbLine
 10
5.434153
 20
4.35911
 30
0.0
 11
5.434153
 21
4.435852999999999
 31
0.0
  0
LINE
  5
169
330
B
100
AcDbEntity
 67
     1
  8
1
  6
Continuous
 62
    18
100
AcDbLine
 10
2.62497
 20
4.356873
 30
0.0
 11
2.636450999999999
 21
4.368352999999999
 31
0.0
  0
LINE
  5
16A
330
B
100
AcDbEntity
 67
     1
  8
1
  6
Continuous
 62
    18
100
AcDbLine
 10
5.752481999999999
 20
4.413011
 30
0.0
 11
5.753754999999999
 21
4.412736999999999
 31
0.0
  0
LINE
  5
16B
330
B
100
AcDbEntity
 67
     1
  8
1
  6
Continuous
 62
    18
100
AcDbLine
 10
2.587855999999999
 20
4.326707999999999
 30
0.0
 11
2.588633999999999
 21
4.326464999999999
 31
0.0
  0
LINE
  5
16C
330
B
100
AcDbEntity
 67
     1
  8
1
  6
Continuous
 62
    18
100
AcDbLine
 10
2.571236999999999
 20
4.41314
 30
0.0
 11
2.58097
 21
4.422873
 31
0.0
  0
LINE
  5
16D
330
B
100
AcDbEntity
 67
     1
  8
1
  6
Continuous
 62
    18
100
AcDbLine
 10
5.798141
 20
4.360305
 30
0.0
 11
5.798321999999999
 21
4.348991
 31
0.0
  0
LINE
  5
16E
330
B
100
AcDbEntity
 67
     1
  8
1
  6
Continuous
 62
    18
100
AcDbLine
 10
2.170094999999999
 20
3.808726
 30
0.0
 11
2.179097999999999
 21
3.808726
 31
0.0
  0
LINE
  5
16F
330
B
100
AcDbEntity
 67
     1
  8
1
  6
Continuous
 62
    18
100
AcDbLine
 10
2.179097999999999
 20
4.457952999999999
 30
0.0
 11
2.179097999999999
 21
3.808726
 31
0.0
  0
LINE
  5
170
330
B
100
AcDbEntity
 67
     1
  8
1
  6
Continuous
 62
    18
100
AcDbLine
 10
5.699975
 20
4.407879
 30
0.0
 11
5.676753999999999
 21
4.407011999999999
 31
0.0
  0
LINE
  5
171
330
B
100
AcDbEntity
 67
     1
  8
1
  6
Continuous
 62
    18
100
AcDbLine
 10
2.397454999999999
 20
4.321787999999999
 30
0.0
 11
2.391318
 21
4.321787999999999
 31
0.0
  0
LINE
  5
172
330
B
100
AcDbEntity
 67
     1
  8
1
  6
Continuous
 62
    18
100
AcDbLine
 10
2.514450999999999
 20
4.093257
 30
0.0
 11
2.53045
 21
4.093257
 31
0.0
  0
LINE
  5
173
330
B
100
AcDbEntity
 67
     1
  8
1
  6
Continuous
 62
    18
100
AcDbLine
 10
2.787427
 20
4.459577999999999
 30
0.0
 11
2.787427
 21
4.516204
 31
0.0
  0
LINE
  5
174
330
B
100
AcDbEntity
 67
     1
  8
1
  6
Continuous
 62
    18
100
AcDbLine
 10
5.127742999999999
 20
4.38323
 30
0.0
 11
5.130233999999999
 21
4.384473999999999
 31
0.0
  0
LINE
  5
175
330
B
100
AcDbEntity
 67
     1
  8
1
  6
Continuous
 62
    18
100
AcDbLine
 10
5.809105999999999
 20
4.350923
 30
0.0
 11
5.798321999999999
 21
4.348991
 31
0.0
  0
LINE
  5
176
330
B
100
AcDbEntity
 67
     1
  8
1
  6
Continuous
 62
    18
100
AcDbLine
 10
5.746178999999999
 20
4.364914999999999
 30
0.0
 11
5.746178999999999
 21
4.409341
 31
0.0
  0
LINE
  5
177
330
B
100
AcDbEntity
 67
     1
  8
1
  6
Continuous
 62
    18
100
AcDbLine
 10
2.377540999999999
 20
3.932633999999999
 30
0.0
 11
2.388145999999999
 21
3.937026999999999
 31
0.0
  0
LINE
  5
178
330
B
100
AcDbEntity
 67
     1
  8
1
  6
Continuous
 62
    18
100
AcDbLine
 10
5.667310999999999
 20
3.879226999999999
 30
0.0
 11
5.663009999999999
 21
3.879226999999999
 31
0.0
  0
LINE
  5
179
330
B
100
AcDbEntity
 67
     1
  8
1
  6
Continuous
 62
    18
100
AcDbLine
 10
5.026436
 20
4.414419
 30
0.0
 11
5.027741
 21
4.413114
 31
0.0
  0
LINE
  5
17A
330
B
100
AcDbEntity
 67
     1
  8
1
  6
Continuous
 62
    18
100
AcDbLine
 10
2.382449999999999
 20
4.312825
 30
0.0
 11
2.382449999999999
 21
4.319787999999999
 31
0.0
  0
LINE
  5
17B
330
B
100
AcDbEntity
 67
     1
  8
1
  6
Continuous
 62
    18
100
AcDbLine
 10
2.410449999999999
 20
4.089498999999999
 30
0.0
 11
2.410995
 21
4.058301
 31
0.0
  0
LINE
  5
17C
330
B
100
AcDbEntity
 67
     1
  8
1
  6
Continuous
 62
    18
100
AcDbLine
 10
2.591752
 20
3.922029
 30
0.0
 11
2.591752
 21
3.889421
 31
0.0
  0
LINE
  5
17D
330
B
100
AcDbEntity
 67
     1
  8
1
  6
Continuous
 62
    18
100
AcDbLine
 10
5.838122
 20
4.212241999999999
 30
0.0
 11
5.838122
 21
4.036466
 31
0.0
  0
LINE
  5
17E
330
B
100
AcDbEntity
 67
     1
  8
1
  6
Continuous
 62
    18
100
AcDbLine
 10
2.373582999999999
 20
4.321787999999999
 30
0.0
 11
2.373606
 21
4.321851999999999
 31
0.0
  0
LINE
  5
17F
330
B
100
AcDbEntity
 67
     1
  8
1
  6
Continuous
 62
    18
100
AcDbLine
 10
2.606450999999999
 20
4.251083999999999
 30
0.0
 11
2.358449999999999
 21
4.251083999999999
 31
0.0
  0
LINE
  5
180
330
B
100
AcDbEntity
 67
     1
  8
1
  6
Continuous
 62
    18
100
AcDbLine
 10
2.204800999999999
 20
4.087108999999999
 30
0.0
 11
2.202801
 21
4.087108999999999
 31
0.0
  0
LINE
  5
181
330
B
100
AcDbEntity
 67
     1
  8
1
  6
Continuous
 62
    18
100
AcDbLine
 10
5.798321999999999
 20
4.348991
 30
0.0
 11
5.667310999999999
 21
4.348799999999999
 31
0.0
  0
LINE
  5
182
330
B
100
AcDbEntity
 67
     1
  8
1
  6
Continuous
 62
    18
100
AcDbLine
 10
5.938798999999999
 20
4.367129
 30
0.0
 11
5.938081999999999
 21
4.367637999999999
 31
0.0
  0
LINE
  5
183
330
B
100
AcDbEntity
 67
     1
  8
1
  6
Continuous
 62
    18
100
AcDbLine
 10
5.675844999999999
 20
4.412206999999999
 30
0.0
 11
5.676753999999999
 21
4.41223
 31
0.0
  0
LINE
  5
184
330
B
100
AcDbEntity
 67
     1
  8
1
  6
Continuous
 62
    18
100
AcDbLine
 10
5.227941999999999
 20
4.348758
 30
0.0
 11
5.238296
 21
4.344967999999999
 31
0.0
  0
LINE
  5
185
330
B
100
AcDbEntity
 67
     1
  8
1
  6
Continuous
 62
    18
100
AcDbLine
 10
2.594452999999999
 20
4.089498999999999
 30
0.0
 11
2.593908
 21
4.058301
 31
0.0
  0
LINE
  5
186
330
B
100
AcDbEntity
 67
     1
  8
1
  6
Continuous
 62
    18
100
AcDbLine
 10
2.242875999999999
 20
4.521202999999999
 30
0.0
 11
2.182472999999999
 21
4.521202999999999
 31
0.0
  0
LINE
  5
187
330
B
100
AcDbEntity
 67
     1
  8
1
  6
Continuous
 62
    18
100
AcDbLine
 10
5.757516
 20
4.366708
 30
0.0
 11
5.757516
 21
4.369106999999999
 31
0.0
  0
LINE
  5
188
330
B
100
AcDbEntity
 67
     1
  8
1
  6
Continuous
 62
    18
100
AcDbLine
 10
2.373450999999999
 20
4.054352999999999
 30
0.0
 11
2.373450999999999
 21
4.207862
 31
0.0
  0
LINE
  5
189
330
B
100
AcDbEntity
 67
     1
  8
1
  6
Continuous
 62
    18
100
AcDbLine
 10
2.402450999999999
 20
4.477573
 30
0.0
 11
2.398430999999999
 21
4.481593
 31
0.0
  0
LINE
  5
18A
330
B
100
AcDbEntity
 67
     1
  8
1
  6
Continuous
 62
    18
100
AcDbLine
 10
5.814516
 20
4.401644999999999
 30
0.0
 11
5.811678999999999
 21
4.401644999999999
 31
0.0
  0
LINE
  5
18B
330
B
100
AcDbEntity
 67
     1
  8
1
  6
Continuous
 62
    18
100
AcDbLine
 10
2.282449999999999
 20
4.522501999999999
 30
0.0
 11
2.282449999999999
 21
4.523244
 31
0.0
  0
LINE
  5
18C
330
B
100
AcDbEntity
 67
     1
  8
1
  6
Continuous
 62
    18
100
AcDbLine
 10
2.584886999999999
 20
4.332576
 30
0.0
 11
2.586488
 21
4.332669999999999
 31
0.0
  0
LINE
  5
18D
330
B
100
AcDbEntity
 67
     1
  8
1
  6
Continuous
 62
    18
100
AcDbLine
 10
2.49345
 20
4.054352999999999
 30
0.0
 11
2.49345
 21
4.207862
 31
0.0
  0
LINE
  5
18E
330
B
100
AcDbEntity
 67
     1
  8
1
  6
Continuous
 62
    18
100
AcDbLine
 10
2.32845
 20
4.434352999999999
 30
0.0
 11
2.32845
 21
4.368352999999999
 31
0.0
  0
LINE
  5
18F
330
B
100
AcDbEntity
 67
     1
  8
1
  6
Continuous
 62
    18
100
AcDbLine
 10
2.35745
 20
4.520277
 30
0.0
 11
2.407449999999999
 21
4.520277
 31
0.0
  0
LINE
  5
190
330
B
100
AcDbEntity
 67
     1
  8
1
  6
Continuous
 62
    18
100
AcDbLine
 10
5.755716
 20
4.409473999999999
 30
0.0
 11
5.755730999999999
 21
4.409962999999999
 31
0.0
  0
LINE
  5
191
330
B
100
AcDbEntity
 67
     1
  8
1
  6
Continuous
 62
    18
100
AcDbLine
 10
4.535652999999999
 20
4.510768999999999
 30
0.0
 11
4.442565
 21
4.509144
 31
0.0
  0
LINE
  5
192
330
B
100
AcDbEntity
 67
     1
  8
1
  6
Continuous
 62
    18
100
AcDbLine
 10
5.787644
 20
3.839163999999999
 30
0.0
 11
5.822680999999999
 21
4.037866
 31
0.0
  0
LINE
  5
193
330
B
100
AcDbEntity
 67
     1
  8
1
  6
Continuous
 62
    18
100
AcDbLine
 10
2.760099999999999
 20
4.087108999999999
 30
0.0
 11
2.7621
 21
4.087108999999999
 31
0.0
  0
LINE
  5
194
330
B
100
AcDbEntity
 67
     1
  8
1
  6
Continuous
 62
    18
100
AcDbLine
 10
5.752354
 20
4.413013999999999
 30
0.0
 11
5.752481999999999
 21
4.413011
 31
0.0
  0
LINE
  5
195
330
B
100
AcDbEntity
 67
     1
  8
1
  6
Continuous
 62
    18
100
AcDbLine
 10
5.112729999999999
 20
4.034512999999999
 30
0.0
 11
5.123720999999999
 21
4.023560999999999
 31
0.0
  0
LINE
  5
196
330
B
100
AcDbEntity
 67
     1
  8
1
  6
Continuous
 62
    18
100
AcDbLine
 10
2.613500999999999
 20
4.061319
 30
0.0
 11
2.610941999999999
 21
4.061319
 31
0.0
  0
LINE
  5
197
330
B
100
AcDbEntity
 67
     1
  8
1
  6
Continuous
 62
    18
100
AcDbLine
 10
2.388012999999999
 20
4.326673999999999
 30
0.0
 11
2.387216
 21
4.326781999999999
 31
0.0
  0
LINE
  5
198
330
B
100
AcDbEntity
 67
     1
  8
1
  6
Continuous
 62
    18
100
AcDbLine
 10
5.811678999999999
 20
4.382869
 30
0.0
 11
5.804777999999999
 21
4.382689
 31
0.0
  0
LINE
  5
199
330
B
100
AcDbEntity
 67
     1
  8
1
  6
Continuous
 62
    18
100
AcDbLine
 10
2.513908
 20
4.058301
 30
0.0
 11
2.530994999999999
 21
4.058301
 31
0.0
  0
LINE
  5
19A
330
B
100
AcDbEntity
 67
     1
  8
1
  6
Continuous
 62
    18
100
AcDbLine
 10
4.626374
 20
4.512438999999999
 30
0.0
 11
4.647621
 21
4.512809999999999
 31
0.0
  0
LINE
  5
19B
330
B
100
AcDbEntity
 67
     1
  8
1
  6
Continuous
 62
    18
100
AcDbLine
 10
5.939516
 20
4.359994999999999
 30
0.0
 11
5.939516
 21
4.357319
 31
0.0
  0
LINE
  5
19C
330
B
100
AcDbEntity
 67
     1
  8
1
  6
Continuous
 62
    18
100
AcDbLine
 10
5.100233999999999
 20
3.902165
 30
0.0
 11
5.026436
 21
3.902165
 31
0.0
  0
LINE
  5
19D
330
B
100
AcDbEntity
 67
     1
  8
1
  6
Continuous
 62
    18
100
AcDbLine
 10
5.11524
 20
4.035766
 30
0.0
 11
5.100233999999999
 21
4.039774999999999
 31
0.0
  0
LINE
  5
19E
330
B
100
AcDbEntity
 67
     1
  8
1
  6
Continuous
 62
    18
100
AcDbLine
 10
5.658313999999999
 20
3.866508999999999
 30
0.0
 11
5.678137
 21
3.855064
 31
0.0
  0
LINE
  5
19F
330
B
100
AcDbEntity
 67
     1
  8
1
  6
Continuous
 62
    18
100
AcDbLine
 10
5.609389
 20
4.364733999999999
 30
0.0
 11
5.578135999999999
 21
4.364733999999999
 31
0.0
  0
LINE
  5
1A0
330
B
100
AcDbEntity
 67
     1
  8
1
  6
Continuous
 62
    18
100
AcDbLine
 10
2.388145999999999
 20
3.874423
 30
0.0
 11
2.576754999999999
 21
3.874423
 31
0.0
  0
LINE
  5
1A1
330
B
100
AcDbEntity
 67
     1
  8
1
  6
Continuous
 62
    18
100
AcDbLine
 10
5.939516
 20
4.357249999999999
 30
0.0
 11
5.939516
 21
4.350559999999999
 31
0.0
  0
LINE
  5
1A2
330
B
100
AcDbEntity
 67
     1
  8
1
  6
Continuous
 62
    18
100
AcDbLine
 10
5.104709999999999
 20
4.031512
 30
0.0
 11
5.093150999999999
 21
4.033469999999999
 31
0.0
  0
LINE
  5
1A3
330
B
100
AcDbEntity
 67
     1
  8
1
  6
Continuous
 62
    18
100
AcDbLine
 10
5.124279
 20
4.313113999999999
 30
0.0
 11
5.124279
 21
4.378114
 31
0.0
  0
LINE
  5
1A4
330
B
100
AcDbEntity
 67
     1
  8
1
  6
Continuous
 62
    18
100
AcDbLine
 10
5.939516
 20
4.296248
 30
0.0
 11
5.823637
 21
4.294394
 31
0.0
  0
LINE
  5
1A5
330
B
100
AcDbEntity
 67
     1
  8
1
  6
Continuous
 62
    18
100
AcDbLine
 10
5.578135999999999
 20
4.364733999999999
 30
0.0
 11
5.578135999999999
 21
4.298016999999999
 31
0.0
  0
LINE
  5
1A6
330
B
100
AcDbEntity
 67
     1
  8
1
  6
Continuous
 62
    18
100
AcDbLine
 10
2.169779
 20
3.935404
 30
0.0
 11
2.170094999999999
 21
3.924791999999999
 31
0.0
  0
LINE
  5
1A7
330
B
100
AcDbEntity
 67
     1
  8
1
  6
Continuous
 62
    18
100
AcDbLine
 10
5.757516
 20
4.381451
 30
0.0
 11
5.757516
 21
4.37833
 31
0.0
  0
LINE
  5
1A8
330
B
100
AcDbEntity
 67
     1
  8
1
  6
Continuous
 62
    18
100
AcDbLine
 10
2.247951
 20
4.069352999999999
 30
0.0
 11
2.247951
 21
4.338352999999999
 31
0.0
  0
LINE
  5
1A9
330
B
100
AcDbEntity
 67
     1
  8
1
  6
Continuous
 62
    18
100
AcDbLine
 10
5.754641999999999
 20
4.412188999999999
 30
0.0
 11
5.754226
 21
4.412493
 31
0.0
  0
LINE
  5
1AA
330
B
100
AcDbEntity
 67
     1
  8
1
  6
Continuous
 62
    18
100
AcDbLine
 10
5.578135999999999
 20
4.298016999999999
 30
0.0
 11
5.452153
 21
4.172034
 31
0.0
  0
LINE
  5
1AB
330
B
100
AcDbEntity
 67
     1
  8
1
  6
Continuous
 62
    18
100
AcDbLine
 10
2.584631
 20
4.306465
 30
0.0
 11
2.584868
 21
4.312787999999999
 31
0.0
  0
LINE
  5
1AC
330
B
100
AcDbEntity
 67
     1
  8
1
  6
Continuous
 62
    18
100
AcDbLine
 10
2.177474
 20
4.459577999999999
 30
0.0
 11
2.242875999999999
 21
4.459577999999999
 31
0.0
  0
LINE
  5
1AD
330
B
100
AcDbEntity
 67
     1
  8
1
  6
Continuous
 62
    18
100
AcDbLine
 10
5.804777999999999
 20
4.401644999999999
 30
0.0
 11
5.765310999999999
 21
4.406502999999999
 31
0.0
  0
LINE
  5
1AE
330
B
100
AcDbEntity
 67
     1
  8
1
  6
Continuous
 62
    18
100
AcDbLine
 10
5.939516
 20
4.329318999999999
 30
0.0
 11
5.939516
 21
4.32925
 31
0.0
  0
LINE
  5
1AF
330
B
100
AcDbEntity
 67
     1
  8
1
  6
Continuous
 62
    18
100
AcDbLine
 10
5.211152999999999
 20
4.346109999999999
 30
0.0
 11
5.211152999999999
 21
4.44754
 31
0.0
  0
LINE
  5
1B0
330
B
100
AcDbEntity
 67
     1
  8
1
  6
Continuous
 62
    18
100
AcDbLine
 10
2.389386999999999
 20
4.325937999999999
 30
0.0
 11
2.388688999999999
 21
4.326438999999999
 31
0.0
  0
LINE
  5
1B1
330
B
100
AcDbEntity
 67
     1
  8
1
  6
Continuous
 62
    18
100
AcDbLine
 10
2.171982999999999
 20
4.527492999999999
 30
0.0
 11
2.173445
 21
4.528302
 31
0.0
  0
LINE
  5
1B2
330
B
100
AcDbEntity
 67
     1
  8
1
  6
Continuous
 62
    18
100
AcDbLine
 10
4.442565
 20
4.447519
 30
0.0
 11
4.442565
 21
3.798292
 31
0.0
  0
LINE
  5
1B3
330
B
100
AcDbEntity
 67
     1
  8
1
  6
Continuous
 62
    18
100
AcDbLine
 10
5.124279
 20
3.938469999999999
 30
0.0
 11
5.124279
 21
4.00347
 31
0.0
  0
LINE
  5
1B4
330
B
100
AcDbEntity
 67
     1
  8
1
  6
Continuous
 62
    18
100
AcDbLine
 10
2.322449999999999
 20
4.054352999999999
 30
0.0
 11
2.322449999999999
 21
4.065334
 31
0.0
  0
LINE
  5
1B5
330
B
100
AcDbEntity
 67
     1
  8
1
  6
Continuous
 62
    18
100
AcDbLine
 10
4.958389
 20
3.798292
 30
0.0
 11
4.958389
 21
4.513071
 31
0.0
  0
LINE
  5
1B6
330
B
100
AcDbEntity
 67
     1
  8
1
  6
Continuous
 62
    18
100
AcDbLine
 10
2.245666999999999
 20
4.340637
 30
0.0
 11
2.239164
 21
4.34714
 31
0.0
  0
LINE
  5
1B7
330
B
100
AcDbEntity
 67
     1
  8
1
  6
Continuous
 62
    18
100
AcDbLine
 10
5.746216999999999
 20
4.411437999999999
 30
0.0
 11
5.746208999999999
 21
4.410751999999999
 31
0.0
  0
LINE
  5
1B8
330
B
100
AcDbEntity
 67
     1
  8
1
  6
Continuous
 62
    18
100
AcDbLine
 10
5.026436
 20
4.414419
 30
0.0
 11
5.100233999999999
 21
4.414419
 31
0.0
  0
LINE
  5
1B9
330
B
100
AcDbEntity
 67
     1
  8
1
  6
Continuous
 62
    18
100
AcDbLine
 10
2.358449999999999
 20
4.404352999999999
 30
0.0
 11
2.356166999999999
 21
4.406636999999999
 31
0.0
  0
LINE
  5
1BA
330
B
100
AcDbEntity
 67
     1
  8
1
  6
Continuous
 62
    18
100
AcDbLine
 10
2.244585999999999
 20
4.457868
 30
0.0
 11
2.184098
 21
4.457868
 31
0.0
  0
LINE
  5
1BB
330
B
100
AcDbEntity
 67
     1
  8
1
  6
Continuous
 62
    18
100
AcDbLine
 10
4.442565
 20
4.447519
 30
0.0
 11
4.535652999999999
 21
4.449144
 31
0.0
  0
LINE
  5
1BC
330
B
100
AcDbEntity
 67
     1
  8
1
  6
Continuous
 62
    18
100
AcDbLine
 10
2.383931
 20
4.422873
 30
0.0
 11
2.37245
 21
4.434352999999999
 31
0.0
  0
LINE
  5
1BD
330
B
100
AcDbEntity
 67
     1
  8
1
  6
Continuous
 62
    18
100
AcDbLine
 10
2.391449999999999
 20
4.191984999999999
 30
0.0
 11
2.394449999999999
 21
4.191984999999999
 31
0.0
  0
LINE
  5
1BE
330
B
100
AcDbEntity
 67
     1
  8
1
  6
Continuous
 62
    18
100
AcDbLine
 10
4.958359999999999
 20
4.513148
 30
0.0
 11
4.958279
 21
4.513301
 31
0.0
  0
LINE
  5
1BF
330
B
100
AcDbEntity
 67
     1
  8
1
  6
Continuous
 62
    18
100
AcDbLine
 10
2.590075
 20
4.312787999999999
 30
0.0
 11
2.593993999999999
 21
4.312787999999999
 31
0.0
  0
LINE
  5
1C0
330
B
100
AcDbEntity
 67
     1
  8
1
  6
Continuous
 62
    18
100
AcDbLine
 10
2.795122
 20
3.935404
 30
0.0
 11
2.795236
 21
3.948904
 31
0.0
  0
LINE
  5
1C1
330
B
100
AcDbEntity
 67
     1
  8
1
  6
Continuous
 62
    18
100
AcDbLine
 10
2.554450999999999
 20
4.191984999999999
 30
0.0
 11
2.551501
 21
4.191984999999999
 31
0.0
  0
LINE
  5
1C2
330
B
100
AcDbEntity
 67
     1
  8
1
  6
Continuous
 62
    18
100
AcDbLine
 10
2.573583
 20
4.321787999999999
 30
0.0
 11
2.573583
 21
4.317788
 31
0.0
  0
LINE
  5
1C3
330
B
100
AcDbEntity
 67
     1
  8
1
  6
Continuous
 62
    18
100
AcDbLine
 10
5.667310999999999
 20
4.348799999999999
 30
0.0
 11
5.667310999999999
 21
3.879226999999999
 31
0.0
  0
LINE
  5
1C4
330
B
100
AcDbEntity
 67
     1
  8
1
  6
Continuous
 62
    18
100
AcDbLine
 10
2.298119999999999
 20
4.245662
 30
0.0
 11
2.247951
 21
4.245662
 31
0.0
  0
LINE
  5
1C5
330
B
100
AcDbEntity
 67
     1
  8
1
  6
Continuous
 62
    18
100
AcDbLine
 10
2.588058
 20
3.933332
 30
0.0
 11
2.592449999999999
 21
3.922726999999999
 31
0.0
  0
LINE
  5
1C6
330
B
100
AcDbEntity
 67
     1
  8
1
  6
Continuous
 62
    18
100
AcDbLine
 10
2.577566
 20
4.313800999999999
 30
0.0
 11
2.576192999999999
 21
4.314487
 31
0.0
  0
LINE
  5
1C7
330
B
100
AcDbEntity
 67
     1
  8
1
  6
Continuous
 62
    18
100
AcDbLine
 10
2.394449999999999
 20
4.191984999999999
 30
0.0
 11
2.394449999999999
 21
4.093257
 31
0.0
  0
LINE
  5
1C8
330
B
100
AcDbEntity
 67
     1
  8
1
  6
Continuous
 62
    18
100
AcDbLine
 10
4.442565
 20
3.798292
 30
0.0
 11
4.439085999999999
 21
3.798292
 31
0.0
  0
LINE
  5
1C9
330
B
100
AcDbEntity
 67
     1
  8
1
  6
Continuous
 62
    18
100
AcDbLine
 10
2.590170999999999
 20
4.315752999999999
 30
0.0
 11
2.589717999999999
 21
4.315258999999999
 31
0.0
  0
LINE
  5
1CA
330
B
100
AcDbEntity
 67
     1
  8
1
  6
Continuous
 62
    18
100
AcDbLine
 10
5.667310999999999
 20
4.364799999999999
 30
0.0
 11
5.79774
 21
4.364991
 31
0.0
  0
LINE
  5
1CB
330
B
100
AcDbEntity
 67
     1
  8
1
  6
Continuous
 62
    18
100
AcDbLine
 10
5.127742999999999
 20
3.933353999999999
 30
0.0
 11
5.127742999999999
 21
4.008586
 31
0.0
  0
LINE
  5
1CC
330
B
100
AcDbEntity
 67
     1
  8
1
  6
Continuous
 62
    18
100
AcDbLine
 10
2.380269999999999
 20
4.333110999999999
 30
0.0
 11
2.380033
 21
4.326787999999999
 31
0.0
  0
LINE
  5
1CD
330
B
100
AcDbEntity
 67
     1
  8
1
  6
Continuous
 62
    18
100
AcDbLine
 10
2.49045
 20
4.093257
 30
0.0
 11
2.47445
 21
4.093257
 31
0.0
  0
LINE
  5
1CE
330
B
100
AcDbEntity
 67
     1
  8
1
  6
Continuous
 62
    18
100
AcDbLine
 10
5.676701999999999
 20
4.409866
 30
0.0
 11
5.676712999999999
 21
4.408932
 31
0.0
  0
LINE
  5
1CF
330
B
100
AcDbEntity
 67
     1
  8
1
  6
Continuous
 62
    18
100
AcDbLine
 10
2.591295
 20
4.317725
 30
0.0
 11
2.591318
 21
4.317788
 31
0.0
  0
LINE
  5
1D0
330
B
100
AcDbEntity
 67
     1
  8
1
  6
Continuous
 62
    18
100
AcDbLine
 10
2.719234
 20
4.340637
 30
0.0
 11
2.725737
 21
4.34714
 31
0.0
  0
LINE
  5
1D1
330
B
100
AcDbEntity
 67
     1
  8
1
  6
Continuous
 62
    18
100
AcDbLine
 10
2.471500999999999
 20
4.054352999999999
 30
0.0
 11
2.471500999999999
 21
4.207862
 31
0.0
  0
LINE
  5
1D2
330
B
100
AcDbEntity
 67
     1
  8
1
  6
Continuous
 62
    18
100
AcDbLine
 10
2.562447
 20
4.415459999999999
 30
0.0
 11
2.402454
 21
4.415459999999999
 31
0.0
  0
LINE
  5
1D3
330
B
100
AcDbEntity
 67
     1
  8
1
  6
Continuous
 62
    18
100
AcDbLine
 10
2.570450999999999
 20
4.191984999999999
 30
0.0
 11
2.570450999999999
 21
4.093257
 31
0.0
  0
LINE
  5
1D4
330
B
100
AcDbEntity
 67
     1
  8
1
  6
Continuous
 62
    18
100
AcDbLine
 10
5.746178999999999
 20
4.413175999999999
 30
0.0
 11
5.746208999999999
 21
4.412905999999999
 31
0.0
  0
LINE
  5
1D5
330
B
100
AcDbEntity
 67
     1
  8
1
  6
Continuous
 62
    18
100
AcDbLine
 10
2.575133
 20
4.325362999999999
 30
0.0
 11
2.575514
 21
4.325937999999999
 31
0.0
  0
LINE
  5
1D6
330
B
100
AcDbEntity
 67
     1
  8
1
  6
Continuous
 62
    18
100
AcDbLine
 10
2.606450999999999
 20
4.404352999999999
 30
0.0
 11
2.608734
 21
4.406636999999999
 31
0.0
  0
LINE
  5
1D7
330
B
100
AcDbEntity
 67
     1
  8
1
  6
Continuous
 62
    18
100
AcDbLine
 10
4.958279
 20
4.513301
 30
0.0
 11
4.958194999999999
 21
4.513659999999999
 31
0.0
  0
LINE
  5
1D8
330
B
100
AcDbEntity
 67
     1
  8
1
  6
Continuous
 62
    18
100
AcDbLine
 10
2.666779999999999
 20
4.245662
 30
0.0
 11
2.71695
 21
4.245662
 31
0.0
  0
LINE
  5
1D9
330
B
100
AcDbEntity
 67
     1
  8
1
  6
Continuous
 62
    18
100
AcDbLine
 10
2.588633999999999
 20
4.326464999999999
 30
0.0
 11
2.589265999999999
 21
4.326055999999999
 31
0.0
  0
LINE
  5
1DA
330
B
100
AcDbEntity
 67
     1
  8
1
  6
Continuous
 62
    18
100
AcDbLine
 10
2.58097
 20
4.422873
 30
0.0
 11
2.592449999999999
 21
4.434352999999999
 31
0.0
  0
LINE
  5
1DB
330
B
100
AcDbEntity
 67
     1
  8
1
  6
Continuous
 62
    18
100
AcDbLine
 10
2.225450999999999
 20
4.019352999999999
 30
0.0
 11
2.73945
 21
4.019352999999999
 31
0.0
  0
LINE
  5
1DC
330
B
100
AcDbEntity
 67
     1
  8
1
  6
Continuous
 62
    18
100
AcDbLine
 10
2.391486
 20
4.326787999999999
 30
0.0
 11
2.393993999999999
 21
4.326787999999999
 31
0.0
  0
LINE
  5
1DD
330
B
100
AcDbEntity
 67
     1
  8
1
  6
Continuous
 62
    18
100
AcDbLine
 10
2.179097999999999
 20
4.457952999999999
 30
0.0
 11
2.177474
 21
4.459577999999999
 31
0.0
  0
LINE
  5
1DE
330
B
100
AcDbEntity
 67
     1
  8
1
  6
Continuous
 62
    18
100
AcDbLine
 10
2.71695
 20
4.106887
 30
0.0
 11
2.714658
 21
4.106887
 31
0.0
  0
LINE
  5
1DF
330
B
100
AcDbEntity
 67
     1
  8
1
  6
Continuous
 62
    18
100
AcDbLine
 10
5.652573
 20
4.340620999999999
 30
0.0
 11
5.663009999999999
 21
4.342478999999999
 31
0.0
  0
LINE
  5
1E0
330
B
100
AcDbEntity
 67
     1
  8
1
  6
Continuous
 62
    18
100
AcDbLine
 10
2.785801999999999
 20
4.457952999999999
 30
0.0
 11
2.787427
 21
4.459577999999999
 31
0.0
  0
LINE
  5
1E1
330
B
100
AcDbEntity
 67
     1
  8
1
  6
Continuous
 62
    18
100
AcDbLine
 10
5.130233999999999
 20
4.306753999999999
 30
0.0
 11
5.127742999999999
 21
4.307998
 31
0.0
  0
LINE
  5
1E2
330
B
100
AcDbEntity
 67
     1
  8
1
  6
Continuous
 62
    18
100
AcDbLine
 10
5.838122
 20
4.212241999999999
 30
0.0
 11
5.833631999999999
 21
4.211815
 31
0.0
  0
LINE
  5
1E3
330
B
100
AcDbEntity
 67
     1
  8
1
  6
Continuous
 62
    18
100
AcDbLine
 10
2.330451
 20
4.089498999999999
 30
0.0
 11
2.330995
 21
4.058301
 31
0.0
  0
LINE
  5
1E4
330
B
100
AcDbEntity
 67
     1
  8
1
  6
Continuous
 62
    18
100
AcDbLine
 10
2.373149
 20
3.922029
 30
0.0
 11
2.373149
 21
3.889421
 31
0.0
  0
LINE
  5
1E5
330
B
100
AcDbEntity
 67
     1
  8
1
  6
Continuous
 62
    18
100
AcDbLine
 10
5.663009999999999
 20
3.879226999999999
 30
0.0
 11
5.652573
 21
3.879226999999999
 31
0.0
  0
LINE
  5
1E6
330
B
100
AcDbEntity
 67
     1
  8
1
  6
Continuous
 62
    18
100
AcDbLine
 10
2.574972999999999
 20
4.324105
 30
0.0
 11
2.575133
 21
4.325362999999999
 31
0.0
  0
LINE
  5
1E7
330
B
100
AcDbEntity
 67
     1
  8
1
  6
Continuous
 62
    18
100
AcDbLine
 10
5.939516
 20
4.32256
 30
0.0
 11
5.818998
 21
4.320704
 31
0.0
  0
LINE
  5
1E8
330
B
100
AcDbEntity
 67
     1
  8
1
  6
Continuous
 62
    18
100
AcDbLine
 10
2.374972999999999
 20
4.324105
 30
0.0
 11
2.37473
 21
4.323822999999999
 31
0.0
  0
LINE
  5
1E9
330
B
100
AcDbEntity
 67
     1
  8
1
  6
Continuous
 62
    18
100
AcDbLine
 10
2.410449999999999
 20
4.089498999999999
 30
0.0
 11
2.394452999999999
 21
4.089498999999999
 31
0.0
  0
LINE
  5
1EA
330
B
100
AcDbEntity
 67
     1
  8
1
  6
Continuous
 62
    18
100
AcDbLine
 10
2.792918
 20
4.527492999999999
 30
0.0
 11
2.791456
 21
4.528302
 31
0.0
  0
LINE
  5
1EB
330
B
100
AcDbEntity
 67
     1
  8
1
  6
Continuous
 62
    18
100
AcDbLine
 10
2.591752
 20
3.922029
 30
0.0
 11
2.587359999999999
 21
3.932633999999999
 31
0.0
  0
LINE
  5
1EC
330
B
100
AcDbEntity
 67
     1
  8
1
  6
Continuous
 62
    18
100
AcDbLine
 10
5.712310999999999
 20
3.879226999999999
 30
0.0
 11
5.712310999999999
 21
3.814292
 31
0.0
  0
LINE
  5
1ED
330
B
100
AcDbEntity
 67
     1
  8
1
  6
Continuous
 62
    18
100
AcDbLine
 10
5.667016
 20
4.364799999999999
 30
0.0
 11
5.667016
 21
4.40659
 31
0.0
  0
LINE
  5
1EE
330
B
100
AcDbEntity
 67
     1
  8
1
  6
Continuous
 62
    18
100
AcDbLine
 10
5.123720999999999
 20
3.918379
 30
0.0
 11
5.112729999999999
 21
3.907427999999999
 31
0.0
  0
LINE
  5
1EF
330
B
100
AcDbEntity
 67
     1
  8
1
  6
Continuous
 62
    18
100
AcDbLine
 10
2.514453
 20
4.089498999999999
 30
0.0
 11
2.513908
 21
4.058301
 31
0.0
  0
LINE
  5
1F0
330
B
100
AcDbEntity
 67
     1
  8
1
  6
Continuous
 62
    18
100
AcDbLine
 10
2.606450999999999
 20
4.287391
 30
0.0
 11
2.358449999999999
 21
4.287391
 31
0.0
  0
LINE
  5
1F1
330
B
100
AcDbEntity
 67
     1
  8
1
  6
Continuous
 62
    18
100
AcDbLine
 10
2.388145999999999
 20
3.937026999999999
 30
0.0
 11
2.387448
 21
3.937725
 31
0.0
  0
LINE
  5
1F2
330
B
100
AcDbEntity
 67
     1
  8
1
  6
Continuous
 62
    18
100
AcDbLine
 10
5.751374
 20
4.41304
 30
0.0
 11
5.751984999999999
 21
4.413022999999999
 31
0.0
  0
LINE
  5
1F3
330
B
100
AcDbEntity
 67
     1
  8
1
  6
Continuous
 62
    18
100
AcDbLine
 10
2.367445999999999
 20
4.321787999999999
 30
0.0
 11
2.365377999999999
 21
4.321787999999999
 31
0.0
  0
LINE
  5
1F4
330
B
100
AcDbEntity
 67
     1
  8
1
  6
Continuous
 62
    18
100
AcDbLine
 10
2.382449999999999
 20
4.319787999999999
 30
0.0
 11
2.389927999999999
 21
4.324105
 31
0.0
  0
LINE
  5
1F5
330
B
100
AcDbEntity
 67
     1
  8
1
  6
Continuous
 62
    18
100
AcDbLine
 10
2.610450999999999
 20
4.089498999999999
 30
0.0
 11
2.610994999999999
 21
4.058301
 31
0.0
  0
LINE
  5
1F6
330
B
100
AcDbEntity
 67
     1
  8
1
  6
Continuous
 62
    18
100
AcDbLine
 10
2.242875999999999
 20
4.521202999999999
 30
0.0
 11
2.244500999999999
 21
4.519578
 31
0.0
  0
LINE
  5
1F7
330
B
100
AcDbEntity
 67
     1
  8
1
  6
Continuous
 62
    18
100
AcDbLine
 10
2.390171
 20
4.323822999999999
 30
0.0
 11
2.389927999999999
 21
4.324105
 31
0.0
  0
LINE
  5
1F8
330
B
100
AcDbEntity
 67
     1
  8
1
  6
Continuous
 62
    18
100
AcDbLine
 10
2.377943999999999
 20
4.326787999999999
 30
0.0
 11
2.377044999999999
 21
4.326707999999999
 31
0.0
  0
LINE
  5
1F9
330
B
100
AcDbEntity
 67
     1
  8
1
  6
Continuous
 62
    18
100
AcDbLine
 10
5.211152999999999
 20
4.346109999999999
 30
0.0
 11
5.224153
 21
4.35911
 31
0.0
  0
LINE
  5
1FA
330
B
100
AcDbEntity
 67
     1
  8
1
  6
Continuous
 62
    18
100
AcDbLine
 10
2.59145
 20
4.054352999999999
 30
0.0
 11
2.59145
 21
4.207862
 31
0.0
  0
LINE
  5
1FB
330
B
100
AcDbEntity
 67
     1
  8
1
  6
Continuous
 62
    18
100
AcDbLine
 10
2.398430999999999
 20
4.481593
 30
0.0
 11
2.387449999999999
 21
4.484535
 31
0.0
  0
LINE
  5
1FC
330
B
100
AcDbEntity
 67
     1
  8
1
  6
Continuous
 62
    18
100
AcDbLine
 10
2.282449999999999
 20
4.523244
 30
0.0
 11
2.307450999999999
 21
4.523244
 31
0.0
  0
LINE
  5
1FD
330
B
100
AcDbEntity
 67
     1
  8
1
  6
Continuous
 62
    18
100
AcDbLine
 10
5.755917
 20
4.409483999999999
 30
0.0
 11
5.755917
 21
4.364927999999999
 31
0.0
  0
LINE
  5
1FE
330
B
100
AcDbEntity
 67
     1
  8
1
  6
Continuous
 62
    18
100
AcDbLine
 10
2.453500999999999
 20
4.061319
 30
0.0
 11
2.450941999999999
 21
4.061319
 31
0.0
  0
LINE
  5
1FF
330
B
100
AcDbEntity
 67
     1
  8
1
  6
Continuous
 62
    18
100
AcDbLine
 10
2.511450999999999
 20
4.054352999999999
 30
0.0
 11
2.511450999999999
 21
4.207862
 31
0.0
  0
LINE
  5
200
330
B
100
AcDbEntity
 67
     1
  8
1
  6
Continuous
 62
    18
100
AcDbLine
 10
2.722024999999999
 20
4.459577999999999
 30
0.0
 11
2.720315
 21
4.457868
 31
0.0
  0
LINE
  5
201
330
B
100
AcDbEntity
 67
     1
  8
1
  6
Continuous
 62
    18
100
AcDbLine
 10
2.45745
 20
4.520277
 30
0.0
 11
2.507449999999999
 21
4.520277
 31
0.0
  0
LINE
  5
202
330
B
100
AcDbEntity
 67
     1
  8
1
  6
Continuous
 62
    18
100
AcDbLine
 10
4.541387
 20
4.510955
 30
0.0
 11
4.58388
 21
4.511696999999999
 31
0.0
  0
LINE
  5
203
330
B
100
AcDbEntity
 67
     1
  8
1
  6
Continuous
 62
    18
100
AcDbLine
 10
5.755730999999999
 20
4.409962999999999
 30
0.0
 11
5.755673
 21
4.410438
 31
0.0
  0
LINE
  5
204
330
B
100
AcDbEntity
 67
     1
  8
1
  6
Continuous
 62
    18
100
AcDbLine
 10
5.939516
 20
4.331995
 30
0.0
 11
5.939516
 21
4.329318999999999
 31
0.0
  0
LINE
  5
205
330
B
100
AcDbEntity
 67
     1
  8
1
  6
Continuous
 62
    18
100
AcDbLine
 10
2.562447
 20
4.427092
 30
0.0
 11
2.402454
 21
4.427092
 31
0.0
  0
LINE
  5
206
330
B
100
AcDbEntity
 67
     1
  8
1
  6
Continuous
 62
    18
100
AcDbLine
 10
2.74695
 20
4.368352999999999
 30
0.0
 11
2.74695
 21
4.039353
 31
0.0
  0
LINE
  5
207
330
B
100
AcDbEntity
 67
     1
  8
1
  6
Continuous
 62
    18
100
AcDbLine
 10
2.204800999999999
 20
4.182468
 30
0.0
 11
2.202801
 21
4.182468
 31
0.0
  0
LINE
  5
208
330
B
100
AcDbEntity
 67
     1
  8
1
  6
Continuous
 62
    18
100
AcDbLine
 10
5.670405999999999
 20
4.411687999999999
 30
0.0
 11
5.669662999999999
 21
4.411305
 31
0.0
  0
LINE
  5
209
330
B
100
AcDbEntity
 67
     1
  8
1
  6
Continuous
 62
    18
100
AcDbLine
 10
5.027741
 20
3.903469999999999
 30
0.0
 11
5.097705999999999
 21
3.903426999999999
 31
0.0
  0
LINE
  5
20A
330
B
100
AcDbEntity
 67
     1
  8
1
  6
Continuous
 62
    18
100
AcDbLine
 10
2.169665
 20
4.323548
 30
0.0
 11
2.169665
 21
4.388548
 31
0.0
  0
LINE
  5
20B
330
B
100
AcDbEntity
 67
     1
  8
1
  6
Continuous
 62
    18
100
AcDbLine
 10
2.593908
 20
4.058301
 30
0.0
 11
2.610994999999999
 21
4.058301
 31
0.0
  0
LINE
  5
20C
330
B
100
AcDbEntity
 67
     1
  8
1
  6
Continuous
 62
    18
100
AcDbLine
 10
5.676753999999999
 20
4.407011999999999
 30
0.0
 11
5.673008
 21
4.406905999999999
 31
0.0
  0
LINE
  5
20D
330
B
100
AcDbEntity
 67
     1
  8
1
  6
Continuous
 62
    18
100
AcDbLine
 10
2.794806
 20
3.808726
 30
0.0
 11
2.785801999999999
 21
3.808726
 31
0.0
  0
LINE
  5
20E
330
B
100
AcDbEntity
 67
     1
  8
1
  6
Continuous
 62
    18
100
AcDbLine
 10
2.513961
 20
4.061319
 30
0.0
 11
2.511449999999999
 21
4.061319
 31
0.0
  0
LINE
  5
20F
330
B
100
AcDbEntity
 67
     1
  8
1
  6
Continuous
 62
    18
100
AcDbLine
 10
5.211152999999999
 20
4.44754
 30
0.0
 11
5.206478999999999
 21
4.447784999999999
 31
0.0
  0
LINE
  5
210
330
B
100
AcDbEntity
 67
     1
  8
1
  6
Continuous
 62
    18
100
AcDbLine
 10
2.391294999999999
 20
4.317725
 30
0.0
 11
2.390171
 21
4.315752999999999
 31
0.0
  0
LINE
  5
211
330
B
100
AcDbEntity
 67
     1
  8
1
  6
Continuous
 62
    18
100
AcDbLine
 10
2.413450999999999
 20
4.061319
 30
0.0
 11
2.410941999999999
 21
4.061319
 31
0.0
  0
LINE
  5
212
330
B
100
AcDbEntity
 67
     1
  8
1
  6
Continuous
 62
    18
100
AcDbLine
 10
5.100233999999999
 20
4.039774999999999
 30
0.0
 11
5.097705999999999
 21
4.038513
 31
0.0
  0
LINE
  5
213
330
B
100
AcDbEntity
 67
     1
  8
1
  6
Continuous
 62
    18
100
AcDbLine
 10
5.034387999999999
 20
4.408114
 30
0.0
 11
5.093150999999999
 21
4.408114
 31
0.0
  0
LINE
  5
214
330
B
100
AcDbEntity
 67
     1
  8
1
  6
Continuous
 62
    18
100
AcDbLine
 10
5.104709999999999
 20
4.285072
 30
0.0
 11
5.118913
 21
4.296082
 31
0.0
  0
LINE
  5
215
330
B
100
AcDbEntity
 67
     1
  8
1
  6
Continuous
 62
    18
100
AcDbLine
 10
4.958305999999999
 20
4.517058999999999
 30
0.0
 11
4.958366
 21
4.517867999999999
 31
0.0
  0
LINE
  5
216
330
B
100
AcDbEntity
 67
     1
  8
1
  6
Continuous
 62
    18
100
AcDbLine
 10
5.187653
 20
3.811394999999999
 30
0.0
 11
5.187653
 21
3.813832
 31
0.0
  0
LINE
  5
217
330
B
100
AcDbEntity
 67
     1
  8
1
  6
Continuous
 62
    18
100
AcDbLine
 10
2.170094999999999
 20
4.038016
 30
0.0
 11
2.169779
 21
4.027404999999999
 31
0.0
  0
LINE
  5
218
330
B
100
AcDbEntity
 67
     1
  8
1
  6
Continuous
 62
    18
100
AcDbLine
 10
5.126216999999999
 20
3.917132
 30
0.0
 11
5.130233999999999
 21
3.932109999999999
 31
0.0
  0
LINE
  5
219
330
B
100
AcDbEntity
 67
     1
  8
1
  6
Continuous
 62
    18
100
AcDbLine
 10
2.373149
 20
3.889421
 30
0.0
 11
2.37245
 21
3.888721999999999
 31
0.0
  0
LINE
  5
21A
330
B
100
AcDbEntity
 67
     1
  8
1
  6
Continuous
 62
    18
100
AcDbLine
 10
5.447153
 20
4.346109999999999
 30
0.0
 11
5.447153
 21
4.435172
 31
0.0
  0
LINE
  5
21B
330
B
100
AcDbEntity
 67
     1
  8
1
  6
Continuous
 62
    18
100
AcDbLine
 10
2.584631
 20
4.333110999999999
 30
0.0
 11
2.584868
 21
4.326787999999999
 31
0.0
  0
LINE
  5
21C
330
B
100
AcDbEntity
 67
     1
  8
1
  6
Continuous
 62
    18
100
AcDbLine
 10
2.182472999999999
 20
4.521202999999999
 30
0.0
 11
2.177474
 21
4.516204
 31
0.0
  0
LINE
  5
21D
330
B
100
AcDbEntity
 67
     1
  8
1
  6
Continuous
 62
    18
100
AcDbLine
 10
5.365403999999999
 20
3.808291999999999
 30
0.0
 11
5.187653
 21
3.811394999999999
 31
0.0
  0
LINE
  5
21E
330
B
100
AcDbEntity
 67
     1
  8
1
  6
Continuous
 62
    18
100
AcDbLine
 10
5.676753999999999
 20
4.41223
 30
0.0
 11
5.706305999999999
 21
4.413003999999999
 31
0.0
  0
LINE
  5
21F
330
B
100
AcDbEntity
 67
     1
  8
1
  6
Continuous
 62
    18
100
AcDbLine
 10
2.173445
 20
4.528302
 30
0.0
 11
2.175094
 21
4.528582
 31
0.0
  0
LINE
  5
220
330
B
100
AcDbEntity
 67
     1
  8
1
  6
Continuous
 62
    18
100
AcDbLine
 10
5.672704
 20
4.412123999999999
 30
0.0
 11
5.673604
 21
4.412148
 31
0.0
  0
LINE
  5
221
330
B
100
AcDbEntity
 67
     1
  8
1
  6
Continuous
 62
    18
100
AcDbLine
 10
5.124279
 20
4.00347
 30
0.0
 11
5.118913
 21
4.020501999999999
 31
0.0
  0
LINE
  5
222
330
B
100
AcDbEntity
 67
     1
  8
1
  6
Continuous
 62
    18
100
AcDbLine
 10
2.322449999999999
 20
4.065334
 30
0.0
 11
2.322449999999999
 21
4.069352999999999
 31
0.0
  0
LINE
  5
223
330
B
100
AcDbEntity
 67
     1
  8
1
  6
Continuous
 62
    18
100
AcDbLine
 10
5.238296
 20
4.344967999999999
 30
0.0
 11
5.420010999999999
 21
4.344967999999999
 31
0.0
  0
LINE
  5
224
330
B
100
AcDbEntity
 67
     1
  8
1
  6
Continuous
 62
    18
100
AcDbLine
 10
2.45045
 20
4.191984999999999
 30
0.0
 11
2.453500999999999
 21
4.191984999999999
 31
0.0
  0
LINE
  5
225
330
B
100
AcDbEntity
 67
     1
  8
1
  6
Continuous
 62
    18
100
AcDbLine
 10
2.239164
 20
4.34714
 30
0.0
 11
2.229430999999999
 21
4.356873
 31
0.0
  0
LINE
  5
226
330
B
100
AcDbEntity
 67
     1
  8
1
  6
Continuous
 62
    18
100
AcDbLine
 10
5.130233999999999
 20
4.384473999999999
 30
0.0
 11
5.126216999999999
 21
4.399451999999999
 31
0.0
  0
LINE
  5
227
330
B
100
AcDbEntity
 67
     1
  8
1
  6
Continuous
 62
    18
100
AcDbLine
 10
2.356166999999999
 20
4.406636999999999
 30
0.0
 11
2.349663999999999
 21
4.41314
 31
0.0
  0
LINE
  5
228
330
B
100
AcDbEntity
 67
     1
  8
1
  6
Continuous
 62
    18
100
AcDbLine
 10
2.606450999999999
 20
4.299755
 30
0.0
 11
2.358449999999999
 21
4.299755
 31
0.0
  0
LINE
  5
229
330
B
100
AcDbEntity
 67
     1
  8
1
  6
Continuous
 62
    18
100
AcDbLine
 10
2.431449999999999
 20
4.191984999999999
 30
0.0
 11
2.43445
 21
4.191984999999999
 31
0.0
  0
LINE
  5
22A
330
B
100
AcDbEntity
 67
     1
  8
1
  6
Continuous
 62
    18
100
AcDbLine
 10
2.577944
 20
4.326787999999999
 30
0.0
 11
2.573415
 21
4.326787999999999
 31
0.0
  0
LINE
  5
22B
330
B
100
AcDbEntity
 67
     1
  8
1
  6
Continuous
 62
    18
100
AcDbLine
 10
2.375106
 20
4.325298
 30
0.0
 11
2.374972999999999
 21
4.324105
 31
0.0
  0
LINE
  5
22C
330
B
100
AcDbEntity
 67
     1
  8
1
  6
Continuous
 62
    18
100
AcDbLine
 10
2.330451
 20
4.191984999999999
 30
0.0
 11
2.333450999999999
 21
4.191984999999999
 31
0.0
  0
LINE
  5
22D
330
B
100
AcDbEntity
 67
     1
  8
1
  6
Continuous
 62
    18
100
AcDbLine
 10
2.570907
 20
4.312787999999999
 30
0.0
 11
2.574825999999999
 21
4.312787999999999
 31
0.0
  0
LINE
  5
22E
330
B
100
AcDbEntity
 67
     1
  8
1
  6
Continuous
 62
    18
100
AcDbLine
 10
2.795236
 20
3.948904
 30
0.0
 11
2.795236
 21
4.013904
 31
0.0
  0
LINE
  5
22F
330
B
100
AcDbEntity
 67
     1
  8
1
  6
Continuous
 62
    18
100
AcDbLine
 10
2.720315
 20
4.457868
 30
0.0
 11
2.780802999999999
 21
4.457868
 31
0.0
  0
LINE
  5
230
330
B
100
AcDbEntity
 67
     1
  8
1
  6
Continuous
 62
    18
100
AcDbLine
 10
5.738849
 20
4.413367
 30
0.0
 11
5.746178999999999
 21
4.413175999999999
 31
0.0
  0
LINE
  5
231
330
B
100
AcDbEntity
 67
     1
  8
1
  6
Continuous
 62
    18
100
AcDbLine
 10
5.712310999999999
 20
3.798292
 30
0.0
 11
5.712310999999999
 21
3.802977999999999
 31
0.0
  0
LINE
  5
232
330
B
100
AcDbEntity
 67
     1
  8
1
  6
Continuous
 62
    18
100
AcDbLine
 10
2.298119999999999
 20
4.093257
 30
0.0
 11
2.298119999999999
 21
4.245662
 31
0.0
  0
LINE
  5
233
330
B
100
AcDbEntity
 67
     1
  8
1
  6
Continuous
 62
    18
100
AcDbLine
 10
5.939516
 20
4.301319999999999
 30
0.0
 11
5.822733999999999
 21
4.299519999999999
 31
0.0
  0
LINE
  5
234
330
B
100
AcDbEntity
 67
     1
  8
1
  6
Continuous
 62
    18
100
AcDbLine
 10
2.592449999999999
 20
3.922726999999999
 30
0.0
 11
2.592449999999999
 21
3.888721999999999
 31
0.0
  0
LINE
  5
235
330
B
100
AcDbEntity
 67
     1
  8
1
  6
Continuous
 62
    18
100
AcDbLine
 10
2.576192999999999
 20
4.314487
 30
0.0
 11
2.574729999999999
 21
4.315752999999999
 31
0.0
  0
LINE
  5
236
330
B
100
AcDbEntity
 67
     1
  8
1
  6
Continuous
 62
    18
100
AcDbLine
 10
5.809651999999999
 20
3.824103
 30
0.0
 11
5.809651999999999
 21
3.84873
 31
0.0
  0
LINE
  5
237
330
B
100
AcDbEntity
 67
     1
  8
1
  6
Continuous
 62
    18
100
AcDbLine
 10
5.434153
 20
4.35911
 30
0.0
 11
5.447153
 21
4.346109999999999
 31
0.0
  0
LINE
  5
238
330
B
100
AcDbEntity
 67
     1
  8
1
  6
Continuous
 62
    18
100
AcDbLine
 10
2.410449999999999
 20
4.093257
 30
0.0
 11
2.394449999999999
 21
4.093257
 31
0.0
  0
LINE
  5
239
330
B
100
AcDbEntity
 67
     1
  8
1
  6
Continuous
 62
    18
100
AcDbLine
 10
2.589717999999999
 20
4.315258999999999
 30
0.0
 11
2.587763999999999
 21
4.313983999999999
 31
0.0
  0
LINE
  5
23A
330
B
100
AcDbEntity
 67
     1
  8
1
  6
Continuous
 62
    18
100
AcDbLine
 10
2.380269999999999
 20
4.306465
 30
0.0
 11
2.380033
 21
4.312787999999999
 31
0.0
  0
LINE
  5
23B
330
B
100
AcDbEntity
 67
     1
  8
1
  6
Continuous
 62
    18
100
AcDbLine
 10
2.49045
 20
4.191984999999999
 30
0.0
 11
2.49045
 21
4.093257
 31
0.0
  0
LINE
  5
23C
330
B
100
AcDbEntity
 67
     1
  8
1
  6
Continuous
 62
    18
100
AcDbLine
 10
5.675016999999999
 20
4.412185
 30
0.0
 11
5.675844999999999
 21
4.412206999999999
 31
0.0
  0
LINE
  5
23D
330
B
100
AcDbEntity
 67
     1
  8
1
  6
Continuous
 62
    18
100
AcDbLine
 10
2.725737
 20
4.34714
 30
0.0
 11
2.73547
 21
4.356873
 31
0.0
  0
LINE
  5
23E
330
B
100
AcDbEntity
 67
     1
  8
1
  6
Continuous
 62
    18
100
AcDbLine
 10
2.322449999999999
 20
4.054352999999999
 30
0.0
 11
2.642450999999999
 21
4.054352999999999
 31
0.0
  0
LINE
  5
23F
330
B
100
AcDbEntity
 67
     1
  8
1
  6
Continuous
 62
    18
100
AcDbLine
 10
2.59445
 20
4.191984999999999
 30
0.0
 11
2.59445
 21
4.093257
 31
0.0
  0
LINE
  5
240
330
B
100
AcDbEntity
 67
     1
  8
1
  6
Continuous
 62
    18
100
AcDbLine
 10
5.729531999999999
 20
4.413508999999999
 30
0.0
 11
5.729537
 21
4.412976
 31
0.0
  0
LINE
  5
241
330
B
100
AcDbEntity
 67
     1
  8
1
  6
Continuous
 62
    18
100
AcDbLine
 10
5.746208999999999
 20
4.412905999999999
 30
0.0
 11
5.746216999999999
 21
4.412548999999999
 31
0.0
  0
LINE
  5
242
330
B
100
AcDbEntity
 67
     1
  8
1
  6
Continuous
 62
    18
100
AcDbLine
 10
2.575514
 20
4.325937999999999
 30
0.0
 11
2.576211999999999
 21
4.326438999999999
 31
0.0
  0
LINE
  5
243
330
B
100
AcDbEntity
 67
     1
  8
1
  6
Continuous
 62
    18
100
AcDbLine
 10
2.608734
 20
4.406636999999999
 30
0.0
 11
2.615237
 21
4.41314
 31
0.0
  0
LINE
  5
244
330
B
100
AcDbEntity
 67
     1
  8
1
  6
Continuous
 62
    18
100
AcDbLine
 10
2.589265999999999
 20
4.326055999999999
 30
0.0
 11
2.589795
 21
4.325298
 31
0.0
  0
LINE
  5
245
330
B
100
AcDbEntity
 67
     1
  8
1
  6
Continuous
 62
    18
100
AcDbLine
 10
2.322449999999999
 20
4.069352999999999
 30
0.0
 11
2.247951
 21
4.069352999999999
 31
0.0
  0
LINE
  5
246
330
B
100
AcDbEntity
 67
     1
  8
1
  6
Continuous
 62
    18
100
AcDbLine
 10
5.939516
 20
4.301229
 30
0.0
 11
5.939516
 21
4.296248
 31
0.0
  0
LINE
  5
247
330
B
100
AcDbEntity
 67
     1
  8
1
  6
Continuous
 62
    18
100
AcDbLine
 10
5.026436
 20
4.039774999999999
 30
0.0
 11
5.027741
 21
4.038469999999999
 31
0.0
  0
LINE
  5
248
330
B
100
AcDbEntity
 67
     1
  8
1
  6
Continuous
 62
    18
100
AcDbLine
 10
2.217449999999999
 20
4.039353
 30
0.0
 11
2.74745
 21
4.039353
 31
0.0
  0
LINE
  5
249
330
B
100
AcDbEntity
 67
     1
  8
1
  6
Continuous
 62
    18
100
AcDbLine
 10
4.477646
 20
4.509843
 30
0.0
 11
4.498892999999999
 21
4.510213999999999
 31
0.0
  0
LINE
  5
24A
330
B
100
AcDbEntity
 67
     1
  8
1
  6
Continuous
 62
    18
100
AcDbLine
 10
2.177474
 20
4.459577999999999
 30
0.0
 11
2.177474
 21
4.516204
 31
0.0
  0
LINE
  5
24B
330
B
100
AcDbEntity
 67
     1
  8
1
  6
Continuous
 62
    18
100
AcDbLine
 10
2.391318
 20
4.321787999999999
 30
0.0
 11
2.391318
 21
4.317788
 31
0.0
  0
LINE
  5
24C
330
B
100
AcDbEntity
 67
     1
  8
1
  6
Continuous
 62
    18
100
AcDbLine
 10
2.714658
 20
4.106887
 30
0.0
 11
2.714658
 21
4.093257
 31
0.0
  0
LINE
  5
24D
330
B
100
AcDbEntity
 67
     1
  8
1
  6
Continuous
 62
    18
100
AcDbLine
 10
2.674901999999999
 20
4.089498999999999
 30
0.0
 11
2.704695999999999
 21
4.089498999999999
 31
0.0
  0
LINE
  5
24E
330
B
100
AcDbEntity
 67
     1
  8
1
  6
Continuous
 62
    18
100
AcDbLine
 10
2.785801999999999
 20
4.457952999999999
 30
0.0
 11
2.785801999999999
 21
3.808726
 31
0.0
  0
LINE
  5
24F
330
B
100
AcDbEntity
 67
     1
  8
1
  6
Continuous
 62
    18
100
AcDbLine
 10
5.097705999999999
 20
4.278070999999999
 30
0.0
 11
5.100233999999999
 21
4.276809
 31
0.0
  0
LINE
  5
250
330
B
100
AcDbEntity
 67
     1
  8
1
  6
Continuous
 62
    18
100
AcDbLine
 10
2.382449999999999
 20
4.312825
 30
0.0
 11
2.387334999999999
 21
4.313800999999999
 31
0.0
  0
LINE
  5
251
330
B
100
AcDbEntity
 67
     1
  8
1
  6
Continuous
 62
    18
100
AcDbLine
 10
5.939237999999999
 20
4.366522999999999
 30
0.0
 11
5.814516
 21
4.368699999999999
 31
0.0
  0
LINE
  5
252
330
B
100
AcDbEntity
 67
     1
  8
1
  6
Continuous
 62
    18
100
AcDbLine
 10
2.330451
 20
4.089498999999999
 30
0.0
 11
2.314452999999999
 21
4.089498999999999
 31
0.0
  0
LINE
  5
253
330
B
100
AcDbEntity
 67
     1
  8
1
  6
Continuous
 62
    18
100
AcDbLine
 10
2.388145999999999
 20
3.874423
 30
0.0
 11
2.377540999999999
 21
3.878815
 31
0.0
  0
LINE
  5
254
330
B
100
AcDbEntity
 67
     1
  8
1
  6
Continuous
 62
    18
100
AcDbLine
 10
5.652573
 20
3.879226999999999
 30
0.0
 11
5.64169
 21
3.879226999999999
 31
0.0
  0
LINE
  5
255
330
B
100
AcDbEntity
 67
     1
  8
1
  6
Continuous
 62
    18
100
AcDbLine
 10
5.757516
 20
4.381451
 30
0.0
 11
5.804777999999999
 21
4.382689
 31
0.0
  0
LINE
  5
256
330
B
100
AcDbEntity
 67
     1
  8
1
  6
Continuous
 62
    18
100
AcDbLine
 10
5.814516
 20
4.401644999999999
 30
0.0
 11
5.814516
 21
4.382944
 31
0.0
  0
LINE
  5
257
330
B
100
AcDbEntity
 67
     1
  8
1
  6
Continuous
 62
    18
100
AcDbLine
 10
2.434452999999999
 20
4.089498999999999
 30
0.0
 11
2.433908
 21
4.058301
 31
0.0
  0
LINE
  5
258
330
B
100
AcDbEntity
 67
     1
  8
1
  6
Continuous
 62
    18
100
AcDbLine
 10
2.63445
 20
4.093257
 30
0.0
 11
2.666779999999999
 21
4.093257
 31
0.0
  0
LINE
  5
259
330
B
100
AcDbEntity
 67
     1
  8
1
  6
Continuous
 62
    18
100
AcDbLine
 10
2.587359999999999
 20
3.932633999999999
 30
0.0
 11
2.576754999999999
 21
3.937026999999999
 31
0.0
  0
LINE
  5
25A
330
B
100
AcDbEntity
 67
     1
  8
1
  6
Continuous
 62
    18
100
AcDbLine
 10
5.712310999999999
 20
3.814292
 30
0.0
 11
5.762772
 21
3.814292
 31
0.0
  0
LINE
  5
25B
330
B
100
AcDbEntity
 67
     1
  8
1
  6
Continuous
 62
    18
100
AcDbLine
 10
5.130233999999999
 20
3.932109999999999
 30
0.0
 11
5.130233999999999
 21
4.00983
 31
0.0
  0
LINE
  5
25C
330
B
100
AcDbEntity
 67
     1
  8
1
  6
Continuous
 62
    18
100
AcDbLine
 10
2.373582999999999
 20
4.317788
 30
0.0
 11
2.373582999999999
 21
4.321787999999999
 31
0.0
  0
LINE
  5
25D
330
B
100
AcDbEntity
 67
     1
  8
1
  6
Continuous
 62
    18
100
AcDbLine
 10
4.427651999999999
 20
4.028919
 30
0.0
 11
4.437653
 21
4.028919
 31
0.0
  0
LINE
  5
25E
330
B
100
AcDbEntity
 67
     1
  8
1
  6
Continuous
 62
    18
100
AcDbLine
 10
2.53045
 20
4.089498999999999
 30
0.0
 11
2.530994999999999
 21
4.058301
 31
0.0
  0
LINE
  5
25F
330
B
100
AcDbEntity
 67
     1
  8
1
  6
Continuous
 62
    18
100
AcDbLine
 10
2.642450999999999
 20
4.039353
 30
0.0
 11
2.642450999999999
 21
4.054352999999999
 31
0.0
  0
LINE
  5
260
330
B
100
AcDbEntity
 67
     1
  8
1
  6
Continuous
 62
    18
100
AcDbLine
 10
2.56245
 20
4.459353
 30
0.0
 11
2.402450999999999
 21
4.459353
 31
0.0
  0
LINE
  5
261
330
B
100
AcDbEntity
 67
     1
  8
1
  6
Continuous
 62
    18
100
AcDbLine
 10
2.389927999999999
 20
4.324105
 30
0.0
 11
2.389768
 21
4.325362999999999
 31
0.0
  0
LINE
  5
262
330
B
100
AcDbEntity
 67
     1
  8
1
  6
Continuous
 62
    18
100
AcDbLine
 10
5.801966999999999
 20
3.831419
 30
0.0
 11
5.797820999999999
 21
3.833779
 31
0.0
  0
LINE
  5
263
330
B
100
AcDbEntity
 67
     1
  8
1
  6
Continuous
 62
    18
100
AcDbLine
 10
5.676753999999999
 20
4.41223
 30
0.0
 11
5.676712999999999
 21
4.411862999999999
 31
0.0
  0
LINE
  5
264
330
B
100
AcDbEntity
 67
     1
  8
1
  6
Continuous
 62
    18
100
AcDbLine
 10
2.7204
 20
4.519578
 30
0.0
 11
2.244500999999999
 21
4.519578
 31
0.0
  0
LINE
  5
265
330
B
100
AcDbEntity
 67
     1
  8
1
  6
Continuous
 62
    18
100
AcDbLine
 10
2.377044999999999
 20
4.326707999999999
 30
0.0
 11
2.376266999999999
 21
4.326464999999999
 31
0.0
  0
LINE
  5
266
330
B
100
AcDbEntity
 67
     1
  8
1
  6
Continuous
 62
    18
100
AcDbLine
 10
5.365403999999999
 20
3.821294
 30
0.0
 11
5.365403999999999
 21
3.808291999999999
 31
0.0
  0
LINE
  5
267
330
B
100
AcDbEntity
 67
     1
  8
1
  6
Continuous
 62
    18
100
AcDbLine
 10
2.373606
 20
4.321851999999999
 30
0.0
 11
2.37473
 21
4.323822999999999
 31
0.0
  0
LINE
  5
268
330
B
100
AcDbEntity
 67
     1
  8
1
  6
Continuous
 62
    18
100
AcDbLine
 10
2.573450999999999
 20
4.054352999999999
 30
0.0
 11
2.573450999999999
 21
4.207862
 31
0.0
  0
LINE
  5
269
330
B
100
AcDbEntity
 67
     1
  8
1
  6
Continuous
 62
    18
100
AcDbLine
 10
2.387449999999999
 20
4.484535
 30
0.0
 11
2.37245
 21
4.485612
 31
0.0
  0
LINE
  5
26A
330
B
100
AcDbEntity
 67
     1
  8
1
  6
Continuous
 62
    18
100
AcDbLine
 10
2.35745
 20
4.523244
 30
0.0
 11
2.407449999999999
 21
4.523244
 31
0.0
  0
LINE
  5
26B
330
B
100
AcDbEntity
 67
     1
  8
1
  6
Continuous
 62
    18
100
AcDbLine
 10
2.584884999999999
 20
4.308587
 30
0.0
 11
2.589984999999999
 21
4.308587
 31
0.0
  0
LINE
  5
26C
330
B
100
AcDbEntity
 67
     1
  8
1
  6
Continuous
 62
    18
100
AcDbLine
 10
5.676712999999999
 20
4.408932
 30
0.0
 11
5.676753999999999
 21
4.407011999999999
 31
0.0
  0
LINE
  5
26D
330
B
100
AcDbEntity
 67
     1
  8
1
  6
Continuous
 62
    18
100
AcDbLine
 10
5.112729999999999
 20
4.409155999999999
 30
0.0
 11
5.123720999999999
 21
4.398204999999999
 31
0.0
  0
LINE
  5
26E
330
B
100
AcDbEntity
 67
     1
  8
1
  6
Continuous
 62
    18
100
AcDbLine
 10
5.820104999999999
 20
4.369918
 30
0.0
 11
5.814516
 21
4.370016
 31
0.0
  0
LINE
  5
26F
330
B
100
AcDbEntity
 67
     1
  8
1
  6
Continuous
 62
    18
100
AcDbLine
 10
2.631500999999999
 20
4.054352999999999
 30
0.0
 11
2.631500999999999
 21
4.207862
 31
0.0
  0
LINE
  5
270
330
B
100
AcDbEntity
 67
     1
  8
1
  6
Continuous
 62
    18
100
AcDbLine
 10
2.722024999999999
 20
4.521202999999999
 30
0.0
 11
2.722024999999999
 21
4.459577999999999
 31
0.0
  0
LINE
  5
271
330
B
100
AcDbEntity
 67
     1
  8
1
  6
Continuous
 62
    18
100
AcDbLine
 10
2.557450999999999
 20
4.520277
 30
0.0
 11
2.60745
 21
4.520277
 31
0.0
  0
LINE
  5
272
330
B
100
AcDbEntity
 67
     1
  8
1
  6
Continuous
 62
    18
100
AcDbLine
 10
5.746178999999999
 20
4.413175999999999
 30
0.0
 11
5.748505
 21
4.413115
 31
0.0
  0
LINE
  5
273
330
B
100
AcDbEntity
 67
     1
  8
1
  6
Continuous
 62
    18
100
AcDbLine
 10
5.127742999999999
 20
3.933353999999999
 30
0.0
 11
5.123720999999999
 21
3.918379
 31
0.0
  0
LINE
  5
274
330
B
100
AcDbEntity
 67
     1
  8
1
  6
Continuous
 62
    18
100
AcDbLine
 10
2.402454
 20
4.458548
 30
0.0
 11
2.562447
 21
4.458548
 31
0.0
  0
LINE
  5
275
330
B
100
AcDbEntity
 67
     1
  8
1
  6
Continuous
 62
    18
100
AcDbLine
 10
2.760099999999999
 20
4.182468
 30
0.0
 11
2.7621
 21
4.182468
 31
0.0
  0
LINE
  5
276
330
B
100
AcDbEntity
 67
     1
  8
1
  6
Continuous
 62
    18
100
AcDbLine
 10
5.755180999999999
 20
4.409448999999999
 30
0.0
 11
5.75308
 21
4.409412999999999
 31
0.0
  0
LINE
  5
277
330
B
100
AcDbEntity
 67
     1
  8
1
  6
Continuous
 62
    18
100
AcDbLine
 10
5.746178999999999
 20
4.409341
 30
0.0
 11
5.736848999999999
 21
4.40946
 31
0.0
  0
LINE
  5
278
330
B
100
AcDbEntity
 67
     1
  8
1
  6
Continuous
 62
    18
100
AcDbLine
 10
2.169665
 20
4.323548
 30
0.0
 11
2.169779
 21
4.310048
 31
0.0
  0
LINE
  5
279
330
B
100
AcDbEntity
 67
     1
  8
1
  6
Continuous
 62
    18
100
AcDbLine
 10
5.663009999999999
 20
4.342478999999999
 30
0.0
 11
5.667310999999999
 21
4.346833999999999
 31
0.0
  0
LINE
  5
27A
330
B
100
AcDbEntity
 67
     1
  8
1
  6
Continuous
 62
    18
100
AcDbLine
 10
2.593961
 20
4.061319
 30
0.0
 11
2.59145
 21
4.061319
 31
0.0
  0
LINE
  5
27B
330
B
100
AcDbEntity
 67
     1
  8
1
  6
Continuous
 62
    18
100
AcDbLine
 10
5.937058999999999
 20
4.367877
 30
0.0
 11
5.932787999999999
 21
4.367951
 31
0.0
  0
LINE
  5
27C
330
B
100
AcDbEntity
 67
     1
  8
1
  6
Continuous
 62
    18
100
AcDbLine
 10
4.477646
 20
4.509843
 30
0.0
 11
4.498892999999999
 21
4.510213999999999
 31
0.0
  0
LINE
  5
27D
330
B
100
AcDbEntity
 67
     1
  8
1
  6
Continuous
 62
    18
100
AcDbLine
 10
5.939516
 20
4.32925
 30
0.0
 11
5.939516
 21
4.32256
 31
0.0
  0
LINE
  5
27E
330
B
100
AcDbEntity
 67
     1
  8
1
  6
Continuous
 62
    18
100
AcDbLine
 10
2.493450999999999
 20
4.061319
 30
0.0
 11
2.490941999999999
 21
4.061319
 31
0.0
  0
LINE
  5
27F
330
B
100
AcDbEntity
 67
     1
  8
1
  6
Continuous
 62
    18
100
AcDbLine
 10
5.814516
 20
4.366812999999999
 30
0.0
 11
5.757516
 21
4.366708
 31
0.0
  0
LINE
  5
280
330
B
100
AcDbEntity
 67
     1
  8
1
  6
Continuous
 62
    18
100
AcDbLine
 10
5.130233999999999
 20
3.932109999999999
 30
0.0
 11
5.127742999999999
 21
3.933353999999999
 31
0.0
  0
LINE
  5
281
330
B
100
AcDbEntity
 67
     1
  8
1
  6
Continuous
 62
    18
100
AcDbLine
 10
2.373582999999999
 20
4.321787999999999
 30
0.0
 11
2.367445999999999
 21
4.321787999999999
 31
0.0
  0
LINE
  5
282
330
B
100
AcDbEntity
 67
     1
  8
1
  6
Continuous
 62
    18
100
AcDbLine
 10
5.100233999999999
 20
4.039774999999999
 30
0.0
 11
5.026436
 21
4.039774999999999
 31
0.0
  0
LINE
  5
283
330
B
100
AcDbEntity
 67
     1
  8
1
  6
Continuous
 62
    18
100
AcDbLine
 10
2.586488
 20
4.306905999999999
 30
0.0
 11
2.584886999999999
 21
4.307001
 31
0.0
  0
LINE
  5
284
330
B
100
AcDbEntity
 67
     1
  8
1
  6
Continuous
 62
    18
100
AcDbLine
 10
2.322449999999999
 20
4.058301
 30
0.0
 11
2.330995
 21
4.058301
 31
0.0
  0
LINE
  5
285
330
B
100
AcDbEntity
 67
     1
  8
1
  6
Continuous
 62
    18
100
AcDbLine
 10
2.704695999999999
 20
4.069352999999999
 30
0.0
 11
2.704695999999999
 21
4.089498999999999
 31
0.0
  0
LINE
  5
286
330
B
100
AcDbEntity
 67
     1
  8
1
  6
Continuous
 62
    18
100
AcDbLine
 10
5.034387999999999
 20
4.283114
 30
0.0
 11
5.093150999999999
 21
4.283114
 31
0.0
  0
LINE
  5
287
330
B
100
AcDbEntity
 67
     1
  8
1
  6
Continuous
 62
    18
100
AcDbLine
 10
2.184098
 20
3.808726
 30
0.0
 11
2.184098
 21
4.457868
 31
0.0
  0
LINE
  5
288
330
B
100
AcDbEntity
 67
     1
  8
1
  6
Continuous
 62
    18
100
AcDbLine
 10
4.427651999999999
 20
4.011262
 30
0.0
 11
4.427651999999999
 21
4.016919
 31
0.0
  0
LINE
  5
289
330
B
100
AcDbEntity
 67
     1
  8
1
  6
Continuous
 62
    18
100
AcDbLine
 10
2.791456
 20
4.528302
 30
0.0
 11
2.789807
 21
4.528582
 31
0.0
  0
LINE
  5
28A
330
B
100
AcDbEntity
 67
     1
  8
1
  6
Continuous
 62
    18
100
AcDbLine
 10
5.118913
 20
4.296082
 30
0.0
 11
5.124279
 21
4.313113999999999
 31
0.0
  0
LINE
  5
28B
330
B
100
AcDbEntity
 67
     1
  8
1
  6
Continuous
 62
    18
100
AcDbLine
 10
5.814516
 20
4.379258999999999
 30
0.0
 11
5.814516
 21
4.370016
 31
0.0
  0
LINE
  5
28C
330
B
100
AcDbEntity
 67
     1
  8
1
  6
Continuous
 62
    18
100
AcDbLine
 10
5.187653
 20
3.824397
 30
0.0
 11
5.365403999999999
 21
3.821294
 31
0.0
  0
LINE
  5
28D
330
B
100
AcDbEntity
 67
     1
  8
1
  6
Continuous
 62
    18
100
AcDbLine
 10
2.169779
 20
4.027404999999999
 30
0.0
 11
2.169665
 21
4.013904
 31
0.0
  0
LINE
  5
28E
330
B
100
AcDbEntity
 67
     1
  8
1
  6
Continuous
 62
    18
100
AcDbLine
 10
5.672399999999999
 20
4.412116
 30
0.0
 11
5.672704
 21
4.412123999999999
 31
0.0
  0
LINE
  5
28F
330
B
100
AcDbEntity
 67
     1
  8
1
  6
Continuous
 62
    18
100
AcDbLine
 10
2.373149
 20
3.922029
 30
0.0
 11
2.37245
 21
3.922726999999999
 31
0.0
  0
LINE
  5
290
330
B
100
AcDbEntity
 67
     1
  8
1
  6
Continuous
 62
    18
100
AcDbLine
 10
5.447153
 20
4.346109999999999
 30
0.0
 11
5.443363999999999
 21
4.335758
 31
0.0
  0
LINE
  5
291
330
B
100
AcDbEntity
 67
     1
  8
1
  6
Continuous
 62
    18
100
AcDbLine
 10
5.676696999999999
 20
4.4107
 30
0.0
 11
5.676701999999999
 21
4.409866
 31
0.0
  0
LINE
  5
292
330
B
100
AcDbEntity
 67
     1
  8
1
  6
Continuous
 62
    18
100
AcDbLine
 10
2.170094999999999
 20
4.523582
 30
0.0
 11
2.170099
 21
4.523736
 31
0.0
  0
LINE
  5
293
330
B
100
AcDbEntity
 67
     1
  8
1
  6
Continuous
 62
    18
100
AcDbLine
 10
5.127742999999999
 20
4.307998
 30
0.0
 11
5.127742999999999
 21
4.38323
 31
0.0
  0
LINE
  5
294
330
B
100
AcDbEntity
 67
     1
  8
1
  6
Continuous
 62
    18
100
AcDbLine
 10
5.703135999999999
 20
3.827188999999999
 30
0.0
 11
5.703135999999999
 21
3.814187
 31
0.0
  0
LINE
  5
295
330
B
100
AcDbEntity
 67
     1
  8
1
  6
Continuous
 62
    18
100
AcDbLine
 10
2.358449999999999
 20
4.298352999999999
 30
0.0
 11
2.358449999999999
 21
4.338352999999999
 31
0.0
  0
LINE
  5
296
330
B
100
AcDbEntity
 67
     1
  8
1
  6
Continuous
 62
    18
100
AcDbLine
 10
5.118913
 20
4.020501999999999
 30
0.0
 11
5.104709999999999
 21
4.031512
 31
0.0
  0
LINE
  5
297
330
B
100
AcDbEntity
 67
     1
  8
1
  6
Continuous
 62
    18
100
AcDbLine
 10
5.667221999999999
 20
4.407362
 30
0.0
 11
5.667219999999999
 21
4.406604999999999
 31
0.0
  0
LINE
  5
298
330
B
100
AcDbEntity
 67
     1
  8
1
  6
Continuous
 62
    18
100
AcDbLine
 10
2.570450999999999
 20
4.089498999999999
 30
0.0
 11
2.554453
 21
4.089498999999999
 31
0.0
  0
LINE
  5
299
330
B
100
AcDbEntity
 67
     1
  8
1
  6
Continuous
 62
    18
100
AcDbLine
 10
2.247951
 20
4.069352999999999
 30
0.0
 11
2.245666999999999
 21
4.067069999999999
 31
0.0
  0
LINE
  5
29A
330
B
100
AcDbEntity
 67
     1
  8
1
  6
Continuous
 62
    18
100
AcDbLine
 10
2.37245
 20
4.485612
 30
0.0
 11
2.37245
 21
4.434352999999999
 31
0.0
  0
LINE
  5
29B
330
B
100
AcDbEntity
 67
     1
  8
1
  6
Continuous
 62
    18
100
AcDbLine
 10
5.652512
 20
4.340620999999999
 30
0.0
 11
5.652512
 21
4.364779
 31
0.0
  0
LINE
  5
29C
330
B
100
AcDbEntity
 67
     1
  8
1
  6
Continuous
 62
    18
100
AcDbLine
 10
5.238296
 20
4.344967999999999
 30
0.0
 11
5.225296
 21
4.331967999999999
 31
0.0
  0
LINE
  5
29D
330
B
100
AcDbEntity
 67
     1
  8
1
  6
Continuous
 62
    18
100
AcDbLine
 10
2.229430999999999
 20
4.356873
 30
0.0
 11
2.21795
 21
4.368352999999999
 31
0.0
  0
LINE
  5
29E
330
B
100
AcDbEntity
 67
     1
  8
1
  6
Continuous
 62
    18
100
AcDbLine
 10
5.126216999999999
 20
4.399451999999999
 30
0.0
 11
5.11524
 21
4.410408999999999
 31
0.0
  0
LINE
  5
29F
330
B
100
AcDbEntity
 67
     1
  8
1
  6
Continuous
 62
    18
100
AcDbLine
 10
5.667752
 20
4.406695
 30
0.0
 11
5.667016
 21
4.40659
 31
0.0
  0
LINE
  5
2A0
330
B
100
AcDbEntity
 67
     1
  8
1
  6
Continuous
 62
    18
100
AcDbLine
 10
2.349663999999999
 20
4.41314
 30
0.0
 11
2.339930999999999
 21
4.422873
 31
0.0
  0
LINE
  5
2A1
330
B
100
AcDbEntity
 67
     1
  8
1
  6
Continuous
 62
    18
100
AcDbLine
 10
2.642450999999999
 20
4.065334
 30
0.0
 11
2.642450999999999
 21
4.069352999999999
 31
0.0
  0
LINE
  5
2A2
330
B
100
AcDbEntity
 67
     1
  8
1
  6
Continuous
 62
    18
100
AcDbLine
 10
5.130233999999999
 20
4.00983
 30
0.0
 11
5.126216999999999
 21
4.024808
 31
0.0
  0
LINE
  5
2A3
330
B
100
AcDbEntity
 67
     1
  8
1
  6
Continuous
 62
    18
100
AcDbLine
 10
5.804777999999999
 20
4.382689
 30
0.0
 11
5.804777999999999
 21
4.401644999999999
 31
0.0
  0
LINE
  5
2A4
330
B
100
AcDbEntity
 67
     1
  8
1
  6
Continuous
 62
    18
100
AcDbLine
 10
2.573415
 20
4.326787999999999
 30
0.0
 11
2.570907
 21
4.326787999999999
 31
0.0
  0
LINE
  5
2A5
330
B
100
AcDbEntity
 67
     1
  8
1
  6
Continuous
 62
    18
100
AcDbLine
 10
2.589984999999999
 20
4.330989999999999
 30
0.0
 11
2.584884999999999
 21
4.330989999999999
 31
0.0
  0
LINE
  5
2A6
330
B
100
AcDbEntity
 67
     1
  8
1
  6
Continuous
 62
    18
100
AcDbLine
 10
2.353960999999999
 20
4.061319
 30
0.0
 11
2.351449999999999
 21
4.061319
 31
0.0
  0
LINE
  5
2A7
330
B
100
AcDbEntity
 67
     1
  8
1
  6
Continuous
 62
    18
100
AcDbLine
 10
4.958194999999999
 20
4.513659999999999
 30
0.0
 11
4.958165
 21
4.514259
 31
0.0
  0
LINE
  5
2A8
330
B
100
AcDbEntity
 67
     1
  8
1
  6
Continuous
 62
    18
100
AcDbLine
 10
5.804885999999999
 20
4.408711
 30
0.0
 11
5.804777999999999
 21
4.411641
 31
0.0
  0
LINE
  5
2A9
330
B
100
AcDbEntity
 67
     1
  8
1
  6
Continuous
 62
    18
100
AcDbLine
 10
2.574825999999999
 20
4.312787999999999
 30
0.0
 11
2.58245
 21
4.312787999999999
 31
0.0
  0
LINE
  5
2AA
330
B
100
AcDbEntity
 67
     1
  8
1
  6
Continuous
 62
    18
100
AcDbLine
 10
2.636450999999999
 20
4.368352999999999
 30
0.0
 11
2.74695
 21
4.368352999999999
 31
0.0
  0
LINE
  5
2AB
330
B
100
AcDbEntity
 67
     1
  8
1
  6
Continuous
 62
    18
100
AcDbLine
 10
4.437653
 20
4.008919
 30
0.0
 11
4.427651999999999
 21
4.008919
 31
0.0
  0
LINE
  5
2AC
330
B
100
AcDbEntity
 67
     1
  8
1
  6
Continuous
 62
    18
100
AcDbLine
 10
5.027741
 20
4.038469999999999
 30
0.0
 11
5.027741
 21
3.903469999999999
 31
0.0
  0
LINE
  5
2AD
330
B
100
AcDbEntity
 67
     1
  8
1
  6
Continuous
 62
    18
100
AcDbLine
 10
2.794033
 20
4.526245999999999
 30
0.0
 11
2.792918
 21
4.527492999999999
 31
0.0
  0
LINE
  5
2AE
330
B
100
AcDbEntity
 67
     1
  8
1
  6
Continuous
 62
    18
100
AcDbLine
 10
2.514450999999999
 20
4.191984999999999
 30
0.0
 11
2.511450999999999
 21
4.191984999999999
 31
0.0
  0
LINE
  5
2AF
330
B
100
AcDbEntity
 67
     1
  8
1
  6
Continuous
 62
    18
100
AcDbLine
 10
2.573606
 20
4.317725
 30
0.0
 11
2.574729999999999
 21
4.315752999999999
 31
0.0
  0
LINE
  5
2B0
330
B
100
AcDbEntity
 67
     1
  8
1
  6
Continuous
 62
    18
100
AcDbLine
 10
5.712310999999999
 20
3.802977999999999
 30
0.0
 11
5.712310999999999
 21
3.814292
 31
0.0
  0
LINE
  5
2B1
330
B
100
AcDbEntity
 67
     1
  8
1
  6
Continuous
 62
    18
100
AcDbLine
 10
4.958165
 20
4.514259
 30
0.0
 11
4.958223999999999
 21
4.515812
 31
0.0
  0
LINE
  5
2B2
330
B
100
AcDbEntity
 67
     1
  8
1
  6
Continuous
 62
    18
100
AcDbLine
 10
2.330451
 20
4.093257
 30
0.0
 11
2.298119999999999
 21
4.093257
 31
0.0
  0
LINE
  5
2B3
330
B
100
AcDbEntity
 67
     1
  8
1
  6
Continuous
 62
    18
100
AcDbLine
 10
2.592449999999999
 20
3.888721999999999
 30
0.0
 11
2.588058
 21
3.878116999999999
 31
0.0
  0
LINE
  5
2B4
330
B
100
AcDbEntity
 67
     1
  8
1
  6
Continuous
 62
    18
100
AcDbLine
 10
2.58245
 20
4.312825
 30
0.0
 11
2.58245
 21
4.319787999999999
 31
0.0
  0
LINE
  5
2B5
330
B
100
AcDbEntity
 67
     1
  8
1
  6
Continuous
 62
    18
100
AcDbLine
 10
5.809651999999999
 20
3.824103
 30
0.0
 11
5.768841
 21
3.798292
 31
0.0
  0
LINE
  5
2B6
330
B
100
AcDbEntity
 67
     1
  8
1
  6
Continuous
 62
    18
100
AcDbLine
 10
2.410449999999999
 20
4.191984999999999
 30
0.0
 11
2.410449999999999
 21
4.093257
 31
0.0
  0
LINE
  5
2B7
330
B
100
AcDbEntity
 67
     1
  8
1
  6
Continuous
 62
    18
100
AcDbLine
 10
2.587763999999999
 20
4.313983999999999
 30
0.0
 11
2.58245
 21
4.312825
 31
0.0
  0
LINE
  5
2B8
330
B
100
AcDbEntity
 67
     1
  8
1
  6
Continuous
 62
    18
100
AcDbLine
 10
2.71695
 20
4.069352999999999
 30
0.0
 11
2.719234
 21
4.067069999999999
 31
0.0
  0
LINE
  5
2B9
330
B
100
AcDbEntity
 67
     1
  8
1
  6
Continuous
 62
    18
100
AcDbLine
 10
2.514450999999999
 20
4.191984999999999
 30
0.0
 11
2.514450999999999
 21
4.093257
 31
0.0
  0
LINE
  5
2BA
330
B
100
AcDbEntity
 67
     1
  8
1
  6
Continuous
 62
    18
100
AcDbLine
 10
2.599523
 20
4.317788
 30
0.0
 11
2.597455
 21
4.317788
 31
0.0
  0
LINE
  5
2BB
330
B
100
AcDbEntity
 67
     1
  8
1
  6
Continuous
 62
    18
100
AcDbLine
 10
2.170094999999999
 20
4.412659999999999
 30
0.0
 11
2.169779
 21
4.402048
 31
0.0
  0
LINE
  5
2BC
330
B
100
AcDbEntity
 67
     1
  8
1
  6
Continuous
 62
    18
100
AcDbLine
 10
2.73547
 20
4.356873
 30
0.0
 11
2.74695
 21
4.368352999999999
 31
0.0
  0
LINE
  5
2BD
330
B
100
AcDbEntity
 67
     1
  8
1
  6
Continuous
 62
    18
100
AcDbLine
 10
2.577452999999999
 20
3.873724999999999
 30
0.0
 11
2.387448
 21
3.873724999999999
 31
0.0
  0
LINE
  5
2BE
330
B
100
AcDbEntity
 67
     1
  8
1
  6
Continuous
 62
    18
100
AcDbLine
 10
2.59445
 20
4.093257
 30
0.0
 11
2.610450999999999
 21
4.093257
 31
0.0
  0
LINE
  5
2BF
330
B
100
AcDbEntity
 67
     1
  8
1
  6
Continuous
 62
    18
100
AcDbLine
 10
5.673008
 20
4.406905999999999
 30
0.0
 11
5.669852999999999
 21
4.406801
 31
0.0
  0
LINE
  5
2C0
330
B
100
AcDbEntity
 67
     1
  8
1
  6
Continuous
 62
    18
100
AcDbLine
 10
5.746216999999999
 20
4.412548999999999
 30
0.0
 11
5.74622
 21
4.412052
 31
0.0
  0
LINE
  5
2C1
330
B
100
AcDbEntity
 67
     1
  8
1
  6
Continuous
 62
    18
100
AcDbLine
 10
2.576211999999999
 20
4.326438999999999
 30
0.0
 11
2.576888
 21
4.326673999999999
 31
0.0
  0
LINE
  5
2C2
330
B
100
AcDbEntity
 67
     1
  8
1
  6
Continuous
 62
    18
100
AcDbLine
 10
2.615237
 20
4.41314
 30
0.0
 11
2.62497
 21
4.422873
 31
0.0
  0
LINE
  5
2C3
330
B
100
AcDbEntity
 67
     1
  8
1
  6
Continuous
 62
    18
100
AcDbLine
 10
2.393993999999999
 20
4.312787999999999
 30
0.0
 11
2.390074
 21
4.312787999999999
 31
0.0
  0
LINE
  5
2C4
330
B
100
AcDbEntity
 67
     1
  8
1
  6
Continuous
 62
    18
100
AcDbLine
 10
2.785801999999999
 20
3.808726
 30
0.0
 11
2.784308
 21
3.808726
 31
0.0
  0
LINE
  5
2C5
330
B
100
AcDbEntity
 67
     1
  8
1
  6
Continuous
 62
    18
100
AcDbLine
 10
5.939516
 20
4.350559999999999
 30
0.0
 11
5.814516
 21
4.348634999999999
 31
0.0
  0
LINE
  5
2C6
330
B
100
AcDbEntity
 67
     1
  8
1
  6
Continuous
 62
    18
100
AcDbLine
 10
5.11524
 20
3.906175
 30
0.0
 11
5.126216999999999
 21
3.917132
 31
0.0
  0
LINE
  5
2C7
330
B
100
AcDbEntity
 67
     1
  8
1
  6
Continuous
 62
    18
100
AcDbLine
 10
2.217449999999999
 20
4.027352999999999
 30
0.0
 11
2.217449999999999
 21
4.039353
 31
0.0
  0
LINE
  5
2C8
330
B
100
AcDbEntity
 67
     1
  8
1
  6
Continuous
 62
    18
100
AcDbLine
 10
2.390074
 20
4.312787999999999
 30
0.0
 11
2.382449999999999
 21
4.312787999999999
 31
0.0
  0
LINE
  5
2C9
330
B
100
AcDbEntity
 67
     1
  8
1
  6
Continuous
 62
    18
100
AcDbLine
 10
2.177474
 20
4.516204
 30
0.0
 11
2.170094999999999
 21
4.523582
 31
0.0
  0
LINE
  5
2CA
330
B
100
AcDbEntity
 67
     1
  8
1
  6
Continuous
 62
    18
100
AcDbLine
 10
5.434153
 20
4.435852999999999
 30
0.0
 11
5.224153
 21
4.446858999999999
 31
0.0
  0
LINE
  5
2CB
330
B
100
AcDbEntity
 67
     1
  8
1
  6
Continuous
 62
    18
100
AcDbLine
 10
2.714658
 20
4.093257
 30
0.0
 11
2.71695
 21
4.093257
 31
0.0
  0
LINE
  5
2CC
330
B
100
AcDbEntity
 67
     1
  8
1
  6
Continuous
 62
    18
100
AcDbLine
 10
5.187653
 20
4.477723
 30
0.0
 11
4.958389
 21
4.518146999999999
 31
0.0
  0
LINE
  5
2CD
330
B
100
AcDbEntity
 67
     1
  8
1
  6
Continuous
 62
    18
100
AcDbLine
 10
5.833631999999999
 20
4.211815
 30
0.0
 11
5.822680999999999
 21
4.210841999999999
 31
0.0
  0
LINE
  5
2CE
330
B
100
AcDbEntity
 67
     1
  8
1
  6
Continuous
 62
    18
100
AcDbLine
 10
2.397454999999999
 20
4.317788
 30
0.0
 11
2.399522999999999
 21
4.317788
 31
0.0
  0
LINE
  5
2CF
330
B
100
AcDbEntity
 67
     1
  8
1
  6
Continuous
 62
    18
100
AcDbLine
 10
5.755917
 20
4.409571999999999
 30
0.0
 11
5.755917
 21
4.409483999999999
 31
0.0
  0
LINE
  5
2D0
330
B
100
AcDbEntity
 67
     1
  8
1
  6
Continuous
 62
    18
100
AcDbLine
 10
2.289999
 20
4.089498999999999
 30
0.0
 11
2.260205
 21
4.089498999999999
 31
0.0
  0
LINE
  5
2D1
330
B
100
AcDbEntity
 67
     1
  8
1
  6
Continuous
 62
    18
100
AcDbLine
 10
2.780802999999999
 20
4.457868
 30
0.0
 11
2.785801999999999
 21
4.457952999999999
 31
0.0
  0
LINE
  5
2D2
330
B
100
AcDbEntity
 67
     1
  8
1
  6
Continuous
 62
    18
100
AcDbLine
 10
5.805034
 20
3.848810999999999
 30
0.0
 11
5.809651999999999
 21
3.84873
 31
0.0
  0
LINE
  5
2D3
330
B
100
AcDbEntity
 67
     1
  8
1
  6
Continuous
 62
    18
100
AcDbLine
 10
5.838122
 20
4.036466
 30
0.0
 11
5.833631999999999
 21
4.036893
 31
0.0
  0
LINE
  5
2D4
330
B
100
AcDbEntity
 67
     1
  8
1
  6
Continuous
 62
    18
100
AcDbLine
 10
2.351449999999999
 20
4.191984999999999
 30
0.0
 11
2.354449999999999
 21
4.191984999999999
 31
0.0
  0
LINE
  5
2D5
330
B
100
AcDbEntity
 67
     1
  8
1
  6
Continuous
 62
    18
100
AcDbLine
 10
2.354452999999999
 20
4.089498999999999
 30
0.0
 11
2.353908
 21
4.058301
 31
0.0
  0
LINE
  5
2D6
330
B
100
AcDbEntity
 67
     1
  8
1
  6
Continuous
 62
    18
100
AcDbLine
 10
2.391294999999999
 20
4.321851999999999
 30
0.0
 11
2.391318
 21
4.321787999999999
 31
0.0
  0
LINE
  5
2D7
330
B
100
AcDbEntity
 67
     1
  8
1
  6
Continuous
 62
    18
100
AcDbLine
 10
2.377540999999999
 20
3.878815
 30
0.0
 11
2.373149
 21
3.889421
 31
0.0
  0
LINE
  5
2D8
330
B
100
AcDbEntity
 67
     1
  8
1
  6
Continuous
 62
    18
100
AcDbLine
 10
5.652573
 20
3.879226999999999
 30
0.0
 11
5.652573
 21
4.340620999999999
 31
0.0
  0
LINE
  5
2D9
330
B
100
AcDbEntity
 67
     1
  8
1
  6
Continuous
 62
    18
100
AcDbLine
 10
2.37473
 20
4.315752999999999
 30
0.0
 11
2.375183
 21
4.315258999999999
 31
0.0
  0
LINE
  5
2DA
330
B
100
AcDbEntity
 67
     1
  8
1
  6
Continuous
 62
    18
100
AcDbLine
 10
2.45045
 20
4.089498999999999
 30
0.0
 11
2.450995
 21
4.058301
 31
0.0
  0
LINE
  5
2DB
330
B
100
AcDbEntity
 67
     1
  8
1
  6
Continuous
 62
    18
100
AcDbLine
 10
2.606450999999999
 20
4.338352999999999
 30
0.0
 11
2.606450999999999
 21
4.404352999999999
 31
0.0
  0
LINE
  5
2DC
330
B
100
AcDbEntity
 67
     1
  8
1
  6
Continuous
 62
    18
100
AcDbLine
 10
2.387448
 20
3.873724999999999
 30
0.0
 11
2.388145999999999
 21
3.874423
 31
0.0
  0
LINE
  5
2DD
330
B
100
AcDbEntity
 67
     1
  8
1
  6
Continuous
 62
    18
100
AcDbLine
 10
5.658135999999999
 20
4.392878999999999
 30
0.0
 11
5.609389
 21
4.364733999999999
 31
0.0
  0
LINE
  5
2DE
330
B
100
AcDbEntity
 67
     1
  8
1
  6
Continuous
 62
    18
100
AcDbLine
 10
2.37473
 20
4.315752999999999
 30
0.0
 11
2.373606
 21
4.317725
 31
0.0
  0
LINE
  5
2DF
330
B
100
AcDbEntity
 67
     1
  8
1
  6
Continuous
 62
    18
100
AcDbLine
 10
2.53045
 20
4.089498999999999
 30
0.0
 11
2.514453
 21
4.089498999999999
 31
0.0
  0
LINE
  5
2E0
330
B
100
AcDbEntity
 67
     1
  8
1
  6
Continuous
 62
    18
100
AcDbLine
 10
2.642450999999999
 20
4.054352999999999
 30
0.0
 11
2.642450999999999
 21
4.065334
 31
0.0
  0
LINE
  5
2E1
330
B
100
AcDbEntity
 67
     1
  8
1
  6
Continuous
 62
    18
100
AcDbLine
 10
2.606450999999999
 20
4.404352999999999
 30
0.0
 11
2.56245
 21
4.404352999999999
 31
0.0
  0
LINE
  5
2E2
330
B
100
AcDbEntity
 67
     1
  8
1
  6
Continuous
 62
    18
100
AcDbLine
 10
2.567445999999999
 20
4.321787999999999
 30
0.0
 11
2.573583
 21
4.321787999999999
 31
0.0
  0
LINE
  5
2E3
330
B
100
AcDbEntity
 67
     1
  8
1
  6
Continuous
 62
    18
100
AcDbLine
 10
5.754444999999999
 20
4.412958999999999
 30
0.0
 11
5.773755
 21
4.412454
 31
0.0
  0
LINE
  5
2E4
330
B
100
AcDbEntity
 67
     1
  8
1
  6
Continuous
 62
    18
100
AcDbLine
 10
5.420010999999999
 20
4.344967999999999
 30
0.0
 11
5.430363999999999
 21
4.348758
 31
0.0
  0
LINE
  5
2E5
330
B
100
AcDbEntity
 67
     1
  8
1
  6
Continuous
 62
    18
100
AcDbLine
 10
2.634452999999999
 20
4.089498999999999
 30
0.0
 11
2.633908
 21
4.058301
 31
0.0
  0
LINE
  5
2E6
330
B
100
AcDbEntity
 67
     1
  8
1
  6
Continuous
 62
    18
100
AcDbLine
 10
2.722024999999999
 20
4.521202999999999
 30
0.0
 11
2.7204
 21
4.519578
 31
0.0
  0
LINE
  5
2E7
330
B
100
AcDbEntity
 67
     1
  8
1
  6
Continuous
 62
    18
100
AcDbLine
 10
2.376266999999999
 20
4.326464999999999
 30
0.0
 11
2.375634999999999
 21
4.326055999999999
 31
0.0
  0
LINE
  5
2E8
330
B
100
AcDbEntity
 67
     1
  8
1
  6
Continuous
 62
    18
100
AcDbLine
 10
5.027741
 20
4.278113999999999
 30
0.0
 11
5.097705999999999
 21
4.278070999999999
 31
0.0
  0
LINE
  5
2E9
330
B
100
AcDbEntity
 67
     1
  8
1
  6
Continuous
 62
    18
100
AcDbLine
 10
2.351449999999999
 20
4.054352999999999
 30
0.0
 11
2.351449999999999
 21
4.207862
 31
0.0
  0
LINE
  5
2EA
330
B
100
AcDbEntity
 67
     1
  8
1
  6
Continuous
 62
    18
100
AcDbLine
 10
2.56245
 20
4.477573
 30
0.0
 11
2.56647
 21
4.481593
 31
0.0
  0
LINE
  5
2EB
330
B
100
AcDbEntity
 67
     1
  8
1
  6
Continuous
 62
    18
100
AcDbLine
 10
5.749925
 20
4.409377
 30
0.0
 11
5.746178999999999
 21
4.409341
 31
0.0
  0
LINE
  5
2EC
330
B
100
AcDbEntity
 67
     1
  8
1
  6
Continuous
 62
    18
100
AcDbLine
 10
2.45745
 20
4.523244
 30
0.0
 11
2.507449999999999
 21
4.523244
 31
0.0
  0
LINE
  5
2ED
330
B
100
AcDbEntity
 67
     1
  8
1
  6
Continuous
 62
    18
100
AcDbLine
 10
2.380014
 20
4.332571999999999
 30
0.0
 11
2.378403
 21
4.332666999999999
 31
0.0
  0
LINE
  5
2EE
330
B
100
AcDbEntity
 67
     1
  8
1
  6
Continuous
 62
    18
100
AcDbLine
 10
5.123720999999999
 20
4.398204999999999
 30
0.0
 11
5.127742999999999
 21
4.38323
 31
0.0
  0
LINE
  5
2EF
330
B
100
AcDbEntity
 67
     1
  8
1
  6
Continuous
 62
    18
100
AcDbLine
 10
5.814516
 20
4.370016
 30
0.0
 11
5.937058999999999
 21
4.367877
 31
0.0
  0
LINE
  5
2F0
330
B
100
AcDbEntity
 67
     1
  8
1
  6
Continuous
 62
    18
100
AcDbLine
 10
2.613500999999999
 20
4.054352999999999
 30
0.0
 11
2.613500999999999
 21
4.207862
 31
0.0
  0
LINE
  5
2F1
330
B
100
AcDbEntity
 67
     1
  8
1
  6
Continuous
 62
    18
100
AcDbLine
 10
2.787427
 20
4.459577999999999
 30
0.0
 11
2.722024999999999
 21
4.459577999999999
 31
0.0
  0
LINE
  5
2F2
330
B
100
AcDbEntity
 67
     1
  8
1
  6
Continuous
 62
    18
100
AcDbLine
 10
2.642450999999999
 20
4.069352999999999
 30
0.0
 11
2.71695
 21
4.069352999999999
 31
0.0
  0
LINE
  5
2F3
330
B
100
AcDbEntity
 67
     1
  8
1
  6
Continuous
 62
    18
100
AcDbLine
 10
2.657449999999999
 20
4.520277
 30
0.0
 11
2.682450999999999
 21
4.520277
 31
0.0
  0
LINE
  5
2F4
330
B
100
AcDbEntity
 67
     1
  8
1
  6
Continuous
 62
    18
100
AcDbLine
 10
5.748505
 20
4.413115
 30
0.0
 11
5.750522
 21
4.413062
 31
0.0
  0
LINE
  5
2F5
330
B
100
AcDbEntity
 67
     1
  8
1
  6
Continuous
 62
    18
100
AcDbLine
 10
2.573583
 20
4.317788
 30
0.0
 11
2.573606
 21
4.317725
 31
0.0
  0
LINE
  5
2F6
330
B
100
AcDbEntity
 67
     1
  8
1
  6
Continuous
 62
    18
100
AcDbLine
 10
2.184098
 20
3.808726
 30
0.0
 11
2.780802999999999
 21
3.808726
 31
0.0
  0
LINE
  5
2F7
330
B
100
AcDbEntity
 67
     1
  8
1
  6
Continuous
 62
    18
100
AcDbLine
 10
2.289999
 20
4.089498999999999
 30
0.0
 11
2.290350999999999
 21
4.069352999999999
 31
0.0
  0
LINE
  5
2F8
330
B
100
AcDbEntity
 67
     1
  8
1
  6
Continuous
 62
    18
100
AcDbLine
 10
5.669005999999999
 20
4.41083
 30
0.0
 11
5.668419999999999
 21
4.410244999999999
 31
0.0
  0
LINE
  5
2F9
330
B
100
AcDbEntity
 67
     1
  8
1
  6
Continuous
 62
    18
100
AcDbLine
 10
5.224153
 20
4.446858999999999
 30
0.0
 11
5.211152999999999
 21
4.44754
 31
0.0
  0
LINE
  5
2FA
330
B
100
AcDbEntity
 67
     1
  8
1
  6
Continuous
 62
    18
100
AcDbLine
 10
2.573450999999999
 20
4.061319
 30
0.0
 11
2.570941999999999
 21
4.061319
 31
0.0
  0
LINE
  5
2FB
330
B
100
AcDbEntity
 67
     1
  8
1
  6
Continuous
 62
    18
100
AcDbLine
 10
5.669852999999999
 20
4.406801
 30
0.0
 11
5.667752
 21
4.406695
 31
0.0
  0
LINE
  5
2FC
330
B
100
AcDbEntity
 67
     1
  8
1
  6
Continuous
 62
    18
100
AcDbLine
 10
4.427651999999999
 20
4.016919
 30
0.0
 11
4.427651999999999
 21
4.028919
 31
0.0
  0
LINE
  5
2FD
330
B
100
AcDbEntity
 67
     1
  8
1
  6
Continuous
 62
    18
100
AcDbLine
 10
5.83679
 20
4.369626999999999
 30
0.0
 11
5.820104999999999
 21
4.369918
 31
0.0
  0
LINE
  5
2FE
330
B
100
AcDbEntity
 67
     1
  8
1
  6
Continuous
 62
    18
100
AcDbLine
 10
2.473908
 20
4.058301
 30
0.0
 11
2.490995
 21
4.058301
 31
0.0
  0
LINE
  5
2FF
330
B
100
AcDbEntity
 67
     1
  8
1
  6
Continuous
 62
    18
100
AcDbLine
 10
5.814516
 20
4.370016
 30
0.0
 11
5.757516
 21
4.370263999999999
 31
0.0
  0
LINE
  5
300
330
B
100
AcDbEntity
 67
     1
  8
1
  6
Continuous
 62
    18
100
AcDbLine
 10
2.37245
 20
4.485612
 30
0.0
 11
2.592449999999999
 21
4.485612
 31
0.0
  0
LINE
  5
301
330
B
100
AcDbEntity
 67
     1
  8
1
  6
Continuous
 62
    18
100
AcDbLine
 10
2.390171
 20
4.323822999999999
 30
0.0
 11
2.391294999999999
 21
4.321851999999999
 31
0.0
  0
LINE
  5
302
330
B
100
AcDbEntity
 67
     1
  8
1
  6
Continuous
 62
    18
100
AcDbLine
 10
2.393961
 20
4.061319
 30
0.0
 11
2.391449999999999
 21
4.061319
 31
0.0
  0
LINE
  5
303
330
B
100
AcDbEntity
 67
     1
  8
1
  6
Continuous
 62
    18
100
AcDbLine
 10
5.187653
 20
4.472644999999999
 30
0.0
 11
5.187653
 21
4.477723
 31
0.0
  0
LINE
  5
304
330
B
100
AcDbEntity
 67
     1
  8
1
  6
Continuous
 62
    18
100
AcDbLine
 10
5.187653
 20
4.448114
 30
0.0
 11
5.206478999999999
 21
4.447784999999999
 31
0.0
  0
LINE
  5
305
330
B
100
AcDbEntity
 67
     1
  8
1
  6
Continuous
 62
    18
100
AcDbLine
 10
5.093150999999999
 20
4.283114
 30
0.0
 11
5.104709999999999
 21
4.285072
 31
0.0
  0
LINE
  5
306
330
B
100
AcDbEntity
 67
     1
  8
1
  6
Continuous
 62
    18
100
AcDbLine
 10
5.124279
 20
4.378114
 30
0.0
 11
5.118913
 21
4.395145999999999
 31
0.0
  0
LINE
  5
307
330
B
100
AcDbEntity
 67
     1
  8
1
  6
Continuous
 62
    18
100
AcDbLine
 10
2.795236
 20
4.013904
 30
0.0
 11
2.795122
 21
4.027404999999999
 31
0.0
  0
LINE
  5
308
330
B
100
AcDbEntity
 67
     1
  8
1
  6
Continuous
 62
    18
100
AcDbLine
 10
5.938081999999999
 20
4.367637999999999
 30
0.0
 11
5.937107
 21
4.367874999999999
 31
0.0
  0
LINE
  5
309
330
B
100
AcDbEntity
 67
     1
  8
1
  6
Continuous
 62
    18
100
AcDbLine
 10
2.370906999999999
 20
4.326787999999999
 30
0.0
 11
2.373415
 21
4.326787999999999
 31
0.0
  0
LINE
  5
30A
330
B
100
AcDbEntity
 67
     1
  8
1
  6
Continuous
 62
    18
100
AcDbLine
 10
5.672399999999999
 20
4.412116
 30
0.0
 11
5.670405
 21
4.411687
 31
0.0
  0
LINE
  5
30B
330
B
100
AcDbEntity
 67
     1
  8
1
  6
Continuous
 62
    18
100
AcDbLine
 10
5.939516
 20
4.365376999999999
 30
0.0
 11
5.939237999999999
 21
4.366522999999999
 31
0.0
  0
LINE
  5
30C
330
B
100
AcDbEntity
 67
     1
  8
1
  6
Continuous
 62
    18
100
AcDbLine
 10
4.958389
 20
3.798292
 30
0.0
 11
5.187653
 21
3.813832
 31
0.0
  0
LINE
  5
30D
330
B
100
AcDbEntity
 67
     1
  8
1
  6
Continuous
 62
    18
100
AcDbLine
 10
5.365403999999999
 20
3.821294
 30
0.0
 11
5.703135999999999
 21
3.827188999999999
 31
0.0
  0
LINE
  5
30E
330
B
100
AcDbEntity
 67
     1
  8
1
  6
Continuous
 62
    18
100
AcDbLine
 10
2.584886999999999
 20
4.312787999999999
 30
0.0
 11
2.584886999999999
 21
4.30651
 31
0.0
  0
LINE
  5
30F
330
B
100
AcDbEntity
 67
     1
  8
1
  6
Continuous
 62
    18
100
AcDbLine
 10
2.388708
 20
4.314487
 30
0.0
 11
2.390171
 21
4.315752999999999
 31
0.0
  0
LINE
  5
310
330
B
100
AcDbEntity
 67
     1
  8
1
  6
Continuous
 62
    18
100
AcDbLine
 10
5.443363999999999
 20
4.335758
 30
0.0
 11
5.433011
 21
4.331967999999999
 31
0.0
  0
LINE
  5
311
330
B
100
AcDbEntity
 67
     1
  8
1
  6
Continuous
 62
    18
100
AcDbLine
 10
5.811678999999999
 20
4.401644999999999
 30
0.0
 11
5.804777999999999
 21
4.401644999999999
 31
0.0
  0
LINE
  5
312
330
B
100
AcDbEntity
 67
     1
  8
1
  6
Continuous
 62
    18
100
AcDbLine
 10
5.669662999999999
 20
4.411305
 30
0.0
 11
5.669005999999999
 21
4.41083
 31
0.0
  0
LINE
  5
313
330
B
100
AcDbEntity
 67
     1
  8
1
  6
Continuous
 62
    18
100
AcDbLine
 10
2.49045
 20
4.089498999999999
 30
0.0
 11
2.474451999999999
 21
4.089498999999999
 31
0.0
  0
LINE
  5
314
330
B
100
AcDbEntity
 67
     1
  8
1
  6
Continuous
 62
    18
100
AcDbLine
 10
4.437653
 20
4.504144999999999
 30
0.0
 11
4.437653
 21
4.447433
 31
0.0
  0
LINE
  5
315
330
B
100
AcDbEntity
 67
     1
  8
1
  6
Continuous
 62
    18
100
AcDbLine
 10
5.729516
 20
4.409441999999999
 30
0.0
 11
5.729516
 21
4.364891
 31
0.0
  0
LINE
  5
316
330
B
100
AcDbEntity
 67
     1
  8
1
  6
Continuous
 62
    18
100
AcDbLine
 10
5.654341
 20
3.866578
 30
0.0
 11
5.658313999999999
 21
3.866508999999999
 31
0.0
  0
LINE
  5
317
330
B
100
AcDbEntity
 67
     1
  8
1
  6
Continuous
 62
    18
100
AcDbLine
 10
5.097705999999999
 20
4.413156999999999
 30
0.0
 11
5.112729999999999
 21
4.409155999999999
 31
0.0
  0
LINE
  5
318
330
B
100
AcDbEntity
 67
     1
  8
1
  6
Continuous
 62
    18
100
AcDbLine
 10
2.358449999999999
 20
4.338352999999999
 30
0.0
 11
2.358449999999999
 21
4.404352999999999
 31
0.0
  0
LINE
  5
319
330
B
100
AcDbEntity
 67
     1
  8
1
  6
Continuous
 62
    18
100
AcDbLine
 10
2.591318
 20
4.317788
 30
0.0
 11
2.591318
 21
4.321787999999999
 31
0.0
  0
LINE
  5
31A
330
B
100
AcDbEntity
 67
     1
  8
1
  6
Continuous
 62
    18
100
AcDbLine
 10
5.034387999999999
 20
4.033469999999999
 30
0.0
 11
5.093150999999999
 21
4.033469999999999
 31
0.0
  0
LINE
  5
31B
330
B
100
AcDbEntity
 67
     1
  8
1
  6
Continuous
 62
    18
100
AcDbLine
 10
5.729516
 20
4.413612
 30
0.0
 11
5.738849
 21
4.413367
 31
0.0
  0
LINE
  5
31C
330
B
100
AcDbEntity
 67
     1
  8
1
  6
Continuous
 62
    18
100
AcDbLine
 10
5.822680999999999
 20
4.037866
 30
0.0
 11
5.822680999999999
 21
4.210841999999999
 31
0.0
  0
LINE
  5
31D
330
B
100
AcDbEntity
 67
     1
  8
1
  6
Continuous
 62
    18
100
AcDbLine
 10
2.245666999999999
 20
4.067069999999999
 30
0.0
 11
2.239164
 21
4.060566
 31
0.0
  0
LINE
  5
31E
330
B
100
AcDbEntity
 67
     1
  8
1
  6
Continuous
 62
    18
100
AcDbLine
 10
2.682450999999999
 20
4.520277
 30
0.0
 11
2.682450999999999
 21
4.521018999999999
 31
0.0
  0
LINE
  5
31F
330
B
100
AcDbEntity
 67
     1
  8
1
  6
Continuous
 62
    18
100
AcDbLine
 10
5.11524
 20
4.280818
 30
0.0
 11
5.126216999999999
 21
4.291776
 31
0.0
  0
LINE
  5
320
330
B
100
AcDbEntity
 67
     1
  8
1
  6
Continuous
 62
    18
100
AcDbLine
 10
2.358449999999999
 20
4.338352999999999
 30
0.0
 11
2.356166999999999
 21
4.340637
 31
0.0
  0
LINE
  5
321
330
B
100
AcDbEntity
 67
     1
  8
1
  6
Continuous
 62
    18
100
AcDbLine
 10
5.729516
 20
4.409441999999999
 30
0.0
 11
5.699975
 21
4.407879
 31
0.0
  0
LINE
  5
322
330
B
100
AcDbEntity
 67
     1
  8
1
  6
Continuous
 62
    18
100
AcDbLine
 10
2.387216
 20
4.326781999999999
 30
0.0
 11
2.386956
 21
4.326787999999999
 31
0.0
  0
LINE
  5
323
330
B
100
AcDbEntity
 67
     1
  8
1
  6
Continuous
 62
    18
100
AcDbLine
 10
5.814516
 20
4.358069999999999
 30
0.0
 11
5.939516
 21
4.359994999999999
 31
0.0
  0
LINE
  5
324
330
B
100
AcDbEntity
 67
     1
  8
1
  6
Continuous
 62
    18
100
AcDbLine
 10
5.822761999999999
 20
4.299361
 30
0.0
 11
5.939516
 21
4.301229
 31
0.0
  0
LINE
  5
325
330
B
100
AcDbEntity
 67
     1
  8
1
  6
Continuous
 62
    18
100
AcDbLine
 10
5.11524
 20
4.410408999999999
 30
0.0
 11
5.100233999999999
 21
4.414419
 31
0.0
  0
LINE
  5
326
330
B
100
AcDbEntity
 67
     1
  8
1
  6
Continuous
 62
    18
100
AcDbLine
 10
2.433961
 20
4.061319
 30
0.0
 11
2.431449999999999
 21
4.061319
 31
0.0
  0
LINE
  5
327
330
B
100
AcDbEntity
 67
     1
  8
1
  6
Continuous
 62
    18
100
AcDbLine
 10
2.339930999999999
 20
4.422873
 30
0.0
 11
2.32845
 21
4.434352999999999
 31
0.0
  0
LINE
  5
328
330
B
100
AcDbEntity
 67
     1
  8
1
  6
Continuous
 62
    18
100
AcDbLine
 10
2.37245
 20
4.434352999999999
 30
0.0
 11
2.32845
 21
4.434352999999999
 31
0.0
  0
LINE
  5
329
330
B
100
AcDbEntity
 67
     1
  8
1
  6
Continuous
 62
    18
100
AcDbLine
 10
5.123720999999999
 20
4.023560999999999
 30
0.0
 11
5.127742999999999
 21
4.008586
 31
0.0
  0
LINE
  5
32A
330
B
100
AcDbEntity
 67
     1
  8
1
  6
Continuous
 62
    18
100
AcDbLine
 10
2.471500999999999
 20
4.191984999999999
 30
0.0
 11
2.47445
 21
4.191984999999999
 31
0.0
  0
LINE
  5
32B
330
B
100
AcDbEntity
 67
     1
  8
1
  6
Continuous
 62
    18
100
AcDbLine
 10
4.427651999999999
 20
4.016919
 30
0.0
 11
4.437653
 21
4.016919
 31
0.0
  0
LINE
  5
32C
330
B
100
AcDbEntity
 67
     1
  8
1
  6
Continuous
 62
    18
100
AcDbLine
 10
2.577944
 20
4.326787999999999
 30
0.0
 11
2.586956999999999
 21
4.326787999999999
 31
0.0
  0
LINE
  5
32D
330
B
100
AcDbEntity
 67
     1
  8
1
  6
Continuous
 62
    18
100
AcDbLine
 10
4.958366
 20
4.517867999999999
 30
0.0
 11
4.958389
 21
4.518146999999999
 31
0.0
  0
LINE
  5
32E
330
B
100
AcDbEntity
 67
     1
  8
1
  6
Continuous
 62
    18
100
AcDbLine
 10
2.63445
 20
4.191984999999999
 30
0.0
 11
2.631500999999999
 21
4.191984999999999
 31
0.0
  0
LINE
  5
32F
330
B
100
AcDbEntity
 67
     1
  8
1
  6
Continuous
 62
    18
100
AcDbLine
 10
5.703135999999999
 20
3.814187
 30
0.0
 11
5.365403999999999
 21
3.808291999999999
 31
0.0
  0
LINE
  5
330
330
B
100
AcDbEntity
 67
     1
  8
1
  6
Continuous
 62
    18
100
AcDbLine
 10
2.565377999999999
 20
4.321787999999999
 30
0.0
 11
2.567445999999999
 21
4.321787999999999
 31
0.0
  0
LINE
  5
331
330
B
100
AcDbEntity
 67
     1
  8
1
  6
Continuous
 62
    18
100
AcDbLine
 10
5.797820999999999
 20
3.833779
 30
0.0
 11
5.787644
 21
3.839163999999999
 31
0.0
  0
LINE
  5
332
330
B
100
AcDbEntity
 67
     1
  8
1
  6
Continuous
 62
    18
100
AcDbLine
 10
2.493450999999999
 20
4.191984999999999
 30
0.0
 11
2.49045
 21
4.191984999999999
 31
0.0
  0
LINE
  5
333
330
B
100
AcDbEntity
 67
     1
  8
1
  6
Continuous
 62
    18
100
AcDbLine
 10
2.387448
 20
3.937725
 30
0.0
 11
2.376843
 21
3.933332
 31
0.0
  0
LINE
  5
334
330
B
100
AcDbEntity
 67
     1
  8
1
  6
Continuous
 62
    18
100
AcDbLine
 10
2.574729999999999
 20
4.315752999999999
 30
0.0
 11
2.574729999999999
 21
4.323822999999999
 31
0.0
  0
LINE
  5
335
330
B
100
AcDbEntity
 67
     1
  8
1
  6
Continuous
 62
    18
100
AcDbLine
 10
5.667310999999999
 20
4.348799999999999
 30
0.0
 11
5.667310999999999
 21
4.360114
 31
0.0
  0
LINE
  5
336
330
B
100
AcDbEntity
 67
     1
  8
1
  6
Continuous
 62
    18
100
AcDbLine
 10
5.939237999999999
 20
4.366522999999999
 30
0.0
 11
5.938798999999999
 21
4.367129
 31
0.0
  0
LINE
  5
337
330
B
100
AcDbEntity
 67
     1
  8
1
  6
Continuous
 62
    18
100
AcDbLine
 10
2.330451
 20
4.191984999999999
 30
0.0
 11
2.330451
 21
4.093257
 31
0.0
  0
LINE
  5
338
330
B
100
AcDbEntity
 67
     1
  8
1
  6
Continuous
 62
    18
100
AcDbLine
 10
5.224153
 20
4.35911
 30
0.0
 11
5.227941999999999
 21
4.348758
 31
0.0
  0
LINE
  5
339
330
B
100
AcDbEntity
 67
     1
  8
1
  6
Continuous
 62
    18
100
AcDbLine
 10
2.58245
 20
4.319787999999999
 30
0.0
 11
2.574972999999999
 21
4.324105
 31
0.0
  0
LINE
  5
33A
330
B
100
AcDbEntity
 67
     1
  8
1
  6
Continuous
 62
    18
100
AcDbLine
 10
2.43445
 20
4.191984999999999
 30
0.0
 11
2.43445
 21
4.093257
 31
0.0
  0
LINE
  5
33B
330
B
100
AcDbEntity
 67
     1
  8
1
  6
Continuous
 62
    18
100
AcDbLine
 10
2.590170999999999
 20
4.323822999999999
 30
0.0
 11
2.590170999999999
 21
4.315752999999999
 31
0.0
  0
LINE
  5
33C
330
B
100
AcDbEntity
 67
     1
  8
1
  6
Continuous
 62
    18
100
AcDbLine
 10
5.736848999999999
 20
4.40946
 30
0.0
 11
5.729516
 21
4.409448999999999
 31
0.0
  0
LINE
  5
33D
330
B
100
AcDbEntity
 67
     1
  8
1
  6
Continuous
 62
    18
100
AcDbLine
 10
2.719234
 20
4.067069999999999
 30
0.0
 11
2.725737
 21
4.060566
 31
0.0
  0
LINE
  5
33E
330
B
100
AcDbEntity
 67
     1
  8
1
  6
Continuous
 62
    18
100
AcDbLine
 10
5.939516
 20
4.32256
 30
0.0
 11
5.939516
 21
4.303995999999999
 31
0.0
  0
LINE
  5
33F
330
B
100
AcDbEntity
 67
     1
  8
1
  6
Continuous
 62
    18
100
AcDbLine
 10
2.589795
 20
4.325298
 30
0.0
 11
2.589928
 21
4.324105
 31
0.0
  0
LINE
  5
340
330
B
100
AcDbEntity
 67
     1
  8
1
  6
Continuous
 62
    18
100
AcDbLine
 10
2.597455
 20
4.317788
 30
0.0
 11
2.591318
 21
4.317788
 31
0.0
  0
LINE
  5
341
330
B
100
AcDbEntity
 67
     1
  8
1
  6
Continuous
 62
    18
100
AcDbLine
 10
2.606450999999999
 20
4.338352999999999
 30
0.0
 11
2.608734
 21
4.340637
 31
0.0
  0
LINE
  5
342
330
B
100
AcDbEntity
 67
     1
  8
1
  6
Continuous
 62
    18
100
AcDbLine
 10
5.130233999999999
 20
4.306753999999999
 30
0.0
 11
5.130233999999999
 21
4.384473999999999
 31
0.0
  0
LINE
  5
343
330
B
100
AcDbEntity
 67
     1
  8
1
  6
Continuous
 62
    18
100
AcDbLine
 10
2.610450999999999
 20
4.191984999999999
 30
0.0
 11
2.610450999999999
 21
4.093257
 31
0.0
  0
LINE
  5
344
330
B
100
AcDbEntity
 67
     1
  8
1
  6
Continuous
 62
    18
100
AcDbLine
 10
4.437653
 20
4.447433
 30
0.0
 11
4.442565
 21
4.447519
 31
0.0
  0
LINE
  5
345
330
B
100
AcDbEntity
 67
     1
  8
1
  6
Continuous
 62
    18
100
AcDbLine
 10
5.74622
 20
4.412052
 30
0.0
 11
5.746216999999999
 21
4.411437999999999
 31
0.0
  0
LINE
  5
346
330
B
100
AcDbEntity
 67
     1
  8
1
  6
Continuous
 62
    18
100
AcDbLine
 10
5.762772
 20
3.814292
 30
0.0
 11
5.787644
 21
3.839163999999999
 31
0.0
  0
LINE
  5
347
330
B
100
AcDbEntity
 67
     1
  8
1
  6
Continuous
 62
    18
100
AcDbLine
 10
2.576888
 20
4.326673999999999
 30
0.0
 11
2.577684999999999
 21
4.326781999999999
 31
0.0
  0
LINE
  5
348
330
B
100
AcDbEntity
 67
     1
  8
1
  6
Continuous
 62
    18
100
AcDbLine
 10
2.62497
 20
4.422873
 30
0.0
 11
2.636450999999999
 21
4.434352999999999
 31
0.0
  0
LINE
  5
349
330
B
100
AcDbEntity
 67
     1
  8
1
  6
Continuous
 62
    18
100
AcDbLine
 10
2.784308
 20
3.808726
 30
0.0
 11
2.780802999999999
 21
3.808726
 31
0.0
  0
LINE
  5
34A
330
B
100
AcDbEntity
 67
     1
  8
1
  6
Continuous
 62
    18
100
AcDbLine
 10
5.755359999999999
 20
4.411387
 30
0.0
 11
5.755676999999999
 21
4.410764
 31
0.0
  0
LINE
  5
34B
330
B
100
AcDbEntity
 67
     1
  8
1
  6
Continuous
 62
    18
100
AcDbLine
 10
2.250243
 20
4.106887
 30
0.0
 11
2.250243
 21
4.093257
 31
0.0
  0
LINE
  5
34C
330
B
100
AcDbEntity
 67
     1
  8
1
  6
Continuous
 62
    18
100
AcDbLine
 10
5.757516
 20
4.369106999999999
 30
0.0
 11
5.757516
 21
4.370263999999999
 31
0.0
  0
LINE
  5
34D
330
B
100
AcDbEntity
 67
     1
  8
1
  6
Continuous
 62
    18
100
AcDbLine
 10
2.388688999999999
 20
4.326438999999999
 30
0.0
 11
2.388012999999999
 21
4.326673999999999
 31
0.0
  0
LINE
  5
34E
330
B
100
AcDbEntity
 67
     1
  8
1
  6
Continuous
 62
    18
100
AcDbLine
 10
5.817822
 20
4.327374999999999
 30
0.0
 11
5.939516
 21
4.32925
 31
0.0
  0
LINE
  5
34F
330
B
100
AcDbEntity
 67
     1
  8
1
  6
Continuous
 62
    18
100
AcDbLine
 10
2.170094999999999
 20
4.523582
 30
0.0
 11
2.170094999999999
 21
4.523505
 31
0.0
  0
LINE
  5
350
330
B
100
AcDbEntity
 67
     1
  8
1
  6
Continuous
 62
    18
100
AcDbLine
 10
2.358449999999999
 20
4.404352999999999
 30
0.0
 11
2.402450999999999
 21
4.404352999999999
 31
0.0
  0
LINE
  5
351
330
B
100
AcDbEntity
 67
     1
  8
1
  6
Continuous
 62
    18
100
AcDbLine
 10
2.32845
 20
4.368352999999999
 30
0.0
 11
2.21795
 21
4.368352999999999
 31
0.0
  0
LINE
  5
352
330
B
100
AcDbEntity
 67
     1
  8
1
  6
Continuous
 62
    18
100
AcDbLine
 10
2.794806
 20
3.808726
 30
0.0
 11
2.794806
 21
4.523505
 31
0.0
  0
LINE
  5
353
330
B
100
AcDbEntity
 67
     1
  8
1
  6
Continuous
 62
    18
100
AcDbLine
 10
5.754226
 20
4.412493
 30
0.0
 11
5.753753999999999
 21
4.412736999999999
 31
0.0
  0
LINE
  5
354
330
B
100
AcDbEntity
 67
     1
  8
1
  6
Continuous
 62
    18
100
AcDbLine
 10
2.391318
 20
4.317788
 30
0.0
 11
2.391294999999999
 21
4.317725
 31
0.0
  0
LINE
  5
355
330
B
100
AcDbEntity
 67
     1
  8
1
  6
Continuous
 62
    18
100
AcDbLine
 10
5.621194
 20
4.364733
 30
0.0
 11
5.652512
 21
4.364779
 31
0.0
  0
LINE
  5
356
330
B
100
AcDbEntity
 67
     1
  8
1
  6
Continuous
 62
    18
100
AcDbLine
 10
2.260205
 20
4.069352999999999
 30
0.0
 11
2.260205
 21
4.089498999999999
 31
0.0
  0
LINE
  5
357
330
B
100
AcDbEntity
 67
     1
  8
1
  6
Continuous
 62
    18
100
AcDbLine
 10
2.71695
 20
4.069352999999999
 30
0.0
 11
2.71695
 21
4.338352999999999
 31
0.0
  0
LINE
  5
358
330
B
100
AcDbEntity
 67
     1
  8
1
  6
Continuous
 62
    18
100
AcDbLine
 10
5.838122
 20
4.036466
 30
0.0
 11
5.801966999999999
 21
3.831419
 31
0.0
  0
LINE
  5
359
330
B
100
AcDbEntity
 67
     1
  8
1
  6
Continuous
 62
    18
100
AcDbLine
 10
5.833631999999999
 20
4.036893
 30
0.0
 11
5.822680999999999
 21
4.037866
 31
0.0
  0
LINE
  5
35A
330
B
100
AcDbEntity
 67
     1
  8
1
  6
Continuous
 62
    18
100
AcDbLine
 10
5.703135999999999
 20
3.840630999999999
 30
0.0
 11
5.678136
 21
3.855064
 31
0.0
  0
LINE
  5
35B
330
B
100
AcDbEntity
 67
     1
  8
1
  6
Continuous
 62
    18
100
AcDbLine
 10
2.370449999999999
 20
4.089498999999999
 30
0.0
 11
2.370995
 21
4.058301
 31
0.0
  0
LINE
  5
35C
330
B
100
AcDbEntity
 67
     1
  8
1
  6
Continuous
 62
    18
100
AcDbLine
 10
2.387334999999999
 20
4.313800999999999
 30
0.0
 11
2.388708
 21
4.314487
 31
0.0
  0
LINE
  5
35D
330
B
100
AcDbEntity
 67
     1
  8
1
  6
Continuous
 62
    18
100
AcDbLine
 10
5.652573
 20
4.340620999999999
 30
0.0
 11
5.652512
 21
4.340620999999999
 31
0.0
  0
LINE
  5
35E
330
B
100
AcDbEntity
 67
     1
  8
1
  6
Continuous
 62
    18
100
AcDbLine
 10
2.795122
 20
4.402048
 30
0.0
 11
2.794806
 21
4.412659999999999
 31
0.0
  0
LINE
  5
35F
330
B
100
AcDbEntity
 67
     1
  8
1
  6
Continuous
 62
    18
100
AcDbLine
 10
5.939516
 20
4.357319
 30
0.0
 11
5.939516
 21
4.357249999999999
 31
0.0
  0
LINE
  5
360
330
B
100
AcDbEntity
 67
     1
  8
1
  6
Continuous
 62
    18
100
AcDbLine
 10
2.375183
 20
4.315258999999999
 30
0.0
 11
2.377136999999999
 21
4.313983999999999
 31
0.0
  0
LINE
  5
361
330
B
100
AcDbEntity
 67
     1
  8
1
  6
Continuous
 62
    18
100
AcDbLine
 10
5.937058999999999
 20
4.283184999999999
 30
0.0
 11
5.939516
 21
4.285683999999999
 31
0.0
  0
LINE
  5
362
330
B
100
AcDbEntity
 67
     1
  8
1
  6
Continuous
 62
    18
100
AcDbLine
 10
2.45045
 20
4.089498999999999
 30
0.0
 11
2.434452999999999
 21
4.089498999999999
 31
0.0
  0
LINE
  5
363
330
B
100
AcDbEntity
 67
     1
  8
1
  6
Continuous
 62
    18
100
AcDbLine
 10
2.606450999999999
 20
4.298352999999999
 30
0.0
 11
2.606450999999999
 21
4.338352999999999
 31
0.0
  0
LINE
  5
364
330
B
100
AcDbEntity
 67
     1
  8
1
  6
Continuous
 62
    18
100
AcDbLine
 10
5.673604
 20
4.412148
 30
0.0
 11
5.674269999999999
 21
4.412164999999999
 31
0.0
  0
LINE
  5
365
330
B
100
AcDbEntity
 67
     1
  8
1
  6
Continuous
 62
    18
100
AcDbLine
 10
2.554453
 20
4.089498999999999
 30
0.0
 11
2.553908
 21
4.058301
 31
0.0
  0
LINE
  5
366
330
B
100
AcDbEntity
 67
     1
  8
1
  6
Continuous
 62
    18
100
AcDbLine
 10
2.789807
 20
4.528582
 30
0.0
 11
2.48245
 21
4.528582
 31
0.0
  0
LINE
  5
367
330
B
100
AcDbEntity
 67
     1
  8
1
  6
Continuous
 62
    18
100
AcDbLine
 10
5.773755
 20
4.412454
 30
0.0
 11
5.804777999999999
 21
4.411641
 31
0.0
  0
ARC
  5
368
330
B
100
AcDbEntity
 67
     1
  8
1
  6
Continuous
 62
    18
100
AcDbCircle
 10
2.73945
 20
4.027352999999999
 30
0.0
 40
0.008
100
AcDbArc
 50
270.0
 51
360.0
  0
ARC
  5
369
330
B
100
AcDbEntity
 67
     1
  8
1
  6
Continuous
 62
    18
100
AcDbCircle
 10
5.797762999999999
 20
4.348991
 30
0.0
 40
0.016
100
AcDbArc
 50
10.0
 51
90.083526
  0
ARC
  5
36A
330
B
100
AcDbEntity
 67
     1
  8
1
  6
Continuous
 62
    18
100
AcDbCircle
 10
5.804516
 20
4.401644999999999
 30
0.0
 40
0.01
100
AcDbArc
 50
0.0
 51
88.49999999999999
  0
CIRCLE
  5
36B
330
B
100
AcDbEntity
 67
     1
  8
1
  6
Continuous
 62
    18
100
AcDbCircle
 10
2.58245
 20
4.319787999999999
 30
0.0
 40
0.0135
  0
CIRCLE
  5
36C
330
B
100
AcDbEntity
 67
     1
  8
1
  6
Continuous
 62
    18
100
AcDbCircle
 10
2.382449999999999
 20
4.319787999999999
 30
0.0
 40
0.0135
  0
ARC
  5
36D
330
B
100
AcDbEntity
 67
     1
  8
1
  6
Continuous
 62
    18
100
AcDbCircle
 10
2.217449999999999
 20
4.211459999999999
 30
0.0
 40
0.031
100
AcDbArc
 50
349.696346
 51
370.303654
  0
ARC
  5
36E
330
B
100
AcDbEntity
 67
     1
  8
1
  6
Continuous
 62
    18
100
AcDbCircle
 10
2.74745
 20
4.211459999999999
 30
0.0
 40
0.031
100
AcDbArc
 50
169.696346
 51
190.303654
  0
ARC
  5
36F
330
B
100
AcDbEntity
 67
     1
  8
1
  6
Continuous
 62
    18
100
AcDbCircle
 10
2.225450999999999
 20
4.027352999999999
 30
0.0
 40
0.008
100
AcDbArc
 50
180.0
 51
270.0
  0
ENDSEC
  0
SECTION
  2
OBJECTS
  0
DICTIONARY
  5
19
330
0
100
AcDbDictionary
281
     1
  3
ACAD_COLOR
350
39A
  3
ACAD_GROUP
350
1A
  3
ACAD_LAYOUT
350
1E
  3
ACAD_MATERIAL
350
385
  3
ACAD_MLINESTYLE
350
1B
  3
ACAD_PLOTSETTINGS
350
22
  3
ACAD_PLOTSTYLENAME
350
1F
  3
ACAD_TABLESTYLE
350
39B
  3
ACAD_VISUALSTYLE
350
389
  3
ACAD_WIPEOUT_VARS
350
23
  3
AcDbVariableDictionary
350
3A4
  3
ASE_INDEX_DICTIONARY
350
3A1
  3
DWGPROPS
350
3A9
  0
DICTIONARY
  5
3AE
330
32
100
AcDbDictionary
280
     1
281
     1
  3
ACAD_XREC_ROUNDTRIP
360
3AF
  0
DICTIONARY
  5
39A
102
{ACAD_REACTORS
330
19
102
}
330
19
100
AcDbDictionary
281
     1
  0
DICTIONARY
  5
1A
102
{ACAD_REACTORS
330
19
102
}
330
19
100
AcDbDictionary
281
     1
  0
DICTIONARY
  5
1E
102
{ACAD_REACTORS
330
19
102
}
330
19
100
AcDbDictionary
281
     1
  3
DRAWING2
350
370
  3
Layout1
350
21
  3
Model
350
20
  0
DICTIONARY
  5
385
102
{ACAD_REACTORS
330
19
102
}
330
19
100
AcDbDictionary
281
     1
  3
ByBlock
350
387
  3
ByLayer
350
386
  3
Global
350
388
  0
DICTIONARY
  5
1B
102
{ACAD_REACTORS
330
19
102
}
330
19
100
AcDbDictionary
281
     1
  3
Standard
350
1C
  0
DICTIONARY
  5
22
102
{ACAD_REACTORS
330
19
102
}
330
19
100
AcDbDictionary
281
     1
  0
ACDBDICTIONARYWDFLT
  5
1F
102
{ACAD_REACTORS
330
19
102
}
330
19
100
AcDbDictionary
281
     1
  3
Normal
350
1D
100
AcDbDictionaryWithDefault
340
1D
  0
DICTIONARY
  5
39B
102
{ACAD_REACTORS
330
19
102
}
330
19
100
AcDbDictionary
281
     1
  3
Standard
350
39C
  0
DICTIONARY
  5
389
102
{ACAD_REACTORS
330
19
102
}
330
19
100
AcDbDictionary
281
     1
  3
2dWireframe
350
38F
  3
3D Hidden
350
391
  3
3dWireframe
350
390
  3
Basic
350
38E
  3
Brighten
350
395
  3
ColorChange
350
399
  3
Conceptual
350
392
  3
Dim
350
394
  3
Facepattern
350
398
  3
Flat
350
38A
  3
FlatWithEdges
350
38B
  3
Gouraud
350
38C
  3
GouraudWithEdges
350
38D
  3
Linepattern
350
397
  3
Realistic
350
393
  3
Thicken
350
396
  0
WIPEOUTVARIABLES
  5
23
330
19
100
AcDbWipeoutVariables
 70
     1
  0
DICTIONARY
  5
3A4
102
{ACAD_REACTORS
330
19
102
}
330
19
100
AcDbDictionary
281
     1
  3
CTABLESTYLE
350
3A5
  3
DIMASSOC
350
3A8
  3
INDEXCTL
350
3A7
  3
SORTENTS
350
3A6
  0
DICTIONARY
  5
3A1
102
{ACAD_REACTORS
330
19
102
}
330
19
100
AcDbDictionary
281
     1
  3
ASEBlockHierarchyIndexRecord
350
3A3
1001
DCO15
1040
1689076971.572
  0
XRECORD
  5
3A9
102
{ACAD_REACTORS
330
19
102
}
330
19
100
AcDbXrecord
280
     1
  1
DWGPROPS COOKIE
  2

  3

  4

  6

  7

  8
bjn
  9

300
=
301
=
302
=
303
=
304
=
305
=
306
=
307
=
308
=
309
=
 40
0.0026279861111111
 41
2455352.711212002
 42
2455352.713837639
  1

 90
        0
  0
XRECORD
  5
3AF
102
{ACAD_REACTORS
330
3AE
102
}
330
3AE
100
AcDbXrecord
280
     1
102
SHADEPLOT
 70
     0
  0
LAYOUT
  5
370
102
{ACAD_XDICTIONARY
360
3B0
102
}
102
{ACAD_REACTORS
330
1E
102
}
330
1E
100
AcDbPlotSettings
  1

  2

  4

  6

 40
20.0
 41
20.0
 42
20.0
 43
20.0
 44
319.4
 45
255.9
 46
0.0
 47
0.0
 48
0.0
 49
0.0
140
319.4
141
255.9
142
1.0
143
1.0
 70
     0
 72
     0
 73
     0
 74
     1
  7

 75
     0
147
1.0
148
0.0
149
0.0
100
AcDbLayout
  1
DRAWING2
 70
     0
 71
     2
 10
0.0
 20
0.0
 11
11.0
 21
8.5
 12
0.0
 22
0.0
 32
0.0
 14
0.0
 24
0.0
 34
0.0
 15
11.0
 25
8.5
 35
0.0
146
0.0
 13
0.0
 23
0.0
 33
0.0
 16
0.0
 26
0.0
 36
0.0
 17
0.0
 27
0.0
 37
0.0
 76
     0
330
B
331
32
  0
LAYOUT
  5
21
102
{ACAD_XDICTIONARY
360
3AC
102
}
102
{ACAD_REACTORS
330
1E
102
}
330
1E
100
AcDbPlotSettings
  1

  2
none_device
  4
Letter_(8.50_x_11.00_Inches)
  6

 40
6.349999904632568
 41
6.349999904632568
 42
6.350006103515625
 43
6.350006103515625
 44
215.8999938964844
 45
279.3999938964844
 46
0.0
 47
0.0
 48
0.0
 49
0.0
140
0.0
141
0.0
142
1.0
143
0.3590574873145723
 70
    16
 72
     0
 73
     1
 74
     1
  7

 75
     0
147
2.785069342180001
148
-55.10574569311657
149
-96.47240666520364
100
AcDbLayout
  1
Layout1
 70
     0
 71
     1
 10
2.079753088864411
 20
3.708361876181043
 11
6.029385363044668
 21
6.760350432074869
 12
0.0
 22
0.0
 32
0.0
 14
2.169517546973093
 24
3.79812624666156
 34
-0.0004043445228632
 15
5.939620992564151
 25
4.528717057347201
 35
0.0000152657740013
146
0.0
 13
0.0
 23
0.0
 33
0.0
 16
1.0
 26
0.0
 36
0.0
 17
0.0
 27
1.0
 37
0.0
 76
     0
330
B
331
32
1001
ACAD_PSEXT
1000
None
1000
None
1000
Not applicable
1000
The layout will not be plotted unless a new plotter configuration name is selected.
1070
     0
  0
LAYOUT
  5
20
102
{ACAD_XDICTIONARY
360
3AA
102
}
102
{ACAD_REACTORS
330
1E
102
}
330
1E
100
AcDbPlotSettings
  1

  2

  4

  6

 40
0.0
 41
0.0
 42
0.0
 43
0.0
 44
0.0
 45
0.0
 46
0.0
 47
0.0
 48
0.0
 49
0.0
140
0.0
141
0.0
142
1.0
143
1.0
 70
  1024
 72
     0
 73
     0
 74
     0
  7

 75
     0
147
1.0
148
0.0
149
0.0
100
AcDbLayout
  1
Model
 70
     0
 71
     0
 10
0.0
 20
0.0
 11
0.0
 21
0.0
 12
0.0
 22
0.0
 32
0.0
 14
0.0
 24
0.0
 34
0.0
 15
0.0
 25
0.0
 35
0.0
146
0.0
 13
0.0
 23
0.0
 33
0.0
 16
0.0
 26
0.0
 36
0.0
 17
0.0
 27
0.0
 37
0.0
 76
     0
330
A
  0
MATERIAL
  5
387
102
{ACAD_XDICTIONARY
360
3B4
102
}
102
{ACAD_REACTORS
330
385
102
}
330
385
100
AcDbMaterial
  1
ByBlock
  0
MATERIAL
  5
386
102
{ACAD_XDICTIONARY
360
3B2
102
}
102
{ACAD_REACTORS
330
385
102
}
330
385
100
AcDbMaterial
  1
ByLayer
  0
MATERIAL
  5
388
102
{ACAD_XDICTIONARY
360
3B6
102
}
102
{ACAD_REACTORS
330
385
102
}
330
385
100
AcDbMaterial
  1
Global
  0
MLINESTYLE
  5
1C
102
{ACAD_REACTORS
330
1B
102
}
330
1B
100
AcDbMlineStyle
  2
STANDARD
 70
     0
  3

 62
     0
 51
90.0
 52
90.0
 71
     2
 49
0.5
 62
   256
  6
BYLAYER
 49
-0.5
 62
   256
  6
BYLAYER
  0
ACDBPLACEHOLDER
  5
1D
102
{ACAD_REACTORS
330
1F
102
}
330
1F
  0
TABLESTYLE
  5
39C
102
{ACAD_XDICTIONARY
360
3B8
102
}
102
{ACAD_REACTORS
330
39B
102
}
330
39B
100
AcDbTableStyle
  3
Standard
 70
     0
 71
     0
 40
0.06
 41
0.06
280
     0
281
     0
  7
Standard
140
0.18
170
     2
 62
     0
 63
     7
283
     0
274
    -2
284
     1
 64
     0
275
    -2
285
     1
 65
     0
276
    -2
286
     1
 66
     0
277
    -2
287
     1
 67
     0
278
    -2
288
     1
 68
     0
279
    -2
289
     1
 69
     0
  7
Standard
140
0.25
170
     5
 62
     0
 63
     7
283
     0
274
    -2
284
     1
 64
     0
275
    -2
285
     1
 65
     0
276
    -2
286
     1
 66
     0
277
    -2
287
     1
 67
     0
278
    -2
288
     1
 68
     0
279
    -2
289
     1
 69
     0
  7
Standard
140
0.18
170
     5
 62
     0
 63
     7
283
     0
274
    -2
284
     1
 64
     0
275
    -2
285
     1
 65
     0
276
    -2
286
     1
 66
     0
277
    -2
287
     1
 67
     0
278
    -2
288
     1
 68
     0
279
    -2
289
     1
 69
     0
  0
VISUALSTYLE
  5
38F
102
{ACAD_REACTORS
330
389
102
}
330
389
100
AcDbVisualStyle
  2
2dWireframe
 70
     4
 71
     0
 72
     2
 73
     0
 90
        0
 40
-0.6
 41
-30.0
 62
     5
 63
     7
 74
     1
 91
        4
 64
     7
 65
   257
 75
     1
175
     1
 42
1.0
 92
        0
 66
   257
 43
1.0
 76
     1
 77
     6
 78
     2
 67
     7
 79
     5
170
     0
171
     0
290
     0
174
     0
 93
        1
 44
0.0
173
     0
291
     0
 45
0.0
1001
ACAD
1000
AcDbSavedByObjectVersion
1070
     0
  0
VISUALSTYLE
  5
391
102
{ACAD_REACTORS
330
389
102
}
330
389
100
AcDbVisualStyle
  2
3D Hidden
 70
     6
 71
     1
 72
     2
 73
     2
 90
        0
 40
-0.6
 41
-30.0
 62
     5
 63
     7
 74
     2
 91
        2
 64
     7
 65
   257
 75
     2
175
     1
 42
40.0
 92
        0
 66
   257
 43
1.0
 76
     1
 77
     6
 78
     2
 67
     7
 79
     3
170
     0
171
     0
290
     0
174
     0
 93
        1
 44
0.0
173
     0
291
     0
 45
0.0
1001
ACAD
1000
AcDbSavedByObjectVersion
1070
     0
  0
VISUALSTYLE
  5
390
102
{ACAD_REACTORS
330
389
102
}
330
389
100
AcDbVisualStyle
  2
3dWireframe
 70
     5
 71
     0
 72
     2
 73
     0
 90
        0
 40
-0.6
 41
-30.0
 62
     5
 63
     7
 74
     1
 91
        4
 64
     7
 65
   257
 75
     1
175
     1
 42
1.0
 92
        0
 66
   257
 43
1.0
 76
     1
 77
     6
 78
     2
 67
     7
 79
     5
170
     0
171
     0
290
     0
174
     0
 93
        1
 44
0.0
173
     0
291
     0
 45
0.0
1001
ACAD
1000
AcDbSavedByObjectVersion
1070
     0
  0
VISUALSTYLE
  5
38E
102
{ACAD_REACTORS
330
389
102
}
330
389
100
AcDbVisualStyle
  2
Basic
 70
     7
 71
     1
 72
     0
 73
     1
 90
        0
 40
-0.6
 41
-30.0
 62
     5
 63
     7
 74
     0
 91
        4
 64
     7
 65
   257
 75
     1
175
     1
 42
1.0
 92
        8
 66
     7
 43
1.0
 76
     1
 77
     6
 78
     2
 67
     7
 79
     5
170
     0
171
     0
290
     0
174
     0
 93
        1
 44
0.0
173
     0
291
     1
 45
0.0
1001
ACAD
1000
AcDbSavedByObjectVersion
1070
     0
  0
VISUALSTYLE
  5
395
102
{ACAD_REACTORS
330
389
102
}
330
389
100
AcDbVisualStyle
  2
Brighten
 70
    12
 71
     2
 72
     2
 73
     0
 90
        0
 40
-0.6
 41
-30.0
 62
     5
 63
     7
 74
     1
 91
        4
 64
     7
 65
   257
 75
     1
175
     1
 42
1.0
 92
        8
 66
     7
 43
1.0
 76
     1
 77
     6
 78
     2
 67
     7
 79
     5
170
     0
171
     0
290
     0
174
     0
 93
        1
 44
50.0
173
     0
291
     1
 45
0.0
1001
ACAD
1000
AcDbSavedByObjectVersion
1070
     0
  0
VISUALSTYLE
  5
399
102
{ACAD_REACTORS
330
389
102
}
330
389
100
AcDbVisualStyle
  2
ColorChange
 70
    16
 71
     2
 72
     2
 73
     3
 90
        0
 40
-0.6
 41
-30.0
 62
     5
 63
     8
 74
     1
 91
        4
 64
     7
 65
   257
 75
     1
175
     1
 42
1.0
 92
        8
 66
     8
 43
1.0
 76
     1
 77
     6
 78
     2
 67
     7
 79
     5
170
     0
171
     0
290
     0
174
     0
 93
        1
 44
0.0
173
     0
291
     1
 45
0.0
1001
ACAD
1000
AcDbSavedByObjectVersion
1070
     0
  0
VISUALSTYLE
  5
392
102
{ACAD_REACTORS
330
389
102
}
330
389
100
AcDbVisualStyle
  2
Conceptual
 70
     9
 71
     3
 72
     2
 73
     0
 90
        0
 40
-0.6
 41
-30.0
 62
     5
 63
     7
 74
     2
 91
        2
 64
     7
 65
   257
 75
     1
175
     1
 42
40.0
 92
        8
 66
     7
 43
1.0
 76
     1
 77
     6
 78
     2
 67
     7
 79
     3
170
     0
171
     0
290
     0
174
     0
 93
        1
 44
0.0
173
     0
291
     0
 45
0.0
1001
ACAD
1000
AcDbSavedByObjectVersion
1070
     0
  0
VISUALSTYLE
  5
394
102
{ACAD_REACTORS
330
389
102
}
330
389
100
AcDbVisualStyle
  2
Dim
 70
    11
 71
     2
 72
     2
 73
     0
 90
        0
 40
-0.6
 41
-30.0
 62
     5
 63
     7
 74
     1
 91
        4
 64
     7
 65
   257
 75
     1
175
     1
 42
1.0
 92
        8
 66
     7
 43
1.0
 76
     1
 77
     6
 78
     2
 67
     7
 79
     5
170
     0
171
     0
290
     0
174
     0
 93
        1
 44
-50.0
173
     0
291
     1
 45
0.0
1001
ACAD
1000
AcDbSavedByObjectVersion
1070
     0
  0
VISUALSTYLE
  5
398
102
{ACAD_REACTORS
330
389
102
}
330
389
100
AcDbVisualStyle
  2
Facepattern
 70
    15
 71
     2
 72
     2
 73
     0
 90
        0
 40
-0.6
 41
-30.0
 62
     5
 63
     7
 74
     1
 91
        4
 64
     7
 65
   257
 75
     1
175
     1
 42
1.0
 92
        8
 66
     7
 43
1.0
 76
     1
 77
     6
 78
     2
 67
     7
 79
     5
170
     0
171
     0
290
     0
174
     0
 93
        1
 44
0.0
173
     0
291
     1
 45
0.0
1001
ACAD
1000
AcDbSavedByObjectVersion
1070
     0
  0
VISUALSTYLE
  5
38A
102
{ACAD_REACTORS
330
389
102
}
330
389
100
AcDbVisualStyle
  2
Flat
 70
     0
 71
     2
 72
     1
 73
     1
 90
        2
 40
-0.6
 41
30.0
 62
     5
 63
     7
 74
     0
 91
        4
 64
     7
 65
   257
 75
     1
175
     1
 42
1.0
 92
        8
 66
     7
 43
1.0
 76
     1
 77
     6
 78
     2
 67
     7
 79
     5
170
     0
171
     0
290
     0
174
     0
 93
       13
 44
0.0
173
     0
291
     1
 45
0.0
1001
ACAD
1000
AcDbSavedByObjectVersion
1070
     0
  0
VISUALSTYLE
  5
38B
102
{ACAD_REACTORS
330
389
102
}
330
389
100
AcDbVisualStyle
  2
FlatWithEdges
 70
     1
 71
     2
 72
     1
 73
     1
 90
        2
 40
-0.6
 41
30.0
 62
     5
 63
     7
 74
     1
 91
        4
 64
     7
 65
   257
 75
     1
175
     1
 42
1.0
 92
        0
 66
   257
 43
1.0
 76
     1
 77
     6
 78
     2
 67
     7
 79
     5
170
     0
171
     0
290
     0
174
     0
 93
       13
 44
0.0
173
     0
291
     1
 45
0.0
1001
ACAD
1000
AcDbSavedByObjectVersion
1070
     0
  0
VISUALSTYLE
  5
38C
102
{ACAD_REACTORS
330
389
102
}
330
389
100
AcDbVisualStyle
  2
Gouraud
 70
     2
 71
     2
 72
     2
 73
     1
 90
        2
 40
-0.6
 41
30.0
 62
     5
 63
     7
 74
     0
 91
        4
 64
     7
 65
   257
 75
     1
175
     1
 42
1.0
 92
        0
 66
     7
 43
1.0
 76
     1
 77
     6
 78
     2
 67
     7
 79
     5
170
     0
171
     0
290
     0
174
     0
 93
       13
 44
0.0
173
     0
291
     1
 45
0.0
1001
ACAD
1000
AcDbSavedByObjectVersion
1070
     0
  0
VISUALSTYLE
  5
38D
102
{ACAD_REACTORS
330
389
102
}
330
389
100
AcDbVisualStyle
  2
GouraudWithEdges
 70
     3
 71
     2
 72
     2
 73
     1
 90
        2
 40
-0.6
 41
30.0
 62
     5
 63
     7
 74
     1
 91
        4
 64
     7
 65
   257
 75
     1
175
     1
 42
1.0
 92
        0
 66
   257
 43
1.0
 76
     1
 77
     6
 78
     2
 67
     7
 79
     5
170
     0
171
     0
290
     0
174
     0
 93
       13
 44
0.0
173
     0
291
     1
 45
0.0
1001
ACAD
1000
AcDbSavedByObjectVersion
1070
     0
  0
VISUALSTYLE
  5
397
102
{ACAD_REACTORS
330
389
102
}
330
389
100
AcDbVisualStyle
  2
Linepattern
 70
    14
 71
     2
 72
     2
 73
     0
 90
        0
 40
-0.6
 41
-30.0
 62
     5
 63
     7
 74
     1
 91
        4
 64
     7
 65
   257
 75
     7
175
     7
 42
1.0
 92
        8
 66
     7
 43
1.0
 76
     1
 77
     6
 78
     2
 67
     7
 79
     5
170
     0
171
     0
290
     0
174
     0
 93
        1
 44
0.0
173
     0
291
     1
 45
0.0
1001
ACAD
1000
AcDbSavedByObjectVersion
1070
     0
  0
VISUALSTYLE
  5
393
102
{ACAD_REACTORS
330
389
102
}
330
389
100
AcDbVisualStyle
  2
Realistic
 70
     8
 71
     2
 72
     2
 73
     0
 90
        0
 40
-0.6
 41
-30.0
 62
     5
 63
     7
 74
     1
 91
        0
 64
     7
 65
   257
 75
     1
175
     1
 42
1.0
 92
        8
 66
     8
 43
1.0
 76
     1
 77
     6
 78
     2
 67
     7
 79
     5
170
     0
171
     0
290
     0
174
     0
 93
       13
 44
0.0
173
     0
291
     0
 45
0.0
1001
ACAD
1000
AcDbSavedByObjectVersion
1070
     0
  0
VISUALSTYLE
  5
396
102
{ACAD_REACTORS
330
389
102
}
330
389
100
AcDbVisualStyle
  2
Thicken
 70
    13
 71
     2
 72
     2
 73
     0
 90
        0
 40
-0.6
 41
-30.0
 62
     5
 63
     7
 74
     1
 91
        4
 64
     7
 65
   257
 75
     1
175
     1
 42
1.0
 92
       12
 66
     7
 43
1.0
 76
     1
 77
     6
 78
     2
 67
     7
 79
     5
170
     0
171
     0
290
     0
174
     0
 93
        1
 44
0.0
173
     0
291
     1
 45
0.0
1001
ACAD
1000
AcDbSavedByObjectVersion
1070
     0
  0
DICTIONARYVAR
  5
3A5
102
{ACAD_REACTORS
330
3A4
102
}
330
3A4
100
DictionaryVariables
280
     0
  1
STANDARD
  0
DICTIONARYVAR
  5
3A8
102
{ACAD_REACTORS
330
3A4
102
}
330
3A4
100
DictionaryVariables
280
     0
  1
1
  0
DICTIONARYVAR
  5
3A7
102
{ACAD_REACTORS
330
3A4
102
}
330
3A4
100
DictionaryVariables
280
     0
  1
0
  0
DICTIONARYVAR
  5
3A6
102
{ACAD_REACTORS
330
3A4
102
}
330
3A4
100
DictionaryVariables
280
     0
  1
127
  0
XRECORD
  5
3A3
102
{ACAD_REACTORS
330
3A1
102
}
330
3A1
100
AcDbXrecord
280
     1
  0
DICTIONARY
  5
3B0
330
370
100
AcDbDictionary
280
     1
281
     1
  3
ACAD_XREC_ROUNDTRIP
360
3B1
  0
DICTIONARY
  5
3AC
330
21
100
AcDbDictionary
280
     1
281
     1
  3
ACAD_XREC_ROUNDTRIP
360
3AD
  0
DICTIONARY
  5
3AA
330
20
100
AcDbDictionary
280
     1
281
     1
  3
ACAD_XREC_ROUNDTRIP
360
3AB
  0
DICTIONARY
  5
3B4
330
387
100
AcDbDictionary
280
     1
281
     1
  3
ACAD_XREC_ROUNDTRIP
360
3B5
  0
DICTIONARY
  5
3B2
330
386
100
AcDbDictionary
280
     1
281
     1
  3
ACAD_XREC_ROUNDTRIP
360
3B3
  0
DICTIONARY
  5
3B6
330
388
100
AcDbDictionary
280
     1
281
     1
  3
ACAD_XREC_ROUNDTRIP
360
3B7
  0
DICTIONARY
  5
3B8
330
39C
100
AcDbDictionary
280
     1
281
     1
  3
ACAD_XREC_ROUNDTRIP
360
3B9
  0
XRECORD
  5
3B1
102
{ACAD_REACTORS
330
3B0
102
}
330
3B0
100
AcDbXrecord
280
     1
102
SHADEPLOT
 70
     0
102
SHADEPLOTRESLEVEL
 70
     2
102
SHADEPLOTCUSTOMDPI
 70
   300
  0
XRECORD
  5
3AD
102
{ACAD_REACTORS
330
3AC
102
}
330
3AC
100
AcDbXrecord
280
     1
102
SHADEPLOT
 70
     0
102
SHADEPLOTRESLEVEL
 70
     2
102
SHADEPLOTCUSTOMDPI
 70
   300
  0
XRECORD
  5
3AB
102
{ACAD_REACTORS
330
3AA
102
}
330
3AA
100
AcDbXrecord
280
     1
102
SHADEPLOT
 70
     0
102
SHADEPLOTRESLEVEL
 70
     2
102
SHADEPLOTCUSTOMDPI
 70
   300
  0
XRECORD
  5
3B5
102
{ACAD_REACTORS
330
3B4
102
}
330
3B4
100
AcDbXrecord
280
     1
102
MATERIAL
148
0.0
149
0.0
149
0.0
 93
        0
 94
       63
282
     0
 72
     1
 77
     1
171
     1
175
     1
179
     1
273
     0
  0
XRECORD
  5
3B3
102
{ACAD_REACTORS
330
3B2
102
}
330
3B2
100
AcDbXrecord
280
     1
102
MATERIAL
148
0.0
149
0.0
149
0.0
 93
        0
 94
       63
282
     0
 72
     1
 77
     1
171
     1
175
     1
179
     1
273
     0
  0
XRECORD
  5
3B7
102
{ACAD_REACTORS
330
3B6
102
}
330
3B6
100
AcDbXrecord
280
     1
102
MATERIAL
148
0.0
149
0.0
149
0.0
 93
        0
 94
       63
282
     0
 72
     1
 77
     1
171
     1
175
     1
179
     1
273
     0
  0
XRECORD
  5
3B9
102
{ACAD_REACTORS
330
3B8
102
}
330
3B8
100
AcDbXrecord
280
     1
102
ACAD_ROUNDTRIP_PRE2007_TABLESTYLE
 90
      512
 91
        0
  1

 92
      512
 93
        0
  2

 94
      512
 95
        0
  3

  0
ENDSEC
  0
EOF
