  0
SECTION
  2
HEADER
  9
$ACADVER
  1
AC1015
  9
$ACADMAINTVER
 70
     6
  9
$DWGCODEPAGE
  3
ANSI_1252
  9
$INSBASE
 10
0.0
 20
0.0
 30
0.0
  9
$EXTMIN
 10
-0.5
 20
-0.5
 30
-0.5
  9
$EXTMAX
 10
5.0
 20
5.0
 30
5.0
  9
$LIMMIN
 10
-0.5
 20
-0.5
  9
$LIMMAX
 10
5.0
 20
5.0
  9
$ORTHOMODE
 70
     0
  9
$REGENMODE
 70
     1
  9
$FILLMODE
 70
     1
  9
$QTEXTMODE
 70
     0
  9
$MIRRTEXT
 70
     1
  9
$LTSCALE
 40
1.0
  9
$ATTMODE
 70
     1
  9
$TEXTSIZE
 40
0.2
  9
$TRACEWID
 40
0.05
  9
$TEXTSTYLE
  7
Standard
  9
$CLAYER
  8
0
  9
$CELTYPE
  6
Continuous
  9
$CECOLOR
 62
   256
  9
$CELTSCALE
 40
1.0
  9
$DISPSILH
 70
     0
  9
$DIMSCALE
 40
1.0
  9
$DIMASZ
 40
0.18
  9
$DIMEXO
 40
0.0625
  9
$DIMDLI
 40
0.38
  9
$DIMRND
 40
0.0
  9
$DIMDLE
 40
0.0
  9
$DIMEXE
 40
0.18
  9
$DIMTP
 40
0.0
  9
$DIMTM
 40
0.0
  9
$DIMTXT
 40
0.18
  9
$DIMCEN
 40
0.09
  9
$DIMTSZ
 40
0.0
  9
$DIMTOL
 70
     0
  9
$DIMLIM
 70
     0
  9
$DIMTIH
 70
     1
  9
$DIMTOH
 70
     1
  9
$DIMSE1
 70
     0
  9
$DIMSE2
 70
     0
  9
$DIMTAD
 70
     0
  9
$DIMZIN
 70
     0
  9
$DIMBLK
  1

  9
$DIMASO
 70
     1
  9
$DIMSHO
 70
     1
  9
$DIMPOST
  1

  9
$DIMAPOST
  1

  9
$DIMALT
 70
     0
  9
$DIMALTD
 70
     2
  9
$DIMALTF
 40
25.4
  9
$DIMLFAC
 40
1.0
  9
$DIMTOFL
 70
     0
  9
$DIMTVP
 40
0.0
  9
$DIMTIX
 70
     0
  9
$DIMSOXD
 70
     0
  9
$DIMSAH
 70
     0
  9
$DIMBLK1
  1

  9
$DIMBLK2
  1

  9
$DIMSTYLE
  2
Standard
  9
$DIMCLRD
 70
     0
  9
$DIMCLRE
 70
     0
  9
$DIMCLRT
 70
     0
  9
$DIMTFAC
 40
1.0
  9
$DIMGAP
 40
0.09
  9
$DIMJUST
 70
     0
  9
$DIMSD1
 70
     0
  9
$DIMSD2
 70
     0
  9
$DIMTOLJ
 70
     1
  9
$DIMTZIN
 70
     0
  9
$DIMALTZ
 70
     0
  9
$DIMALTTZ
 70
     0
  9
$DIMUPT
 70
     0
  9
$DIMDEC
 70
     4
  9
$DIMTDEC
 70
     4
  9
$DIMALTU
 70
     2
  9
$DIMALTTD
 70
     2
  9
$DIMTXSTY
  7
Standard
  9
$DIMAUNIT
 70
     0
  9
$DIMADEC
 70
     0
  9
$DIMALTRND
 40
0.0
  9
$DIMAZIN
 70
     0
  9
$DIMDSEP
 70
     0
  9
$DIMATFIT
 70
     3
  9
$DIMFRAC
 70
     0
  9
$DIMLDRBLK
  1

  9
$DIMLUNIT
 70
     2
  9
$DIMLWD
 70
     0
  9
$DIMLWE
 70
     0
  9
$DIMTMOVE
 70
     0
  9
$LUNITS
 70
     2
  9
$LUPREC
 70
     4
  9
$SKETCHINC
 40
0.1
  9
$FILLETRAD
 40
0.0
  9
$AUNITS
 70
     0
  9
$AUPREC
 70
     0
  9
$MENU
  1
acad
  9
$ELEVATION
 40
0.0
  9
$PELEVATION
 40
0.0
  9
$THICKNESS
 40
0.0
  9
$LIMCHECK
 70
     0
  9
$CHAMFERA
 40
0.0
  9
$CHAMFERB
 40
0.0
  9
$CHAMFERC
 40
0.0
  9
$CHAMFERD
 40
0.0
  9
$SKPOLY
 70
     0
  9
$TDCREATE
 40
0.000000000
  9
$TDUCREATE
 40
0.000000000
  9
$TDUPDATE
 40
0.000000000
  9
$TDUUPDATE
 40
0.000000000
  9
$TDINDWG
 40
0.0000000000
  9
$TDUSRTIMER
 40
0.0000000000
  9
$USRTIMER
 70
     1
  9
$ANGBASE
 50
0.0
  9
$ANGDIR
 70
     0
  9
$PDMODE
 70
     0
  9
$PDSIZE
 40
0.0
  9
$PLINEWID
 40
0.0
  9
$SPLFRAME
 70
     0
  9
$SPLINETYPE
 70
     6
  9
$SPLINESEGS
 70
     8
  9
$HANDSEED
  5
3A8
  9
$SURFTAB1
 70
     6
  9
$SURFTAB2
 70
     6
  9
$SURFTYPE
 70
     6
  9
$SURFU
 70
     6
  9
$SURFV
 70
     6
  9
$UCSBASE
  2

  9
$UCSNAME
  2

  9
$UCSORG
 10
0.0
 20
0.0
 30
0.0
  9
$UCSXDIR
 10
1.0
 20
0.0
 30
0.0
  9
$UCSYDIR
 10
0.0
 20
1.0
 30
0.0
  9
$UCSORTHOREF
  2

  9
$UCSORTHOVIEW
 70
     0
  9
$UCSORGTOP
 10
0.0
 20
0.0
 30
0.0
  9
$UCSORGBOTTOM
 10
0.0
 20
0.0
 30
0.0
  9
$UCSORGLEFT
 10
0.0
 20
0.0
 30
0.0
  9
$UCSORGRIGHT
 10
0.0
 20
0.0
 30
0.0
  9
$UCSORGFRONT
 10
0.0
 20
0.0
 30
0.0
  9
$UCSORGBACK
 10
0.0
 20
0.0
 30
0.0
  9
$PUCSBASE
  2

  9
$PUCSNAME
  2

  9
$PUCSORG
 10
0.0
 20
0.0
 30
0.0
  9
$PUCSXDIR
 10
1.0
 20
0.0
 30
0.0
  9
$PUCSYDIR
 10
0.0
 20
1.0
 30
0.0
  9
$PUCSORTHOREF
  2

  9
$PUCSORTHOVIEW
 70
     0
  9
$PUCSORGTOP
 10
0.0
 20
0.0
 30
0.0
  9
$PUCSORGBOTTOM
 10
0.0
 20
0.0
 30
0.0
  9
$PUCSORGLEFT
 10
0.0
 20
0.0
 30
0.0
  9
$PUCSORGRIGHT
 10
0.0
 20
0.0
 30
0.0
  9
$PUCSORGFRONT
 10
0.0
 20
0.0
 30
0.0
  9
$PUCSORGBACK
 10
0.0
 20
0.0
 30
0.0
  9
$USERI1
 70
     0
  9
$USERI2
 70
     0
  9
$USERI3
 70
     0
  9
$USERI4
 70
     0
  9
$USERI5
 70
     0
  9
$USERR1
 40
0.0
  9
$USERR2
 40
0.0
  9
$USERR3
 40
0.0
  9
$USERR4
 40
0.0
  9
$USERR5
 40
0.0
  9
$WORLDVIEW
 70
     1
  9
$SHADEDGE
 70
     3
  9
$SHADEDIF
 70
    70
  9
$TILEMODE
 70
     0
  9
$MAXACTVP
 70
    16
  9
$PINSBASE
 10
0.0
 20
0.0
 30
0.0
  9
$PLIMCHECK
 70
     0
  9
$PEXTMIN
 10
-0.5
 20
-0.5
 30
-0.5
  9
$PEXTMAX
 10
17.339996
 20
11.219986
 30
5.0
  9
$PLIMMIN
 10
-0.5
 20
-0.5
  9
$PLIMMAX
 10
17.339996
 20
11.219986
  9
$UNITMODE
 70
     0
  9
$VISRETAIN
 70
     0
  9
$PLINEGEN
 70
     1
  9
$PSLTSCALE
 70
     0
  9
$TREEDEPTH
 70
  3020
  9
$CMLSTYLE
  2
Standard
  9
$CMLJUST
 70
     0
  9
$CMLSCALE
 40
1.0
  9
$PROXYGRAPHICS
 70
     0
  9
$MEASUREMENT
 70
     0
  9
$CELWEIGHT
370
     0
  9
$ENDCAPS
280
     0
  9
$JOINSTYLE
280
     0
  9
$LWDISPLAY
290
     0
  9
$INSUNITS
 70
     0
  9
$HYPERLINKBASE
  1

  9
$XEDIT
290
     1
  9
$CEPSNTYPE
380
     0
  9
$PSTYLEMODE
290
     1
  9
$FINGERPRINTGUID
  2

  9
$VERSIONGUID
  2

  9
$EXTNAMES
290
     1
  9
$PSVPSCALE
 40
0.0
  0
ENDSEC
  0
SECTION
  2
CLASSES
  0
CLASS
  1
LWPOLYLINE
  2
AcDbPolyline
  3
"AutoCAD"
 90
        0
280
     0
281
     1
  0
CLASS
  1
IMAGE
  2
AcDbRasterImage
  3
ISM
 90
      127
280
     0
281
     1
  0
CLASS
  1
OLE2FRAME
  2
AcDbOle2Frame
  3
""
 90
        0
280
     0
281
     1
  0
CLASS
  1
HATCH
  2
AcDbHatch
  3
"ACAD_SEDONA"
 90
        0
280
     0
281
     1
  0
CLASS
  1
DICTIONARYVAR
  2
AcDbDictionaryVar
  3
"AutoCAD"
 90
        0
280
     0
281
     0
  0
CLASS
  1
RASTERVARIABLES
  2
AcDbRasterVariables
  3
ISM
 90
        0
280
     0
281
     0
  0
CLASS
  1
IMAGEDEF
  2
AcDbRasterImageDef
  3
ISM
 90
        0
280
     0
281
     0
  0
CLASS
  1
IMAGEDEF_REACTOR
  2
AcDbRasterImageDefReactor
  3
ISM
 90
        1
280
     0
281
     0
  0
CLASS
  1
IDBUFFER
  2
AcDbIdBuffer
  3
"Acad"
 90
        0
280
     0
281
     0
  0
CLASS
  1
SPATIAL_FILTER
  2
AcDbSpatialFilter
  3
"Acad"
 90
        0
280
     0
281
     0
  0
CLASS
  1
XRECORD
  2
AcDbXrecord
  3
"<Built In>"
 90
        0
280
     0
281
     0
  0
CLASS
  1
SORTENTSTABLE
  2
AcDbSortentsTable
  3
"AutoCAD"
 90
        0
280
     0
281
     0
  0
CLASS
  1
LAYER_INDEX
  2
AcDbLayerIndex
  3
"Acad"
 90
        0
280
     0
281
     0
  0
CLASS
  1
SPATIAL_INDEX
  2
AcDbSpatialIndex
  3
"Acad"
 90
        0
280
     0
281
     0
  0
CLASS
  1
OBJECT_PTR
  2
CAseDLPNTableRecord
  3
"ASE-LPNTableRecord"
 90
        1
280
     0
281
     0
  0
CLASS
  1
LAYOUT
  2
AcDbLayout
  3
"AutoCAD 2000"
 90
        1
280
     0
281
     0
  0
CLASS
  1
PLOTSETTINGS
  2
AcDbPlotSettings
  3
"AutoCAD 2000"
 90
        1
280
     0
281
     0
  0
CLASS
  1
ACDBDICTIONARYWDFLT
  2
AcDbDictionaryWithDefault
  3
"AutoCAD 2000"
 90
        1
280
     0
281
     0
  0
CLASS
  1
ACDBPLACEHOLDER
  2
AcDbPlaceHolder
  3
"AutoCAD 2000"
 90
        1
280
     0
281
     0
  0
CLASS
  1
VBA_PROJECT
  2
AcDbVbaProject
  3
"acadvba"
 90
        1
280
     0
281
     0
  0
CLASS
  1
RTEXT
  2
RText
  3
RText|AutoCAD Express Tool|expresstools@autodesk.com
 90
        0
280
     0
281
     1
  0
CLASS
  1
ARCALIGNEDTEXT
  2
AcDbArcAlignedText
  3
ATEXT|AutoCAD Express Tool|expresstools@autodesk.com
 90
        0
280
     0
281
     1
  0
ENDSEC
  0
SECTION
  2
TABLES
  0
TABLE
  2
VPORT
  5
7
100
AcDbSymbolTable
 70
    16
  0
VPORT
  5
398
100
AcDbSymbolTableRecord
100
AcDbViewportTableRecord
  2
*ACTIVE
 70
     0
 10
0.0
 20
0.0
 11
1.0
 21
1.0
 12
0.0
 22
0.0
 13
0.0
 23
0.0
 14
1.0
 24
1.0
 15
0.0
 25
0.0
 16
0.0
 26
0.0
 36
1.0
 17
0.0
 27
0.0
 37
0.0
 40
9.896346
 41
0.688564
 42
50.0
 43
27.661251
 44
-27.661251
 50
0.0
 51
0.0
 71
    16
 72
   100
 73
     1
 74
     1
 75
     0
 76
     0
 77
     0
 78
     0
281
     0
 65
     0
110
0.0
120
0.0
130
0.0
111
1.0
121
0.0
131
0.0
112
0.0
122
1.0
132
0.0
345
0
346
0
 79
     0
146
0.0
  0
VPORT
  5
399
100
AcDbSymbolTableRecord
100
AcDbViewportTableRecord
  2
L1
 70
     0
 10
0.0
 20
0.0
 11
1.0
 21
1.0
 12
0.0
 22
0.0
 13
0.0
 23
0.0
 14
1.0
 24
1.0
 15
0.0
 25
0.0
 16
0.0
 26
0.0
 36
1.0
 17
0.0
 27
0.0
 37
0.0
 40
9.896346
 41
0.688564
 42
50.0
 43
27.661251
 44
-27.661251
 50
0.0
 51
0.0
 71
    16
 72
   100
 73
     1
 74
     1
 75
     0
 76
     0
 77
     0
 78
     0
281
     0
 65
     0
110
0.0
120
0.0
130
0.0
111
1.0
121
0.0
131
0.0
112
0.0
122
1.0
132
0.0
345
0
346
0
 79
     0
146
0.0
  0
VPORT
  5
39A
100
AcDbSymbolTableRecord
100
AcDbViewportTableRecord
  2
L2
 70
     0
 10
0.0
 20
0.0
 11
0.5
 21
1.0
 12
0.0
 22
0.0
 13
0.0
 23
0.0
 14
1.0
 24
1.0
 15
0.0
 25
0.0
 16
0.0
 26
-1.0
 36
0.0
 17
0.0
 27
0.0
 37
0.0
 40
55.322503
 41
0.688564
 42
50.0
 43
28.305337
 44
-28.305337
 50
0.0
 51
0.0
 71
    16
 72
   100
 73
     1
 74
     1
 75
     0
 76
     0
 77
     0
 78
     0
281
     0
 65
     0
110
0.0
120
0.0
130
0.0
111
1.0
121
0.0
131
0.0
112
0.0
122
1.0
132
0.0
345
0
346
0
 79
     0
146
0.0
  0
VPORT
  5
39B
100
AcDbSymbolTableRecord
100
AcDbViewportTableRecord
  2
L2
 70
     0
 10
0.5
 20
0.0
 11
1.0
 21
1.0
 12
0.0
 22
0.0
 13
0.0
 23
0.0
 14
1.0
 24
1.0
 15
0.0
 25
0.0
 16
1.0
 26
0.0
 36
0.0
 17
0.0
 27
0.0
 37
0.0
 40
55.322503
 41
0.688564
 42
50.0
 43
28.100342
 44
-28.100342
 50
0.0
 51
0.0
 71
    16
 72
   100
 73
     1
 74
     1
 75
     0
 76
     0
 77
     0
 78
     0
281
     0
 65
     0
110
0.0
120
0.0
130
0.0
111
1.0
121
0.0
131
0.0
112
0.0
122
1.0
132
0.0
345
0
346
0
 79
     0
146
0.0
  0
VPORT
  5
39C
100
AcDbSymbolTableRecord
100
AcDbViewportTableRecord
  2
L3
 70
     0
 10
0.0
 20
0.5
 11
1.0
 21
1.0
 12
0.0
 22
0.0
 13
0.0
 23
0.0
 14
1.0
 24
1.0
 15
0.0
 25
0.0
 16
0.0
 26
0.0
 36
1.0
 17
0.0
 27
0.0
 37
0.0
 40
9.896346
 41
0.688564
 42
50.0
 43
27.661251
 44
-27.661251
 50
0.0
 51
0.0
 71
    16
 72
   100
 73
     1
 74
     1
 75
     0
 76
     0
 77
     0
 78
     0
281
     0
 65
     0
110
0.0
120
0.0
130
0.0
111
1.0
121
0.0
131
0.0
112
0.0
122
1.0
132
0.0
345
0
346
0
 79
     0
146
0.0
  0
VPORT
  5
39D
100
AcDbSymbolTableRecord
100
AcDbViewportTableRecord
  2
L3
 70
     0
 10
0.0
 20
0.0
 11
1.0
 21
0.5
 12
0.0
 22
0.0
 13
0.0
 23
0.0
 14
1.0
 24
1.0
 15
0.0
 25
0.0
 16
0.0
 26
-1.0
 36
0.0
 17
0.0
 27
0.0
 37
0.0
 40
55.322503
 41
0.688564
 42
50.0
 43
28.305337
 44
-28.305337
 50
0.0
 51
0.0
 71
    16
 72
   100
 73
     1
 74
     1
 75
     0
 76
     0
 77
     0
 78
     0
281
     0
 65
     0
110
0.0
120
0.0
130
0.0
111
1.0
121
0.0
131
0.0
112
0.0
122
1.0
132
0.0
345
0
346
0
 79
     0
146
0.0
  0
VPORT
  5
39E
100
AcDbSymbolTableRecord
100
AcDbViewportTableRecord
  2
L4
 70
     0
 10
0.0
 20
0.5
 11
0.5
 21
1.0
 12
0.0
 22
0.0
 13
0.0
 23
0.0
 14
1.0
 24
1.0
 15
0.0
 25
0.0
 16
0.0
 26
0.0
 36
1.0
 17
0.0
 27
0.0
 37
0.0
 40
9.896346
 41
0.688564
 42
50.0
 43
27.661251
 44
-27.661251
 50
0.0
 51
0.0
 71
    16
 72
   100
 73
     1
 74
     1
 75
     0
 76
     0
 77
     0
 78
     0
281
     0
 65
     0
110
0.0
120
0.0
130
0.0
111
1.0
121
0.0
131
0.0
112
0.0
122
1.0
132
0.0
345
0
346
0
 79
     0
146
0.0
  0
VPORT
  5
39F
100
AcDbSymbolTableRecord
100
AcDbViewportTableRecord
  2
L4
 70
     0
 10
0.0
 20
0.0
 11
0.5
 21
0.5
 12
0.0
 22
0.0
 13
0.0
 23
0.0
 14
1.0
 24
1.0
 15
0.0
 25
0.0
 16
0.0
 26
-1.0
 36
0.0
 17
0.0
 27
0.0
 37
0.0
 40
55.322503
 41
0.688564
 42
50.0
 43
28.305337
 44
-28.305337
 50
0.0
 51
0.0
 71
    16
 72
   100
 73
     1
 74
     1
 75
     0
 76
     0
 77
     0
 78
     0
281
     0
 65
     0
110
0.0
120
0.0
130
0.0
111
1.0
121
0.0
131
0.0
112
0.0
122
1.0
132
0.0
345
0
346
0
 79
     0
146
0.0
  0
VPORT
  5
3A0
100
AcDbSymbolTableRecord
100
AcDbViewportTableRecord
  2
L4
 70
     0
 10
0.5
 20
0.0
 11
1.0
 21
0.5
 12
0.0
 22
0.0
 13
0.0
 23
0.0
 14
1.0
 24
1.0
 15
0.0
 25
0.0
 16
1.0
 26
0.0
 36
0.0
 17
0.0
 27
0.0
 37
0.0
 40
55.322503
 41
0.688564
 42
50.0
 43
28.100342
 44
-28.100342
 50
0.0
 51
0.0
 71
    16
 72
   100
 73
     1
 74
     1
 75
     0
 76
     0
 77
     0
 78
     0
281
     0
 65
     0
110
0.0
120
0.0
130
0.0
111
1.0
121
0.0
131
0.0
112
0.0
122
1.0
132
0.0
345
0
346
0
 79
     0
146
0.0
  0
VPORT
  5
3A1
100
AcDbSymbolTableRecord
100
AcDbViewportTableRecord
  2
L4
 70
     0
 10
0.5
 20
0.5
 11
1.0
 21
1.0
 12
0.0
 22
0.0
 13
0.0
 23
0.0
 14
1.0
 24
1.0
 15
0.0
 25
0.0
 16
0.57735
 26
-0.57735
 36
0.57735
 17
0.0
 27
0.0
 37
0.0
 40
54.112995
 41
0.688564
 42
50.0
 43
28.142999
 44
-28.142999
 50
0.0
 51
0.0
 71
    16
 72
   100
 73
     1
 74
     1
 75
     0
 76
     0
 77
     0
 78
     0
281
     0
 65
     0
110
0.0
120
0.0
130
0.0
111
1.0
121
0.0
131
0.0
112
0.0
122
1.0
132
0.0
345
0
346
0
 79
     0
146
0.0
  0
VPORT
  5
3A2
100
AcDbSymbolTableRecord
100
AcDbViewportTableRecord
  2
L6
 70
     0
 10
0.0
 20
0.5
 11
0.333333
 21
1.0
 12
0.0
 22
0.0
 13
0.0
 23
0.0
 14
1.0
 24
1.0
 15
0.0
 25
0.0
 16
0.718873
 26
-0.585049
 36
0.375419
 17
0.0
 27
0.0
 37
0.0
 40
57.117514
 41
0.688564
 42
50.0
 43
29.559825
 44
-29.559825
 50
0.0
 51
0.0
 71
    16
 72
   100
 73
     1
 74
     1
 75
     0
 76
     0
 77
     0
 78
     0
281
     0
 65
     0
110
0.0
120
0.0
130
0.0
111
1.0
121
0.0
131
0.0
112
0.0
122
1.0
132
0.0
345
0
346
0
 79
     0
146
0.0
  0
VPORT
  5
3A3
100
AcDbSymbolTableRecord
100
AcDbViewportTableRecord
  2
L6
 70
     0
 10
0.0
 20
0.0
 11
0.333333
 21
0.5
 12
0.0
 22
0.0
 13
0.0
 23
0.0
 14
1.0
 24
1.0
 15
0.0
 25
0.0
 16
-1.0
 26
0.0
 36
0.0
 17
0.0
 27
0.0
 37
0.0
 40
55.322503
 41
0.688564
 42
50.0
 43
28.100342
 44
-28.100342
 50
0.0
 51
0.0
 71
    16
 72
   100
 73
     1
 74
     1
 75
     0
 76
     0
 77
     0
 78
     0
281
     0
 65
     0
110
0.0
120
0.0
130
0.0
111
1.0
121
0.0
131
0.0
112
0.0
122
1.0
132
0.0
345
0
346
0
 79
     0
146
0.0
  0
VPORT
  5
3A4
100
AcDbSymbolTableRecord
100
AcDbViewportTableRecord
  2
L6
 70
     0
 10
0.333333
 20
0.5
 11
0.666667
 21
1.0
 12
0.0
 22
0.0
 13
0.0
 23
0.0
 14
1.0
 24
1.0
 15
0.0
 25
0.0
 16
0.0
 26
0.0
 36
1.0
 17
0.0
 27
0.0
 37
0.0
 40
9.896346
 41
0.688564
 42
50.0
 43
27.661251
 44
-27.661251
 50
0.0
 51
0.0
 71
    16
 72
   100
 73
     1
 74
     1
 75
     0
 76
     0
 77
     0
 78
     0
281
     0
 65
     0
110
0.0
120
0.0
130
0.0
111
1.0
121
0.0
131
0.0
112
0.0
122
1.0
132
0.0
345
0
346
0
 79
     0
146
0.0
  0
VPORT
  5
3A5
100
AcDbSymbolTableRecord
100
AcDbViewportTableRecord
  2
L6
 70
     0
 10
0.333333
 20
0.0
 11
0.666667
 21
0.5
 12
0.0
 22
0.0
 13
0.0
 23
0.0
 14
1.0
 24
1.0
 15
0.0
 25
0.0
 16
0.0
 26
-1.0
 36
0.0
 17
0.0
 27
0.0
 37
0.0
 40
55.322503
 41
0.688564
 42
50.0
 43
28.305337
 44
-28.305337
 50
0.0
 51
0.0
 71
    16
 72
   100
 73
     1
 74
     1
 75
     0
 76
     0
 77
     0
 78
     0
281
     0
 65
     0
110
0.0
120
0.0
130
0.0
111
1.0
121
0.0
131
0.0
112
0.0
122
1.0
132
0.0
345
0
346
0
 79
     0
146
0.0
  0
VPORT
  5
3A6
100
AcDbSymbolTableRecord
100
AcDbViewportTableRecord
  2
L6
 70
     0
 10
0.666667
 20
0.5
 11
1.0
 21
1.0
 12
0.0
 22
0.0
 13
0.0
 23
0.0
 14
1.0
 24
1.0
 15
0.0
 25
0.0
 16
0.57735
 26
-0.57735
 36
0.57735
 17
0.0
 27
0.0
 37
0.0
 40
54.112995
 41
0.688564
 42
50.0
 43
28.142999
 44
-28.142999
 50
0.0
 51
0.0
 71
    16
 72
   100
 73
     1
 74
     1
 75
     0
 76
     0
 77
     0
 78
     0
281
     0
 65
     0
110
0.0
120
0.0
130
0.0
111
1.0
121
0.0
131
0.0
112
0.0
122
1.0
132
0.0
345
0
346
0
 79
     0
146
0.0
  0
VPORT
  5
3A7
100
AcDbSymbolTableRecord
100
AcDbViewportTableRecord
  2
L6
 70
     0
 10
0.666667
 20
0.0
 11
1.0
 21
0.5
 12
0.0
 22
0.0
 13
0.0
 23
0.0
 14
1.0
 24
1.0
 15
0.0
 25
0.0
 16
1.0
 26
0.0
 36
0.0
 17
0.0
 27
0.0
 37
0.0
 40
55.322503
 41
0.688564
 42
50.0
 43
28.100342
 44
-28.100342
 50
0.0
 51
0.0
 71
    16
 72
   100
 73
     1
 74
     1
 75
     0
 76
     0
 77
     0
 78
     0
281
     0
 65
     0
110
0.0
120
0.0
130
0.0
111
1.0
121
0.0
131
0.0
112
0.0
122
1.0
132
0.0
345
0
346
0
 79
     0
146
0.0
  0
ENDTAB
  0
TABLE
  2
LTYPE
  5
4
100
AcDbSymbolTable
 70
     9
  0
LTYPE
  5
11
100
AcDbSymbolTableRecord
100
AcDbLinetypeTableRecord
  2
ByBlock
 70
    64
  3

 72
    65
 73
     0
 40
0.0
  0
LTYPE
  5
12
100
AcDbSymbolTableRecord
100
AcDbLinetypeTableRecord
  2
ByLayer
 70
    64
  3

 72
    65
 73
     0
 40
0.0
  0
LTYPE
  5
13
100
AcDbSymbolTableRecord
100
AcDbLinetypeTableRecord
  2
Continuous
 70
    64
  3
Solid line
 72
    65
 73
     0
 40
0.0
  0
LTYPE
  5
22
100
AcDbSymbolTableRecord
100
AcDbLinetypeTableRecord
  2
DASHED
 70
    64
  3
__ __ __ __ __ __ __ __ __
 72
    65
 73
     2
 40
0.75
 49
0.5
 74
     0
 49
-0.25
 74
     0
  0
LTYPE
  5
23
100
AcDbSymbolTableRecord
100
AcDbLinetypeTableRecord
  2
HIDDEN
 70
    64
  3
_ _ _ _ _ _ _ _ _ _ _ _ _ _ _
 72
    65
 73
     2
 40
0.5
 49
0.25
 74
     0
 49
-0.25
 74
     0
  0
LTYPE
  5
24
100
AcDbSymbolTableRecord
100
AcDbLinetypeTableRecord
  2
PHANTOM
 70
    64
  3
____ _ _ ____ _ _ _____ _ _ ____
 72
    65
 73
     6
 40
2.5
 49
1.25
 74
     0
 49
-0.25
 74
     0
 49
0.25
 74
     0
 49
-0.25
 74
     0
 49
0.25
 74
     0
 49
-0.25
 74
     0
  0
LTYPE
  5
25
100
AcDbSymbolTableRecord
100
AcDbLinetypeTableRecord
  2
CENTER
 70
    64
  3
____ _ ____ _ ____ _ ____
 72
    65
 73
     4
 40
2.0
 49
1.25
 74
     0
 49
-0.25
 74
     0
 49
0.25
 74
     0
 49
-0.25
 74
     0
  0
LTYPE
  5
26
100
AcDbSymbolTableRecord
100
AcDbLinetypeTableRecord
  2
DOT
 70
    64
  3
.........................
 72
    65
 73
     2
 40
0.25
 49
0.0
 74
     0
 49
-0.25
 74
     0
  0
LTYPE
  5
27
100
AcDbSymbolTableRecord
100
AcDbLinetypeTableRecord
  2
DASHDOT
 70
    64
  3
_._._._._._._._._._._._._._._._.
 72
    65
 73
     4
 40
1.0
 49
0.5
 74
     0
 49
-0.25
 74
     0
 49
0.0
 74
     0
 49
-0.25
 74
     0
  0
ENDTAB
  0
TABLE
  2
LAYER
  5
2
100
AcDbSymbolTable
 70
     2
  0
LAYER
  5
14
100
AcDbSymbolTableRecord
100
AcDbLayerTableRecord
  2
0
 70
     0
 62
     7
  6
Continuous
290
     1
370
    -3
390
1D
  0
LAYER
  5
32
100
AcDbSymbolTableRecord
100
AcDbLayerTableRecord
  2
1
 70
     0
 62
     7
  6
Continuous
290
     1
370
    -3
390
1F
  0
ENDTAB
  0
TABLE
  2
STYLE
  5
3
100
AcDbSymbolTable
 70
     2
  0
STYLE
  5
17
100
AcDbSymbolTableRecord
100
AcDbTextStyleTableRecord
  2
Standard
 70
     0
 40
0.0
 41
1.0
 50
0.0
 71
     0
 42
0.0
  3
txt
  4

  0
STYLE
  5
35F
100
AcDbSymbolTableRecord
100
AcDbTextStyleTableRecord
  2
blockfont
 70
     0
 40
0.0
 41
1.0
 50
0.0
 71
     0
 42
0.0
  3
simplex.shx
  4
bigfont
  0
ENDTAB
  0
TABLE
  2
VIEW
  5
5
100
AcDbSymbolTable
 70
     8
  0
VIEW
  5
28
100
AcDbSymbolTableRecord
100
AcDbViewTableRecord
  2
TOP
 70
     0
 40
9.896346
 10
0.0
 20
0.0
 41
12.007874
 11
0.0
 21
0.0
 31
1.0
 12
0.0
 22
0.0
 32
0.0
 42
50.0
 43
27.661251
 44
-27.661251
 50
0.0
 71
    16
281
     0
 72
     0
110
0.0
120
0.0
130
0.0
111
1.0
121
0.0
131
0.0
112
0.0
122
1.0
132
0.0
  0
VIEW
  5
29
100
AcDbSymbolTableRecord
100
AcDbViewTableRecord
  2
FRONT
 70
     0
 40
55.322503
 10
0.0
 20
0.0
 41
12.007874
 11
0.0
 21
-1.0
 31
0.0
 12
0.0
 22
0.0
 32
0.0
 42
50.0
 43
28.305337
 44
-28.305337
 50
0.0
 71
    16
281
     0
 72
     0
110
0.0
120
0.0
130
0.0
111
1.0
121
0.0
131
0.0
112
0.0
122
1.0
132
0.0
  0
VIEW
  5
2A
100
AcDbSymbolTableRecord
100
AcDbViewTableRecord
  2
RIGHT
 70
     0
 40
55.322503
 10
0.0
 20
0.0
 41
9.896346
 11
1.0
 21
0.0
 31
0.0
 12
0.0
 22
0.0
 32
0.0
 42
50.0
 43
28.100342
 44
-28.100342
 50
0.0
 71
    16
281
     0
 72
     0
110
0.0
120
0.0
130
0.0
111
1.0
121
0.0
131
0.0
112
0.0
122
1.0
132
0.0
  0
VIEW
  5
2B
100
AcDbSymbolTableRecord
100
AcDbViewTableRecord
  2
BACK
 70
     0
 40
55.322503
 10
0.0
 20
0.0
 41
12.007874
 11
0.0
 21
1.0
 31
0.0
 12
0.0
 22
0.0
 32
0.0
 42
50.0
 43
28.305337
 44
-28.305337
 50
0.0
 71
    16
281
     0
 72
     0
110
0.0
120
0.0
130
0.0
111
1.0
121
0.0
131
0.0
112
0.0
122
1.0
132
0.0
  0
VIEW
  5
2C
100
AcDbSymbolTableRecord
100
AcDbViewTableRecord
  2
BOTTOM
 70
     0
 40
9.896346
 10
0.0
 20
0.0
 41
12.007874
 11
0.0
 21
0.0
 31
-1.0
 12
0.0
 22
0.0
 32
0.0
 42
50.0
 43
27.661251
 44
-27.661251
 50
180.0
 71
    16
281
     0
 72
     0
110
0.0
120
0.0
130
0.0
111
1.0
121
0.0
131
0.0
112
0.0
122
1.0
132
0.0
  0
VIEW
  5
2D
100
AcDbSymbolTableRecord
100
AcDbViewTableRecord
  2
LEFT
 70
     0
 40
55.322503
 10
0.0
 20
0.0
 41
9.896346
 11
-1.0
 21
0.0
 31
0.0
 12
0.0
 22
0.0
 32
0.0
 42
50.0
 43
28.100342
 44
-28.100342
 50
0.0
 71
    16
281
     0
 72
     0
110
0.0
120
0.0
130
0.0
111
1.0
121
0.0
131
0.0
112
0.0
122
1.0
132
0.0
  0
VIEW
  5
2E
100
AcDbSymbolTableRecord
100
AcDbViewTableRecord
  2
TFR-ISO
 70
     0
 40
54.112995
 10
0.0
 20
0.0
 41
15.488622
 11
0.57735
 21
-0.57735
 31
0.57735
 12
0.0
 22
0.0
 32
0.0
 42
50.0
 43
28.142999
 44
-28.142999
 50
0.0
 71
    16
281
     0
 72
     0
110
0.0
120
0.0
130
0.0
111
1.0
121
0.0
131
0.0
112
0.0
122
1.0
132
0.0
  0
VIEW
  5
2F
100
AcDbSymbolTableRecord
100
AcDbViewTableRecord
  2
TFR-TRI
 70
     0
 40
57.117514
 10
0.0
 20
0.0
 41
15.25525
 11
0.718873
 21
-0.585049
 31
0.375419
 12
0.0
 22
0.0
 32
0.0
 42
50.0
 43
29.559825
 44
-29.559825
 50
0.0
 71
    16
281
     0
 72
     0
110
0.0
120
0.0
130
0.0
111
1.0
121
0.0
131
0.0
112
0.0
122
1.0
132
0.0
  0
ENDTAB
  0
TABLE
  2
UCS
  5
6
100
AcDbSymbolTable
 70
     0
  0
ENDTAB
  0
TABLE
  2
APPID
  5
8
100
AcDbSymbolTable
 70
     1
  0
APPID
  5
16
100
AcDbSymbolTableRecord
100
AcDbRegAppTableRecord
  2
ACAD
 70
     0
  0
ENDTAB
  0
TABLE
  2
DIMSTYLE
  5
9
100
AcDbSymbolTable
 70
     1
100
AcDbDimStyleTable
 71
     0
  0
DIMSTYLE
105
18
100
AcDbSymbolTableRecord
100
AcDbDimStyleTableRecord
  2
Standard
 70
     0
  3

  4

 40
1.0
 41
0.18
 42
0.0625
 43
0.38
 44
0.18
 45
0.0
 46
0.0
 47
0.0
 48
0.0
 71
     0
 72
     0
 73
     1
 74
     1
 75
     0
 76
     0
 77
     0
 78
     0
 79
     0
140
0.18
141
0.09
142
0.0
143
25.4
144
1.0
145
0.0
146
1.0
147
0.09
148
0.0
170
     0
171
     2
172
     0
173
     0
174
     0
175
     0
176
     0
177
     0
178
     0
179
     0
271
     4
272
     4
273
     2
274
     2
275
     0
276
     0
277
     2
278
    46
279
     0
280
     0
281
     0
282
     0
283
     1
284
     0
285
     0
286
     0
288
     0
340
17
341
0
342
0
343
0
344
0
371
    -2
372
    -2
  0
ENDTAB
  0
TABLE
  2
BLOCK_RECORD
  5
1
100
AcDbSymbolTable
 70
     0
  0
BLOCK_RECORD
  5
A
100
AcDbSymbolTableRecord
100
AcDbBlockTableRecord
  2
*MODEL_SPACE
340
20
  0
BLOCK_RECORD
  5
B
100
AcDbSymbolTableRecord
100
AcDbBlockTableRecord
  2
*PAPER_SPACE
340
0
  0
ENDTAB
  0
ENDSEC
  0
SECTION
  2
BLOCKS
  0
BLOCK
  5
D
100
AcDbEntity
  8
0
100
AcDbBlockBegin
  2
*MODEL_SPACE
 70
     0
 10
0.0
 20
0.0
 30
0.0
  3
*MODEL_SPACE
  1

  0
ENDBLK
  5
E
100
AcDbEntity
  8
0
100
AcDbBlockEnd
  0
BLOCK
  5
F
100
AcDbEntity
 67
     1
  8
0
100
AcDbBlockBegin
  2
*PAPER_SPACE
 70
     0
 10
0.0
 20
0.0
 30
0.0
  3
*PAPER_SPACE
  1

  0
ENDBLK
  5
10
100
AcDbEntity
 67
     1
  8
0
100
AcDbBlockEnd
  0
ENDSEC
  0
SECTION
  2
ENTITIES
  0
VIEWPORT
  5
30
100
AcDbEntity
 67
     1
  8
0
100
AcDbViewport
 10
8.669998
 20
5.609993
 30
0.0
 40
17.339996
 41
11.219986
 68
     1
 69
     1
 12
8.669998
 22
5.609993
 13
0.0
 23
0.0
 14
0.0
 24
0.0
 15
0.0
 25
0.0
 16
0.0
 26
0.0
 36
1.0
 17
0.0
 27
0.0
 37
0.0
 42
33.780281
 43
0.0
 44
0.0
 45
11.219986
 50
0.0
 51
0.0
 72
   100
 90
    32800
340
0
  1

281
     0
 71
     0
 74
     1
110
0.0
120
0.0
130
0.0
111
1.0
121
0.0
131
0.0
112
0.0
122
1.0
132
0.0
345
0
346
0
 79
     0
146
0.0
  0
LINE
  5
31
100
AcDbEntity
 67
     1
  8
1
  6
Continuous
 62
     7
100
AcDbLine
 10
12.466944
 20
8.609421
 30
0.0
 11
12.459157
 21
8.614518
 31
0.0
  0
LINE
  5
33
100
AcDbEntity
 67
     1
  8
1
  6
Continuous
 62
     7
100
AcDbLine
 10
5.144948
 20
6.99472
 30
0.0
 11
5.144948
 21
7.048811
 31
0.0
  0
LINE
  5
34
100
AcDbEntity
 67
     1
  8
1
  6
Continuous
 62
     7
100
AcDbLine
 10
2.677422
 20
5.682487
 30
0.0
 11
2.67558
 21
5.682489
 31
0.0
  0
LINE
  5
35
100
AcDbEntity
 67
     1
  8
1
  6
Continuous
 62
     7
100
AcDbLine
 10
5.142948
 20
6.99472
 30
0.0
 11
5.142948
 21
7.056275
 31
0.0
  0
LINE
  5
36
100
AcDbEntity
 67
     1
  8
1
  6
Continuous
 62
     7
100
AcDbLine
 10
2.573146
 20
7.845417
 30
0.0
 11
2.451878
 21
7.845417
 31
0.0
  0
LINE
  5
37
100
AcDbEntity
 67
     1
  8
1
  6
Continuous
 62
     7
100
AcDbLine
 10
2.5689
 20
2.788352
 30
0.0
 11
2.455096
 21
2.788352
 31
0.0
  0
LINE
  5
38
100
AcDbEntity
 67
     1
  8
1
  6
Continuous
 62
     7
100
AcDbLine
 10
4.170637
 20
7.104857
 30
0.0
 11
4.170637
 21
7.14402
 31
0.0
  0
LINE
  5
39
100
AcDbEntity
 67
     1
  8
1
  6
Continuous
 62
     7
100
AcDbLine
 10
2.322459
 20
5.708982
 30
0.0
 11
2.421335
 21
5.708844
 31
0.0
  0
LINE
  5
3A
100
AcDbEntity
 67
     1
  8
1
  6
Continuous
 62
     7
100
AcDbLine
 10
5.819333
 20
9.888538
 30
0.0
 11
5.819333
 21
9.804146
 31
0.0
  0
LINE
  5
3B
100
AcDbEntity
 67
     1
  8
1
  6
Continuous
 62
     7
100
AcDbLine
 10
2.677453
 20
5.704487
 30
0.0
 11
2.593506
 21
5.704604
 31
0.0
  0
LINE
  5
3C
100
AcDbEntity
 67
     1
  8
1
  6
Continuous
 62
     7
100
AcDbLine
 10
5.819333
 20
7.010964
 30
0.0
 11
5.819333
 21
7.005472
 31
0.0
  0
LINE
  5
3D
100
AcDbEntity
 67
     1
  8
1
  6
Continuous
 62
     7
100
AcDbLine
 10
2.585465
 20
6.97475
 30
0.0
 11
2.499359
 21
6.888644
 31
0.0
  0
LINE
  5
3E
100
AcDbEntity
 67
     1
  8
1
  6
Continuous
 62
     7
100
AcDbLine
 10
9.688483
 20
3.007121
 30
0.0
 11
9.666318
 21
3.064547
 31
0.0
  0
LINE
  5
3F
100
AcDbEntity
 67
     1
  8
1
  6
Continuous
 62
     7
100
AcDbLine
 10
5.130948
 20
3.254857
 30
0.0
 11
5.130948
 21
3.148517
 31
0.0
  0
LINE
  5
40
100
AcDbEntity
 67
     1
  8
1
  6
Continuous
 62
     7
100
AcDbLine
 10
12.547913
 20
7.31932
 30
0.0
 11
12.505541
 21
7.264838
 31
0.0
  0
LINE
  5
41
100
AcDbEntity
 67
     1
  8
1
  6
Continuous
 62
     7
100
AcDbLine
 10
2.573146
 20
7.817417
 30
0.0
 11
2.548912
 21
7.817417
 31
0.0
  0
LINE
  5
42
100
AcDbEntity
 67
     1
  8
1
  6
Continuous
 62
     7
100
AcDbLine
 10
3.702392
 20
2.791352
 30
0.0
 11
3.577392
 21
2.824846
 31
0.0
  0
LINE
  5
43
100
AcDbEntity
 67
     1
  8
1
  6
Continuous
 62
     7
100
AcDbLine
 10
5.116948
 20
3.254857
 30
0.0
 11
5.116948
 21
3.163446
 31
0.0
  0
LINE
  5
44
100
AcDbEntity
 67
     1
  8
1
  6
Continuous
 62
     7
100
AcDbLine
 10
3.577392
 20
2.768352
 30
0.0
 11
3.616555
 21
2.768352
 31
0.0
  0
LINE
  5
45
100
AcDbEntity
 67
     1
  8
1
  6
Continuous
 62
     7
100
AcDbLine
 10
4.156637
 20
3.254857
 30
0.0
 11
4.156637
 21
3.163446
 31
0.0
  0
LINE
  5
46
100
AcDbEntity
 67
     1
  8
1
  6
Continuous
 62
     7
100
AcDbLine
 10
5.134948
 20
6.99472
 30
0.0
 11
5.134948
 21
7.086132
 31
0.0
  0
LINE
  5
47
100
AcDbEntity
 67
     1
  8
1
  6
Continuous
 62
     7
100
AcDbLine
 10
3.577392
 20
2.772352
 30
0.0
 11
3.631484
 21
2.772352
 31
0.0
  0
LINE
  5
48
100
AcDbEntity
 67
     1
  8
1
  6
Continuous
 62
     7
100
AcDbLine
 10
11.819207
 20
8.777585
 30
0.0
 11
5.819333
 21
8.777585
 31
0.0
  0
LINE
  5
49
100
AcDbEntity
 67
     1
  8
1
  6
Continuous
 62
     7
100
AcDbLine
 10
2.322515
 20
5.748982
 30
0.0
 11
2.324357
 21
5.74898
 31
0.0
  0
LINE
  5
4A
100
AcDbEntity
 67
     1
  8
1
  6
Continuous
 62
     7
100
AcDbLine
 10
16.116076
 20
6.75838
 30
0.0
 11
11.819333
 21
6.75838
 31
0.0
  0
LINE
  5
4B
100
AcDbEntity
 67
     1
  8
1
  6
Continuous
 62
     7
100
AcDbLine
 10
15.760937
 20
5.077357
 30
0.0
 11
15.703594
 21
4.974857
 31
0.0
  0
LINE
  5
4C
100
AcDbEntity
 67
     1
  8
1
  6
Continuous
 62
     7
100
AcDbLine
 10
3.304146
 20
2.487602
 30
0.0
 11
3.304146
 21
2.656352
 31
0.0
  0
LINE
  5
4D
100
AcDbEntity
 67
     1
  8
1
  6
Continuous
 62
     7
100
AcDbLine
 10
12.502264
 20
8.663383
 30
0.0
 11
12.379333
 21
8.703815
 31
0.0
  0
LINE
  5
4E
100
AcDbEntity
 67
     1
  8
1
  6
Continuous
 62
     7
100
AcDbLine
 10
5.150948
 20
6.99472
 30
0.0
 11
5.150948
 21
7.026419
 31
0.0
  0
LINE
  5
4F
100
AcDbEntity
 67
     1
  8
1
  6
Continuous
 62
     7
100
AcDbLine
 10
2.573146
 20
7.851418
 30
0.0
 11
2.474271
 21
7.851418
 31
0.0
  0
LINE
  5
50
100
AcDbEntity
 67
     1
  8
1
  6
Continuous
 62
     7
100
AcDbLine
 10
2.5689
 20
2.782352
 30
0.0
 11
2.477489
 21
2.782352
 31
0.0
  0
LINE
  5
51
100
AcDbEntity
 67
     1
  8
1
  6
Continuous
 62
     7
100
AcDbLine
 10
2.322451
 20
5.702982
 30
0.0
 11
2.398934
 21
5.702876
 31
0.0
  0
LINE
  5
52
100
AcDbEntity
 67
     1
  8
1
  6
Continuous
 62
     7
100
AcDbLine
 10
5.819333
 20
9.703293
 30
0.0
 11
5.819333
 21
9.691079
 31
0.0
  0
LINE
  5
53
100
AcDbEntity
 67
     1
  8
1
  6
Continuous
 62
     7
100
AcDbLine
 10
13.819333
 20
6.77579
 30
0.0
 11
5.819333
 21
6.77579
 31
0.0
  0
LINE
  5
54
100
AcDbEntity
 67
     1
  8
1
  6
Continuous
 62
     7
100
AcDbLine
 10
5.136948
 20
3.254857
 30
0.0
 11
5.136948
 21
3.17091
 31
0.0
  0
LINE
  5
55
100
AcDbEntity
 67
     1
  8
1
  6
Continuous
 62
     7
100
AcDbLine
 10
2.322423
 20
5.682982
 30
0.0
 11
2.324265
 21
5.68298
 31
0.0
  0
LINE
  5
56
100
AcDbEntity
 67
     1
  8
1
  6
Continuous
 62
     7
100
AcDbLine
 10
2.573146
 20
7.811418
 30
0.0
 11
2.571304
 21
7.811418
 31
0.0
  0
LINE
  5
57
100
AcDbEntity
 67
     1
  8
1
  6
Continuous
 62
     7
100
AcDbLine
 10
9.697812
 20
3.010721
 30
0.0
 11
9.66221
 21
3.102965
 31
0.0
  0
LINE
  5
58
100
AcDbEntity
 67
     1
  8
1
  6
Continuous
 62
     7
100
AcDbLine
 10
2.009788
 20
5.581092
 30
0.0
 11
1.964788
 21
5.581092
 31
0.0
  0
LINE
  5
59
100
AcDbEntity
 67
     1
  8
1
  6
Continuous
 62
     7
100
AcDbLine
 10
3.577392
 20
2.762352
 30
0.0
 11
3.594163
 21
2.762352
 31
0.0
  0
LINE
  5
5A
100
AcDbEntity
 67
     1
  8
1
  6
Continuous
 62
     7
100
AcDbLine
 10
5.819333
 20
7.005472
 30
0.0
 11
5.819333
 21
6.996795
 31
0.0
  0
LINE
  5
5B
100
AcDbEntity
 67
     1
  8
1
  6
Continuous
 62
     7
100
AcDbLine
 10
4.162637
 20
3.254857
 30
0.0
 11
4.162637
 21
3.185838
 31
0.0
  0
LINE
  5
5C
100
AcDbEntity
 67
     1
  8
1
  6
Continuous
 62
     7
100
AcDbLine
 10
2.5689
 20
2.764352
 30
0.0
 11
2.544665
 21
2.764352
 31
0.0
  0
LINE
  5
5D
100
AcDbEntity
 67
     1
  8
1
  6
Continuous
 62
     7
100
AcDbLine
 10
12.46804
 20
8.611094
 30
0.0
 11
12.454007
 21
8.620279
 31
0.0
  0
LINE
  5
5E
100
AcDbEntity
 67
     1
  8
1
  6
Continuous
 62
     7
100
AcDbLine
 10
9.70341
 20
3.012882
 30
0.0
 11
9.659743
 21
3.126015
 31
0.0
  0
LINE
  5
5F
100
AcDbEntity
 67
     1
  8
1
  6
Continuous
 62
     7
100
AcDbLine
 10
11.819207
 20
8.769308
 30
0.0
 11
5.819333
 21
8.769308
 31
0.0
  0
LINE
  5
60
100
AcDbEntity
 67
     1
  8
1
  6
Continuous
 62
     7
100
AcDbLine
 10
2.322515
 20
5.749476
 30
0.0
 11
2.322422
 21
5.682489
 31
0.0
  0
LINE
  5
61
100
AcDbEntity
 67
     1
  8
1
  6
Continuous
 62
     7
100
AcDbLine
 10
11.819333
 20
6.883877
 30
0.0
 11
11.819333
 21
6.879857
 31
0.0
  0
LINE
  5
62
100
AcDbEntity
 67
     1
  8
1
  6
Continuous
 62
     7
100
AcDbLine
 10
2.677442
 20
5.696486
 30
0.0
 11
2.623351
 21
5.696562
 31
0.0
  0
LINE
  5
63
100
AcDbEntity
 67
     1
  8
1
  6
Continuous
 62
     7
100
AcDbLine
 10
15.935071
 20
5.384857
 30
0.0
 11
15.877728
 21
5.282357
 31
0.0
  0
LINE
  5
64
100
AcDbEntity
 67
     1
  8
1
  6
Continuous
 62
     7
100
AcDbLine
 10
2.4439
 20
3.159899
 30
0.0
 11
2.448924
 21
6.75838
 31
0.0
  0
LINE
  5
65
100
AcDbEntity
 67
     1
  8
1
  6
Continuous
 62
     7
100
AcDbLine
 10
2.842146
 20
2.656352
 30
0.0
 11
2.842146
 21
2.487602
 31
0.0
  0
LINE
  5
66
100
AcDbEntity
 67
     1
  8
1
  6
Continuous
 62
     7
100
AcDbLine
 10
5.156948
 20
6.99472
 30
0.0
 11
5.156948
 21
7.004026
 31
0.0
  0
LINE
  5
67
100
AcDbEntity
 67
     1
  8
1
  6
Continuous
 62
     7
100
AcDbLine
 10
15.737063
 20
8.829664
 30
0.0
 11
15.773452
 21
8.76674
 31
0.0
  0
LINE
  5
68
100
AcDbEntity
 67
     1
  8
1
  6
Continuous
 62
     7
100
AcDbLine
 10
2.573146
 20
7.857418
 30
0.0
 11
2.496663
 21
7.857418
 31
0.0
  0
LINE
  5
69
100
AcDbEntity
 67
     1
  8
1
  6
Continuous
 62
     7
100
AcDbLine
 10
2.5689
 20
2.776352
 30
0.0
 11
2.499881
 21
2.776352
 31
0.0
  0
LINE
  5
6A
100
AcDbEntity
 67
     1
  8
1
  6
Continuous
 62
     7
100
AcDbLine
 10
4.934322
 20
4.950414
 30
0.0
 11
4.979322
 21
4.950414
 31
0.0
  0
LINE
  5
6B
100
AcDbEntity
 67
     1
  8
1
  6
Continuous
 62
     7
100
AcDbLine
 10
4.180637
 20
7.104857
 30
0.0
 11
4.180637
 21
7.106699
 31
0.0
  0
LINE
  5
6C
100
AcDbEntity
 67
     1
  8
1
  6
Continuous
 62
     7
100
AcDbLine
 10
12.205371
 20
1.741555
 30
0.0
 11
16.369932
 21
1.741555
 31
0.0
  0
LINE
  5
6D
100
AcDbEntity
 67
     1
  8
1
  6
Continuous
 62
     7
100
AcDbLine
 10
3.698146
 20
7.844418
 30
0.0
 11
3.287896
 21
7.844418
 31
0.0
  0
LINE
  5
6E
100
AcDbEntity
 67
     1
  8
1
  6
Continuous
 62
     7
100
AcDbLine
 10
5.819333
 20
9.77517
 30
0.0
 11
5.819333
 21
9.747182
 31
0.0
  0
LINE
  5
6F
100
AcDbEntity
 67
     1
  8
1
  6
Continuous
 62
     7
100
AcDbLine
 10
2.677436
 20
5.692487
 30
0.0
 11
2.638273
 21
5.692541
 31
0.0
  0
LINE
  5
70
100
AcDbEntity
 67
     1
  8
1
  6
Continuous
 62
     7
100
AcDbLine
 10
13.819333
 20
6.75838
 30
0.0
 11
5.819333
 21
6.75838
 31
0.0
  0
LINE
  5
71
100
AcDbEntity
 67
     1
  8
1
  6
Continuous
 62
     7
100
AcDbLine
 10
3.628146
 20
7.169857
 30
0.0
 11
2.518146
 21
7.169857
 31
0.0
  0
LINE
  5
72
100
AcDbEntity
 67
     1
  8
1
  6
Continuous
 62
     7
100
AcDbLine
 10
12.496517
 20
8.654603
 30
0.0
 11
12.463749
 21
8.676051
 31
0.0
  0
LINE
  5
73
100
AcDbEntity
 67
     1
  8
1
  6
Continuous
 62
     7
100
AcDbLine
 10
5.142948
 20
3.254857
 30
0.0
 11
5.142948
 21
3.193302
 31
0.0
  0
LINE
  5
74
100
AcDbEntity
 67
     1
  8
1
  6
Continuous
 62
     7
100
AcDbLine
 10
15.648361
 20
4.872357
 30
0.0
 11
15.596291
 21
4.769857
 31
0.0
  0
LINE
  5
75
100
AcDbEntity
 67
     1
  8
1
  6
Continuous
 62
     7
100
AcDbLine
 10
16.369932
 20
10.641915
 30
0.0
 11
0.633067
 21
10.641915
 31
0.0
  0
LINE
  5
76
100
AcDbEntity
 67
     1
  8
1
  6
Continuous
 62
     7
100
AcDbLine
 10
9.731398
 20
3.023685
 30
0.0
 11
9.725359
 21
3.03933
 31
0.0
  0
LINE
  5
77
100
AcDbEntity
 67
     1
  8
1
  6
Continuous
 62
     7
100
AcDbLine
 10
2.573146
 20
7.810924
 30
0.0
 11
2.573146
 21
7.877911
 31
0.0
  0
LINE
  5
78
100
AcDbEntity
 67
     1
  8
1
  6
Continuous
 62
     7
100
AcDbLine
 10
9.692215
 20
3.008561
 30
0.0
 11
9.664675
 21
3.079914
 31
0.0
  0
LINE
  5
79
100
AcDbEntity
 67
     1
  8
1
  6
Continuous
 62
     7
100
AcDbLine
 10
1.64585
 20
5.412343
 30
0.0
 11
1.69085
 21
5.412343
 31
0.0
  0
LINE
  5
7A
100
AcDbEntity
 67
     1
  8
1
  6
Continuous
 62
     7
100
AcDbLine
 10
3.577392
 20
2.758352
 30
0.0
 11
3.579235
 21
2.758352
 31
0.0
  0
LINE
  5
7B
100
AcDbEntity
 67
     1
  8
1
  6
Continuous
 62
     7
100
AcDbLine
 10
4.168637
 20
3.254857
 30
0.0
 11
4.168637
 21
3.20823
 31
0.0
  0
LINE
  5
7C
100
AcDbEntity
 67
     1
  8
1
  6
Continuous
 62
     7
100
AcDbLine
 10
4.934322
 20
5.119164
 30
0.0
 11
4.934322
 21
4.950414
 31
0.0
  0
LINE
  5
7D
100
AcDbEntity
 67
     1
  8
1
  6
Continuous
 62
     7
100
AcDbLine
 10
5.819333
 20
8.714437
 30
0.0
 11
5.819333
 21
8.769231
 31
0.0
  0
LINE
  5
7E
100
AcDbEntity
 67
     1
  8
1
  6
Continuous
 62
     7
100
AcDbLine
 10
2.677473
 20
5.718487
 30
0.0
 11
2.563669
 21
5.718646
 31
0.0
  0
LINE
  5
7F
100
AcDbEntity
 67
     1
  8
1
  6
Continuous
 62
     7
100
AcDbLine
 10
11.819333
 20
7.219857
 30
0.0
 11
11.819333
 21
6.909857
 31
0.0
  0
LINE
  5
80
100
AcDbEntity
 67
     1
  8
1
  6
Continuous
 62
     7
100
AcDbLine
 10
16.090227
 20
5.692357
 30
0.0
 11
16.042374
 21
5.589857
 31
0.0
  0
LINE
  5
81
100
AcDbEntity
 67
     1
  8
1
  6
Continuous
 62
     7
100
AcDbLine
 10
3.573146
 20
7.841417
 30
0.0
 11
3.68695
 21
7.841417
 31
0.0
  0
LINE
  5
82
100
AcDbEntity
 67
     1
  8
1
  6
Continuous
 62
     7
100
AcDbLine
 10
9.7258
 20
3.021524
 30
0.0
 11
9.711699
 21
3.05806
 31
0.0
  0
LINE
  5
83
100
AcDbEntity
 67
     1
  8
1
  6
Continuous
 62
     7
100
AcDbLine
 10
2.4439
 20
3.097399
 30
0.0
 11
2.4439
 21
2.666352
 31
0.0
  0
LINE
  5
84
100
AcDbEntity
 67
     1
  8
1
  6
Continuous
 62
     7
100
AcDbLine
 10
2.573146
 20
7.863417
 30
0.0
 11
2.519055
 21
7.863417
 31
0.0
  0
LINE
  5
85
100
AcDbEntity
 67
     1
  8
1
  6
Continuous
 62
     7
100
AcDbLine
 10
2.5689
 20
2.770352
 30
0.0
 11
2.522273
 21
2.770352
 31
0.0
  0
LINE
  5
86
100
AcDbEntity
 67
     1
  8
1
  6
Continuous
 62
     7
100
AcDbLine
 10
4.146637
 20
3.254857
 30
0.0
 11
4.146637
 21
3.133589
 31
0.0
  0
LINE
  5
87
100
AcDbEntity
 67
     1
  8
1
  6
Continuous
 62
     7
100
AcDbLine
 10
4.142637
 20
7.104857
 30
0.0
 11
4.142637
 21
7.211197
 31
0.0
  0
LINE
  5
88
100
AcDbEntity
 67
     1
  8
1
  6
Continuous
 62
     7
100
AcDbLine
 10
12.205371
 20
1.483599
 30
0.0
 11
6.526266
 21
1.483599
 31
0.0
  0
LINE
  5
89
100
AcDbEntity
 67
     1
  8
1
  6
Continuous
 62
     7
100
AcDbLine
 10
2.448146
 20
7.282357
 30
0.0
 11
2.448146
 21
7.969418
 31
0.0
  0
LINE
  5
8A
100
AcDbEntity
 67
     1
  8
1
  6
Continuous
 62
     7
100
AcDbLine
 10
5.819333
 20
9.686914
 30
0.0
 11
5.819333
 21
8.979209
 31
0.0
  0
LINE
  5
8B
100
AcDbEntity
 67
     1
  8
1
  6
Continuous
 62
     7
100
AcDbLine
 10
2.677428
 20
5.686487
 30
0.0
 11
2.660657
 21
5.68651
 31
0.0
  0
LINE
  5
8C
100
AcDbEntity
 67
     1
  8
1
  6
Continuous
 62
     7
100
AcDbLine
 10
5.819333
 20
3.144881
 30
0.0
 11
5.819333
 21
3.159899
 31
0.0
  0
LINE
  5
8D
100
AcDbEntity
 67
     1
  8
1
  6
Continuous
 62
     7
100
AcDbLine
 10
5.148948
 20
3.254857
 30
0.0
 11
5.148948
 21
3.215694
 31
0.0
  0
LINE
  5
8E
100
AcDbEntity
 67
     1
  8
1
  6
Continuous
 62
     7
100
AcDbLine
 10
12.977928
 20
0.440085
 30
0.0
 11
12.977928
 21
1.227643
 31
0.0
  0
LINE
  5
8F
100
AcDbEntity
 67
     1
  8
1
  6
Continuous
 62
     7
100
AcDbLine
 10
2.5689
 20
2.792352
 30
0.0
 11
2.447632
 21
2.792352
 31
0.0
  0
LINE
  5
90
100
AcDbEntity
 67
     1
  8
1
  6
Continuous
 62
     7
100
AcDbLine
 10
3.577392
 20
2.796352
 30
0.0
 11
3.683732
 21
2.796352
 31
0.0
  0
LINE
  5
91
100
AcDbEntity
 67
     1
  8
1
  6
Continuous
 62
     7
100
AcDbLine
 10
4.174637
 20
3.254857
 30
0.0
 11
4.174637
 21
3.230623
 31
0.0
  0
LINE
  5
92
100
AcDbEntity
 67
     1
  8
1
  6
Continuous
 62
     7
100
AcDbLine
 10
5.819333
 20
8.708839
 30
0.0
 11
5.819333
 21
8.71028
 31
0.0
  0
LINE
  5
93
100
AcDbEntity
 67
     1
  8
1
  6
Continuous
 62
     7
100
AcDbLine
 10
2.677481
 20
5.724487
 30
0.0
 11
2.58607
 21
5.724614
 31
0.0
  0
LINE
  5
94
100
AcDbEntity
 67
     1
  8
1
  6
Continuous
 62
     7
100
AcDbLine
 10
11.819333
 20
7.229857
 30
0.0
 11
11.819333
 21
7.226928
 31
0.0
  0
LINE
  5
95
100
AcDbEntity
 67
     1
  8
1
  6
Continuous
 62
     7
100
AcDbLine
 10
16.197941
 20
5.999857
 30
0.0
 11
16.169065
 21
5.897357
 31
0.0
  0
LINE
  5
96
100
AcDbEntity
 67
     1
  8
1
  6
Continuous
 62
     7
100
AcDbLine
 10
2.509313
 20
7.036687
 30
0.0
 11
2.509392
 21
7.093629
 31
0.0
  0
LINE
  5
97
100
AcDbEntity
 67
     1
  8
1
  6
Continuous
 62
     7
100
AcDbLine
 10
12.52581
 20
7.33651
 30
0.0
 11
12.478856
 21
7.276136
 31
0.0
  0
LINE
  5
98
100
AcDbEntity
 67
     1
  8
1
  6
Continuous
 62
     7
100
AcDbLine
 10
5.118948
 20
6.99472
 30
0.0
 11
5.118948
 21
7.093596
 31
0.0
  0
LINE
  5
99
100
AcDbEntity
 67
     1
  8
1
  6
Continuous
 62
     7
100
AcDbLine
 10
2.573146
 20
7.869417
 30
0.0
 11
2.541447
 21
7.869417
 31
0.0
  0
LINE
  5
9A
100
AcDbEntity
 67
     1
  8
1
  6
Continuous
 62
     7
100
AcDbLine
 10
13.441989
 20
8.171906
 30
0.0
 11
13.191989
 21
8.171906
 31
0.0
  0
LINE
  5
9B
100
AcDbEntity
 67
     1
  8
1
  6
Continuous
 62
     7
100
AcDbLine
 10
4.140637
 20
3.254857
 30
0.0
 11
4.140637
 21
3.155982
 31
0.0
  0
LINE
  5
9C
100
AcDbEntity
 67
     1
  8
1
  6
Continuous
 62
     7
100
AcDbLine
 10
4.136637
 20
7.104857
 30
0.0
 11
4.136637
 21
7.188805
 31
0.0
  0
LINE
  5
9D
100
AcDbEntity
 67
     1
  8
1
  6
Continuous
 62
     7
100
AcDbLine
 10
11.819333
 20
9.962308
 30
0.0
 11
11.819333
 21
9.958061
 31
0.0
  0
LINE
  5
9E
100
AcDbEntity
 67
     1
  8
1
  6
Continuous
 62
     7
100
AcDbLine
 10
3.259146
 20
7.540668
 30
0.0
 11
3.304146
 21
7.540668
 31
0.0
  0
LINE
  5
9F
100
AcDbEntity
 67
     1
  8
1
  6
Continuous
 62
     7
100
AcDbLine
 10
15.71103
 20
8.89259
 30
0.0
 11
15.737063
 21
8.829664
 31
0.0
  0
LINE
  5
A0
100
AcDbEntity
 67
     1
  8
1
  6
Continuous
 62
     7
100
AcDbLine
 10
16.369932
 20
10.641915
 30
0.0
 11
16.369932
 21
0.440085
 31
0.0
  0
LINE
  5
A1
100
AcDbEntity
 67
     1
  8
1
  6
Continuous
 62
     7
100
AcDbLine
 10
13.819333
 20
3.129857
 30
0.0
 11
5.819333
 21
3.129857
 31
0.0
  0
LINE
  5
A2
100
AcDbEntity
 67
     1
  8
1
  6
Continuous
 62
     7
100
AcDbLine
 10
3.560827
 20
6.97475
 30
0.0
 11
3.646933
 21
6.888644
 31
0.0
  0
LINE
  5
A3
100
AcDbEntity
 67
     1
  8
1
  6
Continuous
 62
     7
100
AcDbLine
 10
5.154948
 20
3.254857
 30
0.0
 11
5.154948
 21
3.238087
 31
0.0
  0
LINE
  5
A4
100
AcDbEntity
 67
     1
  8
1
  6
Continuous
 62
     7
100
AcDbLine
 10
12.562511
 20
7.307966
 30
0.0
 11
12.509633
 21
7.349091
 31
0.0
  0
LINE
  5
A5
100
AcDbEntity
 67
     1
  8
1
  6
Continuous
 62
     7
100
AcDbLine
 10
12.205371
 20
1.994511
 30
0.0
 11
6.526266
 21
1.994511
 31
0.0
  0
LINE
  5
A6
100
AcDbEntity
 67
     1
  8
1
  6
Continuous
 62
     7
100
AcDbLine
 10
12.379333
 20
8.703815
 30
0.0
 11
12.465578
 21
8.607334
 31
0.0
  0
LINE
  5
A7
100
AcDbEntity
 67
     1
  8
1
  6
Continuous
 62
     7
100
AcDbLine
 10
2.5689
 20
2.798352
 30
0.0
 11
2.470024
 21
2.798352
 31
0.0
  0
LINE
  5
A8
100
AcDbEntity
 67
     1
  8
1
  6
Continuous
 62
     7
100
AcDbLine
 10
3.577392
 20
2.802352
 30
0.0
 11
3.66134
 21
2.802352
 31
0.0
  0
LINE
  5
A9
100
AcDbEntity
 67
     1
  8
1
  6
Continuous
 62
     7
100
AcDbLine
 10
4.180637
 20
3.254857
 30
0.0
 11
4.180637
 21
3.253015
 31
0.0
  0
LINE
  5
AA
100
AcDbEntity
 67
     1
  8
1
  6
Continuous
 62
     7
100
AcDbLine
 10
9.673556
 20
3.001359
 30
0.0
 11
9.672894
 21
3.003078
 31
0.0
  0
LINE
  5
AB
100
AcDbEntity
 67
     1
  8
1
  6
Continuous
 62
     7
100
AcDbLine
 10
12.530546
 20
7.332826
 30
0.0
 11
12.469845
 21
7.254776
 31
0.0
  0
LINE
  5
AC
100
AcDbEntity
 67
     1
  8
1
  6
Continuous
 62
     7
100
AcDbLine
 10
9.707142
 20
3.014322
 30
0.0
 11
9.666162
 21
3.120492
 31
0.0
  0
LINE
  5
AD
100
AcDbEntity
 67
     1
  8
1
  6
Continuous
 62
     7
100
AcDbLine
 10
5.819333
 20
8.703815
 30
0.0
 11
5.819333
 21
8.708839
 31
0.0
  0
LINE
  5
AE
100
AcDbEntity
 67
     1
  8
1
  6
Continuous
 62
     7
100
AcDbLine
 10
5.819333
 20
7.119346
 30
0.0
 11
5.819333
 21
7.118225
 31
0.0
  0
LINE
  5
AF
100
AcDbEntity
 67
     1
  8
1
  6
Continuous
 62
     7
100
AcDbLine
 10
16.22998
 20
6.307357
 30
0.0
 11
16.229336
 21
6.204857
 31
0.0
  0
LINE
  5
B0
100
AcDbEntity
 67
     1
  8
1
  6
Continuous
 62
     7
100
AcDbLine
 10
3.573146
 20
7.829417
 30
0.0
 11
3.642165
 21
7.829417
 31
0.0
  0
LINE
  5
B1
100
AcDbEntity
 67
     1
  8
1
  6
Continuous
 62
     7
100
AcDbLine
 10
5.112947
 20
6.99472
 30
0.0
 11
5.112947
 21
7.071203
 31
0.0
  0
LINE
  5
B2
100
AcDbEntity
 67
     1
  8
1
  6
Continuous
 62
     7
100
AcDbLine
 10
12.498708
 20
8.65795
 30
0.0
 11
12.47843
 21
8.671222
 31
0.0
  0
LINE
  5
B3
100
AcDbEntity
 67
     1
  8
1
  6
Continuous
 62
     7
100
AcDbLine
 10
11.819333
 20
7.226928
 30
0.0
 11
11.819333
 21
7.219857
 31
0.0
  0
LINE
  5
B4
100
AcDbEntity
 67
     1
  8
1
  6
Continuous
 62
     7
100
AcDbLine
 10
2.573146
 20
7.875417
 30
0.0
 11
2.56384
 21
7.875417
 31
0.0
  0
LINE
  5
B5
100
AcDbEntity
 67
     1
  8
1
  6
Continuous
 62
     7
100
AcDbLine
 10
9.709007
 20
3.015043
 30
0.0
 11
9.670716
 21
3.114249
 31
0.0
  0
LINE
  5
B6
100
AcDbEntity
 67
     1
  8
1
  6
Continuous
 62
     7
100
AcDbLine
 10
2.5689
 20
2.758352
 30
0.0
 11
2.567058
 21
2.758352
 31
0.0
  0
LINE
  5
B7
100
AcDbEntity
 67
     1
  8
1
  6
Continuous
 62
     7
100
AcDbLine
 10
4.134637
 20
3.254857
 30
0.0
 11
4.134637
 21
3.178374
 31
0.0
  0
LINE
  5
B8
100
AcDbEntity
 67
     1
  8
1
  6
Continuous
 62
     7
100
AcDbLine
 10
12.459332
 20
7.229857
 30
0.0
 11
13.191989
 21
8.171906
 31
0.0
  0
LINE
  5
B9
100
AcDbEntity
 67
     1
  8
1
  6
Continuous
 62
     7
100
AcDbLine
 10
11.819333
 20
9.958061
 30
0.0
 11
11.819333
 21
9.955132
 31
0.0
  0
LINE
  5
BA
100
AcDbEntity
 67
     1
  8
1
  6
Continuous
 62
     7
100
AcDbLine
 10
2.887146
 20
7.709417
 30
0.0
 11
2.842146
 21
7.709417
 31
0.0
  0
LINE
  5
BB
100
AcDbEntity
 67
     1
  8
1
  6
Continuous
 62
     7
100
AcDbLine
 10
2.32247
 20
5.716982
 30
0.0
 11
2.443738
 21
5.716813
 31
0.0
  0
LINE
  5
BC
100
AcDbEntity
 67
     1
  8
1
  6
Continuous
 62
     7
100
AcDbLine
 10
15.70312
 20
9.081363
 30
0.0
 11
15.693483
 21
9.018438
 31
0.0
  0
LINE
  5
BD
100
AcDbEntity
 67
     1
  8
1
  6
Continuous
 62
     7
100
AcDbLine
 10
15.606541
 20
3.437357
 30
0.0
 11
15.669857
 21
3.334857
 31
0.0
  0
LINE
  5
BE
100
AcDbEntity
 67
     1
  8
1
  6
Continuous
 62
     7
100
AcDbLine
 10
12.481183
 20
8.631175
 30
0.0
 11
12.392207
 21
8.689412
 31
0.0
  0
LINE
  5
BF
100
AcDbEntity
 67
     1
  8
1
  6
Continuous
 62
     7
100
AcDbLine
 10
5.158947
 20
3.254857
 30
0.0
 11
5.158947
 21
3.253015
 31
0.0
  0
LINE
  5
C0
100
AcDbEntity
 67
     1
  8
1
  6
Continuous
 62
     7
100
AcDbLine
 10
2.5689
 20
2.804352
 30
0.0
 11
2.492417
 21
2.804352
 31
0.0
  0
LINE
  5
C1
100
AcDbEntity
 67
     1
  8
1
  6
Continuous
 62
     7
100
AcDbLine
 10
3.577392
 20
2.808352
 30
0.0
 11
3.638947
 21
2.808352
 31
0.0
  0
LINE
  5
C2
100
AcDbEntity
 67
     1
  8
1
  6
Continuous
 62
     7
100
AcDbLine
 10
4.181131
 20
3.254857
 30
0.0
 11
4.114143
 21
3.254857
 31
0.0
  0
LINE
  5
C3
100
AcDbEntity
 67
     1
  8
1
  6
Continuous
 62
     7
100
AcDbLine
 10
4.147637
 20
3.129857
 30
0.0
 11
4.147637
 21
4.942982
 31
0.0
  0
LINE
  5
C4
100
AcDbEntity
 67
     1
  8
1
  6
Continuous
 62
     7
100
AcDbLine
 10
13.819333
 20
9.962308
 30
0.0
 11
13.819333
 21
9.958061
 31
0.0
  0
LINE
  5
C5
100
AcDbEntity
 67
     1
  8
1
  6
Continuous
 62
     7
100
AcDbLine
 10
2.677498
 20
5.736486
 30
0.0
 11
2.630871
 21
5.736552
 31
0.0
  0
LINE
  5
C6
100
AcDbEntity
 67
     1
  8
1
  6
Continuous
 62
     7
100
AcDbLine
 10
5.819333
 20
7.103466
 30
0.0
 11
5.819333
 21
7.118225
 31
0.0
  0
LINE
  5
C7
100
AcDbEntity
 67
     1
  8
1
  6
Continuous
 62
     7
100
AcDbLine
 10
16.172169
 20
6.614857
 30
0.0
 11
16.201046
 21
6.512357
 31
0.0
  0
LINE
  5
C8
100
AcDbEntity
 67
     1
  8
1
  6
Continuous
 62
     7
100
AcDbLine
 10
5.110948
 20
3.254857
 30
0.0
 11
5.110948
 21
3.185838
 31
0.0
  0
LINE
  5
C9
100
AcDbEntity
 67
     1
  8
1
  6
Continuous
 62
     7
100
AcDbLine
 10
3.573146
 20
7.823417
 30
0.0
 11
3.619773
 21
7.823417
 31
0.0
  0
LINE
  5
CA
100
AcDbEntity
 67
     1
  8
1
  6
Continuous
 62
     7
100
AcDbLine
 10
5.106947
 20
6.99472
 30
0.0
 11
5.106947
 21
7.048811
 31
0.0
  0
LINE
  5
CB
100
AcDbEntity
 67
     1
  8
1
  6
Continuous
 62
     7
100
AcDbLine
 10
2.573146
 20
7.843417
 30
0.0
 11
2.451878
 21
7.843417
 31
0.0
  0
LINE
  5
CC
100
AcDbEntity
 67
     1
  8
1
  6
Continuous
 62
     7
100
AcDbLine
 10
9.714605
 20
3.017203
 30
0.0
 11
9.684377
 21
3.095519
 31
0.0
  0
LINE
  5
CD
100
AcDbEntity
 67
     1
  8
1
  6
Continuous
 62
     7
100
AcDbLine
 10
2.5689
 20
2.757858
 30
0.0
 11
2.5689
 21
2.824846
 31
0.0
  0
LINE
  5
CE
100
AcDbEntity
 67
     1
  8
1
  6
Continuous
 62
     7
100
AcDbLine
 10
4.124637
 20
7.104857
 30
0.0
 11
4.124637
 21
7.14402
 31
0.0
  0
LINE
  5
CF
100
AcDbEntity
 67
     1
  8
1
  6
Continuous
 62
     7
100
AcDbLine
 10
12.472421
 20
8.617788
 30
0.0
 11
12.433407
 21
8.643323
 31
0.0
  0
LINE
  5
D0
100
AcDbEntity
 67
     1
  8
1
  6
Continuous
 62
     7
100
AcDbLine
 10
11.819333
 20
8.710991
 30
0.0
 11
11.819333
 21
8.708061
 31
0.0
  0
LINE
  5
D1
100
AcDbEntity
 67
     1
  8
1
  6
Continuous
 62
     7
100
AcDbLine
 10
2.322479
 20
5.722982
 30
0.0
 11
2.421354
 21
5.722844
 31
0.0
  0
LINE
  5
D2
100
AcDbEntity
 67
     1
  8
1
  6
Continuous
 62
     7
100
AcDbLine
 10
15.466496
 20
3.744857
 30
0.0
 11
15.504509
 21
3.642357
 31
0.0
  0
LINE
  5
D3
100
AcDbEntity
 67
     1
  8
1
  6
Continuous
 62
     7
100
AcDbLine
 10
3.586823
 20
6.737643
 30
0.0
 11
3.432669
 21
6.953194
 31
0.0
  0
LINE
  5
D4
100
AcDbEntity
 67
     1
  8
1
  6
Continuous
 62
     7
100
AcDbLine
 10
12.477897
 20
8.626155
 30
0.0
 11
12.407658
 21
8.672129
 31
0.0
  0
LINE
  5
D5
100
AcDbEntity
 67
     1
  8
1
  6
Continuous
 62
     7
100
AcDbLine
 10
5.125947
 20
3.129857
 30
0.0
 11
5.159441
 21
3.254857
 31
0.0
  0
LINE
  5
D6
100
AcDbEntity
 67
     1
  8
1
  6
Continuous
 62
     7
100
AcDbLine
 10
6.526266
 20
1.227643
 30
0.0
 11
12.205371
 21
1.227643
 31
0.0
  0
LINE
  5
D7
100
AcDbEntity
 67
     1
  8
1
  6
Continuous
 62
     7
100
AcDbLine
 10
12.473516
 20
8.619461
 30
0.0
 11
12.428257
 21
8.649084
 31
0.0
  0
LINE
  5
D8
100
AcDbEntity
 67
     1
  8
1
  6
Continuous
 62
     7
100
AcDbLine
 10
5.104948
 20
3.254857
 30
0.0
 11
5.104948
 21
3.20823
 31
0.0
  0
LINE
  5
D9
100
AcDbEntity
 67
     1
  8
1
  6
Continuous
 62
     7
100
AcDbLine
 10
2.447469
 20
5.715808
 30
0.0
 11
2.243538
 21
5.716093
 31
0.0
  0
LINE
  5
DA
100
AcDbEntity
 67
     1
  8
1
  6
Continuous
 62
     7
100
AcDbLine
 10
2.5689
 20
2.810352
 30
0.0
 11
2.514809
 21
2.810352
 31
0.0
  0
LINE
  5
DB
100
AcDbEntity
 67
     1
  8
1
  6
Continuous
 62
     7
100
AcDbLine
 10
3.577392
 20
2.814352
 30
0.0
 11
3.616555
 21
2.814352
 31
0.0
  0
LINE
  5
DC
100
AcDbEntity
 67
     1
  8
1
  6
Continuous
 62
     7
100
AcDbLine
 10
4.150637
 20
7.104857
 30
0.0
 11
4.150637
 21
7.218661
 31
0.0
  0
LINE
  5
DD
100
AcDbEntity
 67
     1
  8
1
  6
Continuous
 62
     7
100
AcDbLine
 10
12.475706
 20
8.622808
 30
0.0
 11
12.417957
 21
8.660606
 31
0.0
  0
LINE
  5
DE
100
AcDbEntity
 67
     1
  8
1
  6
Continuous
 62
     7
100
AcDbLine
 10
3.750646
 20
7.229857
 30
0.0
 11
4.272637
 21
7.229857
 31
0.0
  0
LINE
  5
DF
100
AcDbEntity
 67
     1
  8
1
  6
Continuous
 62
     7
100
AcDbLine
 10
5.819333
 20
9.955843
 30
0.0
 11
5.819333
 21
9.951685
 31
0.0
  0
LINE
  5
E0
100
AcDbEntity
 67
     1
  8
1
  6
Continuous
 62
     7
100
AcDbLine
 10
2.677506
 20
5.742486
 30
0.0
 11
2.653271
 21
5.74252
 31
0.0
  0
LINE
  5
E1
100
AcDbEntity
 67
     1
  8
1
  6
Continuous
 62
     7
100
AcDbLine
 10
5.819333
 20
7.093629
 30
0.0
 11
5.819333
 21
7.100054
 31
0.0
  0
LINE
  5
E2
100
AcDbEntity
 67
     1
  8
1
  6
Continuous
 62
     7
100
AcDbLine
 10
16.032124
 20
6.922357
 30
0.0
 11
16.087357
 21
6.819857
 31
0.0
  0
LINE
  5
E3
100
AcDbEntity
 67
     1
  8
1
  6
Continuous
 62
     7
100
AcDbLine
 10
2.549026
 20
3.250049
 30
0.0
 11
2.524028
 21
3.251359
 31
0.0
  0
LINE
  5
E4
100
AcDbEntity
 67
     1
  8
1
  6
Continuous
 62
     7
100
AcDbLine
 10
12.511601
 20
7.34756
 30
0.0
 11
12.505888
 21
7.340214
 31
0.0
  0
LINE
  5
E5
100
AcDbEntity
 67
     1
  8
1
  6
Continuous
 62
     7
100
AcDbLine
 10
5.100947
 20
6.99472
 30
0.0
 11
5.100947
 21
7.026419
 31
0.0
  0
LINE
  5
E6
100
AcDbEntity
 67
     1
  8
1
  6
Continuous
 62
     7
100
AcDbLine
 10
12.495421
 20
8.652929
 30
0.0
 11
12.456409
 21
8.678465
 31
0.0
  0
LINE
  5
E7
100
AcDbEntity
 67
     1
  8
1
  6
Continuous
 62
     7
100
AcDbLine
 10
2.573146
 20
7.837418
 30
0.0
 11
2.474271
 21
7.837418
 31
0.0
  0
LINE
  5
E8
100
AcDbEntity
 67
     1
  8
1
  6
Continuous
 62
     7
100
AcDbLine
 10
9.720202
 20
3.019363
 30
0.0
 11
9.698037
 21
3.07679
 31
0.0
  0
LINE
  5
E9
100
AcDbEntity
 67
     1
  8
1
  6
Continuous
 62
     7
100
AcDbLine
 10
3.577392
 20
2.788352
 30
0.0
 11
3.691196
 21
2.788352
 31
0.0
  0
LINE
  5
EA
100
AcDbEntity
 67
     1
  8
1
  6
Continuous
 62
     7
100
AcDbLine
 10
4.122637
 20
3.254857
 30
0.0
 11
4.122637
 21
3.223158
 31
0.0
  0
LINE
  5
EB
100
AcDbEntity
 67
     1
  8
1
  6
Continuous
 62
     7
100
AcDbLine
 10
4.118637
 20
7.104857
 30
0.0
 11
4.118637
 21
7.121628
 31
0.0
  0
LINE
  5
EC
100
AcDbEntity
 67
     1
  8
1
  6
Continuous
 62
     7
100
AcDbLine
 10
2.322426
 20
5.684982
 30
0.0
 11
2.331732
 21
5.684969
 31
0.0
  0
LINE
  5
ED
100
AcDbEntity
 67
     1
  8
1
  6
Continuous
 62
     7
100
AcDbLine
 10
15.816099
 20
8.708061
 30
0.0
 11
11.819333
 21
8.708061
 31
0.0
  0
LINE
  5
EE
100
AcDbEntity
 67
     1
  8
1
  6
Continuous
 62
     7
100
AcDbLine
 10
15.408686
 20
4.052357
 30
0.0
 11
15.418233
 21
3.949857
 31
0.0
  0
LINE
  5
EF
100
AcDbEntity
 67
     1
  8
1
  6
Continuous
 62
     7
100
AcDbLine
 10
3.577392
 20
2.806352
 30
0.0
 11
3.646412
 21
2.806352
 31
0.0
  0
LINE
  5
F0
100
AcDbEntity
 67
     1
  8
1
  6
Continuous
 62
     7
100
AcDbLine
 10
12.474611
 20
8.621135
 30
0.0
 11
12.423107
 21
8.654845
 31
0.0
  0
LINE
  5
F1
100
AcDbEntity
 67
     1
  8
1
  6
Continuous
 62
     7
100
AcDbLine
 10
5.130948
 20
6.99472
 30
0.0
 11
5.130948
 21
7.101059
 31
0.0
  0
LINE
  5
F2
100
AcDbEntity
 67
     1
  8
1
  6
Continuous
 62
     7
100
AcDbLine
 10
3.573146
 20
7.873417
 30
0.0
 11
3.589917
 21
7.873417
 31
0.0
  0
LINE
  5
F3
100
AcDbEntity
 67
     1
  8
1
  6
Continuous
 62
     7
100
AcDbLine
 10
2.5689
 20
2.816352
 30
0.0
 11
2.537201
 21
2.816352
 31
0.0
  0
LINE
  5
F4
100
AcDbEntity
 67
     1
  8
1
  6
Continuous
 62
     7
100
AcDbLine
 10
3.577392
 20
2.820352
 30
0.0
 11
3.594163
 21
2.820352
 31
0.0
  0
LINE
  5
F5
100
AcDbEntity
 67
     1
  8
1
  6
Continuous
 62
     7
100
AcDbLine
 10
4.156637
 20
7.104857
 30
0.0
 11
4.156637
 21
7.196269
 31
0.0
  0
LINE
  5
F6
100
AcDbEntity
 67
     1
  8
1
  6
Continuous
 62
     7
100
AcDbLine
 10
5.125947
 20
7.11972
 30
0.0
 11
5.125947
 21
5.361663
 31
0.0
  0
LINE
  5
F7
100
AcDbEntity
 67
     1
  8
1
  6
Continuous
 62
     7
100
AcDbLine
 10
3.597266
 20
3.250049
 30
0.0
 11
3.622265
 21
3.251359
 31
0.0
  0
LINE
  5
F8
100
AcDbEntity
 67
     1
  8
1
  6
Continuous
 62
     7
100
AcDbLine
 10
5.819333
 20
9.951685
 30
0.0
 11
5.819333
 21
9.896893
 31
0.0
  0
LINE
  5
F9
100
AcDbEntity
 67
     1
  8
1
  6
Continuous
 62
     7
100
AcDbLine
 10
2.677515
 20
5.748487
 30
0.0
 11
2.675672
 21
5.748489
 31
0.0
  0
LINE
  5
FA
100
AcDbEntity
 67
     1
  8
1
  6
Continuous
 62
     7
100
AcDbLine
 10
11.819207
 20
7.036687
 30
0.0
 11
5.819333
 21
7.036687
 31
0.0
  0
LINE
  5
FB
100
AcDbEntity
 67
     1
  8
1
  6
Continuous
 62
     7
100
AcDbLine
 10
15.819333
 20
7.229857
 30
0.0
 11
15.89776
 21
7.127357
 31
0.0
  0
LINE
  5
FC
100
AcDbEntity
 67
     1
  8
1
  6
Continuous
 62
     7
100
AcDbLine
 10
3.622288
 20
3.234857
 30
0.0
 11
3.622265
 21
3.251359
 31
0.0
  0
LINE
  5
FD
100
AcDbEntity
 67
     1
  8
1
  6
Continuous
 62
     7
100
AcDbLine
 10
5.098948
 20
3.254857
 30
0.0
 11
5.098948
 21
3.230623
 31
0.0
  0
LINE
  5
FE
100
AcDbEntity
 67
     1
  8
1
  6
Continuous
 62
     7
100
AcDbLine
 10
3.573146
 20
7.811418
 30
0.0
 11
3.574989
 21
7.811418
 31
0.0
  0
LINE
  5
FF
100
AcDbEntity
 67
     1
  8
1
  6
Continuous
 62
     7
100
AcDbLine
 10
12.536861
 20
7.327915
 30
0.0
 11
12.462413
 21
7.232189
 31
0.0
  0
LINE
  5
100
100
AcDbEntity
 67
     1
  8
1
  6
Continuous
 62
     7
100
AcDbLine
 10
5.094947
 20
6.99472
 30
0.0
 11
5.094947
 21
7.004026
 31
0.0
  0
LINE
  5
101
100
AcDbEntity
 67
     1
  8
1
  6
Continuous
 62
     7
100
AcDbLine
 10
11.819207
 20
9.686918
 30
0.0
 11
5.819333
 21
9.686918
 31
0.0
  0
LINE
  5
102
100
AcDbEntity
 67
     1
  8
1
  6
Continuous
 62
     7
100
AcDbLine
 10
9.69408
 20
3.009281
 30
0.0
 11
9.663853
 21
3.087597
 31
0.0
  0
LINE
  5
103
100
AcDbEntity
 67
     1
  8
1
  6
Continuous
 62
     7
100
AcDbLine
 10
6.876266
 20
0.440085
 30
0.0
 11
6.876266
 21
2.257467
 31
0.0
  0
LINE
  5
104
100
AcDbEntity
 67
     1
  8
1
  6
Continuous
 62
     7
100
AcDbLine
 10
12.483374
 20
8.634522
 30
0.0
 11
12.381907
 21
8.700934
 31
0.0
  0
LINE
  5
105
100
AcDbEntity
 67
     1
  8
1
  6
Continuous
 62
     7
100
AcDbLine
 10
2.573146
 20
7.831418
 30
0.0
 11
2.496663
 21
7.831418
 31
0.0
  0
LINE
  5
106
100
AcDbEntity
 67
     1
  8
1
  6
Continuous
 62
     7
100
AcDbLine
 10
3.577392
 20
2.782352
 30
0.0
 11
3.668804
 21
2.782352
 31
0.0
  0
LINE
  5
107
100
AcDbEntity
 67
     1
  8
1
  6
Continuous
 62
     7
100
AcDbLine
 10
4.116637
 20
3.254857
 30
0.0
 11
4.116637
 21
3.245551
 31
0.0
  0
LINE
  5
108
100
AcDbEntity
 67
     1
  8
1
  6
Continuous
 62
     7
100
AcDbLine
 10
4.114637
 20
7.104857
 30
0.0
 11
4.114637
 21
7.106699
 31
0.0
  0
LINE
  5
109
100
AcDbEntity
 67
     1
  8
1
  6
Continuous
 62
     7
100
AcDbLine
 10
5.819333
 20
8.918941
 30
0.0
 11
5.819333
 21
8.890953
 31
0.0
  0
LINE
  5
10A
100
AcDbEntity
 67
     1
  8
1
  6
Continuous
 62
     7
100
AcDbLine
 10
15.945182
 20
9.647685
 30
0.0
 11
15.935545
 21
9.58476
 31
0.0
  0
LINE
  5
10B
100
AcDbEntity
 67
     1
  8
1
  6
Continuous
 62
     7
100
AcDbLine
 10
3.636979
 20
7.036687
 30
0.0
 11
3.6369
 21
7.093629
 31
0.0
  0
LINE
  5
10C
100
AcDbEntity
 67
     1
  8
1
  6
Continuous
 62
     7
100
AcDbLine
 10
12.501993
 20
8.662971
 30
0.0
 11
12.500452
 21
8.66398
 31
0.0
  0
LINE
  5
10D
100
AcDbEntity
 67
     1
  8
1
  6
Continuous
 62
     7
100
AcDbLine
 10
12.471325
 20
8.616115
 30
0.0
 11
12.438558
 21
8.637562
 31
0.0
  0
LINE
  5
10E
100
AcDbEntity
 67
     1
  8
1
  6
Continuous
 62
     7
100
AcDbLine
 10
5.136948
 20
6.99472
 30
0.0
 11
5.136948
 21
7.078667
 31
0.0
  0
LINE
  5
10F
100
AcDbEntity
 67
     1
  8
1
  6
Continuous
 62
     7
100
AcDbLine
 10
3.573146
 20
7.877418
 30
0.0
 11
3.574989
 21
7.877418
 31
0.0
  0
LINE
  5
110
100
AcDbEntity
 67
     1
  8
1
  6
Continuous
 62
     7
100
AcDbLine
 10
3.577392
 20
2.824352
 30
0.0
 11
3.579235
 21
2.824352
 31
0.0
  0
LINE
  5
111
100
AcDbEntity
 67
     1
  8
1
  6
Continuous
 62
     7
100
AcDbLine
 10
15.783807
 20
9.270137
 30
0.0
 11
15.750871
 21
9.207212
 31
0.0
  0
LINE
  5
112
100
AcDbEntity
 67
     1
  8
1
  6
Continuous
 62
     7
100
AcDbLine
 10
4.162637
 20
7.104857
 30
0.0
 11
4.162637
 21
7.173876
 31
0.0
  0
LINE
  5
113
100
AcDbEntity
 67
     1
  8
1
  6
Continuous
 62
     7
100
AcDbLine
 10
12.499803
 20
8.659623
 30
0.0
 11
12.485771
 21
8.668808
 31
0.0
  0
LINE
  5
114
100
AcDbEntity
 67
     1
  8
1
  6
Continuous
 62
     7
100
AcDbLine
 10
4.001012
 20
5.174232
 30
0.0
 11
3.956012
 21
5.174232
 31
0.0
  0
LINE
  5
115
100
AcDbEntity
 67
     1
  8
1
  6
Continuous
 62
     7
100
AcDbLine
 10
11.819207
 20
9.896815
 30
0.0
 11
5.819333
 21
9.896815
 31
0.0
  0
LINE
  5
116
100
AcDbEntity
 67
     1
  8
1
  6
Continuous
 62
     7
100
AcDbLine
 10
2.677464
 20
5.712487
 30
0.0
 11
2.563661
 21
5.712646
 31
0.0
  0
LINE
  5
117
100
AcDbEntity
 67
     1
  8
1
  6
Continuous
 62
     7
100
AcDbLine
 10
11.819207
 20
7.026828
 30
0.0
 11
5.819333
 21
7.026828
 31
0.0
  0
LINE
  5
118
100
AcDbEntity
 67
     1
  8
1
  6
Continuous
 62
     7
100
AcDbLine
 10
14.476377
 20
1.227643
 30
0.0
 11
14.476377
 21
0.440085
 31
0.0
  0
LINE
  5
119
100
AcDbEntity
 67
     1
  8
1
  6
Continuous
 62
     7
100
AcDbLine
 10
5.092947
 20
3.254857
 30
0.0
 11
5.092947
 21
3.253015
 31
0.0
  0
LINE
  5
11A
100
AcDbEntity
 67
     1
  8
1
  6
Continuous
 62
     7
100
AcDbLine
 10
3.573146
 20
7.847417
 30
0.0
 11
3.68695
 21
7.847417
 31
0.0
  0
LINE
  5
11B
100
AcDbEntity
 67
     1
  8
1
  6
Continuous
 62
     7
100
AcDbLine
 10
12.541597
 20
7.324231
 30
0.0
 11
12.480896
 21
7.246181
 31
0.0
  0
LINE
  5
11C
100
AcDbEntity
 67
     1
  8
1
  6
Continuous
 62
     7
100
AcDbLine
 10
5.159441
 20
6.99472
 30
0.0
 11
5.125947
 21
7.11972
 31
0.0
  0
LINE
  5
11D
100
AcDbEntity
 67
     1
  8
1
  6
Continuous
 62
     7
100
AcDbLine
 10
9.659332
 20
3.129857
 30
0.0
 11
9.673096
 21
3.001182
 31
0.0
  0
LINE
  5
11E
100
AcDbEntity
 67
     1
  8
1
  6
Continuous
 62
     7
100
AcDbLine
 10
15.887794
 20
9.458911
 30
0.0
 11
15.854858
 21
9.395987
 31
0.0
  0
LINE
  5
11F
100
AcDbEntity
 67
     1
  8
1
  6
Continuous
 62
     7
100
AcDbLine
 10
3.573146
 20
7.865417
 30
0.0
 11
3.619773
 21
7.865417
 31
0.0
  0
LINE
  5
120
100
AcDbEntity
 67
     1
  8
1
  6
Continuous
 62
     7
100
AcDbLine
 10
2.573146
 20
7.825418
 30
0.0
 11
2.519055
 21
7.825418
 31
0.0
  0
LINE
  5
121
100
AcDbEntity
 67
     1
  8
1
  6
Continuous
 62
     7
100
AcDbLine
 10
12.497612
 20
8.656277
 30
0.0
 11
12.471089
 21
8.673636
 31
0.0
  0
LINE
  5
122
100
AcDbEntity
 67
     1
  8
1
  6
Continuous
 62
     7
100
AcDbLine
 10
5.124948
 20
3.254857
 30
0.0
 11
5.124948
 21
3.133589
 31
0.0
  0
LINE
  5
123
100
AcDbEntity
 67
     1
  8
1
  6
Continuous
 62
     7
100
AcDbLine
 10
3.577392
 20
2.776352
 30
0.0
 11
3.646412
 21
2.776352
 31
0.0
  0
LINE
  5
124
100
AcDbEntity
 67
     1
  8
1
  6
Continuous
 62
     7
100
AcDbLine
 10
4.148637
 20
3.254857
 30
0.0
 11
4.148637
 21
3.133589
 31
0.0
  0
LINE
  5
125
100
AcDbEntity
 67
     1
  8
1
  6
Continuous
 62
     7
100
AcDbLine
 10
4.147637
 20
7.229857
 30
0.0
 11
4.114143
 21
7.104857
 31
0.0
  0
LINE
  5
126
100
AcDbEntity
 67
     1
  8
1
  6
Continuous
 62
     7
100
AcDbLine
 10
12.535283
 20
7.329143
 30
0.0
 11
12.460835
 21
7.233417
 31
0.0
  0
LINE
  5
127
100
AcDbEntity
 67
     1
  8
1
  6
Continuous
 62
     7
100
AcDbLine
 10
2.322434
 20
5.690982
 30
0.0
 11
2.354133
 21
5.690938
 31
0.0
  0
LINE
  5
128
100
AcDbEntity
 67
     1
  8
1
  6
Continuous
 62
     7
100
AcDbLine
 10
5.819333
 20
8.975043
 30
0.0
 11
5.819333
 21
8.962831
 31
0.0
  0
LINE
  5
129
100
AcDbEntity
 67
     1
  8
1
  6
Continuous
 62
     7
100
AcDbLine
 10
2.322504
 20
5.740982
 30
0.0
 11
2.354203
 21
5.740938
 31
0.0
  0
LINE
  5
12A
100
AcDbEntity
 67
     1
  8
1
  6
Continuous
 62
     7
100
AcDbLine
 10
15.901602
 20
9.836458
 30
0.0
 11
15.927635
 21
9.773534
 31
0.0
  0
LINE
  5
12B
100
AcDbEntity
 67
     1
  8
1
  6
Continuous
 62
     7
100
AcDbLine
 10
15.548438
 20
4.667357
 30
0.0
 11
15.505856
 21
4.564857
 31
0.0
  0
LINE
  5
12C
100
AcDbEntity
 67
     1
  8
1
  6
Continuous
 62
     7
100
AcDbLine
 10
3.702392
 20
2.791352
 30
0.0
 11
3.287896
 21
2.791352
 31
0.0
  0
LINE
  5
12D
100
AcDbEntity
 67
     1
  8
1
  6
Continuous
 62
     7
100
AcDbLine
 10
3.577392
 20
2.764352
 30
0.0
 11
3.601627
 21
2.764352
 31
0.0
  0
LINE
  5
12E
100
AcDbEntity
 67
     1
  8
1
  6
Continuous
 62
     7
100
AcDbLine
 10
9.68102
 20
3.00424
 30
0.0
 11
9.669605
 21
3.033813
 31
0.0
  0
LINE
  5
12F
100
AcDbEntity
 67
     1
  8
1
  6
Continuous
 62
     7
100
AcDbLine
 10
3.698146
 20
7.844418
 30
0.0
 11
3.573146
 21
7.877911
 31
0.0
  0
LINE
  5
130
100
AcDbEntity
 67
     1
  8
1
  6
Continuous
 62
     7
100
AcDbLine
 10
5.125947
 20
3.129857
 30
0.0
 11
5.125947
 21
4.887914
 31
0.0
  0
LINE
  5
131
100
AcDbEntity
 67
     1
  8
1
  6
Continuous
 62
     7
100
AcDbLine
 10
2.677422
 20
5.681993
 30
0.0
 11
2.677515
 21
5.74898
 31
0.0
  0
LINE
  5
132
100
AcDbEntity
 67
     1
  8
1
  6
Continuous
 62
     7
100
AcDbLine
 10
12.493231
 20
8.649583
 30
0.0
 11
12.441728
 21
8.683293
 31
0.0
  0
LINE
  5
133
100
AcDbEntity
 67
     1
  8
1
  6
Continuous
 62
     7
100
AcDbLine
 10
2.322462
 20
5.710982
 30
0.0
 11
2.428802
 21
5.710834
 31
0.0
  0
LINE
  5
134
100
AcDbEntity
 67
     1
  8
1
  6
Continuous
 62
     7
100
AcDbLine
 10
11.819207
 20
9.888538
 30
0.0
 11
5.819333
 21
9.888538
 31
0.0
  0
LINE
  5
135
100
AcDbEntity
 67
     1
  8
1
  6
Continuous
 62
     7
100
AcDbLine
 10
2.677456
 20
5.706487
 30
0.0
 11
2.586044
 21
5.706614
 31
0.0
  0
LINE
  5
136
100
AcDbEntity
 67
     1
  8
1
  6
Continuous
 62
     7
100
AcDbLine
 10
3.573146
 20
7.861417
 30
0.0
 11
3.634701
 21
7.861417
 31
0.0
  0
LINE
  5
137
100
AcDbEntity
 67
     1
  8
1
  6
Continuous
 62
     7
100
AcDbLine
 10
3.573146
 20
7.857418
 30
0.0
 11
3.64963
 21
7.857418
 31
0.0
  0
LINE
  5
138
100
AcDbEntity
 67
     1
  8
1
  6
Continuous
 62
     7
100
AcDbLine
 10
0.633067
 20
10.641915
 30
0.0
 11
0.633067
 21
0.440085
 31
0.0
  0
LINE
  5
139
100
AcDbEntity
 67
     1
  8
1
  6
Continuous
 62
     7
100
AcDbLine
 10
5.128948
 20
3.254857
 30
0.0
 11
5.128948
 21
3.141053
 31
0.0
  0
LINE
  5
13A
100
AcDbEntity
 67
     1
  8
1
  6
Continuous
 62
     7
100
AcDbLine
 10
3.573146
 20
7.853417
 30
0.0
 11
3.664558
 21
7.853417
 31
0.0
  0
LINE
  5
13B
100
AcDbEntity
 67
     1
  8
1
  6
Continuous
 62
     7
100
AcDbLine
 10
2.573146
 20
7.819417
 30
0.0
 11
2.541447
 21
7.819417
 31
0.0
  0
LINE
  5
13C
100
AcDbEntity
 67
     1
  8
1
  6
Continuous
 62
     7
100
AcDbLine
 10
9.735129
 20
3.025125
 30
0.0
 11
9.734466
 21
3.026844
 31
0.0
  0
LINE
  5
13D
100
AcDbEntity
 67
     1
  8
1
  6
Continuous
 62
     7
100
AcDbLine
 10
5.118948
 20
3.254857
 30
0.0
 11
5.118948
 21
3.155982
 31
0.0
  0
LINE
  5
13E
100
AcDbEntity
 67
     1
  8
1
  6
Continuous
 62
     7
100
AcDbLine
 10
3.577392
 20
2.770352
 30
0.0
 11
3.624019
 21
2.770352
 31
0.0
  0
LINE
  5
13F
100
AcDbEntity
 67
     1
  8
1
  6
Continuous
 62
     7
100
AcDbLine
 10
4.154637
 20
3.254857
 30
0.0
 11
4.154637
 21
3.155982
 31
0.0
  0
LINE
  5
140
100
AcDbEntity
 67
     1
  8
1
  6
Continuous
 62
     7
100
AcDbLine
 10
2.573146
 20
7.813417
 30
0.0
 11
2.56384
 21
7.813417
 31
0.0
  0
LINE
  5
141
100
AcDbEntity
 67
     1
  8
1
  6
Continuous
 62
     7
100
AcDbLine
 10
5.819333
 20
8.777585
 30
0.0
 11
5.819333
 21
8.861978
 31
0.0
  0
LINE
  5
142
100
AcDbEntity
 67
     1
  8
1
  6
Continuous
 62
     7
100
AcDbLine
 10
12.489945
 20
8.644563
 30
0.0
 11
12.419705
 21
8.690536
 31
0.0
  0
LINE
  5
143
100
AcDbEntity
 67
     1
  8
1
  6
Continuous
 62
     7
100
AcDbLine
 10
2.322512
 20
5.746982
 30
0.0
 11
2.331819
 21
5.746969
 31
0.0
  0
LINE
  5
144
100
AcDbEntity
 67
     1
  8
1
  6
Continuous
 62
     7
100
AcDbLine
 10
16.108383
 20
6.77579
 30
0.0
 11
11.819333
 21
6.77579
 31
0.0
  0
LINE
  5
145
100
AcDbEntity
 67
     1
  8
1
  6
Continuous
 62
     7
100
AcDbLine
 10
15.703594
 20
4.974857
 30
0.0
 11
15.648361
 21
4.872357
 31
0.0
  0
LINE
  5
146
100
AcDbEntity
 67
     1
  8
1
  6
Continuous
 62
     7
100
AcDbLine
 10
3.702392
 20
3.159899
 30
0.0
 11
3.697368
 21
6.75838
 31
0.0
  0
LINE
  5
147
100
AcDbEntity
 67
     1
  8
1
  6
Continuous
 62
     7
100
AcDbLine
 10
3.304146
 20
2.656352
 30
0.0
 11
3.259146
 21
2.656352
 31
0.0
  0
LINE
  5
148
100
AcDbEntity
 67
     1
  8
1
  6
Continuous
 62
     7
100
AcDbLine
 10
5.148948
 20
6.99472
 30
0.0
 11
5.148948
 21
7.033883
 31
0.0
  0
LINE
  5
149
100
AcDbEntity
 67
     1
  8
1
  6
Continuous
 62
     7
100
AcDbLine
 10
12.48885
 20
8.642889
 30
0.0
 11
12.412365
 21
8.692951
 31
0.0
  0
LINE
  5
14A
100
AcDbEntity
 67
     1
  8
1
  6
Continuous
 62
     7
100
AcDbLine
 10
5.126947
 20
6.99472
 30
0.0
 11
5.126947
 21
7.115988
 31
0.0
  0
LINE
  5
14B
100
AcDbEntity
 67
     1
  8
1
  6
Continuous
 62
     7
100
AcDbLine
 10
2.573146
 20
7.849417
 30
0.0
 11
2.466806
 21
7.849417
 31
0.0
  0
LINE
  5
14C
100
AcDbEntity
 67
     1
  8
1
  6
Continuous
 62
     7
100
AcDbLine
 10
2.5689
 20
2.784352
 30
0.0
 11
2.470024
 21
2.784352
 31
0.0
  0
LINE
  5
14D
100
AcDbEntity
 67
     1
  8
1
  6
Continuous
 62
     7
100
AcDbLine
 10
5.756833
 20
7.11972
 30
0.0
 11
5.000947
 21
7.11972
 31
0.0
  0
LINE
  5
14E
100
AcDbEntity
 67
     1
  8
1
  6
Continuous
 62
     7
100
AcDbLine
 10
4.174637
 20
7.104857
 30
0.0
 11
4.174637
 21
7.129092
 31
0.0
  0
LINE
  5
14F
100
AcDbEntity
 67
     1
  8
1
  6
Continuous
 62
     7
100
AcDbLine
 10
2.322453
 20
5.704982
 30
0.0
 11
2.406401
 21
5.704865
 31
0.0
  0
LINE
  5
150
100
AcDbEntity
 67
     1
  8
1
  6
Continuous
 62
     7
100
AcDbLine
 10
12.486659
 20
8.639543
 30
0.0
 11
12.397684
 21
8.69778
 31
0.0
  0
LINE
  5
151
100
AcDbEntity
 67
     1
  8
1
  6
Continuous
 62
     7
100
AcDbLine
 10
5.819333
 20
6.77579
 30
0.0
 11
5.819333
 21
6.996795
 31
0.0
  0
LINE
  5
152
100
AcDbEntity
 67
     1
  8
1
  6
Continuous
 62
     7
100
AcDbLine
 10
2.516841
 20
6.998713
 30
0.0
 11
2.580161
 21
6.990376
 31
0.0
  0
LINE
  5
153
100
AcDbEntity
 67
     1
  8
1
  6
Continuous
 62
     7
100
AcDbLine
 10
12.492136
 20
8.647909
 30
0.0
 11
12.434387
 21
8.685708
 31
0.0
  0
LINE
  5
154
100
AcDbEntity
 67
     1
  8
1
  6
Continuous
 62
     7
100
AcDbLine
 10
5.134948
 20
3.254857
 30
0.0
 11
5.134948
 21
3.163446
 31
0.0
  0
LINE
  5
155
100
AcDbEntity
 67
     1
  8
1
  6
Continuous
 62
     7
100
AcDbLine
 10
2.552469
 20
5.715661
 30
0.0
 11
2.677422
 21
5.681993
 31
0.0
  0
LINE
  5
156
100
AcDbEntity
 67
     1
  8
1
  6
Continuous
 62
     7
100
AcDbLine
 10
12.485564
 20
8.637869
 30
0.0
 11
12.390344
 21
8.700194
 31
0.0
  0
LINE
  5
157
100
AcDbEntity
 67
     1
  8
1
  6
Continuous
 62
     7
100
AcDbLine
 10
9.699678
 20
3.011442
 30
0.0
 11
9.661387
 21
3.110648
 31
0.0
  0
LINE
  5
158
100
AcDbEntity
 67
     1
  8
1
  6
Continuous
 62
     7
100
AcDbLine
 10
2.243538
 20
5.716093
 30
0.0
 11
1.993538
 21
5.716093
 31
0.0
  0
LINE
  5
159
100
AcDbEntity
 67
     1
  8
1
  6
Continuous
 62
     7
100
AcDbLine
 10
12.484468
 20
8.636195
 30
0.0
 11
12.383003
 21
8.702608
 31
0.0
  0
LINE
  5
15A
100
AcDbEntity
 67
     1
  8
1
  6
Continuous
 62
     7
100
AcDbLine
 10
4.160637
 20
3.254857
 30
0.0
 11
4.160637
 21
3.178374
 31
0.0
  0
LINE
  5
15B
100
AcDbEntity
 67
     1
  8
1
  6
Continuous
 62
     7
100
AcDbLine
 10
5.819333
 20
8.769308
 30
0.0
 11
5.819333
 21
8.771656
 31
0.0
  0
LINE
  5
15C
100
AcDbEntity
 67
     1
  8
1
  6
Continuous
 62
     7
100
AcDbLine
 10
2.322422
 20
5.682489
 30
0.0
 11
2.447469
 21
5.715808
 31
0.0
  0
LINE
  5
15D
100
AcDbEntity
 67
     1
  8
1
  6
Continuous
 62
     7
100
AcDbLine
 10
15.819333
 20
3.129857
 30
0.0
 11
11.819333
 21
3.129857
 31
0.0
  0
LINE
  5
15E
100
AcDbEntity
 67
     1
  8
1
  6
Continuous
 62
     7
100
AcDbLine
 10
15.877728
 20
5.282357
 30
0.0
 11
15.819333
 21
5.179857
 31
0.0
  0
LINE
  5
15F
100
AcDbEntity
 67
     1
  8
1
  6
Continuous
 62
     7
100
AcDbLine
 10
2.842146
 20
2.487602
 30
0.0
 11
2.887146
 21
2.487602
 31
0.0
  0
LINE
  5
160
100
AcDbEntity
 67
     1
  8
1
  6
Continuous
 62
     7
100
AcDbLine
 10
7.910086
 20
0.440085
 30
0.0
 11
7.910086
 21
2.257467
 31
0.0
  0
LINE
  5
161
100
AcDbEntity
 67
     1
  8
1
  6
Continuous
 62
     7
100
AcDbLine
 10
5.154948
 20
6.99472
 30
0.0
 11
5.154948
 21
7.01149
 31
0.0
  0
LINE
  5
162
100
AcDbEntity
 67
     1
  8
1
  6
Continuous
 62
     7
100
AcDbLine
 10
5.819333
 20
9.691079
 30
0.0
 11
5.819333
 21
9.686918
 31
0.0
  0
LINE
  5
163
100
AcDbEntity
 67
     1
  8
1
  6
Continuous
 62
     7
100
AcDbLine
 10
2.677422
 20
5.682487
 30
0.0
 11
2.67558
 21
5.682489
 31
0.0
  0
LINE
  5
164
100
AcDbEntity
 67
     1
  8
1
  6
Continuous
 62
     7
100
AcDbLine
 10
2.573146
 20
7.855417
 30
0.0
 11
2.489199
 21
7.855417
 31
0.0
  0
LINE
  5
165
100
AcDbEntity
 67
     1
  8
1
  6
Continuous
 62
     7
100
AcDbLine
 10
2.5689
 20
2.778352
 30
0.0
 11
2.492417
 21
2.778352
 31
0.0
  0
LINE
  5
166
100
AcDbEntity
 67
     1
  8
1
  6
Continuous
 62
     7
100
AcDbLine
 10
5.449385
 20
4.950414
 30
0.0
 11
5.494385
 21
4.950414
 31
0.0
  0
LINE
  5
167
100
AcDbEntity
 67
     1
  8
1
  6
Continuous
 62
     7
100
AcDbLine
 10
4.180637
 20
7.104857
 30
0.0
 11
4.180637
 21
7.106699
 31
0.0
  0
LINE
  5
168
100
AcDbEntity
 67
     1
  8
1
  6
Continuous
 62
     7
100
AcDbLine
 10
2.524005
 20
3.234857
 30
0.0
 11
3.622288
 21
3.234857
 31
0.0
  0
LINE
  5
169
100
AcDbEntity
 67
     1
  8
1
  6
Continuous
 62
     7
100
AcDbLine
 10
2.677445
 20
5.698487
 30
0.0
 11
2.61589
 21
5.698573
 31
0.0
  0
LINE
  5
16A
100
AcDbEntity
 67
     1
  8
1
  6
Continuous
 62
     7
100
AcDbLine
 10
2.322445
 20
5.698982
 30
0.0
 11
2.384
 21
5.698896
 31
0.0
  0
LINE
  5
16B
100
AcDbEntity
 67
     1
  8
1
  6
Continuous
 62
     7
100
AcDbLine
 10
5.819333
 20
9.747182
 30
0.0
 11
5.819333
 21
9.722532
 31
0.0
  0
LINE
  5
16C
100
AcDbEntity
 67
     1
  8
1
  6
Continuous
 62
     7
100
AcDbLine
 10
2.677439
 20
5.694487
 30
0.0
 11
2.630812
 21
5.694552
 31
0.0
  0
LINE
  5
16D
100
AcDbEntity
 67
     1
  8
1
  6
Continuous
 62
     7
100
AcDbLine
 10
5.819333
 20
6.75838
 30
0.0
 11
5.819333
 21
6.767522
 31
0.0
  0
LINE
  5
16E
100
AcDbEntity
 67
     1
  8
1
  6
Continuous
 62
     7
100
AcDbLine
 10
5.140947
 20
3.254857
 30
0.0
 11
5.140947
 21
3.185838
 31
0.0
  0
LINE
  5
16F
100
AcDbEntity
 67
     1
  8
1
  6
Continuous
 62
     7
100
AcDbLine
 10
12.555806
 20
7.313181
 30
0.0
 11
12.536346
 21
7.288158
 31
0.0
  0
LINE
  5
170
100
AcDbEntity
 67
     1
  8
1
  6
Continuous
 62
     7
100
AcDbLine
 10
12.501993
 20
8.662971
 30
0.0
 11
12.500452
 21
8.66398
 31
0.0
  0
LINE
  5
171
100
AcDbEntity
 67
     1
  8
1
  6
Continuous
 62
     7
100
AcDbLine
 10
2.573146
 20
7.877911
 30
0.0
 11
2.448146
 21
7.844418
 31
0.0
  0
LINE
  5
172
100
AcDbEntity
 67
     1
  8
1
  6
Continuous
 62
     7
100
AcDbLine
 10
1.964788
 20
5.412343
 30
0.0
 11
2.009788
 21
5.412343
 31
0.0
  0
LINE
  5
173
100
AcDbEntity
 67
     1
  8
1
  6
Continuous
 62
     7
100
AcDbLine
 10
3.577392
 20
2.758352
 30
0.0
 11
3.579235
 21
2.758352
 31
0.0
  0
LINE
  5
174
100
AcDbEntity
 67
     1
  8
1
  6
Continuous
 62
     7
100
AcDbLine
 10
4.166637
 20
3.254857
 30
0.0
 11
4.166637
 21
3.200766
 31
0.0
  0
LINE
  5
175
100
AcDbEntity
 67
     1
  8
1
  6
Continuous
 62
     7
100
AcDbLine
 10
3.702392
 20
3.097399
 30
0.0
 11
3.702392
 21
2.666352
 31
0.0
  0
LINE
  5
176
100
AcDbEntity
 67
     1
  8
1
  6
Continuous
 62
     7
100
AcDbLine
 10
2.549026
 20
3.250049
 30
0.0
 11
2.553871
 21
6.720234
 31
0.0
  0
LINE
  5
177
100
AcDbEntity
 67
     1
  8
1
  6
Continuous
 62
     7
100
AcDbLine
 10
11.819207
 20
8.769228
 30
0.0
 11
5.819333
 21
8.769228
 31
0.0
  0
LINE
  5
178
100
AcDbEntity
 67
     1
  8
1
  6
Continuous
 62
     7
100
AcDbLine
 10
2.67747
 20
5.716486
 30
0.0
 11
2.556202
 21
5.716656
 31
0.0
  0
LINE
  5
179
100
AcDbEntity
 67
     1
  8
1
  6
Continuous
 62
     7
100
AcDbLine
 10
11.819333
 20
6.909857
 30
0.0
 11
11.819333
 21
6.894857
 31
0.0
  0
LINE
  5
17A
100
AcDbEntity
 67
     1
  8
1
  6
Continuous
 62
     7
100
AcDbLine
 10
16.042374
 20
5.589857
 30
0.0
 11
15.990304
 21
5.487357
 31
0.0
  0
LINE
  5
17B
100
AcDbEntity
 67
     1
  8
1
  6
Continuous
 62
     7
100
AcDbLine
 10
2.454522
 20
6.77579
 30
0.0
 11
2.612577
 21
6.996795
 31
0.0
  0
LINE
  5
17C
100
AcDbEntity
 67
     1
  8
1
  6
Continuous
 62
     7
100
AcDbLine
 10
3.573146
 20
7.843417
 30
0.0
 11
3.694414
 21
7.843417
 31
0.0
  0
LINE
  5
17D
100
AcDbEntity
 67
     1
  8
1
  6
Continuous
 62
     7
100
AcDbLine
 10
12.532125
 20
7.331598
 30
0.0
 11
12.466842
 21
7.247657
 31
0.0
  0
LINE
  5
17E
100
AcDbEntity
 67
     1
  8
1
  6
Continuous
 62
     7
100
AcDbLine
 10
5.158947
 20
6.99472
 30
0.0
 11
5.158947
 21
6.996562
 31
0.0
  0
LINE
  5
17F
100
AcDbEntity
 67
     1
  8
1
  6
Continuous
 62
     7
100
AcDbLine
 10
3.573146
 20
7.817417
 30
0.0
 11
3.597381
 21
7.817417
 31
0.0
  0
LINE
  5
180
100
AcDbEntity
 67
     1
  8
1
  6
Continuous
 62
     7
100
AcDbLine
 10
2.573146
 20
7.861417
 30
0.0
 11
2.511591
 21
7.861417
 31
0.0
  0
LINE
  5
181
100
AcDbEntity
 67
     1
  8
1
  6
Continuous
 62
     7
100
AcDbLine
 10
2.559469
 20
6.737643
 30
0.0
 11
2.713623
 21
6.953194
 31
0.0
  0
LINE
  5
182
100
AcDbEntity
 67
     1
  8
1
  6
Continuous
 62
     7
100
AcDbLine
 10
2.5689
 20
2.772352
 30
0.0
 11
2.514809
 21
2.772352
 31
0.0
  0
LINE
  5
183
100
AcDbEntity
 67
     1
  8
1
  6
Continuous
 62
     7
100
AcDbLine
 10
4.979322
 20
5.119164
 30
0.0
 11
4.934322
 21
5.119164
 31
0.0
  0
LINE
  5
184
100
AcDbEntity
 67
     1
  8
1
  6
Continuous
 62
     7
100
AcDbLine
 10
3.573146
 20
7.819417
 30
0.0
 11
3.604845
 21
7.819417
 31
0.0
  0
LINE
  5
185
100
AcDbEntity
 67
     1
  8
1
  6
Continuous
 62
     7
100
AcDbLine
 10
12.205371
 20
1.741555
 30
0.0
 11
6.526266
 21
1.741555
 31
0.0
  0
LINE
  5
186
100
AcDbEntity
 67
     1
  8
1
  6
Continuous
 62
     7
100
AcDbLine
 10
3.698146
 20
7.282357
 30
0.0
 11
3.698146
 21
7.969418
 31
0.0
  0
LINE
  5
187
100
AcDbEntity
 67
     1
  8
1
  6
Continuous
 62
     7
100
AcDbLine
 10
2.322437
 20
5.692982
 30
0.0
 11
2.361599
 21
5.692928
 31
0.0
  0
LINE
  5
188
100
AcDbEntity
 67
     1
  8
1
  6
Continuous
 62
     7
100
AcDbLine
 10
2.677431
 20
5.688487
 30
0.0
 11
2.653196
 21
5.68852
 31
0.0
  0
LINE
  5
189
100
AcDbEntity
 67
     1
  8
1
  6
Continuous
 62
     7
100
AcDbLine
 10
3.638146
 20
7.159857
 30
0.0
 11
3.638146
 21
7.008627
 31
0.0
  0
LINE
  5
18A
100
AcDbEntity
 67
     1
  8
1
  6
Continuous
 62
     7
100
AcDbLine
 10
5.146947
 20
3.254857
 30
0.0
 11
5.146947
 21
3.20823
 31
0.0
  0
LINE
  5
18B
100
AcDbEntity
 67
     1
  8
1
  6
Continuous
 62
     7
100
AcDbLine
 10
16.369932
 20
8.393945
 30
0.0
 11
16.369932
 21
0.440085
 31
0.0
  0
LINE
  5
18C
100
AcDbEntity
 67
     1
  8
1
  6
Continuous
 62
     7
100
AcDbLine
 10
1.69085
 20
5.581092
 30
0.0
 11
1.64585
 21
5.581092
 31
0.0
  0
LINE
  5
18D
100
AcDbEntity
 67
     1
  8
1
  6
Continuous
 62
     7
100
AcDbLine
 10
3.577392
 20
2.794352
 30
0.0
 11
3.691196
 21
2.794352
 31
0.0
  0
LINE
  5
18E
100
AcDbEntity
 67
     1
  8
1
  6
Continuous
 62
     7
100
AcDbLine
 10
4.172637
 20
3.254857
 30
0.0
 11
4.172637
 21
3.223158
 31
0.0
  0
LINE
  5
18F
100
AcDbEntity
 67
     1
  8
1
  6
Continuous
 62
     7
100
AcDbLine
 10
5.096948
 20
3.254857
 30
0.0
 11
5.096948
 21
3.238087
 31
0.0
  0
LINE
  5
190
100
AcDbEntity
 67
     1
  8
1
  6
Continuous
 62
     7
100
AcDbLine
 10
5.494385
 20
5.119164
 30
0.0
 11
5.449385
 21
5.119164
 31
0.0
  0
LINE
  5
191
100
AcDbEntity
 67
     1
  8
1
  6
Continuous
 62
     7
100
AcDbLine
 10
5.819333
 20
8.71028
 30
0.0
 11
5.819333
 21
8.714437
 31
0.0
  0
LINE
  5
192
100
AcDbEntity
 67
     1
  8
1
  6
Continuous
 62
     7
100
AcDbLine
 10
16.169065
 20
5.897357
 30
0.0
 11
16.132809
 21
5.794857
 31
0.0
  0
LINE
  5
193
100
AcDbEntity
 67
     1
  8
1
  6
Continuous
 62
     7
100
AcDbLine
 10
3.573146
 20
7.837418
 30
0.0
 11
3.672022
 21
7.837418
 31
0.0
  0
LINE
  5
194
100
AcDbEntity
 67
     1
  8
1
  6
Continuous
 62
     7
100
AcDbLine
 10
5.120947
 20
6.99472
 30
0.0
 11
5.120947
 21
7.101059
 31
0.0
  0
LINE
  5
195
100
AcDbEntity
 67
     1
  8
1
  6
Continuous
 62
     7
100
AcDbLine
 10
11.819333
 20
8.703815
 30
0.0
 11
11.819333
 21
8.708061
 31
0.0
  0
LINE
  5
196
100
AcDbEntity
 67
     1
  8
1
  6
Continuous
 62
     7
100
AcDbLine
 10
2.573146
 20
7.867417
 30
0.0
 11
2.533983
 21
7.867417
 31
0.0
  0
LINE
  5
197
100
AcDbEntity
 67
     1
  8
1
  6
Continuous
 62
     7
100
AcDbLine
 10
2.5689
 20
2.766352
 30
0.0
 11
2.537201
 21
2.766352
 31
0.0
  0
LINE
  5
198
100
AcDbEntity
 67
     1
  8
1
  6
Continuous
 62
     7
100
AcDbLine
 10
3.577392
 20
2.760352
 30
0.0
 11
3.586699
 21
2.760352
 31
0.0
  0
LINE
  5
199
100
AcDbEntity
 67
     1
  8
1
  6
Continuous
 62
     7
100
AcDbLine
 10
4.142637
 20
3.254857
 30
0.0
 11
4.142637
 21
3.148517
 31
0.0
  0
LINE
  5
19A
100
AcDbEntity
 67
     1
  8
1
  6
Continuous
 62
     7
100
AcDbLine
 10
4.138637
 20
7.104857
 30
0.0
 11
4.138637
 21
7.196269
 31
0.0
  0
LINE
  5
19B
100
AcDbEntity
 67
     1
  8
1
  6
Continuous
 62
     7
100
AcDbLine
 10
3.304146
 20
7.540668
 30
0.0
 11
3.304146
 21
7.709417
 31
0.0
  0
LINE
  5
19C
100
AcDbEntity
 67
     1
  8
1
  6
Continuous
 62
     7
100
AcDbLine
 10
5.819333
 20
3.129857
 30
0.0
 11
5.819333
 21
3.133883
 31
0.0
  0
LINE
  5
19D
100
AcDbEntity
 67
     1
  8
1
  6
Continuous
 62
     7
100
AcDbLine
 10
2.677509
 20
5.744487
 30
0.0
 11
2.660738
 21
5.74451
 31
0.0
  0
LINE
  5
19E
100
AcDbEntity
 67
     1
  8
1
  6
Continuous
 62
     7
100
AcDbLine
 10
5.152947
 20
3.254857
 30
0.0
 11
5.152947
 21
3.230623
 31
0.0
  0
LINE
  5
19F
100
AcDbEntity
 67
     1
  8
1
  6
Continuous
 62
     7
100
AcDbLine
 10
15.967458
 20
0.974686
 30
0.0
 11
15.967458
 21
0.440085
 31
0.0
  0
LINE
  5
1A0
100
AcDbEntity
 67
     1
  8
1
  6
Continuous
 62
     7
100
AcDbLine
 10
9.682886
 20
3.00496
 30
0.0
 11
9.668784
 21
3.041496
 31
0.0
  0
LINE
  5
1A1
100
AcDbEntity
 67
     1
  8
1
  6
Continuous
 62
     7
100
AcDbLine
 10
2.5689
 20
2.796352
 30
0.0
 11
2.46256
 21
2.796352
 31
0.0
  0
LINE
  5
1A2
100
AcDbEntity
 67
     1
  8
1
  6
Continuous
 62
     7
100
AcDbLine
 10
3.573146
 20
7.835417
 30
0.0
 11
3.664558
 21
7.835417
 31
0.0
  0
LINE
  5
1A3
100
AcDbEntity
 67
     1
  8
1
  6
Continuous
 62
     7
100
AcDbLine
 10
3.577392
 20
2.800352
 30
0.0
 11
3.668804
 21
2.800352
 31
0.0
  0
LINE
  5
1A4
100
AcDbEntity
 67
     1
  8
1
  6
Continuous
 62
     7
100
AcDbLine
 10
2.677448
 20
5.700487
 30
0.0
 11
2.608428
 21
5.700583
 31
0.0
  0
LINE
  5
1A5
100
AcDbEntity
 67
     1
  8
1
  6
Continuous
 62
     7
100
AcDbLine
 10
4.178637
 20
3.254857
 30
0.0
 11
4.178637
 21
3.245551
 31
0.0
  0
LINE
  5
1A6
100
AcDbEntity
 67
     1
  8
1
  6
Continuous
 62
     7
100
AcDbLine
 10
2.677503
 20
5.740487
 30
0.0
 11
2.645805
 21
5.740531
 31
0.0
  0
LINE
  5
1A7
100
AcDbEntity
 67
     1
  8
1
  6
Continuous
 62
     7
100
AcDbLine
 10
13.819333
 20
8.703815
 30
0.0
 11
13.819333
 21
8.708061
 31
0.0
  0
LINE
  5
1A8
100
AcDbEntity
 67
     1
  8
1
  6
Continuous
 62
     7
100
AcDbLine
 10
2.677487
 20
5.728487
 30
0.0
 11
2.601003
 21
5.728593
 31
0.0
  0
LINE
  5
1A9
100
AcDbEntity
 67
     1
  8
1
  6
Continuous
 62
     7
100
AcDbLine
 10
15.827115
 20
7.219857
 30
0.0
 11
11.819333
 21
7.219857
 31
0.0
  0
LINE
  5
1AA
100
AcDbEntity
 67
     1
  8
1
  6
Continuous
 62
     7
100
AcDbLine
 10
2.51767
 20
7.103466
 30
0.0
 11
2.602062
 21
7.118225
 31
0.0
  0
LINE
  5
1AB
100
AcDbEntity
 67
     1
  8
1
  6
Continuous
 62
     7
100
AcDbLine
 10
3.573146
 20
7.831418
 30
0.0
 11
3.64963
 21
7.831418
 31
0.0
  0
LINE
  5
1AC
100
AcDbEntity
 67
     1
  8
1
  6
Continuous
 62
     7
100
AcDbLine
 10
5.114948
 20
6.99472
 30
0.0
 11
5.114948
 21
7.078667
 31
0.0
  0
LINE
  5
1AD
100
AcDbEntity
 67
     1
  8
1
  6
Continuous
 62
     7
100
AcDbLine
 10
2.573146
 20
7.873417
 30
0.0
 11
2.556376
 21
7.873417
 31
0.0
  0
LINE
  5
1AE
100
AcDbEntity
 67
     1
  8
1
  6
Continuous
 62
     7
100
AcDbLine
 10
2.5689
 20
2.760352
 30
0.0
 11
2.559593
 21
2.760352
 31
0.0
  0
LINE
  5
1AF
100
AcDbEntity
 67
     1
  8
1
  6
Continuous
 62
     7
100
AcDbLine
 10
4.136637
 20
3.254857
 30
0.0
 11
4.136637
 21
3.17091
 31
0.0
  0
LINE
  5
1B0
100
AcDbEntity
 67
     1
  8
1
  6
Continuous
 62
     7
100
AcDbLine
 10
4.132637
 20
7.104857
 30
0.0
 11
4.132637
 21
7.173876
 31
0.0
  0
LINE
  5
1B1
100
AcDbEntity
 67
     1
  8
1
  6
Continuous
 62
     7
100
AcDbLine
 10
2.677495
 20
5.734487
 30
0.0
 11
2.623404
 21
5.734562
 31
0.0
  0
LINE
  5
1B2
100
AcDbEntity
 67
     1
  8
1
  6
Continuous
 62
     7
100
AcDbLine
 10
11.819333
 20
9.955132
 30
0.0
 11
11.819333
 21
9.948062
 31
0.0
  0
LINE
  5
1B3
100
AcDbEntity
 67
     1
  8
1
  6
Continuous
 62
     7
100
AcDbLine
 10
2.842146
 20
7.709417
 30
0.0
 11
2.842146
 21
7.540668
 31
0.0
  0
LINE
  5
1B4
100
AcDbEntity
 67
     1
  8
1
  6
Continuous
 62
     7
100
AcDbLine
 10
15.693483
 20
9.018438
 30
0.0
 11
15.696216
 21
8.955514
 31
0.0
  0
LINE
  5
1B5
100
AcDbEntity
 67
     1
  8
1
  6
Continuous
 62
     7
100
AcDbLine
 10
15.669857
 20
3.334857
 30
0.0
 11
15.740905
 21
3.232357
 31
0.0
  0
LINE
  5
1B6
100
AcDbEntity
 67
     1
  8
1
  6
Continuous
 62
     7
100
AcDbLine
 10
12.482278
 20
8.632849
 30
0.0
 11
12.387057
 21
8.695173
 31
0.0
  0
LINE
  5
1B7
100
AcDbEntity
 67
     1
  8
1
  6
Continuous
 62
     7
100
AcDbLine
 10
5.158947
 20
3.254857
 30
0.0
 11
5.158947
 21
3.253015
 31
0.0
  0
LINE
  5
1B8
100
AcDbEntity
 67
     1
  8
1
  6
Continuous
 62
     7
100
AcDbLine
 10
14.387052
 20
8.117906
 30
0.0
 11
15.456739
 21
8.117906
 31
0.0
  0
LINE
  5
1B9
100
AcDbEntity
 67
     1
  8
1
  6
Continuous
 62
     7
100
AcDbLine
 10
11.819207
 20
8.708839
 30
0.0
 11
5.819333
 21
8.708839
 31
0.0
  0
LINE
  5
1BA
100
AcDbEntity
 67
     1
  8
1
  6
Continuous
 62
     7
100
AcDbLine
 10
2.5689
 20
2.802352
 30
0.0
 11
2.484952
 21
2.802352
 31
0.0
  0
LINE
  5
1BB
100
AcDbEntity
 67
     1
  8
1
  6
Continuous
 62
     7
100
AcDbLine
 10
4.114143
 20
3.254857
 30
0.0
 11
4.147637
 21
3.129857
 31
0.0
  0
LINE
  5
1BC
100
AcDbEntity
 67
     1
  8
1
  6
Continuous
 62
     7
100
AcDbLine
 10
13.819333
 20
9.962308
 30
0.0
 11
5.819333
 21
9.962308
 31
0.0
  0
LINE
  5
1BD
100
AcDbEntity
 67
     1
  8
1
  6
Continuous
 62
     7
100
AcDbLine
 10
11.819207
 20
7.118225
 30
0.0
 11
5.819333
 21
7.118225
 31
0.0
  0
LINE
  5
1BE
100
AcDbEntity
 67
     1
  8
1
  6
Continuous
 62
     7
100
AcDbLine
 10
16.201046
 20
6.512357
 30
0.0
 11
16.220432
 21
6.409857
 31
0.0
  0
LINE
  5
1BF
100
AcDbEntity
 67
     1
  8
1
  6
Continuous
 62
     7
100
AcDbLine
 10
5.112947
 20
3.254857
 30
0.0
 11
5.112947
 21
3.178374
 31
0.0
  0
LINE
  5
1C0
100
AcDbEntity
 67
     1
  8
1
  6
Continuous
 62
     7
100
AcDbLine
 10
3.573146
 20
7.825418
 30
0.0
 11
3.627237
 21
7.825418
 31
0.0
  0
LINE
  5
1C1
100
AcDbEntity
 67
     1
  8
1
  6
Continuous
 62
     7
100
AcDbLine
 10
12.517917
 20
7.342649
 30
0.0
 11
12.493874
 21
7.311735
 31
0.0
  0
LINE
  5
1C2
100
AcDbEntity
 67
     1
  8
1
  6
Continuous
 62
     7
100
AcDbLine
 10
5.108948
 20
6.99472
 30
0.0
 11
5.108948
 21
7.056275
 31
0.0
  0
LINE
  5
1C3
100
AcDbEntity
 67
     1
  8
1
  6
Continuous
 62
     7
100
AcDbLine
 10
2.677484
 20
5.726487
 30
0.0
 11
2.593536
 21
5.726604
 31
0.0
  0
LINE
  5
1C4
100
AcDbEntity
 67
     1
  8
1
  6
Continuous
 62
     7
100
AcDbLine
 10
2.573146
 20
7.877418
 30
0.0
 11
2.571304
 21
7.877418
 31
0.0
  0
LINE
  5
1C5
100
AcDbEntity
 67
     1
  8
1
  6
Continuous
 62
     7
100
AcDbLine
 10
9.712739
 20
3.016483
 30
0.0
 11
9.679824
 21
3.101763
 31
0.0
  0
LINE
  5
1C6
100
AcDbEntity
 67
     1
  8
1
  6
Continuous
 62
     7
100
AcDbLine
 10
2.5689
 20
2.824846
 30
0.0
 11
2.4439
 21
2.791352
 31
0.0
  0
LINE
  5
1C7
100
AcDbEntity
 67
     1
  8
1
  6
Continuous
 62
     7
100
AcDbLine
 10
4.130637
 20
3.254857
 30
0.0
 11
4.130637
 21
3.193302
 31
0.0
  0
LINE
  5
1C8
100
AcDbEntity
 67
     1
  8
1
  6
Continuous
 62
     7
100
AcDbLine
 10
4.126637
 20
7.104857
 30
0.0
 11
4.126637
 21
7.151484
 31
0.0
  0
LINE
  5
1C9
100
AcDbEntity
 67
     1
  8
1
  6
Continuous
 62
     7
100
AcDbLine
 10
15.822563
 20
9.958061
 30
0.0
 11
11.819333
 21
9.958061
 31
0.0
  0
LINE
  5
1CA
100
AcDbEntity
 67
     1
  8
1
  6
Continuous
 62
     7
100
AcDbLine
 10
15.750871
 20
9.207212
 30
0.0
 11
15.723112
 21
9.144288
 31
0.0
  0
LINE
  5
1CB
100
AcDbEntity
 67
     1
  8
1
  6
Continuous
 62
     7
100
AcDbLine
 10
15.504509
 20
3.642357
 30
0.0
 11
15.551308
 21
3.539857
 31
0.0
  0
LINE
  5
1CC
100
AcDbEntity
 67
     1
  8
1
  6
Continuous
 62
     7
100
AcDbLine
 10
5.159441
 20
3.254857
 30
0.0
 11
5.092454
 21
3.254857
 31
0.0
  0
LINE
  5
1CD
100
AcDbEntity
 67
     1
  8
1
  6
Continuous
 62
     7
100
AcDbLine
 10
2.5689
 20
2.808352
 30
0.0
 11
2.507345
 21
2.808352
 31
0.0
  0
LINE
  5
1CE
100
AcDbEntity
 67
     1
  8
1
  6
Continuous
 62
     7
100
AcDbLine
 10
4.148637
 20
7.104857
 30
0.0
 11
4.148637
 21
7.226125
 31
0.0
  0
LINE
  5
1CF
100
AcDbEntity
 67
     1
  8
1
  6
Continuous
 62
     7
100
AcDbLine
 10
3.734892
 20
3.129857
 30
0.0
 11
4.272637
 21
3.129857
 31
0.0
  0
LINE
  5
1D0
100
AcDbEntity
 67
     1
  8
1
  6
Continuous
 62
     7
100
AcDbLine
 10
11.819207
 20
9.957283
 30
0.0
 11
5.819333
 21
9.957283
 31
0.0
  0
LINE
  5
1D1
100
AcDbEntity
 67
     1
  8
1
  6
Continuous
 62
     7
100
AcDbLine
 10
2.5689
 20
2.818352
 30
0.0
 11
2.544665
 21
2.818352
 31
0.0
  0
LINE
  5
1D2
100
AcDbEntity
 67
     1
  8
1
  6
Continuous
 62
     7
100
AcDbLine
 10
5.819333
 20
7.100054
 30
0.0
 11
5.819333
 21
7.103466
 31
0.0
  0
LINE
  5
1D3
100
AcDbEntity
 67
     1
  8
1
  6
Continuous
 62
     7
100
AcDbLine
 10
16.087357
 20
6.819857
 30
0.0
 11
16.134157
 21
6.717357
 31
0.0
  0
LINE
  5
1D4
100
AcDbEntity
 67
     1
  8
1
  6
Continuous
 62
     7
100
AcDbLine
 10
5.106947
 20
3.254857
 30
0.0
 11
5.106947
 21
3.200766
 31
0.0
  0
LINE
  5
1D5
100
AcDbEntity
 67
     1
  8
1
  6
Continuous
 62
     7
100
AcDbLine
 10
12.513181
 20
7.346332
 30
0.0
 11
12.502885
 21
7.333094
 31
0.0
  0
LINE
  5
1D6
100
AcDbEntity
 67
     1
  8
1
  6
Continuous
 62
     7
100
AcDbLine
 10
5.102948
 20
6.99472
 30
0.0
 11
5.102948
 21
7.033883
 31
0.0
  0
LINE
  5
1D7
100
AcDbEntity
 67
     1
  8
1
  6
Continuous
 62
     7
100
AcDbLine
 10
2.573146
 20
7.839417
 30
0.0
 11
2.466806
 21
7.839417
 31
0.0
  0
LINE
  5
1D8
100
AcDbEntity
 67
     1
  8
1
  6
Continuous
 62
     7
100
AcDbLine
 10
9.718337
 20
3.018643
 30
0.0
 11
9.693484
 21
3.083033
 31
0.0
  0
LINE
  5
1D9
100
AcDbEntity
 67
     1
  8
1
  6
Continuous
 62
     7
100
AcDbLine
 10
3.577392
 20
2.790352
 30
0.0
 11
3.69866
 21
2.790352
 31
0.0
  0
LINE
  5
1DA
100
AcDbEntity
 67
     1
  8
1
  6
Continuous
 62
     7
100
AcDbLine
 10
4.124637
 20
3.254857
 30
0.0
 11
4.124637
 21
3.215694
 31
0.0
  0
LINE
  5
1DB
100
AcDbEntity
 67
     1
  8
1
  6
Continuous
 62
     7
100
AcDbLine
 10
4.120637
 20
7.104857
 30
0.0
 11
4.120637
 21
7.129092
 31
0.0
  0
LINE
  5
1DC
100
AcDbEntity
 67
     1
  8
1
  6
Continuous
 62
     7
100
AcDbLine
 10
15.808483
 20
8.718061
 30
0.0
 11
11.819333
 21
8.718061
 31
0.0
  0
LINE
  5
1DD
100
AcDbEntity
 67
     1
  8
1
  6
Continuous
 62
     7
100
AcDbLine
 10
15.854858
 20
9.395987
 30
0.0
 11
15.819333
 21
9.333061
 31
0.0
  0
LINE
  5
1DE
100
AcDbEntity
 67
     1
  8
1
  6
Continuous
 62
     7
100
AcDbLine
 10
15.418233
 20
3.949857
 30
0.0
 11
15.43762
 21
3.847357
 31
0.0
  0
LINE
  5
1DF
100
AcDbEntity
 67
     1
  8
1
  6
Continuous
 62
     7
100
AcDbLine
 10
3.427071
 20
6.970603
 30
0.0
 11
3.427003
 21
7.01958
 31
0.0
  0
LINE
  5
1E0
100
AcDbEntity
 67
     1
  8
1
  6
Continuous
 62
     7
100
AcDbLine
 10
5.128948
 20
6.99472
 30
0.0
 11
5.128948
 21
7.108524
 31
0.0
  0
LINE
  5
1E1
100
AcDbEntity
 67
     1
  8
1
  6
Continuous
 62
     7
100
AcDbLine
 10
3.573146
 20
7.871418
 30
0.0
 11
3.597381
 21
7.871418
 31
0.0
  0
LINE
  5
1E2
100
AcDbEntity
 67
     1
  8
1
  6
Continuous
 62
     7
100
AcDbLine
 10
2.5689
 20
2.814352
 30
0.0
 11
2.529737
 21
2.814352
 31
0.0
  0
LINE
  5
1E3
100
AcDbEntity
 67
     1
  8
1
  6
Continuous
 62
     7
100
AcDbLine
 10
3.577392
 20
2.818352
 30
0.0
 11
3.601627
 21
2.818352
 31
0.0
  0
LINE
  5
1E4
100
AcDbEntity
 67
     1
  8
1
  6
Continuous
 62
     7
100
AcDbLine
 10
4.154637
 20
7.104857
 30
0.0
 11
4.154637
 21
7.203733
 31
0.0
  0
LINE
  5
1E5
100
AcDbEntity
 67
     1
  8
1
  6
Continuous
 62
     7
100
AcDbLine
 10
5.819333
 20
8.979205
 30
0.0
 11
5.819333
 21
8.975043
 31
0.0
  0
LINE
  5
1E6
100
AcDbEntity
 67
     1
  8
1
  6
Continuous
 62
     7
100
AcDbLine
 10
4.516075
 20
5.005482
 30
0.0
 11
4.516075
 21
5.174232
 31
0.0
  0
LINE
  5
1E7
100
AcDbEntity
 67
     1
  8
1
  6
Continuous
 62
     7
100
AcDbLine
 10
11.819207
 20
9.951685
 30
0.0
 11
5.819333
 21
9.951685
 31
0.0
  0
LINE
  5
1E8
100
AcDbEntity
 67
     1
  8
1
  6
Continuous
 62
     7
100
AcDbLine
 10
2.677512
 20
5.746487
 30
0.0
 11
2.668205
 21
5.7465
 31
0.0
  0
LINE
  5
1E9
100
AcDbEntity
 67
     1
  8
1
  6
Continuous
 62
     7
100
AcDbLine
 10
5.819333
 20
7.036687
 30
0.0
 11
5.819333
 21
7.093629
 31
0.0
  0
LINE
  5
1EA
100
AcDbEntity
 67
     1
  8
1
  6
Continuous
 62
     7
100
AcDbLine
 10
15.89776
 20
7.127357
 30
0.0
 11
15.968808
 21
7.024857
 31
0.0
  0
LINE
  5
1EB
100
AcDbEntity
 67
     1
  8
1
  6
Continuous
 62
     7
100
AcDbLine
 10
5.100947
 20
3.254857
 30
0.0
 11
5.100947
 21
3.223158
 31
0.0
  0
LINE
  5
1EC
100
AcDbEntity
 67
     1
  8
1
  6
Continuous
 62
     7
100
AcDbLine
 10
3.573146
 20
7.813417
 30
0.0
 11
3.582453
 21
7.813417
 31
0.0
  0
LINE
  5
1ED
100
AcDbEntity
 67
     1
  8
1
  6
Continuous
 62
     7
100
AcDbLine
 10
12.510023
 20
7.348788
 30
0.0
 11
12.508892
 21
7.347333
 31
0.0
  0
LINE
  5
1EE
100
AcDbEntity
 67
     1
  8
1
  6
Continuous
 62
     7
100
AcDbLine
 10
5.096948
 20
6.99472
 30
0.0
 11
5.096948
 21
7.01149
 31
0.0
  0
LINE
  5
1EF
100
AcDbEntity
 67
     1
  8
1
  6
Continuous
 62
     7
100
AcDbLine
 10
2.573146
 20
7.833417
 30
0.0
 11
2.489199
 21
7.833417
 31
0.0
  0
LINE
  5
1F0
100
AcDbEntity
 67
     1
  8
1
  6
Continuous
 62
     7
100
AcDbLine
 10
3.577392
 20
2.784352
 30
0.0
 11
3.676268
 21
2.784352
 31
0.0
  0
LINE
  5
1F1
100
AcDbEntity
 67
     1
  8
1
  6
Continuous
 62
     7
100
AcDbLine
 10
4.118637
 20
3.254857
 30
0.0
 11
4.118637
 21
3.238087
 31
0.0
  0
LINE
  5
1F2
100
AcDbEntity
 67
     1
  8
1
  6
Continuous
 62
     7
100
AcDbLine
 10
4.114637
 20
7.104857
 30
0.0
 11
4.114637
 21
7.106699
 31
0.0
  0
LINE
  5
1F3
100
AcDbEntity
 67
     1
  8
1
  6
Continuous
 62
     7
100
AcDbLine
 10
5.819333
 20
8.890953
 30
0.0
 11
5.819333
 21
8.861978
 31
0.0
  0
LINE
  5
1F4
100
AcDbEntity
 67
     1
  8
1
  6
Continuous
 62
     7
100
AcDbLine
 10
15.935545
 20
9.58476
 30
0.0
 11
15.915553
 21
9.521835
 31
0.0
  0
LINE
  5
1F5
100
AcDbEntity
 67
     1
  8
1
  6
Continuous
 62
     7
100
AcDbLine
 10
15.420282
 20
4.257357
 30
0.0
 11
15.409329
 21
4.154857
 31
0.0
  0
LINE
  5
1F6
100
AcDbEntity
 67
     1
  8
1
  6
Continuous
 62
     7
100
AcDbLine
 10
3.573146
 20
7.877418
 30
0.0
 11
3.574989
 21
7.877418
 31
0.0
  0
LINE
  5
1F7
100
AcDbEntity
 67
     1
  8
1
  6
Continuous
 62
     7
100
AcDbLine
 10
2.5689
 20
2.820352
 30
0.0
 11
2.55213
 21
2.820352
 31
0.0
  0
LINE
  5
1F8
100
AcDbEntity
 67
     1
  8
1
  6
Continuous
 62
     7
100
AcDbLine
 10
3.577392
 20
2.824352
 30
0.0
 11
3.579235
 21
2.824352
 31
0.0
  0
LINE
  5
1F9
100
AcDbEntity
 67
     1
  8
1
  6
Continuous
 62
     7
100
AcDbLine
 10
4.160637
 20
7.104857
 30
0.0
 11
4.160637
 21
7.181341
 31
0.0
  0
LINE
  5
1FA
100
AcDbEntity
 67
     1
  8
1
  6
Continuous
 62
     7
100
AcDbLine
 10
4.147637
 20
7.229857
 30
0.0
 11
4.147637
 21
5.416732
 31
0.0
  0
LINE
  5
1FB
100
AcDbEntity
 67
     1
  8
1
  6
Continuous
 62
     7
100
AcDbLine
 10
3.956012
 20
5.174232
 30
0.0
 11
3.956012
 21
5.005482
 31
0.0
  0
LINE
  5
1FC
100
AcDbEntity
 67
     1
  8
1
  6
Continuous
 62
     7
100
AcDbLine
 10
5.819333
 20
9.896894
 30
0.0
 11
5.819333
 21
9.896815
 31
0.0
  0
LINE
  5
1FD
100
AcDbEntity
 67
     1
  8
1
  6
Continuous
 62
     7
100
AcDbLine
 10
2.677467
 20
5.714487
 30
0.0
 11
2.556199
 21
5.714656
 31
0.0
  0
LINE
  5
1FE
100
AcDbEntity
 67
     1
  8
1
  6
Continuous
 62
     7
100
AcDbLine
 10
5.819333
 20
7.026828
 30
0.0
 11
5.819333
 21
7.030256
 31
0.0
  0
LINE
  5
1FF
100
AcDbEntity
 67
     1
  8
1
  6
Continuous
 62
     7
100
AcDbLine
 10
11.819207
 20
7.11972
 30
0.0
 11
5.819333
 21
7.11972
 31
0.0
  0
LINE
  5
200
100
AcDbEntity
 67
     1
  8
1
  6
Continuous
 62
     7
100
AcDbLine
 10
14.476377
 20
0.974686
 30
0.0
 11
16.369932
 21
0.974686
 31
0.0
  0
LINE
  5
201
100
AcDbEntity
 67
     1
  8
1
  6
Continuous
 62
     7
100
AcDbLine
 10
5.094947
 20
3.254857
 30
0.0
 11
5.094947
 21
3.245551
 31
0.0
  0
LINE
  5
202
100
AcDbEntity
 67
     1
  8
1
  6
Continuous
 62
     7
100
AcDbLine
 10
3.573146
 20
7.845417
 30
0.0
 11
3.694414
 21
7.845417
 31
0.0
  0
LINE
  5
203
100
AcDbEntity
 67
     1
  8
1
  6
Continuous
 62
     7
100
AcDbLine
 10
12.540019
 20
7.325459
 30
0.0
 11
12.474735
 21
7.241518
 31
0.0
  0
LINE
  5
204
100
AcDbEntity
 67
     1
  8
1
  6
Continuous
 62
     7
100
AcDbLine
 10
5.092947
 20
6.99472
 30
0.0
 11
5.092947
 21
6.996562
 31
0.0
  0
LINE
  5
205
100
AcDbEntity
 67
     1
  8
1
  6
Continuous
 62
     7
100
AcDbLine
 10
3.573146
 20
7.863417
 30
0.0
 11
3.627237
 21
7.863417
 31
0.0
  0
LINE
  5
206
100
AcDbEntity
 67
     1
  8
1
  6
Continuous
 62
     7
100
AcDbLine
 10
2.573146
 20
7.827417
 30
0.0
 11
2.511591
 21
7.827417
 31
0.0
  0
LINE
  5
207
100
AcDbEntity
 67
     1
  8
1
  6
Continuous
 62
     7
100
AcDbLine
 10
9.729531
 20
3.022964
 30
0.0
 11
9.720805
 21
3.045573
 31
0.0
  0
LINE
  5
208
100
AcDbEntity
 67
     1
  8
1
  6
Continuous
 62
     7
100
AcDbLine
 10
2.322493
 20
5.732982
 30
0.0
 11
2.384048
 21
5.732896
 31
0.0
  0
LINE
  5
209
100
AcDbEntity
 67
     1
  8
1
  6
Continuous
 62
     7
100
AcDbLine
 10
10.027132
 20
2.824655
 30
0.0
 11
9.777132
 21
2.824655
 31
0.0
  0
LINE
  5
20A
100
AcDbEntity
 67
     1
  8
1
  6
Continuous
 62
     7
100
AcDbLine
 10
3.577392
 20
2.778352
 30
0.0
 11
3.653876
 21
2.778352
 31
0.0
  0
LINE
  5
20B
100
AcDbEntity
 67
     1
  8
1
  6
Continuous
 62
     7
100
AcDbLine
 10
4.114637
 20
3.254857
 30
0.0
 11
4.114637
 21
3.253015
 31
0.0
  0
LINE
  5
20C
100
AcDbEntity
 67
     1
  8
1
  6
Continuous
 62
     7
100
AcDbLine
 10
4.114143
 20
7.104857
 30
0.0
 11
4.181131
 21
7.104857
 31
0.0
  0
LINE
  5
20D
100
AcDbEntity
 67
     1
  8
1
  6
Continuous
 62
     7
100
AcDbLine
 10
5.819333
 20
8.962831
 30
0.0
 11
5.819333
 21
8.94359
 31
0.0
  0
LINE
  5
20E
100
AcDbEntity
 67
     1
  8
1
  6
Continuous
 62
     7
100
AcDbLine
 10
2.322501
 20
5.738982
 30
0.0
 11
2.361664
 21
5.738927
 31
0.0
  0
LINE
  5
20F
100
AcDbEntity
 67
     1
  8
1
  6
Continuous
 62
     7
100
AcDbLine
 10
15.927635
 20
9.773534
 30
0.0
 11
15.94245
 21
9.710609
 31
0.0
  0
LINE
  5
210
100
AcDbEntity
 67
     1
  8
1
  6
Continuous
 62
     7
100
AcDbLine
 10
15.505856
 20
4.564857
 30
0.0
 11
15.4696
 21
4.462357
 31
0.0
  0
LINE
  5
211
100
AcDbEntity
 67
     1
  8
1
  6
Continuous
 62
     7
100
AcDbLine
 10
3.62873
 20
7.026828
 30
0.0
 11
3.53949
 21
7.010964
 31
0.0
  0
LINE
  5
212
100
AcDbEntity
 67
     1
  8
1
  6
Continuous
 62
     7
100
AcDbLine
 10
2.4439
 20
2.791352
 30
0.0
 11
2.779646
 21
2.791352
 31
0.0
  0
LINE
  5
213
100
AcDbEntity
 67
     1
  8
1
  6
Continuous
 62
     7
100
AcDbLine
 10
12.469134
 20
8.612768
 30
0.0
 11
12.448857
 21
8.62604
 31
0.0
  0
LINE
  5
214
100
AcDbEntity
 67
     1
  8
1
  6
Continuous
 62
     7
100
AcDbLine
 10
5.140947
 20
6.99472
 30
0.0
 11
5.140947
 21
7.063739
 31
0.0
  0
LINE
  5
215
100
AcDbEntity
 67
     1
  8
1
  6
Continuous
 62
     7
100
AcDbLine
 10
3.573146
 20
7.877911
 30
0.0
 11
3.573146
 21
7.810924
 31
0.0
  0
LINE
  5
216
100
AcDbEntity
 67
     1
  8
1
  6
Continuous
 62
     7
100
AcDbLine
 10
2.5689
 20
2.824352
 30
0.0
 11
2.567058
 21
2.824352
 31
0.0
  0
LINE
  5
217
100
AcDbEntity
 67
     1
  8
1
  6
Continuous
 62
     7
100
AcDbLine
 10
3.577392
 20
2.824846
 30
0.0
 11
3.577392
 21
2.757858
 31
0.0
  0
LINE
  5
218
100
AcDbEntity
 67
     1
  8
1
  6
Continuous
 62
     7
100
AcDbLine
 10
16.369932
 20
2.488467
 30
0.0
 11
12.205371
 21
2.488467
 31
0.0
  0
LINE
  5
219
100
AcDbEntity
 67
     1
  8
1
  6
Continuous
 62
     7
100
AcDbLine
 10
2.677515
 20
5.74898
 30
0.0
 11
2.552469
 21
5.715661
 31
0.0
  0
LINE
  5
21A
100
AcDbEntity
 67
     1
  8
1
  6
Continuous
 62
     7
100
AcDbLine
 10
2.322465
 20
5.712982
 30
0.0
 11
2.436268
 21
5.712823
 31
0.0
  0
LINE
  5
21B
100
AcDbEntity
 67
     1
  8
1
  6
Continuous
 62
     7
100
AcDbLine
 10
5.819333
 20
9.896815
 30
0.0
 11
5.819333
 21
9.894466
 31
0.0
  0
LINE
  5
21C
100
AcDbEntity
 67
     1
  8
1
  6
Continuous
 62
     7
100
AcDbLine
 10
2.677459
 20
5.708487
 30
0.0
 11
2.578583
 21
5.708625
 31
0.0
  0
LINE
  5
21D
100
AcDbEntity
 67
     1
  8
1
  6
Continuous
 62
     7
100
AcDbLine
 10
11.819207
 20
7.010964
 30
0.0
 11
5.819333
 21
7.010964
 31
0.0
  0
LINE
  5
21E
100
AcDbEntity
 67
     1
  8
1
  6
Continuous
 62
     7
100
AcDbLine
 10
2.448146
 20
7.219857
 30
0.0
 11
2.448146
 21
6.909857
 31
0.0
  0
LINE
  5
21F
100
AcDbEntity
 67
     1
  8
1
  6
Continuous
 62
     7
100
AcDbLine
 10
12.487755
 20
8.641216
 30
0.0
 11
12.405025
 21
8.695365
 31
0.0
  0
LINE
  5
220
100
AcDbEntity
 67
     1
  8
1
  6
Continuous
 62
     7
100
AcDbLine
 10
5.126947
 20
3.254857
 30
0.0
 11
5.126947
 21
3.133589
 31
0.0
  0
LINE
  5
221
100
AcDbEntity
 67
     1
  8
1
  6
Continuous
 62
     7
100
AcDbLine
 10
3.573146
 20
7.851418
 30
0.0
 11
3.672022
 21
7.851418
 31
0.0
  0
LINE
  5
222
100
AcDbEntity
 67
     1
  8
1
  6
Continuous
 62
     7
100
AcDbLine
 10
12.544755
 20
7.321775
 30
0.0
 11
12.493218
 21
7.25551
 31
0.0
  0
LINE
  5
223
100
AcDbEntity
 67
     1
  8
1
  6
Continuous
 62
     7
100
AcDbLine
 10
5.125947
 20
7.11972
 30
0.0
 11
5.092454
 21
6.99472
 31
0.0
  0
LINE
  5
224
100
AcDbEntity
 67
     1
  8
1
  6
Continuous
 62
     7
100
AcDbLine
 10
2.573146
 20
7.821417
 30
0.0
 11
2.533983
 21
7.821417
 31
0.0
  0
LINE
  5
225
100
AcDbEntity
 67
     1
  8
1
  6
Continuous
 62
     7
100
AcDbLine
 10
9.735129
 20
3.025125
 30
0.0
 11
9.734466
 21
3.026844
 31
0.0
  0
LINE
  5
226
100
AcDbEntity
 67
     1
  8
1
  6
Continuous
 62
     7
100
AcDbLine
 10
2.322476
 20
5.720982
 30
0.0
 11
2.428815
 21
5.720834
 31
0.0
  0
LINE
  5
227
100
AcDbEntity
 67
     1
  8
1
  6
Continuous
 62
     7
100
AcDbLine
 10
4.152637
 20
3.254857
 30
0.0
 11
4.152637
 21
3.148517
 31
0.0
  0
LINE
  5
228
100
AcDbEntity
 67
     1
  8
1
  6
Continuous
 62
     7
100
AcDbLine
 10
11.819207
 20
8.861978
 30
0.0
 11
5.819333
 21
8.861978
 31
0.0
  0
LINE
  5
229
100
AcDbEntity
 67
     1
  8
1
  6
Continuous
 62
     7
100
AcDbLine
 10
2.322509
 20
5.744982
 30
0.0
 11
2.33928
 21
5.744959
 31
0.0
  0
LINE
  5
22A
100
AcDbEntity
 67
     1
  8
1
  6
Continuous
 62
     7
100
AcDbLine
 10
15.819333
 20
9.962308
 30
0.0
 11
15.865213
 21
9.899384
 31
0.0
  0
LINE
  5
22B
100
AcDbEntity
 67
     1
  8
1
  6
Continuous
 62
     7
100
AcDbLine
 10
12.465849
 20
8.607748
 30
0.0
 11
12.464307
 21
8.608757
 31
0.0
  0
LINE
  5
22C
100
AcDbEntity
 67
     1
  8
1
  6
Continuous
 62
     7
100
AcDbLine
 10
5.146947
 20
6.99472
 30
0.0
 11
5.146947
 21
7.041347
 31
0.0
  0
LINE
  5
22D
100
AcDbEntity
 67
     1
  8
1
  6
Continuous
 62
     7
100
AcDbLine
 10
2.573146
 20
7.847417
 30
0.0
 11
2.459342
 21
7.847417
 31
0.0
  0
LINE
  5
22E
100
AcDbEntity
 67
     1
  8
1
  6
Continuous
 62
     7
100
AcDbLine
 10
2.5689
 20
2.786352
 30
0.0
 11
2.46256
 21
2.786352
 31
0.0
  0
LINE
  5
22F
100
AcDbEntity
 67
     1
  8
1
  6
Continuous
 62
     7
100
AcDbLine
 10
5.756833
 20
3.129857
 30
0.0
 11
5.000947
 21
3.129857
 31
0.0
  0
LINE
  5
230
100
AcDbEntity
 67
     1
  8
1
  6
Continuous
 62
     7
100
AcDbLine
 10
2.322456
 20
5.706982
 30
0.0
 11
2.413868
 21
5.706855
 31
0.0
  0
LINE
  5
231
100
AcDbEntity
 67
     1
  8
1
  6
Continuous
 62
     7
100
AcDbLine
 10
11.819207
 20
9.804146
 30
0.0
 11
5.819333
 21
9.804146
 31
0.0
  0
LINE
  5
232
100
AcDbEntity
 67
     1
  8
1
  6
Continuous
 62
     7
100
AcDbLine
 10
2.67745
 20
5.702487
 30
0.0
 11
2.600967
 21
5.702593
 31
0.0
  0
LINE
  5
233
100
AcDbEntity
 67
     1
  8
1
  6
Continuous
 62
     7
100
AcDbLine
 10
11.819207
 20
6.996795
 30
0.0
 11
5.819333
 21
6.996795
 31
0.0
  0
LINE
  5
234
100
AcDbEntity
 67
     1
  8
1
  6
Continuous
 62
     7
100
AcDbLine
 10
5.132947
 20
3.254857
 30
0.0
 11
5.132947
 21
3.155982
 31
0.0
  0
LINE
  5
235
100
AcDbEntity
 67
     1
  8
1
  6
Continuous
 62
     7
100
AcDbLine
 10
5.120947
 20
3.254857
 30
0.0
 11
5.120947
 21
3.148517
 31
0.0
  0
LINE
  5
236
100
AcDbEntity
 67
     1
  8
1
  6
Continuous
 62
     7
100
AcDbLine
 10
2.573146
 20
7.815417
 30
0.0
 11
2.556376
 21
7.815417
 31
0.0
  0
LINE
  5
237
100
AcDbEntity
 67
     1
  8
1
  6
Continuous
 62
     7
100
AcDbLine
 10
2.552469
 20
5.715661
 30
0.0
 11
2.777468
 21
5.715347
 31
0.0
  0
LINE
  5
238
100
AcDbEntity
 67
     1
  8
1
  6
Continuous
 62
     7
100
AcDbLine
 10
3.577392
 20
2.766352
 30
0.0
 11
3.609091
 21
2.766352
 31
0.0
  0
LINE
  5
239
100
AcDbEntity
 67
     1
  8
1
  6
Continuous
 62
     7
100
AcDbLine
 10
4.158637
 20
3.254857
 30
0.0
 11
4.158637
 21
3.17091
 31
0.0
  0
LINE
  5
23A
100
AcDbEntity
 67
     1
  8
1
  6
Continuous
 62
     7
100
AcDbLine
 10
5.819333
 20
8.771656
 30
0.0
 11
5.819333
 21
8.777585
 31
0.0
  0
LINE
  5
23B
100
AcDbEntity
 67
     1
  8
1
  6
Continuous
 62
     7
100
AcDbLine
 10
2.322515
 20
5.748982
 30
0.0
 11
2.324357
 21
5.74898
 31
0.0
  0
LINE
  5
23C
100
AcDbEntity
 67
     1
  8
1
  6
Continuous
 62
     7
100
AcDbLine
 10
15.795953
 20
3.159899
 30
0.0
 11
11.819333
 21
3.159899
 31
0.0
  0
LINE
  5
23D
100
AcDbEntity
 67
     1
  8
1
  6
Continuous
 62
     7
100
AcDbLine
 10
15.819333
 20
5.179857
 30
0.0
 11
15.760937
 21
5.077357
 31
0.0
  0
LINE
  5
23E
100
AcDbEntity
 67
     1
  8
1
  6
Continuous
 62
     7
100
AcDbLine
 10
3.672392
 20
3.129857
 30
0.0
 11
2.4739
 21
3.129857
 31
0.0
  0
LINE
  5
23F
100
AcDbEntity
 67
     1
  8
1
  6
Continuous
 62
     7
100
AcDbLine
 10
3.259146
 20
2.487602
 30
0.0
 11
3.304146
 21
2.487602
 31
0.0
  0
LINE
  5
240
100
AcDbEntity
 67
     1
  8
1
  6
Continuous
 62
     7
100
AcDbLine
 10
12.465578
 20
8.607334
 30
0.0
 11
12.502264
 21
8.663383
 31
0.0
  0
LINE
  5
241
100
AcDbEntity
 67
     1
  8
1
  6
Continuous
 62
     7
100
AcDbLine
 10
5.152947
 20
6.99472
 30
0.0
 11
5.152947
 21
7.018955
 31
0.0
  0
LINE
  5
242
100
AcDbEntity
 67
     1
  8
1
  6
Continuous
 62
     7
100
AcDbLine
 10
2.573146
 20
7.853417
 30
0.0
 11
2.481735
 21
7.853417
 31
0.0
  0
LINE
  5
243
100
AcDbEntity
 67
     1
  8
1
  6
Continuous
 62
     7
100
AcDbLine
 10
2.5689
 20
2.780352
 30
0.0
 11
2.484952
 21
2.780352
 31
0.0
  0
LINE
  5
244
100
AcDbEntity
 67
     1
  8
1
  6
Continuous
 62
     7
100
AcDbLine
 10
5.494385
 20
4.950414
 30
0.0
 11
5.494385
 21
5.119164
 31
0.0
  0
LINE
  5
245
100
AcDbEntity
 67
     1
  8
1
  6
Continuous
 62
     7
100
AcDbLine
 10
5.819333
 20
9.722532
 30
0.0
 11
5.819333
 21
9.703293
 31
0.0
  0
LINE
  5
246
100
AcDbEntity
 67
     1
  8
1
  6
Continuous
 62
     7
100
AcDbLine
 10
5.819333
 20
6.767522
 30
0.0
 11
5.819333
 21
6.77579
 31
0.0
  0
LINE
  5
247
100
AcDbEntity
 67
     1
  8
1
  6
Continuous
 62
     7
100
AcDbLine
 10
2.508146
 20
7.159857
 30
0.0
 11
2.508146
 21
7.008627
 31
0.0
  0
LINE
  5
248
100
AcDbEntity
 67
     1
  8
1
  6
Continuous
 62
     7
100
AcDbLine
 10
5.138947
 20
3.254857
 30
0.0
 11
5.138947
 21
3.178374
 31
0.0
  0
LINE
  5
249
100
AcDbEntity
 67
     1
  8
1
  6
Continuous
 62
     7
100
AcDbLine
 10
2.322484
 20
5.726982
 30
0.0
 11
2.406431
 21
5.726865
 31
0.0
  0
LINE
  5
24A
100
AcDbEntity
 67
     1
  8
1
  6
Continuous
 62
     7
100
AcDbLine
 10
2.573146
 20
7.811418
 30
0.0
 11
2.571304
 21
7.811418
 31
0.0
  0
LINE
  5
24B
100
AcDbEntity
 67
     1
  8
1
  6
Continuous
 62
     7
100
AcDbLine
 10
9.695947
 20
3.010001
 30
0.0
 11
9.663031
 21
3.095281
 31
0.0
  0
LINE
  5
24C
100
AcDbEntity
 67
     1
  8
1
  6
Continuous
 62
     7
100
AcDbLine
 10
2.009788
 20
5.412343
 30
0.0
 11
2.009788
 21
5.581092
 31
0.0
  0
LINE
  5
24D
100
AcDbEntity
 67
     1
  8
1
  6
Continuous
 62
     7
100
AcDbLine
 10
4.164637
 20
3.254857
 30
0.0
 11
4.164637
 21
3.193302
 31
0.0
  0
LINE
  5
24E
100
AcDbEntity
 67
     1
  8
1
  6
Continuous
 62
     7
100
AcDbLine
 10
5.819333
 20
8.769228
 30
0.0
 11
5.819333
 21
8.769308
 31
0.0
  0
LINE
  5
24F
100
AcDbEntity
 67
     1
  8
1
  6
Continuous
 62
     7
100
AcDbLine
 10
2.447469
 20
5.715808
 30
0.0
 11
2.322515
 21
5.749476
 31
0.0
  0
LINE
  5
250
100
AcDbEntity
 67
     1
  8
1
  6
Continuous
 62
     7
100
AcDbLine
 10
11.819333
 20
6.894857
 30
0.0
 11
11.819333
 21
6.883877
 31
0.0
  0
LINE
  5
251
100
AcDbEntity
 67
     1
  8
1
  6
Continuous
 62
     7
100
AcDbLine
 10
15.990304
 20
5.487357
 30
0.0
 11
15.935071
 21
5.384857
 31
0.0
  0
LINE
  5
252
100
AcDbEntity
 67
     1
  8
1
  6
Continuous
 62
     7
100
AcDbLine
 10
2.887146
 20
2.656352
 30
0.0
 11
2.842146
 21
2.656352
 31
0.0
  0
LINE
  5
253
100
AcDbEntity
 67
     1
  8
1
  6
Continuous
 62
     7
100
AcDbLine
 10
12.533704
 20
7.33037
 30
0.0
 11
12.463838
 21
7.240537
 31
0.0
  0
LINE
  5
254
100
AcDbEntity
 67
     1
  8
1
  6
Continuous
 62
     7
100
AcDbLine
 10
2.322448
 20
5.700982
 30
0.0
 11
2.391467
 21
5.700886
 31
0.0
  0
LINE
  5
255
100
AcDbEntity
 67
     1
  8
1
  6
Continuous
 62
     7
100
AcDbLine
 10
2.573146
 20
7.859417
 30
0.0
 11
2.504127
 21
7.859417
 31
0.0
  0
LINE
  5
256
100
AcDbEntity
 67
     1
  8
1
  6
Continuous
 62
     7
100
AcDbLine
 10
2.5689
 20
2.774352
 30
0.0
 11
2.507345
 21
2.774352
 31
0.0
  0
LINE
  5
257
100
AcDbEntity
 67
     1
  8
1
  6
Continuous
 62
     7
100
AcDbLine
 10
6.526266
 20
0.974686
 30
0.0
 11
12.205371
 21
0.974686
 31
0.0
  0
LINE
  5
258
100
AcDbEntity
 67
     1
  8
1
  6
Continuous
 62
     7
100
AcDbLine
 10
16.369932
 20
0.440085
 30
0.0
 11
0.633067
 21
0.440085
 31
0.0
  0
LINE
  5
259
100
AcDbEntity
 67
     1
  8
1
  6
Continuous
 62
     7
100
AcDbLine
 10
2.448146
 20
7.844418
 30
0.0
 11
2.779646
 21
7.844418
 31
0.0
  0
LINE
  5
25A
100
AcDbEntity
 67
     1
  8
1
  6
Continuous
 62
     7
100
AcDbLine
 10
2.322439
 20
5.694983
 30
0.0
 11
2.369066
 21
5.694917
 31
0.0
  0
LINE
  5
25B
100
AcDbEntity
 67
     1
  8
1
  6
Continuous
 62
     7
100
AcDbLine
 10
5.819333
 20
9.804146
 30
0.0
 11
5.819333
 21
9.77517
 31
0.0
  0
LINE
  5
25C
100
AcDbEntity
 67
     1
  8
1
  6
Continuous
 62
     7
100
AcDbLine
 10
5.819333
 20
3.159899
 30
0.0
 11
5.819333
 21
6.75838
 31
0.0
  0
LINE
  5
25D
100
AcDbEntity
 67
     1
  8
1
  6
Continuous
 62
     7
100
AcDbLine
 10
5.144948
 20
3.254857
 30
0.0
 11
5.144948
 21
3.200766
 31
0.0
  0
LINE
  5
25E
100
AcDbEntity
 67
     1
  8
1
  6
Continuous
 62
     7
100
AcDbLine
 10
2.448146
 20
7.844418
 30
0.0
 11
2.573146
 21
7.810924
 31
0.0
  0
LINE
  5
25F
100
AcDbEntity
 67
     1
  8
1
  6
Continuous
 62
     7
100
AcDbLine
 10
9.690349
 20
3.007841
 30
0.0
 11
9.665497
 21
3.07223
 31
0.0
  0
LINE
  5
260
100
AcDbEntity
 67
     1
  8
1
  6
Continuous
 62
     7
100
AcDbLine
 10
1.64585
 20
5.581092
 30
0.0
 11
1.64585
 21
5.412343
 31
0.0
  0
LINE
  5
261
100
AcDbEntity
 67
     1
  8
1
  6
Continuous
 62
     7
100
AcDbLine
 10
3.577392
 20
2.792352
 30
0.0
 11
3.69866
 21
2.792352
 31
0.0
  0
LINE
  5
262
100
AcDbEntity
 67
     1
  8
1
  6
Continuous
 62
     7
100
AcDbLine
 10
4.170637
 20
3.254857
 30
0.0
 11
4.170637
 21
3.215694
 31
0.0
  0
LINE
  5
263
100
AcDbEntity
 67
     1
  8
1
  6
Continuous
 62
     7
100
AcDbLine
 10
11.819207
 20
8.714437
 30
0.0
 11
5.819333
 21
8.714437
 31
0.0
  0
LINE
  5
264
100
AcDbEntity
 67
     1
  8
1
  6
Continuous
 62
     7
100
AcDbLine
 10
2.677475
 20
5.720487
 30
0.0
 11
2.571136
 21
5.720635
 31
0.0
  0
LINE
  5
265
100
AcDbEntity
 67
     1
  8
1
  6
Continuous
 62
     7
100
AcDbLine
 10
16.039265
 20
6.909857
 30
0.0
 11
11.819333
 21
6.909857
 31
0.0
  0
LINE
  5
266
100
AcDbEntity
 67
     1
  8
1
  6
Continuous
 62
     7
100
AcDbLine
 10
2.517563
 20
7.026828
 30
0.0
 11
2.606802
 21
7.010964
 31
0.0
  0
LINE
  5
267
100
AcDbEntity
 67
     1
  8
1
  6
Continuous
 62
     7
100
AcDbLine
 10
3.573146
 20
7.839417
 30
0.0
 11
3.679486
 21
7.839417
 31
0.0
  0
LINE
  5
268
100
AcDbEntity
 67
     1
  8
1
  6
Continuous
 62
     7
100
AcDbLine
 10
12.528968
 20
7.334054
 30
0.0
 11
12.472849
 21
7.261896
 31
0.0
  0
LINE
  5
269
100
AcDbEntity
 67
     1
  8
1
  6
Continuous
 62
     7
100
AcDbLine
 10
2.573146
 20
7.865417
 30
0.0
 11
2.526519
 21
7.865417
 31
0.0
  0
LINE
  5
26A
100
AcDbEntity
 67
     1
  8
1
  6
Continuous
 62
     7
100
AcDbLine
 10
12.379333
 20
8.703815
 30
0.0
 11
13.191989
 21
8.171906
 31
0.0
  0
LINE
  5
26B
100
AcDbEntity
 67
     1
  8
1
  6
Continuous
 62
     7
100
AcDbLine
 10
2.5689
 20
2.768352
 30
0.0
 11
2.529737
 21
2.768352
 31
0.0
  0
LINE
  5
26C
100
AcDbEntity
 67
     1
  8
1
  6
Continuous
 62
     7
100
AcDbLine
 10
4.144637
 20
3.254857
 30
0.0
 11
4.144637
 21
3.141053
 31
0.0
  0
LINE
  5
26D
100
AcDbEntity
 67
     1
  8
1
  6
Continuous
 62
     7
100
AcDbLine
 10
4.140637
 20
7.104857
 30
0.0
 11
4.140637
 21
7.203733
 31
0.0
  0
LINE
  5
26E
100
AcDbEntity
 67
     1
  8
1
  6
Continuous
 62
     7
100
AcDbLine
 10
15.819333
 20
8.703815
 30
0.0
 11
11.819333
 21
8.703815
 31
0.0
  0
LINE
  5
26F
100
AcDbEntity
 67
     1
  8
1
  6
Continuous
 62
     7
100
AcDbLine
 10
3.304146
 20
7.709417
 30
0.0
 11
3.259146
 21
7.709417
 31
0.0
  0
LINE
  5
270
100
AcDbEntity
 67
     1
  8
1
  6
Continuous
 62
     7
100
AcDbLine
 10
2.322431
 20
5.688982
 30
0.0
 11
2.346666
 21
5.688949
 31
0.0
  0
LINE
  5
271
100
AcDbEntity
 67
     1
  8
1
  6
Continuous
 62
     7
100
AcDbLine
 10
15.773452
 20
8.76674
 30
0.0
 11
15.819333
 21
8.703815
 31
0.0
  0
LINE
  5
272
100
AcDbEntity
 67
     1
  8
1
  6
Continuous
 62
     7
100
AcDbLine
 10
2.677425
 20
5.684487
 30
0.0
 11
2.668119
 21
5.6845
 31
0.0
  0
LINE
  5
273
100
AcDbEntity
 67
     1
  8
1
  6
Continuous
 62
     7
100
AcDbLine
 10
5.819333
 20
3.133883
 30
0.0
 11
5.819333
 21
3.144881
 31
0.0
  0
LINE
  5
274
100
AcDbEntity
 67
     1
  8
1
  6
Continuous
 62
     7
100
AcDbLine
 10
3.629452
 20
6.998713
 30
0.0
 11
3.566132
 21
6.990376
 31
0.0
  0
LINE
  5
275
100
AcDbEntity
 67
     1
  8
1
  6
Continuous
 62
     7
100
AcDbLine
 10
5.150948
 20
3.254857
 30
0.0
 11
5.150948
 21
3.223158
 31
0.0
  0
LINE
  5
276
100
AcDbEntity
 67
     1
  8
1
  6
Continuous
 62
     7
100
AcDbLine
 10
6.526266
 20
0.440085
 30
0.0
 11
6.526266
 21
2.257467
 31
0.0
  0
LINE
  5
277
100
AcDbEntity
 67
     1
  8
1
  6
Continuous
 62
     7
100
AcDbLine
 10
9.684752
 20
3.00568
 30
0.0
 11
9.667962
 21
3.04918
 31
0.0
  0
LINE
  5
278
100
AcDbEntity
 67
     1
  8
1
  6
Continuous
 62
     7
100
AcDbLine
 10
2.5689
 20
2.794352
 30
0.0
 11
2.455096
 21
2.794352
 31
0.0
  0
LINE
  5
279
100
AcDbEntity
 67
     1
  8
1
  6
Continuous
 62
     7
100
AcDbLine
 10
3.577392
 20
2.798352
 30
0.0
 11
3.676268
 21
2.798352
 31
0.0
  0
LINE
  5
27A
100
AcDbEntity
 67
     1
  8
1
  6
Continuous
 62
     7
100
AcDbLine
 10
4.176637
 20
3.254857
 30
0.0
 11
4.176637
 21
3.238087
 31
0.0
  0
LINE
  5
27B
100
AcDbEntity
 67
     1
  8
1
  6
Continuous
 62
     7
100
AcDbLine
 10
15.819333
 20
7.229857
 30
0.0
 11
11.819333
 21
7.229857
 31
0.0
  0
LINE
  5
27C
100
AcDbEntity
 67
     1
  8
1
  6
Continuous
 62
     7
100
AcDbLine
 10
16.218382
 20
6.102357
 30
0.0
 11
16.197941
 21
5.999857
 31
0.0
  0
LINE
  5
27D
100
AcDbEntity
 67
     1
  8
1
  6
Continuous
 62
     7
100
AcDbLine
 10
3.573146
 20
7.833417
 30
0.0
 11
3.657094
 21
7.833417
 31
0.0
  0
LINE
  5
27E
100
AcDbEntity
 67
     1
  8
1
  6
Continuous
 62
     7
100
AcDbLine
 10
12.524232
 20
7.337738
 30
0.0
 11
12.481859
 21
7.283256
 31
0.0
  0
LINE
  5
27F
100
AcDbEntity
 67
     1
  8
1
  6
Continuous
 62
     7
100
AcDbLine
 10
5.116948
 20
6.99472
 30
0.0
 11
5.116948
 21
7.086132
 31
0.0
  0
LINE
  5
280
100
AcDbEntity
 67
     1
  8
1
  6
Continuous
 62
     7
100
AcDbLine
 10
2.573146
 20
7.871418
 30
0.0
 11
2.548912
 21
7.871418
 31
0.0
  0
LINE
  5
281
100
AcDbEntity
 67
     1
  8
1
  6
Continuous
 62
     7
100
AcDbLine
 10
2.5689
 20
2.762352
 30
0.0
 11
2.55213
 21
2.762352
 31
0.0
  0
LINE
  5
282
100
AcDbEntity
 67
     1
  8
1
  6
Continuous
 62
     7
100
AcDbLine
 10
2.842146
 20
7.540668
 30
0.0
 11
2.887146
 21
7.540668
 31
0.0
  0
LINE
  5
283
100
AcDbEntity
 67
     1
  8
1
  6
Continuous
 62
     7
100
AcDbLine
 10
15.696216
 20
8.955514
 30
0.0
 11
15.71103
 21
8.89259
 31
0.0
  0
LINE
  5
284
100
AcDbEntity
 67
     1
  8
1
  6
Continuous
 62
     7
100
AcDbLine
 10
15.740905
 20
3.232357
 30
0.0
 11
15.819333
 21
3.129857
 31
0.0
  0
LINE
  5
285
100
AcDbEntity
 67
     1
  8
1
  6
Continuous
 62
     7
100
AcDbLine
 10
2.5689
 20
2.790352
 30
0.0
 11
2.447632
 21
2.790352
 31
0.0
  0
LINE
  5
286
100
AcDbEntity
 67
     1
  8
1
  6
Continuous
 62
     7
100
AcDbLine
 10
5.156948
 20
3.254857
 30
0.0
 11
5.156948
 21
3.245551
 31
0.0
  0
LINE
  5
287
100
AcDbEntity
 67
     1
  8
1
  6
Continuous
 62
     7
100
AcDbLine
 10
4.168637
 20
7.104857
 30
0.0
 11
4.168637
 21
7.151484
 31
0.0
  0
LINE
  5
288
100
AcDbEntity
 67
     1
  8
1
  6
Continuous
 62
     7
100
AcDbLine
 10
2.5689
 20
2.800352
 30
0.0
 11
2.477489
 21
2.800352
 31
0.0
  0
LINE
  5
289
100
AcDbEntity
 67
     1
  8
1
  6
Continuous
 62
     7
100
AcDbLine
 10
3.577392
 20
2.804352
 30
0.0
 11
3.653876
 21
2.804352
 31
0.0
  0
LINE
  5
28A
100
AcDbEntity
 67
     1
  8
1
  6
Continuous
 62
     7
100
AcDbLine
 10
12.546334
 20
7.320548
 30
0.0
 11
12.499379
 21
7.260174
 31
0.0
  0
LINE
  5
28B
100
AcDbEntity
 67
     1
  8
1
  6
Continuous
 62
     7
100
AcDbLine
 10
4.180637
 20
3.254857
 30
0.0
 11
4.180637
 21
3.253015
 31
0.0
  0
LINE
  5
28C
100
AcDbEntity
 67
     1
  8
1
  6
Continuous
 62
     7
100
AcDbLine
 10
3.573146
 20
7.855417
 30
0.0
 11
3.657094
 21
7.855417
 31
0.0
  0
LINE
  5
28D
100
AcDbEntity
 67
     1
  8
1
  6
Continuous
 62
     7
100
AcDbLine
 10
13.819333
 20
8.703815
 30
0.0
 11
5.819333
 21
8.703815
 31
0.0
  0
LINE
  5
28E
100
AcDbEntity
 67
     1
  8
1
  6
Continuous
 62
     7
100
AcDbLine
 10
2.677492
 20
5.732487
 30
0.0
 11
2.615937
 21
5.732573
 31
0.0
  0
LINE
  5
28F
100
AcDbEntity
 67
     1
  8
1
  6
Continuous
 62
     7
100
AcDbLine
 10
5.819333
 20
7.11972
 30
0.0
 11
5.819333
 21
7.119346
 31
0.0
  0
LINE
  5
290
100
AcDbEntity
 67
     1
  8
1
  6
Continuous
 62
     7
100
AcDbLine
 10
16.220432
 20
6.409857
 30
0.0
 11
16.22998
 21
6.307357
 31
0.0
  0
LINE
  5
291
100
AcDbEntity
 67
     1
  8
1
  6
Continuous
 62
     7
100
AcDbLine
 10
5.114948
 20
3.254857
 30
0.0
 11
5.114948
 21
3.17091
 31
0.0
  0
LINE
  5
292
100
AcDbEntity
 67
     1
  8
1
  6
Continuous
 62
     7
100
AcDbLine
 10
3.573146
 20
7.827417
 30
0.0
 11
3.634701
 21
7.827417
 31
0.0
  0
LINE
  5
293
100
AcDbEntity
 67
     1
  8
1
  6
Continuous
 62
     7
100
AcDbLine
 10
12.519495
 20
7.341421
 30
0.0
 11
12.49087
 21
7.304615
 31
0.0
  0
LINE
  5
294
100
AcDbEntity
 67
     1
  8
1
  6
Continuous
 62
     7
100
AcDbLine
 10
5.110948
 20
6.99472
 30
0.0
 11
5.110948
 21
7.063739
 31
0.0
  0
LINE
  5
295
100
AcDbEntity
 67
     1
  8
1
  6
Continuous
 62
     7
100
AcDbLine
 10
4.134637
 20
7.104857
 30
0.0
 11
4.134637
 21
7.181341
 31
0.0
  0
LINE
  5
296
100
AcDbEntity
 67
     1
  8
1
  6
Continuous
 62
     7
100
AcDbLine
 10
2.573146
 20
7.877418
 30
0.0
 11
2.571304
 21
7.877418
 31
0.0
  0
LINE
  5
297
100
AcDbEntity
 67
     1
  8
1
  6
Continuous
 62
     7
100
AcDbLine
 10
9.710874
 20
3.015763
 30
0.0
 11
9.67527
 21
3.108006
 31
0.0
  0
LINE
  5
298
100
AcDbEntity
 67
     1
  8
1
  6
Continuous
 62
     7
100
AcDbLine
 10
2.5689
 20
2.758352
 30
0.0
 11
2.567058
 21
2.758352
 31
0.0
  0
LINE
  5
299
100
AcDbEntity
 67
     1
  8
1
  6
Continuous
 62
     7
100
AcDbLine
 10
12.465849
 20
8.607748
 30
0.0
 11
12.464307
 21
8.608757
 31
0.0
  0
LINE
  5
29A
100
AcDbEntity
 67
     1
  8
1
  6
Continuous
 62
     7
100
AcDbLine
 10
4.132637
 20
3.254857
 30
0.0
 11
4.132637
 21
3.185838
 31
0.0
  0
LINE
  5
29B
100
AcDbEntity
 67
     1
  8
1
  6
Continuous
 62
     7
100
AcDbLine
 10
4.128637
 20
7.104857
 30
0.0
 11
4.128637
 21
7.158948
 31
0.0
  0
LINE
  5
29C
100
AcDbEntity
 67
     1
  8
1
  6
Continuous
 62
     7
100
AcDbLine
 10
3.573146
 20
7.811418
 30
0.0
 11
3.574989
 21
7.811418
 31
0.0
  0
LINE
  5
29D
100
AcDbEntity
 67
     1
  8
1
  6
Continuous
 62
     7
100
AcDbLine
 10
15.830173
 20
9.948062
 30
0.0
 11
11.819333
 21
9.948062
 31
0.0
  0
LINE
  5
29E
100
AcDbEntity
 67
     1
  8
1
  6
Continuous
 62
     7
100
AcDbLine
 10
15.723112
 20
9.144288
 30
0.0
 11
15.70312
 21
9.081363
 31
0.0
  0
LINE
  5
29F
100
AcDbEntity
 67
     1
  8
1
  6
Continuous
 62
     7
100
AcDbLine
 10
15.551308
 20
3.539857
 30
0.0
 11
15.606541
 21
3.437357
 31
0.0
  0
LINE
  5
2A0
100
AcDbEntity
 67
     1
  8
1
  6
Continuous
 62
     7
100
AcDbLine
 10
3.597266
 20
3.250049
 30
0.0
 11
3.592421
 21
6.720234
 31
0.0
  0
LINE
  5
2A1
100
AcDbEntity
 67
     1
  8
1
  6
Continuous
 62
     7
100
AcDbLine
 10
12.480087
 20
8.629502
 30
0.0
 11
12.397358
 21
8.683651
 31
0.0
  0
LINE
  5
2A2
100
AcDbEntity
 67
     1
  8
1
  6
Continuous
 62
     7
100
AcDbLine
 10
5.092454
 20
3.254857
 30
0.0
 11
5.125947
 21
3.129857
 31
0.0
  0
LINE
  5
2A3
100
AcDbEntity
 67
     1
  8
1
  6
Continuous
 62
     7
100
AcDbLine
 10
2.5689
 20
2.806352
 30
0.0
 11
2.499881
 21
2.806352
 31
0.0
  0
LINE
  5
2A4
100
AcDbEntity
 67
     1
  8
1
  6
Continuous
 62
     7
100
AcDbLine
 10
3.577392
 20
2.810352
 30
0.0
 11
3.631484
 21
2.810352
 31
0.0
  0
LINE
  5
2A5
100
AcDbEntity
 67
     1
  8
1
  6
Continuous
 62
     7
100
AcDbLine
 10
12.55107
 20
7.316864
 30
0.0
 11
12.517863
 21
7.274166
 31
0.0
  0
LINE
  5
2A6
100
AcDbEntity
 67
     1
  8
1
  6
Continuous
 62
     7
100
AcDbLine
 10
4.147637
 20
3.129857
 30
0.0
 11
4.181131
 21
3.254857
 31
0.0
  0
LINE
  5
2A7
100
AcDbEntity
 67
     1
  8
1
  6
Continuous
 62
     7
100
AcDbLine
 10
5.819333
 20
9.962308
 30
0.0
 11
5.819333
 21
9.957283
 31
0.0
  0
LINE
  5
2A8
100
AcDbEntity
 67
     1
  8
1
  6
Continuous
 62
     7
100
AcDbLine
 10
2.6775
 20
5.738487
 30
0.0
 11
2.638338
 21
5.738541
 31
0.0
  0
LINE
  5
2A9
100
AcDbEntity
 67
     1
  8
1
  6
Continuous
 62
     7
100
AcDbLine
 10
11.819207
 20
7.103466
 30
0.0
 11
5.819333
 21
7.103466
 31
0.0
  0
LINE
  5
2AA
100
AcDbEntity
 67
     1
  8
1
  6
Continuous
 62
     7
100
AcDbLine
 10
16.134157
 20
6.717357
 30
0.0
 11
16.172169
 21
6.614857
 31
0.0
  0
LINE
  5
2AB
100
AcDbEntity
 67
     1
  8
1
  6
Continuous
 62
     7
100
AcDbLine
 10
5.108948
 20
3.254857
 30
0.0
 11
5.108948
 21
3.193302
 31
0.0
  0
LINE
  5
2AC
100
AcDbEntity
 67
     1
  8
1
  6
Continuous
 62
     7
100
AcDbLine
 10
3.573146
 20
7.821417
 30
0.0
 11
3.612309
 21
7.821417
 31
0.0
  0
LINE
  5
2AD
100
AcDbEntity
 67
     1
  8
1
  6
Continuous
 62
     7
100
AcDbLine
 10
12.514759
 20
7.345104
 30
0.0
 11
12.499881
 21
7.325974
 31
0.0
  0
LINE
  5
2AE
100
AcDbEntity
 67
     1
  8
1
  6
Continuous
 62
     7
100
AcDbLine
 10
2.573146
 20
7.841417
 30
0.0
 11
2.459342
 21
7.841417
 31
0.0
  0
LINE
  5
2AF
100
AcDbEntity
 67
     1
  8
1
  6
Continuous
 62
     7
100
AcDbLine
 10
9.716471
 20
3.017923
 30
0.0
 11
9.688931
 21
3.089276
 31
0.0
  0
LINE
  5
2B0
100
AcDbEntity
 67
     1
  8
1
  6
Continuous
 62
     7
100
AcDbLine
 10
5.104948
 20
6.99472
 30
0.0
 11
5.104948
 21
7.041347
 31
0.0
  0
LINE
  5
2B1
100
AcDbEntity
 67
     1
  8
1
  6
Continuous
 62
     7
100
AcDbLine
 10
4.126637
 20
3.254857
 30
0.0
 11
4.126637
 21
3.20823
 31
0.0
  0
LINE
  5
2B2
100
AcDbEntity
 67
     1
  8
1
  6
Continuous
 62
     7
100
AcDbLine
 10
4.122637
 20
7.104857
 30
0.0
 11
4.122637
 21
7.136556
 31
0.0
  0
LINE
  5
2B3
100
AcDbEntity
 67
     1
  8
1
  6
Continuous
 62
     7
100
AcDbLine
 10
11.819333
 20
8.718061
 30
0.0
 11
11.819333
 21
8.710991
 31
0.0
  0
LINE
  5
2B4
100
AcDbEntity
 67
     1
  8
1
  6
Continuous
 62
     7
100
AcDbLine
 10
15.819333
 20
9.333061
 30
0.0
 11
15.783807
 21
9.270137
 31
0.0
  0
LINE
  5
2B5
100
AcDbEntity
 67
     1
  8
1
  6
Continuous
 62
     7
100
AcDbLine
 10
15.43762
 20
3.847357
 30
0.0
 11
15.466496
 21
3.744857
 31
0.0
  0
LINE
  5
2B6
100
AcDbEntity
 67
     1
  8
1
  6
Continuous
 62
     7
100
AcDbLine
 10
12.476802
 20
8.624482
 30
0.0
 11
12.412807
 21
8.666368
 31
0.0
  0
LINE
  5
2B7
100
AcDbEntity
 67
     1
  8
1
  6
Continuous
 62
     7
100
AcDbLine
 10
7.606014
 20
0.440085
 30
0.0
 11
7.606014
 21
2.257467
 31
0.0
  0
LINE
  5
2B8
100
AcDbEntity
 67
     1
  8
1
  6
Continuous
 62
     7
100
AcDbLine
 10
3.577392
 20
2.816352
 30
0.0
 11
3.609091
 21
2.816352
 31
0.0
  0
LINE
  5
2B9
100
AcDbEntity
 67
     1
  8
1
  6
Continuous
 62
     7
100
AcDbLine
 10
4.152637
 20
7.104857
 30
0.0
 11
4.152637
 21
7.211197
 31
0.0
  0
LINE
  5
2BA
100
AcDbEntity
 67
     1
  8
1
  6
Continuous
 62
     7
100
AcDbLine
 10
4.516075
 20
5.174232
 30
0.0
 11
4.471075
 21
5.174232
 31
0.0
  0
LINE
  5
2BB
100
AcDbEntity
 67
     1
  8
1
  6
Continuous
 62
     7
100
AcDbLine
 10
5.819333
 20
9.957283
 30
0.0
 11
5.819333
 21
9.955843
 31
0.0
  0
LINE
  5
2BC
100
AcDbEntity
 67
     1
  8
1
  6
Continuous
 62
     7
100
AcDbLine
 10
11.819207
 20
7.093629
 30
0.0
 11
5.819333
 21
7.093629
 31
0.0
  0
LINE
  5
2BD
100
AcDbEntity
 67
     1
  8
1
  6
Continuous
 62
     7
100
AcDbLine
 10
15.968808
 20
7.024857
 30
0.0
 11
16.032124
 21
6.922357
 31
0.0
  0
LINE
  5
2BE
100
AcDbEntity
 67
     1
  8
1
  6
Continuous
 62
     7
100
AcDbLine
 10
2.524005
 20
3.234857
 30
0.0
 11
2.524028
 21
3.251359
 31
0.0
  0
LINE
  5
2BF
100
AcDbEntity
 67
     1
  8
1
  6
Continuous
 62
     7
100
AcDbLine
 10
5.102948
 20
3.254857
 30
0.0
 11
5.102948
 21
3.215694
 31
0.0
  0
LINE
  5
2C0
100
AcDbEntity
 67
     1
  8
1
  6
Continuous
 62
     7
100
AcDbLine
 10
3.573146
 20
7.815417
 30
0.0
 11
3.589917
 21
7.815417
 31
0.0
  0
LINE
  5
2C1
100
AcDbEntity
 67
     1
  8
1
  6
Continuous
 62
     7
100
AcDbLine
 10
12.510023
 20
7.348788
 30
0.0
 11
12.508892
 21
7.347333
 31
0.0
  0
LINE
  5
2C2
100
AcDbEntity
 67
     1
  8
1
  6
Continuous
 62
     7
100
AcDbLine
 10
5.098948
 20
6.99472
 30
0.0
 11
5.098948
 21
7.018955
 31
0.0
  0
LINE
  5
2C3
100
AcDbEntity
 67
     1
  8
1
  6
Continuous
 62
     7
100
AcDbLine
 10
2.322481
 20
5.724982
 30
0.0
 11
2.413893
 21
5.724854
 31
0.0
  0
LINE
  5
2C4
100
AcDbEntity
 67
     1
  8
1
  6
Continuous
 62
     7
100
AcDbLine
 10
2.573146
 20
7.835417
 30
0.0
 11
2.481735
 21
7.835417
 31
0.0
  0
LINE
  5
2C5
100
AcDbEntity
 67
     1
  8
1
  6
Continuous
 62
     7
100
AcDbLine
 10
9.722069
 20
3.020084
 30
0.0
 11
9.702591
 21
3.070546
 31
0.0
  0
LINE
  5
2C6
100
AcDbEntity
 67
     1
  8
1
  6
Continuous
 62
     7
100
AcDbLine
 10
3.577392
 20
2.786352
 30
0.0
 11
3.683732
 21
2.786352
 31
0.0
  0
LINE
  5
2C7
100
AcDbEntity
 67
     1
  8
1
  6
Continuous
 62
     7
100
AcDbLine
 10
4.120637
 20
3.254857
 30
0.0
 11
4.120637
 21
3.230623
 31
0.0
  0
LINE
  5
2C8
100
AcDbEntity
 67
     1
  8
1
  6
Continuous
 62
     7
100
AcDbLine
 10
4.116637
 20
7.104857
 30
0.0
 11
4.116637
 21
7.114163
 31
0.0
  0
LINE
  5
2C9
100
AcDbEntity
 67
     1
  8
1
  6
Continuous
 62
     7
100
AcDbLine
 10
2.4439
 20
2.791352
 30
0.0
 11
2.5689
 21
2.757858
 31
0.0
  0
LINE
  5
2CA
100
AcDbEntity
 67
     1
  8
1
  6
Continuous
 62
     7
100
AcDbLine
 10
11.819207
 20
8.979205
 30
0.0
 11
5.819333
 21
8.979205
 31
0.0
  0
LINE
  5
2CB
100
AcDbEntity
 67
     1
  8
1
  6
Continuous
 62
     7
100
AcDbLine
 10
2.32249
 20
5.730982
 30
0.0
 11
2.391509
 21
5.730886
 31
0.0
  0
LINE
  5
2CC
100
AcDbEntity
 67
     1
  8
1
  6
Continuous
 62
     7
100
AcDbLine
 10
15.915553
 20
9.521835
 30
0.0
 11
15.887794
 21
9.458911
 31
0.0
  0
LINE
  5
2CD
100
AcDbEntity
 67
     1
  8
1
  6
Continuous
 62
     7
100
AcDbLine
 10
15.409329
 20
4.154857
 30
0.0
 11
15.408686
 21
4.052357
 31
0.0
  0
LINE
  5
2CE
100
AcDbEntity
 67
     1
  8
1
  6
Continuous
 62
     7
100
AcDbLine
 10
5.132947
 20
6.99472
 30
0.0
 11
5.132947
 21
7.093596
 31
0.0
  0
LINE
  5
2CF
100
AcDbEntity
 67
     1
  8
1
  6
Continuous
 62
     7
100
AcDbLine
 10
9.679154
 20
3.00352
 30
0.0
 11
9.670427
 21
3.026129
 31
0.0
  0
LINE
  5
2D0
100
AcDbEntity
 67
     1
  8
1
  6
Continuous
 62
     7
100
AcDbLine
 10
4.144637
 20
7.104857
 30
0.0
 11
4.144637
 21
7.218661
 31
0.0
  0
LINE
  5
2D1
100
AcDbEntity
 67
     1
  8
1
  6
Continuous
 62
     7
100
AcDbLine
 10
3.573146
 20
7.875417
 30
0.0
 11
3.582453
 21
7.875417
 31
0.0
  0
LINE
  5
2D2
100
AcDbEntity
 67
     1
  8
1
  6
Continuous
 62
     7
100
AcDbLine
 10
13.819333
 20
3.159899
 30
0.0
 11
5.819333
 21
3.159899
 31
0.0
  0
LINE
  5
2D3
100
AcDbEntity
 67
     1
  8
1
  6
Continuous
 62
     7
100
AcDbLine
 10
3.577392
 20
2.822352
 30
0.0
 11
3.586699
 21
2.822352
 31
0.0
  0
LINE
  5
2D4
100
AcDbEntity
 67
     1
  8
1
  6
Continuous
 62
     7
100
AcDbLine
 10
12.560543
 20
7.309497
 30
0.0
 11
12.55483
 21
7.302151
 31
0.0
  0
LINE
  5
2D5
100
AcDbEntity
 67
     1
  8
1
  6
Continuous
 62
     7
100
AcDbLine
 10
4.158637
 20
7.104857
 30
0.0
 11
4.158637
 21
7.188805
 31
0.0
  0
LINE
  5
2D6
100
AcDbEntity
 67
     1
  8
1
  6
Continuous
 62
     7
100
AcDbLine
 10
11.819207
 20
9.896894
 30
0.0
 11
5.819333
 21
9.896894
 31
0.0
  0
LINE
  5
2D7
100
AcDbEntity
 67
     1
  8
1
  6
Continuous
 62
     7
100
AcDbLine
 10
2.677515
 20
5.748487
 30
0.0
 11
2.675672
 21
5.748489
 31
0.0
  0
LINE
  5
2D8
100
AcDbEntity
 67
     1
  8
1
  6
Continuous
 62
     7
100
AcDbLine
 10
11.819333
 20
6.879857
 30
0.0
 11
16.055639
 21
6.879857
 31
0.0
  0
LINE
  5
2D9
100
AcDbEntity
 67
     1
  8
1
  6
Continuous
 62
     7
100
AcDbLine
 10
12.538441
 20
7.326687
 30
0.0
 11
12.468575
 21
7.236853
 31
0.0
  0
LINE
  5
2DA
100
AcDbEntity
 67
     1
  8
1
  6
Continuous
 62
     7
100
AcDbLine
 10
5.092947
 20
6.99472
 30
0.0
 11
5.092947
 21
6.996562
 31
0.0
  0
LINE
  5
2DB
100
AcDbEntity
 67
     1
  8
1
  6
Continuous
 62
     7
100
AcDbLine
 10
2.573146
 20
7.829417
 30
0.0
 11
2.504127
 21
7.829417
 31
0.0
  0
LINE
  5
2DC
100
AcDbEntity
 67
     1
  8
1
  6
Continuous
 62
     7
100
AcDbLine
 10
2.677478
 20
5.722486
 30
0.0
 11
2.578603
 21
5.722625
 31
0.0
  0
LINE
  5
2DD
100
AcDbEntity
 67
     1
  8
1
  6
Continuous
 62
     7
100
AcDbLine
 10
9.727666
 20
3.022244
 30
0.0
 11
9.716251
 21
3.051816
 31
0.0
  0
LINE
  5
2DE
100
AcDbEntity
 67
     1
  8
1
  6
Continuous
 62
     7
100
AcDbLine
 10
9.659332
 20
3.129857
 30
0.0
 11
9.777132
 21
2.824655
 31
0.0
  0
LINE
  5
2DF
100
AcDbEntity
 67
     1
  8
1
  6
Continuous
 62
     7
100
AcDbLine
 10
3.577392
 20
2.780352
 30
0.0
 11
3.66134
 21
2.780352
 31
0.0
  0
LINE
  5
2E0
100
AcDbEntity
 67
     1
  8
1
  6
Continuous
 62
     7
100
AcDbLine
 10
12.527389
 20
7.335282
 30
0.0
 11
12.475852
 21
7.269016
 31
0.0
  0
LINE
  5
2E1
100
AcDbEntity
 67
     1
  8
1
  6
Continuous
 62
     7
100
AcDbLine
 10
4.181131
 20
7.104857
 30
0.0
 11
4.147637
 21
7.229857
 31
0.0
  0
LINE
  5
2E2
100
AcDbEntity
 67
     1
  8
1
  6
Continuous
 62
     7
100
AcDbLine
 10
5.819333
 20
8.94359
 30
0.0
 11
5.819333
 21
8.918941
 31
0.0
  0
LINE
  5
2E3
100
AcDbEntity
 67
     1
  8
1
  6
Continuous
 62
     7
100
AcDbLine
 10
15.94245
 20
9.710609
 30
0.0
 11
15.945182
 21
9.647685
 31
0.0
  0
LINE
  5
2E4
100
AcDbEntity
 67
     1
  8
1
  6
Continuous
 62
     7
100
AcDbLine
 10
15.4696
 20
4.462357
 30
0.0
 11
15.440724
 21
4.359857
 31
0.0
  0
LINE
  5
2E5
100
AcDbEntity
 67
     1
  8
1
  6
Continuous
 62
     7
100
AcDbLine
 10
12.47023
 20
8.614441
 30
0.0
 11
12.443707
 21
8.631801
 31
0.0
  0
LINE
  5
2E6
100
AcDbEntity
 67
     1
  8
1
  6
Continuous
 62
     7
100
AcDbLine
 10
5.138947
 20
6.99472
 30
0.0
 11
5.138947
 21
7.071203
 31
0.0
  0
LINE
  5
2E7
100
AcDbEntity
 67
     1
  8
1
  6
Continuous
 62
     7
100
AcDbLine
 10
15.819333
 20
9.962308
 30
0.0
 11
11.819333
 21
9.962308
 31
0.0
  0
LINE
  5
2E8
100
AcDbEntity
 67
     1
  8
1
  6
Continuous
 62
     7
100
AcDbLine
 10
2.322428
 20
5.686982
 30
0.0
 11
2.339199
 21
5.686959
 31
0.0
  0
LINE
  5
2E9
100
AcDbEntity
 67
     1
  8
1
  6
Continuous
 62
     7
100
AcDbLine
 10
3.573146
 20
7.869417
 30
0.0
 11
3.604845
 21
7.869417
 31
0.0
  0
LINE
  5
2EA
100
AcDbEntity
 67
     1
  8
1
  6
Continuous
 62
     7
100
AcDbLine
 10
4.166637
 20
7.104857
 30
0.0
 11
4.166637
 21
7.158948
 31
0.0
  0
LINE
  5
2EB
100
AcDbEntity
 67
     1
  8
1
  6
Continuous
 62
     7
100
AcDbLine
 10
9.673096
 20
3.001182
 30
0.0
 11
9.73559
 21
3.025302
 31
0.0
  0
LINE
  5
2EC
100
AcDbEntity
 67
     1
  8
1
  6
Continuous
 62
     7
100
AcDbLine
 10
2.5689
 20
2.812352
 30
0.0
 11
2.522273
 21
2.812352
 31
0.0
  0
LINE
  5
2ED
100
AcDbEntity
 67
     1
  8
1
  6
Continuous
 62
     7
100
AcDbLine
 10
16.369932
 20
2.257467
 30
0.0
 11
12.205371
 21
2.257467
 31
0.0
  0
LINE
  5
2EE
100
AcDbEntity
 67
     1
  8
1
  6
Continuous
 62
     7
100
AcDbLine
 10
2.677489
 20
5.730486
 30
0.0
 11
2.60847
 21
5.730583
 31
0.0
  0
LINE
  5
2EF
100
AcDbEntity
 67
     1
  8
1
  6
Continuous
 62
     7
100
AcDbLine
 10
12.521074
 20
7.340193
 30
0.0
 11
12.487866
 21
7.297495
 31
0.0
  0
LINE
  5
2F0
100
AcDbEntity
 67
     1
  8
1
  6
Continuous
 62
     7
100
AcDbLine
 10
12.543177
 20
7.323003
 30
0.0
 11
12.487058
 21
7.250846
 31
0.0
  0
LINE
  5
2F1
100
AcDbEntity
 67
     1
  8
1
  6
Continuous
 62
     7
100
AcDbLine
 10
4.130637
 20
7.104857
 30
0.0
 11
4.130637
 21
7.166412
 31
0.0
  0
LINE
  5
2F2
100
AcDbEntity
 67
     1
  8
1
  6
Continuous
 62
     7
100
AcDbLine
 10
3.628623
 20
7.103466
 30
0.0
 11
3.54423
 21
7.118225
 31
0.0
  0
LINE
  5
2F3
100
AcDbEntity
 67
     1
  8
1
  6
Continuous
 62
     7
100
AcDbLine
 10
4.172637
 20
7.104857
 30
0.0
 11
4.172637
 21
7.136556
 31
0.0
  0
LINE
  5
2F4
100
AcDbEntity
 67
     1
  8
1
  6
Continuous
 62
     7
100
AcDbLine
 10
9.675423
 20
3.002079
 30
0.0
 11
9.672071
 21
3.010762
 31
0.0
  0
LINE
  5
2F5
100
AcDbEntity
 67
     1
  8
1
  6
Continuous
 62
     7
100
AcDbLine
 10
12.49104
 20
8.646236
 30
0.0
 11
12.427047
 21
8.688123
 31
0.0
  0
LINE
  5
2F6
100
AcDbEntity
 67
     1
  8
1
  6
Continuous
 62
     7
100
AcDbLine
 10
12.549492
 20
7.318092
 30
0.0
 11
12.511702
 21
7.269502
 31
0.0
  0
LINE
  5
2F7
100
AcDbEntity
 67
     1
  8
1
  6
Continuous
 62
     7
100
AcDbLine
 10
3.956012
 20
5.005482
 30
0.0
 11
4.001012
 21
5.005482
 31
0.0
  0
LINE
  5
2F8
100
AcDbEntity
 67
     1
  8
1
  6
Continuous
 62
     7
100
AcDbLine
 10
5.819333
 20
7.030256
 30
0.0
 11
5.819333
 21
7.036687
 31
0.0
  0
LINE
  5
2F9
100
AcDbEntity
 67
     1
  8
1
  6
Continuous
 62
     7
100
AcDbLine
 10
12.205371
 20
0.974686
 30
0.0
 11
12.977928
 21
0.974686
 31
0.0
  0
LINE
  5
2FA
100
AcDbEntity
 67
     1
  8
1
  6
Continuous
 62
     7
100
AcDbLine
 10
9.701544
 20
3.012162
 30
0.0
 11
9.660565
 21
3.118332
 31
0.0
  0
LINE
  5
2FB
100
AcDbEntity
 67
     1
  8
1
  6
Continuous
 62
     7
100
AcDbLine
 10
12.516337
 20
7.343876
 30
0.0
 11
12.496878
 21
7.318854
 31
0.0
  0
LINE
  5
2FC
100
AcDbEntity
 67
     1
  8
1
  6
Continuous
 62
     7
100
AcDbLine
 10
4.114637
 20
3.254857
 30
0.0
 11
4.114637
 21
3.253015
 31
0.0
  0
LINE
  5
2FD
100
AcDbEntity
 67
     1
  8
1
  6
Continuous
 62
     7
100
AcDbLine
 10
4.128637
 20
3.254857
 30
0.0
 11
4.128637
 21
3.200766
 31
0.0
  0
LINE
  5
2FE
100
AcDbEntity
 67
     1
  8
1
  6
Continuous
 62
     7
100
AcDbLine
 10
2.322498
 20
5.736982
 30
0.0
 11
2.369125
 21
5.736917
 31
0.0
  0
LINE
  5
2FF
100
AcDbEntity
 67
     1
  8
1
  6
Continuous
 62
     7
100
AcDbLine
 10
3.573146
 20
7.810924
 30
0.0
 11
3.698146
 21
7.844418
 31
0.0
  0
LINE
  5
300
100
AcDbEntity
 67
     1
  8
1
  6
Continuous
 62
     7
100
AcDbLine
 10
4.178637
 20
7.104857
 30
0.0
 11
4.178637
 21
7.114163
 31
0.0
  0
LINE
  5
301
100
AcDbEntity
 67
     1
  8
1
  6
Continuous
 62
     7
100
AcDbLine
 10
2.5689
 20
2.824352
 30
0.0
 11
2.567058
 21
2.824352
 31
0.0
  0
LINE
  5
302
100
AcDbEntity
 67
     1
  8
1
  6
Continuous
 62
     7
100
AcDbLine
 10
3.577392
 20
2.757858
 30
0.0
 11
3.702392
 21
2.791352
 31
0.0
  0
LINE
  5
303
100
AcDbEntity
 67
     1
  8
1
  6
Continuous
 62
     7
100
AcDbLine
 10
4.164637
 20
7.104857
 30
0.0
 11
4.164637
 21
7.166412
 31
0.0
  0
LINE
  5
304
100
AcDbEntity
 67
     1
  8
1
  6
Continuous
 62
     7
100
AcDbLine
 10
9.73559
 20
3.025302
 30
0.0
 11
9.659332
 21
3.129857
 31
0.0
  0
LINE
  5
305
100
AcDbEntity
 67
     1
  8
1
  6
Continuous
 62
     7
100
AcDbLine
 10
12.494327
 20
8.651257
 30
0.0
 11
12.449068
 21
8.68088
 31
0.0
  0
LINE
  5
306
100
AcDbEntity
 67
     1
  8
1
  6
Continuous
 62
     7
100
AcDbLine
 10
12.554228
 20
7.314408
 30
0.0
 11
12.530185
 21
7.283494
 31
0.0
  0
LINE
  5
307
100
AcDbEntity
 67
     1
  8
1
  6
Continuous
 62
     7
100
AcDbLine
 10
2.322467
 20
5.714983
 30
0.0
 11
2.443735
 21
5.714813
 31
0.0
  0
LINE
  5
308
100
AcDbEntity
 67
     1
  8
1
  6
Continuous
 62
     7
100
AcDbLine
 10
2.677461
 20
5.710486
 30
0.0
 11
2.571122
 21
5.710635
 31
0.0
  0
LINE
  5
309
100
AcDbEntity
 67
     1
  8
1
  6
Continuous
 62
     7
100
AcDbLine
 10
5.819333
 20
7.026828
 30
0.0
 11
5.819333
 21
7.010964
 31
0.0
  0
LINE
  5
30A
100
AcDbEntity
 67
     1
  8
1
  6
Continuous
 62
     7
100
AcDbLine
 10
6.526266
 20
0.70173
 30
0.0
 11
12.977928
 21
0.70173
 31
0.0
  0
LINE
  5
30B
100
AcDbEntity
 67
     1
  8
1
  6
Continuous
 62
     7
100
AcDbLine
 10
5.092947
 20
3.254857
 30
0.0
 11
5.092947
 21
3.253015
 31
0.0
  0
LINE
  5
30C
100
AcDbEntity
 67
     1
  8
1
  6
Continuous
 62
     7
100
AcDbLine
 10
3.573146
 20
7.849417
 30
0.0
 11
3.679486
 21
7.849417
 31
0.0
  0
LINE
  5
30D
100
AcDbEntity
 67
     1
  8
1
  6
Continuous
 62
     7
100
AcDbLine
 10
5.092454
 20
6.99472
 30
0.0
 11
5.159441
 21
6.99472
 31
0.0
  0
LINE
  5
30E
100
AcDbEntity
 67
     1
  8
1
  6
Continuous
 62
     7
100
AcDbLine
 10
2.573146
 20
7.823417
 30
0.0
 11
2.526519
 21
7.823417
 31
0.0
  0
LINE
  5
30F
100
AcDbEntity
 67
     1
  8
1
  6
Continuous
 62
     7
100
AcDbLine
 10
16.229336
 20
6.204857
 30
0.0
 11
16.218382
 21
6.102357
 31
0.0
  0
LINE
  5
310
100
AcDbEntity
 67
     1
  8
1
  6
Continuous
 62
     7
100
AcDbLine
 10
5.122948
 20
3.254857
 30
0.0
 11
5.122948
 21
3.141053
 31
0.0
  0
LINE
  5
311
100
AcDbEntity
 67
     1
  8
1
  6
Continuous
 62
     7
100
AcDbLine
 10
3.577392
 20
2.774352
 30
0.0
 11
3.638947
 21
2.774352
 31
0.0
  0
LINE
  5
312
100
AcDbEntity
 67
     1
  8
1
  6
Continuous
 62
     7
100
AcDbLine
 10
12.522653
 20
7.338965
 30
0.0
 11
12.484863
 21
7.290375
 31
0.0
  0
LINE
  5
313
100
AcDbEntity
 67
     1
  8
1
  6
Continuous
 62
     7
100
AcDbLine
 10
4.150637
 20
3.254857
 30
0.0
 11
4.150637
 21
3.141053
 31
0.0
  0
LINE
  5
314
100
AcDbEntity
 67
     1
  8
1
  6
Continuous
 62
     7
100
AcDbLine
 10
5.158947
 20
6.99472
 30
0.0
 11
5.158947
 21
6.996562
 31
0.0
  0
LINE
  5
315
100
AcDbEntity
 67
     1
  8
1
  6
Continuous
 62
     7
100
AcDbLine
 10
3.688146
 20
7.229857
 30
0.0
 11
2.458146
 21
7.229857
 31
0.0
  0
LINE
  5
316
100
AcDbEntity
 67
     1
  8
1
  6
Continuous
 62
     7
100
AcDbLine
 10
4.138637
 20
3.254857
 30
0.0
 11
4.138637
 21
3.163446
 31
0.0
  0
LINE
  5
317
100
AcDbEntity
 67
     1
  8
1
  6
Continuous
 62
     7
100
AcDbLine
 10
2.322423
 20
5.682982
 30
0.0
 11
2.324265
 21
5.68298
 31
0.0
  0
LINE
  5
318
100
AcDbEntity
 67
     1
  8
1
  6
Continuous
 62
     7
100
AcDbLine
 10
12.459332
 20
7.229857
 30
0.0
 11
12.562511
 21
7.307966
 31
0.0
  0
LINE
  5
319
100
AcDbEntity
 67
     1
  8
1
  6
Continuous
 62
     7
100
AcDbLine
 10
2.322442
 20
5.696982
 30
0.0
 11
2.376533
 21
5.696907
 31
0.0
  0
LINE
  5
31A
100
AcDbEntity
 67
     1
  8
1
  6
Continuous
 62
     7
100
AcDbLine
 10
12.557385
 20
7.311953
 30
0.0
 11
12.542507
 21
7.292823
 31
0.0
  0
LINE
  5
31B
100
AcDbEntity
 67
     1
  8
1
  6
Continuous
 62
     7
100
AcDbLine
 10
3.573146
 20
7.859417
 30
0.0
 11
3.642165
 21
7.859417
 31
0.0
  0
LINE
  5
31C
100
AcDbEntity
 67
     1
  8
1
  6
Continuous
 62
     7
100
AcDbLine
 10
12.205371
 20
2.257467
 30
0.0
 11
6.526266
 21
2.257467
 31
0.0
  0
LINE
  5
31D
100
AcDbEntity
 67
     1
  8
1
  6
Continuous
 62
     7
100
AcDbLine
 10
2.719221
 20
6.970603
 30
0.0
 11
2.719289
 21
7.01958
 31
0.0
  0
LINE
  5
31E
100
AcDbEntity
 67
     1
  8
1
  6
Continuous
 62
     7
100
AcDbLine
 10
12.509633
 20
7.349091
 30
0.0
 11
12.459332
 21
7.229857
 31
0.0
  0
LINE
  5
31F
100
AcDbEntity
 67
     1
  8
1
  6
Continuous
 62
     7
100
AcDbLine
 10
5.124948
 20
6.99472
 30
0.0
 11
5.124948
 21
7.115988
 31
0.0
  0
LINE
  5
320
100
AcDbEntity
 67
     1
  8
1
  6
Continuous
 62
     7
100
AcDbLine
 10
5.819333
 20
9.894466
 30
0.0
 11
5.819333
 21
9.888538
 31
0.0
  0
LINE
  5
321
100
AcDbEntity
 67
     1
  8
1
  6
Continuous
 62
     7
100
AcDbLine
 10
3.573146
 20
7.867417
 30
0.0
 11
3.612309
 21
7.867417
 31
0.0
  0
LINE
  5
322
100
AcDbEntity
 67
     1
  8
1
  6
Continuous
 62
     7
100
AcDbLine
 10
2.322473
 20
5.718982
 30
0.0
 11
2.436277
 21
5.718823
 31
0.0
  0
LINE
  5
323
100
AcDbEntity
 67
     1
  8
1
  6
Continuous
 62
     7
100
AcDbLine
 10
12.205371
 20
2.488467
 30
0.0
 11
12.205371
 21
0.440085
 31
0.0
  0
LINE
  5
324
100
AcDbEntity
 67
     1
  8
1
  6
Continuous
 62
     7
100
AcDbLine
 10
9.733263
 20
3.024405
 30
0.0
 11
9.729913
 21
3.033087
 31
0.0
  0
LINE
  5
325
100
AcDbEntity
 67
     1
  8
1
  6
Continuous
 62
     7
100
AcDbLine
 10
12.562121
 20
7.30827
 30
0.0
 11
12.56099
 21
7.306815
 31
0.0
  0
LINE
  5
326
100
AcDbEntity
 67
     1
  8
1
  6
Continuous
 62
     7
100
AcDbLine
 10
2.322506
 20
5.742982
 30
0.0
 11
2.346741
 21
5.742949
 31
0.0
  0
LINE
  5
327
100
AcDbEntity
 67
     1
  8
1
  6
Continuous
 62
     7
100
AcDbLine
 10
15.865213
 20
9.899384
 30
0.0
 11
15.901602
 21
9.836458
 31
0.0
  0
LINE
  5
328
100
AcDbEntity
 67
     1
  8
1
  6
Continuous
 62
     7
100
AcDbLine
 10
15.596291
 20
4.769857
 30
0.0
 11
15.548438
 21
4.667357
 31
0.0
  0
LINE
  5
329
100
AcDbEntity
 67
     1
  8
1
  6
Continuous
 62
     7
100
AcDbLine
 10
3.69177
 20
6.77579
 30
0.0
 11
3.533716
 21
6.996795
 31
0.0
  0
LINE
  5
32A
100
AcDbEntity
 67
     1
  8
1
  6
Continuous
 62
     7
100
AcDbLine
 10
9.705276
 20
3.013602
 30
0.0
 11
9.66161
 21
3.126735
 31
0.0
  0
LINE
  5
32B
100
AcDbEntity
 67
     1
  8
1
  6
Continuous
 62
     7
100
AcDbLine
 10
9.686617
 20
3.006401
 30
0.0
 11
9.66714
 21
3.056863
 31
0.0
  0
LINE
  5
32C
100
AcDbEntity
 67
     1
  8
1
  6
Continuous
 62
     7
100
AcDbLine
 10
11.819333
 20
8.718061
 30
0.0
 11
11.819333
 21
9.948062
 31
0.0
  0
LINE
  5
32D
100
AcDbEntity
 67
     1
  8
1
  6
Continuous
 62
     7
100
AcDbLine
 10
2.322487
 20
5.728982
 30
0.0
 11
2.39897
 21
5.728876
 31
0.0
  0
LINE
  5
32E
100
AcDbEntity
 67
     1
  8
1
  6
Continuous
 62
     7
100
AcDbLine
 10
4.146637
 20
7.104857
 30
0.0
 11
4.146637
 21
7.226125
 31
0.0
  0
LINE
  5
32F
100
AcDbEntity
 67
     1
  8
1
  6
Continuous
 62
     7
100
AcDbLine
 10
3.698146
 20
7.219857
 30
0.0
 11
3.698146
 21
6.909857
 31
0.0
  0
LINE
  5
330
100
AcDbEntity
 67
     1
  8
1
  6
Continuous
 62
     7
100
AcDbLine
 10
2.677433
 20
5.690486
 30
0.0
 11
2.645735
 21
5.690531
 31
0.0
  0
LINE
  5
331
100
AcDbEntity
 67
     1
  8
1
  6
Continuous
 62
     7
100
AcDbLine
 10
10.972195
 20
2.770655
 30
0.0
 11
12.041883
 21
2.770655
 31
0.0
  0
LINE
  5
332
100
AcDbEntity
 67
     1
  8
1
  6
Continuous
 62
     7
100
AcDbLine
 10
12.558964
 20
7.310725
 30
0.0
 11
12.548668
 21
7.297487
 31
0.0
  0
LINE
  5
333
100
AcDbEntity
 67
     1
  8
1
  6
Continuous
 62
     7
100
AcDbLine
 10
9.677288
 20
3.0028
 30
0.0
 11
9.671249
 21
3.018445
 31
0.0
  0
LINE
  5
334
100
AcDbEntity
 67
     1
  8
1
  6
Continuous
 62
     7
100
AcDbLine
 10
8.214109
 20
0.440085
 30
0.0
 11
8.214109
 21
2.257467
 31
0.0
  0
LINE
  5
335
100
AcDbEntity
 67
     1
  8
1
  6
Continuous
 62
     7
100
AcDbLine
 10
4.471075
 20
5.005482
 30
0.0
 11
4.516075
 21
5.005482
 31
0.0
  0
LINE
  5
336
100
AcDbEntity
 67
     1
  8
1
  6
Continuous
 62
     7
100
AcDbLine
 10
12.205371
 20
1.227643
 30
0.0
 11
16.369932
 21
1.227643
 31
0.0
  0
LINE
  5
337
100
AcDbEntity
 67
     1
  8
1
  6
Continuous
 62
     7
100
AcDbLine
 10
16.132809
 20
5.794857
 30
0.0
 11
16.090227
 21
5.692357
 31
0.0
  0
LINE
  5
338
100
AcDbEntity
 67
     1
  8
1
  6
Continuous
 62
     7
100
AcDbLine
 10
5.122948
 20
6.99472
 30
0.0
 11
5.122948
 21
7.108524
 31
0.0
  0
LINE
  5
339
100
AcDbEntity
 67
     1
  8
1
  6
Continuous
 62
     7
100
AcDbLine
 10
2.322495
 20
5.734982
 30
0.0
 11
2.376586
 21
5.734907
 31
0.0
  0
LINE
  5
33A
100
AcDbEntity
 67
     1
  8
1
  6
Continuous
 62
     7
100
AcDbLine
 10
15.440724
 20
4.359857
 30
0.0
 11
15.420282
 21
4.257357
 31
0.0
  0
LINE
  5
33B
100
AcDbEntity
 67
     1
  8
1
  6
Continuous
 62
     7
100
AcDbLine
 10
9.723934
 20
3.020804
 30
0.0
 11
9.707145
 21
3.064303
 31
0.0
  0
LINE
  5
33C
100
AcDbEntity
 67
     1
  8
1
  6
Continuous
 62
     7
100
AcDbLine
 10
12.478992
 20
8.627829
 30
0.0
 11
12.402508
 21
8.67789
 31
0.0
  0
LINE
  5
33D
100
AcDbEntity
 67
     1
  8
1
  6
Continuous
 62
     7
100
AcDbLine
 10
4.176637
 20
7.104857
 30
0.0
 11
4.176637
 21
7.121628
 31
0.0
  0
LINE
  5
33E
100
AcDbEntity
 67
     1
  8
1
  6
Continuous
 62
     7
100
AcDbLine
 10
2.5689
 20
2.822352
 30
0.0
 11
2.559593
 21
2.822352
 31
0.0
  0
LINE
  5
33F
100
AcDbEntity
 67
     1
  8
1
  6
Continuous
 62
     7
100
AcDbLine
 10
12.500898
 20
8.661297
 30
0.0
 11
12.493112
 21
8.666393
 31
0.0
  0
LINE
  5
340
100
AcDbEntity
 67
     1
  8
1
  6
Continuous
 62
     7
100
AcDbLine
 10
12.562121
 20
7.30827
 30
0.0
 11
12.56099
 21
7.306815
 31
0.0
  0
LINE
  5
341
100
AcDbEntity
 67
     1
  8
1
  6
Continuous
 62
     7
100
AcDbLine
 10
9.673556
 20
3.001359
 30
0.0
 11
9.672894
 21
3.003078
 31
0.0
  0
LINE
  5
342
100
AcDbEntity
 67
     1
  8
1
  6
Continuous
 62
     7
100
AcDbLine
 10
3.577392
 20
2.812352
 30
0.0
 11
3.624019
 21
2.812352
 31
0.0
  0
LINE
  5
343
100
AcDbEntity
 67
     1
  8
1
  6
Continuous
 62
     7
100
AcDbLine
 10
12.552649
 20
7.315636
 30
0.0
 11
12.524024
 21
7.278831
 31
0.0
  0
ARC
  5
344
100
AcDbEntity
 67
     1
  8
1
  6
Continuous
 62
     7
100
AcDbCircle
 10
3.672392
 20
3.159857
 30
0.0
 40
0.03
100
AcDbArc
 50
270.0
 51
360.08
  0
ARC
  5
345
100
AcDbEntity
 67
     1
  8
1
  6
Continuous
 62
     7
100
AcDbCircle
 10
2.518146
 20
7.008627
 30
0.0
 40
0.01
100
AcDbArc
 50
180.0
 51
262.5
  0
ARC
  5
346
100
AcDbEntity
 67
     1
  8
1
  6
Continuous
 62
     7
100
AcDbCircle
 10
2.605218
 20
7.002057
 30
0.0
 40
0.009046
100
AcDbArc
 50
324.429143
 51
439.92
  0
ARC
  5
347
100
AcDbEntity
 67
     1
  8
1
  6
Continuous
 62
     7
100
AcDbCircle
 10
3.688146
 20
7.219857
 30
0.0
 40
0.01
100
AcDbArc
 50
0.0
 51
90.0
  0
ARC
  5
348
100
AcDbEntity
 67
     1
  8
1
  6
Continuous
 62
     7
100
AcDbCircle
 10
3.541074
 20
7.002057
 30
0.0
 40
0.009046
100
AcDbArc
 50
100.08
 51
215.570857
  0
ARC
  5
349
100
AcDbEntity
 67
     1
  8
1
  6
Continuous
 62
     7
100
AcDbCircle
 10
2.478146
 20
6.909857
 30
0.0
 40
0.03
100
AcDbArc
 50
180.0
 51
315.0
  0
ARC
  5
34A
100
AcDbEntity
 67
     1
  8
1
  6
Continuous
 62
     7
100
AcDbCircle
 10
2.4739
 20
3.159857
 30
0.0
 40
0.03
100
AcDbArc
 50
179.92
 51
270.0
  0
ARC
  5
34B
100
AcDbEntity
 67
     1
  8
1
  6
Continuous
 62
     7
100
AcDbCircle
 10
2.518146
 20
7.159857
 30
0.0
 40
0.01
100
AcDbArc
 50
90.0
 51
180.0
  0
ARC
  5
34C
100
AcDbEntity
 67
     1
  8
1
  6
Continuous
 62
     7
100
AcDbCircle
 10
2.619289
 20
7.01972
 30
0.0
 40
0.1
100
AcDbArc
 50
359.92
 51
459.92
  0
ARC
  5
34D
100
AcDbEntity
 67
     1
  8
1
  6
Continuous
 62
     7
100
AcDbCircle
 10
3.567333
 20
6.981255
 30
0.0
 40
0.0092
100
AcDbArc
 50
97.5
 51
225.0
  0
ARC
  5
34E
100
AcDbEntity
 67
     1
  8
1
  6
Continuous
 62
     7
100
AcDbCircle
 10
2.519313
 20
7.036673
 30
0.0
 40
0.01
100
AcDbArc
 50
179.92
 51
259.92
  0
ARC
  5
34F
100
AcDbEntity
 67
     1
  8
1
  6
Continuous
 62
     7
100
AcDbCircle
 10
2.689221
 20
6.970645
 30
0.0
 40
0.03
100
AcDbArc
 50
324.429145
 51
359.92
  0
ARC
  5
350
100
AcDbEntity
 67
     1
  8
1
  6
Continuous
 62
     7
100
AcDbCircle
 10
3.562421
 20
6.720192
 30
0.0
 40
0.03
100
AcDbArc
 50
0.08
 51
35.570855
  0
ARC
  5
351
100
AcDbEntity
 67
     1
  8
1
  6
Continuous
 62
     7
100
AcDbCircle
 10
3.6269
 20
7.093615
 30
0.0
 40
0.01
100
AcDbArc
 50
0.08
 51
80.08
  0
ARC
  5
352
100
AcDbEntity
 67
     1
  8
1
  6
Continuous
 62
     7
100
AcDbCircle
 10
3.667368
 20
6.758338
 30
0.0
 40
0.03
100
AcDbArc
 50
0.08
 51
35.570855
  0
ARC
  5
353
100
AcDbEntity
 67
     1
  8
1
  6
Continuous
 62
     7
100
AcDbCircle
 10
2.57896
 20
6.981255
 30
0.0
 40
0.0092
100
AcDbArc
 50
315.0
 51
442.5
  0
ARC
  5
354
100
AcDbEntity
 67
     1
  8
1
  6
Continuous
 62
     7
100
AcDbCircle
 10
2.478924
 20
6.758338
 30
0.0
 40
0.03
100
AcDbArc
 50
144.429145
 51
179.92
  0
ARC
  5
355
100
AcDbEntity
 67
     1
  8
1
  6
Continuous
 62
     7
100
AcDbCircle
 10
3.628146
 20
7.159857
 30
0.0
 40
0.01
100
AcDbArc
 50
0.0
 51
90.0
  0
ARC
  5
356
100
AcDbEntity
 67
     1
  8
1
  6
Continuous
 62
     7
100
AcDbCircle
 10
2.519392
 20
7.093615
 30
0.0
 40
0.01
100
AcDbArc
 50
99.92
 51
179.92
  0
ARC
  5
357
100
AcDbEntity
 67
     1
  8
1
  6
Continuous
 62
     7
100
AcDbCircle
 10
3.668146
 20
6.909857
 30
0.0
 40
0.03
100
AcDbArc
 50
225.0
 51
360.0
  0
ARC
  5
358
100
AcDbEntity
 67
     1
  8
1
  6
Continuous
 62
     7
100
AcDbCircle
 10
2.583871
 20
6.720192
 30
0.0
 40
0.03
100
AcDbArc
 50
144.429145
 51
179.92
  0
ARC
  5
359
100
AcDbEntity
 67
     1
  8
1
  6
Continuous
 62
     7
100
AcDbCircle
 10
3.457071
 20
6.970645
 30
0.0
 40
0.03
100
AcDbArc
 50
180.08
 51
215.570855
  0
ARC
  5
35A
100
AcDbEntity
 67
     1
  8
1
  6
Continuous
 62
     7
100
AcDbCircle
 10
3.626979
 20
7.036673
 30
0.0
 40
0.01
100
AcDbArc
 50
280.08
 51
360.08
  0
ARC
  5
35B
100
AcDbEntity
 67
     1
  8
1
  6
Continuous
 62
     7
100
AcDbCircle
 10
2.458146
 20
7.219857
 30
0.0
 40
0.01
100
AcDbArc
 50
90.0
 51
180.0
  0
ARC
  5
35C
100
AcDbEntity
 67
     1
  8
1
  6
Continuous
 62
     7
100
AcDbCircle
 10
3.628146
 20
7.008627
 30
0.0
 40
0.01
100
AcDbArc
 50
277.5
 51
360.0
  0
ARC
  5
35D
100
AcDbEntity
 67
     1
  8
1
  6
Continuous
 62
     7
100
AcDbCircle
 10
3.527003
 20
7.01972
 30
0.0
 40
0.1
100
AcDbArc
 50
80.08
 51
180.08
  0
MTEXT
  5
35E
100
AcDbEntity
 67
     1
  8
1
  6
Continuous
 62
     7
100
AcDbMText
 10
2.143362
 20
0.611936
 30
0.0
 40
0.09
 41
0.0
 71
     7
 72
     5
  1
\W01.000; DENOTE COLOR.
  7
blockfont
210
0.0
220
0.0
230
1.0
 73
     2
 44
0.903614
  0
MTEXT
  5
360
100
AcDbEntity
 67
     1
  8
1
  6
Continuous
 62
     7
100
AcDbMText
 10
4.959322
 20
5.180101
 30
0.0
 40
0.09
 41
0.0
 71
     7
 72
     5
  1
\W01.000;3.99
  7
blockfont
210
0.0
220
0.0
230
1.0
 73
     2
 44
0.903614
  0
MTEXT
  5
361
100
AcDbEntity
 67
     1
  8
1
  6
Continuous
 62
     7
100
AcDbMText
 10
14.543476
 20
1.138067
 30
0.0
 40
0.037378
 41
0.0
 71
     7
 72
     5
  1
\W01.000;SCALE
  7
blockfont
210
0.0
220
0.0
230
1.0
 73
     2
 44
0.903614
  0
MTEXT
  5
362
100
AcDbEntity
 67
     1
  8
1
  6
Continuous
 62
     7
100
AcDbMText
 10
9.860338
 20
0.506482
 30
0.0
 40
0.059805
 41
0.0
 71
     7
 72
     5
  1
\W01.000;DESCRIPTION
  7
blockfont
210
0.0
220
0.0
230
1.0
 73
     2
 44
0.903614
  0
MTEXT
  5
363
100
AcDbEntity
 67
     1
  8
1
  6
Continuous
 62
     7
100
AcDbMText
 10
15.299307
 20
0.98737
 30
0.0
 40
0.125
 41
0.0
 71
     7
 72
     5
  1
\W01.000;FULL
  7
blockfont
210
0.0
220
0.0
230
1.0
 73
     2
 44
0.903614
  0
MTEXT
  5
364
100
AcDbEntity
 67
     1
  8
1
  6
Continuous
 62
     7
100
AcDbMText
 10
12.261904
 20
1.145399
 30
0.0
 40
0.037378
 41
0.0
 71
     7
 72
     5
  1
\W01.000;DRAWN BY
  7
blockfont
210
0.0
220
0.0
230
1.0
 73
     2
 44
0.903614
  0
MTEXT
  5
365
100
AcDbEntity
 67
     1
  8
1
  6
Continuous
 62
     7
100
AcDbMText
 10
2.906521
 20
2.497915
 30
0.0
 40
0.09
 41
0.0
 71
     7
 72
     5
  1
\W01.000;32.0
  7
blockfont
210
0.0
220
0.0
230
1.0
 73
     2
 44
0.903614
  0
MTEXT
  5
366
100
AcDbEntity
 67
     1
  8
1
  6
Continuous
 62
     7
100
AcDbMText
 10
12.284732
 20
0.775985
 30
0.0
 40
0.072
 41
0.0
 71
     7
 72
     5
  1
\W01.000;10-20-05
  7
blockfont
210
0.0
220
0.0
230
1.0
 73
     2
 44
0.903614
  0
MTEXT
  5
367
100
AcDbEntity
 67
     1
  8
1
  6
Continuous
 62
     7
100
AcDbMText
 10
12.391632
 20
1.025985
 30
0.0
 40
0.072
 41
0.0
 71
     7
 72
     5
  1
\W01.000;JCST
  7
blockfont
210
0.0
220
0.0
230
1.0
 73
     2
 44
0.903614
  0
MTEXT
  5
368
100
AcDbEntity
 67
     1
  8
1
  6
Continuous
 62
     7
100
AcDbMText
 10
12.261506
 20
0.613807
 30
0.0
 40
0.037378
 41
0.0
 71
     7
 72
     5
  1
\W01.000;CHECKED BY
  7
blockfont
210
0.0
220
0.0
230
1.0
 73
     2
 44
0.903614
  0
MTEXT
  5
369
100
AcDbEntity
 67
     1
  8
1
  6
Continuous
 62
     7
100
AcDbMText
 10
14.549612
 20
0.881436
 30
0.0
 40
0.037378
 41
0.0
 71
     7
 72
     5
  1
\W01.000;DRAWING NO.
  7
blockfont
210
0.0
220
0.0
230
1.0
 73
     2
 44
0.903614
  0
MTEXT
  5
36A
100
AcDbEntity
 67
     1
  8
1
  6
Continuous
 62
     7
100
AcDbMText
 10
13.053443
 20
1.075821
 30
0.0
 40
0.056067
 41
0.0
 71
     7
 72
     5
  1
\W01.000;MAT'L:
  7
blockfont
210
0.0
220
0.0
230
1.0
 73
     2
 44
0.903614
  0
MTEXT
  5
36B
100
AcDbEntity
 67
     1
  8
1
  6
Continuous
 62
     7
100
AcDbMText
 10
10.114632
 20
2.750592
 30
0.0
 40
0.09
 41
0.0
 71
     7
 72
     5
  1
\W01.000;DUCT - - PART NUMBER
  7
blockfont
210
0.0
220
0.0
230
1.0
 73
     2
 44
0.903614
  0
MTEXT
  5
36C
100
AcDbEntity
 67
     1
  8
1
  6
Continuous
 62
     7
100
AcDbMText
 10
13.529489
 20
8.097843
 30
0.0
 40
0.09
 41
0.0
 71
     7
 72
     5
  1
\W01.000;DUCT - - PART NUMBER
  7
blockfont
210
0.0
220
0.0
230
1.0
 73
     2
 44
0.903614
  0
MTEXT
  5
36D
100
AcDbEntity
 67
     1
  8
1
  6
Continuous
 62
     7
100
AcDbMText
 10
7.941722
 20
0.771575
 30
0.0
 40
0.072
 41
0.0
 71
     7
 72
     5
  1
\W01.000;MKBE
  7
blockfont
210
0.0
220
0.0
230
1.0
 73
     2
 44
0.903614
  0
MTEXT
  5
36E
100
AcDbEntity
 67
     1
  8
1
  6
Continuous
 62
     7
100
AcDbMText
 10
4.020387
 20
5.015795
 30
0.0
 40
0.09
 41
0.0
 71
     7
 72
     5
  1
\W01.000;104.1
  7
blockfont
210
0.0
220
0.0
230
1.0
 73
     2
 44
0.903614
  0
MTEXT
  5
36F
100
AcDbEntity
 67
     1
  8
1
  6
Continuous
 62
     7
100
AcDbMText
 10
16.105538
 20
0.57651
 30
0.0
 40
0.149512
 41
0.0
 71
     7
 72
     5
  1
\W01.000;B
  7
blockfont
210
0.0
220
0.0
230
1.0
 73
     2
 44
0.903614
  0
MTEXT
  5
370
100
AcDbEntity
 67
     1
  8
1
  6
Continuous
 62
     7
100
AcDbMText
 10
13.472049
 20
2.275784
 30
0.0
 40
0.09
 41
0.0
 71
     7
 72
     5
  1
\W01.000;FS1X4(36897-1083)_00.prt
  7
blockfont
210
0.0
220
0.0
230
1.0
 73
     2
 44
0.903614
  0
MTEXT
  5
371
100
AcDbEntity
 67
     1
  8
1
  6
Continuous
 62
     7
100
AcDbMText
 10
13.448734
 20
1.256841
 30
0.0
 40
0.09
 41
0.0
 71
     7
 72
     5
  1
\W01.000;MARKETING DRAWING
  7
blockfont
210
0.0
220
0.0
230
1.0
 73
     2
 44
0.903614
  0
MTEXT
  5
372
100
AcDbEntity
 67
     1
  8
1
  6
Continuous
 62
     7
100
AcDbMText
 10
2.867146
 20
7.770355
 30
0.0
 40
0.09
 41
0.0
 71
     7
 72
     5
  1
\W01.000;1.25
  7
blockfont
210
0.0
220
0.0
230
1.0
 73
     2
 44
0.903614
  0
MTEXT
  5
373
100
AcDbEntity
 67
     1
  8
1
  6
Continuous
 62
     7
100
AcDbMText
 10
13.529489
 20
7.962843
 30
0.0
 40
0.09
 41
0.0
 71
     7
 72
     5
  1
\W01.000;            C1**6
  7
blockfont
210
0.0
220
0.0
230
1.0
 73
     2
 44
0.903614
  0
MTEXT
  5
374
100
AcDbEntity
 67
     1
  8
1
  6
Continuous
 62
     7
100
AcDbMText
 10
12.287075
 20
1.718164
 30
0.0
 40
0.336401
 41
0.0
 71
     7
 72
     5
  1
\W01.000;P
  7
blockfont
210
0.0
220
0.0
230
1.0
 73
     2
 44
0.903614
  0
MTEXT
  5
375
100
AcDbEntity
 67
     1
  8
1
  6
Continuous
 62
     7
100
AcDbMText
 10
8.749774
 20
10.453232
 30
0.0
 40
0.070866
 41
0.0
 71
     7
 72
     5
  1
\W01.000;RESTS OF PANDUIT CORP.
  7
blockfont
210
0.0
220
0.0
230
1.0
 73
     2
 44
0.903614
  0
MTEXT
  5
376
100
AcDbEntity
 67
     1
  8
1
  6
Continuous
 62
     7
100
AcDbMText
 10
1.064675
 20
0.881936
 30
0.0
 40
0.09
 41
0.0
 71
     7
 72
     5
  1
\W01.000;2. DIMENSIONS IN PARENTHESES ARE METRIC.
  7
blockfont
210
0.0
220
0.0
230
1.0
 73
     2
 44
0.903614
  0
MTEXT
  5
377
100
AcDbEntity
 67
     1
  8
1
  6
Continuous
 62
     7
100
AcDbMText
 10
10.114632
 20
2.615592
 30
0.0
 40
0.09
 41
0.0
 71
     7
 72
     5
  1
\W01.000;         FS1X4**6NM
  7
blockfont
210
0.0
220
0.0
230
1.0
 73
     2
 44
0.903614
  0
MTEXT
  5
378
100
AcDbEntity
 67
     1
  8
1
  6
Continuous
 62
     7
100
AcDbMText
 10
12.391632
 20
0.510072
 30
0.0
 40
0.072
 41
0.0
 71
     7
 72
     5
  1
\W01.000;MKBE
  7
blockfont
210
0.0
220
0.0
230
1.0
 73
     2
 44
0.903614
  0
MTEXT
  5
379
100
AcDbEntity
 67
     1
  8
1
  6
Continuous
 62
     7
100
AcDbMText
 10
14.002767
 20
1.382997
 30
0.0
 40
0.115
 41
0.0
 71
     7
 72
     5
  1
\W01.000;1 X 4
  7
blockfont
210
0.0
220
0.0
230
1.0
 73
     2
 44
0.903614
  0
MTEXT
  5
37A
100
AcDbEntity
 67
     1
  8
1
  6
Continuous
 62
     7
100
AcDbMText
 10
6.695374
 20
0.771575
 30
0.0
 40
0.072
 41
0.0
 71
     7
 72
     5
  1
\W01.000;R
  7
blockfont
210
0.0
220
0.0
230
1.0
 73
     2
 44
0.903614
  0
MTEXT
  5
37B
100
AcDbEntity
 67
     1
  8
1
  6
Continuous
 62
     7
100
AcDbMText
 10
1.710225
 20
5.422655
 30
0.0
 40
0.09
 41
0.0
 71
     7
 72
     5
  1
\W01.000;2.7
  7
blockfont
210
0.0
220
0.0
230
1.0
 73
     2
 44
0.903614
  0
MTEXT
  5
37C
100
AcDbEntity
 67
     1
  8
1
  6
Continuous
 62
     7
100
AcDbMText
 10
12.260868
 20
0.8961
 30
0.0
 40
0.037378
 41
0.0
 71
     7
 72
     5
  1
\W01.000;DATE
  7
blockfont
210
0.0
220
0.0
230
1.0
 73
     2
 44
0.903614
  0
MTEXT
  5
37D
100
AcDbEntity
 67
     1
  8
1
  6
Continuous
 62
     7
100
AcDbMText
 10
3.981012
 20
5.23517
 30
0.0
 40
0.09
 41
0.0
 71
     7
 72
     5
  1
\W01.000;4.10
  7
blockfont
210
0.0
220
0.0
230
1.0
 73
     2
 44
0.903614
  0
MTEXT
  5
37E
100
AcDbEntity
 67
     1
  8
1
  6
Continuous
 62
     7
100
AcDbMText
 10
1.67085
 20
5.64203
 30
0.0
 40
0.09
 41
0.0
 71
     7
 72
     5
  1
\W01.000;.10
  7
blockfont
210
0.0
220
0.0
230
1.0
 73
     2
 44
0.903614
  0
MTEXT
  5
37F
100
AcDbEntity
 67
     1
  8
1
  6
Continuous
 62
     7
100
AcDbMText
 10
2.906521
 20
7.55098
 30
0.0
 40
0.09
 41
0.0
 71
     7
 72
     5
  1
\W01.000;31.8
  7
blockfont
210
0.0
220
0.0
230
1.0
 73
     2
 44
0.903614
  0
MTEXT
  5
380
100
AcDbEntity
 67
     1
  8
1
  6
Continuous
 62
     7
100
AcDbMText
 10
16.123362
 20
0.864938
 30
0.0
 40
0.037378
 41
0.0
 71
     7
 72
     5
  1
\W01.000;DWG
  7
blockfont
210
0.0
220
0.0
230
1.0
 73
     2
 44
0.903614
  0
MTEXT
  5
381
100
AcDbEntity
 67
     1
  8
1
  6
Continuous
 62
     7
100
AcDbMText
 10
7.022499
 20
0.78145
 30
0.0
 40
0.06
 41
0.0
 71
     7
 72
     5
  1
\W01.000;10-20-05
  7
blockfont
210
0.0
220
0.0
230
1.0
 73
     2
 44
0.903614
  0
MTEXT
  5
382
100
AcDbEntity
 67
     1
  8
1
  6
Continuous
 62
     7
100
AcDbMText
 10
1.064675
 20
0.611936
 30
0.0
 40
0.09
 41
0.0
 71
     7
 72
     5
  1
\W01.000;3. THE 
  7
blockfont
210
0.0
220
0.0
230
1.0
 73
     2
 44
0.903614
  0
MTEXT
  5
383
100
AcDbEntity
 67
     1
  8
1
  6
Continuous
 62
     7
100
AcDbMText
 10
4.998698
 20
4.960726
 30
0.0
 40
0.09
 41
0.0
 71
     7
 72
     5
  1
\W01.000;101.3
  7
blockfont
210
0.0
220
0.0
230
1.0
 73
     2
 44
0.903614
  0
MTEXT
  5
384
100
AcDbEntity
 67
     1
  8
1
  6
Continuous
 62
     7
100
AcDbMText
 10
1.064675
 20
1.421936
 30
0.0
 40
0.09
 41
0.0
 71
     7
 72
     5
  1
\W01.000;NOTE.
  7
blockfont
210
0.0
220
0.0
230
1.0
 73
     2
 44
0.903614
  0
MTEXT
  5
385
100
AcDbEntity
 67
     1
  8
1
  6
Continuous
 62
     7
100
AcDbMText
 10
1.028333
 20
10.453232
 30
0.0
 40
0.070866
 41
0.0
 71
     7
 72
     5
  1
\W01.000;THIS COPY IS PROVIDED ON A RESTRICTED BASIS AND IS NOT TO BE USED IN ANY WAY DETRIMENTAL TO THE INTE
  7
blockfont
210
0.0
220
0.0
230
1.0
 73
     2
 44
0.903614
  0
MTEXT
  5
386
100
AcDbEntity
 67
     1
  8
1
  6
Continuous
 62
     7
100
AcDbMText
 10
12.311009
 20
1.555497
 30
0.0
 40
0.115
 41
0.0
 71
     7
 72
     5
  1
\W01.000;WIRING DUCT - TYPE FS WITH COVER
  7
blockfont
210
0.0
220
0.0
230
1.0
 73
     2
 44
0.903614
  0
MTEXT
  5
387
100
AcDbEntity
 67
     1
  8
1
  6
Continuous
 62
     7
100
AcDbMText
 10
12.538276
 20
1.749781
 30
0.0
 40
0.261645
 41
0.0
 71
     7
 72
     5
  1
\W01.000;ANDUIT
  7
blockfont
210
0.0
220
0.0
230
1.0
 73
     2
 44
0.903614
  0
MTEXT
  5
388
100
AcDbEntity
 67
     1
  8
1
  6
Continuous
 62
     7
100
AcDbMText
 10
13.722902
 20
0.793422
 30
0.0
 40
0.09
 41
0.0
 71
     7
 72
     5
  1
\W01.000;PVC
  7
blockfont
210
0.0
220
0.0
230
1.0
 73
     2
 44
0.903614
  0
MTEXT
  5
389
100
AcDbEntity
 67
     1
  8
1
  6
Continuous
 62
     7
100
AcDbMText
 10
16.106665
 20
0.481825
 30
0.0
 40
0.037378
 41
0.0
 71
     7
 72
     5
  1
\W01.000;SIZE
  7
blockfont
210
0.0
220
0.0
230
1.0
 73
     2
 44
0.903614
  0
MTEXT
  5
38A
100
AcDbEntity
 67
     1
  8
1
  6
Continuous
 62
     7
100
AcDbMText
 10
12.258039
 20
2.406414
 30
0.0
 40
0.037378
 41
0.0
 71
     7
 72
     5
  1
\W01.000;CAD FILENAME/LAYERS
  7
blockfont
210
0.0
220
0.0
230
1.0
 73
     2
 44
0.903614
  0
MTEXT
  5
38B
100
AcDbEntity
 67
     1
  8
1
  6
Continuous
 62
     7
100
AcDbMText
 10
7.12561
 20
0.496674
 30
0.0
 40
0.059805
 41
0.0
 71
     7
 72
     5
  1
\W01.000;DATE
  7
blockfont
210
0.0
220
0.0
230
1.0
 73
     2
 44
0.903614
  0
MTEXT
  5
38C
100
AcDbEntity
 67
     1
  8
1
  6
Continuous
 62
     7
100
AcDbMText
 10
1.751112
 20
0.582873
 30
0.0
 40
0.18
 41
0.0
 71
     7
 72
     5
  1
\W01.000;**
  7
blockfont
210
0.0
220
0.0
230
1.0
 73
     2
 44
0.903614
  0
MTEXT
  5
38D
100
AcDbEntity
 67
     1
  8
1
  6
Continuous
 62
     7
100
AcDbMText
 10
1.064675
 20
1.151936
 30
0.0
 40
0.09
 41
0.0
 71
     7
 72
     5
  1
\W01.000;1. ALL DIMENSIONS ARE REFERENCE ONLY.
  7
blockfont
210
0.0
220
0.0
230
1.0
 73
     2
 44
0.903614
  0
MTEXT
  5
38E
100
AcDbEntity
 67
     1
  8
1
  6
Continuous
 62
     7
100
AcDbMText
 10
7.9878
 20
0.506482
 30
0.0
 40
0.059805
 41
0.0
 71
     7
 72
     5
  1
\W01.000;CHK
  7
blockfont
210
0.0
220
0.0
230
1.0
 73
     2
 44
0.903614
  0
MTEXT
  5
38F
100
AcDbEntity
 67
     1
  8
1
  6
Continuous
 62
     7
100
AcDbMText
 10
14.289995
 20
1.790397
 30
0.0
 40
0.074756
 41
0.0
 71
     7
 72
     5
  1
\W01.000;CORP.
  7
blockfont
210
0.0
220
0.0
230
1.0
 73
     2
 44
0.903614
  0
MTEXT
  5
390
100
AcDbEntity
 67
     1
  8
1
  6
Continuous
 62
     7
100
AcDbMText
 10
8.39581
 20
0.769623
 30
0.0
 40
0.072
 41
0.0
 71
     7
 72
     5
  1
\W01.000;DRAWING RELEASED
  7
blockfont
210
0.0
220
0.0
230
1.0
 73
     2
 44
0.903614
  0
MTEXT
  5
391
100
AcDbEntity
 67
     1
  8
1
  6
Continuous
 62
     7
100
AcDbMText
 10
14.81818
 20
1.796432
 30
0.0
 40
0.056067
 41
0.0
 71
     7
 72
     5
  1
\W01.000;TINLEY PARK, ILLINOIS
  7
blockfont
210
0.0
220
0.0
230
1.0
 73
     2
 44
0.903614
  0
MTEXT
  5
392
100
AcDbEntity
 67
     1
  8
1
  6
Continuous
 62
     7
100
AcDbMText
 10
2.867146
 20
2.717289
 30
0.0
 40
0.09
 41
0.0
 71
     7
 72
     5
  1
\W01.000;1.26
  7
blockfont
210
0.0
220
0.0
230
1.0
 73
     2
 44
0.903614
  0
MTEXT
  5
393
100
AcDbEntity
 67
     1
  8
1
  6
Continuous
 62
     7
100
AcDbMText
 10
7.718938
 20
0.500068
 30
0.0
 40
0.059805
 41
0.0
 71
     7
 72
     5
  1
\W01.000;BY
  7
blockfont
210
0.0
220
0.0
230
1.0
 73
     2
 44
0.903614
  0
MTEXT
  5
394
100
AcDbEntity
 67
     1
  8
1
  6
Continuous
 62
     7
100
AcDbMText
 10
6.634647
 20
0.500068
 30
0.0
 40
0.059805
 41
0.0
 71
     7
 72
     5
  1
\W01.000;REV
  7
blockfont
210
0.0
220
0.0
230
1.0
 73
     2
 44
0.903614
  0
MTEXT
  5
395
100
AcDbEntity
 67
     1
  8
1
  6
Continuous
 62
     7
100
AcDbMText
 10
14.555853
 20
0.607277
 30
0.0
 40
0.125
 41
0.0
 71
     7
 72
     5
  1
\W01.000;36897-1083
  7
blockfont
210
0.0
220
0.0
230
1.0
 73
     2
 44
0.903614
  0
MTEXT
  5
396
100
AcDbEntity
 67
     1
  8
1
  6
Continuous
 62
     7
100
AcDbMText
 10
7.648345
 20
0.77569
 30
0.0
 40
0.067
 41
0.0
 71
     7
 72
     5
  1
\W01.000;JCST
  7
blockfont
210
0.0
220
0.0
230
1.0
 73
     2
 44
0.903614
  0
ENDSEC
  0
SECTION
  2
OBJECTS
  0
DICTIONARY
  5
19
100
AcDbDictionary
280
     0
281
     1
  3
ACAD_GROUP
350
1A
  3
ACAD_MLINESTYLE
350
1B
  3
ACAD_LAYOUT
350
1E
  3
ACAD_PLOTSETTINGS
350
21
  3
ACAD_PLOTSTYLENAME
350
1F
  0
DICTIONARY
  5
1A
102
{ACAD_REACTORS
330
19
102
}
100
AcDbDictionary
280
     0
281
     1
  0
DICTIONARY
  5
1B
102
{ACAD_REACTORS
330
19
102
}
100
AcDbDictionary
280
     0
281
     1
  3
Standard
350
1C
  0
MLINESTYLE
  5
1C
102
{ACAD_REACTORS
330
1B
102
}
100
AcDbMlineStyle
  2
Standard
 70
     0
  3

 62
     0
 51
90.0
 52
90.0
 71
     2
 49
0.5
 62
   256
  6
BYLAYER
 49
-0.5
 62
   256
  6
BYLAYER
  0
ACDBDICTIONARYWDFLT
  5
1F
102
{ACAD_REACTORS
330
19
102
}
100
AcDbDictionary
281
     1
  3
Normal
350
1D
100
AcDbDictionaryWithDefault
340
1D
  0
ACDBPLACEHOLDER
  5
1D
102
{ACAD_REACTORS
330
1F
102
}
  0
LAYOUT
  5
20
102
{ACAD_REACTORS
330
1E
102
}
100
AcDbPlotSettings
  1

  2

  4

  6

 40
0.0
 41
0.0
 42
0.0
 43
0.0
 44
0.0
 45
0.0
 46
0.0
 47
0.0
 48
0.0
 49
0.0
140
0.0
141
0.0
142
1.0
143
1.0
 70
  1024
 72
     0
 73
     0
 74
     0
  7

 75
     0
147
1.0
148
0.0
149
0.0
100
AcDbLayout
  1
Model
 70
     0
 71
     0
 10
0.0
 20
0.0
 11
0.0
 21
0.0
 12
0.0
 22
0.0
 32
0.0
 14
0.0
 24
0.0
 34
0.0
 15
0.0
 25
0.0
 35
0.0
146
0.0
 13
0.0
 23
0.0
 33
0.0
 16
0.0
 26
0.0
 36
0.0
 17
0.0
 27
0.0
 37
0.0
 76
     0
330
A
331
0
345
0
346
0
  0
DICTIONARY
  5
1E
102
{ACAD_REACTORS
330
19
102
}
100
AcDbDictionary
280
     0
281
     1
  3
Model
350
20
  3
DRAWING1
350
397
  0
DICTIONARY
  5
21
102
{ACAD_REACTORS
330
19
102
}
100
AcDbDictionary
280
     0
281
     1
  0
LAYOUT
  5
397
102
{ACAD_REACTORS
330
1E
102
}
100
AcDbPlotSettings
  1

  2

  4

  6

 40
0.0
 41
0.0
 42
0.0
 43
0.0
 44
0.0
 45
0.0
 46
0.0
 47
0.0
 48
0.0
 49
0.0
140
0.0
141
0.0
142
1.0
143
1.0
 70
     0
 72
     0
 73
     0
 74
     0
  7

 75
     0
147
1.0
148
0.0
149
0.0
100
AcDbLayout
  1
DRAWING1
 70
     0
 71
     1
 10
0.0
 20
0.0
 11
0.0
 21
0.0
 12
0.0
 22
0.0
 32
0.0
 14
0.0
 24
0.0
 34
0.0
 15
0.0
 25
0.0
 35
0.0
146
0.0
 13
0.0
 23
0.0
 33
0.0
 16
0.0
 26
0.0
 36
0.0
 17
0.0
 27
0.0
 37
0.0
 76
     0
330
B
331
30
345
0
346
0
  0
ENDSEC
  0
EOF
