  0
SECTION
  2
HEADER
  9
$ACADVER
  1
AC1012
  9
$DWGCODEPAGE
  3
ANSI_1252
  9
$INSBASE
 10
0.0
 20
0.0
 30
0.0
  9
$EXTMIN
 10
10.91913959737969
 20
11.88474780425335
 30
0.0
  9
$EXTMAX
 10
17.33908710394137
 20
14.63540397223235
 30
0.0
  9
$LIMMIN
 10
0.0
 20
0.0
  9
$LIMMAX
 10
12.0
 20
9.0
  9
$ORTHOMODE
 70
     0
  9
$REGENMODE
 70
     1
  9
$FILLMODE
 70
     1
  9
$QTEXTMODE
 70
     0
  9
$MIRRTEXT
 70
     1
  9
$DRAGMODE
 70
     2
  9
$LTSCALE
 40
1.0
  9
$OSMODE
 70
   547
  9
$ATTMODE
 70
     1
  9
$TEXTSIZE
 40
0.2
  9
$TRACEWID
 40
0.05
  9
$TEXTSTYLE
  7
STANDARD
  9
$CLAYER
  8
0
  9
$CELTYPE
  6
BYLAYER
  9
$CECOLOR
 62
   256
  9
$CELTSCALE
 40
1.0
  9
$DELOBJ
 70
     1
  9
$DISPSILH
 70
     0
  9
$DIMSCALE
 40
1.0
  9
$DIMASZ
 40
0.18
  9
$DIMEXO
 40
0.0625
  9
$DIMDLI
 40
0.38
  9
$DIMRND
 40
0.0
  9
$DIMDLE
 40
0.0
  9
$DIMEXE
 40
0.18
  9
$DIMTP
 40
0.0
  9
$DIMTM
 40
0.0
  9
$DIMTXT
 40
0.18
  9
$DIMCEN
 40
0.09
  9
$DIMTSZ
 40
0.0
  9
$DIMTOL
 70
     0
  9
$DIMLIM
 70
     0
  9
$DIMTIH
 70
     1
  9
$DIMTOH
 70
     1
  9
$DIMSE1
 70
     0
  9
$DIMSE2
 70
     0
  9
$DIMTAD
 70
     0
  9
$DIMZIN
 70
     0
  9
$DIMBLK
  1

  9
$DIMASO
 70
     1
  9
$DIMSHO
 70
     1
  9
$DIMPOST
  1

  9
$DIMAPOST
  1

  9
$DIMALT
 70
     0
  9
$DIMALTD
 70
     2
  9
$DIMALTF
 40
25.4
  9
$DIMLFAC
 40
1.0
  9
$DIMTOFL
 70
     0
  9
$DIMTVP
 40
0.0
  9
$DIMTIX
 70
     0
  9
$DIMSOXD
 70
     0
  9
$DIMSAH
 70
     0
  9
$DIMBLK1
  1

  9
$DIMBLK2
  1

  9
$DIMSTYLE
  2
STANDARD
  9
$DIMCLRD
 70
     0
  9
$DIMCLRE
 70
     0
  9
$DIMCLRT
 70
     0
  9
$DIMTFAC
 40
1.0
  9
$DIMGAP
 40
0.09
  9
$DIMJUST
 70
     0
  9
$DIMSD1
 70
     0
  9
$DIMSD2
 70
     0
  9
$DIMTOLJ
 70
     1
  9
$DIMTZIN
 70
     0
  9
$DIMALTZ
 70
     0
  9
$DIMALTTZ
 70
     0
  9
$DIMFIT
 70
     5
  9
$DIMUPT
 70
     0
  9
$DIMUNIT
 70
     2
  9
$DIMDEC
 70
     4
  9
$DIMTDEC
 70
     4
  9
$DIMALTU
 70
     2
  9
$DIMALTTD
 70
     2
  9
$DIMTXSTY
  7
STANDARD
  9
$DIMAUNIT
 70
     0
  9
$LUNITS
 70
     2
  9
$LUPREC
 70
     4
  9
$SKETCHINC
 40
0.1
  9
$FILLETRAD
 40
0.0
  9
$AUNITS
 70
     0
  9
$AUPREC
 70
     0
  9
$MENU
  1
acad
  9
$ELEVATION
 40
0.0
  9
$PELEVATION
 40
0.0
  9
$THICKNESS
 40
0.0
  9
$LIMCHECK
 70
     0
  9
$BLIPMODE
 70
     0
  9
$CHAMFERA
 40
0.0
  9
$CHAMFERB
 40
0.0
  9
$CHAMFERC
 40
0.0
  9
$CHAMFERD
 40
0.0
  9
$SKPOLY
 70
     0
  9
$TDCREATE
 40
2452489.374050926
  9
$TDUPDATE
 40
2453978.481066400
  9
$TDINDWG
 40
0.0023723148
  9
$TDUSRTIMER
 40
0.0023723148
  9
$USRTIMER
 70
     1
  9
$ANGBASE
 50
0.0
  9
$ANGDIR
 70
     0
  9
$PDMODE
 70
     0
  9
$PDSIZE
 40
0.0
  9
$PLINEWID
 40
0.0
  9
$COORDS
 70
     1
  9
$SPLFRAME
 70
     0
  9
$SPLINETYPE
 70
     6
  9
$SPLINESEGS
 70
     8
  9
$ATTDIA
 70
     0
  9
$ATTREQ
 70
     1
  9
$HANDLING
 70
  4097
  9
$HANDSEED
  5
487C
  9
$SURFTAB1
 70
     6
  9
$SURFTAB2
 70
     6
  9
$SURFTYPE
 70
     6
  9
$SURFU
 70
     6
  9
$SURFV
 70
     6
  9
$UCSNAME
  2

  9
$UCSORG
 10
0.0
 20
0.0
 30
0.0
  9
$UCSXDIR
 10
1.0
 20
0.0
 30
0.0
  9
$UCSYDIR
 10
0.0
 20
1.0
 30
0.0
  9
$PUCSNAME
  2

  9
$PUCSORG
 10
0.0
 20
0.0
 30
0.0
  9
$PUCSXDIR
 10
1.0
 20
0.0
 30
0.0
  9
$PUCSYDIR
 10
0.0
 20
1.0
 30
0.0
  9
$USERI1
 70
     0
  9
$USERI2
 70
     0
  9
$USERI3
 70
     0
  9
$USERI4
 70
     0
  9
$USERI5
 70
     0
  9
$USERR1
 40
0.0
  9
$USERR2
 40
0.0
  9
$USERR3
 40
0.0
  9
$USERR4
 40
0.0
  9
$USERR5
 40
0.0
  9
$WORLDVIEW
 70
     1
  9
$SHADEDGE
 70
     3
  9
$SHADEDIF
 70
    70
  9
$TILEMODE
 70
     1
  9
$MAXACTVP
 70
    16
  9
$PINSBASE
 10
0.0
 20
0.0
 30
0.0
  9
$PLIMCHECK
 70
     0
  9
$PEXTMIN
 10
1.000000000000000E+20
 20
1.000000000000000E+20
 30
1.000000000000000E+20
  9
$PEXTMAX
 10
-1.000000000000000E+20
 20
-1.000000000000000E+20
 30
-1.000000000000000E+20
  9
$PLIMMIN
 10
0.0
 20
0.0
  9
$PLIMMAX
 10
12.0
 20
9.0
  9
$UNITMODE
 70
     0
  9
$VISRETAIN
 70
     0
  9
$PLINEGEN
 70
     0
  9
$PSLTSCALE
 70
     1
  9
$TREEDEPTH
 70
  3020
  9
$PICKSTYLE
 70
     1
  9
$CMLSTYLE
  2
STANDARD
  9
$CMLJUST
 70
     0
  9
$CMLSCALE
 40
1.0
  9
$SAVEIMAGES
 70
     1
  0
ENDSEC
  0
SECTION
  2
CLASSES
  0
CLASS
  1
ACDBDICTIONARYWDFLT
  2
AcDbDictionaryWithDefault
  3
AutoCAD 2000
 90
    32768
280
     0
281
     0
  0
CLASS
  1
ACDBPLACEHOLDER
  2
AcDbPlaceHolder
  3
AutoCAD 2000
 90
    32768
280
     0
281
     0
  0
CLASS
  1
LAYOUT
  2
AcDbLayout
  3
AutoCAD 2000
 90
    32768
280
     0
281
     0
  0
CLASS
  1
LONG_TRANSACTION
  2
AcDbLongTransaction
  3
AutoCAD 2000
 90
    32768
280
     0
281
     0
  0
CLASS
  1
LWPOLYLINE
  2
AcDbPolyline
  3
AutoCAD 2000
 90
    32768
280
     0
281
     1
  0
CLASS
  1
HATCH
  2
AcDbHatch
  3
AutoCAD 2000
 90
    32768
280
     0
281
     1
  0
CLASS
  1
XRECORD
  2
AcDbXrecord
  3
AutoCAD 2000
 90
    32768
280
     0
281
     0
  0
CLASS
  1
LONG_TRANSACTION
  2
AcDbLongTransaction
  3
AutoCAD 2000
 90
    32768
280
     0
281
     0
  0
CLASS
  1
LWPOLYLINE
  2
AcDbPolyline
  3
AutoCAD 2000
 90
    32768
280
     0
281
     1
  0
CLASS
  1
HATCH
  2
AcDbHatch
  3
AutoCAD 2000
 90
    32768
280
     0
281
     1
  0
CLASS
  1
XRECORD
  2
AcDbXrecord
  3
AutoCAD 2000
 90
    32768
280
     0
281
     0
  0
ENDSEC
  0
SECTION
  2
TABLES
  0
TABLE
  2
VPORT
  5
8
330
0
100
AcDbSymbolTable
 70
     3
  0
VPORT
  5
4879
330
8
100
AcDbSymbolTableRecord
100
AcDbViewportTableRecord
  2
*ACTIVE
 70
     0
 10
0.0
 20
0.0
 11
1.0
 21
1.0
 12
14.18713944053224
 22
13.51393893525695
 13
0.0
 23
0.0
 14
1.0
 24
1.0
 15
0.0
 25
0.0
 16
0.0
 26
0.0
 36
1.0
 17
0.0
 27
0.0
 37
0.0
 40
3.985977236243661
 41
1.647569444444444
 42
50.0
 43
0.0
 44
0.0
 50
0.0
 51
0.0
 71
     0
 72
   100
 73
     1
 74
     1
 75
     0
 76
     0
 77
     0
 78
     0
  0
ENDTAB
  0
TABLE
  2
LTYPE
  5
5
330
0
100
AcDbSymbolTable
 70
    25
  0
LTYPE
  5
13
330
5
100
AcDbSymbolTableRecord
100
AcDbLinetypeTableRecord
  2
BYBLOCK
 70
     0
  3

 72
    65
 73
     0
 40
0.0
  0
LTYPE
  5
14
330
5
100
AcDbSymbolTableRecord
100
AcDbLinetypeTableRecord
  2
BYLAYER
 70
     0
  3

 72
    65
 73
     0
 40
0.0
  0
LTYPE
  5
15
330
5
100
AcDbSymbolTableRecord
100
AcDbLinetypeTableRecord
  2
CONTINUOUS
 70
     0
  3
Solid line
 72
    65
 73
     0
 40
0.0
  0
LTYPE
  5
22
330
5
100
AcDbSymbolTableRecord
100
AcDbLinetypeTableRecord
  2
BORDER
 70
     0
  3
__ __ . __ __ . __ __ . __ __ . __ __ . __ __ .
 72
    65
 73
     6
 40
1.75
 49
0.5
 74
     0
 49
-0.25
 74
     0
 49
0.5
 74
     0
 49
-0.25
 74
     0
 49
0.5
 74
     0
 49
-0.25
 74
     0
  0
LTYPE
  5
23
330
5
100
AcDbSymbolTableRecord
100
AcDbLinetypeTableRecord
  2
BORDER2
 70
     0
  3
__.__.__.__.__.__.__.__.__.__.__.__.__.__.__.__
 72
    65
 73
     6
 40
0.875
 49
0.25
 74
     0
 49
-0.125
 74
     0
 49
0.25
 74
     0
 49
-0.125
 74
     0
 49
0.25
 74
     0
 49
-0.125
 74
     0
  0
LTYPE
  5
24
330
5
100
AcDbSymbolTableRecord
100
AcDbLinetypeTableRecord
  2
BORDERX2
 70
     0
  3
____  ____  .  ____  ____  .  
 72
    65
 73
     6
 40
3.5
 49
1.0
 74
     0
 49
-0.5
 74
     0
 49
1.0
 74
     0
 49
-0.5
 74
     0
 49
1.0
 74
     0
 49
-0.5
 74
     0
  0
LTYPE
  5
25
330
5
100
AcDbSymbolTableRecord
100
AcDbLinetypeTableRecord
  2
CENTER
 70
     0
  3
____ _ ____ _ ____ _ ____ _ ____ _ ____ _ ____
 72
    65
 73
     4
 40
2.0
 49
1.25
 74
     0
 49
-0.25
 74
     0
 49
0.25
 74
     0
 49
-0.25
 74
     0
  0
LTYPE
  5
26
330
5
100
AcDbSymbolTableRecord
100
AcDbLinetypeTableRecord
  2
CENTER2
 70
     0
  3
____ _ ____ _ ____ _ ____ _ ____ _ ____ _ ____
 72
    65
 73
     4
 40
1.125
 49
0.75
 74
     0
 49
-0.125
 74
     0
 49
0.125
 74
     0
 49
-0.125
 74
     0
  0
LTYPE
  5
27
330
5
100
AcDbSymbolTableRecord
100
AcDbLinetypeTableRecord
  2
CENTERX2
 70
     0
  3
________  __  ________  __  ________  __  
 72
    65
 73
     4
 40
4.0
 49
2.5
 74
     0
 49
-0.5
 74
     0
 49
0.5
 74
     0
 49
-0.5
 74
     0
  0
LTYPE
  5
28
330
5
100
AcDbSymbolTableRecord
100
AcDbLinetypeTableRecord
  2
DASHDOT
 70
     0
  3
__ . __ . __ . __ . __ . __ . __ . 
 72
    65
 73
     4
 40
1.0
 49
0.5
 74
     0
 49
-0.25
 74
     0
 49
0.0
 74
     0
 49
-0.25
 74
     0
  0
LTYPE
  5
29
330
5
100
AcDbSymbolTableRecord
100
AcDbLinetypeTableRecord
  2
DASHDOT2
 70
     0
  3
_._._._._._._._._._._._._._._._.
 72
    65
 73
     4
 40
0.5
 49
0.25
 74
     0
 49
-0.125
 74
     0
 49
0.0
 74
     0
 49
-0.125
 74
     0
  0
LTYPE
  5
2A
330
5
100
AcDbSymbolTableRecord
100
AcDbLinetypeTableRecord
  2
DASHDOTX2
 70
     0
  3
____  .  ____  .  ____  .  ____  .  
 72
    65
 73
     4
 40
2.0
 49
1.0
 74
     0
 49
-0.5
 74
     0
 49
0.0
 74
     0
 49
-0.5
 74
     0
  0
LTYPE
  5
2B
330
5
100
AcDbSymbolTableRecord
100
AcDbLinetypeTableRecord
  2
DASHED
 70
     0
  3
__ __ __ __ __ __ __ __ __ __ __ __ 
 72
    65
 73
     2
 40
0.75
 49
0.5
 74
     0
 49
-0.25
 74
     0
  0
LTYPE
  5
2C
330
5
100
AcDbSymbolTableRecord
100
AcDbLinetypeTableRecord
  2
DASHED2
 70
     0
  3
_ _ _ _ _ _ _ _ _ _ _ _ _ _ _ _ _ _ 
 72
    65
 73
     2
 40
0.375
 49
0.25
 74
     0
 49
-0.125
 74
     0
  0
LTYPE
  5
2D
330
5
100
AcDbSymbolTableRecord
100
AcDbLinetypeTableRecord
  2
DASHEDX2
 70
     0
  3
____  ____  ____  ____  ____  ____  
 72
    65
 73
     2
 40
1.5
 49
1.0
 74
     0
 49
-0.5
 74
     0
  0
LTYPE
  5
2E
330
5
100
AcDbSymbolTableRecord
100
AcDbLinetypeTableRecord
  2
DIVIDE
 70
     0
  3
____ . . ____ . . ____ . . ____ . . 
 72
    65
 73
     6
 40
1.25
 49
0.5
 74
     0
 49
-0.25
 74
     0
 49
0.0
 74
     0
 49
-0.25
 74
     0
 49
0.0
 74
     0
 49
-0.25
 74
     0
  0
LTYPE
  5
2F
330
5
100
AcDbSymbolTableRecord
100
AcDbLinetypeTableRecord
  2
DIVIDE2
 70
     0
  3
__..__..__..__..__..__..__..__..__..
 72
    65
 73
     6
 40
0.625
 49
0.25
 74
     0
 49
-0.125
 74
     0
 49
0.0
 74
     0
 49
-0.125
 74
     0
 49
0.0
 74
     0
 49
-0.125
 74
     0
  0
LTYPE
  5
30
330
5
100
AcDbSymbolTableRecord
100
AcDbLinetypeTableRecord
  2
DIVIDEX2
 70
     0
  3
________  .  .  ________  .  .  ________  .  . 
 72
    65
 73
     6
 40
2.5
 49
1.0
 74
     0
 49
-0.5
 74
     0
 49
0.0
 74
     0
 49
-0.5
 74
     0
 49
0.0
 74
     0
 49
-0.5
 74
     0
  0
LTYPE
  5
31
330
5
100
AcDbSymbolTableRecord
100
AcDbLinetypeTableRecord
  2
DOT
 70
     0
  3
. . . . . . . . . . . . . . . . . . 
 72
    65
 73
     2
 40
0.25
 49
0.0
 74
     0
 49
-0.25
 74
     0
  0
LTYPE
  5
32
330
5
100
AcDbSymbolTableRecord
100
AcDbLinetypeTableRecord
  2
DOT2
 70
     0
  3
....................................
 72
    65
 73
     2
 40
0.125
 49
0.0
 74
     0
 49
-0.125
 74
     0
  0
LTYPE
  5
33
330
5
100
AcDbSymbolTableRecord
100
AcDbLinetypeTableRecord
  2
DOTX2
 70
     0
  3
.  .  .  .  .  .  .  .  .  .  .  .  .  
 72
    65
 73
     2
 40
0.5
 49
0.0
 74
     0
 49
-0.5
 74
     0
  0
LTYPE
  5
34
330
5
100
AcDbSymbolTableRecord
100
AcDbLinetypeTableRecord
  2
HIDDEN
 70
     0
  3
__ __ __ __ __ __ __ __ __ __ __ __ 
 72
    65
 73
     2
 40
0.375
 49
0.25
 74
     0
 49
-0.125
 74
     0
  0
LTYPE
  5
35
330
5
100
AcDbSymbolTableRecord
100
AcDbLinetypeTableRecord
  2
HIDDEN2
 70
     0
  3
_ _ _ _ _ _ _ _ _ _ _ _ _ _ _ _ _ _ 
 72
    65
 73
     2
 40
0.1875
 49
0.125
 74
     0
 49
-0.0625
 74
     0
  0
LTYPE
  5
36
330
5
100
AcDbSymbolTableRecord
100
AcDbLinetypeTableRecord
  2
HIDDENX2
 70
     0
  3
____ ____ ____ ____ ____ ____ ____ 
 72
    65
 73
     2
 40
0.75
 49
0.5
 74
     0
 49
-0.25
 74
     0
  0
LTYPE
  5
37
330
5
100
AcDbSymbolTableRecord
100
AcDbLinetypeTableRecord
  2
PHANTOM
 70
     0
  3
______  __  __  ______  __  __  
 72
    65
 73
     6
 40
2.5
 49
1.25
 74
     0
 49
-0.25
 74
     0
 49
0.25
 74
     0
 49
-0.25
 74
     0
 49
0.25
 74
     0
 49
-0.25
 74
     0
  0
LTYPE
  5
38
330
5
100
AcDbSymbolTableRecord
100
AcDbLinetypeTableRecord
  2
PHANTOM2
 70
     0
  3
___ _ _ ___ _ _ ___ _ _ ___ _ _ 
 72
    65
 73
     6
 40
1.25
 49
0.625
 74
     0
 49
-0.125
 74
     0
 49
0.125
 74
     0
 49
-0.125
 74
     0
 49
0.125
 74
     0
 49
-0.125
 74
     0
  0
LTYPE
  5
39
330
5
100
AcDbSymbolTableRecord
100
AcDbLinetypeTableRecord
  2
PHANTOMX2
 70
     0
  3
___ _ _ ___ _ _ ___ _ _ ___ _ _ 
 72
    65
 73
     6
 40
5.0
 49
2.5
 74
     0
 49
-0.5
 74
     0
 49
0.5
 74
     0
 49
-0.5
 74
     0
 49
0.5
 74
     0
 49
-0.5
 74
     0
  0
ENDTAB
  0
TABLE
  2
LAYER
  5
2
330
0
100
AcDbSymbolTable
 70
   257
  0
LAYER
  5
10
330
2
100
AcDbSymbolTableRecord
100
AcDbLayerTableRecord
  2
0
 70
     0
 62
     7
  6
CONTINUOUS
  0
LAYER
  5
3A
330
2
100
AcDbSymbolTableRecord
100
AcDbLayerTableRecord
  2
1
 70
     0
 62
     1
  6
CONTINUOUS
  0
LAYER
  5
3B
330
2
100
AcDbSymbolTableRecord
100
AcDbLayerTableRecord
  2
2
 70
     0
 62
     2
  6
CONTINUOUS
  0
LAYER
  5
3C
330
2
100
AcDbSymbolTableRecord
100
AcDbLayerTableRecord
  2
3
 70
     0
 62
     3
  6
CONTINUOUS
  0
LAYER
  5
3D
330
2
100
AcDbSymbolTableRecord
100
AcDbLayerTableRecord
  2
4
 70
     0
 62
     4
  6
CONTINUOUS
  0
LAYER
  5
3E
330
2
100
AcDbSymbolTableRecord
100
AcDbLayerTableRecord
  2
5
 70
     0
 62
     5
  6
CONTINUOUS
  0
LAYER
  5
3F
330
2
100
AcDbSymbolTableRecord
100
AcDbLayerTableRecord
  2
6
 70
     0
 62
     6
  6
CONTINUOUS
  0
LAYER
  5
40
330
2
100
AcDbSymbolTableRecord
100
AcDbLayerTableRecord
  2
7
 70
     0
 62
     7
  6
CONTINUOUS
  0
LAYER
  5
41
330
2
100
AcDbSymbolTableRecord
100
AcDbLayerTableRecord
  2
8
 70
     0
 62
     8
  6
CONTINUOUS
  0
LAYER
  5
42
330
2
100
AcDbSymbolTableRecord
100
AcDbLayerTableRecord
  2
9
 70
     0
 62
     9
  6
CONTINUOUS
  0
LAYER
  5
43
330
2
100
AcDbSymbolTableRecord
100
AcDbLayerTableRecord
  2
10
 70
     0
 62
    10
  6
CONTINUOUS
  0
LAYER
  5
44
330
2
100
AcDbSymbolTableRecord
100
AcDbLayerTableRecord
  2
11
 70
     0
 62
    11
  6
CONTINUOUS
  0
LAYER
  5
45
330
2
100
AcDbSymbolTableRecord
100
AcDbLayerTableRecord
  2
12
 70
     0
 62
    12
  6
CONTINUOUS
  0
LAYER
  5
46
330
2
100
AcDbSymbolTableRecord
100
AcDbLayerTableRecord
  2
13
 70
     0
 62
    13
  6
CONTINUOUS
  0
LAYER
  5
47
330
2
100
AcDbSymbolTableRecord
100
AcDbLayerTableRecord
  2
14
 70
     0
 62
    14
  6
CONTINUOUS
  0
LAYER
  5
48
330
2
100
AcDbSymbolTableRecord
100
AcDbLayerTableRecord
  2
15
 70
     0
 62
    15
  6
CONTINUOUS
  0
LAYER
  5
49
330
2
100
AcDbSymbolTableRecord
100
AcDbLayerTableRecord
  2
16
 70
     0
 62
    16
  6
CONTINUOUS
  0
LAYER
  5
4A
330
2
100
AcDbSymbolTableRecord
100
AcDbLayerTableRecord
  2
17
 70
     0
 62
    17
  6
CONTINUOUS
  0
LAYER
  5
4B
330
2
100
AcDbSymbolTableRecord
100
AcDbLayerTableRecord
  2
18
 70
     0
 62
    18
  6
CONTINUOUS
  0
LAYER
  5
4C
330
2
100
AcDbSymbolTableRecord
100
AcDbLayerTableRecord
  2
19
 70
     0
 62
    19
  6
CONTINUOUS
  0
LAYER
  5
4D
330
2
100
AcDbSymbolTableRecord
100
AcDbLayerTableRecord
  2
20
 70
     0
 62
    20
  6
CONTINUOUS
  0
LAYER
  5
4E
330
2
100
AcDbSymbolTableRecord
100
AcDbLayerTableRecord
  2
21
 70
     0
 62
    21
  6
CONTINUOUS
  0
LAYER
  5
4F
330
2
100
AcDbSymbolTableRecord
100
AcDbLayerTableRecord
  2
22
 70
     0
 62
    22
  6
CONTINUOUS
  0
LAYER
  5
50
330
2
100
AcDbSymbolTableRecord
100
AcDbLayerTableRecord
  2
23
 70
     0
 62
    23
  6
CONTINUOUS
  0
LAYER
  5
51
330
2
100
AcDbSymbolTableRecord
100
AcDbLayerTableRecord
  2
24
 70
     0
 62
    24
  6
CONTINUOUS
  0
LAYER
  5
52
330
2
100
AcDbSymbolTableRecord
100
AcDbLayerTableRecord
  2
25
 70
     0
 62
    25
  6
CONTINUOUS
  0
LAYER
  5
53
330
2
100
AcDbSymbolTableRecord
100
AcDbLayerTableRecord
  2
26
 70
     0
 62
    26
  6
CONTINUOUS
  0
LAYER
  5
54
330
2
100
AcDbSymbolTableRecord
100
AcDbLayerTableRecord
  2
27
 70
     0
 62
    27
  6
CONTINUOUS
  0
LAYER
  5
55
330
2
100
AcDbSymbolTableRecord
100
AcDbLayerTableRecord
  2
28
 70
     0
 62
    28
  6
CONTINUOUS
  0
LAYER
  5
56
330
2
100
AcDbSymbolTableRecord
100
AcDbLayerTableRecord
  2
29
 70
     0
 62
    29
  6
CONTINUOUS
  0
LAYER
  5
57
330
2
100
AcDbSymbolTableRecord
100
AcDbLayerTableRecord
  2
30
 70
     0
 62
    30
  6
CONTINUOUS
  0
LAYER
  5
58
330
2
100
AcDbSymbolTableRecord
100
AcDbLayerTableRecord
  2
31
 70
     0
 62
    31
  6
CONTINUOUS
  0
LAYER
  5
59
330
2
100
AcDbSymbolTableRecord
100
AcDbLayerTableRecord
  2
32
 70
     0
 62
    32
  6
CONTINUOUS
  0
LAYER
  5
5A
330
2
100
AcDbSymbolTableRecord
100
AcDbLayerTableRecord
  2
33
 70
     0
 62
    33
  6
CONTINUOUS
  0
LAYER
  5
5B
330
2
100
AcDbSymbolTableRecord
100
AcDbLayerTableRecord
  2
34
 70
     0
 62
    34
  6
CONTINUOUS
  0
LAYER
  5
5C
330
2
100
AcDbSymbolTableRecord
100
AcDbLayerTableRecord
  2
35
 70
     0
 62
    35
  6
CONTINUOUS
  0
LAYER
  5
5D
330
2
100
AcDbSymbolTableRecord
100
AcDbLayerTableRecord
  2
36
 70
     0
 62
    36
  6
CONTINUOUS
  0
LAYER
  5
5E
330
2
100
AcDbSymbolTableRecord
100
AcDbLayerTableRecord
  2
37
 70
     0
 62
    37
  6
CONTINUOUS
  0
LAYER
  5
5F
330
2
100
AcDbSymbolTableRecord
100
AcDbLayerTableRecord
  2
38
 70
     0
 62
    38
  6
CONTINUOUS
  0
LAYER
  5
60
330
2
100
AcDbSymbolTableRecord
100
AcDbLayerTableRecord
  2
39
 70
     0
 62
    39
  6
CONTINUOUS
  0
LAYER
  5
61
330
2
100
AcDbSymbolTableRecord
100
AcDbLayerTableRecord
  2
40
 70
     0
 62
    40
  6
CONTINUOUS
  0
LAYER
  5
62
330
2
100
AcDbSymbolTableRecord
100
AcDbLayerTableRecord
  2
41
 70
     0
 62
    41
  6
CONTINUOUS
  0
LAYER
  5
63
330
2
100
AcDbSymbolTableRecord
100
AcDbLayerTableRecord
  2
42
 70
     0
 62
    42
  6
CONTINUOUS
  0
LAYER
  5
64
330
2
100
AcDbSymbolTableRecord
100
AcDbLayerTableRecord
  2
43
 70
     0
 62
    43
  6
CONTINUOUS
  0
LAYER
  5
65
330
2
100
AcDbSymbolTableRecord
100
AcDbLayerTableRecord
  2
44
 70
     0
 62
    44
  6
CONTINUOUS
  0
LAYER
  5
66
330
2
100
AcDbSymbolTableRecord
100
AcDbLayerTableRecord
  2
45
 70
     0
 62
    45
  6
CONTINUOUS
  0
LAYER
  5
67
330
2
100
AcDbSymbolTableRecord
100
AcDbLayerTableRecord
  2
46
 70
     0
 62
    46
  6
CONTINUOUS
  0
LAYER
  5
68
330
2
100
AcDbSymbolTableRecord
100
AcDbLayerTableRecord
  2
47
 70
     0
 62
    47
  6
CONTINUOUS
  0
LAYER
  5
69
330
2
100
AcDbSymbolTableRecord
100
AcDbLayerTableRecord
  2
48
 70
     0
 62
    48
  6
CONTINUOUS
  0
LAYER
  5
6A
330
2
100
AcDbSymbolTableRecord
100
AcDbLayerTableRecord
  2
49
 70
     0
 62
    49
  6
CONTINUOUS
  0
LAYER
  5
6B
330
2
100
AcDbSymbolTableRecord
100
AcDbLayerTableRecord
  2
50
 70
     0
 62
    50
  6
CONTINUOUS
  0
LAYER
  5
6C
330
2
100
AcDbSymbolTableRecord
100
AcDbLayerTableRecord
  2
51
 70
     0
 62
    51
  6
CONTINUOUS
  0
LAYER
  5
6D
330
2
100
AcDbSymbolTableRecord
100
AcDbLayerTableRecord
  2
52
 70
     0
 62
    52
  6
CONTINUOUS
  0
LAYER
  5
6E
330
2
100
AcDbSymbolTableRecord
100
AcDbLayerTableRecord
  2
53
 70
     0
 62
    53
  6
CONTINUOUS
  0
LAYER
  5
6F
330
2
100
AcDbSymbolTableRecord
100
AcDbLayerTableRecord
  2
54
 70
     0
 62
    54
  6
CONTINUOUS
  0
LAYER
  5
70
330
2
100
AcDbSymbolTableRecord
100
AcDbLayerTableRecord
  2
55
 70
     0
 62
    55
  6
CONTINUOUS
  0
LAYER
  5
71
330
2
100
AcDbSymbolTableRecord
100
AcDbLayerTableRecord
  2
56
 70
     0
 62
    56
  6
CONTINUOUS
  0
LAYER
  5
72
330
2
100
AcDbSymbolTableRecord
100
AcDbLayerTableRecord
  2
57
 70
     0
 62
    57
  6
CONTINUOUS
  0
LAYER
  5
73
330
2
100
AcDbSymbolTableRecord
100
AcDbLayerTableRecord
  2
58
 70
     0
 62
    58
  6
CONTINUOUS
  0
LAYER
  5
74
330
2
100
AcDbSymbolTableRecord
100
AcDbLayerTableRecord
  2
59
 70
     0
 62
    59
  6
CONTINUOUS
  0
LAYER
  5
75
330
2
100
AcDbSymbolTableRecord
100
AcDbLayerTableRecord
  2
60
 70
     0
 62
    60
  6
CONTINUOUS
  0
LAYER
  5
76
330
2
100
AcDbSymbolTableRecord
100
AcDbLayerTableRecord
  2
61
 70
     0
 62
    61
  6
CONTINUOUS
  0
LAYER
  5
77
330
2
100
AcDbSymbolTableRecord
100
AcDbLayerTableRecord
  2
62
 70
     0
 62
    62
  6
CONTINUOUS
  0
LAYER
  5
78
330
2
100
AcDbSymbolTableRecord
100
AcDbLayerTableRecord
  2
63
 70
     0
 62
    63
  6
CONTINUOUS
  0
LAYER
  5
79
330
2
100
AcDbSymbolTableRecord
100
AcDbLayerTableRecord
  2
64
 70
     0
 62
    64
  6
CONTINUOUS
  0
LAYER
  5
7A
330
2
100
AcDbSymbolTableRecord
100
AcDbLayerTableRecord
  2
65
 70
     0
 62
    65
  6
CONTINUOUS
  0
LAYER
  5
7B
330
2
100
AcDbSymbolTableRecord
100
AcDbLayerTableRecord
  2
66
 70
     0
 62
    66
  6
CONTINUOUS
  0
LAYER
  5
7C
330
2
100
AcDbSymbolTableRecord
100
AcDbLayerTableRecord
  2
67
 70
     0
 62
    67
  6
CONTINUOUS
  0
LAYER
  5
7D
330
2
100
AcDbSymbolTableRecord
100
AcDbLayerTableRecord
  2
68
 70
     0
 62
    68
  6
CONTINUOUS
  0
LAYER
  5
7E
330
2
100
AcDbSymbolTableRecord
100
AcDbLayerTableRecord
  2
69
 70
     0
 62
    69
  6
CONTINUOUS
  0
LAYER
  5
7F
330
2
100
AcDbSymbolTableRecord
100
AcDbLayerTableRecord
  2
70
 70
     0
 62
    70
  6
CONTINUOUS
  0
LAYER
  5
80
330
2
100
AcDbSymbolTableRecord
100
AcDbLayerTableRecord
  2
71
 70
     0
 62
    71
  6
CONTINUOUS
  0
LAYER
  5
81
330
2
100
AcDbSymbolTableRecord
100
AcDbLayerTableRecord
  2
72
 70
     0
 62
    72
  6
CONTINUOUS
  0
LAYER
  5
82
330
2
100
AcDbSymbolTableRecord
100
AcDbLayerTableRecord
  2
73
 70
     0
 62
    73
  6
CONTINUOUS
  0
LAYER
  5
83
330
2
100
AcDbSymbolTableRecord
100
AcDbLayerTableRecord
  2
74
 70
     0
 62
    74
  6
CONTINUOUS
  0
LAYER
  5
84
330
2
100
AcDbSymbolTableRecord
100
AcDbLayerTableRecord
  2
75
 70
     0
 62
    75
  6
CONTINUOUS
  0
LAYER
  5
85
330
2
100
AcDbSymbolTableRecord
100
AcDbLayerTableRecord
  2
76
 70
     0
 62
    76
  6
CONTINUOUS
  0
LAYER
  5
86
330
2
100
AcDbSymbolTableRecord
100
AcDbLayerTableRecord
  2
77
 70
     0
 62
    77
  6
CONTINUOUS
  0
LAYER
  5
87
330
2
100
AcDbSymbolTableRecord
100
AcDbLayerTableRecord
  2
78
 70
     0
 62
    78
  6
CONTINUOUS
  0
LAYER
  5
88
330
2
100
AcDbSymbolTableRecord
100
AcDbLayerTableRecord
  2
79
 70
     0
 62
    79
  6
CONTINUOUS
  0
LAYER
  5
89
330
2
100
AcDbSymbolTableRecord
100
AcDbLayerTableRecord
  2
80
 70
     0
 62
    80
  6
CONTINUOUS
  0
LAYER
  5
8A
330
2
100
AcDbSymbolTableRecord
100
AcDbLayerTableRecord
  2
81
 70
     0
 62
    81
  6
CONTINUOUS
  0
LAYER
  5
8B
330
2
100
AcDbSymbolTableRecord
100
AcDbLayerTableRecord
  2
82
 70
     0
 62
    82
  6
CONTINUOUS
  0
LAYER
  5
8C
330
2
100
AcDbSymbolTableRecord
100
AcDbLayerTableRecord
  2
83
 70
     0
 62
    83
  6
CONTINUOUS
  0
LAYER
  5
8D
330
2
100
AcDbSymbolTableRecord
100
AcDbLayerTableRecord
  2
84
 70
     0
 62
    84
  6
CONTINUOUS
  0
LAYER
  5
8E
330
2
100
AcDbSymbolTableRecord
100
AcDbLayerTableRecord
  2
85
 70
     0
 62
    85
  6
CONTINUOUS
  0
LAYER
  5
8F
330
2
100
AcDbSymbolTableRecord
100
AcDbLayerTableRecord
  2
86
 70
     0
 62
    86
  6
CONTINUOUS
  0
LAYER
  5
90
330
2
100
AcDbSymbolTableRecord
100
AcDbLayerTableRecord
  2
87
 70
     0
 62
    87
  6
CONTINUOUS
  0
LAYER
  5
91
330
2
100
AcDbSymbolTableRecord
100
AcDbLayerTableRecord
  2
88
 70
     0
 62
    88
  6
CONTINUOUS
  0
LAYER
  5
92
330
2
100
AcDbSymbolTableRecord
100
AcDbLayerTableRecord
  2
89
 70
     0
 62
    89
  6
CONTINUOUS
  0
LAYER
  5
93
330
2
100
AcDbSymbolTableRecord
100
AcDbLayerTableRecord
  2
90
 70
     0
 62
    90
  6
CONTINUOUS
  0
LAYER
  5
94
330
2
100
AcDbSymbolTableRecord
100
AcDbLayerTableRecord
  2
91
 70
     0
 62
    91
  6
CONTINUOUS
  0
LAYER
  5
95
330
2
100
AcDbSymbolTableRecord
100
AcDbLayerTableRecord
  2
92
 70
     0
 62
    92
  6
CONTINUOUS
  0
LAYER
  5
96
330
2
100
AcDbSymbolTableRecord
100
AcDbLayerTableRecord
  2
93
 70
     0
 62
    93
  6
CONTINUOUS
  0
LAYER
  5
97
330
2
100
AcDbSymbolTableRecord
100
AcDbLayerTableRecord
  2
94
 70
     0
 62
    94
  6
CONTINUOUS
  0
LAYER
  5
98
330
2
100
AcDbSymbolTableRecord
100
AcDbLayerTableRecord
  2
95
 70
     0
 62
    95
  6
CONTINUOUS
  0
LAYER
  5
99
330
2
100
AcDbSymbolTableRecord
100
AcDbLayerTableRecord
  2
96
 70
     0
 62
    96
  6
CONTINUOUS
  0
LAYER
  5
9A
330
2
100
AcDbSymbolTableRecord
100
AcDbLayerTableRecord
  2
97
 70
     0
 62
    97
  6
CONTINUOUS
  0
LAYER
  5
9B
330
2
100
AcDbSymbolTableRecord
100
AcDbLayerTableRecord
  2
98
 70
     0
 62
    98
  6
CONTINUOUS
  0
LAYER
  5
9C
330
2
100
AcDbSymbolTableRecord
100
AcDbLayerTableRecord
  2
99
 70
     0
 62
    99
  6
CONTINUOUS
  0
LAYER
  5
9D
330
2
100
AcDbSymbolTableRecord
100
AcDbLayerTableRecord
  2
100
 70
     0
 62
   100
  6
CONTINUOUS
  0
LAYER
  5
9E
330
2
100
AcDbSymbolTableRecord
100
AcDbLayerTableRecord
  2
101
 70
     0
 62
   101
  6
CONTINUOUS
  0
LAYER
  5
9F
330
2
100
AcDbSymbolTableRecord
100
AcDbLayerTableRecord
  2
102
 70
     0
 62
   102
  6
CONTINUOUS
  0
LAYER
  5
A0
330
2
100
AcDbSymbolTableRecord
100
AcDbLayerTableRecord
  2
103
 70
     0
 62
   103
  6
CONTINUOUS
  0
LAYER
  5
A1
330
2
100
AcDbSymbolTableRecord
100
AcDbLayerTableRecord
  2
104
 70
     0
 62
   104
  6
CONTINUOUS
  0
LAYER
  5
A2
330
2
100
AcDbSymbolTableRecord
100
AcDbLayerTableRecord
  2
105
 70
     0
 62
   105
  6
CONTINUOUS
  0
LAYER
  5
A3
330
2
100
AcDbSymbolTableRecord
100
AcDbLayerTableRecord
  2
106
 70
     0
 62
   106
  6
CONTINUOUS
  0
LAYER
  5
A4
330
2
100
AcDbSymbolTableRecord
100
AcDbLayerTableRecord
  2
107
 70
     0
 62
   107
  6
CONTINUOUS
  0
LAYER
  5
A5
330
2
100
AcDbSymbolTableRecord
100
AcDbLayerTableRecord
  2
108
 70
     0
 62
   108
  6
CONTINUOUS
  0
LAYER
  5
A6
330
2
100
AcDbSymbolTableRecord
100
AcDbLayerTableRecord
  2
109
 70
     0
 62
   109
  6
CONTINUOUS
  0
LAYER
  5
A7
330
2
100
AcDbSymbolTableRecord
100
AcDbLayerTableRecord
  2
110
 70
     0
 62
   110
  6
CONTINUOUS
  0
LAYER
  5
A8
330
2
100
AcDbSymbolTableRecord
100
AcDbLayerTableRecord
  2
111
 70
     0
 62
   111
  6
CONTINUOUS
  0
LAYER
  5
A9
330
2
100
AcDbSymbolTableRecord
100
AcDbLayerTableRecord
  2
112
 70
     0
 62
   112
  6
CONTINUOUS
  0
LAYER
  5
AA
330
2
100
AcDbSymbolTableRecord
100
AcDbLayerTableRecord
  2
113
 70
     0
 62
   113
  6
CONTINUOUS
  0
LAYER
  5
AB
330
2
100
AcDbSymbolTableRecord
100
AcDbLayerTableRecord
  2
114
 70
     0
 62
   114
  6
CONTINUOUS
  0
LAYER
  5
AC
330
2
100
AcDbSymbolTableRecord
100
AcDbLayerTableRecord
  2
115
 70
     0
 62
   115
  6
CONTINUOUS
  0
LAYER
  5
AD
330
2
100
AcDbSymbolTableRecord
100
AcDbLayerTableRecord
  2
116
 70
     0
 62
   116
  6
CONTINUOUS
  0
LAYER
  5
AE
330
2
100
AcDbSymbolTableRecord
100
AcDbLayerTableRecord
  2
117
 70
     0
 62
   117
  6
CONTINUOUS
  0
LAYER
  5
AF
330
2
100
AcDbSymbolTableRecord
100
AcDbLayerTableRecord
  2
118
 70
     0
 62
   118
  6
CONTINUOUS
  0
LAYER
  5
B0
330
2
100
AcDbSymbolTableRecord
100
AcDbLayerTableRecord
  2
119
 70
     0
 62
   119
  6
CONTINUOUS
  0
LAYER
  5
B1
330
2
100
AcDbSymbolTableRecord
100
AcDbLayerTableRecord
  2
120
 70
     0
 62
   120
  6
CONTINUOUS
  0
LAYER
  5
B2
330
2
100
AcDbSymbolTableRecord
100
AcDbLayerTableRecord
  2
121
 70
     0
 62
   121
  6
CONTINUOUS
  0
LAYER
  5
B3
330
2
100
AcDbSymbolTableRecord
100
AcDbLayerTableRecord
  2
122
 70
     0
 62
   122
  6
CONTINUOUS
  0
LAYER
  5
B4
330
2
100
AcDbSymbolTableRecord
100
AcDbLayerTableRecord
  2
123
 70
     0
 62
   123
  6
CONTINUOUS
  0
LAYER
  5
B5
330
2
100
AcDbSymbolTableRecord
100
AcDbLayerTableRecord
  2
124
 70
     0
 62
   124
  6
CONTINUOUS
  0
LAYER
  5
B6
330
2
100
AcDbSymbolTableRecord
100
AcDbLayerTableRecord
  2
125
 70
     0
 62
   125
  6
CONTINUOUS
  0
LAYER
  5
B7
330
2
100
AcDbSymbolTableRecord
100
AcDbLayerTableRecord
  2
126
 70
     0
 62
   126
  6
CONTINUOUS
  0
LAYER
  5
B8
330
2
100
AcDbSymbolTableRecord
100
AcDbLayerTableRecord
  2
127
 70
     0
 62
   127
  6
CONTINUOUS
  0
LAYER
  5
B9
330
2
100
AcDbSymbolTableRecord
100
AcDbLayerTableRecord
  2
128
 70
     0
 62
   128
  6
CONTINUOUS
  0
LAYER
  5
BA
330
2
100
AcDbSymbolTableRecord
100
AcDbLayerTableRecord
  2
129
 70
     0
 62
   129
  6
CONTINUOUS
  0
LAYER
  5
BB
330
2
100
AcDbSymbolTableRecord
100
AcDbLayerTableRecord
  2
130
 70
     0
 62
   130
  6
CONTINUOUS
  0
LAYER
  5
BC
330
2
100
AcDbSymbolTableRecord
100
AcDbLayerTableRecord
  2
131
 70
     0
 62
   131
  6
CONTINUOUS
  0
LAYER
  5
BD
330
2
100
AcDbSymbolTableRecord
100
AcDbLayerTableRecord
  2
132
 70
     0
 62
   132
  6
CONTINUOUS
  0
LAYER
  5
BE
330
2
100
AcDbSymbolTableRecord
100
AcDbLayerTableRecord
  2
133
 70
     0
 62
   133
  6
CONTINUOUS
  0
LAYER
  5
BF
330
2
100
AcDbSymbolTableRecord
100
AcDbLayerTableRecord
  2
134
 70
     0
 62
   134
  6
CONTINUOUS
  0
LAYER
  5
C0
330
2
100
AcDbSymbolTableRecord
100
AcDbLayerTableRecord
  2
135
 70
     0
 62
   135
  6
CONTINUOUS
  0
LAYER
  5
C1
330
2
100
AcDbSymbolTableRecord
100
AcDbLayerTableRecord
  2
136
 70
     0
 62
   136
  6
CONTINUOUS
  0
LAYER
  5
C2
330
2
100
AcDbSymbolTableRecord
100
AcDbLayerTableRecord
  2
137
 70
     0
 62
   137
  6
CONTINUOUS
  0
LAYER
  5
C3
330
2
100
AcDbSymbolTableRecord
100
AcDbLayerTableRecord
  2
138
 70
     0
 62
   138
  6
CONTINUOUS
  0
LAYER
  5
C4
330
2
100
AcDbSymbolTableRecord
100
AcDbLayerTableRecord
  2
139
 70
     0
 62
   139
  6
CONTINUOUS
  0
LAYER
  5
C5
330
2
100
AcDbSymbolTableRecord
100
AcDbLayerTableRecord
  2
140
 70
     0
 62
   140
  6
CONTINUOUS
  0
LAYER
  5
C6
330
2
100
AcDbSymbolTableRecord
100
AcDbLayerTableRecord
  2
141
 70
     0
 62
   141
  6
CONTINUOUS
  0
LAYER
  5
C7
330
2
100
AcDbSymbolTableRecord
100
AcDbLayerTableRecord
  2
142
 70
     0
 62
   142
  6
CONTINUOUS
  0
LAYER
  5
C8
330
2
100
AcDbSymbolTableRecord
100
AcDbLayerTableRecord
  2
143
 70
     0
 62
   143
  6
CONTINUOUS
  0
LAYER
  5
C9
330
2
100
AcDbSymbolTableRecord
100
AcDbLayerTableRecord
  2
144
 70
     0
 62
   144
  6
CONTINUOUS
  0
LAYER
  5
CA
330
2
100
AcDbSymbolTableRecord
100
AcDbLayerTableRecord
  2
145
 70
     0
 62
   145
  6
CONTINUOUS
  0
LAYER
  5
CB
330
2
100
AcDbSymbolTableRecord
100
AcDbLayerTableRecord
  2
146
 70
     0
 62
   146
  6
CONTINUOUS
  0
LAYER
  5
CC
330
2
100
AcDbSymbolTableRecord
100
AcDbLayerTableRecord
  2
147
 70
     0
 62
   147
  6
CONTINUOUS
  0
LAYER
  5
CD
330
2
100
AcDbSymbolTableRecord
100
AcDbLayerTableRecord
  2
148
 70
     0
 62
   148
  6
CONTINUOUS
  0
LAYER
  5
CE
330
2
100
AcDbSymbolTableRecord
100
AcDbLayerTableRecord
  2
149
 70
     0
 62
   149
  6
CONTINUOUS
  0
LAYER
  5
CF
330
2
100
AcDbSymbolTableRecord
100
AcDbLayerTableRecord
  2
150
 70
     0
 62
   150
  6
CONTINUOUS
  0
LAYER
  5
D0
330
2
100
AcDbSymbolTableRecord
100
AcDbLayerTableRecord
  2
151
 70
     0
 62
   151
  6
CONTINUOUS
  0
LAYER
  5
D1
330
2
100
AcDbSymbolTableRecord
100
AcDbLayerTableRecord
  2
152
 70
     0
 62
   152
  6
CONTINUOUS
  0
LAYER
  5
D2
330
2
100
AcDbSymbolTableRecord
100
AcDbLayerTableRecord
  2
153
 70
     0
 62
   153
  6
CONTINUOUS
  0
LAYER
  5
D3
330
2
100
AcDbSymbolTableRecord
100
AcDbLayerTableRecord
  2
154
 70
     0
 62
   154
  6
CONTINUOUS
  0
LAYER
  5
D4
330
2
100
AcDbSymbolTableRecord
100
AcDbLayerTableRecord
  2
155
 70
     0
 62
   155
  6
CONTINUOUS
  0
LAYER
  5
D5
330
2
100
AcDbSymbolTableRecord
100
AcDbLayerTableRecord
  2
156
 70
     0
 62
   156
  6
CONTINUOUS
  0
LAYER
  5
D6
330
2
100
AcDbSymbolTableRecord
100
AcDbLayerTableRecord
  2
157
 70
     0
 62
   157
  6
CONTINUOUS
  0
LAYER
  5
D7
330
2
100
AcDbSymbolTableRecord
100
AcDbLayerTableRecord
  2
158
 70
     0
 62
   158
  6
CONTINUOUS
  0
LAYER
  5
D8
330
2
100
AcDbSymbolTableRecord
100
AcDbLayerTableRecord
  2
159
 70
     0
 62
   159
  6
CONTINUOUS
  0
LAYER
  5
D9
330
2
100
AcDbSymbolTableRecord
100
AcDbLayerTableRecord
  2
160
 70
     0
 62
   160
  6
CONTINUOUS
  0
LAYER
  5
DA
330
2
100
AcDbSymbolTableRecord
100
AcDbLayerTableRecord
  2
161
 70
     0
 62
   161
  6
CONTINUOUS
  0
LAYER
  5
DB
330
2
100
AcDbSymbolTableRecord
100
AcDbLayerTableRecord
  2
162
 70
     0
 62
   162
  6
CONTINUOUS
  0
LAYER
  5
DC
330
2
100
AcDbSymbolTableRecord
100
AcDbLayerTableRecord
  2
163
 70
     0
 62
   163
  6
CONTINUOUS
  0
LAYER
  5
DD
330
2
100
AcDbSymbolTableRecord
100
AcDbLayerTableRecord
  2
164
 70
     0
 62
   164
  6
CONTINUOUS
  0
LAYER
  5
DE
330
2
100
AcDbSymbolTableRecord
100
AcDbLayerTableRecord
  2
165
 70
     0
 62
   165
  6
CONTINUOUS
  0
LAYER
  5
DF
330
2
100
AcDbSymbolTableRecord
100
AcDbLayerTableRecord
  2
166
 70
     0
 62
   166
  6
CONTINUOUS
  0
LAYER
  5
E0
330
2
100
AcDbSymbolTableRecord
100
AcDbLayerTableRecord
  2
167
 70
     0
 62
   167
  6
CONTINUOUS
  0
LAYER
  5
E1
330
2
100
AcDbSymbolTableRecord
100
AcDbLayerTableRecord
  2
168
 70
     0
 62
   168
  6
CONTINUOUS
  0
LAYER
  5
E2
330
2
100
AcDbSymbolTableRecord
100
AcDbLayerTableRecord
  2
169
 70
     0
 62
   169
  6
CONTINUOUS
  0
LAYER
  5
E3
330
2
100
AcDbSymbolTableRecord
100
AcDbLayerTableRecord
  2
170
 70
     0
 62
   170
  6
CONTINUOUS
  0
LAYER
  5
E4
330
2
100
AcDbSymbolTableRecord
100
AcDbLayerTableRecord
  2
171
 70
     0
 62
   171
  6
CONTINUOUS
  0
LAYER
  5
E5
330
2
100
AcDbSymbolTableRecord
100
AcDbLayerTableRecord
  2
172
 70
     0
 62
   172
  6
CONTINUOUS
  0
LAYER
  5
E6
330
2
100
AcDbSymbolTableRecord
100
AcDbLayerTableRecord
  2
173
 70
     0
 62
   173
  6
CONTINUOUS
  0
LAYER
  5
E7
330
2
100
AcDbSymbolTableRecord
100
AcDbLayerTableRecord
  2
174
 70
     0
 62
   174
  6
CONTINUOUS
  0
LAYER
  5
E8
330
2
100
AcDbSymbolTableRecord
100
AcDbLayerTableRecord
  2
175
 70
     0
 62
   175
  6
CONTINUOUS
  0
LAYER
  5
E9
330
2
100
AcDbSymbolTableRecord
100
AcDbLayerTableRecord
  2
176
 70
     0
 62
   176
  6
CONTINUOUS
  0
LAYER
  5
EA
330
2
100
AcDbSymbolTableRecord
100
AcDbLayerTableRecord
  2
177
 70
     0
 62
   177
  6
CONTINUOUS
  0
LAYER
  5
EB
330
2
100
AcDbSymbolTableRecord
100
AcDbLayerTableRecord
  2
178
 70
     0
 62
   178
  6
CONTINUOUS
  0
LAYER
  5
EC
330
2
100
AcDbSymbolTableRecord
100
AcDbLayerTableRecord
  2
179
 70
     0
 62
   179
  6
CONTINUOUS
  0
LAYER
  5
ED
330
2
100
AcDbSymbolTableRecord
100
AcDbLayerTableRecord
  2
180
 70
     0
 62
   180
  6
CONTINUOUS
  0
LAYER
  5
EE
330
2
100
AcDbSymbolTableRecord
100
AcDbLayerTableRecord
  2
181
 70
     0
 62
   181
  6
CONTINUOUS
  0
LAYER
  5
EF
330
2
100
AcDbSymbolTableRecord
100
AcDbLayerTableRecord
  2
182
 70
     0
 62
   182
  6
CONTINUOUS
  0
LAYER
  5
F0
330
2
100
AcDbSymbolTableRecord
100
AcDbLayerTableRecord
  2
183
 70
     0
 62
   183
  6
CONTINUOUS
  0
LAYER
  5
F1
330
2
100
AcDbSymbolTableRecord
100
AcDbLayerTableRecord
  2
184
 70
     0
 62
   184
  6
CONTINUOUS
  0
LAYER
  5
F2
330
2
100
AcDbSymbolTableRecord
100
AcDbLayerTableRecord
  2
185
 70
     0
 62
   185
  6
CONTINUOUS
  0
LAYER
  5
F3
330
2
100
AcDbSymbolTableRecord
100
AcDbLayerTableRecord
  2
186
 70
     0
 62
   186
  6
CONTINUOUS
  0
LAYER
  5
F4
330
2
100
AcDbSymbolTableRecord
100
AcDbLayerTableRecord
  2
187
 70
     0
 62
   187
  6
CONTINUOUS
  0
LAYER
  5
F5
330
2
100
AcDbSymbolTableRecord
100
AcDbLayerTableRecord
  2
188
 70
     0
 62
   188
  6
CONTINUOUS
  0
LAYER
  5
F6
330
2
100
AcDbSymbolTableRecord
100
AcDbLayerTableRecord
  2
189
 70
     0
 62
   189
  6
CONTINUOUS
  0
LAYER
  5
F7
330
2
100
AcDbSymbolTableRecord
100
AcDbLayerTableRecord
  2
190
 70
     0
 62
   190
  6
CONTINUOUS
  0
LAYER
  5
F8
330
2
100
AcDbSymbolTableRecord
100
AcDbLayerTableRecord
  2
191
 70
     0
 62
   191
  6
CONTINUOUS
  0
LAYER
  5
F9
330
2
100
AcDbSymbolTableRecord
100
AcDbLayerTableRecord
  2
192
 70
     0
 62
   192
  6
CONTINUOUS
  0
LAYER
  5
FA
330
2
100
AcDbSymbolTableRecord
100
AcDbLayerTableRecord
  2
193
 70
     0
 62
   193
  6
CONTINUOUS
  0
LAYER
  5
FB
330
2
100
AcDbSymbolTableRecord
100
AcDbLayerTableRecord
  2
194
 70
     0
 62
   194
  6
CONTINUOUS
  0
LAYER
  5
FC
330
2
100
AcDbSymbolTableRecord
100
AcDbLayerTableRecord
  2
195
 70
     0
 62
   195
  6
CONTINUOUS
  0
LAYER
  5
FD
330
2
100
AcDbSymbolTableRecord
100
AcDbLayerTableRecord
  2
196
 70
     0
 62
   196
  6
CONTINUOUS
  0
LAYER
  5
FE
330
2
100
AcDbSymbolTableRecord
100
AcDbLayerTableRecord
  2
197
 70
     0
 62
   197
  6
CONTINUOUS
  0
LAYER
  5
FF
330
2
100
AcDbSymbolTableRecord
100
AcDbLayerTableRecord
  2
198
 70
     0
 62
   198
  6
CONTINUOUS
  0
LAYER
  5
100
330
2
100
AcDbSymbolTableRecord
100
AcDbLayerTableRecord
  2
199
 70
     0
 62
   199
  6
CONTINUOUS
  0
LAYER
  5
101
330
2
100
AcDbSymbolTableRecord
100
AcDbLayerTableRecord
  2
200
 70
     0
 62
   200
  6
CONTINUOUS
  0
LAYER
  5
102
330
2
100
AcDbSymbolTableRecord
100
AcDbLayerTableRecord
  2
201
 70
     0
 62
   201
  6
CONTINUOUS
  0
LAYER
  5
103
330
2
100
AcDbSymbolTableRecord
100
AcDbLayerTableRecord
  2
202
 70
     0
 62
   202
  6
CONTINUOUS
  0
LAYER
  5
104
330
2
100
AcDbSymbolTableRecord
100
AcDbLayerTableRecord
  2
203
 70
     0
 62
   203
  6
CONTINUOUS
  0
LAYER
  5
105
330
2
100
AcDbSymbolTableRecord
100
AcDbLayerTableRecord
  2
204
 70
     0
 62
   204
  6
CONTINUOUS
  0
LAYER
  5
106
330
2
100
AcDbSymbolTableRecord
100
AcDbLayerTableRecord
  2
205
 70
     0
 62
   205
  6
CONTINUOUS
  0
LAYER
  5
107
330
2
100
AcDbSymbolTableRecord
100
AcDbLayerTableRecord
  2
206
 70
     0
 62
   206
  6
CONTINUOUS
  0
LAYER
  5
108
330
2
100
AcDbSymbolTableRecord
100
AcDbLayerTableRecord
  2
207
 70
     0
 62
   207
  6
CONTINUOUS
  0
LAYER
  5
109
330
2
100
AcDbSymbolTableRecord
100
AcDbLayerTableRecord
  2
208
 70
     0
 62
   208
  6
CONTINUOUS
  0
LAYER
  5
10A
330
2
100
AcDbSymbolTableRecord
100
AcDbLayerTableRecord
  2
209
 70
     0
 62
   209
  6
CONTINUOUS
  0
LAYER
  5
10B
330
2
100
AcDbSymbolTableRecord
100
AcDbLayerTableRecord
  2
210
 70
     0
 62
   210
  6
CONTINUOUS
  0
LAYER
  5
10C
330
2
100
AcDbSymbolTableRecord
100
AcDbLayerTableRecord
  2
211
 70
     0
 62
   211
  6
CONTINUOUS
  0
LAYER
  5
10D
330
2
100
AcDbSymbolTableRecord
100
AcDbLayerTableRecord
  2
212
 70
     0
 62
   212
  6
CONTINUOUS
  0
LAYER
  5
10E
330
2
100
AcDbSymbolTableRecord
100
AcDbLayerTableRecord
  2
213
 70
     0
 62
   213
  6
CONTINUOUS
  0
LAYER
  5
10F
330
2
100
AcDbSymbolTableRecord
100
AcDbLayerTableRecord
  2
214
 70
     0
 62
   214
  6
CONTINUOUS
  0
LAYER
  5
110
330
2
100
AcDbSymbolTableRecord
100
AcDbLayerTableRecord
  2
215
 70
     0
 62
   215
  6
CONTINUOUS
  0
LAYER
  5
111
330
2
100
AcDbSymbolTableRecord
100
AcDbLayerTableRecord
  2
216
 70
     0
 62
   216
  6
CONTINUOUS
  0
LAYER
  5
112
330
2
100
AcDbSymbolTableRecord
100
AcDbLayerTableRecord
  2
217
 70
     0
 62
   217
  6
CONTINUOUS
  0
LAYER
  5
113
330
2
100
AcDbSymbolTableRecord
100
AcDbLayerTableRecord
  2
218
 70
     0
 62
   218
  6
CONTINUOUS
  0
LAYER
  5
114
330
2
100
AcDbSymbolTableRecord
100
AcDbLayerTableRecord
  2
219
 70
     0
 62
   219
  6
CONTINUOUS
  0
LAYER
  5
115
330
2
100
AcDbSymbolTableRecord
100
AcDbLayerTableRecord
  2
220
 70
     0
 62
   220
  6
CONTINUOUS
  0
LAYER
  5
116
330
2
100
AcDbSymbolTableRecord
100
AcDbLayerTableRecord
  2
221
 70
     0
 62
   221
  6
CONTINUOUS
  0
LAYER
  5
117
330
2
100
AcDbSymbolTableRecord
100
AcDbLayerTableRecord
  2
222
 70
     0
 62
   222
  6
CONTINUOUS
  0
LAYER
  5
118
330
2
100
AcDbSymbolTableRecord
100
AcDbLayerTableRecord
  2
223
 70
     0
 62
   223
  6
CONTINUOUS
  0
LAYER
  5
119
330
2
100
AcDbSymbolTableRecord
100
AcDbLayerTableRecord
  2
224
 70
     0
 62
   224
  6
CONTINUOUS
  0
LAYER
  5
11A
330
2
100
AcDbSymbolTableRecord
100
AcDbLayerTableRecord
  2
225
 70
     0
 62
   225
  6
CONTINUOUS
  0
LAYER
  5
11B
330
2
100
AcDbSymbolTableRecord
100
AcDbLayerTableRecord
  2
226
 70
     0
 62
   226
  6
CONTINUOUS
  0
LAYER
  5
11C
330
2
100
AcDbSymbolTableRecord
100
AcDbLayerTableRecord
  2
227
 70
     0
 62
   227
  6
CONTINUOUS
  0
LAYER
  5
11D
330
2
100
AcDbSymbolTableRecord
100
AcDbLayerTableRecord
  2
228
 70
     0
 62
   228
  6
CONTINUOUS
  0
LAYER
  5
11E
330
2
100
AcDbSymbolTableRecord
100
AcDbLayerTableRecord
  2
229
 70
     0
 62
   229
  6
CONTINUOUS
  0
LAYER
  5
11F
330
2
100
AcDbSymbolTableRecord
100
AcDbLayerTableRecord
  2
230
 70
     0
 62
   230
  6
CONTINUOUS
  0
LAYER
  5
120
330
2
100
AcDbSymbolTableRecord
100
AcDbLayerTableRecord
  2
231
 70
     0
 62
   231
  6
CONTINUOUS
  0
LAYER
  5
121
330
2
100
AcDbSymbolTableRecord
100
AcDbLayerTableRecord
  2
232
 70
     0
 62
   232
  6
CONTINUOUS
  0
LAYER
  5
122
330
2
100
AcDbSymbolTableRecord
100
AcDbLayerTableRecord
  2
233
 70
     0
 62
   233
  6
CONTINUOUS
  0
LAYER
  5
123
330
2
100
AcDbSymbolTableRecord
100
AcDbLayerTableRecord
  2
234
 70
     0
 62
   234
  6
CONTINUOUS
  0
LAYER
  5
124
330
2
100
AcDbSymbolTableRecord
100
AcDbLayerTableRecord
  2
235
 70
     0
 62
   235
  6
CONTINUOUS
  0
LAYER
  5
125
330
2
100
AcDbSymbolTableRecord
100
AcDbLayerTableRecord
  2
236
 70
     0
 62
   236
  6
CONTINUOUS
  0
LAYER
  5
126
330
2
100
AcDbSymbolTableRecord
100
AcDbLayerTableRecord
  2
237
 70
     0
 62
   237
  6
CONTINUOUS
  0
LAYER
  5
127
330
2
100
AcDbSymbolTableRecord
100
AcDbLayerTableRecord
  2
238
 70
     0
 62
   238
  6
CONTINUOUS
  0
LAYER
  5
128
330
2
100
AcDbSymbolTableRecord
100
AcDbLayerTableRecord
  2
239
 70
     0
 62
   239
  6
CONTINUOUS
  0
LAYER
  5
129
330
2
100
AcDbSymbolTableRecord
100
AcDbLayerTableRecord
  2
240
 70
     0
 62
   240
  6
CONTINUOUS
  0
LAYER
  5
12A
330
2
100
AcDbSymbolTableRecord
100
AcDbLayerTableRecord
  2
241
 70
     0
 62
   241
  6
CONTINUOUS
  0
LAYER
  5
12B
330
2
100
AcDbSymbolTableRecord
100
AcDbLayerTableRecord
  2
242
 70
     0
 62
   242
  6
CONTINUOUS
  0
LAYER
  5
12C
330
2
100
AcDbSymbolTableRecord
100
AcDbLayerTableRecord
  2
243
 70
     0
 62
   243
  6
CONTINUOUS
  0
LAYER
  5
12D
330
2
100
AcDbSymbolTableRecord
100
AcDbLayerTableRecord
  2
244
 70
     0
 62
   244
  6
CONTINUOUS
  0
LAYER
  5
12E
330
2
100
AcDbSymbolTableRecord
100
AcDbLayerTableRecord
  2
245
 70
     0
 62
   245
  6
CONTINUOUS
  0
LAYER
  5
12F
330
2
100
AcDbSymbolTableRecord
100
AcDbLayerTableRecord
  2
246
 70
     0
 62
   246
  6
CONTINUOUS
  0
LAYER
  5
130
330
2
100
AcDbSymbolTableRecord
100
AcDbLayerTableRecord
  2
247
 70
     0
 62
   247
  6
CONTINUOUS
  0
LAYER
  5
131
330
2
100
AcDbSymbolTableRecord
100
AcDbLayerTableRecord
  2
248
 70
     0
 62
   248
  6
CONTINUOUS
  0
LAYER
  5
132
330
2
100
AcDbSymbolTableRecord
100
AcDbLayerTableRecord
  2
249
 70
     0
 62
   249
  6
CONTINUOUS
  0
LAYER
  5
133
330
2
100
AcDbSymbolTableRecord
100
AcDbLayerTableRecord
  2
250
 70
     0
 62
   250
  6
CONTINUOUS
  0
LAYER
  5
134
330
2
100
AcDbSymbolTableRecord
100
AcDbLayerTableRecord
  2
251
 70
     0
 62
   251
  6
CONTINUOUS
  0
LAYER
  5
135
330
2
100
AcDbSymbolTableRecord
100
AcDbLayerTableRecord
  2
252
 70
     0
 62
   252
  6
CONTINUOUS
  0
LAYER
  5
136
330
2
100
AcDbSymbolTableRecord
100
AcDbLayerTableRecord
  2
253
 70
     0
 62
   253
  6
CONTINUOUS
  0
LAYER
  5
137
330
2
100
AcDbSymbolTableRecord
100
AcDbLayerTableRecord
  2
254
 70
     0
 62
   254
  6
CONTINUOUS
  0
LAYER
  5
138
330
2
100
AcDbSymbolTableRecord
100
AcDbLayerTableRecord
  2
255
 70
     0
 62
   255
  6
CONTINUOUS
  0
LAYER
  5
481D
330
2
100
AcDbSymbolTableRecord
100
AcDbLayerTableRecord
  2
DEFPOINTS
 70
     0
 62
     7
  6
CONTINUOUS
  0
ENDTAB
  0
TABLE
  2
STYLE
  5
3
330
0
100
AcDbSymbolTable
 70
     1
  0
STYLE
  5
11
330
3
100
AcDbSymbolTableRecord
100
AcDbTextStyleTableRecord
  2
STANDARD
 70
     0
 40
0.0
 41
1.0
 50
0.0
 71
     0
 42
0.2
  3
monotxt
  4

  0
ENDTAB
  0
TABLE
  2
VIEW
  5
6
330
0
100
AcDbSymbolTable
 70
     0
  0
ENDTAB
  0
TABLE
  2
UCS
  5
7
330
0
100
AcDbSymbolTable
 70
     0
  0
ENDTAB
  0
TABLE
  2
APPID
  5
9
330
0
100
AcDbSymbolTable
 70
     1
  0
APPID
  5
12
330
9
100
AcDbSymbolTableRecord
100
AcDbRegAppTableRecord
  2
ACAD
 70
     0
  0
ENDTAB
  0
TABLE
  2
DIMSTYLE
  5
A
330
0
100
AcDbSymbolTable
 70
     1
  0
DIMSTYLE
105
325B
330
A
100
AcDbSymbolTableRecord
100
AcDbDimStyleTableRecord
  2
STANDARD
 70
     0
  3

  4

  5

  6

  7

 40
1.0
 41
0.18
 42
0.0625
 43
0.38
 44
0.18
 45
0.0
 46
0.0
 47
0.0
 48
0.0
140
0.18
141
0.09
142
0.0
143
25.4
144
1.0
145
0.0
146
1.0
147
0.09
 71
     0
 72
     0
 73
     1
 74
     1
 75
     0
 76
     0
 77
     0
 78
     0
170
     0
171
     2
172
     0
173
     0
174
     0
175
     0
176
     0
177
     0
178
     0
270
     2
271
     4
272
     4
273
     2
274
     2
340
11
275
     0
280
     0
281
     0
282
     0
283
     1
284
     0
285
     0
286
     0
287
     3
288
     0
  0
ENDTAB
  0
TABLE
  2
BLOCK_RECORD
  5
1
330
0
100
AcDbSymbolTable
 70
     1
  0
BLOCK_RECORD
  5
1E
102
{ACAD_XDICTIONARY
360
4840
102
}
330
1
100
AcDbSymbolTableRecord
100
AcDbBlockTableRecord
  2
*MODEL_SPACE
  0
BLOCK_RECORD
  5
1A
102
{ACAD_XDICTIONARY
360
4842
102
}
330
1
100
AcDbSymbolTableRecord
100
AcDbBlockTableRecord
  2
*PAPER_SPACE
  0
ENDTAB
  0
ENDSEC
  0
SECTION
  2
BLOCKS
  0
BLOCK
  5
13B
330
1E
100
AcDbEntity
  8
0
100
AcDbBlockBegin
  2
*MODEL_SPACE
 70
     0
 10
0.0
 20
0.0
 30
0.0
  3
*MODEL_SPACE
  1

  0
ENDBLK
  5
13C
330
1E
100
AcDbEntity
  8
0
100
AcDbBlockEnd
  0
BLOCK
  5
139
330
1A
100
AcDbEntity
 67
     1
  8
0
100
AcDbBlockBegin
  2
*PAPER_SPACE
 70
     0
 10
0.0
 20
0.0
 30
0.0
  3
*PAPER_SPACE
  1

  0
ENDBLK
  5
13A
330
1A
100
AcDbEntity
 67
     1
  8
0
100
AcDbBlockEnd
  0
ENDSEC
  0
SECTION
  2
ENTITIES
  0
LINE
  5
2A1C
330
1E
100
AcDbEntity
  8
7
100
AcDbLine
 10
11.65142306194662
 20
12.93724124257356
 30
0.0
 11
11.65142306194662
 21
13.58159819795413
 31
0.0
  0
LINE
  5
2A1D
330
1E
100
AcDbEntity
  8
7
100
AcDbLine
 10
11.60024195958442
 20
12.93724124257356
 30
0.0
 11
11.65142306194662
 21
12.93724124257356
 31
0.0
  0
LINE
  5
2A1E
330
1E
100
AcDbEntity
  8
7
100
AcDbLine
 10
11.60024195958442
 20
12.91361919532946
 30
0.0
 11
11.60024195958442
 21
12.93724124257356
 31
0.0
  0
LINE
  5
2A1F
330
1E
100
AcDbEntity
  8
7
100
AcDbLine
 10
11.45850967611985
 20
12.91361919532946
 30
0.0
 11
11.60024195958442
 21
12.91361919532946
 31
0.0
  0
LINE
  5
2A20
330
1E
100
AcDbEntity
  8
7
100
AcDbLine
 10
11.45850967611985
 20
12.93724124257356
 30
0.0
 11
11.45850967611985
 21
12.91361919532946
 31
0.0
  0
LINE
  5
2A21
330
1E
100
AcDbEntity
  8
7
100
AcDbLine
 10
11.40732857375764
 20
12.93724124257356
 30
0.0
 11
11.45850967611985
 21
12.93724124257356
 31
0.0
  0
LINE
  5
2A22
330
1E
100
AcDbEntity
  8
7
100
AcDbLine
 10
11.40732857375764
 20
13.58159819795413
 30
0.0
 11
11.40732857375764
 21
12.93724124257356
 31
0.0
  0
LINE
  5
2A23
330
1E
100
AcDbEntity
  8
7
100
AcDbLine
 10
11.45850967611985
 20
13.58159819795413
 30
0.0
 11
11.40732857375764
 21
13.58159819795413
 31
0.0
  0
LINE
  5
2A24
330
1E
100
AcDbEntity
  8
7
100
AcDbLine
 10
11.45850967611985
 20
13.60653258115623
 30
0.0
 11
11.45850967611985
 21
13.58159819795413
 31
0.0
  0
LINE
  5
2A25
330
1E
100
AcDbEntity
  8
7
100
AcDbLine
 10
11.60024195958442
 20
13.60653258115623
 30
0.0
 11
11.45850967611985
 21
13.60653258115623
 31
0.0
  0
LINE
  5
2A26
330
1E
100
AcDbEntity
  8
7
100
AcDbLine
 10
11.60024195958442
 20
13.58159819795413
 30
0.0
 11
11.60024195958442
 21
13.60653258115623
 31
0.0
  0
LINE
  5
2A27
330
1E
100
AcDbEntity
  8
7
100
AcDbLine
 10
11.65142306194662
 20
13.58159819795413
 30
0.0
 11
11.60024195958442
 21
13.58159819795413
 31
0.0
  0
LINE
  5
2A28
330
1E
100
AcDbEntity
  8
7
100
AcDbLine
 10
15.0451238493482
 20
12.09997090136621
 30
0.0
 11
15.0451238493482
 21
14.42018087511948
 31
0.0
  0
LINE
  5
2A29
330
1E
100
AcDbEntity
  8
7
100
AcDbLine
 10
11.29446768136919
 20
14.42018087511948
 30
0.0
 11
15.0451238493482
 21
14.42018087511948
 31
0.0
  0
LINE
  5
2A2A
330
1E
100
AcDbEntity
  8
7
100
AcDbLine
 10
11.29446768136919
 20
12.09997090136621
 30
0.0
 11
11.29446768136919
 21
14.42018087511948
 31
0.0
  0
LINE
  5
2A2B
330
1E
100
AcDbEntity
  8
7
100
AcDbLine
 10
15.0451238493482
 20
12.09997090136621
 30
0.0
 11
11.29446768136919
 21
12.09997090136621
 31
0.0
  0
LINE
  5
2A2C
330
1E
100
AcDbEntity
  8
7
100
AcDbLine
 10
14.59892962362641
 20
12.63409163627434
 30
0.0
 11
14.59892962362641
 21
13.88606014021135
 31
0.0
  0
LINE
  5
2A47
330
1E
100
AcDbEntity
  8
7
100
AcDbLine
 10
14.51231545039807
 20
14.03829111133996
 30
0.0
 11
11.82727608031932
 21
14.03829111133996
 31
0.0
  0
LINE
  5
2A73
330
1E
100
AcDbEntity
  8
7
100
AcDbLine
 10
14.44013697270777
 20
13.4976086966418
 30
0.0
 11
14.44013697270777
 21
13.46348796173366
 31
0.0
  0
LINE
  5
2A74
330
1E
100
AcDbEntity
  8
7
100
AcDbLine
 10
14.44276164462379
 20
13.4976086966418
 30
0.0
 11
14.44013697270777
 21
13.4976086966418
 31
0.0
  0
LINE
  5
2A75
330
1E
100
AcDbEntity
  8
7
100
AcDbLine
 10
14.46769602782588
 20
13.58291053391214
 30
0.0
 11
14.46769602782588
 21
13.50548271238983
 31
0.0
  0
LINE
  5
2A76
330
1E
100
AcDbEntity
  8
7
100
AcDbLine
 10
14.44013697270777
 20
13.58291053391214
 30
0.0
 11
14.46769602782588
 21
13.58291053391214
 31
0.0
  0
LINE
  5
2A77
330
1E
100
AcDbEntity
  8
7
100
AcDbLine
 10
14.44013697270777
 20
13.62621762052631
 30
0.0
 11
14.44013697270777
 21
13.58291053391214
 31
0.0
  0
LINE
  5
2A78
330
1E
100
AcDbEntity
  8
7
100
AcDbLine
 10
11.89814222205161
 20
13.62621762052631
 30
0.0
 11
14.44013697270777
 21
13.62621762052631
 31
0.0
  0
LINE
  5
2A79
330
1E
100
AcDbEntity
  8
7
100
AcDbLine
 10
11.89814222205161
 20
13.58291053391214
 30
0.0
 11
11.89814222205161
 21
13.62621762052631
 31
0.0
  0
LINE
  5
2A7A
330
1E
100
AcDbEntity
  8
7
100
AcDbLine
 10
11.8718955028915
 20
13.58291053391214
 30
0.0
 11
11.89814222205161
 21
13.58291053391214
 31
0.0
  0
LINE
  5
2A7B
330
1E
100
AcDbEntity
  8
7
100
AcDbLine
 10
11.8718955028915
 20
13.50548271238983
 30
0.0
 11
11.8718955028915
 21
13.58291053391214
 31
0.0
  0
LINE
  5
2A7C
330
1E
100
AcDbEntity
  8
7
100
AcDbLine
 10
11.89814222205161
 20
13.4976086966418
 30
0.0
 11
11.8955175501356
 21
13.4976086966418
 31
0.0
  0
LINE
  5
2A7D
330
1E
100
AcDbEntity
  8
7
100
AcDbLine
 10
11.89814222205161
 20
13.46348796173366
 30
0.0
 11
11.89814222205161
 21
13.4976086966418
 31
0.0
  0
LINE
  5
2A8B
330
1E
100
AcDbEntity
  8
7
100
AcDbLine
 10
12.88239419055554
 20
13.51073205622185
 30
0.0
 11
12.88895587034557
 21
13.52648008771791
 31
0.0
  0
LINE
  5
2A9A
330
1E
100
AcDbEntity
  8
7
100
AcDbLine
 10
14.44276164462379
 20
13.65246433968642
 30
0.0
 11
14.44407398058179
 21
13.66427536330846
 31
0.0
  0
LINE
  5
2A9B
330
1E
100
AcDbEntity
  8
7
100
AcDbLine
 10
14.44276164462379
 20
13.60915725307224
 30
0.0
 11
14.44276164462379
 21
13.65246433968642
 31
0.0
  0
LINE
  5
2A9C
330
1E
100
AcDbEntity
  8
7
100
AcDbLine
 10
14.44276164462379
 20
13.60915725307224
 30
0.0
 11
14.44407398058179
 21
13.6222806126523
 31
0.0
  0
LINE
  5
2A9D
330
1E
100
AcDbEntity
  8
7
100
AcDbLine
 10
14.44407398058179
 20
13.66427536330846
 30
0.0
 11
14.44407398058179
 21
13.6222806126523
 31
0.0
  0
LINE
  5
2A9E
330
1E
100
AcDbEntity
  8
7
100
AcDbLine
 10
14.46769602782588
 20
13.60915725307224
 30
0.0
 11
14.44276164462379
 21
13.60915725307224
 31
0.0
  0
LINE
  5
2A9F
330
1E
100
AcDbEntity
  8
7
100
AcDbLine
 10
14.46769602782588
 20
13.60915725307224
 30
0.0
 11
14.46769602782588
 21
13.6222806126523
 31
0.0
  0
LINE
  5
2AA0
330
1E
100
AcDbEntity
  8
7
100
AcDbLine
 10
14.44407398058179
 20
13.6222806126523
 30
0.0
 11
14.46769602782588
 21
13.6222806126523
 31
0.0
  0
LINE
  5
2AA1
330
1E
100
AcDbEntity
  8
7
100
AcDbLine
 10
11.8718955028915
 20
13.60915725307224
 30
0.0
 11
11.87058316693349
 21
13.6222806126523
 31
0.0
  0
LINE
  5
2AA7
330
1E
100
AcDbEntity
  8
7
100
AcDbLine
 10
11.87058316693349
 20
13.6222806126523
 30
0.0
 11
11.8955175501356
 21
13.6222806126523
 31
0.0
  0
LINE
  5
2AAD
330
1E
100
AcDbEntity
  8
7
100
AcDbLine
 10
11.8955175501356
 20
13.6222806126523
 30
0.0
 11
11.8955175501356
 21
13.66427536330846
 31
0.0
  0
LINE
  5
2AAE
330
1E
100
AcDbEntity
  8
7
100
AcDbLine
 10
14.44276164462379
 20
13.49498402472579
 30
0.0
 11
14.44407398058179
 21
13.50548271238983
 31
0.0
  0
LINE
  5
2AAF
330
1E
100
AcDbEntity
  8
7
100
AcDbLine
 10
14.44276164462379
 20
13.49498402472579
 30
0.0
 11
14.44276164462379
 21
13.46348796173366
 31
0.0
  0
LINE
  5
2AB0
330
1E
100
AcDbEntity
  8
7
100
AcDbLine
 10
14.44407398058179
 20
13.50548271238983
 30
0.0
 11
14.44407398058179
 21
13.46348796173366
 31
0.0
  0
LINE
  5
2AB1
330
1E
100
AcDbEntity
  8
7
100
AcDbLine
 10
14.46769602782588
 20
13.50548271238983
 30
0.0
 11
14.44407398058179
 21
13.50548271238983
 31
0.0
  0
LINE
  5
2AB7
330
1E
100
AcDbEntity
  8
7
100
AcDbLine
 10
14.49394274698599
 20
13.31125699060505
 30
0.0
 11
14.51231545039807
 21
14.03829111133996
 31
0.0
  0
LINE
  5
2ABF
330
1E
100
AcDbEntity
  8
7
100
AcDbLine
 10
11.8955175501356
 20
13.66427536330846
 30
0.0
 11
14.44407398058179
 21
13.66427536330846
 31
0.0
  0
LINE
  5
2AC0
330
1E
100
AcDbEntity
  8
7
100
AcDbLine
 10
14.46769602782588
 20
13.6222806126523
 30
0.0
 11
14.46769602782588
 21
13.50548271238983
 31
0.0
  0
LINE
  5
2AC6
330
1E
100
AcDbEntity
  8
7
100
AcDbLine
 10
14.20916584409885
 20
13.1222806126523
 30
0.0
 11
14.22491387559492
 21
13.1222806126523
 31
0.0
  0
LINE
  5
2AC7
330
1E
100
AcDbEntity
  8
7
100
AcDbLine
 10
14.02018946614609
 20
13.1222806126523
 30
0.0
 11
14.03462516168415
 21
13.1222806126523
 31
0.0
  0
LINE
  5
2ACE
330
1E
100
AcDbEntity
  8
7
100
AcDbLine
 10
13.57399524042431
 20
13.1222806126523
 30
0.0
 11
13.58974327192037
 21
13.1222806126523
 31
0.0
  0
LINE
  5
2ACF
330
1E
100
AcDbEntity
  8
7
100
AcDbLine
 10
13.38501886247156
 20
13.1222806126523
 30
0.0
 11
13.39945455800961
 21
13.1222806126523
 31
0.0
  0
LINE
  5
2AD6
330
1E
100
AcDbEntity
  8
7
100
AcDbLine
 10
12.94013697270778
 20
13.1222806126523
 30
0.0
 11
12.95457266824583
 21
13.1222806126523
 31
0.0
  0
LINE
  5
2AD7
330
1E
100
AcDbEntity
  8
7
100
AcDbLine
 10
12.74984825879702
 20
13.1222806126523
 30
0.0
 11
12.76428395433507
 21
13.1222806126523
 31
0.0
  0
LINE
  5
2AD8
330
1E
100
AcDbEntity
  8
7
100
AcDbLine
 10
12.74984825879702
 20
13.1222806126523
 30
0.0
 11
12.74722358688101
 21
13.09209688561818
 31
0.0
  0
LINE
  5
2ADE
330
1E
100
AcDbEntity
  8
7
100
AcDbLine
 10
12.30496636903323
 20
13.1222806126523
 30
0.0
 11
12.31940206457129
 21
13.1222806126523
 31
0.0
  0
LINE
  5
2ADF
330
1E
100
AcDbEntity
  8
7
100
AcDbLine
 10
14.03462516168415
 20
13.1222806126523
 30
0.0
 11
14.03462516168415
 21
13.08947221370216
 31
0.0
  0
LINE
  5
2AE0
330
1E
100
AcDbEntity
  8
7
100
AcDbLine
 10
13.39945455800961
 20
13.1222806126523
 30
0.0
 11
13.39945455800961
 21
13.08947221370216
 31
0.0
  0
LINE
  5
2AE1
330
1E
100
AcDbEntity
  8
7
100
AcDbLine
 10
12.76428395433507
 20
13.1222806126523
 30
0.0
 11
12.76428395433507
 21
13.08947221370216
 31
0.0
  0
LINE
  5
2AE2
330
1E
100
AcDbEntity
  8
7
100
AcDbLine
 10
11.90470390184163
 20
12.60522024519823
 30
0.0
 11
11.9716330356999
 21
12.60522024519823
 31
0.0
  0
LINE
  5
2AE3
330
1E
100
AcDbEntity
  8
7
100
AcDbLine
 10
11.9716330356999
 20
12.56191315858405
 30
0.0
 11
12.09236794383638
 21
12.56191315858405
 31
0.0
  0
LINE
  5
2AE4
330
1E
100
AcDbEntity
  8
7
100
AcDbLine
 10
12.12911335066053
 20
13.1222806126523
 30
0.0
 11
12.12911335066053
 21
13.08947221370216
 31
0.0
  0
LINE
  5
2AE5
330
1E
100
AcDbEntity
  8
7
100
AcDbLine
 10
14.24722358688101
 20
12.56191315858405
 30
0.0
 11
14.36664615905948
 21
12.56191315858405
 31
0.0
  0
LINE
  5
2AE6
330
1E
100
AcDbEntity
  8
7
100
AcDbLine
 10
14.36664615905948
 20
12.60522024519823
 30
0.0
 11
14.43488762887576
 21
12.60522024519823
 31
0.0
  0
LINE
  5
2AE7
330
1E
100
AcDbEntity
  8
7
100
AcDbLine
 10
12.11467765512247
 20
13.1222806126523
 30
0.0
 11
12.12911335066053
 21
13.1222806126523
 31
0.0
  0
LINE
  5
2AED
330
1E
100
AcDbEntity
  8
7
100
AcDbLine
 10
13.61205298320646
 20
12.56191315858405
 30
0.0
 11
13.73147555538494
 21
12.56191315858405
 31
0.0
  0
LINE
  5
2AEE
330
1E
100
AcDbEntity
  8
7
100
AcDbLine
 10
13.73147555538494
 20
12.60522024519823
 30
0.0
 11
13.87714484672352
 21
12.60522024519823
 31
0.0
  0
LINE
  5
2AEF
330
1E
100
AcDbEntity
  8
7
100
AcDbLine
 10
13.87714484672352
 20
12.56191315858405
 30
0.0
 11
13.996567418902
 21
12.56191315858405
 31
0.0
  0
LINE
  5
2AF0
330
1E
100
AcDbEntity
  8
7
100
AcDbLine
 10
12.97688237953192
 20
12.56191315858405
 30
0.0
 11
13.09761728766841
 21
12.56191315858405
 31
0.0
  0
LINE
  5
2AF1
330
1E
100
AcDbEntity
  8
7
100
AcDbLine
 10
13.09761728766841
 20
12.60522024519823
 30
0.0
 11
13.24197424304898
 21
12.60522024519823
 31
0.0
  0
LINE
  5
2AF2
330
1E
100
AcDbEntity
  8
7
100
AcDbLine
 10
13.24197424304898
 20
12.56191315858405
 30
0.0
 11
13.36270915118547
 21
12.56191315858405
 31
0.0
  0
LINE
  5
2AF3
330
1E
100
AcDbEntity
  8
7
100
AcDbLine
 10
12.34171177585738
 20
12.56191315858405
 30
0.0
 11
12.46244668399386
 21
12.56191315858405
 31
0.0
  0
LINE
  5
2AF4
330
1E
100
AcDbEntity
  8
7
100
AcDbLine
 10
12.46244668399386
 20
12.60522024519823
 30
0.0
 11
12.60680363937444
 21
12.60522024519823
 31
0.0
  0
LINE
  5
2AF5
330
1E
100
AcDbEntity
  8
7
100
AcDbLine
 10
12.60680363937444
 20
12.56191315858405
 30
0.0
 11
12.72753854751093
 21
12.56191315858405
 31
0.0
  0
LINE
  5
2AF6
330
1E
100
AcDbEntity
  8
7
100
AcDbLine
 10
14.69473014856079
 20
13.1997084341746
 30
0.0
 11
14.69473014856079
 21
13.32044334231109
 31
0.0
  0
LINE
  5
2B04
330
1E
100
AcDbEntity
  8
7
100
AcDbLine
 10
14.92570127716972
 20
13.32044334231109
 30
0.0
 11
14.92570127716972
 21
13.1997084341746
 31
0.0
  0
LINE
  5
2B1D
330
1E
100
AcDbEntity
  8
7
100
AcDbLine
 10
14.88633119842956
 20
13.32044334231109
 30
0.0
 11
14.88633119842956
 21
13.1997084341746
 31
0.0
  0
LINE
  5
2B29
330
1E
100
AcDbEntity
  8
7
100
AcDbLine
 10
14.73410022730095
 20
13.1997084341746
 30
0.0
 11
14.73410022730095
 21
13.32044334231109
 31
0.0
  0
LINE
  5
2B2A
330
1E
100
AcDbEntity
  8
7
100
AcDbLine
 10
14.73541256325896
 20
13.1997084341746
 30
0.0
 11
14.74066190709098
 21
13.17083704309849
 31
0.0
  0
LINE
  5
2B35
330
1E
100
AcDbEntity
  8
7
100
AcDbLine
 10
14.88501886247155
 20
13.1997084341746
 30
0.0
 11
14.88501886247155
 21
13.32044334231109
 31
0.0
  0
LINE
  5
2B44
330
1E
100
AcDbEntity
  8
7
100
AcDbLine
 10
14.73541256325896
 20
13.32044334231109
 30
0.0
 11
14.73541256325896
 21
13.1997084341746
 31
0.0
  0
LINE
  5
2B45
330
1E
100
AcDbEntity
  8
7
100
AcDbLine
 10
14.74197424304898
 20
12.94117825044757
 30
0.0
 11
14.68948080472877
 21
12.94117825044757
 31
0.0
  0
LINE
  5
2B46
330
1E
100
AcDbEntity
  8
7
100
AcDbLine
 10
14.74197424304898
 20
12.91493153128747
 30
0.0
 11
14.74197424304898
 21
12.94117825044757
 31
0.0
  0
LINE
  5
2B47
330
1E
100
AcDbEntity
  8
7
100
AcDbLine
 10
14.87714484672352
 20
12.91493153128747
 30
0.0
 11
14.74197424304898
 21
12.91493153128747
 31
0.0
  0
LINE
  5
2B48
330
1E
100
AcDbEntity
  8
7
100
AcDbLine
 10
14.87714484672352
 20
12.94117825044757
 30
0.0
 11
14.87714484672352
 21
12.91493153128747
 31
0.0
  0
LINE
  5
2B49
330
1E
100
AcDbEntity
  8
7
100
AcDbLine
 10
14.93095062100174
 20
12.94117825044757
 30
0.0
 11
14.87714484672352
 21
12.94117825044757
 31
0.0
  0
LINE
  5
2B4A
330
1E
100
AcDbEntity
  8
7
100
AcDbLine
 10
14.93095062100174
 20
13.57897352603812
 30
0.0
 11
14.93095062100174
 21
12.94117825044757
 31
0.0
  0
LINE
  5
2B4B
330
1E
100
AcDbEntity
  8
7
100
AcDbLine
 10
14.87714484672352
 20
13.57897352603812
 30
0.0
 11
14.93095062100174
 21
13.57897352603812
 31
0.0
  0
LINE
  5
2B4C
330
1E
100
AcDbEntity
  8
7
100
AcDbLine
 10
14.87714484672352
 20
13.60522024519823
 30
0.0
 11
14.87714484672352
 21
13.57897352603812
 31
0.0
  0
LINE
  5
2B4D
330
1E
100
AcDbEntity
  8
7
100
AcDbLine
 10
14.74197424304898
 20
13.60522024519823
 30
0.0
 11
14.87714484672352
 21
13.60522024519823
 31
0.0
  0
LINE
  5
2B4E
330
1E
100
AcDbEntity
  8
7
100
AcDbLine
 10
14.74197424304898
 20
13.57897352603812
 30
0.0
 11
14.74197424304898
 21
13.60522024519823
 31
0.0
  0
LINE
  5
2B4F
330
1E
100
AcDbEntity
  8
7
100
AcDbLine
 10
14.68948080472877
 20
13.57897352603812
 30
0.0
 11
14.74197424304898
 21
13.57897352603812
 31
0.0
  0
LINE
  5
2B50
330
1E
100
AcDbEntity
  8
7
100
AcDbLine
 10
14.68948080472877
 20
12.94117825044757
 30
0.0
 11
14.68948080472877
 21
13.57897352603812
 31
0.0
  0
LINE
  5
2B51
330
1E
100
AcDbEntity
  8
7
100
AcDbLine
 10
14.69341781260279
 20
13.1997084341746
 30
0.0
 11
14.69341781260279
 21
13.32044334231109
 31
0.0
  0
LINE
  5
2B5F
330
1E
100
AcDbEntity
  8
7
100
AcDbLine
 10
14.92701361312772
 20
13.32044334231109
 30
0.0
 11
14.92701361312772
 21
13.1997084341746
 31
0.0
  0
LINE
  5
2B6D
330
1E
100
AcDbEntity
  8
7
100
AcDbLine
 10
14.68816846877077
 20
13.58028586199613
 30
0.0
 11
14.68816846877077
 21
13.58159819795413
 31
0.0
  0
LINE
  5
2B6E
330
1E
100
AcDbEntity
  8
7
100
AcDbLine
 10
14.74066190709098
 20
13.58028586199613
 30
0.0
 11
14.68816846877077
 21
13.58028586199613
 31
0.0
  0
LINE
  5
2B6F
330
1E
100
AcDbEntity
  8
7
100
AcDbLine
 10
14.74066190709098
 20
13.58028586199613
 30
0.0
 11
14.73934957113297
 21
13.58159819795413
 31
0.0
  0
LINE
  5
2B70
330
1E
100
AcDbEntity
  8
7
100
AcDbLine
 10
14.74066190709098
 20
13.60522024519823
 30
0.0
 11
14.74066190709098
 21
13.58028586199613
 31
0.0
  0
LINE
  5
2B71
330
1E
100
AcDbEntity
  8
7
100
AcDbLine
 10
14.74066190709098
 20
13.60522024519823
 30
0.0
 11
14.73934957113297
 21
13.60653258115623
 31
0.0
  0
LINE
  5
2B72
330
1E
100
AcDbEntity
  8
7
100
AcDbLine
 10
14.74066190709098
 20
12.93855357853156
 30
0.0
 11
14.73934957113297
 21
12.93724124257356
 31
0.0
  0
LINE
  5
2B73
330
1E
100
AcDbEntity
  8
7
100
AcDbLine
 10
14.68816846877077
 20
12.93855357853156
 30
0.0
 11
14.74066190709098
 21
12.93855357853156
 31
0.0
  0
LINE
  5
2B74
330
1E
100
AcDbEntity
  8
7
100
AcDbLine
 10
14.68816846877077
 20
12.93855357853156
 30
0.0
 11
14.68816846877077
 21
12.93724124257356
 31
0.0
  0
LINE
  5
2B75
330
1E
100
AcDbEntity
  8
7
100
AcDbLine
 10
14.74066190709098
 20
12.91361919532946
 30
0.0
 11
14.73934957113297
 21
12.91361919532946
 31
0.0
  0
LINE
  5
2B76
330
1E
100
AcDbEntity
  8
7
100
AcDbLine
 10
14.74066190709098
 20
12.93855357853156
 30
0.0
 11
14.74066190709098
 21
12.91361919532946
 31
0.0
  0
LINE
  5
2B77
330
1E
100
AcDbEntity
  8
7
100
AcDbLine
 10
14.93226295695974
 20
12.93855357853156
 30
0.0
 11
14.93226295695974
 21
12.93724124257356
 31
0.0
  0
LINE
  5
2B78
330
1E
100
AcDbEntity
  8
7
100
AcDbLine
 10
14.87976951863953
 20
12.93855357853156
 30
0.0
 11
14.93226295695974
 21
12.93855357853156
 31
0.0
  0
LINE
  5
2B79
330
1E
100
AcDbEntity
  8
7
100
AcDbLine
 10
14.87976951863953
 20
12.93855357853156
 30
0.0
 11
14.88108185459754
 21
12.93724124257356
 31
0.0
  0
LINE
  5
2B7A
330
1E
100
AcDbEntity
  8
7
100
AcDbLine
 10
14.87976951863953
 20
12.91361919532946
 30
0.0
 11
14.87976951863953
 21
12.93855357853156
 31
0.0
  0
LINE
  5
2B7B
330
1E
100
AcDbEntity
  8
7
100
AcDbLine
 10
14.87976951863953
 20
12.91361919532946
 30
0.0
 11
14.88108185459754
 21
12.91361919532946
 31
0.0
  0
LINE
  5
2B7C
330
1E
100
AcDbEntity
  8
7
100
AcDbLine
 10
11.45850967611985
 20
13.60522024519823
 30
0.0
 11
11.45850967611985
 21
13.58028586199613
 31
0.0
  0
LINE
  5
2B7D
330
1E
100
AcDbEntity
  8
7
100
AcDbLine
 10
11.45850967611985
 20
13.60522024519823
 30
0.0
 11
11.45850967611985
 21
13.60653258115623
 31
0.0
  0
LINE
  5
2B7E
330
1E
100
AcDbEntity
  8
7
100
AcDbLine
 10
11.45850967611985
 20
13.58028586199613
 30
0.0
 11
11.45850967611985
 21
13.58159819795413
 31
0.0
  0
LINE
  5
2B84
330
1E
100
AcDbEntity
  8
7
100
AcDbLine
 10
11.65142306194662
 20
13.58028586199613
 30
0.0
 11
11.59892962362641
 21
13.58028586199613
 31
0.0
  0
LINE
  5
2B85
330
1E
100
AcDbEntity
  8
7
100
AcDbLine
 10
11.65142306194662
 20
13.58028586199613
 30
0.0
 11
11.65142306194662
 21
13.58159819795413
 31
0.0
  0
LINE
  5
2B86
330
1E
100
AcDbEntity
  8
7
100
AcDbLine
 10
11.59892962362641
 20
13.58028586199613
 30
0.0
 11
11.60024195958442
 21
13.58159819795413
 31
0.0
  0
LINE
  5
2B8C
330
1E
100
AcDbEntity
  8
7
100
AcDbLine
 10
10.94932332441381
 20
14.63540397223235
 30
0.0
 11
10.9716330356999
 21
14.61178192498825
 31
0.0
  0
LINE
  5
2BE0
330
1E
100
AcDbEntity
  8
7
100
AcDbLine
 10
15.39026820630358
 20
11.88474780425335
 30
0.0
 11
10.94932332441381
 21
11.88474780425335
 31
0.0
  0
LINE
  5
2BEE
330
1E
100
AcDbEntity
  8
7
100
AcDbLine
 10
15.41913959737969
 20
11.91493153128747
 30
0.0
 11
15.41913959737969
 21
14.60522024519823
 31
0.0
  0
LINE
  5
2BF4
330
1E
100
AcDbEntity
  8
7
100
AcDbLine
 10
15.40470390184163
 20
11.88868481212736
 30
0.0
 11
15.39026820630358
 21
11.88474780425335
 31
0.0
  0
LINE
  5
2C25
330
1E
100
AcDbEntity
  8
7
100
AcDbLine
 10
11.65142306194662
 20
12.93855357853156
 30
0.0
 11
11.65142306194662
 21
12.93724124257356
 31
0.0
  0
LINE
  5
2C2B
330
1E
100
AcDbEntity
  8
7
100
AcDbLine
 10
11.65011072598861
 20
13.57897352603812
 30
0.0
 11
11.65142306194662
 21
13.58028586199613
 31
0.0
  0
LINE
  5
2C2C
330
1E
100
AcDbEntity
  8
7
100
AcDbLine
 10
11.65011072598861
 20
12.94117825044757
 30
0.0
 11
11.65011072598861
 21
13.57897352603812
 31
0.0
  0
LINE
  5
2C2D
330
1E
100
AcDbEntity
  8
7
100
AcDbLine
 10
11.65011072598861
 20
12.94117825044757
 30
0.0
 11
11.65142306194662
 21
12.93855357853156
 31
0.0
  0
LINE
  5
2C2E
330
1E
100
AcDbEntity
  8
7
100
AcDbLine
 10
11.46113434803586
 20
13.60522024519823
 30
0.0
 11
11.45850967611985
 21
13.60522024519823
 31
0.0
  0
LINE
  5
2C2F
330
1E
100
AcDbEntity
  8
7
100
AcDbLine
 10
11.5963049517104
 20
13.60522024519823
 30
0.0
 11
11.46113434803586
 21
13.60522024519823
 31
0.0
  0
LINE
  5
2C30
330
1E
100
AcDbEntity
  8
7
100
AcDbLine
 10
11.5963049517104
 20
13.60522024519823
 30
0.0
 11
11.59892962362641
 21
13.60522024519823
 31
0.0
  0
LINE
  5
2C31
330
1E
100
AcDbEntity
  8
7
100
AcDbLine
 10
11.40864090971565
 20
12.94117825044757
 30
0.0
 11
11.40732857375764
 21
12.93855357853156
 31
0.0
  0
LINE
  5
2C32
330
1E
100
AcDbEntity
  8
7
100
AcDbLine
 10
11.40864090971565
 20
13.57897352603812
 30
0.0
 11
11.40864090971565
 21
12.94117825044757
 31
0.0
  0
LINE
  5
2C33
330
1E
100
AcDbEntity
  8
7
100
AcDbLine
 10
11.40864090971565
 20
13.57897352603812
 30
0.0
 11
11.40732857375764
 21
13.58028586199613
 31
0.0
  0
LINE
  5
2C34
330
1E
100
AcDbEntity
  8
7
100
AcDbLine
 10
11.40732857375764
 20
12.93855357853156
 30
0.0
 11
11.40732857375764
 21
12.93724124257356
 31
0.0
  0
LINE
  5
2C35
330
1E
100
AcDbEntity
  8
7
100
AcDbLine
 10
11.45850967611985
 20
12.93855357853156
 30
0.0
 11
11.45850967611985
 21
12.93724124257356
 31
0.0
  0
LINE
  5
2C36
330
1E
100
AcDbEntity
  8
7
100
AcDbLine
 10
11.45850967611985
 20
12.93855357853156
 30
0.0
 11
11.40732857375764
 21
12.93855357853156
 31
0.0
  0
LINE
  5
2C37
330
1E
100
AcDbEntity
  8
7
100
AcDbLine
 10
11.45850967611985
 20
12.91361919532946
 30
0.0
 11
11.45850967611985
 21
12.93855357853156
 31
0.0
  0
LINE
  5
2C38
330
1E
100
AcDbEntity
  8
7
100
AcDbLine
 10
11.5963049517104
 20
12.91493153128747
 30
0.0
 11
11.59892962362641
 21
12.91361919532946
 31
0.0
  0
LINE
  5
2C39
330
1E
100
AcDbEntity
  8
7
100
AcDbLine
 10
11.46113434803586
 20
12.91493153128747
 30
0.0
 11
11.5963049517104
 21
12.91493153128747
 31
0.0
  0
LINE
  5
2C3A
330
1E
100
AcDbEntity
  8
7
100
AcDbLine
 10
11.46113434803586
 20
12.91493153128747
 30
0.0
 11
11.45850967611985
 21
12.91361919532946
 31
0.0
  0
LINE
  5
2C3B
330
1E
100
AcDbEntity
  8
7
100
AcDbLine
 10
11.59892962362641
 20
12.91361919532946
 30
0.0
 11
11.60024195958442
 21
12.91361919532946
 31
0.0
  0
LINE
  5
2C3C
330
1E
100
AcDbEntity
  8
7
100
AcDbLine
 10
11.59892962362641
 20
12.93855357853156
 30
0.0
 11
11.59892962362641
 21
12.91361919532946
 31
0.0
  0
LINE
  5
2C3D
330
1E
100
AcDbEntity
  8
7
100
AcDbLine
 10
11.6461737181146
 20
13.1997084341746
 30
0.0
 11
11.6461737181146
 21
13.32044334231109
 31
0.0
  0
LINE
  5
2C4E
330
1E
100
AcDbEntity
  8
7
100
AcDbLine
 10
11.41257791758967
 20
13.32044334231109
 30
0.0
 11
11.41257791758967
 21
13.1997084341746
 31
0.0
  0
LINE
  5
2C4F
330
1E
100
AcDbEntity
  8
7
100
AcDbLine
 10
11.64486138215659
 20
13.32044334231109
 30
0.0
 11
11.63961203832457
 21
13.35587641317723
 31
0.0
  0
LINE
  5
2C5C
330
1E
100
AcDbEntity
  8
7
100
AcDbLine
 10
11.5963049517104
 20
12.94117825044757
 30
0.0
 11
11.65011072598861
 21
12.94117825044757
 31
0.0
  0
LINE
  5
2C6C
330
1E
100
AcDbEntity
  8
7
100
AcDbLine
 10
11.5963049517104
 20
12.91493153128747
 30
0.0
 11
11.5963049517104
 21
12.94117825044757
 31
0.0
  0
LINE
  5
2C6D
330
1E
100
AcDbEntity
  8
7
100
AcDbLine
 10
11.60417896745843
 20
13.32044334231109
 30
0.0
 11
11.59892962362641
 21
13.3493147333872
 31
0.0
  0
LINE
  5
2C78
330
1E
100
AcDbEntity
  8
7
100
AcDbLine
 10
11.45457266824583
 20
13.32044334231109
 30
0.0
 11
11.45457266824583
 21
13.1997084341746
 31
0.0
  0
LINE
  5
2C79
330
1E
100
AcDbEntity
  8
7
100
AcDbLine
 10
11.45457266824583
 20
13.1997084341746
 30
0.0
 11
11.45982201207785
 21
13.17083704309849
 31
0.0
  0
LINE
  5
2C84
330
1E
100
AcDbEntity
  8
7
100
AcDbLine
 10
11.60417896745843
 20
13.1997084341746
 30
0.0
 11
11.60417896745843
 21
13.32044334231109
 31
0.0
  0
LINE
  5
2C85
330
1E
100
AcDbEntity
  8
7
100
AcDbLine
 10
11.64354904619859
 20
13.32044334231109
 30
0.0
 11
11.6461737181146
 21
13.32044334231109
 31
0.0
  0
LINE
  5
2C86
330
1E
100
AcDbEntity
  8
7
100
AcDbLine
 10
11.64354904619859
 20
13.1997084341746
 30
0.0
 11
11.64354904619859
 21
13.32044334231109
 31
0.0
  0
LINE
  5
2C87
330
1E
100
AcDbEntity
  8
7
100
AcDbLine
 10
11.64354904619859
 20
13.1997084341746
 30
0.0
 11
11.6461737181146
 21
13.1997084341746
 31
0.0
  0
LINE
  5
2C88
330
1E
100
AcDbEntity
  8
7
100
AcDbLine
 10
11.41389025354767
 20
13.32044334231109
 30
0.0
 11
11.41257791758967
 21
13.32044334231109
 31
0.0
  0
LINE
  5
2C99
330
1E
100
AcDbEntity
  8
7
100
AcDbLine
 10
11.41389025354767
 20
13.1997084341746
 30
0.0
 11
11.41257791758967
 21
13.1997084341746
 31
0.0
  0
LINE
  5
2C9A
330
1E
100
AcDbEntity
  8
7
100
AcDbLine
 10
11.41389025354767
 20
13.32044334231109
 30
0.0
 11
11.41389025354767
 21
13.1997084341746
 31
0.0
  0
LINE
  5
2CB9
330
1E
100
AcDbEntity
  8
7
100
AcDbLine
 10
11.60549130341644
 20
13.32044334231109
 30
0.0
 11
11.60549130341644
 21
13.1997084341746
 31
0.0
  0
LINE
  5
2CC8
330
1E
100
AcDbEntity
  8
7
100
AcDbLine
 10
11.45326033228783
 20
13.1997084341746
 30
0.0
 11
11.45326033228783
 21
13.32044334231109
 31
0.0
  0
LINE
  5
2CC9
330
1E
100
AcDbEntity
  8
7
100
AcDbLine
 10
11.60417896745843
 20
13.32044334231109
 30
0.0
 11
11.60549130341644
 21
13.32044334231109
 31
0.0
  0
LINE
  5
2CCA
330
1E
100
AcDbEntity
  8
7
100
AcDbLine
 10
11.45457266824583
 20
13.32044334231109
 30
0.0
 11
11.45326033228783
 21
13.32044334231109
 31
0.0
  0
LINE
  5
2CCB
330
1E
100
AcDbEntity
  8
7
100
AcDbLine
 10
11.45457266824583
 20
13.1997084341746
 30
0.0
 11
11.45326033228783
 21
13.1997084341746
 31
0.0
  0
LINE
  5
2CCC
330
1E
100
AcDbEntity
  8
7
100
AcDbLine
 10
11.60417896745843
 20
13.1997084341746
 30
0.0
 11
11.60549130341644
 21
13.1997084341746
 31
0.0
  0
LINE
  5
2CCD
330
1E
100
AcDbEntity
  8
7
100
AcDbLine
 10
14.68948080472877
 20
13.57897352603812
 30
0.0
 11
14.68816846877077
 21
13.58028586199613
 31
0.0
  0
LINE
  5
2CCE
330
1E
100
AcDbEntity
  8
7
100
AcDbLine
 10
14.68948080472877
 20
12.94117825044757
 30
0.0
 11
14.68816846877077
 21
12.93855357853156
 31
0.0
  0
LINE
  5
2CD4
330
1E
100
AcDbEntity
  8
7
100
AcDbLine
 10
14.74197424304898
 20
13.60522024519823
 30
0.0
 11
14.74066190709098
 21
13.60522024519823
 31
0.0
  0
LINE
  5
2CDF
330
1E
100
AcDbEntity
  8
7
100
AcDbLine
 10
14.93095062100174
 20
12.94117825044757
 30
0.0
 11
14.93226295695974
 21
12.93855357853156
 31
0.0
  0
LINE
  5
2CE0
330
1E
100
AcDbEntity
  8
7
100
AcDbLine
 10
14.93095062100174
 20
13.57897352603812
 30
0.0
 11
14.93226295695974
 21
13.58028586199613
 31
0.0
  0
LINE
  5
2CE1
330
1E
100
AcDbEntity
  8
7
100
AcDbLine
 10
14.74197424304898
 20
12.91493153128747
 30
0.0
 11
14.74066190709098
 21
12.91361919532946
 31
0.0
  0
LINE
  5
2CE2
330
1E
100
AcDbEntity
  8
7
100
AcDbLine
 10
14.87714484672352
 20
12.91493153128747
 30
0.0
 11
14.87976951863953
 21
12.91361919532946
 31
0.0
  0
LINE
  5
2CE3
330
1E
100
AcDbEntity
  8
7
100
AcDbLine
 10
14.69473014856079
 20
13.32044334231109
 30
0.0
 11
14.69341781260279
 21
13.32044334231109
 31
0.0
  0
LINE
  5
2CE4
330
1E
100
AcDbEntity
  8
7
100
AcDbLine
 10
14.69473014856079
 20
13.1997084341746
 30
0.0
 11
14.69341781260279
 21
13.1997084341746
 31
0.0
  0
LINE
  5
2CE5
330
1E
100
AcDbEntity
  8
7
100
AcDbLine
 10
14.92570127716972
 20
13.32044334231109
 30
0.0
 11
14.92701361312772
 21
13.32044334231109
 31
0.0
  0
LINE
  5
2CE6
330
1E
100
AcDbEntity
  8
7
100
AcDbLine
 10
14.92570127716972
 20
13.1997084341746
 30
0.0
 11
14.92701361312772
 21
13.1997084341746
 31
0.0
  0
LINE
  5
2CE7
330
1E
100
AcDbEntity
  8
7
100
AcDbLine
 10
14.88501886247155
 20
13.1997084341746
 30
0.0
 11
14.88633119842956
 21
13.1997084341746
 31
0.0
  0
LINE
  5
2CE8
330
1E
100
AcDbEntity
  8
7
100
AcDbLine
 10
14.88501886247155
 20
13.32044334231109
 30
0.0
 11
14.88633119842956
 21
13.32044334231109
 31
0.0
  0
LINE
  5
2CE9
330
1E
100
AcDbEntity
  8
7
100
AcDbLine
 10
14.73541256325896
 20
13.1997084341746
 30
0.0
 11
14.73410022730095
 21
13.1997084341746
 31
0.0
  0
LINE
  5
2CEA
330
1E
100
AcDbEntity
  8
7
100
AcDbLine
 10
14.73541256325896
 20
13.32044334231109
 30
0.0
 11
14.73410022730095
 21
13.32044334231109
 31
0.0
  0
LINE
  5
2CF0
330
1E
100
AcDbEntity
  8
7
100
AcDbLine
 10
14.43488762887576
 20
12.55141447092001
 30
0.0
 11
14.43488762887576
 21
13.09209688561818
 31
0.0
  0
LINE
  5
2CF1
330
1E
100
AcDbEntity
  8
7
100
AcDbLine
 10
14.36664615905948
 20
12.55141447092001
 30
0.0
 11
14.43488762887576
 21
12.55141447092001
 31
0.0
  0
LINE
  5
2CF2
330
1E
100
AcDbEntity
  8
7
100
AcDbLine
 10
14.36664615905948
 20
12.50679504834783
 30
0.0
 11
14.36664615905948
 21
12.55141447092001
 31
0.0
  0
LINE
  5
2CF3
330
1E
100
AcDbEntity
  8
7
100
AcDbLine
 10
13.87714484672352
 20
12.50679504834783
 30
0.0
 11
14.36664615905948
 21
12.50679504834783
 31
0.0
  0
LINE
  5
2CF4
330
1E
100
AcDbEntity
  8
7
100
AcDbLine
 10
13.87714484672352
 20
12.55141447092001
 30
0.0
 11
13.87714484672352
 21
12.50679504834783
 31
0.0
  0
LINE
  5
2CF5
330
1E
100
AcDbEntity
  8
7
100
AcDbLine
 10
13.73147555538494
 20
12.55141447092001
 30
0.0
 11
13.87714484672352
 21
12.55141447092001
 31
0.0
  0
LINE
  5
2CF6
330
1E
100
AcDbEntity
  8
7
100
AcDbLine
 10
13.73147555538494
 20
12.50679504834783
 30
0.0
 11
13.73147555538494
 21
12.55141447092001
 31
0.0
  0
LINE
  5
2CF7
330
1E
100
AcDbEntity
  8
7
100
AcDbLine
 10
13.24197424304898
 20
12.50679504834783
 30
0.0
 11
13.73147555538494
 21
12.50679504834783
 31
0.0
  0
LINE
  5
2CF8
330
1E
100
AcDbEntity
  8
7
100
AcDbLine
 10
13.24197424304898
 20
12.55141447092001
 30
0.0
 11
13.24197424304898
 21
12.50679504834783
 31
0.0
  0
LINE
  5
2CF9
330
1E
100
AcDbEntity
  8
7
100
AcDbLine
 10
13.09761728766841
 20
12.55141447092001
 30
0.0
 11
13.24197424304898
 21
12.55141447092001
 31
0.0
  0
LINE
  5
2CFA
330
1E
100
AcDbEntity
  8
7
100
AcDbLine
 10
13.09761728766841
 20
12.50679504834783
 30
0.0
 11
13.09761728766841
 21
12.55141447092001
 31
0.0
  0
LINE
  5
2CFB
330
1E
100
AcDbEntity
  8
7
100
AcDbLine
 10
12.60680363937444
 20
12.50679504834783
 30
0.0
 11
13.09761728766841
 21
12.50679504834783
 31
0.0
  0
LINE
  5
2CFC
330
1E
100
AcDbEntity
  8
7
100
AcDbLine
 10
12.60680363937444
 20
12.55141447092001
 30
0.0
 11
12.60680363937444
 21
12.50679504834783
 31
0.0
  0
LINE
  5
2CFD
330
1E
100
AcDbEntity
  8
7
100
AcDbLine
 10
12.46244668399386
 20
12.55141447092001
 30
0.0
 11
12.60680363937444
 21
12.55141447092001
 31
0.0
  0
LINE
  5
2CFE
330
1E
100
AcDbEntity
  8
7
100
AcDbLine
 10
12.46244668399386
 20
12.50679504834783
 30
0.0
 11
12.46244668399386
 21
12.55141447092001
 31
0.0
  0
LINE
  5
2CFF
330
1E
100
AcDbEntity
  8
7
100
AcDbLine
 10
11.9716330356999
 20
12.50679504834783
 30
0.0
 11
12.46244668399386
 21
12.50679504834783
 31
0.0
  0
LINE
  5
2D00
330
1E
100
AcDbEntity
  8
7
100
AcDbLine
 10
11.9716330356999
 20
12.55141447092001
 30
0.0
 11
11.9716330356999
 21
12.50679504834783
 31
0.0
  0
LINE
  5
2D01
330
1E
100
AcDbEntity
  8
7
100
AcDbLine
 10
11.90470390184163
 20
12.55141447092001
 30
0.0
 11
11.9716330356999
 21
12.55141447092001
 31
0.0
  0
LINE
  5
2D02
330
1E
100
AcDbEntity
  8
7
100
AcDbLine
 10
11.90470390184163
 20
13.09209688561818
 30
0.0
 11
11.90470390184163
 21
12.55141447092001
 31
0.0
  0
LINE
  5
2D14
330
1E
100
AcDbEntity
  8
7
100
AcDbLine
 10
13.59236794383638
 20
13.12490528456831
 30
0.0
 11
13.59236794383638
 21
13.09209688561818
 31
0.0
  0
LINE
  5
2D15
330
1E
100
AcDbEntity
  8
7
100
AcDbLine
 10
14.01756479423008
 20
13.09209688561818
 30
0.0
 11
14.01625245827208
 21
13.12490528456831
 31
0.0
  0
LINE
  5
2D1B
330
1E
100
AcDbEntity
  8
7
100
AcDbLine
 10
14.51231545039807
 20
12.48186066514573
 30
0.0
 11
14.49394274698599
 21
13.20889478588064
 31
0.0
  0
LINE
  5
2D1C
330
1E
100
AcDbEntity
  8
7
100
AcDbLine
 10
14.59892962362641
 20
13.88606014021135
 30
0.0
 11
14.58449392808835
 21
13.26007588824285
 31
0.0
  0
LINE
  5
2D1D
330
1E
100
AcDbEntity
  8
7
100
AcDbLine
 10
14.58449392808835
 20
13.26007588824285
 30
0.0
 11
14.59892962362641
 21
12.63409163627434
 31
0.0
  0
LINE
  5
2D23
330
1E
100
AcDbEntity
  8
7
100
AcDbLine
 10
11.9716330356999
 20
12.60522024519823
 30
0.0
 11
11.9716330356999
 21
12.55141447092001
 31
0.0
  0
LINE
  5
2D24
330
1E
100
AcDbEntity
  8
7
100
AcDbLine
 10
12.32465140840331
 20
12.80994465464705
 30
0.0
 11
12.34171177585738
 21
12.56191315858405
 31
0.0
  0
LINE
  5
2D25
330
1E
100
AcDbEntity
  8
7
100
AcDbLine
 10
12.32465140840331
 20
12.80994465464705
 30
0.0
 11
12.10942831129045
 21
12.80994465464705
 31
0.0
  0
LINE
  5
2D26
330
1E
100
AcDbEntity
  8
7
100
AcDbLine
 10
12.10942831129045
 20
12.80994465464705
 30
0.0
 11
12.09236794383638
 21
12.56191315858405
 31
0.0
  0
LINE
  5
2D27
330
1E
100
AcDbEntity
  8
7
100
AcDbLine
 10
12.46244668399386
 20
12.60522024519823
 30
0.0
 11
12.46244668399386
 21
12.55141447092001
 31
0.0
  0
LINE
  5
2D28
330
1E
100
AcDbEntity
  8
7
100
AcDbLine
 10
12.60680363937444
 20
12.60522024519823
 30
0.0
 11
12.60680363937444
 21
12.55141447092001
 31
0.0
  0
LINE
  5
2D29
330
1E
100
AcDbEntity
  8
7
100
AcDbLine
 10
12.95982201207785
 20
12.80994465464705
 30
0.0
 11
12.97688237953192
 21
12.56191315858405
 31
0.0
  0
LINE
  5
2D2F
330
1E
100
AcDbEntity
  8
7
100
AcDbLine
 10
13.09761728766841
 20
12.60522024519823
 30
0.0
 11
13.09761728766841
 21
12.55141447092001
 31
0.0
  0
LINE
  5
2D30
330
1E
100
AcDbEntity
  8
7
100
AcDbLine
 10
13.24197424304898
 20
12.60522024519823
 30
0.0
 11
13.24197424304898
 21
12.55141447092001
 31
0.0
  0
LINE
  5
2D31
330
1E
100
AcDbEntity
  8
7
100
AcDbLine
 10
13.5949926157524
 20
12.80994465464705
 30
0.0
 11
13.61205298320646
 21
12.56191315858405
 31
0.0
  0
LINE
  5
2D37
330
1E
100
AcDbEntity
  8
7
100
AcDbLine
 10
13.73147555538494
 20
12.60522024519823
 30
0.0
 11
13.73147555538494
 21
12.55141447092001
 31
0.0
  0
LINE
  5
2D38
330
1E
100
AcDbEntity
  8
7
100
AcDbLine
 10
13.87714484672352
 20
12.60522024519823
 30
0.0
 11
13.87714484672352
 21
12.55141447092001
 31
0.0
  0
LINE
  5
2D39
330
1E
100
AcDbEntity
  8
7
100
AcDbLine
 10
14.23016321942694
 20
12.80994465464705
 30
0.0
 11
14.24722358688101
 21
12.56191315858405
 31
0.0
  0
LINE
  5
2D3F
330
1E
100
AcDbEntity
  8
7
100
AcDbLine
 10
14.36664615905948
 20
12.60522024519823
 30
0.0
 11
14.36664615905948
 21
12.55141447092001
 31
0.0
  0
LINE
  5
2D46
330
1E
100
AcDbEntity
  8
7
100
AcDbLine
 10
12.32465140840331
 20
12.89524649191739
 30
0.0
 11
12.32596374436132
 21
12.8742491165893
 31
0.0
  0
LINE
  5
2D47
330
1E
100
AcDbEntity
  8
7
100
AcDbLine
 10
12.32596374436132
 20
12.86768743679928
 30
0.0
 11
12.32596374436132
 21
12.86506276488327
 31
0.0
  0
LINE
  5
2D53
330
1E
100
AcDbEntity
  8
7
100
AcDbLine
 10
12.32596374436132
 20
12.86375042892526
 30
0.0
 11
12.10811597533245
 21
12.86375042892526
 31
0.0
  0
LINE
  5
2D5F
330
1E
100
AcDbEntity
  8
7
100
AcDbLine
 10
12.32465140840331
 20
12.84406538955518
 30
0.0
 11
12.32465140840331
 21
12.82962969401713
 31
0.0
  0
LINE
  5
2D60
330
1E
100
AcDbEntity
  8
7
100
AcDbLine
 10
12.32596374436132
 20
12.8742491165893
 30
0.0
 11
12.32596374436132
 21
12.86768743679928
 31
0.0
  0
LINE
  5
2D61
330
1E
100
AcDbEntity
  8
7
100
AcDbLine
 10
12.32596374436132
 20
12.86506276488327
 30
0.0
 11
12.32596374436132
 21
12.86375042892526
 31
0.0
  0
LINE
  5
2D67
330
1E
100
AcDbEntity
  8
7
100
AcDbLine
 10
12.10811597533245
 20
12.86768743679928
 30
0.0
 11
12.10811597533245
 21
12.8742491165893
 31
0.0
  0
LINE
  5
2D6D
330
1E
100
AcDbEntity
  8
7
100
AcDbLine
 10
12.10811597533245
 20
12.86375042892526
 30
0.0
 11
12.10811597533245
 21
12.86506276488327
 31
0.0
  0
LINE
  5
2D6E
330
1E
100
AcDbEntity
  8
7
100
AcDbLine
 10
12.95982201207785
 20
12.89524649191739
 30
0.0
 11
12.74459891496499
 21
12.89524649191739
 31
0.0
  0
LINE
  5
2D74
330
1E
100
AcDbEntity
  8
7
100
AcDbLine
 10
12.95982201207785
 20
12.89524649191739
 30
0.0
 11
12.96113434803586
 21
12.8742491165893
 31
0.0
  0
LINE
  5
2D75
330
1E
100
AcDbEntity
  8
7
100
AcDbLine
 10
12.96113434803586
 20
12.86768743679928
 30
0.0
 11
12.96113434803586
 21
12.86506276488327
 31
0.0
  0
LINE
  5
2D8D
330
1E
100
AcDbEntity
  8
7
100
AcDbLine
 10
12.95982201207785
 20
12.84406538955518
 30
0.0
 11
12.95982201207785
 21
12.82962969401713
 31
0.0
  0
LINE
  5
2D8E
330
1E
100
AcDbEntity
  8
7
100
AcDbLine
 10
12.96113434803586
 20
12.8742491165893
 30
0.0
 11
12.96113434803586
 21
12.86768743679928
 31
0.0
  0
LINE
  5
2D8F
330
1E
100
AcDbEntity
  8
7
100
AcDbLine
 10
12.96113434803586
 20
12.86506276488327
 30
0.0
 11
12.96113434803586
 21
12.86375042892526
 31
0.0
  0
LINE
  5
2D95
330
1E
100
AcDbEntity
  8
7
100
AcDbLine
 10
12.74197424304898
 20
12.86768743679928
 30
0.0
 11
12.74328657900699
 21
12.8742491165893
 31
0.0
  0
LINE
  5
2D9B
330
1E
100
AcDbEntity
  8
7
100
AcDbLine
 10
12.74328657900699
 20
12.86375042892526
 30
0.0
 11
12.74328657900699
 21
12.86506276488327
 31
0.0
  0
LINE
  5
2DA2
330
1E
100
AcDbEntity
  8
7
100
AcDbLine
 10
13.5949926157524
 20
12.89524649191739
 30
0.0
 11
13.5963049517104
 21
12.8742491165893
 31
0.0
  0
LINE
  5
2DA3
330
1E
100
AcDbEntity
  8
7
100
AcDbLine
 10
13.5963049517104
 20
12.86768743679928
 30
0.0
 11
13.5963049517104
 21
12.86506276488327
 31
0.0
  0
LINE
  5
2DB0
330
1E
100
AcDbEntity
  8
7
100
AcDbLine
 10
13.37976951863953
 20
12.84406538955518
 30
0.0
 11
13.37845718268153
 21
12.85587641317723
 31
0.0
  0
LINE
  5
2DB1
330
1E
100
AcDbEntity
  8
7
100
AcDbLine
 10
13.37845718268153
 20
12.85587641317723
 30
0.0
 11
13.37714484672352
 21
12.86375042892526
 31
0.0
  0
LINE
  5
2DB8
330
1E
100
AcDbEntity
  8
7
100
AcDbLine
 10
13.5949926157524
 20
12.84406538955518
 30
0.0
 11
13.59368027979439
 21
12.82962969401713
 31
0.0
  0
LINE
  5
2DB9
330
1E
100
AcDbEntity
  8
7
100
AcDbLine
 10
13.5963049517104
 20
12.8742491165893
 30
0.0
 11
13.5963049517104
 21
12.86768743679928
 31
0.0
  0
LINE
  5
2DBA
330
1E
100
AcDbEntity
  8
7
100
AcDbLine
 10
13.5963049517104
 20
12.86506276488327
 30
0.0
 11
13.5963049517104
 21
12.86375042892526
 31
0.0
  0
LINE
  5
2DBB
330
1E
100
AcDbEntity
  8
7
100
AcDbLine
 10
13.59368027979439
 20
12.82962969401713
 30
0.0
 11
13.59368027979439
 21
12.81913100635308
 31
0.0
  0
LINE
  5
2DBC
330
1E
100
AcDbEntity
  8
7
100
AcDbLine
 10
13.59368027979439
 20
12.81913100635308
 30
0.0
 11
13.5949926157524
 21
12.80994465464705
 31
0.0
  0
LINE
  5
2DBD
330
1E
100
AcDbEntity
  8
7
100
AcDbLine
 10
13.37714484672352
 20
12.86768743679928
 30
0.0
 11
13.37714484672352
 21
12.8742491165893
 31
0.0
  0
LINE
  5
2DC3
330
1E
100
AcDbEntity
  8
7
100
AcDbLine
 10
13.37714484672352
 20
12.86375042892526
 30
0.0
 11
13.37714484672352
 21
12.86506276488327
 31
0.0
  0
LINE
  5
2DCA
330
1E
100
AcDbEntity
  8
7
100
AcDbLine
 10
14.23016321942694
 20
12.89524649191739
 30
0.0
 11
14.23147555538494
 21
12.8742491165893
 31
0.0
  0
LINE
  5
2DCB
330
1E
100
AcDbEntity
  8
7
100
AcDbLine
 10
14.23147555538494
 20
12.86768743679928
 30
0.0
 11
14.23147555538494
 21
12.86506276488327
 31
0.0
  0
LINE
  5
2DE3
330
1E
100
AcDbEntity
  8
7
100
AcDbLine
 10
14.23016321942694
 20
12.84406538955518
 30
0.0
 11
14.22885088346893
 21
12.82962969401713
 31
0.0
  0
LINE
  5
2DE4
330
1E
100
AcDbEntity
  8
7
100
AcDbLine
 10
14.23147555538494
 20
12.8742491165893
 30
0.0
 11
14.23147555538494
 21
12.86768743679928
 31
0.0
  0
LINE
  5
2DE5
330
1E
100
AcDbEntity
  8
7
100
AcDbLine
 10
14.23147555538494
 20
12.86506276488327
 30
0.0
 11
14.23147555538494
 21
12.86375042892526
 31
0.0
  0
LINE
  5
2DEB
330
1E
100
AcDbEntity
  8
7
100
AcDbLine
 10
14.01231545039807
 20
12.86768743679928
 30
0.0
 11
14.01231545039807
 21
12.8742491165893
 31
0.0
  0
LINE
  5
2DF1
330
1E
100
AcDbEntity
  8
7
100
AcDbLine
 10
14.01231545039807
 20
12.86375042892526
 30
0.0
 11
14.01231545039807
 21
12.86506276488327
 31
0.0
  0
LINE
  5
2DF2
330
1E
100
AcDbEntity
  8
7
100
AcDbLine
 10
12.30496636903323
 20
13.08947221370216
 30
0.0
 11
12.12911335066053
 21
13.08947221370216
 31
0.0
  0
LINE
  5
2DF3
330
1E
100
AcDbEntity
  8
7
100
AcDbLine
 10
12.30496636903323
 20
13.1222806126523
 30
0.0
 11
12.30496636903323
 21
13.08947221370216
 31
0.0
  0
LINE
  5
2DF4
330
1E
100
AcDbEntity
  8
7
100
AcDbLine
 10
12.30496636903323
 20
13.1222806126523
 30
0.0
 11
12.12911335066053
 21
13.1222806126523
 31
0.0
  0
LINE
  5
2DF5
330
1E
100
AcDbEntity
  8
7
100
AcDbLine
 10
12.94013697270778
 20
13.08947221370216
 30
0.0
 11
12.76428395433507
 21
13.08947221370216
 31
0.0
  0
LINE
  5
2DF6
330
1E
100
AcDbEntity
  8
7
100
AcDbLine
 10
12.94013697270778
 20
13.1222806126523
 30
0.0
 11
12.94013697270778
 21
13.08947221370216
 31
0.0
  0
LINE
  5
2DF7
330
1E
100
AcDbEntity
  8
7
100
AcDbLine
 10
12.94013697270778
 20
13.1222806126523
 30
0.0
 11
12.76428395433507
 21
13.1222806126523
 31
0.0
  0
LINE
  5
2DF8
330
1E
100
AcDbEntity
  8
7
100
AcDbLine
 10
13.57399524042431
 20
13.08947221370216
 30
0.0
 11
13.39945455800961
 21
13.08947221370216
 31
0.0
  0
LINE
  5
2DF9
330
1E
100
AcDbEntity
  8
7
100
AcDbLine
 10
13.57399524042431
 20
13.1222806126523
 30
0.0
 11
13.57399524042431
 21
13.08947221370216
 31
0.0
  0
LINE
  5
2DFA
330
1E
100
AcDbEntity
  8
7
100
AcDbLine
 10
13.57399524042431
 20
13.1222806126523
 30
0.0
 11
13.39945455800961
 21
13.1222806126523
 31
0.0
  0
LINE
  5
2DFB
330
1E
100
AcDbEntity
  8
7
100
AcDbLine
 10
14.20916584409885
 20
13.08947221370216
 30
0.0
 11
14.03462516168415
 21
13.08947221370216
 31
0.0
  0
LINE
  5
2DFC
330
1E
100
AcDbEntity
  8
7
100
AcDbLine
 10
14.20916584409885
 20
13.1222806126523
 30
0.0
 11
14.20916584409885
 21
13.08947221370216
 31
0.0
  0
LINE
  5
2DFD
330
1E
100
AcDbEntity
  8
7
100
AcDbLine
 10
14.20916584409885
 20
13.1222806126523
 30
0.0
 11
14.03462516168415
 21
13.1222806126523
 31
0.0
  0
LINE
  5
2DFE
330
1E
100
AcDbEntity
  8
7
100
AcDbLine
 10
12.32333907244531
 20
13.12490528456831
 30
0.0
 11
12.31940206457129
 21
13.1222806126523
 31
0.0
  0
LINE
  5
2DFF
330
1E
100
AcDbEntity
  8
7
100
AcDbLine
 10
12.11074064724846
 20
13.12490528456831
 30
0.0
 11
12.11467765512247
 21
13.1222806126523
 31
0.0
  0
LINE
  5
2E00
330
1E
100
AcDbEntity
  8
7
100
AcDbLine
 10
12.95850967611985
 20
13.12490528456831
 30
0.0
 11
12.95457266824583
 21
13.1222806126523
 31
0.0
  0
LINE
  5
2E01
330
1E
100
AcDbEntity
  8
7
100
AcDbLine
 10
12.745911250923
 20
13.12490528456831
 30
0.0
 11
12.74984825879702
 21
13.1222806126523
 31
0.0
  0
LINE
  5
2E02
330
1E
100
AcDbEntity
  8
7
100
AcDbLine
 10
13.59236794383638
 20
13.12490528456831
 30
0.0
 11
13.58974327192037
 21
13.1222806126523
 31
0.0
  0
LINE
  5
2E03
330
1E
100
AcDbEntity
  8
7
100
AcDbLine
 10
13.38108185459754
 20
13.12490528456831
 30
0.0
 11
13.38501886247156
 21
13.1222806126523
 31
0.0
  0
LINE
  5
2E04
330
1E
100
AcDbEntity
  8
7
100
AcDbLine
 10
14.22753854751093
 20
13.12490528456831
 30
0.0
 11
14.22491387559492
 21
13.1222806126523
 31
0.0
  0
LINE
  5
2E05
330
1E
100
AcDbEntity
  8
7
100
AcDbLine
 10
14.01625245827208
 20
13.12490528456831
 30
0.0
 11
14.02018946614609
 21
13.1222806126523
 31
0.0
  0
LINE
  5
2E06
330
1E
100
AcDbEntity
  8
7
100
AcDbLine
 10
11.8955175501356
 20
13.49498402472579
 30
0.0
 11
11.8955175501356
 21
13.46348796173366
 31
0.0
  0
LINE
  5
2E07
330
1E
100
AcDbEntity
  8
7
100
AcDbLine
 10
11.8955175501356
 20
13.49498402472579
 30
0.0
 11
11.8955175501356
 21
13.50548271238983
 31
0.0
  0
LINE
  5
2E08
330
1E
100
AcDbEntity
  8
7
100
AcDbLine
 10
11.8718955028915
 20
13.58291053391214
 30
0.0
 11
11.8718955028915
 21
13.60915725307224
 31
0.0
  0
LINE
  5
2E09
330
1E
100
AcDbEntity
  8
7
100
AcDbLine
 10
14.44013697270777
 20
13.62621762052631
 30
0.0
 11
14.44276164462379
 21
13.65246433968642
 31
0.0
  0
LINE
  5
2E0A
330
1E
100
AcDbEntity
  8
7
100
AcDbLine
 10
11.89814222205161
 20
13.62621762052631
 30
0.0
 11
11.8955175501356
 21
13.65246433968642
 31
0.0
  0
LINE
  5
2E0B
330
1E
100
AcDbEntity
  8
7
100
AcDbLine
 10
14.46769602782588
 20
13.58291053391214
 30
0.0
 11
14.46769602782588
 21
13.60915725307224
 31
0.0
  0
LINE
  5
2E8C
330
1E
100
AcDbEntity
  8
7
100
AcDbLine
 10
14.75509760262903
 20
12.22857982525072
 30
0.0
 11
14.75509760262903
 21
12.18002339480453
 31
0.0
  0
LINE
  5
2E8D
330
1E
100
AcDbEntity
  8
7
100
AcDbLine
 10
14.76297161837707
 20
12.22857982525072
 30
0.0
 11
14.75509760262903
 21
12.22857982525072
 31
0.0
  0
LINE
  5
2E93
330
1E
100
AcDbEntity
  8
7
100
AcDbLine
 10
14.76822096220909
 20
12.18396040267854
 30
0.0
 11
14.76822096220909
 21
12.2233304814187
 31
0.0
  0
LINE
  5
2E99
330
1E
100
AcDbEntity
  8
7
100
AcDbLine
 10
14.76297161837707
 20
12.18002339480453
 30
0.0
 11
14.75509760262903
 21
12.18002339480453
 31
0.0
  0
LINE
  5
2EA4
330
1E
100
AcDbEntity
  8
7
100
AcDbLine
 10
14.79315534541119
 20
12.17477405097251
 30
0.0
 11
14.79315534541119
 21
12.23120449716673
 31
0.0
  0
LINE
  5
2EAA
330
1E
100
AcDbEntity
  8
7
100
AcDbLine
 10
14.77740731391512
 20
12.2469525286628
 30
0.0
 11
14.72885088346893
 21
12.2469525286628
 31
0.0
  0
LINE
  5
2EB0
330
1E
100
AcDbEntity
  8
7
100
AcDbLine
 10
14.96507135590987
 20
12.22857982525072
 30
0.0
 11
14.96507135590987
 21
12.15902601947644
 31
0.0
  0
LINE
  5
2EB7
330
1E
100
AcDbEntity
  8
7
100
AcDbLine
 10
14.9204519333377
 20
12.22857982525072
 30
0.0
 11
14.9204519333377
 21
12.2469525286628
 31
0.0
  0
LINE
  5
2EB8
330
1E
100
AcDbEntity
  8
7
100
AcDbLine
 10
14.93751230079176
 20
12.22857982525072
 30
0.0
 11
14.9204519333377
 21
12.22857982525072
 31
0.0
  0
LINE
  5
2EB9
330
1E
100
AcDbEntity
  8
7
100
AcDbLine
 10
14.80627870499124
 20
12.2469525286628
 30
0.0
 11
14.80627870499124
 21
12.17477405097251
 31
0.0
  0
LINE
  5
2EBF
330
1E
100
AcDbEntity
  8
7
100
AcDbLine
 10
14.85352279947943
 20
12.15902601947644
 30
0.0
 11
14.8220267364873
 21
12.15902601947644
 31
0.0
  0
LINE
  5
2ED0
330
1E
100
AcDbEntity
  8
7
100
AcDbLine
 10
14.8456487837314
 20
12.18002339480453
 30
0.0
 11
14.83908710394137
 21
12.18002339480453
 31
0.0
  0
LINE
  5
2EE0
330
1E
100
AcDbEntity
  8
7
100
AcDbLine
 10
14.90601623779964
 20
12.2469525286628
 30
0.0
 11
14.90601623779964
 21
12.15902601947644
 31
0.0
  0
LINE
  5
2EE1
330
1E
100
AcDbEntity
  8
7
100
AcDbLine
 10
14.90601623779964
 20
12.2469525286628
 30
0.0
 11
14.88239419055554
 21
12.2469525286628
 31
0.0
  0
LINE
  5
2EE2
330
1E
100
AcDbEntity
  8
7
100
AcDbLine
 10
14.5464361853062
 20
12.21283179375466
 30
0.0
 11
14.53593749764216
 21
12.21283179375466
 31
0.0
  0
LINE
  5
2EE3
330
1E
100
AcDbEntity
  8
7
100
AcDbLine
 10
14.53593749764216
 20
12.25351420845282
 30
0.0
 11
14.53593749764216
 21
12.21283179375466
 31
0.0
  0
LINE
  5
2EE4
330
1E
100
AcDbEntity
  8
7
100
AcDbLine
 10
14.5464361853062
 20
12.25351420845282
 30
0.0
 11
14.53593749764216
 21
12.25351420845282
 31
0.0
  0
LINE
  5
2EEA
330
1E
100
AcDbEntity
  8
7
100
AcDbLine
 10
14.55168552913822
 20
12.2482648646208
 30
0.0
 11
14.55168552913822
 21
12.21939347354468
 31
0.0
  0
LINE
  5
2EEB
330
1E
100
AcDbEntity
  8
7
100
AcDbLine
 10
14.5464361853062
 20
12.21414412971266
 30
0.0
 11
14.55037319318021
 21
12.21545646567067
 31
0.0
  0
LINE
  5
2EEC
330
1E
100
AcDbEntity
  8
7
100
AcDbLine
 10
14.55037319318021
 20
12.21545646567067
 30
0.0
 11
14.55168552913822
 21
12.21939347354468
 31
0.0
  0
LINE
  5
2EED
330
1E
100
AcDbEntity
  8
7
100
AcDbLine
 10
14.61205298320646
 20
12.21545646567067
 30
0.0
 11
14.62255167087051
 21
12.19052208246857
 31
0.0
  0
LINE
  5
2EEE
330
1E
100
AcDbEntity
  8
7
100
AcDbLine
 10
14.60024195958442
 20
12.19052208246857
 30
0.0
 11
14.61205298320646
 21
12.21545646567067
 31
0.0
  0
LINE
  5
2EEF
330
1E
100
AcDbEntity
  8
7
100
AcDbLine
 10
14.62255167087051
 20
12.19052208246857
 30
0.0
 11
14.60024195958442
 21
12.19052208246857
 31
0.0
  0
LINE
  5
2EF0
330
1E
100
AcDbEntity
  8
7
100
AcDbLine
 10
14.62780101470253
 20
12.1721493790565
 30
0.0
 11
14.59499261575239
 21
12.1721493790565
 31
0.0
  0
LINE
  5
2EF1
330
1E
100
AcDbEntity
  8
7
100
AcDbLine
 10
14.63436269449255
 20
12.15902601947644
 30
0.0
 11
14.62780101470253
 21
12.1721493790565
 31
0.0
  0
LINE
  5
2EF2
330
1E
100
AcDbEntity
  8
7
100
AcDbLine
 10
14.63436269449255
 20
12.15902601947644
 30
0.0
 11
14.67373277323271
 21
12.15902601947644
 31
0.0
  0
LINE
  5
2EF3
330
1E
100
AcDbEntity
  8
7
100
AcDbLine
 10
14.67373277323271
 20
12.1970837622586
 30
0.0
 11
14.67373277323271
 21
12.15902601947644
 31
0.0
  0
LINE
  5
2EF4
330
1E
100
AcDbEntity
  8
7
100
AcDbLine
 10
14.68948080472877
 20
12.15902601947644
 30
0.0
 11
14.67373277323271
 21
12.1970837622586
 31
0.0
  0
LINE
  5
2EFF
330
1E
100
AcDbEntity
  8
7
100
AcDbLine
 10
14.62386400682851
 20
12.2469525286628
 30
0.0
 11
14.64879839003061
 21
12.19052208246857
 31
0.0
  0
LINE
  5
2F00
330
1E
100
AcDbEntity
  8
7
100
AcDbLine
 10
14.62386400682851
 20
12.2469525286628
 30
0.0
 11
14.60024195958442
 21
12.2469525286628
 31
0.0
  0
LINE
  5
2F06
330
1E
100
AcDbEntity
  8
7
100
AcDbLine
 10
14.48475639527995
 20
12.2731992478229
 30
0.0
 11
14.56349655276027
 21
12.2731992478229
 31
0.0
  0
LINE
  5
2F07
330
1E
100
AcDbEntity
  8
7
100
AcDbLine
 10
14.48475639527995
 20
12.2731992478229
 30
0.0
 11
14.48475639527995
 21
12.15902601947644
 31
0.0
  0
LINE
  5
2F08
330
1E
100
AcDbEntity
  8
7
100
AcDbLine
 10
14.53593749764216
 20
12.15902601947644
 30
0.0
 11
14.48475639527995
 21
12.15902601947644
 31
0.0
  0
LINE
  5
2F09
330
1E
100
AcDbEntity
  8
7
100
AcDbLine
 10
14.53593749764216
 20
12.19445909034259
 30
0.0
 11
14.53593749764216
 21
12.15902601947644
 31
0.0
  0
LINE
  5
2F0A
330
1E
100
AcDbEntity
  8
7
100
AcDbLine
 10
14.53593749764216
 20
12.19445909034259
 30
0.0
 11
14.56349655276027
 21
12.19445909034259
 31
0.0
  0
LINE
  5
2F10
330
1E
100
AcDbEntity
  8
7
100
AcDbLine
 10
14.56480888871827
 20
12.15902601947644
 30
0.0
 11
14.58055692021434
 21
12.1983960982166
 31
0.0
  0
LINE
  5
2F11
330
1E
100
AcDbEntity
  8
7
100
AcDbLine
 10
14.58974327192037
 20
12.15902601947644
 30
0.0
 11
14.56480888871827
 21
12.15902601947644
 31
0.0
  0
LINE
  5
2F12
330
1E
100
AcDbEntity
  8
7
100
AcDbLine
 10
14.58974327192037
 20
12.15902601947644
 30
0.0
 11
14.59499261575239
 21
12.1721493790565
 31
0.0
  0
LINE
  5
2F13
330
1E
100
AcDbEntity
  8
7
100
AcDbLine
 10
16.19079314068678
 20
13.31125699060505
 30
0.0
 11
16.5726829044663
 21
13.85587641317723
 31
0.0
  0
LINE
  5
2F14
330
1E
100
AcDbEntity
  8
7
100
AcDbLine
 10
16.78265665774714
 20
14.61178192498825
 30
0.0
 11
17.10811597533244
 21
14.63540397223235
 31
0.0
  0
LINE
  5
2F25
330
1E
100
AcDbEntity
  8
7
100
AcDbLine
 10
17.10811597533244
 20
11.88474780425335
 30
0.0
 11
16.78265665774714
 21
11.90705751553943
 31
0.0
  0
LINE
  5
2F2C
330
1E
100
AcDbEntity
  8
7
100
AcDbLine
 10
17.10811597533244
 20
11.91493153128747
 30
0.0
 11
17.10811597533244
 21
14.60522024519823
 31
0.0
  0
LINE
  5
2F48
330
1E
100
AcDbEntity
  8
7
100
AcDbLine
 10
16.5726829044663
 20
12.66296302735046
 30
0.0
 11
16.19079314068678
 21
13.20889478588064
 31
0.0
  0
LINE
  5
2F4E
330
1E
100
AcDbEntity
  8
7
100
AcDbLine
 10
17.24197424304898
 20
12.82700502210112
 30
0.0
 11
17.32596374436132
 21
12.83094202997513
 31
0.0
  0
LINE
  5
2F4F
330
1E
100
AcDbEntity
  8
7
100
AcDbLine
 10
17.33908710394137
 20
12.84537772551319
 30
0.0
 11
17.33908710394137
 21
12.86768743679928
 31
0.0
  0
LINE
  5
2F50
330
1E
100
AcDbEntity
  8
7
100
AcDbLine
 10
17.32596374436132
 20
12.88212313233733
 30
0.0
 11
17.10811597533244
 21
12.89393415595938
 31
0.0
  0
LINE
  5
332A
330
1E
100
AcDbEntity
  8
7
100
AcDbLine
 10
16.19079314068678
 20
13.31125699060505
 30
0.0
 11
16.1960424845188
 21
13.30731998273104
 31
0.0
  0
LINE
  5
332B
330
1E
100
AcDbEntity
  8
7
100
AcDbLine
 10
16.1960424845188
 20
13.30731998273104
 30
0.0
 11
16.21179051601486
 21
13.29550895910899
 31
0.0
  0
LINE
  5
332C
330
1E
100
AcDbEntity
  8
7
100
AcDbLine
 10
16.21179051601486
 20
13.29550895910899
 30
0.0
 11
16.23410022730095
 21
13.27976092761293
 31
0.0
  0
LINE
  5
332D
330
1E
100
AcDbEntity
  8
7
100
AcDbLine
 10
16.23410022730095
 20
13.27976092761293
 30
0.0
 11
16.26165928241906
 21
13.26007588824285
 31
0.0
  0
LINE
  5
332E
330
1E
100
AcDbEntity
  8
7
100
AcDbLine
 10
16.19079314068678
 20
13.20889478588064
 30
0.0
 11
16.1960424845188
 21
13.21283179375466
 31
0.0
  0
LINE
  5
332F
330
1E
100
AcDbEntity
  8
7
100
AcDbLine
 10
16.1960424845188
 20
13.21283179375466
 30
0.0
 11
16.21179051601486
 21
13.2233304814187
 31
0.0
  0
LINE
  5
3330
330
1E
100
AcDbEntity
  8
7
100
AcDbLine
 10
16.21179051601486
 20
13.2233304814187
 30
0.0
 11
16.23410022730095
 21
13.24039084887277
 31
0.0
  0
LINE
  5
3331
330
1E
100
AcDbEntity
  8
7
100
AcDbLine
 10
16.23410022730095
 20
13.24039084887277
 30
0.0
 11
16.26165928241906
 21
13.26007588824285
 31
0.0
  0
LINE
  5
3332
330
1E
100
AcDbEntity
  8
7
100
AcDbLine
 10
16.19079314068678
 20
13.31125699060505
 30
0.0
 11
16.17635744514872
 21
13.27844859165492
 31
0.0
  0
LINE
  5
3333
330
1E
100
AcDbEntity
  8
7
100
AcDbLine
 10
16.17635744514872
 20
13.27844859165492
 30
0.0
 11
16.17635744514872
 21
13.24170318483077
 31
0.0
  0
LINE
  5
3334
330
1E
100
AcDbEntity
  8
7
100
AcDbLine
 10
16.17635744514872
 20
13.24170318483077
 30
0.0
 11
16.19079314068678
 21
13.20889478588064
 31
0.0
  0
LINE
  5
3335
330
1E
100
AcDbEntity
  8
7
100
AcDbLine
 10
16.78134432178914
 20
14.61046958903025
 30
0.0
 11
16.76690862625108
 21
14.60522024519823
 31
0.0
  0
LINE
  5
3336
330
1E
100
AcDbEntity
  8
7
100
AcDbLine
 10
16.76690862625108
 20
14.60522024519823
 30
0.0
 11
16.75640993858704
 21
14.59078454966017
 31
0.0
  0
LINE
  5
3337
330
1E
100
AcDbEntity
  8
7
100
AcDbLine
 10
16.75640993858704
 20
14.59209688561817
 30
0.0
 11
16.76428395433507
 21
14.58947221370216
 31
0.0
  0
LINE
  5
3338
330
1E
100
AcDbEntity
  8
7
100
AcDbLine
 10
16.76428395433507
 20
14.58947221370216
 30
0.0
 11
16.78265665774714
 21
14.58159819795413
 31
0.0
  0
LINE
  5
3339
330
1E
100
AcDbEntity
  8
7
100
AcDbLine
 10
16.75640993858704
 20
11.92805489086752
 30
0.0
 11
16.76428395433507
 21
11.93067956278353
 31
0.0
  0
LINE
  5
333A
330
1E
100
AcDbEntity
  8
7
100
AcDbLine
 10
16.76428395433507
 20
11.93067956278353
 30
0.0
 11
16.78265665774714
 21
11.93724124257355
 31
0.0
  0
LINE
  5
333B
330
1E
100
AcDbEntity
  8
7
100
AcDbLine
 10
16.75640993858704
 20
11.92805489086752
 30
0.0
 11
16.76690862625108
 21
11.91361919532946
 31
0.0
  0
LINE
  5
333C
330
1E
100
AcDbEntity
  8
7
100
AcDbLine
 10
16.76690862625108
 20
11.91361919532946
 30
0.0
 11
16.78134432178914
 21
11.90836985149744
 31
0.0
  0
LINE
  5
333D
330
1E
100
AcDbEntity
  8
7
100
AcDbLine
 10
16.78265665774714
 20
11.93724124257355
 30
0.0
 11
16.78134432178914
 21
11.91624386724547
 31
0.0
  0
LINE
  5
333E
330
1E
100
AcDbEntity
  8
7
100
AcDbLine
 10
16.78134432178914
 20
11.91624386724547
 30
0.0
 11
16.78265665774714
 21
11.90705751553943
 31
0.0
  0
LINE
  5
333F
330
1E
100
AcDbEntity
  8
7
100
AcDbLine
 10
16.78265665774714
 20
14.61178192498825
 30
0.0
 11
16.78134432178914
 21
14.60390790924022
 31
0.0
  0
LINE
  5
3340
330
1E
100
AcDbEntity
  8
7
100
AcDbLine
 10
16.78134432178914
 20
14.60390790924022
 30
0.0
 11
16.78265665774714
 21
14.58159819795413
 31
0.0
  0
LINE
  5
3341
330
1E
100
AcDbEntity
  8
7
100
AcDbLine
 10
17.33908710394137
 20
12.86768743679928
 30
0.0
 11
17.33515009606735
 21
12.87818612446332
 31
0.0
  0
LINE
  5
3342
330
1E
100
AcDbEntity
  8
7
100
AcDbLine
 10
17.33515009606735
 20
12.87818612446332
 30
0.0
 11
17.32596374436132
 21
12.88212313233733
 31
0.0
  0
LINE
  5
3343
330
1E
100
AcDbEntity
  8
7
100
AcDbLine
 10
17.32596374436132
 20
12.83094202997513
 30
0.0
 11
17.33515009606735
 21
12.83487903784915
 31
0.0
  0
LINE
  5
3344
330
1E
100
AcDbEntity
  8
7
100
AcDbLine
 10
17.33515009606735
 20
12.83487903784915
 30
0.0
 11
17.33908710394137
 21
12.84537772551319
 31
0.0
  0
LINE
  5
3345
330
1E
100
AcDbEntity
  8
7
100
AcDbLine
 10
17.10811597533244
 20
12.72595515333471
 30
0.0
 11
17.22360153963691
 21
12.81913100635308
 31
0.0
  0
LINE
  5
3346
330
1E
100
AcDbEntity
  8
7
100
AcDbLine
 10
17.22360153963691
 20
12.81913100635308
 30
0.0
 11
17.24197424304898
 21
12.82700502210112
 31
0.0
  0
LINE
  5
3347
330
1E
100
AcDbEntity
  8
7
100
AcDbLine
 10
16.54906085722221
 20
13.66952470714048
 30
0.0
 11
16.26165928241906
 21
13.26007588824285
 31
0.0
  0
LINE
  5
3348
330
1E
100
AcDbEntity
  8
7
100
AcDbLine
 10
16.26165928241906
 20
13.26007588824285
 30
0.0
 11
16.54906085722221
 21
12.8493147333872
 31
0.0
  0
LINE
  5
3349
330
1E
100
AcDbEntity
  8
7
100
AcDbLine
 10
16.58974327192037
 20
12.74301552078878
 30
0.0
 11
16.62255167087051
 21
12.53829111133996
 31
0.0
  0
LINE
  5
334A
330
1E
100
AcDbEntity
  8
7
100
AcDbLine
 10
16.62255167087051
 20
12.53829111133996
 30
0.0
 11
16.66454642152667
 21
12.33487903784915
 31
0.0
  0
LINE
  5
334B
330
1E
100
AcDbEntity
  8
7
100
AcDbLine
 10
16.66454642152667
 20
12.33487903784915
 30
0.0
 11
16.71835219580489
 21
12.13540397223235
 31
0.0
  0
LINE
  5
334C
330
1E
100
AcDbEntity
  8
7
100
AcDbLine
 10
16.71835219580489
 20
12.13540397223235
 30
0.0
 11
16.78265665774714
 21
11.93724124257355
 31
0.0
  0
LINE
  5
334D
330
1E
100
AcDbEntity
  8
7
100
AcDbLine
 10
16.78265665774714
 20
11.93724124257355
 30
0.0
 11
17.10811597533244
 21
11.91493153128747
 31
0.0
  0
LINE
  5
334E
330
1E
100
AcDbEntity
  8
7
100
AcDbLine
 10
17.10811597533244
 20
14.60522024519823
 30
0.0
 11
16.78265665774714
 21
14.58159819795413
 31
0.0
  0
LINE
  5
334F
330
1E
100
AcDbEntity
  8
7
100
AcDbLine
 10
16.78265665774714
 20
14.58159819795413
 30
0.0
 11
16.71835219580489
 21
14.38474780425335
 31
0.0
  0
LINE
  5
3350
330
1E
100
AcDbEntity
  8
7
100
AcDbLine
 10
16.71835219580489
 20
14.38474780425335
 30
0.0
 11
16.66454642152667
 21
14.18527273863655
 31
0.0
  0
LINE
  5
3351
330
1E
100
AcDbEntity
  8
7
100
AcDbLine
 10
16.66454642152667
 20
14.18527273863655
 30
0.0
 11
16.62255167087051
 21
13.98186066514573
 31
0.0
  0
LINE
  5
3352
330
1E
100
AcDbEntity
  8
7
100
AcDbLine
 10
16.62255167087051
 20
13.98186066514573
 30
0.0
 11
16.58974327192037
 21
13.77713625569692
 31
0.0
  0
LINE
  5
3353
330
1E
100
AcDbEntity
  8
7
100
AcDbLine
 10
16.58974327192037
 20
13.77713625569692
 30
0.0
 11
16.56743356063429
 21
13.57109951029009
 31
0.0
  0
LINE
  5
3354
330
1E
100
AcDbEntity
  8
7
100
AcDbLine
 10
16.56743356063429
 20
13.57109951029009
 30
0.0
 11
16.55693487297025
 21
13.36375042892526
 31
0.0
  0
LINE
  5
3355
330
1E
100
AcDbEntity
  8
7
100
AcDbLine
 10
16.55693487297025
 20
13.36375042892526
 30
0.0
 11
16.55693487297025
 21
13.15640134756043
 31
0.0
  0
LINE
  5
3356
330
1E
100
AcDbEntity
  8
7
100
AcDbLine
 10
16.55693487297025
 20
13.15640134756043
 30
0.0
 11
16.56743356063429
 21
12.9490522661956
 31
0.0
  0
LINE
  5
3357
330
1E
100
AcDbEntity
  8
7
100
AcDbLine
 10
16.56743356063429
 20
12.9490522661956
 30
0.0
 11
16.58974327192037
 21
12.74301552078878
 31
0.0
  0
LINE
  5
3358
330
1E
100
AcDbEntity
  8
7
100
AcDbLine
 10
17.10811597533244
 20
11.91493153128747
 30
0.0
 11
17.10811597533244
 21
11.90049583574941
 31
0.0
  0
LINE
  5
3359
330
1E
100
AcDbEntity
  8
7
100
AcDbLine
 10
17.10811597533244
 20
11.90049583574941
 30
0.0
 11
17.10811597533244
 21
11.88868481212736
 31
0.0
  0
LINE
  5
335A
330
1E
100
AcDbEntity
  8
7
100
AcDbLine
 10
17.10811597533244
 20
11.88868481212736
 30
0.0
 11
17.10811597533244
 21
11.88474780425335
 31
0.0
  0
LINE
  5
335B
330
1E
100
AcDbEntity
  8
7
100
AcDbLine
 10
17.10811597533244
 20
14.63540397223235
 30
0.0
 11
17.10811597533244
 21
14.63146696435833
 31
0.0
  0
LINE
  5
335C
330
1E
100
AcDbEntity
  8
7
100
AcDbLine
 10
17.10811597533244
 20
14.63146696435833
 30
0.0
 11
17.10811597533244
 21
14.61965594073629
 31
0.0
  0
LINE
  5
335D
330
1E
100
AcDbEntity
  8
7
100
AcDbLine
 10
17.10811597533244
 20
14.61965594073629
 30
0.0
 11
17.10811597533244
 21
14.60522024519823
 31
0.0
  0
LINE
  5
335E
330
1E
100
AcDbEntity
  8
7
100
AcDbLine
 10
16.75640993858704
 20
11.92805489086752
 30
0.0
 11
16.69210547664478
 21
12.12621762052631
 31
0.0
  0
LINE
  5
335F
330
1E
100
AcDbEntity
  8
7
100
AcDbLine
 10
16.69210547664478
 20
12.12621762052631
 30
0.0
 11
16.63829970236657
 21
12.32831735805912
 31
0.0
  0
LINE
  5
3360
330
1E
100
AcDbEntity
  8
7
100
AcDbLine
 10
16.63829970236657
 20
12.32831735805912
 30
0.0
 11
16.59499261575239
 21
12.53304176750794
 31
0.0
  0
LINE
  5
3361
330
1E
100
AcDbEntity
  8
7
100
AcDbLine
 10
16.59499261575239
 20
12.53304176750794
 30
0.0
 11
16.56218421680226
 21
12.73907851291476
 31
0.0
  0
LINE
  5
3362
330
1E
100
AcDbEntity
  8
7
100
AcDbLine
 10
16.56218421680226
 20
12.73907851291476
 30
0.0
 11
16.53987450551617
 21
12.94642759427959
 31
0.0
  0
LINE
  5
3363
330
1E
100
AcDbEntity
  8
7
100
AcDbLine
 10
16.53987450551617
 20
12.94642759427959
 30
0.0
 11
16.52937581785213
 21
13.15508901160243
 31
0.0
  0
LINE
  5
3364
330
1E
100
AcDbEntity
  8
7
100
AcDbLine
 10
16.52937581785213
 20
13.15508901160243
 30
0.0
 11
16.52937581785213
 21
13.36375042892526
 31
0.0
  0
LINE
  5
3365
330
1E
100
AcDbEntity
  8
7
100
AcDbLine
 10
16.52937581785213
 20
13.36375042892526
 30
0.0
 11
16.53987450551617
 21
13.5724118462481
 31
0.0
  0
LINE
  5
3366
330
1E
100
AcDbEntity
  8
7
100
AcDbLine
 10
16.53987450551617
 20
13.5724118462481
 30
0.0
 11
16.56218421680226
 21
13.78107326357093
 31
0.0
  0
LINE
  5
3367
330
1E
100
AcDbEntity
  8
7
100
AcDbLine
 10
16.56218421680226
 20
13.78107326357093
 30
0.0
 11
16.59499261575239
 21
13.98711000897776
 31
0.0
  0
LINE
  5
3368
330
1E
100
AcDbEntity
  8
7
100
AcDbLine
 10
16.59499261575239
 20
13.98711000897776
 30
0.0
 11
16.63829970236657
 21
14.19183441842657
 31
0.0
  0
LINE
  5
3369
330
1E
100
AcDbEntity
  8
7
100
AcDbLine
 10
16.63829970236657
 20
14.19183441842657
 30
0.0
 11
16.69210547664478
 21
14.39393415595938
 31
0.0
  0
LINE
  5
336A
330
1E
100
AcDbEntity
  8
7
100
AcDbLine
 10
16.69210547664478
 20
14.39393415595938
 30
0.0
 11
16.75640993858704
 21
14.59209688561817
 31
0.0
  0
LINE
  5
336B
330
1E
100
AcDbEntity
  8
7
100
AcDbLine
 10
14.56349655276027
 20
12.19577142630059
 30
0.0
 11
14.57268290446631
 21
12.1970837622586
 31
0.0
  0
LINE
  5
336C
330
1E
100
AcDbEntity
  8
7
100
AcDbLine
 10
14.57268290446631
 20
12.1970837622586
 30
0.0
 11
14.58055692021434
 21
12.19970843417461
 31
0.0
  0
LINE
  5
336D
330
1E
100
AcDbEntity
  8
7
100
AcDbLine
 10
14.59892962362641
 20
12.24564019270479
 30
0.0
 11
14.58580626404636
 21
12.26532523207487
 31
0.0
  0
LINE
  5
336E
330
1E
100
AcDbEntity
  8
7
100
AcDbLine
 10
14.58580626404636
 20
12.26532523207487
 30
0.0
 11
14.56349655276027
 21
12.27188691186489
 31
0.0
  0
LINE
  5
336F
330
1E
100
AcDbEntity
  8
7
100
AcDbLine
 10
14.68948080472877
 20
12.15902601947644
 30
0.0
 11
14.71572752388888
 21
12.15902601947644
 31
0.0
  0
LINE
  5
3370
330
1E
100
AcDbEntity
  8
7
100
AcDbLine
 10
14.71572752388888
 20
12.15902601947644
 30
0.0
 11
14.71572752388888
 21
12.2469525286628
 31
0.0
  0
LINE
  5
3371
330
1E
100
AcDbEntity
  8
7
100
AcDbLine
 10
14.71572752388888
 20
12.2469525286628
 30
0.0
 11
14.69341781260279
 21
12.2469525286628
 31
0.0
  0
LINE
  5
3372
330
1E
100
AcDbEntity
  8
7
100
AcDbLine
 10
14.69341781260279
 20
12.2469525286628
 30
0.0
 11
14.69341781260279
 21
12.21414412971266
 31
0.0
  0
LINE
  5
3373
330
1E
100
AcDbEntity
  8
7
100
AcDbLine
 10
14.69341781260279
 20
12.21414412971266
 30
0.0
 11
14.67766978110673
 21
12.2469525286628
 31
0.0
  0
LINE
  5
3374
330
1E
100
AcDbEntity
  8
7
100
AcDbLine
 10
14.67766978110673
 20
12.2469525286628
 30
0.0
 11
14.64879839003061
 21
12.2469525286628
 31
0.0
  0
LINE
  5
3375
330
1E
100
AcDbEntity
  8
7
100
AcDbLine
 10
14.64879839003061
 20
12.2469525286628
 30
0.0
 11
14.64879839003061
 21
12.19052208246857
 31
0.0
  0
LINE
  5
3376
330
1E
100
AcDbEntity
  8
7
100
AcDbLine
 10
14.55168552913822
 20
12.2482648646208
 30
0.0
 11
14.55037319318021
 21
12.25220187249481
 31
0.0
  0
LINE
  5
3377
330
1E
100
AcDbEntity
  8
7
100
AcDbLine
 10
14.55037319318021
 20
12.25220187249481
 30
0.0
 11
14.5464361853062
 21
12.25351420845282
 31
0.0
  0
LINE
  5
3378
330
1E
100
AcDbEntity
  8
7
100
AcDbLine
 10
14.88239419055554
 20
12.2469525286628
 30
0.0
 11
14.88239419055554
 21
12.15902601947644
 31
0.0
  0
LINE
  5
3379
330
1E
100
AcDbEntity
  8
7
100
AcDbLine
 10
14.88239419055554
 20
12.15902601947644
 30
0.0
 11
14.90601623779964
 21
12.15902601947644
 31
0.0
  0
LINE
  5
337A
330
1E
100
AcDbEntity
  8
7
100
AcDbLine
 10
14.83515009606735
 20
12.18396040267854
 30
0.0
 11
14.83515009606735
 21
12.2469525286628
 31
0.0
  0
LINE
  5
337B
330
1E
100
AcDbEntity
  8
7
100
AcDbLine
 10
14.83515009606735
 20
12.2469525286628
 30
0.0
 11
14.80627870499124
 21
12.2469525286628
 31
0.0
  0
LINE
  5
337C
330
1E
100
AcDbEntity
  8
7
100
AcDbLine
 10
14.83515009606735
 20
12.18396040267854
 30
0.0
 11
14.83646243202536
 21
12.18133573076253
 31
0.0
  0
LINE
  5
337D
330
1E
100
AcDbEntity
  8
7
100
AcDbLine
 10
14.83646243202536
 20
12.18133573076253
 30
0.0
 11
14.83908710394137
 21
12.18002339480453
 31
0.0
  0
LINE
  5
337E
330
1E
100
AcDbEntity
  8
7
100
AcDbLine
 10
14.8456487837314
 20
12.18002339480453
 30
0.0
 11
14.84827345564741
 21
12.18133573076253
 31
0.0
  0
LINE
  5
337F
330
1E
100
AcDbEntity
  8
7
100
AcDbLine
 10
14.84827345564741
 20
12.18133573076253
 30
0.0
 11
14.84958579160541
 21
12.18396040267854
 31
0.0
  0
LINE
  5
3380
330
1E
100
AcDbEntity
  8
7
100
AcDbLine
 10
14.86795849501748
 20
12.17477405097251
 30
0.0
 11
14.86795849501748
 21
12.2469525286628
 31
0.0
  0
LINE
  5
3381
330
1E
100
AcDbEntity
  8
7
100
AcDbLine
 10
14.86795849501748
 20
12.2469525286628
 30
0.0
 11
14.85089812756342
 21
12.2469525286628
 31
0.0
  0
LINE
  5
3382
330
1E
100
AcDbEntity
  8
7
100
AcDbLine
 10
14.85089812756342
 20
12.2469525286628
 30
0.0
 11
14.85089812756342
 21
12.18396040267854
 31
0.0
  0
LINE
  5
3383
330
1E
100
AcDbEntity
  8
7
100
AcDbLine
 10
14.85352279947943
 20
12.16033835543445
 30
0.0
 11
14.86402148714347
 21
12.16427536330846
 31
0.0
  0
LINE
  5
3384
330
1E
100
AcDbEntity
  8
7
100
AcDbLine
 10
14.86402148714347
 20
12.16427536330846
 30
0.0
 11
14.86795849501748
 21
12.17477405097251
 31
0.0
  0
LINE
  5
3385
330
1E
100
AcDbEntity
  8
7
100
AcDbLine
 10
14.80759104094924
 20
12.17477405097251
 30
0.0
 11
14.81152804882326
 21
12.16427536330846
 31
0.0
  0
LINE
  5
3386
330
1E
100
AcDbEntity
  8
7
100
AcDbLine
 10
14.81152804882326
 20
12.16427536330846
 30
0.0
 11
14.8220267364873
 21
12.16033835543445
 31
0.0
  0
LINE
  5
3387
330
1E
100
AcDbEntity
  8
7
100
AcDbLine
 10
14.96507135590987
 20
12.22857982525072
 30
0.0
 11
14.98475639527995
 21
12.22857982525072
 31
0.0
  0
LINE
  5
3388
330
1E
100
AcDbEntity
  8
7
100
AcDbLine
 10
14.98475639527995
 20
12.22857982525072
 30
0.0
 11
14.98475639527995
 21
12.2469525286628
 31
0.0
  0
LINE
  5
3389
330
1E
100
AcDbEntity
  8
7
100
AcDbLine
 10
14.98475639527995
 20
12.2469525286628
 30
0.0
 11
14.9204519333377
 21
12.2469525286628
 31
0.0
  0
LINE
  5
338A
330
1E
100
AcDbEntity
  8
7
100
AcDbLine
 10
14.93751230079176
 20
12.22857982525072
 30
0.0
 11
14.93751230079176
 21
12.15902601947644
 31
0.0
  0
LINE
  5
338B
330
1E
100
AcDbEntity
  8
7
100
AcDbLine
 10
14.93751230079176
 20
12.15902601947644
 30
0.0
 11
14.96507135590987
 21
12.15902601947644
 31
0.0
  0
LINE
  5
338C
330
1E
100
AcDbEntity
  8
7
100
AcDbLine
 10
14.79184300945318
 20
12.23120449716673
 30
0.0
 11
14.78790600157917
 21
12.24170318483077
 31
0.0
  0
LINE
  5
338D
330
1E
100
AcDbEntity
  8
7
100
AcDbLine
 10
14.78790600157917
 20
12.24170318483077
 30
0.0
 11
14.77740731391512
 21
12.24564019270479
 31
0.0
  0
LINE
  5
338E
330
1E
100
AcDbEntity
  8
7
100
AcDbLine
 10
14.77740731391512
 20
12.16033835543445
 30
0.0
 11
14.78790600157917
 21
12.16427536330846
 31
0.0
  0
LINE
  5
338F
330
1E
100
AcDbEntity
  8
7
100
AcDbLine
 10
14.78790600157917
 20
12.16427536330846
 30
0.0
 11
14.79184300945318
 21
12.17477405097251
 31
0.0
  0
LINE
  5
3390
330
1E
100
AcDbEntity
  8
7
100
AcDbLine
 10
14.72885088346893
 20
12.2469525286628
 30
0.0
 11
14.72885088346893
 21
12.15902601947644
 31
0.0
  0
LINE
  5
3391
330
1E
100
AcDbEntity
  8
7
100
AcDbLine
 10
14.72885088346893
 20
12.15902601947644
 30
0.0
 11
14.77740731391512
 21
12.15902601947644
 31
0.0
  0
LINE
  5
3392
330
1E
100
AcDbEntity
  8
7
100
AcDbLine
 10
14.76297161837707
 20
12.18002339480453
 30
0.0
 11
14.76559629029308
 21
12.18133573076253
 31
0.0
  0
LINE
  5
3393
330
1E
100
AcDbEntity
  8
7
100
AcDbLine
 10
14.76559629029308
 20
12.18133573076253
 30
0.0
 11
14.76690862625108
 21
12.18396040267854
 31
0.0
  0
LINE
  5
3394
330
1E
100
AcDbEntity
  8
7
100
AcDbLine
 10
14.76690862625108
 20
12.2233304814187
 30
0.0
 11
14.76559629029308
 21
12.22595515333471
 31
0.0
  0
LINE
  5
3395
330
1E
100
AcDbEntity
  8
7
100
AcDbLine
 10
14.76559629029308
 20
12.22595515333471
 30
0.0
 11
14.76297161837707
 21
12.22726748929272
 31
0.0
  0
LINE
  5
3396
330
1E
100
AcDbEntity
  8
7
100
AcDbLine
 10
14.49394274698599
 20
13.31125699060505
 30
0.0
 11
14.52806348189413
 21
13.30731998273104
 31
0.0
  0
LINE
  5
3397
330
1E
100
AcDbEntity
  8
7
100
AcDbLine
 10
14.52806348189413
 20
13.30731998273104
 30
0.0
 11
14.55693487297024
 21
13.29550895910899
 31
0.0
  0
LINE
  5
3398
330
1E
100
AcDbEntity
  8
7
100
AcDbLine
 10
14.55693487297024
 20
13.29550895910899
 30
0.0
 11
14.57661991234032
 21
13.27976092761293
 31
0.0
  0
LINE
  5
3399
330
1E
100
AcDbEntity
  8
7
100
AcDbLine
 10
14.57661991234032
 20
13.27976092761293
 30
0.0
 11
14.58449392808835
 21
13.26007588824285
 31
0.0
  0
LINE
  5
339A
330
1E
100
AcDbEntity
  8
7
100
AcDbLine
 10
14.49394274698599
 20
13.20889478588064
 30
0.0
 11
14.52806348189413
 21
13.21283179375466
 31
0.0
  0
LINE
  5
339B
330
1E
100
AcDbEntity
  8
7
100
AcDbLine
 10
14.52806348189413
 20
13.21283179375466
 30
0.0
 11
14.55693487297024
 21
13.2233304814187
 31
0.0
  0
LINE
  5
339C
330
1E
100
AcDbEntity
  8
7
100
AcDbLine
 10
14.55693487297024
 20
13.2233304814187
 30
0.0
 11
14.57661991234032
 21
13.24039084887277
 31
0.0
  0
LINE
  5
339D
330
1E
100
AcDbEntity
  8
7
100
AcDbLine
 10
14.57661991234032
 20
13.24039084887277
 30
0.0
 11
14.58449392808835
 21
13.26007588824285
 31
0.0
  0
LINE
  5
339E
330
1E
100
AcDbEntity
  8
7
100
AcDbLine
 10
11.75509760262903
 20
13.26007588824285
 30
0.0
 11
11.76297161837707
 21
13.27976092761293
 31
0.0
  0
LINE
  5
339F
330
1E
100
AcDbEntity
  8
7
100
AcDbLine
 10
11.76297161837707
 20
13.27976092761293
 30
0.0
 11
11.78265665774715
 21
13.29550895910899
 31
0.0
  0
LINE
  5
33A0
330
1E
100
AcDbEntity
  8
7
100
AcDbLine
 10
11.78265665774715
 20
13.29550895910899
 30
0.0
 11
11.81152804882326
 21
13.30731998273104
 31
0.0
  0
LINE
  5
33A1
330
1E
100
AcDbEntity
  8
7
100
AcDbLine
 10
11.81152804882326
 20
13.30731998273104
 30
0.0
 11
11.84433644777339
 21
13.31125699060505
 31
0.0
  0
LINE
  5
33A2
330
1E
100
AcDbEntity
  8
7
100
AcDbLine
 10
11.75509760262903
 20
13.26007588824285
 30
0.0
 11
11.76297161837707
 21
13.24039084887277
 31
0.0
  0
LINE
  5
33A3
330
1E
100
AcDbEntity
  8
7
100
AcDbLine
 10
11.76297161837707
 20
13.24039084887277
 30
0.0
 11
11.78265665774715
 21
13.2233304814187
 31
0.0
  0
LINE
  5
33A4
330
1E
100
AcDbEntity
  8
7
100
AcDbLine
 10
11.78265665774715
 20
13.2233304814187
 30
0.0
 11
11.81152804882326
 21
13.21283179375466
 31
0.0
  0
LINE
  5
33A5
330
1E
100
AcDbEntity
  8
7
100
AcDbLine
 10
11.81152804882326
 20
13.21283179375466
 30
0.0
 11
11.84433644777339
 21
13.20889478588064
 31
0.0
  0
LINE
  5
33A6
330
1E
100
AcDbEntity
  8
7
100
AcDbLine
 10
14.49394274698599
 20
13.20889478588064
 30
0.0
 11
14.49394274698599
 21
13.24170318483077
 31
0.0
  0
LINE
  5
33A7
330
1E
100
AcDbEntity
  8
7
100
AcDbLine
 10
14.49394274698599
 20
13.24170318483077
 30
0.0
 11
14.49394274698599
 21
13.27844859165492
 31
0.0
  0
LINE
  5
33A8
330
1E
100
AcDbEntity
  8
7
100
AcDbLine
 10
14.49394274698599
 20
13.27844859165492
 30
0.0
 11
14.49394274698599
 21
13.31125699060505
 31
0.0
  0
LINE
  5
33A9
330
1E
100
AcDbEntity
  8
7
100
AcDbLine
 10
11.84433644777339
 20
13.31125699060505
 30
0.0
 11
11.84433644777339
 21
13.27844859165492
 31
0.0
  0
LINE
  5
33AA
330
1E
100
AcDbEntity
  8
7
100
AcDbLine
 10
11.84433644777339
 20
13.27844859165492
 30
0.0
 11
11.84433644777339
 21
13.24170318483077
 31
0.0
  0
LINE
  5
33AB
330
1E
100
AcDbEntity
  8
7
100
AcDbLine
 10
11.84433644777339
 20
13.24170318483077
 30
0.0
 11
11.84433644777339
 21
13.20889478588064
 31
0.0
  0
LINE
  5
33AC
330
1E
100
AcDbEntity
  8
7
100
AcDbLine
 10
10.9716330356999
 20
14.61178192498825
 30
0.0
 11
10.9716330356999
 21
14.60653258115623
 31
0.0
  0
LINE
  5
33AD
330
1E
100
AcDbEntity
  8
7
100
AcDbLine
 10
10.9716330356999
 20
14.60653258115623
 30
0.0
 11
10.9716330356999
 21
14.59209688561817
 31
0.0
  0
LINE
  5
33AE
330
1E
100
AcDbEntity
  8
7
100
AcDbLine
 10
15.36664615905948
 20
14.59209688561817
 30
0.0
 11
15.36664615905948
 21
14.60653258115623
 31
0.0
  0
LINE
  5
33AF
330
1E
100
AcDbEntity
  8
7
100
AcDbLine
 10
15.36664615905948
 20
14.60653258115623
 30
0.0
 11
15.36664615905948
 21
14.61178192498825
 31
0.0
  0
LINE
  5
33B0
330
1E
100
AcDbEntity
  8
7
100
AcDbLine
 10
10.94276164462379
 20
14.58159819795413
 30
0.0
 11
10.95194799632982
 21
14.58947221370216
 31
0.0
  0
LINE
  5
33B1
330
1E
100
AcDbEntity
  8
7
100
AcDbLine
 10
10.95194799632982
 20
14.58947221370216
 30
0.0
 11
10.9716330356999
 21
14.59209688561817
 31
0.0
  0
LINE
  5
33B2
330
1E
100
AcDbEntity
  8
7
100
AcDbLine
 10
15.36664615905948
 20
14.59209688561817
 30
0.0
 11
15.38764353438756
 21
14.58947221370216
 31
0.0
  0
LINE
  5
33B3
330
1E
100
AcDbEntity
  8
7
100
AcDbLine
 10
15.38764353438756
 20
14.58947221370216
 30
0.0
 11
15.3968298860936
 21
14.58159819795413
 31
0.0
  0
LINE
  5
33B4
330
1E
100
AcDbEntity
  8
7
100
AcDbLine
 10
10.94276164462379
 20
11.93724124257355
 30
0.0
 11
10.95194799632982
 21
11.93067956278353
 31
0.0
  0
LINE
  5
33B5
330
1E
100
AcDbEntity
  8
7
100
AcDbLine
 10
10.95194799632982
 20
11.93067956278353
 30
0.0
 11
10.9716330356999
 21
11.92805489086752
 31
0.0
  0
LINE
  5
33B6
330
1E
100
AcDbEntity
  8
7
100
AcDbLine
 10
15.36664615905948
 20
11.92805489086752
 30
0.0
 11
15.38764353438756
 21
11.93067956278353
 31
0.0
  0
LINE
  5
33B7
330
1E
100
AcDbEntity
  8
7
100
AcDbLine
 10
15.38764353438756
 20
11.93067956278353
 30
0.0
 11
15.3968298860936
 21
11.93724124257355
 31
0.0
  0
LINE
  5
33B8
330
1E
100
AcDbEntity
  8
7
100
AcDbLine
 10
15.36664615905948
 20
11.92805489086752
 30
0.0
 11
15.36664615905948
 21
11.91361919532946
 31
0.0
  0
LINE
  5
33B9
330
1E
100
AcDbEntity
  8
7
100
AcDbLine
 10
15.36664615905948
 20
11.91361919532946
 30
0.0
 11
15.36664615905948
 21
11.90705751553943
 31
0.0
  0
LINE
  5
33BA
330
1E
100
AcDbEntity
  8
7
100
AcDbLine
 10
10.9716330356999
 20
11.90705751553943
 30
0.0
 11
10.9716330356999
 21
11.91361919532946
 31
0.0
  0
LINE
  5
33BB
330
1E
100
AcDbEntity
  8
7
100
AcDbLine
 10
10.9716330356999
 20
11.91361919532946
 30
0.0
 11
10.9716330356999
 21
11.92805489086752
 31
0.0
  0
LINE
  5
33BC
330
1E
100
AcDbEntity
  8
7
100
AcDbLine
 10
10.9716330356999
 20
11.90705751553943
 30
0.0
 11
10.95063566037182
 21
11.91624386724547
 31
0.0
  0
LINE
  5
33BD
330
1E
100
AcDbEntity
  8
7
100
AcDbLine
 10
10.95063566037182
 20
11.91624386724547
 30
0.0
 11
10.94276164462379
 21
11.93724124257355
 31
0.0
  0
LINE
  5
33BE
330
1E
100
AcDbEntity
  8
7
100
AcDbLine
 10
15.3968298860936
 20
11.93724124257355
 30
0.0
 11
15.38764353438756
 21
11.91624386724547
 31
0.0
  0
LINE
  5
33BF
330
1E
100
AcDbEntity
  8
7
100
AcDbLine
 10
15.38764353438756
 20
11.91624386724547
 30
0.0
 11
15.36664615905948
 21
11.90705751553943
 31
0.0
  0
LINE
  5
33C0
330
1E
100
AcDbEntity
  8
7
100
AcDbLine
 10
15.36664615905948
 20
14.61178192498825
 30
0.0
 11
15.38764353438756
 21
14.60390790924022
 31
0.0
  0
LINE
  5
33C1
330
1E
100
AcDbEntity
  8
7
100
AcDbLine
 10
15.38764353438756
 20
14.60390790924022
 30
0.0
 11
15.3968298860936
 21
14.58159819795413
 31
0.0
  0
LINE
  5
33C2
330
1E
100
AcDbEntity
  8
7
100
AcDbLine
 10
10.94276164462379
 20
14.58159819795413
 30
0.0
 11
10.95063566037182
 21
14.60390790924022
 31
0.0
  0
LINE
  5
33C3
330
1E
100
AcDbEntity
  8
7
100
AcDbLine
 10
10.95063566037182
 20
14.60390790924022
 30
0.0
 11
10.9716330356999
 21
14.61178192498825
 31
0.0
  0
LINE
  5
33C4
330
1E
100
AcDbEntity
  8
7
100
AcDbLine
 10
14.15667240577864
 20
13.51598140005387
 30
0.0
 11
14.14354904619859
 21
13.53041709559193
 31
0.0
  0
LINE
  5
33C5
330
1E
100
AcDbEntity
  8
7
100
AcDbLine
 10
14.14354904619859
 20
13.53041709559193
 30
0.0
 11
14.12255167087051
 21
13.53697877538196
 31
0.0
  0
LINE
  5
33C6
330
1E
100
AcDbEntity
  8
7
100
AcDbLine
 10
14.12255167087051
 20
13.53697877538196
 30
0.0
 11
14.10155429554242
 21
13.53041709559193
 31
0.0
  0
LINE
  5
33C7
330
1E
100
AcDbEntity
  8
7
100
AcDbLine
 10
14.10155429554242
 20
13.53041709559193
 30
0.0
 11
14.08843093596237
 21
13.51598140005387
 31
0.0
  0
LINE
  5
33C8
330
1E
100
AcDbEntity
  8
7
100
AcDbLine
 10
13.5215018021041
 20
13.51598140005387
 30
0.0
 11
13.50837844252405
 21
13.53041709559193
 31
0.0
  0
LINE
  5
33C9
330
1E
100
AcDbEntity
  8
7
100
AcDbLine
 10
13.50837844252405
 20
13.53041709559193
 30
0.0
 11
13.48738106719596
 21
13.53697877538196
 31
0.0
  0
LINE
  5
33CA
330
1E
100
AcDbEntity
  8
7
100
AcDbLine
 10
13.48738106719596
 20
13.53697877538196
 30
0.0
 11
13.46638369186788
 21
13.53041709559193
 31
0.0
  0
LINE
  5
33CB
330
1E
100
AcDbEntity
  8
7
100
AcDbLine
 10
13.46638369186788
 20
13.53041709559193
 30
0.0
 11
13.45326033228783
 21
13.51598140005387
 31
0.0
  0
LINE
  5
33CC
330
1E
100
AcDbEntity
  8
7
100
AcDbLine
 10
12.88633119842956
 20
13.51598140005387
 30
0.0
 11
12.87320783884951
 21
13.53041709559193
 31
0.0
  0
LINE
  5
33CD
330
1E
100
AcDbEntity
  8
7
100
AcDbLine
 10
12.87320783884951
 20
13.53041709559193
 30
0.0
 11
12.85221046352142
 21
13.53697877538196
 31
0.0
  0
LINE
  5
33CE
330
1E
100
AcDbEntity
  8
7
100
AcDbLine
 10
12.85221046352142
 20
13.53697877538196
 30
0.0
 11
12.83121308819334
 21
13.53041709559193
 31
0.0
  0
LINE
  5
33CF
330
1E
100
AcDbEntity
  8
7
100
AcDbLine
 10
12.83121308819334
 20
13.53041709559193
 30
0.0
 11
12.81808972861329
 21
13.51598140005387
 31
0.0
  0
LINE
  5
33D0
330
1E
100
AcDbEntity
  8
7
100
AcDbLine
 10
12.25116059475502
 20
13.51598140005387
 30
0.0
 11
12.23803723517496
 21
13.53041709559193
 31
0.0
  0
LINE
  5
33D1
330
1E
100
AcDbEntity
  8
7
100
AcDbLine
 10
12.23803723517496
 20
13.53041709559193
 30
0.0
 11
12.21703985984688
 21
13.53697877538196
 31
0.0
  0
LINE
  5
33D2
330
1E
100
AcDbEntity
  8
7
100
AcDbLine
 10
12.21703985984688
 20
13.53697877538196
 30
0.0
 11
12.1960424845188
 21
13.53041709559193
 31
0.0
  0
LINE
  5
33D3
330
1E
100
AcDbEntity
  8
7
100
AcDbLine
 10
12.1960424845188
 20
13.53041709559193
 30
0.0
 11
12.18291912493874
 21
13.51598140005387
 31
0.0
  0
LINE
  5
33D4
330
1E
100
AcDbEntity
  8
7
100
AcDbLine
 10
14.01494012231407
 20
12.80994465464705
 30
0.0
 11
14.01494012231407
 21
12.81913100635308
 31
0.0
  0
LINE
  5
33D5
330
1E
100
AcDbEntity
  8
7
100
AcDbLine
 10
14.01494012231407
 20
12.81913100635308
 30
0.0
 11
14.01494012231407
 21
12.82962969401713
 31
0.0
  0
LINE
  5
33D6
330
1E
100
AcDbEntity
  8
7
100
AcDbLine
 10
14.22885088346893
 20
12.82962969401713
 30
0.0
 11
14.22885088346893
 21
12.81913100635308
 31
0.0
  0
LINE
  5
33D7
330
1E
100
AcDbEntity
  8
7
100
AcDbLine
 10
14.22885088346893
 20
12.81913100635308
 30
0.0
 11
14.23016321942694
 21
12.80994465464705
 31
0.0
  0
LINE
  5
33D8
330
1E
100
AcDbEntity
  8
7
100
AcDbLine
 10
14.23016321942694
 20
12.84406538955518
 30
0.0
 11
14.01362778635607
 21
12.84406538955518
 31
0.0
  0
LINE
  5
33D9
330
1E
100
AcDbEntity
  8
7
100
AcDbLine
 10
14.01362778635607
 20
12.84406538955518
 30
0.0
 11
14.01494012231407
 21
12.82962969401713
 31
0.0
  0
LINE
  5
33DA
330
1E
100
AcDbEntity
  8
7
100
AcDbLine
 10
14.01494012231407
 20
12.82962969401713
 30
0.0
 11
14.22885088346893
 21
12.82962969401713
 31
0.0
  0
LINE
  5
33DB
330
1E
100
AcDbEntity
  8
7
100
AcDbLine
 10
14.01362778635607
 20
12.84406538955518
 30
0.0
 11
14.01362778635607
 21
12.85587641317723
 31
0.0
  0
LINE
  5
33DC
330
1E
100
AcDbEntity
  8
7
100
AcDbLine
 10
14.01362778635607
 20
12.85587641317723
 30
0.0
 11
14.01231545039807
 21
12.86375042892526
 31
0.0
  0
LINE
  5
33DD
330
1E
100
AcDbEntity
  8
7
100
AcDbLine
 10
14.23016321942694
 20
12.84406538955518
 30
0.0
 11
14.23016321942694
 21
12.85587641317723
 31
0.0
  0
LINE
  5
33DE
330
1E
100
AcDbEntity
  8
7
100
AcDbLine
 10
14.23016321942694
 20
12.85587641317723
 30
0.0
 11
14.23147555538494
 21
12.86375042892526
 31
0.0
  0
LINE
  5
33DF
330
1E
100
AcDbEntity
  8
7
100
AcDbLine
 10
14.23147555538494
 20
12.86375042892526
 30
0.0
 11
14.01231545039807
 21
12.86375042892526
 31
0.0
  0
LINE
  5
33E0
330
1E
100
AcDbEntity
  8
7
100
AcDbLine
 10
14.23147555538494
 20
12.86768743679928
 30
0.0
 11
14.01231545039807
 21
12.86768743679928
 31
0.0
  0
LINE
  5
33E1
330
1E
100
AcDbEntity
  8
7
100
AcDbLine
 10
14.01231545039807
 20
12.86768743679928
 30
0.0
 11
14.01231545039807
 21
12.86506276488327
 31
0.0
  0
LINE
  5
33E2
330
1E
100
AcDbEntity
  8
7
100
AcDbLine
 10
14.01231545039807
 20
12.86506276488327
 30
0.0
 11
14.23147555538494
 21
12.86506276488327
 31
0.0
  0
LINE
  5
33E3
330
1E
100
AcDbEntity
  8
7
100
AcDbLine
 10
14.23016321942694
 20
12.89524649191739
 30
0.0
 11
14.01494012231407
 21
12.89524649191739
 31
0.0
  0
LINE
  5
33E4
330
1E
100
AcDbEntity
  8
7
100
AcDbLine
 10
14.01494012231407
 20
12.89524649191739
 30
0.0
 11
14.01231545039807
 21
12.8742491165893
 31
0.0
  0
LINE
  5
33E5
330
1E
100
AcDbEntity
  8
7
100
AcDbLine
 10
14.01231545039807
 20
12.8742491165893
 30
0.0
 11
14.23147555538494
 21
12.8742491165893
 31
0.0
  0
LINE
  5
33E6
330
1E
100
AcDbEntity
  8
7
100
AcDbLine
 10
13.37976951863953
 20
12.80994465464705
 30
0.0
 11
13.37976951863953
 21
12.81913100635308
 31
0.0
  0
LINE
  5
33E7
330
1E
100
AcDbEntity
  8
7
100
AcDbLine
 10
13.37976951863953
 20
12.81913100635308
 30
0.0
 11
13.37976951863953
 21
12.82962969401713
 31
0.0
  0
LINE
  5
33E8
330
1E
100
AcDbEntity
  8
7
100
AcDbLine
 10
13.5949926157524
 20
12.84406538955518
 30
0.0
 11
13.37976951863953
 21
12.84406538955518
 31
0.0
  0
LINE
  5
33E9
330
1E
100
AcDbEntity
  8
7
100
AcDbLine
 10
13.37976951863953
 20
12.84406538955518
 30
0.0
 11
13.37976951863953
 21
12.82962969401713
 31
0.0
  0
LINE
  5
33EA
330
1E
100
AcDbEntity
  8
7
100
AcDbLine
 10
13.37976951863953
 20
12.82962969401713
 30
0.0
 11
13.59368027979439
 21
12.82962969401713
 31
0.0
  0
LINE
  5
33EB
330
1E
100
AcDbEntity
  8
7
100
AcDbLine
 10
13.5949926157524
 20
12.84406538955518
 30
0.0
 11
13.5949926157524
 21
12.85587641317723
 31
0.0
  0
LINE
  5
33EC
330
1E
100
AcDbEntity
  8
7
100
AcDbLine
 10
13.5949926157524
 20
12.85587641317723
 30
0.0
 11
13.5963049517104
 21
12.86375042892526
 31
0.0
  0
LINE
  5
33ED
330
1E
100
AcDbEntity
  8
7
100
AcDbLine
 10
13.5963049517104
 20
12.86375042892526
 30
0.0
 11
13.37714484672352
 21
12.86375042892526
 31
0.0
  0
LINE
  5
33EE
330
1E
100
AcDbEntity
  8
7
100
AcDbLine
 10
13.5963049517104
 20
12.86768743679928
 30
0.0
 11
13.37714484672352
 21
12.86768743679928
 31
0.0
  0
LINE
  5
33EF
330
1E
100
AcDbEntity
  8
7
100
AcDbLine
 10
13.37714484672352
 20
12.86768743679928
 30
0.0
 11
13.37714484672352
 21
12.86506276488327
 31
0.0
  0
LINE
  5
33F0
330
1E
100
AcDbEntity
  8
7
100
AcDbLine
 10
13.37714484672352
 20
12.86506276488327
 30
0.0
 11
13.5963049517104
 21
12.86506276488327
 31
0.0
  0
LINE
  5
33F1
330
1E
100
AcDbEntity
  8
7
100
AcDbLine
 10
13.5949926157524
 20
12.89524649191739
 30
0.0
 11
13.37976951863953
 21
12.89524649191739
 31
0.0
  0
LINE
  5
33F2
330
1E
100
AcDbEntity
  8
7
100
AcDbLine
 10
13.37976951863953
 20
12.89524649191739
 30
0.0
 11
13.37714484672352
 21
12.8742491165893
 31
0.0
  0
LINE
  5
33F3
330
1E
100
AcDbEntity
  8
7
100
AcDbLine
 10
13.37714484672352
 20
12.8742491165893
 30
0.0
 11
13.5963049517104
 21
12.8742491165893
 31
0.0
  0
LINE
  5
33F4
330
1E
100
AcDbEntity
  8
7
100
AcDbLine
 10
12.74459891496499
 20
12.80994465464705
 30
0.0
 11
12.74459891496499
 21
12.81913100635308
 31
0.0
  0
LINE
  5
33F5
330
1E
100
AcDbEntity
  8
7
100
AcDbLine
 10
12.74459891496499
 20
12.81913100635308
 30
0.0
 11
12.74459891496499
 21
12.82962969401713
 31
0.0
  0
LINE
  5
33F6
330
1E
100
AcDbEntity
  8
7
100
AcDbLine
 10
12.95982201207785
 20
12.82962969401713
 30
0.0
 11
12.95982201207785
 21
12.81913100635308
 31
0.0
  0
LINE
  5
33F7
330
1E
100
AcDbEntity
  8
7
100
AcDbLine
 10
12.95982201207785
 20
12.81913100635308
 30
0.0
 11
12.95982201207785
 21
12.80994465464705
 31
0.0
  0
LINE
  5
33F8
330
1E
100
AcDbEntity
  8
7
100
AcDbLine
 10
12.95982201207785
 20
12.84406538955518
 30
0.0
 11
12.74459891496499
 21
12.84406538955518
 31
0.0
  0
LINE
  5
33F9
330
1E
100
AcDbEntity
  8
7
100
AcDbLine
 10
12.74459891496499
 20
12.84406538955518
 30
0.0
 11
12.74459891496499
 21
12.82962969401713
 31
0.0
  0
LINE
  5
33FA
330
1E
100
AcDbEntity
  8
7
100
AcDbLine
 10
12.74459891496499
 20
12.82962969401713
 30
0.0
 11
12.95982201207785
 21
12.82962969401713
 31
0.0
  0
LINE
  5
33FB
330
1E
100
AcDbEntity
  8
7
100
AcDbLine
 10
12.74459891496499
 20
12.84406538955518
 30
0.0
 11
12.74328657900699
 21
12.85587641317723
 31
0.0
  0
LINE
  5
33FC
330
1E
100
AcDbEntity
  8
7
100
AcDbLine
 10
12.74328657900699
 20
12.85587641317723
 30
0.0
 11
12.74328657900699
 21
12.86375042892526
 31
0.0
  0
LINE
  5
33FD
330
1E
100
AcDbEntity
  8
7
100
AcDbLine
 10
12.95982201207785
 20
12.84406538955518
 30
0.0
 11
12.96113434803586
 21
12.85587641317723
 31
0.0
  0
LINE
  5
33FE
330
1E
100
AcDbEntity
  8
7
100
AcDbLine
 10
12.96113434803586
 20
12.85587641317723
 30
0.0
 11
12.96113434803586
 21
12.86375042892526
 31
0.0
  0
LINE
  5
33FF
330
1E
100
AcDbEntity
  8
7
100
AcDbLine
 10
12.96113434803586
 20
12.86375042892526
 30
0.0
 11
12.74328657900699
 21
12.86375042892526
 31
0.0
  0
LINE
  5
3400
330
1E
100
AcDbEntity
  8
7
100
AcDbLine
 10
12.96113434803586
 20
12.86768743679928
 30
0.0
 11
12.74197424304898
 21
12.86768743679928
 31
0.0
  0
LINE
  5
3401
330
1E
100
AcDbEntity
  8
7
100
AcDbLine
 10
12.74197424304898
 20
12.86768743679928
 30
0.0
 11
12.74328657900699
 21
12.86506276488327
 31
0.0
  0
LINE
  5
3402
330
1E
100
AcDbEntity
  8
7
100
AcDbLine
 10
12.74328657900699
 20
12.86506276488327
 30
0.0
 11
12.96113434803586
 21
12.86506276488327
 31
0.0
  0
LINE
  5
3403
330
1E
100
AcDbEntity
  8
7
100
AcDbLine
 10
12.74459891496499
 20
12.89524649191739
 30
0.0
 11
12.74328657900699
 21
12.8742491165893
 31
0.0
  0
LINE
  5
3404
330
1E
100
AcDbEntity
  8
7
100
AcDbLine
 10
12.74328657900699
 20
12.8742491165893
 30
0.0
 11
12.96113434803586
 21
12.8742491165893
 31
0.0
  0
LINE
  5
3405
330
1E
100
AcDbEntity
  8
7
100
AcDbLine
 10
12.10942831129045
 20
12.80994465464705
 30
0.0
 11
12.10942831129045
 21
12.81913100635308
 31
0.0
  0
LINE
  5
3406
330
1E
100
AcDbEntity
  8
7
100
AcDbLine
 10
12.10942831129045
 20
12.81913100635308
 30
0.0
 11
12.10942831129045
 21
12.82962969401713
 31
0.0
  0
LINE
  5
3407
330
1E
100
AcDbEntity
  8
7
100
AcDbLine
 10
12.32465140840331
 20
12.82962969401713
 30
0.0
 11
12.32465140840331
 21
12.81913100635308
 31
0.0
  0
LINE
  5
3408
330
1E
100
AcDbEntity
  8
7
100
AcDbLine
 10
12.32465140840331
 20
12.81913100635308
 30
0.0
 11
12.32465140840331
 21
12.80994465464705
 31
0.0
  0
LINE
  5
3409
330
1E
100
AcDbEntity
  8
7
100
AcDbLine
 10
12.32465140840331
 20
12.84406538955518
 30
0.0
 11
12.10942831129045
 21
12.84406538955518
 31
0.0
  0
LINE
  5
340A
330
1E
100
AcDbEntity
  8
7
100
AcDbLine
 10
12.10942831129045
 20
12.84406538955518
 30
0.0
 11
12.10942831129045
 21
12.82962969401713
 31
0.0
  0
LINE
  5
340B
330
1E
100
AcDbEntity
  8
7
100
AcDbLine
 10
12.10942831129045
 20
12.82962969401713
 30
0.0
 11
12.32465140840331
 21
12.82962969401713
 31
0.0
  0
LINE
  5
340C
330
1E
100
AcDbEntity
  8
7
100
AcDbLine
 10
12.10942831129045
 20
12.84406538955518
 30
0.0
 11
12.10811597533245
 21
12.85587641317723
 31
0.0
  0
LINE
  5
340D
330
1E
100
AcDbEntity
  8
7
100
AcDbLine
 10
12.10811597533245
 20
12.85587641317723
 30
0.0
 11
12.10811597533245
 21
12.86375042892526
 31
0.0
  0
LINE
  5
340E
330
1E
100
AcDbEntity
  8
7
100
AcDbLine
 10
12.32465140840331
 20
12.84406538955518
 30
0.0
 11
12.32596374436132
 21
12.85587641317723
 31
0.0
  0
LINE
  5
340F
330
1E
100
AcDbEntity
  8
7
100
AcDbLine
 10
12.32596374436132
 20
12.85587641317723
 30
0.0
 11
12.32596374436132
 21
12.86375042892526
 31
0.0
  0
LINE
  5
3410
330
1E
100
AcDbEntity
  8
7
100
AcDbLine
 10
12.32596374436132
 20
12.86768743679928
 30
0.0
 11
12.10811597533245
 21
12.86768743679928
 31
0.0
  0
LINE
  5
3411
330
1E
100
AcDbEntity
  8
7
100
AcDbLine
 10
12.10811597533245
 20
12.86768743679928
 30
0.0
 11
12.10811597533245
 21
12.86506276488327
 31
0.0
  0
LINE
  5
3412
330
1E
100
AcDbEntity
  8
7
100
AcDbLine
 10
12.10811597533245
 20
12.86506276488327
 30
0.0
 11
12.32596374436132
 21
12.86506276488327
 31
0.0
  0
LINE
  5
3413
330
1E
100
AcDbEntity
  8
7
100
AcDbLine
 10
12.32465140840331
 20
12.89524649191739
 30
0.0
 11
12.10942831129045
 21
12.89524649191739
 31
0.0
  0
LINE
  5
3414
330
1E
100
AcDbEntity
  8
7
100
AcDbLine
 10
12.10942831129045
 20
12.89524649191739
 30
0.0
 11
12.10811597533245
 21
12.8742491165893
 31
0.0
  0
LINE
  5
3415
330
1E
100
AcDbEntity
  8
7
100
AcDbLine
 10
12.10811597533245
 20
12.8742491165893
 30
0.0
 11
12.32596374436132
 21
12.8742491165893
 31
0.0
  0
LINE
  5
3416
330
1E
100
AcDbEntity
  8
7
100
AcDbLine
 10
14.23016321942694
 20
12.80994465464705
 30
0.0
 11
14.01494012231407
 21
12.80994465464705
 31
0.0
  0
LINE
  5
3417
330
1E
100
AcDbEntity
  8
7
100
AcDbLine
 10
14.01494012231407
 20
12.80994465464705
 30
0.0
 11
13.996567418902
 21
12.56191315858405
 31
0.0
  0
LINE
  5
3418
330
1E
100
AcDbEntity
  8
7
100
AcDbLine
 10
13.5949926157524
 20
12.80994465464705
 30
0.0
 11
13.37976951863953
 21
12.80994465464705
 31
0.0
  0
LINE
  5
3419
330
1E
100
AcDbEntity
  8
7
100
AcDbLine
 10
13.37976951863953
 20
12.80994465464705
 30
0.0
 11
13.36270915118547
 21
12.56191315858405
 31
0.0
  0
LINE
  5
341A
330
1E
100
AcDbEntity
  8
7
100
AcDbLine
 10
12.95982201207785
 20
12.80994465464705
 30
0.0
 11
12.74459891496499
 21
12.80994465464705
 31
0.0
  0
LINE
  5
341B
330
1E
100
AcDbEntity
  8
7
100
AcDbLine
 10
12.74459891496499
 20
12.80994465464705
 30
0.0
 11
12.72753854751093
 21
12.56191315858405
 31
0.0
  0
LINE
  5
341C
330
1E
100
AcDbEntity
  8
7
100
AcDbLine
 10
11.73934957113297
 20
12.63409163627434
 30
0.0
 11
11.75509760262903
 21
13.26007588824285
 31
0.0
  0
LINE
  5
341D
330
1E
100
AcDbEntity
  8
7
100
AcDbLine
 10
11.75509760262903
 20
13.26007588824285
 30
0.0
 11
11.73934957113297
 21
13.88606014021135
 31
0.0
  0
LINE
  5
341E
330
1E
100
AcDbEntity
  8
7
100
AcDbLine
 10
14.49394274698599
 20
13.20889478588064
 30
0.0
 11
11.84433644777339
 21
13.20889478588064
 31
0.0
  0
LINE
  5
341F
330
1E
100
AcDbEntity
  8
7
100
AcDbLine
 10
11.84433644777339
 20
13.20889478588064
 30
0.0
 11
11.82727608031932
 21
12.48186066514573
 31
0.0
  0
LINE
  5
3420
330
1E
100
AcDbEntity
  8
7
100
AcDbLine
 10
13.38239419055554
 20
13.09209688561818
 30
0.0
 11
13.38108185459754
 21
13.12490528456831
 31
0.0
  0
LINE
  5
3421
330
1E
100
AcDbEntity
  8
7
100
AcDbLine
 10
13.38108185459754
 20
13.12490528456831
 30
0.0
 11
13.59236794383638
 21
13.12490528456831
 31
0.0
  0
LINE
  5
3422
330
1E
100
AcDbEntity
  8
7
100
AcDbLine
 10
12.74722358688101
 20
13.09209688561818
 30
0.0
 11
12.745911250923
 21
13.12490528456831
 31
0.0
  0
LINE
  5
3423
330
1E
100
AcDbEntity
  8
7
100
AcDbLine
 10
12.745911250923
 20
13.12490528456831
 30
0.0
 11
12.95850967611985
 21
13.12490528456831
 31
0.0
  0
LINE
  5
3424
330
1E
100
AcDbEntity
  8
7
100
AcDbLine
 10
12.95850967611985
 20
13.12490528456831
 30
0.0
 11
12.95719734016184
 21
13.09209688561818
 31
0.0
  0
LINE
  5
3425
330
1E
100
AcDbEntity
  8
7
100
AcDbLine
 10
12.11205298320646
 20
13.09209688561818
 30
0.0
 11
12.11074064724846
 21
13.12490528456831
 31
0.0
  0
LINE
  5
3426
330
1E
100
AcDbEntity
  8
7
100
AcDbLine
 10
12.11074064724846
 20
13.12490528456831
 30
0.0
 11
12.32333907244531
 21
13.12490528456831
 31
0.0
  0
LINE
  5
3427
330
1E
100
AcDbEntity
  8
7
100
AcDbLine
 10
12.32333907244531
 20
13.12490528456831
 30
0.0
 11
12.3220267364873
 21
13.09209688561818
 31
0.0
  0
LINE
  5
3428
330
1E
100
AcDbEntity
  8
7
100
AcDbLine
 10
14.01625245827208
 20
13.12490528456831
 30
0.0
 11
14.22753854751093
 21
13.12490528456831
 31
0.0
  0
LINE
  5
3429
330
1E
100
AcDbEntity
  8
7
100
AcDbLine
 10
14.22753854751093
 20
13.12490528456831
 30
0.0
 11
14.22622621155292
 21
13.09209688561818
 31
0.0
  0
LINE
  5
342A
330
1E
100
AcDbEntity
  8
7
100
AcDbLine
 10
14.87976951863953
 20
13.58028586199613
 30
0.0
 11
14.93226295695974
 21
13.58028586199613
 31
0.0
  0
LINE
  5
342B
330
1E
100
AcDbEntity
  8
7
100
AcDbLine
 10
14.93226295695974
 20
13.58028586199613
 30
0.0
 11
14.93226295695974
 21
13.58159819795413
 31
0.0
  0
LINE
  5
342C
330
1E
100
AcDbEntity
  8
7
100
AcDbLine
 10
14.87976951863953
 20
13.60522024519823
 30
0.0
 11
14.87976951863953
 21
13.58028586199613
 31
0.0
  0
LINE
  5
342D
330
1E
100
AcDbEntity
  8
7
100
AcDbLine
 10
14.87976951863953
 20
13.58028586199613
 30
0.0
 11
14.88108185459754
 21
13.58159819795413
 31
0.0
  0
LINE
  5
342E
330
1E
100
AcDbEntity
  8
7
100
AcDbLine
 10
14.87714484672352
 20
13.60522024519823
 30
0.0
 11
14.87976951863953
 21
13.60522024519823
 31
0.0
  0
LINE
  5
342F
330
1E
100
AcDbEntity
  8
7
100
AcDbLine
 10
14.87976951863953
 20
13.60522024519823
 30
0.0
 11
14.88108185459754
 21
13.60653258115623
 31
0.0
  0
LINE
  5
3430
330
1E
100
AcDbEntity
  8
7
100
AcDbLine
 10
11.58186925617234
 20
13.1472149958544
 30
0.0
 11
11.59892962362641
 21
13.17083704309849
 31
0.0
  0
LINE
  5
3431
330
1E
100
AcDbEntity
  8
7
100
AcDbLine
 10
11.59892962362641
 20
13.17083704309849
 30
0.0
 11
11.60417896745843
 21
13.1997084341746
 31
0.0
  0
LINE
  5
3432
330
1E
100
AcDbEntity
  8
7
100
AcDbLine
 10
11.45457266824583
 20
13.1997084341746
 30
0.0
 11
11.45982201207785
 21
13.17083704309849
 31
0.0
  0
LINE
  5
3433
330
1E
100
AcDbEntity
  8
7
100
AcDbLine
 10
11.45982201207785
 20
13.17083704309849
 30
0.0
 11
11.47688237953192
 21
13.1472149958544
 31
0.0
  0
LINE
  5
3434
330
1E
100
AcDbEntity
  8
7
100
AcDbLine
 10
11.47688237953192
 20
13.1472149958544
 30
0.0
 11
11.50050442677602
 21
13.13015462840033
 31
0.0
  0
LINE
  5
3435
330
1E
100
AcDbEntity
  8
7
100
AcDbLine
 10
11.50050442677602
 20
13.13015462840033
 30
0.0
 11
11.52937581785213
 21
13.12490528456831
 31
0.0
  0
LINE
  5
3436
330
1E
100
AcDbEntity
  8
7
100
AcDbLine
 10
11.52937581785213
 20
13.12490528456831
 30
0.0
 11
11.55824720892825
 21
13.13015462840033
 31
0.0
  0
LINE
  5
3437
330
1E
100
AcDbEntity
  8
7
100
AcDbLine
 10
11.55824720892825
 20
13.13015462840033
 30
0.0
 11
11.58186925617234
 21
13.1472149958544
 31
0.0
  0
LINE
  5
3438
330
1E
100
AcDbEntity
  8
7
100
AcDbLine
 10
11.50050442677602
 20
13.38999714808537
 30
0.0
 11
11.47688237953192
 21
13.3729367806313
 31
0.0
  0
LINE
  5
3439
330
1E
100
AcDbEntity
  8
7
100
AcDbLine
 10
11.47688237953192
 20
13.3729367806313
 30
0.0
 11
11.45982201207785
 21
13.3493147333872
 31
0.0
  0
LINE
  5
343A
330
1E
100
AcDbEntity
  8
7
100
AcDbLine
 10
11.45982201207785
 20
13.3493147333872
 30
0.0
 11
11.45457266824583
 21
13.32044334231109
 31
0.0
  0
LINE
  5
343B
330
1E
100
AcDbEntity
  8
7
100
AcDbLine
 10
11.60417896745843
 20
13.32044334231109
 30
0.0
 11
11.59892962362641
 21
13.3493147333872
 31
0.0
  0
LINE
  5
343C
330
1E
100
AcDbEntity
  8
7
100
AcDbLine
 10
11.59892962362641
 20
13.3493147333872
 30
0.0
 11
11.58186925617234
 21
13.3729367806313
 31
0.0
  0
LINE
  5
343D
330
1E
100
AcDbEntity
  8
7
100
AcDbLine
 10
11.58186925617234
 20
13.3729367806313
 30
0.0
 11
11.55824720892825
 21
13.38999714808537
 31
0.0
  0
LINE
  5
343E
330
1E
100
AcDbEntity
  8
7
100
AcDbLine
 10
11.55824720892825
 20
13.38999714808537
 30
0.0
 11
11.52937581785213
 21
13.39524649191739
 31
0.0
  0
LINE
  5
343F
330
1E
100
AcDbEntity
  8
7
100
AcDbLine
 10
11.52937581785213
 20
13.39524649191739
 30
0.0
 11
11.50050442677602
 21
13.38999714808537
 31
0.0
  0
LINE
  5
3440
330
1E
100
AcDbEntity
  8
7
100
AcDbLine
 10
11.46244668399386
 20
13.10784491711424
 30
0.0
 11
11.49394274698599
 21
13.09078454966017
 31
0.0
  0
LINE
  5
3441
330
1E
100
AcDbEntity
  8
7
100
AcDbLine
 10
11.49394274698599
 20
13.09078454966017
 30
0.0
 11
11.52937581785213
 21
13.08553520582815
 31
0.0
  0
LINE
  5
3442
330
1E
100
AcDbEntity
  8
7
100
AcDbLine
 10
11.52937581785213
 20
13.08553520582815
 30
0.0
 11
11.56480888871827
 21
13.09078454966017
 31
0.0
  0
LINE
  5
3443
330
1E
100
AcDbEntity
  8
7
100
AcDbLine
 10
11.56480888871827
 20
13.09078454966017
 30
0.0
 11
11.5963049517104
 21
13.10784491711424
 31
0.0
  0
LINE
  5
3444
330
1E
100
AcDbEntity
  8
7
100
AcDbLine
 10
11.5963049517104
 20
13.10784491711424
 30
0.0
 11
11.6212393349125
 21
13.13277930031634
 31
0.0
  0
LINE
  5
3445
330
1E
100
AcDbEntity
  8
7
100
AcDbLine
 10
11.6212393349125
 20
13.13277930031634
 30
0.0
 11
11.63829970236657
 21
13.16427536330846
 31
0.0
  0
LINE
  5
3446
330
1E
100
AcDbEntity
  8
7
100
AcDbLine
 10
11.63829970236657
 20
13.16427536330846
 30
0.0
 11
11.64354904619859
 21
13.1997084341746
 31
0.0
  0
LINE
  5
3447
330
1E
100
AcDbEntity
  8
7
100
AcDbLine
 10
11.41520258950568
 20
13.1997084341746
 30
0.0
 11
11.4204519333377
 21
13.16427536330846
 31
0.0
  0
LINE
  5
3448
330
1E
100
AcDbEntity
  8
7
100
AcDbLine
 10
11.4204519333377
 20
13.16427536330846
 30
0.0
 11
11.43751230079177
 21
13.13277930031634
 31
0.0
  0
LINE
  5
3449
330
1E
100
AcDbEntity
  8
7
100
AcDbLine
 10
11.43751230079177
 20
13.13277930031634
 30
0.0
 11
11.46244668399386
 21
13.10784491711424
 31
0.0
  0
LINE
  5
344A
330
1E
100
AcDbEntity
  8
7
100
AcDbLine
 10
11.46244668399386
 20
13.41230685937146
 30
0.0
 11
11.43751230079177
 21
13.38737247616936
 31
0.0
  0
LINE
  5
344B
330
1E
100
AcDbEntity
  8
7
100
AcDbLine
 10
11.43751230079177
 20
13.38737247616936
 30
0.0
 11
11.4204519333377
 21
13.35587641317723
 31
0.0
  0
LINE
  5
344C
330
1E
100
AcDbEntity
  8
7
100
AcDbLine
 10
11.4204519333377
 20
13.35587641317723
 30
0.0
 11
11.41520258950568
 21
13.32044334231109
 31
0.0
  0
LINE
  5
344D
330
1E
100
AcDbEntity
  8
7
100
AcDbLine
 10
11.64354904619859
 20
13.32044334231109
 30
0.0
 11
11.63829970236657
 21
13.35587641317723
 31
0.0
  0
LINE
  5
344E
330
1E
100
AcDbEntity
  8
7
100
AcDbLine
 10
11.63829970236657
 20
13.35587641317723
 30
0.0
 11
11.6212393349125
 21
13.38737247616936
 31
0.0
  0
LINE
  5
344F
330
1E
100
AcDbEntity
  8
7
100
AcDbLine
 10
11.6212393349125
 20
13.38737247616936
 30
0.0
 11
11.5963049517104
 21
13.41230685937146
 31
0.0
  0
LINE
  5
3450
330
1E
100
AcDbEntity
  8
7
100
AcDbLine
 10
11.5963049517104
 20
13.41230685937146
 30
0.0
 11
11.56480888871827
 21
13.42936722682553
 31
0.0
  0
LINE
  5
3451
330
1E
100
AcDbEntity
  8
7
100
AcDbLine
 10
11.56480888871827
 20
13.42936722682553
 30
0.0
 11
11.52937581785213
 21
13.43461657065755
 31
0.0
  0
LINE
  5
3452
330
1E
100
AcDbEntity
  8
7
100
AcDbLine
 10
11.52937581785213
 20
13.43461657065755
 30
0.0
 11
11.49394274698599
 21
13.42936722682553
 31
0.0
  0
LINE
  5
3453
330
1E
100
AcDbEntity
  8
7
100
AcDbLine
 10
11.49394274698599
 20
13.42936722682553
 30
0.0
 11
11.46244668399386
 21
13.41230685937146
 31
0.0
  0
LINE
  5
3454
330
1E
100
AcDbEntity
  8
7
100
AcDbLine
 10
11.45982201207785
 20
13.17083704309849
 30
0.0
 11
11.47688237953192
 21
13.1472149958544
 31
0.0
  0
LINE
  5
3455
330
1E
100
AcDbEntity
  8
7
100
AcDbLine
 10
11.47688237953192
 20
13.1472149958544
 30
0.0
 11
11.50050442677602
 21
13.13015462840033
 31
0.0
  0
LINE
  5
3456
330
1E
100
AcDbEntity
  8
7
100
AcDbLine
 10
11.50050442677602
 20
13.13015462840033
 30
0.0
 11
11.52937581785213
 21
13.12490528456831
 31
0.0
  0
LINE
  5
3457
330
1E
100
AcDbEntity
  8
7
100
AcDbLine
 10
11.52937581785213
 20
13.12490528456831
 30
0.0
 11
11.55824720892825
 21
13.13015462840033
 31
0.0
  0
LINE
  5
3458
330
1E
100
AcDbEntity
  8
7
100
AcDbLine
 10
11.55824720892825
 20
13.13015462840033
 30
0.0
 11
11.58186925617234
 21
13.1472149958544
 31
0.0
  0
LINE
  5
3459
330
1E
100
AcDbEntity
  8
7
100
AcDbLine
 10
11.58186925617234
 20
13.1472149958544
 30
0.0
 11
11.59892962362641
 21
13.17083704309849
 31
0.0
  0
LINE
  5
345A
330
1E
100
AcDbEntity
  8
7
100
AcDbLine
 10
11.59892962362641
 20
13.17083704309849
 30
0.0
 11
11.60417896745843
 21
13.1997084341746
 31
0.0
  0
LINE
  5
345B
330
1E
100
AcDbEntity
  8
7
100
AcDbLine
 10
11.59892962362641
 20
13.3493147333872
 30
0.0
 11
11.58186925617234
 21
13.3729367806313
 31
0.0
  0
LINE
  5
345C
330
1E
100
AcDbEntity
  8
7
100
AcDbLine
 10
11.58186925617234
 20
13.3729367806313
 30
0.0
 11
11.55824720892825
 21
13.38999714808537
 31
0.0
  0
LINE
  5
345D
330
1E
100
AcDbEntity
  8
7
100
AcDbLine
 10
11.55824720892825
 20
13.38999714808537
 30
0.0
 11
11.52937581785213
 21
13.39524649191739
 31
0.0
  0
LINE
  5
345E
330
1E
100
AcDbEntity
  8
7
100
AcDbLine
 10
11.52937581785213
 20
13.39524649191739
 30
0.0
 11
11.50050442677602
 21
13.38999714808537
 31
0.0
  0
LINE
  5
345F
330
1E
100
AcDbEntity
  8
7
100
AcDbLine
 10
11.50050442677602
 20
13.38999714808537
 30
0.0
 11
11.47688237953192
 21
13.3729367806313
 31
0.0
  0
LINE
  5
3460
330
1E
100
AcDbEntity
  8
7
100
AcDbLine
 10
11.47688237953192
 20
13.3729367806313
 30
0.0
 11
11.45982201207785
 21
13.3493147333872
 31
0.0
  0
LINE
  5
3461
330
1E
100
AcDbEntity
  8
7
100
AcDbLine
 10
11.45982201207785
 20
13.3493147333872
 30
0.0
 11
11.45457266824583
 21
13.32044334231109
 31
0.0
  0
LINE
  5
3462
330
1E
100
AcDbEntity
  8
7
100
AcDbLine
 10
11.40864090971565
 20
12.94117825044757
 30
0.0
 11
11.46113434803586
 21
12.94117825044757
 31
0.0
  0
LINE
  5
3463
330
1E
100
AcDbEntity
  8
7
100
AcDbLine
 10
11.46113434803586
 20
12.94117825044757
 30
0.0
 11
11.46113434803586
 21
12.91493153128747
 31
0.0
  0
LINE
  5
3464
330
1E
100
AcDbEntity
  8
7
100
AcDbLine
 10
11.46113434803586
 20
13.60522024519823
 30
0.0
 11
11.46113434803586
 21
13.57897352603812
 31
0.0
  0
LINE
  5
3465
330
1E
100
AcDbEntity
  8
7
100
AcDbLine
 10
11.46113434803586
 20
13.57897352603812
 30
0.0
 11
11.40864090971565
 21
13.57897352603812
 31
0.0
  0
LINE
  5
3466
330
1E
100
AcDbEntity
  8
7
100
AcDbLine
 10
11.65011072598861
 20
13.57897352603812
 30
0.0
 11
11.5963049517104
 21
13.57897352603812
 31
0.0
  0
LINE
  5
3467
330
1E
100
AcDbEntity
  8
7
100
AcDbLine
 10
11.5963049517104
 20
13.57897352603812
 30
0.0
 11
11.5963049517104
 21
13.60522024519823
 31
0.0
  0
LINE
  5
3468
330
1E
100
AcDbEntity
  8
7
100
AcDbLine
 10
11.63961203832457
 20
13.35587641317723
 30
0.0
 11
11.62255167087051
 21
13.38868481212736
 31
0.0
  0
LINE
  5
3469
330
1E
100
AcDbEntity
  8
7
100
AcDbLine
 10
11.62255167087051
 20
13.38868481212736
 30
0.0
 11
11.5976172876684
 21
13.41361919532946
 31
0.0
  0
LINE
  5
346A
330
1E
100
AcDbEntity
  8
7
100
AcDbLine
 10
11.5976172876684
 20
13.41361919532946
 30
0.0
 11
11.56480888871827
 21
13.43067956278353
 31
0.0
  0
LINE
  5
346B
330
1E
100
AcDbEntity
  8
7
100
AcDbLine
 10
11.56480888871827
 20
13.43067956278353
 30
0.0
 11
11.52937581785213
 21
13.43592890661555
 31
0.0
  0
LINE
  5
346C
330
1E
100
AcDbEntity
  8
7
100
AcDbLine
 10
11.52937581785213
 20
13.43592890661555
 30
0.0
 11
11.49394274698599
 21
13.43067956278353
 31
0.0
  0
LINE
  5
346D
330
1E
100
AcDbEntity
  8
7
100
AcDbLine
 10
11.49394274698599
 20
13.43067956278353
 30
0.0
 11
11.46113434803586
 21
13.41361919532946
 31
0.0
  0
LINE
  5
346E
330
1E
100
AcDbEntity
  8
7
100
AcDbLine
 10
11.46113434803586
 20
13.41361919532946
 30
0.0
 11
11.43619996483376
 21
13.38868481212736
 31
0.0
  0
LINE
  5
346F
330
1E
100
AcDbEntity
  8
7
100
AcDbLine
 10
11.43619996483376
 20
13.38868481212736
 30
0.0
 11
11.41913959737969
 21
13.35587641317723
 31
0.0
  0
LINE
  5
3470
330
1E
100
AcDbEntity
  8
7
100
AcDbLine
 10
11.41913959737969
 20
13.35587641317723
 30
0.0
 11
11.41389025354767
 21
13.32044334231109
 31
0.0
  0
LINE
  5
3471
330
1E
100
AcDbEntity
  8
7
100
AcDbLine
 10
11.43619996483376
 20
13.13146696435833
 30
0.0
 11
11.46113434803586
 21
13.10653258115623
 31
0.0
  0
LINE
  5
3472
330
1E
100
AcDbEntity
  8
7
100
AcDbLine
 10
11.46113434803586
 20
13.10653258115623
 30
0.0
 11
11.49394274698599
 21
13.08947221370216
 31
0.0
  0
LINE
  5
3473
330
1E
100
AcDbEntity
  8
7
100
AcDbLine
 10
11.49394274698599
 20
13.08947221370216
 30
0.0
 11
11.52937581785213
 21
13.08422286987014
 31
0.0
  0
LINE
  5
3474
330
1E
100
AcDbEntity
  8
7
100
AcDbLine
 10
11.52937581785213
 20
13.08422286987014
 30
0.0
 11
11.56480888871827
 21
13.08947221370216
 31
0.0
  0
LINE
  5
3475
330
1E
100
AcDbEntity
  8
7
100
AcDbLine
 10
11.56480888871827
 20
13.08947221370216
 30
0.0
 11
11.5976172876684
 21
13.10653258115623
 31
0.0
  0
LINE
  5
3476
330
1E
100
AcDbEntity
  8
7
100
AcDbLine
 10
11.5976172876684
 20
13.10653258115623
 30
0.0
 11
11.62255167087051
 21
13.13146696435833
 31
0.0
  0
LINE
  5
3477
330
1E
100
AcDbEntity
  8
7
100
AcDbLine
 10
11.62255167087051
 20
13.13146696435833
 30
0.0
 11
11.63961203832457
 21
13.16427536330846
 31
0.0
  0
LINE
  5
3478
330
1E
100
AcDbEntity
  8
7
100
AcDbLine
 10
11.63961203832457
 20
13.16427536330846
 30
0.0
 11
11.64486138215659
 21
13.1997084341746
 31
0.0
  0
LINE
  5
3479
330
1E
100
AcDbEntity
  8
7
100
AcDbLine
 10
11.41389025354767
 20
13.1997084341746
 30
0.0
 11
11.41913959737969
 21
13.16427536330846
 31
0.0
  0
LINE
  5
347A
330
1E
100
AcDbEntity
  8
7
100
AcDbLine
 10
11.41913959737969
 20
13.16427536330846
 30
0.0
 11
11.43619996483376
 21
13.13146696435833
 31
0.0
  0
LINE
  5
347B
330
1E
100
AcDbEntity
  8
7
100
AcDbLine
 10
11.65142306194662
 20
12.93855357853156
 30
0.0
 11
11.59892962362641
 21
12.93855357853156
 31
0.0
  0
LINE
  5
347C
330
1E
100
AcDbEntity
  8
7
100
AcDbLine
 10
11.59892962362641
 20
12.93855357853156
 30
0.0
 11
11.60024195958442
 21
12.93724124257356
 31
0.0
  0
LINE
  5
347D
330
1E
100
AcDbEntity
  8
7
100
AcDbLine
 10
10.9466986524978
 20
12.13540397223235
 30
0.0
 11
10.95063566037182
 21
12.33487903784915
 31
0.0
  0
LINE
  5
347E
330
1E
100
AcDbEntity
  8
7
100
AcDbLine
 10
10.95063566037182
 20
12.33487903784915
 30
0.0
 11
10.95326033228783
 21
12.53829111133996
 31
0.0
  0
LINE
  5
347F
330
1E
100
AcDbEntity
  8
7
100
AcDbLine
 10
10.95326033228783
 20
12.53829111133996
 30
0.0
 11
10.95588500420384
 21
12.74301552078878
 31
0.0
  0
LINE
  5
3480
330
1E
100
AcDbEntity
  8
7
100
AcDbLine
 10
10.95588500420384
 20
12.74301552078878
 30
0.0
 11
10.95719734016184
 21
12.9490522661956
 31
0.0
  0
LINE
  5
3481
330
1E
100
AcDbEntity
  8
7
100
AcDbLine
 10
10.95719734016184
 20
12.9490522661956
 30
0.0
 11
10.95850967611985
 21
13.15640134756043
 31
0.0
  0
LINE
  5
3482
330
1E
100
AcDbEntity
  8
7
100
AcDbLine
 10
10.95850967611985
 20
13.15640134756043
 30
0.0
 11
10.95850967611985
 21
13.36375042892526
 31
0.0
  0
LINE
  5
3483
330
1E
100
AcDbEntity
  8
7
100
AcDbLine
 10
10.95850967611985
 20
13.36375042892526
 30
0.0
 11
10.95719734016184
 21
13.57109951029009
 31
0.0
  0
LINE
  5
3484
330
1E
100
AcDbEntity
  8
7
100
AcDbLine
 10
10.95719734016184
 20
13.57109951029009
 30
0.0
 11
10.95588500420384
 21
13.77713625569692
 31
0.0
  0
LINE
  5
3485
330
1E
100
AcDbEntity
  8
7
100
AcDbLine
 10
10.95588500420384
 20
13.77713625569692
 30
0.0
 11
10.95326033228783
 21
13.98186066514573
 31
0.0
  0
LINE
  5
3486
330
1E
100
AcDbEntity
  8
7
100
AcDbLine
 10
10.95326033228783
 20
13.98186066514573
 30
0.0
 11
10.95063566037182
 21
14.18527273863655
 31
0.0
  0
LINE
  5
3487
330
1E
100
AcDbEntity
  8
7
100
AcDbLine
 10
10.95063566037182
 20
14.18527273863655
 30
0.0
 11
10.9466986524978
 21
14.38474780425335
 31
0.0
  0
LINE
  5
3488
330
1E
100
AcDbEntity
  8
7
100
AcDbLine
 10
10.9466986524978
 20
14.38474780425335
 30
0.0
 11
10.94276164462379
 21
14.58159819795413
 31
0.0
  0
LINE
  5
3489
330
1E
100
AcDbEntity
  8
7
100
AcDbLine
 10
10.94276164462379
 20
14.58159819795413
 30
0.0
 11
10.91913959737969
 21
14.60522024519823
 31
0.0
  0
LINE
  5
348A
330
1E
100
AcDbEntity
  8
7
100
AcDbLine
 10
10.91913959737969
 20
11.91493153128747
 30
0.0
 11
10.94276164462379
 21
11.93724124257355
 31
0.0
  0
LINE
  5
348B
330
1E
100
AcDbEntity
  8
7
100
AcDbLine
 10
10.94276164462379
 20
11.93724124257355
 30
0.0
 11
10.9466986524978
 21
12.13540397223235
 31
0.0
  0
LINE
  5
348C
330
1E
100
AcDbEntity
  8
7
100
AcDbLine
 10
15.38370652651355
 20
13.77713625569692
 30
0.0
 11
15.38239419055554
 21
13.57109951029009
 31
0.0
  0
LINE
  5
348D
330
1E
100
AcDbEntity
  8
7
100
AcDbLine
 10
15.38239419055554
 20
13.57109951029009
 30
0.0
 11
15.38108185459754
 21
13.36375042892526
 31
0.0
  0
LINE
  5
348E
330
1E
100
AcDbEntity
  8
7
100
AcDbLine
 10
15.38108185459754
 20
13.36375042892526
 30
0.0
 11
15.38108185459754
 21
13.15640134756043
 31
0.0
  0
LINE
  5
348F
330
1E
100
AcDbEntity
  8
7
100
AcDbLine
 10
15.38108185459754
 20
13.15640134756043
 30
0.0
 11
15.38239419055554
 21
12.9490522661956
 31
0.0
  0
LINE
  5
3490
330
1E
100
AcDbEntity
  8
7
100
AcDbLine
 10
15.38239419055554
 20
12.9490522661956
 30
0.0
 11
15.38370652651355
 21
12.74301552078878
 31
0.0
  0
LINE
  5
3491
330
1E
100
AcDbEntity
  8
7
100
AcDbLine
 10
15.38370652651355
 20
12.74301552078878
 30
0.0
 11
15.38501886247155
 21
12.53829111133996
 31
0.0
  0
LINE
  5
3492
330
1E
100
AcDbEntity
  8
7
100
AcDbLine
 10
15.38501886247155
 20
12.53829111133996
 30
0.0
 11
15.38895587034557
 21
12.33487903784915
 31
0.0
  0
LINE
  5
3493
330
1E
100
AcDbEntity
  8
7
100
AcDbLine
 10
15.38895587034557
 20
12.33487903784915
 30
0.0
 11
15.39289287821959
 21
12.13540397223235
 31
0.0
  0
LINE
  5
3494
330
1E
100
AcDbEntity
  8
7
100
AcDbLine
 10
15.39289287821959
 20
12.13540397223235
 30
0.0
 11
15.3968298860936
 21
11.93724124257355
 31
0.0
  0
LINE
  5
3495
330
1E
100
AcDbEntity
  8
7
100
AcDbLine
 10
15.3968298860936
 20
11.93724124257355
 30
0.0
 11
15.41913959737969
 21
11.91493153128747
 31
0.0
  0
LINE
  5
3496
330
1E
100
AcDbEntity
  8
7
100
AcDbLine
 10
15.41913959737969
 20
14.60522024519823
 30
0.0
 11
15.3968298860936
 21
14.58159819795413
 31
0.0
  0
LINE
  5
3497
330
1E
100
AcDbEntity
  8
7
100
AcDbLine
 10
15.3968298860936
 20
14.58159819795413
 30
0.0
 11
15.39289287821959
 21
14.38474780425335
 31
0.0
  0
LINE
  5
3498
330
1E
100
AcDbEntity
  8
7
100
AcDbLine
 10
15.39289287821959
 20
14.38474780425335
 30
0.0
 11
15.38895587034557
 21
14.18527273863655
 31
0.0
  0
LINE
  5
3499
330
1E
100
AcDbEntity
  8
7
100
AcDbLine
 10
15.38895587034557
 20
14.18527273863655
 30
0.0
 11
15.38501886247155
 21
13.98186066514573
 31
0.0
  0
LINE
  5
349A
330
1E
100
AcDbEntity
  8
7
100
AcDbLine
 10
15.38501886247155
 20
13.98186066514573
 30
0.0
 11
15.38370652651355
 21
13.77713625569692
 31
0.0
  0
LINE
  5
349B
330
1E
100
AcDbEntity
  8
7
100
AcDbLine
 10
10.94932332441381
 20
11.88474780425335
 30
0.0
 11
10.93488762887576
 21
11.88868481212736
 31
0.0
  0
LINE
  5
349C
330
1E
100
AcDbEntity
  8
7
100
AcDbLine
 10
10.93488762887576
 20
11.88868481212736
 30
0.0
 11
10.92307660525371
 21
11.90049583574941
 31
0.0
  0
LINE
  5
349D
330
1E
100
AcDbEntity
  8
7
100
AcDbLine
 10
10.92307660525371
 20
11.90049583574941
 30
0.0
 11
10.91913959737969
 21
11.91493153128747
 31
0.0
  0
LINE
  5
349E
330
1E
100
AcDbEntity
  8
7
100
AcDbLine
 10
15.41913959737969
 20
11.91493153128747
 30
0.0
 11
15.41520258950568
 21
11.90049583574941
 31
0.0
  0
LINE
  5
349F
330
1E
100
AcDbEntity
  8
7
100
AcDbLine
 10
15.41520258950568
 20
11.90049583574941
 30
0.0
 11
15.40470390184163
 21
11.88868481212736
 31
0.0
  0
LINE
  5
34A0
330
1E
100
AcDbEntity
  8
7
100
AcDbLine
 10
15.39026820630358
 20
14.63540397223235
 30
0.0
 11
15.40470390184163
 21
14.63146696435833
 31
0.0
  0
LINE
  5
34A1
330
1E
100
AcDbEntity
  8
7
100
AcDbLine
 10
15.40470390184163
 20
14.63146696435833
 30
0.0
 11
15.41520258950568
 21
14.61965594073629
 31
0.0
  0
LINE
  5
34A2
330
1E
100
AcDbEntity
  8
7
100
AcDbLine
 10
15.41520258950568
 20
14.61965594073629
 30
0.0
 11
15.41913959737969
 21
14.60522024519823
 31
0.0
  0
LINE
  5
34A3
330
1E
100
AcDbEntity
  8
7
100
AcDbLine
 10
10.91913959737969
 20
11.91493153128747
 30
0.0
 11
10.91913959737969
 21
14.60522024519823
 31
0.0
  0
LINE
  5
34A4
330
1E
100
AcDbEntity
  8
7
100
AcDbLine
 10
10.91913959737969
 20
14.60522024519823
 30
0.0
 11
10.92307660525371
 21
14.61965594073629
 31
0.0
  0
LINE
  5
34A5
330
1E
100
AcDbEntity
  8
7
100
AcDbLine
 10
10.92307660525371
 20
14.61965594073629
 30
0.0
 11
10.93488762887576
 21
14.63146696435833
 31
0.0
  0
LINE
  5
34A6
330
1E
100
AcDbEntity
  8
7
100
AcDbLine
 10
10.93488762887576
 20
14.63146696435833
 30
0.0
 11
10.94932332441381
 21
14.63540397223235
 31
0.0
  0
LINE
  5
34A7
330
1E
100
AcDbEntity
  8
7
100
AcDbLine
 10
15.39026820630358
 20
11.88474780425335
 30
0.0
 11
15.36664615905948
 21
11.90705751553943
 31
0.0
  0
LINE
  5
34A8
330
1E
100
AcDbEntity
  8
7
100
AcDbLine
 10
15.36664615905948
 20
11.90705751553943
 30
0.0
 11
10.9716330356999
 21
11.90705751553943
 31
0.0
  0
LINE
  5
34A9
330
1E
100
AcDbEntity
  8
7
100
AcDbLine
 10
10.9716330356999
 20
11.90705751553943
 30
0.0
 11
10.94932332441381
 21
11.88474780425335
 31
0.0
  0
LINE
  5
34AA
330
1E
100
AcDbEntity
  8
7
100
AcDbLine
 10
11.28003198583114
 20
13.36637510084127
 30
0.0
 11
11.28003198583114
 21
13.58028586199613
 31
0.0
  0
LINE
  5
34AB
330
1E
100
AcDbEntity
  8
7
100
AcDbLine
 10
11.28003198583114
 20
13.58028586199613
 30
0.0
 11
11.28265665774714
 21
13.79288428719298
 31
0.0
  0
LINE
  5
34AC
330
1E
100
AcDbEntity
  8
7
100
AcDbLine
 10
11.28265665774714
 20
13.79288428719298
 30
0.0
 11
11.28528132966316
 21
14.00417037643182
 31
0.0
  0
LINE
  5
34AD
330
1E
100
AcDbEntity
  8
7
100
AcDbLine
 10
11.28528132966316
 20
14.00417037643182
 30
0.0
 11
11.28921833753717
 21
14.21414412971266
 31
0.0
  0
LINE
  5
34AE
330
1E
100
AcDbEntity
  8
7
100
AcDbLine
 10
11.28921833753717
 20
14.21414412971266
 30
0.0
 11
11.29446768136919
 21
14.42018087511948
 31
0.0
  0
LINE
  5
34AF
330
1E
100
AcDbEntity
  8
7
100
AcDbLine
 10
11.29446768136919
 20
12.09997090136621
 30
0.0
 11
11.28921833753717
 21
12.30600764677303
 31
0.0
  0
LINE
  5
34B0
330
1E
100
AcDbEntity
  8
7
100
AcDbLine
 10
11.28921833753717
 20
12.30600764677303
 30
0.0
 11
11.28528132966316
 21
12.51466906409587
 31
0.0
  0
LINE
  5
34B1
330
1E
100
AcDbEntity
  8
7
100
AcDbLine
 10
11.28528132966316
 20
12.51466906409587
 30
0.0
 11
11.28265665774714
 21
12.72595515333471
 31
0.0
  0
LINE
  5
34B2
330
1E
100
AcDbEntity
  8
7
100
AcDbLine
 10
11.28265665774714
 20
12.72595515333471
 30
0.0
 11
11.28003198583114
 21
12.93855357853156
 31
0.0
  0
LINE
  5
34B3
330
1E
100
AcDbEntity
  8
7
100
AcDbLine
 10
11.28003198583114
 20
12.93855357853156
 30
0.0
 11
11.28003198583114
 21
13.15246433968642
 31
0.0
  0
LINE
  5
34B4
330
1E
100
AcDbEntity
  8
7
100
AcDbLine
 10
11.28003198583114
 20
13.15246433968642
 30
0.0
 11
11.28003198583114
 21
13.36637510084127
 31
0.0
  0
LINE
  5
34B5
330
1E
100
AcDbEntity
  8
7
100
AcDbLine
 10
15.05955954488625
 20
13.15246433968642
 30
0.0
 11
15.05824720892825
 21
12.93855357853156
 31
0.0
  0
LINE
  5
34B6
330
1E
100
AcDbEntity
  8
7
100
AcDbLine
 10
15.05824720892825
 20
12.93855357853156
 30
0.0
 11
15.05693487297024
 21
12.72595515333471
 31
0.0
  0
LINE
  5
34B7
330
1E
100
AcDbEntity
  8
7
100
AcDbLine
 10
15.05693487297024
 20
12.72595515333471
 30
0.0
 11
15.05299786509623
 21
12.51466906409587
 31
0.0
  0
LINE
  5
34B8
330
1E
100
AcDbEntity
  8
7
100
AcDbLine
 10
15.05299786509623
 20
12.51466906409587
 30
0.0
 11
15.04906085722221
 21
12.30600764677303
 31
0.0
  0
LINE
  5
34B9
330
1E
100
AcDbEntity
  8
7
100
AcDbLine
 10
15.04906085722221
 20
12.30600764677303
 30
0.0
 11
15.0451238493482
 21
12.09997090136621
 31
0.0
  0
LINE
  5
34BA
330
1E
100
AcDbEntity
  8
7
100
AcDbLine
 10
15.0451238493482
 20
14.42018087511948
 30
0.0
 11
15.04906085722221
 21
14.21414412971266
 31
0.0
  0
LINE
  5
34BB
330
1E
100
AcDbEntity
  8
7
100
AcDbLine
 10
15.04906085722221
 20
14.21414412971266
 30
0.0
 11
15.05299786509623
 21
14.00417037643182
 31
0.0
  0
LINE
  5
34BC
330
1E
100
AcDbEntity
  8
7
100
AcDbLine
 10
15.05299786509623
 20
14.00417037643182
 30
0.0
 11
15.05693487297024
 21
13.79288428719298
 31
0.0
  0
LINE
  5
34BD
330
1E
100
AcDbEntity
  8
7
100
AcDbLine
 10
15.05693487297024
 20
13.79288428719298
 30
0.0
 11
15.05824720892825
 21
13.58028586199613
 31
0.0
  0
LINE
  5
34BE
330
1E
100
AcDbEntity
  8
7
100
AcDbLine
 10
15.05824720892825
 20
13.58028586199613
 30
0.0
 11
15.05955954488625
 21
13.36637510084127
 31
0.0
  0
LINE
  5
34BF
330
1E
100
AcDbEntity
  8
7
100
AcDbLine
 10
15.05955954488625
 20
13.36637510084127
 30
0.0
 11
15.05955954488625
 21
13.15246433968642
 31
0.0
  0
LINE
  5
34C0
330
1E
100
AcDbEntity
  8
7
100
AcDbLine
 10
10.98606873123796
 20
12.73907851291476
 30
0.0
 11
10.98344405932195
 21
12.53304176750794
 31
0.0
  0
LINE
  5
34C1
330
1E
100
AcDbEntity
  8
7
100
AcDbLine
 10
10.98344405932195
 20
12.53304176750794
 30
0.0
 11
10.98081938740594
 21
12.32831735805912
 31
0.0
  0
LINE
  5
34C2
330
1E
100
AcDbEntity
  8
7
100
AcDbLine
 10
10.98081938740594
 20
12.32831735805912
 30
0.0
 11
10.97688237953192
 21
12.12621762052631
 31
0.0
  0
LINE
  5
34C3
330
1E
100
AcDbEntity
  8
7
100
AcDbLine
 10
10.97688237953192
 20
12.12621762052631
 30
0.0
 11
10.9716330356999
 21
11.92805489086752
 31
0.0
  0
LINE
  5
34C4
330
1E
100
AcDbEntity
  8
7
100
AcDbLine
 10
10.9716330356999
 20
11.92805489086752
 30
0.0
 11
15.36664615905948
 21
11.92805489086752
 31
0.0
  0
LINE
  5
34C5
330
1E
100
AcDbEntity
  8
7
100
AcDbLine
 10
15.35352279947943
 20
13.78107326357093
 30
0.0
 11
15.35614747139544
 21
13.98711000897776
 31
0.0
  0
LINE
  5
34C6
330
1E
100
AcDbEntity
  8
7
100
AcDbLine
 10
15.35614747139544
 20
13.98711000897776
 30
0.0
 11
15.35877214331145
 21
14.19183441842657
 31
0.0
  0
LINE
  5
34C7
330
1E
100
AcDbEntity
  8
7
100
AcDbLine
 10
15.35877214331145
 20
14.19183441842657
 30
0.0
 11
15.36270915118547
 21
14.39393415595938
 31
0.0
  0
LINE
  5
34C8
330
1E
100
AcDbEntity
  8
7
100
AcDbLine
 10
15.36270915118547
 20
14.39393415595938
 30
0.0
 11
15.36664615905948
 21
14.59209688561817
 31
0.0
  0
LINE
  5
34C9
330
1E
100
AcDbEntity
  8
7
100
AcDbLine
 10
15.36664615905948
 20
14.59209688561817
 30
0.0
 11
10.9716330356999
 21
14.59209688561817
 31
0.0
  0
LINE
  5
34CA
330
1E
100
AcDbEntity
  8
7
100
AcDbLine
 10
10.9716330356999
 20
14.59209688561817
 30
0.0
 11
10.97688237953192
 21
14.39393415595938
 31
0.0
  0
LINE
  5
34CB
330
1E
100
AcDbEntity
  8
7
100
AcDbLine
 10
10.97688237953192
 20
14.39393415595938
 30
0.0
 11
10.98081938740594
 21
14.19183441842657
 31
0.0
  0
LINE
  5
34CC
330
1E
100
AcDbEntity
  8
7
100
AcDbLine
 10
10.98081938740594
 20
14.19183441842657
 30
0.0
 11
10.98344405932195
 21
13.98711000897776
 31
0.0
  0
LINE
  5
34CD
330
1E
100
AcDbEntity
  8
7
100
AcDbLine
 10
10.98344405932195
 20
13.98711000897776
 30
0.0
 11
10.98606873123796
 21
13.78107326357093
 31
0.0
  0
LINE
  5
34CE
330
1E
100
AcDbEntity
  8
7
100
AcDbLine
 10
10.98606873123796
 20
13.78107326357093
 30
0.0
 11
10.98738106719596
 21
13.5724118462481
 31
0.0
  0
LINE
  5
34CF
330
1E
100
AcDbEntity
  8
7
100
AcDbLine
 10
10.98738106719596
 20
13.5724118462481
 30
0.0
 11
10.98738106719596
 21
13.36375042892526
 31
0.0
  0
LINE
  5
34D0
330
1E
100
AcDbEntity
  8
7
100
AcDbLine
 10
10.98738106719596
 20
13.36375042892526
 30
0.0
 11
10.98738106719596
 21
13.15508901160243
 31
0.0
  0
LINE
  5
34D1
330
1E
100
AcDbEntity
  8
7
100
AcDbLine
 10
10.98738106719596
 20
13.15508901160243
 30
0.0
 11
10.98738106719596
 21
12.94642759427959
 31
0.0
  0
LINE
  5
34D2
330
1E
100
AcDbEntity
  8
7
100
AcDbLine
 10
10.98738106719596
 20
12.94642759427959
 30
0.0
 11
10.98606873123796
 21
12.73907851291476
 31
0.0
  0
LINE
  5
34D3
330
1E
100
AcDbEntity
  8
7
100
AcDbLine
 10
15.36664615905948
 20
11.92805489086752
 30
0.0
 11
15.36270915118547
 21
12.12621762052631
 31
0.0
  0
LINE
  5
34D4
330
1E
100
AcDbEntity
  8
7
100
AcDbLine
 10
15.36270915118547
 20
12.12621762052631
 30
0.0
 11
15.35877214331145
 21
12.32831735805912
 31
0.0
  0
LINE
  5
34D5
330
1E
100
AcDbEntity
  8
7
100
AcDbLine
 10
15.35877214331145
 20
12.32831735805912
 30
0.0
 11
15.35614747139544
 21
12.53304176750794
 31
0.0
  0
LINE
  5
34D6
330
1E
100
AcDbEntity
  8
7
100
AcDbLine
 10
15.35614747139544
 20
12.53304176750794
 30
0.0
 11
15.35352279947943
 21
12.73907851291476
 31
0.0
  0
LINE
  5
34D7
330
1E
100
AcDbEntity
  8
7
100
AcDbLine
 10
15.35352279947943
 20
12.73907851291476
 30
0.0
 11
15.35221046352142
 21
12.94642759427959
 31
0.0
  0
LINE
  5
34D8
330
1E
100
AcDbEntity
  8
7
100
AcDbLine
 10
15.35221046352142
 20
12.94642759427959
 30
0.0
 11
15.35089812756342
 21
13.15508901160243
 31
0.0
  0
LINE
  5
34D9
330
1E
100
AcDbEntity
  8
7
100
AcDbLine
 10
15.35089812756342
 20
13.15508901160243
 30
0.0
 11
15.35089812756342
 21
13.36375042892526
 31
0.0
  0
LINE
  5
34DA
330
1E
100
AcDbEntity
  8
7
100
AcDbLine
 10
15.35089812756342
 20
13.36375042892526
 30
0.0
 11
15.35221046352142
 21
13.5724118462481
 31
0.0
  0
LINE
  5
34DB
330
1E
100
AcDbEntity
  8
7
100
AcDbLine
 10
15.35221046352142
 20
13.5724118462481
 30
0.0
 11
15.35352279947943
 21
13.78107326357093
 31
0.0
  0
LINE
  5
34DC
330
1E
100
AcDbEntity
  8
7
100
AcDbLine
 10
10.9716330356999
 20
14.61178192498825
 30
0.0
 11
15.36664615905948
 21
14.61178192498825
 31
0.0
  0
LINE
  5
34DD
330
1E
100
AcDbEntity
  8
7
100
AcDbLine
 10
15.36664615905948
 20
14.61178192498825
 30
0.0
 11
15.39026820630358
 21
14.63540397223235
 31
0.0
  0
LINE
  5
34DE
330
1E
100
AcDbEntity
  8
7
100
AcDbLine
 10
15.39026820630358
 20
14.63540397223235
 30
0.0
 11
10.94932332441381
 21
14.63540397223235
 31
0.0
  0
LINE
  5
34DF
330
1E
100
AcDbEntity
  8
7
100
AcDbLine
 10
11.59892962362641
 20
13.58028586199613
 30
0.0
 11
11.59892962362641
 21
13.60522024519823
 31
0.0
  0
LINE
  5
34E0
330
1E
100
AcDbEntity
  8
7
100
AcDbLine
 10
11.59892962362641
 20
13.60522024519823
 30
0.0
 11
11.60024195958442
 21
13.60653258115623
 31
0.0
  0
LINE
  5
34E1
330
1E
100
AcDbEntity
  8
7
100
AcDbLine
 10
11.45850967611985
 20
13.58028586199613
 30
0.0
 11
11.40732857375764
 21
13.58028586199613
 31
0.0
  0
LINE
  5
34E2
330
1E
100
AcDbEntity
  8
7
100
AcDbLine
 10
11.40732857375764
 20
13.58028586199613
 30
0.0
 11
11.40732857375764
 21
13.58159819795413
 31
0.0
  0
LINE
  5
34E3
330
1E
100
AcDbEntity
  8
7
100
AcDbLine
 10
14.69473014856079
 20
13.1997084341746
 30
0.0
 11
14.69997949239282
 21
13.16427536330846
 31
0.0
  0
LINE
  5
34E4
330
1E
100
AcDbEntity
  8
7
100
AcDbLine
 10
14.69997949239282
 20
13.16427536330846
 30
0.0
 11
14.71703985984688
 21
13.13146696435833
 31
0.0
  0
LINE
  5
34E5
330
1E
100
AcDbEntity
  8
7
100
AcDbLine
 10
14.71703985984688
 20
13.13146696435833
 30
0.0
 11
14.74197424304898
 21
13.10653258115623
 31
0.0
  0
LINE
  5
34E6
330
1E
100
AcDbEntity
  8
7
100
AcDbLine
 10
14.74197424304898
 20
13.10653258115623
 30
0.0
 11
14.77478264199911
 21
13.08947221370216
 31
0.0
  0
LINE
  5
34E7
330
1E
100
AcDbEntity
  8
7
100
AcDbLine
 10
14.77478264199911
 20
13.08947221370216
 30
0.0
 11
14.81021571286526
 21
13.08422286987014
 31
0.0
  0
LINE
  5
34E8
330
1E
100
AcDbEntity
  8
7
100
AcDbLine
 10
14.81021571286526
 20
13.08422286987014
 30
0.0
 11
14.8456487837314
 21
13.08947221370216
 31
0.0
  0
LINE
  5
34E9
330
1E
100
AcDbEntity
  8
7
100
AcDbLine
 10
14.8456487837314
 20
13.08947221370216
 30
0.0
 11
14.87845718268153
 21
13.10653258115623
 31
0.0
  0
LINE
  5
34EA
330
1E
100
AcDbEntity
  8
7
100
AcDbLine
 10
14.87845718268153
 20
13.10653258115623
 30
0.0
 11
14.90339156588363
 21
13.13146696435833
 31
0.0
  0
LINE
  5
34EB
330
1E
100
AcDbEntity
  8
7
100
AcDbLine
 10
14.90339156588363
 20
13.13146696435833
 30
0.0
 11
14.9204519333377
 21
13.16427536330846
 31
0.0
  0
LINE
  5
34EC
330
1E
100
AcDbEntity
  8
7
100
AcDbLine
 10
14.9204519333377
 20
13.16427536330846
 30
0.0
 11
14.92570127716972
 21
13.1997084341746
 31
0.0
  0
LINE
  5
34ED
330
1E
100
AcDbEntity
  8
7
100
AcDbLine
 10
14.92570127716972
 20
13.32044334231109
 30
0.0
 11
14.9204519333377
 21
13.35587641317723
 31
0.0
  0
LINE
  5
34EE
330
1E
100
AcDbEntity
  8
7
100
AcDbLine
 10
14.9204519333377
 20
13.35587641317723
 30
0.0
 11
14.90339156588363
 21
13.38868481212736
 31
0.0
  0
LINE
  5
34EF
330
1E
100
AcDbEntity
  8
7
100
AcDbLine
 10
14.90339156588363
 20
13.38868481212736
 30
0.0
 11
14.87845718268153
 21
13.41361919532946
 31
0.0
  0
LINE
  5
34F0
330
1E
100
AcDbEntity
  8
7
100
AcDbLine
 10
14.87845718268153
 20
13.41361919532946
 30
0.0
 11
14.8456487837314
 21
13.43067956278353
 31
0.0
  0
LINE
  5
34F1
330
1E
100
AcDbEntity
  8
7
100
AcDbLine
 10
14.8456487837314
 20
13.43067956278353
 30
0.0
 11
14.81021571286526
 21
13.43592890661555
 31
0.0
  0
LINE
  5
34F2
330
1E
100
AcDbEntity
  8
7
100
AcDbLine
 10
14.81021571286526
 20
13.43592890661555
 30
0.0
 11
14.77478264199911
 21
13.43067956278353
 31
0.0
  0
LINE
  5
34F3
330
1E
100
AcDbEntity
  8
7
100
AcDbLine
 10
14.77478264199911
 20
13.43067956278353
 30
0.0
 11
14.74197424304898
 21
13.41361919532946
 31
0.0
  0
LINE
  5
34F4
330
1E
100
AcDbEntity
  8
7
100
AcDbLine
 10
14.74197424304898
 20
13.41361919532946
 30
0.0
 11
14.71703985984688
 21
13.38868481212736
 31
0.0
  0
LINE
  5
34F5
330
1E
100
AcDbEntity
  8
7
100
AcDbLine
 10
14.71703985984688
 20
13.38868481212736
 30
0.0
 11
14.69997949239282
 21
13.35587641317723
 31
0.0
  0
LINE
  5
34F6
330
1E
100
AcDbEntity
  8
7
100
AcDbLine
 10
14.69997949239282
 20
13.35587641317723
 30
0.0
 11
14.69473014856079
 21
13.32044334231109
 31
0.0
  0
LINE
  5
34F7
330
1E
100
AcDbEntity
  8
7
100
AcDbLine
 10
14.86270915118546
 20
13.3729367806313
 30
0.0
 11
14.83908710394137
 21
13.38999714808537
 31
0.0
  0
LINE
  5
34F8
330
1E
100
AcDbEntity
  8
7
100
AcDbLine
 10
14.83908710394137
 20
13.38999714808537
 30
0.0
 11
14.81021571286526
 21
13.39524649191739
 31
0.0
  0
LINE
  5
34F9
330
1E
100
AcDbEntity
  8
7
100
AcDbLine
 10
14.81021571286526
 20
13.39524649191739
 30
0.0
 11
14.78134432178914
 21
13.38999714808537
 31
0.0
  0
LINE
  5
34FA
330
1E
100
AcDbEntity
  8
7
100
AcDbLine
 10
14.78134432178914
 20
13.38999714808537
 30
0.0
 11
14.75772227454505
 21
13.3729367806313
 31
0.0
  0
LINE
  5
34FB
330
1E
100
AcDbEntity
  8
7
100
AcDbLine
 10
14.75772227454505
 20
13.3729367806313
 30
0.0
 11
14.74066190709098
 21
13.3493147333872
 31
0.0
  0
LINE
  5
34FC
330
1E
100
AcDbEntity
  8
7
100
AcDbLine
 10
14.74066190709098
 20
13.3493147333872
 30
0.0
 11
14.73541256325896
 21
13.32044334231109
 31
0.0
  0
LINE
  5
34FD
330
1E
100
AcDbEntity
  8
7
100
AcDbLine
 10
14.88501886247155
 20
13.32044334231109
 30
0.0
 11
14.87976951863953
 21
13.3493147333872
 31
0.0
  0
LINE
  5
34FE
330
1E
100
AcDbEntity
  8
7
100
AcDbLine
 10
14.87976951863953
 20
13.3493147333872
 30
0.0
 11
14.86270915118546
 21
13.3729367806313
 31
0.0
  0
LINE
  5
34FF
330
1E
100
AcDbEntity
  8
7
100
AcDbLine
 10
14.74066190709098
 20
13.17083704309849
 30
0.0
 11
14.75772227454505
 21
13.1472149958544
 31
0.0
  0
LINE
  5
3500
330
1E
100
AcDbEntity
  8
7
100
AcDbLine
 10
14.75772227454505
 20
13.1472149958544
 30
0.0
 11
14.78134432178914
 21
13.13015462840033
 31
0.0
  0
LINE
  5
3501
330
1E
100
AcDbEntity
  8
7
100
AcDbLine
 10
14.78134432178914
 20
13.13015462840033
 30
0.0
 11
14.81021571286526
 21
13.12490528456831
 31
0.0
  0
LINE
  5
3502
330
1E
100
AcDbEntity
  8
7
100
AcDbLine
 10
14.81021571286526
 20
13.12490528456831
 30
0.0
 11
14.83908710394137
 21
13.13015462840033
 31
0.0
  0
LINE
  5
3503
330
1E
100
AcDbEntity
  8
7
100
AcDbLine
 10
14.83908710394137
 20
13.13015462840033
 30
0.0
 11
14.86270915118546
 21
13.1472149958544
 31
0.0
  0
LINE
  5
3504
330
1E
100
AcDbEntity
  8
7
100
AcDbLine
 10
14.86270915118546
 20
13.1472149958544
 30
0.0
 11
14.87976951863953
 21
13.17083704309849
 31
0.0
  0
LINE
  5
3505
330
1E
100
AcDbEntity
  8
7
100
AcDbLine
 10
14.87976951863953
 20
13.17083704309849
 30
0.0
 11
14.88501886247155
 21
13.1997084341746
 31
0.0
  0
LINE
  5
3506
330
1E
100
AcDbEntity
  8
7
100
AcDbLine
 10
14.73541256325896
 20
13.1997084341746
 30
0.0
 11
14.74066190709098
 21
13.17083704309849
 31
0.0
  0
LINE
  5
3507
330
1E
100
AcDbEntity
  8
7
100
AcDbLine
 10
14.74066190709098
 20
13.17083704309849
 30
0.0
 11
14.75772227454505
 21
13.1472149958544
 31
0.0
  0
LINE
  5
3508
330
1E
100
AcDbEntity
  8
7
100
AcDbLine
 10
14.75772227454505
 20
13.1472149958544
 30
0.0
 11
14.78134432178914
 21
13.13015462840033
 31
0.0
  0
LINE
  5
3509
330
1E
100
AcDbEntity
  8
7
100
AcDbLine
 10
14.78134432178914
 20
13.13015462840033
 30
0.0
 11
14.81021571286526
 21
13.12490528456831
 31
0.0
  0
LINE
  5
350A
330
1E
100
AcDbEntity
  8
7
100
AcDbLine
 10
14.81021571286526
 20
13.12490528456831
 30
0.0
 11
14.83908710394137
 21
13.13015462840033
 31
0.0
  0
LINE
  5
350B
330
1E
100
AcDbEntity
  8
7
100
AcDbLine
 10
14.83908710394137
 20
13.13015462840033
 30
0.0
 11
14.86270915118546
 21
13.1472149958544
 31
0.0
  0
LINE
  5
350C
330
1E
100
AcDbEntity
  8
7
100
AcDbLine
 10
14.86270915118546
 20
13.1472149958544
 30
0.0
 11
14.87976951863953
 21
13.17083704309849
 31
0.0
  0
LINE
  5
350D
330
1E
100
AcDbEntity
  8
7
100
AcDbLine
 10
14.87976951863953
 20
13.17083704309849
 30
0.0
 11
14.88501886247155
 21
13.1997084341746
 31
0.0
  0
LINE
  5
350E
330
1E
100
AcDbEntity
  8
7
100
AcDbLine
 10
14.88501886247155
 20
13.32044334231109
 30
0.0
 11
14.87976951863953
 21
13.3493147333872
 31
0.0
  0
LINE
  5
350F
330
1E
100
AcDbEntity
  8
7
100
AcDbLine
 10
14.87976951863953
 20
13.3493147333872
 30
0.0
 11
14.86270915118546
 21
13.3729367806313
 31
0.0
  0
LINE
  5
3510
330
1E
100
AcDbEntity
  8
7
100
AcDbLine
 10
14.86270915118546
 20
13.3729367806313
 30
0.0
 11
14.83908710394137
 21
13.38999714808537
 31
0.0
  0
LINE
  5
3511
330
1E
100
AcDbEntity
  8
7
100
AcDbLine
 10
14.83908710394137
 20
13.38999714808537
 30
0.0
 11
14.81021571286526
 21
13.39524649191739
 31
0.0
  0
LINE
  5
3512
330
1E
100
AcDbEntity
  8
7
100
AcDbLine
 10
14.81021571286526
 20
13.39524649191739
 30
0.0
 11
14.78134432178914
 21
13.38999714808537
 31
0.0
  0
LINE
  5
3513
330
1E
100
AcDbEntity
  8
7
100
AcDbLine
 10
14.78134432178914
 20
13.38999714808537
 30
0.0
 11
14.75772227454505
 21
13.3729367806313
 31
0.0
  0
LINE
  5
3514
330
1E
100
AcDbEntity
  8
7
100
AcDbLine
 10
14.75772227454505
 20
13.3729367806313
 30
0.0
 11
14.74066190709098
 21
13.3493147333872
 31
0.0
  0
LINE
  5
3515
330
1E
100
AcDbEntity
  8
7
100
AcDbLine
 10
14.74066190709098
 20
13.3493147333872
 30
0.0
 11
14.73541256325896
 21
13.32044334231109
 31
0.0
  0
LINE
  5
3516
330
1E
100
AcDbEntity
  8
7
100
AcDbLine
 10
14.92438894121171
 20
13.32044334231109
 30
0.0
 11
14.91913959737969
 21
13.35587641317723
 31
0.0
  0
LINE
  5
3517
330
1E
100
AcDbEntity
  8
7
100
AcDbLine
 10
14.91913959737969
 20
13.35587641317723
 30
0.0
 11
14.90207922992562
 21
13.38737247616936
 31
0.0
  0
LINE
  5
3518
330
1E
100
AcDbEntity
  8
7
100
AcDbLine
 10
14.90207922992562
 20
13.38737247616936
 30
0.0
 11
14.87714484672352
 21
13.41230685937146
 31
0.0
  0
LINE
  5
3519
330
1E
100
AcDbEntity
  8
7
100
AcDbLine
 10
14.87714484672352
 20
13.41230685937146
 30
0.0
 11
14.8456487837314
 21
13.42936722682553
 31
0.0
  0
LINE
  5
351A
330
1E
100
AcDbEntity
  8
7
100
AcDbLine
 10
14.8456487837314
 20
13.42936722682553
 30
0.0
 11
14.81021571286526
 21
13.43461657065755
 31
0.0
  0
LINE
  5
351B
330
1E
100
AcDbEntity
  8
7
100
AcDbLine
 10
14.81021571286526
 20
13.43461657065755
 30
0.0
 11
14.77478264199911
 21
13.42936722682553
 31
0.0
  0
LINE
  5
351C
330
1E
100
AcDbEntity
  8
7
100
AcDbLine
 10
14.77478264199911
 20
13.42936722682553
 30
0.0
 11
14.74328657900699
 21
13.41230685937146
 31
0.0
  0
LINE
  5
351D
330
1E
100
AcDbEntity
  8
7
100
AcDbLine
 10
14.74328657900699
 20
13.41230685937146
 30
0.0
 11
14.71835219580489
 21
13.38737247616936
 31
0.0
  0
LINE
  5
351E
330
1E
100
AcDbEntity
  8
7
100
AcDbLine
 10
14.71835219580489
 20
13.38737247616936
 30
0.0
 11
14.70129182835082
 21
13.35587641317723
 31
0.0
  0
LINE
  5
351F
330
1E
100
AcDbEntity
  8
7
100
AcDbLine
 10
14.70129182835082
 20
13.35587641317723
 30
0.0
 11
14.6960424845188
 21
13.32044334231109
 31
0.0
  0
LINE
  5
3520
330
1E
100
AcDbEntity
  8
7
100
AcDbLine
 10
14.6960424845188
 20
13.1997084341746
 30
0.0
 11
14.70129182835082
 21
13.16427536330846
 31
0.0
  0
LINE
  5
3521
330
1E
100
AcDbEntity
  8
7
100
AcDbLine
 10
14.70129182835082
 20
13.16427536330846
 30
0.0
 11
14.71835219580489
 21
13.13277930031634
 31
0.0
  0
LINE
  5
3522
330
1E
100
AcDbEntity
  8
7
100
AcDbLine
 10
14.71835219580489
 20
13.13277930031634
 30
0.0
 11
14.74328657900699
 21
13.10784491711424
 31
0.0
  0
LINE
  5
3523
330
1E
100
AcDbEntity
  8
7
100
AcDbLine
 10
14.74328657900699
 20
13.10784491711424
 30
0.0
 11
14.77478264199911
 21
13.09078454966017
 31
0.0
  0
LINE
  5
3524
330
1E
100
AcDbEntity
  8
7
100
AcDbLine
 10
14.77478264199911
 20
13.09078454966017
 30
0.0
 11
14.81021571286526
 21
13.08553520582815
 31
0.0
  0
LINE
  5
3525
330
1E
100
AcDbEntity
  8
7
100
AcDbLine
 10
14.81021571286526
 20
13.08553520582815
 30
0.0
 11
14.8456487837314
 21
13.09078454966017
 31
0.0
  0
LINE
  5
3526
330
1E
100
AcDbEntity
  8
7
100
AcDbLine
 10
14.8456487837314
 20
13.09078454966017
 30
0.0
 11
14.87714484672352
 21
13.10784491711424
 31
0.0
  0
LINE
  5
3527
330
1E
100
AcDbEntity
  8
7
100
AcDbLine
 10
14.87714484672352
 20
13.10784491711424
 30
0.0
 11
14.90207922992562
 21
13.13277930031634
 31
0.0
  0
LINE
  5
3528
330
1E
100
AcDbEntity
  8
7
100
AcDbLine
 10
14.90207922992562
 20
13.13277930031634
 30
0.0
 11
14.91913959737969
 21
13.16427536330846
 31
0.0
  0
LINE
  5
3529
330
1E
100
AcDbEntity
  8
7
100
AcDbLine
 10
14.91913959737969
 20
13.16427536330846
 30
0.0
 11
14.92438894121171
 21
13.1997084341746
 31
0.0
  0
LINE
  5
352A
330
1E
100
AcDbEntity
  8
7
100
AcDbLine
 10
12.11467765512247
 20
13.1222806126523
 30
0.0
 11
12.11205298320646
 21
13.09209688561818
 31
0.0
  0
LINE
  5
352B
330
1E
100
AcDbEntity
  8
7
100
AcDbLine
 10
12.11205298320646
 20
13.09209688561818
 30
0.0
 11
11.90470390184163
 21
13.09209688561818
 31
0.0
  0
LINE
  5
352C
330
1E
100
AcDbEntity
  8
7
100
AcDbLine
 10
12.74722358688101
 20
13.09209688561818
 30
0.0
 11
12.3220267364873
 21
13.09209688561818
 31
0.0
  0
LINE
  5
352D
330
1E
100
AcDbEntity
  8
7
100
AcDbLine
 10
12.3220267364873
 20
13.09209688561818
 30
0.0
 11
12.31940206457129
 21
13.1222806126523
 31
0.0
  0
LINE
  5
352E
330
1E
100
AcDbEntity
  8
7
100
AcDbLine
 10
13.38501886247156
 20
13.1222806126523
 30
0.0
 11
13.38239419055554
 21
13.09209688561818
 31
0.0
  0
LINE
  5
352F
330
1E
100
AcDbEntity
  8
7
100
AcDbLine
 10
13.38239419055554
 20
13.09209688561818
 30
0.0
 11
12.95719734016184
 21
13.09209688561818
 31
0.0
  0
LINE
  5
3530
330
1E
100
AcDbEntity
  8
7
100
AcDbLine
 10
12.95719734016184
 20
13.09209688561818
 30
0.0
 11
12.95457266824583
 21
13.1222806126523
 31
0.0
  0
LINE
  5
3531
330
1E
100
AcDbEntity
  8
7
100
AcDbLine
 10
14.02018946614609
 20
13.1222806126523
 30
0.0
 11
14.01756479423008
 21
13.09209688561818
 31
0.0
  0
LINE
  5
3532
330
1E
100
AcDbEntity
  8
7
100
AcDbLine
 10
14.01756479423008
 20
13.09209688561818
 30
0.0
 11
13.59236794383638
 21
13.09209688561818
 31
0.0
  0
LINE
  5
3533
330
1E
100
AcDbEntity
  8
7
100
AcDbLine
 10
13.59236794383638
 20
13.09209688561818
 30
0.0
 11
13.58974327192037
 21
13.1222806126523
 31
0.0
  0
LINE
  5
3534
330
1E
100
AcDbEntity
  8
7
100
AcDbLine
 10
14.43488762887576
 20
13.09209688561818
 30
0.0
 11
14.22622621155292
 21
13.09209688561818
 31
0.0
  0
LINE
  5
3535
330
1E
100
AcDbEntity
  8
7
100
AcDbLine
 10
14.22622621155292
 20
13.09209688561818
 30
0.0
 11
14.22491387559492
 21
13.1222806126523
 31
0.0
  0
LINE
  5
3536
330
1E
100
AcDbEntity
  8
7
100
AcDbLine
 10
14.44407398058179
 20
13.46348796173366
 30
0.0
 11
11.8955175501356
 21
13.46348796173366
 31
0.0
  0
LINE
  5
3537
330
1E
100
AcDbEntity
  8
7
100
AcDbLine
 10
11.8955175501356
 20
13.46348796173366
 30
0.0
 11
11.8955175501356
 21
13.50548271238983
 31
0.0
  0
LINE
  5
3538
330
1E
100
AcDbEntity
  8
7
100
AcDbLine
 10
11.8955175501356
 20
13.50548271238983
 30
0.0
 11
11.87058316693349
 21
13.50548271238983
 31
0.0
  0
LINE
  5
3539
330
1E
100
AcDbEntity
  8
7
100
AcDbLine
 10
11.87058316693349
 20
13.50548271238983
 30
0.0
 11
11.87058316693349
 21
13.6222806126523
 31
0.0
  0
LINE
  5
353A
330
1E
100
AcDbEntity
  8
7
100
AcDbLine
 10
11.82727608031932
 20
14.03829111133996
 30
0.0
 11
11.84433644777339
 21
13.31125699060505
 31
0.0
  0
LINE
  5
353B
330
1E
100
AcDbEntity
  8
7
100
AcDbLine
 10
11.84433644777339
 20
13.31125699060505
 30
0.0
 11
14.49394274698599
 21
13.31125699060505
 31
0.0
  0
LINE
  5
353C
330
1E
100
AcDbEntity
  8
7
100
AcDbLine
 10
11.8955175501356
 20
13.60915725307224
 30
0.0
 11
11.8955175501356
 21
13.65246433968642
 31
0.0
  0
LINE
  5
353D
330
1E
100
AcDbEntity
  8
7
100
AcDbLine
 10
11.8955175501356
 20
13.65246433968642
 30
0.0
 11
11.8955175501356
 21
13.66427536330846
 31
0.0
  0
LINE
  5
353E
330
1E
100
AcDbEntity
  8
7
100
AcDbLine
 10
11.8718955028915
 20
13.60915725307224
 30
0.0
 11
11.8955175501356
 21
13.60915725307224
 31
0.0
  0
LINE
  5
353F
330
1E
100
AcDbEntity
  8
7
100
AcDbLine
 10
11.8955175501356
 20
13.60915725307224
 30
0.0
 11
11.8955175501356
 21
13.6222806126523
 31
0.0
  0
LINE
  5
3540
330
1E
100
AcDbEntity
  8
7
100
AcDbLine
 10
14.15929707769465
 20
13.52648008771791
 30
0.0
 11
14.15273539790462
 21
13.54354045517198
 31
0.0
  0
LINE
  5
3541
330
1E
100
AcDbEntity
  8
7
100
AcDbLine
 10
14.15273539790462
 20
13.54354045517198
 30
0.0
 11
14.13698736640856
 21
13.55403914283602
 31
0.0
  0
LINE
  5
3542
330
1E
100
AcDbEntity
  8
7
100
AcDbLine
 10
14.13698736640856
 20
13.55403914283602
 30
0.0
 11
14.11730232703848
 21
13.55666381475203
 31
0.0
  0
LINE
  5
3543
330
1E
100
AcDbEntity
  8
7
100
AcDbLine
 10
14.11730232703848
 20
13.55666381475203
 30
0.0
 11
14.09761728766841
 21
13.55010213496201
 31
0.0
  0
LINE
  5
3544
330
1E
100
AcDbEntity
  8
7
100
AcDbLine
 10
14.09761728766841
 20
13.55010213496201
 30
0.0
 11
14.08711860000436
 21
13.53566643942395
 31
0.0
  0
LINE
  5
3545
330
1E
100
AcDbEntity
  8
7
100
AcDbLine
 10
14.08711860000436
 20
13.53566643942395
 30
0.0
 11
14.08711860000436
 21
13.51860607196988
 31
0.0
  0
LINE
  5
3546
330
1E
100
AcDbEntity
  8
7
100
AcDbLine
 10
14.08711860000436
 20
13.51860607196988
 30
0.0
 11
14.09761728766841
 21
13.50417037643182
 31
0.0
  0
LINE
  5
3547
330
1E
100
AcDbEntity
  8
7
100
AcDbLine
 10
14.09761728766841
 20
13.50417037643182
 30
0.0
 11
14.11730232703848
 21
13.4976086966418
 31
0.0
  0
LINE
  5
3548
330
1E
100
AcDbEntity
  8
7
100
AcDbLine
 10
14.11730232703848
 20
13.4976086966418
 30
0.0
 11
14.13698736640856
 21
13.50023336855781
 31
0.0
  0
LINE
  5
3549
330
1E
100
AcDbEntity
  8
7
100
AcDbLine
 10
14.13698736640856
 20
13.50023336855781
 30
0.0
 11
14.15273539790462
 21
13.51073205622185
 31
0.0
  0
LINE
  5
354A
330
1E
100
AcDbEntity
  8
7
100
AcDbLine
 10
14.15273539790462
 20
13.51073205622185
 30
0.0
 11
14.15929707769465
 21
13.52648008771791
 31
0.0
  0
LINE
  5
354B
330
1E
100
AcDbEntity
  8
7
100
AcDbLine
 10
12.88895587034557
 20
13.52648008771791
 30
0.0
 11
12.88239419055554
 21
13.54354045517198
 31
0.0
  0
LINE
  5
354C
330
1E
100
AcDbEntity
  8
7
100
AcDbLine
 10
12.88239419055554
 20
13.54354045517198
 30
0.0
 11
12.86664615905948
 21
13.55403914283602
 31
0.0
  0
LINE
  5
354D
330
1E
100
AcDbEntity
  8
7
100
AcDbLine
 10
12.86664615905948
 20
13.55403914283602
 30
0.0
 11
12.8469611196894
 21
13.55666381475203
 31
0.0
  0
LINE
  5
354E
330
1E
100
AcDbEntity
  8
7
100
AcDbLine
 10
12.8469611196894
 20
13.55666381475203
 30
0.0
 11
12.82858841627733
 21
13.55010213496201
 31
0.0
  0
LINE
  5
354F
330
1E
100
AcDbEntity
  8
7
100
AcDbLine
 10
12.82858841627733
 20
13.55010213496201
 30
0.0
 11
12.81677739265528
 21
13.53566643942395
 31
0.0
  0
LINE
  5
3550
330
1E
100
AcDbEntity
  8
7
100
AcDbLine
 10
12.81677739265528
 20
13.53566643942395
 30
0.0
 11
12.81677739265528
 21
13.51860607196988
 31
0.0
  0
LINE
  5
3551
330
1E
100
AcDbEntity
  8
7
100
AcDbLine
 10
12.81677739265528
 20
13.51860607196988
 30
0.0
 11
12.82858841627733
 21
13.50417037643182
 31
0.0
  0
LINE
  5
3552
330
1E
100
AcDbEntity
  8
7
100
AcDbLine
 10
12.82858841627733
 20
13.50417037643182
 30
0.0
 11
12.8469611196894
 21
13.4976086966418
 31
0.0
  0
LINE
  5
3553
330
1E
100
AcDbEntity
  8
7
100
AcDbLine
 10
12.8469611196894
 20
13.4976086966418
 30
0.0
 11
12.86664615905948
 21
13.50023336855781
 31
0.0
  0
LINE
  5
3554
330
1E
100
AcDbEntity
  8
7
100
AcDbLine
 10
12.86664615905948
 20
13.50023336855781
 30
0.0
 11
12.88239419055554
 21
13.51073205622185
 31
0.0
  0
LINE
  5
3555
330
1E
100
AcDbEntity
  8
7
100
AcDbLine
 10
12.18160678898074
 20
13.51860607196988
 30
0.0
 11
12.19341781260279
 21
13.50417037643182
 31
0.0
  0
LINE
  5
3556
330
1E
100
AcDbEntity
  8
7
100
AcDbLine
 10
12.19341781260279
 20
13.50417037643182
 30
0.0
 11
12.21179051601486
 21
13.4976086966418
 31
0.0
  0
LINE
  5
3557
330
1E
100
AcDbEntity
  8
7
100
AcDbLine
 10
12.21179051601486
 20
13.4976086966418
 30
0.0
 11
12.23278789134295
 21
13.50023336855781
 31
0.0
  0
LINE
  5
3558
330
1E
100
AcDbEntity
  8
7
100
AcDbLine
 10
12.23278789134295
 20
13.50023336855781
 30
0.0
 11
12.24722358688101
 21
13.51073205622185
 31
0.0
  0
LINE
  5
3559
330
1E
100
AcDbEntity
  8
7
100
AcDbLine
 10
12.24722358688101
 20
13.51073205622185
 30
0.0
 11
12.25378526667103
 21
13.52648008771791
 31
0.0
  0
LINE
  5
355A
330
1E
100
AcDbEntity
  8
7
100
AcDbLine
 10
12.25378526667103
 20
13.52648008771791
 30
0.0
 11
12.24722358688101
 21
13.54354045517198
 31
0.0
  0
LINE
  5
355B
330
1E
100
AcDbEntity
  8
7
100
AcDbLine
 10
12.24722358688101
 20
13.54354045517198
 30
0.0
 11
12.23278789134295
 21
13.55403914283602
 31
0.0
  0
LINE
  5
355C
330
1E
100
AcDbEntity
  8
7
100
AcDbLine
 10
12.23278789134295
 20
13.55403914283602
 30
0.0
 11
12.21179051601486
 21
13.55666381475203
 31
0.0
  0
LINE
  5
355D
330
1E
100
AcDbEntity
  8
7
100
AcDbLine
 10
12.21179051601486
 20
13.55666381475203
 30
0.0
 11
12.19341781260279
 21
13.55010213496201
 31
0.0
  0
LINE
  5
355E
330
1E
100
AcDbEntity
  8
7
100
AcDbLine
 10
12.19341781260279
 20
13.55010213496201
 30
0.0
 11
12.18160678898074
 21
13.53566643942395
 31
0.0
  0
LINE
  5
355F
330
1E
100
AcDbEntity
  8
7
100
AcDbLine
 10
12.18160678898074
 20
13.53566643942395
 30
0.0
 11
12.18160678898074
 21
13.51860607196988
 31
0.0
  0
LINE
  5
3560
330
1E
100
AcDbEntity
  8
7
100
AcDbLine
 10
13.48213172336394
 20
13.55666381475203
 30
0.0
 11
13.46244668399386
 21
13.55010213496201
 31
0.0
  0
LINE
  5
3561
330
1E
100
AcDbEntity
  8
7
100
AcDbLine
 10
13.46244668399386
 20
13.55010213496201
 30
0.0
 11
13.45194799632982
 21
13.53566643942395
 31
0.0
  0
LINE
  5
3562
330
1E
100
AcDbEntity
  8
7
100
AcDbLine
 10
13.45194799632982
 20
13.53566643942395
 30
0.0
 11
13.45194799632982
 21
13.51860607196988
 31
0.0
  0
LINE
  5
3563
330
1E
100
AcDbEntity
  8
7
100
AcDbLine
 10
13.45194799632982
 20
13.51860607196988
 30
0.0
 11
13.46244668399386
 21
13.50417037643182
 31
0.0
  0
LINE
  5
3564
330
1E
100
AcDbEntity
  8
7
100
AcDbLine
 10
13.46244668399386
 20
13.50417037643182
 30
0.0
 11
13.48213172336394
 21
13.4976086966418
 31
0.0
  0
LINE
  5
3565
330
1E
100
AcDbEntity
  8
7
100
AcDbLine
 10
13.48213172336394
 20
13.4976086966418
 30
0.0
 11
13.50181676273402
 21
13.50023336855781
 31
0.0
  0
LINE
  5
3566
330
1E
100
AcDbEntity
  8
7
100
AcDbLine
 10
13.50181676273402
 20
13.50023336855781
 30
0.0
 11
13.51756479423008
 21
13.51073205622185
 31
0.0
  0
LINE
  5
3567
330
1E
100
AcDbEntity
  8
7
100
AcDbLine
 10
13.51756479423008
 20
13.51073205622185
 30
0.0
 11
13.52412647402011
 21
13.52648008771791
 31
0.0
  0
LINE
  5
3568
330
1E
100
AcDbEntity
  8
7
100
AcDbLine
 10
13.52412647402011
 20
13.52648008771791
 30
0.0
 11
13.51756479423008
 21
13.54354045517198
 31
0.0
  0
LINE
  5
3569
330
1E
100
AcDbEntity
  8
7
100
AcDbLine
 10
13.51756479423008
 20
13.54354045517198
 30
0.0
 11
13.50181676273402
 21
13.55403914283602
 31
0.0
  0
LINE
  5
356A
330
1E
100
AcDbEntity
  8
7
100
AcDbLine
 10
13.50181676273402
 20
13.55403914283602
 30
0.0
 11
13.48213172336394
 21
13.55666381475203
 31
0.0
  0
LINE
  5
356B
330
1E
100
AcDbEntity
  8
7
100
AcDbLine
 10
14.51231545039807
 20
14.03829111133996
 30
0.0
 11
14.53462516168415
 21
14.03304176750794
 31
0.0
  0
LINE
  5
356C
330
1E
100
AcDbEntity
  8
7
100
AcDbLine
 10
14.53462516168415
 20
14.03304176750794
 30
0.0
 11
14.55562253701224
 21
14.01729373601188
 31
0.0
  0
LINE
  5
356D
330
1E
100
AcDbEntity
  8
7
100
AcDbLine
 10
14.55562253701224
 20
14.01729373601188
 30
0.0
 11
14.57399524042431
 21
13.99367168876778
 31
0.0
  0
LINE
  5
356E
330
1E
100
AcDbEntity
  8
7
100
AcDbLine
 10
14.57399524042431
 20
13.99367168876778
 30
0.0
 11
14.58843093596237
 21
13.96217562577565
 31
0.0
  0
LINE
  5
356F
330
1E
100
AcDbEntity
  8
7
100
AcDbLine
 10
14.58843093596237
 20
13.96217562577565
 30
0.0
 11
14.5963049517104
 21
13.92543021895151
 31
0.0
  0
LINE
  5
3570
330
1E
100
AcDbEntity
  8
7
100
AcDbLine
 10
14.5963049517104
 20
13.92543021895151
 30
0.0
 11
14.59892962362641
 21
13.88606014021135
 31
0.0
  0
LINE
  5
3571
330
1E
100
AcDbEntity
  8
7
100
AcDbLine
 10
14.51231545039807
 20
12.48186066514573
 30
0.0
 11
11.82727608031932
 21
12.48186066514573
 31
0.0
  0
LINE
  5
3572
330
1E
100
AcDbEntity
  8
7
100
AcDbLine
 10
11.82727608031932
 20
12.48186066514573
 30
0.0
 11
11.80365403307523
 21
12.48711000897776
 31
0.0
  0
LINE
  5
3573
330
1E
100
AcDbEntity
  8
7
100
AcDbLine
 10
11.80365403307523
 20
12.48711000897776
 30
0.0
 11
11.78265665774715
 21
12.50154570451581
 31
0.0
  0
LINE
  5
3574
330
1E
100
AcDbEntity
  8
7
100
AcDbLine
 10
11.78265665774715
 20
12.50154570451581
 30
0.0
 11
11.76559629029308
 21
12.52648008771791
 31
0.0
  0
LINE
  5
3575
330
1E
100
AcDbEntity
  8
7
100
AcDbLine
 10
11.76559629029308
 20
12.52648008771791
 30
0.0
 11
11.75116059475502
 21
12.55797615071004
 31
0.0
  0
LINE
  5
3576
330
1E
100
AcDbEntity
  8
7
100
AcDbLine
 10
11.75116059475502
 20
12.55797615071004
 30
0.0
 11
11.74197424304898
 21
12.59472155753418
 31
0.0
  0
LINE
  5
3577
330
1E
100
AcDbEntity
  8
7
100
AcDbLine
 10
11.74197424304898
 20
12.59472155753418
 30
0.0
 11
11.73934957113297
 21
12.63409163627434
 31
0.0
  0
LINE
  5
3578
330
1E
100
AcDbEntity
  8
7
100
AcDbLine
 10
11.73934957113297
 20
12.63409163627434
 30
0.0
 11
11.73934957113297
 21
13.88606014021135
 31
0.0
  0
LINE
  5
3579
330
1E
100
AcDbEntity
  8
7
100
AcDbLine
 10
11.73934957113297
 20
13.88606014021135
 30
0.0
 11
11.74197424304898
 21
13.92543021895151
 31
0.0
  0
LINE
  5
357A
330
1E
100
AcDbEntity
  8
7
100
AcDbLine
 10
11.74197424304898
 20
13.92543021895151
 30
0.0
 11
11.75116059475502
 21
13.96217562577565
 31
0.0
  0
LINE
  5
357B
330
1E
100
AcDbEntity
  8
7
100
AcDbLine
 10
11.75116059475502
 20
13.96217562577565
 30
0.0
 11
11.76559629029308
 21
13.99367168876778
 31
0.0
  0
LINE
  5
357C
330
1E
100
AcDbEntity
  8
7
100
AcDbLine
 10
11.76559629029308
 20
13.99367168876778
 30
0.0
 11
11.78265665774715
 21
14.01729373601188
 31
0.0
  0
LINE
  5
357D
330
1E
100
AcDbEntity
  8
7
100
AcDbLine
 10
11.78265665774715
 20
14.01729373601188
 30
0.0
 11
11.80365403307523
 21
14.03304176750794
 31
0.0
  0
LINE
  5
357E
330
1E
100
AcDbEntity
  8
7
100
AcDbLine
 10
11.80365403307523
 20
14.03304176750794
 30
0.0
 11
11.82727608031932
 21
14.03829111133996
 31
0.0
  0
LINE
  5
357F
330
1E
100
AcDbEntity
  8
7
100
AcDbLine
 10
14.59892962362641
 20
12.63409163627434
 30
0.0
 11
14.5963049517104
 21
12.59472155753418
 31
0.0
  0
LINE
  5
3580
330
1E
100
AcDbEntity
  8
7
100
AcDbLine
 10
14.5963049517104
 20
12.59472155753418
 30
0.0
 11
14.58843093596237
 21
12.55797615071004
 31
0.0
  0
LINE
  5
3581
330
1E
100
AcDbEntity
  8
7
100
AcDbLine
 10
14.58843093596237
 20
12.55797615071004
 30
0.0
 11
14.57399524042431
 21
12.52648008771791
 31
0.0
  0
LINE
  5
3582
330
1E
100
AcDbEntity
  8
7
100
AcDbLine
 10
14.57399524042431
 20
12.52648008771791
 30
0.0
 11
14.55562253701224
 21
12.50154570451581
 31
0.0
  0
LINE
  5
3583
330
1E
100
AcDbEntity
  8
7
100
AcDbLine
 10
14.55562253701224
 20
12.50154570451581
 30
0.0
 11
14.53462516168415
 21
12.48711000897776
 31
0.0
  0
LINE
  5
3584
330
1E
100
AcDbEntity
  8
7
100
AcDbLine
 10
14.53462516168415
 20
12.48711000897776
 30
0.0
 11
14.51231545039807
 21
12.48186066514573
 31
0.0
  0
LINE
  5
3585
330
1E
100
AcDbEntity
  8
7
100
AcDbLine
 10
14.88108185459754
 20
12.91361919532946
 30
0.0
 11
14.73934957113297
 21
12.91361919532946
 31
0.0
  0
LINE
  5
3586
330
1E
100
AcDbEntity
  8
7
100
AcDbLine
 10
14.73934957113297
 20
12.91361919532946
 30
0.0
 11
14.73934957113297
 21
12.93724124257356
 31
0.0
  0
LINE
  5
3587
330
1E
100
AcDbEntity
  8
7
100
AcDbLine
 10
14.73934957113297
 20
12.93724124257356
 30
0.0
 11
14.68816846877077
 21
12.93724124257356
 31
0.0
  0
LINE
  5
3588
330
1E
100
AcDbEntity
  8
7
100
AcDbLine
 10
14.68816846877077
 20
12.93724124257356
 30
0.0
 11
14.68816846877077
 21
13.58159819795413
 31
0.0
  0
LINE
  5
3589
330
1E
100
AcDbEntity
  8
7
100
AcDbLine
 10
14.68816846877077
 20
13.58159819795413
 30
0.0
 11
14.73934957113297
 21
13.58159819795413
 31
0.0
  0
LINE
  5
358A
330
1E
100
AcDbEntity
  8
7
100
AcDbLine
 10
14.73934957113297
 20
13.58159819795413
 30
0.0
 11
14.73934957113297
 21
13.60653258115623
 31
0.0
  0
LINE
  5
358B
330
1E
100
AcDbEntity
  8
7
100
AcDbLine
 10
14.73934957113297
 20
13.60653258115623
 30
0.0
 11
14.88108185459754
 21
13.60653258115623
 31
0.0
  0
LINE
  5
358C
330
1E
100
AcDbEntity
  8
7
100
AcDbLine
 10
14.88108185459754
 20
13.60653258115623
 30
0.0
 11
14.88108185459754
 21
13.58159819795413
 31
0.0
  0
LINE
  5
358D
330
1E
100
AcDbEntity
  8
7
100
AcDbLine
 10
14.88108185459754
 20
13.58159819795413
 30
0.0
 11
14.93226295695974
 21
13.58159819795413
 31
0.0
  0
LINE
  5
358E
330
1E
100
AcDbEntity
  8
7
100
AcDbLine
 10
14.93226295695974
 20
13.58159819795413
 30
0.0
 11
14.93226295695974
 21
12.93724124257356
 31
0.0
  0
LINE
  5
358F
330
1E
100
AcDbEntity
  8
7
100
AcDbLine
 10
14.93226295695974
 20
12.93724124257356
 30
0.0
 11
14.88108185459754
 21
12.93724124257356
 31
0.0
  0
LINE
  5
3590
330
1E
100
AcDbEntity
  8
7
100
AcDbLine
 10
14.88108185459754
 20
12.93724124257356
 30
0.0
 11
14.88108185459754
 21
12.91361919532946
 31
0.0
  0
ENDSEC
  0
SECTION
  2
OBJECTS
  0
DICTIONARY
  5
C
330
0
100
AcDbDictionary
  3
ACAD_GROUP
350
D
  3
ACAD_LAYOUT
350
19
  3
ACAD_MLINESTYLE
350
16
  3
ACAD_PLOTSETTINGS
350
18
1001
ACAD
1000
TREAT_AS_HARD
1070
     0
  0
DICTIONARY
  5
4840
330
1E
100
AcDbDictionary
  3
ACAD_LAYOUTSELFREF
350
487B
1001
ACAD
1000
TREAT_AS_HARD
1070
     1
  0
DICTIONARY
  5
4842
330
1A
100
AcDbDictionary
  3
ACAD_LAYOUTSELFREF
350
487A
1001
ACAD
1000
TREAT_AS_HARD
1070
     1
  0
DICTIONARY
  5
D
102
{ACAD_REACTORS
330
C
102
}
330
C
100
AcDbDictionary
1001
ACAD
1000
TREAT_AS_HARD
1070
     0
  0
DICTIONARY
  5
19
102
{ACAD_REACTORS
330
C
102
}
330
C
100
AcDbDictionary
1001
ACAD
1000
TREAT_AS_HARD
1070
     0
  0
DICTIONARY
  5
16
102
{ACAD_REACTORS
330
C
102
}
330
C
100
AcDbDictionary
  3
STANDARD
350
17
1001
ACAD
1000
TREAT_AS_HARD
1070
     0
  0
DICTIONARY
  5
18
102
{ACAD_REACTORS
330
C
102
}
330
C
100
AcDbDictionary
1001
ACAD
1000
TREAT_AS_HARD
1070
     0
  0
XRECORD
  5
487B
102
{ACAD_REACTORS
330
4840
102
}
330
4840
100
AcDbXrecord
340
1E
  0
XRECORD
  5
487A
102
{ACAD_REACTORS
330
4842
102
}
330
4842
100
AcDbXrecord
340
1A
  0
MLINESTYLE
  5
17
102
{ACAD_REACTORS
330
16
102
}
330
16
100
AcDbMlineStyle
  2
STANDARD
 70
     0
  3

 62
   256
 51
90.0
 52
90.0
 71
     2
 49
0.5
 62
   256
  6
BYLAYER
 49
-0.5
 62
   256
  6
BYLAYER
  0
ENDSEC
  0
EOF
