  0
SECTION
  2
HEADER
  9
$ACADVER
  1
AC1014
  9
$ACADMAINTVER
 70
     9
  9
$DWGCODEPAGE
  3
ANSI_1252
  9
$INSBASE
 10
0.0
 20
0.0
 30
0.0
  9
$EXTMIN
 10
0.1071648839645114
 20
0.0559837816023067
 30
0.0
  9
$EXTMAX
 10
11.04440991918509
 20
8.495078740157479
 30
0.0
  9
$LIMMIN
 10
0.0
 20
0.0
  9
$LIMMAX
 10
12.0
 20
9.0
  9
$ORTHOMODE
 70
     0
  9
$REGENMODE
 70
     1
  9
$FILLMODE
 70
     1
  9
$QTEXTMODE
 70
     0
  9
$MIRRTEXT
 70
     1
  9
$DRAGMODE
 70
     2
  9
$LTSCALE
 40
1.0
  9
$OSMODE
 70
    37
  9
$ATTMODE
 70
     1
  9
$TEXTSIZE
 40
0.2
  9
$TRACEWID
 40
0.05
  9
$TEXTSTYLE
  7
STANDARD
  9
$CLAYER
  8
0
  9
$CELTYPE
  6
BYLAYER
  9
$CECOLOR
 62
   256
  9
$CELTSCALE
 40
1.0
  9
$DELOBJ
 70
     1
  9
$DISPSILH
 70
     0
  9
$DIMSCALE
 40
1.0
  9
$DIMASZ
 40
0.18
  9
$DIMEXO
 40
0.0625
  9
$DIMDLI
 40
0.38
  9
$DIMRND
 40
0.0
  9
$DIMDLE
 40
0.0
  9
$DIMEXE
 40
0.18
  9
$DIMTP
 40
0.0
  9
$DIMTM
 40
0.0
  9
$DIMTXT
 40
0.18
  9
$DIMCEN
 40
0.09
  9
$DIMTSZ
 40
0.0
  9
$DIMTOL
 70
     0
  9
$DIMLIM
 70
     0
  9
$DIMTIH
 70
     1
  9
$DIMTOH
 70
     1
  9
$DIMSE1
 70
     0
  9
$DIMSE2
 70
     0
  9
$DIMTAD
 70
     0
  9
$DIMZIN
 70
     0
  9
$DIMBLK
  1

  9
$DIMASO
 70
     1
  9
$DIMSHO
 70
     1
  9
$DIMPOST
  1

  9
$DIMAPOST
  1

  9
$DIMALT
 70
     0
  9
$DIMALTD
 70
     2
  9
$DIMALTF
 40
25.4
  9
$DIMLFAC
 40
1.0
  9
$DIMTOFL
 70
     0
  9
$DIMTVP
 40
0.0
  9
$DIMTIX
 70
     0
  9
$DIMSOXD
 70
     0
  9
$DIMSAH
 70
     0
  9
$DIMBLK1
  1

  9
$DIMBLK2
  1

  9
$DIMSTYLE
  2
STANDARD
  9
$DIMCLRD
 70
     0
  9
$DIMCLRE
 70
     0
  9
$DIMCLRT
 70
     0
  9
$DIMTFAC
 40
1.0
  9
$DIMGAP
 40
0.09
  9
$DIMJUST
 70
     0
  9
$DIMSD1
 70
     0
  9
$DIMSD2
 70
     0
  9
$DIMTOLJ
 70
     1
  9
$DIMTZIN
 70
     0
  9
$DIMALTZ
 70
     0
  9
$DIMALTTZ
 70
     0
  9
$DIMFIT
 70
     5
  9
$DIMUPT
 70
     0
  9
$DIMUNIT
 70
     2
  9
$DIMDEC
 70
     4
  9
$DIMTDEC
 70
     4
  9
$DIMALTU
 70
     2
  9
$DIMALTTD
 70
     2
  9
$DIMTXSTY
  7
STANDARD
  9
$DIMAUNIT
 70
     0
  9
$LUNITS
 70
     2
  9
$LUPREC
 70
     4
  9
$SKETCHINC
 40
0.1
  9
$FILLETRAD
 40
0.0
  9
$AUNITS
 70
     0
  9
$AUPREC
 70
     0
  9
$MENU
  1
acad
  9
$ELEVATION
 40
0.0
  9
$PELEVATION
 40
0.0
  9
$THICKNESS
 40
0.0
  9
$LIMCHECK
 70
     0
  9
$BLIPMODE
 70
     0
  9
$CHAMFERA
 40
0.0
  9
$CHAMFERB
 40
0.0
  9
$CHAMFERC
 40
0.0
  9
$CHAMFERD
 40
0.0
  9
$SKPOLY
 70
     0
  9
$TDCREATE
 40
2452174.413611111
  9
$TDUPDATE
 40
2452174.415530775
  9
$TDINDWG
 40
0.0016418866
  9
$TDUSRTIMER
 40
0.0016418866
  9
$USRTIMER
 70
     1
  9
$ANGBASE
 50
0.0
  9
$ANGDIR
 70
     0
  9
$PDMODE
 70
     0
  9
$PDSIZE
 40
0.0
  9
$PLINEWID
 40
0.0
  9
$COORDS
 70
     0
  9
$SPLFRAME
 70
     0
  9
$SPLINETYPE
 70
     6
  9
$SPLINESEGS
 70
     8
  9
$ATTDIA
 70
     0
  9
$ATTREQ
 70
     1
  9
$HANDLING
 70
-16383
  9
$HANDSEED
  5
2A01
  9
$SURFTAB1
 70
     6
  9
$SURFTAB2
 70
     6
  9
$SURFTYPE
 70
     6
  9
$SURFU
 70
     6
  9
$SURFV
 70
     6
  9
$UCSNAME
  2

  9
$UCSORG
 10
0.0
 20
0.0
 30
0.0
  9
$UCSXDIR
 10
1.0
 20
0.0
 30
0.0
  9
$UCSYDIR
 10
0.0
 20
1.0
 30
0.0
  9
$PUCSNAME
  2

  9
$PUCSORG
 10
0.0
 20
0.0
 30
0.0
  9
$PUCSXDIR
 10
1.0
 20
0.0
 30
0.0
  9
$PUCSYDIR
 10
0.0
 20
1.0
 30
0.0
  9
$USERI1
 70
     0
  9
$USERI2
 70
     0
  9
$USERI3
 70
     0
  9
$USERI4
 70
     0
  9
$USERI5
 70
     0
  9
$USERR1
 40
0.0
  9
$USERR2
 40
0.0
  9
$USERR3
 40
0.0
  9
$USERR4
 40
0.0
  9
$USERR5
 40
0.0
  9
$WORLDVIEW
 70
     1
  9
$SHADEDGE
 70
     3
  9
$SHADEDIF
 70
    70
  9
$TILEMODE
 70
     1
  9
$MAXACTVP
 70
    16
  9
$PINSBASE
 10
0.0
 20
0.0
 30
0.0
  9
$PLIMCHECK
 70
     0
  9
$PEXTMIN
 10
1.000000000000000E+20
 20
1.000000000000000E+20
 30
1.000000000000000E+20
  9
$PEXTMAX
 10
-1.000000000000000E+20
 20
-1.000000000000000E+20
 30
-1.000000000000000E+20
  9
$PLIMMIN
 10
0.0
 20
0.0
  9
$PLIMMAX
 10
12.0
 20
9.0
  9
$UNITMODE
 70
     0
  9
$VISRETAIN
 70
     0
  9
$PLINEGEN
 70
     0
  9
$PSLTSCALE
 70
     1
  9
$TREEDEPTH
 70
  3020
  9
$PICKSTYLE
 70
     0
  9
$CMLSTYLE
  2
STANDARD
  9
$CMLJUST
 70
     0
  9
$CMLSCALE
 40
1.0
  9
$PROXYGRAPHICS
 70
     1
  9
$MEASUREMENT
 70
     0
  0
ENDSEC
  0
SECTION
  2
CLASSES
  0
CLASS
  1
ACDBDICTIONARYWDFLT
  2
AcDbDictionaryWithDefault
  3
AutoCAD 2000
 90
        0
280
     0
281
     0
  0
CLASS
  1
ACDBPLACEHOLDER
  2
AcDbPlaceHolder
  3
AutoCAD 2000
 90
        0
280
     0
281
     0
  0
CLASS
  1
LAYOUT
  2
AcDbLayout
  3
AutoCAD 2000
 90
        0
280
     0
281
     0
  0
CLASS
  1
LONG_TRANSACTION
  2
AcDbLongTransaction
  3
AutoCAD 2000
 90
        0
280
     0
281
     0
  0
CLASS
  1
LWPOLYLINE
  2
AcDbPolyline
  3
AutoCAD 2000
 90
        0
280
     0
281
     1
  0
CLASS
  1
HATCH
  2
AcDbHatch
  3
AutoCAD 2000
 90
        0
280
     0
281
     1
  0
CLASS
  1
XRECORD
  2
AcDbXrecord
  3
AutoCAD 2000
 90
        0
280
     0
281
     0
  0
ENDSEC
  0
SECTION
  2
TABLES
  0
TABLE
  2
VPORT
  5
8
330
0
100
AcDbSymbolTable
 70
     3
  0
VPORT
  5
29DB
330
8
100
AcDbSymbolTableRecord
100
AcDbViewportTableRecord
  2
*ACTIVE
 70
     0
 10
0.0
 20
0.0
 11
1.0
 21
1.0
 12
6.0
 22
4.5
 13
0.0
 23
0.0
 14
1.0
 24
1.0
 15
0.0
 25
0.0
 16
0.0
 26
0.0
 36
1.0
 17
0.0
 27
0.0
 37
0.0
 40
9.0
 41
1.597014925373134
 42
50.0
 43
0.0
 44
0.0
 50
0.0
 51
0.0
 71
     0
 72
   100
 73
     1
 74
     1
 75
     0
 76
     0
 77
     0
 78
     0
  0
ENDTAB
  0
TABLE
  2
LTYPE
  5
5
330
0
100
AcDbSymbolTable
 70
    25
  0
LTYPE
  5
13
330
5
100
AcDbSymbolTableRecord
100
AcDbLinetypeTableRecord
  2
BYBLOCK
 70
     0
  3

 72
    65
 73
     0
 40
0.0
  0
LTYPE
  5
14
330
5
100
AcDbSymbolTableRecord
100
AcDbLinetypeTableRecord
  2
BYLAYER
 70
     0
  3

 72
    65
 73
     0
 40
0.0
  0
LTYPE
  5
15
330
5
100
AcDbSymbolTableRecord
100
AcDbLinetypeTableRecord
  2
CONTINUOUS
 70
     0
  3
Solid line
 72
    65
 73
     0
 40
0.0
  0
LTYPE
  5
22
330
5
100
AcDbSymbolTableRecord
100
AcDbLinetypeTableRecord
  2
BORDER
 70
     0
  3
__ __ . __ __ . __ __ . __ __ . __ __ . __ __ .
 72
    65
 73
     6
 40
1.75
 49
0.5
 74
     0
 49
-0.25
 74
     0
 49
0.5
 74
     0
 49
-0.25
 74
     0
 49
0.5
 74
     0
 49
-0.25
 74
     0
  0
LTYPE
  5
23
330
5
100
AcDbSymbolTableRecord
100
AcDbLinetypeTableRecord
  2
BORDER2
 70
     0
  3
__.__.__.__.__.__.__.__.__.__.__.__.__.__.__.__
 72
    65
 73
     6
 40
0.875
 49
0.25
 74
     0
 49
-0.125
 74
     0
 49
0.25
 74
     0
 49
-0.125
 74
     0
 49
0.25
 74
     0
 49
-0.125
 74
     0
  0
LTYPE
  5
24
330
5
100
AcDbSymbolTableRecord
100
AcDbLinetypeTableRecord
  2
BORDERX2
 70
     0
  3
____  ____  .  ____  ____  .  
 72
    65
 73
     6
 40
3.5
 49
1.0
 74
     0
 49
-0.5
 74
     0
 49
1.0
 74
     0
 49
-0.5
 74
     0
 49
1.0
 74
     0
 49
-0.5
 74
     0
  0
LTYPE
  5
25
330
5
100
AcDbSymbolTableRecord
100
AcDbLinetypeTableRecord
  2
CENTER
 70
     0
  3
____ _ ____ _ ____ _ ____ _ ____ _ ____ _ ____
 72
    65
 73
     4
 40
2.0
 49
1.25
 74
     0
 49
-0.25
 74
     0
 49
0.25
 74
     0
 49
-0.25
 74
     0
  0
LTYPE
  5
26
330
5
100
AcDbSymbolTableRecord
100
AcDbLinetypeTableRecord
  2
CENTER2
 70
     0
  3
____ _ ____ _ ____ _ ____ _ ____ _ ____ _ ____
 72
    65
 73
     4
 40
1.125
 49
0.75
 74
     0
 49
-0.125
 74
     0
 49
0.125
 74
     0
 49
-0.125
 74
     0
  0
LTYPE
  5
27
330
5
100
AcDbSymbolTableRecord
100
AcDbLinetypeTableRecord
  2
CENTERX2
 70
     0
  3
________  __  ________  __  ________  __  
 72
    65
 73
     4
 40
4.0
 49
2.5
 74
     0
 49
-0.5
 74
     0
 49
0.5
 74
     0
 49
-0.5
 74
     0
  0
LTYPE
  5
28
330
5
100
AcDbSymbolTableRecord
100
AcDbLinetypeTableRecord
  2
DASHDOT
 70
     0
  3
__ . __ . __ . __ . __ . __ . __ . 
 72
    65
 73
     4
 40
1.0
 49
0.5
 74
     0
 49
-0.25
 74
     0
 49
0.0
 74
     0
 49
-0.25
 74
     0
  0
LTYPE
  5
29
330
5
100
AcDbSymbolTableRecord
100
AcDbLinetypeTableRecord
  2
DASHDOT2
 70
     0
  3
_._._._._._._._._._._._._._._._.
 72
    65
 73
     4
 40
0.5
 49
0.25
 74
     0
 49
-0.125
 74
     0
 49
0.0
 74
     0
 49
-0.125
 74
     0
  0
LTYPE
  5
2A
330
5
100
AcDbSymbolTableRecord
100
AcDbLinetypeTableRecord
  2
DASHDOTX2
 70
     0
  3
____  .  ____  .  ____  .  ____  .  
 72
    65
 73
     4
 40
2.0
 49
1.0
 74
     0
 49
-0.5
 74
     0
 49
0.0
 74
     0
 49
-0.5
 74
     0
  0
LTYPE
  5
2B
330
5
100
AcDbSymbolTableRecord
100
AcDbLinetypeTableRecord
  2
DASHED
 70
     0
  3
__ __ __ __ __ __ __ __ __ __ __ __ 
 72
    65
 73
     2
 40
0.75
 49
0.5
 74
     0
 49
-0.25
 74
     0
  0
LTYPE
  5
2C
330
5
100
AcDbSymbolTableRecord
100
AcDbLinetypeTableRecord
  2
DASHED2
 70
     0
  3
_ _ _ _ _ _ _ _ _ _ _ _ _ _ _ _ _ _ 
 72
    65
 73
     2
 40
0.375
 49
0.25
 74
     0
 49
-0.125
 74
     0
  0
LTYPE
  5
2D
330
5
100
AcDbSymbolTableRecord
100
AcDbLinetypeTableRecord
  2
DASHEDX2
 70
     0
  3
____  ____  ____  ____  ____  ____  
 72
    65
 73
     2
 40
1.5
 49
1.0
 74
     0
 49
-0.5
 74
     0
  0
LTYPE
  5
2E
330
5
100
AcDbSymbolTableRecord
100
AcDbLinetypeTableRecord
  2
DIVIDE
 70
     0
  3
____ . . ____ . . ____ . . ____ . . 
 72
    65
 73
     6
 40
1.25
 49
0.5
 74
     0
 49
-0.25
 74
     0
 49
0.0
 74
     0
 49
-0.25
 74
     0
 49
0.0
 74
     0
 49
-0.25
 74
     0
  0
LTYPE
  5
2F
330
5
100
AcDbSymbolTableRecord
100
AcDbLinetypeTableRecord
  2
DIVIDE2
 70
     0
  3
__..__..__..__..__..__..__..__..__..
 72
    65
 73
     6
 40
0.625
 49
0.25
 74
     0
 49
-0.125
 74
     0
 49
0.0
 74
     0
 49
-0.125
 74
     0
 49
0.0
 74
     0
 49
-0.125
 74
     0
  0
LTYPE
  5
30
330
5
100
AcDbSymbolTableRecord
100
AcDbLinetypeTableRecord
  2
DIVIDEX2
 70
     0
  3
________  .  .  ________  .  .  ________  .  . 
 72
    65
 73
     6
 40
2.5
 49
1.0
 74
     0
 49
-0.5
 74
     0
 49
0.0
 74
     0
 49
-0.5
 74
     0
 49
0.0
 74
     0
 49
-0.5
 74
     0
  0
LTYPE
  5
31
330
5
100
AcDbSymbolTableRecord
100
AcDbLinetypeTableRecord
  2
DOT
 70
     0
  3
. . . . . . . . . . . . . . . . . . 
 72
    65
 73
     2
 40
0.25
 49
0.0
 74
     0
 49
-0.25
 74
     0
  0
LTYPE
  5
32
330
5
100
AcDbSymbolTableRecord
100
AcDbLinetypeTableRecord
  2
DOT2
 70
     0
  3
....................................
 72
    65
 73
     2
 40
0.125
 49
0.0
 74
     0
 49
-0.125
 74
     0
  0
LTYPE
  5
33
330
5
100
AcDbSymbolTableRecord
100
AcDbLinetypeTableRecord
  2
DOTX2
 70
     0
  3
.  .  .  .  .  .  .  .  .  .  .  .  .  
 72
    65
 73
     2
 40
0.5
 49
0.0
 74
     0
 49
-0.5
 74
     0
  0
LTYPE
  5
34
330
5
100
AcDbSymbolTableRecord
100
AcDbLinetypeTableRecord
  2
HIDDEN
 70
     0
  3
__ __ __ __ __ __ __ __ __ __ __ __ 
 72
    65
 73
     2
 40
0.375
 49
0.25
 74
     0
 49
-0.125
 74
     0
  0
LTYPE
  5
35
330
5
100
AcDbSymbolTableRecord
100
AcDbLinetypeTableRecord
  2
HIDDEN2
 70
     0
  3
_ _ _ _ _ _ _ _ _ _ _ _ _ _ _ _ _ _ 
 72
    65
 73
     2
 40
0.1875
 49
0.125
 74
     0
 49
-0.0625
 74
     0
  0
LTYPE
  5
36
330
5
100
AcDbSymbolTableRecord
100
AcDbLinetypeTableRecord
  2
HIDDENX2
 70
     0
  3
____ ____ ____ ____ ____ ____ ____ 
 72
    65
 73
     2
 40
0.75
 49
0.5
 74
     0
 49
-0.25
 74
     0
  0
LTYPE
  5
37
330
5
100
AcDbSymbolTableRecord
100
AcDbLinetypeTableRecord
  2
PHANTOM
 70
     0
  3
______  __  __  ______  __  __  
 72
    65
 73
     6
 40
2.5
 49
1.25
 74
     0
 49
-0.25
 74
     0
 49
0.25
 74
     0
 49
-0.25
 74
     0
 49
0.25
 74
     0
 49
-0.25
 74
     0
  0
LTYPE
  5
38
330
5
100
AcDbSymbolTableRecord
100
AcDbLinetypeTableRecord
  2
PHANTOM2
 70
     0
  3
___ _ _ ___ _ _ ___ _ _ ___ _ _ 
 72
    65
 73
     6
 40
1.25
 49
0.625
 74
     0
 49
-0.125
 74
     0
 49
0.125
 74
     0
 49
-0.125
 74
     0
 49
0.125
 74
     0
 49
-0.125
 74
     0
  0
LTYPE
  5
39
330
5
100
AcDbSymbolTableRecord
100
AcDbLinetypeTableRecord
  2
PHANTOMX2
 70
     0
  3
___ _ _ ___ _ _ ___ _ _ ___ _ _ 
 72
    65
 73
     6
 40
5.0
 49
2.5
 74
     0
 49
-0.5
 74
     0
 49
0.5
 74
     0
 49
-0.5
 74
     0
 49
0.5
 74
     0
 49
-0.5
 74
     0
  0
ENDTAB
  0
TABLE
  2
LAYER
  5
2
330
0
100
AcDbSymbolTable
 70
   256
  0
LAYER
  5
10
330
2
100
AcDbSymbolTableRecord
100
AcDbLayerTableRecord
  2
0
 70
     0
 62
     7
  6
CONTINUOUS
  0
LAYER
  5
3A
330
2
100
AcDbSymbolTableRecord
100
AcDbLayerTableRecord
  2
1
 70
     0
 62
     1
  6
CONTINUOUS
  0
LAYER
  5
3B
330
2
100
AcDbSymbolTableRecord
100
AcDbLayerTableRecord
  2
2
 70
     0
 62
     2
  6
CONTINUOUS
  0
LAYER
  5
3C
330
2
100
AcDbSymbolTableRecord
100
AcDbLayerTableRecord
  2
3
 70
     0
 62
     3
  6
CONTINUOUS
  0
LAYER
  5
3D
330
2
100
AcDbSymbolTableRecord
100
AcDbLayerTableRecord
  2
4
 70
     0
 62
     4
  6
CONTINUOUS
  0
LAYER
  5
3E
330
2
100
AcDbSymbolTableRecord
100
AcDbLayerTableRecord
  2
5
 70
     0
 62
     5
  6
CONTINUOUS
  0
LAYER
  5
3F
330
2
100
AcDbSymbolTableRecord
100
AcDbLayerTableRecord
  2
6
 70
     0
 62
     6
  6
CONTINUOUS
  0
LAYER
  5
40
330
2
100
AcDbSymbolTableRecord
100
AcDbLayerTableRecord
  2
7
 70
     0
 62
     7
  6
CONTINUOUS
  0
LAYER
  5
41
330
2
100
AcDbSymbolTableRecord
100
AcDbLayerTableRecord
  2
8
 70
     0
 62
     8
  6
CONTINUOUS
  0
LAYER
  5
42
330
2
100
AcDbSymbolTableRecord
100
AcDbLayerTableRecord
  2
9
 70
     0
 62
     9
  6
CONTINUOUS
  0
LAYER
  5
43
330
2
100
AcDbSymbolTableRecord
100
AcDbLayerTableRecord
  2
10
 70
     0
 62
    10
  6
CONTINUOUS
  0
LAYER
  5
44
330
2
100
AcDbSymbolTableRecord
100
AcDbLayerTableRecord
  2
11
 70
     0
 62
    11
  6
CONTINUOUS
  0
LAYER
  5
45
330
2
100
AcDbSymbolTableRecord
100
AcDbLayerTableRecord
  2
12
 70
     0
 62
    12
  6
CONTINUOUS
  0
LAYER
  5
46
330
2
100
AcDbSymbolTableRecord
100
AcDbLayerTableRecord
  2
13
 70
     0
 62
    13
  6
CONTINUOUS
  0
LAYER
  5
47
330
2
100
AcDbSymbolTableRecord
100
AcDbLayerTableRecord
  2
14
 70
     0
 62
    14
  6
CONTINUOUS
  0
LAYER
  5
48
330
2
100
AcDbSymbolTableRecord
100
AcDbLayerTableRecord
  2
15
 70
     0
 62
    15
  6
CONTINUOUS
  0
LAYER
  5
49
330
2
100
AcDbSymbolTableRecord
100
AcDbLayerTableRecord
  2
16
 70
     0
 62
    16
  6
CONTINUOUS
  0
LAYER
  5
4A
330
2
100
AcDbSymbolTableRecord
100
AcDbLayerTableRecord
  2
17
 70
     0
 62
    17
  6
CONTINUOUS
  0
LAYER
  5
4B
330
2
100
AcDbSymbolTableRecord
100
AcDbLayerTableRecord
  2
18
 70
     0
 62
    18
  6
CONTINUOUS
  0
LAYER
  5
4C
330
2
100
AcDbSymbolTableRecord
100
AcDbLayerTableRecord
  2
19
 70
     0
 62
    19
  6
CONTINUOUS
  0
LAYER
  5
4D
330
2
100
AcDbSymbolTableRecord
100
AcDbLayerTableRecord
  2
20
 70
     0
 62
    20
  6
CONTINUOUS
  0
LAYER
  5
4E
330
2
100
AcDbSymbolTableRecord
100
AcDbLayerTableRecord
  2
21
 70
     0
 62
    21
  6
CONTINUOUS
  0
LAYER
  5
4F
330
2
100
AcDbSymbolTableRecord
100
AcDbLayerTableRecord
  2
22
 70
     0
 62
    22
  6
CONTINUOUS
  0
LAYER
  5
50
330
2
100
AcDbSymbolTableRecord
100
AcDbLayerTableRecord
  2
23
 70
     0
 62
    23
  6
CONTINUOUS
  0
LAYER
  5
51
330
2
100
AcDbSymbolTableRecord
100
AcDbLayerTableRecord
  2
24
 70
     0
 62
    24
  6
CONTINUOUS
  0
LAYER
  5
52
330
2
100
AcDbSymbolTableRecord
100
AcDbLayerTableRecord
  2
25
 70
     0
 62
    25
  6
CONTINUOUS
  0
LAYER
  5
53
330
2
100
AcDbSymbolTableRecord
100
AcDbLayerTableRecord
  2
26
 70
     0
 62
    26
  6
CONTINUOUS
  0
LAYER
  5
54
330
2
100
AcDbSymbolTableRecord
100
AcDbLayerTableRecord
  2
27
 70
     0
 62
    27
  6
CONTINUOUS
  0
LAYER
  5
55
330
2
100
AcDbSymbolTableRecord
100
AcDbLayerTableRecord
  2
28
 70
     0
 62
    28
  6
CONTINUOUS
  0
LAYER
  5
56
330
2
100
AcDbSymbolTableRecord
100
AcDbLayerTableRecord
  2
29
 70
     0
 62
    29
  6
CONTINUOUS
  0
LAYER
  5
57
330
2
100
AcDbSymbolTableRecord
100
AcDbLayerTableRecord
  2
30
 70
     0
 62
    30
  6
CONTINUOUS
  0
LAYER
  5
58
330
2
100
AcDbSymbolTableRecord
100
AcDbLayerTableRecord
  2
31
 70
     0
 62
    31
  6
CONTINUOUS
  0
LAYER
  5
59
330
2
100
AcDbSymbolTableRecord
100
AcDbLayerTableRecord
  2
32
 70
     0
 62
    32
  6
CONTINUOUS
  0
LAYER
  5
5A
330
2
100
AcDbSymbolTableRecord
100
AcDbLayerTableRecord
  2
33
 70
     0
 62
    33
  6
CONTINUOUS
  0
LAYER
  5
5B
330
2
100
AcDbSymbolTableRecord
100
AcDbLayerTableRecord
  2
34
 70
     0
 62
    34
  6
CONTINUOUS
  0
LAYER
  5
5C
330
2
100
AcDbSymbolTableRecord
100
AcDbLayerTableRecord
  2
35
 70
     0
 62
    35
  6
CONTINUOUS
  0
LAYER
  5
5D
330
2
100
AcDbSymbolTableRecord
100
AcDbLayerTableRecord
  2
36
 70
     0
 62
    36
  6
CONTINUOUS
  0
LAYER
  5
5E
330
2
100
AcDbSymbolTableRecord
100
AcDbLayerTableRecord
  2
37
 70
     0
 62
    37
  6
CONTINUOUS
  0
LAYER
  5
5F
330
2
100
AcDbSymbolTableRecord
100
AcDbLayerTableRecord
  2
38
 70
     0
 62
    38
  6
CONTINUOUS
  0
LAYER
  5
60
330
2
100
AcDbSymbolTableRecord
100
AcDbLayerTableRecord
  2
39
 70
     0
 62
    39
  6
CONTINUOUS
  0
LAYER
  5
61
330
2
100
AcDbSymbolTableRecord
100
AcDbLayerTableRecord
  2
40
 70
     0
 62
    40
  6
CONTINUOUS
  0
LAYER
  5
62
330
2
100
AcDbSymbolTableRecord
100
AcDbLayerTableRecord
  2
41
 70
     0
 62
    41
  6
CONTINUOUS
  0
LAYER
  5
63
330
2
100
AcDbSymbolTableRecord
100
AcDbLayerTableRecord
  2
42
 70
     0
 62
    42
  6
CONTINUOUS
  0
LAYER
  5
64
330
2
100
AcDbSymbolTableRecord
100
AcDbLayerTableRecord
  2
43
 70
     0
 62
    43
  6
CONTINUOUS
  0
LAYER
  5
65
330
2
100
AcDbSymbolTableRecord
100
AcDbLayerTableRecord
  2
44
 70
     0
 62
    44
  6
CONTINUOUS
  0
LAYER
  5
66
330
2
100
AcDbSymbolTableRecord
100
AcDbLayerTableRecord
  2
45
 70
     0
 62
    45
  6
CONTINUOUS
  0
LAYER
  5
67
330
2
100
AcDbSymbolTableRecord
100
AcDbLayerTableRecord
  2
46
 70
     0
 62
    46
  6
CONTINUOUS
  0
LAYER
  5
68
330
2
100
AcDbSymbolTableRecord
100
AcDbLayerTableRecord
  2
47
 70
     0
 62
    47
  6
CONTINUOUS
  0
LAYER
  5
69
330
2
100
AcDbSymbolTableRecord
100
AcDbLayerTableRecord
  2
48
 70
     0
 62
    48
  6
CONTINUOUS
  0
LAYER
  5
6A
330
2
100
AcDbSymbolTableRecord
100
AcDbLayerTableRecord
  2
49
 70
     0
 62
    49
  6
CONTINUOUS
  0
LAYER
  5
6B
330
2
100
AcDbSymbolTableRecord
100
AcDbLayerTableRecord
  2
50
 70
     0
 62
    50
  6
CONTINUOUS
  0
LAYER
  5
6C
330
2
100
AcDbSymbolTableRecord
100
AcDbLayerTableRecord
  2
51
 70
     0
 62
    51
  6
CONTINUOUS
  0
LAYER
  5
6D
330
2
100
AcDbSymbolTableRecord
100
AcDbLayerTableRecord
  2
52
 70
     0
 62
    52
  6
CONTINUOUS
  0
LAYER
  5
6E
330
2
100
AcDbSymbolTableRecord
100
AcDbLayerTableRecord
  2
53
 70
     0
 62
    53
  6
CONTINUOUS
  0
LAYER
  5
6F
330
2
100
AcDbSymbolTableRecord
100
AcDbLayerTableRecord
  2
54
 70
     0
 62
    54
  6
CONTINUOUS
  0
LAYER
  5
70
330
2
100
AcDbSymbolTableRecord
100
AcDbLayerTableRecord
  2
55
 70
     0
 62
    55
  6
CONTINUOUS
  0
LAYER
  5
71
330
2
100
AcDbSymbolTableRecord
100
AcDbLayerTableRecord
  2
56
 70
     0
 62
    56
  6
CONTINUOUS
  0
LAYER
  5
72
330
2
100
AcDbSymbolTableRecord
100
AcDbLayerTableRecord
  2
57
 70
     0
 62
    57
  6
CONTINUOUS
  0
LAYER
  5
73
330
2
100
AcDbSymbolTableRecord
100
AcDbLayerTableRecord
  2
58
 70
     0
 62
    58
  6
CONTINUOUS
  0
LAYER
  5
74
330
2
100
AcDbSymbolTableRecord
100
AcDbLayerTableRecord
  2
59
 70
     0
 62
    59
  6
CONTINUOUS
  0
LAYER
  5
75
330
2
100
AcDbSymbolTableRecord
100
AcDbLayerTableRecord
  2
60
 70
     0
 62
    60
  6
CONTINUOUS
  0
LAYER
  5
76
330
2
100
AcDbSymbolTableRecord
100
AcDbLayerTableRecord
  2
61
 70
     0
 62
    61
  6
CONTINUOUS
  0
LAYER
  5
77
330
2
100
AcDbSymbolTableRecord
100
AcDbLayerTableRecord
  2
62
 70
     0
 62
    62
  6
CONTINUOUS
  0
LAYER
  5
78
330
2
100
AcDbSymbolTableRecord
100
AcDbLayerTableRecord
  2
63
 70
     0
 62
    63
  6
CONTINUOUS
  0
LAYER
  5
79
330
2
100
AcDbSymbolTableRecord
100
AcDbLayerTableRecord
  2
64
 70
     0
 62
    64
  6
CONTINUOUS
  0
LAYER
  5
7A
330
2
100
AcDbSymbolTableRecord
100
AcDbLayerTableRecord
  2
65
 70
     0
 62
    65
  6
CONTINUOUS
  0
LAYER
  5
7B
330
2
100
AcDbSymbolTableRecord
100
AcDbLayerTableRecord
  2
66
 70
     0
 62
    66
  6
CONTINUOUS
  0
LAYER
  5
7C
330
2
100
AcDbSymbolTableRecord
100
AcDbLayerTableRecord
  2
67
 70
     0
 62
    67
  6
CONTINUOUS
  0
LAYER
  5
7D
330
2
100
AcDbSymbolTableRecord
100
AcDbLayerTableRecord
  2
68
 70
     0
 62
    68
  6
CONTINUOUS
  0
LAYER
  5
7E
330
2
100
AcDbSymbolTableRecord
100
AcDbLayerTableRecord
  2
69
 70
     0
 62
    69
  6
CONTINUOUS
  0
LAYER
  5
7F
330
2
100
AcDbSymbolTableRecord
100
AcDbLayerTableRecord
  2
70
 70
     0
 62
    70
  6
CONTINUOUS
  0
LAYER
  5
80
330
2
100
AcDbSymbolTableRecord
100
AcDbLayerTableRecord
  2
71
 70
     0
 62
    71
  6
CONTINUOUS
  0
LAYER
  5
81
330
2
100
AcDbSymbolTableRecord
100
AcDbLayerTableRecord
  2
72
 70
     0
 62
    72
  6
CONTINUOUS
  0
LAYER
  5
82
330
2
100
AcDbSymbolTableRecord
100
AcDbLayerTableRecord
  2
73
 70
     0
 62
    73
  6
CONTINUOUS
  0
LAYER
  5
83
330
2
100
AcDbSymbolTableRecord
100
AcDbLayerTableRecord
  2
74
 70
     0
 62
    74
  6
CONTINUOUS
  0
LAYER
  5
84
330
2
100
AcDbSymbolTableRecord
100
AcDbLayerTableRecord
  2
75
 70
     0
 62
    75
  6
CONTINUOUS
  0
LAYER
  5
85
330
2
100
AcDbSymbolTableRecord
100
AcDbLayerTableRecord
  2
76
 70
     0
 62
    76
  6
CONTINUOUS
  0
LAYER
  5
86
330
2
100
AcDbSymbolTableRecord
100
AcDbLayerTableRecord
  2
77
 70
     0
 62
    77
  6
CONTINUOUS
  0
LAYER
  5
87
330
2
100
AcDbSymbolTableRecord
100
AcDbLayerTableRecord
  2
78
 70
     0
 62
    78
  6
CONTINUOUS
  0
LAYER
  5
88
330
2
100
AcDbSymbolTableRecord
100
AcDbLayerTableRecord
  2
79
 70
     0
 62
    79
  6
CONTINUOUS
  0
LAYER
  5
89
330
2
100
AcDbSymbolTableRecord
100
AcDbLayerTableRecord
  2
80
 70
     0
 62
    80
  6
CONTINUOUS
  0
LAYER
  5
8A
330
2
100
AcDbSymbolTableRecord
100
AcDbLayerTableRecord
  2
81
 70
     0
 62
    81
  6
CONTINUOUS
  0
LAYER
  5
8B
330
2
100
AcDbSymbolTableRecord
100
AcDbLayerTableRecord
  2
82
 70
     0
 62
    82
  6
CONTINUOUS
  0
LAYER
  5
8C
330
2
100
AcDbSymbolTableRecord
100
AcDbLayerTableRecord
  2
83
 70
     0
 62
    83
  6
CONTINUOUS
  0
LAYER
  5
8D
330
2
100
AcDbSymbolTableRecord
100
AcDbLayerTableRecord
  2
84
 70
     0
 62
    84
  6
CONTINUOUS
  0
LAYER
  5
8E
330
2
100
AcDbSymbolTableRecord
100
AcDbLayerTableRecord
  2
85
 70
     0
 62
    85
  6
CONTINUOUS
  0
LAYER
  5
8F
330
2
100
AcDbSymbolTableRecord
100
AcDbLayerTableRecord
  2
86
 70
     0
 62
    86
  6
CONTINUOUS
  0
LAYER
  5
90
330
2
100
AcDbSymbolTableRecord
100
AcDbLayerTableRecord
  2
87
 70
     0
 62
    87
  6
CONTINUOUS
  0
LAYER
  5
91
330
2
100
AcDbSymbolTableRecord
100
AcDbLayerTableRecord
  2
88
 70
     0
 62
    88
  6
CONTINUOUS
  0
LAYER
  5
92
330
2
100
AcDbSymbolTableRecord
100
AcDbLayerTableRecord
  2
89
 70
     0
 62
    89
  6
CONTINUOUS
  0
LAYER
  5
93
330
2
100
AcDbSymbolTableRecord
100
AcDbLayerTableRecord
  2
90
 70
     0
 62
    90
  6
CONTINUOUS
  0
LAYER
  5
94
330
2
100
AcDbSymbolTableRecord
100
AcDbLayerTableRecord
  2
91
 70
     0
 62
    91
  6
CONTINUOUS
  0
LAYER
  5
95
330
2
100
AcDbSymbolTableRecord
100
AcDbLayerTableRecord
  2
92
 70
     0
 62
    92
  6
CONTINUOUS
  0
LAYER
  5
96
330
2
100
AcDbSymbolTableRecord
100
AcDbLayerTableRecord
  2
93
 70
     0
 62
    93
  6
CONTINUOUS
  0
LAYER
  5
97
330
2
100
AcDbSymbolTableRecord
100
AcDbLayerTableRecord
  2
94
 70
     0
 62
    94
  6
CONTINUOUS
  0
LAYER
  5
98
330
2
100
AcDbSymbolTableRecord
100
AcDbLayerTableRecord
  2
95
 70
     0
 62
    95
  6
CONTINUOUS
  0
LAYER
  5
99
330
2
100
AcDbSymbolTableRecord
100
AcDbLayerTableRecord
  2
96
 70
     0
 62
    96
  6
CONTINUOUS
  0
LAYER
  5
9A
330
2
100
AcDbSymbolTableRecord
100
AcDbLayerTableRecord
  2
97
 70
     0
 62
    97
  6
CONTINUOUS
  0
LAYER
  5
9B
330
2
100
AcDbSymbolTableRecord
100
AcDbLayerTableRecord
  2
98
 70
     0
 62
    98
  6
CONTINUOUS
  0
LAYER
  5
9C
330
2
100
AcDbSymbolTableRecord
100
AcDbLayerTableRecord
  2
99
 70
     0
 62
    99
  6
CONTINUOUS
  0
LAYER
  5
9D
330
2
100
AcDbSymbolTableRecord
100
AcDbLayerTableRecord
  2
100
 70
     0
 62
   100
  6
CONTINUOUS
  0
LAYER
  5
9E
330
2
100
AcDbSymbolTableRecord
100
AcDbLayerTableRecord
  2
101
 70
     0
 62
   101
  6
CONTINUOUS
  0
LAYER
  5
9F
330
2
100
AcDbSymbolTableRecord
100
AcDbLayerTableRecord
  2
102
 70
     0
 62
   102
  6
CONTINUOUS
  0
LAYER
  5
A0
330
2
100
AcDbSymbolTableRecord
100
AcDbLayerTableRecord
  2
103
 70
     0
 62
   103
  6
CONTINUOUS
  0
LAYER
  5
A1
330
2
100
AcDbSymbolTableRecord
100
AcDbLayerTableRecord
  2
104
 70
     0
 62
   104
  6
CONTINUOUS
  0
LAYER
  5
A2
330
2
100
AcDbSymbolTableRecord
100
AcDbLayerTableRecord
  2
105
 70
     0
 62
   105
  6
CONTINUOUS
  0
LAYER
  5
A3
330
2
100
AcDbSymbolTableRecord
100
AcDbLayerTableRecord
  2
106
 70
     0
 62
   106
  6
CONTINUOUS
  0
LAYER
  5
A4
330
2
100
AcDbSymbolTableRecord
100
AcDbLayerTableRecord
  2
107
 70
     0
 62
   107
  6
CONTINUOUS
  0
LAYER
  5
A5
330
2
100
AcDbSymbolTableRecord
100
AcDbLayerTableRecord
  2
108
 70
     0
 62
   108
  6
CONTINUOUS
  0
LAYER
  5
A6
330
2
100
AcDbSymbolTableRecord
100
AcDbLayerTableRecord
  2
109
 70
     0
 62
   109
  6
CONTINUOUS
  0
LAYER
  5
A7
330
2
100
AcDbSymbolTableRecord
100
AcDbLayerTableRecord
  2
110
 70
     0
 62
   110
  6
CONTINUOUS
  0
LAYER
  5
A8
330
2
100
AcDbSymbolTableRecord
100
AcDbLayerTableRecord
  2
111
 70
     0
 62
   111
  6
CONTINUOUS
  0
LAYER
  5
A9
330
2
100
AcDbSymbolTableRecord
100
AcDbLayerTableRecord
  2
112
 70
     0
 62
   112
  6
CONTINUOUS
  0
LAYER
  5
AA
330
2
100
AcDbSymbolTableRecord
100
AcDbLayerTableRecord
  2
113
 70
     0
 62
   113
  6
CONTINUOUS
  0
LAYER
  5
AB
330
2
100
AcDbSymbolTableRecord
100
AcDbLayerTableRecord
  2
114
 70
     0
 62
   114
  6
CONTINUOUS
  0
LAYER
  5
AC
330
2
100
AcDbSymbolTableRecord
100
AcDbLayerTableRecord
  2
115
 70
     0
 62
   115
  6
CONTINUOUS
  0
LAYER
  5
AD
330
2
100
AcDbSymbolTableRecord
100
AcDbLayerTableRecord
  2
116
 70
     0
 62
   116
  6
CONTINUOUS
  0
LAYER
  5
AE
330
2
100
AcDbSymbolTableRecord
100
AcDbLayerTableRecord
  2
117
 70
     0
 62
   117
  6
CONTINUOUS
  0
LAYER
  5
AF
330
2
100
AcDbSymbolTableRecord
100
AcDbLayerTableRecord
  2
118
 70
     0
 62
   118
  6
CONTINUOUS
  0
LAYER
  5
B0
330
2
100
AcDbSymbolTableRecord
100
AcDbLayerTableRecord
  2
119
 70
     0
 62
   119
  6
CONTINUOUS
  0
LAYER
  5
B1
330
2
100
AcDbSymbolTableRecord
100
AcDbLayerTableRecord
  2
120
 70
     0
 62
   120
  6
CONTINUOUS
  0
LAYER
  5
B2
330
2
100
AcDbSymbolTableRecord
100
AcDbLayerTableRecord
  2
121
 70
     0
 62
   121
  6
CONTINUOUS
  0
LAYER
  5
B3
330
2
100
AcDbSymbolTableRecord
100
AcDbLayerTableRecord
  2
122
 70
     0
 62
   122
  6
CONTINUOUS
  0
LAYER
  5
B4
330
2
100
AcDbSymbolTableRecord
100
AcDbLayerTableRecord
  2
123
 70
     0
 62
   123
  6
CONTINUOUS
  0
LAYER
  5
B5
330
2
100
AcDbSymbolTableRecord
100
AcDbLayerTableRecord
  2
124
 70
     0
 62
   124
  6
CONTINUOUS
  0
LAYER
  5
B6
330
2
100
AcDbSymbolTableRecord
100
AcDbLayerTableRecord
  2
125
 70
     0
 62
   125
  6
CONTINUOUS
  0
LAYER
  5
B7
330
2
100
AcDbSymbolTableRecord
100
AcDbLayerTableRecord
  2
126
 70
     0
 62
   126
  6
CONTINUOUS
  0
LAYER
  5
B8
330
2
100
AcDbSymbolTableRecord
100
AcDbLayerTableRecord
  2
127
 70
     0
 62
   127
  6
CONTINUOUS
  0
LAYER
  5
B9
330
2
100
AcDbSymbolTableRecord
100
AcDbLayerTableRecord
  2
128
 70
     0
 62
   128
  6
CONTINUOUS
  0
LAYER
  5
BA
330
2
100
AcDbSymbolTableRecord
100
AcDbLayerTableRecord
  2
129
 70
     0
 62
   129
  6
CONTINUOUS
  0
LAYER
  5
BB
330
2
100
AcDbSymbolTableRecord
100
AcDbLayerTableRecord
  2
130
 70
     0
 62
   130
  6
CONTINUOUS
  0
LAYER
  5
BC
330
2
100
AcDbSymbolTableRecord
100
AcDbLayerTableRecord
  2
131
 70
     0
 62
   131
  6
CONTINUOUS
  0
LAYER
  5
BD
330
2
100
AcDbSymbolTableRecord
100
AcDbLayerTableRecord
  2
132
 70
     0
 62
   132
  6
CONTINUOUS
  0
LAYER
  5
BE
330
2
100
AcDbSymbolTableRecord
100
AcDbLayerTableRecord
  2
133
 70
     0
 62
   133
  6
CONTINUOUS
  0
LAYER
  5
BF
330
2
100
AcDbSymbolTableRecord
100
AcDbLayerTableRecord
  2
134
 70
     0
 62
   134
  6
CONTINUOUS
  0
LAYER
  5
C0
330
2
100
AcDbSymbolTableRecord
100
AcDbLayerTableRecord
  2
135
 70
     0
 62
   135
  6
CONTINUOUS
  0
LAYER
  5
C1
330
2
100
AcDbSymbolTableRecord
100
AcDbLayerTableRecord
  2
136
 70
     0
 62
   136
  6
CONTINUOUS
  0
LAYER
  5
C2
330
2
100
AcDbSymbolTableRecord
100
AcDbLayerTableRecord
  2
137
 70
     0
 62
   137
  6
CONTINUOUS
  0
LAYER
  5
C3
330
2
100
AcDbSymbolTableRecord
100
AcDbLayerTableRecord
  2
138
 70
     0
 62
   138
  6
CONTINUOUS
  0
LAYER
  5
C4
330
2
100
AcDbSymbolTableRecord
100
AcDbLayerTableRecord
  2
139
 70
     0
 62
   139
  6
CONTINUOUS
  0
LAYER
  5
C5
330
2
100
AcDbSymbolTableRecord
100
AcDbLayerTableRecord
  2
140
 70
     0
 62
   140
  6
CONTINUOUS
  0
LAYER
  5
C6
330
2
100
AcDbSymbolTableRecord
100
AcDbLayerTableRecord
  2
141
 70
     0
 62
   141
  6
CONTINUOUS
  0
LAYER
  5
C7
330
2
100
AcDbSymbolTableRecord
100
AcDbLayerTableRecord
  2
142
 70
     0
 62
   142
  6
CONTINUOUS
  0
LAYER
  5
C8
330
2
100
AcDbSymbolTableRecord
100
AcDbLayerTableRecord
  2
143
 70
     0
 62
   143
  6
CONTINUOUS
  0
LAYER
  5
C9
330
2
100
AcDbSymbolTableRecord
100
AcDbLayerTableRecord
  2
144
 70
     0
 62
   144
  6
CONTINUOUS
  0
LAYER
  5
CA
330
2
100
AcDbSymbolTableRecord
100
AcDbLayerTableRecord
  2
145
 70
     0
 62
   145
  6
CONTINUOUS
  0
LAYER
  5
CB
330
2
100
AcDbSymbolTableRecord
100
AcDbLayerTableRecord
  2
146
 70
     0
 62
   146
  6
CONTINUOUS
  0
LAYER
  5
CC
330
2
100
AcDbSymbolTableRecord
100
AcDbLayerTableRecord
  2
147
 70
     0
 62
   147
  6
CONTINUOUS
  0
LAYER
  5
CD
330
2
100
AcDbSymbolTableRecord
100
AcDbLayerTableRecord
  2
148
 70
     0
 62
   148
  6
CONTINUOUS
  0
LAYER
  5
CE
330
2
100
AcDbSymbolTableRecord
100
AcDbLayerTableRecord
  2
149
 70
     0
 62
   149
  6
CONTINUOUS
  0
LAYER
  5
CF
330
2
100
AcDbSymbolTableRecord
100
AcDbLayerTableRecord
  2
150
 70
     0
 62
   150
  6
CONTINUOUS
  0
LAYER
  5
D0
330
2
100
AcDbSymbolTableRecord
100
AcDbLayerTableRecord
  2
151
 70
     0
 62
   151
  6
CONTINUOUS
  0
LAYER
  5
D1
330
2
100
AcDbSymbolTableRecord
100
AcDbLayerTableRecord
  2
152
 70
     0
 62
   152
  6
CONTINUOUS
  0
LAYER
  5
D2
330
2
100
AcDbSymbolTableRecord
100
AcDbLayerTableRecord
  2
153
 70
     0
 62
   153
  6
CONTINUOUS
  0
LAYER
  5
D3
330
2
100
AcDbSymbolTableRecord
100
AcDbLayerTableRecord
  2
154
 70
     0
 62
   154
  6
CONTINUOUS
  0
LAYER
  5
D4
330
2
100
AcDbSymbolTableRecord
100
AcDbLayerTableRecord
  2
155
 70
     0
 62
   155
  6
CONTINUOUS
  0
LAYER
  5
D5
330
2
100
AcDbSymbolTableRecord
100
AcDbLayerTableRecord
  2
156
 70
     0
 62
   156
  6
CONTINUOUS
  0
LAYER
  5
D6
330
2
100
AcDbSymbolTableRecord
100
AcDbLayerTableRecord
  2
157
 70
     0
 62
   157
  6
CONTINUOUS
  0
LAYER
  5
D7
330
2
100
AcDbSymbolTableRecord
100
AcDbLayerTableRecord
  2
158
 70
     0
 62
   158
  6
CONTINUOUS
  0
LAYER
  5
D8
330
2
100
AcDbSymbolTableRecord
100
AcDbLayerTableRecord
  2
159
 70
     0
 62
   159
  6
CONTINUOUS
  0
LAYER
  5
D9
330
2
100
AcDbSymbolTableRecord
100
AcDbLayerTableRecord
  2
160
 70
     0
 62
   160
  6
CONTINUOUS
  0
LAYER
  5
DA
330
2
100
AcDbSymbolTableRecord
100
AcDbLayerTableRecord
  2
161
 70
     0
 62
   161
  6
CONTINUOUS
  0
LAYER
  5
DB
330
2
100
AcDbSymbolTableRecord
100
AcDbLayerTableRecord
  2
162
 70
     0
 62
   162
  6
CONTINUOUS
  0
LAYER
  5
DC
330
2
100
AcDbSymbolTableRecord
100
AcDbLayerTableRecord
  2
163
 70
     0
 62
   163
  6
CONTINUOUS
  0
LAYER
  5
DD
330
2
100
AcDbSymbolTableRecord
100
AcDbLayerTableRecord
  2
164
 70
     0
 62
   164
  6
CONTINUOUS
  0
LAYER
  5
DE
330
2
100
AcDbSymbolTableRecord
100
AcDbLayerTableRecord
  2
165
 70
     0
 62
   165
  6
CONTINUOUS
  0
LAYER
  5
DF
330
2
100
AcDbSymbolTableRecord
100
AcDbLayerTableRecord
  2
166
 70
     0
 62
   166
  6
CONTINUOUS
  0
LAYER
  5
E0
330
2
100
AcDbSymbolTableRecord
100
AcDbLayerTableRecord
  2
167
 70
     0
 62
   167
  6
CONTINUOUS
  0
LAYER
  5
E1
330
2
100
AcDbSymbolTableRecord
100
AcDbLayerTableRecord
  2
168
 70
     0
 62
   168
  6
CONTINUOUS
  0
LAYER
  5
E2
330
2
100
AcDbSymbolTableRecord
100
AcDbLayerTableRecord
  2
169
 70
     0
 62
   169
  6
CONTINUOUS
  0
LAYER
  5
E3
330
2
100
AcDbSymbolTableRecord
100
AcDbLayerTableRecord
  2
170
 70
     0
 62
   170
  6
CONTINUOUS
  0
LAYER
  5
E4
330
2
100
AcDbSymbolTableRecord
100
AcDbLayerTableRecord
  2
171
 70
     0
 62
   171
  6
CONTINUOUS
  0
LAYER
  5
E5
330
2
100
AcDbSymbolTableRecord
100
AcDbLayerTableRecord
  2
172
 70
     0
 62
   172
  6
CONTINUOUS
  0
LAYER
  5
E6
330
2
100
AcDbSymbolTableRecord
100
AcDbLayerTableRecord
  2
173
 70
     0
 62
   173
  6
CONTINUOUS
  0
LAYER
  5
E7
330
2
100
AcDbSymbolTableRecord
100
AcDbLayerTableRecord
  2
174
 70
     0
 62
   174
  6
CONTINUOUS
  0
LAYER
  5
E8
330
2
100
AcDbSymbolTableRecord
100
AcDbLayerTableRecord
  2
175
 70
     0
 62
   175
  6
CONTINUOUS
  0
LAYER
  5
E9
330
2
100
AcDbSymbolTableRecord
100
AcDbLayerTableRecord
  2
176
 70
     0
 62
   176
  6
CONTINUOUS
  0
LAYER
  5
EA
330
2
100
AcDbSymbolTableRecord
100
AcDbLayerTableRecord
  2
177
 70
     0
 62
   177
  6
CONTINUOUS
  0
LAYER
  5
EB
330
2
100
AcDbSymbolTableRecord
100
AcDbLayerTableRecord
  2
178
 70
     0
 62
   178
  6
CONTINUOUS
  0
LAYER
  5
EC
330
2
100
AcDbSymbolTableRecord
100
AcDbLayerTableRecord
  2
179
 70
     0
 62
   179
  6
CONTINUOUS
  0
LAYER
  5
ED
330
2
100
AcDbSymbolTableRecord
100
AcDbLayerTableRecord
  2
180
 70
     0
 62
   180
  6
CONTINUOUS
  0
LAYER
  5
EE
330
2
100
AcDbSymbolTableRecord
100
AcDbLayerTableRecord
  2
181
 70
     0
 62
   181
  6
CONTINUOUS
  0
LAYER
  5
EF
330
2
100
AcDbSymbolTableRecord
100
AcDbLayerTableRecord
  2
182
 70
     0
 62
   182
  6
CONTINUOUS
  0
LAYER
  5
F0
330
2
100
AcDbSymbolTableRecord
100
AcDbLayerTableRecord
  2
183
 70
     0
 62
   183
  6
CONTINUOUS
  0
LAYER
  5
F1
330
2
100
AcDbSymbolTableRecord
100
AcDbLayerTableRecord
  2
184
 70
     0
 62
   184
  6
CONTINUOUS
  0
LAYER
  5
F2
330
2
100
AcDbSymbolTableRecord
100
AcDbLayerTableRecord
  2
185
 70
     0
 62
   185
  6
CONTINUOUS
  0
LAYER
  5
F3
330
2
100
AcDbSymbolTableRecord
100
AcDbLayerTableRecord
  2
186
 70
     0
 62
   186
  6
CONTINUOUS
  0
LAYER
  5
F4
330
2
100
AcDbSymbolTableRecord
100
AcDbLayerTableRecord
  2
187
 70
     0
 62
   187
  6
CONTINUOUS
  0
LAYER
  5
F5
330
2
100
AcDbSymbolTableRecord
100
AcDbLayerTableRecord
  2
188
 70
     0
 62
   188
  6
CONTINUOUS
  0
LAYER
  5
F6
330
2
100
AcDbSymbolTableRecord
100
AcDbLayerTableRecord
  2
189
 70
     0
 62
   189
  6
CONTINUOUS
  0
LAYER
  5
F7
330
2
100
AcDbSymbolTableRecord
100
AcDbLayerTableRecord
  2
190
 70
     0
 62
   190
  6
CONTINUOUS
  0
LAYER
  5
F8
330
2
100
AcDbSymbolTableRecord
100
AcDbLayerTableRecord
  2
191
 70
     0
 62
   191
  6
CONTINUOUS
  0
LAYER
  5
F9
330
2
100
AcDbSymbolTableRecord
100
AcDbLayerTableRecord
  2
192
 70
     0
 62
   192
  6
CONTINUOUS
  0
LAYER
  5
FA
330
2
100
AcDbSymbolTableRecord
100
AcDbLayerTableRecord
  2
193
 70
     0
 62
   193
  6
CONTINUOUS
  0
LAYER
  5
FB
330
2
100
AcDbSymbolTableRecord
100
AcDbLayerTableRecord
  2
194
 70
     0
 62
   194
  6
CONTINUOUS
  0
LAYER
  5
FC
330
2
100
AcDbSymbolTableRecord
100
AcDbLayerTableRecord
  2
195
 70
     0
 62
   195
  6
CONTINUOUS
  0
LAYER
  5
FD
330
2
100
AcDbSymbolTableRecord
100
AcDbLayerTableRecord
  2
196
 70
     0
 62
   196
  6
CONTINUOUS
  0
LAYER
  5
FE
330
2
100
AcDbSymbolTableRecord
100
AcDbLayerTableRecord
  2
197
 70
     0
 62
   197
  6
CONTINUOUS
  0
LAYER
  5
FF
330
2
100
AcDbSymbolTableRecord
100
AcDbLayerTableRecord
  2
198
 70
     0
 62
   198
  6
CONTINUOUS
  0
LAYER
  5
100
330
2
100
AcDbSymbolTableRecord
100
AcDbLayerTableRecord
  2
199
 70
     0
 62
   199
  6
CONTINUOUS
  0
LAYER
  5
101
330
2
100
AcDbSymbolTableRecord
100
AcDbLayerTableRecord
  2
200
 70
     0
 62
   200
  6
CONTINUOUS
  0
LAYER
  5
102
330
2
100
AcDbSymbolTableRecord
100
AcDbLayerTableRecord
  2
201
 70
     0
 62
   201
  6
CONTINUOUS
  0
LAYER
  5
103
330
2
100
AcDbSymbolTableRecord
100
AcDbLayerTableRecord
  2
202
 70
     0
 62
   202
  6
CONTINUOUS
  0
LAYER
  5
104
330
2
100
AcDbSymbolTableRecord
100
AcDbLayerTableRecord
  2
203
 70
     0
 62
   203
  6
CONTINUOUS
  0
LAYER
  5
105
330
2
100
AcDbSymbolTableRecord
100
AcDbLayerTableRecord
  2
204
 70
     0
 62
   204
  6
CONTINUOUS
  0
LAYER
  5
106
330
2
100
AcDbSymbolTableRecord
100
AcDbLayerTableRecord
  2
205
 70
     0
 62
   205
  6
CONTINUOUS
  0
LAYER
  5
107
330
2
100
AcDbSymbolTableRecord
100
AcDbLayerTableRecord
  2
206
 70
     0
 62
   206
  6
CONTINUOUS
  0
LAYER
  5
108
330
2
100
AcDbSymbolTableRecord
100
AcDbLayerTableRecord
  2
207
 70
     0
 62
   207
  6
CONTINUOUS
  0
LAYER
  5
109
330
2
100
AcDbSymbolTableRecord
100
AcDbLayerTableRecord
  2
208
 70
     0
 62
   208
  6
CONTINUOUS
  0
LAYER
  5
10A
330
2
100
AcDbSymbolTableRecord
100
AcDbLayerTableRecord
  2
209
 70
     0
 62
   209
  6
CONTINUOUS
  0
LAYER
  5
10B
330
2
100
AcDbSymbolTableRecord
100
AcDbLayerTableRecord
  2
210
 70
     0
 62
   210
  6
CONTINUOUS
  0
LAYER
  5
10C
330
2
100
AcDbSymbolTableRecord
100
AcDbLayerTableRecord
  2
211
 70
     0
 62
   211
  6
CONTINUOUS
  0
LAYER
  5
10D
330
2
100
AcDbSymbolTableRecord
100
AcDbLayerTableRecord
  2
212
 70
     0
 62
   212
  6
CONTINUOUS
  0
LAYER
  5
10E
330
2
100
AcDbSymbolTableRecord
100
AcDbLayerTableRecord
  2
213
 70
     0
 62
   213
  6
CONTINUOUS
  0
LAYER
  5
10F
330
2
100
AcDbSymbolTableRecord
100
AcDbLayerTableRecord
  2
214
 70
     0
 62
   214
  6
CONTINUOUS
  0
LAYER
  5
110
330
2
100
AcDbSymbolTableRecord
100
AcDbLayerTableRecord
  2
215
 70
     0
 62
   215
  6
CONTINUOUS
  0
LAYER
  5
111
330
2
100
AcDbSymbolTableRecord
100
AcDbLayerTableRecord
  2
216
 70
     0
 62
   216
  6
CONTINUOUS
  0
LAYER
  5
112
330
2
100
AcDbSymbolTableRecord
100
AcDbLayerTableRecord
  2
217
 70
     0
 62
   217
  6
CONTINUOUS
  0
LAYER
  5
113
330
2
100
AcDbSymbolTableRecord
100
AcDbLayerTableRecord
  2
218
 70
     0
 62
   218
  6
CONTINUOUS
  0
LAYER
  5
114
330
2
100
AcDbSymbolTableRecord
100
AcDbLayerTableRecord
  2
219
 70
     0
 62
   219
  6
CONTINUOUS
  0
LAYER
  5
115
330
2
100
AcDbSymbolTableRecord
100
AcDbLayerTableRecord
  2
220
 70
     0
 62
   220
  6
CONTINUOUS
  0
LAYER
  5
116
330
2
100
AcDbSymbolTableRecord
100
AcDbLayerTableRecord
  2
221
 70
     0
 62
   221
  6
CONTINUOUS
  0
LAYER
  5
117
330
2
100
AcDbSymbolTableRecord
100
AcDbLayerTableRecord
  2
222
 70
     0
 62
   222
  6
CONTINUOUS
  0
LAYER
  5
118
330
2
100
AcDbSymbolTableRecord
100
AcDbLayerTableRecord
  2
223
 70
     0
 62
   223
  6
CONTINUOUS
  0
LAYER
  5
119
330
2
100
AcDbSymbolTableRecord
100
AcDbLayerTableRecord
  2
224
 70
     0
 62
   224
  6
CONTINUOUS
  0
LAYER
  5
11A
330
2
100
AcDbSymbolTableRecord
100
AcDbLayerTableRecord
  2
225
 70
     0
 62
   225
  6
CONTINUOUS
  0
LAYER
  5
11B
330
2
100
AcDbSymbolTableRecord
100
AcDbLayerTableRecord
  2
226
 70
     0
 62
   226
  6
CONTINUOUS
  0
LAYER
  5
11C
330
2
100
AcDbSymbolTableRecord
100
AcDbLayerTableRecord
  2
227
 70
     0
 62
   227
  6
CONTINUOUS
  0
LAYER
  5
11D
330
2
100
AcDbSymbolTableRecord
100
AcDbLayerTableRecord
  2
228
 70
     0
 62
   228
  6
CONTINUOUS
  0
LAYER
  5
11E
330
2
100
AcDbSymbolTableRecord
100
AcDbLayerTableRecord
  2
229
 70
     0
 62
   229
  6
CONTINUOUS
  0
LAYER
  5
11F
330
2
100
AcDbSymbolTableRecord
100
AcDbLayerTableRecord
  2
230
 70
     0
 62
   230
  6
CONTINUOUS
  0
LAYER
  5
120
330
2
100
AcDbSymbolTableRecord
100
AcDbLayerTableRecord
  2
231
 70
     0
 62
   231
  6
CONTINUOUS
  0
LAYER
  5
121
330
2
100
AcDbSymbolTableRecord
100
AcDbLayerTableRecord
  2
232
 70
     0
 62
   232
  6
CONTINUOUS
  0
LAYER
  5
122
330
2
100
AcDbSymbolTableRecord
100
AcDbLayerTableRecord
  2
233
 70
     0
 62
   233
  6
CONTINUOUS
  0
LAYER
  5
123
330
2
100
AcDbSymbolTableRecord
100
AcDbLayerTableRecord
  2
234
 70
     0
 62
   234
  6
CONTINUOUS
  0
LAYER
  5
124
330
2
100
AcDbSymbolTableRecord
100
AcDbLayerTableRecord
  2
235
 70
     0
 62
   235
  6
CONTINUOUS
  0
LAYER
  5
125
330
2
100
AcDbSymbolTableRecord
100
AcDbLayerTableRecord
  2
236
 70
     0
 62
   236
  6
CONTINUOUS
  0
LAYER
  5
126
330
2
100
AcDbSymbolTableRecord
100
AcDbLayerTableRecord
  2
237
 70
     0
 62
   237
  6
CONTINUOUS
  0
LAYER
  5
127
330
2
100
AcDbSymbolTableRecord
100
AcDbLayerTableRecord
  2
238
 70
     0
 62
   238
  6
CONTINUOUS
  0
LAYER
  5
128
330
2
100
AcDbSymbolTableRecord
100
AcDbLayerTableRecord
  2
239
 70
     0
 62
   239
  6
CONTINUOUS
  0
LAYER
  5
129
330
2
100
AcDbSymbolTableRecord
100
AcDbLayerTableRecord
  2
240
 70
     0
 62
   240
  6
CONTINUOUS
  0
LAYER
  5
12A
330
2
100
AcDbSymbolTableRecord
100
AcDbLayerTableRecord
  2
241
 70
     0
 62
   241
  6
CONTINUOUS
  0
LAYER
  5
12B
330
2
100
AcDbSymbolTableRecord
100
AcDbLayerTableRecord
  2
242
 70
     0
 62
   242
  6
CONTINUOUS
  0
LAYER
  5
12C
330
2
100
AcDbSymbolTableRecord
100
AcDbLayerTableRecord
  2
243
 70
     0
 62
   243
  6
CONTINUOUS
  0
LAYER
  5
12D
330
2
100
AcDbSymbolTableRecord
100
AcDbLayerTableRecord
  2
244
 70
     0
 62
   244
  6
CONTINUOUS
  0
LAYER
  5
12E
330
2
100
AcDbSymbolTableRecord
100
AcDbLayerTableRecord
  2
245
 70
     0
 62
   245
  6
CONTINUOUS
  0
LAYER
  5
12F
330
2
100
AcDbSymbolTableRecord
100
AcDbLayerTableRecord
  2
246
 70
     0
 62
   246
  6
CONTINUOUS
  0
LAYER
  5
130
330
2
100
AcDbSymbolTableRecord
100
AcDbLayerTableRecord
  2
247
 70
     0
 62
   247
  6
CONTINUOUS
  0
LAYER
  5
131
330
2
100
AcDbSymbolTableRecord
100
AcDbLayerTableRecord
  2
248
 70
     0
 62
   248
  6
CONTINUOUS
  0
LAYER
  5
132
330
2
100
AcDbSymbolTableRecord
100
AcDbLayerTableRecord
  2
249
 70
     0
 62
   249
  6
CONTINUOUS
  0
LAYER
  5
133
330
2
100
AcDbSymbolTableRecord
100
AcDbLayerTableRecord
  2
250
 70
     0
 62
   250
  6
CONTINUOUS
  0
LAYER
  5
134
330
2
100
AcDbSymbolTableRecord
100
AcDbLayerTableRecord
  2
251
 70
     0
 62
   251
  6
CONTINUOUS
  0
LAYER
  5
135
330
2
100
AcDbSymbolTableRecord
100
AcDbLayerTableRecord
  2
252
 70
     0
 62
   252
  6
CONTINUOUS
  0
LAYER
  5
136
330
2
100
AcDbSymbolTableRecord
100
AcDbLayerTableRecord
  2
253
 70
     0
 62
   253
  6
CONTINUOUS
  0
LAYER
  5
137
330
2
100
AcDbSymbolTableRecord
100
AcDbLayerTableRecord
  2
254
 70
     0
 62
   254
  6
CONTINUOUS
  0
LAYER
  5
138
330
2
100
AcDbSymbolTableRecord
100
AcDbLayerTableRecord
  2
255
 70
     0
 62
   255
  6
CONTINUOUS
  0
ENDTAB
  0
TABLE
  2
STYLE
  5
3
330
0
100
AcDbSymbolTable
 70
     1
  0
STYLE
  5
11
330
3
100
AcDbSymbolTableRecord
100
AcDbTextStyleTableRecord
  2
STANDARD
 70
     0
 40
0.0
 41
1.0
 50
0.0
 71
     0
 42
0.2
  3
monotxt
  4

  0
ENDTAB
  0
TABLE
  2
VIEW
  5
6
330
0
100
AcDbSymbolTable
 70
     0
  0
ENDTAB
  0
TABLE
  2
UCS
  5
7
330
0
100
AcDbSymbolTable
 70
     0
  0
ENDTAB
  0
TABLE
  2
APPID
  5
9
330
0
100
AcDbSymbolTable
 70
     1
  0
APPID
  5
12
330
9
100
AcDbSymbolTableRecord
100
AcDbRegAppTableRecord
  2
ACAD
 70
     0
  0
ENDTAB
  0
TABLE
  2
DIMSTYLE
  5
A
330
0
100
AcDbSymbolTable
 70
     1
  0
DIMSTYLE
105
29A4
330
A
100
AcDbSymbolTableRecord
100
AcDbDimStyleTableRecord
  2
STANDARD
 70
     0
  3

  4

  5

  6

  7

 40
1.0
 41
0.18
 42
0.0625
 43
0.38
 44
0.18
 45
0.0
 46
0.0
 47
0.0
 48
0.0
140
0.18
141
0.09
142
0.0
143
25.4
144
1.0
145
0.0
146
1.0
147
0.09
 71
     0
 72
     0
 73
     1
 74
     1
 75
     0
 76
     0
 77
     0
 78
     0
170
     0
171
     2
172
     0
173
     0
174
     0
175
     0
176
     0
177
     0
178
     0
270
     2
271
     4
272
     4
273
     2
274
     2
340
11
275
     0
280
     0
281
     0
282
     0
283
     1
284
     0
285
     0
286
     0
287
     3
288
     0
  0
ENDTAB
  0
TABLE
  2
BLOCK_RECORD
  5
1
330
0
100
AcDbSymbolTable
 70
     0
  0
BLOCK_RECORD
  5
1E
102
{ACAD_XDICTIONARY
360
29FF
102
}
330
1
100
AcDbSymbolTableRecord
100
AcDbBlockTableRecord
  2
*MODEL_SPACE
  0
BLOCK_RECORD
  5
1A
102
{ACAD_XDICTIONARY
360
29FD
102
}
330
1
100
AcDbSymbolTableRecord
100
AcDbBlockTableRecord
  2
*PAPER_SPACE
  0
ENDTAB
  0
ENDSEC
  0
SECTION
  2
BLOCKS
  0
BLOCK
  5
13B
330
1E
100
AcDbEntity
  8
0
100
AcDbBlockBegin
  2
*MODEL_SPACE
 70
     0
 10
0.0
 20
0.0
 30
0.0
  3
*MODEL_SPACE
  1

  0
ENDBLK
  5
13C
330
1E
100
AcDbEntity
  8
0
100
AcDbBlockEnd
  0
BLOCK
  5
139
330
1A
100
AcDbEntity
 67
     1
  8
0
100
AcDbBlockBegin
  2
*PAPER_SPACE
 70
     0
 10
0.0
 20
0.0
 30
0.0
  3
*PAPER_SPACE
  1

  0
ENDBLK
  5
13A
330
1A
100
AcDbEntity
 67
     1
  8
0
100
AcDbBlockEnd
  0
ENDSEC
  0
SECTION
  2
ENTITIES
  0
LWPOLYLINE
  5
E4A
330
1E
100
AcDbEntity
  8
7
100
AcDbPolyline
 90
        3
 70
     0
 43
0.0098425196850394
 10
4.203105040663502
 20
2.451171498064038
 10
4.212947560348541
 20
2.461014017749078
 10
4.212947560348541
 20
2.337982521686085
  0
LINE
  5
E4F
330
1E
100
AcDbEntity
  8
7
100
AcDbLine
 10
4.198183780820982
 20
2.337982521686085
 30
0.0
 11
4.228695591844604
 21
2.337982521686085
 31
0.0
  0
LWPOLYLINE
  5
E50
330
1E
100
AcDbEntity
  8
7
100
AcDbPolyline
 90
       12
 70
     0
 43
0.0098425196850394
 10
4.300545985545392
 20
2.362588820898684
 10
4.323183780820982
 20
2.337982521686085
 10
4.374364883183187
 20
2.337982521686085
 10
4.398971182395785
 20
2.362588820898684
 10
4.398971182395785
 20
2.436407718536479
 10
4.374364883183187
 20
2.461014017749078
 10
4.323183780820982
 20
2.461014017749078
 10
4.300545985545392
 20
2.436407718536479
 10
4.298577481608384
 20
2.411801419323881
 10
4.323183780820982
 20
2.387195120111282
 10
4.374364883183187
 20
2.387195120111282
 10
4.398971182395785
 20
2.411801419323881
  0
LWPOLYLINE
  5
E5E
330
1E
100
AcDbEntity
  8
7
100
AcDbPolyline
 90
        4
 70
     0
 43
0.0098425196850394
 10
4.460979056411534
 20
2.424596694914432
 10
4.448183780820982
 20
2.461014017749078
 10
4.472790080033581
 20
2.461014017749078
 10
4.460979056411534
 20
2.424596694914432
  0
LWPOLYLINE
  5
E64
330
1E
100
AcDbEntity
  8
7
100
AcDbPolyline
 90
        4
 70
     0
 43
0.0098425196850394
 10
4.51019165483673
 20
2.424596694914432
 10
4.497396379246179
 20
2.461014017749078
 10
4.522002678458777
 20
2.461014017749078
 10
4.51019165483673
 20
2.424596694914432
  0
LWPOLYLINE
  5
E6A
330
1E
100
AcDbEntity
  8
7
100
AcDbPolyline
 90
        4
 70
     0
 43
0.0098425196850394
 10
4.709010552474525
 20
2.337982521686085
 10
4.709010552474525
 20
2.461014017749078
 10
4.78282945011232
 20
2.461014017749078
 10
4.807435749324918
 20
2.450187246095534
  0
LWPOLYLINE
  5
E70
330
1E
100
AcDbEntity
  8
7
100
AcDbPolyline
 90
        4
 70
     0
 43
0.0098425196850394
 10
4.807435749324918
 20
2.450187246095534
 10
4.807435749324918
 20
2.411801419323881
 10
4.78282945011232
 20
2.399990395701833
 10
4.709010552474525
 20
2.399990395701833
  0
LINE
  5
E76
330
1E
100
AcDbEntity
  8
7
100
AcDbLine
 10
4.807435749324918
 20
2.337982521686085
 30
0.0
 11
4.78282945011232
 21
2.399990395701833
 31
0.0
  0
LWPOLYLINE
  5
E77
330
1E
100
AcDbEntity
  8
7
100
AcDbPolyline
 90
        3
 70
     0
 43
0.0098425196850394
 10
4.844837324128068
 20
2.337982521686085
 10
4.894049922553264
 20
2.461014017749078
 10
4.944246772946966
 20
2.337982521686085
  0
LINE
  5
E7C
330
1E
100
AcDbEntity
  8
7
100
AcDbLine
 10
4.869443623340666
 20
2.399990395701833
 30
0.0
 11
4.918656221765862
 21
2.399990395701833
 31
0.0
  0
LWPOLYLINE
  5
E7D
330
1E
100
AcDbEntity
  8
7
100
AcDbPolyline
 90
        8
 70
     0
 43
0.0098425196850394
 10
5.079089292632005
 20
2.362588820898684
 10
5.054482993419407
 20
2.337982521686085
 10
5.006254646962714
 20
2.337982521686085
 10
4.980664095781611
 20
2.362588820898684
 10
4.980664095781611
 20
2.436407718536479
 10
5.006254646962714
 20
2.461014017749078
 10
5.055467245387911
 20
2.461014017749078
 10
5.080073544600509
 20
2.436407718536479
  0
LINE
  5
E87
330
1E
100
AcDbEntity
  8
7
100
AcDbLine
 10
5.117475119403659
 20
2.337982521686085
 30
0.0
 11
5.117475119403659
 21
2.461014017749078
 31
0.0
  0
LINE
  5
E88
330
1E
100
AcDbEntity
  8
7
100
AcDbLine
 10
5.203105040663501
 20
2.461014017749078
 30
0.0
 11
5.117475119403659
 21
2.375384096489235
 31
0.0
  0
LINE
  5
E89
330
1E
100
AcDbEntity
  8
7
100
AcDbLine
 10
5.203105040663501
 20
2.337982521686085
 30
0.0
 11
5.153892442238305
 21
2.411801419323881
 31
0.0
  0
LWPOLYLINE
  5
E8A
330
1E
100
AcDbEntity
  8
7
100
AcDbPolyline
 90
        5
 70
     0
 43
0.0098425196850394
 10
5.390112914679249
 20
2.337982521686085
 10
5.390112914679249
 20
2.461014017749078
 10
5.439325513104446
 20
2.337982521686085
 10
5.488538111529642
 20
2.461014017749078
 10
5.488538111529642
 20
2.337982521686085
  0
LWPOLYLINE
  5
E91
330
1E
100
AcDbEntity
  8
7
100
AcDbPolyline
 90
        6
 70
     0
 43
0.0098425196850394
 10
5.55054598554539
 20
2.337982521686085
 10
5.599758583970588
 20
2.337982521686085
 10
5.62534913515169
 20
2.362588820898684
 10
5.62534913515169
 20
2.436407718536479
 10
5.599758583970588
 20
2.461014017749078
 10
5.55054598554539
 20
2.461014017749078
  0
LWPOLYLINE
  5
E99
330
1E
100
AcDbEntity
  8
7
100
AcDbPolyline
 90
        4
 70
     0
 43
0.0098425196850394
 10
5.55054598554539
 20
2.461014017749078
 10
5.524955434364288
 20
2.436407718536479
 10
5.524955434364288
 20
2.362588820898684
 10
5.55054598554539
 20
2.337982521686085
  0
LWPOLYLINE
  5
E9F
330
1E
100
AcDbEntity
  8
7
100
AcDbPolyline
 90
        6
 70
     0
 43
0.0098425196850394
 10
5.661766457986336
 20
2.461014017749078
 10
5.661766457986336
 20
2.362588820898684
 10
5.685388505230431
 20
2.337982521686085
 10
5.734601103655627
 20
2.337982521686085
 10
5.761175906805233
 20
2.362588820898684
 10
5.761175906805233
 20
2.461014017749078
  0
LWPOLYLINE
  5
EA7
330
1E
100
AcDbEntity
  8
7
100
AcDbPolyline
 90
        3
 70
     0
 43
0.0098425196850394
 10
5.798577481608383
 20
2.337982521686085
 10
5.798577481608383
 20
2.461014017749078
 10
5.897002678458777
 20
2.337982521686085
  0
LINE
  5
EAC
330
1E
100
AcDbEntity
  8
7
100
AcDbLine
 10
5.897002678458777
 20
2.337982521686085
 30
0.0
 11
5.897002678458777
 21
2.461014017749078
 31
0.0
  0
LINE
  5
EAD
330
1E
100
AcDbEntity
  8
7
100
AcDbLine
 10
5.983616851687123
 20
2.461014017749078
 30
0.0
 11
5.983616851687123
 21
2.337982521686085
 31
0.0
  0
LINE
  5
EAE
330
1E
100
AcDbEntity
  8
7
100
AcDbLine
 10
6.033813702080824
 20
2.461014017749078
 30
0.0
 11
5.934404253261925
 21
2.461014017749078
 31
0.0
  0
LWPOLYLINE
  5
EAF
330
1E
100
AcDbEntity
  8
7
100
AcDbPolyline
 90
        7
 70
     0
 43
0.0098425196850394
 10
6.206057796569012
 20
2.349793545308133
 10
6.230664095781611
 20
2.337982521686085
 10
6.280860946175312
 20
2.337982521686085
 10
6.305467245387911
 20
2.350777797276637
 10
6.305467245387911
 20
2.387195120111282
 10
6.280860946175312
 20
2.399990395701833
 10
6.231648347750114
 20
2.399990395701833
  0
LWPOLYLINE
  5
EB8
330
1E
100
AcDbEntity
  8
7
100
AcDbPolyline
 90
        6
 70
     0
 43
0.0098425196850394
 10
6.231648347750114
 20
2.399990395701833
 10
6.206057796569012
 20
2.411801419323881
 10
6.206057796569012
 20
2.450187246095534
 10
6.231648347750114
 20
2.461014017749078
 10
6.280860946175312
 20
2.461014017749078
 10
6.305467245387911
 20
2.450187246095534
  0
LINE
  5
EC0
330
1E
100
AcDbEntity
  8
7
100
AcDbLine
 10
6.342868820191061
 20
2.337982521686085
 30
0.0
 11
6.342868820191061
 21
2.461014017749078
 31
0.0
  0
LINE
  5
EC1
330
1E
100
AcDbEntity
  8
7
100
AcDbLine
 10
6.442278269009957
 20
2.399990395701833
 30
0.0
 11
6.342868820191061
 21
2.399990395701833
 31
0.0
  0
LINE
  5
EC2
330
1E
100
AcDbEntity
  8
7
100
AcDbLine
 10
6.442278269009957
 20
2.337982521686085
 30
0.0
 11
6.442278269009957
 21
2.461014017749078
 31
0.0
  0
LWPOLYLINE
  5
EC3
330
1E
100
AcDbEntity
  8
7
100
AcDbPolyline
 90
        4
 70
     0
 43
0.0098425196850394
 10
6.578105040663501
 20
2.337982521686085
 10
6.479679843813107
 20
2.337982521686085
 10
6.479679843813107
 20
2.461014017749078
 10
6.578105040663501
 20
2.461014017749078
  0
LINE
  5
EC9
330
1E
100
AcDbEntity
  8
7
100
AcDbLine
 10
6.553498741450903
 20
2.399990395701833
 30
0.0
 11
6.479679843813107
 21
2.399990395701833
 31
0.0
  0
LWPOLYLINE
  5
ECA
330
1E
100
AcDbEntity
  8
7
100
AcDbPolyline
 90
        3
 70
     0
 43
0.0098425196850394
 10
6.615506615466651
 20
2.461014017749078
 10
6.615506615466651
 20
2.337982521686085
 10
6.714916064285548
 20
2.337982521686085
  0
LWPOLYLINE
  5
ECF
330
1E
100
AcDbEntity
  8
7
100
AcDbPolyline
 90
        3
 70
     0
 43
0.0098425196850394
 10
6.751333387120194
 20
2.337982521686085
 10
6.751333387120194
 20
2.461014017749078
 10
6.850742835939092
 20
2.461014017749078
  0
LINE
  5
ED4
330
1E
100
AcDbEntity
  8
7
100
AcDbLine
 10
6.813341261135942
 20
2.411801419323881
 30
0.0
 11
6.751333387120194
 21
2.411801419323881
 31
0.0
  0
LWPOLYLINE
  5
ED5
330
1E
100
AcDbEntity
  8
7
100
AcDbPolyline
 90
        4
 70
     0
 43
0.0098425196850394
 10
3.748380631214683
 20
2.149990395701833
 10
3.735585355624132
 20
2.174596694914432
 10
3.735585355624132
 20
2.249399844520731
 10
3.748380631214683
 20
2.27400614373333
  0
LWPOLYLINE
  5
EDB
330
1E
100
AcDbEntity
  8
7
100
AcDbPolyline
 90
        8
 70
     0
 43
0.0098425196850394
 10
3.822199528852478
 20
2.161801419323881
 10
3.846805828065076
 20
2.149990395701833
 10
3.897986930427282
 20
2.149990395701833
 10
3.92259322963988
 20
2.163769923260889
 10
3.92259322963988
 20
2.200187246095534
 10
3.897986930427282
 20
2.212982521686085
 10
3.848774332002085
 20
2.212982521686085
 10
3.822199528852478
 20
2.224793545308133
  0
LWPOLYLINE
  5
EE5
330
1E
100
AcDbEntity
  8
7
100
AcDbPolyline
 90
        5
 70
     0
 43
0.0098425196850394
 10
3.822199528852478
 20
2.224793545308133
 10
3.822199528852478
 20
2.262195120111282
 10
3.848774332002085
 20
2.27400614373333
 10
3.897986930427282
 20
2.27400614373333
 10
3.92259322963988
 20
2.262195120111282
  0
LWPOLYLINE
  5
EEC
330
1E
100
AcDbEntity
  8
7
100
AcDbPolyline
 90
        7
 70
     0
 43
0.0098425196850394
 10
3.959994804443029
 20
2.149990395701833
 10
3.959994804443029
 20
2.27400614373333
 10
4.033813702080824
 20
2.27400614373333
 10
4.058420001293423
 20
2.262195120111282
 10
4.058420001293423
 20
2.224793545308133
 10
4.033813702080824
 20
2.212982521686085
 10
3.959994804443029
 20
2.212982521686085
  0
LINE
  5
EF5
330
1E
100
AcDbEntity
  8
7
100
AcDbLine
 10
4.058420001293423
 20
2.149990395701833
 30
0.0
 11
4.033813702080824
 21
2.212982521686085
 31
0.0
  0
LWPOLYLINE
  5
EF6
330
1E
100
AcDbEntity
  8
7
100
AcDbPolyline
 90
        5
 70
     0
 43
0.0098425196850394
 10
4.095821576096573
 20
2.149990395701833
 10
4.095821576096573
 20
2.27400614373333
 10
4.14503417452177
 20
2.149990395701833
 10
4.195231024915471
 20
2.27400614373333
 10
4.195231024915471
 20
2.149990395701833
  0
LWPOLYLINE
  5
EFD
330
1E
100
AcDbEntity
  8
7
100
AcDbPolyline
 90
        3
 70
     0
 43
0.0098425196850394
 10
4.271018426490273
 20
2.263179372079786
 10
4.281845198143817
 20
2.27400614373333
 10
4.281845198143817
 20
2.149990395701833
  0
LINE
  5
F02
330
1E
100
AcDbEntity
  8
7
100
AcDbLine
 10
4.266097166647754
 20
2.149990395701833
 30
0.0
 11
4.29759322963988
 21
2.149990395701833
 31
0.0
  0
LWPOLYLINE
  5
F03
330
1E
100
AcDbEntity
  8
7
100
AcDbPolyline
 90
        3
 70
     0
 43
0.0098425196850394
 10
4.368459371372163
 20
2.174596694914432
 10
4.392081418616258
 20
2.149990395701833
 10
4.442278269009959
 20
2.149990395701833
  0
LWPOLYLINE
  5
F08
330
1E
100
AcDbEntity
  8
7
100
AcDbPolyline
 90
       10
 70
     0
 43
0.0098425196850394
 10
4.442278269009959
 20
2.149990395701833
 10
4.466884568222557
 20
2.174596694914432
 10
4.466884568222557
 20
2.249399844520731
 10
4.442278269009959
 20
2.27400614373333
 10
4.392081418616258
 20
2.27400614373333
 10
4.368459371372163
 20
2.249399844520731
 10
4.36747511940366
 20
2.224793545308133
 10
4.392081418616258
 20
2.200187246095534
 10
4.442278269009959
 20
2.200187246095534
 10
4.466884568222557
 20
2.224793545308133
  0
LWPOLYLINE
  5
F14
330
1E
100
AcDbEntity
  8
7
100
AcDbPolyline
 90
        3
 70
     0
 43
0.0098425196850394
 10
4.504286143025707
 20
2.149990395701833
 10
4.504286143025707
 20
2.27400614373333
 10
4.603695591844604
 20
2.27400614373333
  0
LINE
  5
F19
330
1E
100
AcDbEntity
  8
7
100
AcDbLine
 10
4.56530976507295
 20
2.224793545308133
 30
0.0
 11
4.504286143025707
 21
2.224793545308133
 31
0.0
  0
LWPOLYLINE
  5
F1A
330
1E
100
AcDbEntity
  8
7
100
AcDbPolyline
 90
        5
 70
     0
 43
0.0098425196850394
 10
4.641097166647754
 20
2.149990395701833
 10
4.641097166647754
 20
2.27400614373333
 10
4.69030976507295
 20
2.149990395701833
 10
4.739522363498148
 20
2.27400614373333
 10
4.739522363498148
 20
2.149990395701833
  0
LWPOLYLINE
  5
F21
330
1E
100
AcDbEntity
  8
7
100
AcDbPolyline
 90
        7
 70
     0
 43
0.0098425196850394
 10
4.776923938301298
 20
2.262195120111282
 10
4.800545985545392
 20
2.27400614373333
 10
4.850742835939092
 20
2.27400614373333
 10
4.876333387120194
 20
2.262195120111282
 10
4.876333387120194
 20
2.237588820898684
 10
4.775939686332792
 20
2.174596694914432
 10
4.776923938301298
 20
2.149990395701833
  0
LINE
  5
F2A
330
1E
100
AcDbEntity
  8
7
100
AcDbLine
 10
4.776923938301298
 20
2.149990395701833
 30
0.0
 11
4.876333387120194
 21
2.149990395701833
 31
0.0
  0
LWPOLYLINE
  5
F2B
330
1E
100
AcDbEntity
  8
7
100
AcDbPolyline
 90
        4
 70
     0
 43
0.0098425196850394
 10
4.949168032789485
 20
2.149990395701833
 10
4.960979056411533
 20
2.174596694914432
 10
4.96294756034854
 20
2.249399844520731
 10
4.949168032789485
 20
2.27400614373333
  0
LWPOLYLINE
  5
F31
330
1E
100
AcDbEntity
  8
7
100
AcDbPolyline
 90
        8
 70
     0
 43
0.0098425196850394
 10
5.28282945011232
 20
2.174596694914432
 10
5.258223150899722
 20
2.149990395701833
 10
5.209994804443029
 20
2.149990395701833
 10
5.185388505230431
 20
2.174596694914432
 10
5.185388505230431
 20
2.249399844520731
 10
5.209994804443029
 20
2.27400614373333
 10
5.260191654836729
 20
2.27400614373333
 10
5.284797954049327
 20
2.249399844520731
  0
LWPOLYLINE
  5
F3B
330
1E
100
AcDbEntity
  8
7
100
AcDbPolyline
 90
        6
 70
     0
 43
0.0098425196850394
 10
5.322199528852477
 20
2.27400614373333
 10
5.322199528852477
 20
2.174596694914432
 10
5.344837324128068
 20
2.149990395701833
 10
5.395034174521768
 20
2.149990395701833
 10
5.420624725702872
 20
2.174596694914432
 10
5.420624725702872
 20
2.27400614373333
  0
LWPOLYLINE
  5
F43
330
1E
100
AcDbEntity
  8
7
100
AcDbPolyline
 90
        8
 70
     0
 43
0.0098425196850394
 10
5.457042048537516
 20
2.161801419323881
 10
5.481648347750114
 20
2.149990395701833
 10
5.531845198143816
 20
2.149990395701833
 10
5.556451497356414
 20
2.163769923260889
 10
5.556451497356414
 20
2.200187246095534
 10
5.531845198143816
 20
2.212982521686085
 10
5.48263259971862
 20
2.212982521686085
 10
5.457042048537516
 20
2.224793545308133
  0
LWPOLYLINE
  5
F4D
330
1E
100
AcDbEntity
  8
7
100
AcDbPolyline
 90
        5
 70
     0
 43
0.0098425196850394
 10
5.457042048537516
 20
2.224793545308133
 10
5.457042048537516
 20
2.262195120111282
 10
5.48263259971862
 20
2.27400614373333
 10
5.531845198143816
 20
2.27400614373333
 10
5.556451497356414
 20
2.262195120111282
  0
LINE
  5
F54
330
1E
100
AcDbEntity
  8
7
100
AcDbLine
 10
5.644049922553264
 20
2.27400614373333
 30
0.0
 11
5.644049922553264
 21
2.149990395701833
 31
0.0
  0
LINE
  5
F55
330
1E
100
AcDbEntity
  8
7
100
AcDbLine
 10
5.693262520978462
 20
2.27400614373333
 30
0.0
 11
5.593853072159564
 21
2.27400614373333
 31
0.0
  0
LWPOLYLINE
  5
F56
330
1E
100
AcDbEntity
  8
7
100
AcDbPolyline
 90
        5
 70
     0
 43
0.0098425196850394
 10
5.755270394994211
 20
2.149990395701833
 10
5.804482993419407
 20
2.149990395701833
 10
5.829089292632005
 20
2.174596694914432
 10
5.829089292632005
 20
2.249399844520731
 10
5.804482993419407
 20
2.27400614373333
  0
LWPOLYLINE
  5
F5D
330
1E
100
AcDbEntity
  8
7
100
AcDbPolyline
 90
        5
 70
     0
 43
0.0098425196850394
 10
5.804482993419407
 20
2.27400614373333
 10
5.755270394994211
 20
2.27400614373333
 10
5.728695591844603
 20
2.249399844520731
 10
5.728695591844603
 20
2.174596694914432
 10
5.755270394994211
 20
2.149990395701833
  0
LWPOLYLINE
  5
F64
330
1E
100
AcDbEntity
  8
7
100
AcDbPolyline
 90
        5
 70
     0
 43
0.0098425196850394
 10
5.866490867435155
 20
2.149990395701833
 10
5.866490867435155
 20
2.27400614373333
 10
5.915703465860351
 20
2.149990395701833
 10
5.965900316254051
 20
2.27400614373333
 10
5.965900316254051
 20
2.149990395701833
  0
LWPOLYLINE
  5
F6B
330
1E
100
AcDbEntity
  8
7
100
AcDbPolyline
 90
        4
 70
     0
 43
0.0098425196850394
 10
6.101727087907596
 20
2.149990395701833
 10
6.002317639088698
 20
2.149990395701833
 10
6.002317639088698
 20
2.27400614373333
 10
6.101727087907596
 20
2.27400614373333
  0
LINE
  5
F71
330
1E
100
AcDbEntity
  8
7
100
AcDbLine
 10
6.077120788694998
 20
2.212982521686085
 30
0.0
 11
6.002317639088698
 21
2.212982521686085
 31
0.0
  0
LWPOLYLINE
  5
F72
330
1E
100
AcDbEntity
  8
7
100
AcDbPolyline
 90
        7
 70
     0
 43
0.0098425196850394
 10
6.139128662710746
 20
2.149990395701833
 10
6.139128662710746
 20
2.27400614373333
 10
6.21294756034854
 20
2.27400614373333
 10
6.237553859561138
 20
2.262195120111282
 10
6.237553859561138
 20
2.224793545308133
 10
6.21294756034854
 20
2.212982521686085
 10
6.139128662710746
 20
2.212982521686085
  0
LINE
  5
F7B
330
1E
100
AcDbEntity
  8
7
100
AcDbLine
 10
6.237553859561138
 20
2.149990395701833
 30
0.0
 11
6.21294756034854
 21
2.212982521686085
 31
0.0
  0
LWPOLYLINE
  5
F7C
330
1E
100
AcDbEntity
  8
7
100
AcDbPolyline
 90
        7
 70
     0
 43
0.0098425196850394
 10
6.411766457986336
 20
2.149990395701833
 10
6.484601103655627
 20
2.149990395701833
 10
6.510191654836729
 20
2.174596694914432
 10
6.510191654836729
 20
2.249399844520731
 10
6.484601103655627
 20
2.27400614373333
 10
6.411766457986336
 20
2.27400614373333
 10
6.411766457986336
 20
2.149990395701833
  0
LWPOLYLINE
  5
F85
330
1E
100
AcDbEntity
  8
7
100
AcDbPolyline
 90
        7
 70
     0
 43
0.0098425196850394
 10
6.547593229639879
 20
2.149990395701833
 10
6.547593229639879
 20
2.27400614373333
 10
6.621412127277674
 20
2.27400614373333
 10
6.646018426490273
 20
2.262195120111282
 10
6.646018426490273
 20
2.224793545308133
 10
6.621412127277674
 20
2.212982521686085
 10
6.547593229639879
 20
2.212982521686085
  0
LINE
  5
F8E
330
1E
100
AcDbEntity
  8
7
100
AcDbLine
 10
6.646018426490273
 20
2.149990395701833
 30
0.0
 11
6.621412127277674
 21
2.212982521686085
 31
0.0
  0
LWPOLYLINE
  5
F8F
330
1E
100
AcDbEntity
  8
7
100
AcDbPolyline
 90
        3
 70
     0
 43
0.0098425196850394
 10
6.683420001293422
 20
2.149990395701833
 10
6.733616851687123
 20
2.27400614373333
 10
6.78282945011232
 20
2.149990395701833
  0
LINE
  5
F94
330
1E
100
AcDbEntity
  8
7
100
AcDbLine
 10
6.70802630050602
 20
2.212982521686085
 30
0.0
 11
6.758223150899722
 21
2.212982521686085
 31
0.0
  0
LWPOLYLINE
  5
F95
330
1E
100
AcDbEntity
  8
7
100
AcDbPolyline
 90
        4
 70
     0
 43
0.0098425196850394
 10
6.82023102491547
 20
2.27400614373333
 10
6.842868820191061
 20
2.149990395701833
 10
6.868459371372162
 20
2.27400614373333
 10
6.894049922553264
 20
2.149990395701833
  0
LINE
  5
F9B
330
1E
100
AcDbEntity
  8
7
100
AcDbLine
 10
6.894049922553264
 20
2.149990395701833
 30
0.0
 11
6.918656221765862
 21
2.27400614373333
 31
0.0
  0
LINE
  5
F9C
330
1E
100
AcDbEntity
  8
7
100
AcDbLine
 10
6.992475119403659
 20
2.149990395701833
 30
0.0
 11
7.017081418616257
 21
2.149990395701833
 31
0.0
  0
LINE
  5
F9D
330
1E
100
AcDbEntity
  8
7
100
AcDbLine
 10
7.005270394994209
 20
2.27400614373333
 30
0.0
 11
7.005270394994209
 21
2.149990395701833
 31
0.0
  0
LINE
  5
F9E
330
1E
100
AcDbEntity
  8
7
100
AcDbLine
 10
6.992475119403659
 20
2.27400614373333
 30
0.0
 11
7.017081418616257
 21
2.27400614373333
 31
0.0
  0
LWPOLYLINE
  5
F9F
330
1E
100
AcDbEntity
  8
7
100
AcDbPolyline
 90
        4
 70
     0
 43
0.0098425196850394
 10
7.091884568222557
 20
2.149990395701833
 10
7.091884568222557
 20
2.27400614373333
 10
7.191294017041453
 20
2.149990395701833
 10
7.191294017041453
 20
2.27400614373333
  0
LWPOLYLINE
  5
FA5
330
1E
100
AcDbEntity
  8
7
100
AcDbPolyline
 90
       10
 70
     0
 43
0.0098425196850394
 10
7.277908190269799
 20
2.212982521686085
 10
7.327120788694998
 20
2.212982521686085
 10
7.327120788694998
 20
2.174596694914432
 10
7.302514489482399
 20
2.149990395701833
 10
7.252317639088698
 20
2.149990395701833
 10
7.226727087907596
 20
2.174596694914432
 10
7.226727087907596
 20
2.249399844520731
 10
7.253301891057201
 20
2.27400614373333
 10
7.301530237513894
 20
2.27400614373333
 10
7.326136536726494
 20
2.249399844520731
  0
LINE
  5
1A14
330
1E
100
AcDbEntity
  8
3
100
AcDbLine
 10
1.258858267716535
 20
4.070866141732283
 30
0.0
 11
1.258858267716535
 21
4.518700787401574
 31
0.0
  0
LINE
  5
1A15
330
1E
100
AcDbEntity
  8
3
100
AcDbLine
 10
3.552165354330708
 20
4.070866141732283
 30
0.0
 11
3.552165354330708
 21
4.518700787401574
 31
0.0
  0
LINE
  5
1A16
330
1E
100
AcDbEntity
  8
3
100
AcDbLine
 10
1.258858267716535
 20
4.393700787401574
 30
0.0
 11
2.003937007874015
 21
4.393700787401574
 31
0.0
  0
LINE
  5
1A17
330
1E
100
AcDbEntity
  8
3
100
AcDbLine
 10
3.552165354330708
 20
4.393700787401574
 30
0.0
 11
2.610236220472441
 21
4.393700787401574
 31
0.0
  0
LWPOLYLINE
  5
1A18
330
1E
100
AcDbEntity
  8
7
100
AcDbPolyline
 90
        3
 70
     0
 43
0.0098425196850394
 10
2.104330708661417
 20
4.43011811023622
 10
2.112204724409449
 20
4.437992125984251
 10
2.112204724409449
 20
4.348425196850393
  0
LINE
  5
1A1D
330
1E
100
AcDbEntity
  8
7
100
AcDbLine
 10
2.100393700787401
 20
4.348425196850393
 30
0.0
 11
2.123031496062992
 21
4.348425196850393
 31
0.0
  0
LWPOLYLINE
  5
1A1E
330
1E
100
AcDbEntity
  8
7
100
AcDbPolyline
 90
        6
 70
     0
 43
0.0098425196850394
 10
2.190944881889763
 20
4.393700787401574
 10
2.174212598425196
 20
4.40255905511811
 10
2.174212598425196
 20
4.429133858267716
 10
2.190944881889763
 20
4.437992125984251
 10
2.227362204724409
 20
4.437992125984251
 10
2.24507874015748
 20
4.429133858267716
  0
LWPOLYLINE
  5
1A26
330
1E
100
AcDbEntity
  8
7
100
AcDbPolyline
 90
       11
 70
     0
 43
0.0098425196850394
 10
2.24507874015748
 20
4.429133858267716
 10
2.24507874015748
 20
4.40255905511811
 10
2.227362204724409
 20
4.393700787401574
 10
2.190944881889763
 20
4.393700787401574
 10
2.173228346456693
 20
4.384842519685039
 10
2.173228346456693
 20
4.358267716535433
 10
2.190944881889763
 20
4.348425196850393
 10
2.227362204724409
 20
4.348425196850393
 10
2.24507874015748
 20
4.357283464566929
 10
2.24507874015748
 20
4.384842519685039
 10
2.227362204724409
 20
4.393700787401574
  0
LWPOLYLINE
  5
1A33
330
1E
100
AcDbEntity
  8
7
100
AcDbPolyline
 90
        5
 70
     0
 43
0.0098425196850394
 10
2.298228346456693
 20
4.348425196850393
 10
2.315944881889763
 20
4.348425196850393
 10
2.315944881889763
 20
4.366141732283464
 10
2.298228346456693
 20
4.366141732283464
 10
2.298228346456693
 20
4.348425196850393
  0
LWPOLYLINE
  5
1A3A
330
1E
100
AcDbEntity
  8
7
100
AcDbPolyline
 90
        7
 70
     0
 43
0.0098425196850394
 10
2.37007874015748
 20
4.357283464566929
 10
2.386811023622047
 20
4.348425196850393
 10
2.424212598425196
 20
4.348425196850393
 10
2.441929133858267
 20
4.357283464566929
 10
2.441929133858267
 20
4.384842519685039
 10
2.424212598425196
 20
4.393700787401574
 10
2.396653543307086
 20
4.393700787401574
  0
LWPOLYLINE
  5
1A43
330
1E
100
AcDbEntity
  8
7
100
AcDbPolyline
 90
        6
 70
     0
 43
0.0098425196850394
 10
2.424212598425196
 20
4.393700787401574
 10
2.441929133858267
 20
4.40255905511811
 10
2.441929133858267
 20
4.429133858267716
 10
2.424212598425196
 20
4.437992125984251
 10
2.386811023622047
 20
4.437992125984251
 10
2.369094488188976
 20
4.429133858267716
  0
LWPOLYLINE
  5
1A4B
330
1E
100
AcDbEntity
  8
7
100
AcDbPolyline
 90
        3
 70
     0
 43
0.0098425196850394
 10
2.497047244094488
 20
4.43011811023622
 10
2.503937007874015
 20
4.437992125984251
 10
2.503937007874015
 20
4.348425196850393
  0
LINE
  5
1A50
330
1E
100
AcDbEntity
  8
7
100
AcDbLine
 10
2.493110236220472
 20
4.348425196850393
 30
0.0
 11
2.515748031496062
 21
4.348425196850393
 31
0.0
  0
LWPOLYLINE
  5
1A51
330
1E
100
AcDbEntity
  8
7
100
AcDbPolyline
 90
        4
 70
     0
 43
0.0098425196850394
 10
2.089566929133858
 20
4.168307086614173
 10
2.075787401574803
 20
4.168307086614173
 10
2.075787401574803
 20
4.257874015748031
 10
2.089566929133858
 20
4.257874015748031
  0
LWPOLYLINE
  5
1A57
330
1E
100
AcDbEntity
  8
7
100
AcDbPolyline
 90
        4
 70
     0
 43
0.0098425196850394
 10
2.24507874015748
 20
4.204724409448818
 10
2.174212598425196
 20
4.204724409448818
 10
2.227362204724409
 20
4.257874015748031
 10
2.227362204724409
 20
4.168307086614173
  0
LWPOLYLINE
  5
1A5D
330
1E
100
AcDbEntity
  8
7
100
AcDbPolyline
 90
        3
 70
     0
 43
0.0098425196850394
 10
2.27263779527559
 20
4.204724409448818
 10
2.289370078740157
 20
4.222440944881889
 10
2.325787401574803
 20
4.222440944881889
  0
LWPOLYLINE
  5
1A62
330
1E
100
AcDbEntity
  8
7
100
AcDbPolyline
 90
       10
 70
     0
 43
0.0098425196850394
 10
2.325787401574803
 20
4.222440944881889
 10
2.343503937007874
 20
4.204724409448818
 10
2.343503937007874
 20
4.187007874015748
 10
2.325787401574803
 20
4.168307086614173
 10
2.289370078740157
 20
4.168307086614173
 10
2.27263779527559
 20
4.187007874015748
 10
2.27263779527559
 20
4.240157480314961
 10
2.289370078740157
 20
4.257874015748031
 10
2.325787401574803
 20
4.257874015748031
 10
2.343503937007874
 20
4.240157480314961
  0
LWPOLYLINE
  5
1A6E
330
1E
100
AcDbEntity
  8
7
100
AcDbPolyline
 90
        6
 70
     0
 43
0.0098425196850394
 10
2.369094488188976
 20
4.177165354330708
 10
2.386811023622047
 20
4.168307086614173
 10
2.424212598425196
 20
4.168307086614173
 10
2.441929133858267
 20
4.177165354330708
 10
2.441929133858267
 20
4.21259842519685
 10
2.424212598425196
 20
4.222440944881889
  0
LWPOLYLINE
  5
1A76
330
1E
100
AcDbEntity
  8
7
100
AcDbPolyline
 90
        5
 70
     0
 43
0.0098425196850394
 10
2.424212598425196
 20
4.222440944881889
 10
2.386811023622047
 20
4.222440944881889
 10
2.369094488188976
 20
4.213582677165354
 10
2.369094488188976
 20
4.257874015748031
 10
2.441929133858267
 20
4.257874015748031
  0
LWPOLYLINE
  5
1A7D
330
1E
100
AcDbEntity
  8
7
100
AcDbPolyline
 90
        5
 70
     0
 43
0.0098425196850394
 10
2.49507874015748
 20
4.168307086614173
 10
2.512795275590551
 20
4.168307086614173
 10
2.512795275590551
 20
4.187007874015748
 10
2.49507874015748
 20
4.187007874015748
 10
2.49507874015748
 20
4.168307086614173
  0
LWPOLYLINE
  5
1A84
330
1E
100
AcDbEntity
  8
7
100
AcDbPolyline
 90
        6
 70
     0
 43
0.0098425196850394
 10
2.610236220472441
 20
4.168307086614173
 10
2.627952755905512
 20
4.178149606299212
 10
2.637795275590551
 20
4.204724409448818
 10
2.637795275590551
 20
4.222440944881889
 10
2.627952755905512
 20
4.249015748031496
 10
2.610236220472441
 20
4.257874015748031
  0
LWPOLYLINE
  5
1A8C
330
1E
100
AcDbEntity
  8
7
100
AcDbPolyline
 90
        8
 70
     0
 43
0.0098425196850394
 10
2.610236220472441
 20
4.257874015748031
 10
2.59251968503937
 20
4.257874015748031
 10
2.574803149606299
 20
4.249015748031496
 10
2.565944881889763
 20
4.222440944881889
 10
2.566929133858267
 20
4.204724409448818
 10
2.574803149606299
 20
4.178149606299212
 10
2.59251968503937
 20
4.168307086614173
 10
2.610236220472441
 20
4.168307086614173
  0
LWPOLYLINE
  5
1A96
330
1E
100
AcDbEntity
  8
7
100
AcDbPolyline
 90
        4
 70
     0
 43
0.0098425196850394
 10
2.721456692913386
 20
4.168307086614173
 10
2.736220472440944
 20
4.168307086614173
 10
2.736220472440944
 20
4.257874015748031
 10
2.721456692913386
 20
4.257874015748031
  0
LWPOLYLINE
  5
1A9C
330
1E
100
AcDbEntity
  8
3
100
AcDbPolyline
 90
        4
 70
     0
 43
0.0098425196850394
 10
1.258858267716535
 20
4.393700787401574
 10
1.348425196850393
 20
4.37007874015748
 10
1.348425196850393
 20
4.418307086614173
 10
1.258858267716535
 20
4.393700787401574
  0
LINE
  5
1AA2
330
1E
100
AcDbEntity
  8
3
100
AcDbLine
 10
1.348425196850393
 20
4.372047244094487
 30
0.0
 11
1.340551181102362
 21
4.372047244094487
 31
0.0
  0
LINE
  5
1AA3
330
1E
100
AcDbEntity
  8
3
100
AcDbLine
 10
1.348425196850393
 20
4.374015748031496
 30
0.0
 11
1.333661417322834
 21
4.374015748031496
 31
0.0
  0
LINE
  5
1AA4
330
1E
100
AcDbEntity
  8
3
100
AcDbLine
 10
1.348425196850393
 20
4.375984251968503
 30
0.0
 11
1.325787401574803
 21
4.375984251968503
 31
0.0
  0
LINE
  5
1AA5
330
1E
100
AcDbEntity
  8
3
100
AcDbLine
 10
1.348425196850393
 20
4.377952755905512
 30
0.0
 11
1.318897637795275
 21
4.377952755905512
 31
0.0
  0
LINE
  5
1AA6
330
1E
100
AcDbEntity
  8
3
100
AcDbLine
 10
1.348425196850393
 20
4.379921259842519
 30
0.0
 11
1.311023622047243
 21
4.379921259842519
 31
0.0
  0
LINE
  5
1AA7
330
1E
100
AcDbEntity
  8
3
100
AcDbLine
 10
1.348425196850393
 20
4.381889763779527
 30
0.0
 11
1.304133858267716
 21
4.381889763779527
 31
0.0
  0
LINE
  5
1AA8
330
1E
100
AcDbEntity
  8
3
100
AcDbLine
 10
1.348425196850393
 20
4.383858267716535
 30
0.0
 11
1.296259842519684
 21
4.383858267716535
 31
0.0
  0
LINE
  5
1AA9
330
1E
100
AcDbEntity
  8
3
100
AcDbLine
 10
1.348425196850393
 20
4.385826771653543
 30
0.0
 11
1.288385826771653
 21
4.385826771653543
 31
0.0
  0
LINE
  5
1AAA
330
1E
100
AcDbEntity
  8
3
100
AcDbLine
 10
1.348425196850393
 20
4.38779527559055
 30
0.0
 11
1.281496062992125
 21
4.38779527559055
 31
0.0
  0
LINE
  5
1AAB
330
1E
100
AcDbEntity
  8
3
100
AcDbLine
 10
1.348425196850393
 20
4.389763779527559
 30
0.0
 11
1.273622047244094
 21
4.389763779527559
 31
0.0
  0
LINE
  5
1AAC
330
1E
100
AcDbEntity
  8
3
100
AcDbLine
 10
1.348425196850393
 20
4.391732283464566
 30
0.0
 11
1.266732283464566
 21
4.391732283464566
 31
0.0
  0
LINE
  5
1AAD
330
1E
100
AcDbEntity
  8
3
100
AcDbLine
 10
1.348425196850393
 20
4.393700787401574
 30
0.0
 11
1.258858267716535
 21
4.393700787401574
 31
0.0
  0
LINE
  5
1AAE
330
1E
100
AcDbEntity
  8
3
100
AcDbLine
 10
1.348425196850393
 20
4.415354330708661
 30
0.0
 11
1.340551181102362
 21
4.415354330708661
 31
0.0
  0
LINE
  5
1AAF
330
1E
100
AcDbEntity
  8
3
100
AcDbLine
 10
1.348425196850393
 20
4.413385826771653
 30
0.0
 11
1.333661417322834
 21
4.413385826771653
 31
0.0
  0
LINE
  5
1AB0
330
1E
100
AcDbEntity
  8
3
100
AcDbLine
 10
1.348425196850393
 20
4.411417322834645
 30
0.0
 11
1.325787401574803
 21
4.411417322834645
 31
0.0
  0
LINE
  5
1AB1
330
1E
100
AcDbEntity
  8
3
100
AcDbLine
 10
1.348425196850393
 20
4.409448818897637
 30
0.0
 11
1.318897637795275
 21
4.409448818897637
 31
0.0
  0
LINE
  5
1AB2
330
1E
100
AcDbEntity
  8
3
100
AcDbLine
 10
1.348425196850393
 20
4.407480314960629
 30
0.0
 11
1.311023622047243
 21
4.407480314960629
 31
0.0
  0
LINE
  5
1AB3
330
1E
100
AcDbEntity
  8
3
100
AcDbLine
 10
1.348425196850393
 20
4.405511811023622
 30
0.0
 11
1.304133858267716
 21
4.405511811023622
 31
0.0
  0
LINE
  5
1AB4
330
1E
100
AcDbEntity
  8
3
100
AcDbLine
 10
1.348425196850393
 20
4.403543307086613
 30
0.0
 11
1.296259842519684
 21
4.403543307086613
 31
0.0
  0
LINE
  5
1AB5
330
1E
100
AcDbEntity
  8
3
100
AcDbLine
 10
1.348425196850393
 20
4.401574803149606
 30
0.0
 11
1.288385826771653
 21
4.401574803149606
 31
0.0
  0
LINE
  5
1AB6
330
1E
100
AcDbEntity
  8
3
100
AcDbLine
 10
1.348425196850393
 20
4.399606299212598
 30
0.0
 11
1.281496062992125
 21
4.399606299212598
 31
0.0
  0
LINE
  5
1AB7
330
1E
100
AcDbEntity
  8
3
100
AcDbLine
 10
1.348425196850393
 20
4.39763779527559
 30
0.0
 11
1.273622047244094
 21
4.39763779527559
 31
0.0
  0
LINE
  5
1AB8
330
1E
100
AcDbEntity
  8
3
100
AcDbLine
 10
1.348425196850393
 20
4.395669291338582
 30
0.0
 11
1.266732283464566
 21
4.395669291338582
 31
0.0
  0
LINE
  5
1AB9
330
1E
100
AcDbEntity
  8
3
100
AcDbLine
 10
1.348425196850393
 20
4.393700787401574
 30
0.0
 11
1.258858267716535
 21
4.393700787401574
 31
0.0
  0
LWPOLYLINE
  5
1ABA
330
1E
100
AcDbEntity
  8
3
100
AcDbPolyline
 90
        4
 70
     0
 43
0.0098425196850394
 10
3.552165354330708
 20
4.393700787401574
 10
3.46259842519685
 20
4.418307086614173
 10
3.46259842519685
 20
4.37007874015748
 10
3.552165354330708
 20
4.393700787401574
  0
LINE
  5
1AC0
330
1E
100
AcDbEntity
  8
3
100
AcDbLine
 10
3.46259842519685
 20
4.415354330708661
 30
0.0
 11
3.470472440944881
 21
4.415354330708661
 31
0.0
  0
LINE
  5
1AC1
330
1E
100
AcDbEntity
  8
3
100
AcDbLine
 10
3.46259842519685
 20
4.413385826771653
 30
0.0
 11
3.477362204724409
 21
4.413385826771653
 31
0.0
  0
LINE
  5
1AC2
330
1E
100
AcDbEntity
  8
3
100
AcDbLine
 10
3.46259842519685
 20
4.411417322834645
 30
0.0
 11
3.485236220472441
 21
4.411417322834645
 31
0.0
  0
LINE
  5
1AC3
330
1E
100
AcDbEntity
  8
3
100
AcDbLine
 10
3.46259842519685
 20
4.409448818897637
 30
0.0
 11
3.492125984251968
 21
4.409448818897637
 31
0.0
  0
LINE
  5
1AC4
330
1E
100
AcDbEntity
  8
3
100
AcDbLine
 10
3.46259842519685
 20
4.407480314960629
 30
0.0
 11
3.5
 21
4.407480314960629
 31
0.0
  0
LINE
  5
1AC5
330
1E
100
AcDbEntity
  8
3
100
AcDbLine
 10
3.46259842519685
 20
4.405511811023622
 30
0.0
 11
3.506889763779527
 21
4.405511811023622
 31
0.0
  0
LINE
  5
1AC6
330
1E
100
AcDbEntity
  8
3
100
AcDbLine
 10
3.46259842519685
 20
4.403543307086613
 30
0.0
 11
3.514763779527559
 21
4.403543307086613
 31
0.0
  0
LINE
  5
1AC7
330
1E
100
AcDbEntity
  8
3
100
AcDbLine
 10
3.46259842519685
 20
4.401574803149606
 30
0.0
 11
3.52263779527559
 21
4.401574803149606
 31
0.0
  0
LINE
  5
1AC8
330
1E
100
AcDbEntity
  8
3
100
AcDbLine
 10
3.46259842519685
 20
4.399606299212598
 30
0.0
 11
3.529527559055118
 21
4.399606299212598
 31
0.0
  0
LINE
  5
1AC9
330
1E
100
AcDbEntity
  8
3
100
AcDbLine
 10
3.46259842519685
 20
4.39763779527559
 30
0.0
 11
3.537401574803149
 21
4.39763779527559
 31
0.0
  0
LINE
  5
1ACA
330
1E
100
AcDbEntity
  8
3
100
AcDbLine
 10
3.46259842519685
 20
4.395669291338582
 30
0.0
 11
3.544291338582677
 21
4.395669291338582
 31
0.0
  0
LINE
  5
1ACB
330
1E
100
AcDbEntity
  8
3
100
AcDbLine
 10
3.46259842519685
 20
4.393700787401574
 30
0.0
 11
3.552165354330708
 21
4.393700787401574
 31
0.0
  0
LINE
  5
1ACC
330
1E
100
AcDbEntity
  8
3
100
AcDbLine
 10
3.46259842519685
 20
4.372047244094487
 30
0.0
 11
3.470472440944881
 21
4.372047244094487
 31
0.0
  0
LINE
  5
1ACD
330
1E
100
AcDbEntity
  8
3
100
AcDbLine
 10
3.46259842519685
 20
4.374015748031496
 30
0.0
 11
3.477362204724409
 21
4.374015748031496
 31
0.0
  0
LINE
  5
1ACE
330
1E
100
AcDbEntity
  8
3
100
AcDbLine
 10
3.46259842519685
 20
4.375984251968503
 30
0.0
 11
3.485236220472441
 21
4.375984251968503
 31
0.0
  0
LINE
  5
1ACF
330
1E
100
AcDbEntity
  8
3
100
AcDbLine
 10
3.46259842519685
 20
4.377952755905512
 30
0.0
 11
3.492125984251968
 21
4.377952755905512
 31
0.0
  0
LINE
  5
1AD0
330
1E
100
AcDbEntity
  8
3
100
AcDbLine
 10
3.46259842519685
 20
4.379921259842519
 30
0.0
 11
3.5
 21
4.379921259842519
 31
0.0
  0
LINE
  5
1AD1
330
1E
100
AcDbEntity
  8
3
100
AcDbLine
 10
3.46259842519685
 20
4.381889763779527
 30
0.0
 11
3.506889763779527
 21
4.381889763779527
 31
0.0
  0
LINE
  5
1AD2
330
1E
100
AcDbEntity
  8
3
100
AcDbLine
 10
3.46259842519685
 20
4.383858267716535
 30
0.0
 11
3.514763779527559
 21
4.383858267716535
 31
0.0
  0
LINE
  5
1AD3
330
1E
100
AcDbEntity
  8
3
100
AcDbLine
 10
3.46259842519685
 20
4.385826771653543
 30
0.0
 11
3.52263779527559
 21
4.385826771653543
 31
0.0
  0
LINE
  5
1AD4
330
1E
100
AcDbEntity
  8
3
100
AcDbLine
 10
3.46259842519685
 20
4.38779527559055
 30
0.0
 11
3.529527559055118
 21
4.38779527559055
 31
0.0
  0
LINE
  5
1AD5
330
1E
100
AcDbEntity
  8
3
100
AcDbLine
 10
3.46259842519685
 20
4.389763779527559
 30
0.0
 11
3.537401574803149
 21
4.389763779527559
 31
0.0
  0
LINE
  5
1AD6
330
1E
100
AcDbEntity
  8
3
100
AcDbLine
 10
3.46259842519685
 20
4.391732283464566
 30
0.0
 11
3.544291338582677
 21
4.391732283464566
 31
0.0
  0
LINE
  5
1AD7
330
1E
100
AcDbEntity
  8
3
100
AcDbLine
 10
3.46259842519685
 20
4.393700787401574
 30
0.0
 11
3.552165354330708
 21
4.393700787401574
 31
0.0
  0
LWPOLYLINE
  5
1AD8
330
1E
100
AcDbEntity
  8
7
100
AcDbPolyline
 90
        4
 70
     0
 43
0.0098425196850394
 10
2.121062992125984
 20
3.05511811023622
 10
2.076771653543307
 20
3.05511811023622
 10
2.076771653543307
 20
2.886811023622047
 10
2.121062992125984
 20
2.886811023622047
  0
LWPOLYLINE
  5
1ADE
330
1E
100
AcDbEntity
  8
7
100
AcDbPolyline
 90
        3
 70
     0
 43
0.0098425196850394
 10
2.689960629921259
 20
2.886811023622047
 10
2.734251968503937
 20
2.886811023622047
 10
2.734251968503937
 20
3.05511811023622
  0
LINE
  5
1AE3
330
1E
100
AcDbEntity
  8
7
100
AcDbLine
 10
2.734251968503937
 20
3.05511811023622
 30
0.0
 11
2.689960629921259
 21
3.05511811023622
 31
0.0
  0
LINE
  5
1AE4
330
1E
100
AcDbEntity
  8
3
100
AcDbLine
 10
1.217519685039369
 20
3.544291338582677
 30
0.0
 11
1.217519685039369
 21
3.064960629921259
 31
0.0
  0
LINE
  5
1AE5
330
1E
100
AcDbEntity
  8
3
100
AcDbLine
 10
3.593503937007874
 20
3.544291338582677
 30
0.0
 11
3.593503937007874
 21
3.064960629921259
 31
0.0
  0
LINE
  5
1AE6
330
1E
100
AcDbEntity
  8
3
100
AcDbLine
 10
1.217519685039369
 20
3.189960629921259
 30
0.0
 11
2.013779527559055
 21
3.189960629921259
 31
0.0
  0
LINE
  5
1AE7
330
1E
100
AcDbEntity
  8
3
100
AcDbLine
 10
3.593503937007874
 20
3.189960629921259
 30
0.0
 11
2.62007874015748
 21
3.189960629921259
 31
0.0
  0
LWPOLYLINE
  5
1AE8
330
1E
100
AcDbEntity
  8
7
100
AcDbPolyline
 90
        3
 70
     0
 43
0.0098425196850394
 10
2.114173228346456
 20
3.226377952755905
 10
2.121062992125984
 20
3.234251968503937
 10
2.121062992125984
 20
3.144685039370078
  0
LINE
  5
1AED
330
1E
100
AcDbEntity
  8
7
100
AcDbLine
 10
2.110236220472441
 20
3.144685039370078
 30
0.0
 11
2.132874015748031
 21
3.144685039370078
 31
0.0
  0
LWPOLYLINE
  5
1AEE
330
1E
100
AcDbEntity
  8
7
100
AcDbPolyline
 90
        7
 70
     0
 43
0.0098425196850394
 10
2.184055118110236
 20
3.163385826771653
 10
2.200787401574803
 20
3.144685039370078
 10
2.237204724409449
 20
3.144685039370078
 10
2.254921259842519
 20
3.163385826771653
 10
2.254921259842519
 20
3.216535433070866
 10
2.237204724409449
 20
3.234251968503937
 10
2.200787401574803
 20
3.234251968503937
  0
LWPOLYLINE
  5
1AF7
330
1E
100
AcDbEntity
  8
7
100
AcDbPolyline
 90
        6
 70
     0
 43
0.0098425196850394
 10
2.200787401574803
 20
3.234251968503937
 10
2.184055118110236
 20
3.216535433070866
 10
2.183070866141732
 20
3.198818897637795
 10
2.200787401574803
 20
3.181102362204724
 10
2.237204724409449
 20
3.181102362204724
 10
2.254921259842519
 20
3.198818897637795
  0
LWPOLYLINE
  5
1AFF
330
1E
100
AcDbEntity
  8
7
100
AcDbPolyline
 90
        5
 70
     0
 43
0.0098425196850394
 10
2.308070866141732
 20
3.144685039370078
 10
2.325787401574803
 20
3.144685039370078
 10
2.325787401574803
 20
3.163385826771653
 10
2.308070866141732
 20
3.163385826771653
 10
2.308070866141732
 20
3.144685039370078
  0
LWPOLYLINE
  5
1B06
330
1E
100
AcDbEntity
  8
7
100
AcDbPolyline
 90
        4
 70
     0
 43
0.0098425196850394
 10
2.424212598425196
 20
3.144685039370078
 10
2.441929133858267
 20
3.154527559055118
 10
2.451771653543307
 20
3.181102362204724
 10
2.451771653543307
 20
3.198818897637795
  0
LWPOLYLINE
  5
1B0C
330
1E
100
AcDbEntity
  8
7
100
AcDbPolyline
 90
       10
 70
     0
 43
0.0098425196850394
 10
2.451771653543307
 20
3.198818897637795
 10
2.441929133858267
 20
3.225393700787401
 10
2.424212598425196
 20
3.234251968503937
 10
2.406496062992125
 20
3.234251968503937
 10
2.388779527559055
 20
3.225393700787401
 10
2.378937007874015
 20
3.198818897637795
 10
2.379921259842519
 20
3.181102362204724
 10
2.388779527559055
 20
3.154527559055118
 10
2.406496062992125
 20
3.144685039370078
 10
2.424212598425196
 20
3.144685039370078
  0
LWPOLYLINE
  5
1B18
330
1E
100
AcDbEntity
  8
7
100
AcDbPolyline
 90
        6
 70
     0
 43
0.0098425196850394
 10
2.52263779527559
 20
3.144685039370078
 10
2.540354330708661
 20
3.154527559055118
 10
2.549212598425196
 20
3.181102362204724
 10
2.549212598425196
 20
3.198818897637795
 10
2.540354330708661
 20
3.225393700787401
 10
2.52263779527559
 20
3.234251968503937
  0
LWPOLYLINE
  5
1B20
330
1E
100
AcDbEntity
  8
7
100
AcDbPolyline
 90
        8
 70
     0
 43
0.0098425196850394
 10
2.52263779527559
 20
3.234251968503937
 10
2.503937007874015
 20
3.234251968503937
 10
2.486220472440944
 20
3.225393700787401
 10
2.477362204724409
 20
3.198818897637795
 10
2.478346456692913
 20
3.181102362204724
 10
2.486220472440944
 20
3.154527559055118
 10
2.503937007874015
 20
3.144685039370078
 10
2.52263779527559
 20
3.144685039370078
  0
LWPOLYLINE
  5
1B2A
330
1E
100
AcDbEntity
  8
7
100
AcDbPolyline
 90
        4
 70
     0
 43
0.0098425196850394
 10
2.196850393700787
 20
2.961614173228346
 10
2.125
 20
2.961614173228346
 10
2.179133858267716
 20
3.014763779527559
 10
2.179133858267716
 20
2.926181102362204
  0
LINE
  5
1B30
330
1E
100
AcDbEntity
  8
7
100
AcDbLine
 10
2.24015748031496
 20
2.970472440944881
 30
0.0
 11
2.223425196850393
 21
2.979330708661417
 31
0.0
  0
LWPOLYLINE
  5
1B31
330
1E
100
AcDbEntity
  8
7
100
AcDbPolyline
 90
       15
 70
     0
 43
0.0098425196850394
 10
2.223425196850393
 20
2.979330708661417
 10
2.223425196850393
 20
3.005905511811023
 10
2.24015748031496
 20
3.014763779527559
 10
2.276574803149606
 20
3.014763779527559
 10
2.294291338582677
 20
3.005905511811023
 10
2.294291338582677
 20
2.979330708661417
 10
2.276574803149606
 20
2.970472440944881
 10
2.24015748031496
 20
2.970472440944881
 10
2.222440944881889
 20
2.961614173228346
 10
2.222440944881889
 20
2.93503937007874
 10
2.24015748031496
 20
2.926181102362204
 10
2.276574803149606
 20
2.926181102362204
 10
2.294291338582677
 20
2.934055118110236
 10
2.294291338582677
 20
2.961614173228346
 10
2.276574803149606
 20
2.970472440944881
  0
LINE
  5
1B42
330
1E
100
AcDbEntity
  8
7
100
AcDbLine
 10
2.320866141732283
 20
3.005905511811023
 30
0.0
 11
2.338582677165354
 21
3.014763779527559
 31
0.0
  0
LWPOLYLINE
  5
1B43
330
1E
100
AcDbEntity
  8
7
100
AcDbPolyline
 90
        7
 70
     0
 43
0.0098425196850394
 10
2.338582677165354
 20
3.014763779527559
 10
2.375
 20
3.014763779527559
 10
2.39271653543307
 20
3.005905511811023
 10
2.39271653543307
 20
2.988188976377952
 10
2.320866141732283
 20
2.943897637795275
 10
2.320866141732283
 20
2.926181102362204
 10
2.39271653543307
 20
2.926181102362204
  0
LWPOLYLINE
  5
1B4C
330
1E
100
AcDbEntity
  8
7
100
AcDbPolyline
 90
        5
 70
     0
 43
0.0098425196850394
 10
2.445866141732283
 20
2.926181102362204
 10
2.463582677165354
 20
2.926181102362204
 10
2.463582677165354
 20
2.943897637795275
 10
2.445866141732283
 20
2.943897637795275
 10
2.445866141732283
 20
2.926181102362204
  0
LWPOLYLINE
  5
1B53
330
1E
100
AcDbEntity
  8
7
100
AcDbPolyline
 90
        4
 70
     0
 43
0.0098425196850394
 10
2.51771653543307
 20
2.961614173228346
 10
2.534448818897637
 20
2.979330708661417
 10
2.570866141732283
 20
2.979330708661417
 10
2.588582677165354
 20
2.961614173228346
  0
LWPOLYLINE
  5
1B59
330
1E
100
AcDbEntity
  8
7
100
AcDbPolyline
 90
        9
 70
     0
 43
0.0098425196850394
 10
2.588582677165354
 20
2.961614173228346
 10
2.588582677165354
 20
2.943897637795275
 10
2.570866141732283
 20
2.926181102362204
 10
2.534448818897637
 20
2.926181102362204
 10
2.51771653543307
 20
2.943897637795275
 10
2.51771653543307
 20
2.997047244094488
 10
2.534448818897637
 20
3.014763779527559
 10
2.570866141732283
 20
3.014763779527559
 10
2.588582677165354
 20
2.997047244094488
  0
LWPOLYLINE
  5
1B64
330
1E
100
AcDbEntity
  8
7
100
AcDbPolyline
 90
        7
 70
     0
 43
0.0098425196850394
 10
2.614173228346456
 20
2.934055118110236
 10
2.632874015748031
 20
2.926181102362204
 10
2.669291338582677
 20
2.926181102362204
 10
2.687007874015748
 20
2.934055118110236
 10
2.687007874015748
 20
2.969488188976378
 10
2.669291338582677
 20
2.979330708661417
 10
2.632874015748031
 20
2.979330708661417
  0
LWPOLYLINE
  5
1B6D
330
1E
100
AcDbEntity
  8
7
100
AcDbPolyline
 90
        4
 70
     0
 43
0.0098425196850394
 10
2.632874015748031
 20
2.979330708661417
 10
2.614173228346456
 20
2.970472440944881
 10
2.614173228346456
 20
3.014763779527559
 10
2.687007874015748
 20
3.014763779527559
  0
LWPOLYLINE
  5
1B73
330
1E
100
AcDbEntity
  8
3
100
AcDbPolyline
 90
        4
 70
     0
 43
0.0098425196850394
 10
1.217519685039369
 20
3.189960629921259
 10
1.308070866141732
 20
3.166338582677165
 10
1.308070866141732
 20
3.214566929133858
 10
1.217519685039369
 20
3.189960629921259
  0
LINE
  5
1B79
330
1E
100
AcDbEntity
  8
3
100
AcDbLine
 10
1.308070866141732
 20
3.166338582677165
 30
0.0
 11
1.307086614173228
 21
3.166338582677165
 31
0.0
  0
LINE
  5
1B7A
330
1E
100
AcDbEntity
  8
3
100
AcDbLine
 10
1.308070866141732
 20
3.166338582677165
 30
0.0
 11
1.307086614173228
 21
3.166338582677165
 31
0.0
  0
LINE
  5
1B7B
330
1E
100
AcDbEntity
  8
3
100
AcDbLine
 10
1.308070866141732
 20
3.168307086614173
 30
0.0
 11
1.3001968503937
 21
3.168307086614173
 31
0.0
  0
LINE
  5
1B7C
330
1E
100
AcDbEntity
  8
3
100
AcDbLine
 10
1.308070866141732
 20
3.170275590551181
 30
0.0
 11
1.292322834645669
 21
3.170275590551181
 31
0.0
  0
LINE
  5
1B7D
330
1E
100
AcDbEntity
  8
3
100
AcDbLine
 10
1.308070866141732
 20
3.172244094488188
 30
0.0
 11
1.285433070866141
 21
3.172244094488188
 31
0.0
  0
LINE
  5
1B7E
330
1E
100
AcDbEntity
  8
3
100
AcDbLine
 10
1.308070866141732
 20
3.174212598425196
 30
0.0
 11
1.27755905511811
 21
3.174212598425196
 31
0.0
  0
LINE
  5
1B7F
330
1E
100
AcDbEntity
  8
3
100
AcDbLine
 10
1.308070866141732
 20
3.176181102362204
 30
0.0
 11
1.269685039370078
 21
3.176181102362204
 31
0.0
  0
LINE
  5
1B80
330
1E
100
AcDbEntity
  8
3
100
AcDbLine
 10
1.308070866141732
 20
3.178149606299212
 30
0.0
 11
1.262795275590551
 21
3.178149606299212
 31
0.0
  0
LINE
  5
1B81
330
1E
100
AcDbEntity
  8
3
100
AcDbLine
 10
1.308070866141732
 20
3.18011811023622
 30
0.0
 11
1.254921259842519
 21
3.18011811023622
 31
0.0
  0
LINE
  5
1B82
330
1E
100
AcDbEntity
  8
3
100
AcDbLine
 10
1.308070866141732
 20
3.182086614173228
 30
0.0
 11
1.248031496062992
 21
3.182086614173228
 31
0.0
  0
LINE
  5
1B83
330
1E
100
AcDbEntity
  8
3
100
AcDbLine
 10
1.308070866141732
 20
3.184055118110236
 30
0.0
 11
1.24015748031496
 21
3.184055118110236
 31
0.0
  0
LINE
  5
1B84
330
1E
100
AcDbEntity
  8
3
100
AcDbLine
 10
1.308070866141732
 20
3.186023622047243
 30
0.0
 11
1.233267716535432
 21
3.186023622047243
 31
0.0
  0
LINE
  5
1B85
330
1E
100
AcDbEntity
  8
3
100
AcDbLine
 10
1.308070866141732
 20
3.187992125984251
 30
0.0
 11
1.225393700787401
 21
3.187992125984251
 31
0.0
  0
LINE
  5
1B86
330
1E
100
AcDbEntity
  8
3
100
AcDbLine
 10
1.308070866141732
 20
3.189960629921259
 30
0.0
 11
1.217519685039369
 21
3.189960629921259
 31
0.0
  0
LINE
  5
1B87
330
1E
100
AcDbEntity
  8
3
100
AcDbLine
 10
1.308070866141732
 20
3.214566929133858
 30
0.0
 11
1.307086614173228
 21
3.214566929133858
 31
0.0
  0
LINE
  5
1B88
330
1E
100
AcDbEntity
  8
3
100
AcDbLine
 10
1.308070866141732
 20
3.214566929133858
 30
0.0
 11
1.307086614173228
 21
3.214566929133858
 31
0.0
  0
LINE
  5
1B89
330
1E
100
AcDbEntity
  8
3
100
AcDbLine
 10
1.308070866141732
 20
3.21259842519685
 30
0.0
 11
1.3001968503937
 21
3.21259842519685
 31
0.0
  0
LINE
  5
1B8A
330
1E
100
AcDbEntity
  8
3
100
AcDbLine
 10
1.308070866141732
 20
3.209645669291338
 30
0.0
 11
1.292322834645669
 21
3.209645669291338
 31
0.0
  0
LINE
  5
1B8B
330
1E
100
AcDbEntity
  8
3
100
AcDbLine
 10
1.308070866141732
 20
3.207677165354331
 30
0.0
 11
1.285433070866141
 21
3.207677165354331
 31
0.0
  0
LINE
  5
1B8C
330
1E
100
AcDbEntity
  8
3
100
AcDbLine
 10
1.308070866141732
 20
3.205708661417323
 30
0.0
 11
1.27755905511811
 21
3.205708661417323
 31
0.0
  0
LINE
  5
1B8D
330
1E
100
AcDbEntity
  8
3
100
AcDbLine
 10
1.308070866141732
 20
3.203740157480315
 30
0.0
 11
1.269685039370078
 21
3.203740157480315
 31
0.0
  0
LINE
  5
1B8E
330
1E
100
AcDbEntity
  8
3
100
AcDbLine
 10
1.308070866141732
 20
3.201771653543307
 30
0.0
 11
1.262795275590551
 21
3.201771653543307
 31
0.0
  0
LINE
  5
1B8F
330
1E
100
AcDbEntity
  8
3
100
AcDbLine
 10
1.308070866141732
 20
3.199803149606299
 30
0.0
 11
1.254921259842519
 21
3.199803149606299
 31
0.0
  0
LINE
  5
1B90
330
1E
100
AcDbEntity
  8
3
100
AcDbLine
 10
1.308070866141732
 20
3.197834645669291
 30
0.0
 11
1.248031496062992
 21
3.197834645669291
 31
0.0
  0
LINE
  5
1B91
330
1E
100
AcDbEntity
  8
3
100
AcDbLine
 10
1.308070866141732
 20
3.195866141732283
 30
0.0
 11
1.24015748031496
 21
3.195866141732283
 31
0.0
  0
LINE
  5
1B92
330
1E
100
AcDbEntity
  8
3
100
AcDbLine
 10
1.308070866141732
 20
3.193897637795275
 30
0.0
 11
1.233267716535432
 21
3.193897637795275
 31
0.0
  0
LINE
  5
1B93
330
1E
100
AcDbEntity
  8
3
100
AcDbLine
 10
1.308070866141732
 20
3.191929133858267
 30
0.0
 11
1.225393700787401
 21
3.191929133858267
 31
0.0
  0
LINE
  5
1B94
330
1E
100
AcDbEntity
  8
3
100
AcDbLine
 10
1.308070866141732
 20
3.189960629921259
 30
0.0
 11
1.217519685039369
 21
3.189960629921259
 31
0.0
  0
LWPOLYLINE
  5
1B95
330
1E
100
AcDbEntity
  8
3
100
AcDbPolyline
 90
        4
 70
     0
 43
0.0098425196850394
 10
3.593503937007874
 20
3.189960629921259
 10
3.502952755905512
 20
3.214566929133858
 10
3.502952755905512
 20
3.166338582677165
 10
3.593503937007874
 20
3.189960629921259
  0
LINE
  5
1B9B
330
1E
100
AcDbEntity
  8
3
100
AcDbLine
 10
3.502952755905512
 20
3.214566929133858
 30
0.0
 11
3.503937007874015
 21
3.214566929133858
 31
0.0
  0
LINE
  5
1B9C
330
1E
100
AcDbEntity
  8
3
100
AcDbLine
 10
3.502952755905512
 20
3.214566929133858
 30
0.0
 11
3.503937007874015
 21
3.214566929133858
 31
0.0
  0
LINE
  5
1B9D
330
1E
100
AcDbEntity
  8
3
100
AcDbLine
 10
3.502952755905512
 20
3.21259842519685
 30
0.0
 11
3.510826771653543
 21
3.21259842519685
 31
0.0
  0
LINE
  5
1B9E
330
1E
100
AcDbEntity
  8
3
100
AcDbLine
 10
3.502952755905512
 20
3.209645669291338
 30
0.0
 11
3.518700787401574
 21
3.209645669291338
 31
0.0
  0
LINE
  5
1B9F
330
1E
100
AcDbEntity
  8
3
100
AcDbLine
 10
3.502952755905512
 20
3.207677165354331
 30
0.0
 11
3.525590551181102
 21
3.207677165354331
 31
0.0
  0
LINE
  5
1BA0
330
1E
100
AcDbEntity
  8
3
100
AcDbLine
 10
3.502952755905512
 20
3.205708661417323
 30
0.0
 11
3.533464566929133
 21
3.205708661417323
 31
0.0
  0
LINE
  5
1BA1
330
1E
100
AcDbEntity
  8
3
100
AcDbLine
 10
3.502952755905512
 20
3.203740157480315
 30
0.0
 11
3.541338582677165
 21
3.203740157480315
 31
0.0
  0
LINE
  5
1BA2
330
1E
100
AcDbEntity
  8
3
100
AcDbLine
 10
3.502952755905512
 20
3.201771653543307
 30
0.0
 11
3.548228346456693
 21
3.201771653543307
 31
0.0
  0
LINE
  5
1BA3
330
1E
100
AcDbEntity
  8
3
100
AcDbLine
 10
3.502952755905512
 20
3.199803149606299
 30
0.0
 11
3.556102362204724
 21
3.199803149606299
 31
0.0
  0
LINE
  5
1BA4
330
1E
100
AcDbEntity
  8
3
100
AcDbLine
 10
3.502952755905512
 20
3.197834645669291
 30
0.0
 11
3.562992125984251
 21
3.197834645669291
 31
0.0
  0
LINE
  5
1BA5
330
1E
100
AcDbEntity
  8
3
100
AcDbLine
 10
3.502952755905512
 20
3.195866141732283
 30
0.0
 11
3.570866141732283
 21
3.195866141732283
 31
0.0
  0
LINE
  5
1BA6
330
1E
100
AcDbEntity
  8
3
100
AcDbLine
 10
3.502952755905512
 20
3.193897637795275
 30
0.0
 11
3.577755905511811
 21
3.193897637795275
 31
0.0
  0
LINE
  5
1BA7
330
1E
100
AcDbEntity
  8
3
100
AcDbLine
 10
3.502952755905512
 20
3.191929133858267
 30
0.0
 11
3.585629921259842
 21
3.191929133858267
 31
0.0
  0
LINE
  5
1BA8
330
1E
100
AcDbEntity
  8
3
100
AcDbLine
 10
3.502952755905512
 20
3.189960629921259
 30
0.0
 11
3.593503937007874
 21
3.189960629921259
 31
0.0
  0
LINE
  5
1BA9
330
1E
100
AcDbEntity
  8
3
100
AcDbLine
 10
3.502952755905512
 20
3.166338582677165
 30
0.0
 11
3.503937007874015
 21
3.166338582677165
 31
0.0
  0
LINE
  5
1BAA
330
1E
100
AcDbEntity
  8
3
100
AcDbLine
 10
3.502952755905512
 20
3.166338582677165
 30
0.0
 11
3.503937007874015
 21
3.166338582677165
 31
0.0
  0
LINE
  5
1BAB
330
1E
100
AcDbEntity
  8
3
100
AcDbLine
 10
3.502952755905512
 20
3.168307086614173
 30
0.0
 11
3.510826771653543
 21
3.168307086614173
 31
0.0
  0
LINE
  5
1BAC
330
1E
100
AcDbEntity
  8
3
100
AcDbLine
 10
3.502952755905512
 20
3.170275590551181
 30
0.0
 11
3.518700787401574
 21
3.170275590551181
 31
0.0
  0
LINE
  5
1BAD
330
1E
100
AcDbEntity
  8
3
100
AcDbLine
 10
3.502952755905512
 20
3.172244094488188
 30
0.0
 11
3.525590551181102
 21
3.172244094488188
 31
0.0
  0
LINE
  5
1BAE
330
1E
100
AcDbEntity
  8
3
100
AcDbLine
 10
3.502952755905512
 20
3.174212598425196
 30
0.0
 11
3.533464566929133
 21
3.174212598425196
 31
0.0
  0
LINE
  5
1BAF
330
1E
100
AcDbEntity
  8
3
100
AcDbLine
 10
3.502952755905512
 20
3.176181102362204
 30
0.0
 11
3.541338582677165
 21
3.176181102362204
 31
0.0
  0
LINE
  5
1BB0
330
1E
100
AcDbEntity
  8
3
100
AcDbLine
 10
3.502952755905512
 20
3.178149606299212
 30
0.0
 11
3.548228346456693
 21
3.178149606299212
 31
0.0
  0
LINE
  5
1BB1
330
1E
100
AcDbEntity
  8
3
100
AcDbLine
 10
3.502952755905512
 20
3.18011811023622
 30
0.0
 11
3.556102362204724
 21
3.18011811023622
 31
0.0
  0
LINE
  5
1BB2
330
1E
100
AcDbEntity
  8
3
100
AcDbLine
 10
3.502952755905512
 20
3.182086614173228
 30
0.0
 11
3.562992125984251
 21
3.182086614173228
 31
0.0
  0
LINE
  5
1BB3
330
1E
100
AcDbEntity
  8
3
100
AcDbLine
 10
3.502952755905512
 20
3.184055118110236
 30
0.0
 11
3.570866141732283
 21
3.184055118110236
 31
0.0
  0
LINE
  5
1BB4
330
1E
100
AcDbEntity
  8
3
100
AcDbLine
 10
3.502952755905512
 20
3.186023622047243
 30
0.0
 11
3.577755905511811
 21
3.186023622047243
 31
0.0
  0
LINE
  5
1BB5
330
1E
100
AcDbEntity
  8
3
100
AcDbLine
 10
3.502952755905512
 20
3.187992125984251
 30
0.0
 11
3.585629921259842
 21
3.187992125984251
 31
0.0
  0
LINE
  5
1BB6
330
1E
100
AcDbEntity
  8
3
100
AcDbLine
 10
3.502952755905512
 20
3.189960629921259
 30
0.0
 11
3.593503937007874
 21
3.189960629921259
 31
0.0
  0
LWPOLYLINE
  5
1BB7
330
1E
100
AcDbEntity
  8
7
100
AcDbPolyline
 90
       12
 70
     0
 43
0.0098425196850394
 10
7.943897637795275
 20
7.02755905511811
 10
7.961614173228346
 20
7.018700787401574
 10
7.999015748031496
 20
7.018700787401574
 10
8.016732283464566
 20
7.028543307086613
 10
8.016732283464566
 20
7.054133858267716
 10
7.999015748031496
 20
7.063976377952755
 10
7.96259842519685
 20
7.063976377952755
 10
7.943897637795275
 20
7.071850393700787
 10
7.943897637795275
 20
7.099409448818897
 10
7.96259842519685
 20
7.108267716535433
 10
7.999015748031496
 20
7.108267716535433
 10
8.016732283464566
 20
7.099409448818897
  0
LWPOLYLINE
  5
1BC5
330
1E
100
AcDbEntity
  8
7
100
AcDbPolyline
 90
        5
 70
     0
 43
0.0098425196850394
 10
8.043307086614172
 20
7.018700787401574
 10
8.043307086614172
 20
7.108267716535433
 10
8.096456692913385
 20
7.108267716535433
 10
8.114173228346455
 20
7.099409448818897
 10
8.114173228346455
 20
7.071850393700787
  0
LWPOLYLINE
  5
1BCC
330
1E
100
AcDbEntity
  8
7
100
AcDbPolyline
 90
        3
 70
     0
 43
0.0098425196850394
 10
8.114173228346455
 20
7.071850393700787
 10
8.096456692913385
 20
7.063976377952755
 10
8.043307086614172
 20
7.063976377952755
  0
LINE
  5
1BD1
330
1E
100
AcDbEntity
  8
7
100
AcDbLine
 10
8.114173228346455
 20
7.018700787401574
 30
0.0
 11
8.096456692913385
 21
7.063976377952755
 31
0.0
  0
LWPOLYLINE
  5
1BD2
330
1E
100
AcDbEntity
  8
7
100
AcDbPolyline
 90
        5
 70
     0
 43
0.0098425196850394
 10
8.141732283464566
 20
7.018700787401574
 10
8.141732283464566
 20
7.108267716535433
 10
8.177165354330707
 20
7.018700787401574
 10
8.21259842519685
 20
7.108267716535433
 10
8.21259842519685
 20
7.018700787401574
  0
LWPOLYLINE
  5
1BD9
330
1E
100
AcDbEntity
  8
7
100
AcDbPolyline
 90
        3
 70
     0
 43
0.0098425196850394
 10
8.26771653543307
 20
7.100393700787401
 10
8.274606299212598
 20
7.108267716535433
 10
8.274606299212598
 20
7.018700787401574
  0
LINE
  5
1BDE
330
1E
100
AcDbEntity
  8
7
100
AcDbLine
 10
8.263779527559053
 20
7.018700787401574
 30
0.0
 11
8.286417322834644
 21
7.018700787401574
 31
0.0
  0
LWPOLYLINE
  5
1BDF
330
1E
100
AcDbEntity
  8
7
100
AcDbPolyline
 90
       12
 70
     0
 43
0.0098425196850394
 10
8.33759842519685
 20
7.036417322834645
 10
8.354330708661416
 20
7.018700787401574
 10
8.390748031496062
 20
7.018700787401574
 10
8.408464566929133
 20
7.036417322834645
 10
8.408464566929133
 20
7.089566929133858
 10
8.390748031496062
 20
7.108267716535433
 10
8.354330708661416
 20
7.108267716535433
 10
8.33759842519685
 20
7.089566929133858
 10
8.336614173228346
 20
7.071850393700787
 10
8.354330708661416
 20
7.054133858267716
 10
8.390748031496062
 20
7.054133858267716
 10
8.408464566929133
 20
7.071850393700787
  0
LWPOLYLINE
  5
1BED
330
1E
100
AcDbEntity
  8
7
100
AcDbPolyline
 90
        3
 70
     0
 43
0.0098425196850394
 10
8.435039370078738
 20
7.018700787401574
 10
8.435039370078738
 20
7.108267716535433
 10
8.506889763779525
 20
7.108267716535433
  0
LINE
  5
1BF2
330
1E
100
AcDbEntity
  8
7
100
AcDbLine
 10
8.479330708661416
 20
7.071850393700787
 30
0.0
 11
8.435039370078738
 21
7.071850393700787
 31
0.0
  0
LWPOLYLINE
  5
1BF3
330
1E
100
AcDbEntity
  8
7
100
AcDbPolyline
 90
        5
 70
     0
 43
0.0098425196850394
 10
8.533464566929133
 20
7.018700787401574
 10
8.533464566929133
 20
7.108267716535433
 10
8.568897637795274
 20
7.018700787401574
 10
8.604330708661416
 20
7.108267716535433
 10
8.604330708661416
 20
7.018700787401574
  0
LWPOLYLINE
  5
1BFA
330
1E
100
AcDbEntity
  8
7
100
AcDbPolyline
 90
        5
 70
     0
 43
0.0098425196850394
 10
8.631889763779525
 20
7.099409448818897
 10
8.648622047244094
 20
7.108267716535433
 10
8.685039370078738
 20
7.108267716535433
 10
8.702755905511809
 20
7.099409448818897
 10
8.702755905511809
 20
7.081692913385826
  0
LWPOLYLINE
  5
1C01
330
1E
100
AcDbEntity
  8
7
100
AcDbPolyline
 90
        4
 70
     0
 43
0.0098425196850394
 10
8.702755905511809
 20
7.081692913385826
 10
8.630905511811022
 20
7.036417322834645
 10
8.631889763779525
 20
7.018700787401574
 10
8.702755905511809
 20
7.018700787401574
  0
LINE
  5
1C07
330
1E
100
AcDbEntity
  8
3
100
AcDbLine
 10
6.524606299212598
 20
3.682086614173228
 30
0.0
 11
6.524606299212598
 21
4.310039370078739
 31
0.0
  0
LWPOLYLINE
  5
1C08
330
1E
100
AcDbEntity
  8
3
100
AcDbPolyline
 90
        3
 70
     0
 43
0.0098425196850394
 10
6.524606299212598
 20
4.184055118110236
 10
6.471456692913386
 20
4.181102362204724
 10
6.418307086614173
 20
4.173228346456692
  0
LWPOLYLINE
  5
1C0D
330
1E
100
AcDbEntity
  8
3
100
AcDbPolyline
 90
        3
 70
     0
 43
0.0098425196850394
 10
6.104330708661417
 20
3.975393700787401
 10
6.057086614173228
 20
3.900590551181102
 10
6.02263779527559
 20
3.817913385826771
  0
LWPOLYLINE
  5
1C12
330
1E
100
AcDbEntity
  8
7
100
AcDbPolyline
 90
        3
 70
     0
 43
0.0098425196850394
 10
6.107283464566929
 20
4.039370078740157
 10
6.151574803149606
 20
4.127952755905512
 10
6.080708661417323
 20
4.127952755905512
  0
LWPOLYLINE
  5
1C17
330
1E
100
AcDbEntity
  8
7
100
AcDbPolyline
 90
        4
 70
     0
 43
0.0098425196850394
 10
6.179133858267716
 20
4.12007874015748
 10
6.195866141732283
 20
4.127952755905512
 10
6.232283464566929
 20
4.127952755905512
 10
6.25
 20
4.12007874015748
  0
LWPOLYLINE
  5
1C1D
330
1E
100
AcDbEntity
  8
7
100
AcDbPolyline
 90
        5
 70
     0
 43
0.0098425196850394
 10
6.25
 20
4.12007874015748
 10
6.25
 20
4.101377952755905
 10
6.178149606299212
 20
4.057086614173228
 10
6.179133858267716
 20
4.039370078740157
 10
6.25
 20
4.039370078740157
  0
LWPOLYLINE
  5
1C24
330
1E
100
AcDbEntity
  8
7
100
AcDbPolyline
 90
        9
 70
     0
 43
0.0098425196850394
 10
6.285433070866141
 20
4.101377952755905
 10
6.293307086614173
 20
4.101377952755905
 10
6.303149606299212
 20
4.111220472440945
 10
6.303149606299212
 20
4.12007874015748
 10
6.293307086614173
 20
4.128937007874015
 10
6.285433070866141
 20
4.128937007874015
 10
6.275590551181102
 20
4.12007874015748
 10
6.275590551181102
 20
4.111220472440945
 10
6.285433070866141
 20
4.101377952755905
  0
LWPOLYLINE
  5
1C2F
330
1E
100
AcDbEntity
  8
3
100
AcDbPolyline
 90
        4
 70
     0
 43
0.0098425196850394
 10
6.524606299212598
 20
4.185039370078739
 10
6.434055118110236
 20
4.205708661417323
 10
6.436023622047244
 20
4.157480314960629
 10
6.524606299212598
 20
4.185039370078739
  0
LINE
  5
1C35
330
1E
100
AcDbEntity
  8
3
100
AcDbLine
 10
6.434055118110236
 20
4.203740157480314
 30
0.0
 11
6.441929133858267
 21
4.203740157480314
 31
0.0
  0
LINE
  5
1C36
330
1E
100
AcDbEntity
  8
3
100
AcDbLine
 10
6.434055118110236
 20
4.201771653543307
 30
0.0
 11
6.449803149606299
 21
4.201771653543307
 31
0.0
  0
LINE
  5
1C37
330
1E
100
AcDbEntity
  8
3
100
AcDbLine
 10
6.434055118110236
 20
4.199803149606299
 30
0.0
 11
6.456692913385826
 21
4.200787401574802
 31
0.0
  0
LINE
  5
1C38
330
1E
100
AcDbEntity
  8
3
100
AcDbLine
 10
6.434055118110236
 20
4.197834645669291
 30
0.0
 11
6.464566929133858
 21
4.198818897637795
 31
0.0
  0
LINE
  5
1C39
330
1E
100
AcDbEntity
  8
3
100
AcDbLine
 10
6.434055118110236
 20
4.195866141732283
 30
0.0
 11
6.472440944881889
 21
4.196850393700787
 31
0.0
  0
LINE
  5
1C3A
330
1E
100
AcDbEntity
  8
3
100
AcDbLine
 10
6.435039370078739
 20
4.193897637795275
 30
0.0
 11
6.479330708661417
 21
4.195866141732283
 31
0.0
  0
LINE
  5
1C3B
330
1E
100
AcDbEntity
  8
3
100
AcDbLine
 10
6.435039370078739
 20
4.191929133858267
 30
0.0
 11
6.487204724409449
 21
4.193897637795275
 31
0.0
  0
LINE
  5
1C3C
330
1E
100
AcDbEntity
  8
3
100
AcDbLine
 10
6.435039370078739
 20
4.188976377952755
 30
0.0
 11
6.49507874015748
 21
4.191929133858267
 31
0.0
  0
LINE
  5
1C3D
330
1E
100
AcDbEntity
  8
3
100
AcDbLine
 10
6.435039370078739
 20
4.187007874015748
 30
0.0
 11
6.501968503937008
 21
4.18996062992126
 31
0.0
  0
LINE
  5
1C3E
330
1E
100
AcDbEntity
  8
3
100
AcDbLine
 10
6.435039370078739
 20
4.185039370078739
 30
0.0
 11
6.509842519685039
 21
4.188976377952755
 31
0.0
  0
LINE
  5
1C3F
330
1E
100
AcDbEntity
  8
3
100
AcDbLine
 10
6.435039370078739
 20
4.183070866141732
 30
0.0
 11
6.517716535433071
 21
4.187007874015748
 31
0.0
  0
LINE
  5
1C40
330
1E
100
AcDbEntity
  8
3
100
AcDbLine
 10
6.435039370078739
 20
4.181102362204724
 30
0.0
 11
6.524606299212598
 21
4.185039370078739
 31
0.0
  0
LINE
  5
1C41
330
1E
100
AcDbEntity
  8
3
100
AcDbLine
 10
6.436023622047244
 20
4.157480314960629
 30
0.0
 11
6.437007874015748
 21
4.157480314960629
 31
0.0
  0
LINE
  5
1C42
330
1E
100
AcDbEntity
  8
3
100
AcDbLine
 10
6.436023622047244
 20
4.157480314960629
 30
0.0
 11
6.437007874015748
 21
4.157480314960629
 31
0.0
  0
LINE
  5
1C43
330
1E
100
AcDbEntity
  8
3
100
AcDbLine
 10
6.436023622047244
 20
4.159448818897637
 30
0.0
 11
6.443897637795275
 21
4.159448818897637
 31
0.0
  0
LINE
  5
1C44
330
1E
100
AcDbEntity
  8
3
100
AcDbLine
 10
6.436023622047244
 20
4.161417322834645
 30
0.0
 11
6.451771653543307
 21
4.162401574803149
 31
0.0
  0
LINE
  5
1C45
330
1E
100
AcDbEntity
  8
3
100
AcDbLine
 10
6.436023622047244
 20
4.163385826771653
 30
0.0
 11
6.458661417322834
 21
4.164370078740157
 31
0.0
  0
LINE
  5
1C46
330
1E
100
AcDbEntity
  8
3
100
AcDbLine
 10
6.436023622047244
 20
4.165354330708661
 30
0.0
 11
6.465551181102362
 21
4.166338582677165
 31
0.0
  0
LINE
  5
1C47
330
1E
100
AcDbEntity
  8
3
100
AcDbLine
 10
6.436023622047244
 20
4.167322834645669
 30
0.0
 11
6.473425196850393
 21
4.169291338582676
 31
0.0
  0
LINE
  5
1C48
330
1E
100
AcDbEntity
  8
3
100
AcDbLine
 10
6.436023622047244
 20
4.169291338582676
 30
0.0
 11
6.480314960629921
 21
4.171259842519685
 31
0.0
  0
LINE
  5
1C49
330
1E
100
AcDbEntity
  8
3
100
AcDbLine
 10
6.435039370078739
 20
4.171259842519685
 30
0.0
 11
6.488188976377952
 21
4.173228346456692
 31
0.0
  0
LINE
  5
1C4A
330
1E
100
AcDbEntity
  8
3
100
AcDbLine
 10
6.435039370078739
 20
4.173228346456692
 30
0.0
 11
6.49507874015748
 21
4.176181102362204
 31
0.0
  0
LINE
  5
1C4B
330
1E
100
AcDbEntity
  8
3
100
AcDbLine
 10
6.435039370078739
 20
4.1751968503937
 30
0.0
 11
6.502952755905512
 21
4.178149606299212
 31
0.0
  0
LINE
  5
1C4C
330
1E
100
AcDbEntity
  8
3
100
AcDbLine
 10
6.435039370078739
 20
4.177165354330708
 30
0.0
 11
6.509842519685039
 21
4.181102362204724
 31
0.0
  0
LINE
  5
1C4D
330
1E
100
AcDbEntity
  8
3
100
AcDbLine
 10
6.435039370078739
 20
4.179133858267716
 30
0.0
 11
6.517716535433071
 21
4.183070866141732
 31
0.0
  0
LINE
  5
1C4E
330
1E
100
AcDbEntity
  8
3
100
AcDbLine
 10
6.435039370078739
 20
4.181102362204724
 30
0.0
 11
6.524606299212598
 21
4.185039370078739
 31
0.0
  0
LWPOLYLINE
  5
1C4F
330
1E
100
AcDbEntity
  8
3
100
AcDbPolyline
 90
        4
 70
     0
 43
0.0098425196850394
 10
6.021653543307087
 20
3.818897637795275
 10
6.075787401574802
 20
3.894685039370078
 10
6.030511811023622
 20
3.911417322834645
 10
6.021653543307087
 20
3.818897637795275
  0
LINE
  5
1C55
330
1E
100
AcDbEntity
  8
3
100
AcDbLine
 10
6.073818897637795
 20
3.895669291338582
 30
0.0
 11
6.070866141732283
 21
3.887795275590551
 31
0.0
  0
LINE
  5
1C56
330
1E
100
AcDbEntity
  8
3
100
AcDbLine
 10
6.071850393700787
 20
3.896653543307086
 30
0.0
 11
6.066929133858267
 21
3.881889763779527
 31
0.0
  0
LINE
  5
1C57
330
1E
100
AcDbEntity
  8
3
100
AcDbLine
 10
6.069881889763779
 20
3.896653543307086
 30
0.0
 11
6.062007874015748
 21
3.875984251968504
 31
0.0
  0
LINE
  5
1C58
330
1E
100
AcDbEntity
  8
3
100
AcDbLine
 10
6.067913385826771
 20
3.89763779527559
 30
0.0
 11
6.058070866141732
 21
3.869094488188976
 31
0.0
  0
LINE
  5
1C59
330
1E
100
AcDbEntity
  8
3
100
AcDbLine
 10
6.065944881889763
 20
3.898622047244094
 30
0.0
 11
6.053149606299212
 21
3.863188976377952
 31
0.0
  0
LINE
  5
1C5A
330
1E
100
AcDbEntity
  8
3
100
AcDbLine
 10
6.06496062992126
 20
3.899606299212598
 30
0.0
 11
6.049212598425197
 21
3.856299212598425
 31
0.0
  0
LINE
  5
1C5B
330
1E
100
AcDbEntity
  8
3
100
AcDbLine
 10
6.062992125984251
 20
3.899606299212598
 30
0.0
 11
6.044291338582676
 21
3.850393700787401
 31
0.0
  0
LINE
  5
1C5C
330
1E
100
AcDbEntity
  8
3
100
AcDbLine
 10
6.061023622047244
 20
3.900590551181102
 30
0.0
 11
6.040354330708661
 21
3.844488188976378
 31
0.0
  0
LINE
  5
1C5D
330
1E
100
AcDbEntity
  8
3
100
AcDbLine
 10
6.059055118110236
 20
3.901574803149606
 30
0.0
 11
6.035433070866141
 21
3.83759842519685
 31
0.0
  0
LINE
  5
1C5E
330
1E
100
AcDbEntity
  8
3
100
AcDbLine
 10
6.057086614173228
 20
3.901574803149606
 30
0.0
 11
6.030511811023622
 21
3.831692913385826
 31
0.0
  0
LINE
  5
1C5F
330
1E
100
AcDbEntity
  8
3
100
AcDbLine
 10
6.05511811023622
 20
3.90255905511811
 30
0.0
 11
6.026574803149606
 21
3.824803149606299
 31
0.0
  0
LINE
  5
1C60
330
1E
100
AcDbEntity
  8
3
100
AcDbLine
 10
6.053149606299212
 20
3.903543307086614
 30
0.0
 11
6.021653543307087
 21
3.818897637795275
 31
0.0
  0
LINE
  5
1C61
330
1E
100
AcDbEntity
  8
3
100
AcDbLine
 10
6.032480314960629
 20
3.911417322834645
 30
0.0
 11
6.029527559055118
 21
3.903543307086614
 31
0.0
  0
LINE
  5
1C62
330
1E
100
AcDbEntity
  8
3
100
AcDbLine
 10
6.034448818897637
 20
3.910433070866141
 30
0.0
 11
6.029527559055118
 21
3.895669291338582
 31
0.0
  0
LINE
  5
1C63
330
1E
100
AcDbEntity
  8
3
100
AcDbLine
 10
6.036417322834645
 20
3.909448818897637
 30
0.0
 11
6.028543307086613
 21
3.887795275590551
 31
0.0
  0
LINE
  5
1C64
330
1E
100
AcDbEntity
  8
3
100
AcDbLine
 10
6.038385826771653
 20
3.908464566929133
 30
0.0
 11
6.02755905511811
 21
3.880905511811023
 31
0.0
  0
LINE
  5
1C65
330
1E
100
AcDbEntity
  8
3
100
AcDbLine
 10
6.040354330708661
 20
3.908464566929133
 30
0.0
 11
6.026574803149606
 21
3.873031496062992
 31
0.0
  0
LINE
  5
1C66
330
1E
100
AcDbEntity
  8
3
100
AcDbLine
 10
6.042322834645669
 20
3.907480314960629
 30
0.0
 11
6.026574803149606
 21
3.86515748031496
 31
0.0
  0
LINE
  5
1C67
330
1E
100
AcDbEntity
  8
3
100
AcDbLine
 10
6.044291338582676
 20
3.906496062992125
 30
0.0
 11
6.025590551181102
 21
3.857283464566929
 31
0.0
  0
LINE
  5
1C68
330
1E
100
AcDbEntity
  8
3
100
AcDbLine
 10
6.045275590551181
 20
3.906496062992125
 30
0.0
 11
6.024606299212598
 21
3.849409448818897
 31
0.0
  0
LINE
  5
1C69
330
1E
100
AcDbEntity
  8
3
100
AcDbLine
 10
6.047244094488188
 20
3.905511811023622
 30
0.0
 11
6.024606299212598
 21
3.841535433070866
 31
0.0
  0
LINE
  5
1C6A
330
1E
100
AcDbEntity
  8
3
100
AcDbLine
 10
6.049212598425197
 20
3.904527559055118
 30
0.0
 11
6.023622047244094
 21
3.834645669291338
 31
0.0
  0
LINE
  5
1C6B
330
1E
100
AcDbEntity
  8
3
100
AcDbLine
 10
6.051181102362204
 20
3.903543307086614
 30
0.0
 11
6.02263779527559
 21
3.826771653543307
 31
0.0
  0
LINE
  5
1C6C
330
1E
100
AcDbEntity
  8
3
100
AcDbLine
 10
6.053149606299212
 20
3.903543307086614
 30
0.0
 11
6.021653543307087
 21
3.818897637795275
 31
0.0
  0
LWPOLYLINE
  5
1C6D
330
1E
100
AcDbEntity
  8
7
100
AcDbPolyline
 90
        4
 70
     0
 43
0.0098425196850394
 10
3.878937007874015
 20
4.593503937007874
 10
3.834645669291338
 20
4.593503937007874
 10
3.834645669291338
 20
4.424212598425197
 10
3.878937007874015
 20
4.424212598425197
  0
LWPOLYLINE
  5
1C73
330
1E
100
AcDbEntity
  8
7
100
AcDbPolyline
 90
        4
 70
     0
 43
0.0098425196850394
 10
4.250984251968503
 20
4.424212598425197
 10
4.296259842519685
 20
4.424212598425197
 10
4.296259842519685
 20
4.593503937007874
 10
4.250984251968503
 20
4.593503937007874
  0
LINE
  5
1C79
330
1E
100
AcDbEntity
  8
3
100
AcDbLine
 10
4.580708661417323
 20
4.021653543307086
 30
0.0
 11
4.405511811023622
 21
4.021653543307086
 31
0.0
  0
LINE
  5
1C7A
330
1E
100
AcDbEntity
  8
3
100
AcDbLine
 10
4.580708661417323
 20
3.586614173228346
 30
0.0
 11
4.405511811023622
 21
3.586614173228346
 31
0.0
  0
LINE
  5
1C7B
330
1E
100
AcDbEntity
  8
3
100
AcDbLine
 10
4.530511811023622
 20
4.728346456692913
 30
0.0
 11
4.280511811023622
 21
4.728346456692913
 31
0.0
  0
LINE
  5
1C7C
330
1E
100
AcDbEntity
  8
3
100
AcDbLine
 10
4.530511811023622
 20
3.586614173228346
 30
0.0
 11
4.530511811023622
 21
4.728346456692913
 31
0.0
  0
LWPOLYLINE
  5
1C7D
330
1E
100
AcDbEntity
  8
7
100
AcDbPolyline
 90
        7
 70
     0
 43
0.0098425196850394
 10
3.843503937007874
 20
4.691929133858267
 10
3.860236220472441
 20
4.683070866141732
 10
3.89763779527559
 20
4.683070866141732
 10
3.915354330708661
 20
4.691929133858267
 10
3.915354330708661
 20
4.718503937007874
 10
3.89763779527559
 20
4.728346456692913
 10
3.87007874015748
 20
4.728346456692913
  0
LWPOLYLINE
  5
1C86
330
1E
100
AcDbEntity
  8
7
100
AcDbPolyline
 90
        6
 70
     0
 43
0.0098425196850394
 10
3.89763779527559
 20
4.728346456692913
 10
3.915354330708661
 20
4.736220472440945
 10
3.915354330708661
 20
4.763779527559055
 10
3.89763779527559
 20
4.77263779527559
 10
3.860236220472441
 20
4.77263779527559
 10
3.84251968503937
 20
4.763779527559055
  0
LWPOLYLINE
  5
1C8E
330
1E
100
AcDbEntity
  8
7
100
AcDbPolyline
 90
        5
 70
     0
 43
0.0098425196850394
 10
3.968503937007874
 20
4.683070866141732
 10
3.986220472440944
 20
4.683070866141732
 10
3.986220472440944
 20
4.700787401574802
 10
3.968503937007874
 20
4.700787401574802
 10
3.968503937007874
 20
4.683070866141732
  0
LWPOLYLINE
  5
1C95
330
1E
100
AcDbEntity
  8
7
100
AcDbPolyline
 90
        4
 70
     0
 43
0.0098425196850394
 10
4.111220472440945
 20
4.718503937007874
 10
4.040354330708661
 20
4.718503937007874
 10
4.093503937007874
 20
4.77263779527559
 10
4.093503937007874
 20
4.683070866141732
  0
LWPOLYLINE
  5
1C9B
330
1E
100
AcDbEntity
  8
7
100
AcDbPolyline
 90
        7
 70
     0
 43
0.0098425196850394
 10
4.154527559055118
 20
4.728346456692913
 10
4.13779527559055
 20
4.736220472440945
 10
4.13779527559055
 20
4.763779527559055
 10
4.154527559055118
 20
4.77263779527559
 10
4.190944881889763
 20
4.77263779527559
 10
4.209645669291338
 20
4.763779527559055
 10
4.209645669291338
 20
4.736220472440945
  0
LWPOLYLINE
  5
1CA4
330
1E
100
AcDbEntity
  8
7
100
AcDbPolyline
 90
       10
 70
     0
 43
0.0098425196850394
 10
4.209645669291338
 20
4.736220472440945
 10
4.190944881889763
 20
4.728346456692913
 10
4.154527559055118
 20
4.728346456692913
 10
4.136811023622047
 20
4.718503937007874
 10
4.136811023622047
 20
4.692913385826771
 10
4.154527559055118
 20
4.683070866141732
 10
4.190944881889763
 20
4.683070866141732
 10
4.209645669291338
 20
4.691929133858267
 10
4.209645669291338
 20
4.718503937007874
 10
4.190944881889763
 20
4.728346456692913
  0
LWPOLYLINE
  5
1CB0
330
1E
100
AcDbEntity
  8
7
100
AcDbPolyline
 90
        5
 70
     0
 43
0.0098425196850394
 10
3.899606299212598
 20
4.508858267716535
 10
3.882874015748031
 20
4.517716535433071
 10
3.882874015748031
 20
4.544291338582676
 10
3.899606299212598
 20
4.553149606299212
 10
3.937007874015748
 20
4.553149606299212
  0
LWPOLYLINE
  5
1CB7
330
1E
100
AcDbEntity
  8
7
100
AcDbPolyline
 90
       12
 70
     0
 43
0.0098425196850394
 10
3.937007874015748
 20
4.553149606299212
 10
3.954724409448818
 20
4.544291338582676
 10
3.954724409448818
 20
4.517716535433071
 10
3.937007874015748
 20
4.508858267716535
 10
3.899606299212598
 20
4.508858267716535
 10
3.881889763779527
 20
4.499015748031496
 10
3.881889763779527
 20
4.473425196850393
 10
3.899606299212598
 20
4.463582677165354
 10
3.937007874015748
 20
4.463582677165354
 10
3.954724409448818
 20
4.472440944881889
 10
3.954724409448818
 20
4.499015748031496
 10
3.937007874015748
 20
4.508858267716535
  0
LWPOLYLINE
  5
1CC5
330
1E
100
AcDbEntity
  8
7
100
AcDbPolyline
 90
        4
 70
     0
 43
0.0098425196850394
 10
3.998031496062992
 20
4.508858267716535
 10
3.981299212598425
 20
4.517716535433071
 10
3.981299212598425
 20
4.544291338582676
 10
3.998031496062992
 20
4.553149606299212
  0
LWPOLYLINE
  5
1CCB
330
1E
100
AcDbEntity
  8
7
100
AcDbPolyline
 90
       13
 70
     0
 43
0.0098425196850394
 10
3.998031496062992
 20
4.553149606299212
 10
4.034448818897637
 20
4.553149606299212
 10
4.052165354330708
 20
4.544291338582676
 10
4.052165354330708
 20
4.517716535433071
 10
4.034448818897637
 20
4.508858267716535
 10
3.998031496062992
 20
4.508858267716535
 10
3.980314960629921
 20
4.499015748031496
 10
3.980314960629921
 20
4.473425196850393
 10
3.998031496062992
 20
4.463582677165354
 10
4.034448818897637
 20
4.463582677165354
 10
4.052165354330708
 20
4.472440944881889
 10
4.052165354330708
 20
4.499015748031496
 10
4.034448818897637
 20
4.508858267716535
  0
LWPOLYLINE
  5
1CDA
330
1E
100
AcDbEntity
  8
7
100
AcDbPolyline
 90
        3
 70
     0
 43
0.0098425196850394
 10
4.105314960629921
 20
4.463582677165354
 10
4.123031496062992
 20
4.463582677165354
 10
4.123031496062992
 20
4.481299212598425
  0
LWPOLYLINE
  5
1CDF
330
1E
100
AcDbEntity
  8
7
100
AcDbPolyline
 90
        3
 70
     0
 43
0.0098425196850394
 10
4.123031496062992
 20
4.481299212598425
 10
4.105314960629921
 20
4.481299212598425
 10
4.105314960629921
 20
4.463582677165354
  0
LWPOLYLINE
  5
1CE4
330
1E
100
AcDbEntity
  8
7
100
AcDbPolyline
 90
        4
 70
     0
 43
0.0098425196850394
 10
4.249015748031496
 20
4.499015748031496
 10
4.177165354330708
 20
4.499015748031496
 10
4.230314960629921
 20
4.553149606299212
 10
4.230314960629921
 20
4.463582677165354
  0
LWPOLYLINE
  5
1CEA
330
1E
100
AcDbEntity
  8
3
100
AcDbPolyline
 90
        4
 70
     0
 43
0.0098425196850394
 10
4.530511811023622
 20
4.021653543307086
 10
4.505905511811024
 20
3.932086614173228
 10
4.554133858267716
 20
3.932086614173228
 10
4.530511811023622
 20
4.021653543307086
  0
LINE
  5
1CF0
330
1E
100
AcDbEntity
  8
3
100
AcDbLine
 10
4.507874015748031
 20
3.932086614173228
 30
0.0
 11
4.507874015748031
 21
3.939960629921259
 31
0.0
  0
LINE
  5
1CF1
330
1E
100
AcDbEntity
  8
3
100
AcDbLine
 10
4.509842519685039
 20
3.932086614173228
 30
0.0
 11
4.509842519685039
 21
3.946850393700787
 31
0.0
  0
LINE
  5
1CF2
330
1E
100
AcDbEntity
  8
3
100
AcDbLine
 10
4.511811023622047
 20
3.932086614173228
 30
0.0
 11
4.511811023622047
 21
3.954724409448818
 31
0.0
  0
LINE
  5
1CF3
330
1E
100
AcDbEntity
  8
3
100
AcDbLine
 10
4.513779527559055
 20
3.932086614173228
 30
0.0
 11
4.513779527559055
 21
3.96259842519685
 31
0.0
  0
LINE
  5
1CF4
330
1E
100
AcDbEntity
  8
3
100
AcDbLine
 10
4.515748031496062
 20
3.932086614173228
 30
0.0
 11
4.515748031496062
 21
3.969488188976378
 31
0.0
  0
LINE
  5
1CF5
330
1E
100
AcDbEntity
  8
3
100
AcDbLine
 10
4.517716535433071
 20
3.932086614173228
 30
0.0
 11
4.517716535433071
 21
3.977362204724409
 31
0.0
  0
LINE
  5
1CF6
330
1E
100
AcDbEntity
  8
3
100
AcDbLine
 10
4.519685039370078
 20
3.932086614173228
 30
0.0
 11
4.519685039370078
 21
3.984251968503937
 31
0.0
  0
LINE
  5
1CF7
330
1E
100
AcDbEntity
  8
3
100
AcDbLine
 10
4.52263779527559
 20
3.932086614173228
 30
0.0
 11
4.52263779527559
 21
3.992125984251968
 31
0.0
  0
LINE
  5
1CF8
330
1E
100
AcDbEntity
  8
3
100
AcDbLine
 10
4.524606299212598
 20
3.932086614173228
 30
0.0
 11
4.524606299212598
 21
4.0
 31
0.0
  0
LINE
  5
1CF9
330
1E
100
AcDbEntity
  8
3
100
AcDbLine
 10
4.526574803149606
 20
3.932086614173228
 30
0.0
 11
4.526574803149606
 21
4.006889763779527
 31
0.0
  0
LINE
  5
1CFA
330
1E
100
AcDbEntity
  8
3
100
AcDbLine
 10
4.528543307086613
 20
3.932086614173228
 30
0.0
 11
4.528543307086613
 21
4.014763779527559
 31
0.0
  0
LINE
  5
1CFB
330
1E
100
AcDbEntity
  8
3
100
AcDbLine
 10
4.530511811023622
 20
3.932086614173228
 30
0.0
 11
4.530511811023622
 21
4.021653543307086
 31
0.0
  0
LINE
  5
1CFC
330
1E
100
AcDbEntity
  8
3
100
AcDbLine
 10
4.552165354330708
 20
3.932086614173228
 30
0.0
 11
4.552165354330708
 21
3.939960629921259
 31
0.0
  0
LINE
  5
1CFD
330
1E
100
AcDbEntity
  8
3
100
AcDbLine
 10
4.5501968503937
 20
3.932086614173228
 30
0.0
 11
4.5501968503937
 21
3.946850393700787
 31
0.0
  0
LINE
  5
1CFE
330
1E
100
AcDbEntity
  8
3
100
AcDbLine
 10
4.548228346456692
 20
3.932086614173228
 30
0.0
 11
4.548228346456692
 21
3.954724409448818
 31
0.0
  0
LINE
  5
1CFF
330
1E
100
AcDbEntity
  8
3
100
AcDbLine
 10
4.546259842519685
 20
3.932086614173228
 30
0.0
 11
4.546259842519685
 21
3.96259842519685
 31
0.0
  0
LINE
  5
1D00
330
1E
100
AcDbEntity
  8
3
100
AcDbLine
 10
4.544291338582676
 20
3.932086614173228
 30
0.0
 11
4.544291338582676
 21
3.969488188976378
 31
0.0
  0
LINE
  5
1D01
330
1E
100
AcDbEntity
  8
3
100
AcDbLine
 10
4.542322834645669
 20
3.932086614173228
 30
0.0
 11
4.542322834645669
 21
3.977362204724409
 31
0.0
  0
LINE
  5
1D02
330
1E
100
AcDbEntity
  8
3
100
AcDbLine
 10
4.540354330708661
 20
3.932086614173228
 30
0.0
 11
4.540354330708661
 21
3.984251968503937
 31
0.0
  0
LINE
  5
1D03
330
1E
100
AcDbEntity
  8
3
100
AcDbLine
 10
4.538385826771653
 20
3.932086614173228
 30
0.0
 11
4.538385826771653
 21
3.992125984251968
 31
0.0
  0
LINE
  5
1D04
330
1E
100
AcDbEntity
  8
3
100
AcDbLine
 10
4.536417322834645
 20
3.932086614173228
 30
0.0
 11
4.536417322834645
 21
4.0
 31
0.0
  0
LINE
  5
1D05
330
1E
100
AcDbEntity
  8
3
100
AcDbLine
 10
4.534448818897637
 20
3.932086614173228
 30
0.0
 11
4.534448818897637
 21
4.006889763779527
 31
0.0
  0
LINE
  5
1D06
330
1E
100
AcDbEntity
  8
3
100
AcDbLine
 10
4.532480314960629
 20
3.932086614173228
 30
0.0
 11
4.532480314960629
 21
4.014763779527559
 31
0.0
  0
LINE
  5
1D07
330
1E
100
AcDbEntity
  8
3
100
AcDbLine
 10
4.530511811023622
 20
3.932086614173228
 30
0.0
 11
4.530511811023622
 21
4.021653543307086
 31
0.0
  0
LINE
  5
1D08
330
1E
100
AcDbEntity
  8
3
100
AcDbLine
 10
4.530511811023622
 20
3.586614173228346
 30
0.0
 11
4.554133858267716
 21
3.677165354330708
 31
0.0
  0
LWPOLYLINE
  5
1D09
330
1E
100
AcDbEntity
  8
3
100
AcDbPolyline
 90
        3
 70
     0
 43
0.0098425196850394
 10
4.554133858267716
 20
3.677165354330708
 10
4.505905511811024
 20
3.677165354330708
 10
4.530511811023622
 20
3.586614173228346
  0
LINE
  5
1D0E
330
1E
100
AcDbEntity
  8
3
100
AcDbLine
 10
4.554133858267716
 20
3.677165354330708
 30
0.0
 11
4.554133858267716
 21
3.676181102362204
 31
0.0
  0
LINE
  5
1D0F
330
1E
100
AcDbEntity
  8
3
100
AcDbLine
 10
4.554133858267716
 20
3.677165354330708
 30
0.0
 11
4.554133858267716
 21
3.676181102362204
 31
0.0
  0
LINE
  5
1D10
330
1E
100
AcDbEntity
  8
3
100
AcDbLine
 10
4.552165354330708
 20
3.677165354330708
 30
0.0
 11
4.552165354330708
 21
3.669291338582677
 31
0.0
  0
LINE
  5
1D11
330
1E
100
AcDbEntity
  8
3
100
AcDbLine
 10
4.5501968503937
 20
3.677165354330708
 30
0.0
 11
4.5501968503937
 21
3.661417322834645
 31
0.0
  0
LINE
  5
1D12
330
1E
100
AcDbEntity
  8
3
100
AcDbLine
 10
4.548228346456692
 20
3.677165354330708
 30
0.0
 11
4.548228346456692
 21
3.654527559055118
 31
0.0
  0
LINE
  5
1D13
330
1E
100
AcDbEntity
  8
3
100
AcDbLine
 10
4.546259842519685
 20
3.677165354330708
 30
0.0
 11
4.546259842519685
 21
3.646653543307086
 31
0.0
  0
LINE
  5
1D14
330
1E
100
AcDbEntity
  8
3
100
AcDbLine
 10
4.544291338582676
 20
3.677165354330708
 30
0.0
 11
4.544291338582676
 21
3.638779527559055
 31
0.0
  0
LINE
  5
1D15
330
1E
100
AcDbEntity
  8
3
100
AcDbLine
 10
4.542322834645669
 20
3.677165354330708
 30
0.0
 11
4.542322834645669
 21
3.631889763779527
 31
0.0
  0
LINE
  5
1D16
330
1E
100
AcDbEntity
  8
3
100
AcDbLine
 10
4.540354330708661
 20
3.677165354330708
 30
0.0
 11
4.540354330708661
 21
3.624015748031496
 31
0.0
  0
LINE
  5
1D17
330
1E
100
AcDbEntity
  8
3
100
AcDbLine
 10
4.538385826771653
 20
3.677165354330708
 30
0.0
 11
4.538385826771653
 21
3.617125984251968
 31
0.0
  0
LINE
  5
1D18
330
1E
100
AcDbEntity
  8
3
100
AcDbLine
 10
4.536417322834645
 20
3.677165354330708
 30
0.0
 11
4.536417322834645
 21
3.609251968503937
 31
0.0
  0
LINE
  5
1D19
330
1E
100
AcDbEntity
  8
3
100
AcDbLine
 10
4.534448818897637
 20
3.677165354330708
 30
0.0
 11
4.534448818897637
 21
3.602362204724409
 31
0.0
  0
LINE
  5
1D1A
330
1E
100
AcDbEntity
  8
3
100
AcDbLine
 10
4.532480314960629
 20
3.677165354330708
 30
0.0
 11
4.532480314960629
 21
3.594488188976378
 31
0.0
  0
LINE
  5
1D1B
330
1E
100
AcDbEntity
  8
3
100
AcDbLine
 10
4.530511811023622
 20
3.677165354330708
 30
0.0
 11
4.530511811023622
 21
3.586614173228346
 31
0.0
  0
LINE
  5
1D1C
330
1E
100
AcDbEntity
  8
3
100
AcDbLine
 10
4.505905511811024
 20
3.677165354330708
 30
0.0
 11
4.505905511811024
 21
3.676181102362204
 31
0.0
  0
LINE
  5
1D1D
330
1E
100
AcDbEntity
  8
3
100
AcDbLine
 10
4.505905511811024
 20
3.677165354330708
 30
0.0
 11
4.505905511811024
 21
3.676181102362204
 31
0.0
  0
LINE
  5
1D1E
330
1E
100
AcDbEntity
  8
3
100
AcDbLine
 10
4.507874015748031
 20
3.677165354330708
 30
0.0
 11
4.507874015748031
 21
3.669291338582677
 31
0.0
  0
LINE
  5
1D1F
330
1E
100
AcDbEntity
  8
3
100
AcDbLine
 10
4.509842519685039
 20
3.677165354330708
 30
0.0
 11
4.509842519685039
 21
3.661417322834645
 31
0.0
  0
LINE
  5
1D20
330
1E
100
AcDbEntity
  8
3
100
AcDbLine
 10
4.511811023622047
 20
3.677165354330708
 30
0.0
 11
4.511811023622047
 21
3.654527559055118
 31
0.0
  0
LINE
  5
1D21
330
1E
100
AcDbEntity
  8
3
100
AcDbLine
 10
4.513779527559055
 20
3.677165354330708
 30
0.0
 11
4.513779527559055
 21
3.646653543307086
 31
0.0
  0
LINE
  5
1D22
330
1E
100
AcDbEntity
  8
3
100
AcDbLine
 10
4.515748031496062
 20
3.677165354330708
 30
0.0
 11
4.515748031496062
 21
3.638779527559055
 31
0.0
  0
LINE
  5
1D23
330
1E
100
AcDbEntity
  8
3
100
AcDbLine
 10
4.517716535433071
 20
3.677165354330708
 30
0.0
 11
4.517716535433071
 21
3.631889763779527
 31
0.0
  0
LINE
  5
1D24
330
1E
100
AcDbEntity
  8
3
100
AcDbLine
 10
4.519685039370078
 20
3.677165354330708
 30
0.0
 11
4.519685039370078
 21
3.624015748031496
 31
0.0
  0
LINE
  5
1D25
330
1E
100
AcDbEntity
  8
3
100
AcDbLine
 10
4.52263779527559
 20
3.677165354330708
 30
0.0
 11
4.52263779527559
 21
3.617125984251968
 31
0.0
  0
LINE
  5
1D26
330
1E
100
AcDbEntity
  8
3
100
AcDbLine
 10
4.524606299212598
 20
3.677165354330708
 30
0.0
 11
4.524606299212598
 21
3.609251968503937
 31
0.0
  0
LINE
  5
1D27
330
1E
100
AcDbEntity
  8
3
100
AcDbLine
 10
4.526574803149606
 20
3.677165354330708
 30
0.0
 11
4.526574803149606
 21
3.602362204724409
 31
0.0
  0
LINE
  5
1D28
330
1E
100
AcDbEntity
  8
3
100
AcDbLine
 10
4.528543307086613
 20
3.677165354330708
 30
0.0
 11
4.528543307086613
 21
3.594488188976378
 31
0.0
  0
LINE
  5
1D29
330
1E
100
AcDbEntity
  8
3
100
AcDbLine
 10
4.530511811023622
 20
3.677165354330708
 30
0.0
 11
4.530511811023622
 21
3.586614173228346
 31
0.0
  0
LWPOLYLINE
  5
1D2A
330
1E
100
AcDbEntity
  8
7
100
AcDbPolyline
 90
        5
 70
     0
 43
0.0098425196850394
 10
9.082677165354329
 20
7.094488188976377
 10
9.1003937007874
 20
7.086614173228346
 10
9.13779527559055
 20
7.086614173228346
 10
9.15551181102362
 20
7.094488188976377
 10
9.15551181102362
 20
7.129921259842519
  0
LWPOLYLINE
  5
1D31
330
1E
100
AcDbEntity
  8
7
100
AcDbPolyline
 90
        6
 70
     0
 43
0.0098425196850394
 10
9.15551181102362
 20
7.129921259842519
 10
9.13779527559055
 20
7.139763779527559
 10
9.1003937007874
 20
7.139763779527559
 10
9.082677165354329
 20
7.130905511811024
 10
9.082677165354329
 20
7.1751968503937
 10
9.15551181102362
 20
7.1751968503937
  0
LWPOLYLINE
  5
1D39
330
1E
100
AcDbEntity
  8
7
100
AcDbPolyline
 90
        5
 70
     0
 43
0.0098425196850394
 10
9.208661417322833
 20
7.086614173228346
 10
9.226377952755903
 20
7.086614173228346
 10
9.226377952755903
 20
7.104330708661417
 10
9.208661417322833
 20
7.104330708661417
 10
9.208661417322833
 20
7.086614173228346
  0
LWPOLYLINE
  5
1D40
330
1E
100
AcDbEntity
  8
7
100
AcDbPolyline
 90
        5
 70
     0
 43
0.0098425196850394
 10
9.297244094488188
 20
7.130905511811024
 10
9.28051181102362
 20
7.139763779527559
 10
9.28051181102362
 20
7.167322834645669
 10
9.297244094488188
 20
7.1751968503937
 10
9.333661417322833
 20
7.1751968503937
  0
LWPOLYLINE
  5
1D47
330
1E
100
AcDbEntity
  8
7
100
AcDbPolyline
 90
       12
 70
     0
 43
0.0098425196850394
 10
9.333661417322833
 20
7.1751968503937
 10
9.351377952755903
 20
7.167322834645669
 10
9.351377952755903
 20
7.139763779527559
 10
9.333661417322833
 20
7.130905511811024
 10
9.297244094488188
 20
7.130905511811024
 10
9.279527559055116
 20
7.122047244094487
 10
9.279527559055116
 20
7.095472440944881
 10
9.297244094488188
 20
7.086614173228346
 10
9.333661417322833
 20
7.086614173228346
 10
9.351377952755903
 20
7.094488188976377
 10
9.351377952755903
 20
7.122047244094487
 10
9.333661417322833
 20
7.130905511811024
  0
LWPOLYLINE
  5
1D55
330
1E
100
AcDbEntity
  8
7
100
AcDbPolyline
 90
        4
 70
     0
 43
0.0098425196850394
 10
9.377952755905511
 20
7.122047244094487
 10
9.394685039370077
 20
7.139763779527559
 10
9.431102362204724
 20
7.139763779527559
 10
9.449803149606298
 20
7.122047244094487
  0
LWPOLYLINE
  5
1D5B
330
1E
100
AcDbEntity
  8
7
100
AcDbPolyline
 90
        9
 70
     0
 43
0.0098425196850394
 10
9.449803149606298
 20
7.122047244094487
 10
9.449803149606298
 20
7.104330708661417
 10
9.431102362204724
 20
7.086614173228346
 10
9.394685039370077
 20
7.086614173228346
 10
9.377952755905511
 20
7.104330708661417
 10
9.377952755905511
 20
7.157480314960629
 10
9.394685039370077
 20
7.1751968503937
 10
9.431102362204724
 20
7.1751968503937
 10
9.449803149606298
 20
7.157480314960629
  0
LWPOLYLINE
  5
1D66
330
1E
100
AcDbEntity
  8
7
100
AcDbPolyline
 90
        3
 70
     0
 43
0.0098425196850394
 10
9.476377952755903
 20
7.1751968503937
 10
9.476377952755903
 20
7.086614173228346
 10
9.547244094488188
 20
7.086614173228346
  0
LWPOLYLINE
  5
1D6B
330
1E
100
AcDbEntity
  8
7
100
AcDbPolyline
 90
        4
 70
     0
 43
0.0098425196850394
 10
9.573818897637794
 20
7.139763779527559
 10
9.573818897637794
 20
7.1751968503937
 10
9.627952755905511
 20
7.1751968503937
 10
9.635826771653542
 20
7.167322834645669
  0
LWPOLYLINE
  5
1D71
330
1E
100
AcDbEntity
  8
7
100
AcDbPolyline
 90
        9
 70
     0
 43
0.0098425196850394
 10
9.635826771653542
 20
7.167322834645669
 10
9.635826771653542
 20
7.148622047244094
 10
9.627952755905511
 20
7.139763779527559
 10
9.573818897637794
 20
7.139763779527559
 10
9.573818897637794
 20
7.086614173228346
 10
9.626968503937007
 20
7.086614173228346
 10
9.644685039370077
 20
7.094488188976377
 10
9.644685039370077
 20
7.130905511811024
 10
9.627952755905511
 20
7.139763779527559
  0
LWPOLYLINE
  5
1D7C
330
1E
100
AcDbEntity
  8
7
100
AcDbPolyline
 90
        8
 70
     0
 43
0.0098425196850394
 10
9.671259842519683
 20
7.094488188976377
 10
9.688976377952755
 20
7.086614173228346
 10
9.7253937007874
 20
7.086614173228346
 10
9.743110236220472
 20
7.095472440944881
 10
9.743110236220472
 20
7.122047244094487
 10
9.7253937007874
 20
7.130905511811024
 10
9.689960629921259
 20
7.130905511811024
 10
9.671259842519683
 20
7.139763779527559
  0
LWPOLYLINE
  5
1D86
330
1E
100
AcDbEntity
  8
7
100
AcDbPolyline
 90
        5
 70
     0
 43
0.0098425196850394
 10
9.671259842519683
 20
7.139763779527559
 10
9.671259842519683
 20
7.167322834645669
 10
9.689960629921259
 20
7.1751968503937
 10
9.7253937007874
 20
7.1751968503937
 10
9.743110236220472
 20
7.167322834645669
  0
LINE
  5
1D8D
330
1E
100
AcDbEntity
  8
7
100
AcDbLine
 10
9.841535433070864
 20
7.1751968503937
 30
0.0
 11
9.770669291338581
 21
7.086614173228346
 31
0.0
  0
LWPOLYLINE
  5
1D8E
330
1E
100
AcDbEntity
  8
7
100
AcDbPolyline
 90
        4
 70
     0
 43
0.0098425196850394
 10
9.939960629921259
 20
7.086614173228346
 10
9.868110236220472
 20
7.086614173228346
 10
9.868110236220472
 20
7.1751968503937
 10
9.939960629921259
 20
7.1751968503937
  0
LINE
  5
1D94
330
1E
100
AcDbEntity
  8
7
100
AcDbLine
 10
9.922244094488188
 20
7.130905511811024
 30
0.0
 11
9.868110236220472
 21
7.130905511811024
 31
0.0
  0
LWPOLYLINE
  5
1D95
330
1E
100
AcDbEntity
  8
7
100
AcDbPolyline
 90
        3
 70
     0
 43
0.0098425196850394
 10
9.966535433070864
 20
7.086614173228346
 10
10.001968503937
 20
7.1751968503937
 10
10.03740157480314
 20
7.086614173228346
  0
LINE
  5
1D9A
330
1E
100
AcDbEntity
  8
7
100
AcDbLine
 10
9.984251968503935
 20
7.130905511811024
 30
0.0
 11
10.01968503937007
 21
7.130905511811024
 31
0.0
  0
LWPOLYLINE
  5
1D9B
330
1E
100
AcDbEntity
  8
7
100
AcDbPolyline
 90
        8
 70
     0
 43
0.0098425196850394
 10
10.13484251968503
 20
7.104330708661417
 10
10.11712598425196
 20
7.086614173228346
 10
10.08267716535433
 20
7.086614173228346
 10
10.06496062992126
 20
7.104330708661417
 10
10.06496062992126
 20
7.157480314960629
 10
10.08267716535433
 20
7.1751968503937
 10
10.11811023622047
 20
7.1751968503937
 10
10.13582677165354
 20
7.157480314960629
  0
LINE
  5
1DA5
330
1E
100
AcDbEntity
  8
7
100
AcDbLine
 10
10.16240157480314
 20
7.086614173228346
 30
0.0
 11
10.16240157480314
 21
7.1751968503937
 31
0.0
  0
LINE
  5
1DA6
330
1E
100
AcDbEntity
  8
7
100
AcDbLine
 10
10.23425196850393
 20
7.130905511811024
 30
0.0
 11
10.16240157480314
 21
7.130905511811024
 31
0.0
  0
LINE
  5
1DA7
330
1E
100
AcDbEntity
  8
7
100
AcDbLine
 10
10.23425196850393
 20
7.086614173228346
 30
0.0
 11
10.23425196850393
 21
7.1751968503937
 31
0.0
  0
LWPOLYLINE
  5
1DA8
330
1E
100
AcDbEntity
  8
7
100
AcDbPolyline
 90
        8
 70
     0
 43
0.0098425196850394
 10
9.083661417322833
 20
7.031496062992125
 10
9.1003937007874
 20
7.040354330708661
 10
9.13779527559055
 20
7.040354330708661
 10
9.15551181102362
 20
7.031496062992125
 10
9.15551181102362
 20
7.013779527559055
 10
9.082677165354329
 20
6.969488188976377
 10
9.083661417322833
 20
6.950787401574802
 10
9.15551181102362
 20
6.950787401574802
  0
LWPOLYLINE
  5
1DB2
330
1E
100
AcDbEntity
  8
7
100
AcDbPolyline
 90
       12
 70
     0
 43
0.0098425196850394
 10
9.182086614173227
 20
6.987204724409449
 10
9.198818897637794
 20
7.004921259842519
 10
9.23523622047244
 20
7.004921259842519
 10
9.252952755905511
 20
6.987204724409449
 10
9.252952755905511
 20
6.969488188976377
 10
9.23523622047244
 20
6.950787401574802
 10
9.198818897637794
 20
6.950787401574802
 10
9.182086614173227
 20
6.969488188976377
 10
9.182086614173227
 20
7.02263779527559
 10
9.198818897637794
 20
7.040354330708661
 10
9.23523622047244
 20
7.040354330708661
 10
9.252952755905511
 20
7.02263779527559
  0
LWPOLYLINE
  5
1DC0
330
1E
100
AcDbEntity
  8
7
100
AcDbPolyline
 90
        3
 70
     0
 43
0.0098425196850394
 10
9.279527559055116
 20
6.959645669291338
 10
9.297244094488188
 20
6.950787401574802
 10
9.333661417322833
 20
6.950787401574802
  0
LWPOLYLINE
  5
1DC5
330
1E
100
AcDbEntity
  8
7
100
AcDbPolyline
 90
        8
 70
     0
 43
0.0098425196850394
 10
9.333661417322833
 20
6.950787401574802
 10
9.351377952755903
 20
6.959645669291338
 10
9.351377952755903
 20
6.99507874015748
 10
9.333661417322833
 20
7.004921259842519
 10
9.297244094488188
 20
7.004921259842519
 10
9.279527559055116
 20
6.996062992125984
 10
9.279527559055116
 20
7.040354330708661
 10
9.351377952755903
 20
7.040354330708661
  0
LWPOLYLINE
  5
1DCF
330
1E
100
AcDbEntity
  8
7
100
AcDbPolyline
 90
        8
 70
     0
 43
0.0098425196850394
 10
9.394685039370077
 20
6.996062992125984
 10
9.377952755905511
 20
7.004921259842519
 10
9.377952755905511
 20
7.031496062992125
 10
9.394685039370077
 20
7.040354330708661
 10
9.431102362204724
 20
7.040354330708661
 10
9.449803149606298
 20
7.031496062992125
 10
9.449803149606298
 20
7.004921259842519
 10
9.431102362204724
 20
6.996062992125984
  0
LWPOLYLINE
  5
1DD9
330
1E
100
AcDbEntity
  8
7
100
AcDbPolyline
 90
        9
 70
     0
 43
0.0098425196850394
 10
9.431102362204724
 20
6.996062992125984
 10
9.394685039370077
 20
6.996062992125984
 10
9.376968503937007
 20
6.987204724409449
 10
9.376968503937007
 20
6.960629921259842
 10
9.394685039370077
 20
6.950787401574802
 10
9.431102362204724
 20
6.950787401574802
 10
9.449803149606298
 20
6.959645669291338
 10
9.449803149606298
 20
6.987204724409449
 10
9.431102362204724
 20
6.996062992125984
  0
LWPOLYLINE
  5
1DE4
330
1E
100
AcDbEntity
  8
7
100
AcDbPolyline
 90
        5
 70
     0
 43
0.0098425196850394
 10
9.501968503937007
 20
6.950787401574802
 10
9.520669291338581
 20
6.950787401574802
 10
9.520669291338581
 20
6.969488188976377
 10
9.501968503937007
 20
6.969488188976377
 10
9.501968503937007
 20
6.950787401574802
  0
LINE
  5
1DEB
330
1E
100
AcDbEntity
  8
7
100
AcDbLine
 10
9.618110236220472
 20
6.950787401574802
 30
0.0
 11
9.635826771653542
 21
6.960629921259842
 31
0.0
  0
LWPOLYLINE
  5
1DEC
330
1E
100
AcDbEntity
  8
7
100
AcDbPolyline
 90
       12
 70
     0
 43
0.0098425196850394
 10
9.635826771653542
 20
6.960629921259842
 10
9.645669291338581
 20
6.987204724409449
 10
9.645669291338581
 20
7.004921259842519
 10
9.635826771653542
 20
7.031496062992125
 10
9.618110236220472
 20
7.040354330708661
 10
9.6003937007874
 20
7.040354330708661
 10
9.582677165354329
 20
7.031496062992125
 10
9.57283464566929
 20
7.004921259842519
 10
9.573818897637794
 20
6.987204724409449
 10
9.582677165354329
 20
6.960629921259842
 10
9.6003937007874
 20
6.950787401574802
 10
9.618110236220472
 20
6.950787401574802
  0
LWPOLYLINE
  5
1DFA
330
1E
100
AcDbEntity
  8
7
100
AcDbPolyline
 90
        4
 70
     0
 43
0.0098425196850394
 10
9.672244094488188
 20
6.959645669291338
 10
9.688976377952755
 20
6.950787401574802
 10
9.7253937007874
 20
6.950787401574802
 10
9.743110236220472
 20
6.959645669291338
  0
LWPOLYLINE
  5
1E00
330
1E
100
AcDbEntity
  8
7
100
AcDbPolyline
 90
        4
 70
     0
 43
0.0098425196850394
 10
9.743110236220472
 20
6.959645669291338
 10
9.743110236220472
 20
6.987204724409449
 10
9.7253937007874
 20
6.996062992125984
 10
9.698818897637794
 20
6.996062992125984
  0
LWPOLYLINE
  5
1E06
330
1E
100
AcDbEntity
  8
7
100
AcDbPolyline
 90
        6
 70
     0
 43
0.0098425196850394
 10
9.7253937007874
 20
6.996062992125984
 10
9.743110236220472
 20
7.004921259842519
 10
9.743110236220472
 20
7.031496062992125
 10
9.7253937007874
 20
7.040354330708661
 10
9.688976377952755
 20
7.040354330708661
 10
9.671259842519683
 20
7.031496062992125
  0
LWPOLYLINE
  5
1E0E
330
1E
100
AcDbEntity
  8
7
100
AcDbPolyline
 90
        7
 70
     0
 43
0.0098425196850394
 10
9.770669291338581
 20
6.940944881889763
 10
9.772637795275588
 20
6.931102362204724
 10
9.779527559055116
 20
6.924212598425197
 10
9.786417322834644
 20
6.922244094488188
 10
9.824803149606298
 20
6.922244094488188
 10
9.831692913385825
 20
6.924212598425197
 10
9.838582677165353
 20
6.931102362204724
  0
LWPOLYLINE
  5
1E17
330
1E
100
AcDbEntity
  8
7
100
AcDbPolyline
 90
       17
 70
     0
 43
0.0098425196850394
 10
9.838582677165353
 20
6.931102362204724
 10
9.840551181102361
 20
6.937992125984251
 10
9.840551181102361
 20
6.988188976377952
 10
9.834645669291337
 20
6.999015748031496
 10
9.824803149606298
 20
7.007874015748031
 10
9.812007874015746
 20
7.009842519685039
 10
9.799212598425196
 20
7.009842519685039
 10
9.786417322834644
 20
7.007874015748031
 10
9.775590551181101
 20
6.999015748031496
 10
9.770669291338581
 20
6.988188976377952
 10
9.770669291338581
 20
6.974409448818897
 10
9.775590551181101
 20
6.96259842519685
 10
9.786417322834644
 20
6.953740157480314
 10
9.799212598425196
 20
6.950787401574802
 10
9.812007874015746
 20
6.950787401574802
 10
9.824803149606298
 20
6.953740157480314
 10
9.834645669291337
 20
6.96259842519685
  0
LINE
  5
1E2A
330
1E
100
AcDbEntity
  8
7
100
AcDbLine
 10
9.834645669291337
 20
6.96259842519685
 30
0.0
 11
9.840551181102361
 21
6.974409448818897
 31
0.0
  0
LINE
  5
1E2B
330
1E
100
AcDbEntity
  8
7
100
AcDbLine
 10
9.939960629921259
 20
7.040354330708661
 30
0.0
 11
9.868110236220472
 21
6.950787401574802
 31
0.0
  0
LWPOLYLINE
  5
1E2C
330
1E
100
AcDbEntity
  8
7
100
AcDbPolyline
 90
        4
 70
     0
 43
0.0098425196850394
 10
10.03740157480314
 20
6.950787401574802
 10
9.966535433070864
 20
6.950787401574802
 10
9.966535433070864
 20
7.040354330708661
 10
10.03740157480314
 20
7.040354330708661
  0
LINE
  5
1E32
330
1E
100
AcDbEntity
  8
7
100
AcDbLine
 10
10.01968503937007
 20
6.996062992125984
 30
0.0
 11
9.966535433070864
 21
6.996062992125984
 31
0.0
  0
LWPOLYLINE
  5
1E33
330
1E
100
AcDbEntity
  8
7
100
AcDbPolyline
 90
        3
 70
     0
 43
0.0098425196850394
 10
10.06496062992126
 20
6.950787401574802
 10
10.1003937007874
 20
7.040354330708661
 10
10.13582677165354
 20
6.950787401574802
  0
LINE
  5
1E38
330
1E
100
AcDbEntity
  8
7
100
AcDbLine
 10
10.08267716535433
 20
6.996062992125984
 30
0.0
 11
10.11811023622047
 21
6.996062992125984
 31
0.0
  0
LWPOLYLINE
  5
1E39
330
1E
100
AcDbEntity
  8
7
100
AcDbPolyline
 90
        8
 70
     0
 43
0.0098425196850394
 10
10.23326771653543
 20
6.969488188976377
 10
10.21555118110236
 20
6.950787401574802
 10
10.18011811023622
 20
6.950787401574802
 10
10.16240157480314
 20
6.969488188976377
 10
10.16240157480314
 20
7.02263779527559
 10
10.18011811023622
 20
7.040354330708661
 10
10.21555118110236
 20
7.040354330708661
 10
10.23425196850393
 20
7.02263779527559
  0
LINE
  5
1E43
330
1E
100
AcDbEntity
  8
7
100
AcDbLine
 10
10.26082677165354
 20
6.950787401574802
 30
0.0
 11
10.26082677165354
 21
7.040354330708661
 31
0.0
  0
LINE
  5
1E44
330
1E
100
AcDbEntity
  8
7
100
AcDbLine
 10
10.33169291338582
 20
6.996062992125984
 30
0.0
 11
10.26082677165354
 21
6.996062992125984
 31
0.0
  0
LINE
  5
1E45
330
1E
100
AcDbEntity
  8
7
100
AcDbLine
 10
10.33169291338582
 20
6.950787401574802
 30
0.0
 11
10.33169291338582
 21
7.040354330708661
 31
0.0
  0
LWPOLYLINE
  5
1E46
330
1E
100
AcDbEntity
  8
7
100
AcDbPolyline
 90
        4
 70
     0
 43
0.0098425196850394
 10
2.170275590551181
 20
7.558070866141732
 10
2.125984251968504
 20
7.558070866141732
 10
2.125984251968504
 20
7.389763779527559
 10
2.170275590551181
 20
7.389763779527559
  0
LWPOLYLINE
  5
1E4C
330
1E
100
AcDbEntity
  8
7
100
AcDbPolyline
 90
        4
 70
     0
 43
0.0098425196850394
 10
2.640748031496062
 20
7.389763779527559
 10
2.686023622047243
 20
7.389763779527559
 10
2.686023622047243
 20
7.558070866141732
 10
2.640748031496062
 20
7.558070866141732
  0
LINE
  5
1E52
330
1E
100
AcDbEntity
  8
3
100
AcDbLine
 10
1.308070866141732
 20
7.146653543307087
 30
0.0
 11
1.308070866141732
 21
7.817913385826771
 31
0.0
  0
LINE
  5
1E53
330
1E
100
AcDbEntity
  8
3
100
AcDbLine
 10
3.502952755905512
 20
7.146653543307087
 30
0.0
 11
3.502952755905512
 21
7.817913385826771
 31
0.0
  0
LINE
  5
1E54
330
1E
100
AcDbEntity
  8
3
100
AcDbLine
 10
1.308070866141732
 20
7.692913385826771
 30
0.0
 11
2.062992125984251
 21
7.692913385826771
 31
0.0
  0
LINE
  5
1E55
330
1E
100
AcDbEntity
  8
3
100
AcDbLine
 10
3.502952755905512
 20
7.692913385826771
 30
0.0
 11
2.669291338582677
 21
7.692913385826771
 31
0.0
  0
LWPOLYLINE
  5
1E56
330
1E
100
AcDbEntity
  8
7
100
AcDbPolyline
 90
        3
 70
     0
 43
0.0098425196850394
 10
2.163385826771653
 20
7.729330708661417
 10
2.170275590551181
 20
7.737204724409449
 10
2.170275590551181
 20
7.64763779527559
  0
LINE
  5
1E5B
330
1E
100
AcDbEntity
  8
7
100
AcDbLine
 10
2.159448818897637
 20
7.64763779527559
 30
0.0
 11
2.182086614173228
 21
7.64763779527559
 31
0.0
  0
LWPOLYLINE
  5
1E5C
330
1E
100
AcDbEntity
  8
7
100
AcDbPolyline
 90
        3
 70
     0
 43
0.0098425196850394
 10
2.258858267716535
 20
7.64763779527559
 10
2.304133858267716
 20
7.737204724409449
 10
2.233267716535433
 20
7.737204724409449
  0
LWPOLYLINE
  5
1E61
330
1E
100
AcDbEntity
  8
7
100
AcDbPolyline
 90
        5
 70
     0
 43
0.0098425196850394
 10
2.357283464566929
 20
7.64763779527559
 10
2.375
 20
7.64763779527559
 10
2.375
 20
7.666338582677165
 10
2.357283464566929
 20
7.666338582677165
 10
2.357283464566929
 20
7.64763779527559
  0
LINE
  5
1E68
330
1E
100
AcDbEntity
  8
7
100
AcDbLine
 10
2.428149606299212
 20
7.656496062992125
 30
0.0
 11
2.445866141732283
 21
7.64763779527559
 31
0.0
  0
LWPOLYLINE
  5
1E69
330
1E
100
AcDbEntity
  8
7
100
AcDbPolyline
 90
        9
 70
     0
 43
0.0098425196850394
 10
2.445866141732283
 20
7.64763779527559
 10
2.482283464566929
 20
7.64763779527559
 10
2.5
 20
7.656496062992125
 10
2.5
 20
7.691929133858267
 10
2.482283464566929
 20
7.701771653543307
 10
2.445866141732283
 20
7.701771653543307
 10
2.428149606299212
 20
7.692913385826771
 10
2.428149606299212
 20
7.737204724409449
 10
2.5
 20
7.737204724409449
  0
LWPOLYLINE
  5
1E74
330
1E
100
AcDbEntity
  8
7
100
AcDbPolyline
 90
        7
 70
     0
 43
0.0098425196850394
 10
2.52755905511811
 20
7.684055118110236
 10
2.544291338582677
 20
7.701771653543307
 10
2.580708661417323
 20
7.701771653543307
 10
2.598425196850393
 20
7.684055118110236
 10
2.598425196850393
 20
7.666338582677165
 10
2.580708661417323
 20
7.64763779527559
 10
2.544291338582677
 20
7.64763779527559
  0
LWPOLYLINE
  5
1E7D
330
1E
100
AcDbEntity
  8
7
100
AcDbPolyline
 90
        6
 70
     0
 43
0.0098425196850394
 10
2.544291338582677
 20
7.64763779527559
 10
2.52755905511811
 20
7.666338582677165
 10
2.52755905511811
 20
7.719488188976377
 10
2.544291338582677
 20
7.737204724409449
 10
2.580708661417323
 20
7.737204724409449
 10
2.598425196850393
 20
7.719488188976377
  0
LWPOLYLINE
  5
1E85
330
1E
100
AcDbEntity
  8
7
100
AcDbPolyline
 90
        4
 70
     0
 43
0.0098425196850394
 10
2.24507874015748
 20
7.464566929133858
 10
2.174212598425196
 20
7.464566929133858
 10
2.227362204724409
 20
7.517716535433071
 10
2.227362204724409
 20
7.429133858267716
  0
LWPOLYLINE
  5
1E8B
330
1E
100
AcDbEntity
  8
7
100
AcDbPolyline
 90
        4
 70
     0
 43
0.0098425196850394
 10
2.343503937007874
 20
7.464566929133858
 10
2.27263779527559
 20
7.464566929133858
 10
2.325787401574803
 20
7.517716535433071
 10
2.325787401574803
 20
7.429133858267716
  0
LWPOLYLINE
  5
1E91
330
1E
100
AcDbEntity
  8
7
100
AcDbPolyline
 90
       12
 70
     0
 43
0.0098425196850394
 10
2.37007874015748
 20
7.464566929133858
 10
2.386811023622047
 20
7.482283464566928
 10
2.424212598425196
 20
7.482283464566928
 10
2.441929133858267
 20
7.464566929133858
 10
2.441929133858267
 20
7.446850393700787
 10
2.424212598425196
 20
7.429133858267716
 10
2.386811023622047
 20
7.429133858267716
 10
2.37007874015748
 20
7.446850393700787
 10
2.37007874015748
 20
7.5
 10
2.386811023622047
 20
7.517716535433071
 10
2.424212598425196
 20
7.517716535433071
 10
2.441929133858267
 20
7.5
  0
LWPOLYLINE
  5
1E9F
330
1E
100
AcDbEntity
  8
7
100
AcDbPolyline
 90
        3
 70
     0
 43
0.0098425196850394
 10
2.49507874015748
 20
7.429133858267716
 10
2.512795275590551
 20
7.429133858267716
 10
2.512795275590551
 20
7.446850393700787
  0
LWPOLYLINE
  5
1EA4
330
1E
100
AcDbEntity
  8
7
100
AcDbPolyline
 90
        3
 70
     0
 43
0.0098425196850394
 10
2.512795275590551
 20
7.446850393700787
 10
2.49507874015748
 20
7.446850393700787
 10
2.49507874015748
 20
7.429133858267716
  0
LWPOLYLINE
  5
1EA9
330
1E
100
AcDbEntity
  8
7
100
AcDbPolyline
 90
       13
 70
     0
 43
0.0098425196850394
 10
2.610236220472441
 20
7.429133858267716
 10
2.627952755905512
 20
7.437992125984251
 10
2.637795275590551
 20
7.464566929133858
 10
2.637795275590551
 20
7.482283464566928
 10
2.627952755905512
 20
7.509842519685039
 10
2.610236220472441
 20
7.517716535433071
 10
2.59251968503937
 20
7.517716535433071
 10
2.574803149606299
 20
7.509842519685039
 10
2.565944881889763
 20
7.482283464566928
 10
2.566929133858267
 20
7.464566929133858
 10
2.574803149606299
 20
7.437992125984251
 10
2.59251968503937
 20
7.429133858267716
 10
2.610236220472441
 20
7.429133858267716
  0
LWPOLYLINE
  5
1EB8
330
1E
100
AcDbEntity
  8
3
100
AcDbPolyline
 90
        4
 70
     0
 43
0.0098425196850394
 10
1.308070866141732
 20
7.692913385826771
 10
1.39763779527559
 20
7.669291338582676
 10
1.39763779527559
 20
7.71751968503937
 10
1.308070866141732
 20
7.692913385826771
  0
LINE
  5
1EBE
330
1E
100
AcDbEntity
  8
3
100
AcDbLine
 10
1.39763779527559
 20
7.671259842519685
 30
0.0
 11
1.389763779527559
 21
7.671259842519685
 31
0.0
  0
LINE
  5
1EBF
330
1E
100
AcDbEntity
  8
3
100
AcDbLine
 10
1.39763779527559
 20
7.673228346456692
 30
0.0
 11
1.382874015748031
 21
7.673228346456692
 31
0.0
  0
LINE
  5
1EC0
330
1E
100
AcDbEntity
  8
3
100
AcDbLine
 10
1.39763779527559
 20
7.6751968503937
 30
0.0
 11
1.375
 21
7.6751968503937
 31
0.0
  0
LINE
  5
1EC1
330
1E
100
AcDbEntity
  8
3
100
AcDbLine
 10
1.39763779527559
 20
7.677165354330708
 30
0.0
 11
1.368110236220472
 21
7.677165354330708
 31
0.0
  0
LINE
  5
1EC2
330
1E
100
AcDbEntity
  8
3
100
AcDbLine
 10
1.39763779527559
 20
7.679133858267716
 30
0.0
 11
1.36023622047244
 21
7.679133858267716
 31
0.0
  0
LINE
  5
1EC3
330
1E
100
AcDbEntity
  8
3
100
AcDbLine
 10
1.39763779527559
 20
7.681102362204724
 30
0.0
 11
1.352362204724409
 21
7.681102362204724
 31
0.0
  0
LINE
  5
1EC4
330
1E
100
AcDbEntity
  8
3
100
AcDbLine
 10
1.39763779527559
 20
7.683070866141732
 30
0.0
 11
1.345472440944881
 21
7.683070866141732
 31
0.0
  0
LINE
  5
1EC5
330
1E
100
AcDbEntity
  8
3
100
AcDbLine
 10
1.39763779527559
 20
7.685039370078739
 30
0.0
 11
1.33759842519685
 21
7.685039370078739
 31
0.0
  0
LINE
  5
1EC6
330
1E
100
AcDbEntity
  8
3
100
AcDbLine
 10
1.39763779527559
 20
7.687007874015748
 30
0.0
 11
1.330708661417322
 21
7.687007874015748
 31
0.0
  0
LINE
  5
1EC7
330
1E
100
AcDbEntity
  8
3
100
AcDbLine
 10
1.39763779527559
 20
7.688976377952755
 30
0.0
 11
1.322834645669291
 21
7.688976377952755
 31
0.0
  0
LINE
  5
1EC8
330
1E
100
AcDbEntity
  8
3
100
AcDbLine
 10
1.39763779527559
 20
7.690944881889763
 30
0.0
 11
1.315944881889763
 21
7.690944881889763
 31
0.0
  0
LINE
  5
1EC9
330
1E
100
AcDbEntity
  8
3
100
AcDbLine
 10
1.39763779527559
 20
7.692913385826771
 30
0.0
 11
1.308070866141732
 21
7.692913385826771
 31
0.0
  0
LINE
  5
1ECA
330
1E
100
AcDbEntity
  8
3
100
AcDbLine
 10
1.39763779527559
 20
7.715551181102362
 30
0.0
 11
1.389763779527559
 21
7.715551181102362
 31
0.0
  0
LINE
  5
1ECB
330
1E
100
AcDbEntity
  8
3
100
AcDbLine
 10
1.39763779527559
 20
7.713582677165354
 30
0.0
 11
1.382874015748031
 21
7.713582677165354
 31
0.0
  0
LINE
  5
1ECC
330
1E
100
AcDbEntity
  8
3
100
AcDbLine
 10
1.39763779527559
 20
7.710629921259842
 30
0.0
 11
1.375
 21
7.710629921259842
 31
0.0
  0
LINE
  5
1ECD
330
1E
100
AcDbEntity
  8
3
100
AcDbLine
 10
1.39763779527559
 20
7.708661417322834
 30
0.0
 11
1.368110236220472
 21
7.708661417322834
 31
0.0
  0
LINE
  5
1ECE
330
1E
100
AcDbEntity
  8
3
100
AcDbLine
 10
1.39763779527559
 20
7.706692913385826
 30
0.0
 11
1.36023622047244
 21
7.706692913385826
 31
0.0
  0
LINE
  5
1ECF
330
1E
100
AcDbEntity
  8
3
100
AcDbLine
 10
1.39763779527559
 20
7.704724409448818
 30
0.0
 11
1.352362204724409
 21
7.704724409448818
 31
0.0
  0
LINE
  5
1ED0
330
1E
100
AcDbEntity
  8
3
100
AcDbLine
 10
1.39763779527559
 20
7.702755905511811
 30
0.0
 11
1.345472440944881
 21
7.702755905511811
 31
0.0
  0
LINE
  5
1ED1
330
1E
100
AcDbEntity
  8
3
100
AcDbLine
 10
1.39763779527559
 20
7.700787401574802
 30
0.0
 11
1.33759842519685
 21
7.700787401574802
 31
0.0
  0
LINE
  5
1ED2
330
1E
100
AcDbEntity
  8
3
100
AcDbLine
 10
1.39763779527559
 20
7.698818897637795
 30
0.0
 11
1.330708661417322
 21
7.698818897637795
 31
0.0
  0
LINE
  5
1ED3
330
1E
100
AcDbEntity
  8
3
100
AcDbLine
 10
1.39763779527559
 20
7.696850393700787
 30
0.0
 11
1.322834645669291
 21
7.696850393700787
 31
0.0
  0
LINE
  5
1ED4
330
1E
100
AcDbEntity
  8
3
100
AcDbLine
 10
1.39763779527559
 20
7.694881889763779
 30
0.0
 11
1.315944881889763
 21
7.694881889763779
 31
0.0
  0
LINE
  5
1ED5
330
1E
100
AcDbEntity
  8
3
100
AcDbLine
 10
1.39763779527559
 20
7.692913385826771
 30
0.0
 11
1.308070866141732
 21
7.692913385826771
 31
0.0
  0
LWPOLYLINE
  5
1ED6
330
1E
100
AcDbEntity
  8
3
100
AcDbPolyline
 90
        4
 70
     0
 43
0.0098425196850394
 10
3.502952755905512
 20
7.692913385826771
 10
3.413385826771653
 20
7.71751968503937
 10
3.413385826771653
 20
7.669291338582676
 10
3.502952755905512
 20
7.692913385826771
  0
LINE
  5
1EDC
330
1E
100
AcDbEntity
  8
3
100
AcDbLine
 10
3.413385826771653
 20
7.715551181102362
 30
0.0
 11
3.421259842519685
 21
7.715551181102362
 31
0.0
  0
LINE
  5
1EDD
330
1E
100
AcDbEntity
  8
3
100
AcDbLine
 10
3.413385826771653
 20
7.713582677165354
 30
0.0
 11
3.428149606299212
 21
7.713582677165354
 31
0.0
  0
LINE
  5
1EDE
330
1E
100
AcDbEntity
  8
3
100
AcDbLine
 10
3.413385826771653
 20
7.710629921259842
 30
0.0
 11
3.436023622047243
 21
7.710629921259842
 31
0.0
  0
LINE
  5
1EDF
330
1E
100
AcDbEntity
  8
3
100
AcDbLine
 10
3.413385826771653
 20
7.708661417322834
 30
0.0
 11
3.442913385826771
 21
7.708661417322834
 31
0.0
  0
LINE
  5
1EE0
330
1E
100
AcDbEntity
  8
3
100
AcDbLine
 10
3.413385826771653
 20
7.706692913385826
 30
0.0
 11
3.450787401574803
 21
7.706692913385826
 31
0.0
  0
LINE
  5
1EE1
330
1E
100
AcDbEntity
  8
3
100
AcDbLine
 10
3.413385826771653
 20
7.704724409448818
 30
0.0
 11
3.458661417322834
 21
7.704724409448818
 31
0.0
  0
LINE
  5
1EE2
330
1E
100
AcDbEntity
  8
3
100
AcDbLine
 10
3.413385826771653
 20
7.702755905511811
 30
0.0
 11
3.465551181102362
 21
7.702755905511811
 31
0.0
  0
LINE
  5
1EE3
330
1E
100
AcDbEntity
  8
3
100
AcDbLine
 10
3.413385826771653
 20
7.700787401574802
 30
0.0
 11
3.473425196850393
 21
7.700787401574802
 31
0.0
  0
LINE
  5
1EE4
330
1E
100
AcDbEntity
  8
3
100
AcDbLine
 10
3.413385826771653
 20
7.698818897637795
 30
0.0
 11
3.480314960629921
 21
7.698818897637795
 31
0.0
  0
LINE
  5
1EE5
330
1E
100
AcDbEntity
  8
3
100
AcDbLine
 10
3.413385826771653
 20
7.696850393700787
 30
0.0
 11
3.488188976377952
 21
7.696850393700787
 31
0.0
  0
LINE
  5
1EE6
330
1E
100
AcDbEntity
  8
3
100
AcDbLine
 10
3.413385826771653
 20
7.694881889763779
 30
0.0
 11
3.496062992125984
 21
7.694881889763779
 31
0.0
  0
LINE
  5
1EE7
330
1E
100
AcDbEntity
  8
3
100
AcDbLine
 10
3.413385826771653
 20
7.692913385826771
 30
0.0
 11
3.502952755905512
 21
7.692913385826771
 31
0.0
  0
LINE
  5
1EE8
330
1E
100
AcDbEntity
  8
3
100
AcDbLine
 10
3.413385826771653
 20
7.671259842519685
 30
0.0
 11
3.421259842519685
 21
7.671259842519685
 31
0.0
  0
LINE
  5
1EE9
330
1E
100
AcDbEntity
  8
3
100
AcDbLine
 10
3.413385826771653
 20
7.673228346456692
 30
0.0
 11
3.428149606299212
 21
7.673228346456692
 31
0.0
  0
LINE
  5
1EEA
330
1E
100
AcDbEntity
  8
3
100
AcDbLine
 10
3.413385826771653
 20
7.6751968503937
 30
0.0
 11
3.436023622047243
 21
7.6751968503937
 31
0.0
  0
LINE
  5
1EEB
330
1E
100
AcDbEntity
  8
3
100
AcDbLine
 10
3.413385826771653
 20
7.677165354330708
 30
0.0
 11
3.442913385826771
 21
7.677165354330708
 31
0.0
  0
LINE
  5
1EEC
330
1E
100
AcDbEntity
  8
3
100
AcDbLine
 10
3.413385826771653
 20
7.679133858267716
 30
0.0
 11
3.450787401574803
 21
7.679133858267716
 31
0.0
  0
LINE
  5
1EED
330
1E
100
AcDbEntity
  8
3
100
AcDbLine
 10
3.413385826771653
 20
7.681102362204724
 30
0.0
 11
3.458661417322834
 21
7.681102362204724
 31
0.0
  0
LINE
  5
1EEE
330
1E
100
AcDbEntity
  8
3
100
AcDbLine
 10
3.413385826771653
 20
7.683070866141732
 30
0.0
 11
3.465551181102362
 21
7.683070866141732
 31
0.0
  0
LINE
  5
1EEF
330
1E
100
AcDbEntity
  8
3
100
AcDbLine
 10
3.413385826771653
 20
7.685039370078739
 30
0.0
 11
3.473425196850393
 21
7.685039370078739
 31
0.0
  0
LINE
  5
1EF0
330
1E
100
AcDbEntity
  8
3
100
AcDbLine
 10
3.413385826771653
 20
7.687007874015748
 30
0.0
 11
3.480314960629921
 21
7.687007874015748
 31
0.0
  0
LINE
  5
1EF1
330
1E
100
AcDbEntity
  8
3
100
AcDbLine
 10
3.413385826771653
 20
7.688976377952755
 30
0.0
 11
3.488188976377952
 21
7.688976377952755
 31
0.0
  0
LINE
  5
1EF2
330
1E
100
AcDbEntity
  8
3
100
AcDbLine
 10
3.413385826771653
 20
7.690944881889763
 30
0.0
 11
3.496062992125984
 21
7.690944881889763
 31
0.0
  0
LINE
  5
1EF3
330
1E
100
AcDbEntity
  8
3
100
AcDbLine
 10
3.413385826771653
 20
7.692913385826771
 30
0.0
 11
3.502952755905512
 21
7.692913385826771
 31
0.0
  0
LINE
  5
1EF4
330
1E
100
AcDbEntity
  8
7
100
AcDbLine
 10
7.603346456692912
 20
7.770669291338582
 30
0.0
 11
10.4271653543307
 21
7.770669291338582
 31
0.0
  0
LWPOLYLINE
  5
1EF5
330
1E
100
AcDbEntity
  8
7
100
AcDbPolyline
 90
        4
 70
     0
 43
0.0098425196850394
 10
10.4271653543307
 20
7.770669291338582
 10
10.4271653543307
 20
6.84251968503937
 10
7.603346456692912
 20
6.84251968503937
 10
7.603346456692912
 20
7.770669291338582
  0
LINE
  5
1EFB
330
1E
100
AcDbEntity
  8
7
100
AcDbLine
 10
9.015748031496062
 20
7.770669291338582
 30
0.0
 11
9.015748031496062
 21
6.84251968503937
 31
0.0
  0
LINE
  5
1EFC
330
1E
100
AcDbEntity
  8
7
100
AcDbLine
 10
7.603346456692912
 20
7.306102362204724
 30
0.0
 11
10.4271653543307
 21
7.306102362204724
 31
0.0
  0
LWPOLYLINE
  5
1EFD
330
1E
100
AcDbEntity
  8
7
100
AcDbPolyline
 90
        5
 70
     0
 43
0.0098425196850394
 10
7.775590551181102
 20
7.483267716535433
 10
7.775590551181102
 20
7.571850393700787
 10
7.828740157480314
 20
7.571850393700787
 10
7.846456692913386
 20
7.562992125984251
 10
7.846456692913386
 20
7.536417322834645
  0
LWPOLYLINE
  5
1F04
330
1E
100
AcDbEntity
  8
7
100
AcDbPolyline
 90
        3
 70
     0
 43
0.0098425196850394
 10
7.846456692913386
 20
7.536417322834645
 10
7.827755905511811
 20
7.52755905511811
 10
7.775590551181102
 20
7.52755905511811
  0
LWPOLYLINE
  5
1F09
330
1E
100
AcDbEntity
  8
7
100
AcDbPolyline
 90
        3
 70
     0
 43
0.0098425196850394
 10
7.874015748031496
 20
7.483267716535433
 10
7.909448818897637
 20
7.571850393700787
 10
7.944881889763779
 20
7.483267716535433
  0
LINE
  5
1F0E
330
1E
100
AcDbEntity
  8
7
100
AcDbLine
 10
7.891732283464566
 20
7.52755905511811
 30
0.0
 11
7.927165354330708
 21
7.52755905511811
 31
0.0
  0
LWPOLYLINE
  5
1F0F
330
1E
100
AcDbEntity
  8
7
100
AcDbPolyline
 90
        4
 70
     0
 43
0.0098425196850394
 10
7.971456692913386
 20
7.483267716535433
 10
7.971456692913386
 20
7.571850393700787
 10
8.043307086614172
 20
7.483267716535433
 10
8.043307086614172
 20
7.571850393700787
  0
LWPOLYLINE
  5
1F15
330
1E
100
AcDbEntity
  8
7
100
AcDbPolyline
 90
        7
 70
     0
 43
0.0098425196850394
 10
8.069881889763777
 20
7.483267716535433
 10
8.122047244094487
 20
7.483267716535433
 10
8.140748031496062
 20
7.500984251968503
 10
8.140748031496062
 20
7.554133858267716
 10
8.122047244094487
 20
7.571850393700787
 10
8.069881889763777
 20
7.571850393700787
 10
8.069881889763777
 20
7.483267716535433
  0
LWPOLYLINE
  5
1F1E
330
1E
100
AcDbEntity
  8
7
100
AcDbPolyline
 90
        6
 70
     0
 43
0.0098425196850394
 10
8.168307086614172
 20
7.571850393700787
 10
8.168307086614172
 20
7.500984251968503
 10
8.185039370078738
 20
7.483267716535433
 10
8.220472440944881
 20
7.483267716535433
 10
8.239173228346455
 20
7.500984251968503
 10
8.239173228346455
 20
7.571850393700787
  0
LINE
  5
1F26
330
1E
100
AcDbEntity
  8
7
100
AcDbLine
 10
8.292322834645668
 20
7.483267716535433
 30
0.0
 11
8.310039370078738
 21
7.483267716535433
 31
0.0
  0
LINE
  5
1F27
330
1E
100
AcDbEntity
  8
7
100
AcDbLine
 10
8.301181102362203
 20
7.571850393700787
 30
0.0
 11
8.301181102362203
 21
7.483267716535433
 31
0.0
  0
LINE
  5
1F28
330
1E
100
AcDbEntity
  8
7
100
AcDbLine
 10
8.292322834645668
 20
7.571850393700787
 30
0.0
 11
8.310039370078738
 21
7.571850393700787
 31
0.0
  0
LINE
  5
1F29
330
1E
100
AcDbEntity
  8
7
100
AcDbLine
 10
8.399606299212598
 20
7.571850393700787
 30
0.0
 11
8.399606299212598
 21
7.483267716535433
 31
0.0
  0
LINE
  5
1F2A
330
1E
100
AcDbEntity
  8
7
100
AcDbLine
 10
8.435039370078738
 20
7.571850393700787
 30
0.0
 11
8.364173228346455
 21
7.571850393700787
 31
0.0
  0
LWPOLYLINE
  5
1F2B
330
1E
100
AcDbEntity
  8
7
100
AcDbPolyline
 90
        4
 70
     0
 43
0.0098425196850394
 10
8.560039370078738
 20
7.483267716535433
 10
8.560039370078738
 20
7.571850393700787
 10
8.613188976377951
 20
7.571850393700787
 10
8.630905511811022
 20
7.562992125984251
  0
LWPOLYLINE
  5
1F31
330
1E
100
AcDbEntity
  8
7
100
AcDbPolyline
 90
        4
 70
     0
 43
0.0098425196850394
 10
8.630905511811022
 20
7.562992125984251
 10
8.630905511811022
 20
7.536417322834645
 10
8.612204724409448
 20
7.52755905511811
 10
8.560039370078738
 20
7.52755905511811
  0
LINE
  5
1F37
330
1E
100
AcDbEntity
  8
7
100
AcDbLine
 10
8.729330708661416
 20
7.571850393700787
 30
0.0
 11
8.658464566929133
 21
7.483267716535433
 31
0.0
  0
LWPOLYLINE
  5
1F38
330
1E
100
AcDbEntity
  8
7
100
AcDbPolyline
 90
        4
 70
     0
 43
0.0098425196850394
 10
8.755905511811022
 20
7.483267716535433
 10
8.755905511811022
 20
7.571850393700787
 10
8.827755905511809
 20
7.483267716535433
 10
8.827755905511809
 20
7.571850393700787
  0
LWPOLYLINE
  5
1F3E
330
1E
100
AcDbEntity
  8
7
100
AcDbPolyline
 90
        4
 70
     0
 43
0.0098425196850394
 10
9.437992125984251
 20
7.571850393700787
 10
9.455708661417322
 20
7.483267716535433
 10
9.473425196850392
 20
7.571850393700787
 10
9.492125984251966
 20
7.483267716535433
  0
LINE
  5
1F44
330
1E
100
AcDbEntity
  8
7
100
AcDbLine
 10
9.492125984251966
 20
7.483267716535433
 30
0.0
 11
9.509842519685038
 21
7.571850393700787
 31
0.0
  0
LWPOLYLINE
  5
1F45
330
1E
100
AcDbEntity
  8
7
100
AcDbPolyline
 90
        4
 70
     0
 43
0.0098425196850394
 10
9.607283464566927
 20
7.483267716535433
 10
9.536417322834644
 20
7.483267716535433
 10
9.536417322834644
 20
7.571850393700787
 10
9.607283464566927
 20
7.571850393700787
  0
LINE
  5
1F4B
330
1E
100
AcDbEntity
  8
7
100
AcDbLine
 10
9.589566929133857
 20
7.52755905511811
 30
0.0
 11
9.536417322834644
 21
7.52755905511811
 31
0.0
  0
LINE
  5
1F4C
330
1E
100
AcDbEntity
  8
7
100
AcDbLine
 10
9.66043307086614
 20
7.483267716535433
 30
0.0
 11
9.678149606299211
 21
7.483267716535433
 31
0.0
  0
LINE
  5
1F4D
330
1E
100
AcDbEntity
  8
7
100
AcDbLine
 10
9.670275590551179
 20
7.571850393700787
 30
0.0
 11
9.670275590551179
 21
7.483267716535433
 31
0.0
  0
LINE
  5
1F4E
330
1E
100
AcDbEntity
  8
7
100
AcDbLine
 10
9.66043307086614
 20
7.571850393700787
 30
0.0
 11
9.678149606299211
 21
7.571850393700787
 31
0.0
  0
LWPOLYLINE
  5
1F4F
330
1E
100
AcDbEntity
  8
7
100
AcDbPolyline
 90
       10
 70
     0
 43
0.0098425196850394
 10
9.76771653543307
 20
7.52755905511811
 10
9.804133858267714
 20
7.52755905511811
 10
9.804133858267714
 20
7.500984251968503
 10
9.786417322834644
 20
7.483267716535433
 10
9.749015748031494
 20
7.483267716535433
 10
9.731299212598424
 20
7.500984251968503
 10
9.731299212598424
 20
7.554133858267716
 10
9.749999999999998
 20
7.571850393700787
 10
9.78543307086614
 20
7.571850393700787
 10
9.803149606299211
 20
7.554133858267716
  0
LINE
  5
1F5B
330
1E
100
AcDbEntity
  8
7
100
AcDbLine
 10
9.830708661417322
 20
7.483267716535433
 30
0.0
 11
9.830708661417322
 21
7.571850393700787
 31
0.0
  0
LINE
  5
1F5C
330
1E
100
AcDbEntity
  8
7
100
AcDbLine
 10
9.901574803149605
 20
7.52755905511811
 30
0.0
 11
9.830708661417322
 21
7.52755905511811
 31
0.0
  0
LINE
  5
1F5D
330
1E
100
AcDbEntity
  8
7
100
AcDbLine
 10
9.901574803149605
 20
7.483267716535433
 30
0.0
 11
9.901574803149605
 21
7.571850393700787
 31
0.0
  0
LINE
  5
1F5E
330
1E
100
AcDbEntity
  8
7
100
AcDbLine
 10
9.964566929133857
 20
7.571850393700787
 30
0.0
 11
9.964566929133857
 21
7.483267716535433
 31
0.0
  0
LINE
  5
1F5F
330
1E
100
AcDbEntity
  8
7
100
AcDbLine
 10
9.999999999999998
 20
7.571850393700787
 30
0.0
 11
9.929133858267714
 21
7.571850393700787
 31
0.0
  0
LWPOLYLINE
  5
1F60
330
1E
100
AcDbEntity
  8
7
100
AcDbPolyline
 90
        4
 70
     0
 43
0.0098425196850394
 10
0.5413385826771654
 20
6.150590551181102
 10
0.4960629921259843
 20
6.150590551181102
 10
0.4960629921259843
 20
5.982283464566929
 10
0.5413385826771654
 20
5.982283464566929
  0
LWPOLYLINE
  5
1F66
330
1E
100
AcDbEntity
  8
7
100
AcDbPolyline
 90
        4
 70
     0
 43
0.0098425196850394
 10
1.010826771653543
 20
5.982283464566929
 10
1.056102362204724
 20
5.982283464566929
 10
1.056102362204724
 20
6.150590551181102
 10
1.010826771653543
 20
6.150590551181102
  0
LINE
  5
1F6C
330
1E
100
AcDbEntity
  8
3
100
AcDbLine
 10
1.260826771653543
 20
7.103346456692912
 30
0.0
 11
0.6122047244094489
 21
7.103346456692912
 31
0.0
  0
LINE
  5
1F6D
330
1E
100
AcDbEntity
  8
3
100
AcDbLine
 10
1.288385826771653
 20
5.209645669291338
 30
0.0
 11
0.6122047244094489
 21
5.209645669291338
 31
0.0
  0
LINE
  5
1F6E
330
1E
100
AcDbEntity
  8
3
100
AcDbLine
 10
0.7372047244094489
 20
7.103346456692912
 30
0.0
 11
0.7372047244094489
 21
6.393700787401574
 31
0.0
  0
LINE
  5
1F6F
330
1E
100
AcDbEntity
  8
3
100
AcDbLine
 10
0.7372047244094489
 20
5.209645669291338
 30
0.0
 11
0.7372047244094489
 21
5.919291338582676
 31
0.0
  0
LWPOLYLINE
  5
1F70
330
1E
100
AcDbEntity
  8
7
100
AcDbPolyline
 90
        3
 70
     0
 43
0.0098425196850394
 10
0.5334645669291338
 20
6.322834645669291
 10
0.5413385826771654
 20
6.329724409448818
 10
0.5413385826771654
 20
6.241141732283464
  0
LINE
  5
1F75
330
1E
100
AcDbEntity
  8
7
100
AcDbLine
 10
0.5295275590551181
 20
6.241141732283464
 30
0.0
 11
0.5521653543307087
 21
6.241141732283464
 31
0.0
  0
LWPOLYLINE
  5
1F76
330
1E
100
AcDbEntity
  8
7
100
AcDbPolyline
 90
        6
 70
     0
 43
0.0098425196850394
 10
0.6023622047244095
 20
6.249015748031496
 10
0.6200787401574804
 20
6.241141732283464
 10
0.65748031496063
 20
6.241141732283464
 10
0.6751968503937009
 20
6.249015748031496
 10
0.6751968503937009
 20
6.285433070866141
 10
0.65748031496063
 20
6.294291338582676
  0
LWPOLYLINE
  5
1F7E
330
1E
100
AcDbEntity
  8
7
100
AcDbPolyline
 90
        5
 70
     0
 43
0.0098425196850394
 10
0.65748031496063
 20
6.294291338582676
 10
0.6200787401574804
 20
6.294291338582676
 10
0.6023622047244095
 20
6.286417322834645
 10
0.6023622047244095
 20
6.329724409448818
 10
0.6751968503937009
 20
6.329724409448818
  0
LWPOLYLINE
  5
1F85
330
1E
100
AcDbEntity
  8
7
100
AcDbPolyline
 90
        5
 70
     0
 43
0.0098425196850394
 10
0.7283464566929135
 20
6.241141732283464
 10
0.7460629921259843
 20
6.241141732283464
 10
0.7460629921259843
 20
6.258858267716535
 10
0.7283464566929135
 20
6.258858267716535
 10
0.7283464566929135
 20
6.241141732283464
  0
LWPOLYLINE
  5
1F8C
330
1E
100
AcDbEntity
  8
7
100
AcDbPolyline
 90
        3
 70
     0
 43
0.0098425196850394
 10
0.8277559055118109
 20
6.322834645669291
 10
0.8356299212598424
 20
6.329724409448818
 10
0.8356299212598424
 20
6.241141732283464
  0
LINE
  5
1F91
330
1E
100
AcDbEntity
  8
7
100
AcDbLine
 10
0.8238188976377951
 20
6.241141732283464
 30
0.0
 11
0.8464566929133859
 21
6.241141732283464
 31
0.0
  0
LWPOLYLINE
  5
1F92
330
1E
100
AcDbEntity
  8
7
100
AcDbPolyline
 90
       10
 70
     0
 43
0.0098425196850394
 10
0.8966535433070866
 20
6.249015748031496
 10
0.9143700787401575
 20
6.241141732283464
 10
0.9507874015748031
 20
6.241141732283464
 10
0.9694881889763779
 20
6.249015748031496
 10
0.9694881889763779
 20
6.285433070866141
 10
0.9507874015748031
 20
6.294291338582676
 10
0.9143700787401575
 20
6.294291338582676
 10
0.8966535433070866
 20
6.286417322834645
 10
0.8966535433070866
 20
6.329724409448818
 10
0.9694881889763779
 20
6.329724409448818
  0
LWPOLYLINE
  5
1F9E
330
1E
100
AcDbEntity
  8
7
100
AcDbPolyline
 90
        5
 70
     0
 43
0.0098425196850394
 10
0.5452755905511811
 20
6.030511811023622
 10
0.5620078740157481
 20
6.021653543307087
 10
0.5984251968503937
 20
6.021653543307087
 10
0.6161417322834647
 20
6.030511811023622
 10
0.6161417322834647
 20
6.057086614173228
  0
LWPOLYLINE
  5
1FA5
330
1E
100
AcDbEntity
  8
7
100
AcDbPolyline
 90
        3
 70
     0
 43
0.0098425196850394
 10
0.6161417322834647
 20
6.057086614173228
 10
0.5984251968503937
 20
6.066929133858267
 10
0.5708661417322835
 20
6.066929133858267
  0
LWPOLYLINE
  5
1FAA
330
1E
100
AcDbEntity
  8
7
100
AcDbPolyline
 90
        6
 70
     0
 43
0.0098425196850394
 10
0.5984251968503937
 20
6.066929133858267
 10
0.6161417322834647
 20
6.074803149606299
 10
0.6161417322834647
 20
6.102362204724409
 10
0.5984251968503937
 20
6.11023622047244
 10
0.5620078740157481
 20
6.11023622047244
 10
0.5442913385826773
 20
6.102362204724409
  0
LWPOLYLINE
  5
1FB2
330
1E
100
AcDbEntity
  8
7
100
AcDbPolyline
 90
        7
 70
     0
 43
0.0098425196850394
 10
0.6594488188976379
 20
6.066929133858267
 10
0.6427165354330709
 20
6.074803149606299
 10
0.6427165354330709
 20
6.102362204724409
 10
0.6594488188976379
 20
6.11023622047244
 10
0.6968503937007874
 20
6.11023622047244
 10
0.7145669291338584
 20
6.102362204724409
 10
0.7145669291338584
 20
6.074803149606299
  0
LWPOLYLINE
  5
1FBB
330
1E
100
AcDbEntity
  8
7
100
AcDbPolyline
 90
       10
 70
     0
 43
0.0098425196850394
 10
0.7145669291338584
 20
6.074803149606299
 10
0.6968503937007874
 20
6.066929133858267
 10
0.6594488188976379
 20
6.066929133858267
 10
0.6417322834645669
 20
6.057086614173228
 10
0.6417322834645669
 20
6.030511811023622
 10
0.6594488188976379
 20
6.021653543307087
 10
0.6968503937007874
 20
6.021653543307087
 10
0.7145669291338584
 20
6.030511811023622
 10
0.7145669291338584
 20
6.057086614173228
 10
0.6968503937007874
 20
6.066929133858267
  0
LWPOLYLINE
  5
1FC7
330
1E
100
AcDbEntity
  8
7
100
AcDbPolyline
 90
        4
 70
     0
 43
0.0098425196850394
 10
0.8120078740157479
 20
6.057086614173228
 10
0.7411417322834647
 20
6.057086614173228
 10
0.7942913385826773
 20
6.11023622047244
 10
0.7942913385826773
 20
6.021653543307087
  0
LWPOLYLINE
  5
1FCD
330
1E
100
AcDbEntity
  8
7
100
AcDbPolyline
 90
        5
 70
     0
 43
0.0098425196850394
 10
0.8651574803149607
 20
6.021653543307087
 10
0.8828740157480314
 20
6.021653543307087
 10
0.8828740157480314
 20
6.039370078740157
 10
0.8651574803149607
 20
6.039370078740157
 10
0.8651574803149607
 20
6.021653543307087
  0
LWPOLYLINE
  5
1FD4
330
1E
100
AcDbEntity
  8
7
100
AcDbPolyline
 90
        3
 70
     0
 43
0.0098425196850394
 10
0.9635826771653542
 20
6.021653543307087
 10
1.008858267716535
 20
6.11023622047244
 10
0.9370078740157479
 20
6.11023622047244
  0
LWPOLYLINE
  5
1FD9
330
1E
100
AcDbEntity
  8
3
100
AcDbPolyline
 90
        4
 70
     0
 43
0.0098425196850394
 10
0.7372047244094489
 20
7.103346456692912
 10
0.7125984251968505
 20
7.013779527559055
 10
0.7608267716535434
 20
7.013779527559055
 10
0.7372047244094489
 20
7.103346456692912
  0
LINE
  5
1FDF
330
1E
100
AcDbEntity
  8
3
100
AcDbLine
 10
0.7145669291338584
 20
7.013779527559055
 30
0.0
 11
0.7145669291338584
 21
7.021653543307087
 31
0.0
  0
LINE
  5
1FE0
330
1E
100
AcDbEntity
  8
3
100
AcDbLine
 10
0.7165354330708662
 20
7.013779527559055
 30
0.0
 11
0.7165354330708662
 21
7.028543307086613
 31
0.0
  0
LINE
  5
1FE1
330
1E
100
AcDbEntity
  8
3
100
AcDbLine
 10
0.7185039370078741
 20
7.013779527559055
 30
0.0
 11
0.7185039370078741
 21
7.036417322834645
 31
0.0
  0
LINE
  5
1FE2
330
1E
100
AcDbEntity
  8
3
100
AcDbLine
 10
0.720472440944882
 20
7.013779527559055
 30
0.0
 11
0.720472440944882
 21
7.043307086614173
 31
0.0
  0
LINE
  5
1FE3
330
1E
100
AcDbEntity
  8
3
100
AcDbLine
 10
0.7224409448818899
 20
7.013779527559055
 30
0.0
 11
0.7224409448818899
 21
7.051181102362204
 31
0.0
  0
LINE
  5
1FE4
330
1E
100
AcDbEntity
  8
3
100
AcDbLine
 10
0.7244094488188977
 20
7.013779527559055
 30
0.0
 11
0.7244094488188977
 21
7.058070866141732
 31
0.0
  0
LINE
  5
1FE5
330
1E
100
AcDbEntity
  8
3
100
AcDbLine
 10
0.7263779527559056
 20
7.013779527559055
 30
0.0
 11
0.7263779527559056
 21
7.065944881889763
 31
0.0
  0
LINE
  5
1FE6
330
1E
100
AcDbEntity
  8
3
100
AcDbLine
 10
0.7293307086614174
 20
7.013779527559055
 30
0.0
 11
0.7293307086614174
 21
7.073818897637795
 31
0.0
  0
LINE
  5
1FE7
330
1E
100
AcDbEntity
  8
3
100
AcDbLine
 10
0.7312992125984252
 20
7.013779527559055
 30
0.0
 11
0.7312992125984252
 21
7.080708661417323
 31
0.0
  0
LINE
  5
1FE8
330
1E
100
AcDbEntity
  8
3
100
AcDbLine
 10
0.7332677165354332
 20
7.013779527559055
 30
0.0
 11
0.7332677165354332
 21
7.088582677165354
 31
0.0
  0
LINE
  5
1FE9
330
1E
100
AcDbEntity
  8
3
100
AcDbLine
 10
0.735236220472441
 20
7.013779527559055
 30
0.0
 11
0.735236220472441
 21
7.095472440944881
 31
0.0
  0
LINE
  5
1FEA
330
1E
100
AcDbEntity
  8
3
100
AcDbLine
 10
0.7372047244094489
 20
7.013779527559055
 30
0.0
 11
0.7372047244094489
 21
7.103346456692912
 31
0.0
  0
LINE
  5
1FEB
330
1E
100
AcDbEntity
  8
3
100
AcDbLine
 10
0.7588582677165354
 20
7.013779527559055
 30
0.0
 11
0.7588582677165354
 21
7.021653543307087
 31
0.0
  0
LINE
  5
1FEC
330
1E
100
AcDbEntity
  8
3
100
AcDbLine
 10
0.7568897637795276
 20
7.013779527559055
 30
0.0
 11
0.7568897637795276
 21
7.028543307086613
 31
0.0
  0
LINE
  5
1FED
330
1E
100
AcDbEntity
  8
3
100
AcDbLine
 10
0.7549212598425197
 20
7.013779527559055
 30
0.0
 11
0.7549212598425197
 21
7.036417322834645
 31
0.0
  0
LINE
  5
1FEE
330
1E
100
AcDbEntity
  8
3
100
AcDbLine
 10
0.7529527559055119
 20
7.013779527559055
 30
0.0
 11
0.7529527559055119
 21
7.043307086614173
 31
0.0
  0
LINE
  5
1FEF
330
1E
100
AcDbEntity
  8
3
100
AcDbLine
 10
0.7509842519685039
 20
7.013779527559055
 30
0.0
 11
0.7509842519685039
 21
7.051181102362204
 31
0.0
  0
LINE
  5
1FF0
330
1E
100
AcDbEntity
  8
3
100
AcDbLine
 10
0.7490157480314961
 20
7.013779527559055
 30
0.0
 11
0.7490157480314961
 21
7.058070866141732
 31
0.0
  0
LINE
  5
1FF1
330
1E
100
AcDbEntity
  8
3
100
AcDbLine
 10
0.7470472440944882
 20
7.013779527559055
 30
0.0
 11
0.7470472440944882
 21
7.065944881889763
 31
0.0
  0
LINE
  5
1FF2
330
1E
100
AcDbEntity
  8
3
100
AcDbLine
 10
0.7450787401574804
 20
7.013779527559055
 30
0.0
 11
0.7450787401574804
 21
7.073818897637795
 31
0.0
  0
LINE
  5
1FF3
330
1E
100
AcDbEntity
  8
3
100
AcDbLine
 10
0.7431102362204724
 20
7.013779527559055
 30
0.0
 11
0.7431102362204724
 21
7.080708661417323
 31
0.0
  0
LINE
  5
1FF4
330
1E
100
AcDbEntity
  8
3
100
AcDbLine
 10
0.7411417322834647
 20
7.013779527559055
 30
0.0
 11
0.7411417322834647
 21
7.088582677165354
 31
0.0
  0
LINE
  5
1FF5
330
1E
100
AcDbEntity
  8
3
100
AcDbLine
 10
0.7391732283464567
 20
7.013779527559055
 30
0.0
 11
0.7391732283464567
 21
7.095472440944881
 31
0.0
  0
LINE
  5
1FF6
330
1E
100
AcDbEntity
  8
3
100
AcDbLine
 10
0.7372047244094489
 20
7.013779527559055
 30
0.0
 11
0.7372047244094489
 21
7.103346456692912
 31
0.0
  0
LWPOLYLINE
  5
1FF7
330
1E
100
AcDbEntity
  8
3
100
AcDbPolyline
 90
        4
 70
     0
 43
0.0098425196850394
 10
0.7372047244094489
 20
5.209645669291338
 10
0.7608267716535434
 20
5.3001968503937
 10
0.7125984251968505
 20
5.3001968503937
 10
0.7372047244094489
 20
5.209645669291338
  0
LINE
  5
1FFD
330
1E
100
AcDbEntity
  8
3
100
AcDbLine
 10
0.7608267716535434
 20
5.3001968503937
 30
0.0
 11
0.7608267716535434
 21
5.299212598425197
 31
0.0
  0
LINE
  5
1FFE
330
1E
100
AcDbEntity
  8
3
100
AcDbLine
 10
0.7608267716535434
 20
5.3001968503937
 30
0.0
 11
0.7608267716535434
 21
5.299212598425197
 31
0.0
  0
LINE
  5
1FFF
330
1E
100
AcDbEntity
  8
3
100
AcDbLine
 10
0.7588582677165354
 20
5.3001968503937
 30
0.0
 11
0.7588582677165354
 21
5.292322834645669
 31
0.0
  0
LINE
  5
2000
330
1E
100
AcDbEntity
  8
3
100
AcDbLine
 10
0.7568897637795276
 20
5.3001968503937
 30
0.0
 11
0.7568897637795276
 21
5.284448818897637
 31
0.0
  0
LINE
  5
2001
330
1E
100
AcDbEntity
  8
3
100
AcDbLine
 10
0.7549212598425197
 20
5.3001968503937
 30
0.0
 11
0.7549212598425197
 21
5.27755905511811
 31
0.0
  0
LINE
  5
2002
330
1E
100
AcDbEntity
  8
3
100
AcDbLine
 10
0.7529527559055119
 20
5.3001968503937
 30
0.0
 11
0.7529527559055119
 21
5.269685039370078
 31
0.0
  0
LINE
  5
2003
330
1E
100
AcDbEntity
  8
3
100
AcDbLine
 10
0.7509842519685039
 20
5.3001968503937
 30
0.0
 11
0.7509842519685039
 21
5.261811023622047
 31
0.0
  0
LINE
  5
2004
330
1E
100
AcDbEntity
  8
3
100
AcDbLine
 10
0.7490157480314961
 20
5.3001968503937
 30
0.0
 11
0.7490157480314961
 21
5.254921259842519
 31
0.0
  0
LINE
  5
2005
330
1E
100
AcDbEntity
  8
3
100
AcDbLine
 10
0.7470472440944882
 20
5.3001968503937
 30
0.0
 11
0.7470472440944882
 21
5.247047244094487
 31
0.0
  0
LINE
  5
2006
330
1E
100
AcDbEntity
  8
3
100
AcDbLine
 10
0.7450787401574804
 20
5.3001968503937
 30
0.0
 11
0.7450787401574804
 21
5.240157480314961
 31
0.0
  0
LINE
  5
2007
330
1E
100
AcDbEntity
  8
3
100
AcDbLine
 10
0.7431102362204724
 20
5.3001968503937
 30
0.0
 11
0.7431102362204724
 21
5.232283464566929
 31
0.0
  0
LINE
  5
2008
330
1E
100
AcDbEntity
  8
3
100
AcDbLine
 10
0.7411417322834647
 20
5.3001968503937
 30
0.0
 11
0.7411417322834647
 21
5.224409448818898
 31
0.0
  0
LINE
  5
2009
330
1E
100
AcDbEntity
  8
3
100
AcDbLine
 10
0.7391732283464567
 20
5.3001968503937
 30
0.0
 11
0.7391732283464567
 21
5.21751968503937
 31
0.0
  0
LINE
  5
200A
330
1E
100
AcDbEntity
  8
3
100
AcDbLine
 10
0.7372047244094489
 20
5.3001968503937
 30
0.0
 11
0.7372047244094489
 21
5.209645669291338
 31
0.0
  0
LINE
  5
200B
330
1E
100
AcDbEntity
  8
3
100
AcDbLine
 10
0.7125984251968505
 20
5.3001968503937
 30
0.0
 11
0.7125984251968505
 21
5.299212598425197
 31
0.0
  0
LINE
  5
200C
330
1E
100
AcDbEntity
  8
3
100
AcDbLine
 10
0.7125984251968505
 20
5.3001968503937
 30
0.0
 11
0.7125984251968505
 21
5.299212598425197
 31
0.0
  0
LINE
  5
200D
330
1E
100
AcDbEntity
  8
3
100
AcDbLine
 10
0.7145669291338584
 20
5.3001968503937
 30
0.0
 11
0.7145669291338584
 21
5.292322834645669
 31
0.0
  0
LINE
  5
200E
330
1E
100
AcDbEntity
  8
3
100
AcDbLine
 10
0.7165354330708662
 20
5.3001968503937
 30
0.0
 11
0.7165354330708662
 21
5.284448818897637
 31
0.0
  0
LINE
  5
200F
330
1E
100
AcDbEntity
  8
3
100
AcDbLine
 10
0.7185039370078741
 20
5.3001968503937
 30
0.0
 11
0.7185039370078741
 21
5.27755905511811
 31
0.0
  0
LINE
  5
2010
330
1E
100
AcDbEntity
  8
3
100
AcDbLine
 10
0.720472440944882
 20
5.3001968503937
 30
0.0
 11
0.720472440944882
 21
5.269685039370078
 31
0.0
  0
LINE
  5
2011
330
1E
100
AcDbEntity
  8
3
100
AcDbLine
 10
0.7224409448818899
 20
5.3001968503937
 30
0.0
 11
0.7224409448818899
 21
5.261811023622047
 31
0.0
  0
LINE
  5
2012
330
1E
100
AcDbEntity
  8
3
100
AcDbLine
 10
0.7244094488188977
 20
5.3001968503937
 30
0.0
 11
0.7244094488188977
 21
5.254921259842519
 31
0.0
  0
LINE
  5
2013
330
1E
100
AcDbEntity
  8
3
100
AcDbLine
 10
0.7263779527559056
 20
5.3001968503937
 30
0.0
 11
0.7263779527559056
 21
5.247047244094487
 31
0.0
  0
LINE
  5
2014
330
1E
100
AcDbEntity
  8
3
100
AcDbLine
 10
0.7293307086614174
 20
5.3001968503937
 30
0.0
 11
0.7293307086614174
 21
5.240157480314961
 31
0.0
  0
LINE
  5
2015
330
1E
100
AcDbEntity
  8
3
100
AcDbLine
 10
0.7312992125984252
 20
5.3001968503937
 30
0.0
 11
0.7312992125984252
 21
5.232283464566929
 31
0.0
  0
LINE
  5
2016
330
1E
100
AcDbEntity
  8
3
100
AcDbLine
 10
0.7332677165354332
 20
5.3001968503937
 30
0.0
 11
0.7332677165354332
 21
5.224409448818898
 31
0.0
  0
LINE
  5
2017
330
1E
100
AcDbEntity
  8
3
100
AcDbLine
 10
0.735236220472441
 20
5.3001968503937
 30
0.0
 11
0.735236220472441
 21
5.21751968503937
 31
0.0
  0
LINE
  5
2018
330
1E
100
AcDbEntity
  8
3
100
AcDbLine
 10
0.7372047244094489
 20
5.3001968503937
 30
0.0
 11
0.7372047244094489
 21
5.209645669291338
 31
0.0
  0
LWPOLYLINE
  5
2474
330
1E
100
AcDbEntity
  8
3
100
AcDbPolyline
 90
        4
 70
     0
 43
0.0098425196850394
 10
5.583661417322834
 20
3.264763779527559
 10
5.448818897637795
 20
3.498031496062992
 10
5.31496062992126
 20
3.264763779527559
 10
5.583661417322834
 20
3.264763779527559
  0
LWPOLYLINE
  5
247A
330
1E
100
AcDbEntity
  8
3
100
AcDbPolyline
 90
        4
 70
     0
 43
0.0098425196850394
 10
5.414370078740157
 20
3.351377952755905
 10
5.414370078740157
 20
3.386811023622047
 10
5.46751968503937
 20
3.386811023622047
 10
5.476377952755905
 20
3.377952755905512
  0
LWPOLYLINE
  5
2480
330
1E
100
AcDbEntity
  8
3
100
AcDbPolyline
 90
        9
 70
     0
 43
0.0098425196850394
 10
5.476377952755905
 20
3.377952755905512
 10
5.476377952755905
 20
3.360236220472441
 10
5.46751968503937
 20
3.351377952755905
 10
5.414370078740157
 20
3.351377952755905
 10
5.414370078740157
 20
3.297244094488188
 10
5.466535433070865
 20
3.297244094488188
 10
5.484251968503937
 20
3.306102362204724
 10
5.484251968503937
 20
3.34251968503937
 10
5.46751968503937
 20
3.351377952755905
  0
LWPOLYLINE
  5
248B
330
1E
100
AcDbEntity
  8
3
100
AcDbPolyline
 90
        4
 70
     0
 43
0.0098425196850394
 10
2.463582677165354
 20
4.538385826771653
 10
2.328740157480315
 20
4.770669291338582
 10
2.194881889763779
 20
4.538385826771653
 10
2.463582677165354
 20
4.538385826771653
  0
LWPOLYLINE
  5
2491
330
1E
100
AcDbEntity
  8
3
100
AcDbPolyline
 90
        8
 70
     0
 43
0.0098425196850394
 10
2.364173228346456
 20
4.588582677165354
 10
2.346456692913386
 20
4.570866141732283
 10
2.312007874015748
 20
4.570866141732283
 10
2.294291338582677
 20
4.588582677165354
 10
2.294291338582677
 20
4.641732283464566
 10
2.312007874015748
 20
4.659448818897637
 10
2.347440944881889
 20
4.659448818897637
 10
2.36515748031496
 20
4.641732283464566
  0
LINE
  5
249B
330
1E
100
AcDbEntity
  8
7
100
AcDbLine
 10
3.488188976377952
 20
3.594488188976378
 30
0.0
 11
3.492125984251968
 21
3.594488188976378
 31
0.0
  0
LINE
  5
249C
330
1E
100
AcDbEntity
  8
7
100
AcDbLine
 10
1.318897637795275
 20
3.594488188976378
 30
0.0
 11
1.322834645669291
 21
3.594488188976378
 31
0.0
  0
LWPOLYLINE
  5
249D
330
1E
100
AcDbEntity
  8
7
100
AcDbPolyline
 90
        3
 70
     0
 43
0.0098425196850394
 10
1.334645669291338
 20
3.594488188976378
 10
1.328740157480314
 20
3.594488188976378
 10
1.322834645669291
 20
3.594488188976378
  0
LWPOLYLINE
  5
24A2
330
1E
100
AcDbEntity
  8
7
100
AcDbPolyline
 90
        3
 70
     0
 43
0.0098425196850394
 10
3.488188976377952
 20
3.594488188976378
 10
3.482283464566929
 20
3.594488188976378
 10
3.476377952755905
 20
3.594488188976378
  0
LINE
  5
24A7
330
1E
100
AcDbEntity
  8
7
100
AcDbLine
 10
1.318897637795275
 20
3.586614173228346
 30
0.0
 11
1.322834645669291
 21
3.586614173228346
 31
0.0
  0
LINE
  5
24A8
330
1E
100
AcDbEntity
  8
7
100
AcDbLine
 10
3.488188976377952
 20
3.586614173228346
 30
0.0
 11
3.492125984251968
 21
3.586614173228346
 31
0.0
  0
LWPOLYLINE
  5
24A9
330
1E
100
AcDbEntity
  8
7
100
AcDbPolyline
 90
        3
 70
     0
 43
0.0098425196850394
 10
3.488188976377952
 20
3.586614173228346
 10
3.482283464566929
 20
3.586614173228346
 10
3.476377952755905
 20
3.586614173228346
  0
LINE
  5
24AE
330
1E
100
AcDbEntity
  8
7
100
AcDbLine
 10
1.334645669291338
 20
3.586614173228346
 30
0.0
 11
3.476377952755905
 21
3.586614173228346
 31
0.0
  0
LWPOLYLINE
  5
24AF
330
1E
100
AcDbEntity
  8
7
100
AcDbPolyline
 90
        3
 70
     0
 43
0.0098425196850394
 10
1.334645669291338
 20
3.586614173228346
 10
1.328740157480314
 20
3.586614173228346
 10
1.322834645669291
 20
3.586614173228346
  0
LWPOLYLINE
  5
24B4
330
1E
100
AcDbEntity
  8
7
100
AcDbPolyline
 90
        3
 70
     0
 43
0.0098425196850394
 10
3.492125984251968
 20
3.58759842519685
 10
3.5
 20
3.590551181102362
 10
3.502952755905512
 20
3.598425196850393
  0
LWPOLYLINE
  5
24B9
330
1E
100
AcDbEntity
  8
7
100
AcDbPolyline
 90
        3
 70
     0
 43
0.0098425196850394
 10
3.492125984251968
 20
3.595472440944881
 10
3.494094488188976
 20
3.596456692913386
 10
3.49507874015748
 20
3.598425196850393
  0
LINE
  5
24BE
330
1E
100
AcDbEntity
  8
7
100
AcDbLine
 10
3.488188976377952
 20
3.586614173228346
 30
0.0
 11
3.488188976377952
 21
3.594488188976378
 31
0.0
  0
LINE
  5
24BF
330
1E
100
AcDbEntity
  8
7
100
AcDbLine
 10
3.49507874015748
 20
3.598425196850393
 30
0.0
 11
3.49507874015748
 21
4.021653543307086
 31
0.0
  0
LWPOLYLINE
  5
24C0
330
1E
100
AcDbEntity
  8
7
100
AcDbPolyline
 90
        3
 70
     0
 43
0.0098425196850394
 10
1.308070866141732
 20
3.598425196850393
 10
1.311023622047243
 20
3.590551181102362
 10
1.318897637795275
 20
3.58759842519685
  0
LINE
  5
24C5
330
1E
100
AcDbEntity
  8
7
100
AcDbLine
 10
1.322834645669291
 20
3.594488188976378
 30
0.0
 11
1.322834645669291
 21
3.586614173228346
 31
0.0
  0
LWPOLYLINE
  5
24C6
330
1E
100
AcDbEntity
  8
7
100
AcDbPolyline
 90
        3
 70
     0
 43
0.0098425196850394
 10
1.315944881889763
 20
3.598425196850393
 10
1.316929133858267
 20
3.596456692913386
 10
1.318897637795275
 20
3.595472440944881
  0
LWPOLYLINE
  5
24CB
330
1E
100
AcDbEntity
  8
7
100
AcDbPolyline
 90
        4
 70
     0
 43
0.0098425196850394
 10
1.315944881889763
 20
3.598425196850393
 10
1.315944881889763
 20
4.021653543307086
 10
1.312007874015747
 20
4.021653543307086
 10
1.304133858267716
 20
4.021653543307086
  0
LWPOLYLINE
  5
24D1
330
1E
100
AcDbEntity
  8
7
100
AcDbPolyline
 90
        3
 70
     0
 43
0.0098425196850394
 10
1.315944881889763
 20
3.598425196850393
 10
1.312007874015747
 20
3.598425196850393
 10
1.304133858267716
 20
3.598425196850393
  0
LINE
  5
24D6
330
1E
100
AcDbEntity
  8
7
100
AcDbLine
 10
1.304133858267716
 20
4.021653543307086
 30
0.0
 11
1.304133858267716
 21
3.598425196850393
 31
0.0
  0
LINE
  5
24D7
330
1E
100
AcDbEntity
  8
7
100
AcDbLine
 10
1.304133858267716
 20
4.021653543307086
 30
0.0
 11
1.233267716535432
 21
4.021653543307086
 31
0.0
  0
LINE
  5
24D8
330
1E
100
AcDbEntity
  8
7
100
AcDbLine
 10
1.250984251968503
 20
3.852362204724409
 30
0.0
 11
1.266732283464566
 21
3.852362204724409
 31
0.0
  0
LWPOLYLINE
  5
24D9
330
1E
100
AcDbEntity
  8
7
100
AcDbPolyline
 90
        5
 70
     0
 43
0.0098425196850394
 10
1.266732283464566
 20
3.821850393700787
 10
1.27755905511811
 20
3.825787401574803
 10
1.281496062992125
 20
3.836614173228346
 10
1.27755905511811
 20
3.847440944881889
 10
1.266732283464566
 20
3.851377952755905
  0
LINE
  5
24E0
330
1E
100
AcDbEntity
  8
7
100
AcDbLine
 10
1.250984251968503
 20
3.820866141732283
 30
0.0
 11
1.266732283464566
 21
3.820866141732283
 31
0.0
  0
LWPOLYLINE
  5
24E1
330
1E
100
AcDbEntity
  8
7
100
AcDbPolyline
 90
        3
 70
     0
 43
0.0098425196850394
 10
1.250984251968503
 20
3.851377952755905
 10
1.24015748031496
 20
3.847440944881889
 10
1.236220472440944
 20
3.836614173228346
  0
LWPOLYLINE
  5
24E6
330
1E
100
AcDbEntity
  8
7
100
AcDbPolyline
 90
        3
 70
     0
 43
0.0098425196850394
 10
1.236220472440944
 20
3.836614173228346
 10
1.24015748031496
 20
3.825787401574803
 10
1.250984251968503
 20
3.821850393700787
  0
LINE
  5
24EB
330
1E
100
AcDbEntity
  8
7
100
AcDbLine
 10
1.250984251968503
 20
3.93011811023622
 30
0.0
 11
1.266732283464566
 21
3.93011811023622
 31
0.0
  0
LWPOLYLINE
  5
24EC
330
1E
100
AcDbEntity
  8
7
100
AcDbPolyline
 90
        5
 70
     0
 43
0.0098425196850394
 10
1.266732283464566
 20
3.899606299212598
 10
1.27755905511811
 20
3.903543307086614
 10
1.281496062992125
 20
3.914370078740157
 10
1.27755905511811
 20
3.9251968503937
 10
1.266732283464566
 20
3.929133858267716
  0
LINE
  5
24F3
330
1E
100
AcDbEntity
  8
7
100
AcDbLine
 10
1.250984251968503
 20
3.898622047244094
 30
0.0
 11
1.266732283464566
 21
3.898622047244094
 31
0.0
  0
LWPOLYLINE
  5
24F4
330
1E
100
AcDbEntity
  8
7
100
AcDbPolyline
 90
        5
 70
     0
 43
0.0098425196850394
 10
1.250984251968503
 20
3.929133858267716
 10
1.24015748031496
 20
3.9251968503937
 10
1.236220472440944
 20
3.914370078740157
 10
1.24015748031496
 20
3.903543307086614
 10
1.250984251968503
 20
3.899606299212598
  0
LINE
  5
24FB
330
1E
100
AcDbEntity
  8
7
100
AcDbLine
 10
1.250984251968503
 20
3.789370078740157
 30
0.0
 11
1.266732283464566
 21
3.789370078740157
 31
0.0
  0
LWPOLYLINE
  5
24FC
330
1E
100
AcDbEntity
  8
7
100
AcDbPolyline
 90
        4
 70
     0
 43
0.0098425196850394
 10
1.266732283464566
 20
3.758858267716535
 10
1.27755905511811
 20
3.762795275590551
 10
1.281496062992125
 20
3.773622047244094
 10
1.27755905511811
 20
3.784448818897637
  0
LINE
  5
2502
330
1E
100
AcDbEntity
  8
7
100
AcDbLine
 10
1.27755905511811
 20
3.784448818897637
 30
0.0
 11
1.266732283464566
 21
3.788385826771653
 31
0.0
  0
LINE
  5
2503
330
1E
100
AcDbEntity
  8
7
100
AcDbLine
 10
1.250984251968503
 20
3.757874015748031
 30
0.0
 11
1.266732283464566
 21
3.757874015748031
 31
0.0
  0
LWPOLYLINE
  5
2504
330
1E
100
AcDbEntity
  8
7
100
AcDbPolyline
 90
        5
 70
     0
 43
0.0098425196850394
 10
1.250984251968503
 20
3.788385826771653
 10
1.24015748031496
 20
3.784448818897637
 10
1.236220472440944
 20
3.773622047244094
 10
1.24015748031496
 20
3.762795275590551
 10
1.250984251968503
 20
3.758858267716535
  0
LINE
  5
250B
330
1E
100
AcDbEntity
  8
7
100
AcDbLine
 10
1.250984251968503
 20
3.711614173228346
 30
0.0
 11
1.266732283464566
 21
3.711614173228346
 31
0.0
  0
LWPOLYLINE
  5
250C
330
1E
100
AcDbEntity
  8
7
100
AcDbPolyline
 90
        5
 70
     0
 43
0.0098425196850394
 10
1.266732283464566
 20
3.681102362204724
 10
1.27755905511811
 20
3.68503937007874
 10
1.281496062992125
 20
3.695866141732283
 10
1.27755905511811
 20
3.706692913385826
 10
1.266732283464566
 20
3.710629921259842
  0
LINE
  5
2513
330
1E
100
AcDbEntity
  8
7
100
AcDbLine
 10
1.250984251968503
 20
3.68011811023622
 30
0.0
 11
1.266732283464566
 21
3.68011811023622
 31
0.0
  0
LWPOLYLINE
  5
2514
330
1E
100
AcDbEntity
  8
7
100
AcDbPolyline
 90
        4
 70
     0
 43
0.0098425196850394
 10
1.250984251968503
 20
3.710629921259842
 10
1.24015748031496
 20
3.706692913385826
 10
1.236220472440944
 20
3.695866141732283
 10
1.24015748031496
 20
3.68503937007874
  0
LINE
  5
251A
330
1E
100
AcDbEntity
  8
7
100
AcDbLine
 10
1.24015748031496
 20
3.68503937007874
 30
0.0
 11
1.250984251968503
 21
3.681102362204724
 31
0.0
  0
LINE
  5
251B
330
1E
100
AcDbEntity
  8
7
100
AcDbLine
 10
1.250984251968503
 20
3.632874015748031
 30
0.0
 11
1.266732283464566
 21
3.632874015748031
 31
0.0
  0
LWPOLYLINE
  5
251C
330
1E
100
AcDbEntity
  8
7
100
AcDbPolyline
 90
        5
 70
     0
 43
0.0098425196850394
 10
1.266732283464566
 20
3.602362204724409
 10
1.27755905511811
 20
3.606299212598425
 10
1.281496062992125
 20
3.617125984251968
 10
1.27755905511811
 20
3.627952755905512
 10
1.266732283464566
 20
3.631889763779527
  0
LINE
  5
2523
330
1E
100
AcDbEntity
  8
7
100
AcDbLine
 10
1.250984251968503
 20
3.602362204724409
 30
0.0
 11
1.266732283464566
 21
3.602362204724409
 31
0.0
  0
LWPOLYLINE
  5
2524
330
1E
100
AcDbEntity
  8
7
100
AcDbPolyline
 90
        5
 70
     0
 43
0.0098425196850394
 10
1.250984251968503
 20
3.631889763779527
 10
1.24015748031496
 20
3.627952755905512
 10
1.236220472440944
 20
3.617125984251968
 10
1.24015748031496
 20
3.606299212598425
 10
1.250984251968503
 20
3.602362204724409
  0
LINE
  5
252B
330
1E
100
AcDbEntity
  8
7
100
AcDbLine
 10
1.250984251968503
 20
4.007874015748031
 30
0.0
 11
1.266732283464566
 21
4.007874015748031
 31
0.0
  0
LWPOLYLINE
  5
252C
330
1E
100
AcDbEntity
  8
7
100
AcDbPolyline
 90
        5
 70
     0
 43
0.0098425196850394
 10
1.266732283464566
 20
3.977362204724409
 10
1.27755905511811
 20
3.981299212598425
 10
1.281496062992125
 20
3.992125984251968
 10
1.27755905511811
 20
4.002952755905512
 10
1.266732283464566
 20
4.006889763779527
  0
LINE
  5
2533
330
1E
100
AcDbEntity
  8
7
100
AcDbLine
 10
1.250984251968503
 20
3.977362204724409
 30
0.0
 11
1.266732283464566
 21
3.977362204724409
 31
0.0
  0
LWPOLYLINE
  5
2534
330
1E
100
AcDbEntity
  8
7
100
AcDbPolyline
 90
        5
 70
     0
 43
0.0098425196850394
 10
1.250984251968503
 20
4.006889763779527
 10
1.24015748031496
 20
4.002952755905512
 10
1.236220472440944
 20
3.992125984251968
 10
1.24015748031496
 20
3.981299212598425
 10
1.250984251968503
 20
3.977362204724409
  0
LINE
  5
253B
330
1E
100
AcDbEntity
  8
7
100
AcDbLine
 10
1.233267716535432
 20
3.590551181102362
 30
0.0
 11
1.291338582677165
 21
3.590551181102362
 31
0.0
  0
LWPOLYLINE
  5
253C
330
1E
100
AcDbEntity
  8
7
100
AcDbPolyline
 90
        3
 70
     0
 43
0.0098425196850394
 10
1.291338582677165
 20
3.591535433070866
 10
1.298228346456692
 20
3.593503937007874
 10
1.304133858267716
 20
3.598425196850393
  0
LWPOLYLINE
  5
2541
330
1E
100
AcDbEntity
  8
7
100
AcDbPolyline
 90
        3
 70
     0
 43
0.0098425196850394
 10
1.233267716535432
 20
4.020669291338582
 10
1.222440944881889
 20
4.016732283464566
 10
1.218503937007873
 20
4.005905511811023
  0
LINE
  5
2546
330
1E
100
AcDbEntity
  8
7
100
AcDbLine
 10
1.217519685039369
 20
4.005905511811023
 30
0.0
 11
1.217519685039369
 21
3.606299212598425
 31
0.0
  0
LINE
  5
2547
330
1E
100
AcDbEntity
  8
7
100
AcDbLine
 10
1.218503937007873
 20
3.606299212598425
 30
0.0
 11
1.222440944881889
 21
3.595472440944881
 31
0.0
  0
LINE
  5
2548
330
1E
100
AcDbEntity
  8
7
100
AcDbLine
 10
1.222440944881889
 20
3.595472440944881
 30
0.0
 11
1.233267716535432
 21
3.591535433070866
 31
0.0
  0
LWPOLYLINE
  5
2549
330
1E
100
AcDbEntity
  8
7
100
AcDbPolyline
 90
        3
 70
     0
 43
0.0098425196850394
 10
3.49507874015748
 20
3.598425196850393
 10
3.499015748031496
 20
3.598425196850393
 10
3.506889763779527
 20
3.598425196850393
  0
LWPOLYLINE
  5
254E
330
1E
100
AcDbEntity
  8
7
100
AcDbPolyline
 90
        3
 70
     0
 43
0.0098425196850394
 10
3.49507874015748
 20
4.021653543307086
 10
3.499015748031496
 20
4.021653543307086
 10
3.506889763779527
 20
4.021653543307086
  0
LWPOLYLINE
  5
2553
330
1E
100
AcDbEntity
  8
7
100
AcDbPolyline
 90
        3
 70
     0
 43
0.0098425196850394
 10
3.506889763779527
 20
3.598425196850393
 10
3.506889763779527
 20
4.021653543307086
 10
3.577755905511811
 20
4.021653543307086
  0
LINE
  5
2558
330
1E
100
AcDbEntity
  8
7
100
AcDbLine
 10
3.544291338582677
 20
3.852362204724409
 30
0.0
 11
3.56003937007874
 21
3.852362204724409
 31
0.0
  0
LWPOLYLINE
  5
2559
330
1E
100
AcDbEntity
  8
7
100
AcDbPolyline
 90
        5
 70
     0
 43
0.0098425196850394
 10
3.56003937007874
 20
3.821850393700787
 10
3.570866141732283
 20
3.825787401574803
 10
3.574803149606299
 20
3.836614173228346
 10
3.570866141732283
 20
3.847440944881889
 10
3.56003937007874
 20
3.851377952755905
  0
LINE
  5
2560
330
1E
100
AcDbEntity
  8
7
100
AcDbLine
 10
3.544291338582677
 20
3.820866141732283
 30
0.0
 11
3.56003937007874
 21
3.820866141732283
 31
0.0
  0
LWPOLYLINE
  5
2561
330
1E
100
AcDbEntity
  8
7
100
AcDbPolyline
 90
        4
 70
     0
 43
0.0098425196850394
 10
3.544291338582677
 20
3.851377952755905
 10
3.533464566929133
 20
3.847440944881889
 10
3.529527559055118
 20
3.836614173228346
 10
3.533464566929133
 20
3.825787401574803
  0
LINE
  5
2567
330
1E
100
AcDbEntity
  8
7
100
AcDbLine
 10
3.533464566929133
 20
3.825787401574803
 30
0.0
 11
3.544291338582677
 21
3.821850393700787
 31
0.0
  0
LINE
  5
2568
330
1E
100
AcDbEntity
  8
7
100
AcDbLine
 10
3.544291338582677
 20
3.93011811023622
 30
0.0
 11
3.56003937007874
 21
3.93011811023622
 31
0.0
  0
LWPOLYLINE
  5
2569
330
1E
100
AcDbEntity
  8
7
100
AcDbPolyline
 90
        5
 70
     0
 43
0.0098425196850394
 10
3.56003937007874
 20
3.899606299212598
 10
3.570866141732283
 20
3.903543307086614
 10
3.574803149606299
 20
3.914370078740157
 10
3.570866141732283
 20
3.9251968503937
 10
3.56003937007874
 20
3.929133858267716
  0
LINE
  5
2570
330
1E
100
AcDbEntity
  8
7
100
AcDbLine
 10
3.544291338582677
 20
3.898622047244094
 30
0.0
 11
3.56003937007874
 21
3.898622047244094
 31
0.0
  0
LWPOLYLINE
  5
2571
330
1E
100
AcDbEntity
  8
7
100
AcDbPolyline
 90
        5
 70
     0
 43
0.0098425196850394
 10
3.544291338582677
 20
3.929133858267716
 10
3.533464566929133
 20
3.9251968503937
 10
3.529527559055118
 20
3.914370078740157
 10
3.533464566929133
 20
3.903543307086614
 10
3.544291338582677
 20
3.899606299212598
  0
LINE
  5
2578
330
1E
100
AcDbEntity
  8
7
100
AcDbLine
 10
3.544291338582677
 20
3.789370078740157
 30
0.0
 11
3.56003937007874
 21
3.789370078740157
 31
0.0
  0
LWPOLYLINE
  5
2579
330
1E
100
AcDbEntity
  8
7
100
AcDbPolyline
 90
        5
 70
     0
 43
0.0098425196850394
 10
3.56003937007874
 20
3.758858267716535
 10
3.570866141732283
 20
3.762795275590551
 10
3.574803149606299
 20
3.773622047244094
 10
3.570866141732283
 20
3.784448818897637
 10
3.56003937007874
 20
3.788385826771653
  0
LINE
  5
2580
330
1E
100
AcDbEntity
  8
7
100
AcDbLine
 10
3.544291338582677
 20
3.757874015748031
 30
0.0
 11
3.56003937007874
 21
3.757874015748031
 31
0.0
  0
LWPOLYLINE
  5
2581
330
1E
100
AcDbEntity
  8
7
100
AcDbPolyline
 90
        5
 70
     0
 43
0.0098425196850394
 10
3.544291338582677
 20
3.788385826771653
 10
3.533464566929133
 20
3.784448818897637
 10
3.529527559055118
 20
3.773622047244094
 10
3.533464566929133
 20
3.762795275590551
 10
3.544291338582677
 20
3.758858267716535
  0
LINE
  5
2588
330
1E
100
AcDbEntity
  8
7
100
AcDbLine
 10
3.544291338582677
 20
3.711614173228346
 30
0.0
 11
3.56003937007874
 21
3.711614173228346
 31
0.0
  0
LWPOLYLINE
  5
2589
330
1E
100
AcDbEntity
  8
7
100
AcDbPolyline
 90
        5
 70
     0
 43
0.0098425196850394
 10
3.56003937007874
 20
3.681102362204724
 10
3.570866141732283
 20
3.68503937007874
 10
3.574803149606299
 20
3.695866141732283
 10
3.570866141732283
 20
3.706692913385826
 10
3.56003937007874
 20
3.710629921259842
  0
LINE
  5
2590
330
1E
100
AcDbEntity
  8
7
100
AcDbLine
 10
3.544291338582677
 20
3.68011811023622
 30
0.0
 11
3.56003937007874
 21
3.68011811023622
 31
0.0
  0
LWPOLYLINE
  5
2591
330
1E
100
AcDbEntity
  8
7
100
AcDbPolyline
 90
        5
 70
     0
 43
0.0098425196850394
 10
3.544291338582677
 20
3.710629921259842
 10
3.533464566929133
 20
3.706692913385826
 10
3.529527559055118
 20
3.695866141732283
 10
3.533464566929133
 20
3.68503937007874
 10
3.544291338582677
 20
3.681102362204724
  0
LINE
  5
2598
330
1E
100
AcDbEntity
  8
7
100
AcDbLine
 10
3.544291338582677
 20
3.632874015748031
 30
0.0
 11
3.56003937007874
 21
3.632874015748031
 31
0.0
  0
LWPOLYLINE
  5
2599
330
1E
100
AcDbEntity
  8
7
100
AcDbPolyline
 90
        5
 70
     0
 43
0.0098425196850394
 10
3.56003937007874
 20
3.602362204724409
 10
3.570866141732283
 20
3.606299212598425
 10
3.574803149606299
 20
3.617125984251968
 10
3.570866141732283
 20
3.627952755905512
 10
3.56003937007874
 20
3.631889763779527
  0
LINE
  5
25A0
330
1E
100
AcDbEntity
  8
7
100
AcDbLine
 10
3.544291338582677
 20
3.602362204724409
 30
0.0
 11
3.56003937007874
 21
3.602362204724409
 31
0.0
  0
LINE
  5
25A1
330
1E
100
AcDbEntity
  8
7
100
AcDbLine
 10
3.544291338582677
 20
3.631889763779527
 30
0.0
 11
3.533464566929133
 21
3.627952755905512
 31
0.0
  0
LWPOLYLINE
  5
25A2
330
1E
100
AcDbEntity
  8
7
100
AcDbPolyline
 90
        4
 70
     0
 43
0.0098425196850394
 10
3.533464566929133
 20
3.627952755905512
 10
3.529527559055118
 20
3.617125984251968
 10
3.533464566929133
 20
3.606299212598425
 10
3.544291338582677
 20
3.602362204724409
  0
LINE
  5
25A8
330
1E
100
AcDbEntity
  8
7
100
AcDbLine
 10
3.544291338582677
 20
4.007874015748031
 30
0.0
 11
3.56003937007874
 21
4.007874015748031
 31
0.0
  0
LWPOLYLINE
  5
25A9
330
1E
100
AcDbEntity
  8
7
100
AcDbPolyline
 90
        5
 70
     0
 43
0.0098425196850394
 10
3.56003937007874
 20
3.977362204724409
 10
3.570866141732283
 20
3.981299212598425
 10
3.574803149606299
 20
3.992125984251968
 10
3.570866141732283
 20
4.002952755905512
 10
3.56003937007874
 20
4.006889763779527
  0
LINE
  5
25B0
330
1E
100
AcDbEntity
  8
7
100
AcDbLine
 10
3.544291338582677
 20
3.977362204724409
 30
0.0
 11
3.56003937007874
 21
3.977362204724409
 31
0.0
  0
LWPOLYLINE
  5
25B1
330
1E
100
AcDbEntity
  8
7
100
AcDbPolyline
 90
        5
 70
     0
 43
0.0098425196850394
 10
3.544291338582677
 20
4.006889763779527
 10
3.533464566929133
 20
4.002952755905512
 10
3.529527559055118
 20
3.992125984251968
 10
3.533464566929133
 20
3.981299212598425
 10
3.544291338582677
 20
3.977362204724409
  0
LINE
  5
25B8
330
1E
100
AcDbEntity
  8
7
100
AcDbLine
 10
3.593503937007874
 20
3.606299212598425
 30
0.0
 11
3.593503937007874
 21
4.005905511811023
 31
0.0
  0
LINE
  5
25B9
330
1E
100
AcDbEntity
  8
7
100
AcDbLine
 10
3.59251968503937
 20
4.005905511811023
 30
0.0
 11
3.588582677165354
 21
4.016732283464566
 31
0.0
  0
LINE
  5
25BA
330
1E
100
AcDbEntity
  8
7
100
AcDbLine
 10
3.588582677165354
 20
4.016732283464566
 30
0.0
 11
3.577755905511811
 21
4.020669291338582
 31
0.0
  0
LWPOLYLINE
  5
25BB
330
1E
100
AcDbEntity
  8
7
100
AcDbPolyline
 90
        3
 70
     0
 43
0.0098425196850394
 10
3.506889763779527
 20
3.598425196850393
 10
3.512795275590551
 20
3.593503937007874
 10
3.519685039370078
 20
3.591535433070866
  0
LINE
  5
25C0
330
1E
100
AcDbEntity
  8
7
100
AcDbLine
 10
3.519685039370078
 20
3.590551181102362
 30
0.0
 11
3.577755905511811
 21
3.590551181102362
 31
0.0
  0
LWPOLYLINE
  5
25C1
330
1E
100
AcDbEntity
  8
7
100
AcDbPolyline
 90
        3
 70
     0
 43
0.0098425196850394
 10
3.577755905511811
 20
3.591535433070866
 10
3.588582677165354
 20
3.595472440944881
 10
3.59251968503937
 20
3.606299212598425
  0
LWPOLYLINE
  5
25C6
330
1E
100
AcDbEntity
  8
7
100
AcDbPolyline
 90
        3
 70
     0
 43
0.0098425196850394
 10
1.318897637795275
 20
3.594488188976378
 10
1.318897637795275
 20
3.595472440944881
 10
1.318897637795275
 20
3.598425196850393
  0
LWPOLYLINE
  5
25CB
330
1E
100
AcDbEntity
  8
7
100
AcDbPolyline
 90
        4
 70
     0
 43
0.0098425196850394
 10
3.492125984251968
 20
3.594488188976378
 10
3.492125984251968
 20
3.595472440944881
 10
3.492125984251968
 20
3.598425196850393
 10
3.476377952755905
 20
3.598425196850393
  0
LINE
  5
25D1
330
1E
100
AcDbEntity
  8
7
100
AcDbLine
 10
1.334645669291338
 20
3.598425196850393
 30
0.0
 11
1.318897637795275
 21
3.598425196850393
 31
0.0
  0
LWPOLYLINE
  5
25D2
330
1E
100
AcDbEntity
  8
7
100
AcDbPolyline
 90
        3
 70
     0
 43
0.0098425196850394
 10
3.49507874015748
 20
3.654527559055118
 10
3.491141732283464
 20
3.655511811023622
 10
3.487204724409449
 20
3.656496062992125
  0
LINE
  5
25D7
330
1E
100
AcDbEntity
  8
7
100
AcDbLine
 10
3.487204724409449
 20
3.656496062992125
 30
0.0
 11
1.323818897637795
 21
3.656496062992125
 31
0.0
  0
LWPOLYLINE
  5
25D8
330
1E
100
AcDbEntity
  8
7
100
AcDbPolyline
 90
        3
 70
     0
 43
0.0098425196850394
 10
1.323818897637795
 20
3.656496062992125
 10
1.319881889763779
 20
3.655511811023622
 10
1.315944881889763
 20
3.654527559055118
  0
LINE
  5
25DD
330
1E
100
AcDbEntity
  8
7
100
AcDbLine
 10
1.318897637795275
 20
3.598425196850393
 30
0.0
 11
1.315944881889763
 21
3.598425196850393
 31
0.0
  0
LINE
  5
25DE
330
1E
100
AcDbEntity
  8
7
100
AcDbLine
 10
3.492125984251968
 20
3.598425196850393
 30
0.0
 11
3.49507874015748
 21
3.598425196850393
 31
0.0
  0
LWPOLYLINE
  5
25DF
330
1E
100
AcDbEntity
  8
7
100
AcDbPolyline
 90
        3
 70
     0
 43
0.0098425196850394
 10
3.476377952755905
 20
3.586614173228346
 10
3.476377952755905
 20
3.590551181102362
 10
3.476377952755905
 20
3.598425196850393
  0
LWPOLYLINE
  5
25E4
330
1E
100
AcDbEntity
  8
7
100
AcDbPolyline
 90
        3
 70
     0
 43
0.0098425196850394
 10
1.334645669291338
 20
3.586614173228346
 10
1.334645669291338
 20
3.590551181102362
 10
1.334645669291338
 20
3.598425196850393
  0
LINE
  5
25E9
330
1E
100
AcDbEntity
  8
7
100
AcDbLine
 10
3.476377952755905
 20
3.598425196850393
 30
0.0
 11
1.334645669291338
 21
3.598425196850393
 31
0.0
  0
LINE
  5
25EA
330
1E
100
AcDbEntity
  8
7
100
AcDbLine
 10
3.476377952755905
 20
3.598425196850393
 30
0.0
 11
3.476377952755905
 21
3.610236220472441
 31
0.0
  0
LINE
  5
25EB
330
1E
100
AcDbEntity
  8
7
100
AcDbLine
 10
1.334645669291338
 20
3.598425196850393
 30
0.0
 11
1.334645669291338
 21
3.610236220472441
 31
0.0
  0
LWPOLYLINE
  5
25EC
330
1E
100
AcDbEntity
  8
7
100
AcDbPolyline
 90
        3
 70
     0
 43
0.0098425196850394
 10
3.475393700787401
 20
3.610236220472441
 10
3.471456692913386
 20
3.621062992125984
 10
3.460629921259842
 20
3.625
  0
LINE
  5
25F1
330
1E
100
AcDbEntity
  8
7
100
AcDbLine
 10
3.460629921259842
 20
3.625984251968504
 30
0.0
 11
1.350393700787401
 21
3.625984251968504
 31
0.0
  0
LWPOLYLINE
  5
25F2
330
1E
100
AcDbEntity
  8
7
100
AcDbPolyline
 90
        3
 70
     0
 43
0.0098425196850394
 10
1.350393700787401
 20
3.625
 10
1.339566929133858
 20
3.621062992125984
 10
1.335629921259842
 20
3.610236220472441
  0
LINE
  5
25F7
330
1E
100
AcDbEntity
  8
7
100
AcDbLine
 10
6.513779527559055
 20
3.586614173228346
 30
0.0
 11
4.642716535433071
 21
3.586614173228346
 31
0.0
  0
LWPOLYLINE
  5
25F8
330
1E
100
AcDbEntity
  8
7
100
AcDbPolyline
 90
        3
 70
     0
 43
0.0098425196850394
 10
6.513779527559055
 20
3.586614173228346
 10
6.513779527559055
 20
3.590551181102362
 10
6.513779527559055
 20
3.598425196850393
  0
LWPOLYLINE
  5
25FD
330
1E
100
AcDbEntity
  8
7
100
AcDbPolyline
 90
        3
 70
     0
 43
0.0098425196850394
 10
4.642716535433071
 20
3.586614173228346
 10
4.642716535433071
 20
3.590551181102362
 10
4.642716535433071
 20
3.598425196850393
  0
LINE
  5
2602
330
1E
100
AcDbEntity
  8
7
100
AcDbLine
 10
6.513779527559055
 20
3.598425196850393
 30
0.0
 11
4.642716535433071
 21
3.598425196850393
 31
0.0
  0
LINE
  5
2603
330
1E
100
AcDbEntity
  8
7
100
AcDbLine
 10
6.516732283464566
 20
3.598425196850393
 30
0.0
 11
6.516732283464566
 21
3.64763779527559
 31
0.0
  0
LINE
  5
2604
330
1E
100
AcDbEntity
  8
7
100
AcDbLine
 10
6.515748031496062
 20
3.64763779527559
 30
0.0
 11
6.51279527559055
 21
3.656496062992125
 31
0.0
  0
LINE
  5
2605
330
1E
100
AcDbEntity
  8
7
100
AcDbLine
 10
6.51279527559055
 20
3.656496062992125
 30
0.0
 11
6.505905511811024
 21
3.661417322834645
 31
0.0
  0
LWPOLYLINE
  5
2606
330
1E
100
AcDbEntity
  8
7
100
AcDbPolyline
 90
        3
 70
     0
 43
0.0098425196850394
 10
6.505905511811024
 20
3.663385826771653
 10
5.391732283464566
 20
4.021653543307086
 10
4.642716535433071
 20
4.021653543307086
  0
LINE
  5
260B
330
1E
100
AcDbEntity
  8
7
100
AcDbLine
 10
4.642716535433071
 20
3.598425196850393
 30
0.0
 11
4.642716535433071
 21
4.021653543307086
 31
0.0
  0
LINE
  5
260C
330
1E
100
AcDbEntity
  8
7
100
AcDbLine
 10
6.513779527559055
 20
3.598425196850393
 30
0.0
 11
6.516732283464566
 21
3.598425196850393
 31
0.0
  0
LWPOLYLINE
  5
260D
330
1E
100
AcDbEntity
  8
7
100
AcDbPolyline
 90
        3
 70
     0
 43
0.0098425196850394
 10
4.642716535433071
 20
3.598425196850393
 10
4.639763779527559
 20
3.598425196850393
 10
4.638779527559055
 20
3.598425196850393
  0
LWPOLYLINE
  5
2612
330
1E
100
AcDbEntity
  8
7
100
AcDbPolyline
 90
        3
 70
     0
 43
0.0098425196850394
 10
4.642716535433071
 20
4.021653543307086
 10
4.639763779527559
 20
4.021653543307086
 10
4.638779527559055
 20
4.021653543307086
  0
LINE
  5
2617
330
1E
100
AcDbEntity
  8
7
100
AcDbLine
 10
4.631889763779527
 20
4.021653543307086
 30
0.0
 11
4.638779527559055
 21
4.021653543307086
 31
0.0
  0
LWPOLYLINE
  5
2618
330
1E
100
AcDbEntity
  8
7
100
AcDbPolyline
 90
        4
 70
     0
 43
0.0098425196850394
 10
4.631889763779527
 20
3.606299212598425
 10
4.631889763779527
 20
4.005905511811023
 10
4.631889763779527
 20
4.01771653543307
 10
4.631889763779527
 20
4.021653543307086
  0
LWPOLYLINE
  5
261E
330
1E
100
AcDbEntity
  8
7
100
AcDbPolyline
 90
        3
 70
     0
 43
0.0098425196850394
 10
4.631889763779527
 20
3.590551181102362
 10
4.631889763779527
 20
3.595472440944881
 10
4.631889763779527
 20
3.606299212598425
  0
LINE
  5
2623
330
1E
100
AcDbEntity
  8
7
100
AcDbLine
 10
4.638779527559055
 20
4.021653543307086
 30
0.0
 11
4.638779527559055
 21
4.01771653543307
 31
0.0
  0
LWPOLYLINE
  5
2624
330
1E
100
AcDbEntity
  8
7
100
AcDbPolyline
 90
        5
 70
     0
 43
0.0098425196850394
 10
4.638779527559055
 20
4.01771653543307
 10
4.638779527559055
 20
4.005905511811023
 10
4.638779527559055
 20
3.606299212598425
 10
4.638779527559055
 20
3.595472440944881
 10
4.638779527559055
 20
3.590551181102362
  0
LINE
  5
262B
330
1E
100
AcDbEntity
  8
7
100
AcDbLine
 10
4.638779527559055
 20
4.005905511811023
 30
0.0
 11
4.631889763779527
 21
4.005905511811023
 31
0.0
  0
LINE
  5
262C
330
1E
100
AcDbEntity
  8
7
100
AcDbLine
 10
4.631889763779527
 20
3.606299212598425
 30
0.0
 11
4.638779527559055
 21
3.606299212598425
 31
0.0
  0
LINE
  5
262D
330
1E
100
AcDbEntity
  8
7
100
AcDbLine
 10
4.638779527559055
 20
3.590551181102362
 30
0.0
 11
4.631889763779527
 21
3.590551181102362
 31
0.0
  0
LWPOLYLINE
  5
262E
330
1E
100
AcDbEntity
  8
7
100
AcDbPolyline
 90
        3
 70
     0
 43
0.0098425196850394
 10
6.513779527559055
 20
3.58759842519685
 10
6.521653543307087
 20
3.590551181102362
 10
6.524606299212598
 20
3.598425196850393
  0
LWPOLYLINE
  5
2633
330
1E
100
AcDbEntity
  8
7
100
AcDbPolyline
 90
        3
 70
     0
 43
0.0098425196850394
 10
6.513779527559055
 20
3.595472440944881
 10
6.515748031496062
 20
3.596456692913386
 10
6.516732283464566
 20
3.598425196850393
  0
LWPOLYLINE
  5
2638
330
1E
100
AcDbEntity
  8
7
100
AcDbPolyline
 90
        3
 70
     0
 43
0.0098425196850394
 10
6.524606299212598
 20
3.656496062992125
 10
6.524606299212598
 20
3.65255905511811
 10
6.524606299212598
 20
3.641732283464567
  0
LINE
  5
263D
330
1E
100
AcDbEntity
  8
7
100
AcDbLine
 10
6.524606299212598
 20
3.598425196850393
 30
0.0
 11
6.524606299212598
 21
3.641732283464567
 31
0.0
  0
LWPOLYLINE
  5
263E
330
1E
100
AcDbEntity
  8
7
100
AcDbPolyline
 90
        5
 70
     0
 43
0.0098425196850394
 10
6.517716535433071
 20
3.598425196850393
 10
6.517716535433071
 20
3.641732283464567
 10
6.517716535433071
 20
3.65255905511811
 10
6.517716535433071
 20
3.656496062992125
 10
6.524606299212598
 20
3.656496062992125
  0
LINE
  5
2645
330
1E
100
AcDbEntity
  8
7
100
AcDbLine
 10
6.524606299212598
 20
3.598425196850393
 30
0.0
 11
6.517716535433071
 21
3.598425196850393
 31
0.0
  0
LINE
  5
2646
330
1E
100
AcDbEntity
  8
7
100
AcDbLine
 10
6.524606299212598
 20
3.641732283464567
 30
0.0
 11
6.517716535433071
 21
3.641732283464567
 31
0.0
  0
LWPOLYLINE
  5
2647
330
1E
100
AcDbEntity
  8
7
100
AcDbPolyline
 90
        3
 70
     0
 43
0.0098425196850394
 10
4.639763779527559
 20
3.598425196850393
 10
4.640748031496062
 20
3.596456692913386
 10
4.642716535433071
 20
3.595472440944881
  0
LWPOLYLINE
  5
264C
330
1E
100
AcDbEntity
  8
7
100
AcDbPolyline
 90
        3
 70
     0
 43
0.0098425196850394
 10
4.634842519685039
 20
3.591535433070866
 10
4.638779527559055
 20
3.588582677165354
 10
4.642716535433071
 20
3.58759842519685
  0
LINE
  5
2651
330
1E
100
AcDbEntity
  8
7
100
AcDbLine
 10
3.488188976377952
 20
5.221456692913386
 30
0.0
 11
3.492125984251968
 21
5.221456692913386
 31
0.0
  0
LINE
  5
2652
330
1E
100
AcDbEntity
  8
7
100
AcDbLine
 10
3.492125984251968
 20
7.09251968503937
 30
0.0
 11
3.492125984251968
 21
5.221456692913386
 31
0.0
  0
LINE
  5
2653
330
1E
100
AcDbEntity
  8
7
100
AcDbLine
 10
1.318897637795275
 20
7.09251968503937
 30
0.0
 11
3.492125984251968
 21
7.09251968503937
 31
0.0
  0
LWPOLYLINE
  5
2654
330
1E
100
AcDbEntity
  8
7
100
AcDbPolyline
 90
        4
 70
     0
 43
0.0098425196850394
 10
1.318897637795275
 20
7.09251968503937
 10
1.318897637795275
 20
5.221456692913386
 10
1.322834645669291
 20
5.221456692913386
 10
1.322834645669291
 20
5.222440944881889
  0
LINE
  5
265A
330
1E
100
AcDbEntity
  8
7
100
AcDbLine
 10
1.334645669291338
 20
5.222440944881889
 30
0.0
 11
1.328740157480314
 21
5.228346456692913
 31
0.0
  0
LINE
  5
265B
330
1E
100
AcDbEntity
  8
7
100
AcDbLine
 10
1.328740157480314
 20
5.228346456692913
 30
0.0
 11
1.322834645669291
 21
5.222440944881889
 31
0.0
  0
LINE
  5
265C
330
1E
100
AcDbEntity
  8
7
100
AcDbLine
 10
1.334645669291338
 20
5.221456692913386
 30
0.0
 11
1.334645669291338
 21
5.222440944881889
 31
0.0
  0
LWPOLYLINE
  5
265D
330
1E
100
AcDbEntity
  8
7
100
AcDbPolyline
 90
        3
 70
     0
 43
0.0098425196850394
 10
1.334645669291338
 20
5.221456692913386
 10
3.476377952755905
 20
5.221456692913386
 10
3.476377952755905
 20
5.222440944881889
  0
LWPOLYLINE
  5
2662
330
1E
100
AcDbEntity
  8
7
100
AcDbPolyline
 90
        3
 70
     0
 43
0.0098425196850394
 10
3.488188976377952
 20
5.222440944881889
 10
3.482283464566929
 20
5.228346456692913
 10
3.476377952755905
 20
5.222440944881889
  0
LINE
  5
2667
330
1E
100
AcDbEntity
  8
7
100
AcDbLine
 10
3.488188976377952
 20
5.221456692913386
 30
0.0
 11
3.488188976377952
 21
5.222440944881889
 31
0.0
  0
LINE
  5
2668
330
1E
100
AcDbEntity
  8
7
100
AcDbLine
 10
3.331692913385826
 20
7.011811023622047
 30
0.0
 11
3.331692913385826
 21
7.035433070866141
 31
0.0
  0
LWPOLYLINE
  5
2669
330
1E
100
AcDbEntity
  8
7
100
AcDbPolyline
 90
        4
 70
     0
 43
0.0098425196850394
 10
3.354330708661417
 20
7.035433070866141
 10
3.349409448818897
 20
7.045275590551181
 10
3.338582677165354
 20
7.045275590551181
 10
3.332677165354331
 20
7.035433070866141
  0
LINE
  5
266F
330
1E
100
AcDbEntity
  8
7
100
AcDbLine
 10
3.354330708661417
 20
7.011811023622047
 30
0.0
 11
3.354330708661417
 21
7.035433070866141
 31
0.0
  0
LWPOLYLINE
  5
2670
330
1E
100
AcDbEntity
  8
7
100
AcDbPolyline
 90
        4
 70
     0
 43
0.0098425196850394
 10
3.332677165354331
 20
7.011811023622047
 10
3.33759842519685
 20
7.001968503937008
 10
3.348425196850393
 20
7.001968503937008
 10
3.354330708661417
 20
7.011811023622047
  0
LINE
  5
2676
330
1E
100
AcDbEntity
  8
7
100
AcDbLine
 10
1.456692913385826
 20
7.011811023622047
 30
0.0
 11
1.456692913385826
 21
7.035433070866141
 31
0.0
  0
LWPOLYLINE
  5
2677
330
1E
100
AcDbEntity
  8
7
100
AcDbPolyline
 90
        4
 70
     0
 43
0.0098425196850394
 10
1.479330708661417
 20
7.035433070866141
 10
1.474409448818897
 20
7.045275590551181
 10
1.463582677165354
 20
7.045275590551181
 10
1.45767716535433
 20
7.035433070866141
  0
LINE
  5
267D
330
1E
100
AcDbEntity
  8
7
100
AcDbLine
 10
1.479330708661417
 20
7.011811023622047
 30
0.0
 11
1.479330708661417
 21
7.035433070866141
 31
0.0
  0
LWPOLYLINE
  5
267E
330
1E
100
AcDbEntity
  8
7
100
AcDbPolyline
 90
        4
 70
     0
 43
0.0098425196850394
 10
1.45767716535433
 20
7.011811023622047
 10
1.46259842519685
 20
7.001968503937008
 10
1.473425196850393
 20
7.001968503937008
 10
1.479330708661417
 20
7.011811023622047
  0
LWPOLYLINE
  5
2684
330
1E
100
AcDbEntity
  8
7
100
AcDbPolyline
 90
        3
 70
     0
 43
0.0098425196850394
 10
3.492125984251968
 20
7.09251968503937
 10
3.494094488188976
 20
7.09251968503937
 10
3.49507874015748
 20
7.09251968503937
  0
LWPOLYLINE
  5
2689
330
1E
100
AcDbEntity
  8
7
100
AcDbPolyline
 90
        3
 70
     0
 43
0.0098425196850394
 10
3.492125984251968
 20
5.221456692913386
 10
3.494094488188976
 20
5.221456692913386
 10
3.49507874015748
 20
5.221456692913386
  0
LWPOLYLINE
  5
268E
330
1E
100
AcDbEntity
  8
7
100
AcDbPolyline
 90
        4
 70
     0
 43
0.0098425196850394
 10
3.502952755905512
 20
7.095472440944881
 10
3.502952755905512
 20
7.09251968503937
 10
3.502952755905512
 20
7.084645669291338
 10
3.502952755905512
 20
5.970472440944881
  0
LINE
  5
2694
330
1E
100
AcDbEntity
  8
7
100
AcDbLine
 10
3.502952755905512
 20
5.970472440944881
 30
0.0
 11
3.502952755905512
 21
5.221456692913386
 31
0.0
  0
LWPOLYLINE
  5
2695
330
1E
100
AcDbEntity
  8
7
100
AcDbPolyline
 90
        4
 70
     0
 43
0.0098425196850394
 10
3.49507874015748
 20
5.970472440944881
 10
3.49507874015748
 20
7.084645669291338
 10
3.49507874015748
 20
7.09251968503937
 10
3.49507874015748
 20
7.095472440944881
  0
LINE
  5
269B
330
1E
100
AcDbEntity
  8
7
100
AcDbLine
 10
3.49507874015748
 20
5.221456692913386
 30
0.0
 11
3.49507874015748
 21
5.970472440944881
 31
0.0
  0
LINE
  5
269C
330
1E
100
AcDbEntity
  8
7
100
AcDbLine
 10
3.502952755905512
 20
5.970472440944881
 30
0.0
 11
3.49507874015748
 21
5.970472440944881
 31
0.0
  0
LINE
  5
269D
330
1E
100
AcDbEntity
  8
7
100
AcDbLine
 10
3.502952755905512
 20
5.221456692913386
 30
0.0
 11
3.49507874015748
 21
5.221456692913386
 31
0.0
  0
LWPOLYLINE
  5
269E
330
1E
100
AcDbEntity
  8
7
100
AcDbPolyline
 90
        3
 70
     0
 43
0.0098425196850394
 10
1.318897637795275
 20
5.221456692913386
 10
1.316929133858267
 20
5.221456692913386
 10
1.315944881889763
 20
5.221456692913386
  0
LWPOLYLINE
  5
26A3
330
1E
100
AcDbEntity
  8
7
100
AcDbPolyline
 90
        3
 70
     0
 43
0.0098425196850394
 10
1.318897637795275
 20
7.09251968503937
 10
1.316929133858267
 20
7.09251968503937
 10
1.315944881889763
 20
7.09251968503937
  0
LWPOLYLINE
  5
26A8
330
1E
100
AcDbEntity
  8
7
100
AcDbPolyline
 90
        4
 70
     0
 43
0.0098425196850394
 10
1.308070866141732
 20
5.970472440944881
 10
1.308070866141732
 20
7.084645669291338
 10
1.308070866141732
 20
7.09251968503937
 10
1.308070866141732
 20
7.095472440944881
  0
LINE
  5
26AE
330
1E
100
AcDbEntity
  8
7
100
AcDbLine
 10
1.308070866141732
 20
5.221456692913386
 30
0.0
 11
1.308070866141732
 21
5.970472440944881
 31
0.0
  0
LINE
  5
26AF
330
1E
100
AcDbEntity
  8
7
100
AcDbLine
 10
1.315944881889763
 20
7.095472440944881
 30
0.0
 11
1.315944881889763
 21
7.09251968503937
 31
0.0
  0
LWPOLYLINE
  5
26B0
330
1E
100
AcDbEntity
  8
7
100
AcDbPolyline
 90
        4
 70
     0
 43
0.0098425196850394
 10
1.315944881889763
 20
7.09251968503937
 10
1.315944881889763
 20
7.084645669291338
 10
1.315944881889763
 20
5.970472440944881
 10
1.315944881889763
 20
5.221456692913386
  0
LINE
  5
26B6
330
1E
100
AcDbEntity
  8
7
100
AcDbLine
 10
1.315944881889763
 20
5.970472440944881
 30
0.0
 11
1.308070866141732
 21
5.970472440944881
 31
0.0
  0
LINE
  5
26B7
330
1E
100
AcDbEntity
  8
7
100
AcDbLine
 10
1.315944881889763
 20
5.221456692913386
 30
0.0
 11
1.308070866141732
 21
5.221456692913386
 31
0.0
  0
LWPOLYLINE
  5
26B8
330
1E
100
AcDbEntity
  8
7
100
AcDbPolyline
 90
        3
 70
     0
 43
0.0098425196850394
 10
1.304133858267716
 20
5.218503937007874
 10
1.306102362204724
 20
5.219488188976377
 10
1.307086614173228
 20
5.221456692913386
  0
LINE
  5
26BD
330
1E
100
AcDbEntity
  8
7
100
AcDbLine
 10
1.304133858267716
 20
5.21751968503937
 30
0.0
 11
1.304133858267716
 21
5.209645669291338
 31
0.0
  0
LWPOLYLINE
  5
26BE
330
1E
100
AcDbEntity
  8
7
100
AcDbPolyline
 90
        3
 70
     0
 43
0.0098425196850394
 10
1.304133858267716
 20
5.210629921259842
 10
1.312007874015747
 20
5.213582677165354
 10
1.314960629921259
 20
5.221456692913386
  0
LWPOLYLINE
  5
26C3
330
1E
100
AcDbEntity
  8
7
100
AcDbPolyline
 90
        3
 70
     0
 43
0.0098425196850394
 10
1.304133858267716
 20
5.21751968503937
 10
1.233267716535432
 20
5.21751968503937
 10
1.233267716535432
 20
5.209645669291338
  0
LWPOLYLINE
  5
26C8
330
1E
100
AcDbEntity
  8
7
100
AcDbPolyline
 90
        4
 70
     0
 43
0.0098425196850394
 10
1.304133858267716
 20
5.209645669291338
 10
1.233267716535432
 20
5.209645669291338
 10
1.222440944881889
 20
5.209645669291338
 10
1.217519685039369
 20
5.209645669291338
  0
LWPOLYLINE
  5
26CE
330
1E
100
AcDbEntity
  8
7
100
AcDbPolyline
 90
        3
 70
     0
 43
0.0098425196850394
 10
1.217519685039369
 20
5.21751968503937
 10
1.222440944881889
 20
5.21751968503937
 10
1.233267716535432
 20
5.21751968503937
  0
LINE
  5
26D3
330
1E
100
AcDbEntity
  8
7
100
AcDbLine
 10
1.217519685039369
 20
5.209645669291338
 30
0.0
 11
1.217519685039369
 21
5.21751968503937
 31
0.0
  0
LINE
  5
26D4
330
1E
100
AcDbEntity
  8
7
100
AcDbLine
 10
1.308070866141732
 20
7.095472440944881
 30
0.0
 11
1.315944881889763
 21
7.095472440944881
 31
0.0
  0
LINE
  5
26D5
330
1E
100
AcDbEntity
  8
7
100
AcDbLine
 10
3.49507874015748
 20
7.095472440944881
 30
0.0
 11
3.502952755905512
 21
7.095472440944881
 31
0.0
  0
LWPOLYLINE
  5
26D6
330
1E
100
AcDbEntity
  8
7
100
AcDbPolyline
 90
        3
 70
     0
 43
0.0098425196850394
 10
3.496062992125984
 20
5.221456692913386
 10
3.499015748031496
 20
5.213582677165354
 10
3.506889763779527
 20
5.210629921259842
  0
LINE
  5
26DB
330
1E
100
AcDbEntity
  8
7
100
AcDbLine
 10
3.506889763779527
 20
5.209645669291338
 30
0.0
 11
3.506889763779527
 21
5.21751968503937
 31
0.0
  0
LWPOLYLINE
  5
26DC
330
1E
100
AcDbEntity
  8
7
100
AcDbPolyline
 90
        3
 70
     0
 43
0.0098425196850394
 10
3.503937007874015
 20
5.221456692913386
 10
3.504921259842519
 20
5.219488188976377
 10
3.506889763779527
 20
5.218503937007874
  0
LWPOLYLINE
  5
26E1
330
1E
100
AcDbEntity
  8
7
100
AcDbPolyline
 90
        3
 70
     0
 43
0.0098425196850394
 10
3.506889763779527
 20
5.209645669291338
 10
3.577755905511811
 20
5.209645669291338
 10
3.577755905511811
 20
5.21751968503937
  0
LINE
  5
26E6
330
1E
100
AcDbEntity
  8
7
100
AcDbLine
 10
3.506889763779527
 20
5.21751968503937
 30
0.0
 11
3.577755905511811
 21
5.21751968503937
 31
0.0
  0
LWPOLYLINE
  5
26E7
330
1E
100
AcDbEntity
  8
7
100
AcDbPolyline
 90
        3
 70
     0
 43
0.0098425196850394
 10
3.593503937007874
 20
5.209645669291338
 10
3.588582677165354
 20
5.209645669291338
 10
3.577755905511811
 20
5.209645669291338
  0
LWPOLYLINE
  5
26EC
330
1E
100
AcDbEntity
  8
7
100
AcDbPolyline
 90
        4
 70
     0
 43
0.0098425196850394
 10
3.577755905511811
 20
5.21751968503937
 10
3.588582677165354
 20
5.21751968503937
 10
3.593503937007874
 20
5.21751968503937
 10
3.593503937007874
 20
5.209645669291338
  0
LWPOLYLINE
  5
26F2
330
1E
100
AcDbEntity
  8
7
100
AcDbPolyline
 90
        3
 70
     0
 43
0.0098425196850394
 10
1.318897637795275
 20
7.09251968503937
 10
1.318897637795275
 20
7.094488188976377
 10
1.318897637795275
 20
7.095472440944881
  0
LWPOLYLINE
  5
26F7
330
1E
100
AcDbEntity
  8
7
100
AcDbPolyline
 90
        3
 70
     0
 43
0.0098425196850394
 10
3.492125984251968
 20
7.09251968503937
 10
3.492125984251968
 20
7.094488188976377
 10
3.492125984251968
 20
7.095472440944881
  0
LWPOLYLINE
  5
26FC
330
1E
100
AcDbEntity
  8
7
100
AcDbPolyline
 90
        4
 70
     0
 43
0.0098425196850394
 10
1.323818897637795
 20
7.103346456692912
 10
3.487204724409449
 20
7.103346456692912
 10
3.498031496062992
 20
7.103346456692912
 10
3.502952755905512
 20
7.103346456692912
  0
LWPOLYLINE
  5
2702
330
1E
100
AcDbEntity
  8
7
100
AcDbPolyline
 90
        3
 70
     0
 43
0.0098425196850394
 10
1.308070866141732
 20
7.103346456692912
 10
1.312992125984251
 20
7.103346456692912
 10
1.323818897637795
 20
7.103346456692912
  0
LWPOLYLINE
  5
2707
330
1E
100
AcDbEntity
  8
7
100
AcDbPolyline
 90
        6
 70
     0
 43
0.0098425196850394
 10
3.502952755905512
 20
7.095472440944881
 10
3.498031496062992
 20
7.095472440944881
 10
3.487204724409449
 20
7.095472440944881
 10
1.323818897637795
 20
7.095472440944881
 10
1.312992125984251
 20
7.095472440944881
 10
1.308070866141732
 20
7.095472440944881
  0
LINE
  5
270F
330
1E
100
AcDbEntity
  8
7
100
AcDbLine
 10
3.487204724409449
 20
7.095472440944881
 30
0.0
 11
3.487204724409449
 21
7.103346456692912
 31
0.0
  0
LINE
  5
2710
330
1E
100
AcDbEntity
  8
7
100
AcDbLine
 10
1.323818897637795
 20
7.103346456692912
 30
0.0
 11
1.323818897637795
 21
7.095472440944881
 31
0.0
  0
LINE
  5
2711
330
1E
100
AcDbEntity
  8
7
100
AcDbLine
 10
1.308070866141732
 20
7.095472440944881
 30
0.0
 11
1.308070866141732
 21
7.103346456692912
 31
0.0
  0
LINE
  5
2712
330
1E
100
AcDbEntity
  8
7
100
AcDbLine
 10
3.502952755905512
 20
7.103346456692912
 30
0.0
 11
3.502952755905512
 21
7.095472440944881
 31
0.0
  0
LWPOLYLINE
  5
2713
330
1E
100
AcDbEntity
  8
7
100
AcDbPolyline
 90
        3
 70
     0
 43
0.0098425196850394
 10
3.476377952755905
 20
5.221456692913386
 10
3.476377952755905
 20
5.218503937007874
 10
3.476377952755905
 20
5.21751968503937
  0
LWPOLYLINE
  5
2718
330
1E
100
AcDbEntity
  8
7
100
AcDbPolyline
 90
        3
 70
     0
 43
0.0098425196850394
 10
1.334645669291338
 20
5.221456692913386
 10
1.334645669291338
 20
5.218503937007874
 10
1.334645669291338
 20
5.21751968503937
  0
LINE
  5
271D
330
1E
100
AcDbEntity
  8
7
100
AcDbLine
 10
3.476377952755905
 20
5.21751968503937
 30
0.0
 11
3.476377952755905
 21
5.209645669291338
 31
0.0
  0
LINE
  5
271E
330
1E
100
AcDbEntity
  8
7
100
AcDbLine
 10
1.334645669291338
 20
5.209645669291338
 30
0.0
 11
1.334645669291338
 21
5.21751968503937
 31
0.0
  0
LWPOLYLINE
  5
271F
330
1E
100
AcDbEntity
  8
7
100
AcDbPolyline
 90
        6
 70
     0
 43
0.0098425196850394
 10
3.476377952755905
 20
5.209645669291338
 10
3.471456692913386
 20
5.209645669291338
 10
3.460629921259842
 20
5.209645669291338
 10
1.350393700787401
 20
5.209645669291338
 10
1.339566929133858
 20
5.209645669291338
 10
1.334645669291338
 20
5.209645669291338
  0
LWPOLYLINE
  5
2727
330
1E
100
AcDbEntity
  8
7
100
AcDbPolyline
 90
        4
 70
     0
 43
0.0098425196850394
 10
1.350393700787401
 20
5.21751968503937
 10
3.460629921259842
 20
5.21751968503937
 10
3.471456692913386
 20
5.21751968503937
 10
3.476377952755905
 20
5.21751968503937
  0
LWPOLYLINE
  5
272D
330
1E
100
AcDbEntity
  8
7
100
AcDbPolyline
 90
        3
 70
     0
 43
0.0098425196850394
 10
1.334645669291338
 20
5.21751968503937
 10
1.339566929133858
 20
5.21751968503937
 10
1.350393700787401
 20
5.21751968503937
  0
LINE
  5
2732
330
1E
100
AcDbEntity
  8
7
100
AcDbLine
 10
3.460629921259842
 20
5.209645669291338
 30
0.0
 11
3.460629921259842
 21
5.21751968503937
 31
0.0
  0
LINE
  5
2733
330
1E
100
AcDbEntity
  8
7
100
AcDbLine
 10
1.350393700787401
 20
5.21751968503937
 30
0.0
 11
1.350393700787401
 21
5.209645669291338
 31
0.0
  0
LINE
  5
2734
330
1E
100
AcDbEntity
  8
7
100
AcDbLine
 10
3.502952755905512
 20
7.084645669291338
 30
0.0
 11
3.49507874015748
 21
7.084645669291338
 31
0.0
  0
LINE
  5
2735
330
1E
100
AcDbEntity
  8
7
100
AcDbLine
 10
1.315944881889763
 20
7.084645669291338
 30
0.0
 11
1.308070866141732
 21
7.084645669291338
 31
0.0
  0
LINE
  5
2736
330
1E
100
AcDbEntity
  8
7
100
AcDbLine
 10
9.260826771653542
 20
3.548228346456693
 30
0.0
 11
9.260826771653542
 21
3.155511811023622
 31
0.0
  0
LINE
  5
2737
330
1E
100
AcDbEntity
  8
7
100
AcDbLine
 10
9.312992125984251
 20
3.125
 30
0.0
 11
9.31791338582677
 21
3.125984251968504
 31
0.0
  0
LINE
  5
2738
330
1E
100
AcDbEntity
  8
7
100
AcDbLine
 10
9.28543307086614
 20
3.154527559055118
 30
0.0
 11
9.304133858267714
 21
3.160433070866141
 31
0.0
  0
LINE
  5
2739
330
1E
100
AcDbEntity
  8
7
100
AcDbLine
 10
9.323818897637794
 20
3.166338582677165
 30
0.0
 11
10.71653543307086
 21
3.59251968503937
 31
0.0
  0
LINE
  5
273A
330
1E
100
AcDbEntity
  8
7
100
AcDbLine
 10
7.896653543307087
 20
3.77755905511811
 30
0.0
 11
9.24803149606299
 21
3.154527559055118
 31
0.0
  0
LINE
  5
273B
330
1E
100
AcDbEntity
  8
7
100
AcDbLine
 10
10.71751968503936
 20
3.65748031496063
 30
0.0
 11
10.71259842519685
 21
3.659448818897637
 31
0.0
  0
LINE
  5
273C
330
1E
100
AcDbEntity
  8
7
100
AcDbLine
 10
7.829724409448818
 20
4.209645669291338
 30
0.0
 11
7.823818897637795
 21
4.20767716535433
 31
0.0
  0
LINE
  5
273D
330
1E
100
AcDbEntity
  8
7
100
AcDbLine
 10
7.903543307086613
 20
3.809055118110236
 30
0.0
 11
7.89763779527559
 21
3.807086614173228
 31
0.0
  0
LINE
  5
273E
330
1E
100
AcDbEntity
  8
7
100
AcDbLine
 10
7.869094488188976
 20
3.790354330708661
 30
0.0
 11
7.875
 21
3.792322834645669
 31
0.0
  0
LINE
  5
273F
330
1E
100
AcDbEntity
  8
7
100
AcDbLine
 10
9.336614173228346
 20
4.294291338582676
 30
0.0
 11
9.331692913385825
 21
4.296259842519685
 31
0.0
  0
LINE
  5
2740
330
1E
100
AcDbEntity
  8
7
100
AcDbLine
 10
9.349409448818896
 20
4.292322834645669
 30
0.0
 11
9.343503937007872
 21
4.290354330708661
 31
0.0
  0
LINE
  5
2741
330
1E
100
AcDbEntity
  8
7
100
AcDbLine
 10
9.342519685039368
 20
4.232283464566929
 30
0.0
 11
10.55610236220472
 21
3.672244094488188
 31
0.0
  0
LINE
  5
2742
330
1E
100
AcDbEntity
  8
7
100
AcDbLine
 10
9.342519685039368
 20
4.232283464566929
 30
0.0
 11
7.926181102362204
 21
3.799212598425196
 31
0.0
  0
LWPOLYLINE
  5
2743
330
1E
100
AcDbEntity
  8
7
100
AcDbPolyline
 90
        3
 70
     0
 43
0.0098425196850394
 10
7.892716535433071
 20
3.789370078740157
 10
7.890748031496062
 20
3.788385826771653
 10
7.892716535433071
 20
3.788385826771653
  0
LWPOLYLINE
  5
2748
330
1E
100
AcDbEntity
  8
7
100
AcDbPolyline
 90
        3
 70
     0
 43
0.0098425196850394
 10
9.25
 20
3.162401574803149
 10
9.252952755905511
 20
3.160433070866141
 10
9.253937007874014
 20
3.161417322834645
  0
LWPOLYLINE
  5
274D
330
1E
100
AcDbEntity
  8
7
100
AcDbPolyline
 90
        3
 70
     0
 43
0.0098425196850394
 10
9.260826771653542
 20
3.161417322834645
 10
9.256889763779525
 20
3.161417322834645
 10
9.253937007874014
 20
3.161417322834645
  0
LINE
  5
2752
330
1E
100
AcDbEntity
  8
7
100
AcDbLine
 10
9.367125984251966
 20
4.173228346456692
 30
0.0
 11
9.384842519685038
 21
4.179133858267716
 31
0.0
  0
LWPOLYLINE
  5
2753
330
1E
100
AcDbEntity
  8
7
100
AcDbPolyline
 90
        4
 70
     0
 43
0.0098425196850394
 10
9.399606299212598
 20
4.172244094488188
 10
9.403543307086613
 20
4.176181102362204
 10
9.396653543307085
 20
4.179133858267716
 10
9.384842519685038
 20
4.179133858267716
  0
LINE
  5
2759
330
1E
100
AcDbEntity
  8
7
100
AcDbLine
 10
9.381889763779525
 20
4.166338582677165
 30
0.0
 11
9.399606299212598
 21
4.172244094488188
 31
0.0
  0
LWPOLYLINE
  5
275A
330
1E
100
AcDbEntity
  8
7
100
AcDbPolyline
 90
        4
 70
     0
 43
0.0098425196850394
 10
9.367125984251966
 20
4.173228346456692
 10
9.362204724409448
 20
4.169291338582676
 10
9.370078740157479
 20
4.165354330708661
 10
9.381889763779525
 20
4.166338582677165
  0
LINE
  5
2760
330
1E
100
AcDbEntity
  8
7
100
AcDbLine
 10
7.890748031496062
 20
3.781496062992125
 30
0.0
 11
7.892716535433071
 21
3.780511811023622
 31
0.0
  0
LINE
  5
2761
330
1E
100
AcDbEntity
  8
7
100
AcDbLine
 10
9.260826771653542
 20
3.150590551181102
 30
0.0
 11
9.26279527559055
 21
3.149606299212598
 31
0.0
  0
LWPOLYLINE
  5
2762
330
1E
100
AcDbEntity
  8
7
100
AcDbPolyline
 90
        3
 70
     0
 43
0.0098425196850394
 10
9.260826771653542
 20
3.154527559055118
 10
9.256889763779525
 20
3.154527559055118
 10
9.253937007874014
 20
3.154527559055118
  0
LINE
  5
2767
330
1E
100
AcDbEntity
  8
7
100
AcDbLine
 10
9.252952755905511
 20
3.153543307086614
 30
0.0
 11
9.253937007874014
 21
3.154527559055118
 31
0.0
  0
LINE
  5
2768
330
1E
100
AcDbEntity
  8
7
100
AcDbLine
 10
9.367125984251966
 20
4.166338582677165
 30
0.0
 11
9.384842519685038
 21
4.172244094488188
 31
0.0
  0
LWPOLYLINE
  5
2769
330
1E
100
AcDbEntity
  8
7
100
AcDbPolyline
 90
        3
 70
     0
 43
0.0098425196850394
 10
9.399606299212598
 20
4.172244094488188
 10
9.39271653543307
 20
4.173228346456692
 10
9.384842519685038
 20
4.172244094488188
  0
LWPOLYLINE
  5
276E
330
1E
100
AcDbEntity
  8
7
100
AcDbPolyline
 90
        3
 70
     0
 43
0.0098425196850394
 10
10.71653543307086
 20
3.59251968503937
 10
10.71948818897637
 20
3.594488188976378
 10
10.72047244094488
 20
3.599409448818897
  0
LWPOLYLINE
  5
2773
330
1E
100
AcDbEntity
  8
7
100
AcDbPolyline
 90
        3
 70
     0
 43
0.0098425196850394
 10
9.26279527559055
 20
3.149606299212598
 10
9.263779527559053
 20
3.148622047244094
 10
9.264763779527557
 20
3.148622047244094
  0
LINE
  5
2778
330
1E
100
AcDbEntity
  8
7
100
AcDbLine
 10
9.260826771653542
 20
3.150590551181102
 30
0.0
 11
9.260826771653542
 21
3.15748031496063
 31
0.0
  0
LINE
  5
2779
330
1E
100
AcDbEntity
  8
7
100
AcDbLine
 10
10.72047244094488
 20
3.599409448818897
 30
0.0
 11
9.323818897637794
 21
3.173228346456693
 31
0.0
  0
LINE
  5
277A
330
1E
100
AcDbEntity
  8
7
100
AcDbLine
 10
9.301181102362203
 20
3.166338582677165
 30
0.0
 11
9.283464566929133
 21
3.160433070866141
 31
0.0
  0
LWPOLYLINE
  5
277B
330
1E
100
AcDbEntity
  8
7
100
AcDbPolyline
 90
        6
 70
     0
 43
0.0098425196850394
 10
10.72342519685039
 20
3.600393700787401
 10
10.72342519685039
 20
3.646653543307086
 10
10.72047244094488
 20
3.654527559055118
 10
10.71456692913385
 20
3.65748031496063
 10
9.8503937007874
 20
3.726377952755905
 10
9.269685039370077
 20
3.549212598425196
  0
LINE
  5
2783
330
1E
100
AcDbEntity
  8
7
100
AcDbLine
 10
9.269685039370077
 20
3.547244094488188
 30
0.0
 11
9.269685039370077
 21
3.549212598425196
 31
0.0
  0
LINE
  5
2784
330
1E
100
AcDbEntity
  8
7
100
AcDbLine
 10
10.72047244094488
 20
3.599409448818897
 30
0.0
 11
10.72342519685039
 21
3.600393700787401
 31
0.0
  0
LWPOLYLINE
  5
2785
330
1E
100
AcDbEntity
  8
7
100
AcDbPolyline
 90
        4
 70
     0
 43
0.0098425196850394
 10
9.845472440944881
 20
3.729330708661417
 10
10.70964566929133
 20
3.660433070866141
 10
10.71161417322834
 20
3.659448818897637
 10
10.71259842519685
 20
3.659448818897637
  0
LINE
  5
278B
330
1E
100
AcDbEntity
  8
7
100
AcDbLine
 10
9.264763779527557
 20
3.551181102362204
 30
0.0
 11
9.845472440944881
 21
3.729330708661417
 31
0.0
  0
LINE
  5
278C
330
1E
100
AcDbEntity
  8
7
100
AcDbLine
 10
9.8503937007874
 20
3.726377952755905
 30
0.0
 11
9.845472440944881
 21
3.729330708661417
 31
0.0
  0
LINE
  5
278D
330
1E
100
AcDbEntity
  8
7
100
AcDbLine
 10
9.269685039370077
 20
3.549212598425196
 30
0.0
 11
9.264763779527557
 21
3.551181102362204
 31
0.0
  0
LINE
  5
278E
330
1E
100
AcDbEntity
  8
7
100
AcDbLine
 10
7.890748031496062
 20
3.781496062992125
 30
0.0
 11
7.886811023622047
 21
3.786417322834645
 31
0.0
  0
LINE
  5
278F
330
1E
100
AcDbEntity
  8
7
100
AcDbLine
 10
7.886811023622047
 20
3.786417322834645
 30
0.0
 11
7.884842519685039
 21
3.792322834645669
 31
0.0
  0
LWPOLYLINE
  5
2790
330
1E
100
AcDbEntity
  8
7
100
AcDbPolyline
 90
        3
 70
     0
 43
0.0098425196850394
 10
7.890748031496062
 20
3.788385826771653
 10
7.889763779527559
 20
3.790354330708661
 10
7.888779527559055
 20
3.793307086614173
  0
LWPOLYLINE
  5
2795
330
1E
100
AcDbEntity
  8
7
100
AcDbPolyline
 90
        4
 70
     0
 43
0.0098425196850394
 10
9.342519685039368
 20
4.232283464566929
 10
9.340551181102361
 20
4.234251968503937
 10
9.339566929133857
 20
4.237204724409449
 10
7.919291338582676
 20
3.803149606299212
  0
LINE
  5
279B
330
1E
100
AcDbEntity
  8
7
100
AcDbLine
 10
7.892716535433071
 20
3.794291338582677
 30
0.0
 11
7.888779527559055
 21
3.793307086614173
 31
0.0
  0
LINE
  5
279C
330
1E
100
AcDbEntity
  8
7
100
AcDbLine
 10
8.464566929133857
 20
4.366141732283464
 30
0.0
 11
9.328740157480314
 21
4.297244094488188
 31
0.0
  0
LWPOLYLINE
  5
279D
330
1E
100
AcDbEntity
  8
7
100
AcDbPolyline
 90
        3
 70
     0
 43
0.0098425196850394
 10
9.328740157480314
 20
4.297244094488188
 10
9.330708661417322
 20
4.297244094488188
 10
9.331692913385825
 20
4.296259842519685
  0
LINE
  5
27A2
330
1E
100
AcDbEntity
  8
7
100
AcDbLine
 10
7.883858267716535
 20
4.187992125984251
 30
0.0
 11
8.464566929133857
 21
4.366141732283464
 31
0.0
  0
LWPOLYLINE
  5
27A3
330
1E
100
AcDbEntity
  8
7
100
AcDbPolyline
 90
        6
 70
     0
 43
0.0098425196850394
 10
9.342519685039368
 20
4.237204724409449
 10
9.342519685039368
 20
4.283464566929134
 10
9.339566929133857
 20
4.291338582677165
 10
9.333661417322833
 20
4.295275590551181
 10
8.469488188976377
 20
4.363188976377952
 10
7.888779527559055
 20
4.186023622047244
  0
LINE
  5
27AB
330
1E
100
AcDbEntity
  8
7
100
AcDbLine
 10
7.888779527559055
 20
3.793307086614173
 30
0.0
 11
7.888779527559055
 21
4.186023622047244
 31
0.0
  0
LINE
  5
27AC
330
1E
100
AcDbEntity
  8
7
100
AcDbLine
 10
9.339566929133857
 20
4.237204724409449
 30
0.0
 11
9.342519685039368
 21
4.237204724409449
 31
0.0
  0
LINE
  5
27AD
330
1E
100
AcDbEntity
  8
7
100
AcDbLine
 10
8.469488188976377
 20
4.363188976377952
 30
0.0
 11
8.464566929133857
 21
4.366141732283464
 31
0.0
  0
LWPOLYLINE
  5
27AE
330
1E
100
AcDbEntity
  8
7
100
AcDbPolyline
 90
        5
 70
     0
 43
0.0098425196850394
 10
7.888779527559055
 20
4.186023622047244
 10
7.883858267716535
 20
4.187992125984251
 10
7.880905511811024
 20
4.187992125984251
 10
7.878937007874015
 20
4.188976377952755
 10
7.873031496062992
 20
4.187007874015748
  0
LWPOLYLINE
  5
27B5
330
1E
100
AcDbEntity
  8
7
100
AcDbPolyline
 90
        3
 70
     0
 43
0.0098425196850394
 10
7.888779527559055
 20
4.186023622047244
 10
7.880905511811024
 20
4.185039370078739
 10
7.873031496062992
 20
4.187007874015748
  0
LWPOLYLINE
  5
27BA
330
1E
100
AcDbEntity
  8
7
100
AcDbPolyline
 90
        3
 70
     0
 43
0.0098425196850394
 10
7.888779527559055
 20
3.793307086614173
 10
7.880905511811024
 20
3.792322834645669
 10
7.873031496062992
 20
3.794291338582677
  0
LINE
  5
27BF
330
1E
100
AcDbEntity
  8
7
100
AcDbLine
 10
7.873031496062992
 20
4.187007874015748
 30
0.0
 11
7.873031496062992
 21
3.794291338582677
 31
0.0
  0
LWPOLYLINE
  5
27C0
330
1E
100
AcDbEntity
  8
7
100
AcDbPolyline
 90
        3
 70
     0
 43
0.0098425196850394
 10
7.878937007874015
 20
4.188976377952755
 10
7.834645669291338
 20
4.208661417322835
 10
7.828740157480314
 20
4.20767716535433
  0
LINE
  5
27C5
330
1E
100
AcDbEntity
  8
7
100
AcDbLine
 10
7.873031496062992
 20
4.187007874015748
 30
0.0
 11
7.828740157480314
 21
4.20767716535433
 31
0.0
  0
LINE
  5
27C6
330
1E
100
AcDbEntity
  8
7
100
AcDbLine
 10
7.839566929133858
 20
4.044291338582676
 30
0.0
 11
7.849409448818897
 21
4.040354330708661
 31
0.0
  0
LWPOLYLINE
  5
27C7
330
1E
100
AcDbEntity
  8
7
100
AcDbPolyline
 90
        5
 70
     0
 43
0.0098425196850394
 10
7.849409448818897
 20
4.010826771653543
 10
7.856299212598425
 20
4.011811023622047
 10
7.859251968503937
 20
4.020669291338582
 10
7.856299212598425
 20
4.032480314960629
 10
7.849409448818897
 20
4.040354330708661
  0
LINE
  5
27CE
330
1E
100
AcDbEntity
  8
7
100
AcDbLine
 10
7.839566929133858
 20
4.015748031496062
 30
0.0
 11
7.849409448818897
 21
4.010826771653543
 31
0.0
  0
LWPOLYLINE
  5
27CF
330
1E
100
AcDbEntity
  8
7
100
AcDbPolyline
 90
        5
 70
     0
 43
0.0098425196850394
 10
7.839566929133858
 20
4.044291338582676
 10
7.83267716535433
 20
4.043307086614173
 10
7.829724409448818
 20
4.034448818897637
 10
7.83267716535433
 20
4.023622047244094
 10
7.839566929133858
 20
4.015748031496062
  0
LINE
  5
27D6
330
1E
100
AcDbEntity
  8
7
100
AcDbLine
 10
7.839566929133858
 20
4.117125984251968
 30
0.0
 11
7.849409448818897
 21
4.112204724409449
 31
0.0
  0
LWPOLYLINE
  5
27D7
330
1E
100
AcDbEntity
  8
7
100
AcDbPolyline
 90
        5
 70
     0
 43
0.0098425196850394
 10
7.849409448818897
 20
4.083661417322835
 10
7.856299212598425
 20
4.084645669291338
 10
7.859251968503937
 20
4.093503937007874
 10
7.856299212598425
 20
4.105314960629921
 10
7.849409448818897
 20
4.112204724409449
  0
LINE
  5
27DE
330
1E
100
AcDbEntity
  8
7
100
AcDbLine
 10
7.839566929133858
 20
4.088582677165354
 30
0.0
 11
7.849409448818897
 21
4.083661417322835
 31
0.0
  0
LWPOLYLINE
  5
27DF
330
1E
100
AcDbEntity
  8
7
100
AcDbPolyline
 90
        5
 70
     0
 43
0.0098425196850394
 10
7.839566929133858
 20
4.117125984251968
 10
7.83267716535433
 20
4.116141732283464
 10
7.829724409448818
 20
4.107283464566929
 10
7.83267716535433
 20
4.095472440944882
 10
7.839566929133858
 20
4.088582677165354
  0
LINE
  5
27E6
330
1E
100
AcDbEntity
  8
7
100
AcDbLine
 10
7.839566929133858
 20
3.987204724409449
 30
0.0
 11
7.849409448818897
 21
3.982283464566929
 31
0.0
  0
LWPOLYLINE
  5
27E7
330
1E
100
AcDbEntity
  8
7
100
AcDbPolyline
 90
        5
 70
     0
 43
0.0098425196850394
 10
7.849409448818897
 20
3.952755905511811
 10
7.856299212598425
 20
3.954724409448818
 10
7.859251968503937
 20
3.963582677165354
 10
7.856299212598425
 20
3.974409448818897
 10
7.849409448818897
 20
3.982283464566929
  0
LINE
  5
27EE
330
1E
100
AcDbEntity
  8
7
100
AcDbLine
 10
7.839566929133858
 20
3.957677165354331
 30
0.0
 11
7.849409448818897
 21
3.952755905511811
 31
0.0
  0
LWPOLYLINE
  5
27EF
330
1E
100
AcDbEntity
  8
7
100
AcDbPolyline
 90
        5
 70
     0
 43
0.0098425196850394
 10
7.839566929133858
 20
3.987204724409449
 10
7.83267716535433
 20
3.985236220472441
 10
7.829724409448818
 20
3.976377952755905
 10
7.83267716535433
 20
3.965551181102362
 10
7.839566929133858
 20
3.957677165354331
  0
LINE
  5
27F6
330
1E
100
AcDbEntity
  8
7
100
AcDbLine
 10
7.839566929133858
 20
3.914370078740157
 30
0.0
 11
7.849409448818897
 21
3.909448818897637
 31
0.0
  0
LWPOLYLINE
  5
27F7
330
1E
100
AcDbEntity
  8
7
100
AcDbPolyline
 90
        5
 70
     0
 43
0.0098425196850394
 10
7.849409448818897
 20
3.880905511811023
 10
7.856299212598425
 20
3.881889763779527
 10
7.859251968503937
 20
3.890748031496062
 10
7.856299212598425
 20
3.90255905511811
 10
7.849409448818897
 20
3.909448818897637
  0
LINE
  5
27FE
330
1E
100
AcDbEntity
  8
7
100
AcDbLine
 10
7.839566929133858
 20
3.885826771653543
 30
0.0
 11
7.849409448818897
 21
3.880905511811023
 31
0.0
  0
LWPOLYLINE
  5
27FF
330
1E
100
AcDbEntity
  8
7
100
AcDbPolyline
 90
        5
 70
     0
 43
0.0098425196850394
 10
7.839566929133858
 20
3.914370078740157
 10
7.83267716535433
 20
3.913385826771653
 10
7.829724409448818
 20
3.904527559055118
 10
7.83267716535433
 20
3.89271653543307
 10
7.839566929133858
 20
3.885826771653543
  0
LINE
  5
2806
330
1E
100
AcDbEntity
  8
7
100
AcDbLine
 10
7.839566929133858
 20
3.841535433070866
 30
0.0
 11
7.849409448818897
 21
3.83759842519685
 31
0.0
  0
LWPOLYLINE
  5
2807
330
1E
100
AcDbEntity
  8
7
100
AcDbPolyline
 90
        5
 70
     0
 43
0.0098425196850394
 10
7.849409448818897
 20
3.808070866141732
 10
7.856299212598425
 20
3.809055118110236
 10
7.859251968503937
 20
3.817913385826771
 10
7.856299212598425
 20
3.829724409448818
 10
7.849409448818897
 20
3.83759842519685
  0
LINE
  5
280E
330
1E
100
AcDbEntity
  8
7
100
AcDbLine
 10
7.839566929133858
 20
3.812992125984251
 30
0.0
 11
7.849409448818897
 21
3.808070866141732
 31
0.0
  0
LWPOLYLINE
  5
280F
330
1E
100
AcDbEntity
  8
7
100
AcDbPolyline
 90
        5
 70
     0
 43
0.0098425196850394
 10
7.839566929133858
 20
3.841535433070866
 10
7.83267716535433
 20
3.840551181102362
 10
7.829724409448818
 20
3.831692913385826
 10
7.83267716535433
 20
3.820866141732283
 10
7.839566929133858
 20
3.812992125984251
  0
LINE
  5
2816
330
1E
100
AcDbEntity
  8
7
100
AcDbLine
 10
7.839566929133858
 20
4.18996062992126
 30
0.0
 11
7.849409448818897
 21
4.185039370078739
 31
0.0
  0
LWPOLYLINE
  5
2817
330
1E
100
AcDbEntity
  8
7
100
AcDbPolyline
 90
        5
 70
     0
 43
0.0098425196850394
 10
7.849409448818897
 20
4.155511811023622
 10
7.856299212598425
 20
4.157480314960629
 10
7.859251968503937
 20
4.166338582677165
 10
7.856299212598425
 20
4.177165354330708
 10
7.849409448818897
 20
4.185039370078739
  0
LINE
  5
281E
330
1E
100
AcDbEntity
  8
7
100
AcDbLine
 10
7.839566929133858
 20
4.160433070866141
 30
0.0
 11
7.849409448818897
 21
4.155511811023622
 31
0.0
  0
LWPOLYLINE
  5
281F
330
1E
100
AcDbEntity
  8
7
100
AcDbPolyline
 90
        5
 70
     0
 43
0.0098425196850394
 10
7.839566929133858
 20
4.18996062992126
 10
7.83267716535433
 20
4.187992125984251
 10
7.829724409448818
 20
4.179133858267716
 10
7.83267716535433
 20
4.168307086614173
 10
7.839566929133858
 20
4.160433070866141
  0
LWPOLYLINE
  5
2826
330
1E
100
AcDbEntity
  8
7
100
AcDbPolyline
 90
        4
 70
     0
 43
0.0098425196850394
 10
7.828740157480314
 20
3.808070866141732
 10
7.864173228346456
 20
3.791338582677165
 10
7.869094488188976
 20
3.790354330708661
 10
7.873031496062992
 20
3.794291338582677
  0
LWPOLYLINE
  5
282C
330
1E
100
AcDbEntity
  8
7
100
AcDbPolyline
 90
        6
 70
     0
 43
0.0098425196850394
 10
7.828740157480314
 20
4.20767716535433
 10
7.821850393700787
 20
4.206692913385826
 10
7.818897637795275
 20
4.197834645669291
 10
7.818897637795275
 20
3.826771653543307
 10
7.821850393700787
 20
3.814960629921259
 10
7.828740157480314
 20
3.808070866141732
  0
LWPOLYLINE
  5
2834
330
1E
100
AcDbEntity
  8
7
100
AcDbPolyline
 90
        6
 70
     0
 43
0.0098425196850394
 10
7.83759842519685
 20
4.04527559055118
 10
7.835629921259842
 20
4.036417322834645
 10
7.838582677165354
 20
4.024606299212598
 10
7.845472440944881
 20
4.01771653543307
 10
7.855314960629921
 20
4.01279527559055
 10
7.856299212598425
 20
4.01279527559055
  0
LWPOLYLINE
  5
283C
330
1E
100
AcDbEntity
  8
7
100
AcDbPolyline
 90
        6
 70
     0
 43
0.0098425196850394
 10
7.83759842519685
 20
4.117125984251968
 10
7.835629921259842
 20
4.108267716535433
 10
7.838582677165354
 20
4.097440944881889
 10
7.845472440944881
 20
4.089566929133858
 10
7.855314960629921
 20
4.085629921259842
 10
7.856299212598425
 20
4.084645669291338
  0
LWPOLYLINE
  5
2844
330
1E
100
AcDbEntity
  8
7
100
AcDbPolyline
 90
        6
 70
     0
 43
0.0098425196850394
 10
7.83759842519685
 20
3.987204724409449
 10
7.835629921259842
 20
3.978346456692913
 10
7.838582677165354
 20
3.966535433070866
 10
7.845472440944881
 20
3.959645669291338
 10
7.855314960629921
 20
3.954724409448818
 10
7.856299212598425
 20
3.954724409448818
  0
LINE
  5
284C
330
1E
100
AcDbEntity
  8
7
100
AcDbLine
 10
7.83759842519685
 20
3.914370078740157
 30
0.0
 11
7.835629921259842
 21
3.905511811023622
 31
0.0
  0
LWPOLYLINE
  5
284D
330
1E
100
AcDbEntity
  8
7
100
AcDbPolyline
 90
        5
 70
     0
 43
0.0098425196850394
 10
7.835629921259842
 20
3.905511811023622
 10
7.838582677165354
 20
3.894685039370078
 10
7.845472440944881
 20
3.886811023622047
 10
7.855314960629921
 20
3.882874015748031
 10
7.856299212598425
 20
3.881889763779527
  0
LWPOLYLINE
  5
2854
330
1E
100
AcDbEntity
  8
7
100
AcDbPolyline
 90
        6
 70
     0
 43
0.0098425196850394
 10
7.83759842519685
 20
3.84251968503937
 10
7.835629921259842
 20
3.833661417322834
 10
7.838582677165354
 20
3.821850393700787
 10
7.845472440944881
 20
3.814960629921259
 10
7.855314960629921
 20
3.81003937007874
 10
7.856299212598425
 20
3.81003937007874
  0
LWPOLYLINE
  5
285C
330
1E
100
AcDbEntity
  8
7
100
AcDbPolyline
 90
        5
 70
     0
 43
0.0098425196850394
 10
7.83759842519685
 20
4.18996062992126
 10
7.835629921259842
 20
4.181102362204724
 10
7.838582677165354
 20
4.169291338582676
 10
7.845472440944881
 20
4.162401574803149
 10
7.855314960629921
 20
4.157480314960629
  0
LINE
  5
2863
330
1E
100
AcDbEntity
  8
7
100
AcDbLine
 10
7.855314960629921
 20
4.157480314960629
 30
0.0
 11
7.856299212598425
 21
4.157480314960629
 31
0.0
  0
LWPOLYLINE
  5
2864
330
1E
100
AcDbEntity
  8
7
100
AcDbPolyline
 90
        3
 70
     0
 43
0.0098425196850394
 10
7.875984251968503
 20
3.793307086614173
 10
7.875984251968503
 20
3.792322834645669
 10
7.875
 20
3.792322834645669
  0
LWPOLYLINE
  5
2869
330
1E
100
AcDbEntity
  8
7
100
AcDbPolyline
 90
        3
 70
     0
 43
0.0098425196850394
 10
7.829724409448818
 20
4.209645669291338
 10
7.831692913385826
 20
4.209645669291338
 10
7.834645669291338
 20
4.208661417322835
  0
LWPOLYLINE
  5
286E
330
1E
100
AcDbEntity
  8
7
100
AcDbPolyline
 90
        3
 70
     0
 43
0.0098425196850394
 10
9.260826771653542
 20
3.155511811023622
 10
9.261811023622046
 20
3.153543307086614
 10
9.26279527559055
 20
3.15255905511811
  0
LWPOLYLINE
  5
2873
330
1E
100
AcDbEntity
  8
7
100
AcDbPolyline
 90
        3
 70
     0
 43
0.0098425196850394
 10
9.264763779527557
 20
3.551181102362204
 10
9.260826771653542
 20
3.548228346456693
 10
9.26279527559055
 20
3.545275590551181
  0
LINE
  5
2878
330
1E
100
AcDbEntity
  8
7
100
AcDbLine
 10
9.26279527559055
 20
3.545275590551181
 30
0.0
 11
9.268700787401574
 21
3.547244094488188
 31
0.0
  0
LWPOLYLINE
  5
2879
330
1E
100
AcDbEntity
  8
7
100
AcDbPolyline
 90
        3
 70
     0
 43
0.0098425196850394
 10
9.269685039370077
 20
3.549212598425196
 10
9.268700787401574
 20
3.548228346456693
 10
9.268700787401574
 20
3.547244094488188
  0
LWPOLYLINE
  5
287E
330
1E
100
AcDbEntity
  8
7
100
AcDbPolyline
 90
        4
 70
     0
 43
0.0098425196850394
 10
9.26279527559055
 20
3.15255905511811
 10
9.26279527559055
 20
3.545275590551181
 10
9.308070866141731
 20
3.524606299212598
 10
9.313976377952755
 20
3.526574803149606
  0
LINE
  5
2884
330
1E
100
AcDbEntity
  8
7
100
AcDbLine
 10
9.268700787401574
 20
3.547244094488188
 30
0.0
 11
9.313976377952755
 21
3.526574803149606
 31
0.0
  0
LINE
  5
2885
330
1E
100
AcDbEntity
  8
7
100
AcDbLine
 10
9.287401574803148
 20
3.376968503937007
 30
0.0
 11
9.297244094488188
 21
3.372047244094488
 31
0.0
  0
LWPOLYLINE
  5
2886
330
1E
100
AcDbEntity
  8
7
100
AcDbPolyline
 90
        5
 70
     0
 43
0.0098425196850394
 10
9.297244094488188
 20
3.343503937007874
 10
9.304133858267714
 20
3.344488188976378
 10
9.307086614173227
 20
3.353346456692913
 10
9.304133858267714
 20
3.36515748031496
 10
9.297244094488188
 20
3.372047244094488
  0
LINE
  5
288D
330
1E
100
AcDbEntity
  8
7
100
AcDbLine
 10
9.287401574803148
 20
3.348425196850393
 30
0.0
 11
9.297244094488188
 21
3.343503937007874
 31
0.0
  0
LWPOLYLINE
  5
288E
330
1E
100
AcDbEntity
  8
7
100
AcDbPolyline
 90
        5
 70
     0
 43
0.0098425196850394
 10
9.287401574803148
 20
3.376968503937007
 10
9.279527559055116
 20
3.375984251968504
 10
9.277559055118109
 20
3.367125984251968
 10
9.279527559055116
 20
3.355314960629921
 10
9.287401574803148
 20
3.348425196850393
  0
LINE
  5
2895
330
1E
100
AcDbEntity
  8
7
100
AcDbLine
 10
9.287401574803148
 20
3.449803149606299
 30
0.0
 11
9.297244094488188
 21
3.444881889763779
 31
0.0
  0
LWPOLYLINE
  5
2896
330
1E
100
AcDbEntity
  8
7
100
AcDbPolyline
 90
        5
 70
     0
 43
0.0098425196850394
 10
9.297244094488188
 20
3.415354330708661
 10
9.304133858267714
 20
3.417322834645669
 10
9.307086614173227
 20
3.426181102362204
 10
9.304133858267714
 20
3.437007874015748
 10
9.297244094488188
 20
3.444881889763779
  0
LINE
  5
289D
330
1E
100
AcDbEntity
  8
7
100
AcDbLine
 10
9.287401574803148
 20
3.420275590551181
 30
0.0
 11
9.297244094488188
 21
3.415354330708661
 31
0.0
  0
LWPOLYLINE
  5
289E
330
1E
100
AcDbEntity
  8
7
100
AcDbPolyline
 90
        5
 70
     0
 43
0.0098425196850394
 10
9.287401574803148
 20
3.449803149606299
 10
9.279527559055116
 20
3.447834645669291
 10
9.277559055118109
 20
3.438976377952756
 10
9.279527559055116
 20
3.428149606299212
 10
9.287401574803148
 20
3.420275590551181
  0
LINE
  5
28A5
330
1E
100
AcDbEntity
  8
7
100
AcDbLine
 10
9.287401574803148
 20
3.318897637795275
 30
0.0
 11
9.297244094488188
 21
3.313976377952756
 31
0.0
  0
LWPOLYLINE
  5
28A6
330
1E
100
AcDbEntity
  8
7
100
AcDbPolyline
 90
        5
 70
     0
 43
0.0098425196850394
 10
9.297244094488188
 20
3.285433070866141
 10
9.304133858267714
 20
3.286417322834645
 10
9.307086614173227
 20
3.295275590551181
 10
9.304133858267714
 20
3.307086614173228
 10
9.297244094488188
 20
3.313976377952756
  0
LINE
  5
28AD
330
1E
100
AcDbEntity
  8
7
100
AcDbLine
 10
9.287401574803148
 20
3.290354330708661
 30
0.0
 11
9.297244094488188
 21
3.285433070866141
 31
0.0
  0
LWPOLYLINE
  5
28AE
330
1E
100
AcDbEntity
  8
7
100
AcDbPolyline
 90
        5
 70
     0
 43
0.0098425196850394
 10
9.287401574803148
 20
3.318897637795275
 10
9.279527559055116
 20
3.317913385826771
 10
9.277559055118109
 20
3.309055118110236
 10
9.279527559055116
 20
3.297244094488188
 10
9.287401574803148
 20
3.290354330708661
  0
LINE
  5
28B5
330
1E
100
AcDbEntity
  8
7
100
AcDbLine
 10
9.287401574803148
 20
3.247047244094488
 30
0.0
 11
9.297244094488188
 21
3.242125984251968
 31
0.0
  0
LWPOLYLINE
  5
28B6
330
1E
100
AcDbEntity
  8
7
100
AcDbPolyline
 90
        5
 70
     0
 43
0.0098425196850394
 10
9.297244094488188
 20
3.21259842519685
 10
9.304133858267714
 20
3.214566929133858
 10
9.307086614173227
 20
3.223425196850393
 10
9.304133858267714
 20
3.234251968503937
 10
9.297244094488188
 20
3.242125984251968
  0
LINE
  5
28BD
330
1E
100
AcDbEntity
  8
7
100
AcDbLine
 10
9.287401574803148
 20
3.21751968503937
 30
0.0
 11
9.297244094488188
 21
3.21259842519685
 31
0.0
  0
LWPOLYLINE
  5
28BE
330
1E
100
AcDbEntity
  8
7
100
AcDbPolyline
 90
        5
 70
     0
 43
0.0098425196850394
 10
9.287401574803148
 20
3.247047244094488
 10
9.279527559055116
 20
3.24507874015748
 10
9.277559055118109
 20
3.236220472440944
 10
9.279527559055116
 20
3.225393700787401
 10
9.287401574803148
 20
3.21751968503937
  0
LINE
  5
28C5
330
1E
100
AcDbEntity
  8
7
100
AcDbLine
 10
9.287401574803148
 20
3.174212598425196
 30
0.0
 11
9.297244094488188
 21
3.169291338582677
 31
0.0
  0
LWPOLYLINE
  5
28C6
330
1E
100
AcDbEntity
  8
7
100
AcDbPolyline
 90
        5
 70
     0
 43
0.0098425196850394
 10
9.297244094488188
 20
3.140748031496062
 10
9.304133858267714
 20
3.141732283464567
 10
9.307086614173227
 20
3.150590551181102
 10
9.304133858267714
 20
3.162401574803149
 10
9.297244094488188
 20
3.169291338582677
  0
LINE
  5
28CD
330
1E
100
AcDbEntity
  8
7
100
AcDbLine
 10
9.287401574803148
 20
3.145669291338582
 30
0.0
 11
9.297244094488188
 21
3.140748031496062
 31
0.0
  0
LWPOLYLINE
  5
28CE
330
1E
100
AcDbEntity
  8
7
100
AcDbPolyline
 90
        5
 70
     0
 43
0.0098425196850394
 10
9.287401574803148
 20
3.174212598425196
 10
9.279527559055116
 20
3.173228346456693
 10
9.277559055118109
 20
3.164370078740157
 10
9.279527559055116
 20
3.15255905511811
 10
9.287401574803148
 20
3.145669291338582
  0
LINE
  5
28D5
330
1E
100
AcDbEntity
  8
7
100
AcDbLine
 10
9.287401574803148
 20
3.521653543307086
 30
0.0
 11
9.297244094488188
 21
3.516732283464567
 31
0.0
  0
LWPOLYLINE
  5
28D6
330
1E
100
AcDbEntity
  8
7
100
AcDbPolyline
 90
        5
 70
     0
 43
0.0098425196850394
 10
9.297244094488188
 20
3.488188976377952
 10
9.304133858267714
 20
3.489173228346456
 10
9.307086614173227
 20
3.498031496062992
 10
9.304133858267714
 20
3.509842519685039
 10
9.297244094488188
 20
3.516732283464567
  0
LINE
  5
28DD
330
1E
100
AcDbEntity
  8
7
100
AcDbLine
 10
9.287401574803148
 20
3.493110236220472
 30
0.0
 11
9.297244094488188
 21
3.488188976377952
 31
0.0
  0
LWPOLYLINE
  5
28DE
330
1E
100
AcDbEntity
  8
7
100
AcDbPolyline
 90
        5
 70
     0
 43
0.0098425196850394
 10
9.287401574803148
 20
3.521653543307086
 10
9.279527559055116
 20
3.520669291338582
 10
9.277559055118109
 20
3.511811023622047
 10
9.279527559055116
 20
3.5
 10
9.287401574803148
 20
3.493110236220472
  0
LINE
  5
28E5
330
1E
100
AcDbEntity
  8
7
100
AcDbLine
 10
9.31791338582677
 20
3.134842519685039
 30
0.0
 11
9.31791338582677
 21
3.505905511811023
 31
0.0
  0
LWPOLYLINE
  5
28E6
330
1E
100
AcDbEntity
  8
7
100
AcDbPolyline
 90
        3
 70
     0
 43
0.0098425196850394
 10
9.31791338582677
 20
3.505905511811023
 10
9.314960629921259
 20
3.51771653543307
 10
9.308070866141731
 20
3.524606299212598
  0
LWPOLYLINE
  5
28EB
330
1E
100
AcDbEntity
  8
7
100
AcDbPolyline
 90
        6
 70
     0
 43
0.0098425196850394
 10
9.26279527559055
 20
3.15255905511811
 10
9.266732283464566
 20
3.145669291338582
 10
9.271653543307085
 20
3.141732283464567
 10
9.308070866141731
 20
3.125
 10
9.314960629921259
 20
3.125984251968504
 10
9.31791338582677
 20
3.134842519685039
  0
LWPOLYLINE
  5
28F3
330
1E
100
AcDbEntity
  8
7
100
AcDbPolyline
 90
        7
 70
     0
 43
0.0098425196850394
 10
9.28543307086614
 20
3.376968503937007
 10
9.282480314960629
 20
3.368110236220472
 10
9.28543307086614
 20
3.357283464566929
 10
9.292322834645668
 20
3.349409448818897
 10
9.303149606299211
 20
3.345472440944881
 10
9.303149606299211
 20
3.344488188976378
 10
9.304133858267714
 20
3.344488188976378
  0
LWPOLYLINE
  5
28FC
330
1E
100
AcDbEntity
  8
7
100
AcDbPolyline
 90
        6
 70
     0
 43
0.0098425196850394
 10
9.28543307086614
 20
3.449803149606299
 10
9.282480314960629
 20
3.440944881889763
 10
9.28543307086614
 20
3.429133858267716
 10
9.292322834645668
 20
3.422244094488188
 10
9.303149606299211
 20
3.417322834645669
 10
9.304133858267714
 20
3.417322834645669
  0
LWPOLYLINE
  5
2904
330
1E
100
AcDbEntity
  8
7
100
AcDbPolyline
 90
        6
 70
     0
 43
0.0098425196850394
 10
9.28543307086614
 20
3.319881889763779
 10
9.282480314960629
 20
3.31003937007874
 10
9.28543307086614
 20
3.299212598425196
 10
9.292322834645668
 20
3.291338582677165
 10
9.303149606299211
 20
3.287401574803149
 10
9.304133858267714
 20
3.286417322834645
  0
LINE
  5
290C
330
1E
100
AcDbEntity
  8
7
100
AcDbLine
 10
9.28543307086614
 20
3.247047244094488
 30
0.0
 11
9.282480314960629
 21
3.238188976377952
 31
0.0
  0
LWPOLYLINE
  5
290D
330
1E
100
AcDbEntity
  8
7
100
AcDbPolyline
 90
        5
 70
     0
 43
0.0098425196850394
 10
9.282480314960629
 20
3.238188976377952
 10
9.28543307086614
 20
3.226377952755905
 10
9.292322834645668
 20
3.219488188976378
 10
9.303149606299211
 20
3.214566929133858
 10
9.304133858267714
 20
3.214566929133858
  0
LWPOLYLINE
  5
2914
330
1E
100
AcDbEntity
  8
7
100
AcDbPolyline
 90
        7
 70
     0
 43
0.0098425196850394
 10
9.28543307086614
 20
3.174212598425196
 10
9.282480314960629
 20
3.165354330708661
 10
9.28543307086614
 20
3.154527559055118
 10
9.292322834645668
 20
3.146653543307086
 10
9.303149606299211
 20
3.14271653543307
 10
9.303149606299211
 20
3.141732283464567
 10
9.304133858267714
 20
3.141732283464567
  0
LWPOLYLINE
  5
291D
330
1E
100
AcDbEntity
  8
7
100
AcDbPolyline
 90
        4
 70
     0
 43
0.0098425196850394
 10
9.28543307086614
 20
3.52263779527559
 10
9.282480314960629
 20
3.512795275590551
 10
9.28543307086614
 20
3.501968503937007
 10
9.292322834645668
 20
3.494094488188976
  0
LWPOLYLINE
  5
2923
330
1E
100
AcDbEntity
  8
7
100
AcDbPolyline
 90
        3
 70
     0
 43
0.0098425196850394
 10
9.292322834645668
 20
3.494094488188976
 10
9.303149606299211
 20
3.49015748031496
 10
9.304133858267714
 20
3.489173228346456
  0
LWPOLYLINE
  5
2928
330
1E
100
AcDbEntity
  8
7
100
AcDbPolyline
 90
        6
 70
     0
 43
0.0098425196850394
 10
9.313976377952755
 20
3.526574803149606
 10
9.320866141732283
 20
3.518700787401574
 10
9.323818897637794
 20
3.507874015748031
 10
9.323818897637794
 20
3.136811023622047
 10
9.321850393700787
 20
3.129921259842519
 10
9.31791338582677
 20
3.125984251968504
  0
LINE
  5
2930
330
1E
100
AcDbEntity
  8
7
100
AcDbLine
 10
9.323818897637794
 20
3.507874015748031
 30
0.0
 11
9.31791338582677
 21
3.505905511811023
 31
0.0
  0
LINE
  5
2931
330
1E
100
AcDbEntity
  8
7
100
AcDbLine
 10
9.31791338582677
 20
3.134842519685039
 30
0.0
 11
9.323818897637794
 21
3.136811023622047
 31
0.0
  0
LINE
  5
2932
330
1E
100
AcDbEntity
  8
7
100
AcDbLine
 10
7.845472440944881
 20
4.162401574803149
 30
0.0
 11
7.839566929133858
 21
4.160433070866141
 31
0.0
  0
LINE
  5
2933
330
1E
100
AcDbEntity
  8
7
100
AcDbLine
 10
7.855314960629921
 20
4.157480314960629
 30
0.0
 11
7.849409448818897
 21
4.155511811023622
 31
0.0
  0
LINE
  5
2934
330
1E
100
AcDbEntity
  8
7
100
AcDbLine
 10
7.845472440944881
 20
3.814960629921259
 30
0.0
 11
7.839566929133858
 21
3.812992125984251
 31
0.0
  0
LINE
  5
2935
330
1E
100
AcDbEntity
  8
7
100
AcDbLine
 10
7.855314960629921
 20
3.81003937007874
 30
0.0
 11
7.849409448818897
 21
3.808070866141732
 31
0.0
  0
LINE
  5
2936
330
1E
100
AcDbEntity
  8
7
100
AcDbLine
 10
9.292322834645668
 20
3.494094488188976
 30
0.0
 11
9.287401574803148
 21
3.493110236220472
 31
0.0
  0
LINE
  5
2937
330
1E
100
AcDbEntity
  8
7
100
AcDbLine
 10
9.303149606299211
 20
3.49015748031496
 30
0.0
 11
9.297244094488188
 21
3.488188976377952
 31
0.0
  0
LINE
  5
2938
330
1E
100
AcDbEntity
  8
7
100
AcDbLine
 10
9.292322834645668
 20
3.146653543307086
 30
0.0
 11
9.287401574803148
 21
3.145669291338582
 31
0.0
  0
LINE
  5
2939
330
1E
100
AcDbEntity
  8
7
100
AcDbLine
 10
9.303149606299211
 20
3.14271653543307
 30
0.0
 11
9.297244094488188
 21
3.140748031496062
 31
0.0
  0
LWPOLYLINE
  5
293A
330
1E
100
AcDbEntity
  8
7
100
AcDbPolyline
 90
        3
 70
     0
 43
0.0098425196850394
 10
9.342519685039368
 20
4.232283464566929
 10
9.344488188976377
 20
4.234251968503937
 10
9.345472440944881
 20
4.236220472440945
  0
LINE
  5
293F
330
1E
100
AcDbEntity
  8
7
100
AcDbLine
 10
10.72047244094488
 20
3.599409448818897
 30
0.0
 11
10.72145669291338
 21
3.599409448818897
 31
0.0
  0
LINE
  5
2940
330
1E
100
AcDbEntity
  8
7
100
AcDbLine
 10
10.57086614173228
 20
3.671259842519685
 30
0.0
 11
9.345472440944881
 21
4.236220472440945
 31
0.0
  0
LWPOLYLINE
  5
2941
330
1E
100
AcDbEntity
  8
7
100
AcDbPolyline
 90
        4
 70
     0
 43
0.0098425196850394
 10
9.353346456692912
 20
4.291338582677165
 10
10.71948818897637
 20
3.661417322834645
 10
10.7263779527559
 20
3.653543307086614
 10
10.72933070866141
 20
3.64271653543307
  0
LINE
  5
2947
330
1E
100
AcDbEntity
  8
7
100
AcDbLine
 10
10.72933070866141
 20
3.602362204724409
 30
0.0
 11
10.72933070866141
 21
3.64271653543307
 31
0.0
  0
LWPOLYLINE
  5
2948
330
1E
100
AcDbEntity
  8
7
100
AcDbPolyline
 90
        3
 70
     0
 43
0.0098425196850394
 10
9.349409448818896
 20
4.292322834645669
 10
9.351377952755903
 20
4.292322834645669
 10
9.353346456692912
 20
4.291338582677165
  0
LWPOLYLINE
  5
294D
330
1E
100
AcDbEntity
  8
7
100
AcDbPolyline
 90
        4
 70
     0
 43
0.0098425196850394
 10
10.72342519685039
 20
3.600393700787401
 10
10.72342519685039
 20
3.640748031496062
 10
10.72342519685039
 20
3.64271653543307
 10
10.72342519685039
 20
3.645669291338582
  0
LWPOLYLINE
  5
2953
330
1E
100
AcDbEntity
  8
7
100
AcDbPolyline
 90
        6
 70
     0
 43
0.0098425196850394
 10
10.71653543307086
 20
3.65748031496063
 10
10.71555118110236
 20
3.658464566929133
 10
10.71358267716535
 20
3.659448818897637
 10
9.348425196850392
 20
4.289370078740157
 10
9.344488188976377
 20
4.290354330708661
 10
9.341535433070864
 20
4.289370078740157
  0
LINE
  5
295B
330
1E
100
AcDbEntity
  8
7
100
AcDbLine
 10
9.345472440944881
 20
4.236220472440945
 30
0.0
 11
9.342519685039368
 21
4.238188976377952
 31
0.0
  0
LINE
  5
295C
330
1E
100
AcDbEntity
  8
7
100
AcDbLine
 10
10.72342519685039
 20
3.601377952755905
 30
0.0
 11
10.72342519685039
 21
3.600393700787401
 31
0.0
  0
LINE
  5
295D
330
1E
100
AcDbEntity
  8
7
100
AcDbLine
 10
10.71358267716535
 20
3.659448818897637
 30
0.0
 11
10.71948818897637
 21
3.661417322834645
 31
0.0
  0
LINE
  5
295E
330
1E
100
AcDbEntity
  8
7
100
AcDbLine
 10
9.353346456692912
 20
4.291338582677165
 30
0.0
 11
9.348425196850392
 21
4.289370078740157
 31
0.0
  0
LINE
  5
295F
330
1E
100
AcDbEntity
  8
7
100
AcDbLine
 10
10.72933070866141
 20
3.602362204724409
 30
0.0
 11
10.72342519685039
 21
3.600393700787401
 31
0.0
  0
LINE
  5
2960
330
1E
100
AcDbEntity
  8
7
100
AcDbLine
 10
10.72933070866141
 20
3.64271653543307
 30
0.0
 11
10.72342519685039
 21
3.640748031496062
 31
0.0
  0
LINE
  5
2961
330
1E
100
AcDbEntity
  8
7
100
AcDbLine
 10
9.367125984251966
 20
4.166338582677165
 30
0.0
 11
9.367125984251966
 21
4.173228346456692
 31
0.0
  0
LINE
  5
2962
330
1E
100
AcDbEntity
  8
7
100
AcDbLine
 10
9.384842519685038
 20
4.172244094488188
 30
0.0
 11
9.384842519685038
 21
4.179133858267716
 31
0.0
  0
LINE
  5
2963
330
1E
100
AcDbEntity
  8
7
100
AcDbLine
 10
9.252952755905511
 20
3.160433070866141
 30
0.0
 11
9.252952755905511
 21
3.153543307086614
 31
0.0
  0
LINE
  5
2964
330
1E
100
AcDbEntity
  8
7
100
AcDbLine
 10
9.253937007874014
 20
3.154527559055118
 30
0.0
 11
9.253937007874014
 21
3.161417322834645
 31
0.0
  0
LWPOLYLINE
  5
2965
330
1E
100
AcDbEntity
  8
7
100
AcDbPolyline
 90
        4
 70
     0
 43
0.0098425196850394
 10
9.252952755905511
 20
3.160433070866141
 10
9.250984251968503
 20
3.161417322834645
 10
9.25
 20
3.163385826771653
 10
9.244094488188975
 20
3.161417322834645
  0
LWPOLYLINE
  5
296B
330
1E
100
AcDbEntity
  8
7
100
AcDbPolyline
 90
        3
 70
     0
 43
0.0098425196850394
 10
9.252952755905511
 20
3.153543307086614
 10
9.246062992125983
 20
3.154527559055118
 10
9.244094488188975
 20
3.161417322834645
  0
LWPOLYLINE
  5
2970
330
1E
100
AcDbEntity
  8
7
100
AcDbPolyline
 90
        3
 70
     0
 43
0.0098425196850394
 10
7.896653543307087
 20
3.77755905511811
 10
7.893700787401574
 20
3.780511811023622
 10
7.892716535433071
 20
3.785433070866141
  0
LINE
  5
2975
330
1E
100
AcDbEntity
  8
7
100
AcDbLine
 10
9.244094488188975
 20
3.161417322834645
 30
0.0
 11
7.892716535433071
 21
3.785433070866141
 31
0.0
  0
LWPOLYLINE
  5
2976
330
1E
100
AcDbEntity
  8
7
100
AcDbPolyline
 90
        3
 70
     0
 43
0.0098425196850394
 10
9.25
 20
3.163385826771653
 10
9.25
 20
3.1751968503937
 10
9.244094488188975
 20
3.173228346456693
  0
LINE
  5
297B
330
1E
100
AcDbEntity
  8
7
100
AcDbLine
 10
9.244094488188975
 20
3.161417322834645
 30
0.0
 11
9.244094488188975
 21
3.173228346456693
 31
0.0
  0
LINE
  5
297C
330
1E
100
AcDbEntity
  8
7
100
AcDbLine
 10
7.892716535433071
 20
3.785433070866141
 30
0.0
 11
7.892716535433071
 21
3.796259842519685
 31
0.0
  0
LWPOLYLINE
  5
297D
330
1E
100
AcDbEntity
  8
7
100
AcDbPolyline
 90
        6
 70
     0
 43
0.0098425196850394
 10
9.244094488188975
 20
3.173228346456693
 10
9.241141732283463
 20
3.184055118110236
 10
9.234251968503935
 20
3.191929133858267
 10
7.90255905511811
 20
3.806102362204724
 10
7.895669291338582
 20
3.80511811023622
 10
7.892716535433071
 20
3.796259842519685
  0
LWPOLYLINE
  5
2985
330
1E
100
AcDbEntity
  8
7
100
AcDbPolyline
 90
        4
 70
     0
 43
0.0098425196850394
 10
7.908464566929134
 20
3.808070866141732
 10
9.240157480314959
 20
3.193897637795275
 10
9.247047244094487
 20
3.186023622047243
 10
9.25
 20
3.1751968503937
  0
LWPOLYLINE
  5
298B
330
1E
100
AcDbEntity
  8
7
100
AcDbPolyline
 90
        3
 70
     0
 43
0.0098425196850394
 10
7.903543307086613
 20
3.809055118110236
 10
7.905511811023622
 20
3.809055118110236
 10
7.908464566929134
 20
3.808070866141732
  0
LINE
  5
2990
330
1E
100
AcDbEntity
  8
7
100
AcDbLine
 10
9.234251968503935
 20
3.191929133858267
 30
0.0
 11
9.240157480314959
 21
3.193897637795275
 31
0.0
  0
LINE
  5
2991
330
1E
100
AcDbEntity
  8
7
100
AcDbLine
 10
7.908464566929134
 20
3.808070866141732
 30
0.0
 11
7.90255905511811
 21
3.806102362204724
 31
0.0
  0
LINE
  5
2992
330
1E
100
AcDbEntity
  8
7
100
AcDbLine
 10
10.71456692913385
 20
3.65748031496063
 30
0.0
 11
10.70964566929133
 21
3.660433070866141
 31
0.0
  0
LINE
  5
2993
330
1E
100
AcDbEntity
  8
7
100
AcDbLine
 10
9.333661417322833
 20
4.295275590551181
 30
0.0
 11
9.328740157480314
 21
4.297244094488188
 31
0.0
  0
LINE
  5
2994
330
1E
100
AcDbEntity
  8
7
100
AcDbLine
 10
7.845472440944881
 20
3.886811023622047
 30
0.0
 11
7.839566929133858
 21
3.885826771653543
 31
0.0
  0
LINE
  5
2995
330
1E
100
AcDbEntity
  8
7
100
AcDbLine
 10
7.855314960629921
 20
3.882874015748031
 30
0.0
 11
7.849409448818897
 21
3.880905511811023
 31
0.0
  0
LINE
  5
2996
330
1E
100
AcDbEntity
  8
7
100
AcDbLine
 10
7.845472440944881
 20
3.959645669291338
 30
0.0
 11
7.839566929133858
 21
3.957677165354331
 31
0.0
  0
LINE
  5
2997
330
1E
100
AcDbEntity
  8
7
100
AcDbLine
 10
7.855314960629921
 20
3.954724409448818
 30
0.0
 11
7.849409448818897
 21
3.952755905511811
 31
0.0
  0
LINE
  5
2998
330
1E
100
AcDbEntity
  8
7
100
AcDbLine
 10
7.845472440944881
 20
4.089566929133858
 30
0.0
 11
7.839566929133858
 21
4.088582677165354
 31
0.0
  0
LINE
  5
2999
330
1E
100
AcDbEntity
  8
7
100
AcDbLine
 10
7.855314960629921
 20
4.085629921259842
 30
0.0
 11
7.849409448818897
 21
4.083661417322835
 31
0.0
  0
LINE
  5
299A
330
1E
100
AcDbEntity
  8
7
100
AcDbLine
 10
7.845472440944881
 20
4.01771653543307
 30
0.0
 11
7.839566929133858
 21
4.015748031496062
 31
0.0
  0
LINE
  5
299B
330
1E
100
AcDbEntity
  8
7
100
AcDbLine
 10
7.855314960629921
 20
4.01279527559055
 30
0.0
 11
7.849409448818897
 21
4.010826771653543
 31
0.0
  0
LINE
  5
299C
330
1E
100
AcDbEntity
  8
7
100
AcDbLine
 10
9.292322834645668
 20
3.219488188976378
 30
0.0
 11
9.287401574803148
 21
3.21751968503937
 31
0.0
  0
LINE
  5
299D
330
1E
100
AcDbEntity
  8
7
100
AcDbLine
 10
9.303149606299211
 20
3.214566929133858
 30
0.0
 11
9.297244094488188
 21
3.21259842519685
 31
0.0
  0
LINE
  5
299E
330
1E
100
AcDbEntity
  8
7
100
AcDbLine
 10
9.292322834645668
 20
3.291338582677165
 30
0.0
 11
9.287401574803148
 21
3.290354330708661
 31
0.0
  0
LINE
  5
299F
330
1E
100
AcDbEntity
  8
7
100
AcDbLine
 10
9.303149606299211
 20
3.287401574803149
 30
0.0
 11
9.297244094488188
 21
3.285433070866141
 31
0.0
  0
LINE
  5
29A0
330
1E
100
AcDbEntity
  8
7
100
AcDbLine
 10
9.292322834645668
 20
3.422244094488188
 30
0.0
 11
9.287401574803148
 21
3.420275590551181
 31
0.0
  0
LINE
  5
29A1
330
1E
100
AcDbEntity
  8
7
100
AcDbLine
 10
9.303149606299211
 20
3.417322834645669
 30
0.0
 11
9.297244094488188
 21
3.415354330708661
 31
0.0
  0
LINE
  5
29A2
330
1E
100
AcDbEntity
  8
7
100
AcDbLine
 10
9.292322834645668
 20
3.349409448818897
 30
0.0
 11
9.287401574803148
 21
3.348425196850393
 31
0.0
  0
LINE
  5
29A3
330
1E
100
AcDbEntity
  8
7
100
AcDbLine
 10
9.303149606299211
 20
3.345472440944881
 30
0.0
 11
9.297244094488188
 21
3.343503937007874
 31
0.0
  0
ENDSEC
  0
SECTION
  2
OBJECTS
  0
DICTIONARY
  5
C
330
0
100
AcDbDictionary
  3
ACAD_GROUP
350
D
  3
ACAD_LAYOUT
350
19
  3
ACAD_MLINESTYLE
350
16
  3
ACAD_PLOTSETTINGS
350
18
  3
ACAD_PLOTSTYLENAME
350
E
  3
ACDBHEADERROUNDTRIPXREC
350
29DC
  0
DICTIONARY
  5
29FF
330
1E
100
AcDbDictionary
280
     1
  3
ACAD_LAYOUTSELFREF
360
2A00
  0
DICTIONARY
  5
29FD
330
1A
100
AcDbDictionary
280
     1
  3
ACAD_LAYOUTSELFREF
360
29FE
  0
DICTIONARY
  5
D
102
{ACAD_REACTORS
330
C
102
}
330
C
100
AcDbDictionary
  0
DICTIONARY
  5
19
102
{ACAD_REACTORS
330
C
102
}
330
C
100
AcDbDictionary
  0
DICTIONARY
  5
16
102
{ACAD_REACTORS
330
C
102
}
330
C
100
AcDbDictionary
  3
STANDARD
350
17
  0
DICTIONARY
  5
18
102
{ACAD_REACTORS
330
C
102
}
330
C
100
AcDbDictionary
  0
ACDBDICTIONARYWDFLT
  5
E
102
{ACAD_REACTORS
330
C
102
}
330
C
100
AcDbDictionary
281
     1
  3
Normal
350
F
100
AcDbDictionaryWithDefault
340
F
  0
DICTIONARY
  5
29DC
102
{ACAD_REACTORS
330
C
102
}
330
C
100
AcDbDictionary
  3
CEPSNTYPE
350
29E6
  3
DIMSTYLEDATA
350
29EA
  3
FINGERPRINTGUID
350
29E7
  3
HYPERLINKBASE
350
29DF
  3
INSUNITS
350
29E5
  3
LAYOUTDICT
350
29E1
  3
LWETCUNION
350
29E4
  3
PLOTSETDICT
350
29E2
  3
PLOTSTYLNAMDICT
350
29E3
  3
PSVPSCALE
350
29E9
  3
PUCSBASE
350
29ED
  3
PUCSORGBACK
350
29F3
  3
PUCSORGBOTTOM
350
29EF
  3
PUCSORGFRONT
350
29F2
  3
PUCSORGLEFT
350
29F0
  3
PUCSORGRIGHT
350
29F1
  3
PUCSORGTOP
350
29EE
  3
PUCSORTHOREF
350
29EB
  3
PUCSORTHOVIEW
350
29EC
  3
STYLESHEET
350
29E0
  3
TSTACKALIGN
350
29DD
  3
TSTACKSIZE
350
29DE
  3
UCSBASE
350
29F6
  3
UCSORGBACK
350
29FC
  3
UCSORGBOTTOM
350
29F8
  3
UCSORGFRONT
350
29FB
  3
UCSORGLEFT
350
29F9
  3
UCSORGRIGHT
350
29FA
  3
UCSORGTOP
350
29F7
  3
UCSORTHOREF
350
29F4
  3
UCSORTHOVIEW
350
29F5
  3
VERSIONGUID
350
29E8
  0
XRECORD
  5
2A00
102
{ACAD_REACTORS
330
29FF
102
}
330
29FF
100
AcDbXrecord
340
1E
  0
XRECORD
  5
29FE
102
{ACAD_REACTORS
330
29FD
102
}
330
29FD
100
AcDbXrecord
340
1A
  0
MLINESTYLE
  5
17
102
{ACAD_REACTORS
330
16
102
}
330
16
100
AcDbMlineStyle
  2
STANDARD
 70
     0
  3

 62
   256
 51
90.0
 52
90.0
 71
     2
 49
0.5
 62
   256
  6
BYLAYER
 49
-0.5
 62
   256
  6
BYLAYER
  0
ACDBPLACEHOLDER
  5
F
102
{ACAD_REACTORS
330
E
102
}
330
E
100
AcDbPlaceHolder
280
     0
  0
XRECORD
  5
29E6
102
{ACAD_REACTORS
330
29DC
102
}
330
29DC
100
AcDbXrecord
 90
        0
  0
XRECORD
  5
29EA
102
{ACAD_REACTORS
330
29DC
102
}
330
29DC
100
AcDbXrecord
1000
DSTYLE
1002
{
1070
   279
 70
     2
1002
}
  0
XRECORD
  5
29E7
102
{ACAD_REACTORS
330
29DC
102
}
330
29DC
100
AcDbXrecord
  1
{C50A7076-AEA0-11D5-B722-00B0D0207C23}
  0
XRECORD
  5
29DF
102
{ACAD_REACTORS
330
29DC
102
}
330
29DC
100
AcDbXrecord
  1

  0
XRECORD
  5
29E5
102
{ACAD_REACTORS
330
29DC
102
}
330
29DC
100
AcDbXrecord
 90
        0
  0
XRECORD
  5
29E1
102
{ACAD_REACTORS
330
29DC
102
}
330
29DC
100
AcDbXrecord
340
19
  0
XRECORD
  5
29E4
102
{ACAD_REACTORS
330
29DC
102
}
330
29DC
100
AcDbXrecord
 90
    14877
  0
XRECORD
  5
29E2
102
{ACAD_REACTORS
330
29DC
102
}
330
29DC
100
AcDbXrecord
340
18
  0
XRECORD
  5
29E3
102
{ACAD_REACTORS
330
29DC
102
}
330
29DC
100
AcDbXrecord
340
E
  0
XRECORD
  5
29E9
102
{ACAD_REACTORS
330
29DC
102
}
330
29DC
100
AcDbXrecord
 40
0.0
  0
XRECORD
  5
29ED
102
{ACAD_REACTORS
330
29DC
102
}
330
29DC
100
AcDbXrecord
340
0
  0
XRECORD
  5
29F3
102
{ACAD_REACTORS
330
29DC
102
}
330
29DC
100
AcDbXrecord
 10
0.0
 20
0.0
 30
0.0
  0
XRECORD
  5
29EF
102
{ACAD_REACTORS
330
29DC
102
}
330
29DC
100
AcDbXrecord
 10
0.0
 20
0.0
 30
0.0
  0
XRECORD
  5
29F2
102
{ACAD_REACTORS
330
29DC
102
}
330
29DC
100
AcDbXrecord
 10
0.0
 20
0.0
 30
0.0
  0
XRECORD
  5
29F0
102
{ACAD_REACTORS
330
29DC
102
}
330
29DC
100
AcDbXrecord
 10
0.0
 20
0.0
 30
0.0
  0
XRECORD
  5
29F1
102
{ACAD_REACTORS
330
29DC
102
}
330
29DC
100
AcDbXrecord
 10
0.0
 20
0.0
 30
0.0
  0
XRECORD
  5
29EE
102
{ACAD_REACTORS
330
29DC
102
}
330
29DC
100
AcDbXrecord
 10
0.0
 20
0.0
 30
0.0
  0
XRECORD
  5
29EB
102
{ACAD_REACTORS
330
29DC
102
}
330
29DC
100
AcDbXrecord
340
0
  0
XRECORD
  5
29EC
102
{ACAD_REACTORS
330
29DC
102
}
330
29DC
100
AcDbXrecord
 70
     0
  0
XRECORD
  5
29E0
102
{ACAD_REACTORS
330
29DC
102
}
330
29DC
100
AcDbXrecord
  1

  0
XRECORD
  5
29DD
102
{ACAD_REACTORS
330
29DC
102
}
330
29DC
100
AcDbXrecord
 90
        1
  0
XRECORD
  5
29DE
102
{ACAD_REACTORS
330
29DC
102
}
330
29DC
100
AcDbXrecord
 90
       70
  0
XRECORD
  5
29F6
102
{ACAD_REACTORS
330
29DC
102
}
330
29DC
100
AcDbXrecord
340
0
  0
XRECORD
  5
29FC
102
{ACAD_REACTORS
330
29DC
102
}
330
29DC
100
AcDbXrecord
 10
0.0
 20
0.0
 30
0.0
  0
XRECORD
  5
29F8
102
{ACAD_REACTORS
330
29DC
102
}
330
29DC
100
AcDbXrecord
 10
0.0
 20
0.0
 30
0.0
  0
XRECORD
  5
29FB
102
{ACAD_REACTORS
330
29DC
102
}
330
29DC
100
AcDbXrecord
 10
0.0
 20
0.0
 30
0.0
  0
XRECORD
  5
29F9
102
{ACAD_REACTORS
330
29DC
102
}
330
29DC
100
AcDbXrecord
 10
0.0
 20
0.0
 30
0.0
  0
XRECORD
  5
29FA
102
{ACAD_REACTORS
330
29DC
102
}
330
29DC
100
AcDbXrecord
 10
0.0
 20
0.0
 30
0.0
  0
XRECORD
  5
29F7
102
{ACAD_REACTORS
330
29DC
102
}
330
29DC
100
AcDbXrecord
 10
0.0
 20
0.0
 30
0.0
  0
XRECORD
  5
29F4
102
{ACAD_REACTORS
330
29DC
102
}
330
29DC
100
AcDbXrecord
340
0
  0
XRECORD
  5
29F5
102
{ACAD_REACTORS
330
29DC
102
}
330
29DC
100
AcDbXrecord
 70
     0
  0
XRECORD
  5
29E8
102
{ACAD_REACTORS
330
29DC
102
}
330
29DC
100
AcDbXrecord
  1
{C50A707A-AEA0-11D5-B722-00B0D0207C23}
  0
ENDSEC
  0
EOF
