  0
SECTION
  2
HEADER
  9
$ACADVER
  1
AC1009
  9
$INSBASE
 10
0.0
 20
0.0
 30
0.0
  9
$EXTMIN
 10
0.8226928999911677
 20
3.0168457275918281
 30
-0.0015258207003583
  9
$EXTMAX
 10
6.7022094944284873
 20
7.5178070260651948
 30
0.0000000349246037
  9
$LIMMIN
 10
0.0
 20
0.0
  9
$LIMMAX
 10
12.0
 20
9.0
  9
$ORTHOMODE
 70
     0
  9
$REGENMODE
 70
     1
  9
$FILLMODE
 70
     1
  9
$QTEXTMODE
 70
     0
  9
$MIRRTEXT
 70
     1
  9
$DRAGMODE
 70
     2
  9
$LTSCALE
 40
1.0
  9
$OSMODE
 70
   547
  9
$ATTMODE
 70
     1
  9
$TEXTSIZE
 40
0.2
  9
$TRACEWID
 40
0.05
  9
$TEXTSTYLE
  7
STANDARD
  9
$CLAYER
  8
0
  9
$CELTYPE
  6
BYLAYER
  9
$CECOLOR
 62
   256
  9
$DIMSCALE
 40
1.0
  9
$DIMASZ
 40
0.18
  9
$DIMEXO
 40
0.0625
  9
$DIMDLI
 40
0.38
  9
$DIMRND
 40
0.0
  9
$DIMDLE
 40
0.0
  9
$DIMEXE
 40
0.18
  9
$DIMTP
 40
0.0
  9
$DIMTM
 40
0.0
  9
$DIMTXT
 40
0.18
  9
$DIMCEN
 40
0.09
  9
$DIMTSZ
 40
0.0
  9
$DIMTOL
 70
     0
  9
$DIMLIM
 70
     0
  9
$DIMTIH
 70
     1
  9
$DIMTOH
 70
     1
  9
$DIMSE1
 70
     0
  9
$DIMSE2
 70
     0
  9
$DIMTAD
 70
     0
  9
$DIMZIN
 70
     0
  9
$DIMBLK
  1

  9
$DIMASO
 70
     1
  9
$DIMSHO
 70
     1
  9
$DIMPOST
  1

  9
$DIMAPOST
  1

  9
$DIMALT
 70
     0
  9
$DIMALTD
 70
     2
  9
$DIMALTF
 40
25.399999999999999
  9
$DIMLFAC
 40
1.0
  9
$DIMTOFL
 70
     0
  9
$DIMTVP
 40
0.0
  9
$DIMTIX
 70
     0
  9
$DIMSOXD
 70
     0
  9
$DIMSAH
 70
     0
  9
$DIMBLK1
  1

  9
$DIMBLK2
  1

  9
$DIMSTYLE
  2
STANDARD
  9
$DIMCLRD
 70
     0
  9
$DIMCLRE
 70
     0
  9
$DIMCLRT
 70
     0
  9
$DIMTFAC
 40
1.0
  9
$DIMGAP
 40
0.09
  9
$LUNITS
 70
     2
  9
$LUPREC
 70
     4
  9
$SKETCHINC
 40
0.1
  9
$FILLETRAD
 40
0.0
  9
$AUNITS
 70
     0
  9
$AUPREC
 70
     0
  9
$MENU
  1
acad
  9
$ELEVATION
 40
0.0
  9
$PELEVATION
 40
0.0
  9
$THICKNESS
 40
0.0
  9
$LIMCHECK
 70
     0
  9
$BLIPMODE
 70
     0
  9
$CHAMFERA
 40
0.0
  9
$CHAMFERB
 40
0.0
  9
$SKPOLY
 70
     0
  9
$TDCREATE
 40
2453970.5773958331
  9
$TDUPDATE
 40
2453970.5806058329
  9
$TDINDWG
 40
0.0011127778
  9
$TDUSRTIMER
 40
0.0011127778
  9
$USRTIMER
 70
     1
  9
$ANGBASE
 50
0.0
  9
$ANGDIR
 70
     0
  9
$PDMODE
 70
     0
  9
$PDSIZE
 40
0.0
  9
$PLINEWID
 40
0.0
  9
$COORDS
 70
     1
  9
$SPLFRAME
 70
     0
  9
$SPLINETYPE
 70
     6
  9
$SPLINESEGS
 70
     8
  9
$ATTDIA
 70
     0
  9
$ATTREQ
 70
     1
  9
$HANDLING
 70
  4097
  9
$HANDSEED
  5
3DA0
  9
$SURFTAB1
 70
     6
  9
$SURFTAB2
 70
     6
  9
$SURFTYPE
 70
     6
  9
$SURFU
 70
     6
  9
$SURFV
 70
     6
  9
$UCSNAME
  2

  9
$UCSORG
 10
0.0
 20
0.0
 30
0.0
  9
$UCSXDIR
 10
1.0
 20
0.0
 30
0.0
  9
$UCSYDIR
 10
0.0
 20
1.0
 30
0.0
  9
$PUCSNAME
  2

  9
$PUCSORG
 10
0.0
 20
0.0
 30
0.0
  9
$PUCSXDIR
 10
1.0
 20
0.0
 30
0.0
  9
$PUCSYDIR
 10
0.0
 20
1.0
 30
0.0
  9
$USERI1
 70
     0
  9
$USERI2
 70
     0
  9
$USERI3
 70
     0
  9
$USERI4
 70
     0
  9
$USERI5
 70
     0
  9
$USERR1
 40
0.0
  9
$USERR2
 40
0.0
  9
$USERR3
 40
0.0
  9
$USERR4
 40
0.0
  9
$USERR5
 40
0.0
  9
$WORLDVIEW
 70
     1
  9
$SHADEDGE
 70
     3
  9
$SHADEDIF
 70
    70
  9
$TILEMODE
 70
     1
  9
$MAXACTVP
 70
    16
  9
$PLIMCHECK
 70
     0
  9
$PEXTMIN
 10
1.0000000000000000E+020
 20
1.0000000000000000E+020
 30
1.0000000000000000E+020
  9
$PEXTMAX
 10
-1.0000000000000000E+020
 20
-1.0000000000000000E+020
 30
-1.0000000000000000E+020
  9
$PLIMMIN
 10
0.0
 20
0.0
  9
$PLIMMAX
 10
12.0
 20
9.0
  9
$UNITMODE
 70
     0
  9
$VISRETAIN
 70
     0
  9
$PLINEGEN
 70
     0
  9
$PSLTSCALE
 70
     1
  0
ENDSEC
  0
SECTION
  2
TABLES
  0
TABLE
  2
VPORT
 70
     3
  0
VPORT
  2
*ACTIVE
 70
     0
 10
0.0
 20
0.0
 11
1.0
 21
1.0
 12
3.7624511972098271
 22
5.2673263768285121
 13
0.0
 23
0.0
 14
1.0
 24
1.0
 15
0.0
 25
0.0
 16
0.0
 26
0.0
 36
1.0
 17
0.0
 27
0.0
 37
0.0
 40
4.5477650554765559
 41
1.647569444444444
 42
50.0
 43
0.0
 44
0.0
 50
0.0
 51
0.0
 71
     0
 72
   100
 73
     1
 74
     1
 75
     0
 76
     0
 77
     0
 78
     0
  0
ENDTAB
  0
TABLE
  2
LTYPE
 70
    25
  0
LTYPE
  2
CONTINUOUS
 70
     0
  3
Solid line
 72
    65
 73
     0
 40
0.0
  0
LTYPE
  2
BORDER
 70
     0
  3
__ __ . __ __ . __ __ . __ __ . __ __ . __ __ .
 72
    65
 73
     6
 40
1.75
 49
0.5
 49
-0.25
 49
0.5
 49
-0.25
 49
0.5
 49
-0.25
  0
LTYPE
  2
BORDER2
 70
     0
  3
__.__.__.__.__.__.__.__.
 72
    65
 73
     6
 40
0.875
 49
0.25
 49
-0.125
 49
0.25
 49
-0.125
 49
0.25
 49
-0.125
  0
LTYPE
  2
BORDERX2
 70
     0
  3
____  ____  .  
 72
    65
 73
     6
 40
3.5
 49
1.0
 49
-0.5
 49
1.0
 49
-0.5
 49
1.0
 49
-0.5
  0
LTYPE
  2
CENTER
 70
     0
  3
____ _ ____ _ ____ _ 
 72
    65
 73
     4
 40
2.0
 49
1.25
 49
-0.25
 49
0.25
 49
-0.25
  0
LTYPE
  2
CENTER2
 70
     0
  3
____ _ ____ _ ____ _ 
 72
    65
 73
     4
 40
1.125
 49
0.75
 49
-0.125
 49
0.125
 49
-0.125
  0
LTYPE
  2
CENTERX2
 70
     0
  3
________  __  
 72
    65
 73
     4
 40
4.0
 49
2.5
 49
-0.5
 49
0.5
 49
-0.5
  0
LTYPE
  2
DASHDOT
 70
     0
  3
__ . __ . __ . __ . 
 72
    65
 73
     4
 40
1.0
 49
0.5
 49
-0.25
 49
0.0
 49
-0.25
  0
LTYPE
  2
DASHDOT2
 70
     0
  3
_._._._._._._._._.
 72
    65
 73
     4
 40
0.5
 49
0.25
 49
-0.125
 49
0.0
 49
-0.125
  0
LTYPE
  2
DASHDOTX2
 70
     0
  3
____  .  ____  .  
 72
    65
 73
     4
 40
2.0
 49
1.0
 49
-0.5
 49
0.0
 49
-0.5
  0
LTYPE
  2
DASHED
 70
     0
  3
__ __ __ __ __ __ __ 
 72
    65
 73
     2
 40
0.75
 49
0.5
 49
-0.25
  0
LTYPE
  2
DASHED2
 70
     0
  3
_ _ _ _ _ _ _ _ _ _ 
 72
    65
 73
     2
 40
0.375
 49
0.25
 49
-0.125
  0
LTYPE
  2
DASHEDX2
 70
     0
  3
____  ____  ____  
 72
    65
 73
     2
 40
1.5
 49
1.0
 49
-0.5
  0
LTYPE
  2
DIVIDE
 70
     0
  3
____ . . ____ . . 
 72
    65
 73
     6
 40
1.25
 49
0.5
 49
-0.25
 49
0.0
 49
-0.25
 49
0.0
 49
-0.25
  0
LTYPE
  2
DIVIDE2
 70
     0
  3
__..__..__..__..__..
 72
    65
 73
     6
 40
0.625
 49
0.25
 49
-0.125
 49
0.0
 49
-0.125
 49
0.0
 49
-0.125
  0
LTYPE
  2
DIVIDEX2
 70
     0
  3
________  .  .  
 72
    65
 73
     6
 40
2.5
 49
1.0
 49
-0.5
 49
0.0
 49
-0.5
 49
0.0
 49
-0.5
  0
LTYPE
  2
DOT
 70
     0
  3
. . . . . . . . . 
 72
    65
 73
     2
 40
0.25
 49
0.0
 49
-0.25
  0
LTYPE
  2
DOT2
 70
     0
  3
..................
 72
    65
 73
     2
 40
0.125
 49
0.0
 49
-0.125
  0
LTYPE
  2
DOTX2
 70
     0
  3
.  .  .  .  .  .  
 72
    65
 73
     2
 40
0.5
 49
0.0
 49
-0.5
  0
LTYPE
  2
HIDDEN
 70
     0
  3
__ __ __ __ __ __ 
 72
    65
 73
     2
 40
0.375
 49
0.25
 49
-0.125
  0
LTYPE
  2
HIDDEN2
 70
     0
  3
_ _ _ _ _ _ _ _ _ 
 72
    65
 73
     2
 40
0.1875
 49
0.125
 49
-0.0625
  0
LTYPE
  2
HIDDENX2
 70
     0
  3
____ ____ ____ ____ 
 72
    65
 73
     2
 40
0.75
 49
0.5
 49
-0.25
  0
LTYPE
  2
PHANTOM
 70
     0
  3
______  __  __  
 72
    65
 73
     6
 40
2.5
 49
1.25
 49
-0.25
 49
0.25
 49
-0.25
 49
0.25
 49
-0.25
  0
LTYPE
  2
PHANTOM2
 70
     0
  3
___ _ _ ___ _ _ 
 72
    65
 73
     6
 40
1.25
 49
0.625
 49
-0.125
 49
0.125
 49
-0.125
 49
0.125
 49
-0.125
  0
LTYPE
  2
PHANTOMX2
 70
     0
  3
___ _ _ ___ _ _ 
 72
    65
 73
     6
 40
5.0
 49
2.5
 49
-0.5
 49
0.5
 49
-0.5
 49
0.5
 49
-0.5
  0
ENDTAB
  0
TABLE
  2
LAYER
 70
   257
  0
LAYER
  2
0
 70
     0
 62
     7
  6
CONTINUOUS
  0
LAYER
  2
1
 70
     0
 62
     1
  6
CONTINUOUS
  0
LAYER
  2
2
 70
     0
 62
     2
  6
CONTINUOUS
  0
LAYER
  2
3
 70
     0
 62
     3
  6
CONTINUOUS
  0
LAYER
  2
4
 70
     0
 62
     4
  6
CONTINUOUS
  0
LAYER
  2
5
 70
     0
 62
     5
  6
CONTINUOUS
  0
LAYER
  2
6
 70
     0
 62
     6
  6
CONTINUOUS
  0
LAYER
  2
7
 70
     0
 62
     7
  6
CONTINUOUS
  0
LAYER
  2
8
 70
     0
 62
     8
  6
CONTINUOUS
  0
LAYER
  2
9
 70
     0
 62
     9
  6
CONTINUOUS
  0
LAYER
  2
10
 70
     0
 62
    10
  6
CONTINUOUS
  0
LAYER
  2
11
 70
     0
 62
    11
  6
CONTINUOUS
  0
LAYER
  2
12
 70
     0
 62
    12
  6
CONTINUOUS
  0
LAYER
  2
13
 70
     0
 62
    13
  6
CONTINUOUS
  0
LAYER
  2
14
 70
     0
 62
    14
  6
CONTINUOUS
  0
LAYER
  2
15
 70
     0
 62
    15
  6
CONTINUOUS
  0
LAYER
  2
16
 70
     0
 62
    16
  6
CONTINUOUS
  0
LAYER
  2
17
 70
     0
 62
    17
  6
CONTINUOUS
  0
LAYER
  2
18
 70
     0
 62
    18
  6
CONTINUOUS
  0
LAYER
  2
19
 70
     0
 62
    19
  6
CONTINUOUS
  0
LAYER
  2
20
 70
     0
 62
    20
  6
CONTINUOUS
  0
LAYER
  2
21
 70
     0
 62
    21
  6
CONTINUOUS
  0
LAYER
  2
22
 70
     0
 62
    22
  6
CONTINUOUS
  0
LAYER
  2
23
 70
     0
 62
    23
  6
CONTINUOUS
  0
LAYER
  2
24
 70
     0
 62
    24
  6
CONTINUOUS
  0
LAYER
  2
25
 70
     0
 62
    25
  6
CONTINUOUS
  0
LAYER
  2
26
 70
     0
 62
    26
  6
CONTINUOUS
  0
LAYER
  2
27
 70
     0
 62
    27
  6
CONTINUOUS
  0
LAYER
  2
28
 70
     0
 62
    28
  6
CONTINUOUS
  0
LAYER
  2
29
 70
     0
 62
    29
  6
CONTINUOUS
  0
LAYER
  2
30
 70
     0
 62
    30
  6
CONTINUOUS
  0
LAYER
  2
31
 70
     0
 62
    31
  6
CONTINUOUS
  0
LAYER
  2
32
 70
     0
 62
    32
  6
CONTINUOUS
  0
LAYER
  2
33
 70
     0
 62
    33
  6
CONTINUOUS
  0
LAYER
  2
34
 70
     0
 62
    34
  6
CONTINUOUS
  0
LAYER
  2
35
 70
     0
 62
    35
  6
CONTINUOUS
  0
LAYER
  2
36
 70
     0
 62
    36
  6
CONTINUOUS
  0
LAYER
  2
37
 70
     0
 62
    37
  6
CONTINUOUS
  0
LAYER
  2
38
 70
     0
 62
    38
  6
CONTINUOUS
  0
LAYER
  2
39
 70
     0
 62
    39
  6
CONTINUOUS
  0
LAYER
  2
40
 70
     0
 62
    40
  6
CONTINUOUS
  0
LAYER
  2
41
 70
     0
 62
    41
  6
CONTINUOUS
  0
LAYER
  2
42
 70
     0
 62
    42
  6
CONTINUOUS
  0
LAYER
  2
43
 70
     0
 62
    43
  6
CONTINUOUS
  0
LAYER
  2
44
 70
     0
 62
    44
  6
CONTINUOUS
  0
LAYER
  2
45
 70
     0
 62
    45
  6
CONTINUOUS
  0
LAYER
  2
46
 70
     0
 62
    46
  6
CONTINUOUS
  0
LAYER
  2
47
 70
     0
 62
    47
  6
CONTINUOUS
  0
LAYER
  2
48
 70
     0
 62
    48
  6
CONTINUOUS
  0
LAYER
  2
49
 70
     0
 62
    49
  6
CONTINUOUS
  0
LAYER
  2
50
 70
     0
 62
    50
  6
CONTINUOUS
  0
LAYER
  2
51
 70
     0
 62
    51
  6
CONTINUOUS
  0
LAYER
  2
52
 70
     0
 62
    52
  6
CONTINUOUS
  0
LAYER
  2
53
 70
     0
 62
    53
  6
CONTINUOUS
  0
LAYER
  2
54
 70
     0
 62
    54
  6
CONTINUOUS
  0
LAYER
  2
55
 70
     0
 62
    55
  6
CONTINUOUS
  0
LAYER
  2
56
 70
     0
 62
    56
  6
CONTINUOUS
  0
LAYER
  2
57
 70
     0
 62
    57
  6
CONTINUOUS
  0
LAYER
  2
58
 70
     0
 62
    58
  6
CONTINUOUS
  0
LAYER
  2
59
 70
     0
 62
    59
  6
CONTINUOUS
  0
LAYER
  2
60
 70
     0
 62
    60
  6
CONTINUOUS
  0
LAYER
  2
61
 70
     0
 62
    61
  6
CONTINUOUS
  0
LAYER
  2
62
 70
     0
 62
    62
  6
CONTINUOUS
  0
LAYER
  2
63
 70
     0
 62
    63
  6
CONTINUOUS
  0
LAYER
  2
64
 70
     0
 62
    64
  6
CONTINUOUS
  0
LAYER
  2
65
 70
     0
 62
    65
  6
CONTINUOUS
  0
LAYER
  2
66
 70
     0
 62
    66
  6
CONTINUOUS
  0
LAYER
  2
67
 70
     0
 62
    67
  6
CONTINUOUS
  0
LAYER
  2
68
 70
     0
 62
    68
  6
CONTINUOUS
  0
LAYER
  2
69
 70
     0
 62
    69
  6
CONTINUOUS
  0
LAYER
  2
70
 70
     0
 62
    70
  6
CONTINUOUS
  0
LAYER
  2
71
 70
     0
 62
    71
  6
CONTINUOUS
  0
LAYER
  2
72
 70
     0
 62
    72
  6
CONTINUOUS
  0
LAYER
  2
73
 70
     0
 62
    73
  6
CONTINUOUS
  0
LAYER
  2
74
 70
     0
 62
    74
  6
CONTINUOUS
  0
LAYER
  2
75
 70
     0
 62
    75
  6
CONTINUOUS
  0
LAYER
  2
76
 70
     0
 62
    76
  6
CONTINUOUS
  0
LAYER
  2
77
 70
     0
 62
    77
  6
CONTINUOUS
  0
LAYER
  2
78
 70
     0
 62
    78
  6
CONTINUOUS
  0
LAYER
  2
79
 70
     0
 62
    79
  6
CONTINUOUS
  0
LAYER
  2
80
 70
     0
 62
    80
  6
CONTINUOUS
  0
LAYER
  2
81
 70
     0
 62
    81
  6
CONTINUOUS
  0
LAYER
  2
82
 70
     0
 62
    82
  6
CONTINUOUS
  0
LAYER
  2
83
 70
     0
 62
    83
  6
CONTINUOUS
  0
LAYER
  2
84
 70
     0
 62
    84
  6
CONTINUOUS
  0
LAYER
  2
85
 70
     0
 62
    85
  6
CONTINUOUS
  0
LAYER
  2
86
 70
     0
 62
    86
  6
CONTINUOUS
  0
LAYER
  2
87
 70
     0
 62
    87
  6
CONTINUOUS
  0
LAYER
  2
88
 70
     0
 62
    88
  6
CONTINUOUS
  0
LAYER
  2
89
 70
     0
 62
    89
  6
CONTINUOUS
  0
LAYER
  2
90
 70
     0
 62
    90
  6
CONTINUOUS
  0
LAYER
  2
91
 70
     0
 62
    91
  6
CONTINUOUS
  0
LAYER
  2
92
 70
     0
 62
    92
  6
CONTINUOUS
  0
LAYER
  2
93
 70
     0
 62
    93
  6
CONTINUOUS
  0
LAYER
  2
94
 70
     0
 62
    94
  6
CONTINUOUS
  0
LAYER
  2
95
 70
     0
 62
    95
  6
CONTINUOUS
  0
LAYER
  2
96
 70
     0
 62
    96
  6
CONTINUOUS
  0
LAYER
  2
97
 70
     0
 62
    97
  6
CONTINUOUS
  0
LAYER
  2
98
 70
     0
 62
    98
  6
CONTINUOUS
  0
LAYER
  2
99
 70
     0
 62
    99
  6
CONTINUOUS
  0
LAYER
  2
100
 70
     0
 62
   100
  6
CONTINUOUS
  0
LAYER
  2
101
 70
     0
 62
   101
  6
CONTINUOUS
  0
LAYER
  2
102
 70
     0
 62
   102
  6
CONTINUOUS
  0
LAYER
  2
103
 70
     0
 62
   103
  6
CONTINUOUS
  0
LAYER
  2
104
 70
     0
 62
   104
  6
CONTINUOUS
  0
LAYER
  2
105
 70
     0
 62
   105
  6
CONTINUOUS
  0
LAYER
  2
106
 70
     0
 62
   106
  6
CONTINUOUS
  0
LAYER
  2
107
 70
     0
 62
   107
  6
CONTINUOUS
  0
LAYER
  2
108
 70
     0
 62
   108
  6
CONTINUOUS
  0
LAYER
  2
109
 70
     0
 62
   109
  6
CONTINUOUS
  0
LAYER
  2
110
 70
     0
 62
   110
  6
CONTINUOUS
  0
LAYER
  2
111
 70
     0
 62
   111
  6
CONTINUOUS
  0
LAYER
  2
112
 70
     0
 62
   112
  6
CONTINUOUS
  0
LAYER
  2
113
 70
     0
 62
   113
  6
CONTINUOUS
  0
LAYER
  2
114
 70
     0
 62
   114
  6
CONTINUOUS
  0
LAYER
  2
115
 70
     0
 62
   115
  6
CONTINUOUS
  0
LAYER
  2
116
 70
     0
 62
   116
  6
CONTINUOUS
  0
LAYER
  2
117
 70
     0
 62
   117
  6
CONTINUOUS
  0
LAYER
  2
118
 70
     0
 62
   118
  6
CONTINUOUS
  0
LAYER
  2
119
 70
     0
 62
   119
  6
CONTINUOUS
  0
LAYER
  2
120
 70
     0
 62
   120
  6
CONTINUOUS
  0
LAYER
  2
121
 70
     0
 62
   121
  6
CONTINUOUS
  0
LAYER
  2
122
 70
     0
 62
   122
  6
CONTINUOUS
  0
LAYER
  2
123
 70
     0
 62
   123
  6
CONTINUOUS
  0
LAYER
  2
124
 70
     0
 62
   124
  6
CONTINUOUS
  0
LAYER
  2
125
 70
     0
 62
   125
  6
CONTINUOUS
  0
LAYER
  2
126
 70
     0
 62
   126
  6
CONTINUOUS
  0
LAYER
  2
127
 70
     0
 62
   127
  6
CONTINUOUS
  0
LAYER
  2
128
 70
     0
 62
   128
  6
CONTINUOUS
  0
LAYER
  2
129
 70
     0
 62
   129
  6
CONTINUOUS
  0
LAYER
  2
130
 70
     0
 62
   130
  6
CONTINUOUS
  0
LAYER
  2
131
 70
     0
 62
   131
  6
CONTINUOUS
  0
LAYER
  2
132
 70
     0
 62
   132
  6
CONTINUOUS
  0
LAYER
  2
133
 70
     0
 62
   133
  6
CONTINUOUS
  0
LAYER
  2
134
 70
     0
 62
   134
  6
CONTINUOUS
  0
LAYER
  2
135
 70
     0
 62
   135
  6
CONTINUOUS
  0
LAYER
  2
136
 70
     0
 62
   136
  6
CONTINUOUS
  0
LAYER
  2
137
 70
     0
 62
   137
  6
CONTINUOUS
  0
LAYER
  2
138
 70
     0
 62
   138
  6
CONTINUOUS
  0
LAYER
  2
139
 70
     0
 62
   139
  6
CONTINUOUS
  0
LAYER
  2
140
 70
     0
 62
   140
  6
CONTINUOUS
  0
LAYER
  2
141
 70
     0
 62
   141
  6
CONTINUOUS
  0
LAYER
  2
142
 70
     0
 62
   142
  6
CONTINUOUS
  0
LAYER
  2
143
 70
     0
 62
   143
  6
CONTINUOUS
  0
LAYER
  2
144
 70
     0
 62
   144
  6
CONTINUOUS
  0
LAYER
  2
145
 70
     0
 62
   145
  6
CONTINUOUS
  0
LAYER
  2
146
 70
     0
 62
   146
  6
CONTINUOUS
  0
LAYER
  2
147
 70
     0
 62
   147
  6
CONTINUOUS
  0
LAYER
  2
148
 70
     0
 62
   148
  6
CONTINUOUS
  0
LAYER
  2
149
 70
     0
 62
   149
  6
CONTINUOUS
  0
LAYER
  2
150
 70
     0
 62
   150
  6
CONTINUOUS
  0
LAYER
  2
151
 70
     0
 62
   151
  6
CONTINUOUS
  0
LAYER
  2
152
 70
     0
 62
   152
  6
CONTINUOUS
  0
LAYER
  2
153
 70
     0
 62
   153
  6
CONTINUOUS
  0
LAYER
  2
154
 70
     0
 62
   154
  6
CONTINUOUS
  0
LAYER
  2
155
 70
     0
 62
   155
  6
CONTINUOUS
  0
LAYER
  2
156
 70
     0
 62
   156
  6
CONTINUOUS
  0
LAYER
  2
157
 70
     0
 62
   157
  6
CONTINUOUS
  0
LAYER
  2
158
 70
     0
 62
   158
  6
CONTINUOUS
  0
LAYER
  2
159
 70
     0
 62
   159
  6
CONTINUOUS
  0
LAYER
  2
160
 70
     0
 62
   160
  6
CONTINUOUS
  0
LAYER
  2
161
 70
     0
 62
   161
  6
CONTINUOUS
  0
LAYER
  2
162
 70
     0
 62
   162
  6
CONTINUOUS
  0
LAYER
  2
163
 70
     0
 62
   163
  6
CONTINUOUS
  0
LAYER
  2
164
 70
     0
 62
   164
  6
CONTINUOUS
  0
LAYER
  2
165
 70
     0
 62
   165
  6
CONTINUOUS
  0
LAYER
  2
166
 70
     0
 62
   166
  6
CONTINUOUS
  0
LAYER
  2
167
 70
     0
 62
   167
  6
CONTINUOUS
  0
LAYER
  2
168
 70
     0
 62
   168
  6
CONTINUOUS
  0
LAYER
  2
169
 70
     0
 62
   169
  6
CONTINUOUS
  0
LAYER
  2
170
 70
     0
 62
   170
  6
CONTINUOUS
  0
LAYER
  2
171
 70
     0
 62
   171
  6
CONTINUOUS
  0
LAYER
  2
172
 70
     0
 62
   172
  6
CONTINUOUS
  0
LAYER
  2
173
 70
     0
 62
   173
  6
CONTINUOUS
  0
LAYER
  2
174
 70
     0
 62
   174
  6
CONTINUOUS
  0
LAYER
  2
175
 70
     0
 62
   175
  6
CONTINUOUS
  0
LAYER
  2
176
 70
     0
 62
   176
  6
CONTINUOUS
  0
LAYER
  2
177
 70
     0
 62
   177
  6
CONTINUOUS
  0
LAYER
  2
178
 70
     0
 62
   178
  6
CONTINUOUS
  0
LAYER
  2
179
 70
     0
 62
   179
  6
CONTINUOUS
  0
LAYER
  2
180
 70
     0
 62
   180
  6
CONTINUOUS
  0
LAYER
  2
181
 70
     0
 62
   181
  6
CONTINUOUS
  0
LAYER
  2
182
 70
     0
 62
   182
  6
CONTINUOUS
  0
LAYER
  2
183
 70
     0
 62
   183
  6
CONTINUOUS
  0
LAYER
  2
184
 70
     0
 62
   184
  6
CONTINUOUS
  0
LAYER
  2
185
 70
     0
 62
   185
  6
CONTINUOUS
  0
LAYER
  2
186
 70
     0
 62
   186
  6
CONTINUOUS
  0
LAYER
  2
187
 70
     0
 62
   187
  6
CONTINUOUS
  0
LAYER
  2
188
 70
     0
 62
   188
  6
CONTINUOUS
  0
LAYER
  2
189
 70
     0
 62
   189
  6
CONTINUOUS
  0
LAYER
  2
190
 70
     0
 62
   190
  6
CONTINUOUS
  0
LAYER
  2
191
 70
     0
 62
   191
  6
CONTINUOUS
  0
LAYER
  2
192
 70
     0
 62
   192
  6
CONTINUOUS
  0
LAYER
  2
193
 70
     0
 62
   193
  6
CONTINUOUS
  0
LAYER
  2
194
 70
     0
 62
   194
  6
CONTINUOUS
  0
LAYER
  2
195
 70
     0
 62
   195
  6
CONTINUOUS
  0
LAYER
  2
196
 70
     0
 62
   196
  6
CONTINUOUS
  0
LAYER
  2
197
 70
     0
 62
   197
  6
CONTINUOUS
  0
LAYER
  2
198
 70
     0
 62
   198
  6
CONTINUOUS
  0
LAYER
  2
199
 70
     0
 62
   199
  6
CONTINUOUS
  0
LAYER
  2
200
 70
     0
 62
   200
  6
CONTINUOUS
  0
LAYER
  2
201
 70
     0
 62
   201
  6
CONTINUOUS
  0
LAYER
  2
202
 70
     0
 62
   202
  6
CONTINUOUS
  0
LAYER
  2
203
 70
     0
 62
   203
  6
CONTINUOUS
  0
LAYER
  2
204
 70
     0
 62
   204
  6
CONTINUOUS
  0
LAYER
  2
205
 70
     0
 62
   205
  6
CONTINUOUS
  0
LAYER
  2
206
 70
     0
 62
   206
  6
CONTINUOUS
  0
LAYER
  2
207
 70
     0
 62
   207
  6
CONTINUOUS
  0
LAYER
  2
208
 70
     0
 62
   208
  6
CONTINUOUS
  0
LAYER
  2
209
 70
     0
 62
   209
  6
CONTINUOUS
  0
LAYER
  2
210
 70
     0
 62
   210
  6
CONTINUOUS
  0
LAYER
  2
211
 70
     0
 62
   211
  6
CONTINUOUS
  0
LAYER
  2
212
 70
     0
 62
   212
  6
CONTINUOUS
  0
LAYER
  2
213
 70
     0
 62
   213
  6
CONTINUOUS
  0
LAYER
  2
214
 70
     0
 62
   214
  6
CONTINUOUS
  0
LAYER
  2
215
 70
     0
 62
   215
  6
CONTINUOUS
  0
LAYER
  2
216
 70
     0
 62
   216
  6
CONTINUOUS
  0
LAYER
  2
217
 70
     0
 62
   217
  6
CONTINUOUS
  0
LAYER
  2
218
 70
     0
 62
   218
  6
CONTINUOUS
  0
LAYER
  2
219
 70
     0
 62
   219
  6
CONTINUOUS
  0
LAYER
  2
220
 70
     0
 62
   220
  6
CONTINUOUS
  0
LAYER
  2
221
 70
     0
 62
   221
  6
CONTINUOUS
  0
LAYER
  2
222
 70
     0
 62
   222
  6
CONTINUOUS
  0
LAYER
  2
223
 70
     0
 62
   223
  6
CONTINUOUS
  0
LAYER
  2
224
 70
     0
 62
   224
  6
CONTINUOUS
  0
LAYER
  2
225
 70
     0
 62
   225
  6
CONTINUOUS
  0
LAYER
  2
226
 70
     0
 62
   226
  6
CONTINUOUS
  0
LAYER
  2
227
 70
     0
 62
   227
  6
CONTINUOUS
  0
LAYER
  2
228
 70
     0
 62
   228
  6
CONTINUOUS
  0
LAYER
  2
229
 70
     0
 62
   229
  6
CONTINUOUS
  0
LAYER
  2
230
 70
     0
 62
   230
  6
CONTINUOUS
  0
LAYER
  2
231
 70
     0
 62
   231
  6
CONTINUOUS
  0
LAYER
  2
232
 70
     0
 62
   232
  6
CONTINUOUS
  0
LAYER
  2
233
 70
     0
 62
   233
  6
CONTINUOUS
  0
LAYER
  2
234
 70
     0
 62
   234
  6
CONTINUOUS
  0
LAYER
  2
235
 70
     0
 62
   235
  6
CONTINUOUS
  0
LAYER
  2
236
 70
     0
 62
   236
  6
CONTINUOUS
  0
LAYER
  2
237
 70
     0
 62
   237
  6
CONTINUOUS
  0
LAYER
  2
238
 70
     0
 62
   238
  6
CONTINUOUS
  0
LAYER
  2
239
 70
     0
 62
   239
  6
CONTINUOUS
  0
LAYER
  2
240
 70
     0
 62
   240
  6
CONTINUOUS
  0
LAYER
  2
241
 70
     0
 62
   241
  6
CONTINUOUS
  0
LAYER
  2
242
 70
     0
 62
   242
  6
CONTINUOUS
  0
LAYER
  2
243
 70
     0
 62
   243
  6
CONTINUOUS
  0
LAYER
  2
244
 70
     0
 62
   244
  6
CONTINUOUS
  0
LAYER
  2
245
 70
     0
 62
   245
  6
CONTINUOUS
  0
LAYER
  2
246
 70
     0
 62
   246
  6
CONTINUOUS
  0
LAYER
  2
247
 70
     0
 62
   247
  6
CONTINUOUS
  0
LAYER
  2
248
 70
     0
 62
   248
  6
CONTINUOUS
  0
LAYER
  2
249
 70
     0
 62
   249
  6
CONTINUOUS
  0
LAYER
  2
250
 70
     0
 62
   250
  6
CONTINUOUS
  0
LAYER
  2
251
 70
     0
 62
   251
  6
CONTINUOUS
  0
LAYER
  2
252
 70
     0
 62
   252
  6
CONTINUOUS
  0
LAYER
  2
253
 70
     0
 62
   253
  6
CONTINUOUS
  0
LAYER
  2
254
 70
     0
 62
   254
  6
CONTINUOUS
  0
LAYER
  2
255
 70
     0
 62
   255
  6
CONTINUOUS
  0
LAYER
  2
DEFPOINTS
 70
     0
 62
     7
  6
CONTINUOUS
  0
ENDTAB
  0
TABLE
  2
STYLE
 70
     1
  0
STYLE
  2
STANDARD
 70
     0
 40
0.0
 41
1.0
 50
0.0
 71
     0
 42
0.2
  3
txt
  4

  0
ENDTAB
  0
TABLE
  2
VIEW
 70
     0
  0
ENDTAB
  0
TABLE
  2
UCS
 70
     0
  0
ENDTAB
  0
TABLE
  2
APPID
 70
     1
  0
APPID
  2
ACAD
 70
     0
  0
ENDTAB
  0
TABLE
  2
DIMSTYLE
 70
     1
  0
DIMSTYLE
  2
STANDARD
 70
     0
  3

  4

  5

  6

  7

 40
1.0
 41
0.18
 42
0.0625
 43
0.38
 44
0.18
 45
0.0
 46
0.0
 47
0.0
 48
0.0
140
0.18
141
0.09
142
0.0
143
25.399999999999999
144
1.0
145
0.0
146
1.0
147
0.09
 71
     0
 72
     0
 73
     1
 74
     1
 75
     0
 76
     0
 77
     0
 78
     0
170
     0
171
     2
172
     0
173
     0
174
     0
175
     0
176
     0
177
     0
178
     0
  0
ENDTAB
  0
ENDSEC
  0
SECTION
  2
BLOCKS
  0
BLOCK
  8
0
  2
$MODEL_SPACE
 70
     0
 10
0.0
 20
0.0
 30
0.0
  3
$MODEL_SPACE
  1

  0
ENDBLK
  5
13C
  8
0
  0
BLOCK
 67
     1
  8
0
  2
$PAPER_SPACE
 70
     0
 10
0.0
 20
0.0
 30
0.0
  3
$PAPER_SPACE
  1

  0
ENDBLK
  5
13A
 67
     1
  8
0
  0
BLOCK
  8
0
  2
*D0
 70
     1
 10
0.0
 20
0.0
 30
0.0
  3
*D0
  1

  0
LINE
  5
3D90
  8
0
 62
     0
 10
0.0825131233595805
 20
7.5173884514435692
 30
0.0
 11
-1.0335959243360571
 21
7.5173884514435692
 31
0.0
  0
LINE
  5
3D91
  8
0
 62
     0
 10
0.0825131233595805
 20
3.0173884514435692
 30
0.0
 11
-1.033595924336058
 21
3.01738845144357
 31
0.0
  0
LINE
  5
3D92
  8
0
 62
     0
 10
-0.8535959243360572
 20
7.3373884514435694
 30
0.0
 11
-0.8535959243360576
 21
5.447388451443568
 31
0.0
  0
LINE
  5
3D93
  8
0
 62
     0
 10
-0.8535959243360584
 20
3.1973884514435689
 30
0.0
 11
-0.8535959243360577
 21
5.0873884514435694
 31
0.0
  0
SOLID
  5
3D94
  8
0
 62
     0
 10
-0.8835959243360573
 20
7.3373884514435694
 30
0.0
 11
-0.8235959243360571
 21
7.3373884514435694
 31
0.0
 12
-0.8535959243360572
 22
7.5173884514435692
 32
0.0
 13
-0.8535959243360572
 23
7.5173884514435692
 33
0.0
  0
SOLID
  5
3D95
  8
0
 62
     0
 10
-0.8835959243360582
 20
3.1973884514435689
 30
0.0
 11
-0.8235959243360582
 21
3.1973884514435689
 31
0.0
 12
-0.8535959243360584
 22
3.0173884514435692
 32
0.0
 13
-0.8535959243360584
 23
3.0173884514435692
 33
0.0
  0
TEXT
  5
3D96
  8
0
 62
     0
 10
-1.258595924336058
 20
5.1773884514435693
 30
0.0
 40
0.18
  1
4.5000
  0
POINT
  5
3D97
  8
DEFPOINTS
 62
     0
 10
0.1450131233595805
 20
7.5173884514435692
 30
0.0
  0
POINT
  5
3D98
  8
DEFPOINTS
 62
     0
 10
0.1450131233595805
 20
3.0173884514435692
 30
0.0
  0
POINT
  5
3D99
  8
DEFPOINTS
 62
     0
 10
-0.8535959243360584
 20
3.0173884514435692
 30
0.0
  0
ENDBLK
  5
3D8F
  8
0
  0
ENDSEC
  0
SECTION
  2
ENTITIES
  0
LINE
  5
25CC
  8
0
 10
1.9232283464566919
 20
6.5239501312335948
 30
0.0
 11
2.4730971128608918
 21
6.5239501312335948
 31
0.0
  0
LINE
  5
25D3
  8
0
 10
2.4730971128608918
 20
6.5528215223097099
 30
0.0
 11
1.9232283464566919
 21
6.5528215223097099
 31
0.0
  0
CIRCLE
  5
25D4
  8
0
 10
2.1988188976377949
 20
3.6263123359580041
 30
0.0
 40
0.1509186351706036
  0
LINE
  5
25D5
  8
0
 10
2.4888451443569548
 20
3.936023622047244
 30
0.0
 11
2.4888451443569548
 21
4.580380577427821
 31
0.0
  0
LINE
  5
25D6
  8
0
 10
1.908792650918635
 20
3.936023622047244
 30
0.0
 11
2.4888451443569548
 21
3.936023622047244
 31
0.0
  0
LINE
  5
25D7
  8
0
 10
1.908792650918635
 20
3.936023622047244
 30
0.0
 11
1.908792650918635
 21
4.580380577427821
 31
0.0
  0
LINE
  5
25D8
  8
0
 10
1.908792650918635
 20
4.580380577427821
 30
0.0
 11
2.4888451443569548
 21
4.580380577427821
 31
0.0
  0
LINE
  5
25D9
  8
0
 10
2.4888451443569548
 20
4.8900918635170596
 30
0.0
 11
2.4888451443569548
 21
5.5344488188976371
 31
0.0
  0
LINE
  5
25DA
  8
0
 10
1.908792650918635
 20
4.8900918635170596
 30
0.0
 11
2.4888451443569548
 21
4.8900918635170596
 31
0.0
  0
LINE
  5
25DB
  8
0
 10
1.908792650918635
 20
4.8900918635170596
 30
0.0
 11
1.908792650918635
 21
5.5344488188976371
 31
0.0
  0
LINE
  5
25DC
  8
0
 10
1.908792650918635
 20
5.5344488188976371
 30
0.0
 11
2.4888451443569548
 21
5.5344488188976371
 31
0.0
  0
LINE
  5
25DD
  8
0
 10
2.4888451443569548
 20
5.8441601049868757
 30
0.0
 11
2.4888451443569548
 21
6.488517060367454
 31
0.0
  0
LINE
  5
25DE
  8
0
 10
1.908792650918635
 20
5.8441601049868757
 30
0.0
 11
2.4888451443569548
 21
5.8441601049868757
 31
0.0
  0
LINE
  5
25DF
  8
0
 10
1.908792650918635
 20
5.8441601049868757
 30
0.0
 11
1.908792650918635
 21
6.488517060367454
 31
0.0
  0
LINE
  5
25E0
  8
0
 10
1.908792650918635
 20
6.488517060367454
 30
0.0
 11
2.4888451443569548
 21
6.488517060367454
 31
0.0
  0
CIRCLE
  5
25E1
  8
0
 10
2.1988188976377949
 20
6.9071522309711266
 30
0.0
 40
0.1509186351706036
  0
LINE
  5
25E2
  8
0
 10
1.0518372703412071
 20
3.245734908136483
 30
0.0
 11
1.0518372703412071
 21
7.2890419947506562
 31
0.0
  0
LINE
  5
25E3
  8
0
 10
3.3458005249343818
 20
3.245734908136483
 30
0.0
 11
1.0518372703412071
 21
3.245734908136483
 31
0.0
  0
LINE
  5
25E4
  8
0
 10
3.3458005249343818
 20
3.245734908136483
 30
0.0
 11
3.3458005249343818
 21
7.2890419947506562
 31
0.0
  0
LINE
  5
25E5
  8
0
 10
1.0518372703412071
 20
7.2890419947506562
 30
0.0
 11
3.3458005249343818
 21
7.2890419947506562
 31
0.0
  0
LINE
  5
25EC
  8
0
 10
1.9232283464566919
 20
5.5672572178477679
 30
0.0
 11
2.4730971128608918
 21
5.5672572178477679
 31
0.0
  0
LINE
  5
25F3
  8
0
 10
2.4730971128608918
 20
5.5974409448818889
 30
0.0
 11
1.9232283464566919
 21
5.5974409448818889
 31
0.0
  0
LINE
  5
25FA
  8
0
 10
1.9232283464566919
 20
4.6131889763779519
 30
0.0
 11
2.4730971128608918
 21
4.6131889763779519
 31
0.0
  0
LINE
  5
2601
  8
0
 10
2.4730971128608918
 20
4.6433727034120729
 30
0.0
 11
1.9232283464566919
 21
4.6433727034120729
 31
0.0
  0
LINE
  5
2602
  8
0
 10
3.5741469816272962
 20
3.0764435695538062
 30
0.0
 11
3.5741469816272962
 21
7.4570209973753272
 31
0.0
  0
LINE
  5
260A
  8
0
 10
3.5137795275590542
 20
3.01738845144357
 30
0.0
 11
0.8838582677165359
 21
3.01738845144357
 31
0.0
  0
LINE
  5
2612
  8
0
 10
0.8234908136482941
 20
3.0764435695538062
 30
0.0
 11
0.8234908136482941
 21
7.4570209973753272
 31
0.0
  0
LINE
  5
261A
  8
0
 10
0.8838582677165359
 20
7.5173884514435683
 30
0.0
 11
3.5137795275590542
 21
7.5173884514435683
 31
0.0
  0
LINE
  5
2622
  8
0
 10
0.8274278215223098
 20
3.080380577427821
 30
0.0
 11
0.8234908136482941
 21
3.0764435695538062
 31
0.0
  0
LINE
  5
2623
  8
0
 10
0.8274278215223098
 20
7.4543963254593164
 30
0.0
 11
0.8274278215223098
 21
3.080380577427821
 31
0.0
  0
LINE
  5
2624
  8
0
 10
0.8234908136482941
 20
7.4570209973753272
 30
0.0
 11
0.8274278215223098
 21
7.4543963254593164
 31
0.0
  0
LINE
  5
2647
  8
0
 10
2.1423884514435692
 20
6.958333333333333
 30
0.0
 11
2.2539370078740149
 21
6.958333333333333
 31
0.0
  0
LINE
  5
2656
  8
0
 10
2.2539370078740149
 20
6.8572834645669278
 30
0.0
 11
2.1423884514435692
 21
6.8572834645669278
 31
0.0
  0
LINE
  5
2657
  8
0
 10
3.5111548556430439
 20
7.5134514435695534
 30
0.0
 11
0.8864829396325461
 21
7.5134514435695534
 31
0.0
  0
LINE
  5
2658
  8
0
 10
3.5111548556430439
 20
7.5134514435695534
 30
0.0
 11
3.5137795275590542
 21
7.5173884514435683
 31
0.0
  0
LINE
  5
2659
  8
0
 10
0.8864829396325461
 20
7.5134514435695534
 30
0.0
 11
0.8838582677165359
 21
7.5173884514435683
 31
0.0
  0
LINE
  5
2676
  8
0
 10
3.5702099737532791
 20
7.4543963254593164
 30
0.0
 11
3.5702099737532791
 21
3.080380577427821
 31
0.0
  0
LINE
  5
2677
  8
0
 10
3.5702099737532791
 20
3.080380577427821
 30
0.0
 11
3.5741469816272962
 21
3.0764435695538062
 31
0.0
  0
LINE
  5
2678
  8
0
 10
3.5741469816272962
 20
7.4570209973753272
 30
0.0
 11
3.5702099737532791
 21
7.4543963254593164
 31
0.0
  0
LINE
  5
2695
  8
0
 10
2.1423884514435692
 20
3.6761811023622051
 30
0.0
 11
2.2539370078740149
 21
3.6761811023622051
 31
0.0
  0
LINE
  5
2696
  8
0
 10
2.2539370078740149
 20
3.5764435695538062
 30
0.0
 11
2.1423884514435692
 21
3.5764435695538062
 31
0.0
  0
LINE
  5
26B1
  8
0
 10
3.5137795275590542
 20
3.01738845144357
 30
0.0
 11
3.5111548556430439
 21
3.0200131233595799
 31
0.0
  0
LINE
  5
26B2
  8
0
 10
0.8864829396325461
 20
3.0200131233595799
 30
0.0
 11
3.5111548556430439
 21
3.0200131233595799
 31
0.0
  0
LINE
  5
26B3
  8
0
 10
0.8838582677165359
 20
3.01738845144357
 30
0.0
 11
0.8864829396325461
 21
3.0200131233595799
 31
0.0
  0
LINE
  5
26D6
  8
0
 10
2.4730971128608918
 20
5.5672572178477679
 30
0.0
 11
1.9232283464566919
 21
5.5672572178477679
 31
0.0
  0
LINE
  5
26DD
  8
0
 10
1.9232283464566919
 20
5.5974409448818889
 30
0.0
 11
2.4730971128608918
 21
5.5974409448818889
 31
0.0
  0
LINE
  5
26E4
  8
0
 10
2.4730971128608918
 20
5.5974409448818889
 30
0.0
 11
2.4730971128608918
 21
5.5974409448818889
 31
0.0
  0
LINE
  5
26E5
  8
0
 10
2.4730971128608918
 20
5.5672572178477679
 30
0.0
 11
2.4730971128608918
 21
5.5672572178477679
 31
0.0
  0
LINE
  5
26E6
  8
0
 10
1.9232283464566919
 20
5.5672572178477679
 30
0.0
 11
1.9232283464566919
 21
5.5672572178477679
 31
0.0
  0
LINE
  5
26E7
  8
0
 10
1.9232283464566919
 20
5.5974409448818889
 30
0.0
 11
1.9232283464566919
 21
5.5974409448818889
 31
0.0
  0
LINE
  5
26E8
  8
0
 10
2.4730971128608918
 20
4.6131889763779519
 30
0.0
 11
1.9232283464566919
 21
4.6131889763779519
 31
0.0
  0
LINE
  5
26EF
  8
0
 10
1.9232283464566919
 20
4.6433727034120729
 30
0.0
 11
2.4730971128608918
 21
4.6433727034120729
 31
0.0
  0
LINE
  5
26F6
  8
0
 10
2.4730971128608918
 20
4.6433727034120729
 30
0.0
 11
2.4730971128608918
 21
4.6433727034120729
 31
0.0
  0
LINE
  5
26F7
  8
0
 10
2.4730971128608918
 20
4.6131889763779519
 30
0.0
 11
2.4730971128608918
 21
4.6131889763779519
 31
0.0
  0
LINE
  5
26F8
  8
0
 10
1.9232283464566919
 20
4.6131889763779519
 30
0.0
 11
1.9232283464566919
 21
4.6131889763779519
 31
0.0
  0
LINE
  5
26F9
  8
0
 10
1.9232283464566919
 20
4.6433727034120729
 30
0.0
 11
1.9232283464566919
 21
4.6433727034120729
 31
0.0
  0
LINE
  5
26FA
  8
0
 10
3.0347769028871392
 20
3.5003280839895008
 30
0.0
 11
3.0347769028871392
 21
3.429461942257217
 31
0.0
  0
LINE
  5
2700
  8
0
 10
3.0820209973753281
 20
3.413713910761154
 30
0.0
 11
3.0505249343832022
 21
3.413713910761154
 31
0.0
  0
LINE
  5
2706
  8
0
 10
3.0977690288713911
 20
3.429461942257217
 30
0.0
 11
3.0977690288713911
 21
3.5003280839895008
 31
0.0
  0
LINE
  5
2707
  8
0
 10
3.0977690288713911
 20
3.5003280839895008
 30
0.0
 11
3.0793963254593169
 21
3.5003280839895008
 31
0.0
  0
LINE
  5
2708
  8
0
 10
3.0793963254593169
 20
3.5003280839895008
 30
0.0
 11
3.0793963254593169
 21
3.4373359580052489
 31
0.0
  0
LINE
  5
270E
  8
0
 10
3.0741469816272962
 20
3.4333989501312341
 30
0.0
 11
3.068897637795275
 21
3.4333989501312341
 31
0.0
  0
LINE
  5
2714
  8
0
 10
3.0636482939632539
 20
3.4373359580052489
 30
0.0
 11
3.0636482939632539
 21
3.5003280839895008
 31
0.0
  0
LINE
  5
2715
  8
0
 10
3.0636482939632539
 20
3.5003280839895008
 30
0.0
 11
3.0347769028871392
 21
3.5003280839895008
 31
0.0
  0
LINE
  5
2716
  8
0
 10
3.1108923884514428
 20
3.5003280839895008
 30
0.0
 11
3.1108923884514428
 21
3.413713910761154
 31
0.0
  0
LINE
  5
2717
  8
0
 10
3.1108923884514428
 20
3.413713910761154
 30
0.0
 11
3.1345144356955368
 21
3.413713910761154
 31
0.0
  0
LINE
  5
2718
  8
0
 10
3.1345144356955368
 20
3.5003280839895008
 30
0.0
 11
3.1345144356955368
 21
3.413713910761154
 31
0.0
  0
LINE
  5
2719
  8
0
 10
3.1345144356955368
 20
3.5003280839895008
 30
0.0
 11
3.1108923884514428
 21
3.5003280839895008
 31
0.0
  0
LINE
  5
271A
  8
0
 10
2.9835958005249341
 20
3.481955380577427
 30
0.0
 11
2.9835958005249341
 21
3.4333989501312341
 31
0.0
  0
LINE
  5
271B
  8
0
 10
2.9914698162729652
 20
3.481955380577427
 30
0.0
 11
2.9835958005249341
 21
3.481955380577427
 31
0.0
  0
LINE
  5
2721
  8
0
 10
2.9967191601049858
 20
3.4373359580052489
 30
0.0
 11
2.9967191601049858
 21
3.4780183727034122
 31
0.0
  0
LINE
  5
2727
  8
0
 10
2.9914698162729652
 20
3.4333989501312341
 30
0.0
 11
2.9835958005249341
 21
3.4333989501312341
 31
0.0
  0
LINE
  5
2728
  8
0
 10
2.9573490813648289
 20
3.5003280839895008
 30
0.0
 11
2.9573490813648289
 21
3.413713910761154
 31
0.0
  0
LINE
  5
2729
  8
0
 10
2.9573490813648289
 20
3.413713910761154
 30
0.0
 11
3.0059055118110232
 21
3.413713910761154
 31
0.0
  0
LINE
  5
272F
  8
0
 10
3.0216535433070861
 20
3.429461942257217
 30
0.0
 11
3.0216535433070861
 21
3.4845800524934378
 31
0.0
  0
LINE
  5
2735
  8
0
 10
3.0059055118110232
 20
3.5003280839895008
 30
0.0
 11
2.9573490813648289
 21
3.5003280839895008
 31
0.0
  0
LINE
  5
2736
  8
0
 10
2.8287401574803139
 20
3.44520997375328
 30
0.0
 11
2.840551181102362
 21
3.4688320209973749
 31
0.0
  0
LINE
  5
2737
  8
0
 10
2.840551181102362
 20
3.4688320209973749
 30
0.0
 11
2.851049868766403
 21
3.44520997375328
 31
0.0
  0
LINE
  5
2738
  8
0
 10
2.851049868766403
 20
3.44520997375328
 30
0.0
 11
2.8287401574803139
 21
3.44520997375328
 31
0.0
  0
LINE
  5
2739
  8
0
 10
2.774934383202099
 20
3.4675196850393699
 30
0.0
 11
2.7644356955380571
 21
3.4675196850393699
 31
0.0
  0
LINE
  5
273A
  8
0
 10
2.7644356955380571
 20
3.5068897637795269
 30
0.0
 11
2.7644356955380571
 21
3.4675196850393699
 31
0.0
  0
LINE
  5
273B
  8
0
 10
2.774934383202099
 20
3.5068897637795269
 30
0.0
 11
2.7644356955380571
 21
3.5068897637795269
 31
0.0
  0
LINE
  5
2741
  8
0
 10
2.781496062992125
 20
3.5016404199475062
 30
0.0
 11
2.781496062992125
 21
3.4727690288713911
 31
0.0
  0
LINE
  5
2747
  8
0
 10
2.8523622047244088
 20
3.5003280839895008
 30
0.0
 11
2.8772965879265082
 21
3.443897637795275
 31
0.0
  0
LINE
  5
2748
  8
0
 10
2.8523622047244088
 20
3.5003280839895008
 30
0.0
 11
2.8287401574803139
 21
3.5003280839895008
 31
0.0
  0
LINE
  5
274E
  8
0
 10
2.713254593175852
 20
3.526574803149606
 30
0.0
 11
2.7919947506561669
 21
3.526574803149606
 31
0.0
  0
LINE
  5
274F
  8
0
 10
2.713254593175852
 20
3.526574803149606
 30
0.0
 11
2.713254593175852
 21
3.413713910761154
 31
0.0
  0
LINE
  5
2750
  8
0
 10
2.7644356955380571
 20
3.413713910761154
 30
0.0
 11
2.713254593175852
 21
3.413713910761154
 31
0.0
  0
LINE
  5
2751
  8
0
 10
2.7644356955380571
 20
3.449146981627297
 30
0.0
 11
2.7644356955380571
 21
3.413713910761154
 31
0.0
  0
LINE
  5
2752
  8
0
 10
2.7644356955380571
 20
3.449146981627297
 30
0.0
 11
2.7919947506561669
 21
3.449146981627297
 31
0.0
  0
LINE
  5
2758
  8
0
 10
2.7933070866141732
 20
3.413713910761154
 30
0.0
 11
2.8090551181102361
 21
3.4530839895013119
 31
0.0
  0
LINE
  5
2759
  8
0
 10
2.818241469816273
 20
3.413713910761154
 30
0.0
 11
2.7933070866141732
 21
3.413713910761154
 31
0.0
  0
LINE
  5
275A
  8
0
 10
2.818241469816273
 20
3.413713910761154
 30
0.0
 11
2.8234908136482941
 21
3.4255249343832022
 31
0.0
  0
LINE
  5
275B
  8
0
 10
2.856299212598425
 20
3.4255249343832022
 30
0.0
 11
2.8234908136482941
 21
3.4255249343832022
 31
0.0
  0
LINE
  5
275C
  8
0
 10
2.8628608923884511
 20
3.413713910761154
 30
0.0
 11
2.856299212598425
 21
3.4255249343832022
 31
0.0
  0
LINE
  5
275D
  8
0
 10
2.8628608923884511
 20
3.413713910761154
 30
0.0
 11
2.9022309711286081
 21
3.413713910761154
 31
0.0
  0
LINE
  5
275E
  8
0
 10
2.9022309711286081
 20
3.4504593175853011
 30
0.0
 11
2.9022309711286081
 21
3.413713910761154
 31
0.0
  0
LINE
  5
275F
  8
0
 10
2.917979002624671
 20
3.413713910761154
 30
0.0
 11
2.9022309711286081
 21
3.4504593175853011
 31
0.0
  0
LINE
  5
2760
  8
0
 10
2.917979002624671
 20
3.413713910761154
 30
0.0
 11
2.9442257217847758
 21
3.413713910761154
 31
0.0
  0
LINE
  5
2761
  8
0
 10
2.9442257217847758
 20
3.413713910761154
 30
0.0
 11
2.9442257217847758
 21
3.5003280839895008
 31
0.0
  0
LINE
  5
2762
  8
0
 10
2.9442257217847758
 20
3.5003280839895008
 30
0.0
 11
2.9219160104986872
 21
3.5003280839895008
 31
0.0
  0
LINE
  5
2763
  8
0
 10
2.9219160104986872
 20
3.5003280839895008
 30
0.0
 11
2.9219160104986872
 21
3.4675196850393699
 31
0.0
  0
LINE
  5
2764
  8
0
 10
2.9219160104986872
 20
3.4675196850393699
 30
0.0
 11
2.9061679790026238
 21
3.5003280839895008
 31
0.0
  0
LINE
  5
2765
  8
0
 10
2.9061679790026238
 20
3.5003280839895008
 30
0.0
 11
2.8772965879265082
 21
3.5003280839895008
 31
0.0
  0
LINE
  5
2766
  8
0
 10
2.8772965879265082
 20
3.5003280839895008
 30
0.0
 11
2.8772965879265082
 21
3.443897637795275
 31
0.0
  0
LINE
  5
2767
  8
0
 10
2.4730971128608918
 20
6.5239501312335948
 30
0.0
 11
1.9232283464566919
 21
6.5239501312335948
 31
0.0
  0
LINE
  5
276E
  8
0
 10
1.9232283464566919
 20
6.5528215223097099
 30
0.0
 11
2.4730971128608918
 21
6.5528215223097099
 31
0.0
  0
LINE
  5
2775
  8
0
 10
2.4730971128608918
 20
6.5528215223097099
 30
0.0
 11
2.4730971128608918
 21
6.5528215223097099
 31
0.0
  0
LINE
  5
2776
  8
0
 10
2.4730971128608918
 20
6.5239501312335948
 30
0.0
 11
2.4730971128608918
 21
6.5239501312335948
 31
0.0
  0
LINE
  5
2777
  8
0
 10
1.9232283464566919
 20
6.5239501312335948
 30
0.0
 11
1.9232283464566919
 21
6.5239501312335948
 31
0.0
  0
LINE
  5
2778
  8
0
 10
1.9232283464566919
 20
6.5528215223097099
 30
0.0
 11
1.9232283464566919
 21
6.5528215223097099
 31
0.0
  0
LINE
  5
2779
  8
0
 10
3.1660104986876632
 20
3.481955380577427
 30
0.0
 11
3.1660104986876632
 21
3.413713910761154
 31
0.0
  0
LINE
  5
277A
  8
0
 10
3.1660104986876632
 20
3.413713910761154
 30
0.0
 11
3.1935695538057738
 21
3.413713910761154
 31
0.0
  0
LINE
  5
277B
  8
0
 10
3.1935695538057738
 20
3.481955380577427
 30
0.0
 11
3.1935695538057738
 21
3.413713910761154
 31
0.0
  0
LINE
  5
277C
  8
0
 10
3.1935695538057738
 20
3.481955380577427
 30
0.0
 11
3.213254593175852
 21
3.481955380577427
 31
0.0
  0
LINE
  5
277D
  8
0
 10
3.213254593175852
 20
3.481955380577427
 30
0.0
 11
3.213254593175852
 21
3.5003280839895008
 31
0.0
  0
LINE
  5
277E
  8
0
 10
3.213254593175852
 20
3.5003280839895008
 30
0.0
 11
3.1489501312335948
 21
3.5003280839895008
 31
0.0
  0
LINE
  5
277F
  8
0
 10
3.1489501312335948
 20
3.481955380577427
 30
0.0
 11
3.1489501312335948
 21
3.5003280839895008
 31
0.0
  0
LINE
  5
2780
  8
0
 10
3.1660104986876632
 20
3.481955380577427
 30
0.0
 11
3.1489501312335948
 21
3.481955380577427
 31
0.0
  0
LINE
  5
2781
  8
0
 10
6.525590551181101
 20
3.8323490813648289
 30
0.0
 11
6.7014435695538044
 21
3.8362860892388451
 31
0.0
  0
LINE
  5
2782
  8
0
 10
6.2499999999999991
 20
3.245734908136483
 30
0.0
 11
6.2499999999999991
 21
7.2890419947506562
 31
0.0
  0
LINE
  5
2783
  8
0
 10
6.630577427821521
 20
3.9294619422572179
 30
0.0
 11
6.630577427821521
 21
6.6145013123359568
 31
0.0
  0
LINE
  5
2784
  8
0
 10
6.630577427821521
 20
5.83759842519685
 30
0.0
 11
6.6423884514435683
 21
5.83759842519685
 31
0.0
  0
LINE
  5
2785
  8
0
 10
6.630577427821521
 20
6.6145013123359568
 30
0.0
 11
6.6948818897637778
 21
6.65780839895013
 31
0.0
  0
LINE
  5
2786
  8
0
 10
6.630577427821521
 20
3.9294619422572179
 30
0.0
 11
6.6423884514435683
 21
3.9294619422572179
 31
0.0
  0
LINE
  5
2787
  8
0
 10
6.6948818897637778
 20
6.65780839895013
 30
0.0
 11
6.7014435695538044
 21
6.6709317585301831
 31
0.0
  0
LINE
  5
2788
  8
0
 10
6.7014435695538044
 20
6.6709317585301831
 30
0.0
 11
6.7014435695538044
 21
6.6984908136482932
 31
0.0
  0
LINE
  5
2789
  8
0
 10
6.525590551181101
 20
6.701115485564304
 30
0.0
 11
6.7014435695538044
 21
6.6984908136482932
 31
0.0
  0
LINE
  5
278A
  8
0
 10
6.7014435695538044
 20
3.8362860892388451
 30
0.0
 11
6.7014435695538044
 21
3.8690944881889759
 31
0.0
  0
LINE
  5
2792
  8
0
 10
6.630577427821521
 20
4.8835301837270331
 30
0.0
 11
6.6423884514435683
 21
4.8835301837270331
 31
0.0
  0
LINE
  5
2793
  8
0
 10
6.6948818897637778
 20
5.7037401574803139
 30
0.0
 11
6.630577427821521
 21
5.6604330708661408
 31
0.0
  0
LINE
  5
2794
  8
0
 10
6.6948818897637778
 20
4.7496719160104979
 30
0.0
 11
6.630577427821521
 21
4.7063648293963247
 31
0.0
  0
LINE
  5
2795
  8
0
 10
6.525590551181101
 20
3.0764435695538062
 30
0.0
 11
6.525590551181101
 21
7.4570209973753272
 31
0.0
  0
LINE
  5
27A4
  8
0
 10
6.4639107611548541
 20
7.5134514435695534
 30
0.0
 11
6.525590551181101
 21
7.5173884514435683
 31
0.0
  0
LINE
  5
27B0
  8
0
 10
6.4639107611548541
 20
7.4543963254593164
 30
0.0
 11
6.4639107611548541
 21
3.080380577427821
 31
0.0
  0
LINE
  5
27B1
  8
0
 10
6.4639107611548541
 20
3.080380577427821
 30
0.0
 11
6.525590551181101
 21
3.0764435695538062
 31
0.0
  0
LINE
  5
27B2
  8
0
 10
6.525590551181101
 20
7.4570209973753272
 30
0.0
 11
6.4639107611548541
 21
7.4543963254593164
 31
0.0
  0
LINE
  5
27CF
  8
0
 10
6.525590551181101
 20
3.01738845144357
 30
0.0
 11
6.4639107611548541
 21
3.0200131233595799
 31
0.0
  0
LINE
  5
27E1
  8
0
 10
6.6948818897637778
 20
5.7037401574803139
 30
0.0
 11
6.7014435695538044
 21
5.716863517060367
 31
0.0
  0
LINE
  5
27E9
  8
0
 10
6.7014435695538044
 20
5.716863517060367
 30
0.0
 11
6.7014435695538044
 21
5.7772309711286081
 31
0.0
  0
LINE
  5
27EA
  8
0
 10
6.6948818897637778
 20
4.7496719160104979
 30
0.0
 11
6.7014435695538044
 21
4.7627952755905509
 31
0.0
  0
LINE
  5
27F2
  8
0
 10
6.7014435695538044
 20
4.7627952755905509
 30
0.0
 11
6.7014435695538044
 21
4.823162729658792
 31
0.0
  0
LINE
  5
27F9
  8
0
 10
6.2408136482939618
 20
5.5974409448818889
 30
0.0
 11
6.2499999999999991
 21
5.5974409448818889
 31
0.0
  0
LINE
  5
27FA
  8
0
 10
6.2499999999999991
 20
5.5672572178477679
 30
0.0
 11
6.2408136482939618
 21
5.5672572178477679
 31
0.0
  0
LINE
  5
2801
  8
0
 10
6.2408136482939618
 20
4.6433727034120729
 30
0.0
 11
6.2499999999999991
 21
4.6433727034120729
 31
0.0
  0
LINE
  5
2802
  8
0
 10
6.2499999999999991
 20
4.6131889763779519
 30
0.0
 11
6.2408136482939618
 21
4.6131889763779519
 31
0.0
  0
LINE
  5
2808
  8
0
 10
6.2408136482939618
 20
3.526574803149606
 30
0.0
 11
6.2499999999999991
 21
3.526574803149606
 31
0.0
  0
LINE
  5
280F
  8
0
 10
6.2408136482939618
 20
6.5528215223097099
 30
0.0
 11
6.2499999999999991
 21
6.5528215223097099
 31
0.0
  0
LINE
  5
2810
  8
0
 10
6.2499999999999991
 20
6.5239501312335948
 30
0.0
 11
6.2408136482939618
 21
6.5239501312335948
 31
0.0
  0
LINE
  5
2811
  8
0
 10
6.2408136482939618
 20
3.481955380577427
 30
0.0
 11
6.2408136482939618
 21
3.413713910761154
 31
0.0
  0
LINE
  5
2812
  8
0
 10
6.2408136482939618
 20
3.481955380577427
 30
0.0
 11
6.2408136482939618
 21
3.5003280839895008
 31
0.0
  0
LINE
  5
2813
  8
0
 10
6.2408136482939618
 20
3.5003280839895008
 30
0.0
 11
6.2499999999999991
 21
3.5003280839895008
 31
0.0
  0
LINE
  5
2814
  8
0
 10
6.2408136482939618
 20
3.481955380577427
 30
0.0
 11
6.2499999999999991
 21
3.481955380577427
 31
0.0
  0
LINE
  5
2815
  8
0
 10
6.2408136482939618
 20
3.413713910761154
 30
0.0
 11
6.2499999999999991
 21
3.413713910761154
 31
0.0
  0
LINE
  5
2B5F
  8
0
 10
6.2408136482939618
 20
6.5239501312335948
 30
0.0
 11
6.2408136482939618
 21
6.5305118110236213
 31
0.0
  0
LINE
  5
2B60
  8
0
 10
6.2408136482939618
 20
6.5305118110236213
 30
0.0
 11
6.2408136482939618
 21
6.5462598425196852
 31
0.0
  0
LINE
  5
2B61
  8
0
 10
6.2408136482939618
 20
6.5462598425196852
 30
0.0
 11
6.2408136482939618
 21
6.5528215223097099
 31
0.0
  0
LINE
  5
2B62
  8
0
 10
6.2408136482939618
 20
3.5003280839895008
 30
0.0
 11
6.2408136482939618
 21
3.5200131233595799
 31
0.0
  0
LINE
  5
2B63
  8
0
 10
6.2408136482939618
 20
3.5200131233595799
 30
0.0
 11
6.2408136482939618
 21
3.526574803149606
 31
0.0
  0
LINE
  5
2B64
  8
0
 10
6.2408136482939618
 20
4.6131889763779519
 30
0.0
 11
6.2408136482939618
 21
4.6210629921259834
 31
0.0
  0
LINE
  5
2B65
  8
0
 10
6.2408136482939618
 20
4.6210629921259834
 30
0.0
 11
6.2408136482939618
 21
4.6354986876640414
 31
0.0
  0
LINE
  5
2B66
  8
0
 10
6.2408136482939618
 20
4.6354986876640414
 30
0.0
 11
6.2408136482939618
 21
4.6433727034120729
 31
0.0
  0
LINE
  5
2B67
  8
0
 10
6.2408136482939618
 20
5.5672572178477679
 30
0.0
 11
6.2408136482939618
 21
5.5751312335958012
 31
0.0
  0
LINE
  5
2B68
  8
0
 10
6.2408136482939618
 20
5.5751312335958012
 30
0.0
 11
6.2408136482939618
 21
5.5895669291338574
 31
0.0
  0
LINE
  5
2B69
  8
0
 10
6.2408136482939618
 20
5.5895669291338574
 30
0.0
 11
6.2408136482939618
 21
5.5974409448818889
 31
0.0
  0
LINE
  5
2B6A
  8
0
 10
6.6423884514435683
 20
4.8835301837270331
 30
0.0
 11
6.6646981627296569
 21
4.8782808398950133
 31
0.0
  0
LINE
  5
2B6B
  8
0
 10
6.6646981627296569
 20
4.8782808398950133
 30
0.0
 11
6.6843832020997356
 21
4.8651574803149602
 31
0.0
  0
LINE
  5
2B6C
  8
0
 10
6.6843832020997356
 20
4.8651574803149602
 30
0.0
 11
6.6975065616797886
 21
4.8454724409448806
 31
0.0
  0
LINE
  5
2B6D
  8
0
 10
6.6975065616797886
 20
4.8454724409448806
 30
0.0
 11
6.7014435695538044
 21
4.823162729658792
 31
0.0
  0
LINE
  5
2B6E
  8
0
 10
6.6423884514435683
 20
5.83759842519685
 30
0.0
 11
6.6646981627296569
 21
5.8323490813648293
 31
0.0
  0
LINE
  5
2B6F
  8
0
 10
6.6646981627296569
 20
5.8323490813648293
 30
0.0
 11
6.6843832020997356
 21
5.8192257217847763
 31
0.0
  0
LINE
  5
2B70
  8
0
 10
6.6843832020997356
 20
5.8192257217847763
 30
0.0
 11
6.6975065616797886
 21
5.7995406824146976
 31
0.0
  0
LINE
  5
2B71
  8
0
 10
6.6975065616797886
 20
5.7995406824146976
 30
0.0
 11
6.7014435695538044
 21
5.7772309711286081
 31
0.0
  0
LINE
  5
2B72
  8
0
 10
6.4639107611548541
 20
3.0200131233595799
 30
0.0
 11
6.4625984251968491
 21
3.027887139107611
 31
0.0
  0
LINE
  5
2B73
  8
0
 10
6.4625984251968491
 20
3.027887139107611
 30
0.0
 11
6.4625984251968491
 21
3.0501968503937009
 31
0.0
  0
LINE
  5
2B74
  8
0
 10
6.4625984251968491
 20
3.0501968503937009
 30
0.0
 11
6.4639107611548541
 21
3.080380577427821
 31
0.0
  0
LINE
  5
2B75
  8
0
 10
6.4639107611548541
 20
3.0200131233595799
 30
0.0
 11
6.4219160104986859
 21
3.026574803149606
 31
0.0
  0
LINE
  5
2B76
  8
0
 10
6.4219160104986859
 20
3.026574803149606
 30
0.0
 11
6.3812335958005244
 21
3.041010498687664
 31
0.0
  0
LINE
  5
2B77
  8
0
 10
6.3812335958005244
 20
3.041010498687664
 30
0.0
 11
6.344488188976376
 21
3.0620078740157481
 31
0.0
  0
LINE
  5
2B78
  8
0
 10
6.344488188976376
 20
3.0620078740157481
 30
0.0
 11
6.3116797900262451
 21
3.0908792650918628
 31
0.0
  0
LINE
  5
2B79
  8
0
 10
6.3116797900262451
 20
3.0908792650918628
 30
0.0
 11
6.285433070866139
 21
3.123687664041995
 31
0.0
  0
LINE
  5
2B7A
  8
0
 10
6.285433070866139
 20
3.123687664041995
 30
0.0
 11
6.267060367454067
 21
3.1617454068241471
 31
0.0
  0
LINE
  5
2B7B
  8
0
 10
6.267060367454067
 20
3.1617454068241471
 30
0.0
 11
6.2539370078740131
 21
3.202427821522309
 31
0.0
  0
LINE
  5
2B7C
  8
0
 10
6.2539370078740131
 20
3.202427821522309
 30
0.0
 11
6.2499999999999991
 21
3.245734908136483
 31
0.0
  0
LINE
  5
2B7D
  8
0
 10
6.4639107611548541
 20
7.4543963254593164
 30
0.0
 11
6.4625984251968491
 21
7.4845800524934374
 31
0.0
  0
LINE
  5
2B7E
  8
0
 10
6.4625984251968491
 20
7.4845800524934374
 30
0.0
 11
6.4625984251968491
 21
7.505577427821521
 31
0.0
  0
LINE
  5
2B7F
  8
0
 10
6.4625984251968491
 20
7.505577427821521
 30
0.0
 11
6.4639107611548541
 21
7.5134514435695534
 31
0.0
  0
LINE
  5
2B80
  8
0
 10
6.4639107611548541
 20
7.4543963254593164
 30
0.0
 11
6.4219160104986859
 21
7.4491469816272948
 31
0.0
  0
LINE
  5
2B81
  8
0
 10
6.4219160104986859
 20
7.4491469816272948
 30
0.0
 11
6.3812335958005244
 21
7.4386482939632534
 31
0.0
  0
LINE
  5
2B82
  8
0
 10
6.3812335958005244
 20
7.4386482939632534
 30
0.0
 11
6.344488188976376
 21
7.4229002624671896
 31
0.0
  0
LINE
  5
2B83
  8
0
 10
6.344488188976376
 20
7.4229002624671896
 30
0.0
 11
6.3116797900262451
 21
7.4032152230971118
 31
0.0
  0
LINE
  5
2B84
  8
0
 10
6.3116797900262451
 20
7.4032152230971118
 30
0.0
 11
6.285433070866139
 21
7.3782808398950124
 31
0.0
  0
LINE
  5
2B85
  8
0
 10
6.285433070866139
 20
7.3782808398950124
 30
0.0
 11
6.267060367454067
 21
7.3507217847769013
 31
0.0
  0
LINE
  5
2B86
  8
0
 10
6.267060367454067
 20
7.3507217847769013
 30
0.0
 11
6.2539370078740131
 21
7.3205380577427821
 31
0.0
  0
LINE
  5
2B87
  8
0
 10
6.2539370078740131
 20
7.3205380577427821
 30
0.0
 11
6.2499999999999991
 21
7.2890419947506562
 31
0.0
  0
LINE
  5
2B88
  8
0
 10
6.2499999999999991
 20
3.245734908136483
 30
0.0
 11
6.2539370078740131
 21
3.2142388451443571
 31
0.0
  0
LINE
  5
2B89
  8
0
 10
6.2539370078740131
 20
3.2142388451443571
 30
0.0
 11
6.267060367454067
 21
3.1840551181102361
 31
0.0
  0
LINE
  5
2B8A
  8
0
 10
6.267060367454067
 20
3.1840551181102361
 30
0.0
 11
6.285433070866139
 21
3.1564960629921259
 31
0.0
  0
LINE
  5
2B8B
  8
0
 10
6.285433070866139
 20
3.1564960629921259
 30
0.0
 11
6.3116797900262451
 21
3.1315616797900261
 31
0.0
  0
LINE
  5
2B8C
  8
0
 10
6.3116797900262451
 20
3.1315616797900261
 30
0.0
 11
6.344488188976376
 21
3.110564304461942
 31
0.0
  0
LINE
  5
2B8D
  8
0
 10
6.344488188976376
 20
3.110564304461942
 30
0.0
 11
6.3812335958005244
 21
3.094816272965879
 31
0.0
  0
LINE
  5
2B8E
  8
0
 10
6.3812335958005244
 20
3.094816272965879
 30
0.0
 11
6.4219160104986859
 21
3.0843175853018381
 31
0.0
  0
LINE
  5
2B8F
  8
0
 10
6.4219160104986859
 20
3.0843175853018381
 30
0.0
 11
6.4639107611548541
 21
3.080380577427821
 31
0.0
  0
LINE
  5
2B90
  8
0
 10
6.2499999999999991
 20
7.2890419947506562
 30
0.0
 11
6.2539370078740131
 21
7.3323490813648284
 31
0.0
  0
LINE
  5
2B91
  8
0
 10
6.2539370078740131
 20
7.3323490813648284
 30
0.0
 11
6.267060367454067
 21
7.3730314960629908
 31
0.0
  0
LINE
  5
2B92
  8
0
 10
6.267060367454067
 20
7.3730314960629908
 30
0.0
 11
6.285433070866139
 21
7.4110892388451433
 31
0.0
  0
LINE
  5
2B93
  8
0
 10
6.285433070866139
 20
7.4110892388451433
 30
0.0
 11
6.3116797900262451
 21
7.4438976377952741
 31
0.0
  0
LINE
  5
2B94
  8
0
 10
6.3116797900262451
 20
7.4438976377952741
 30
0.0
 11
6.344488188976376
 21
7.4727690288713902
 31
0.0
  0
LINE
  5
2B95
  8
0
 10
6.344488188976376
 20
7.4727690288713902
 30
0.0
 11
6.3812335958005244
 21
7.4937664041994738
 31
0.0
  0
LINE
  5
2B96
  8
0
 10
6.3812335958005244
 20
7.4937664041994738
 30
0.0
 11
6.4219160104986859
 21
7.5082020997375318
 31
0.0
  0
LINE
  5
2B97
  8
0
 10
6.4219160104986859
 20
7.5082020997375318
 30
0.0
 11
6.4639107611548541
 21
7.5134514435695534
 31
0.0
  0
LINE
  5
2B98
  8
0
 10
6.525590551181101
 20
7.5173884514435683
 30
0.0
 11
6.525590551181101
 21
7.5121391076115467
 31
0.0
  0
LINE
  5
2B99
  8
0
 10
6.525590551181101
 20
7.5121391076115467
 30
0.0
 11
6.525590551181101
 21
7.4990157480314954
 31
0.0
  0
LINE
  5
2B9A
  8
0
 10
6.525590551181101
 20
7.4990157480314954
 30
0.0
 11
6.525590551181101
 21
7.4806430446194208
 31
0.0
  0
LINE
  5
2B9B
  8
0
 10
6.525590551181101
 20
7.4806430446194208
 30
0.0
 11
6.525590551181101
 21
7.4570209973753272
 31
0.0
  0
LINE
  5
2B9C
  8
0
 10
6.525590551181101
 20
3.0764435695538062
 30
0.0
 11
6.525590551181101
 21
3.0541338582677171
 31
0.0
  0
LINE
  5
2B9D
  8
0
 10
6.525590551181101
 20
3.0541338582677171
 30
0.0
 11
6.525590551181101
 21
3.034448818897638
 31
0.0
  0
LINE
  5
2B9E
  8
0
 10
6.525590551181101
 20
3.034448818897638
 30
0.0
 11
6.525590551181101
 21
3.0213254593175849
 31
0.0
  0
LINE
  5
2B9F
  8
0
 10
6.525590551181101
 20
3.0213254593175849
 30
0.0
 11
6.525590551181101
 21
3.01738845144357
 31
0.0
  0
LINE
  5
2BA0
  8
0
 10
6.6423884514435683
 20
3.9294619422572179
 30
0.0
 11
6.6646981627296569
 21
3.9242125984251972
 31
0.0
  0
LINE
  5
2BA1
  8
0
 10
6.6646981627296569
 20
3.9242125984251972
 30
0.0
 11
6.6843832020997356
 21
3.9110892388451441
 31
0.0
  0
LINE
  5
2BA2
  8
0
 10
6.6843832020997356
 20
3.9110892388451441
 30
0.0
 11
6.6975065616797886
 21
3.891404199475065
 31
0.0
  0
LINE
  5
2BA3
  8
0
 10
6.6975065616797886
 20
3.891404199475065
 30
0.0
 11
6.7014435695538044
 21
3.8690944881889759
 31
0.0
  0
LINE
  5
2BA4
  8
0
 10
1.9232283464566919
 20
6.5239501312335948
 30
0.0
 11
1.9114173228346449
 21
6.5305118110236213
 31
0.0
  0
LINE
  5
2BA5
  8
0
 10
1.9114173228346449
 20
6.5305118110236213
 30
0.0
 11
1.9114173228346449
 21
6.5462598425196852
 31
0.0
  0
LINE
  5
2BA6
  8
0
 10
1.9114173228346449
 20
6.5462598425196852
 30
0.0
 11
1.9232283464566919
 21
6.5528215223097099
 31
0.0
  0
LINE
  5
2BA7
  8
0
 10
2.4730971128608918
 20
6.5239501312335948
 30
0.0
 11
2.486220472440944
 21
6.5305118110236213
 31
0.0
  0
LINE
  5
2BA8
  8
0
 10
2.486220472440944
 20
6.5305118110236213
 30
0.0
 11
2.486220472440944
 21
6.5462598425196852
 31
0.0
  0
LINE
  5
2BA9
  8
0
 10
2.486220472440944
 20
6.5462598425196852
 30
0.0
 11
2.4730971128608918
 21
6.5528215223097099
 31
0.0
  0
LINE
  5
2BAA
  8
0
 10
2.7919947506561669
 20
3.449146981627297
 30
0.0
 11
2.8011811023622042
 21
3.449146981627297
 31
0.0
  0
LINE
  5
2BAB
  8
0
 10
2.8011811023622042
 20
3.449146981627297
 30
0.0
 11
2.8090551181102361
 21
3.4530839895013119
 31
0.0
  0
LINE
  5
2BAC
  8
0
 10
2.8287401574803139
 20
3.5003280839895008
 30
0.0
 11
2.8143044619422559
 21
3.5200131233595799
 31
0.0
  0
LINE
  5
2BAD
  8
0
 10
2.8143044619422559
 20
3.5200131233595799
 30
0.0
 11
2.7919947506561669
 21
3.526574803149606
 31
0.0
  0
LINE
  5
2BAE
  8
0
 10
2.774934383202099
 20
3.4675196850393699
 30
0.0
 11
2.7788713910761151
 21
3.4688320209973749
 31
0.0
  0
LINE
  5
2BAF
  8
0
 10
2.7788713910761151
 20
3.4688320209973749
 30
0.0
 11
2.781496062992125
 21
3.4727690288713911
 31
0.0
  0
LINE
  5
2BB0
  8
0
 10
2.781496062992125
 20
3.5016404199475062
 30
0.0
 11
2.7788713910761151
 21
3.5055774278215219
 31
0.0
  0
LINE
  5
2BB1
  8
0
 10
2.7788713910761151
 20
3.5055774278215219
 30
0.0
 11
2.774934383202099
 21
3.5068897637795269
 31
0.0
  0
LINE
  5
2BB2
  8
0
 10
3.0216535433070861
 20
3.4845800524934378
 30
0.0
 11
3.0177165354330699
 21
3.4950787401574801
 31
0.0
  0
LINE
  5
2BB3
  8
0
 10
3.0177165354330699
 20
3.4950787401574801
 30
0.0
 11
3.0059055118110232
 21
3.5003280839895008
 31
0.0
  0
LINE
  5
2BB4
  8
0
 10
3.0059055118110232
 20
3.413713910761154
 30
0.0
 11
3.0177165354330699
 21
3.4176509186351711
 31
0.0
  0
LINE
  5
2BB5
  8
0
 10
3.0177165354330699
 20
3.4176509186351711
 30
0.0
 11
3.0216535433070861
 21
3.429461942257217
 31
0.0
  0
LINE
  5
2BB6
  8
0
 10
2.9914698162729652
 20
3.4333989501312341
 30
0.0
 11
2.9954068241469809
 21
3.434711286089239
 31
0.0
  0
LINE
  5
2BB7
  8
0
 10
2.9954068241469809
 20
3.434711286089239
 30
0.0
 11
2.9967191601049858
 21
3.4373359580052489
 31
0.0
  0
LINE
  5
2BB8
  8
0
 10
2.9967191601049858
 20
3.4780183727034122
 30
0.0
 11
2.9954068241469809
 21
3.4806430446194221
 31
0.0
  0
LINE
  5
2BB9
  8
0
 10
2.9954068241469809
 20
3.4806430446194221
 30
0.0
 11
2.9914698162729652
 21
3.481955380577427
 31
0.0
  0
LINE
  5
2BBA
  8
0
 10
3.0636482939632539
 20
3.4373359580052489
 30
0.0
 11
3.0649606299212588
 21
3.434711286089239
 31
0.0
  0
LINE
  5
2BBB
  8
0
 10
3.0649606299212588
 20
3.434711286089239
 30
0.0
 11
3.068897637795275
 21
3.4333989501312341
 31
0.0
  0
LINE
  5
2BBC
  8
0
 10
3.0741469816272962
 20
3.4333989501312341
 30
0.0
 11
3.078083989501311
 21
3.434711286089239
 31
0.0
  0
LINE
  5
2BBD
  8
0
 10
3.078083989501311
 20
3.434711286089239
 30
0.0
 11
3.0793963254593169
 21
3.4373359580052489
 31
0.0
  0
LINE
  5
2BBE
  8
0
 10
3.0820209973753281
 20
3.413713910761154
 30
0.0
 11
3.092519685039369
 21
3.4176509186351711
 31
0.0
  0
LINE
  5
2BBF
  8
0
 10
3.092519685039369
 20
3.4176509186351711
 30
0.0
 11
3.0977690288713911
 21
3.429461942257217
 31
0.0
  0
LINE
  5
2BC0
  8
0
 10
3.0347769028871392
 20
3.429461942257217
 30
0.0
 11
3.040026246719159
 21
3.4176509186351711
 31
0.0
  0
LINE
  5
2BC1
  8
0
 10
3.040026246719159
 20
3.4176509186351711
 30
0.0
 11
3.0505249343832022
 21
3.413713910761154
 31
0.0
  0
LINE
  5
2BC2
  8
0
 10
1.9232283464566919
 20
4.6131889763779519
 30
0.0
 11
1.9114173228346449
 21
4.6210629921259834
 31
0.0
  0
LINE
  5
2BC3
  8
0
 10
1.9114173228346449
 20
4.6210629921259834
 30
0.0
 11
1.9114173228346449
 21
4.6354986876640414
 31
0.0
  0
LINE
  5
2BC4
  8
0
 10
1.9114173228346449
 20
4.6354986876640414
 30
0.0
 11
1.9232283464566919
 21
4.6433727034120729
 31
0.0
  0
LINE
  5
2BC5
  8
0
 10
2.4730971128608918
 20
4.6131889763779519
 30
0.0
 11
2.486220472440944
 21
4.6210629921259834
 31
0.0
  0
LINE
  5
2BC6
  8
0
 10
2.486220472440944
 20
4.6210629921259834
 30
0.0
 11
2.486220472440944
 21
4.6354986876640414
 31
0.0
  0
LINE
  5
2BC7
  8
0
 10
2.486220472440944
 20
4.6354986876640414
 30
0.0
 11
2.4730971128608918
 21
4.6433727034120729
 31
0.0
  0
LINE
  5
2BC8
  8
0
 10
1.9232283464566919
 20
5.5672572178477679
 30
0.0
 11
1.9114173228346449
 21
5.5751312335958012
 31
0.0
  0
LINE
  5
2BC9
  8
0
 10
1.9114173228346449
 20
5.5751312335958012
 30
0.0
 11
1.9114173228346449
 21
5.5895669291338574
 31
0.0
  0
LINE
  5
2BCA
  8
0
 10
1.9114173228346449
 20
5.5895669291338574
 30
0.0
 11
1.9232283464566919
 21
5.5974409448818889
 31
0.0
  0
LINE
  5
2BCB
  8
0
 10
2.4730971128608918
 20
5.5672572178477679
 30
0.0
 11
2.486220472440944
 21
5.5751312335958012
 31
0.0
  0
LINE
  5
2BCC
  8
0
 10
2.486220472440944
 20
5.5751312335958012
 30
0.0
 11
2.486220472440944
 21
5.5895669291338574
 31
0.0
  0
LINE
  5
2BCD
  8
0
 10
2.486220472440944
 20
5.5895669291338574
 30
0.0
 11
2.4730971128608918
 21
5.5974409448818889
 31
0.0
  0
LINE
  5
2BCE
  8
0
 10
3.5111548556430439
 20
3.0200131233595799
 30
0.0
 11
3.540026246719159
 21
3.027887139107611
 31
0.0
  0
LINE
  5
2BCF
  8
0
 10
3.540026246719159
 20
3.027887139107611
 30
0.0
 11
3.562335958005248
 21
3.0501968503937009
 31
0.0
  0
LINE
  5
2BD0
  8
0
 10
3.562335958005248
 20
3.0501968503937009
 30
0.0
 11
3.5702099737532791
 21
3.080380577427821
 31
0.0
  0
LINE
  5
2BD1
  8
0
 10
0.8864829396325461
 20
3.0200131233595799
 30
0.0
 11
0.8917322834645673
 21
3.026574803149606
 31
0.0
  0
LINE
  5
2BD2
  8
0
 10
0.8917322834645673
 20
3.026574803149606
 30
0.0
 11
0.9022309711286091
 21
3.041010498687664
 31
0.0
  0
LINE
  5
2BD3
  8
0
 10
0.9022309711286091
 20
3.041010498687664
 30
0.0
 11
0.917979002624672
 21
3.0620078740157481
 31
0.0
  0
LINE
  5
2BD4
  8
0
 10
0.917979002624672
 20
3.0620078740157481
 30
0.0
 11
0.9376640419947507
 21
3.0908792650918628
 31
0.0
  0
LINE
  5
2BD5
  8
0
 10
0.9376640419947507
 20
3.0908792650918628
 30
0.0
 11
0.9625984251968507
 21
3.123687664041995
 31
0.0
  0
LINE
  5
2BD6
  8
0
 10
0.9625984251968507
 20
3.123687664041995
 30
0.0
 11
0.9901574803149609
 21
3.1617454068241471
 31
0.0
  0
LINE
  5
2BD7
  8
0
 10
0.9901574803149609
 20
3.1617454068241471
 30
0.0
 11
1.020341207349081
 21
3.202427821522309
 31
0.0
  0
LINE
  5
2BD8
  8
0
 10
1.020341207349081
 20
3.202427821522309
 30
0.0
 11
1.0518372703412071
 21
3.245734908136483
 31
0.0
  0
LINE
  5
2BD9
  8
0
 10
3.5111548556430439
 20
3.0200131233595799
 30
0.0
 11
3.5059055118110232
 21
3.026574803149606
 31
0.0
  0
LINE
  5
2BDA
  8
0
 10
3.5059055118110232
 20
3.026574803149606
 30
0.0
 11
3.4954068241469809
 21
3.041010498687664
 31
0.0
  0
LINE
  5
2BDB
  8
0
 10
3.4954068241469809
 20
3.041010498687664
 30
0.0
 11
3.4796587926509179
 21
3.0620078740157481
 31
0.0
  0
LINE
  5
2BDC
  8
0
 10
3.4796587926509179
 20
3.0620078740157481
 30
0.0
 11
3.4586614173228338
 21
3.0908792650918628
 31
0.0
  0
LINE
  5
2BDD
  8
0
 10
3.4586614173228338
 20
3.0908792650918628
 30
0.0
 11
3.4350393700787389
 21
3.123687664041995
 31
0.0
  0
LINE
  5
2BDE
  8
0
 10
3.4350393700787389
 20
3.123687664041995
 30
0.0
 11
3.4074803149606292
 21
3.1617454068241471
 31
0.0
  0
LINE
  5
2BDF
  8
0
 10
3.4074803149606292
 20
3.1617454068241471
 30
0.0
 11
3.3772965879265082
 21
3.202427821522309
 31
0.0
  0
LINE
  5
2BE0
  8
0
 10
3.3772965879265082
 20
3.202427821522309
 30
0.0
 11
3.3458005249343818
 21
3.245734908136483
 31
0.0
  0
LINE
  5
2BE1
  8
0
 10
0.8864829396325461
 20
3.0200131233595799
 30
0.0
 11
0.8562992125984251
 21
3.027887139107611
 31
0.0
  0
LINE
  5
2BE2
  8
0
 10
0.8562992125984251
 20
3.027887139107611
 30
0.0
 11
0.8353018372703414
 21
3.0501968503937009
 31
0.0
  0
LINE
  5
2BE3
  8
0
 10
0.8353018372703414
 20
3.0501968503937009
 30
0.0
 11
0.8274278215223098
 21
3.080380577427821
 31
0.0
  0
LINE
  5
2BE4
  8
0
 10
2.1423884514435692
 20
3.5764435695538062
 30
0.0
 11
2.1253280839895008
 21
3.609251968503937
 31
0.0
  0
LINE
  5
2BE5
  8
0
 10
2.1253280839895008
 20
3.609251968503937
 30
0.0
 11
2.1253280839895008
 21
3.6446850393700791
 31
0.0
  0
LINE
  5
2BE6
  8
0
 10
2.1253280839895008
 20
3.6446850393700791
 30
0.0
 11
2.1423884514435692
 21
3.6761811023622051
 31
0.0
  0
LINE
  5
2BE7
  8
0
 10
2.2539370078740149
 20
3.5764435695538062
 30
0.0
 11
2.2709973753280832
 21
3.609251968503937
 31
0.0
  0
LINE
  5
2BE8
  8
0
 10
2.2709973753280832
 20
3.609251968503937
 30
0.0
 11
2.2709973753280832
 21
3.6446850393700791
 31
0.0
  0
LINE
  5
2BE9
  8
0
 10
2.2709973753280832
 20
3.6446850393700791
 30
0.0
 11
2.2539370078740149
 21
3.6761811023622051
 31
0.0
  0
LINE
  5
2BEA
  8
0
 10
2.2539370078740149
 20
3.5764435695538062
 30
0.0
 11
2.229002624671915
 21
3.558070866141732
 31
0.0
  0
LINE
  5
2BEB
  8
0
 10
2.229002624671915
 20
3.558070866141732
 30
0.0
 11
2.1988188976377949
 21
3.5515091863517059
 31
0.0
  0
LINE
  5
2BEC
  8
0
 10
2.1988188976377949
 20
3.5515091863517059
 30
0.0
 11
2.1686351706036739
 21
3.558070866141732
 31
0.0
  0
LINE
  5
2BED
  8
0
 10
2.1686351706036739
 20
3.558070866141732
 30
0.0
 11
2.1423884514435692
 21
3.5764435695538062
 31
0.0
  0
LINE
  5
2BEE
  8
0
 10
2.1423884514435692
 20
3.6761811023622051
 30
0.0
 11
2.1686351706036739
 21
3.6945538057742771
 31
0.0
  0
LINE
  5
2BEF
  8
0
 10
2.1686351706036739
 20
3.6945538057742771
 30
0.0
 11
2.1988188976377949
 21
3.701115485564304
 31
0.0
  0
LINE
  5
2BF0
  8
0
 10
2.1988188976377949
 20
3.701115485564304
 30
0.0
 11
2.229002624671915
 21
3.6945538057742771
 31
0.0
  0
LINE
  5
2BF1
  8
0
 10
2.229002624671915
 20
3.6945538057742771
 30
0.0
 11
2.2539370078740149
 21
3.6761811023622051
 31
0.0
  0
LINE
  5
2BF2
  8
0
 10
3.5702099737532791
 20
7.4543963254593164
 30
0.0
 11
3.562335958005248
 21
7.4845800524934374
 31
0.0
  0
LINE
  5
2BF3
  8
0
 10
3.562335958005248
 20
7.4845800524934374
 30
0.0
 11
3.540026246719159
 21
7.505577427821521
 31
0.0
  0
LINE
  5
2BF4
  8
0
 10
3.540026246719159
 20
7.505577427821521
 30
0.0
 11
3.5111548556430439
 21
7.5134514435695534
 31
0.0
  0
LINE
  5
2BF5
  8
0
 10
3.5702099737532791
 20
7.4543963254593164
 30
0.0
 11
3.5636482939632539
 21
7.4491469816272948
 31
0.0
  0
LINE
  5
2BF6
  8
0
 10
3.5636482939632539
 20
7.4491469816272948
 30
0.0
 11
3.5505249343832022
 21
7.4386482939632534
 31
0.0
  0
LINE
  5
2BF7
  8
0
 10
3.5505249343832022
 20
7.4386482939632534
 30
0.0
 11
3.5282152230971122
 21
7.4229002624671896
 31
0.0
  0
LINE
  5
2BF8
  8
0
 10
3.5282152230971122
 20
7.4229002624671896
 30
0.0
 11
3.500656167979002
 21
7.4032152230971118
 31
0.0
  0
LINE
  5
2BF9
  8
0
 10
3.500656167979002
 20
7.4032152230971118
 30
0.0
 11
3.4665354330708649
 21
7.3782808398950124
 31
0.0
  0
LINE
  5
2BFA
  8
0
 10
3.4665354330708649
 20
7.3782808398950124
 30
0.0
 11
3.4284776902887129
 21
7.3507217847769013
 31
0.0
  0
LINE
  5
2BFB
  8
0
 10
3.4284776902887129
 20
7.3507217847769013
 30
0.0
 11
3.38779527559055
 21
7.3205380577427821
 31
0.0
  0
LINE
  5
2BFC
  8
0
 10
3.38779527559055
 20
7.3205380577427821
 30
0.0
 11
3.3458005249343818
 21
7.2890419947506562
 31
0.0
  0
LINE
  5
2BFD
  8
0
 10
3.3458005249343818
 20
3.245734908136483
 30
0.0
 11
3.38779527559055
 21
3.2142388451443571
 31
0.0
  0
LINE
  5
2BFE
  8
0
 10
3.38779527559055
 20
3.2142388451443571
 30
0.0
 11
3.4284776902887129
 21
3.1840551181102361
 31
0.0
  0
LINE
  5
2BFF
  8
0
 10
3.4284776902887129
 20
3.1840551181102361
 30
0.0
 11
3.4665354330708649
 21
3.1564960629921259
 31
0.0
  0
LINE
  5
2C00
  8
0
 10
3.4665354330708649
 20
3.1564960629921259
 30
0.0
 11
3.500656167979002
 21
3.1315616797900261
 31
0.0
  0
LINE
  5
2C01
  8
0
 10
3.500656167979002
 20
3.1315616797900261
 30
0.0
 11
3.5282152230971122
 21
3.110564304461942
 31
0.0
  0
LINE
  5
2C02
  8
0
 10
3.5282152230971122
 20
3.110564304461942
 30
0.0
 11
3.5505249343832022
 21
3.094816272965879
 31
0.0
  0
LINE
  5
2C03
  8
0
 10
3.5505249343832022
 20
3.094816272965879
 30
0.0
 11
3.5636482939632539
 21
3.0843175853018381
 31
0.0
  0
LINE
  5
2C04
  8
0
 10
3.5636482939632539
 20
3.0843175853018381
 30
0.0
 11
3.5702099737532791
 21
3.080380577427821
 31
0.0
  0
LINE
  5
2C05
  8
0
 10
0.8274278215223098
 20
7.4543963254593164
 30
0.0
 11
0.8353018372703414
 21
7.4845800524934374
 31
0.0
  0
LINE
  5
2C06
  8
0
 10
0.8353018372703414
 20
7.4845800524934374
 30
0.0
 11
0.8562992125984251
 21
7.505577427821521
 31
0.0
  0
LINE
  5
2C07
  8
0
 10
0.8562992125984251
 20
7.505577427821521
 30
0.0
 11
0.8864829396325461
 21
7.5134514435695534
 31
0.0
  0
LINE
  5
2C08
  8
0
 10
1.0518372703412071
 20
7.2890419947506562
 30
0.0
 11
1.020341207349081
 21
7.3323490813648284
 31
0.0
  0
LINE
  5
2C09
  8
0
 10
1.020341207349081
 20
7.3323490813648284
 30
0.0
 11
0.9901574803149609
 21
7.3730314960629908
 31
0.0
  0
LINE
  5
2C0A
  8
0
 10
0.9901574803149609
 20
7.3730314960629908
 30
0.0
 11
0.9625984251968507
 21
7.4110892388451433
 31
0.0
  0
LINE
  5
2C0B
  8
0
 10
0.9625984251968507
 20
7.4110892388451433
 30
0.0
 11
0.9376640419947507
 21
7.4438976377952741
 31
0.0
  0
LINE
  5
2C0C
  8
0
 10
0.9376640419947507
 20
7.4438976377952741
 30
0.0
 11
0.917979002624672
 21
7.4727690288713902
 31
0.0
  0
LINE
  5
2C0D
  8
0
 10
0.917979002624672
 20
7.4727690288713902
 30
0.0
 11
0.9022309711286091
 21
7.4937664041994738
 31
0.0
  0
LINE
  5
2C0E
  8
0
 10
0.9022309711286091
 20
7.4937664041994738
 30
0.0
 11
0.8917322834645673
 21
7.5082020997375318
 31
0.0
  0
LINE
  5
2C0F
  8
0
 10
0.8917322834645673
 20
7.5082020997375318
 30
0.0
 11
0.8864829396325461
 21
7.5134514435695534
 31
0.0
  0
LINE
  5
2C10
  8
0
 10
3.3458005249343818
 20
7.2890419947506562
 30
0.0
 11
3.3772965879265082
 21
7.3323490813648284
 31
0.0
  0
LINE
  5
2C11
  8
0
 10
3.3772965879265082
 20
7.3323490813648284
 30
0.0
 11
3.4074803149606292
 21
7.3730314960629908
 31
0.0
  0
LINE
  5
2C12
  8
0
 10
3.4074803149606292
 20
7.3730314960629908
 30
0.0
 11
3.4350393700787389
 21
7.4110892388451433
 31
0.0
  0
LINE
  5
2C13
  8
0
 10
3.4350393700787389
 20
7.4110892388451433
 30
0.0
 11
3.4586614173228338
 21
7.4438976377952741
 31
0.0
  0
LINE
  5
2C14
  8
0
 10
3.4586614173228338
 20
7.4438976377952741
 30
0.0
 11
3.4796587926509179
 21
7.4727690288713902
 31
0.0
  0
LINE
  5
2C15
  8
0
 10
3.4796587926509179
 20
7.4727690288713902
 30
0.0
 11
3.4954068241469809
 21
7.4937664041994738
 31
0.0
  0
LINE
  5
2C16
  8
0
 10
3.4954068241469809
 20
7.4937664041994738
 30
0.0
 11
3.5059055118110232
 21
7.5082020997375318
 31
0.0
  0
LINE
  5
2C17
  8
0
 10
3.5059055118110232
 20
7.5082020997375318
 30
0.0
 11
3.5111548556430439
 21
7.5134514435695534
 31
0.0
  0
LINE
  5
2C18
  8
0
 10
2.2539370078740149
 20
6.8572834645669278
 30
0.0
 11
2.229002624671915
 21
6.8389107611548541
 31
0.0
  0
LINE
  5
2C19
  8
0
 10
2.229002624671915
 20
6.8389107611548541
 30
0.0
 11
2.1988188976377949
 21
6.8323490813648293
 31
0.0
  0
LINE
  5
2C1A
  8
0
 10
2.1988188976377949
 20
6.8323490813648293
 30
0.0
 11
2.1686351706036739
 21
6.8389107611548541
 31
0.0
  0
LINE
  5
2C1B
  8
0
 10
2.1686351706036739
 20
6.8389107611548541
 30
0.0
 11
2.1423884514435692
 21
6.8572834645669278
 31
0.0
  0
LINE
  5
2C1C
  8
0
 10
2.1423884514435692
 20
6.958333333333333
 30
0.0
 11
2.1686351706036739
 21
6.9767060367454059
 31
0.0
  0
LINE
  5
2C1D
  8
0
 10
2.1686351706036739
 20
6.9767060367454059
 30
0.0
 11
2.1988188976377949
 21
6.9832677165354324
 31
0.0
  0
LINE
  5
2C1E
  8
0
 10
2.1988188976377949
 20
6.9832677165354324
 30
0.0
 11
2.229002624671915
 21
6.9767060367454059
 31
0.0
  0
LINE
  5
2C1F
  8
0
 10
2.229002624671915
 20
6.9767060367454059
 30
0.0
 11
2.2539370078740149
 21
6.958333333333333
 31
0.0
  0
LINE
  5
2C20
  8
0
 10
2.1423884514435692
 20
6.8572834645669278
 30
0.0
 11
2.1253280839895008
 21
6.8900918635170587
 31
0.0
  0
LINE
  5
2C21
  8
0
 10
2.1253280839895008
 20
6.8900918635170587
 30
0.0
 11
2.1253280839895008
 21
6.9255249343832022
 31
0.0
  0
LINE
  5
2C22
  8
0
 10
2.1253280839895008
 20
6.9255249343832022
 30
0.0
 11
2.1423884514435692
 21
6.958333333333333
 31
0.0
  0
LINE
  5
2C23
  8
0
 10
2.2539370078740149
 20
6.8572834645669278
 30
0.0
 11
2.2709973753280832
 21
6.8900918635170587
 31
0.0
  0
LINE
  5
2C24
  8
0
 10
2.2709973753280832
 20
6.8900918635170587
 30
0.0
 11
2.2709973753280832
 21
6.9255249343832022
 31
0.0
  0
LINE
  5
2C25
  8
0
 10
2.2709973753280832
 20
6.9255249343832022
 30
0.0
 11
2.2539370078740149
 21
6.958333333333333
 31
0.0
  0
LINE
  5
2C26
  8
0
 10
0.8274278215223098
 20
7.4543963254593164
 30
0.0
 11
0.8326771653543307
 21
7.4491469816272948
 31
0.0
  0
LINE
  5
2C27
  8
0
 10
0.8326771653543307
 20
7.4491469816272948
 30
0.0
 11
0.8471128608923885
 21
7.4386482939632534
 31
0.0
  0
LINE
  5
2C28
  8
0
 10
0.8471128608923885
 20
7.4386482939632534
 30
0.0
 11
0.8681102362204729
 21
7.4229002624671896
 31
0.0
  0
LINE
  5
2C29
  8
0
 10
0.8681102362204729
 20
7.4229002624671896
 30
0.0
 11
0.8969816272965882
 21
7.4032152230971118
 31
0.0
  0
LINE
  5
2C2A
  8
0
 10
0.8969816272965882
 20
7.4032152230971118
 30
0.0
 11
0.9297900262467193
 21
7.3782808398950124
 31
0.0
  0
LINE
  5
2C2B
  8
0
 10
0.9297900262467193
 20
7.3782808398950124
 30
0.0
 11
0.9678477690288715
 21
7.3507217847769013
 31
0.0
  0
LINE
  5
2C2C
  8
0
 10
0.9678477690288715
 20
7.3507217847769013
 30
0.0
 11
1.008530183727034
 21
7.3205380577427821
 31
0.0
  0
LINE
  5
2C2D
  8
0
 10
1.008530183727034
 20
7.3205380577427821
 30
0.0
 11
1.0518372703412071
 21
7.2890419947506562
 31
0.0
  0
LINE
  5
2C2E
  8
0
 10
1.0518372703412071
 20
3.245734908136483
 30
0.0
 11
1.008530183727034
 21
3.2142388451443571
 31
0.0
  0
LINE
  5
2C2F
  8
0
 10
1.008530183727034
 20
3.2142388451443571
 30
0.0
 11
0.9678477690288715
 21
3.1840551181102361
 31
0.0
  0
LINE
  5
2C30
  8
0
 10
0.9678477690288715
 20
3.1840551181102361
 30
0.0
 11
0.9297900262467193
 21
3.1564960629921259
 31
0.0
  0
LINE
  5
2C31
  8
0
 10
0.9297900262467193
 20
3.1564960629921259
 30
0.0
 11
0.8969816272965882
 21
3.1315616797900261
 31
0.0
  0
LINE
  5
2C32
  8
0
 10
0.8969816272965882
 20
3.1315616797900261
 30
0.0
 11
0.8681102362204729
 21
3.110564304461942
 31
0.0
  0
LINE
  5
2C33
  8
0
 10
0.8681102362204729
 20
3.110564304461942
 30
0.0
 11
0.8471128608923885
 21
3.094816272965879
 31
0.0
  0
LINE
  5
2C34
  8
0
 10
0.8471128608923885
 20
3.094816272965879
 30
0.0
 11
0.8326771653543307
 21
3.0843175853018381
 31
0.0
  0
LINE
  5
2C35
  8
0
 10
0.8326771653543307
 20
3.0843175853018381
 30
0.0
 11
0.8274278215223098
 21
3.080380577427821
 31
0.0
  0
LINE
  5
2C36
  8
0
 10
3.5137795275590542
 20
7.5173884514435683
 30
0.0
 11
3.5360892388451441
 21
7.5121391076115467
 31
0.0
  0
LINE
  5
2C37
  8
0
 10
3.5360892388451441
 20
7.5121391076115467
 30
0.0
 11
3.555774278215222
 21
7.4990157480314954
 31
0.0
  0
LINE
  5
2C38
  8
0
 10
3.555774278215222
 20
7.4990157480314954
 30
0.0
 11
3.568897637795275
 21
7.4806430446194208
 31
0.0
  0
LINE
  5
2C39
  8
0
 10
3.568897637795275
 20
7.4806430446194208
 30
0.0
 11
3.5741469816272962
 21
7.4570209973753272
 31
0.0
  0
LINE
  5
2C3A
  8
0
 10
0.8838582677165359
 20
7.5173884514435683
 30
0.0
 11
0.8602362204724409
 21
7.5121391076115467
 31
0.0
  0
LINE
  5
2C3B
  8
0
 10
0.8602362204724409
 20
7.5121391076115467
 30
0.0
 11
0.8405511811023622
 21
7.4990157480314954
 31
0.0
  0
LINE
  5
2C3C
  8
0
 10
0.8405511811023622
 20
7.4990157480314954
 30
0.0
 11
0.8287401574803149
 21
7.4806430446194208
 31
0.0
  0
LINE
  5
2C3D
  8
0
 10
0.8287401574803149
 20
7.4806430446194208
 30
0.0
 11
0.8234908136482941
 21
7.4570209973753272
 31
0.0
  0
LINE
  5
2C3E
  8
0
 10
0.8234908136482941
 20
3.0764435695538062
 30
0.0
 11
0.8287401574803149
 21
3.0541338582677171
 31
0.0
  0
LINE
  5
2C3F
  8
0
 10
0.8287401574803149
 20
3.0541338582677171
 30
0.0
 11
0.8405511811023622
 21
3.034448818897638
 31
0.0
  0
LINE
  5
2C40
  8
0
 10
0.8405511811023622
 20
3.034448818897638
 30
0.0
 11
0.8602362204724409
 21
3.0213254593175849
 31
0.0
  0
LINE
  5
2C41
  8
0
 10
0.8602362204724409
 20
3.0213254593175849
 30
0.0
 11
0.8838582677165359
 21
3.01738845144357
 31
0.0
  0
LINE
  5
2C42
  8
0
 10
3.5741469816272962
 20
3.0764435695538062
 30
0.0
 11
3.568897637795275
 21
3.0541338582677171
 31
0.0
  0
LINE
  5
2C43
  8
0
 10
3.568897637795275
 20
3.0541338582677171
 30
0.0
 11
3.555774278215222
 21
3.034448818897638
 31
0.0
  0
LINE
  5
2C44
  8
0
 10
3.555774278215222
 20
3.034448818897638
 30
0.0
 11
3.5360892388451441
 21
3.0213254593175849
 31
0.0
  0
LINE
  5
2C45
  8
0
 10
3.5360892388451441
 20
3.0213254593175849
 30
0.0
 11
3.5137795275590542
 21
3.01738845144357
 31
0.0
  0
LINE
  5
2C46
  8
0
 10
1.9232283464566919
 20
4.6433727034120729
 30
0.0
 11
1.91010498687664
 21
4.6354986876640414
 31
0.0
  0
LINE
  5
2C47
  8
0
 10
1.91010498687664
 20
4.6354986876640414
 30
0.0
 11
1.91010498687664
 21
4.6210629921259834
 31
0.0
  0
LINE
  5
2C48
  8
0
 10
1.91010498687664
 20
4.6210629921259834
 30
0.0
 11
1.9232283464566919
 21
4.6131889763779519
 31
0.0
  0
LINE
  5
2C49
  8
0
 10
2.4730971128608918
 20
4.6131889763779519
 30
0.0
 11
2.486220472440944
 21
4.6210629921259834
 31
0.0
  0
LINE
  5
2C4A
  8
0
 10
2.486220472440944
 20
4.6210629921259834
 30
0.0
 11
2.486220472440944
 21
4.6354986876640414
 31
0.0
  0
LINE
  5
2C4B
  8
0
 10
2.486220472440944
 20
4.6354986876640414
 30
0.0
 11
2.4730971128608918
 21
4.6433727034120729
 31
0.0
  0
LINE
  5
2C4C
  8
0
 10
1.9232283464566919
 20
5.5974409448818889
 30
0.0
 11
1.91010498687664
 21
5.5895669291338574
 31
0.0
  0
LINE
  5
2C4D
  8
0
 10
1.91010498687664
 20
5.5895669291338574
 30
0.0
 11
1.91010498687664
 21
5.5751312335958012
 31
0.0
  0
LINE
  5
2C4E
  8
0
 10
1.91010498687664
 20
5.5751312335958012
 30
0.0
 11
1.9232283464566919
 21
5.5672572178477679
 31
0.0
  0
LINE
  5
2C4F
  8
0
 10
2.4730971128608918
 20
5.5672572178477679
 30
0.0
 11
2.486220472440944
 21
5.5751312335958012
 31
0.0
  0
LINE
  5
2C50
  8
0
 10
2.486220472440944
 20
5.5751312335958012
 30
0.0
 11
2.486220472440944
 21
5.5895669291338574
 31
0.0
  0
LINE
  5
2C51
  8
0
 10
2.486220472440944
 20
5.5895669291338574
 30
0.0
 11
2.4730971128608918
 21
5.5974409448818889
 31
0.0
  0
LINE
  5
2C52
  8
0
 10
1.9232283464566919
 20
6.5528215223097099
 30
0.0
 11
1.91010498687664
 21
6.5462598425196852
 31
0.0
  0
LINE
  5
2C53
  8
0
 10
1.91010498687664
 20
6.5462598425196852
 30
0.0
 11
1.91010498687664
 21
6.5305118110236213
 31
0.0
  0
LINE
  5
2C54
  8
0
 10
1.91010498687664
 20
6.5305118110236213
 30
0.0
 11
1.9232283464566919
 21
6.5239501312335948
 31
0.0
  0
LINE
  5
2C55
  8
0
 10
2.4730971128608918
 20
6.5239501312335948
 30
0.0
 11
2.486220472440944
 21
6.5305118110236213
 31
0.0
  0
LINE
  5
2C56
  8
0
 10
2.486220472440944
 20
6.5305118110236213
 30
0.0
 11
2.486220472440944
 21
6.5462598425196852
 31
0.0
  0
LINE
  5
2C57
  8
0
 10
2.486220472440944
 20
6.5462598425196852
 30
0.0
 11
2.4730971128608918
 21
6.5528215223097099
 31
0.0
  0
ENDSEC
  0
EOF
