  0
SECTION
  2
HEADER
  9
$ACADVER
  1
AC1015
  9
$ACADMAINTVER
 70
     6
  9
$DWGCODEPAGE
  3
ANSI_1252
  9
$INSBASE
 10
0.0
 20
0.0
 30
0.0
  9
$EXTMIN
 10
-0.5
 20
-0.5
 30
-0.5
  9
$EXTMAX
 10
5.0
 20
5.0
 30
5.0
  9
$LIMMIN
 10
-0.5
 20
-0.5
  9
$LIMMAX
 10
5.0
 20
5.0
  9
$ORTHOMODE
 70
     0
  9
$REGENMODE
 70
     1
  9
$FILLMODE
 70
     1
  9
$QTEXTMODE
 70
     0
  9
$MIRRTEXT
 70
     1
  9
$LTSCALE
 40
1.0
  9
$ATTMODE
 70
     1
  9
$TEXTSIZE
 40
0.2
  9
$TRACEWID
 40
0.05
  9
$TEXTSTYLE
  7
Standard
  9
$CLAYER
  8
0
  9
$CELTYPE
  6
Continuous
  9
$CECOLOR
 62
   256
  9
$CELTSCALE
 40
1.0
  9
$DISPSILH
 70
     0
  9
$DIMSCALE
 40
1.0
  9
$DIMASZ
 40
0.18
  9
$DIMEXO
 40
0.0625
  9
$DIMDLI
 40
0.38
  9
$DIMRND
 40
0.0
  9
$DIMDLE
 40
0.0
  9
$DIMEXE
 40
0.18
  9
$DIMTP
 40
0.0
  9
$DIMTM
 40
0.0
  9
$DIMTXT
 40
0.18
  9
$DIMCEN
 40
0.09
  9
$DIMTSZ
 40
0.0
  9
$DIMTOL
 70
     0
  9
$DIMLIM
 70
     0
  9
$DIMTIH
 70
     1
  9
$DIMTOH
 70
     1
  9
$DIMSE1
 70
     0
  9
$DIMSE2
 70
     0
  9
$DIMTAD
 70
     0
  9
$DIMZIN
 70
     0
  9
$DIMBLK
  1

  9
$DIMASO
 70
     1
  9
$DIMSHO
 70
     1
  9
$DIMPOST
  1

  9
$DIMAPOST
  1

  9
$DIMALT
 70
     0
  9
$DIMALTD
 70
     2
  9
$DIMALTF
 40
25.4
  9
$DIMLFAC
 40
1.0
  9
$DIMTOFL
 70
     0
  9
$DIMTVP
 40
0.0
  9
$DIMTIX
 70
     0
  9
$DIMSOXD
 70
     0
  9
$DIMSAH
 70
     0
  9
$DIMBLK1
  1

  9
$DIMBLK2
  1

  9
$DIMSTYLE
  2
Standard
  9
$DIMCLRD
 70
     0
  9
$DIMCLRE
 70
     0
  9
$DIMCLRT
 70
     0
  9
$DIMTFAC
 40
1.0
  9
$DIMGAP
 40
0.09
  9
$DIMJUST
 70
     0
  9
$DIMSD1
 70
     0
  9
$DIMSD2
 70
     0
  9
$DIMTOLJ
 70
     1
  9
$DIMTZIN
 70
     0
  9
$DIMALTZ
 70
     0
  9
$DIMALTTZ
 70
     0
  9
$DIMUPT
 70
     0
  9
$DIMDEC
 70
     4
  9
$DIMTDEC
 70
     4
  9
$DIMALTU
 70
     2
  9
$DIMALTTD
 70
     2
  9
$DIMTXSTY
  7
Standard
  9
$DIMAUNIT
 70
     0
  9
$DIMADEC
 70
     0
  9
$DIMALTRND
 40
0.0
  9
$DIMAZIN
 70
     0
  9
$DIMDSEP
 70
     0
  9
$DIMATFIT
 70
     3
  9
$DIMFRAC
 70
     0
  9
$DIMLDRBLK
  1

  9
$DIMLUNIT
 70
     2
  9
$DIMLWD
 70
     0
  9
$DIMLWE
 70
     0
  9
$DIMTMOVE
 70
     0
  9
$LUNITS
 70
     2
  9
$LUPREC
 70
     4
  9
$SKETCHINC
 40
0.1
  9
$FILLETRAD
 40
0.0
  9
$AUNITS
 70
     0
  9
$AUPREC
 70
     0
  9
$MENU
  1
acad
  9
$ELEVATION
 40
0.0
  9
$PELEVATION
 40
0.0
  9
$THICKNESS
 40
0.0
  9
$LIMCHECK
 70
     0
  9
$CHAMFERA
 40
0.0
  9
$CHAMFERB
 40
0.0
  9
$CHAMFERC
 40
0.0
  9
$CHAMFERD
 40
0.0
  9
$SKPOLY
 70
     0
  9
$TDCREATE
 40
0.000000000
  9
$TDUCREATE
 40
0.000000000
  9
$TDUPDATE
 40
0.000000000
  9
$TDUUPDATE
 40
0.000000000
  9
$TDINDWG
 40
0.0000000000
  9
$TDUSRTIMER
 40
0.0000000000
  9
$USRTIMER
 70
     1
  9
$ANGBASE
 50
0.0
  9
$ANGDIR
 70
     0
  9
$PDMODE
 70
     0
  9
$PDSIZE
 40
0.0
  9
$PLINEWID
 40
0.0
  9
$SPLFRAME
 70
     0
  9
$SPLINETYPE
 70
     6
  9
$SPLINESEGS
 70
     8
  9
$HANDSEED
  5
22A
  9
$SURFTAB1
 70
     6
  9
$SURFTAB2
 70
     6
  9
$SURFTYPE
 70
     6
  9
$SURFU
 70
     6
  9
$SURFV
 70
     6
  9
$UCSBASE
  2

  9
$UCSNAME
  2

  9
$UCSORG
 10
0.0
 20
0.0
 30
0.0
  9
$UCSXDIR
 10
1.0
 20
0.0
 30
0.0
  9
$UCSYDIR
 10
0.0
 20
1.0
 30
0.0
  9
$UCSORTHOREF
  2

  9
$UCSORTHOVIEW
 70
     0
  9
$UCSORGTOP
 10
0.0
 20
0.0
 30
0.0
  9
$UCSORGBOTTOM
 10
0.0
 20
0.0
 30
0.0
  9
$UCSORGLEFT
 10
0.0
 20
0.0
 30
0.0
  9
$UCSORGRIGHT
 10
0.0
 20
0.0
 30
0.0
  9
$UCSORGFRONT
 10
0.0
 20
0.0
 30
0.0
  9
$UCSORGBACK
 10
0.0
 20
0.0
 30
0.0
  9
$PUCSBASE
  2

  9
$PUCSNAME
  2

  9
$PUCSORG
 10
0.0
 20
0.0
 30
0.0
  9
$PUCSXDIR
 10
1.0
 20
0.0
 30
0.0
  9
$PUCSYDIR
 10
0.0
 20
1.0
 30
0.0
  9
$PUCSORTHOREF
  2

  9
$PUCSORTHOVIEW
 70
     0
  9
$PUCSORGTOP
 10
0.0
 20
0.0
 30
0.0
  9
$PUCSORGBOTTOM
 10
0.0
 20
0.0
 30
0.0
  9
$PUCSORGLEFT
 10
0.0
 20
0.0
 30
0.0
  9
$PUCSORGRIGHT
 10
0.0
 20
0.0
 30
0.0
  9
$PUCSORGFRONT
 10
0.0
 20
0.0
 30
0.0
  9
$PUCSORGBACK
 10
0.0
 20
0.0
 30
0.0
  9
$USERI1
 70
     0
  9
$USERI2
 70
     0
  9
$USERI3
 70
     0
  9
$USERI4
 70
     0
  9
$USERI5
 70
     0
  9
$USERR1
 40
0.0
  9
$USERR2
 40
0.0
  9
$USERR3
 40
0.0
  9
$USERR4
 40
0.0
  9
$USERR5
 40
0.0
  9
$WORLDVIEW
 70
     1
  9
$SHADEDGE
 70
     3
  9
$SHADEDIF
 70
    70
  9
$TILEMODE
 70
     0
  9
$MAXACTVP
 70
    16
  9
$PINSBASE
 10
0.0
 20
0.0
 30
0.0
  9
$PLIMCHECK
 70
     0
  9
$PEXTMIN
 10
-0.5
 20
-0.5
 30
-0.5
  9
$PEXTMAX
 10
11.219986
 20
8.669998
 30
5.0
  9
$PLIMMIN
 10
-0.5
 20
-0.5
  9
$PLIMMAX
 10
11.219986
 20
8.669998
  9
$UNITMODE
 70
     0
  9
$VISRETAIN
 70
     0
  9
$PLINEGEN
 70
     1
  9
$PSLTSCALE
 70
     0
  9
$TREEDEPTH
 70
  3020
  9
$CMLSTYLE
  2
Standard
  9
$CMLJUST
 70
     0
  9
$CMLSCALE
 40
1.0
  9
$PROXYGRAPHICS
 70
     0
  9
$MEASUREMENT
 70
     0
  9
$CELWEIGHT
370
     0
  9
$ENDCAPS
280
     0
  9
$JOINSTYLE
280
     0
  9
$LWDISPLAY
290
     0
  9
$INSUNITS
 70
     0
  9
$HYPERLINKBASE
  1

  9
$XEDIT
290
     1
  9
$CEPSNTYPE
380
     0
  9
$PSTYLEMODE
290
     1
  9
$FINGERPRINTGUID
  2

  9
$VERSIONGUID
  2

  9
$EXTNAMES
290
     1
  9
$PSVPSCALE
 40
0.0
  0
ENDSEC
  0
SECTION
  2
CLASSES
  0
CLASS
  1
LWPOLYLINE
  2
AcDbPolyline
  3
"AutoCAD"
 90
        0
280
     0
281
     1
  0
CLASS
  1
IMAGE
  2
AcDbRasterImage
  3
ISM
 90
      127
280
     0
281
     1
  0
CLASS
  1
OLE2FRAME
  2
AcDbOle2Frame
  3
""
 90
        0
280
     0
281
     1
  0
CLASS
  1
HATCH
  2
AcDbHatch
  3
"ACAD_SEDONA"
 90
        0
280
     0
281
     1
  0
CLASS
  1
DICTIONARYVAR
  2
AcDbDictionaryVar
  3
"AutoCAD"
 90
        0
280
     0
281
     0
  0
CLASS
  1
RASTERVARIABLES
  2
AcDbRasterVariables
  3
ISM
 90
        0
280
     0
281
     0
  0
CLASS
  1
IMAGEDEF
  2
AcDbRasterImageDef
  3
ISM
 90
        0
280
     0
281
     0
  0
CLASS
  1
IMAGEDEF_REACTOR
  2
AcDbRasterImageDefReactor
  3
ISM
 90
        1
280
     0
281
     0
  0
CLASS
  1
IDBUFFER
  2
AcDbIdBuffer
  3
"Acad"
 90
        0
280
     0
281
     0
  0
CLASS
  1
SPATIAL_FILTER
  2
AcDbSpatialFilter
  3
"Acad"
 90
        0
280
     0
281
     0
  0
CLASS
  1
XRECORD
  2
AcDbXrecord
  3
"<Built In>"
 90
        0
280
     0
281
     0
  0
CLASS
  1
SORTENTSTABLE
  2
AcDbSortentsTable
  3
"AutoCAD"
 90
        0
280
     0
281
     0
  0
CLASS
  1
LAYER_INDEX
  2
AcDbLayerIndex
  3
"Acad"
 90
        0
280
     0
281
     0
  0
CLASS
  1
SPATIAL_INDEX
  2
AcDbSpatialIndex
  3
"Acad"
 90
        0
280
     0
281
     0
  0
CLASS
  1
OBJECT_PTR
  2
CAseDLPNTableRecord
  3
"ASE-LPNTableRecord"
 90
        1
280
     0
281
     0
  0
CLASS
  1
LAYOUT
  2
AcDbLayout
  3
"AutoCAD 2000"
 90
        1
280
     0
281
     0
  0
CLASS
  1
PLOTSETTINGS
  2
AcDbPlotSettings
  3
"AutoCAD 2000"
 90
        1
280
     0
281
     0
  0
CLASS
  1
ACDBDICTIONARYWDFLT
  2
AcDbDictionaryWithDefault
  3
"AutoCAD 2000"
 90
        1
280
     0
281
     0
  0
CLASS
  1
ACDBPLACEHOLDER
  2
AcDbPlaceHolder
  3
"AutoCAD 2000"
 90
        1
280
     0
281
     0
  0
CLASS
  1
VBA_PROJECT
  2
AcDbVbaProject
  3
"acadvba"
 90
        1
280
     0
281
     0
  0
CLASS
  1
RTEXT
  2
RText
  3
RText|AutoCAD Express Tool|expresstools@autodesk.com
 90
        0
280
     0
281
     1
  0
CLASS
  1
ARCALIGNEDTEXT
  2
AcDbArcAlignedText
  3
ATEXT|AutoCAD Express Tool|expresstools@autodesk.com
 90
        0
280
     0
281
     1
  0
ENDSEC
  0
SECTION
  2
TABLES
  0
TABLE
  2
VPORT
  5
7
100
AcDbSymbolTable
 70
    16
  0
VPORT
  5
21A
100
AcDbSymbolTableRecord
100
AcDbViewportTableRecord
  2
*ACTIVE
 70
     0
 10
0.0
 20
0.0
 11
1.0
 21
1.0
 12
0.0
 22
0.0
 13
0.0
 23
0.0
 14
1.0
 24
1.0
 15
0.0
 25
0.0
 16
0.0
 26
0.0
 36
1.0
 17
0.0
 27
0.0
 37
0.0
 40
9.90788
 41
0.688564
 42
50.0
 43
26.972402
 44
-26.972402
 50
0.0
 51
0.0
 71
    16
 72
   100
 73
     1
 74
     1
 75
     0
 76
     0
 77
     0
 78
     0
281
     0
 65
     0
110
0.0
120
0.0
130
0.0
111
1.0
121
0.0
131
0.0
112
0.0
122
1.0
132
0.0
345
0
346
0
 79
     0
146
0.0
  0
VPORT
  5
21B
100
AcDbSymbolTableRecord
100
AcDbViewportTableRecord
  2
L1
 70
     0
 10
0.0
 20
0.0
 11
1.0
 21
1.0
 12
0.0
 22
0.0
 13
0.0
 23
0.0
 14
1.0
 24
1.0
 15
0.0
 25
0.0
 16
0.0
 26
0.0
 36
1.0
 17
0.0
 27
0.0
 37
0.0
 40
9.90788
 41
0.688564
 42
50.0
 43
26.972402
 44
-26.972402
 50
0.0
 51
0.0
 71
    16
 72
   100
 73
     1
 74
     1
 75
     0
 76
     0
 77
     0
 78
     0
281
     0
 65
     0
110
0.0
120
0.0
130
0.0
111
1.0
121
0.0
131
0.0
112
0.0
122
1.0
132
0.0
345
0
346
0
 79
     0
146
0.0
  0
VPORT
  5
21C
100
AcDbSymbolTableRecord
100
AcDbViewportTableRecord
  2
L2
 70
     0
 10
0.0
 20
0.0
 11
0.5
 21
1.0
 12
0.0
 22
0.0
 13
0.0
 23
0.0
 14
1.0
 24
1.0
 15
0.0
 25
0.0
 16
0.0
 26
-1.0
 36
0.0
 17
0.0
 27
0.0
 37
0.0
 40
53.944803
 41
0.688564
 42
50.0
 43
27.554707
 44
-27.554707
 50
0.0
 51
0.0
 71
    16
 72
   100
 73
     1
 74
     1
 75
     0
 76
     0
 77
     0
 78
     0
281
     0
 65
     0
110
0.0
120
0.0
130
0.0
111
1.0
121
0.0
131
0.0
112
0.0
122
1.0
132
0.0
345
0
346
0
 79
     0
146
0.0
  0
VPORT
  5
21D
100
AcDbSymbolTableRecord
100
AcDbViewportTableRecord
  2
L2
 70
     0
 10
0.5
 20
0.0
 11
1.0
 21
1.0
 12
0.0
 22
0.0
 13
0.0
 23
0.0
 14
1.0
 24
1.0
 15
0.0
 25
0.0
 16
1.0
 26
0.0
 36
0.0
 17
0.0
 27
0.0
 37
0.0
 40
53.944803
 41
0.688564
 42
50.0
 43
27.423566
 44
-27.423566
 50
0.0
 51
0.0
 71
    16
 72
   100
 73
     1
 74
     1
 75
     0
 76
     0
 77
     0
 78
     0
281
     0
 65
     0
110
0.0
120
0.0
130
0.0
111
1.0
121
0.0
131
0.0
112
0.0
122
1.0
132
0.0
345
0
346
0
 79
     0
146
0.0
  0
VPORT
  5
21E
100
AcDbSymbolTableRecord
100
AcDbViewportTableRecord
  2
L3
 70
     0
 10
0.0
 20
0.5
 11
1.0
 21
1.0
 12
0.0
 22
0.0
 13
0.0
 23
0.0
 14
1.0
 24
1.0
 15
0.0
 25
0.0
 16
0.0
 26
0.0
 36
1.0
 17
0.0
 27
0.0
 37
0.0
 40
9.90788
 41
0.688564
 42
50.0
 43
26.972402
 44
-26.972402
 50
0.0
 51
0.0
 71
    16
 72
   100
 73
     1
 74
     1
 75
     0
 76
     0
 77
     0
 78
     0
281
     0
 65
     0
110
0.0
120
0.0
130
0.0
111
1.0
121
0.0
131
0.0
112
0.0
122
1.0
132
0.0
345
0
346
0
 79
     0
146
0.0
  0
VPORT
  5
21F
100
AcDbSymbolTableRecord
100
AcDbViewportTableRecord
  2
L3
 70
     0
 10
0.0
 20
0.0
 11
1.0
 21
0.5
 12
0.0
 22
0.0
 13
0.0
 23
0.0
 14
1.0
 24
1.0
 15
0.0
 25
0.0
 16
0.0
 26
-1.0
 36
0.0
 17
0.0
 27
0.0
 37
0.0
 40
53.944803
 41
0.688564
 42
50.0
 43
27.554707
 44
-27.554707
 50
0.0
 51
0.0
 71
    16
 72
   100
 73
     1
 74
     1
 75
     0
 76
     0
 77
     0
 78
     0
281
     0
 65
     0
110
0.0
120
0.0
130
0.0
111
1.0
121
0.0
131
0.0
112
0.0
122
1.0
132
0.0
345
0
346
0
 79
     0
146
0.0
  0
VPORT
  5
220
100
AcDbSymbolTableRecord
100
AcDbViewportTableRecord
  2
L4
 70
     0
 10
0.0
 20
0.5
 11
0.5
 21
1.0
 12
0.0
 22
0.0
 13
0.0
 23
0.0
 14
1.0
 24
1.0
 15
0.0
 25
0.0
 16
0.0
 26
0.0
 36
1.0
 17
0.0
 27
0.0
 37
0.0
 40
9.90788
 41
0.688564
 42
50.0
 43
26.972402
 44
-26.972402
 50
0.0
 51
0.0
 71
    16
 72
   100
 73
     1
 74
     1
 75
     0
 76
     0
 77
     0
 78
     0
281
     0
 65
     0
110
0.0
120
0.0
130
0.0
111
1.0
121
0.0
131
0.0
112
0.0
122
1.0
132
0.0
345
0
346
0
 79
     0
146
0.0
  0
VPORT
  5
221
100
AcDbSymbolTableRecord
100
AcDbViewportTableRecord
  2
L4
 70
     0
 10
0.0
 20
0.0
 11
0.5
 21
0.5
 12
0.0
 22
0.0
 13
0.0
 23
0.0
 14
1.0
 24
1.0
 15
0.0
 25
0.0
 16
0.0
 26
-1.0
 36
0.0
 17
0.0
 27
0.0
 37
0.0
 40
53.944803
 41
0.688564
 42
50.0
 43
27.554707
 44
-27.554707
 50
0.0
 51
0.0
 71
    16
 72
   100
 73
     1
 74
     1
 75
     0
 76
     0
 77
     0
 78
     0
281
     0
 65
     0
110
0.0
120
0.0
130
0.0
111
1.0
121
0.0
131
0.0
112
0.0
122
1.0
132
0.0
345
0
346
0
 79
     0
146
0.0
  0
VPORT
  5
222
100
AcDbSymbolTableRecord
100
AcDbViewportTableRecord
  2
L4
 70
     0
 10
0.5
 20
0.0
 11
1.0
 21
0.5
 12
0.0
 22
0.0
 13
0.0
 23
0.0
 14
1.0
 24
1.0
 15
0.0
 25
0.0
 16
1.0
 26
0.0
 36
0.0
 17
0.0
 27
0.0
 37
0.0
 40
53.944803
 41
0.688564
 42
50.0
 43
27.423566
 44
-27.423566
 50
0.0
 51
0.0
 71
    16
 72
   100
 73
     1
 74
     1
 75
     0
 76
     0
 77
     0
 78
     0
281
     0
 65
     0
110
0.0
120
0.0
130
0.0
111
1.0
121
0.0
131
0.0
112
0.0
122
1.0
132
0.0
345
0
346
0
 79
     0
146
0.0
  0
VPORT
  5
223
100
AcDbSymbolTableRecord
100
AcDbViewportTableRecord
  2
L4
 70
     0
 10
0.5
 20
0.5
 11
1.0
 21
1.0
 12
0.0
 22
0.0
 13
0.0
 23
0.0
 14
1.0
 24
1.0
 15
0.0
 25
0.0
 16
0.57735
 26
-0.57735
 36
0.57735
 17
0.0
 27
0.0
 37
0.0
 40
52.691452
 41
0.688564
 42
50.0
 43
27.389021
 44
-27.389021
 50
0.0
 51
0.0
 71
    16
 72
   100
 73
     1
 74
     1
 75
     0
 76
     0
 77
     0
 78
     0
281
     0
 65
     0
110
0.0
120
0.0
130
0.0
111
1.0
121
0.0
131
0.0
112
0.0
122
1.0
132
0.0
345
0
346
0
 79
     0
146
0.0
  0
VPORT
  5
224
100
AcDbSymbolTableRecord
100
AcDbViewportTableRecord
  2
L6
 70
     0
 10
0.0
 20
0.5
 11
0.333333
 21
1.0
 12
0.0
 22
0.0
 13
0.0
 23
0.0
 14
1.0
 24
1.0
 15
0.0
 25
0.0
 16
0.718873
 26
-0.585049
 36
0.375419
 17
0.0
 27
0.0
 37
0.0
 40
55.628377
 41
0.688564
 42
50.0
 43
28.781522
 44
-28.781522
 50
0.0
 51
0.0
 71
    16
 72
   100
 73
     1
 74
     1
 75
     0
 76
     0
 77
     0
 78
     0
281
     0
 65
     0
110
0.0
120
0.0
130
0.0
111
1.0
121
0.0
131
0.0
112
0.0
122
1.0
132
0.0
345
0
346
0
 79
     0
146
0.0
  0
VPORT
  5
225
100
AcDbSymbolTableRecord
100
AcDbViewportTableRecord
  2
L6
 70
     0
 10
0.0
 20
0.0
 11
0.333333
 21
0.5
 12
0.0
 22
0.0
 13
0.0
 23
0.0
 14
1.0
 24
1.0
 15
0.0
 25
0.0
 16
-1.0
 26
0.0
 36
0.0
 17
0.0
 27
0.0
 37
0.0
 40
53.944803
 41
0.688564
 42
50.0
 43
27.423566
 44
-27.423566
 50
0.0
 51
0.0
 71
    16
 72
   100
 73
     1
 74
     1
 75
     0
 76
     0
 77
     0
 78
     0
281
     0
 65
     0
110
0.0
120
0.0
130
0.0
111
1.0
121
0.0
131
0.0
112
0.0
122
1.0
132
0.0
345
0
346
0
 79
     0
146
0.0
  0
VPORT
  5
226
100
AcDbSymbolTableRecord
100
AcDbViewportTableRecord
  2
L6
 70
     0
 10
0.333333
 20
0.5
 11
0.666667
 21
1.0
 12
0.0
 22
0.0
 13
0.0
 23
0.0
 14
1.0
 24
1.0
 15
0.0
 25
0.0
 16
0.0
 26
0.0
 36
1.0
 17
0.0
 27
0.0
 37
0.0
 40
9.90788
 41
0.688564
 42
50.0
 43
26.972402
 44
-26.972402
 50
0.0
 51
0.0
 71
    16
 72
   100
 73
     1
 74
     1
 75
     0
 76
     0
 77
     0
 78
     0
281
     0
 65
     0
110
0.0
120
0.0
130
0.0
111
1.0
121
0.0
131
0.0
112
0.0
122
1.0
132
0.0
345
0
346
0
 79
     0
146
0.0
  0
VPORT
  5
227
100
AcDbSymbolTableRecord
100
AcDbViewportTableRecord
  2
L6
 70
     0
 10
0.333333
 20
0.0
 11
0.666667
 21
0.5
 12
0.0
 22
0.0
 13
0.0
 23
0.0
 14
1.0
 24
1.0
 15
0.0
 25
0.0
 16
0.0
 26
-1.0
 36
0.0
 17
0.0
 27
0.0
 37
0.0
 40
53.944803
 41
0.688564
 42
50.0
 43
27.554707
 44
-27.554707
 50
0.0
 51
0.0
 71
    16
 72
   100
 73
     1
 74
     1
 75
     0
 76
     0
 77
     0
 78
     0
281
     0
 65
     0
110
0.0
120
0.0
130
0.0
111
1.0
121
0.0
131
0.0
112
0.0
122
1.0
132
0.0
345
0
346
0
 79
     0
146
0.0
  0
VPORT
  5
228
100
AcDbSymbolTableRecord
100
AcDbViewportTableRecord
  2
L6
 70
     0
 10
0.666667
 20
0.5
 11
1.0
 21
1.0
 12
0.0
 22
0.0
 13
0.0
 23
0.0
 14
1.0
 24
1.0
 15
0.0
 25
0.0
 16
0.57735
 26
-0.57735
 36
0.57735
 17
0.0
 27
0.0
 37
0.0
 40
52.691452
 41
0.688564
 42
50.0
 43
27.389021
 44
-27.389021
 50
0.0
 51
0.0
 71
    16
 72
   100
 73
     1
 74
     1
 75
     0
 76
     0
 77
     0
 78
     0
281
     0
 65
     0
110
0.0
120
0.0
130
0.0
111
1.0
121
0.0
131
0.0
112
0.0
122
1.0
132
0.0
345
0
346
0
 79
     0
146
0.0
  0
VPORT
  5
229
100
AcDbSymbolTableRecord
100
AcDbViewportTableRecord
  2
L6
 70
     0
 10
0.666667
 20
0.0
 11
1.0
 21
0.5
 12
0.0
 22
0.0
 13
0.0
 23
0.0
 14
1.0
 24
1.0
 15
0.0
 25
0.0
 16
1.0
 26
0.0
 36
0.0
 17
0.0
 27
0.0
 37
0.0
 40
53.944803
 41
0.688564
 42
50.0
 43
27.423566
 44
-27.423566
 50
0.0
 51
0.0
 71
    16
 72
   100
 73
     1
 74
     1
 75
     0
 76
     0
 77
     0
 78
     0
281
     0
 65
     0
110
0.0
120
0.0
130
0.0
111
1.0
121
0.0
131
0.0
112
0.0
122
1.0
132
0.0
345
0
346
0
 79
     0
146
0.0
  0
ENDTAB
  0
TABLE
  2
LTYPE
  5
4
100
AcDbSymbolTable
 70
     9
  0
LTYPE
  5
11
100
AcDbSymbolTableRecord
100
AcDbLinetypeTableRecord
  2
ByBlock
 70
    64
  3

 72
    65
 73
     0
 40
0.0
  0
LTYPE
  5
12
100
AcDbSymbolTableRecord
100
AcDbLinetypeTableRecord
  2
ByLayer
 70
    64
  3

 72
    65
 73
     0
 40
0.0
  0
LTYPE
  5
13
100
AcDbSymbolTableRecord
100
AcDbLinetypeTableRecord
  2
Continuous
 70
    64
  3
Solid line
 72
    65
 73
     0
 40
0.0
  0
LTYPE
  5
22
100
AcDbSymbolTableRecord
100
AcDbLinetypeTableRecord
  2
DASHED
 70
    64
  3
__ __ __ __ __ __ __ __ __
 72
    65
 73
     2
 40
0.75
 49
0.5
 74
     0
 49
-0.25
 74
     0
  0
LTYPE
  5
23
100
AcDbSymbolTableRecord
100
AcDbLinetypeTableRecord
  2
HIDDEN
 70
    64
  3
_ _ _ _ _ _ _ _ _ _ _ _ _ _ _
 72
    65
 73
     2
 40
0.5
 49
0.25
 74
     0
 49
-0.25
 74
     0
  0
LTYPE
  5
24
100
AcDbSymbolTableRecord
100
AcDbLinetypeTableRecord
  2
PHANTOM
 70
    64
  3
____ _ _ ____ _ _ _____ _ _ ____
 72
    65
 73
     6
 40
2.5
 49
1.25
 74
     0
 49
-0.25
 74
     0
 49
0.25
 74
     0
 49
-0.25
 74
     0
 49
0.25
 74
     0
 49
-0.25
 74
     0
  0
LTYPE
  5
25
100
AcDbSymbolTableRecord
100
AcDbLinetypeTableRecord
  2
CENTER
 70
    64
  3
____ _ ____ _ ____ _ ____
 72
    65
 73
     4
 40
2.0
 49
1.25
 74
     0
 49
-0.25
 74
     0
 49
0.25
 74
     0
 49
-0.25
 74
     0
  0
LTYPE
  5
26
100
AcDbSymbolTableRecord
100
AcDbLinetypeTableRecord
  2
DOT
 70
    64
  3
.........................
 72
    65
 73
     2
 40
0.25
 49
0.0
 74
     0
 49
-0.25
 74
     0
  0
LTYPE
  5
27
100
AcDbSymbolTableRecord
100
AcDbLinetypeTableRecord
  2
DASHDOT
 70
    64
  3
_._._._._._._._._._._._._._._._.
 72
    65
 73
     4
 40
1.0
 49
0.5
 74
     0
 49
-0.25
 74
     0
 49
0.0
 74
     0
 49
-0.25
 74
     0
  0
ENDTAB
  0
TABLE
  2
LAYER
  5
2
100
AcDbSymbolTable
 70
     2
  0
LAYER
  5
14
100
AcDbSymbolTableRecord
100
AcDbLayerTableRecord
  2
0
 70
     0
 62
     7
  6
Continuous
290
     1
370
    -3
390
1D
  0
LAYER
  5
32
100
AcDbSymbolTableRecord
100
AcDbLayerTableRecord
  2
1
 70
     0
 62
     7
  6
Continuous
290
     1
370
    -3
390
1F
  0
ENDTAB
  0
TABLE
  2
STYLE
  5
3
100
AcDbSymbolTable
 70
     2
  0
STYLE
  5
17
100
AcDbSymbolTableRecord
100
AcDbTextStyleTableRecord
  2
Standard
 70
     0
 40
0.0
 41
1.0
 50
0.0
 71
     0
 42
0.0
  3
txt
  4

  0
STYLE
  5
1E6
100
AcDbSymbolTableRecord
100
AcDbTextStyleTableRecord
  2
blockfont
 70
     0
 40
0.0
 41
1.0
 50
0.0
 71
     0
 42
0.0
  3
simplex.shx
  4
bigfont
  0
ENDTAB
  0
TABLE
  2
VIEW
  5
5
100
AcDbSymbolTable
 70
     8
  0
VIEW
  5
28
100
AcDbSymbolTableRecord
100
AcDbViewTableRecord
  2
TOP
 70
     0
 40
9.90788
 10
0.0
 20
0.0
 41
11.269685
 11
0.0
 21
0.0
 31
1.0
 12
0.0
 22
0.0
 32
0.0
 42
50.0
 43
26.972402
 44
-26.972402
 50
0.0
 71
    16
281
     0
 72
     0
110
0.0
120
0.0
130
0.0
111
1.0
121
0.0
131
0.0
112
0.0
122
1.0
132
0.0
  0
VIEW
  5
29
100
AcDbSymbolTableRecord
100
AcDbViewTableRecord
  2
FRONT
 70
     0
 40
53.944803
 10
0.0
 20
0.0
 41
11.269685
 11
0.0
 21
-1.0
 31
0.0
 12
0.0
 22
0.0
 32
0.0
 42
50.0
 43
27.554707
 44
-27.554707
 50
0.0
 71
    16
281
     0
 72
     0
110
0.0
120
0.0
130
0.0
111
1.0
121
0.0
131
0.0
112
0.0
122
1.0
132
0.0
  0
VIEW
  5
2A
100
AcDbSymbolTableRecord
100
AcDbViewTableRecord
  2
RIGHT
 70
     0
 40
53.944803
 10
0.0
 20
0.0
 41
9.90788
 11
1.0
 21
0.0
 31
0.0
 12
0.0
 22
0.0
 32
0.0
 42
50.0
 43
27.423566
 44
-27.423566
 50
0.0
 71
    16
281
     0
 72
     0
110
0.0
120
0.0
130
0.0
111
1.0
121
0.0
131
0.0
112
0.0
122
1.0
132
0.0
  0
VIEW
  5
2B
100
AcDbSymbolTableRecord
100
AcDbViewTableRecord
  2
BACK
 70
     0
 40
53.944803
 10
0.0
 20
0.0
 41
11.269685
 11
0.0
 21
1.0
 31
0.0
 12
0.0
 22
0.0
 32
0.0
 42
50.0
 43
27.554707
 44
-27.554707
 50
0.0
 71
    16
281
     0
 72
     0
110
0.0
120
0.0
130
0.0
111
1.0
121
0.0
131
0.0
112
0.0
122
1.0
132
0.0
  0
VIEW
  5
2C
100
AcDbSymbolTableRecord
100
AcDbViewTableRecord
  2
BOTTOM
 70
     0
 40
9.90788
 10
0.0
 20
0.0
 41
11.269685
 11
0.0
 21
0.0
 31
-1.0
 12
0.0
 22
0.0
 32
0.0
 42
50.0
 43
26.972402
 44
-26.972402
 50
180.0
 71
    16
281
     0
 72
     0
110
0.0
120
0.0
130
0.0
111
1.0
121
0.0
131
0.0
112
0.0
122
1.0
132
0.0
  0
VIEW
  5
2D
100
AcDbSymbolTableRecord
100
AcDbViewTableRecord
  2
LEFT
 70
     0
 40
53.944803
 10
0.0
 20
0.0
 41
9.90788
 11
-1.0
 21
0.0
 31
0.0
 12
0.0
 22
0.0
 32
0.0
 42
50.0
 43
27.423566
 44
-27.423566
 50
0.0
 71
    16
281
     0
 72
     0
110
0.0
120
0.0
130
0.0
111
1.0
121
0.0
131
0.0
112
0.0
122
1.0
132
0.0
  0
VIEW
  5
2E
100
AcDbSymbolTableRecord
100
AcDbViewTableRecord
  2
TFR-ISO
 70
     0
 40
52.691452
 10
0.0
 20
0.0
 41
14.9748
 11
0.57735
 21
-0.57735
 31
0.57735
 12
0.0
 22
0.0
 32
0.0
 42
50.0
 43
27.389021
 44
-27.389021
 50
0.0
 71
    16
281
     0
 72
     0
110
0.0
120
0.0
130
0.0
111
1.0
121
0.0
131
0.0
112
0.0
122
1.0
132
0.0
  0
VIEW
  5
2F
100
AcDbSymbolTableRecord
100
AcDbViewTableRecord
  2
TFR-TRI
 70
     0
 40
55.628377
 10
0.0
 20
0.0
 41
14.798237
 11
0.718873
 21
-0.585049
 31
0.375419
 12
0.0
 22
0.0
 32
0.0
 42
50.0
 43
28.781522
 44
-28.781522
 50
0.0
 71
    16
281
     0
 72
     0
110
0.0
120
0.0
130
0.0
111
1.0
121
0.0
131
0.0
112
0.0
122
1.0
132
0.0
  0
ENDTAB
  0
TABLE
  2
UCS
  5
6
100
AcDbSymbolTable
 70
     0
  0
ENDTAB
  0
TABLE
  2
APPID
  5
8
100
AcDbSymbolTable
 70
     1
  0
APPID
  5
16
100
AcDbSymbolTableRecord
100
AcDbRegAppTableRecord
  2
ACAD
 70
     0
  0
ENDTAB
  0
TABLE
  2
DIMSTYLE
  5
9
100
AcDbSymbolTable
 70
     1
100
AcDbDimStyleTable
 71
     0
  0
DIMSTYLE
105
18
100
AcDbSymbolTableRecord
100
AcDbDimStyleTableRecord
  2
Standard
 70
     0
  3

  4

 40
1.0
 41
0.18
 42
0.0625
 43
0.38
 44
0.18
 45
0.0
 46
0.0
 47
0.0
 48
0.0
 71
     0
 72
     0
 73
     1
 74
     1
 75
     0
 76
     0
 77
     0
 78
     0
 79
     0
140
0.18
141
0.09
142
0.0
143
25.4
144
1.0
145
0.0
146
1.0
147
0.09
148
0.0
170
     0
171
     2
172
     0
173
     0
174
     0
175
     0
176
     0
177
     0
178
     0
179
     0
271
     4
272
     4
273
     2
274
     2
275
     0
276
     0
277
     2
278
    46
279
     0
280
     0
281
     0
282
     0
283
     1
284
     0
285
     0
286
     0
288
     0
340
17
341
0
342
0
343
0
344
0
371
    -2
372
    -2
  0
ENDTAB
  0
TABLE
  2
BLOCK_RECORD
  5
1
100
AcDbSymbolTable
 70
     0
  0
BLOCK_RECORD
  5
A
100
AcDbSymbolTableRecord
100
AcDbBlockTableRecord
  2
*MODEL_SPACE
340
20
  0
BLOCK_RECORD
  5
B
100
AcDbSymbolTableRecord
100
AcDbBlockTableRecord
  2
*PAPER_SPACE
340
0
  0
ENDTAB
  0
ENDSEC
  0
SECTION
  2
BLOCKS
  0
BLOCK
  5
D
100
AcDbEntity
  8
0
100
AcDbBlockBegin
  2
*MODEL_SPACE
 70
     0
 10
0.0
 20
0.0
 30
0.0
  3
*MODEL_SPACE
  1

  0
ENDBLK
  5
E
100
AcDbEntity
  8
0
100
AcDbBlockEnd
  0
BLOCK
  5
F
100
AcDbEntity
 67
     1
  8
0
100
AcDbBlockBegin
  2
*PAPER_SPACE
 70
     0
 10
0.0
 20
0.0
 30
0.0
  3
*PAPER_SPACE
  1

  0
ENDBLK
  5
10
100
AcDbEntity
 67
     1
  8
0
100
AcDbBlockEnd
  0
ENDSEC
  0
SECTION
  2
ENTITIES
  0
VIEWPORT
  5
30
100
AcDbEntity
 67
     1
  8
0
100
AcDbViewport
 10
5.609993
 20
4.334999
 30
0.0
 40
11.219986
 41
8.669998
 68
     1
 69
     1
 12
5.609993
 22
4.334999
 13
0.0
 23
0.0
 14
0.0
 24
0.0
 15
0.0
 25
0.0
 16
0.0
 26
0.0
 36
1.0
 17
0.0
 27
0.0
 37
0.0
 42
48.996562
 43
0.0
 44
0.0
 45
8.669998
 50
0.0
 51
0.0
 72
   100
 90
    32800
340
0
  1

281
     0
 71
     0
 74
     1
110
0.0
120
0.0
130
0.0
111
1.0
121
0.0
131
0.0
112
0.0
122
1.0
132
0.0
345
0
346
0
 79
     0
146
0.0
  0
LINE
  5
31
100
AcDbEntity
 67
     1
  8
1
  6
Continuous
 62
     7
100
AcDbLine
 10
1.618196
 20
5.934457
 30
0.0
 11
1.732
 21
5.934457
 31
0.0
  0
LINE
  5
33
100
AcDbEntity
 67
     1
  8
1
  6
Continuous
 62
     7
100
AcDbLine
 10
6.772585
 20
4.127057
 30
0.0
 11
6.754105
 21
4.169865
 31
0.0
  0
LINE
  5
34
100
AcDbEntity
 67
     1
  8
1
  6
Continuous
 62
     7
100
AcDbLine
 10
9.16729
 20
0.847101
 30
0.0
 11
10.760845
 21
0.847101
 31
0.0
  0
LINE
  5
35
100
AcDbEntity
 67
     1
  8
1
  6
Continuous
 62
     7
100
AcDbLine
 10
1.742697
 20
6.625496
 30
0.0
 11
1.722697
 21
6.625496
 31
0.0
  0
LINE
  5
36
100
AcDbEntity
 67
     1
  8
1
  6
Continuous
 62
     7
100
AcDbLine
 10
2.636708
 20
6.662496
 30
0.0
 11
2.636708
 21
6.768836
 31
0.0
  0
LINE
  5
37
100
AcDbEntity
 67
     1
  8
1
  6
Continuous
 62
     7
100
AcDbLine
 10
2.652708
 20
4.358496
 30
0.0
 11
2.652708
 21
4.311869
 31
0.0
  0
LINE
  5
38
100
AcDbEntity
 67
     1
  8
1
  6
Continuous
 62
     7
100
AcDbLine
 10
6.596283
 20
1.64397
 30
0.0
 11
10.760845
 21
1.64397
 31
0.0
  0
LINE
  5
39
100
AcDbEntity
 67
     1
  8
1
  6
Continuous
 62
     7
100
AcDbLine
 10
1.712697
 20
6.635496
 30
0.0
 11
1.712697
 21
6.652887
 31
0.0
  0
LINE
  5
3A
100
AcDbEntity
 67
     1
  8
1
  6
Continuous
 62
     7
100
AcDbLine
 10
3.823762
 20
6.767757
 30
0.0
 11
9.908121
 21
6.767757
 31
0.0
  0
LINE
  5
3B
100
AcDbEntity
 67
     1
  8
1
  6
Continuous
 62
     7
100
AcDbLine
 10
6.728516
 20
4.108032
 30
0.0
 11
6.718911
 21
4.130282
 31
0.0
  0
LINE
  5
3C
100
AcDbEntity
 67
     1
  8
1
  6
Continuous
 62
     7
100
AcDbLine
 10
6.781766
 20
4.13102
 30
0.0
 11
6.778078
 21
4.139565
 31
0.0
  0
LINE
  5
3D
100
AcDbEntity
 67
     1
  8
1
  6
Continuous
 62
     7
100
AcDbLine
 10
3.823762
 20
4.477496
 30
0.0
 11
10.007457
 21
4.477496
 31
0.0
  0
LINE
  5
3E
100
AcDbEntity
 67
     1
  8
1
  6
Continuous
 62
     7
100
AcDbLine
 10
2.282696
 20
3.943019
 30
0.0
 11
2.27339
 21
3.943019
 31
0.0
  0
LINE
  5
3F
100
AcDbEntity
 67
     1
  8
1
  6
Continuous
 62
     7
100
AcDbLine
 10
3.823762
 20
4.477496
 30
0.0
 11
3.823762
 21
4.488103
 31
0.0
  0
LINE
  5
40
100
AcDbEntity
 67
     1
  8
1
  6
Continuous
 62
     7
100
AcDbLine
 10
6.746878
 20
4.115959
 30
0.0
 11
6.707689
 21
4.206737
 31
0.0
  0
LINE
  5
41
100
AcDbEntity
 67
     1
  8
1
  6
Continuous
 62
     7
100
AcDbLine
 10
1.947196
 20
5.930457
 30
0.0
 11
1.825929
 21
5.930457
 31
0.0
  0
LINE
  5
42
100
AcDbEntity
 67
     1
  8
1
  6
Continuous
 62
     7
100
AcDbLine
 10
2.631708
 20
6.787496
 30
0.0
 11
2.598215
 21
6.662496
 31
0.0
  0
LINE
  5
43
100
AcDbEntity
 67
     1
  8
1
  6
Continuous
 62
     7
100
AcDbLine
 10
2.857083
 20
5.336121
 30
0.0
 11
2.902083
 21
5.336121
 31
0.0
  0
LINE
  5
44
100
AcDbEntity
 67
     1
  8
1
  6
Continuous
 62
     7
100
AcDbLine
 10
1.618196
 20
5.958457
 30
0.0
 11
1.642431
 21
5.958457
 31
0.0
  0
LINE
  5
45
100
AcDbEntity
 67
     1
  8
1
  6
Continuous
 62
     7
100
AcDbLine
 10
2.598708
 20
6.662496
 30
0.0
 11
2.598708
 21
6.664339
 31
0.0
  0
LINE
  5
46
100
AcDbEntity
 67
     1
  8
1
  6
Continuous
 62
     7
100
AcDbLine
 10
10.216896
 20
6.261714
 30
0.0
 11
10.227611
 21
6.181966
 31
0.0
  0
LINE
  5
47
100
AcDbEntity
 67
     1
  8
1
  6
Continuous
 62
     7
100
AcDbLine
 10
2.282696
 20
3.883019
 30
0.0
 11
2.265926
 21
3.883019
 31
0.0
  0
LINE
  5
48
100
AcDbEntity
 67
     1
  8
1
  6
Continuous
 62
     7
100
AcDbLine
 10
1.947196
 20
5.900457
 30
0.0
 11
1.93789
 21
5.900457
 31
0.0
  0
LINE
  5
49
100
AcDbEntity
 67
     1
  8
1
  6
Continuous
 62
     7
100
AcDbLine
 10
2.650708
 20
4.358496
 30
0.0
 11
2.650708
 21
4.304405
 31
0.0
  0
LINE
  5
4A
100
AcDbEntity
 67
     1
  8
1
  6
Continuous
 62
     7
100
AcDbLine
 10
6.596283
 20
1.896926
 30
0.0
 11
0.3125
 21
1.896926
 31
0.0
  0
LINE
  5
4B
100
AcDbEntity
 67
     1
  8
1
  6
Continuous
 62
     7
100
AcDbLine
 10
2.066877
 20
4.279182
 30
0.0
 11
2.107239
 21
4.241553
 31
0.0
  0
LINE
  5
4C
100
AcDbEntity
 67
     1
  8
1
  6
Continuous
 62
     7
100
AcDbLine
 10
1.618196
 20
5.902457
 30
0.0
 11
1.634967
 21
5.902457
 31
0.0
  0
LINE
  5
4D
100
AcDbEntity
 67
     1
  8
1
  6
Continuous
 62
     7
100
AcDbLine
 10
2.654708
 20
4.358496
 30
0.0
 11
2.654708
 21
4.319334
 31
0.0
  0
LINE
  5
4E
100
AcDbEntity
 67
     1
  8
1
  6
Continuous
 62
     7
100
AcDbLine
 10
1.282696
 20
3.887019
 30
0.0
 11
1.314395
 21
3.887019
 31
0.0
  0
LINE
  5
4F
100
AcDbEntity
 67
     1
  8
1
  6
Continuous
 62
     7
100
AcDbLine
 10
1.282696
 20
3.909019
 30
0.0
 11
1.3965
 21
3.909019
 31
0.0
  0
LINE
  5
50
100
AcDbEntity
 67
     1
  8
1
  6
Continuous
 62
     7
100
AcDbLine
 10
1.947196
 20
5.922457
 30
0.0
 11
1.855785
 21
5.922457
 31
0.0
  0
LINE
  5
51
100
AcDbEntity
 67
     1
  8
1
  6
Continuous
 62
     7
100
AcDbLine
 10
1.947196
 20
5.964951
 30
0.0
 11
1.822196
 21
5.931457
 31
0.0
  0
LINE
  5
52
100
AcDbEntity
 67
     1
  8
1
  6
Continuous
 62
     7
100
AcDbLine
 10
1.282696
 20
3.88102
 30
0.0
 11
1.292003
 21
3.88102
 31
0.0
  0
LINE
  5
53
100
AcDbEntity
 67
     1
  8
1
  6
Continuous
 62
     7
100
AcDbLine
 10
2.648708
 20
4.358496
 30
0.0
 11
2.648708
 21
4.296941
 31
0.0
  0
LINE
  5
54
100
AcDbEntity
 67
     1
  8
1
  6
Continuous
 62
     7
100
AcDbLine
 10
1.723197
 20
4.492496
 30
0.0
 11
1.422696
 21
4.492496
 31
0.0
  0
LINE
  5
55
100
AcDbEntity
 67
     1
  8
1
  6
Continuous
 62
     7
100
AcDbLine
 10
3.823762
 20
4.233496
 30
0.0
 11
10.215012
 21
4.233496
 31
0.0
  0
LINE
  5
56
100
AcDbEntity
 67
     1
  8
1
  6
Continuous
 62
     7
100
AcDbLine
 10
0.941759
 20
5.796457
 30
0.0
 11
0.941759
 21
5.627707
 31
0.0
  0
LINE
  5
57
100
AcDbEntity
 67
     1
  8
1
  6
Continuous
 62
     7
100
AcDbLine
 10
6.596283
 20
0.574145
 30
0.0
 11
7.368841
 21
0.574145
 31
0.0
  0
LINE
  5
58
100
AcDbEntity
 67
     1
  8
1
  6
Continuous
 62
     7
100
AcDbLine
 10
2.656708
 20
4.358496
 30
0.0
 11
2.656708
 21
4.326797
 31
0.0
  0
LINE
  5
59
100
AcDbEntity
 67
     1
  8
1
  6
Continuous
 62
     7
100
AcDbLine
 10
2.662708
 20
6.662496
 30
0.0
 11
2.662708
 21
6.671803
 31
0.0
  0
LINE
  5
5A
100
AcDbEntity
 67
     1
  8
1
  6
Continuous
 62
     7
100
AcDbLine
 10
2.630708
 20
6.662496
 30
0.0
 11
2.630708
 21
6.783764
 31
0.0
  0
LINE
  5
5B
100
AcDbEntity
 67
     1
  8
1
  6
Continuous
 62
     7
100
AcDbLine
 10
1.282696
 20
3.903019
 30
0.0
 11
1.374108
 21
3.903019
 31
0.0
  0
LINE
  5
5C
100
AcDbEntity
 67
     1
  8
1
  6
Continuous
 62
     7
100
AcDbLine
 10
2.631708
 20
4.233496
 30
0.0
 11
2.631708
 21
5.273621
 31
0.0
  0
LINE
  5
5D
100
AcDbEntity
 67
     1
  8
1
  6
Continuous
 62
     7
100
AcDbLine
 10
6.750551
 20
4.117544
 30
0.0
 11
6.705445
 21
4.222028
 31
0.0
  0
LINE
  5
5E
100
AcDbEntity
 67
     1
  8
1
  6
Continuous
 62
     7
100
AcDbLine
 10
1.852697
 20
6.635496
 30
0.0
 11
1.852697
 21
6.652887
 31
0.0
  0
LINE
  5
5F
100
AcDbEntity
 67
     1
  8
1
  6
Continuous
 62
     7
100
AcDbLine
 10
2.282696
 20
3.91502
 30
0.0
 11
2.168893
 21
3.91502
 31
0.0
  0
LINE
  5
60
100
AcDbEntity
 67
     1
  8
1
  6
Continuous
 62
     7
100
AcDbLine
 10
0.657427
 20
0.3125
 30
0.0
 11
0.657427
 21
2.159882
 31
0.0
  0
LINE
  5
61
100
AcDbEntity
 67
     1
  8
1
  6
Continuous
 62
     7
100
AcDbLine
 10
2.610708
 20
4.358496
 30
0.0
 11
2.610708
 21
4.311869
 31
0.0
  0
LINE
  5
62
100
AcDbEntity
 67
     1
  8
1
  6
Continuous
 62
     7
100
AcDbLine
 10
10.024116
 20
4.452429
 30
0.0
 11
10.080126
 21
4.378476
 31
0.0
  0
LINE
  5
63
100
AcDbEntity
 67
     1
  8
1
  6
Continuous
 62
     7
100
AcDbLine
 10
1.618196
 20
5.908457
 30
0.0
 11
1.657359
 21
5.908457
 31
0.0
  0
LINE
  5
64
100
AcDbEntity
 67
     1
  8
1
  6
Continuous
 62
     7
100
AcDbLine
 10
1.618196
 20
5.910457
 30
0.0
 11
1.664823
 21
5.910457
 31
0.0
  0
LINE
  5
65
100
AcDbEntity
 67
     1
  8
1
  6
Continuous
 62
     7
100
AcDbLine
 10
9.883395
 20
5.002257
 30
0.0
 11
9.874986
 21
4.920063
 31
0.0
  0
LINE
  5
66
100
AcDbEntity
 67
     1
  8
1
  6
Continuous
 62
     7
100
AcDbLine
 10
6.76524
 20
4.123886
 30
0.0
 11
6.734927
 21
4.194106
 31
0.0
  0
LINE
  5
67
100
AcDbEntity
 67
     1
  8
1
  6
Continuous
 62
     7
100
AcDbLine
 10
2.157696
 20
4.200996
 30
0.0
 11
2.157696
 21
3.787019
 31
0.0
  0
LINE
  5
68
100
AcDbEntity
 67
     1
  8
1
  6
Continuous
 62
     7
100
AcDbLine
 10
1.282696
 20
3.899019
 30
0.0
 11
1.35918
 21
3.899019
 31
0.0
  0
LINE
  5
69
100
AcDbEntity
 67
     1
  8
1
  6
Continuous
 62
     7
100
AcDbLine
 10
2.282696
 20
3.945019
 30
0.0
 11
2.280854
 21
3.945019
 31
0.0
  0
LINE
  5
6A
100
AcDbEntity
 67
     1
  8
1
  6
Continuous
 62
     7
100
AcDbLine
 10
3.823762
 20
4.492496
 30
0.0
 11
9.997479
 21
4.492496
 31
0.0
  0
LINE
  5
6B
100
AcDbEntity
 67
     1
  8
1
  6
Continuous
 62
     7
100
AcDbLine
 10
1.618196
 20
5.922457
 30
0.0
 11
1.709608
 21
5.922457
 31
0.0
  0
LINE
  5
6C
100
AcDbEntity
 67
     1
  8
1
  6
Continuous
 62
     7
100
AcDbLine
 10
2.608708
 20
4.358496
 30
0.0
 11
2.608708
 21
4.319334
 31
0.0
  0
LINE
  5
6D
100
AcDbEntity
 67
     1
  8
1
  6
Continuous
 62
     7
100
AcDbLine
 10
1.947196
 20
5.962457
 30
0.0
 11
1.93789
 21
5.962457
 31
0.0
  0
LINE
  5
6E
100
AcDbEntity
 67
     1
  8
1
  6
Continuous
 62
     7
100
AcDbLine
 10
10.153208
 20
5.766851
 30
0.0
 11
10.121503
 21
5.681675
 31
0.0
  0
LINE
  5
6F
100
AcDbEntity
 67
     1
  8
1
  6
Continuous
 62
     7
100
AcDbLine
 10
1.845196
 20
6.787496
 30
0.0
 11
2.756708
 21
6.787496
 31
0.0
  0
LINE
  5
70
100
AcDbEntity
 67
     1
  8
1
  6
Continuous
 62
     7
100
AcDbLine
 10
3.823762
 20
6.457496
 30
0.0
 11
3.823762
 21
6.615496
 31
0.0
  0
LINE
  5
71
100
AcDbEntity
 67
     1
  8
1
  6
Continuous
 62
     7
100
AcDbLine
 10
6.748714
 20
4.116752
 30
0.0
 11
6.706567
 21
4.214383
 31
0.0
  0
LINE
  5
72
100
AcDbEntity
 67
     1
  8
1
  6
Continuous
 62
     7
100
AcDbLine
 10
1.618196
 20
5.948457
 30
0.0
 11
1.679752
 21
5.948457
 31
0.0
  0
LINE
  5
73
100
AcDbEntity
 67
     1
  8
1
  6
Continuous
 62
     7
100
AcDbLine
 10
3.823762
 20
6.625496
 30
0.0
 11
3.823762
 21
6.622567
 31
0.0
  0
LINE
  5
74
100
AcDbEntity
 67
     1
  8
1
  6
Continuous
 62
     7
100
AcDbLine
 10
2.282696
 20
3.923019
 30
0.0
 11
2.198749
 21
3.923019
 31
0.0
  0
LINE
  5
75
100
AcDbEntity
 67
     1
  8
1
  6
Continuous
 62
     7
100
AcDbLine
 10
2.664708
 20
4.358496
 30
0.0
 11
2.664708
 21
4.356654
 31
0.0
  0
LINE
  5
76
100
AcDbEntity
 67
     1
  8
1
  6
Continuous
 62
     7
100
AcDbLine
 10
0.986759
 20
5.796457
 30
0.0
 11
0.941759
 21
5.796457
 31
0.0
  0
LINE
  5
77
100
AcDbEntity
 67
     1
  8
1
  6
Continuous
 62
     7
100
AcDbLine
 10
1.752697
 20
6.457496
 30
0.0
 11
1.743196
 21
6.457496
 31
0.0
  0
LINE
  5
78
100
AcDbEntity
 67
     1
  8
1
  6
Continuous
 62
     7
100
AcDbLine
 10
1.618196
 20
5.920457
 30
0.0
 11
1.702144
 21
5.920457
 31
0.0
  0
LINE
  5
79
100
AcDbEntity
 67
     1
  8
1
  6
Continuous
 62
     7
100
AcDbLine
 10
1.947196
 20
5.914457
 30
0.0
 11
1.885641
 21
5.914457
 31
0.0
  0
LINE
  5
7A
100
AcDbEntity
 67
     1
  8
1
  6
Continuous
 62
     7
100
AcDbLine
 10
2.485083
 20
5.504871
 30
0.0
 11
2.440083
 21
5.504871
 31
0.0
  0
LINE
  5
7B
100
AcDbEntity
 67
     1
  8
1
  6
Continuous
 62
     7
100
AcDbLine
 10
6.703762
 20
4.233496
 30
0.0
 11
6.722554
 21
4.105458
 31
0.0
  0
LINE
  5
7C
100
AcDbEntity
 67
     1
  8
1
  6
Continuous
 62
     7
100
AcDbLine
 10
1.539446
 20
5.931457
 30
0.0
 11
1.289446
 21
5.931457
 31
0.0
  0
LINE
  5
7D
100
AcDbEntity
 67
     1
  8
1
  6
Continuous
 62
     7
100
AcDbLine
 10
10.121503
 20
5.681675
 30
0.0
 11
10.08721
 21
5.596169
 31
0.0
  0
LINE
  5
7E
100
AcDbEntity
 67
     1
  8
1
  6
Continuous
 62
     7
100
AcDbLine
 10
1.947196
 20
5.910457
 30
0.0
 11
1.90057
 21
5.910457
 31
0.0
  0
LINE
  5
7F
100
AcDbEntity
 67
     1
  8
1
  6
Continuous
 62
     7
100
AcDbLine
 10
6.735861
 20
4.111203
 30
0.0
 11
6.714422
 21
4.160864
 31
0.0
  0
LINE
  5
80
100
AcDbEntity
 67
     1
  8
1
  6
Continuous
 62
     7
100
AcDbLine
 10
10.203675
 20
5.935546
 30
0.0
 11
10.18103
 21
5.85153
 31
0.0
  0
LINE
  5
81
100
AcDbEntity
 67
     1
  8
1
  6
Continuous
 62
     7
100
AcDbLine
 10
1.282696
 20
3.907019
 30
0.0
 11
1.389036
 21
3.907019
 31
0.0
  0
LINE
  5
82
100
AcDbEntity
 67
     1
  8
1
  6
Continuous
 62
     7
100
AcDbLine
 10
2.626708
 20
6.662496
 30
0.0
 11
2.626708
 21
6.768836
 31
0.0
  0
LINE
  5
83
100
AcDbEntity
 67
     1
  8
1
  6
Continuous
 62
     7
100
AcDbLine
 10
2.642708
 20
4.358496
 30
0.0
 11
2.642708
 21
4.274549
 31
0.0
  0
LINE
  5
84
100
AcDbEntity
 67
     1
  8
1
  6
Continuous
 62
     7
100
AcDbLine
 10
1.618196
 20
5.964457
 30
0.0
 11
1.620039
 21
5.964457
 31
0.0
  0
LINE
  5
85
100
AcDbEntity
 67
     1
  8
1
  6
Continuous
 62
     7
100
AcDbLine
 10
1.947196
 20
5.942457
 30
0.0
 11
1.863249
 21
5.942457
 31
0.0
  0
LINE
  5
86
100
AcDbEntity
 67
     1
  8
1
  6
Continuous
 62
     7
100
AcDbLine
 10
3.823762
 20
4.512496
 30
0.0
 11
9.985456
 21
4.512496
 31
0.0
  0
LINE
  5
87
100
AcDbEntity
 67
     1
  8
1
  6
Continuous
 62
     7
100
AcDbLine
 10
1.842697
 20
6.625496
 30
0.0
 11
1.822696
 21
6.625496
 31
0.0
  0
LINE
  5
88
100
AcDbEntity
 67
     1
  8
1
  6
Continuous
 62
     7
100
AcDbLine
 10
2.282696
 20
3.93102
 30
0.0
 11
2.228606
 21
3.93102
 31
0.0
  0
LINE
  5
89
100
AcDbEntity
 67
     1
  8
1
  6
Continuous
 62
     7
100
AcDbLine
 10
1.282696
 20
3.893019
 30
0.0
 11
1.336788
 21
3.893019
 31
0.0
  0
LINE
  5
8A
100
AcDbEntity
 67
     1
  8
1
  6
Continuous
 62
     7
100
AcDbLine
 10
1.282696
 20
3.923019
 30
0.0
 11
1.366644
 21
3.923019
 31
0.0
  0
LINE
  5
8B
100
AcDbEntity
 67
     1
  8
1
  6
Continuous
 62
     7
100
AcDbLine
 10
9.937115
 20
4.603535
 30
0.0
 11
9.976301
 21
4.52743
 31
0.0
  0
LINE
  5
8C
100
AcDbEntity
 67
     1
  8
1
  6
Continuous
 62
     7
100
AcDbLine
 10
2.282696
 20
3.945019
 30
0.0
 11
2.280854
 21
3.945019
 31
0.0
  0
LINE
  5
8D
100
AcDbEntity
 67
     1
  8
1
  6
Continuous
 62
     7
100
AcDbLine
 10
2.215197
 20
4.233496
 30
0.0
 11
2.756708
 21
4.233496
 31
0.0
  0
LINE
  5
8E
100
AcDbEntity
 67
     1
  8
1
  6
Continuous
 62
     7
100
AcDbLine
 10
2.665202
 20
4.358496
 30
0.0
 11
2.598215
 21
4.358496
 31
0.0
  0
LINE
  5
8F
100
AcDbEntity
 67
     1
  8
1
  6
Continuous
 62
     7
100
AcDbLine
 10
2.602708
 20
6.662496
 30
0.0
 11
2.602708
 21
6.679267
 31
0.0
  0
LINE
  5
90
100
AcDbEntity
 67
     1
  8
1
  6
Continuous
 62
     7
100
AcDbLine
 10
2.282696
 20
3.897019
 30
0.0
 11
2.213677
 21
3.897019
 31
0.0
  0
LINE
  5
91
100
AcDbEntity
 67
     1
  8
1
  6
Continuous
 62
     7
100
AcDbLine
 10
6.723008
 20
4.105654
 30
0.0
 11
6.722277
 21
4.107346
 31
0.0
  0
LINE
  5
92
100
AcDbEntity
 67
     1
  8
1
  6
Continuous
 62
     7
100
AcDbLine
 10
2.631708
 20
6.787496
 30
0.0
 11
2.631708
 21
5.747371
 31
0.0
  0
LINE
  5
93
100
AcDbEntity
 67
     1
  8
1
  6
Continuous
 62
     7
100
AcDbLine
 10
1.551697
 20
3.608269
 30
0.0
 11
1.596696
 21
3.608269
 31
0.0
  0
LINE
  5
94
100
AcDbEntity
 67
     1
  8
1
  6
Continuous
 62
     7
100
AcDbLine
 10
2.063697
 20
4.286496
 30
0.0
 11
2.063697
 21
4.294496
 31
0.0
  0
LINE
  5
95
100
AcDbEntity
 67
     1
  8
1
  6
Continuous
 62
     7
100
AcDbLine
 10
2.606708
 20
6.662496
 30
0.0
 11
2.606708
 21
6.694195
 31
0.0
  0
LINE
  5
96
100
AcDbEntity
 67
     1
  8
1
  6
Continuous
 62
     7
100
AcDbLine
 10
2.282696
 20
3.88502
 30
0.0
 11
2.258462
 21
3.88502
 31
0.0
  0
LINE
  5
97
100
AcDbEntity
 67
     1
  8
1
  6
Continuous
 62
     7
100
AcDbLine
 10
2.632708
 20
6.662496
 30
0.0
 11
2.632708
 21
6.783764
 31
0.0
  0
LINE
  5
98
100
AcDbEntity
 67
     1
  8
1
  6
Continuous
 62
     7
100
AcDbLine
 10
2.282696
 20
3.94102
 30
0.0
 11
2.265926
 21
3.94102
 31
0.0
  0
LINE
  5
99
100
AcDbEntity
 67
     1
  8
1
  6
Continuous
 62
     7
100
AcDbLine
 10
1.282696
 20
3.92502
 30
0.0
 11
1.35918
 21
3.92502
 31
0.0
  0
LINE
  5
9A
100
AcDbEntity
 67
     1
  8
1
  6
Continuous
 62
     7
100
AcDbLine
 10
10.143902
 20
4.305517
 30
0.0
 11
10.215012
 21
4.233496
 31
0.0
  0
LINE
  5
9B
100
AcDbEntity
 67
     1
  8
1
  6
Continuous
 62
     7
100
AcDbLine
 10
6.761568
 20
4.122301
 30
0.0
 11
6.725338
 21
4.206226
 31
0.0
  0
LINE
  5
9C
100
AcDbEntity
 67
     1
  8
1
  6
Continuous
 62
     7
100
AcDbLine
 10
1.407696
 20
4.200996
 30
0.0
 11
1.407696
 21
3.787019
 31
0.0
  0
LINE
  5
9D
100
AcDbEntity
 67
     1
  8
1
  6
Continuous
 62
     7
100
AcDbLine
 10
1.137175
 20
0.3125
 30
0.0
 11
1.137175
 21
2.159882
 31
0.0
  0
LINE
  5
9E
100
AcDbEntity
 67
     1
  8
1
  6
Continuous
 62
     7
100
AcDbLine
 10
2.638708
 20
4.358496
 30
0.0
 11
2.638708
 21
4.259621
 31
0.0
  0
LINE
  5
9F
100
AcDbEntity
 67
     1
  8
1
  6
Continuous
 62
     7
100
AcDbLine
 10
1.282696
 20
3.89102
 30
0.0
 11
1.329323
 21
3.89102
 31
0.0
  0
LINE
  5
A0
100
AcDbEntity
 67
     1
  8
1
  6
Continuous
 62
     7
100
AcDbLine
 10
0.3125
 20
8.26636
 30
0.0
 11
10.760845
 21
8.26636
 31
0.0
  0
LINE
  5
A1
100
AcDbEntity
 67
     1
  8
1
  6
Continuous
 62
     7
100
AcDbLine
 10
2.622708
 20
6.662496
 30
0.0
 11
2.622708
 21
6.753908
 31
0.0
  0
LINE
  5
A2
100
AcDbEntity
 67
     1
  8
1
  6
Continuous
 62
     7
100
AcDbLine
 10
1.947196
 20
5.916457
 30
0.0
 11
1.878177
 21
5.916457
 31
0.0
  0
LINE
  5
A3
100
AcDbEntity
 67
     1
  8
1
  6
Continuous
 62
     7
100
AcDbLine
 10
2.652708
 20
6.662496
 30
0.0
 11
2.652708
 21
6.709123
 31
0.0
  0
LINE
  5
A4
100
AcDbEntity
 67
     1
  8
1
  6
Continuous
 62
     7
100
AcDbLine
 10
3.823762
 20
6.622567
 30
0.0
 11
3.823762
 21
6.615496
 31
0.0
  0
LINE
  5
A5
100
AcDbEntity
 67
     1
  8
1
  6
Continuous
 62
     7
100
AcDbLine
 10
6.754223
 20
4.11913
 30
0.0
 11
6.706159
 21
4.230466
 31
0.0
  0
LINE
  5
A6
100
AcDbEntity
 67
     1
  8
1
  6
Continuous
 62
     7
100
AcDbLine
 10
2.282696
 20
3.879019
 30
0.0
 11
2.280854
 21
3.879019
 31
0.0
  0
LINE
  5
A7
100
AcDbEntity
 67
     1
  8
1
  6
Continuous
 62
     7
100
AcDbLine
 10
1.947196
 20
5.906457
 30
0.0
 11
1.915498
 21
5.906457
 31
0.0
  0
LINE
  5
A8
100
AcDbEntity
 67
     1
  8
1
  6
Continuous
 62
     7
100
AcDbLine
 10
6.759732
 20
4.121508
 30
0.0
 11
6.720543
 21
4.212286
 31
0.0
  0
LINE
  5
A9
100
AcDbEntity
 67
     1
  8
1
  6
Continuous
 62
     7
100
AcDbLine
 10
1.282696
 20
3.945019
 30
0.0
 11
1.284539
 21
3.945019
 31
0.0
  0
LINE
  5
AA
100
AcDbEntity
 67
     1
  8
1
  6
Continuous
 62
     7
100
AcDbLine
 10
1.947196
 20
5.898457
 30
0.0
 11
1.945354
 21
5.898457
 31
0.0
  0
LINE
  5
AB
100
AcDbEntity
 67
     1
  8
1
  6
Continuous
 62
     7
100
AcDbLine
 10
6.732189
 20
4.109618
 30
0.0
 11
6.716667
 21
4.145573
 31
0.0
  0
LINE
  5
AC
100
AcDbEntity
 67
     1
  8
1
  6
Continuous
 62
     7
100
AcDbLine
 10
2.620708
 20
6.662496
 30
0.0
 11
2.620708
 21
6.746444
 31
0.0
  0
LINE
  5
AD
100
AcDbEntity
 67
     1
  8
1
  6
Continuous
 62
     7
100
AcDbLine
 10
1.618196
 20
5.944457
 30
0.0
 11
1.69468
 21
5.944457
 31
0.0
  0
LINE
  5
AE
100
AcDbEntity
 67
     1
  8
1
  6
Continuous
 62
     7
100
AcDbLine
 10
2.636708
 20
4.358496
 30
0.0
 11
2.636708
 21
4.252156
 31
0.0
  0
LINE
  5
AF
100
AcDbEntity
 67
     1
  8
1
  6
Continuous
 62
     7
100
AcDbLine
 10
6.596283
 20
2.390882
 30
0.0
 11
10.760845
 21
2.390882
 31
0.0
  0
LINE
  5
B0
100
AcDbEntity
 67
     1
  8
1
  6
Continuous
 62
     7
100
AcDbLine
 10
3.823762
 20
6.628425
 30
0.0
 11
3.823762
 21
6.635496
 31
0.0
  0
LINE
  5
B1
100
AcDbEntity
 67
     1
  8
1
  6
Continuous
 62
     7
100
AcDbLine
 10
1.947196
 20
5.934457
 30
0.0
 11
1.833393
 21
5.934457
 31
0.0
  0
LINE
  5
B2
100
AcDbEntity
 67
     1
  8
1
  6
Continuous
 62
     7
100
AcDbLine
 10
3.823762
 20
6.635496
 30
0.0
 11
10.02846
 21
6.635496
 31
0.0
  0
LINE
  5
B3
100
AcDbEntity
 67
     1
  8
1
  6
Continuous
 62
     7
100
AcDbLine
 10
1.282696
 20
3.917019
 30
0.0
 11
1.389036
 21
3.917019
 31
0.0
  0
LINE
  5
B4
100
AcDbEntity
 67
     1
  8
1
  6
Continuous
 62
     7
100
AcDbLine
 10
2.142697
 20
4.492496
 30
0.0
 11
1.842196
 21
4.492496
 31
0.0
  0
LINE
  5
B5
100
AcDbEntity
 67
     1
  8
1
  6
Continuous
 62
     7
100
AcDbLine
 10
6.745042
 20
4.115166
 30
0.0
 11
6.708812
 21
4.199091
 31
0.0
  0
LINE
  5
B6
100
AcDbEntity
 67
     1
  8
1
  6
Continuous
 62
     7
100
AcDbLine
 10
0.3125
 20
0.574145
 30
0.0
 11
6.596283
 21
0.574145
 31
0.0
  0
LINE
  5
B7
100
AcDbEntity
 67
     1
  8
1
  6
Continuous
 62
     7
100
AcDbLine
 10
6.770749
 20
4.126264
 30
0.0
 11
6.74931
 21
4.175925
 31
0.0
  0
LINE
  5
B8
100
AcDbEntity
 67
     1
  8
1
  6
Continuous
 62
     7
100
AcDbLine
 10
10.08721
 20
5.596169
 30
0.0
 11
10.051622
 21
5.510496
 31
0.0
  0
LINE
  5
B9
100
AcDbEntity
 67
     1
  8
1
  6
Continuous
 62
     7
100
AcDbLine
 10
10.016035
 20
5.424824
 30
0.0
 11
9.981743
 21
5.339317
 31
0.0
  0
LINE
  5
BA
100
AcDbEntity
 67
     1
  8
1
  6
Continuous
 62
     7
100
AcDbLine
 10
1.498516
 20
4.279182
 30
0.0
 11
1.458154
 21
4.241553
 31
0.0
  0
LINE
  5
BB
100
AcDbEntity
 67
     1
  8
1
  6
Continuous
 62
     7
100
AcDbLine
 10
1.618196
 20
5.956457
 30
0.0
 11
1.649895
 21
5.956457
 31
0.0
  0
LINE
  5
BC
100
AcDbEntity
 67
     1
  8
1
  6
Continuous
 62
     7
100
AcDbLine
 10
1.282696
 20
3.939019
 30
0.0
 11
1.306931
 21
3.939019
 31
0.0
  0
LINE
  5
BD
100
AcDbEntity
 67
     1
  8
1
  6
Continuous
 62
     7
100
AcDbLine
 10
1.618196
 20
5.938457
 30
0.0
 11
1.717072
 21
5.938457
 31
0.0
  0
LINE
  5
BE
100
AcDbEntity
 67
     1
  8
1
  6
Continuous
 62
     7
100
AcDbLine
 10
1.618196
 20
5.900457
 30
0.0
 11
1.627503
 21
5.900457
 31
0.0
  0
LINE
  5
BF
100
AcDbEntity
 67
     1
  8
1
  6
Continuous
 62
     7
100
AcDbLine
 10
1.947196
 20
5.920457
 30
0.0
 11
1.863249
 21
5.920457
 31
0.0
  0
LINE
  5
C0
100
AcDbEntity
 67
     1
  8
1
  6
Continuous
 62
     7
100
AcDbLine
 10
1.947196
 20
5.960457
 30
0.0
 11
1.930426
 21
5.960457
 31
0.0
  0
LINE
  5
C1
100
AcDbEntity
 67
     1
  8
1
  6
Continuous
 62
     7
100
AcDbLine
 10
1.551697
 20
3.77702
 30
0.0
 11
1.551697
 21
3.608269
 31
0.0
  0
LINE
  5
C2
100
AcDbEntity
 67
     1
  8
1
  6
Continuous
 62
     7
100
AcDbLine
 10
2.073697
 20
4.304496
 30
0.0
 11
2.098696
 21
4.304496
 31
0.0
  0
LINE
  5
C3
100
AcDbEntity
 67
     1
  8
1
  6
Continuous
 62
     7
100
AcDbLine
 10
10.166131
 20
6.417457
 30
0.0
 11
10.196259
 21
6.340193
 31
0.0
  0
LINE
  5
C4
100
AcDbEntity
 67
     1
  8
1
  6
Continuous
 62
     7
100
AcDbLine
 10
3.823762
 20
6.615496
 30
0.0
 11
10.044224
 21
6.615496
 31
0.0
  0
LINE
  5
C5
100
AcDbEntity
 67
     1
  8
1
  6
Continuous
 62
     7
100
AcDbLine
 10
1.282696
 20
3.878526
 30
0.0
 11
1.407696
 21
3.912019
 31
0.0
  0
LINE
  5
C6
100
AcDbEntity
 67
     1
  8
1
  6
Continuous
 62
     7
100
AcDbLine
 10
1.501696
 20
4.286496
 30
0.0
 11
1.501696
 21
4.294496
 31
0.0
  0
LINE
  5
C7
100
AcDbEntity
 67
     1
  8
1
  6
Continuous
 62
     7
100
AcDbLine
 10
1.947196
 20
5.938457
 30
0.0
 11
1.848321
 21
5.938457
 31
0.0
  0
LINE
  5
C8
100
AcDbEntity
 67
     1
  8
1
  6
Continuous
 62
     7
100
AcDbLine
 10
2.600708
 20
6.662496
 30
0.0
 11
2.600708
 21
6.671803
 31
0.0
  0
LINE
  5
C9
100
AcDbEntity
 67
     1
  8
1
  6
Continuous
 62
     7
100
AcDbLine
 10
1.407696
 20
4.263496
 30
0.0
 11
1.407696
 21
4.477496
 31
0.0
  0
LINE
  5
CA
100
AcDbEntity
 67
     1
  8
1
  6
Continuous
 62
     7
100
AcDbLine
 10
1.618196
 20
5.906457
 30
0.0
 11
1.649895
 21
5.906457
 31
0.0
  0
LINE
  5
CB
100
AcDbEntity
 67
     1
  8
1
  6
Continuous
 62
     7
100
AcDbLine
 10
2.282696
 20
3.939019
 30
0.0
 11
2.258462
 21
3.939019
 31
0.0
  0
LINE
  5
CC
100
AcDbEntity
 67
     1
  8
1
  6
Continuous
 62
     7
100
AcDbLine
 10
1.812696
 20
6.457496
 30
0.0
 11
1.812696
 21
6.615496
 31
0.0
  0
LINE
  5
CD
100
AcDbEntity
 67
     1
  8
1
  6
Continuous
 62
     7
100
AcDbLine
 10
3.823762
 20
4.263496
 30
0.0
 11
10.184698
 21
4.263496
 31
0.0
  0
LINE
  5
CE
100
AcDbEntity
 67
     1
  8
1
  6
Continuous
 62
     7
100
AcDbLine
 10
1.282696
 20
3.879019
 30
0.0
 11
1.284539
 21
3.879019
 31
0.0
  0
LINE
  5
CF
100
AcDbEntity
 67
     1
  8
1
  6
Continuous
 62
     7
100
AcDbLine
 10
1.618196
 20
5.916457
 30
0.0
 11
1.687216
 21
5.916457
 31
0.0
  0
LINE
  5
D0
100
AcDbEntity
 67
     1
  8
1
  6
Continuous
 62
     7
100
AcDbLine
 10
2.612708
 20
6.662496
 30
0.0
 11
2.612708
 21
6.716587
 31
0.0
  0
LINE
  5
D1
100
AcDbEntity
 67
     1
  8
1
  6
Continuous
 62
     7
100
AcDbLine
 10
1.618196
 20
5.932457
 30
0.0
 11
1.739464
 21
5.932457
 31
0.0
  0
LINE
  5
D2
100
AcDbEntity
 67
     1
  8
1
  6
Continuous
 62
     7
100
AcDbLine
 10
1.852697
 20
6.652887
 30
0.0
 11
1.810887
 21
6.767757
 31
0.0
  0
LINE
  5
D3
100
AcDbEntity
 67
     1
  8
1
  6
Continuous
 62
     7
100
AcDbLine
 10
6.74137
 20
4.113581
 30
0.0
 11
6.711056
 21
4.183801
 31
0.0
  0
LINE
  5
D4
100
AcDbEntity
 67
     1
  8
1
  6
Continuous
 62
     7
100
AcDbLine
 10
3.823762
 20
4.488103
 30
0.0
 11
3.823762
 21
4.492496
 31
0.0
  0
LINE
  5
D5
100
AcDbEntity
 67
     1
  8
1
  6
Continuous
 62
     7
100
AcDbLine
 10
2.648708
 20
6.662496
 30
0.0
 11
2.648708
 21
6.724051
 31
0.0
  0
LINE
  5
D6
100
AcDbEntity
 67
     1
  8
1
  6
Continuous
 62
     7
100
AcDbLine
 10
1.305696
 20
5.796457
 30
0.0
 11
1.260697
 21
5.796457
 31
0.0
  0
LINE
  5
D7
100
AcDbEntity
 67
     1
  8
1
  6
Continuous
 62
     7
100
AcDbLine
 10
6.778094
 20
4.129435
 30
0.0
 11
6.768488
 21
4.151685
 31
0.0
  0
LINE
  5
D8
100
AcDbEntity
 67
     1
  8
1
  6
Continuous
 62
     7
100
AcDbLine
 10
0.3125
 20
1.100058
 30
0.0
 11
6.596283
 21
1.100058
 31
0.0
  0
LINE
  5
D9
100
AcDbEntity
 67
     1
  8
1
  6
Continuous
 62
     7
100
AcDbLine
 10
2.664708
 20
6.662496
 30
0.0
 11
2.664708
 21
6.664339
 31
0.0
  0
LINE
  5
DA
100
AcDbEntity
 67
     1
  8
1
  6
Continuous
 62
     7
100
AcDbLine
 10
2.604708
 20
6.662496
 30
0.0
 11
2.604708
 21
6.686731
 31
0.0
  0
LINE
  5
DB
100
AcDbEntity
 67
     1
  8
1
  6
Continuous
 62
     7
100
AcDbLine
 10
9.874986
 20
4.920063
 30
0.0
 11
9.875634
 21
4.839026
 31
0.0
  0
LINE
  5
DC
100
AcDbEntity
 67
     1
  8
1
  6
Continuous
 62
     7
100
AcDbLine
 10
1.947196
 20
5.926457
 30
0.0
 11
1.840857
 21
5.926457
 31
0.0
  0
LINE
  5
DD
100
AcDbEntity
 67
     1
  8
1
  6
Continuous
 62
     7
100
AcDbLine
 10
2.612708
 20
4.358496
 30
0.0
 11
2.612708
 21
4.304405
 31
0.0
  0
LINE
  5
DE
100
AcDbEntity
 67
     1
  8
1
  6
Continuous
 62
     7
100
AcDbLine
 10
2.282696
 20
3.933019
 30
0.0
 11
2.23607
 21
3.933019
 31
0.0
  0
LINE
  5
DF
100
AcDbEntity
 67
     1
  8
1
  6
Continuous
 62
     7
100
AcDbLine
 10
1.947196
 20
5.932457
 30
0.0
 11
1.825929
 21
5.932457
 31
0.0
  0
LINE
  5
E0
100
AcDbEntity
 67
     1
  8
1
  6
Continuous
 62
     7
100
AcDbLine
 10
0.941759
 20
5.627707
 30
0.0
 11
0.986759
 21
5.627707
 31
0.0
  0
LINE
  5
E1
100
AcDbEntity
 67
     1
  8
1
  6
Continuous
 62
     7
100
AcDbLine
 10
1.182696
 20
3.912019
 30
0.0
 11
1.407696
 21
3.912019
 31
0.0
  0
LINE
  5
E2
100
AcDbEntity
 67
     1
  8
1
  6
Continuous
 62
     7
100
AcDbLine
 10
1.947196
 20
5.958457
 30
0.0
 11
1.922962
 21
5.958457
 31
0.0
  0
LINE
  5
E3
100
AcDbEntity
 67
     1
  8
1
  6
Continuous
 62
     7
100
AcDbLine
 10
1.282696
 20
3.883019
 30
0.0
 11
1.299467
 21
3.883019
 31
0.0
  0
LINE
  5
E4
100
AcDbEntity
 67
     1
  8
1
  6
Continuous
 62
     7
100
AcDbLine
 10
1.947196
 20
5.950457
 30
0.0
 11
1.893106
 21
5.950457
 31
0.0
  0
LINE
  5
E5
100
AcDbEntity
 67
     1
  8
1
  6
Continuous
 62
     7
100
AcDbLine
 10
2.598215
 20
6.662496
 30
0.0
 11
2.665202
 21
6.662496
 31
0.0
  0
LINE
  5
E6
100
AcDbEntity
 67
     1
  8
1
  6
Continuous
 62
     7
100
AcDbLine
 10
1.618196
 20
5.960457
 30
0.0
 11
1.634967
 21
5.960457
 31
0.0
  0
LINE
  5
E7
100
AcDbEntity
 67
     1
  8
1
  6
Continuous
 62
     7
100
AcDbLine
 10
1.618196
 20
5.926457
 30
0.0
 11
1.724536
 21
5.926457
 31
0.0
  0
LINE
  5
E8
100
AcDbEntity
 67
     1
  8
1
  6
Continuous
 62
     7
100
AcDbLine
 10
2.282696
 20
3.903019
 30
0.0
 11
2.191285
 21
3.903019
 31
0.0
  0
LINE
  5
E9
100
AcDbEntity
 67
     1
  8
1
  6
Continuous
 62
     7
100
AcDbLine
 10
9.888234
 20
6.787496
 30
0.0
 11
3.823762
 21
6.787496
 31
0.0
  0
LINE
  5
EA
100
AcDbEntity
 67
     1
  8
1
  6
Continuous
 62
     7
100
AcDbLine
 10
10.051622
 20
5.510496
 30
0.0
 11
10.016035
 21
5.424824
 31
0.0
  0
LINE
  5
EB
100
AcDbEntity
 67
     1
  8
1
  6
Continuous
 62
     7
100
AcDbLine
 10
1.618196
 20
5.914457
 30
0.0
 11
1.679752
 21
5.914457
 31
0.0
  0
LINE
  5
EC
100
AcDbEntity
 67
     1
  8
1
  6
Continuous
 62
     7
100
AcDbLine
 10
2.440083
 20
5.336121
 30
0.0
 11
2.485083
 21
5.336121
 31
0.0
  0
LINE
  5
ED
100
AcDbEntity
 67
     1
  8
1
  6
Continuous
 62
     7
100
AcDbLine
 10
1.282696
 20
3.93702
 30
0.0
 11
1.314395
 21
3.93702
 31
0.0
  0
LINE
  5
EE
100
AcDbEntity
 67
     1
  8
1
  6
Continuous
 62
     7
100
AcDbLine
 10
3.823762
 20
6.652887
 30
0.0
 11
3.823762
 21
6.767757
 31
0.0
  0
LINE
  5
EF
100
AcDbEntity
 67
     1
  8
1
  6
Continuous
 62
     7
100
AcDbLine
 10
10.22826
 20
6.10093
 30
0.0
 11
10.219851
 21
6.018735
 31
0.0
  0
LINE
  5
F0
100
AcDbEntity
 67
     1
  8
1
  6
Continuous
 62
     7
100
AcDbLine
 10
10.760845
 20
8.26636
 30
0.0
 11
10.760845
 21
0.3125
 31
0.0
  0
LINE
  5
F1
100
AcDbEntity
 67
     1
  8
1
  6
Continuous
 62
     7
100
AcDbLine
 10
2.282696
 20
3.909019
 30
0.0
 11
2.168893
 21
3.909019
 31
0.0
  0
LINE
  5
F2
100
AcDbEntity
 67
     1
  8
1
  6
Continuous
 62
     7
100
AcDbLine
 10
2.282696
 20
3.93702
 30
0.0
 11
2.250998
 21
3.93702
 31
0.0
  0
LINE
  5
F3
100
AcDbEntity
 67
     1
  8
1
  6
Continuous
 62
     7
100
AcDbLine
 10
6.768913
 20
4.125471
 30
0.0
 11
6.744516
 21
4.181985
 31
0.0
  0
LINE
  5
F4
100
AcDbEntity
 67
     1
  8
1
  6
Continuous
 62
     7
100
AcDbLine
 10
2.098696
 20
4.304496
 30
0.0
 11
2.098696
 21
4.398496
 31
0.0
  0
LINE
  5
F5
100
AcDbEntity
 67
     1
  8
1
  6
Continuous
 62
     7
100
AcDbLine
 10
1.947196
 20
5.952457
 30
0.0
 11
1.90057
 21
5.952457
 31
0.0
  0
LINE
  5
F6
100
AcDbEntity
 67
     1
  8
1
  6
Continuous
 62
     7
100
AcDbLine
 10
3.823762
 20
4.498354
 30
0.0
 11
3.823762
 21
4.492496
 31
0.0
  0
LINE
  5
F7
100
AcDbEntity
 67
     1
  8
1
  6
Continuous
 62
     7
100
AcDbLine
 10
2.640708
 20
6.662496
 30
0.0
 11
2.640708
 21
6.753908
 31
0.0
  0
LINE
  5
F8
100
AcDbEntity
 67
     1
  8
1
  6
Continuous
 62
     7
100
AcDbLine
 10
1.618196
 20
5.936457
 30
0.0
 11
1.724536
 21
5.936457
 31
0.0
  0
LINE
  5
F9
100
AcDbEntity
 67
     1
  8
1
  6
Continuous
 62
     7
100
AcDbLine
 10
1.947196
 20
5.964457
 30
0.0
 11
1.945354
 21
5.964457
 31
0.0
  0
LINE
  5
FA
100
AcDbEntity
 67
     1
  8
1
  6
Continuous
 62
     7
100
AcDbLine
 10
1.282696
 20
3.91102
 30
0.0
 11
1.403964
 21
3.91102
 31
0.0
  0
LINE
  5
FB
100
AcDbEntity
 67
     1
  8
1
  6
Continuous
 62
     7
100
AcDbLine
 10
6.763404
 20
4.123093
 30
0.0
 11
6.730132
 21
4.200166
 31
0.0
  0
LINE
  5
FC
100
AcDbEntity
 67
     1
  8
1
  6
Continuous
 62
     7
100
AcDbLine
 10
1.947196
 20
5.912457
 30
0.0
 11
1.893106
 21
5.912457
 31
0.0
  0
LINE
  5
FD
100
AcDbEntity
 67
     1
  8
1
  6
Continuous
 62
     7
100
AcDbLine
 10
6.752387
 20
4.118337
 30
0.0
 11
6.704323
 21
4.229673
 31
0.0
  0
LINE
  5
FE
100
AcDbEntity
 67
     1
  8
1
  6
Continuous
 62
     7
100
AcDbLine
 10
1.282696
 20
3.91502
 30
0.0
 11
1.3965
 21
3.91502
 31
0.0
  0
LINE
  5
FF
100
AcDbEntity
 67
     1
  8
1
  6
Continuous
 62
     7
100
AcDbLine
 10
6.739533
 20
4.112788
 30
0.0
 11
6.712178
 21
4.176155
 31
0.0
  0
LINE
  5
100
100
AcDbEntity
 67
     1
  8
1
  6
Continuous
 62
     7
100
AcDbLine
 10
6.730352
 20
4.108825
 30
0.0
 11
6.717789
 21
4.137928
 31
0.0
  0
LINE
  5
101
100
AcDbEntity
 67
     1
  8
1
  6
Continuous
 62
     7
100
AcDbLine
 10
1.282696
 20
3.88502
 30
0.0
 11
1.306931
 21
3.88502
 31
0.0
  0
LINE
  5
102
100
AcDbEntity
 67
     1
  8
1
  6
Continuous
 62
     7
100
AcDbLine
 10
2.628708
 20
6.662496
 30
0.0
 11
2.628708
 21
6.7763
 31
0.0
  0
LINE
  5
103
100
AcDbEntity
 67
     1
  8
1
  6
Continuous
 62
     7
100
AcDbLine
 10
6.596283
 20
1.386014
 30
0.0
 11
0.3125
 21
1.386014
 31
0.0
  0
LINE
  5
104
100
AcDbEntity
 67
     1
  8
1
  6
Continuous
 62
     7
100
AcDbLine
 10
6.723008
 20
4.105654
 30
0.0
 11
6.722277
 21
4.107346
 31
0.0
  0
LINE
  5
105
100
AcDbEntity
 67
     1
  8
1
  6
Continuous
 62
     7
100
AcDbLine
 10
1.618196
 20
5.946457
 30
0.0
 11
1.687216
 21
5.946457
 31
0.0
  0
LINE
  5
106
100
AcDbEntity
 67
     1
  8
1
  6
Continuous
 62
     7
100
AcDbLine
 10
9.922215
 20
5.169463
 30
0.0
 11
9.89957
 21
5.085446
 31
0.0
  0
LINE
  5
107
100
AcDbEntity
 67
     1
  8
1
  6
Continuous
 62
     7
100
AcDbLine
 10
2.282696
 20
3.878526
 30
0.0
 11
2.282696
 21
3.945513
 31
0.0
  0
LINE
  5
108
100
AcDbEntity
 67
     1
  8
1
  6
Continuous
 62
     7
100
AcDbLine
 10
1.822196
 20
5.931457
 30
0.0
 11
2.047196
 21
5.931457
 31
0.0
  0
LINE
  5
109
100
AcDbEntity
 67
     1
  8
1
  6
Continuous
 62
     7
100
AcDbLine
 10
0.3125
 20
8.26636
 30
0.0
 11
0.3125
 21
0.3125
 31
0.0
  0
LINE
  5
10A
100
AcDbEntity
 67
     1
  8
1
  6
Continuous
 62
     7
100
AcDbLine
 10
2.282696
 20
3.91102
 30
0.0
 11
2.161428
 21
3.91102
 31
0.0
  0
LINE
  5
10B
100
AcDbEntity
 67
     1
  8
1
  6
Continuous
 62
     7
100
AcDbLine
 10
1.618196
 20
5.898457
 30
0.0
 11
1.620039
 21
5.898457
 31
0.0
  0
LINE
  5
10C
100
AcDbEntity
 67
     1
  8
1
  6
Continuous
 62
     7
100
AcDbLine
 10
2.650708
 20
6.662496
 30
0.0
 11
2.650708
 21
6.716587
 31
0.0
  0
LINE
  5
10D
100
AcDbEntity
 67
     1
  8
1
  6
Continuous
 62
     7
100
AcDbLine
 10
9.875634
 20
4.839026
 30
0.0
 11
9.88635
 21
4.759278
 31
0.0
  0
LINE
  5
10E
100
AcDbEntity
 67
     1
  8
1
  6
Continuous
 62
     7
100
AcDbLine
 10
2.660708
 20
4.358496
 30
0.0
 11
2.660708
 21
4.341726
 31
0.0
  0
LINE
  5
10F
100
AcDbEntity
 67
     1
  8
1
  6
Continuous
 62
     7
100
AcDbLine
 10
1.947196
 20
5.964457
 30
0.0
 11
1.945354
 21
5.964457
 31
0.0
  0
LINE
  5
110
100
AcDbEntity
 67
     1
  8
1
  6
Continuous
 62
     7
100
AcDbLine
 10
6.743206
 20
4.114374
 30
0.0
 11
6.709934
 21
4.191446
 31
0.0
  0
LINE
  5
111
100
AcDbEntity
 67
     1
  8
1
  6
Continuous
 62
     7
100
AcDbLine
 10
1.260697
 20
5.627707
 30
0.0
 11
1.305696
 21
5.627707
 31
0.0
  0
LINE
  5
112
100
AcDbEntity
 67
     1
  8
1
  6
Continuous
 62
     7
100
AcDbLine
 10
2.282696
 20
3.889019
 30
0.0
 11
2.243534
 21
3.889019
 31
0.0
  0
LINE
  5
113
100
AcDbEntity
 67
     1
  8
1
  6
Continuous
 62
     7
100
AcDbLine
 10
2.638708
 20
6.662496
 30
0.0
 11
2.638708
 21
6.761372
 31
0.0
  0
LINE
  5
114
100
AcDbEntity
 67
     1
  8
1
  6
Continuous
 62
     7
100
AcDbLine
 10
1.947196
 20
5.924457
 30
0.0
 11
1.848321
 21
5.924457
 31
0.0
  0
LINE
  5
115
100
AcDbEntity
 67
     1
  8
1
  6
Continuous
 62
     7
100
AcDbLine
 10
1.947196
 20
5.940457
 30
0.0
 11
1.855785
 21
5.940457
 31
0.0
  0
LINE
  5
116
100
AcDbEntity
 67
     1
  8
1
  6
Continuous
 62
     7
100
AcDbLine
 10
2.282696
 20
3.88102
 30
0.0
 11
2.27339
 21
3.88102
 31
0.0
  0
LINE
  5
117
100
AcDbEntity
 67
     1
  8
1
  6
Continuous
 62
     7
100
AcDbLine
 10
9.88635
 20
4.759278
 30
0.0
 11
9.906987
 21
4.680799
 31
0.0
  0
LINE
  5
118
100
AcDbEntity
 67
     1
  8
1
  6
Continuous
 62
     7
100
AcDbLine
 10
2.606708
 20
4.358496
 30
0.0
 11
2.606708
 21
4.326797
 31
0.0
  0
LINE
  5
119
100
AcDbEntity
 67
     1
  8
1
  6
Continuous
 62
     7
100
AcDbLine
 10
6.596283
 20
0.847101
 30
0.0
 11
7.368841
 21
0.847101
 31
0.0
  0
LINE
  5
11A
100
AcDbEntity
 67
     1
  8
1
  6
Continuous
 62
     7
100
AcDbLine
 10
1.407696
 20
3.912019
 30
0.0
 11
1.282696
 21
3.945513
 31
0.0
  0
LINE
  5
11B
100
AcDbEntity
 67
     1
  8
1
  6
Continuous
 62
     7
100
AcDbLine
 10
6.596283
 20
1.64397
 30
0.0
 11
0.3125
 21
1.64397
 31
0.0
  0
LINE
  5
11C
100
AcDbEntity
 67
     1
  8
1
  6
Continuous
 62
     7
100
AcDbLine
 10
2.282696
 20
3.89502
 30
0.0
 11
2.221141
 21
3.89502
 31
0.0
  0
LINE
  5
11D
100
AcDbEntity
 67
     1
  8
1
  6
Continuous
 62
     7
100
AcDbLine
 10
2.598215
 20
4.358496
 30
0.0
 11
2.631708
 21
4.233496
 31
0.0
  0
LINE
  5
11E
100
AcDbEntity
 67
     1
  8
1
  6
Continuous
 62
     7
100
AcDbLine
 10
2.282696
 20
3.92502
 30
0.0
 11
2.206213
 21
3.92502
 31
0.0
  0
LINE
  5
11F
100
AcDbEntity
 67
     1
  8
1
  6
Continuous
 62
     7
100
AcDbLine
 10
1.618196
 20
5.898457
 30
0.0
 11
1.620039
 21
5.898457
 31
0.0
  0
LINE
  5
120
100
AcDbEntity
 67
     1
  8
1
  6
Continuous
 62
     7
100
AcDbLine
 10
1.712697
 20
6.652887
 30
0.0
 11
1.754506
 21
6.767757
 31
0.0
  0
LINE
  5
121
100
AcDbEntity
 67
     1
  8
1
  6
Continuous
 62
     7
100
AcDbLine
 10
2.282696
 20
3.887019
 30
0.0
 11
2.250998
 21
3.887019
 31
0.0
  0
LINE
  5
122
100
AcDbEntity
 67
     1
  8
1
  6
Continuous
 62
     7
100
AcDbLine
 10
1.752697
 20
6.457496
 30
0.0
 11
1.752697
 21
6.615496
 31
0.0
  0
LINE
  5
123
100
AcDbEntity
 67
     1
  8
1
  6
Continuous
 62
     7
100
AcDbLine
 10
10.07913
 20
6.568563
 30
0.0
 11
10.126945
 21
6.493562
 31
0.0
  0
LINE
  5
124
100
AcDbEntity
 67
     1
  8
1
  6
Continuous
 62
     7
100
AcDbLine
 10
2.665202
 20
6.662496
 30
0.0
 11
2.631708
 21
6.787496
 31
0.0
  0
LINE
  5
125
100
AcDbEntity
 67
     1
  8
1
  6
Continuous
 62
     7
100
AcDbLine
 10
1.282696
 20
3.933019
 30
0.0
 11
1.329323
 21
3.933019
 31
0.0
  0
LINE
  5
126
100
AcDbEntity
 67
     1
  8
1
  6
Continuous
 62
     7
100
AcDbLine
 10
2.282696
 20
3.917019
 30
0.0
 11
2.176357
 21
3.917019
 31
0.0
  0
LINE
  5
127
100
AcDbEntity
 67
     1
  8
1
  6
Continuous
 62
     7
100
AcDbLine
 10
2.620708
 20
4.358496
 30
0.0
 11
2.620708
 21
4.274549
 31
0.0
  0
LINE
  5
128
100
AcDbEntity
 67
     1
  8
1
  6
Continuous
 62
     7
100
AcDbLine
 10
9.950038
 20
5.254141
 30
0.0
 11
9.922215
 21
5.169463
 31
0.0
  0
LINE
  5
129
100
AcDbEntity
 67
     1
  8
1
  6
Continuous
 62
     7
100
AcDbLine
 10
1.441247
 20
0.3125
 30
0.0
 11
1.441247
 21
2.159882
 31
0.0
  0
LINE
  5
12A
100
AcDbEntity
 67
     1
  8
1
  6
Continuous
 62
     7
100
AcDbLine
 10
1.596696
 20
3.77702
 30
0.0
 11
1.551697
 21
3.77702
 31
0.0
  0
LINE
  5
12B
100
AcDbEntity
 67
     1
  8
1
  6
Continuous
 62
     7
100
AcDbLine
 10
1.282696
 20
3.92102
 30
0.0
 11
1.374108
 21
3.92102
 31
0.0
  0
LINE
  5
12C
100
AcDbEntity
 67
     1
  8
1
  6
Continuous
 62
     7
100
AcDbLine
 10
2.282696
 20
3.945513
 30
0.0
 11
2.157696
 21
3.912019
 31
0.0
  0
LINE
  5
12D
100
AcDbEntity
 67
     1
  8
1
  6
Continuous
 62
     7
100
AcDbLine
 10
1.282696
 20
3.889019
 30
0.0
 11
1.321859
 21
3.889019
 31
0.0
  0
LINE
  5
12E
100
AcDbEntity
 67
     1
  8
1
  6
Continuous
 62
     7
100
AcDbLine
 10
1.618196
 20
5.964457
 30
0.0
 11
1.620039
 21
5.964457
 31
0.0
  0
LINE
  5
12F
100
AcDbEntity
 67
     1
  8
1
  6
Continuous
 62
     7
100
AcDbLine
 10
10.760845
 20
2.159882
 30
0.0
 11
6.596283
 21
2.159882
 31
0.0
  0
LINE
  5
130
100
AcDbEntity
 67
     1
  8
1
  6
Continuous
 62
     7
100
AcDbLine
 10
1.618196
 20
5.940457
 30
0.0
 11
1.709608
 21
5.940457
 31
0.0
  0
LINE
  5
131
100
AcDbEntity
 67
     1
  8
1
  6
Continuous
 62
     7
100
AcDbLine
 10
2.634708
 20
6.662496
 30
0.0
 11
2.634708
 21
6.7763
 31
0.0
  0
LINE
  5
132
100
AcDbEntity
 67
     1
  8
1
  6
Continuous
 62
     7
100
AcDbLine
 10
2.642708
 20
6.662496
 30
0.0
 11
2.642708
 21
6.746444
 31
0.0
  0
LINE
  5
133
100
AcDbEntity
 67
     1
  8
1
  6
Continuous
 62
     7
100
AcDbLine
 10
2.654708
 20
6.662496
 30
0.0
 11
2.654708
 21
6.701659
 31
0.0
  0
LINE
  5
134
100
AcDbEntity
 67
     1
  8
1
  6
Continuous
 62
     7
100
AcDbLine
 10
1.282696
 20
3.90502
 30
0.0
 11
1.381572
 21
3.90502
 31
0.0
  0
LINE
  5
135
100
AcDbEntity
 67
     1
  8
1
  6
Continuous
 62
     7
100
AcDbLine
 10
1.947196
 20
5.936457
 30
0.0
 11
1.840857
 21
5.936457
 31
0.0
  0
LINE
  5
136
100
AcDbEntity
 67
     1
  8
1
  6
Continuous
 62
     7
100
AcDbLine
 10
1.618196
 20
5.904457
 30
0.0
 11
1.642431
 21
5.904457
 31
0.0
  0
LINE
  5
137
100
AcDbEntity
 67
     1
  8
1
  6
Continuous
 62
     7
100
AcDbLine
 10
1.618196
 20
5.952457
 30
0.0
 11
1.664823
 21
5.952457
 31
0.0
  0
LINE
  5
138
100
AcDbEntity
 67
     1
  8
1
  6
Continuous
 62
     7
100
AcDbLine
 10
1.743196
 20
5.931457
 30
0.0
 11
1.618196
 21
5.964951
 31
0.0
  0
LINE
  5
139
100
AcDbEntity
 67
     1
  8
1
  6
Continuous
 62
     7
100
AcDbLine
 10
10.219851
 20
6.018735
 30
0.0
 11
10.203675
 21
5.935546
 31
0.0
  0
LINE
  5
13A
100
AcDbEntity
 67
     1
  8
1
  6
Continuous
 62
     7
100
AcDbLine
 10
1.947196
 20
5.897963
 30
0.0
 11
1.947196
 21
5.964951
 31
0.0
  0
LINE
  5
13B
100
AcDbEntity
 67
     1
  8
1
  6
Continuous
 62
     7
100
AcDbLine
 10
0.3125
 20
0.3125
 30
0.0
 11
10.760845
 21
0.3125
 31
0.0
  0
LINE
  5
13C
100
AcDbEntity
 67
     1
  8
1
  6
Continuous
 62
     7
100
AcDbLine
 10
2.664708
 20
4.358496
 30
0.0
 11
2.664708
 21
4.356654
 31
0.0
  0
LINE
  5
13D
100
AcDbEntity
 67
     1
  8
1
  6
Continuous
 62
     7
100
AcDbLine
 10
2.282696
 20
3.907019
 30
0.0
 11
2.176357
 21
3.907019
 31
0.0
  0
LINE
  5
13E
100
AcDbEntity
 67
     1
  8
1
  6
Continuous
 62
     7
100
AcDbLine
 10
6.774421
 20
4.127849
 30
0.0
 11
6.758899
 21
4.163805
 31
0.0
  0
LINE
  5
13F
100
AcDbEntity
 67
     1
  8
1
  6
Continuous
 62
     7
100
AcDbLine
 10
1.618196
 20
5.928457
 30
0.0
 11
1.732
 21
5.928457
 31
0.0
  0
LINE
  5
140
100
AcDbEntity
 67
     1
  8
1
  6
Continuous
 62
     7
100
AcDbLine
 10
2.902083
 20
5.504871
 30
0.0
 11
2.857083
 21
5.504871
 31
0.0
  0
LINE
  5
141
100
AcDbEntity
 67
     1
  8
1
  6
Continuous
 62
     7
100
AcDbLine
 10
9.906987
 20
4.680799
 30
0.0
 11
9.937115
 21
4.603535
 31
0.0
  0
LINE
  5
142
100
AcDbEntity
 67
     1
  8
1
  6
Continuous
 62
     7
100
AcDbLine
 10
2.610708
 20
6.662496
 30
0.0
 11
2.610708
 21
6.709123
 31
0.0
  0
LINE
  5
143
100
AcDbEntity
 67
     1
  8
1
  6
Continuous
 62
     7
100
AcDbLine
 10
3.823762
 20
6.652887
 30
0.0
 11
10.014417
 21
6.652887
 31
0.0
  0
LINE
  5
144
100
AcDbEntity
 67
     1
  8
1
  6
Continuous
 62
     7
100
AcDbLine
 10
2.604708
 20
4.358496
 30
0.0
 11
2.604708
 21
4.334261
 31
0.0
  0
LINE
  5
145
100
AcDbEntity
 67
     1
  8
1
  6
Continuous
 62
     7
100
AcDbLine
 10
2.282696
 20
3.92702
 30
0.0
 11
2.213677
 21
3.92702
 31
0.0
  0
LINE
  5
146
100
AcDbEntity
 67
     1
  8
1
  6
Continuous
 62
     7
100
AcDbLine
 10
1.282696
 20
3.90102
 30
0.0
 11
1.366644
 21
3.90102
 31
0.0
  0
LINE
  5
147
100
AcDbEntity
 67
     1
  8
1
  6
Continuous
 62
     7
100
AcDbLine
 10
1.282696
 20
3.935019
 30
0.0
 11
1.321859
 21
3.935019
 31
0.0
  0
LINE
  5
148
100
AcDbEntity
 67
     1
  8
1
  6
Continuous
 62
     7
100
AcDbLine
 10
9.16729
 20
1.100058
 30
0.0
 11
9.16729
 21
0.3125
 31
0.0
  0
LINE
  5
149
100
AcDbEntity
 67
     1
  8
1
  6
Continuous
 62
     7
100
AcDbLine
 10
2.632708
 20
4.358496
 30
0.0
 11
2.632708
 21
4.237228
 31
0.0
  0
LINE
  5
14A
100
AcDbEntity
 67
     1
  8
1
  6
Continuous
 62
     7
100
AcDbLine
 10
3.823762
 20
4.237515
 30
0.0
 11
3.823762
 21
4.233496
 31
0.0
  0
LINE
  5
14B
100
AcDbEntity
 67
     1
  8
1
  6
Continuous
 62
     7
100
AcDbLine
 10
2.282696
 20
3.899019
 30
0.0
 11
2.206213
 21
3.899019
 31
0.0
  0
LINE
  5
14C
100
AcDbEntity
 67
     1
  8
1
  6
Continuous
 62
     7
100
AcDbLine
 10
6.776258
 20
4.128642
 30
0.0
 11
6.763694
 21
4.157745
 31
0.0
  0
LINE
  5
14D
100
AcDbEntity
 67
     1
  8
1
  6
Continuous
 62
     7
100
AcDbLine
 10
2.626708
 20
4.358496
 30
0.0
 11
2.626708
 21
4.252156
 31
0.0
  0
LINE
  5
14E
100
AcDbEntity
 67
     1
  8
1
  6
Continuous
 62
     7
100
AcDbLine
 10
1.947196
 20
5.944457
 30
0.0
 11
1.870713
 21
5.944457
 31
0.0
  0
LINE
  5
14F
100
AcDbEntity
 67
     1
  8
1
  6
Continuous
 62
     7
100
AcDbLine
 10
1.305696
 20
5.627707
 30
0.0
 11
1.305696
 21
5.796457
 31
0.0
  0
LINE
  5
150
100
AcDbEntity
 67
     1
  8
1
  6
Continuous
 62
     7
100
AcDbLine
 10
1.968696
 20
3.608269
 30
0.0
 11
2.013696
 21
3.608269
 31
0.0
  0
LINE
  5
151
100
AcDbEntity
 67
     1
  8
1
  6
Continuous
 62
     7
100
AcDbLine
 10
1.947196
 20
5.956457
 30
0.0
 11
1.915498
 21
5.956457
 31
0.0
  0
LINE
  5
152
100
AcDbEntity
 67
     1
  8
1
  6
Continuous
 62
     7
100
AcDbLine
 10
6.783602
 20
4.131813
 30
0.0
 11
6.782872
 21
4.133504
 31
0.0
  0
LINE
  5
153
100
AcDbEntity
 67
     1
  8
1
  6
Continuous
 62
     7
100
AcDbLine
 10
1.822196
 20
5.931457
 30
0.0
 11
1.947196
 21
5.897963
 31
0.0
  0
LINE
  5
154
100
AcDbEntity
 67
     1
  8
1
  6
Continuous
 62
     7
100
AcDbLine
 10
2.660708
 20
6.662496
 30
0.0
 11
2.660708
 21
6.679267
 31
0.0
  0
LINE
  5
155
100
AcDbEntity
 67
     1
  8
1
  6
Continuous
 62
     7
100
AcDbLine
 10
1.282696
 20
3.919019
 30
0.0
 11
1.381572
 21
3.919019
 31
0.0
  0
LINE
  5
156
100
AcDbEntity
 67
     1
  8
1
  6
Continuous
 62
     7
100
AcDbLine
 10
3.823762
 20
6.625496
 30
0.0
 11
10.036342
 21
6.625496
 31
0.0
  0
LINE
  5
157
100
AcDbEntity
 67
     1
  8
1
  6
Continuous
 62
     7
100
AcDbLine
 10
10.080126
 20
4.378476
 30
0.0
 11
10.143902
 21
4.305517
 31
0.0
  0
LINE
  5
158
100
AcDbEntity
 67
     1
  8
1
  6
Continuous
 62
     7
100
AcDbLine
 10
6.737697
 20
4.111996
 30
0.0
 11
6.7133
 21
4.168509
 31
0.0
  0
LINE
  5
159
100
AcDbEntity
 67
     1
  8
1
  6
Continuous
 62
     7
100
AcDbLine
 10
2.282696
 20
3.929019
 30
0.0
 11
2.221141
 21
3.929019
 31
0.0
  0
LINE
  5
15A
100
AcDbEntity
 67
     1
  8
1
  6
Continuous
 62
     7
100
AcDbLine
 10
2.656708
 20
6.662496
 30
0.0
 11
2.656708
 21
6.694195
 31
0.0
  0
LINE
  5
15B
100
AcDbEntity
 67
     1
  8
1
  6
Continuous
 62
     7
100
AcDbLine
 10
10.227611
 20
6.181966
 30
0.0
 11
10.22826
 21
6.10093
 31
0.0
  0
LINE
  5
15C
100
AcDbEntity
 67
     1
  8
1
  6
Continuous
 62
     7
100
AcDbLine
 10
2.282696
 20
3.90102
 30
0.0
 11
2.198749
 21
3.90102
 31
0.0
  0
LINE
  5
15D
100
AcDbEntity
 67
     1
  8
1
  6
Continuous
 62
     7
100
AcDbLine
 10
1.743196
 20
4.512496
 30
0.0
 11
1.743196
 21
6.457496
 31
0.0
  0
LINE
  5
15E
100
AcDbEntity
 67
     1
  8
1
  6
Continuous
 62
     7
100
AcDbLine
 10
2.618708
 20
6.662496
 30
0.0
 11
2.618708
 21
6.738979
 31
0.0
  0
LINE
  5
15F
100
AcDbEntity
 67
     1
  8
1
  6
Continuous
 62
     7
100
AcDbLine
 10
2.083697
 20
4.413496
 30
0.0
 11
1.481696
 21
4.413496
 31
0.0
  0
LINE
  5
160
100
AcDbEntity
 67
     1
  8
1
  6
Continuous
 62
     7
100
AcDbLine
 10
1.618196
 20
5.950457
 30
0.0
 11
1.672288
 21
5.950457
 31
0.0
  0
LINE
  5
161
100
AcDbEntity
 67
     1
  8
1
  6
Continuous
 62
     7
100
AcDbLine
 10
2.646708
 20
6.662496
 30
0.0
 11
2.646708
 21
6.731515
 31
0.0
  0
LINE
  5
162
100
AcDbEntity
 67
     1
  8
1
  6
Continuous
 62
     7
100
AcDbLine
 10
9.888234
 20
6.787496
 30
0.0
 11
9.959343
 21
6.715476
 31
0.0
  0
LINE
  5
163
100
AcDbEntity
 67
     1
  8
1
  6
Continuous
 62
     7
100
AcDbLine
 10
1.618196
 20
5.912457
 30
0.0
 11
1.672288
 21
5.912457
 31
0.0
  0
LINE
  5
164
100
AcDbEntity
 67
     1
  8
1
  6
Continuous
 62
     7
100
AcDbLine
 10
10.126945
 20
6.493562
 30
0.0
 11
10.166131
 21
6.417457
 31
0.0
  0
LINE
  5
165
100
AcDbEntity
 67
     1
  8
1
  6
Continuous
 62
     7
100
AcDbLine
 10
10.18103
 20
5.85153
 30
0.0
 11
10.153208
 21
5.766851
 31
0.0
  0
LINE
  5
166
100
AcDbEntity
 67
     1
  8
1
  6
Continuous
 62
     7
100
AcDbLine
 10
6.784056
 20
4.132009
 30
0.0
 11
6.703762
 21
4.233496
 31
0.0
  0
LINE
  5
167
100
AcDbEntity
 67
     1
  8
1
  6
Continuous
 62
     7
100
AcDbLine
 10
1.618196
 20
5.924457
 30
0.0
 11
1.717072
 21
5.924457
 31
0.0
  0
LINE
  5
168
100
AcDbEntity
 67
     1
  8
1
  6
Continuous
 62
     7
100
AcDbLine
 10
3.823762
 20
6.767757
 30
0.0
 11
3.823762
 21
6.782071
 31
0.0
  0
LINE
  5
169
100
AcDbEntity
 67
     1
  8
1
  6
Continuous
 62
     7
100
AcDbLine
 10
2.640708
 20
4.358496
 30
0.0
 11
2.640708
 21
4.267085
 31
0.0
  0
LINE
  5
16A
100
AcDbEntity
 67
     1
  8
1
  6
Continuous
 62
     7
100
AcDbLine
 10
2.602708
 20
4.358496
 30
0.0
 11
2.602708
 21
4.341726
 31
0.0
  0
LINE
  5
16B
100
AcDbEntity
 67
     1
  8
1
  6
Continuous
 62
     7
100
AcDbLine
 10
1.618196
 20
5.918457
 30
0.0
 11
1.69468
 21
5.918457
 31
0.0
  0
LINE
  5
16C
100
AcDbEntity
 67
     1
  8
1
  6
Continuous
 62
     7
100
AcDbLine
 10
2.608708
 20
6.662496
 30
0.0
 11
2.608708
 21
6.701659
 31
0.0
  0
LINE
  5
16D
100
AcDbEntity
 67
     1
  8
1
  6
Continuous
 62
     7
100
AcDbLine
 10
1.282696
 20
3.94102
 30
0.0
 11
1.299467
 21
3.94102
 31
0.0
  0
LINE
  5
16E
100
AcDbEntity
 67
     1
  8
1
  6
Continuous
 62
     7
100
AcDbLine
 10
1.618196
 20
5.954457
 30
0.0
 11
1.657359
 21
5.954457
 31
0.0
  0
LINE
  5
16F
100
AcDbEntity
 67
     1
  8
1
  6
Continuous
 62
     7
100
AcDbLine
 10
9.89957
 20
5.085446
 30
0.0
 11
9.883395
 21
5.002257
 31
0.0
  0
LINE
  5
170
100
AcDbEntity
 67
     1
  8
1
  6
Continuous
 62
     7
100
AcDbLine
 10
3.823762
 20
6.782071
 30
0.0
 11
3.823762
 21
6.787496
 31
0.0
  0
LINE
  5
171
100
AcDbEntity
 67
     1
  8
1
  6
Continuous
 62
     7
100
AcDbLine
 10
2.440083
 20
5.504871
 30
0.0
 11
2.440083
 21
5.336121
 31
0.0
  0
LINE
  5
172
100
AcDbEntity
 67
     1
  8
1
  6
Continuous
 62
     7
100
AcDbLine
 10
2.282696
 20
3.913019
 30
0.0
 11
2.161428
 21
3.913019
 31
0.0
  0
LINE
  5
173
100
AcDbEntity
 67
     1
  8
1
  6
Continuous
 62
     7
100
AcDbLine
 10
1.282696
 20
3.897019
 30
0.0
 11
1.351716
 21
3.897019
 31
0.0
  0
LINE
  5
174
100
AcDbEntity
 67
     1
  8
1
  6
Continuous
 62
     7
100
AcDbLine
 10
2.662708
 20
4.358496
 30
0.0
 11
2.662708
 21
4.34919
 31
0.0
  0
LINE
  5
175
100
AcDbEntity
 67
     1
  8
1
  6
Continuous
 62
     7
100
AcDbLine
 10
6.734025
 20
4.11041
 30
0.0
 11
6.715545
 21
4.153218
 31
0.0
  0
LINE
  5
176
100
AcDbEntity
 67
     1
  8
1
  6
Continuous
 62
     7
100
AcDbLine
 10
6.767076
 20
4.124679
 30
0.0
 11
6.739721
 21
4.188046
 31
0.0
  0
LINE
  5
177
100
AcDbEntity
 67
     1
  8
1
  6
Continuous
 62
     7
100
AcDbLine
 10
2.614708
 20
4.358496
 30
0.0
 11
2.614708
 21
4.296941
 31
0.0
  0
LINE
  5
178
100
AcDbEntity
 67
     1
  8
1
  6
Continuous
 62
     7
100
AcDbLine
 10
2.664708
 20
6.662496
 30
0.0
 11
2.664708
 21
6.664339
 31
0.0
  0
LINE
  5
179
100
AcDbEntity
 67
     1
  8
1
  6
Continuous
 62
     7
100
AcDbLine
 10
2.282696
 20
3.92102
 30
0.0
 11
2.191285
 21
3.92102
 31
0.0
  0
LINE
  5
17A
100
AcDbEntity
 67
     1
  8
1
  6
Continuous
 62
     7
100
AcDbLine
 10
1.282696
 20
3.913019
 30
0.0
 11
1.403964
 21
3.913019
 31
0.0
  0
LINE
  5
17B
100
AcDbEntity
 67
     1
  8
1
  6
Continuous
 62
     7
100
AcDbLine
 10
6.596283
 20
2.390882
 30
0.0
 11
6.596283
 21
0.3125
 31
0.0
  0
LINE
  5
17C
100
AcDbEntity
 67
     1
  8
1
  6
Continuous
 62
     7
100
AcDbLine
 10
2.282696
 20
3.879019
 30
0.0
 11
2.280854
 21
3.879019
 31
0.0
  0
LINE
  5
17D
100
AcDbEntity
 67
     1
  8
1
  6
Continuous
 62
     7
100
AcDbLine
 10
2.598708
 20
6.662496
 30
0.0
 11
2.598708
 21
6.664339
 31
0.0
  0
LINE
  5
17E
100
AcDbEntity
 67
     1
  8
1
  6
Continuous
 62
     7
100
AcDbLine
 10
7.368841
 20
0.3125
 30
0.0
 11
7.368841
 21
1.100058
 31
0.0
  0
LINE
  5
17F
100
AcDbEntity
 67
     1
  8
1
  6
Continuous
 62
     7
100
AcDbLine
 10
2.282696
 20
3.919019
 30
0.0
 11
2.183821
 21
3.919019
 31
0.0
  0
LINE
  5
180
100
AcDbEntity
 67
     1
  8
1
  6
Continuous
 62
     7
100
AcDbLine
 10
1.282696
 20
3.945513
 30
0.0
 11
1.282696
 21
3.878526
 31
0.0
  0
LINE
  5
181
100
AcDbEntity
 67
     1
  8
1
  6
Continuous
 62
     7
100
AcDbLine
 10
6.783602
 20
4.131813
 30
0.0
 11
6.782872
 21
4.133504
 31
0.0
  0
LINE
  5
182
100
AcDbEntity
 67
     1
  8
1
  6
Continuous
 62
     7
100
AcDbLine
 10
6.596283
 20
2.159882
 30
0.0
 11
0.3125
 21
2.159882
 31
0.0
  0
LINE
  5
183
100
AcDbEntity
 67
     1
  8
1
  6
Continuous
 62
     7
100
AcDbLine
 10
9.981743
 20
5.339317
 30
0.0
 11
9.950038
 21
5.254141
 31
0.0
  0
LINE
  5
184
100
AcDbEntity
 67
     1
  8
1
  6
Continuous
 62
     7
100
AcDbLine
 10
1.74527
 20
0.3125
 30
0.0
 11
1.74527
 21
2.159882
 31
0.0
  0
LINE
  5
185
100
AcDbEntity
 67
     1
  8
1
  6
Continuous
 62
     7
100
AcDbLine
 10
2.157696
 20
4.263496
 30
0.0
 11
2.157696
 21
4.477496
 31
0.0
  0
LINE
  5
186
100
AcDbEntity
 67
     1
  8
1
  6
Continuous
 62
     7
100
AcDbLine
 10
8.851308
 20
3.790375
 30
0.0
 11
9.920995
 21
3.790375
 31
0.0
  0
LINE
  5
187
100
AcDbEntity
 67
     1
  8
1
  6
Continuous
 62
     7
100
AcDbLine
 10
9.976301
 20
4.52743
 30
0.0
 11
10.024116
 21
4.452429
 31
0.0
  0
LINE
  5
188
100
AcDbEntity
 67
     1
  8
1
  6
Continuous
 62
     7
100
AcDbLine
 10
6.757895
 20
4.120715
 30
0.0
 11
6.715748
 21
4.218346
 31
0.0
  0
LINE
  5
189
100
AcDbEntity
 67
     1
  8
1
  6
Continuous
 62
     7
100
AcDbLine
 10
1.282696
 20
3.93102
 30
0.0
 11
1.336788
 21
3.93102
 31
0.0
  0
LINE
  5
18A
100
AcDbEntity
 67
     1
  8
1
  6
Continuous
 62
     7
100
AcDbLine
 10
3.823762
 20
6.625496
 30
0.0
 11
3.823762
 21
6.628425
 31
0.0
  0
LINE
  5
18B
100
AcDbEntity
 67
     1
  8
1
  6
Continuous
 62
     7
100
AcDbLine
 10
2.614708
 20
6.662496
 30
0.0
 11
2.614708
 21
6.724051
 31
0.0
  0
LINE
  5
18C
100
AcDbEntity
 67
     1
  8
1
  6
Continuous
 62
     7
100
AcDbLine
 10
1.282696
 20
3.943019
 30
0.0
 11
1.292003
 21
3.943019
 31
0.0
  0
LINE
  5
18D
100
AcDbEntity
 67
     1
  8
1
  6
Continuous
 62
     7
100
AcDbLine
 10
2.622708
 20
4.358496
 30
0.0
 11
2.622708
 21
4.267085
 31
0.0
  0
LINE
  5
18E
100
AcDbEntity
 67
     1
  8
1
  6
Continuous
 62
     7
100
AcDbLine
 10
6.77993
 20
4.130228
 30
0.0
 11
6.773283
 21
4.145625
 31
0.0
  0
LINE
  5
18F
100
AcDbEntity
 67
     1
  8
1
  6
Continuous
 62
     7
100
AcDbLine
 10
1.466697
 20
4.304496
 30
0.0
 11
1.466697
 21
4.398496
 31
0.0
  0
LINE
  5
190
100
AcDbEntity
 67
     1
  8
1
  6
Continuous
 62
     7
100
AcDbLine
 10
1.947196
 20
5.902457
 30
0.0
 11
1.930426
 21
5.902457
 31
0.0
  0
LINE
  5
191
100
AcDbEntity
 67
     1
  8
1
  6
Continuous
 62
     7
100
AcDbLine
 10
1.947196
 20
5.946457
 30
0.0
 11
1.878177
 21
5.946457
 31
0.0
  0
LINE
  5
192
100
AcDbEntity
 67
     1
  8
1
  6
Continuous
 62
     7
100
AcDbLine
 10
1.947196
 20
5.904457
 30
0.0
 11
1.922962
 21
5.904457
 31
0.0
  0
LINE
  5
193
100
AcDbEntity
 67
     1
  8
1
  6
Continuous
 62
     7
100
AcDbLine
 10
2.658708
 20
4.358496
 30
0.0
 11
2.658708
 21
4.334261
 31
0.0
  0
LINE
  5
194
100
AcDbEntity
 67
     1
  8
1
  6
Continuous
 62
     7
100
AcDbLine
 10
2.644708
 20
4.358496
 30
0.0
 11
2.644708
 21
4.282013
 31
0.0
  0
LINE
  5
195
100
AcDbEntity
 67
     1
  8
1
  6
Continuous
 62
     7
100
AcDbLine
 10
10.196259
 20
6.340193
 30
0.0
 11
10.216896
 21
6.261714
 31
0.0
  0
LINE
  5
196
100
AcDbEntity
 67
     1
  8
1
  6
Continuous
 62
     7
100
AcDbLine
 10
2.624708
 20
6.662496
 30
0.0
 11
2.624708
 21
6.761372
 31
0.0
  0
LINE
  5
197
100
AcDbEntity
 67
     1
  8
1
  6
Continuous
 62
     7
100
AcDbLine
 10
7.121745
 20
3.844375
 30
0.0
 11
6.871745
 21
3.844375
 31
0.0
  0
LINE
  5
198
100
AcDbEntity
 67
     1
  8
1
  6
Continuous
 62
     7
100
AcDbLine
 10
1.947196
 20
5.908457
 30
0.0
 11
1.908034
 21
5.908457
 31
0.0
  0
LINE
  5
199
100
AcDbEntity
 67
     1
  8
1
  6
Continuous
 62
     7
100
AcDbLine
 10
2.902083
 20
5.336121
 30
0.0
 11
2.902083
 21
5.504871
 31
0.0
  0
LINE
  5
19A
100
AcDbEntity
 67
     1
  8
1
  6
Continuous
 62
     7
100
AcDbLine
 10
1.618196
 20
5.942457
 30
0.0
 11
1.702144
 21
5.942457
 31
0.0
  0
LINE
  5
19B
100
AcDbEntity
 67
     1
  8
1
  6
Continuous
 62
     7
100
AcDbLine
 10
2.600708
 20
4.358496
 30
0.0
 11
2.600708
 21
4.34919
 31
0.0
  0
LINE
  5
19C
100
AcDbEntity
 67
     1
  8
1
  6
Continuous
 62
     7
100
AcDbLine
 10
1.822196
 20
6.457496
 30
0.0
 11
1.812696
 21
6.457496
 31
0.0
  0
LINE
  5
19D
100
AcDbEntity
 67
     1
  8
1
  6
Continuous
 62
     7
100
AcDbLine
 10
2.282696
 20
3.935019
 30
0.0
 11
2.243534
 21
3.935019
 31
0.0
  0
LINE
  5
19E
100
AcDbEntity
 67
     1
  8
1
  6
Continuous
 62
     7
100
AcDbLine
 10
1.618196
 20
5.962457
 30
0.0
 11
1.627503
 21
5.962457
 31
0.0
  0
LINE
  5
19F
100
AcDbEntity
 67
     1
  8
1
  6
Continuous
 62
     7
100
AcDbLine
 10
2.658708
 20
6.662496
 30
0.0
 11
2.658708
 21
6.686731
 31
0.0
  0
LINE
  5
1A0
100
AcDbEntity
 67
     1
  8
1
  6
Continuous
 62
     7
100
AcDbLine
 10
1.618196
 20
5.964951
 30
0.0
 11
1.618196
 21
5.897963
 31
0.0
  0
LINE
  5
1A1
100
AcDbEntity
 67
     1
  8
1
  6
Continuous
 62
     7
100
AcDbLine
 10
2.646708
 20
4.358496
 30
0.0
 11
2.646708
 21
4.289477
 31
0.0
  0
LINE
  5
1A2
100
AcDbEntity
 67
     1
  8
1
  6
Continuous
 62
     7
100
AcDbLine
 10
1.618196
 20
5.930457
 30
0.0
 11
1.739464
 21
5.930457
 31
0.0
  0
LINE
  5
1A3
100
AcDbEntity
 67
     1
  8
1
  6
Continuous
 62
     7
100
AcDbLine
 10
3.823762
 20
4.512496
 30
0.0
 11
3.823762
 21
4.498354
 31
0.0
  0
LINE
  5
1A4
100
AcDbEntity
 67
     1
  8
1
  6
Continuous
 62
     7
100
AcDbLine
 10
6.703762
 20
4.233496
 30
0.0
 11
6.871745
 21
3.844375
 31
0.0
  0
LINE
  5
1A5
100
AcDbEntity
 67
     1
  8
1
  6
Continuous
 62
     7
100
AcDbLine
 10
1.282696
 20
3.92702
 30
0.0
 11
1.351716
 21
3.92702
 31
0.0
  0
LINE
  5
1A6
100
AcDbEntity
 67
     1
  8
1
  6
Continuous
 62
     7
100
AcDbLine
 10
2.382696
 20
3.912019
 30
0.0
 11
2.157696
 21
3.912019
 31
0.0
  0
LINE
  5
1A7
100
AcDbEntity
 67
     1
  8
1
  6
Continuous
 62
     7
100
AcDbLine
 10
2.618708
 20
4.358496
 30
0.0
 11
2.618708
 21
4.282013
 31
0.0
  0
LINE
  5
1A8
100
AcDbEntity
 67
     1
  8
1
  6
Continuous
 62
     7
100
AcDbLine
 10
3.823762
 20
4.512496
 30
0.0
 11
3.823762
 21
6.457496
 31
0.0
  0
LINE
  5
1A9
100
AcDbEntity
 67
     1
  8
1
  6
Continuous
 62
     7
100
AcDbLine
 10
6.596283
 20
1.100058
 30
0.0
 11
10.760845
 21
1.100058
 31
0.0
  0
LINE
  5
1AA
100
AcDbEntity
 67
     1
  8
1
  6
Continuous
 62
     7
100
AcDbLine
 10
2.616708
 20
4.358496
 30
0.0
 11
2.616708
 21
4.289477
 31
0.0
  0
LINE
  5
1AB
100
AcDbEntity
 67
     1
  8
1
  6
Continuous
 62
     7
100
AcDbLine
 10
2.616708
 20
6.662496
 30
0.0
 11
2.616708
 21
6.731515
 31
0.0
  0
LINE
  5
1AC
100
AcDbEntity
 67
     1
  8
1
  6
Continuous
 62
     7
100
AcDbLine
 10
1.743196
 20
5.931457
 30
0.0
 11
1.539446
 21
5.931457
 31
0.0
  0
LINE
  5
1AD
100
AcDbEntity
 67
     1
  8
1
  6
Continuous
 62
     7
100
AcDbLine
 10
1.618196
 20
5.897963
 30
0.0
 11
1.743196
 21
5.931457
 31
0.0
  0
LINE
  5
1AE
100
AcDbEntity
 67
     1
  8
1
  6
Continuous
 62
     7
100
AcDbLine
 10
2.644708
 20
6.662496
 30
0.0
 11
2.644708
 21
6.738979
 31
0.0
  0
LINE
  5
1AF
100
AcDbEntity
 67
     1
  8
1
  6
Continuous
 62
     7
100
AcDbLine
 10
6.72668
 20
4.107239
 30
0.0
 11
6.720033
 21
4.122636
 31
0.0
  0
LINE
  5
1B0
100
AcDbEntity
 67
     1
  8
1
  6
Continuous
 62
     7
100
AcDbLine
 10
1.282696
 20
3.879019
 30
0.0
 11
1.284539
 21
3.879019
 31
0.0
  0
LINE
  5
1B1
100
AcDbEntity
 67
     1
  8
1
  6
Continuous
 62
     7
100
AcDbLine
 10
1.947196
 20
5.954457
 30
0.0
 11
1.908034
 21
5.954457
 31
0.0
  0
LINE
  5
1B2
100
AcDbEntity
 67
     1
  8
1
  6
Continuous
 62
     7
100
AcDbLine
 10
10.023119
 20
6.642516
 30
0.0
 11
10.07913
 21
6.568563
 31
0.0
  0
LINE
  5
1B3
100
AcDbEntity
 67
     1
  8
1
  6
Continuous
 62
     7
100
AcDbLine
 10
3.823762
 20
4.263496
 30
0.0
 11
3.823762
 21
4.248497
 31
0.0
  0
LINE
  5
1B4
100
AcDbEntity
 67
     1
  8
1
  6
Continuous
 62
     7
100
AcDbLine
 10
1.282696
 20
3.89502
 30
0.0
 11
1.344252
 21
3.89502
 31
0.0
  0
LINE
  5
1B5
100
AcDbEntity
 67
     1
  8
1
  6
Continuous
 62
     7
100
AcDbLine
 10
2.634708
 20
4.358496
 30
0.0
 11
2.634708
 21
4.244692
 31
0.0
  0
LINE
  5
1B6
100
AcDbEntity
 67
     1
  8
1
  6
Continuous
 62
     7
100
AcDbLine
 10
1.947196
 20
5.948457
 30
0.0
 11
1.885641
 21
5.948457
 31
0.0
  0
LINE
  5
1B7
100
AcDbEntity
 67
     1
  8
1
  6
Continuous
 62
     7
100
AcDbLine
 10
1.282696
 20
3.945019
 30
0.0
 11
1.284539
 21
3.945019
 31
0.0
  0
LINE
  5
1B8
100
AcDbEntity
 67
     1
  8
1
  6
Continuous
 62
     7
100
AcDbLine
 10
2.630708
 20
4.358496
 30
0.0
 11
2.630708
 21
4.237228
 31
0.0
  0
LINE
  5
1B9
100
AcDbEntity
 67
     1
  8
1
  6
Continuous
 62
     7
100
AcDbLine
 10
2.598708
 20
4.358496
 30
0.0
 11
2.598708
 21
4.356654
 31
0.0
  0
LINE
  5
1BA
100
AcDbEntity
 67
     1
  8
1
  6
Continuous
 62
     7
100
AcDbLine
 10
1.282696
 20
3.929019
 30
0.0
 11
1.344252
 21
3.929019
 31
0.0
  0
LINE
  5
1BB
100
AcDbEntity
 67
     1
  8
1
  6
Continuous
 62
     7
100
AcDbLine
 10
2.013696
 20
3.77702
 30
0.0
 11
1.968696
 21
3.77702
 31
0.0
  0
LINE
  5
1BC
100
AcDbEntity
 67
     1
  8
1
  6
Continuous
 62
     7
100
AcDbLine
 10
1.491696
 20
4.304496
 30
0.0
 11
1.466697
 21
4.304496
 31
0.0
  0
LINE
  5
1BD
100
AcDbEntity
 67
     1
  8
1
  6
Continuous
 62
     7
100
AcDbLine
 10
2.282696
 20
3.89102
 30
0.0
 11
2.23607
 21
3.89102
 31
0.0
  0
LINE
  5
1BE
100
AcDbEntity
 67
     1
  8
1
  6
Continuous
 62
     7
100
AcDbLine
 10
9.959343
 20
6.715476
 30
0.0
 11
10.023119
 21
6.642516
 31
0.0
  0
LINE
  5
1BF
100
AcDbEntity
 67
     1
  8
1
  6
Continuous
 62
     7
100
AcDbLine
 10
10.358371
 20
0.847101
 30
0.0
 11
10.358371
 21
0.3125
 31
0.0
  0
LINE
  5
1C0
100
AcDbEntity
 67
     1
  8
1
  6
Continuous
 62
     7
100
AcDbLine
 10
3.823762
 20
6.457496
 30
0.0
 11
10.146677
 21
6.457496
 31
0.0
  0
LINE
  5
1C1
100
AcDbEntity
 67
     1
  8
1
  6
Continuous
 62
     7
100
AcDbLine
 10
2.598708
 20
4.358496
 30
0.0
 11
2.598708
 21
4.356654
 31
0.0
  0
LINE
  5
1C2
100
AcDbEntity
 67
     1
  8
1
  6
Continuous
 62
     7
100
AcDbLine
 10
6.724844
 20
4.106447
 30
0.0
 11
6.721155
 21
4.114991
 31
0.0
  0
LINE
  5
1C3
100
AcDbEntity
 67
     1
  8
1
  6
Continuous
 62
     7
100
AcDbLine
 10
3.823762
 20
6.635496
 30
0.0
 11
3.823762
 21
6.652887
 31
0.0
  0
LINE
  5
1C4
100
AcDbEntity
 67
     1
  8
1
  6
Continuous
 62
     7
100
AcDbLine
 10
1.822196
 20
4.512496
 30
0.0
 11
1.822196
 21
6.457496
 31
0.0
  0
LINE
  5
1C5
100
AcDbEntity
 67
     1
  8
1
  6
Continuous
 62
     7
100
AcDbLine
 10
3.823762
 20
4.263496
 30
0.0
 11
3.823762
 21
4.477496
 31
0.0
  0
LINE
  5
1C6
100
AcDbEntity
 67
     1
  8
1
  6
Continuous
 62
     7
100
AcDbLine
 10
1.947196
 20
5.918457
 30
0.0
 11
1.870713
 21
5.918457
 31
0.0
  0
LINE
  5
1C7
100
AcDbEntity
 67
     1
  8
1
  6
Continuous
 62
     7
100
AcDbLine
 10
6.756059
 20
4.119923
 30
0.0
 11
6.710954
 21
4.224406
 31
0.0
  0
LINE
  5
1C8
100
AcDbEntity
 67
     1
  8
1
  6
Continuous
 62
     7
100
AcDbLine
 10
2.628708
 20
4.358496
 30
0.0
 11
2.628708
 21
4.244692
 31
0.0
  0
LINE
  5
1C9
100
AcDbEntity
 67
     1
  8
1
  6
Continuous
 62
     7
100
AcDbLine
 10
2.157696
 20
3.912019
 30
0.0
 11
2.282696
 21
3.878526
 31
0.0
  0
LINE
  5
1CA
100
AcDbEntity
 67
     1
  8
1
  6
Continuous
 62
     7
100
AcDbLine
 10
6.722554
 20
4.105458
 30
0.0
 11
6.784056
 21
4.132009
 31
0.0
  0
LINE
  5
1CB
100
AcDbEntity
 67
     1
  8
1
  6
Continuous
 62
     7
100
AcDbLine
 10
2.631708
 20
4.233496
 30
0.0
 11
2.665202
 21
4.358496
 31
0.0
  0
LINE
  5
1CC
100
AcDbEntity
 67
     1
  8
1
  6
Continuous
 62
     7
100
AcDbLine
 10
1.947196
 20
5.898457
 30
0.0
 11
1.945354
 21
5.898457
 31
0.0
  0
LINE
  5
1CD
100
AcDbEntity
 67
     1
  8
1
  6
Continuous
 62
     7
100
AcDbLine
 10
0.3125
 20
0.847101
 30
0.0
 11
6.596283
 21
0.847101
 31
0.0
  0
LINE
  5
1CE
100
AcDbEntity
 67
     1
  8
1
  6
Continuous
 62
     7
100
AcDbLine
 10
1.947196
 20
5.928457
 30
0.0
 11
1.833393
 21
5.928457
 31
0.0
  0
LINE
  5
1CF
100
AcDbEntity
 67
     1
  8
1
  6
Continuous
 62
     7
100
AcDbLine
 10
2.282696
 20
3.90502
 30
0.0
 11
2.183821
 21
3.90502
 31
0.0
  0
LINE
  5
1D0
100
AcDbEntity
 67
     1
  8
1
  6
Continuous
 62
     7
100
AcDbLine
 10
2.013696
 20
3.608269
 30
0.0
 11
2.013696
 21
3.77702
 31
0.0
  0
LINE
  5
1D1
100
AcDbEntity
 67
     1
  8
1
  6
Continuous
 62
     7
100
AcDbLine
 10
2.282696
 20
3.893019
 30
0.0
 11
2.228606
 21
3.893019
 31
0.0
  0
LINE
  5
1D2
100
AcDbEntity
 67
     1
  8
1
  6
Continuous
 62
     7
100
AcDbLine
 10
2.624708
 20
4.358496
 30
0.0
 11
2.624708
 21
4.259621
 31
0.0
  0
LINE
  5
1D3
100
AcDbEntity
 67
     1
  8
1
  6
Continuous
 62
     7
100
AcDbLine
 10
3.823762
 20
4.248497
 30
0.0
 11
3.823762
 21
4.237515
 31
0.0
  0
ARC
  5
1D4
100
AcDbEntity
 67
     1
  8
1
  6
Continuous
 62
     7
100
AcDbCircle
 10
2.083697
 20
4.398496
 30
0.0
 40
0.015
100
AcDbArc
 50
0.0
 51
90.0
  0
ARC
  5
1D5
100
AcDbEntity
 67
     1
  8
1
  6
Continuous
 62
     7
100
AcDbCircle
 10
1.491696
 20
4.294496
 30
0.0
 40
0.01
100
AcDbArc
 50
0.0
 51
90.0
  0
ARC
  5
1D6
100
AcDbEntity
 67
     1
  8
1
  6
Continuous
 62
     7
100
AcDbCircle
 10
1.437696
 20
4.263496
 30
0.0
 40
0.03
100
AcDbArc
 50
180.0
 51
312.992964
  0
ARC
  5
1D7
100
AcDbEntity
 67
     1
  8
1
  6
Continuous
 62
     7
100
AcDbCircle
 10
2.073697
 20
4.294496
 30
0.0
 40
0.01
100
AcDbArc
 50
90.0
 51
180.0
  0
ARC
  5
1D8
100
AcDbEntity
 67
     1
  8
1
  6
Continuous
 62
     7
100
AcDbCircle
 10
1.491696
 20
4.286496
 30
0.0
 40
0.01
100
AcDbArc
 50
312.992962
 51
360.0
  0
ARC
  5
1D9
100
AcDbEntity
 67
     1
  8
1
  6
Continuous
 62
     7
100
AcDbCircle
 10
1.742697
 20
6.615496
 30
0.0
 40
0.01
100
AcDbArc
 50
0.0
 51
90.0
  0
ARC
  5
1DA
100
AcDbEntity
 67
     1
  8
1
  6
Continuous
 62
     7
100
AcDbCircle
 10
2.142697
 20
4.477496
 30
0.0
 40
0.015
100
AcDbArc
 50
0.0
 51
90.0
  0
ARC
  5
1DB
100
AcDbEntity
 67
     1
  8
1
  6
Continuous
 62
     7
100
AcDbCircle
 10
2.127697
 20
4.263496
 30
0.0
 40
0.03
100
AcDbArc
 50
227.007036
 51
360.0
  0
ARC
  5
1DC
100
AcDbEntity
 67
     1
  8
1
  6
Continuous
 62
     7
100
AcDbCircle
 10
1.481696
 20
4.398496
 30
0.0
 40
0.015
100
AcDbArc
 50
90.0
 51
180.0
  0
ARC
  5
1DD
100
AcDbEntity
 67
     1
  8
1
  6
Continuous
 62
     7
100
AcDbCircle
 10
1.422696
 20
4.477496
 30
0.0
 40
0.015
100
AcDbArc
 50
90.0
 51
180.0
  0
ARC
  5
1DE
100
AcDbEntity
 67
     1
  8
1
  6
Continuous
 62
     7
100
AcDbCircle
 10
1.842697
 20
6.635496
 30
0.0
 40
0.01
100
AcDbArc
 50
270.0
 51
360.0
  0
ARC
  5
1DF
100
AcDbEntity
 67
     1
  8
1
  6
Continuous
 62
     7
100
AcDbCircle
 10
1.782696
 20
6.757496
 30
0.0
 40
0.03
100
AcDbArc
 50
20.0
 51
160.0
  0
ARC
  5
1E0
100
AcDbEntity
 67
     1
  8
1
  6
Continuous
 62
     7
100
AcDbCircle
 10
1.822696
 20
6.615496
 30
0.0
 40
0.01
100
AcDbArc
 50
90.0
 51
180.0
  0
ARC
  5
1E1
100
AcDbEntity
 67
     1
  8
1
  6
Continuous
 62
     7
100
AcDbCircle
 10
1.722697
 20
6.635496
 30
0.0
 40
0.01
100
AcDbArc
 50
180.0
 51
270.0
  0
ARC
  5
1E2
100
AcDbEntity
 67
     1
  8
1
  6
Continuous
 62
     7
100
AcDbCircle
 10
1.842196
 20
4.512496
 30
0.0
 40
0.02
100
AcDbArc
 50
180.0
 51
270.0
  0
ARC
  5
1E3
100
AcDbEntity
 67
     1
  8
1
  6
Continuous
 62
     7
100
AcDbCircle
 10
1.723197
 20
4.512496
 30
0.0
 40
0.02
100
AcDbArc
 50
270.0
 51
360.0
  0
ARC
  5
1E4
100
AcDbEntity
 67
     1
  8
1
  6
Continuous
 62
     7
100
AcDbCircle
 10
2.073697
 20
4.286496
 30
0.0
 40
0.01
100
AcDbArc
 50
180.0
 51
227.007038
  0
MTEXT
  5
1E5
100
AcDbEntity
 67
     1
  8
1
  6
Continuous
 62
     7
100
AcDbMText
 10
9.244827
 20
0.742141
 30
0.0
 40
0.0375
 41
0.0
 71
     7
 72
     5
  1
\W01.000;DRAWING NO.
  7
blockfont
210
0.0
220
0.0
230
1.0
 73
     2
 44
0.903614
  0
MTEXT
  5
1E7
100
AcDbEntity
 67
     1
  8
1
  6
Continuous
 62
     7
100
AcDbMText
 10
1.006134
 20
5.63802
 30
0.0
 40
0.09
 41
0.0
 71
     7
 72
     5
  1
\W01.000;2.0
  7
blockfont
210
0.0
220
0.0
230
1.0
 73
     2
 44
0.903614
  0
MTEXT
  5
1E8
100
AcDbEntity
 67
     1
  8
1
  6
Continuous
 62
     7
100
AcDbMText
 10
1.180742
 20
2.275277
 30
0.0
 40
0.18
 41
0.0
 71
     7
 72
     5
  1
\W01.000;**
  7
blockfont
210
0.0
220
0.0
230
1.0
 73
     2
 44
0.903614
  0
MTEXT
  5
1E9
100
AcDbEntity
 67
     1
  8
1
  6
Continuous
 62
     7
100
AcDbMText
 10
9.69022
 20
0.859785
 30
0.0
 40
0.125
 41
0.0
 71
     7
 72
     5
  1
\W01.000;FULL
  7
blockfont
210
0.0
220
0.0
230
1.0
 73
     2
 44
0.903614
  0
MTEXT
  5
1EA
100
AcDbEntity
 67
     1
  8
1
  6
Continuous
 62
     7
100
AcDbMText
 10
0.494305
 20
2.844339
 30
0.0
 40
0.09
 41
0.0
 71
     7
 72
     5
  1
\W01.000;1. ALL DIMENSIONS ARE REFERENCE ONLY.
  7
blockfont
210
0.0
220
0.0
230
1.0
 73
     2
 44
0.903614
  0
MTEXT
  5
1EB
100
AcDbEntity
 67
     1
  8
1
  6
Continuous
 62
     7
100
AcDbMText
 10
9.216783
 20
0.475358
 30
0.0
 40
0.1
 41
0.0
 71
     7
 72
     5
  1
\W01.000;36897-1067
  7
blockfont
210
0.0
220
0.0
230
1.0
 73
     2
 44
0.903614
  0
MTEXT
  5
1EC
100
AcDbEntity
 67
     1
  8
1
  6
Continuous
 62
     7
100
AcDbMText
 10
7.678958
 20
0.484876
 30
0.0
 40
0.09
 41
0.0
 71
     7
 72
     5
  1
\W01.000;MODIFIED PPO
  7
blockfont
210
0.0
220
0.0
230
1.0
 73
     2
 44
0.903614
  0
MTEXT
  5
1ED
100
AcDbEntity
 67
     1
  8
1
  6
Continuous
 62
     7
100
AcDbMText
 10
0.729056
 20
0.662094
 30
0.0
 40
0.05
 41
0.0
 71
     7
 72
     5
  1
\W01.000;8-10-05
  7
blockfont
210
0.0
220
0.0
230
1.0
 73
     2
 44
0.903614
  0
MTEXT
  5
1EE
100
AcDbEntity
 67
     1
  8
1
  6
Continuous
 62
     7
100
AcDbMText
 10
2.504458
 20
5.346434
 30
0.0
 40
0.09
 41
0.0
 71
     7
 72
     5
  1
\W01.000;64.9
  7
blockfont
210
0.0
220
0.0
230
1.0
 73
     2
 44
0.903614
  0
MTEXT
  5
1EF
100
AcDbEntity
 67
     1
  8
1
  6
Continuous
 62
     7
100
AcDbMText
 10
7.839646
 20
1.139256
 30
0.0
 40
0.09
 41
0.0
 71
     7
 72
     5
  1
\W01.000;MARKETING DRAWING
  7
blockfont
210
0.0
220
0.0
230
1.0
 73
     2
 44
0.903614
  0
MTEXT
  5
1F0
100
AcDbEntity
 67
     1
  8
1
  6
Continuous
 62
     7
100
AcDbMText
 10
6.704305
 20
1.438641
 30
0.0
 40
0.105
 41
0.0
 71
     7
 72
     5
  1
\W01.000;WIRING DUCT - TYPE NNC DIVIDER WALL
  7
blockfont
210
0.0
220
0.0
230
1.0
 73
     2
 44
0.903614
  0
MTEXT
  5
1F1
100
AcDbEntity
 67
     1
  8
1
  6
Continuous
 62
     7
100
AcDbMText
 10
6.782545
 20
0.352487
 30
0.0
 40
0.072
 41
0.0
 71
     7
 72
     5
  1
\W01.000;MKBE
  7
blockfont
210
0.0
220
0.0
230
1.0
 73
     2
 44
0.903614
  0
MTEXT
  5
1F2
100
AcDbEntity
 67
     1
  8
1
  6
Continuous
 62
     7
100
AcDbMText
 10
0.494305
 20
2.574339
 30
0.0
 40
0.09
 41
0.0
 71
     7
 72
     5
  1
\W01.000;2. DIMENSIONS IN PARENTHESES ARE METRIC.
  7
blockfont
210
0.0
220
0.0
230
1.0
 73
     2
 44
0.903614
  0
MTEXT
  5
1F3
100
AcDbEntity
 67
     1
  8
1
  6
Continuous
 62
     7
100
AcDbMText
 10
7.43784
 20
0.940784
 30
0.0
 40
0.06
 41
0.0
 71
     7
 72
     5
  1
\W01.000;MAT'L;
  7
blockfont
210
0.0
220
0.0
230
1.0
 73
     2
 44
0.903614
  0
MTEXT
  5
1F4
100
AcDbEntity
 67
     1
  8
1
  6
Continuous
 62
     7
100
AcDbMText
 10
7.678958
 20
0.619876
 30
0.0
 40
0.09
 41
0.0
 71
     7
 72
     5
  1
\W01.000;HALOGEN FREE
  7
blockfont
210
0.0
220
0.0
230
1.0
 73
     2
 44
0.903614
  0
MTEXT
  5
1F5
100
AcDbEntity
 67
     1
  8
1
  6
Continuous
 62
     7
100
AcDbMText
 10
3.785247
 20
0.37648
 30
0.0
 40
0.06
 41
0.0
 71
     7
 72
     5
  1
\W01.000;DESCRIPTION
  7
blockfont
210
0.0
220
0.0
230
1.0
 73
     2
 44
0.903614
  0
MTEXT
  5
1F6
100
AcDbEntity
 67
     1
  8
1
  6
Continuous
 62
     7
100
AcDbMText
 10
1.467956
 20
0.64399
 30
0.0
 40
0.072
 41
0.0
 71
     7
 72
     5
  1
\W01.000;MKBE
  7
blockfont
210
0.0
220
0.0
230
1.0
 73
     2
 44
0.903614
  0
MTEXT
  5
1F7
100
AcDbEntity
 67
     1
  8
1
  6
Continuous
 62
     7
100
AcDbMText
 10
0.481608
 20
0.64399
 30
0.0
 40
0.072
 41
0.0
 71
     7
 72
     5
  1
\W01.000;R
  7
blockfont
210
0.0
220
0.0
230
1.0
 73
     2
 44
0.903614
  0
MTEXT
  5
1F8
100
AcDbEntity
 67
     1
  8
1
  6
Continuous
 62
     7
100
AcDbMText
 10
10.496331
 20
0.448595
 30
0.0
 40
0.15
 41
0.0
 71
     7
 72
     5
  1
\W01.000;A
  7
blockfont
210
0.0
220
0.0
230
1.0
 73
     2
 44
0.903614
  0
MTEXT
  5
1F9
100
AcDbEntity
 67
     1
  8
1
  6
Continuous
 62
     7
100
AcDbMText
 10
9.245684
 20
0.987138
 30
0.0
 40
0.0375
 41
0.0
 71
     7
 72
     5
  1
\W01.000;SCALE
  7
blockfont
210
0.0
220
0.0
230
1.0
 73
     2
 44
0.903614
  0
MTEXT
  5
1FA
100
AcDbEntity
 67
     1
  8
1
  6
Continuous
 62
     7
100
AcDbMText
 10
6.664063
 20
0.498378
 30
0.0
 40
0.0375
 41
0.0
 71
     7
 72
     5
  1
\W01.000;CHK'D
  7
blockfont
210
0.0
220
0.0
230
1.0
 73
     2
 44
0.903614
  0
MTEXT
  5
1FB
100
AcDbEntity
 67
     1
  8
1
  6
Continuous
 62
     7
100
AcDbMText
 10
0.788473
 20
0.375312
 30
0.0
 40
0.06
 41
0.0
 71
     7
 72
     5
  1
\W01.000;DATE
  7
blockfont
210
0.0
220
0.0
230
1.0
 73
     2
 44
0.903614
  0
MTEXT
  5
1FC
100
AcDbEntity
 67
     1
  8
1
  6
Continuous
 62
     7
100
AcDbMText
 10
2.465083
 20
5.565809
 30
0.0
 40
0.09
 41
0.0
 71
     7
 72
     5
  1
\W01.000;2.55
  7
blockfont
210
0.0
220
0.0
230
1.0
 73
     2
 44
0.903614
  0
MTEXT
  5
1FD
100
AcDbEntity
 67
     1
  8
1
  6
Continuous
 62
     7
100
AcDbMText
 10
6.71487
 20
0.6084
 30
0.0
 40
0.072
 41
0.0
 71
     7
 72
     5
  1
\W01.000;8-10-05
  7
blockfont
210
0.0
220
0.0
230
1.0
 73
     2
 44
0.903614
  0
MTEXT
  5
1FE
100
AcDbEntity
 67
     1
  8
1
  6
Continuous
 62
     7
100
AcDbMText
 10
0.494305
 20
2.304339
 30
0.0
 40
0.09
 41
0.0
 71
     7
 72
     5
  1
\W01.000;3. THE 
  7
blockfont
210
0.0
220
0.0
230
1.0
 73
     2
 44
0.903614
  0
MTEXT
  5
1FF
100
AcDbEntity
 67
     1
  8
1
  6
Continuous
 62
     7
100
AcDbMText
 10
0.41999
 20
0.375312
 30
0.0
 40
0.06
 41
0.0
 71
     7
 72
     5
  1
\W01.000;REV
  7
blockfont
210
0.0
220
0.0
230
1.0
 73
     2
 44
0.903614
  0
MTEXT
  5
200
100
AcDbEntity
 67
     1
  8
1
  6
Continuous
 62
     7
100
AcDbMText
 10
10.512166
 20
0.709952
 30
0.0
 40
0.0375
 41
0.0
 71
     7
 72
     5
  1
\W01.000;DWG
  7
blockfont
210
0.0
220
0.0
230
1.0
 73
     2
 44
0.903614
  0
MTEXT
  5
201
100
AcDbEntity
 67
     1
  8
1
  6
Continuous
 62
     7
100
AcDbMText
 10
7.209245
 20
3.635312
 30
0.0
 40
0.09
 41
0.0
 71
     7
 72
     5
  1
\W01.000;                  NNC75D**2
  7
blockfont
210
0.0
220
0.0
230
1.0
 73
     2
 44
0.903614
  0
MTEXT
  5
202
100
AcDbEntity
 67
     1
  8
1
  6
Continuous
 62
     7
100
AcDbMText
 10
1.163933
 20
0.64399
 30
0.0
 40
0.072
 41
0.0
 71
     7
 72
     5
  1
\W01.000;JCST
  7
blockfont
210
0.0
220
0.0
230
1.0
 73
     2
 44
0.903614
  0
MTEXT
  5
203
100
AcDbEntity
 67
     1
  8
1
  6
Continuous
 62
     7
100
AcDbMText
 10
0.966759
 20
5.857394
 30
0.0
 40
0.09
 41
0.0
 71
     7
 72
     5
  1
\W01.000;.08
  7
blockfont
210
0.0
220
0.0
230
1.0
 73
     2
 44
0.903614
  0
MTEXT
  5
204
100
AcDbEntity
 67
     1
  8
1
  6
Continuous
 62
     7
100
AcDbMText
 10
1.616071
 20
3.618582
 30
0.0
 40
0.09
 41
0.0
 71
     7
 72
     5
  1
\W01.000;19.0
  7
blockfont
210
0.0
220
0.0
230
1.0
 73
     2
 44
0.903614
  0
MTEXT
  5
205
100
AcDbEntity
 67
     1
  8
1
  6
Continuous
 62
     7
100
AcDbMText
 10
6.659857
 20
0.990671
 30
0.0
 40
0.0375
 41
0.0
 71
     7
 72
     5
  1
\W01.000;DRAWN BY
  7
blockfont
210
0.0
220
0.0
230
1.0
 73
     2
 44
0.903614
  0
MTEXT
  5
206
100
AcDbEntity
 67
     1
  8
1
  6
Continuous
 62
     7
100
AcDbMText
 10
6.957897
 20
1.634684
 30
0.0
 40
0.262
 41
0.0
 71
     7
 72
     5
  1
\W01.000;ANDUIT
  7
blockfont
210
0.0
220
0.0
230
1.0
 73
     2
 44
0.903614
  0
MTEXT
  5
207
100
AcDbEntity
 67
     1
  8
1
  6
Continuous
 62
     7
100
AcDbMText
 10
1.572992
 20
2.304339
 30
0.0
 40
0.09
 41
0.0
 71
     7
 72
     5
  1
\W01.000; DENOTE COLOR.
  7
blockfont
210
0.0
220
0.0
230
1.0
 73
     2
 44
0.903614
  0
MTEXT
  5
208
100
AcDbEntity
 67
     1
  8
1
  6
Continuous
 62
     7
100
AcDbMText
 10
6.662639
 20
0.742111
 30
0.0
 40
0.0375
 41
0.0
 71
     7
 72
     5
  1
\W01.000;DATE
  7
blockfont
210
0.0
220
0.0
230
1.0
 73
     2
 44
0.903614
  0
MTEXT
  5
209
100
AcDbEntity
 67
     1
  8
1
  6
Continuous
 62
     7
100
AcDbMText
 10
0.758331
 20
8.07883
 30
0.0
 40
0.07
 41
0.0
 71
     7
 72
     5
  1
\W01.000;THIS COPY IS PROVIDED ON A RESTRICTED BASIS AND IS NOT TO BE USED IN ANY WAY DETRIMENTAL TO THE INTE
  7
blockfont
210
0.0
220
0.0
230
1.0
 73
     2
 44
0.903614
  0
MTEXT
  5
20A
100
AcDbEntity
 67
     1
  8
1
  6
Continuous
 62
     7
100
AcDbMText
 10
6.710009
 20
1.612193
 30
0.0
 40
0.335
 41
0.0
 71
     7
 72
     5
  1
\W01.000;P
  7
blockfont
210
0.0
220
0.0
230
1.0
 73
     2
 44
0.903614
  0
MTEXT
  5
20B
100
AcDbEntity
 67
     1
  8
1
  6
Continuous
 62
     7
100
AcDbMText
 10
1.576697
 20
3.837957
 30
0.0
 40
0.09
 41
0.0
 71
     7
 72
     5
  1
\W01.000;.75
  7
blockfont
210
0.0
220
0.0
230
1.0
 73
     2
 44
0.903614
  0
MTEXT
  5
20C
100
AcDbEntity
 67
     1
  8
1
  6
Continuous
 62
     7
100
AcDbMText
 10
0.494305
 20
2.979339
 30
0.0
 40
0.09
 41
0.0
 71
     7
 72
     5
  1
\W01.000;NOTE.
  7
blockfont
210
0.0
220
0.0
230
1.0
 73
     2
 44
0.903614
  0
MTEXT
  5
20D
100
AcDbEntity
 67
     1
  8
1
  6
Continuous
 62
     7
100
AcDbMText
 10
9.209145
 20
1.697608
 30
0.0
 40
0.057
 41
0.0
 71
     7
 72
     5
  1
\W01.000;TINLEY PARK, ILLINOIS
  7
blockfont
210
0.0
220
0.0
230
1.0
 73
     2
 44
0.903614
  0
MTEXT
  5
20E
100
AcDbEntity
 67
     1
  8
1
  6
Continuous
 62
     7
100
AcDbMText
 10
1.52902
 20
0.375312
 30
0.0
 40
0.06
 41
0.0
 71
     7
 72
     5
  1
\W01.000;CHK
  7
blockfont
210
0.0
220
0.0
230
1.0
 73
     2
 44
0.903614
  0
MTEXT
  5
20F
100
AcDbEntity
 67
     1
  8
1
  6
Continuous
 62
     7
100
AcDbMText
 10
8.420398
 20
1.281141
 30
0.0
 40
0.105
 41
0.0
 71
     7
 72
     5
  1
\W01.000;75 mm
  7
blockfont
210
0.0
220
0.0
230
1.0
 73
     2
 44
0.903614
  0
MTEXT
  5
210
100
AcDbEntity
 67
     1
  8
1
  6
Continuous
 62
     7
100
AcDbMText
 10
6.649078
 20
2.30873
 30
0.0
 40
0.0375
 41
0.0
 71
     7
 72
     5
  1
\W01.000;CAD FILENAME/LAYERS
  7
blockfont
210
0.0
220
0.0
230
1.0
 73
     2
 44
0.903614
  0
MTEXT
  5
211
100
AcDbEntity
 67
     1
  8
1
  6
Continuous
 62
     7
100
AcDbMText
 10
8.681497
 20
1.691282
 30
0.0
 40
0.075
 41
0.0
 71
     7
 72
     5
  1
\W01.000;CORP.
  7
blockfont
210
0.0
220
0.0
230
1.0
 73
     2
 44
0.903614
  0
MTEXT
  5
212
100
AcDbEntity
 67
     1
  8
1
  6
Continuous
 62
     7
100
AcDbMText
 10
1.250054
 20
0.375312
 30
0.0
 40
0.06
 41
0.0
 71
     7
 72
     5
  1
\W01.000;BY
  7
blockfont
210
0.0
220
0.0
230
1.0
 73
     2
 44
0.903614
  0
MTEXT
  5
213
100
AcDbEntity
 67
     1
  8
1
  6
Continuous
 62
     7
100
AcDbMText
 10
7.209245
 20
3.770312
 30
0.0
 40
0.09
 41
0.0
 71
     7
 72
     5
  1
\W01.000;DIVIDER WALL - - PART NUMBER
  7
blockfont
210
0.0
220
0.0
230
1.0
 73
     2
 44
0.903614
  0
MTEXT
  5
214
100
AcDbEntity
 67
     1
  8
1
  6
Continuous
 62
     7
100
AcDbMText
 10
10.491659
 20
0.368387
 30
0.0
 40
0.0375
 41
0.0
 71
     7
 72
     5
  1
\W01.000;SIZE
  7
blockfont
210
0.0
220
0.0
230
1.0
 73
     2
 44
0.903614
  0
MTEXT
  5
215
100
AcDbEntity
 67
     1
  8
1
  6
Continuous
 62
     7
100
AcDbMText
 10
7.81393
 20
2.178199
 30
0.0
 40
0.09
 41
0.0
 71
     7
 72
     5
  1
\W01.000;NNC75D(36897-1067)_00.prt
  7
blockfont
210
0.0
220
0.0
230
1.0
 73
     2
 44
0.903614
  0
MTEXT
  5
216
100
AcDbEntity
 67
     1
  8
1
  6
Continuous
 62
     7
100
AcDbMText
 10
1.882044
 20
0.642038
 30
0.0
 40
0.072
 41
0.0
 71
     7
 72
     5
  1
\W01.000;DRAWING RELEASED
  7
blockfont
210
0.0
220
0.0
230
1.0
 73
     2
 44
0.903614
  0
MTEXT
  5
217
100
AcDbEntity
 67
     1
  8
1
  6
Continuous
 62
     7
100
AcDbMText
 10
8.402914
 20
8.07883
 30
0.0
 40
0.07
 41
0.0
 71
     7
 72
     5
  1
\W01.000;RESTS OF PANDUIT CORP.
  7
blockfont
210
0.0
220
0.0
230
1.0
 73
     2
 44
0.903614
  0
MTEXT
  5
218
100
AcDbEntity
 67
     1
  8
1
  6
Continuous
 62
     7
100
AcDbMText
 10
6.782545
 20
0.8584
 30
0.0
 40
0.072
 41
0.0
 71
     7
 72
     5
  1
\W01.000;JCST
  7
blockfont
210
0.0
220
0.0
230
1.0
 73
     2
 44
0.903614
  0
ENDSEC
  0
SECTION
  2
OBJECTS
  0
DICTIONARY
  5
19
100
AcDbDictionary
280
     0
281
     1
  3
ACAD_GROUP
350
1A
  3
ACAD_MLINESTYLE
350
1B
  3
ACAD_LAYOUT
350
1E
  3
ACAD_PLOTSETTINGS
350
21
  3
ACAD_PLOTSTYLENAME
350
1F
  0
DICTIONARY
  5
1A
102
{ACAD_REACTORS
330
19
102
}
100
AcDbDictionary
280
     0
281
     1
  0
DICTIONARY
  5
1B
102
{ACAD_REACTORS
330
19
102
}
100
AcDbDictionary
280
     0
281
     1
  3
Standard
350
1C
  0
MLINESTYLE
  5
1C
102
{ACAD_REACTORS
330
1B
102
}
100
AcDbMlineStyle
  2
Standard
 70
     0
  3

 62
     0
 51
90.0
 52
90.0
 71
     2
 49
0.5
 62
   256
  6
BYLAYER
 49
-0.5
 62
   256
  6
BYLAYER
  0
ACDBDICTIONARYWDFLT
  5
1F
102
{ACAD_REACTORS
330
19
102
}
100
AcDbDictionary
281
     1
  3
Normal
350
1D
100
AcDbDictionaryWithDefault
340
1D
  0
ACDBPLACEHOLDER
  5
1D
102
{ACAD_REACTORS
330
1F
102
}
  0
LAYOUT
  5
20
102
{ACAD_REACTORS
330
1E
102
}
100
AcDbPlotSettings
  1

  2

  4

  6

 40
0.0
 41
0.0
 42
0.0
 43
0.0
 44
0.0
 45
0.0
 46
0.0
 47
0.0
 48
0.0
 49
0.0
140
0.0
141
0.0
142
1.0
143
1.0
 70
  1024
 72
     0
 73
     0
 74
     0
  7

 75
     0
147
1.0
148
0.0
149
0.0
100
AcDbLayout
  1
Model
 70
     0
 71
     0
 10
0.0
 20
0.0
 11
0.0
 21
0.0
 12
0.0
 22
0.0
 32
0.0
 14
0.0
 24
0.0
 34
0.0
 15
0.0
 25
0.0
 35
0.0
146
0.0
 13
0.0
 23
0.0
 33
0.0
 16
0.0
 26
0.0
 36
0.0
 17
0.0
 27
0.0
 37
0.0
 76
     0
330
A
331
0
345
0
346
0
  0
DICTIONARY
  5
1E
102
{ACAD_REACTORS
330
19
102
}
100
AcDbDictionary
280
     0
281
     1
  3
Model
350
20
  3
DRAWING1
350
219
  0
DICTIONARY
  5
21
102
{ACAD_REACTORS
330
19
102
}
100
AcDbDictionary
280
     0
281
     1
  0
LAYOUT
  5
219
102
{ACAD_REACTORS
330
1E
102
}
100
AcDbPlotSettings
  1

  2

  4

  6

 40
0.0
 41
0.0
 42
0.0
 43
0.0
 44
0.0
 45
0.0
 46
0.0
 47
0.0
 48
0.0
 49
0.0
140
0.0
141
0.0
142
1.0
143
1.0
 70
     0
 72
     0
 73
     0
 74
     0
  7

 75
     0
147
1.0
148
0.0
149
0.0
100
AcDbLayout
  1
DRAWING1
 70
     0
 71
     1
 10
0.0
 20
0.0
 11
0.0
 21
0.0
 12
0.0
 22
0.0
 32
0.0
 14
0.0
 24
0.0
 34
0.0
 15
0.0
 25
0.0
 35
0.0
146
0.0
 13
0.0
 23
0.0
 33
0.0
 16
0.0
 26
0.0
 36
0.0
 17
0.0
 27
0.0
 37
0.0
 76
     0
330
B
331
30
345
0
346
0
  0
ENDSEC
  0
EOF
