  0
SECTION
  2
HEADER
  9
$ACADVER
  1
AC1012
  9
$DWGCODEPAGE
  3
ANSI_1252
  9
$INSBASE
 10
0.0
 20
0.0
 30
0.0
  9
$EXTMIN
 10
1.465393096051869
 20
2.044555687397433
 30
-0.0000000349181948
  9
$EXTMAX
 10
4.221130389977631
 20
7.81100465824246
 30
0.0000000814935746
  9
$LIMMIN
 10
0.0
 20
0.0
  9
$LIMMAX
 10
12.0
 20
9.0
  9
$ORTHOMODE
 70
     0
  9
$REGENMODE
 70
     1
  9
$FILLMODE
 70
     1
  9
$QTEXTMODE
 70
     0
  9
$MIRRTEXT
 70
     1
  9
$DRAGMODE
 70
     2
  9
$LTSCALE
 40
1.0
  9
$OSMODE
 70
    33
  9
$ATTMODE
 70
     1
  9
$TEXTSIZE
 40
0.2
  9
$TRACEWID
 40
0.05
  9
$TEXTSTYLE
  7
STANDARD
  9
$CLAYER
  8
0
  9
$CELTYPE
  6
BYLAYER
  9
$CECOLOR
 62
   256
  9
$CELTSCALE
 40
1.0
  9
$DELOBJ
 70
     1
  9
$DISPSILH
 70
     0
  9
$DIMSCALE
 40
1.0
  9
$DIMASZ
 40
0.18
  9
$DIMEXO
 40
0.0625
  9
$DIMDLI
 40
0.38
  9
$DIMRND
 40
0.0
  9
$DIMDLE
 40
0.0
  9
$DIMEXE
 40
0.18
  9
$DIMTP
 40
0.0
  9
$DIMTM
 40
0.0
  9
$DIMTXT
 40
0.18
  9
$DIMCEN
 40
0.09
  9
$DIMTSZ
 40
0.0
  9
$DIMTOL
 70
     0
  9
$DIMLIM
 70
     0
  9
$DIMTIH
 70
     1
  9
$DIMTOH
 70
     1
  9
$DIMSE1
 70
     0
  9
$DIMSE2
 70
     0
  9
$DIMTAD
 70
     0
  9
$DIMZIN
 70
     0
  9
$DIMBLK
  1

  9
$DIMASO
 70
     1
  9
$DIMSHO
 70
     1
  9
$DIMPOST
  1

  9
$DIMAPOST
  1

  9
$DIMALT
 70
     0
  9
$DIMALTD
 70
     2
  9
$DIMALTF
 40
25.4
  9
$DIMLFAC
 40
1.0
  9
$DIMTOFL
 70
     0
  9
$DIMTVP
 40
0.0
  9
$DIMTIX
 70
     0
  9
$DIMSOXD
 70
     0
  9
$DIMSAH
 70
     0
  9
$DIMBLK1
  1

  9
$DIMBLK2
  1

  9
$DIMSTYLE
  2
STANDARD
  9
$DIMCLRD
 70
     0
  9
$DIMCLRE
 70
     0
  9
$DIMCLRT
 70
     0
  9
$DIMTFAC
 40
1.0
  9
$DIMGAP
 40
0.09
  9
$DIMJUST
 70
     0
  9
$DIMSD1
 70
     0
  9
$DIMSD2
 70
     0
  9
$DIMTOLJ
 70
     1
  9
$DIMTZIN
 70
     0
  9
$DIMALTZ
 70
     0
  9
$DIMALTTZ
 70
     0
  9
$DIMFIT
 70
     5
  9
$DIMUPT
 70
     0
  9
$DIMUNIT
 70
     2
  9
$DIMDEC
 70
     4
  9
$DIMTDEC
 70
     4
  9
$DIMALTU
 70
     2
  9
$DIMALTTD
 70
     2
  9
$DIMTXSTY
  7
STANDARD
  9
$DIMAUNIT
 70
     0
  9
$LUNITS
 70
     2
  9
$LUPREC
 70
     4
  9
$SKETCHINC
 40
0.1
  9
$FILLETRAD
 40
0.0
  9
$AUNITS
 70
     0
  9
$AUPREC
 70
     0
  9
$MENU
  1
acad
  9
$ELEVATION
 40
0.0
  9
$PELEVATION
 40
0.0
  9
$THICKNESS
 40
0.0
  9
$LIMCHECK
 70
     0
  9
$BLIPMODE
 70
     0
  9
$CHAMFERA
 40
0.0
  9
$CHAMFERB
 40
0.0
  9
$CHAMFERC
 40
0.0
  9
$CHAMFERD
 40
0.0
  9
$SKPOLY
 70
     0
  9
$TDCREATE
 40
2452255.540405092
  9
$TDUPDATE
 40
2452340.343791851
  9
$TDINDWG
 40
0.0014776852
  9
$TDUSRTIMER
 40
0.0014776852
  9
$USRTIMER
 70
     1
  9
$ANGBASE
 50
0.0
  9
$ANGDIR
 70
     0
  9
$PDMODE
 70
     0
  9
$PDSIZE
 40
0.0
  9
$PLINEWID
 40
0.0
  9
$COORDS
 70
     2
  9
$SPLFRAME
 70
     0
  9
$SPLINETYPE
 70
     6
  9
$SPLINESEGS
 70
     8
  9
$ATTDIA
 70
     0
  9
$ATTREQ
 70
     1
  9
$HANDLING
 70
  4097
  9
$HANDSEED
  5
35FC
  9
$SURFTAB1
 70
     6
  9
$SURFTAB2
 70
     6
  9
$SURFTYPE
 70
     6
  9
$SURFU
 70
     6
  9
$SURFV
 70
     6
  9
$UCSNAME
  2

  9
$UCSORG
 10
0.0
 20
0.0
 30
0.0
  9
$UCSXDIR
 10
1.0
 20
0.0
 30
0.0
  9
$UCSYDIR
 10
0.0
 20
1.0
 30
0.0
  9
$PUCSNAME
  2

  9
$PUCSORG
 10
0.0
 20
0.0
 30
0.0
  9
$PUCSXDIR
 10
1.0
 20
0.0
 30
0.0
  9
$PUCSYDIR
 10
0.0
 20
1.0
 30
0.0
  9
$USERI1
 70
     0
  9
$USERI2
 70
     0
  9
$USERI3
 70
     0
  9
$USERI4
 70
     0
  9
$USERI5
 70
     0
  9
$USERR1
 40
0.0
  9
$USERR2
 40
0.0
  9
$USERR3
 40
0.0
  9
$USERR4
 40
0.0
  9
$USERR5
 40
0.0
  9
$WORLDVIEW
 70
     1
  9
$SHADEDGE
 70
     3
  9
$SHADEDIF
 70
    70
  9
$TILEMODE
 70
     1
  9
$MAXACTVP
 70
    16
  9
$PINSBASE
 10
0.0
 20
0.0
 30
0.0
  9
$PLIMCHECK
 70
     0
  9
$PEXTMIN
 10
1.000000000000000E+20
 20
1.000000000000000E+20
 30
1.000000000000000E+20
  9
$PEXTMAX
 10
-1.000000000000000E+20
 20
-1.000000000000000E+20
 30
-1.000000000000000E+20
  9
$PLIMMIN
 10
0.0
 20
0.0
  9
$PLIMMAX
 10
12.0
 20
9.0
  9
$UNITMODE
 70
     0
  9
$VISRETAIN
 70
     0
  9
$PLINEGEN
 70
     0
  9
$PSLTSCALE
 70
     1
  9
$TREEDEPTH
 70
  3020
  9
$PICKSTYLE
 70
     1
  9
$CMLSTYLE
  2
STANDARD
  9
$CMLJUST
 70
     0
  9
$CMLSCALE
 40
1.0
  9
$SAVEIMAGES
 70
     1
  0
ENDSEC
  0
SECTION
  2
CLASSES
  0
CLASS
  1
ACDBDICTIONARYWDFLT
  2
AcDbDictionaryWithDefault
  3
AutoCAD 2000
 90
    32768
280
     0
281
     0
  0
CLASS
  1
ACDBPLACEHOLDER
  2
AcDbPlaceHolder
  3
AutoCAD 2000
 90
    32768
280
     0
281
     0
  0
CLASS
  1
LAYOUT
  2
AcDbLayout
  3
AutoCAD 2000
 90
    32768
280
     0
281
     0
  0
CLASS
  1
LONG_TRANSACTION
  2
AcDbLongTransaction
  3
AutoCAD 2000
 90
    32768
280
     0
281
     0
  0
CLASS
  1
LWPOLYLINE
  2
AcDbPolyline
  3
AutoCAD 2000
 90
    32768
280
     0
281
     1
  0
CLASS
  1
HATCH
  2
AcDbHatch
  3
AutoCAD 2000
 90
    32768
280
     0
281
     1
  0
CLASS
  1
XRECORD
  2
AcDbXrecord
  3
AutoCAD 2000
 90
    32768
280
     0
281
     0
  0
CLASS
  1
LONG_TRANSACTION
  2
AcDbLongTransaction
  3
AutoCAD 2000
 90
    32768
280
     0
281
     0
  0
CLASS
  1
LWPOLYLINE
  2
AcDbPolyline
  3
AutoCAD 2000
 90
    32768
280
     0
281
     1
  0
CLASS
  1
HATCH
  2
AcDbHatch
  3
AutoCAD 2000
 90
    32768
280
     0
281
     1
  0
CLASS
  1
XRECORD
  2
AcDbXrecord
  3
AutoCAD 2000
 90
    32768
280
     0
281
     0
  0
ENDSEC
  0
SECTION
  2
TABLES
  0
TABLE
  2
VPORT
  5
8
330
0
100
AcDbSymbolTable
 70
     3
  0
VPORT
  5
35F9
330
8
100
AcDbSymbolTableRecord
100
AcDbViewportTableRecord
  2
*ACTIVE
 70
     0
 10
0.0
 20
0.0
 11
1.0
 21
1.0
 12
2.84326174301475
 22
4.927780172819947
 13
0.0
 23
0.0
 14
1.0
 24
1.0
 15
0.0
 25
0.0
 16
0.0
 26
0.0
 36
1.0
 17
0.0
 27
0.0
 37
0.0
 40
5.811854080851679
 41
1.601839684625492
 42
50.0
 43
0.0
 44
0.0
 50
0.0
 51
0.0
 71
     0
 72
   100
 73
     1
 74
     1
 75
     0
 76
     0
 77
     0
 78
     0
  0
ENDTAB
  0
TABLE
  2
LTYPE
  5
5
330
0
100
AcDbSymbolTable
 70
    25
  0
LTYPE
  5
13
330
5
100
AcDbSymbolTableRecord
100
AcDbLinetypeTableRecord
  2
BYBLOCK
 70
     0
  3

 72
    65
 73
     0
 40
0.0
  0
LTYPE
  5
14
330
5
100
AcDbSymbolTableRecord
100
AcDbLinetypeTableRecord
  2
BYLAYER
 70
     0
  3

 72
    65
 73
     0
 40
0.0
  0
LTYPE
  5
15
330
5
100
AcDbSymbolTableRecord
100
AcDbLinetypeTableRecord
  2
CONTINUOUS
 70
     0
  3
Solid line
 72
    65
 73
     0
 40
0.0
  0
LTYPE
  5
22
330
5
100
AcDbSymbolTableRecord
100
AcDbLinetypeTableRecord
  2
BORDER
 70
     0
  3
__ __ . __ __ . __ __ . __ __ . __ __ . __ __ .
 72
    65
 73
     6
 40
1.75
 49
0.5
 74
     0
 49
-0.25
 74
     0
 49
0.5
 74
     0
 49
-0.25
 74
     0
 49
0.5
 74
     0
 49
-0.25
 74
     0
  0
LTYPE
  5
23
330
5
100
AcDbSymbolTableRecord
100
AcDbLinetypeTableRecord
  2
BORDER2
 70
     0
  3
__.__.__.__.__.__.__.__.__.__.__.__.__.__.__.__
 72
    65
 73
     6
 40
0.875
 49
0.25
 74
     0
 49
-0.125
 74
     0
 49
0.25
 74
     0
 49
-0.125
 74
     0
 49
0.25
 74
     0
 49
-0.125
 74
     0
  0
LTYPE
  5
24
330
5
100
AcDbSymbolTableRecord
100
AcDbLinetypeTableRecord
  2
BORDERX2
 70
     0
  3
____  ____  .  ____  ____  .  
 72
    65
 73
     6
 40
3.5
 49
1.0
 74
     0
 49
-0.5
 74
     0
 49
1.0
 74
     0
 49
-0.5
 74
     0
 49
1.0
 74
     0
 49
-0.5
 74
     0
  0
LTYPE
  5
25
330
5
100
AcDbSymbolTableRecord
100
AcDbLinetypeTableRecord
  2
CENTER
 70
     0
  3
____ _ ____ _ ____ _ ____ _ ____ _ ____ _ ____
 72
    65
 73
     4
 40
2.0
 49
1.25
 74
     0
 49
-0.25
 74
     0
 49
0.25
 74
     0
 49
-0.25
 74
     0
  0
LTYPE
  5
26
330
5
100
AcDbSymbolTableRecord
100
AcDbLinetypeTableRecord
  2
CENTER2
 70
     0
  3
____ _ ____ _ ____ _ ____ _ ____ _ ____ _ ____
 72
    65
 73
     4
 40
1.125
 49
0.75
 74
     0
 49
-0.125
 74
     0
 49
0.125
 74
     0
 49
-0.125
 74
     0
  0
LTYPE
  5
27
330
5
100
AcDbSymbolTableRecord
100
AcDbLinetypeTableRecord
  2
CENTERX2
 70
     0
  3
________  __  ________  __  ________  __  
 72
    65
 73
     4
 40
4.0
 49
2.5
 74
     0
 49
-0.5
 74
     0
 49
0.5
 74
     0
 49
-0.5
 74
     0
  0
LTYPE
  5
28
330
5
100
AcDbSymbolTableRecord
100
AcDbLinetypeTableRecord
  2
DASHDOT
 70
     0
  3
__ . __ . __ . __ . __ . __ . __ . 
 72
    65
 73
     4
 40
1.0
 49
0.5
 74
     0
 49
-0.25
 74
     0
 49
0.0
 74
     0
 49
-0.25
 74
     0
  0
LTYPE
  5
29
330
5
100
AcDbSymbolTableRecord
100
AcDbLinetypeTableRecord
  2
DASHDOT2
 70
     0
  3
_._._._._._._._._._._._._._._._.
 72
    65
 73
     4
 40
0.5
 49
0.25
 74
     0
 49
-0.125
 74
     0
 49
0.0
 74
     0
 49
-0.125
 74
     0
  0
LTYPE
  5
2A
330
5
100
AcDbSymbolTableRecord
100
AcDbLinetypeTableRecord
  2
DASHDOTX2
 70
     0
  3
____  .  ____  .  ____  .  ____  .  
 72
    65
 73
     4
 40
2.0
 49
1.0
 74
     0
 49
-0.5
 74
     0
 49
0.0
 74
     0
 49
-0.5
 74
     0
  0
LTYPE
  5
2B
330
5
100
AcDbSymbolTableRecord
100
AcDbLinetypeTableRecord
  2
DASHED
 70
     0
  3
__ __ __ __ __ __ __ __ __ __ __ __ 
 72
    65
 73
     2
 40
0.75
 49
0.5
 74
     0
 49
-0.25
 74
     0
  0
LTYPE
  5
2C
330
5
100
AcDbSymbolTableRecord
100
AcDbLinetypeTableRecord
  2
DASHED2
 70
     0
  3
_ _ _ _ _ _ _ _ _ _ _ _ _ _ _ _ _ _ 
 72
    65
 73
     2
 40
0.375
 49
0.25
 74
     0
 49
-0.125
 74
     0
  0
LTYPE
  5
2D
330
5
100
AcDbSymbolTableRecord
100
AcDbLinetypeTableRecord
  2
DASHEDX2
 70
     0
  3
____  ____  ____  ____  ____  ____  
 72
    65
 73
     2
 40
1.5
 49
1.0
 74
     0
 49
-0.5
 74
     0
  0
LTYPE
  5
2E
330
5
100
AcDbSymbolTableRecord
100
AcDbLinetypeTableRecord
  2
DIVIDE
 70
     0
  3
____ . . ____ . . ____ . . ____ . . 
 72
    65
 73
     6
 40
1.25
 49
0.5
 74
     0
 49
-0.25
 74
     0
 49
0.0
 74
     0
 49
-0.25
 74
     0
 49
0.0
 74
     0
 49
-0.25
 74
     0
  0
LTYPE
  5
2F
330
5
100
AcDbSymbolTableRecord
100
AcDbLinetypeTableRecord
  2
DIVIDE2
 70
     0
  3
__..__..__..__..__..__..__..__..__..
 72
    65
 73
     6
 40
0.625
 49
0.25
 74
     0
 49
-0.125
 74
     0
 49
0.0
 74
     0
 49
-0.125
 74
     0
 49
0.0
 74
     0
 49
-0.125
 74
     0
  0
LTYPE
  5
30
330
5
100
AcDbSymbolTableRecord
100
AcDbLinetypeTableRecord
  2
DIVIDEX2
 70
     0
  3
________  .  .  ________  .  .  ________  .  . 
 72
    65
 73
     6
 40
2.5
 49
1.0
 74
     0
 49
-0.5
 74
     0
 49
0.0
 74
     0
 49
-0.5
 74
     0
 49
0.0
 74
     0
 49
-0.5
 74
     0
  0
LTYPE
  5
31
330
5
100
AcDbSymbolTableRecord
100
AcDbLinetypeTableRecord
  2
DOT
 70
     0
  3
. . . . . . . . . . . . . . . . . . 
 72
    65
 73
     2
 40
0.25
 49
0.0
 74
     0
 49
-0.25
 74
     0
  0
LTYPE
  5
32
330
5
100
AcDbSymbolTableRecord
100
AcDbLinetypeTableRecord
  2
DOT2
 70
     0
  3
....................................
 72
    65
 73
     2
 40
0.125
 49
0.0
 74
     0
 49
-0.125
 74
     0
  0
LTYPE
  5
33
330
5
100
AcDbSymbolTableRecord
100
AcDbLinetypeTableRecord
  2
DOTX2
 70
     0
  3
.  .  .  .  .  .  .  .  .  .  .  .  .  
 72
    65
 73
     2
 40
0.5
 49
0.0
 74
     0
 49
-0.5
 74
     0
  0
LTYPE
  5
34
330
5
100
AcDbSymbolTableRecord
100
AcDbLinetypeTableRecord
  2
HIDDEN
 70
     0
  3
__ __ __ __ __ __ __ __ __ __ __ __ 
 72
    65
 73
     2
 40
0.375
 49
0.25
 74
     0
 49
-0.125
 74
     0
  0
LTYPE
  5
35
330
5
100
AcDbSymbolTableRecord
100
AcDbLinetypeTableRecord
  2
HIDDEN2
 70
     0
  3
_ _ _ _ _ _ _ _ _ _ _ _ _ _ _ _ _ _ 
 72
    65
 73
     2
 40
0.1875
 49
0.125
 74
     0
 49
-0.0625
 74
     0
  0
LTYPE
  5
36
330
5
100
AcDbSymbolTableRecord
100
AcDbLinetypeTableRecord
  2
HIDDENX2
 70
     0
  3
____ ____ ____ ____ ____ ____ ____ 
 72
    65
 73
     2
 40
0.75
 49
0.5
 74
     0
 49
-0.25
 74
     0
  0
LTYPE
  5
37
330
5
100
AcDbSymbolTableRecord
100
AcDbLinetypeTableRecord
  2
PHANTOM
 70
     0
  3
______  __  __  ______  __  __  
 72
    65
 73
     6
 40
2.5
 49
1.25
 74
     0
 49
-0.25
 74
     0
 49
0.25
 74
     0
 49
-0.25
 74
     0
 49
0.25
 74
     0
 49
-0.25
 74
     0
  0
LTYPE
  5
38
330
5
100
AcDbSymbolTableRecord
100
AcDbLinetypeTableRecord
  2
PHANTOM2
 70
     0
  3
___ _ _ ___ _ _ ___ _ _ ___ _ _ 
 72
    65
 73
     6
 40
1.25
 49
0.625
 74
     0
 49
-0.125
 74
     0
 49
0.125
 74
     0
 49
-0.125
 74
     0
 49
0.125
 74
     0
 49
-0.125
 74
     0
  0
LTYPE
  5
39
330
5
100
AcDbSymbolTableRecord
100
AcDbLinetypeTableRecord
  2
PHANTOMX2
 70
     0
  3
___ _ _ ___ _ _ ___ _ _ ___ _ _ 
 72
    65
 73
     6
 40
5.0
 49
2.5
 74
     0
 49
-0.5
 74
     0
 49
0.5
 74
     0
 49
-0.5
 74
     0
 49
0.5
 74
     0
 49
-0.5
 74
     0
  0
ENDTAB
  0
TABLE
  2
LAYER
  5
2
330
0
100
AcDbSymbolTable
 70
   257
  0
LAYER
  5
10
330
2
100
AcDbSymbolTableRecord
100
AcDbLayerTableRecord
  2
0
 70
     0
 62
     7
  6
CONTINUOUS
  0
LAYER
  5
3A
330
2
100
AcDbSymbolTableRecord
100
AcDbLayerTableRecord
  2
1
 70
     0
 62
     1
  6
CONTINUOUS
  0
LAYER
  5
3B
330
2
100
AcDbSymbolTableRecord
100
AcDbLayerTableRecord
  2
2
 70
     0
 62
     2
  6
CONTINUOUS
  0
LAYER
  5
3C
330
2
100
AcDbSymbolTableRecord
100
AcDbLayerTableRecord
  2
3
 70
     0
 62
     3
  6
CONTINUOUS
  0
LAYER
  5
3D
330
2
100
AcDbSymbolTableRecord
100
AcDbLayerTableRecord
  2
4
 70
     0
 62
     4
  6
CONTINUOUS
  0
LAYER
  5
3E
330
2
100
AcDbSymbolTableRecord
100
AcDbLayerTableRecord
  2
5
 70
     0
 62
     5
  6
CONTINUOUS
  0
LAYER
  5
3F
330
2
100
AcDbSymbolTableRecord
100
AcDbLayerTableRecord
  2
6
 70
     0
 62
     6
  6
CONTINUOUS
  0
LAYER
  5
40
330
2
100
AcDbSymbolTableRecord
100
AcDbLayerTableRecord
  2
7
 70
     0
 62
     7
  6
CONTINUOUS
  0
LAYER
  5
41
330
2
100
AcDbSymbolTableRecord
100
AcDbLayerTableRecord
  2
8
 70
     0
 62
     8
  6
CONTINUOUS
  0
LAYER
  5
42
330
2
100
AcDbSymbolTableRecord
100
AcDbLayerTableRecord
  2
9
 70
     0
 62
     9
  6
CONTINUOUS
  0
LAYER
  5
43
330
2
100
AcDbSymbolTableRecord
100
AcDbLayerTableRecord
  2
10
 70
     0
 62
    10
  6
CONTINUOUS
  0
LAYER
  5
44
330
2
100
AcDbSymbolTableRecord
100
AcDbLayerTableRecord
  2
11
 70
     0
 62
    11
  6
CONTINUOUS
  0
LAYER
  5
45
330
2
100
AcDbSymbolTableRecord
100
AcDbLayerTableRecord
  2
12
 70
     0
 62
    12
  6
CONTINUOUS
  0
LAYER
  5
46
330
2
100
AcDbSymbolTableRecord
100
AcDbLayerTableRecord
  2
13
 70
     0
 62
    13
  6
CONTINUOUS
  0
LAYER
  5
47
330
2
100
AcDbSymbolTableRecord
100
AcDbLayerTableRecord
  2
14
 70
     0
 62
    14
  6
CONTINUOUS
  0
LAYER
  5
48
330
2
100
AcDbSymbolTableRecord
100
AcDbLayerTableRecord
  2
15
 70
     0
 62
    15
  6
CONTINUOUS
  0
LAYER
  5
49
330
2
100
AcDbSymbolTableRecord
100
AcDbLayerTableRecord
  2
16
 70
     0
 62
    16
  6
CONTINUOUS
  0
LAYER
  5
4A
330
2
100
AcDbSymbolTableRecord
100
AcDbLayerTableRecord
  2
17
 70
     0
 62
    17
  6
CONTINUOUS
  0
LAYER
  5
4B
330
2
100
AcDbSymbolTableRecord
100
AcDbLayerTableRecord
  2
18
 70
     0
 62
    18
  6
CONTINUOUS
  0
LAYER
  5
4C
330
2
100
AcDbSymbolTableRecord
100
AcDbLayerTableRecord
  2
19
 70
     0
 62
    19
  6
CONTINUOUS
  0
LAYER
  5
4D
330
2
100
AcDbSymbolTableRecord
100
AcDbLayerTableRecord
  2
20
 70
     0
 62
    20
  6
CONTINUOUS
  0
LAYER
  5
4E
330
2
100
AcDbSymbolTableRecord
100
AcDbLayerTableRecord
  2
21
 70
     0
 62
    21
  6
CONTINUOUS
  0
LAYER
  5
4F
330
2
100
AcDbSymbolTableRecord
100
AcDbLayerTableRecord
  2
22
 70
     0
 62
    22
  6
CONTINUOUS
  0
LAYER
  5
50
330
2
100
AcDbSymbolTableRecord
100
AcDbLayerTableRecord
  2
23
 70
     0
 62
    23
  6
CONTINUOUS
  0
LAYER
  5
51
330
2
100
AcDbSymbolTableRecord
100
AcDbLayerTableRecord
  2
24
 70
     0
 62
    24
  6
CONTINUOUS
  0
LAYER
  5
52
330
2
100
AcDbSymbolTableRecord
100
AcDbLayerTableRecord
  2
25
 70
     0
 62
    25
  6
CONTINUOUS
  0
LAYER
  5
53
330
2
100
AcDbSymbolTableRecord
100
AcDbLayerTableRecord
  2
26
 70
     0
 62
    26
  6
CONTINUOUS
  0
LAYER
  5
54
330
2
100
AcDbSymbolTableRecord
100
AcDbLayerTableRecord
  2
27
 70
     0
 62
    27
  6
CONTINUOUS
  0
LAYER
  5
55
330
2
100
AcDbSymbolTableRecord
100
AcDbLayerTableRecord
  2
28
 70
     0
 62
    28
  6
CONTINUOUS
  0
LAYER
  5
56
330
2
100
AcDbSymbolTableRecord
100
AcDbLayerTableRecord
  2
29
 70
     0
 62
    29
  6
CONTINUOUS
  0
LAYER
  5
57
330
2
100
AcDbSymbolTableRecord
100
AcDbLayerTableRecord
  2
30
 70
     0
 62
    30
  6
CONTINUOUS
  0
LAYER
  5
58
330
2
100
AcDbSymbolTableRecord
100
AcDbLayerTableRecord
  2
31
 70
     0
 62
    31
  6
CONTINUOUS
  0
LAYER
  5
59
330
2
100
AcDbSymbolTableRecord
100
AcDbLayerTableRecord
  2
32
 70
     0
 62
    32
  6
CONTINUOUS
  0
LAYER
  5
5A
330
2
100
AcDbSymbolTableRecord
100
AcDbLayerTableRecord
  2
33
 70
     0
 62
    33
  6
CONTINUOUS
  0
LAYER
  5
5B
330
2
100
AcDbSymbolTableRecord
100
AcDbLayerTableRecord
  2
34
 70
     0
 62
    34
  6
CONTINUOUS
  0
LAYER
  5
5C
330
2
100
AcDbSymbolTableRecord
100
AcDbLayerTableRecord
  2
35
 70
     0
 62
    35
  6
CONTINUOUS
  0
LAYER
  5
5D
330
2
100
AcDbSymbolTableRecord
100
AcDbLayerTableRecord
  2
36
 70
     0
 62
    36
  6
CONTINUOUS
  0
LAYER
  5
5E
330
2
100
AcDbSymbolTableRecord
100
AcDbLayerTableRecord
  2
37
 70
     0
 62
    37
  6
CONTINUOUS
  0
LAYER
  5
5F
330
2
100
AcDbSymbolTableRecord
100
AcDbLayerTableRecord
  2
38
 70
     0
 62
    38
  6
CONTINUOUS
  0
LAYER
  5
60
330
2
100
AcDbSymbolTableRecord
100
AcDbLayerTableRecord
  2
39
 70
     0
 62
    39
  6
CONTINUOUS
  0
LAYER
  5
61
330
2
100
AcDbSymbolTableRecord
100
AcDbLayerTableRecord
  2
40
 70
     0
 62
    40
  6
CONTINUOUS
  0
LAYER
  5
62
330
2
100
AcDbSymbolTableRecord
100
AcDbLayerTableRecord
  2
41
 70
     0
 62
    41
  6
CONTINUOUS
  0
LAYER
  5
63
330
2
100
AcDbSymbolTableRecord
100
AcDbLayerTableRecord
  2
42
 70
     0
 62
    42
  6
CONTINUOUS
  0
LAYER
  5
64
330
2
100
AcDbSymbolTableRecord
100
AcDbLayerTableRecord
  2
43
 70
     0
 62
    43
  6
CONTINUOUS
  0
LAYER
  5
65
330
2
100
AcDbSymbolTableRecord
100
AcDbLayerTableRecord
  2
44
 70
     0
 62
    44
  6
CONTINUOUS
  0
LAYER
  5
66
330
2
100
AcDbSymbolTableRecord
100
AcDbLayerTableRecord
  2
45
 70
     0
 62
    45
  6
CONTINUOUS
  0
LAYER
  5
67
330
2
100
AcDbSymbolTableRecord
100
AcDbLayerTableRecord
  2
46
 70
     0
 62
    46
  6
CONTINUOUS
  0
LAYER
  5
68
330
2
100
AcDbSymbolTableRecord
100
AcDbLayerTableRecord
  2
47
 70
     0
 62
    47
  6
CONTINUOUS
  0
LAYER
  5
69
330
2
100
AcDbSymbolTableRecord
100
AcDbLayerTableRecord
  2
48
 70
     0
 62
    48
  6
CONTINUOUS
  0
LAYER
  5
6A
330
2
100
AcDbSymbolTableRecord
100
AcDbLayerTableRecord
  2
49
 70
     0
 62
    49
  6
CONTINUOUS
  0
LAYER
  5
6B
330
2
100
AcDbSymbolTableRecord
100
AcDbLayerTableRecord
  2
50
 70
     0
 62
    50
  6
CONTINUOUS
  0
LAYER
  5
6C
330
2
100
AcDbSymbolTableRecord
100
AcDbLayerTableRecord
  2
51
 70
     0
 62
    51
  6
CONTINUOUS
  0
LAYER
  5
6D
330
2
100
AcDbSymbolTableRecord
100
AcDbLayerTableRecord
  2
52
 70
     0
 62
    52
  6
CONTINUOUS
  0
LAYER
  5
6E
330
2
100
AcDbSymbolTableRecord
100
AcDbLayerTableRecord
  2
53
 70
     0
 62
    53
  6
CONTINUOUS
  0
LAYER
  5
6F
330
2
100
AcDbSymbolTableRecord
100
AcDbLayerTableRecord
  2
54
 70
     0
 62
    54
  6
CONTINUOUS
  0
LAYER
  5
70
330
2
100
AcDbSymbolTableRecord
100
AcDbLayerTableRecord
  2
55
 70
     0
 62
    55
  6
CONTINUOUS
  0
LAYER
  5
71
330
2
100
AcDbSymbolTableRecord
100
AcDbLayerTableRecord
  2
56
 70
     0
 62
    56
  6
CONTINUOUS
  0
LAYER
  5
72
330
2
100
AcDbSymbolTableRecord
100
AcDbLayerTableRecord
  2
57
 70
     0
 62
    57
  6
CONTINUOUS
  0
LAYER
  5
73
330
2
100
AcDbSymbolTableRecord
100
AcDbLayerTableRecord
  2
58
 70
     0
 62
    58
  6
CONTINUOUS
  0
LAYER
  5
74
330
2
100
AcDbSymbolTableRecord
100
AcDbLayerTableRecord
  2
59
 70
     0
 62
    59
  6
CONTINUOUS
  0
LAYER
  5
75
330
2
100
AcDbSymbolTableRecord
100
AcDbLayerTableRecord
  2
60
 70
     0
 62
    60
  6
CONTINUOUS
  0
LAYER
  5
76
330
2
100
AcDbSymbolTableRecord
100
AcDbLayerTableRecord
  2
61
 70
     0
 62
    61
  6
CONTINUOUS
  0
LAYER
  5
77
330
2
100
AcDbSymbolTableRecord
100
AcDbLayerTableRecord
  2
62
 70
     0
 62
    62
  6
CONTINUOUS
  0
LAYER
  5
78
330
2
100
AcDbSymbolTableRecord
100
AcDbLayerTableRecord
  2
63
 70
     0
 62
    63
  6
CONTINUOUS
  0
LAYER
  5
79
330
2
100
AcDbSymbolTableRecord
100
AcDbLayerTableRecord
  2
64
 70
     0
 62
    64
  6
CONTINUOUS
  0
LAYER
  5
7A
330
2
100
AcDbSymbolTableRecord
100
AcDbLayerTableRecord
  2
65
 70
     0
 62
    65
  6
CONTINUOUS
  0
LAYER
  5
7B
330
2
100
AcDbSymbolTableRecord
100
AcDbLayerTableRecord
  2
66
 70
     0
 62
    66
  6
CONTINUOUS
  0
LAYER
  5
7C
330
2
100
AcDbSymbolTableRecord
100
AcDbLayerTableRecord
  2
67
 70
     0
 62
    67
  6
CONTINUOUS
  0
LAYER
  5
7D
330
2
100
AcDbSymbolTableRecord
100
AcDbLayerTableRecord
  2
68
 70
     0
 62
    68
  6
CONTINUOUS
  0
LAYER
  5
7E
330
2
100
AcDbSymbolTableRecord
100
AcDbLayerTableRecord
  2
69
 70
     0
 62
    69
  6
CONTINUOUS
  0
LAYER
  5
7F
330
2
100
AcDbSymbolTableRecord
100
AcDbLayerTableRecord
  2
70
 70
     0
 62
    70
  6
CONTINUOUS
  0
LAYER
  5
80
330
2
100
AcDbSymbolTableRecord
100
AcDbLayerTableRecord
  2
71
 70
     0
 62
    71
  6
CONTINUOUS
  0
LAYER
  5
81
330
2
100
AcDbSymbolTableRecord
100
AcDbLayerTableRecord
  2
72
 70
     0
 62
    72
  6
CONTINUOUS
  0
LAYER
  5
82
330
2
100
AcDbSymbolTableRecord
100
AcDbLayerTableRecord
  2
73
 70
     0
 62
    73
  6
CONTINUOUS
  0
LAYER
  5
83
330
2
100
AcDbSymbolTableRecord
100
AcDbLayerTableRecord
  2
74
 70
     0
 62
    74
  6
CONTINUOUS
  0
LAYER
  5
84
330
2
100
AcDbSymbolTableRecord
100
AcDbLayerTableRecord
  2
75
 70
     0
 62
    75
  6
CONTINUOUS
  0
LAYER
  5
85
330
2
100
AcDbSymbolTableRecord
100
AcDbLayerTableRecord
  2
76
 70
     0
 62
    76
  6
CONTINUOUS
  0
LAYER
  5
86
330
2
100
AcDbSymbolTableRecord
100
AcDbLayerTableRecord
  2
77
 70
     0
 62
    77
  6
CONTINUOUS
  0
LAYER
  5
87
330
2
100
AcDbSymbolTableRecord
100
AcDbLayerTableRecord
  2
78
 70
     0
 62
    78
  6
CONTINUOUS
  0
LAYER
  5
88
330
2
100
AcDbSymbolTableRecord
100
AcDbLayerTableRecord
  2
79
 70
     0
 62
    79
  6
CONTINUOUS
  0
LAYER
  5
89
330
2
100
AcDbSymbolTableRecord
100
AcDbLayerTableRecord
  2
80
 70
     0
 62
    80
  6
CONTINUOUS
  0
LAYER
  5
8A
330
2
100
AcDbSymbolTableRecord
100
AcDbLayerTableRecord
  2
81
 70
     0
 62
    81
  6
CONTINUOUS
  0
LAYER
  5
8B
330
2
100
AcDbSymbolTableRecord
100
AcDbLayerTableRecord
  2
82
 70
     0
 62
    82
  6
CONTINUOUS
  0
LAYER
  5
8C
330
2
100
AcDbSymbolTableRecord
100
AcDbLayerTableRecord
  2
83
 70
     0
 62
    83
  6
CONTINUOUS
  0
LAYER
  5
8D
330
2
100
AcDbSymbolTableRecord
100
AcDbLayerTableRecord
  2
84
 70
     0
 62
    84
  6
CONTINUOUS
  0
LAYER
  5
8E
330
2
100
AcDbSymbolTableRecord
100
AcDbLayerTableRecord
  2
85
 70
     0
 62
    85
  6
CONTINUOUS
  0
LAYER
  5
8F
330
2
100
AcDbSymbolTableRecord
100
AcDbLayerTableRecord
  2
86
 70
     0
 62
    86
  6
CONTINUOUS
  0
LAYER
  5
90
330
2
100
AcDbSymbolTableRecord
100
AcDbLayerTableRecord
  2
87
 70
     0
 62
    87
  6
CONTINUOUS
  0
LAYER
  5
91
330
2
100
AcDbSymbolTableRecord
100
AcDbLayerTableRecord
  2
88
 70
     0
 62
    88
  6
CONTINUOUS
  0
LAYER
  5
92
330
2
100
AcDbSymbolTableRecord
100
AcDbLayerTableRecord
  2
89
 70
     0
 62
    89
  6
CONTINUOUS
  0
LAYER
  5
93
330
2
100
AcDbSymbolTableRecord
100
AcDbLayerTableRecord
  2
90
 70
     0
 62
    90
  6
CONTINUOUS
  0
LAYER
  5
94
330
2
100
AcDbSymbolTableRecord
100
AcDbLayerTableRecord
  2
91
 70
     0
 62
    91
  6
CONTINUOUS
  0
LAYER
  5
95
330
2
100
AcDbSymbolTableRecord
100
AcDbLayerTableRecord
  2
92
 70
     0
 62
    92
  6
CONTINUOUS
  0
LAYER
  5
96
330
2
100
AcDbSymbolTableRecord
100
AcDbLayerTableRecord
  2
93
 70
     0
 62
    93
  6
CONTINUOUS
  0
LAYER
  5
97
330
2
100
AcDbSymbolTableRecord
100
AcDbLayerTableRecord
  2
94
 70
     0
 62
    94
  6
CONTINUOUS
  0
LAYER
  5
98
330
2
100
AcDbSymbolTableRecord
100
AcDbLayerTableRecord
  2
95
 70
     0
 62
    95
  6
CONTINUOUS
  0
LAYER
  5
99
330
2
100
AcDbSymbolTableRecord
100
AcDbLayerTableRecord
  2
96
 70
     0
 62
    96
  6
CONTINUOUS
  0
LAYER
  5
9A
330
2
100
AcDbSymbolTableRecord
100
AcDbLayerTableRecord
  2
97
 70
     0
 62
    97
  6
CONTINUOUS
  0
LAYER
  5
9B
330
2
100
AcDbSymbolTableRecord
100
AcDbLayerTableRecord
  2
98
 70
     0
 62
    98
  6
CONTINUOUS
  0
LAYER
  5
9C
330
2
100
AcDbSymbolTableRecord
100
AcDbLayerTableRecord
  2
99
 70
     0
 62
    99
  6
CONTINUOUS
  0
LAYER
  5
9D
330
2
100
AcDbSymbolTableRecord
100
AcDbLayerTableRecord
  2
100
 70
     0
 62
   100
  6
CONTINUOUS
  0
LAYER
  5
9E
330
2
100
AcDbSymbolTableRecord
100
AcDbLayerTableRecord
  2
101
 70
     0
 62
   101
  6
CONTINUOUS
  0
LAYER
  5
9F
330
2
100
AcDbSymbolTableRecord
100
AcDbLayerTableRecord
  2
102
 70
     0
 62
   102
  6
CONTINUOUS
  0
LAYER
  5
A0
330
2
100
AcDbSymbolTableRecord
100
AcDbLayerTableRecord
  2
103
 70
     0
 62
   103
  6
CONTINUOUS
  0
LAYER
  5
A1
330
2
100
AcDbSymbolTableRecord
100
AcDbLayerTableRecord
  2
104
 70
     0
 62
   104
  6
CONTINUOUS
  0
LAYER
  5
A2
330
2
100
AcDbSymbolTableRecord
100
AcDbLayerTableRecord
  2
105
 70
     0
 62
   105
  6
CONTINUOUS
  0
LAYER
  5
A3
330
2
100
AcDbSymbolTableRecord
100
AcDbLayerTableRecord
  2
106
 70
     0
 62
   106
  6
CONTINUOUS
  0
LAYER
  5
A4
330
2
100
AcDbSymbolTableRecord
100
AcDbLayerTableRecord
  2
107
 70
     0
 62
   107
  6
CONTINUOUS
  0
LAYER
  5
A5
330
2
100
AcDbSymbolTableRecord
100
AcDbLayerTableRecord
  2
108
 70
     0
 62
   108
  6
CONTINUOUS
  0
LAYER
  5
A6
330
2
100
AcDbSymbolTableRecord
100
AcDbLayerTableRecord
  2
109
 70
     0
 62
   109
  6
CONTINUOUS
  0
LAYER
  5
A7
330
2
100
AcDbSymbolTableRecord
100
AcDbLayerTableRecord
  2
110
 70
     0
 62
   110
  6
CONTINUOUS
  0
LAYER
  5
A8
330
2
100
AcDbSymbolTableRecord
100
AcDbLayerTableRecord
  2
111
 70
     0
 62
   111
  6
CONTINUOUS
  0
LAYER
  5
A9
330
2
100
AcDbSymbolTableRecord
100
AcDbLayerTableRecord
  2
112
 70
     0
 62
   112
  6
CONTINUOUS
  0
LAYER
  5
AA
330
2
100
AcDbSymbolTableRecord
100
AcDbLayerTableRecord
  2
113
 70
     0
 62
   113
  6
CONTINUOUS
  0
LAYER
  5
AB
330
2
100
AcDbSymbolTableRecord
100
AcDbLayerTableRecord
  2
114
 70
     0
 62
   114
  6
CONTINUOUS
  0
LAYER
  5
AC
330
2
100
AcDbSymbolTableRecord
100
AcDbLayerTableRecord
  2
115
 70
     0
 62
   115
  6
CONTINUOUS
  0
LAYER
  5
AD
330
2
100
AcDbSymbolTableRecord
100
AcDbLayerTableRecord
  2
116
 70
     0
 62
   116
  6
CONTINUOUS
  0
LAYER
  5
AE
330
2
100
AcDbSymbolTableRecord
100
AcDbLayerTableRecord
  2
117
 70
     0
 62
   117
  6
CONTINUOUS
  0
LAYER
  5
AF
330
2
100
AcDbSymbolTableRecord
100
AcDbLayerTableRecord
  2
118
 70
     0
 62
   118
  6
CONTINUOUS
  0
LAYER
  5
B0
330
2
100
AcDbSymbolTableRecord
100
AcDbLayerTableRecord
  2
119
 70
     0
 62
   119
  6
CONTINUOUS
  0
LAYER
  5
B1
330
2
100
AcDbSymbolTableRecord
100
AcDbLayerTableRecord
  2
120
 70
     0
 62
   120
  6
CONTINUOUS
  0
LAYER
  5
B2
330
2
100
AcDbSymbolTableRecord
100
AcDbLayerTableRecord
  2
121
 70
     0
 62
   121
  6
CONTINUOUS
  0
LAYER
  5
B3
330
2
100
AcDbSymbolTableRecord
100
AcDbLayerTableRecord
  2
122
 70
     0
 62
   122
  6
CONTINUOUS
  0
LAYER
  5
B4
330
2
100
AcDbSymbolTableRecord
100
AcDbLayerTableRecord
  2
123
 70
     0
 62
   123
  6
CONTINUOUS
  0
LAYER
  5
B5
330
2
100
AcDbSymbolTableRecord
100
AcDbLayerTableRecord
  2
124
 70
     0
 62
   124
  6
CONTINUOUS
  0
LAYER
  5
B6
330
2
100
AcDbSymbolTableRecord
100
AcDbLayerTableRecord
  2
125
 70
     0
 62
   125
  6
CONTINUOUS
  0
LAYER
  5
B7
330
2
100
AcDbSymbolTableRecord
100
AcDbLayerTableRecord
  2
126
 70
     0
 62
   126
  6
CONTINUOUS
  0
LAYER
  5
B8
330
2
100
AcDbSymbolTableRecord
100
AcDbLayerTableRecord
  2
127
 70
     0
 62
   127
  6
CONTINUOUS
  0
LAYER
  5
B9
330
2
100
AcDbSymbolTableRecord
100
AcDbLayerTableRecord
  2
128
 70
     0
 62
   128
  6
CONTINUOUS
  0
LAYER
  5
BA
330
2
100
AcDbSymbolTableRecord
100
AcDbLayerTableRecord
  2
129
 70
     0
 62
   129
  6
CONTINUOUS
  0
LAYER
  5
BB
330
2
100
AcDbSymbolTableRecord
100
AcDbLayerTableRecord
  2
130
 70
     0
 62
   130
  6
CONTINUOUS
  0
LAYER
  5
BC
330
2
100
AcDbSymbolTableRecord
100
AcDbLayerTableRecord
  2
131
 70
     0
 62
   131
  6
CONTINUOUS
  0
LAYER
  5
BD
330
2
100
AcDbSymbolTableRecord
100
AcDbLayerTableRecord
  2
132
 70
     0
 62
   132
  6
CONTINUOUS
  0
LAYER
  5
BE
330
2
100
AcDbSymbolTableRecord
100
AcDbLayerTableRecord
  2
133
 70
     0
 62
   133
  6
CONTINUOUS
  0
LAYER
  5
BF
330
2
100
AcDbSymbolTableRecord
100
AcDbLayerTableRecord
  2
134
 70
     0
 62
   134
  6
CONTINUOUS
  0
LAYER
  5
C0
330
2
100
AcDbSymbolTableRecord
100
AcDbLayerTableRecord
  2
135
 70
     0
 62
   135
  6
CONTINUOUS
  0
LAYER
  5
C1
330
2
100
AcDbSymbolTableRecord
100
AcDbLayerTableRecord
  2
136
 70
     0
 62
   136
  6
CONTINUOUS
  0
LAYER
  5
C2
330
2
100
AcDbSymbolTableRecord
100
AcDbLayerTableRecord
  2
137
 70
     0
 62
   137
  6
CONTINUOUS
  0
LAYER
  5
C3
330
2
100
AcDbSymbolTableRecord
100
AcDbLayerTableRecord
  2
138
 70
     0
 62
   138
  6
CONTINUOUS
  0
LAYER
  5
C4
330
2
100
AcDbSymbolTableRecord
100
AcDbLayerTableRecord
  2
139
 70
     0
 62
   139
  6
CONTINUOUS
  0
LAYER
  5
C5
330
2
100
AcDbSymbolTableRecord
100
AcDbLayerTableRecord
  2
140
 70
     0
 62
   140
  6
CONTINUOUS
  0
LAYER
  5
C6
330
2
100
AcDbSymbolTableRecord
100
AcDbLayerTableRecord
  2
141
 70
     0
 62
   141
  6
CONTINUOUS
  0
LAYER
  5
C7
330
2
100
AcDbSymbolTableRecord
100
AcDbLayerTableRecord
  2
142
 70
     0
 62
   142
  6
CONTINUOUS
  0
LAYER
  5
C8
330
2
100
AcDbSymbolTableRecord
100
AcDbLayerTableRecord
  2
143
 70
     0
 62
   143
  6
CONTINUOUS
  0
LAYER
  5
C9
330
2
100
AcDbSymbolTableRecord
100
AcDbLayerTableRecord
  2
144
 70
     0
 62
   144
  6
CONTINUOUS
  0
LAYER
  5
CA
330
2
100
AcDbSymbolTableRecord
100
AcDbLayerTableRecord
  2
145
 70
     0
 62
   145
  6
CONTINUOUS
  0
LAYER
  5
CB
330
2
100
AcDbSymbolTableRecord
100
AcDbLayerTableRecord
  2
146
 70
     0
 62
   146
  6
CONTINUOUS
  0
LAYER
  5
CC
330
2
100
AcDbSymbolTableRecord
100
AcDbLayerTableRecord
  2
147
 70
     0
 62
   147
  6
CONTINUOUS
  0
LAYER
  5
CD
330
2
100
AcDbSymbolTableRecord
100
AcDbLayerTableRecord
  2
148
 70
     0
 62
   148
  6
CONTINUOUS
  0
LAYER
  5
CE
330
2
100
AcDbSymbolTableRecord
100
AcDbLayerTableRecord
  2
149
 70
     0
 62
   149
  6
CONTINUOUS
  0
LAYER
  5
CF
330
2
100
AcDbSymbolTableRecord
100
AcDbLayerTableRecord
  2
150
 70
     0
 62
   150
  6
CONTINUOUS
  0
LAYER
  5
D0
330
2
100
AcDbSymbolTableRecord
100
AcDbLayerTableRecord
  2
151
 70
     0
 62
   151
  6
CONTINUOUS
  0
LAYER
  5
D1
330
2
100
AcDbSymbolTableRecord
100
AcDbLayerTableRecord
  2
152
 70
     0
 62
   152
  6
CONTINUOUS
  0
LAYER
  5
D2
330
2
100
AcDbSymbolTableRecord
100
AcDbLayerTableRecord
  2
153
 70
     0
 62
   153
  6
CONTINUOUS
  0
LAYER
  5
D3
330
2
100
AcDbSymbolTableRecord
100
AcDbLayerTableRecord
  2
154
 70
     0
 62
   154
  6
CONTINUOUS
  0
LAYER
  5
D4
330
2
100
AcDbSymbolTableRecord
100
AcDbLayerTableRecord
  2
155
 70
     0
 62
   155
  6
CONTINUOUS
  0
LAYER
  5
D5
330
2
100
AcDbSymbolTableRecord
100
AcDbLayerTableRecord
  2
156
 70
     0
 62
   156
  6
CONTINUOUS
  0
LAYER
  5
D6
330
2
100
AcDbSymbolTableRecord
100
AcDbLayerTableRecord
  2
157
 70
     0
 62
   157
  6
CONTINUOUS
  0
LAYER
  5
D7
330
2
100
AcDbSymbolTableRecord
100
AcDbLayerTableRecord
  2
158
 70
     0
 62
   158
  6
CONTINUOUS
  0
LAYER
  5
D8
330
2
100
AcDbSymbolTableRecord
100
AcDbLayerTableRecord
  2
159
 70
     0
 62
   159
  6
CONTINUOUS
  0
LAYER
  5
D9
330
2
100
AcDbSymbolTableRecord
100
AcDbLayerTableRecord
  2
160
 70
     0
 62
   160
  6
CONTINUOUS
  0
LAYER
  5
DA
330
2
100
AcDbSymbolTableRecord
100
AcDbLayerTableRecord
  2
161
 70
     0
 62
   161
  6
CONTINUOUS
  0
LAYER
  5
DB
330
2
100
AcDbSymbolTableRecord
100
AcDbLayerTableRecord
  2
162
 70
     0
 62
   162
  6
CONTINUOUS
  0
LAYER
  5
DC
330
2
100
AcDbSymbolTableRecord
100
AcDbLayerTableRecord
  2
163
 70
     0
 62
   163
  6
CONTINUOUS
  0
LAYER
  5
DD
330
2
100
AcDbSymbolTableRecord
100
AcDbLayerTableRecord
  2
164
 70
     0
 62
   164
  6
CONTINUOUS
  0
LAYER
  5
DE
330
2
100
AcDbSymbolTableRecord
100
AcDbLayerTableRecord
  2
165
 70
     0
 62
   165
  6
CONTINUOUS
  0
LAYER
  5
DF
330
2
100
AcDbSymbolTableRecord
100
AcDbLayerTableRecord
  2
166
 70
     0
 62
   166
  6
CONTINUOUS
  0
LAYER
  5
E0
330
2
100
AcDbSymbolTableRecord
100
AcDbLayerTableRecord
  2
167
 70
     0
 62
   167
  6
CONTINUOUS
  0
LAYER
  5
E1
330
2
100
AcDbSymbolTableRecord
100
AcDbLayerTableRecord
  2
168
 70
     0
 62
   168
  6
CONTINUOUS
  0
LAYER
  5
E2
330
2
100
AcDbSymbolTableRecord
100
AcDbLayerTableRecord
  2
169
 70
     0
 62
   169
  6
CONTINUOUS
  0
LAYER
  5
E3
330
2
100
AcDbSymbolTableRecord
100
AcDbLayerTableRecord
  2
170
 70
     0
 62
   170
  6
CONTINUOUS
  0
LAYER
  5
E4
330
2
100
AcDbSymbolTableRecord
100
AcDbLayerTableRecord
  2
171
 70
     0
 62
   171
  6
CONTINUOUS
  0
LAYER
  5
E5
330
2
100
AcDbSymbolTableRecord
100
AcDbLayerTableRecord
  2
172
 70
     0
 62
   172
  6
CONTINUOUS
  0
LAYER
  5
E6
330
2
100
AcDbSymbolTableRecord
100
AcDbLayerTableRecord
  2
173
 70
     0
 62
   173
  6
CONTINUOUS
  0
LAYER
  5
E7
330
2
100
AcDbSymbolTableRecord
100
AcDbLayerTableRecord
  2
174
 70
     0
 62
   174
  6
CONTINUOUS
  0
LAYER
  5
E8
330
2
100
AcDbSymbolTableRecord
100
AcDbLayerTableRecord
  2
175
 70
     0
 62
   175
  6
CONTINUOUS
  0
LAYER
  5
E9
330
2
100
AcDbSymbolTableRecord
100
AcDbLayerTableRecord
  2
176
 70
     0
 62
   176
  6
CONTINUOUS
  0
LAYER
  5
EA
330
2
100
AcDbSymbolTableRecord
100
AcDbLayerTableRecord
  2
177
 70
     0
 62
   177
  6
CONTINUOUS
  0
LAYER
  5
EB
330
2
100
AcDbSymbolTableRecord
100
AcDbLayerTableRecord
  2
178
 70
     0
 62
   178
  6
CONTINUOUS
  0
LAYER
  5
EC
330
2
100
AcDbSymbolTableRecord
100
AcDbLayerTableRecord
  2
179
 70
     0
 62
   179
  6
CONTINUOUS
  0
LAYER
  5
ED
330
2
100
AcDbSymbolTableRecord
100
AcDbLayerTableRecord
  2
180
 70
     0
 62
   180
  6
CONTINUOUS
  0
LAYER
  5
EE
330
2
100
AcDbSymbolTableRecord
100
AcDbLayerTableRecord
  2
181
 70
     0
 62
   181
  6
CONTINUOUS
  0
LAYER
  5
EF
330
2
100
AcDbSymbolTableRecord
100
AcDbLayerTableRecord
  2
182
 70
     0
 62
   182
  6
CONTINUOUS
  0
LAYER
  5
F0
330
2
100
AcDbSymbolTableRecord
100
AcDbLayerTableRecord
  2
183
 70
     0
 62
   183
  6
CONTINUOUS
  0
LAYER
  5
F1
330
2
100
AcDbSymbolTableRecord
100
AcDbLayerTableRecord
  2
184
 70
     0
 62
   184
  6
CONTINUOUS
  0
LAYER
  5
F2
330
2
100
AcDbSymbolTableRecord
100
AcDbLayerTableRecord
  2
185
 70
     0
 62
   185
  6
CONTINUOUS
  0
LAYER
  5
F3
330
2
100
AcDbSymbolTableRecord
100
AcDbLayerTableRecord
  2
186
 70
     0
 62
   186
  6
CONTINUOUS
  0
LAYER
  5
F4
330
2
100
AcDbSymbolTableRecord
100
AcDbLayerTableRecord
  2
187
 70
     0
 62
   187
  6
CONTINUOUS
  0
LAYER
  5
F5
330
2
100
AcDbSymbolTableRecord
100
AcDbLayerTableRecord
  2
188
 70
     0
 62
   188
  6
CONTINUOUS
  0
LAYER
  5
F6
330
2
100
AcDbSymbolTableRecord
100
AcDbLayerTableRecord
  2
189
 70
     0
 62
   189
  6
CONTINUOUS
  0
LAYER
  5
F7
330
2
100
AcDbSymbolTableRecord
100
AcDbLayerTableRecord
  2
190
 70
     0
 62
   190
  6
CONTINUOUS
  0
LAYER
  5
F8
330
2
100
AcDbSymbolTableRecord
100
AcDbLayerTableRecord
  2
191
 70
     0
 62
   191
  6
CONTINUOUS
  0
LAYER
  5
F9
330
2
100
AcDbSymbolTableRecord
100
AcDbLayerTableRecord
  2
192
 70
     0
 62
   192
  6
CONTINUOUS
  0
LAYER
  5
FA
330
2
100
AcDbSymbolTableRecord
100
AcDbLayerTableRecord
  2
193
 70
     0
 62
   193
  6
CONTINUOUS
  0
LAYER
  5
FB
330
2
100
AcDbSymbolTableRecord
100
AcDbLayerTableRecord
  2
194
 70
     0
 62
   194
  6
CONTINUOUS
  0
LAYER
  5
FC
330
2
100
AcDbSymbolTableRecord
100
AcDbLayerTableRecord
  2
195
 70
     0
 62
   195
  6
CONTINUOUS
  0
LAYER
  5
FD
330
2
100
AcDbSymbolTableRecord
100
AcDbLayerTableRecord
  2
196
 70
     0
 62
   196
  6
CONTINUOUS
  0
LAYER
  5
FE
330
2
100
AcDbSymbolTableRecord
100
AcDbLayerTableRecord
  2
197
 70
     0
 62
   197
  6
CONTINUOUS
  0
LAYER
  5
FF
330
2
100
AcDbSymbolTableRecord
100
AcDbLayerTableRecord
  2
198
 70
     0
 62
   198
  6
CONTINUOUS
  0
LAYER
  5
100
330
2
100
AcDbSymbolTableRecord
100
AcDbLayerTableRecord
  2
199
 70
     0
 62
   199
  6
CONTINUOUS
  0
LAYER
  5
101
330
2
100
AcDbSymbolTableRecord
100
AcDbLayerTableRecord
  2
200
 70
     0
 62
   200
  6
CONTINUOUS
  0
LAYER
  5
102
330
2
100
AcDbSymbolTableRecord
100
AcDbLayerTableRecord
  2
201
 70
     0
 62
   201
  6
CONTINUOUS
  0
LAYER
  5
103
330
2
100
AcDbSymbolTableRecord
100
AcDbLayerTableRecord
  2
202
 70
     0
 62
   202
  6
CONTINUOUS
  0
LAYER
  5
104
330
2
100
AcDbSymbolTableRecord
100
AcDbLayerTableRecord
  2
203
 70
     0
 62
   203
  6
CONTINUOUS
  0
LAYER
  5
105
330
2
100
AcDbSymbolTableRecord
100
AcDbLayerTableRecord
  2
204
 70
     0
 62
   204
  6
CONTINUOUS
  0
LAYER
  5
106
330
2
100
AcDbSymbolTableRecord
100
AcDbLayerTableRecord
  2
205
 70
     0
 62
   205
  6
CONTINUOUS
  0
LAYER
  5
107
330
2
100
AcDbSymbolTableRecord
100
AcDbLayerTableRecord
  2
206
 70
     0
 62
   206
  6
CONTINUOUS
  0
LAYER
  5
108
330
2
100
AcDbSymbolTableRecord
100
AcDbLayerTableRecord
  2
207
 70
     0
 62
   207
  6
CONTINUOUS
  0
LAYER
  5
109
330
2
100
AcDbSymbolTableRecord
100
AcDbLayerTableRecord
  2
208
 70
     0
 62
   208
  6
CONTINUOUS
  0
LAYER
  5
10A
330
2
100
AcDbSymbolTableRecord
100
AcDbLayerTableRecord
  2
209
 70
     0
 62
   209
  6
CONTINUOUS
  0
LAYER
  5
10B
330
2
100
AcDbSymbolTableRecord
100
AcDbLayerTableRecord
  2
210
 70
     0
 62
   210
  6
CONTINUOUS
  0
LAYER
  5
10C
330
2
100
AcDbSymbolTableRecord
100
AcDbLayerTableRecord
  2
211
 70
     0
 62
   211
  6
CONTINUOUS
  0
LAYER
  5
10D
330
2
100
AcDbSymbolTableRecord
100
AcDbLayerTableRecord
  2
212
 70
     0
 62
   212
  6
CONTINUOUS
  0
LAYER
  5
10E
330
2
100
AcDbSymbolTableRecord
100
AcDbLayerTableRecord
  2
213
 70
     0
 62
   213
  6
CONTINUOUS
  0
LAYER
  5
10F
330
2
100
AcDbSymbolTableRecord
100
AcDbLayerTableRecord
  2
214
 70
     0
 62
   214
  6
CONTINUOUS
  0
LAYER
  5
110
330
2
100
AcDbSymbolTableRecord
100
AcDbLayerTableRecord
  2
215
 70
     0
 62
   215
  6
CONTINUOUS
  0
LAYER
  5
111
330
2
100
AcDbSymbolTableRecord
100
AcDbLayerTableRecord
  2
216
 70
     0
 62
   216
  6
CONTINUOUS
  0
LAYER
  5
112
330
2
100
AcDbSymbolTableRecord
100
AcDbLayerTableRecord
  2
217
 70
     0
 62
   217
  6
CONTINUOUS
  0
LAYER
  5
113
330
2
100
AcDbSymbolTableRecord
100
AcDbLayerTableRecord
  2
218
 70
     0
 62
   218
  6
CONTINUOUS
  0
LAYER
  5
114
330
2
100
AcDbSymbolTableRecord
100
AcDbLayerTableRecord
  2
219
 70
     0
 62
   219
  6
CONTINUOUS
  0
LAYER
  5
115
330
2
100
AcDbSymbolTableRecord
100
AcDbLayerTableRecord
  2
220
 70
     0
 62
   220
  6
CONTINUOUS
  0
LAYER
  5
116
330
2
100
AcDbSymbolTableRecord
100
AcDbLayerTableRecord
  2
221
 70
     0
 62
   221
  6
CONTINUOUS
  0
LAYER
  5
117
330
2
100
AcDbSymbolTableRecord
100
AcDbLayerTableRecord
  2
222
 70
     0
 62
   222
  6
CONTINUOUS
  0
LAYER
  5
118
330
2
100
AcDbSymbolTableRecord
100
AcDbLayerTableRecord
  2
223
 70
     0
 62
   223
  6
CONTINUOUS
  0
LAYER
  5
119
330
2
100
AcDbSymbolTableRecord
100
AcDbLayerTableRecord
  2
224
 70
     0
 62
   224
  6
CONTINUOUS
  0
LAYER
  5
11A
330
2
100
AcDbSymbolTableRecord
100
AcDbLayerTableRecord
  2
225
 70
     0
 62
   225
  6
CONTINUOUS
  0
LAYER
  5
11B
330
2
100
AcDbSymbolTableRecord
100
AcDbLayerTableRecord
  2
226
 70
     0
 62
   226
  6
CONTINUOUS
  0
LAYER
  5
11C
330
2
100
AcDbSymbolTableRecord
100
AcDbLayerTableRecord
  2
227
 70
     0
 62
   227
  6
CONTINUOUS
  0
LAYER
  5
11D
330
2
100
AcDbSymbolTableRecord
100
AcDbLayerTableRecord
  2
228
 70
     0
 62
   228
  6
CONTINUOUS
  0
LAYER
  5
11E
330
2
100
AcDbSymbolTableRecord
100
AcDbLayerTableRecord
  2
229
 70
     0
 62
   229
  6
CONTINUOUS
  0
LAYER
  5
11F
330
2
100
AcDbSymbolTableRecord
100
AcDbLayerTableRecord
  2
230
 70
     0
 62
   230
  6
CONTINUOUS
  0
LAYER
  5
120
330
2
100
AcDbSymbolTableRecord
100
AcDbLayerTableRecord
  2
231
 70
     0
 62
   231
  6
CONTINUOUS
  0
LAYER
  5
121
330
2
100
AcDbSymbolTableRecord
100
AcDbLayerTableRecord
  2
232
 70
     0
 62
   232
  6
CONTINUOUS
  0
LAYER
  5
122
330
2
100
AcDbSymbolTableRecord
100
AcDbLayerTableRecord
  2
233
 70
     0
 62
   233
  6
CONTINUOUS
  0
LAYER
  5
123
330
2
100
AcDbSymbolTableRecord
100
AcDbLayerTableRecord
  2
234
 70
     0
 62
   234
  6
CONTINUOUS
  0
LAYER
  5
124
330
2
100
AcDbSymbolTableRecord
100
AcDbLayerTableRecord
  2
235
 70
     0
 62
   235
  6
CONTINUOUS
  0
LAYER
  5
125
330
2
100
AcDbSymbolTableRecord
100
AcDbLayerTableRecord
  2
236
 70
     0
 62
   236
  6
CONTINUOUS
  0
LAYER
  5
126
330
2
100
AcDbSymbolTableRecord
100
AcDbLayerTableRecord
  2
237
 70
     0
 62
   237
  6
CONTINUOUS
  0
LAYER
  5
127
330
2
100
AcDbSymbolTableRecord
100
AcDbLayerTableRecord
  2
238
 70
     0
 62
   238
  6
CONTINUOUS
  0
LAYER
  5
128
330
2
100
AcDbSymbolTableRecord
100
AcDbLayerTableRecord
  2
239
 70
     0
 62
   239
  6
CONTINUOUS
  0
LAYER
  5
129
330
2
100
AcDbSymbolTableRecord
100
AcDbLayerTableRecord
  2
240
 70
     0
 62
   240
  6
CONTINUOUS
  0
LAYER
  5
12A
330
2
100
AcDbSymbolTableRecord
100
AcDbLayerTableRecord
  2
241
 70
     0
 62
   241
  6
CONTINUOUS
  0
LAYER
  5
12B
330
2
100
AcDbSymbolTableRecord
100
AcDbLayerTableRecord
  2
242
 70
     0
 62
   242
  6
CONTINUOUS
  0
LAYER
  5
12C
330
2
100
AcDbSymbolTableRecord
100
AcDbLayerTableRecord
  2
243
 70
     0
 62
   243
  6
CONTINUOUS
  0
LAYER
  5
12D
330
2
100
AcDbSymbolTableRecord
100
AcDbLayerTableRecord
  2
244
 70
     0
 62
   244
  6
CONTINUOUS
  0
LAYER
  5
12E
330
2
100
AcDbSymbolTableRecord
100
AcDbLayerTableRecord
  2
245
 70
     0
 62
   245
  6
CONTINUOUS
  0
LAYER
  5
12F
330
2
100
AcDbSymbolTableRecord
100
AcDbLayerTableRecord
  2
246
 70
     0
 62
   246
  6
CONTINUOUS
  0
LAYER
  5
130
330
2
100
AcDbSymbolTableRecord
100
AcDbLayerTableRecord
  2
247
 70
     0
 62
   247
  6
CONTINUOUS
  0
LAYER
  5
131
330
2
100
AcDbSymbolTableRecord
100
AcDbLayerTableRecord
  2
248
 70
     0
 62
   248
  6
CONTINUOUS
  0
LAYER
  5
132
330
2
100
AcDbSymbolTableRecord
100
AcDbLayerTableRecord
  2
249
 70
     0
 62
   249
  6
CONTINUOUS
  0
LAYER
  5
133
330
2
100
AcDbSymbolTableRecord
100
AcDbLayerTableRecord
  2
250
 70
     0
 62
   250
  6
CONTINUOUS
  0
LAYER
  5
134
330
2
100
AcDbSymbolTableRecord
100
AcDbLayerTableRecord
  2
251
 70
     0
 62
   251
  6
CONTINUOUS
  0
LAYER
  5
135
330
2
100
AcDbSymbolTableRecord
100
AcDbLayerTableRecord
  2
252
 70
     0
 62
   252
  6
CONTINUOUS
  0
LAYER
  5
136
330
2
100
AcDbSymbolTableRecord
100
AcDbLayerTableRecord
  2
253
 70
     0
 62
   253
  6
CONTINUOUS
  0
LAYER
  5
137
330
2
100
AcDbSymbolTableRecord
100
AcDbLayerTableRecord
  2
254
 70
     0
 62
   254
  6
CONTINUOUS
  0
LAYER
  5
138
330
2
100
AcDbSymbolTableRecord
100
AcDbLayerTableRecord
  2
255
 70
     0
 62
   255
  6
CONTINUOUS
  0
LAYER
  5
35AD
330
2
100
AcDbSymbolTableRecord
100
AcDbLayerTableRecord
  2
DEFPOINTS
 70
     0
 62
     7
  6
CONTINUOUS
  0
ENDTAB
  0
TABLE
  2
STYLE
  5
3
330
0
100
AcDbSymbolTable
 70
     1
  0
STYLE
  5
11
330
3
100
AcDbSymbolTableRecord
100
AcDbTextStyleTableRecord
  2
STANDARD
 70
     0
 40
0.0
 41
1.0
 50
0.0
 71
     0
 42
0.2
  3
monotxt
  4

  0
ENDTAB
  0
TABLE
  2
VIEW
  5
6
330
0
100
AcDbSymbolTable
 70
     0
  0
ENDTAB
  0
TABLE
  2
UCS
  5
7
330
0
100
AcDbSymbolTable
 70
     0
  0
ENDTAB
  0
TABLE
  2
APPID
  5
9
330
0
100
AcDbSymbolTable
 70
     1
  0
APPID
  5
12
330
9
100
AcDbSymbolTableRecord
100
AcDbRegAppTableRecord
  2
ACAD
 70
     0
  0
ENDTAB
  0
TABLE
  2
DIMSTYLE
  5
A
330
0
100
AcDbSymbolTable
 70
     1
  0
DIMSTYLE
105
23B4
102
{ACAD_REACTORS
330
35AC
102
}
330
A
100
AcDbSymbolTableRecord
100
AcDbDimStyleTableRecord
  2
STANDARD
 70
     0
  3

  4

  5

  6

  7

 40
1.0
 41
0.18
 42
0.0625
 43
0.38
 44
0.18
 45
0.0
 46
0.0
 47
0.0
 48
0.0
140
0.18
141
0.09
142
0.0
143
25.4
144
1.0
145
0.0
146
1.0
147
0.09
 71
     0
 72
     0
 73
     1
 74
     1
 75
     0
 76
     0
 77
     0
 78
     0
170
     0
171
     2
172
     0
173
     0
174
     0
175
     0
176
     0
177
     0
178
     0
270
     2
271
     4
272
     4
273
     2
274
     2
340
11
275
     0
280
     0
281
     0
282
     0
283
     1
284
     0
285
     0
286
     0
287
     3
288
     0
  0
ENDTAB
  0
TABLE
  2
BLOCK_RECORD
  5
1
330
0
100
AcDbSymbolTable
 70
     1
  0
BLOCK_RECORD
  5
1E
102
{ACAD_XDICTIONARY
360
3576
102
}
330
1
100
AcDbSymbolTableRecord
100
AcDbBlockTableRecord
  2
*MODEL_SPACE
  0
BLOCK_RECORD
  5
1A
102
{ACAD_XDICTIONARY
360
3578
102
}
330
1
100
AcDbSymbolTableRecord
100
AcDbBlockTableRecord
  2
*PAPER_SPACE
  0
BLOCK_RECORD
  5
35AE
330
1
100
AcDbSymbolTableRecord
100
AcDbBlockTableRecord
  2
*D0
  0
ENDTAB
  0
ENDSEC
  0
SECTION
  2
BLOCKS
  0
BLOCK
  5
13B
330
1E
100
AcDbEntity
  8
0
100
AcDbBlockBegin
  2
*MODEL_SPACE
 70
     0
 10
0.0
 20
0.0
 30
0.0
  3
*MODEL_SPACE
  1

  0
ENDBLK
  5
13C
330
1E
100
AcDbEntity
  8
0
100
AcDbBlockEnd
  0
BLOCK
  5
139
330
1A
100
AcDbEntity
 67
     1
  8
0
100
AcDbBlockBegin
  2
*PAPER_SPACE
 70
     0
 10
0.0
 20
0.0
 30
0.0
  3
*PAPER_SPACE
  1

  0
ENDBLK
  5
13A
330
1A
100
AcDbEntity
 67
     1
  8
0
100
AcDbBlockEnd
  0
BLOCK
  5
35B9
330
35AE
100
AcDbEntity
  8
0
100
AcDbBlockBegin
  2
*D0
 70
     1
 10
0.0
 20
0.0
 30
0.0
  3
*D0
  1

  0
LINE
  5
35BB
330
35AE
100
AcDbEntity
  8
0
 62
     0
100
AcDbLine
 10
1.466251378006091
 20
7.771497877118426
 30
0.0
 11
1.466251378006091
 21
6.385975577122597
 31
0.0
  0
LINE
  5
35BC
330
35AE
100
AcDbEntity
  8
0
 62
     0
100
AcDbLine
 10
4.220244779580895
 20
7.771497877118426
 30
0.0
 11
4.220244779580895
 21
6.385975577122597
 31
0.0
  0
LINE
  5
35BD
330
35AE
100
AcDbEntity
  8
0
 62
     0
100
AcDbLine
 10
1.646251378006091
 20
6.565975577122597
 30
0.0
 11
2.243248078793493
 21
6.565975577122597
 31
0.0
  0
LINE
  5
35BE
330
35AE
100
AcDbEntity
  8
0
 62
     0
100
AcDbLine
 10
4.040244779580896
 20
6.565975577122597
 30
0.0
 11
3.443248078793494
 21
6.565975577122597
 31
0.0
  0
SOLID
  5
35BF
330
35AE
100
AcDbEntity
  8
0
 62
     0
100
AcDbTrace
 10
1.646251378006091
 20
6.595975577122597
 30
0.0
 11
1.646251378006091
 21
6.535975577122597
 31
0.0
 12
1.466251378006091
 22
6.565975577122597
 32
0.0
 13
1.466251378006091
 23
6.565975577122597
 33
0.0
  0
SOLID
  5
35C0
330
35AE
100
AcDbEntity
  8
0
 62
     0
100
AcDbTrace
 10
4.040244779580896
 20
6.595975577122597
 30
0.0
 11
4.040244779580896
 21
6.535975577122597
 31
0.0
 12
4.220244779580895
 22
6.565975577122597
 32
0.0
 13
4.220244779580895
 23
6.565975577122597
 33
0.0
  0
MTEXT
  5
35C1
330
35AE
100
AcDbEntity
  8
0
 62
     0
100
AcDbMText
 10
2.843248078793493
 20
6.565975577122597
 30
0.0
 40
0.18
 41
0.0
 71
     5
 72
     1
  1
\A1;2.7540
1001
ACAD
1000
MTEXTBEGIN
1070
    73
1070
     1
1070
    44
1040
1.0
1070
    74
1070
     0
1000
MTEXTEND
  0
POINT
  5
35C2
330
35AE
100
AcDbEntity
  8
DEFPOINTS
 62
     0
100
AcDbPoint
 10
1.466251378006091
 20
7.833997877118426
 30
0.0
  0
POINT
  5
35C3
330
35AE
100
AcDbEntity
  8
DEFPOINTS
 62
     0
100
AcDbPoint
 10
4.220244779580895
 20
7.833997877118426
 30
0.0
  0
POINT
  5
35C4
330
35AE
100
AcDbEntity
  8
DEFPOINTS
 62
     0
100
AcDbPoint
 10
4.220244779580895
 20
6.565975577122597
 30
0.0
  0
ENDBLK
  5
35BA
330
35AE
100
AcDbEntity
  8
0
100
AcDbBlockEnd
  0
ENDSEC
  0
SECTION
  2
ENTITIES
  0
LINE
  5
20C8
330
1E
100
AcDbEntity
  8
7
100
AcDbLine
 10
1.526692072887981
 20
2.044830449953072
 30
0.0
 11
4.159804084699005
 21
2.044830449953072
 31
0.0
  0
LINE
  5
20FF
330
1E
100
AcDbEntity
  8
7
100
AcDbLine
 10
1.526692072887981
 20
2.044830449953072
 30
0.0
 11
4.159804084699005
 21
2.044830449953072
 31
0.0
  0
LINE
  5
2106
330
1E
100
AcDbEntity
  8
7
100
AcDbLine
 10
1.692247019738375
 20
2.269512163535749
 30
0.0
 11
2.749959180171446
 21
2.269512163535749
 31
0.0
  0
LINE
  5
2107
330
1E
100
AcDbEntity
  8
7
100
AcDbLine
 10
2.93653697741554
 20
2.269512163535749
 30
0.0
 11
3.994249137848612
 21
2.269512163535749
 31
0.0
  0
LINE
  5
2180
330
1E
100
AcDbEntity
  8
7
100
AcDbLine
 10
1.533261713636013
 20
3.314085042472757
 30
0.0
 11
1.534575641785619
 21
3.314085042472757
 31
0.0
  0
LINE
  5
2181
330
1E
100
AcDbEntity
  8
7
100
AcDbLine
 10
4.220244779580895
 20
3.365328240307403
 30
0.0
 11
4.220244779580895
 21
7.749906475543624
 31
0.0
  0
LINE
  5
2182
330
1E
100
AcDbEntity
  8
7
100
AcDbLine
 10
1.526692072887981
 20
3.304887545425513
 30
0.0
 11
4.159804084699005
 21
3.304887545425513
 31
0.0
  0
LINE
  5
2183
330
1E
100
AcDbEntity
  8
7
100
AcDbLine
 10
1.466251378006091
 20
7.749906475543624
 30
0.0
 11
1.466251378006091
 21
3.365328240307403
 31
0.0
  0
LINE
  5
2184
330
1E
100
AcDbEntity
  8
7
100
AcDbLine
 10
4.159804084699005
 20
7.810347170425513
 30
0.0
 11
1.526692072887981
 21
7.810347170425513
 31
0.0
  0
LINE
  5
218C
330
1E
100
AcDbEntity
  8
7
100
AcDbLine
 10
3.498898225447037
 20
6.793366782630237
 30
0.0
 11
3.498898225447037
 21
4.320554005071183
 31
0.0
  0
LINE
  5
2197
330
1E
100
AcDbEntity
  8
7
100
AcDbLine
 10
2.267747549265934
 20
4.241718316094805
 30
0.0
 11
3.418748608321052
 21
4.241718316094805
 31
0.0
  0
LINE
  5
219F
330
1E
100
AcDbEntity
  8
7
100
AcDbLine
 10
2.18759793213995
 20
6.793366782630237
 30
0.0
 11
2.18759793213995
 21
4.320554005071183
 31
0.0
  0
LINE
  5
21A7
330
1E
100
AcDbEntity
  8
7
100
AcDbLine
 10
2.267747549265934
 20
6.873516399756221
 30
0.0
 11
3.418748608321052
 21
6.873516399756221
 31
0.0
  0
LINE
  5
2245
330
1E
100
AcDbEntity
  8
7
100
AcDbLine
 10
4.205791569935225
 20
3.374525737354648
 30
0.0
 11
4.217616923281682
 21
3.366642168457009
 31
0.0
  0
LINE
  5
2263
330
1E
100
AcDbEntity
  8
7
100
AcDbLine
 10
2.873468426234438
 20
3.580812456842836
 30
0.0
 11
2.898433061076957
 21
3.599207450937325
 31
0.0
  0
LINE
  5
2270
330
1E
100
AcDbEntity
  8
7
100
AcDbLine
 10
2.770982030565146
 20
7.447703001134176
 30
0.0
 11
2.788063096510029
 21
7.416168725543624
 31
0.0
  0
LINE
  5
2285
330
1E
100
AcDbEntity
  8
7
100
AcDbLine
 10
2.899746989226564
 20
7.516027264913702
 30
0.0
 11
2.786749168360422
 21
7.516027264913702
 31
0.0
  0
LINE
  5
2286
330
1E
100
AcDbEntity
  8
7
100
AcDbLine
 10
2.786749168360422
 20
7.416168725543624
 30
0.0
 11
2.899746989226564
 21
7.416168725543624
 31
0.0
  0
LINE
  5
2287
330
1E
100
AcDbEntity
  8
7
100
AcDbLine
 10
2.786749168360422
 20
3.599207450937325
 30
0.0
 11
2.899746989226564
 21
3.599207450937325
 31
0.0
  0
LINE
  5
2288
330
1E
100
AcDbEntity
  8
7
100
AcDbLine
 10
2.899746989226564
 20
3.699065990307403
 30
0.0
 11
2.786749168360422
 21
3.699065990307403
 31
0.0
  0
LINE
  5
246D
330
1E
100
AcDbEntity
  8
7
100
AcDbLine
 10
2.788063096510029
 20
7.416168725543624
 30
0.0
 11
2.813027731352549
 21
7.397773731449135
 31
0.0
  0
LINE
  5
246E
330
1E
100
AcDbEntity
  8
7
100
AcDbLine
 10
2.813027731352549
 20
7.397773731449135
 30
0.0
 11
2.843248078793493
 21
7.391204090701104
 31
0.0
  0
LINE
  5
246F
330
1E
100
AcDbEntity
  8
7
100
AcDbLine
 10
2.843248078793493
 20
7.391204090701104
 30
0.0
 11
2.873468426234438
 21
7.397773731449135
 31
0.0
  0
LINE
  5
2470
330
1E
100
AcDbEntity
  8
7
100
AcDbLine
 10
2.873468426234438
 20
7.397773731449135
 30
0.0
 11
2.898433061076957
 21
7.416168725543624
 31
0.0
  0
LINE
  5
2471
330
1E
100
AcDbEntity
  8
7
100
AcDbLine
 10
2.898433061076957
 20
7.516027264913702
 30
0.0
 11
2.873468426234438
 21
7.53442225900819
 31
0.0
  0
LINE
  5
2472
330
1E
100
AcDbEntity
  8
7
100
AcDbLine
 10
2.873468426234438
 20
7.53442225900819
 30
0.0
 11
2.843248078793493
 21
7.540991899756221
 31
0.0
  0
LINE
  5
2473
330
1E
100
AcDbEntity
  8
7
100
AcDbLine
 10
2.843248078793493
 20
7.540991899756221
 30
0.0
 11
2.813027731352549
 21
7.53442225900819
 31
0.0
  0
LINE
  5
2474
330
1E
100
AcDbEntity
  8
7
100
AcDbLine
 10
2.813027731352549
 20
7.53442225900819
 30
0.0
 11
2.788063096510029
 21
7.516027264913702
 31
0.0
  0
LINE
  5
2475
330
1E
100
AcDbEntity
  8
7
100
AcDbLine
 10
2.898433061076957
 20
7.416168725543624
 30
0.0
 11
2.91551412702184
 21
7.447703001134176
 31
0.0
  0
LINE
  5
2476
330
1E
100
AcDbEntity
  8
7
100
AcDbLine
 10
2.91551412702184
 20
7.447703001134176
 30
0.0
 11
2.91551412702184
 21
7.484492989323151
 31
0.0
  0
LINE
  5
2477
330
1E
100
AcDbEntity
  8
7
100
AcDbLine
 10
2.91551412702184
 20
7.484492989323151
 30
0.0
 11
2.898433061076957
 21
7.516027264913702
 31
0.0
  0
LINE
  5
2478
330
1E
100
AcDbEntity
  8
7
100
AcDbLine
 10
2.788063096510029
 20
7.516027264913702
 30
0.0
 11
2.770982030565146
 21
7.484492989323151
 31
0.0
  0
LINE
  5
2479
330
1E
100
AcDbEntity
  8
7
100
AcDbLine
 10
2.770982030565146
 20
7.484492989323151
 30
0.0
 11
2.770982030565146
 21
7.447703001134176
 31
0.0
  0
LINE
  5
247A
330
1E
100
AcDbEntity
  8
7
100
AcDbLine
 10
2.898433061076957
 20
3.699065990307403
 30
0.0
 11
2.873468426234438
 21
3.717460984401891
 31
0.0
  0
LINE
  5
247B
330
1E
100
AcDbEntity
  8
7
100
AcDbLine
 10
2.873468426234438
 20
3.717460984401891
 30
0.0
 11
2.843248078793493
 21
3.724030625149923
 31
0.0
  0
LINE
  5
247C
330
1E
100
AcDbEntity
  8
7
100
AcDbLine
 10
2.843248078793493
 20
3.724030625149923
 30
0.0
 11
2.813027731352549
 21
3.717460984401891
 31
0.0
  0
LINE
  5
247D
330
1E
100
AcDbEntity
  8
7
100
AcDbLine
 10
2.813027731352549
 20
3.717460984401891
 30
0.0
 11
2.788063096510029
 21
3.699065990307403
 31
0.0
  0
LINE
  5
247E
330
1E
100
AcDbEntity
  8
7
100
AcDbLine
 10
2.788063096510029
 20
3.599207450937325
 30
0.0
 11
2.813027731352549
 21
3.580812456842836
 31
0.0
  0
LINE
  5
247F
330
1E
100
AcDbEntity
  8
7
100
AcDbLine
 10
2.813027731352549
 20
3.580812456842836
 30
0.0
 11
2.843248078793493
 21
3.574242816094804
 31
0.0
  0
LINE
  5
2480
330
1E
100
AcDbEntity
  8
7
100
AcDbLine
 10
2.843248078793493
 20
3.574242816094804
 30
0.0
 11
2.873468426234438
 21
3.580812456842836
 31
0.0
  0
LINE
  5
2481
330
1E
100
AcDbEntity
  8
7
100
AcDbLine
 10
2.898433061076957
 20
3.599207450937325
 30
0.0
 11
2.91551412702184
 21
3.630741726527876
 31
0.0
  0
LINE
  5
2482
330
1E
100
AcDbEntity
  8
7
100
AcDbLine
 10
2.91551412702184
 20
3.630741726527876
 30
0.0
 11
2.91551412702184
 21
3.667531714716852
 31
0.0
  0
LINE
  5
2483
330
1E
100
AcDbEntity
  8
7
100
AcDbLine
 10
2.91551412702184
 20
3.667531714716852
 30
0.0
 11
2.898433061076957
 21
3.699065990307403
 31
0.0
  0
LINE
  5
2484
330
1E
100
AcDbEntity
  8
7
100
AcDbLine
 10
2.788063096510029
 20
3.699065990307403
 30
0.0
 11
2.770982030565146
 21
3.667531714716852
 31
0.0
  0
LINE
  5
2485
330
1E
100
AcDbEntity
  8
7
100
AcDbLine
 10
2.770982030565146
 20
3.667531714716852
 30
0.0
 11
2.770982030565146
 21
3.630741726527876
 31
0.0
  0
LINE
  5
2486
330
1E
100
AcDbEntity
  8
7
100
AcDbLine
 10
2.770982030565146
 20
3.630741726527876
 30
0.0
 11
2.788063096510029
 21
3.599207450937325
 31
0.0
  0
LINE
  5
2487
330
1E
100
AcDbEntity
  8
7
100
AcDbLine
 10
4.220244779580895
 20
7.749906475543624
 30
0.0
 11
4.21498906698247
 21
7.74727861924441
 31
0.0
  0
LINE
  5
2488
330
1E
100
AcDbEntity
  8
7
100
AcDbLine
 10
4.21498906698247
 20
7.74727861924441
 30
0.0
 11
4.203163713636012
 21
7.738081122197167
 31
0.0
  0
LINE
  5
2489
330
1E
100
AcDbEntity
  8
7
100
AcDbLine
 10
4.203163713636012
 20
7.738081122197167
 30
0.0
 11
4.182140863242311
 21
7.722313984401891
 31
0.0
  0
LINE
  5
248A
330
1E
100
AcDbEntity
  8
7
100
AcDbLine
 10
4.182140863242311
 20
7.722313984401891
 30
0.0
 11
4.154548372100579
 21
7.70129113400819
 31
0.0
  0
LINE
  5
248B
330
1E
100
AcDbEntity
  8
7
100
AcDbLine
 10
4.154548372100579
 20
7.70129113400819
 30
0.0
 11
4.120386240210815
 21
7.67632649916567
 31
0.0
  0
LINE
  5
248C
330
1E
100
AcDbEntity
  8
7
100
AcDbLine
 10
4.120386240210815
 20
7.67632649916567
 30
0.0
 11
4.080968395722627
 21
7.648734008023938
 31
0.0
  0
LINE
  5
248D
330
1E
100
AcDbEntity
  8
7
100
AcDbLine
 10
4.080968395722627
 20
7.648734008023938
 30
0.0
 11
4.038922694935226
 21
7.617199732433387
 31
0.0
  0
LINE
  5
248E
330
1E
100
AcDbEntity
  8
7
100
AcDbLine
 10
4.038922694935226
 20
7.617199732433387
 30
0.0
 11
3.994249137848612
 21
7.58435152869323
 31
0.0
  0
LINE
  5
248F
330
1E
100
AcDbEntity
  8
7
100
AcDbLine
 10
4.159804084699005
 20
3.304887545425513
 30
0.0
 11
4.157176228399793
 21
3.308829329874332
 31
0.0
  0
LINE
  5
2490
330
1E
100
AcDbEntity
  8
7
100
AcDbLine
 10
4.157176228399793
 20
3.308829329874332
 30
0.0
 11
4.146664803202942
 21
3.321968611370394
 31
0.0
  0
LINE
  5
2491
330
1E
100
AcDbEntity
  8
7
100
AcDbLine
 10
4.146664803202942
 20
3.321968611370394
 30
0.0
 11
4.132211593557273
 21
3.342991461764095
 31
0.0
  0
LINE
  5
2492
330
1E
100
AcDbEntity
  8
7
100
AcDbLine
 10
4.132211593557273
 20
3.342991461764095
 30
0.0
 11
4.111188743163572
 21
3.370583952905828
 31
0.0
  0
LINE
  5
2493
330
1E
100
AcDbEntity
  8
7
100
AcDbLine
 10
4.111188743163572
 20
3.370583952905828
 30
0.0
 11
4.086224108321053
 21
3.404746084795592
 31
0.0
  0
LINE
  5
2494
330
1E
100
AcDbEntity
  8
7
100
AcDbLine
 10
4.086224108321053
 20
3.404746084795592
 30
0.0
 11
4.057317689029714
 21
3.444163929283781
 31
0.0
  0
LINE
  5
2495
330
1E
100
AcDbEntity
  8
7
100
AcDbLine
 10
4.057317689029714
 20
3.444163929283781
 30
0.0
 11
4.027097341588769
 21
3.486209630071182
 31
0.0
  0
LINE
  5
2496
330
1E
100
AcDbEntity
  8
7
100
AcDbLine
 10
4.027097341588769
 20
3.486209630071182
 30
0.0
 11
3.994249137848612
 21
3.52956925900819
 31
0.0
  0
LINE
  5
2497
330
1E
100
AcDbEntity
  8
7
100
AcDbLine
 10
3.994249137848612
 20
3.52956925900819
 30
0.0
 11
4.040236623084831
 21
3.496721055268033
 31
0.0
  0
LINE
  5
2498
330
1E
100
AcDbEntity
  8
7
100
AcDbLine
 10
4.040236623084831
 20
3.496721055268033
 30
0.0
 11
4.083596252021839
 21
3.465186779677482
 31
0.0
  0
LINE
  5
2499
330
1E
100
AcDbEntity
  8
7
100
AcDbLine
 10
4.083596252021839
 20
3.465186779677482
 30
0.0
 11
4.124328024659634
 21
3.434966432236536
 31
0.0
  0
LINE
  5
249A
330
1E
100
AcDbEntity
  8
7
100
AcDbLine
 10
4.124328024659634
 20
3.434966432236536
 30
0.0
 11
4.158490156549399
 21
3.410001797394017
 31
0.0
  0
LINE
  5
249B
330
1E
100
AcDbEntity
  8
7
100
AcDbLine
 10
4.158490156549399
 20
3.410001797394017
 30
0.0
 11
4.186082647691131
 21
3.388978947000316
 31
0.0
  0
LINE
  5
249C
330
1E
100
AcDbEntity
  8
7
100
AcDbLine
 10
4.186082647691131
 20
3.388978947000316
 30
0.0
 11
4.205791569935225
 21
3.374525737354648
 31
0.0
  0
LINE
  5
249D
330
1E
100
AcDbEntity
  8
7
100
AcDbLine
 10
1.692247019738375
 20
3.52956925900819
 30
0.0
 11
1.659398815998217
 21
3.486209630071182
 31
0.0
  0
LINE
  5
249E
330
1E
100
AcDbEntity
  8
7
100
AcDbLine
 10
1.659398815998217
 20
3.486209630071182
 30
0.0
 11
1.629178468557273
 21
3.444163929283781
 31
0.0
  0
LINE
  5
249F
330
1E
100
AcDbEntity
  8
7
100
AcDbLine
 10
1.629178468557273
 20
3.444163929283781
 30
0.0
 11
1.600272049265933
 21
3.404746084795592
 31
0.0
  0
LINE
  5
24A0
330
1E
100
AcDbEntity
  8
7
100
AcDbLine
 10
1.600272049265933
 20
3.404746084795592
 30
0.0
 11
1.575307414423414
 21
3.370583952905828
 31
0.0
  0
LINE
  5
24A1
330
1E
100
AcDbEntity
  8
7
100
AcDbLine
 10
1.575307414423414
 20
3.370583952905828
 30
0.0
 11
1.554284564029713
 21
3.342991461764095
 31
0.0
  0
LINE
  5
24A2
330
1E
100
AcDbEntity
  8
7
100
AcDbLine
 10
1.554284564029713
 20
3.342991461764095
 30
0.0
 11
1.539831354384044
 21
3.321968611370394
 31
0.0
  0
LINE
  5
24A3
330
1E
100
AcDbEntity
  8
7
100
AcDbLine
 10
1.539831354384044
 20
3.321968611370394
 30
0.0
 11
1.529319929187193
 21
3.308829329874332
 31
0.0
  0
LINE
  5
24A4
330
1E
100
AcDbEntity
  8
7
100
AcDbLine
 10
1.529319929187193
 20
3.308829329874332
 30
0.0
 11
1.526692072887981
 21
3.304887545425513
 31
0.0
  0
LINE
  5
24A5
330
1E
100
AcDbEntity
  8
7
100
AcDbLine
 10
2.857701288439163
 20
3.498034983417639
 30
0.0
 11
2.906316629974595
 21
3.511174264913702
 31
0.0
  0
LINE
  5
24A6
330
1E
100
AcDbEntity
  8
7
100
AcDbLine
 10
2.906316629974595
 20
3.511174264913702
 30
0.0
 11
2.93653697741554
 21
3.52956925900819
 31
0.0
  0
LINE
  5
24A7
330
1E
100
AcDbEntity
  8
7
100
AcDbLine
 10
2.749959180171446
 20
3.52956925900819
 30
0.0
 11
2.761784533517903
 21
3.520371761960946
 31
0.0
  0
LINE
  5
24A8
330
1E
100
AcDbEntity
  8
7
100
AcDbLine
 10
2.761784533517903
 20
3.520371761960946
 30
0.0
 11
2.807772018754123
 21
3.501976767866458
 31
0.0
  0
LINE
  5
24A9
330
1E
100
AcDbEntity
  8
7
100
AcDbLine
 10
2.807772018754123
 20
3.501976767866458
 30
0.0
 11
2.857701288439163
 21
3.498034983417639
 31
0.0
  0
LINE
  5
24AA
330
1E
100
AcDbEntity
  8
7
100
AcDbLine
 10
1.526692072887981
 20
7.810347170425513
 30
0.0
 11
1.529319929187193
 21
7.806405385976693
 31
0.0
  0
LINE
  5
24AB
330
1E
100
AcDbEntity
  8
7
100
AcDbLine
 10
1.529319929187193
 20
7.806405385976693
 30
0.0
 11
1.539831354384044
 21
7.793266104480631
 31
0.0
  0
LINE
  5
24AC
330
1E
100
AcDbEntity
  8
7
100
AcDbLine
 10
1.539831354384044
 20
7.793266104480631
 30
0.0
 11
1.554284564029713
 21
7.77224325408693
 31
0.0
  0
LINE
  5
24AD
330
1E
100
AcDbEntity
  8
7
100
AcDbLine
 10
1.554284564029713
 20
7.77224325408693
 30
0.0
 11
1.575307414423414
 21
7.744650762945198
 31
0.0
  0
LINE
  5
24AE
330
1E
100
AcDbEntity
  8
7
100
AcDbLine
 10
1.575307414423414
 20
7.744650762945198
 30
0.0
 11
1.600272049265933
 21
7.710488631055435
 31
0.0
  0
LINE
  5
24AF
330
1E
100
AcDbEntity
  8
7
100
AcDbLine
 10
1.600272049265933
 20
7.710488631055435
 30
0.0
 11
1.629178468557273
 21
7.671070786567245
 31
0.0
  0
LINE
  5
24B0
330
1E
100
AcDbEntity
  8
7
100
AcDbLine
 10
1.629178468557273
 20
7.671070786567245
 30
0.0
 11
1.659398815998217
 21
7.629025085779844
 31
0.0
  0
LINE
  5
24B1
330
1E
100
AcDbEntity
  8
7
100
AcDbLine
 10
1.659398815998217
 20
7.629025085779844
 30
0.0
 11
1.692247019738375
 21
7.58435152869323
 31
0.0
  0
LINE
  5
24B2
330
1E
100
AcDbEntity
  8
7
100
AcDbLine
 10
3.994249137848612
 20
7.58435152869323
 30
0.0
 11
4.027097341588769
 21
7.629025085779844
 31
0.0
  0
LINE
  5
24B3
330
1E
100
AcDbEntity
  8
7
100
AcDbLine
 10
4.027097341588769
 20
7.629025085779844
 30
0.0
 11
4.057317689029714
 21
7.671070786567245
 31
0.0
  0
LINE
  5
24B4
330
1E
100
AcDbEntity
  8
7
100
AcDbLine
 10
4.057317689029714
 20
7.671070786567245
 30
0.0
 11
4.086224108321053
 21
7.710488631055435
 31
0.0
  0
LINE
  5
24B5
330
1E
100
AcDbEntity
  8
7
100
AcDbLine
 10
4.086224108321053
 20
7.710488631055435
 30
0.0
 11
4.111188743163572
 21
7.744650762945198
 31
0.0
  0
LINE
  5
24B6
330
1E
100
AcDbEntity
  8
7
100
AcDbLine
 10
4.111188743163572
 20
7.744650762945198
 30
0.0
 11
4.132211593557273
 21
7.77224325408693
 31
0.0
  0
LINE
  5
24B7
330
1E
100
AcDbEntity
  8
7
100
AcDbLine
 10
4.132211593557273
 20
7.77224325408693
 30
0.0
 11
4.146664803202942
 21
7.793266104480631
 31
0.0
  0
LINE
  5
24B8
330
1E
100
AcDbEntity
  8
7
100
AcDbLine
 10
4.146664803202942
 20
7.793266104480631
 30
0.0
 11
4.157176228399793
 21
7.806405385976693
 31
0.0
  0
LINE
  5
24B9
330
1E
100
AcDbEntity
  8
7
100
AcDbLine
 10
4.157176228399793
 20
7.806405385976693
 30
0.0
 11
4.159804084699005
 21
7.810347170425513
 31
0.0
  0
LINE
  5
24BA
330
1E
100
AcDbEntity
  8
7
100
AcDbLine
 10
2.93653697741554
 20
7.58435152869323
 30
0.0
 11
2.928653408517903
 21
7.590921169441261
 31
0.0
  0
LINE
  5
24BB
330
1E
100
AcDbEntity
  8
7
100
AcDbLine
 10
2.928653408517903
 20
7.590921169441261
 30
0.0
 11
2.885293779580894
 21
7.611944019834962
 31
0.0
  0
LINE
  5
24BC
330
1E
100
AcDbEntity
  8
7
100
AcDbLine
 10
2.885293779580894
 20
7.611944019834962
 30
0.0
 11
2.835364509895855
 21
7.617199732433387
 31
0.0
  0
LINE
  5
24BD
330
1E
100
AcDbEntity
  8
7
100
AcDbLine
 10
2.835364509895855
 20
7.617199732433387
 30
0.0
 11
2.785435240210816
 21
7.606688307236536
 31
0.0
  0
LINE
  5
24BE
330
1E
100
AcDbEntity
  8
7
100
AcDbLine
 10
2.785435240210816
 20
7.606688307236536
 30
0.0
 11
2.749959180171446
 21
7.58435152869323
 31
0.0
  0
LINE
  5
24BF
330
1E
100
AcDbEntity
  8
7
100
AcDbLine
 10
1.466251378006091
 20
3.365328240307403
 30
0.0
 11
1.471507090604516
 21
3.367956096606615
 31
0.0
  0
LINE
  5
24C0
330
1E
100
AcDbEntity
  8
7
100
AcDbLine
 10
1.471507090604516
 20
3.367956096606615
 30
0.0
 11
1.483332443950973
 21
3.37715359365386
 31
0.0
  0
LINE
  5
24C1
330
1E
100
AcDbEntity
  8
7
100
AcDbLine
 10
1.483332443950973
 20
3.37715359365386
 30
0.0
 11
1.504355294344674
 21
3.392920731449135
 31
0.0
  0
LINE
  5
24C2
330
1E
100
AcDbEntity
  8
7
100
AcDbLine
 10
1.504355294344674
 20
3.392920731449135
 30
0.0
 11
1.531947785486406
 21
3.41262965369323
 31
0.0
  0
LINE
  5
24C3
330
1E
100
AcDbEntity
  8
7
100
AcDbLine
 10
1.531947785486406
 20
3.41262965369323
 30
0.0
 11
1.56610991737617
 21
3.438908216685356
 31
0.0
  0
LINE
  5
24C4
330
1E
100
AcDbEntity
  8
7
100
AcDbLine
 10
1.56610991737617
 20
3.438908216685356
 30
0.0
 11
1.605527761864359
 21
3.466500707827088
 31
0.0
  0
LINE
  5
24C5
330
1E
100
AcDbEntity
  8
7
100
AcDbLine
 10
1.605527761864359
 20
3.466500707827088
 30
0.0
 11
1.647573462651761
 21
3.498034983417639
 31
0.0
  0
LINE
  5
24C6
330
1E
100
AcDbEntity
  8
7
100
AcDbLine
 10
1.647573462651761
 20
3.498034983417639
 30
0.0
 11
1.692247019738375
 21
3.52956925900819
 31
0.0
  0
LINE
  5
24C7
330
1E
100
AcDbEntity
  8
7
100
AcDbLine
 10
1.531947785486406
 20
7.70129113400819
 30
0.0
 11
1.504355294344674
 21
7.722313984401891
 31
0.0
  0
LINE
  5
24C8
330
1E
100
AcDbEntity
  8
7
100
AcDbLine
 10
1.504355294344674
 20
7.722313984401891
 30
0.0
 11
1.483332443950973
 21
7.738081122197167
 31
0.0
  0
LINE
  5
24C9
330
1E
100
AcDbEntity
  8
7
100
AcDbLine
 10
1.483332443950973
 20
7.738081122197167
 30
0.0
 11
1.471507090604516
 21
7.74727861924441
 31
0.0
  0
LINE
  5
24CA
330
1E
100
AcDbEntity
  8
7
100
AcDbLine
 10
1.471507090604516
 20
7.74727861924441
 30
0.0
 11
1.466251378006091
 21
7.749906475543624
 31
0.0
  0
LINE
  5
24CB
330
1E
100
AcDbEntity
  8
7
100
AcDbLine
 10
1.692247019738375
 20
7.58435152869323
 30
0.0
 11
1.647573462651761
 21
7.617199732433387
 31
0.0
  0
LINE
  5
24CC
330
1E
100
AcDbEntity
  8
7
100
AcDbLine
 10
1.647573462651761
 20
7.617199732433387
 30
0.0
 11
1.605527761864359
 21
7.648734008023938
 31
0.0
  0
LINE
  5
24CD
330
1E
100
AcDbEntity
  8
7
100
AcDbLine
 10
1.605527761864359
 20
7.648734008023938
 30
0.0
 11
1.56610991737617
 21
7.67632649916567
 31
0.0
  0
LINE
  5
24CE
330
1E
100
AcDbEntity
  8
7
100
AcDbLine
 10
1.56610991737617
 20
7.67632649916567
 30
0.0
 11
1.531947785486406
 21
7.70129113400819
 31
0.0
  0
LINE
  5
24CF
330
1E
100
AcDbEntity
  8
7
100
AcDbLine
 10
2.93653697741554
 20
3.52956925900819
 30
0.0
 11
3.994249137848612
 21
3.52956925900819
 31
0.0
  0
LINE
  5
24D0
330
1E
100
AcDbEntity
  8
7
100
AcDbLine
 10
3.994249137848612
 20
3.52956925900819
 30
0.0
 11
3.994249137848612
 21
7.58435152869323
 31
0.0
  0
LINE
  5
24D1
330
1E
100
AcDbEntity
  8
7
100
AcDbLine
 10
3.994249137848612
 20
7.58435152869323
 30
0.0
 11
2.93653697741554
 21
7.58435152869323
 31
0.0
  0
LINE
  5
24D2
330
1E
100
AcDbEntity
  8
7
100
AcDbLine
 10
2.692146341588768
 20
3.637311367275907
 30
0.0
 11
2.701343838636013
 21
3.596579594638111
 31
0.0
  0
LINE
  5
24D3
330
1E
100
AcDbEntity
  8
7
100
AcDbLine
 10
2.701343838636013
 20
3.596579594638111
 30
0.0
 11
2.721052760880107
 21
3.559789606449135
 31
0.0
  0
LINE
  5
24D4
330
1E
100
AcDbEntity
  8
7
100
AcDbLine
 10
2.721052760880107
 20
3.559789606449135
 30
0.0
 11
2.749959180171446
 21
3.530883187157796
 31
0.0
  0
LINE
  5
24D5
330
1E
100
AcDbEntity
  8
7
100
AcDbLine
 10
2.985152318950974
 20
3.596579594638111
 30
0.0
 11
2.994349815998218
 21
3.637311367275907
 31
0.0
  0
LINE
  5
24D6
330
1E
100
AcDbEntity
  8
7
100
AcDbLine
 10
2.994349815998218
 20
3.637311367275907
 30
0.0
 11
2.991721959699005
 21
3.678043139913703
 31
0.0
  0
LINE
  5
24D7
330
1E
100
AcDbEntity
  8
7
100
AcDbLine
 10
2.991721959699005
 20
3.678043139913703
 30
0.0
 11
2.977268750053336
 21
3.717460984401891
 31
0.0
  0
LINE
  5
24D8
330
1E
100
AcDbEntity
  8
7
100
AcDbLine
 10
2.977268750053336
 20
3.717460984401891
 30
0.0
 11
2.953618043360422
 21
3.751623116291655
 31
0.0
  0
LINE
  5
24D9
330
1E
100
AcDbEntity
  8
7
100
AcDbLine
 10
2.953618043360422
 20
3.751623116291655
 30
0.0
 11
2.922083767769871
 21
3.777901679283781
 31
0.0
  0
LINE
  5
24DA
330
1E
100
AcDbEntity
  8
7
100
AcDbLine
 10
2.922083767769871
 20
3.777901679283781
 30
0.0
 11
2.883979851431289
 21
3.794982745228662
 31
0.0
  0
LINE
  5
24DB
330
1E
100
AcDbEntity
  8
7
100
AcDbLine
 10
2.883979851431289
 20
3.794982745228662
 30
0.0
 11
2.843248078793493
 21
3.800238457827088
 31
0.0
  0
LINE
  5
24DC
330
1E
100
AcDbEntity
  8
7
100
AcDbLine
 10
2.843248078793493
 20
3.800238457827088
 30
0.0
 11
2.802516306155698
 21
3.794982745228662
 31
0.0
  0
LINE
  5
24DD
330
1E
100
AcDbEntity
  8
7
100
AcDbLine
 10
2.802516306155698
 20
3.794982745228662
 30
0.0
 11
2.764412389817115
 21
3.777901679283781
 31
0.0
  0
LINE
  5
24DE
330
1E
100
AcDbEntity
  8
7
100
AcDbLine
 10
2.764412389817115
 20
3.777901679283781
 30
0.0
 11
2.732878114226564
 21
3.751623116291655
 31
0.0
  0
LINE
  5
24DF
330
1E
100
AcDbEntity
  8
7
100
AcDbLine
 10
2.732878114226564
 20
3.751623116291655
 30
0.0
 11
2.709227407533651
 21
3.717460984401891
 31
0.0
  0
LINE
  5
24E0
330
1E
100
AcDbEntity
  8
7
100
AcDbLine
 10
2.709227407533651
 20
3.717460984401891
 30
0.0
 11
2.694774197887981
 21
3.678043139913703
 31
0.0
  0
LINE
  5
24E1
330
1E
100
AcDbEntity
  8
7
100
AcDbLine
 10
2.694774197887981
 20
3.678043139913703
 30
0.0
 11
2.692146341588768
 21
3.637311367275907
 31
0.0
  0
LINE
  5
24E2
330
1E
100
AcDbEntity
  8
7
100
AcDbLine
 10
2.93653697741554
 20
3.530883187157796
 30
0.0
 11
2.965443396706879
 21
3.559789606449135
 31
0.0
  0
LINE
  5
24E3
330
1E
100
AcDbEntity
  8
7
100
AcDbLine
 10
2.965443396706879
 20
3.559789606449135
 30
0.0
 11
2.985152318950974
 21
3.596579594638111
 31
0.0
  0
LINE
  5
24E4
330
1E
100
AcDbEntity
  8
7
100
AcDbLine
 10
2.749959180171446
 20
7.58435152869323
 30
0.0
 11
1.692247019738375
 21
7.58435152869323
 31
0.0
  0
LINE
  5
24E5
330
1E
100
AcDbEntity
  8
7
100
AcDbLine
 10
1.692247019738375
 20
7.58435152869323
 30
0.0
 11
1.692247019738375
 21
3.52956925900819
 31
0.0
  0
LINE
  5
24E6
330
1E
100
AcDbEntity
  8
7
100
AcDbLine
 10
1.692247019738375
 20
3.52956925900819
 30
0.0
 11
2.749959180171446
 21
3.52956925900819
 31
0.0
  0
LINE
  5
24E7
330
1E
100
AcDbEntity
  8
7
100
AcDbLine
 10
2.991721959699005
 20
7.437191575937324
 30
0.0
 11
2.994349815998218
 21
7.477923348575119
 31
0.0
  0
LINE
  5
24E8
330
1E
100
AcDbEntity
  8
7
100
AcDbLine
 10
2.994349815998218
 20
7.477923348575119
 30
0.0
 11
2.985152318950974
 21
7.518655121212915
 31
0.0
  0
LINE
  5
24E9
330
1E
100
AcDbEntity
  8
7
100
AcDbLine
 10
2.985152318950974
 20
7.518655121212915
 30
0.0
 11
2.965443396706879
 21
7.55544510940189
 31
0.0
  0
LINE
  5
24EA
330
1E
100
AcDbEntity
  8
7
100
AcDbLine
 10
2.965443396706879
 20
7.55544510940189
 30
0.0
 11
2.93653697741554
 21
7.58435152869323
 31
0.0
  0
LINE
  5
24EB
330
1E
100
AcDbEntity
  8
7
100
AcDbLine
 10
2.749959180171446
 20
7.58435152869323
 30
0.0
 11
2.721052760880107
 21
7.55544510940189
 31
0.0
  0
LINE
  5
24EC
330
1E
100
AcDbEntity
  8
7
100
AcDbLine
 10
2.721052760880107
 20
7.55544510940189
 30
0.0
 11
2.701343838636013
 21
7.518655121212915
 31
0.0
  0
LINE
  5
24ED
330
1E
100
AcDbEntity
  8
7
100
AcDbLine
 10
2.701343838636013
 20
7.518655121212915
 30
0.0
 11
2.692146341588768
 21
7.477923348575119
 31
0.0
  0
LINE
  5
24EE
330
1E
100
AcDbEntity
  8
7
100
AcDbLine
 10
2.692146341588768
 20
7.477923348575119
 30
0.0
 11
2.694774197887981
 21
7.437191575937324
 31
0.0
  0
LINE
  5
24EF
330
1E
100
AcDbEntity
  8
7
100
AcDbLine
 10
2.694774197887981
 20
7.437191575937324
 30
0.0
 11
2.709227407533651
 21
7.397773731449135
 31
0.0
  0
LINE
  5
24F0
330
1E
100
AcDbEntity
  8
7
100
AcDbLine
 10
2.709227407533651
 20
7.397773731449135
 30
0.0
 11
2.732878114226564
 21
7.363611599559371
 31
0.0
  0
LINE
  5
24F1
330
1E
100
AcDbEntity
  8
7
100
AcDbLine
 10
2.732878114226564
 20
7.363611599559371
 30
0.0
 11
2.764412389817115
 21
7.337333036567245
 31
0.0
  0
LINE
  5
24F2
330
1E
100
AcDbEntity
  8
7
100
AcDbLine
 10
2.764412389817115
 20
7.337333036567245
 30
0.0
 11
2.802516306155698
 21
7.320251970622363
 31
0.0
  0
LINE
  5
24F3
330
1E
100
AcDbEntity
  8
7
100
AcDbLine
 10
2.802516306155698
 20
7.320251970622363
 30
0.0
 11
2.843248078793493
 21
7.314996258023938
 31
0.0
  0
LINE
  5
24F4
330
1E
100
AcDbEntity
  8
7
100
AcDbLine
 10
2.843248078793493
 20
7.314996258023938
 30
0.0
 11
2.883979851431289
 21
7.320251970622363
 31
0.0
  0
LINE
  5
24F5
330
1E
100
AcDbEntity
  8
7
100
AcDbLine
 10
2.883979851431289
 20
7.320251970622363
 30
0.0
 11
2.922083767769871
 21
7.337333036567245
 31
0.0
  0
LINE
  5
24F6
330
1E
100
AcDbEntity
  8
7
100
AcDbLine
 10
2.922083767769871
 20
7.337333036567245
 30
0.0
 11
2.953618043360422
 21
7.363611599559371
 31
0.0
  0
LINE
  5
24F7
330
1E
100
AcDbEntity
  8
7
100
AcDbLine
 10
2.953618043360422
 20
7.363611599559371
 30
0.0
 11
2.977268750053336
 21
7.397773731449135
 31
0.0
  0
LINE
  5
24F8
330
1E
100
AcDbEntity
  8
7
100
AcDbLine
 10
2.977268750053336
 20
7.397773731449135
 30
0.0
 11
2.991721959699005
 21
7.437191575937324
 31
0.0
  0
LINE
  5
24F9
330
1E
100
AcDbEntity
  8
7
100
AcDbLine
 10
2.267747549265934
 20
6.872202471606615
 30
0.0
 11
2.237527201824989
 21
6.865632830858584
 31
0.0
  0
LINE
  5
24FA
330
1E
100
AcDbEntity
  8
7
100
AcDbLine
 10
2.237527201824989
 20
6.865632830858584
 30
0.0
 11
2.21256256698247
 21
6.848551764913702
 31
0.0
  0
LINE
  5
24FB
330
1E
100
AcDbEntity
  8
7
100
AcDbLine
 10
2.21256256698247
 20
6.848551764913702
 30
0.0
 11
2.195481501037588
 21
6.823587130071183
 31
0.0
  0
LINE
  5
24FC
330
1E
100
AcDbEntity
  8
7
100
AcDbLine
 10
2.195481501037588
 20
6.823587130071183
 30
0.0
 11
2.188911860289556
 21
6.793366782630237
 31
0.0
  0
LINE
  5
24FD
330
1E
100
AcDbEntity
  8
7
100
AcDbLine
 10
2.188911860289556
 20
4.320554005071183
 30
0.0
 11
2.195481501037588
 21
4.290333657630237
 31
0.0
  0
LINE
  5
24FE
330
1E
100
AcDbEntity
  8
7
100
AcDbLine
 10
2.195481501037588
 20
4.290333657630237
 30
0.0
 11
2.21256256698247
 21
4.265369022787718
 31
0.0
  0
LINE
  5
24FF
330
1E
100
AcDbEntity
  8
7
100
AcDbLine
 10
2.21256256698247
 20
4.265369022787718
 30
0.0
 11
2.237527201824989
 21
4.248287956842836
 31
0.0
  0
LINE
  5
2500
330
1E
100
AcDbEntity
  8
7
100
AcDbLine
 10
2.237527201824989
 20
4.248287956842836
 30
0.0
 11
2.267747549265934
 21
4.241718316094805
 31
0.0
  0
LINE
  5
2501
330
1E
100
AcDbEntity
  8
7
100
AcDbLine
 10
3.473933590604517
 20
4.265369022787718
 30
0.0
 11
3.491014656549399
 21
4.290333657630237
 31
0.0
  0
LINE
  5
2502
330
1E
100
AcDbEntity
  8
7
100
AcDbLine
 10
3.491014656549399
 20
4.290333657630237
 30
0.0
 11
3.49758429729743
 21
4.320554005071183
 31
0.0
  0
LINE
  5
2503
330
1E
100
AcDbEntity
  8
7
100
AcDbLine
 10
3.418748608321052
 20
4.241718316094805
 30
0.0
 11
3.448968955761997
 21
4.248287956842836
 31
0.0
  0
LINE
  5
2504
330
1E
100
AcDbEntity
  8
7
100
AcDbLine
 10
3.448968955761997
 20
4.248287956842836
 30
0.0
 11
3.473933590604517
 21
4.265369022787718
 31
0.0
  0
LINE
  5
2505
330
1E
100
AcDbEntity
  8
7
100
AcDbLine
 10
3.49758429729743
 20
6.793366782630237
 30
0.0
 11
3.491014656549399
 21
6.823587130071183
 31
0.0
  0
LINE
  5
2506
330
1E
100
AcDbEntity
  8
7
100
AcDbLine
 10
3.491014656549399
 20
6.823587130071183
 30
0.0
 11
3.473933590604517
 21
6.848551764913702
 31
0.0
  0
LINE
  5
2507
330
1E
100
AcDbEntity
  8
7
100
AcDbLine
 10
3.473933590604517
 20
6.848551764913702
 30
0.0
 11
3.448968955761997
 21
6.865632830858584
 31
0.0
  0
LINE
  5
2508
330
1E
100
AcDbEntity
  8
7
100
AcDbLine
 10
3.448968955761997
 20
6.865632830858584
 30
0.0
 11
3.418748608321052
 21
6.872202471606615
 31
0.0
  0
LINE
  5
2509
330
1E
100
AcDbEntity
  8
7
100
AcDbLine
 10
1.468879234305304
 20
3.366642168457009
 30
0.0
 11
1.47019316245491
 21
3.361386455858584
 31
0.0
  0
LINE
  5
250A
330
1E
100
AcDbEntity
  8
7
100
AcDbLine
 10
1.47019316245491
 20
3.361386455858584
 30
0.0
 11
1.472821018754123
 21
3.354816815110553
 31
0.0
  0
LINE
  5
250B
330
1E
100
AcDbEntity
  8
7
100
AcDbLine
 10
1.472821018754123
 20
3.354816815110553
 30
0.0
 11
1.476762803202942
 21
3.350875030661734
 31
0.0
  0
LINE
  5
250C
330
1E
100
AcDbEntity
  8
7
100
AcDbLine
 10
1.476762803202942
 20
3.350875030661734
 30
0.0
 11
1.484646372100579
 21
3.342991461764095
 31
0.0
  0
LINE
  5
250D
330
1E
100
AcDbEntity
  8
7
100
AcDbLine
 10
1.484646372100579
 20
3.342991461764095
 30
0.0
 11
1.488588156549399
 21
3.339049677315277
 31
0.0
  0
LINE
  5
250E
330
1E
100
AcDbEntity
  8
7
100
AcDbLine
 10
1.488588156549399
 20
3.339049677315277
 30
0.0
 11
1.492529940998217
 21
3.335107892866458
 31
0.0
  0
LINE
  5
250F
330
1E
100
AcDbEntity
  8
7
100
AcDbLine
 10
1.492529940998217
 20
3.335107892866458
 30
0.0
 11
1.500413509895855
 21
3.32722432396882
 31
0.0
  0
LINE
  5
2510
330
1E
100
AcDbEntity
  8
7
100
AcDbLine
 10
1.500413509895855
 20
3.32722432396882
 30
0.0
 11
1.509611006943099
 21
3.321968611370394
 31
0.0
  0
LINE
  5
2511
330
1E
100
AcDbEntity
  8
7
100
AcDbLine
 10
1.509611006943099
 20
3.321968611370394
 30
0.0
 11
1.524064216588768
 21
3.315398970622363
 31
0.0
  0
LINE
  5
2512
330
1E
100
AcDbEntity
  8
7
100
AcDbLine
 10
1.524064216588768
 20
3.315398970622363
 30
0.0
 11
1.533261713636013
 21
3.314085042472757
 31
0.0
  0
LINE
  5
2513
330
1E
100
AcDbEntity
  8
7
100
AcDbLine
 10
1.478076731352548
 20
7.766987541488505
 30
0.0
 11
1.476762803202942
 21
7.764359685189292
 31
0.0
  0
LINE
  5
2514
330
1E
100
AcDbEntity
  8
7
100
AcDbLine
 10
1.476762803202942
 20
7.764359685189292
 30
0.0
 11
1.475448875053336
 21
7.760417900740474
 31
0.0
  0
LINE
  5
2515
330
1E
100
AcDbEntity
  8
7
100
AcDbLine
 10
1.475448875053336
 20
7.760417900740474
 30
0.0
 11
1.474134946903729
 21
7.756476116291655
 31
0.0
  0
LINE
  5
2516
330
1E
100
AcDbEntity
  8
7
100
AcDbLine
 10
1.474134946903729
 20
7.756476116291655
 30
0.0
 11
1.471507090604516
 21
7.74727861924441
 31
0.0
  0
LINE
  5
2517
330
1E
100
AcDbEntity
  8
7
100
AcDbLine
 10
1.471507090604516
 20
7.74727861924441
 30
0.0
 11
1.47019316245491
 21
7.745964691094805
 31
0.0
  0
LINE
  5
2518
330
1E
100
AcDbEntity
  8
7
100
AcDbLine
 10
1.533261713636013
 20
7.801149673378269
 30
0.0
 11
1.526692072887981
 21
7.801149673378269
 31
0.0
  0
LINE
  5
2519
330
1E
100
AcDbEntity
  8
7
100
AcDbLine
 10
1.526692072887981
 20
7.801149673378269
 30
0.0
 11
1.518808503990343
 21
7.801149673378269
 31
0.0
  0
LINE
  5
251A
330
1E
100
AcDbEntity
  8
7
100
AcDbLine
 10
1.518808503990343
 20
7.801149673378269
 30
0.0
 11
1.510924935092705
 21
7.801149673378269
 31
0.0
  0
LINE
  5
251B
330
1E
100
AcDbEntity
  8
7
100
AcDbLine
 10
1.510924935092705
 20
7.801149673378269
 30
0.0
 11
1.499099581746249
 21
7.798521817079056
 31
0.0
  0
LINE
  5
251C
330
1E
100
AcDbEntity
  8
7
100
AcDbLine
 10
1.499099581746249
 20
7.798521817079056
 30
0.0
 11
1.493843869147824
 21
7.795893960779844
 31
0.0
  0
LINE
  5
251D
330
1E
100
AcDbEntity
  8
7
100
AcDbLine
 10
1.493843869147824
 20
7.795893960779844
 30
0.0
 11
1.488588156549399
 21
7.791952176331026
 31
0.0
  0
LINE
  5
251E
330
1E
100
AcDbEntity
  8
7
100
AcDbLine
 10
1.488588156549399
 20
7.791952176331026
 30
0.0
 11
1.484646372100579
 21
7.788010391882206
 31
0.0
  0
LINE
  5
251F
330
1E
100
AcDbEntity
  8
7
100
AcDbLine
 10
1.484646372100579
 20
7.788010391882206
 30
0.0
 11
1.482018515801367
 21
7.782754679283781
 31
0.0
  0
LINE
  5
2520
330
1E
100
AcDbEntity
  8
7
100
AcDbLine
 10
1.482018515801367
 20
7.782754679283781
 30
0.0
 11
1.480704587651761
 21
7.777498966685356
 31
0.0
  0
LINE
  5
2521
330
1E
100
AcDbEntity
  8
7
100
AcDbLine
 10
1.480704587651761
 20
7.777498966685356
 30
0.0
 11
1.479390659502154
 21
7.770929325937325
 31
0.0
  0
LINE
  5
2522
330
1E
100
AcDbEntity
  8
7
100
AcDbLine
 10
1.479390659502154
 20
7.770929325937325
 30
0.0
 11
1.478076731352548
 21
7.766987541488505
 31
0.0
  0
LINE
  5
2523
330
1E
100
AcDbEntity
  8
7
100
AcDbLine
 10
4.186082647691131
 20
7.795893960779844
 30
0.0
 11
4.180826935092706
 21
7.797207888929451
 31
0.0
  0
LINE
  5
2524
330
1E
100
AcDbEntity
  8
7
100
AcDbLine
 10
4.180826935092706
 20
7.797207888929451
 30
0.0
 11
4.172943366195069
 21
7.798521817079056
 31
0.0
  0
LINE
  5
2525
330
1E
100
AcDbEntity
  8
7
100
AcDbLine
 10
4.172943366195069
 20
7.798521817079056
 30
0.0
 11
4.163745869147824
 21
7.799835745228662
 31
0.0
  0
LINE
  5
2526
330
1E
100
AcDbEntity
  8
7
100
AcDbLine
 10
4.163745869147824
 20
7.799835745228662
 30
0.0
 11
4.153234443950974
 21
7.801149673378269
 31
0.0
  0
LINE
  5
2527
330
1E
100
AcDbEntity
  8
7
100
AcDbLine
 10
4.217616923281682
 20
7.74727861924441
 30
0.0
 11
4.216302995132076
 21
7.753848259992442
 31
0.0
  0
LINE
  5
2528
330
1E
100
AcDbEntity
  8
7
100
AcDbLine
 10
4.216302995132076
 20
7.753848259992442
 30
0.0
 11
4.213675138832863
 21
7.760417900740474
 31
0.0
  0
LINE
  5
2529
330
1E
100
AcDbEntity
  8
7
100
AcDbLine
 10
4.213675138832863
 20
7.760417900740474
 30
0.0
 11
4.209733354384045
 21
7.764359685189292
 31
0.0
  0
LINE
  5
252A
330
1E
100
AcDbEntity
  8
7
100
AcDbLine
 10
4.209733354384045
 20
7.764359685189292
 30
0.0
 11
4.205791569935225
 21
7.768301469638112
 31
0.0
  0
LINE
  5
252B
330
1E
100
AcDbEntity
  8
7
100
AcDbLine
 10
4.205791569935225
 20
7.768301469638112
 30
0.0
 11
4.20447764178562
 21
7.770929325937325
 31
0.0
  0
LINE
  5
252C
330
1E
100
AcDbEntity
  8
7
100
AcDbLine
 10
4.20447764178562
 20
7.770929325937325
 30
0.0
 11
4.203163713636012
 21
7.773557182236537
 31
0.0
  0
LINE
  5
252D
330
1E
100
AcDbEntity
  8
7
100
AcDbLine
 10
4.203163713636012
 20
7.773557182236537
 30
0.0
 11
4.201849785486406
 21
7.77618503853575
 31
0.0
  0
LINE
  5
252E
330
1E
100
AcDbEntity
  8
7
100
AcDbLine
 10
4.201849785486406
 20
7.77618503853575
 30
0.0
 11
4.201849785486406
 21
7.780126822984568
 31
0.0
  0
LINE
  5
252F
330
1E
100
AcDbEntity
  8
7
100
AcDbLine
 10
4.201849785486406
 20
7.780126822984568
 30
0.0
 11
4.199221929187194
 21
7.785382535582993
 31
0.0
  0
LINE
  5
2530
330
1E
100
AcDbEntity
  8
7
100
AcDbLine
 10
4.199221929187194
 20
7.785382535582993
 30
0.0
 11
4.196594072887981
 21
7.790638248181418
 31
0.0
  0
LINE
  5
2531
330
1E
100
AcDbEntity
  8
7
100
AcDbLine
 10
4.196594072887981
 20
7.790638248181418
 30
0.0
 11
4.193966216588769
 21
7.791952176331026
 31
0.0
  0
LINE
  5
2532
330
1E
100
AcDbEntity
  8
7
100
AcDbLine
 10
4.193966216588769
 20
7.791952176331026
 30
0.0
 11
4.191338360289556
 21
7.794580032630237
 31
0.0
  0
LINE
  5
2533
330
1E
100
AcDbEntity
  8
7
100
AcDbLine
 10
4.191338360289556
 20
7.794580032630237
 30
0.0
 11
4.19002443213995
 21
7.795893960779844
 31
0.0
  0
LINE
  5
2534
330
1E
100
AcDbEntity
  8
7
100
AcDbLine
 10
4.19002443213995
 20
7.795893960779844
 30
0.0
 11
4.186082647691131
 21
7.795893960779844
 31
0.0
  0
LINE
  5
2535
330
1E
100
AcDbEntity
  8
7
100
AcDbLine
 10
4.211047282533651
 20
3.340363605464883
 30
0.0
 11
4.216302995132076
 21
3.356130743260159
 31
0.0
  0
LINE
  5
2536
330
1E
100
AcDbEntity
  8
7
100
AcDbLine
 10
4.216302995132076
 20
3.356130743260159
 30
0.0
 11
4.217616923281682
 21
3.366642168457009
 31
0.0
  0
LINE
  5
2537
330
1E
100
AcDbEntity
  8
7
100
AcDbLine
 10
4.217616923281682
 20
3.366642168457009
 30
0.0
 11
4.217616923281682
 21
3.367956096606615
 31
0.0
  0
LINE
  5
2538
330
1E
100
AcDbEntity
  8
7
100
AcDbLine
 10
4.155862300250186
 20
3.310143258023938
 30
0.0
 11
4.161118012848611
 21
3.311457186173544
 31
0.0
  0
LINE
  5
2539
330
1E
100
AcDbEntity
  8
7
100
AcDbLine
 10
4.161118012848611
 20
3.311457186173544
 30
0.0
 11
4.162431940998218
 21
3.312771114323151
 31
0.0
  0
LINE
  5
253A
330
1E
100
AcDbEntity
  8
7
100
AcDbLine
 10
4.162431940998218
 20
3.312771114323151
 30
0.0
 11
4.163745869147824
 21
3.312771114323151
 31
0.0
  0
LINE
  5
253B
330
1E
100
AcDbEntity
  8
7
100
AcDbLine
 10
4.163745869147824
 20
3.312771114323151
 30
0.0
 11
4.166373725447036
 21
3.312771114323151
 31
0.0
  0
LINE
  5
253C
330
1E
100
AcDbEntity
  8
7
100
AcDbLine
 10
4.166373725447036
 20
3.312771114323151
 30
0.0
 11
4.167687653596643
 21
3.312771114323151
 31
0.0
  0
LINE
  5
253D
330
1E
100
AcDbEntity
  8
7
100
AcDbLine
 10
4.167687653596643
 20
3.312771114323151
 30
0.0
 11
4.171629438045461
 21
3.312771114323151
 31
0.0
  0
LINE
  5
253E
330
1E
100
AcDbEntity
  8
7
100
AcDbLine
 10
4.171629438045461
 20
3.312771114323151
 30
0.0
 11
4.17557122249428
 21
3.312771114323151
 31
0.0
  0
LINE
  5
253F
330
1E
100
AcDbEntity
  8
7
100
AcDbLine
 10
4.17557122249428
 20
3.312771114323151
 30
0.0
 11
4.187396575840737
 21
3.316712898771969
 31
0.0
  0
LINE
  5
2540
330
1E
100
AcDbEntity
  8
7
100
AcDbLine
 10
4.187396575840737
 20
3.316712898771969
 30
0.0
 11
4.192652288439162
 21
3.319340755071182
 31
0.0
  0
LINE
  5
2541
330
1E
100
AcDbEntity
  8
7
100
AcDbLine
 10
4.192652288439162
 20
3.319340755071182
 30
0.0
 11
4.197908001037587
 21
3.323282539520002
 31
0.0
  0
LINE
  5
2542
330
1E
100
AcDbEntity
  8
7
100
AcDbLine
 10
4.197908001037587
 20
3.323282539520002
 30
0.0
 11
4.205791569935225
 21
3.331166108417639
 31
0.0
  0
LINE
  5
2543
330
1E
100
AcDbEntity
  8
7
100
AcDbLine
 10
4.205791569935225
 20
3.331166108417639
 30
0.0
 11
4.211047282533651
 21
3.340363605464883
 31
0.0
  0
LINE
  5
2544
330
1E
100
AcDbEntity
  8
7
100
AcDbLine
 10
4.120386240210815
 20
2.232722175346773
 30
0.0
 11
4.154548372100579
 21
2.203815756055434
 31
0.0
  0
LINE
  5
2545
330
1E
100
AcDbEntity
  8
7
100
AcDbLine
 10
4.154548372100579
 20
2.203815756055434
 30
0.0
 11
4.182140863242311
 21
2.16965362416567
 31
0.0
  0
LINE
  5
2546
330
1E
100
AcDbEntity
  8
7
100
AcDbLine
 10
4.182140863242311
 20
2.16965362416567
 30
0.0
 11
4.203163713636012
 21
2.131549707827088
 31
0.0
  0
LINE
  5
2547
330
1E
100
AcDbEntity
  8
7
100
AcDbLine
 10
4.203163713636012
 20
2.131549707827088
 30
0.0
 11
4.21498906698247
 21
2.08819007889008
 31
0.0
  0
LINE
  5
2548
330
1E
100
AcDbEntity
  8
7
100
AcDbLine
 10
4.21498906698247
 20
2.08819007889008
 30
0.0
 11
4.220244779580895
 21
2.044830449953072
 31
0.0
  0
LINE
  5
2549
330
1E
100
AcDbEntity
  8
7
100
AcDbLine
 10
3.994249137848612
 20
2.269512163535749
 30
0.0
 11
4.038922694935226
 21
2.265570379086931
 31
0.0
  0
LINE
  5
254A
330
1E
100
AcDbEntity
  8
7
100
AcDbLine
 10
4.038922694935226
 20
2.265570379086931
 30
0.0
 11
4.080968395722627
 21
2.252431097590868
 31
0.0
  0
LINE
  5
254B
330
1E
100
AcDbEntity
  8
7
100
AcDbLine
 10
4.080968395722627
 20
2.252431097590868
 30
0.0
 11
4.120386240210815
 21
2.232722175346773
 31
0.0
  0
LINE
  5
2554
330
1E
100
AcDbEntity
  8
7
100
AcDbLine
 10
2.749959180171446
 20
2.269512163535749
 30
0.0
 11
2.761784533517903
 21
2.269512163535749
 31
0.0
  0
LINE
  5
2555
330
1E
100
AcDbEntity
  8
7
100
AcDbLine
 10
2.761784533517903
 20
2.269512163535749
 30
0.0
 11
2.807772018754123
 21
2.268198235386143
 31
0.0
  0
LINE
  5
2556
330
1E
100
AcDbEntity
  8
7
100
AcDbLine
 10
2.807772018754123
 20
2.268198235386143
 30
0.0
 11
2.857701288439163
 21
2.268198235386143
 31
0.0
  0
LINE
  5
2557
330
1E
100
AcDbEntity
  8
7
100
AcDbLine
 10
2.857701288439163
 20
2.268198235386143
 30
0.0
 11
2.906316629974595
 21
2.269512163535749
 31
0.0
  0
LINE
  5
2558
330
1E
100
AcDbEntity
  8
7
100
AcDbLine
 10
2.906316629974595
 20
2.269512163535749
 30
0.0
 11
2.93653697741554
 21
2.269512163535749
 31
0.0
  0
LINE
  5
2559
330
1E
100
AcDbEntity
  8
7
100
AcDbLine
 10
1.466251378006091
 20
2.044830449953072
 30
0.0
 11
1.471507090604516
 21
2.089504007039686
 31
0.0
  0
LINE
  5
255A
330
1E
100
AcDbEntity
  8
7
100
AcDbLine
 10
1.471507090604516
 20
2.089504007039686
 30
0.0
 11
1.483332443950973
 21
2.131549707827088
 31
0.0
  0
LINE
  5
255B
330
1E
100
AcDbEntity
  8
7
100
AcDbLine
 10
1.483332443950973
 20
2.131549707827088
 30
0.0
 11
1.504355294344674
 21
2.16965362416567
 31
0.0
  0
LINE
  5
255C
330
1E
100
AcDbEntity
  8
7
100
AcDbLine
 10
1.504355294344674
 20
2.16965362416567
 30
0.0
 11
1.533261713636013
 21
2.203815756055434
 31
0.0
  0
LINE
  5
255D
330
1E
100
AcDbEntity
  8
7
100
AcDbLine
 10
1.526692072887981
 20
2.044830449953072
 30
0.0
 11
1.496471725447036
 21
2.044830449953072
 31
0.0
  0
LINE
  5
255E
330
1E
100
AcDbEntity
  8
7
100
AcDbLine
 10
1.496471725447036
 20
2.044830449953072
 30
0.0
 11
1.474134946903729
 21
2.044830449953072
 31
0.0
  0
LINE
  5
255F
330
1E
100
AcDbEntity
  8
7
100
AcDbLine
 10
1.474134946903729
 20
2.044830449953072
 30
0.0
 11
1.466251378006091
 21
2.044830449953072
 31
0.0
  0
LINE
  5
2560
330
1E
100
AcDbEntity
  8
7
100
AcDbLine
 10
4.220244779580895
 20
2.044830449953072
 30
0.0
 11
4.212361210683257
 21
2.044830449953072
 31
0.0
  0
LINE
  5
2561
330
1E
100
AcDbEntity
  8
7
100
AcDbLine
 10
4.212361210683257
 20
2.044830449953072
 30
0.0
 11
4.19002443213995
 21
2.044830449953072
 31
0.0
  0
LINE
  5
2562
330
1E
100
AcDbEntity
  8
7
100
AcDbLine
 10
4.19002443213995
 20
2.044830449953072
 30
0.0
 11
4.159804084699005
 21
2.044830449953072
 31
0.0
  0
LINE
  5
2563
330
1E
100
AcDbEntity
  8
7
100
AcDbLine
 10
1.665968456746249
 20
2.268198235386143
 30
0.0
 11
1.663340600447036
 21
2.268198235386143
 31
0.0
  0
LINE
  5
2564
330
1E
100
AcDbEntity
  8
7
100
AcDbLine
 10
1.663340600447036
 20
2.268198235386143
 30
0.0
 11
1.638375965604516
 21
2.264256450937324
 31
0.0
  0
LINE
  5
2565
330
1E
100
AcDbEntity
  8
7
100
AcDbLine
 10
1.638375965604516
 20
2.264256450937324
 30
0.0
 11
1.61603918706121
 21
2.256372882039686
 31
0.0
  0
LINE
  5
2566
330
1E
100
AcDbEntity
  8
7
100
AcDbLine
 10
1.61603918706121
 20
2.256372882039686
 30
0.0
 11
1.596330264817115
 21
2.248489313142048
 31
0.0
  0
LINE
  5
2567
330
1E
100
AcDbEntity
  8
7
100
AcDbLine
 10
1.596330264817115
 20
2.248489313142048
 30
0.0
 11
1.57662134257302
 21
2.237977887945198
 31
0.0
  0
LINE
  5
2568
330
1E
100
AcDbEntity
  8
7
100
AcDbLine
 10
1.57662134257302
 20
2.237977887945198
 30
0.0
 11
1.556912420328926
 21
2.224838606449135
 31
0.0
  0
LINE
  5
2569
330
1E
100
AcDbEntity
  8
7
100
AcDbLine
 10
1.556912420328926
 20
2.224838606449135
 30
0.0
 11
1.534575641785619
 21
2.206443612354647
 31
0.0
  0
LINE
  5
256A
330
1E
100
AcDbEntity
  8
7
100
AcDbLine
 10
1.534575641785619
 20
2.206443612354647
 30
0.0
 11
1.533261713636013
 21
2.205129684205041
 31
0.0
  0
LINE
  5
256B
330
1E
100
AcDbEntity
  8
7
100
AcDbLine
 10
4.203163713636012
 20
2.131549707827088
 30
0.0
 11
4.21498906698247
 21
2.08819007889008
 31
0.0
  0
LINE
  5
256C
330
1E
100
AcDbEntity
  8
7
100
AcDbLine
 10
4.21498906698247
 20
2.08819007889008
 30
0.0
 11
4.220244779580895
 21
2.044830449953072
 31
0.0
  0
LINE
  5
256D
330
1E
100
AcDbEntity
  8
7
100
AcDbLine
 10
3.994249137848612
 20
2.269512163535749
 30
0.0
 11
4.038922694935226
 21
2.265570379086931
 31
0.0
  0
LINE
  5
256E
330
1E
100
AcDbEntity
  8
7
100
AcDbLine
 10
4.038922694935226
 20
2.265570379086931
 30
0.0
 11
4.080968395722627
 21
2.252431097590868
 31
0.0
  0
LINE
  5
256F
330
1E
100
AcDbEntity
  8
7
100
AcDbLine
 10
4.080968395722627
 20
2.252431097590868
 30
0.0
 11
4.120386240210815
 21
2.232722175346773
 31
0.0
  0
LINE
  5
2570
330
1E
100
AcDbEntity
  8
7
100
AcDbLine
 10
4.120386240210815
 20
2.232722175346773
 30
0.0
 11
4.154548372100579
 21
2.203815756055434
 31
0.0
  0
LINE
  5
2571
330
1E
100
AcDbEntity
  8
7
100
AcDbLine
 10
4.154548372100579
 20
2.203815756055434
 30
0.0
 11
4.182140863242311
 21
2.16965362416567
 31
0.0
  0
LINE
  5
2572
330
1E
100
AcDbEntity
  8
7
100
AcDbLine
 10
4.182140863242311
 20
2.16965362416567
 30
0.0
 11
4.203163713636012
 21
2.131549707827088
 31
0.0
  0
LINE
  5
2579
330
1E
100
AcDbEntity
  8
7
100
AcDbLine
 10
4.220244779580895
 20
2.044830449953072
 30
0.0
 11
4.212361210683257
 21
2.044830449953072
 31
0.0
  0
LINE
  5
257A
330
1E
100
AcDbEntity
  8
7
100
AcDbLine
 10
4.212361210683257
 20
2.044830449953072
 30
0.0
 11
4.19002443213995
 21
2.044830449953072
 31
0.0
  0
LINE
  5
257B
330
1E
100
AcDbEntity
  8
7
100
AcDbLine
 10
4.19002443213995
 20
2.044830449953072
 30
0.0
 11
4.159804084699005
 21
2.044830449953072
 31
0.0
  0
LINE
  5
2605
330
1E
100
AcDbEntity
  8
3
100
AcDbLine
 10
2.785435240210816
 20
7.514713336764096
 30
0.0
 11
2.772295958714753
 21
7.489748701921577
 31
0.0
  0
LINE
  5
2606
330
1E
100
AcDbEntity
  8
3
100
AcDbLine
 10
2.772295958714753
 20
7.489748701921577
 30
0.0
 11
2.768354174265934
 21
7.462156210779843
 31
0.0
  0
LINE
  5
2607
330
1E
100
AcDbEntity
  8
3
100
AcDbLine
 10
2.768354174265934
 20
7.462156210779843
 30
0.0
 11
2.774923815013965
 21
7.434563719638111
 31
0.0
  0
LINE
  5
2608
330
1E
100
AcDbEntity
  8
3
100
AcDbLine
 10
2.774923815013965
 20
7.434563719638111
 30
0.0
 11
2.792004880958848
 21
7.410913012945199
 31
0.0
  0
LINE
  5
2609
330
1E
100
AcDbEntity
  8
3
100
AcDbLine
 10
2.792004880958848
 20
7.410913012945199
 30
0.0
 11
2.815655587651761
 21
7.39645980329953
 31
0.0
  0
LINE
  5
260A
330
1E
100
AcDbEntity
  8
3
100
AcDbLine
 10
2.815655587651761
 20
7.39645980329953
 30
0.0
 11
2.843248078793493
 21
7.391204090701104
 31
0.0
  0
LINE
  5
260B
330
1E
100
AcDbEntity
  8
3
100
AcDbLine
 10
2.843248078793493
 20
7.540991899756221
 30
0.0
 11
2.841934150643887
 21
7.540991899756221
 31
0.0
  0
LINE
  5
260C
330
1E
100
AcDbEntity
  8
3
100
AcDbLine
 10
2.841934150643887
 20
7.540991899756221
 30
0.0
 11
2.84062022249428
 21
7.540991899756221
 31
0.0
  0
ENDSEC
  0
SECTION
  2
OBJECTS
  0
DICTIONARY
  5
C
330
0
100
AcDbDictionary
  3
ACAD_GROUP
350
D
  3
ACAD_LAYOUT
350
19
  3
ACAD_MLINESTYLE
350
16
  3
ACAD_PLOTSETTINGS
350
18
1001
ACAD
1000
TREAT_AS_HARD
1070
     0
  0
DICTIONARY
  5
3576
330
1E
100
AcDbDictionary
  3
ACAD_LAYOUTSELFREF
350
35FB
1001
ACAD
1000
TREAT_AS_HARD
1070
     1
  0
DICTIONARY
  5
3578
330
1A
100
AcDbDictionary
  3
ACAD_LAYOUTSELFREF
350
35FA
1001
ACAD
1000
TREAT_AS_HARD
1070
     1
  0
DICTIONARY
  5
D
102
{ACAD_REACTORS
330
C
102
}
330
C
100
AcDbDictionary
1001
ACAD
1000
TREAT_AS_HARD
1070
     0
  0
DICTIONARY
  5
19
102
{ACAD_REACTORS
330
C
102
}
330
C
100
AcDbDictionary
1001
ACAD
1000
TREAT_AS_HARD
1070
     0
  0
DICTIONARY
  5
16
102
{ACAD_REACTORS
330
C
102
}
330
C
100
AcDbDictionary
  3
STANDARD
350
17
1001
ACAD
1000
TREAT_AS_HARD
1070
     0
  0
DICTIONARY
  5
18
102
{ACAD_REACTORS
330
C
102
}
330
C
100
AcDbDictionary
1001
ACAD
1000
TREAT_AS_HARD
1070
     0
  0
XRECORD
  5
35FB
102
{ACAD_REACTORS
330
3576
102
}
330
3576
100
AcDbXrecord
340
1E
  0
XRECORD
  5
35FA
102
{ACAD_REACTORS
330
3578
102
}
330
3578
100
AcDbXrecord
340
1A
  0
MLINESTYLE
  5
17
102
{ACAD_REACTORS
330
16
102
}
330
16
100
AcDbMlineStyle
  2
STANDARD
 70
     0
  3

 62
   256
 51
90.0
 52
90.0
 71
     2
 49
0.5
 62
   256
  6
BYLAYER
 49
-0.5
 62
   256
  6
BYLAYER
  0
ENDSEC
  0
EOF
